999
DXF file: ZHL_assy_2.dxf
999
Pro/ENGINEER 2014200 by Parametric Technology Corporation
  0
SECTION
  2
HEADER
  9
$ACADVER
  1
AC1021
  9
$DWGCODEPAGE
  3
ANSI_1252
  9
$EXTMAX
 10
22.0
 20
17.0
 30
0.0
  9
$EXTMIN
 10
0.0
 20
0.0
 30
0.0
  9
$LIMMIN
 10
0.0
 20
0.0
  9
$LIMMAX
 10
22.0
 20
17.0
  9
$VIEWCTR
 10
11.0
 20
8.5
  9
$VIEWSIZE
 40
17.0
  9
$CLAYER
  8
0
  9
$LTSCALE
 40
1.21
  9
$CELTYPE
  6
BYLAYER
  9
$DIMSCALE
 40
1.0
  9
$DIMASZ
 40
0.1875
  9
$DIMEXO
 40
0.0625
  9
$DIMDLI
 40
0.836
  9
$DIMEXE
 40
0.125
  9
$DIMCEN
 40
0.198
  9
$DIMLFAC
 40
1.0
  9
$DIMBLK
  1
_FILLED
  9
$DIMTXT
 40
0.1
  9
$DIMTOL
 70
0
  9
$DIMLIM
 70
0
  9
$DIMTFAC
 40
1.0
  9
$DIMGAP
 40
0.09
  9
$DIMDSEP
 70
46
  9
$AUNITS
 70
0
  9
$PDMODE
 70
3
  9
$PDSIZE
 40
0.3125
  9
$HANDSEED
  5
3D0
  9
$TILEMODE
 70
1
  9
$MEASUREMENT
 70
0
  9
$INSUNITS
 70
1
  0
ENDSEC
  0
SECTION
  2
CLASSES
  0
CLASS
  1
ACDBDICTIONARYWDFLT
  2
AcDbDictionaryWithDefault
  3
AutoCAD 2000
 90
0
 91
1
280
0
281
0
  0
CLASS
  1
ACDBPLACEHOLDER
  2
AcDbPlaceHolder
  3
AutoCAD 2000
 90
0
 91
1
280
0
281
0
  0
CLASS
  1
LAYOUT
  2
AcDbLayout
  3
AutoCAD 2000
 90
0
 91
0
280
0
281
0
  0
CLASS
  1
RASTERVARIABLES
  2
AcDbRasterVariables
  3
ISM
 90
0
 91
1
280
0
281
0
  0
CLASS
  1
IMAGEDEF
  2
AcDbRasterImageDef
  3
ISM
 90
0
 91
1
280
0
281
0
  0
CLASS
  1
IMAGEDEF_REACTOR
  2
AcDbRasterImageDefReactor
  3
ISM
 90
0
 91
1
280
0
281
0
  0
CLASS
  1
IMAGE
  2
AcDbRasterImage
  3
ISM
 90
127
 91
1
280
0
281
1
  0
CLASS
  1
TABLESTYLE
  2
AcDbTableStyle
  3
ObjectDBX Classes
 90
2047
 91
1
280
0
281
0
  0
CLASS
  1
ACAD_TABLE
  2
AcDbTable
  3
ObjectDBX Classes
 90
1025
 91
3
280
0
281
1
  0
ENDSEC
  0
SECTION
  2
TABLES
  0
TABLE
  2
VPORT
  5
8
100
AcDbSymbolTable
 70
2
  0
VPORT
  5
1F4
100
AcDbSymbolTableRecord
100
AcDbViewportTableRecord
  2
*ACTIVE
 70
0
 10
0.0
 20
0.0
 11
1.0
 21
1.0
 12
11.0
 22
8.5
 13
0.0
 23
0.0
 14
1.0
 24
1.0
 15
0.0
 25
0.0
 16
0.0
 26
0.0
 36
1.0
 17
0.0
 27
0.0
 37
0.0
 40
17.0
 41
1.2941176471
 42
50.0
 43
0.0
 44
0.0
 50
0.0
 51
0.0
 71
0
 72
100
 73
1
 74
1
 75
0
 76
0
 77
0
 78
0
  0
ENDTAB
  0
TABLE
  2
LTYPE
  5
5
100
AcDbSymbolTable
 70
6
  0
LTYPE
  5
14
100
AcDbSymbolTableRecord
100
AcDbLinetypeTableRecord
  2
BYBLOCK
 70
0
  3

 72
65
 73
0
 40
0.0
  0
LTYPE
  5
15
100
AcDbSymbolTableRecord
100
AcDbLinetypeTableRecord
  2
BYLAYER
 70
0
  3

 72
65
 73
0
 40
0.0
  0
LTYPE
  5
16
100
AcDbSymbolTableRecord
100
AcDbLinetypeTableRecord
  2
CONTINUOUS
 70
64
  3
Solid line
 72
65
 73
0
 40
0.0
  0
LTYPE
  5
1F5
100
AcDbSymbolTableRecord
100
AcDbLinetypeTableRecord
  2
CENTER
 70
64
  3
____ _ ____ _ ____ _ ____ _ ____ _ ____ _ ____
 72
65
 73
4
 40
0.6
 49
0.375
 74
0
 49
-0.075
 74
0
 49
0.075
 74
0
 49
-0.075
 74
0
  0
LTYPE
  5
1F6
100
AcDbSymbolTableRecord
100
AcDbLinetypeTableRecord
  2
HIDDEN
 70
64
  3
- - - - - - - - - - - - - - - - - - - -
 72
65
 73
2
 40
0.2
 49
0.1
 74
0
 49
-0.1
 74
0
  0
LTYPE
  5
1F7
100
AcDbSymbolTableRecord
100
AcDbLinetypeTableRecord
  2
PHANTOM
 70
64
  3
_____ _ _ _____ _ _ _____ _ _ _____
 72
65
 73
6
 40
0.8
 49
0.45
 74
0
 49
-0.05
 74
0
 49
0.1
 74
0
 49
-0.05
 74
0
 49
0.1
 74
0
 49
-0.05
 74
0
  0
LTYPE
  5
1F8
100
AcDbSymbolTableRecord
100
AcDbLinetypeTableRecord
  2
DOT
 70
64
  3
. . . . . . . . . . . . . . . . . . . .
 72
65
 73
2
 40
0.2
 49
0.1
 74
0
 49
-0.1
 74
0
  0
LTYPE
  5
1F9
100
AcDbSymbolTableRecord
100
AcDbLinetypeTableRecord
  2
DASHED
 70
64
  3
- - - - - - - - - - - - - - - - - - - -
 72
65
 73
2
 40
0.2
 49
0.1
 74
0
 49
-0.1
 74
0
  0
ENDTAB
  0
TABLE
  2
LAYER
  5
2
100
AcDbSymbolTable
 70
36
  0
LAYER
  5
10
100
AcDbSymbolTableRecord
100
AcDbLayerTableRecord
  2
0
 70
0
 62
7
  6
CONTINUOUS
370
-3
390
F
  0
LAYER
  5
1FA
100
AcDbSymbolTableRecord
100
AcDbLayerTableRecord
  2
DEFAULT_1
 70
0
 62
7
  6
CENTER
370
-3
390
F
  0
LAYER
  5
1FB
100
AcDbSymbolTableRecord
100
AcDbLayerTableRecord
  2
DEFAULT_2
 70
0
 62
8
  6
HIDDEN
370
-3
390
F
  0
LAYER
  5
1FC
100
AcDbSymbolTableRecord
100
AcDbLayerTableRecord
  2
DEFAULT_3
 70
0
 62
7
  6
PHANTOM
370
-3
390
F
  0
LAYER
  5
1FD
100
AcDbSymbolTableRecord
100
AcDbLayerTableRecord
  2
DATUM_PLANES
 70
0
 62
7
  6
CONTINUOUS
370
-3
390
F
  0
LAYER
  5
1FE
100
AcDbSymbolTableRecord
100
AcDbLayerTableRecord
  2
PORT_AREAS
 70
0
 62
7
  6
CONTINUOUS
370
-3
390
F
  0
LAYER
  5
1FF
100
AcDbSymbolTableRecord
100
AcDbLayerTableRecord
  2
SUNNBOMCOSMETIC
 70
0
 62
7
  6
CONTINUOUS
370
-3
390
F
  0
LAYER
  5
200
100
AcDbSymbolTableRecord
100
AcDbLayerTableRecord
  2
SUNNBOMSTAMPING
 70
0
 62
7
  6
CONTINUOUS
370
-3
390
F
  0
LAYER
  5
201
100
AcDbSymbolTableRecord
100
AcDbLayerTableRecord
  2
THREADS
 70
0
 62
7
  6
CONTINUOUS
370
-3
390
F
  0
ENDTAB
  0
TABLE
  2
STYLE
  5
3
100
AcDbSymbolTable
 70
1
  0
STYLE
  5
11
100
AcDbSymbolTableRecord
100
AcDbTextStyleTableRecord
  2
STANDARD
 70
0
 40
0.0
 41
0.8
 50
0.0
 71
0
 42
0.2
  3
txt
  4

  0
STYLE
  5
202
100
AcDbSymbolTableRecord
100
AcDbTextStyleTableRecord
  2
TEXTSTYLE_1
 70
0
 40
0.0
 41
0.8
 50
0.0
 71
0
 42
0.2
  3
gdt
  4

  0
ENDTAB
  0
TABLE
  2
VIEW
  5
6
100
AcDbSymbolTable
 70
0
  0
ENDTAB
  0
TABLE
  2
UCS
  5
7
100
AcDbSymbolTable
 70
0
  0
ENDTAB
  0
TABLE
  2
APPID
  5
9
100
AcDbSymbolTable
 70
1
  0
APPID
  5
203
100
AcDbSymbolTableRecord
100
AcDbRegAppTableRecord
  2
ACAD
 70
0
  0
ENDTAB
  0
TABLE
  2
BLOCK_RECORD
  5
1
100
AcDbSymbolTable
 70
0
  0
BLOCK_RECORD
  5
204
100
AcDbSymbolTableRecord
100
AcDbBlockTableRecord
  2
*Model_Space
  0
BLOCK_RECORD
  5
205
100
AcDbSymbolTableRecord
100
AcDbBlockTableRecord
  2
*Paper_Space
  0
BLOCK_RECORD
  5
206
100
AcDbSymbolTableRecord
100
AcDbBlockTableRecord
  2
SUN_FIRST_THIRD_ANGLE_BL0
  0
BLOCK_RECORD
  5
207
100
AcDbSymbolTableRecord
100
AcDbBlockTableRecord
  2
*T1
  0
BLOCK_RECORD
  5
208
100
AcDbSymbolTableRecord
100
AcDbBlockTableRecord
  2
*T2
  0
BLOCK_RECORD
  5
209
100
AcDbSymbolTableRecord
100
AcDbBlockTableRecord
  2
*T3
  0
ENDTAB
  0
TABLE
  2
DIMSTYLE
  5
A
100
AcDbSymbolTable
 70
1
100
AcDbDimStyleTable
 71
0
  0
DIMSTYLE
105
20A
100
AcDbSymbolTableRecord
100
AcDbDimStyleTableRecord
  2
STANDARD
 70
0
  3

  4

 40
1.0
 41
0.1875
 42
0.0625
 43
0.38
 44
0.125
 45
0.0
 46
0.0
 47
0.001
 48
0.001
140
0.1
141
0.09
142
0.0
143
25.4
144
1.0
145
0.0
146
1.0
147
0.09
 71
0.0
 72
0.0
 73
1
 74
1
 75
0
 76
0
 77
0
 78
4
170
0
171
2
172
0
173
0
174
0
175
0
176
0
177
0
178
0
270
2
271
3
272
3
273
2
274
2
275
0
280
0
281
0
282
0
283
1
284
4
285
0
286
0
287
3
288
0
340
11
278
46
  0
ENDTAB
  0
ENDSEC
  0
SECTION
  2
BLOCKS
  0
BLOCK
  5
20
100
AcDbEntity
  8
0
100
AcDbBlockBegin
  2
*Model_Space
 70
0
 10
0.0
 20
0.0
 30
0.0
  3
*Model_Space
  1

  0
ENDBLK
  5
21
100
AcDbEntity
  8
0
100
AcDbBlockEnd
  0
BLOCK
  5
1C
100
AcDbEntity
  8
0
100
AcDbBlockBegin
  2
*Paper_Space
 70
0
 10
0.0
 20
0.0
 30
0.0
  3
*Paper_Space
  1

  0
ENDBLK
  5
1D
100
AcDbEntity
  8
0
100
AcDbBlockEnd
  0
BLOCK
  5
20B
100
AcDbEntity
  8
0
100
AcDbBlockBegin
 62
2
  6
CONTINUOUS
  2
SUN_FIRST_THIRD_ANGLE_BL0
 70
64
 10
20.4816717061
 20
1.2289683772
  3
SUN_FIRST_THIRD_ANGLE_BL0
  1

  0
TEXT
  5
20C
100
AcDbEntity
  8
0
100
AcDbText
 62
2
  6
CONTINUOUS
 10
19.4750896608
 20
1.4136269581
  7
STANDARD
 40
0.08
  1
FIRST ANGLE
 41
0.8
 72
0
100
AcDbText
  0
TEXT
  5
20D
100
AcDbEntity
  8
0
100
AcDbText
 62
2
  6
CONTINUOUS
 10
20.7842537513
 20
1.4047600029
  7
STANDARD
 40
0.08
  1
THIRD ANGLE
 41
0.8
 72
0
100
AcDbText
  0
LINE
  5
20E
100
AcDbEntity
  8
0
100
AcDbLine
 62
7
  6
CONTINUOUS
 10
19.4767170086
 20
1.1727031207
 11
19.6334271527
 21
1.1717972817
  0
LINE
  5
20F
100
AcDbEntity
  8
0
100
AcDbLine
 62
7
  6
CONTINUOUS
 10
19.6596964832
 20
1.1717972817
 11
19.6950230232
 21
1.171593082
  0
LINE
  5
210
100
AcDbEntity
  8
0
100
AcDbLine
 62
7
  6
CONTINUOUS
 10
19.7194818561
 20
1.1708914427
 11
19.8852396156
 21
1.1699333054
  0
LINE
  5
211
100
AcDbEntity
  8
0
100
AcDbLine
 62
7
  6
CONTINUOUS
 10
19.4758111696
 20
1.2723454088
 11
19.88525039
 21
1.3511534004
  0
LINE
  5
212
100
AcDbEntity
  8
0
100
AcDbLine
 62
7
  6
CONTINUOUS
 10
19.88525039
 20
1.3511534004
 11
19.8831348489
 21
0.9851647912
  0
LINE
  5
213
100
AcDbEntity
  8
0
100
AcDbLine
 62
7
  6
CONTINUOUS
 10
19.8831348489
 20
0.9851647912
 11
19.4767170086
 21
1.0658141206
  0
LINE
  5
214
100
AcDbEntity
  8
0
100
AcDbLine
 62
7
  6
CONTINUOUS
 10
19.4767170086
 20
1.0658141206
 11
19.4779056764
 21
1.2714536432
  0
CIRCLE
  5
215
100
AcDbEntity
  8
0
100
AcDbCircle
 62
7
  6
CONTINUOUS
 10
20.2068232291
 20
1.1717972817
 40
0.175742101
  0
CIRCLE
  5
216
100
AcDbEntity
  8
0
100
AcDbCircle
 62
7
  6
CONTINUOUS
 10
20.2068232291
 20
1.1717972817
 40
0.1005522074
  0
LINE
  5
217
100
AcDbEntity
  8
0
100
AcDbLine
 62
7
  6
CONTINUOUS
 10
20.2077290681
 20
1.3756110529
 11
20.2071171714
 21
1.2379342989
  0
LINE
  5
218
100
AcDbEntity
  8
0
100
AcDbLine
 62
7
  6
CONTINUOUS
 10
20.2077290681
 20
1.2016899681
 11
20.2074674401
 21
1.1428236749
  0
LINE
  5
219
100
AcDbEntity
  8
0
100
AcDbLine
 62
7
  6
CONTINUOUS
 10
20.208634907
 20
1.101141841
 11
20.2080230104
 21
0.963465087
  0
LINE
  5
21A
100
AcDbEntity
  8
0
100
AcDbLine
 62
7
  6
CONTINUOUS
 10
20.0066328138
 20
1.1745147986
 11
20.1443095678
 21
1.1739029019
  0
LINE
  5
21B
100
AcDbEntity
  8
0
100
AcDbLine
 62
7
  6
CONTINUOUS
 10
20.1832714155
 20
1.1727031207
 11
20.238153505
 21
1.172335442
  0
LINE
  5
21C
100
AcDbEntity
  8
0
100
AcDbLine
 62
7
  6
CONTINUOUS
 10
20.2756669918
 20
1.1717972817
 11
20.407916871
 21
1.1712095044
  0
CIRCLE
  5
21D
100
AcDbEntity
  8
0
100
AcDbCircle
 62
7
  6
CONTINUOUS
 10
20.7509457401
 20
1.1693297793
 40
0.1722024983
  0
CIRCLE
  5
21E
100
AcDbEntity
  8
0
100
AcDbCircle
 62
7
  6
CONTINUOUS
 10
20.7509457401
 20
1.1693297793
 40
0.0985164967
  0
LINE
  5
21F
100
AcDbEntity
  8
0
100
AcDbLine
 62
7
  6
CONTINUOUS
 10
20.7169767782
 20
1.170462078
 11
20.7825395137
 21
1.1682766535
  0
LINE
  5
220
100
AcDbEntity
  8
0
100
AcDbLine
 62
7
  6
CONTINUOUS
 10
20.8177513651
 20
1.1693297793
 11
20.947965719
 21
1.1693297793
  0
LINE
  5
221
100
AcDbEntity
  8
0
100
AcDbLine
 62
7
  6
CONTINUOUS
 10
20.6875370113
 20
1.170462078
 11
20.5573226574
 21
1.170462078
  0
LINE
  5
222
100
AcDbEntity
  8
0
100
AcDbLine
 62
7
  6
CONTINUOUS
 10
20.7486811426
 20
1.1987695462
 11
20.7486811426
 21
1.1432869085
  0
LINE
  5
223
100
AcDbEntity
  8
0
100
AcDbLine
 62
7
  6
CONTINUOUS
 10
20.7498134414
 20
1.1059210505
 11
20.7498134414
 21
0.9757066966
  0
LINE
  5
224
100
AcDbEntity
  8
0
100
AcDbLine
 62
7
  6
CONTINUOUS
 10
20.7486811426
 20
1.2338708068
 11
20.7486811426
 21
1.3640851607
  0
LINE
  5
225
100
AcDbEntity
  8
0
100
AcDbLine
 62
7
  6
CONTINUOUS
 10
21.0702539817
 20
1.2701043662
 11
21.4790138229
 21
1.3448360823
  0
LINE
  5
226
100
AcDbEntity
  8
0
100
AcDbLine
 62
7
  6
CONTINUOUS
 10
21.4790138229
 20
1.3448360823
 11
21.4790138229
 21
0.9779712941
  0
LINE
  5
227
100
AcDbEntity
  8
0
100
AcDbLine
 62
7
  6
CONTINUOUS
 10
21.4790138229
 20
0.9779712941
 11
21.069121683
 21
1.0617614
  0
LINE
  5
228
100
AcDbEntity
  8
0
100
AcDbLine
 62
7
  6
CONTINUOUS
 10
21.0702539817
 20
1.2701043662
 11
21.069121683
 21
1.0617614
  0
LINE
  5
229
100
AcDbEntity
  8
0
100
AcDbLine
 62
7
  6
CONTINUOUS
 10
21.4790138229
 20
1.1693297793
 11
21.3159628059
 21
1.1693297793
  0
LINE
  5
22A
100
AcDbEntity
  8
0
100
AcDbLine
 62
7
  6
CONTINUOUS
 10
21.2876553377
 20
1.1693297793
 11
21.2502894796
 21
1.1693297793
  0
LINE
  5
22B
100
AcDbEntity
  8
0
100
AcDbLine
 62
7
  6
CONTINUOUS
 10
21.2208497126
 20
1.1659328831
 11
21.0713862804
 21
1.1659328831
  0
LINE
  5
22C
100
AcDbEntity
  8
0
100
AcDbLine
 62
7
  6
CONTINUOUS
 10
20.4796138713
 20
1.5284908897
 11
20.4766766948
 21
0.9294458646
  0
ENDBLK
  5
22D
100
AcDbEntity
  8
0
  6
BYBLOCK
 62
0
100
AcDbBlockEnd
  0
BLOCK
  5
22E
100
AcDbEntity
  8
0
100
AcDbBlockBegin
  2
*T1
 70
1
 10
0.0
 20
0.0
  3
*T1
  1

  0
LINE
  5
22F
100
AcDbEntity
  8
0
100
AcDbLine
 62
2
  6
CONTINUOUS
 10
9.275
 20
0.0
 11
-0.0
 21
0.0
  0
LINE
  5
230
100
AcDbEntity
  8
0
100
AcDbLine
 62
2
  6
CONTINUOUS
 10
9.275
 20
0.0
 11
9.275
 21
1.25
  0
LINE
  5
231
100
AcDbEntity
  8
0
100
AcDbLine
 62
2
  6
CONTINUOUS
 10
9.275
 20
0.625
 11
-0.0
 21
0.625
  0
LINE
  5
232
100
AcDbEntity
  8
0
100
AcDbLine
 62
2
  6
CONTINUOUS
 10
9.275
 20
1.25
 11
-0.0
 21
1.25
  0
LINE
  5
233
100
AcDbEntity
  8
0
100
AcDbLine
 62
2
  6
CONTINUOUS
 10
6.8
 20
0.0
 11
6.8
 21
1.25
  0
LINE
  5
234
100
AcDbEntity
  8
0
100
AcDbLine
 62
2
  6
CONTINUOUS
 10
6.4
 20
0.0
 11
6.4
 21
0.625
  0
LINE
  5
235
100
AcDbEntity
  8
0
100
AcDbLine
 62
2
  6
CONTINUOUS
 10
5.9
 20
0.0
 11
5.9
 21
0.625
  0
LINE
  5
236
100
AcDbEntity
  8
0
100
AcDbLine
 62
2
  6
CONTINUOUS
 10
5.2
 20
0.0
 11
5.2
 21
0.625
  0
LINE
  5
237
100
AcDbEntity
  8
0
100
AcDbLine
 62
2
  6
CONTINUOUS
 10
4.1
 20
0.0
 11
4.1
 21
1.25
  0
LINE
  5
238
100
AcDbEntity
  8
0
100
AcDbLine
 62
2
  6
CONTINUOUS
 10
-0.0
 20
0.0
 11
-0.0
 21
1.25
  0
MTEXT
  5
239
100
AcDbEntity
  8
0
100
AcDbMText
 62
2
  6
CONTINUOUS
  7
STANDARD
 71
2
 72
1
 10
6.6
 20
0.325
 30
0.0
 11
1.0
 21
0.0
 31
0.0
 44
0.9
  1
2
 40
0.125
 41
0.2
  0
MTEXT
  5
23A
100
AcDbEntity
  8
0
100
AcDbMText
 62
2
  6
CONTINUOUS
  7
STANDARD
 71
2
 72
1
 10
6.15
 20
0.325
 30
0.0
 11
1.0
 21
0.0
 31
0.0
 44
0.9
  1
C
 40
0.125
 41
0.2
  0
MTEXT
  5
23B
100
AcDbEntity
  8
0
100
AcDbMText
 62
2
  6
CONTINUOUS
  7
STANDARD
 71
2
 72
1
 10
5.55
 20
0.325
 30
0.0
 11
1.0
 21
0.0
 31
0.0
 44
0.9
  1
1.000
 40
0.125
 41
1.0
  0
MTEXT
  5
23C
100
AcDbEntity
  8
0
100
AcDbMText
 62
2
  6
CONTINUOUS
  7
STANDARD
 71
2
 72
1
 10
4.65
 20
0.325
 30
0.0
 11
1.0
 21
0.0
 31
0.0
 44
0.9
  1
Dec-07-20
 40
0.125
 41
1.8
  0
MTEXT
  5
23D
100
AcDbEntity
  8
0
100
AcDbMText
 62
2
  6
CONTINUOUS
  7
STANDARD
 71
2
 72
1
 10
2.05
 20
0.4625
 30
0.0
 11
1.0
 21
0.0
 31
0.0
 44
0.9
  1
T-10A Subplate ISO 05 - X&Y (US)\PP to T, side ports
 40
0.125
 41
6.4
  0
MTEXT
  5
23E
100
AcDbEntity
  8
0
100
AcDbMText
 62
2
  6
CONTINUOUS
  7
STANDARD
 71
1
 72
1
 10
6.45
 20
0.5625
 30
0.0
 11
1.0
 21
0.0
 31
0.0
 44
0.9
  1
SHEET
 40
0.06
 41
0.48
  0
MTEXT
  5
23F
100
AcDbEntity
  8
0
100
AcDbMText
 62
2
  6
CONTINUOUS
  7
STANDARD
 71
1
 72
1
 10
5.95
 20
0.5625
 30
0.0
 11
1.0
 21
0.0
 31
0.0
 44
0.9
  1
DWG SIZE
 40
0.06
 41
0.768
  0
MTEXT
  5
240
100
AcDbEntity
  8
0
100
AcDbMText
 62
2
  6
CONTINUOUS
  7
STANDARD
 71
1
 72
1
 10
5.25
 20
0.5625
 30
0.0
 11
1.0
 21
0.0
 31
0.0
 44
0.9
  1
SCALE
 40
0.06
 41
0.48
  0
MTEXT
  5
241
100
AcDbEntity
  8
0
100
AcDbMText
 62
2
  6
CONTINUOUS
  7
STANDARD
 71
1
 72
1
 10
4.15
 20
0.5625
 30
0.0
 11
1.0
 21
0.0
 31
0.0
 44
0.9
  1
DATE
 40
0.06
 41
0.384
  0
MTEXT
  5
242
100
AcDbEntity
  8
0
100
AcDbMText
 62
2
  6
CONTINUOUS
  7
STANDARD
 71
1
 72
1
 10
0.05
 20
0.5625
 30
0.0
 11
1.0
 21
0.0
 31
0.0
 44
0.9
  1
DESCRIPTION
 40
0.06
 41
1.056
  0
MTEXT
  5
243
100
AcDbEntity
  8
0
100
AcDbMText
 62
2
  6
CONTINUOUS
  7
STANDARD
 71
2
 72
1
 10
5.45
 20
1.0375
 30
0.0
 11
1.0
 21
0.0
 31
0.0
 44
0.9
  1
ALL DIMENSIONS IN INCH\PVIEWS ARE THIRD ANGLE
 40
0.12
 41
4.224
  0
MTEXT
  5
244
100
AcDbEntity
  8
0
100
AcDbMText
 62
2
  6
CONTINUOUS
  7
STANDARD
 71
2
 72
1
 10
2.05
 20
0.95
 30
0.0
 11
1.0
 21
0.0
 31
0.0
 44
0.9
  1
ZHL
 40
0.125
 41
0.6
  0
MTEXT
  5
245
100
AcDbEntity
  8
0
100
AcDbMText
 62
2
  6
CONTINUOUS
  7
STANDARD
 71
1
 72
1
 10
0.05
 20
1.1875
 30
0.0
 11
1.0
 21
0.0
 31
0.0
 44
0.9
  1
MODEL
 40
0.06
 41
0.48
  0
ENDBLK
  5
246
100
AcDbEntity
  8
0
  6
BYBLOCK
 62
0
100
AcDbBlockEnd
  0
BLOCK
  5
247
100
AcDbEntity
  8
0
100
AcDbBlockBegin
  2
*T2
 70
1
 10
0.0
 20
0.0
  3
*T2
  1

  0
LINE
  5
248
100
AcDbEntity
  8
0
100
AcDbLine
 62
2
  6
CONTINUOUS
 10
0.0
 20
0.0
 11
9.055
 21
0.0
  0
LINE
  5
249
100
AcDbEntity
  8
0
100
AcDbLine
 62
2
  6
CONTINUOUS
 10
0.0
 20
0.0
 11
0.0
 21
-2.594
  0
LINE
  5
24A
100
AcDbEntity
  8
0
100
AcDbLine
 62
2
  6
CONTINUOUS
 10
0.0
 20
-0.344
 11
9.055
 21
-0.344
  0
LINE
  5
24B
100
AcDbEntity
  8
0
100
AcDbLine
 62
2
  6
CONTINUOUS
 10
0.0
 20
-0.594
 11
9.055
 21
-0.594
  0
LINE
  5
24C
100
AcDbEntity
  8
0
100
AcDbLine
 62
2
  6
CONTINUOUS
 10
0.0
 20
-0.844
 11
9.055
 21
-0.844
  0
LINE
  5
24D
100
AcDbEntity
  8
0
100
AcDbLine
 62
2
  6
CONTINUOUS
 10
0.0
 20
-1.094
 11
9.055
 21
-1.094
  0
LINE
  5
24E
100
AcDbEntity
  8
0
100
AcDbLine
 62
2
  6
CONTINUOUS
 10
0.0
 20
-1.344
 11
9.055
 21
-1.344
  0
LINE
  5
24F
100
AcDbEntity
  8
0
100
AcDbLine
 62
2
  6
CONTINUOUS
 10
0.0
 20
-1.594
 11
9.055
 21
-1.594
  0
LINE
  5
250
100
AcDbEntity
  8
0
100
AcDbLine
 62
2
  6
CONTINUOUS
 10
0.0
 20
-1.844
 11
9.055
 21
-1.844
  0
LINE
  5
251
100
AcDbEntity
  8
0
100
AcDbLine
 62
2
  6
CONTINUOUS
 10
0.0
 20
-2.094
 11
9.055
 21
-2.094
  0
LINE
  5
252
100
AcDbEntity
  8
0
100
AcDbLine
 62
2
  6
CONTINUOUS
 10
0.0
 20
-2.344
 11
9.055
 21
-2.344
  0
LINE
  5
253
100
AcDbEntity
  8
0
100
AcDbLine
 62
2
  6
CONTINUOUS
 10
0.0
 20
-2.594
 11
9.055
 21
-2.594
  0
LINE
  5
254
100
AcDbEntity
  8
0
100
AcDbLine
 62
2
  6
CONTINUOUS
 10
3.055
 20
0.0
 11
3.055
 21
-2.594
  0
LINE
  5
255
100
AcDbEntity
  8
0
100
AcDbLine
 62
2
  6
CONTINUOUS
 10
9.055
 20
0.0
 11
9.055
 21
-2.594
  0
MTEXT
  5
256
100
AcDbEntity
  8
0
100
AcDbMText
 62
2
  6
CONTINUOUS
  7
STANDARD
 71
2
 72
1
 10
1.5275
 20
-0.0995
 30
0.0
 11
1.0
 21
0.0
 31
0.0
 44
0.9
  1
Technical Data
 40
0.145
 41
3.248
  0
MTEXT
  5
257
100
AcDbEntity
  8
0
100
AcDbMText
 62
2
  6
CONTINUOUS
  7
STANDARD
 71
2
 72
1
 10
4.555
 20
-0.0995
 30
0.0
 11
1.0
 21
0.0
 31
0.0
 44
0.9
  1
U.S. Units
 40
0.145
 41
2.32
  0
MTEXT
  5
258
100
AcDbEntity
  8
0
100
AcDbMText
 62
2
  6
CONTINUOUS
  7
STANDARD
 71
2
 72
1
 10
7.555
 20
-0.0995
 30
0.0
 11
1.0
 21
0.0
 31
0.0
 44
0.9
  1
Metric Units
 40
0.145
 41
2.784
  0
MTEXT
  5
259
100
AcDbEntity
  8
0
100
AcDbMText
 62
2
  6
CONTINUOUS
  7
STANDARD
 71
2
 72
1
 10
1.5275
 20
-0.4065
 30
0.0
 11
1.0
 21
0.0
 31
0.0
 44
0.9
  1
Cavity
 40
0.125
 41
1.2
  0
MTEXT
  5
25A
100
AcDbEntity
  8
0
100
AcDbMText
 62
2
  6
CONTINUOUS
  7
STANDARD
 71
2
 72
1
 10
6.055
 20
-0.4065
 30
0.0
 11
1.0
 21
0.0
 31
0.0
 44
0.9
  1
T-10A
 40
0.125
 41
1.0
  0
MTEXT
  5
25B
100
AcDbEntity
  8
0
100
AcDbMText
 62
2
  6
CONTINUOUS
  7
STANDARD
 71
2
 72
1
 10
1.5275
 20
-0.6565
 30
0.0
 11
1.0
 21
0.0
 31
0.0
 44
0.9
  1
Body Features
 40
0.125
 41
2.6
  0
MTEXT
  5
25C
100
AcDbEntity
  8
0
100
AcDbMText
 62
2
  6
CONTINUOUS
  7
STANDARD
 71
2
 72
1
 10
6.055
 20
-0.6565
 30
0.0
 11
1.0
 21
0.0
 31
0.0
 44
0.9
  1
P to T, side ports
 40
0.125
 41
3.6
  0
MTEXT
  5
25D
100
AcDbEntity
  8
0
100
AcDbMText
 62
2
  6
CONTINUOUS
  7
STANDARD
 71
2
 72
1
 10
1.5275
 20
-0.9065
 30
0.0
 11
1.0
 21
0.0
 31
0.0
 44
0.9
  1
Body Type
 40
0.125
 41
1.8
  0
MTEXT
  5
25E
100
AcDbEntity
  8
0
100
AcDbMText
 62
2
  6
CONTINUOUS
  7
STANDARD
 71
2
 72
1
 10
6.055
 20
-0.9065
 30
0.0
 11
1.0
 21
0.0
 31
0.0
 44
0.9
  1
Subplate
 40
0.125
 41
1.6
  0
MTEXT
  5
25F
100
AcDbEntity
  8
0
100
AcDbMText
 62
2
  6
CONTINUOUS
  7
STANDARD
 71
2
 72
1
 10
1.5275
 20
-1.1565
 30
0.0
 11
1.0
 21
0.0
 31
0.0
 44
0.9
  1
Interface
 40
0.125
 41
1.8
  0
MTEXT
  5
260
100
AcDbEntity
  8
0
100
AcDbMText
 62
2
  6
CONTINUOUS
  7
STANDARD
 71
2
 72
1
 10
6.055
 20
-1.1565
 30
0.0
 11
1.0
 21
0.0
 31
0.0
 44
0.9
  1
ISO 05 - X&Y (US)
 40
0.125
 41
3.4
  0
MTEXT
  5
261
100
AcDbEntity
  8
0
100
AcDbMText
 62
2
  6
CONTINUOUS
  7
STANDARD
 71
2
 72
1
 10
1.5275
 20
-1.4065
 30
0.0
 11
1.0
 21
0.0
 31
0.0
 44
0.9
  1
Open Cavity Quantity
 40
0.125
 41
4.0
  0
MTEXT
  5
262
100
AcDbEntity
  8
0
100
AcDbMText
 62
2
  6
CONTINUOUS
  7
STANDARD
 71
2
 72
1
 10
6.055
 20
-1.4065
 30
0.0
 11
1.0
 21
0.0
 31
0.0
 44
0.9
  1
1
 40
0.125
 41
0.2
  0
MTEXT
  5
263
100
AcDbEntity
  8
0
100
AcDbMText
 62
2
  6
CONTINUOUS
  7
STANDARD
 71
2
 72
1
 10
1.5275
 20
-1.6565
 30
0.0
 11
1.0
 21
0.0
 31
0.0
 44
0.9
  1
Weight
 40
0.125
 41
1.2
  0
MTEXT
  5
264
100
AcDbEntity
  8
0
100
AcDbMText
 62
2
  6
CONTINUOUS
  7
STANDARD
 71
2
 72
1
 10
4.555
 20
-1.6565
 30
0.0
 11
1.0
 21
0.0
 31
0.0
 44
0.9
  1
3.500 lb.
 40
0.125
 41
1.8
  0
MTEXT
  5
265
100
AcDbEntity
  8
0
100
AcDbMText
 62
2
  6
CONTINUOUS
  7
STANDARD
 71
2
 72
1
 10
7.555
 20
-1.6565
 30
0.0
 11
1.0
 21
0.0
 31
0.0
 44
0.9
  1
1,588 kg.
 40
0.125
 41
1.8
  0
MTEXT
  5
266
100
AcDbEntity
  8
0
100
AcDbMText
 62
2
  6
CONTINUOUS
  7
STANDARD
 71
2
 72
1
 10
1.5275
 20
-1.9065
 30
0.0
 11
1.0
 21
0.0
 31
0.0
 44
0.9
  1
Mounting Hole Diameter
 40
0.125
 41
4.4
  0
MTEXT
  5
267
100
AcDbEntity
  8
0
100
AcDbMText
 62
2
  6
CONTINUOUS
  7
STANDARD
 71
2
 72
1
 10
4.555
 20
-1.9065
 30
0.0
 11
1.0
 21
0.0
 31
0.0
 44
0.9
  1
.44 in.
 40
0.125
 41
1.4
  0
MTEXT
  5
268
100
AcDbEntity
  8
0
100
AcDbMText
 62
2
  6
CONTINUOUS
  7
STANDARD
 71
2
 72
1
 10
7.555
 20
-1.9065
 30
0.0
 11
1.0
 21
0.0
 31
0.0
 44
0.9
  1
11,1 mm
 40
0.125
 41
1.4
  0
MTEXT
  5
269
100
AcDbEntity
  8
0
100
AcDbMText
 62
2
  6
CONTINUOUS
  7
STANDARD
 71
2
 72
1
 10
1.5275
 20
-2.1565
 30
0.0
 11
1.0
 21
0.0
 31
0.0
 44
0.9
  1
Mounting Hole Depth
 40
0.125
 41
3.8
  0
MTEXT
  5
26A
100
AcDbEntity
  8
0
100
AcDbMText
 62
2
  6
CONTINUOUS
  7
STANDARD
 71
2
 72
1
 10
6.055
 20
-2.1565
 30
0.0
 11
1.0
 21
0.0
 31
0.0
 44
0.9
  1
Through
 40
0.125
 41
1.4
  0
MTEXT
  5
26B
100
AcDbEntity
  8
0
100
AcDbMText
 62
2
  6
CONTINUOUS
  7
STANDARD
 71
2
 72
1
 10
1.5275
 20
-2.4065
 30
0.0
 11
1.0
 21
0.0
 31
0.0
 44
0.9
  1
Mounting Hole Quantity
 40
0.125
 41
4.4
  0
MTEXT
  5
26C
100
AcDbEntity
  8
0
100
AcDbMText
 62
2
  6
CONTINUOUS
  7
STANDARD
 71
2
 72
1
 10
6.055
 20
-2.4065
 30
0.0
 11
1.0
 21
0.0
 31
0.0
 44
0.9
  1
4
 40
0.125
 41
0.2
  0
ENDBLK
  5
26D
100
AcDbEntity
  8
0
  6
BYBLOCK
 62
0
100
AcDbBlockEnd
  0
BLOCK
  5
26E
100
AcDbEntity
  8
0
100
AcDbBlockBegin
  2
*T3
 70
1
 10
0.0
 20
0.0
  3
*T3
  1

  0
LINE
  5
26F
100
AcDbEntity
  8
0
100
AcDbLine
 62
2
  6
CONTINUOUS
 10
0.0
 20
0.0
 11
4.6
 21
0.0
  0
LINE
  5
270
100
AcDbEntity
  8
0
100
AcDbLine
 62
2
  6
CONTINUOUS
 10
0.0
 20
0.0
 11
0.0
 21
-1.18775
  0
LINE
  5
271
100
AcDbEntity
  8
0
100
AcDbLine
 62
2
  6
CONTINUOUS
 10
0.0
 20
-0.34375
 11
4.6
 21
-0.34375
  0
LINE
  5
272
100
AcDbEntity
  8
0
100
AcDbLine
 62
2
  6
CONTINUOUS
 10
0.0
 20
-0.68775
 11
4.6
 21
-0.68775
  0
LINE
  5
273
100
AcDbEntity
  8
0
100
AcDbLine
 62
2
  6
CONTINUOUS
 10
0.0
 20
-0.93775
 11
4.6
 21
-0.93775
  0
LINE
  5
274
100
AcDbEntity
  8
0
100
AcDbLine
 62
2
  6
CONTINUOUS
 10
0.0
 20
-1.18775
 11
4.6
 21
-1.18775
  0
LINE
  5
275
100
AcDbEntity
  8
0
100
AcDbLine
 62
2
  6
CONTINUOUS
 10
1.3
 20
-0.34375
 11
1.3
 21
-1.18775
  0
LINE
  5
276
100
AcDbEntity
  8
0
100
AcDbLine
 62
2
  6
CONTINUOUS
 10
3.3
 20
-0.34375
 11
3.3
 21
-1.18775
  0
LINE
  5
277
100
AcDbEntity
  8
0
100
AcDbLine
 62
2
  6
CONTINUOUS
 10
4.6
 20
0.0
 11
4.6
 21
-1.18775
  0
MTEXT
  5
278
100
AcDbEntity
  8
0
100
AcDbMText
 62
2
  6
CONTINUOUS
  7
STANDARD
 71
2
 72
1
 10
2.3
 20
-0.099375
 30
0.0
 11
1.0
 21
0.0
 31
0.0
 44
0.9
  1
Port Headings
 40
0.145
 41
3.016
  0
MTEXT
  5
279
100
AcDbEntity
  8
0
100
AcDbMText
 62
2
  6
CONTINUOUS
  7
STANDARD
 71
2
 72
1
 10
0.65
 20
-0.44325
 30
0.0
 11
1.0
 21
0.0
 31
0.0
 44
0.9
  1
Product
 40
0.145
 41
1.624
  0
MTEXT
  5
27A
100
AcDbEntity
  8
0
100
AcDbMText
 62
2
  6
CONTINUOUS
  7
STANDARD
 71
2
 72
1
 10
2.3
 20
-0.44325
 30
0.0
 11
1.0
 21
0.0
 31
0.0
 44
0.9
  1
Port
 40
0.145
 41
0.928
  0
MTEXT
  5
27B
100
AcDbEntity
  8
0
100
AcDbMText
 62
2
  6
CONTINUOUS
  7
STANDARD
 71
2
 72
1
 10
3.95
 20
-0.44325
 30
0.0
 11
1.0
 21
0.0
 31
0.0
 44
0.9
  1
Size
 40
0.145
 41
0.928
  0
MTEXT
  5
27C
100
AcDbEntity
  8
0
100
AcDbMText
 62
2
  6
CONTINUOUS
  7
STANDARD
 71
2
 72
1
 10
0.65
 20
-0.75025
 30
0.0
 11
1.0
 21
0.0
 31
0.0
 44
0.9
  1
ZHL
 40
0.125
 41
0.6
  0
MTEXT
  5
27D
100
AcDbEntity
  8
0
100
AcDbMText
 62
2
  6
CONTINUOUS
  7
STANDARD
 71
2
 72
1
 10
2.3
 20
-0.75025
 30
0.0
 11
1.0
 21
0.0
 31
0.0
 44
0.9
  1
Ports A, B, P, T
 40
0.125
 41
3.2
  0
MTEXT
  5
27E
100
AcDbEntity
  8
0
100
AcDbMText
 62
2
  6
CONTINUOUS
  7
STANDARD
 71
2
 72
1
 10
3.95
 20
-0.75025
 30
0.0
 11
1.0
 21
0.0
 31
0.0
 44
0.9
  1
SAE 12
 40
0.125
 41
1.2
  0
MTEXT
  5
27F
100
AcDbEntity
  8
0
100
AcDbMText
 62
2
  6
CONTINUOUS
  7
STANDARD
 71
2
 72
1
 10
0.65
 20
-1.00025
 30
0.0
 11
1.0
 21
0.0
 31
0.0
 44
0.9
  1
ZHL
 40
0.125
 41
0.6
  0
MTEXT
  5
280
100
AcDbEntity
  8
0
100
AcDbMText
 62
2
  6
CONTINUOUS
  7
STANDARD
 71
2
 72
1
 10
2.3
 20
-1.00025
 30
0.0
 11
1.0
 21
0.0
 31
0.0
 44
0.9
  1
Ports X & Y
 40
0.125
 41
2.2
  0
MTEXT
  5
281
100
AcDbEntity
  8
0
100
AcDbMText
 62
2
  6
CONTINUOUS
  7
STANDARD
 71
2
 72
1
 10
3.95
 20
-1.00025
 30
0.0
 11
1.0
 21
0.0
 31
0.0
 44
0.9
  1
SAE 6
 40
0.125
 41
1.0
  0
ENDBLK
  5
282
100
AcDbEntity
  8
0
  6
BYBLOCK
 62
0
100
AcDbBlockEnd
  0
ENDSEC
  0
SECTION
  2
ENTITIES
  0
IMAGE
  5
283
100
AcDbEntity
  8
0
100
AcDbRasterImage
 62
7
  6
CONTINUOUS
 10
19.2297077316
 20
0.3094318264
 30
0.0
 11
0.0066666667
 21
0.0
 31
0.0
 12
0.0
 22
0.0066666667
 32
0.0
 13
369.0
 23
92.0
340
       3CD
 70
9
280
0
281
50
282
50
283
0
360
       3C7
 71
1
 91
2
 14
-0.5
 24
-0.5
 14
368.5
 24
91.5
  0
INSERT
  5
284
100
AcDbEntity
  8
0
100
AcDbBlockReference
 62
2
  6
CONTINUOUS
  2
SUN_FIRST_THIRD_ANGLE_BL0
 10
20.4816717061
 20
1.2289683772
  0
ACAD_TABLE
  5
285
100
AcDbEntity
  8
0
 62
2
  6
CONTINUOUS
100
AcDbBlockReference
  2
*T1
 10
12.42375
 20
0.30125
 30
0.0
100
AcDbTable
342
       3CF
343
207
 11
1.0
 21
0.0
 31
0.0
 90
6
 91
4
 92
6
 93
20
 94
0
 95
0
 96
0
 70
1
 41
0.0
141
0.525
141
0.1
141
0.525
141
0.1
142
4.1
142
1.1
142
0.7
142
0.5
142
0.4
142
2.475
171
1
172
0
173
0
174
0
175
1
176
1
 91
33
178
0
145
0.0
301
CELL_VALUE
 90
4
  1
T-10A Subplate ISO 05 - X&Y (US)\PP to T, side ports
304
ACVALUE_END
170
2
140
0.125
171
1
172
0
173
0
174
0
175
1
176
1
 91
33
178
0
145
0.0
301
CELL_VALUE
 90
4
  1
Dec-07-20
304
ACVALUE_END
170
5
140
0.125
171
1
172
0
173
0
174
0
175
1
176
1
 91
33
178
0
145
0.0
301
CELL_VALUE
 90
4
  1
1.000
304
ACVALUE_END
170
5
140
0.125
171
1
172
0
173
0
174
0
175
1
176
1
 91
33
178
0
145
0.0
301
CELL_VALUE
 90
4
  1
C
304
ACVALUE_END
170
5
140
0.125
171
1
172
0
173
0
174
0
175
1
176
1
 91
33
178
0
145
0.0
301
CELL_VALUE
 90
4
  1
2
304
ACVALUE_END
170
5
140
0.125
171
1
172
0
173
0
174
0
175
1
176
1
 91
33
178
0
145
0.0
301
CELL_VALUE
 90
4
  1
 
304
ACVALUE_END
170
1
140
0.125
171
1
172
0
173
0
174
0
175
1
176
1
 91
33
178
0
145
0.0
301
CELL_VALUE
 90
4
  1
DESCRIPTION
304
ACVALUE_END
170
1
140
0.06
171
1
172
0
173
0
174
0
175
1
176
1
 91
33
178
0
145
0.0
301
CELL_VALUE
 90
4
  1
DATE
304
ACVALUE_END
170
1
140
0.06
171
1
172
0
173
0
174
0
175
1
176
1
 91
33
178
0
145
0.0
301
CELL_VALUE
 90
4
  1
SCALE
304
ACVALUE_END
170
1
140
0.06
171
1
172
0
173
0
174
0
175
1
176
1
 91
33
178
0
145
0.0
301
CELL_VALUE
 90
4
  1
DWG SIZE
304
ACVALUE_END
170
1
140
0.06
171
1
172
0
173
0
174
0
175
1
176
1
 91
33
178
0
145
0.0
301
CELL_VALUE
 90
4
  1
SHEET
304
ACVALUE_END
170
1
140
0.06
171
1
172
0
173
0
174
0
175
1
176
1
 91
33
178
0
145
0.0
301
CELL_VALUE
 90
4
  1
 
304
ACVALUE_END
170
1
140
0.125
171
1
172
0
173
0
174
0
175
1
176
1
 91
33
178
0
145
0.0
301
CELL_VALUE
 90
4
  1
ZHL
304
ACVALUE_END
170
5
140
0.125
171
1
172
0
173
0
174
0
175
4
176
1
 91
33
178
0
145
0.0
301
CELL_VALUE
 90
4
  1
ALL DIMENSIONS IN INCH\PVIEWS ARE THIRD ANGLE
304
ACVALUE_END
170
5
140
0.12
171
1
172
0
173
1
174
0
175
1
176
1
 91
1
178
0
145
0.0
170
1
171
1
172
0
173
1
174
0
175
1
176
1
 91
1
178
0
145
0.0
170
1
171
1
172
0
173
1
174
0
175
1
176
1
 91
1
178
0
145
0.0
170
5
171
1
172
0
173
0
174
0
175
1
176
1
 91
33
178
0
145
0.0
301
CELL_VALUE
 90
4
  1
 
304
ACVALUE_END
170
1
140
0.125
171
1
172
0
173
0
174
0
175
1
176
1
 91
33
178
0
145
0.0
301
CELL_VALUE
 90
4
  1
MODEL
304
ACVALUE_END
170
1
140
0.06
171
1
172
0
173
0
174
0
175
1
176
1
 91
33
178
0
145
0.0
301
CELL_VALUE
 90
4
  1
 
304
ACVALUE_END
170
1
140
0.125
171
1
172
0
173
0
174
0
175
1
176
1
 91
33
178
0
145
0.0
301
CELL_VALUE
 90
4
  1
 
304
ACVALUE_END
170
1
140
0.125
171
1
172
0
173
0
174
0
175
1
176
1
 91
33
178
0
145
0.0
301
CELL_VALUE
 90
4
  1
 
304
ACVALUE_END
170
1
140
0.125
171
1
172
0
173
0
174
0
175
1
176
1
 91
33
178
0
145
0.0
301
CELL_VALUE
 90
4
  1
 
304
ACVALUE_END
170
1
140
0.125
171
1
172
0
173
0
174
0
175
1
176
1
 91
33
178
0
145
0.0
301
CELL_VALUE
 90
4
  1
 
304
ACVALUE_END
170
1
140
0.125
  0
ACAD_TABLE
  5
286
100
AcDbEntity
  8
0
 62
2
  6
CONTINUOUS
100
AcDbBlockReference
  2
*T2
 10
12.4237499994
 20
16.47875
 30
0.0
100
AcDbTable
342
       3CE
343
208
 11
1.0
 21
0.0
 31
0.0
 90
22
 91
10
 92
3
 93
16
 94
0
 95
0
 96
0
 41
0.028
141
0.344
141
0.25
141
0.25
141
0.25
141
0.25
141
0.25
141
0.25
141
0.25
141
0.25
141
0.25
142
3.055
142
3.0
142
3.0
171
1
172
0
173
0
174
0
175
1
176
1
 91
33
178
0
145
0.0
301
CELL_VALUE
 90
4
  1
Technical Data
304
ACVALUE_END
170
5
140
0.145
171
1
172
0
173
0
174
0
175
1
176
1
 91
33
178
0
145
0.0
301
CELL_VALUE
 90
4
  1
U.S. Units
304
ACVALUE_END
170
5
140
0.145
171
1
172
0
173
0
174
0
175
1
176
1
 91
33
178
0
145
0.0
301
CELL_VALUE
 90
4
  1
Metric Units
304
ACVALUE_END
170
5
140
0.145
171
1
172
0
173
0
174
0
175
1
176
1
 91
33
178
0
145
0.0
301
CELL_VALUE
 90
4
  1
Cavity
304
ACVALUE_END
170
5
140
0.125
171
1
172
0
173
0
174
0
175
2
176
1
 91
33
178
0
145
0.0
301
CELL_VALUE
 90
4
  1
T-10A
304
ACVALUE_END
170
5
140
0.125
171
1
172
0
173
1
174
0
175
1
176
1
 91
1
178
0
145
0.0
170
1
171
1
172
0
173
0
174
0
175
1
176
1
 91
33
178
0
145
0.0
301
CELL_VALUE
 90
4
  1
Body Features
304
ACVALUE_END
170
5
140
0.125
171
1
172
0
173
0
174
0
175
2
176
1
 91
33
178
0
145
0.0
301
CELL_VALUE
 90
4
  1
P to T, side ports
304
ACVALUE_END
170
5
140
0.125
171
1
172
0
173
1
174
0
175
1
176
1
 91
1
178
0
145
0.0
170
1
171
1
172
0
173
0
174
0
175
1
176
1
 91
33
178
0
145
0.0
301
CELL_VALUE
 90
4
  1
Body Type
304
ACVALUE_END
170
5
140
0.125
171
1
172
0
173
0
174
0
175
2
176
1
 91
33
178
0
145
0.0
301
CELL_VALUE
 90
4
  1
Subplate
304
ACVALUE_END
170
5
140
0.125
171
1
172
0
173
1
174
0
175
1
176
1
 91
1
178
0
145
0.0
170
1
171
1
172
0
173
0
174
0
175
1
176
1
 91
33
178
0
145
0.0
301
CELL_VALUE
 90
4
  1
Interface
304
ACVALUE_END
170
5
140
0.125
171
1
172
0
173
0
174
0
175
2
176
1
 91
33
178
0
145
0.0
301
CELL_VALUE
 90
4
  1
ISO 05 - X&Y (US)
304
ACVALUE_END
170
5
140
0.125
171
1
172
0
173
1
174
0
175
1
176
1
 91
1
178
0
145
0.0
170
1
171
1
172
0
173
0
174
0
175
1
176
1
 91
33
178
0
145
0.0
301
CELL_VALUE
 90
4
  1
Open Cavity Quantity
304
ACVALUE_END
170
5
140
0.125
171
1
172
0
173
0
174
0
175
2
176
1
 91
33
178
0
145
0.0
301
CELL_VALUE
 90
4
  1
1
304
ACVALUE_END
170
5
140
0.125
171
1
172
0
173
1
174
0
175
1
176
1
 91
1
178
0
145
0.0
170
1
171
1
172
0
173
0
174
0
175
1
176
1
 91
33
178
0
145
0.0
301
CELL_VALUE
 90
4
  1
Weight
304
ACVALUE_END
170
5
140
0.125
171
1
172
0
173
0
174
0
175
1
176
1
 91
33
178
0
145
0.0
301
CELL_VALUE
 90
4
  1
3.500 lb.
304
ACVALUE_END
170
5
140
0.125
171
1
172
0
173
0
174
0
175
1
176
1
 91
33
178
0
145
0.0
301
CELL_VALUE
 90
4
  1
1,588 kg.
304
ACVALUE_END
170
5
140
0.125
171
1
172
0
173
0
174
0
175
1
176
1
 91
33
178
0
145
0.0
301
CELL_VALUE
 90
4
  1
Mounting Hole Diameter
304
ACVALUE_END
170
5
140
0.125
171
1
172
0
173
0
174
0
175
1
176
1
 91
33
178
0
145
0.0
301
CELL_VALUE
 90
4
  1
.44 in.
304
ACVALUE_END
170
5
140
0.125
171
1
172
0
173
0
174
0
175
1
176
1
 91
33
178
0
145
0.0
301
CELL_VALUE
 90
4
  1
11,1 mm
304
ACVALUE_END
170
5
140
0.125
171
1
172
0
173
0
174
0
175
1
176
1
 91
33
178
0
145
0.0
301
CELL_VALUE
 90
4
  1
Mounting Hole Depth
304
ACVALUE_END
170
5
140
0.125
171
1
172
0
173
0
174
0
175
2
176
1
 91
33
178
0
145
0.0
301
CELL_VALUE
 90
4
  1
Through
304
ACVALUE_END
170
5
140
0.125
171
1
172
0
173
1
174
0
175
1
176
1
 91
1
178
0
145
0.0
170
1
171
1
172
0
173
0
174
0
175
1
176
1
 91
33
178
0
145
0.0
301
CELL_VALUE
 90
4
  1
Mounting Hole Quantity
304
ACVALUE_END
170
5
140
0.125
171
1
172
0
173
0
174
0
175
2
176
1
 91
33
178
0
145
0.0
301
CELL_VALUE
 90
4
  1
4
304
ACVALUE_END
170
5
140
0.125
171
1
172
0
173
1
174
0
175
1
176
1
 91
1
178
0
145
0.0
170
1
  0
ACAD_TABLE
  5
287
100
AcDbEntity
  8
0
 62
2
  6
CONTINUOUS
100
AcDbBlockReference
  2
*T3
 10
0.52125
 20
1.709
 30
0.0
100
AcDbTable
342
       3CE
343
209
 11
1.0
 21
0.0
 31
0.0
 90
22
 91
4
 92
3
 93
16
 94
0
 95
0
 96
0
 41
0.05
141
0.34375
141
0.344
141
0.25
141
0.25
142
1.3
142
2.0
142
1.3
171
1
172
0
173
0
174
0
175
3
176
1
 91
33
178
0
145
0.0
301
CELL_VALUE
 90
4
  1
Port Headings
304
ACVALUE_END
170
5
140
0.145
171
1
172
0
173
1
174
0
175
1
176
1
 91
1
178
0
145
0.0
170
1
171
1
172
0
173
1
174
0
175
1
176
1
 91
1
178
0
145
0.0
170
1
171
1
172
0
173
0
174
0
175
1
176
1
 91
33
178
0
145
0.0
301
CELL_VALUE
 90
4
  1
Product
304
ACVALUE_END
170
5
140
0.145
171
1
172
0
173
0
174
0
175
1
176
1
 91
33
178
0
145
0.0
301
CELL_VALUE
 90
4
  1
Port
304
ACVALUE_END
170
5
140
0.145
171
1
172
0
173
0
174
0
175
1
176
1
 91
33
178
0
145
0.0
301
CELL_VALUE
 90
4
  1
Size
304
ACVALUE_END
170
5
140
0.145
171
1
172
0
173
0
174
0
175
1
176
1
 91
33
178
0
145
0.0
301
CELL_VALUE
 90
4
  1
ZHL
304
ACVALUE_END
170
5
140
0.125
171
1
172
0
173
0
174
0
175
1
176
1
 91
33
178
0
145
0.0
301
CELL_VALUE
 90
4
  1
Ports A, B, P, T
304
ACVALUE_END
170
5
140
0.125
171
1
172
0
173
0
174
0
175
1
176
1
 91
33
178
0
145
0.0
301
CELL_VALUE
 90
4
  1
SAE 12
304
ACVALUE_END
170
5
140
0.125
171
1
172
0
173
0
174
0
175
1
176
1
 91
33
178
0
145
0.0
301
CELL_VALUE
 90
4
  1
ZHL
304
ACVALUE_END
170
5
140
0.125
171
1
172
0
173
0
174
0
175
1
176
1
 91
33
178
0
145
0.0
301
CELL_VALUE
 90
4
  1
Ports X & Y
304
ACVALUE_END
170
5
140
0.125
171
1
172
0
173
0
174
0
175
1
176
1
 91
33
178
0
145
0.0
301
CELL_VALUE
 90
4
  1
SAE 6
304
ACVALUE_END
170
5
140
0.125
  0
MTEXT
  5
288
100
AcDbEntity
  8
0
100
AcDbMText
 62
2
  6
CONTINUOUS
  7
STANDARD
 71
1
 72
1
 10
0.52125
 20
5.75995
 30
0.0
 11
1.0
 21
0.0
 31
0.0
 44
0.6
  3
Notes\P \P1. Important: Carefully consider\P   the maximum system pressure. The\P   pressure rating of the manifold is\P   dependent on the manifold material,\P   with the port type/size a secondary\P   consideration. Manifolds\P   constructed of alu
  1
minum are not\P   rated for pressures higher than\P   3000 psi (210 bar), regardless of\P   the port type/size specified.
 40
0.1
 41
3.04
  0
LINE
  5
289
100
AcDbEntity
  8
0
100
AcDbLine
 62
7
  6
CONTINUOUS
 10
0.30125
 20
0.30125
 11
0.30125
 21
16.69875
  0
LINE
  5
28A
100
AcDbEntity
  8
0
100
AcDbLine
 62
7
  6
CONTINUOUS
 10
0.30125
 20
0.30125
 11
21.69875
 21
0.30125
  0
LINE
  5
28B
100
AcDbEntity
  8
0
100
AcDbLine
 62
7
  6
CONTINUOUS
 10
0.30125
 20
16.69875
 11
21.69875
 21
16.69875
  0
LINE
  5
28C
100
AcDbEntity
  8
0
100
AcDbLine
 62
7
  6
CONTINUOUS
 10
21.69875
 20
0.30125
 11
21.69875
 21
16.69875
  0
LINE
  5
28D
100
AcDbEntity
  8
0
100
AcDbLine
 62
7
  6
CONTINUOUS
 10
9.3836483839
 20
11.112057375
 11
8.752648082
 21
10.502557851
  0
LINE
  5
28E
100
AcDbEntity
  8
0
100
AcDbLine
 62
4
  6
CONTINUOUS
 10
8.9569972549
 20
10.6049439833
 11
8.9492326896
 21
10.5974439887
  0
LINE
  5
28F
100
AcDbEntity
  8
0
100
AcDbLine
 62
4
  6
CONTINUOUS
 10
9.0020117743
 20
10.5884247679
 11
8.9942472098
 21
10.580924774
  0
LINE
  5
290
100
AcDbEntity
  8
0
100
AcDbLine
 62
4
  6
CONTINUOUS
 10
9.1018861012
 20
10.5948959077
 11
9.081180595
 21
10.5748959233
  0
LINE
  5
291
100
AcDbEntity
  8
0
100
AcDbLine
 62
4
  6
CONTINUOUS
 10
9.1559903339
 20
10.5938232561
 11
9.13010845
 21
10.5688232745
  0
LINE
  5
292
100
AcDbEntity
  8
0
100
AcDbLine
 62
4
  6
CONTINUOUS
 10
9.1223438866
 20
10.5613232817
 11
9.1197556973
 21
10.5588232827
  0
LINE
  5
293
100
AcDbEntity
  8
0
100
AcDbLine
 62
4
  6
CONTINUOUS
 10
9.3633252276
 20
10.7707600873
 11
9.327090591
 21
10.735760114
  0
LINE
  5
294
100
AcDbEntity
  8
0
100
AcDbLine
 62
4
  6
CONTINUOUS
 10
9.3870028168
 20
10.7369641658
 11
9.4128847001
 21
10.7619641469
  0
LINE
  5
295
100
AcDbEntity
  8
0
100
AcDbLine
 62
4
  6
CONTINUOUS
 10
9.2403354661
 20
10.5852944116
 11
9.206689018
 21
10.5527944365
  0
LINE
  5
296
100
AcDbEntity
  8
0
100
AcDbLine
 62
4
  6
CONTINUOUS
 10
9.2815606716
 20
10.5851149236
 11
9.2556787878
 21
10.560114942
  0
LINE
  5
297
100
AcDbEntity
  8
0
100
AcDbLine
 62
4
  6
CONTINUOUS
 10
9.4856758891
 20
10.7622750401
 11
9.4494412526
 21
10.7272750668
  0
LINE
  5
298
100
AcDbEntity
  8
0
100
AcDbLine
 62
4
  6
CONTINUOUS
 10
9.3136343779
 20
10.5560957082
 11
9.3369280733
 21
10.5785956915
  0
LINE
  5
299
100
AcDbEntity
  8
0
100
AcDbLine
 62
4
  6
CONTINUOUS
 10
9.493254646
 20
10.7295955764
 11
9.5191365293
 21
10.7545955575
  0
LINE
  5
29A
100
AcDbEntity
  8
0
100
AcDbLine
 62
4
  6
CONTINUOUS
 10
9.3781532788
 20
10.5784162035
 11
9.3574477713
 21
10.5584162178
  0
LINE
  5
29B
100
AcDbEntity
  8
0
100
AcDbLine
 62
4
  6
CONTINUOUS
 10
9.5867513415
 20
10.7499064543
 11
9.5608694581
 21
10.7249064733
  0
LINE
  5
29C
100
AcDbEntity
  8
0
100
AcDbLine
 62
4
  6
CONTINUOUS
 10
9.433520616
 20
10.5718969759
 11
9.4257560507
 21
10.5643969813
  0
LINE
  5
29D
100
AcDbEntity
  8
0
100
AcDbLine
 62
4
  6
CONTINUOUS
 10
9.4546719321
 20
10.5489942111
 11
9.4598483084
 21
10.553994207
  0
LINE
  5
29E
100
AcDbEntity
  8
0
100
AcDbLine
 62
4
  6
CONTINUOUS
 10
9.5790089786
 20
10.6357612358
 11
9.6152436152
 21
10.6707612092
  0
LINE
  5
29F
100
AcDbEntity
  8
0
100
AcDbLine
 62
4
  6
CONTINUOUS
 10
9.6994426521
 20
10.7420912854
 11
9.6735607687
 21
10.7170913044
  0
LINE
  5
2A0
100
AcDbEntity
  8
0
100
AcDbLine
 62
4
  6
CONTINUOUS
 10
9.5230421251
 20
10.5683681279
 11
9.4971602413
 21
10.5433681463
  0
LINE
  5
2A1
100
AcDbEntity
  8
0
100
AcDbLine
 62
4
  6
CONTINUOUS
 10
9.1165359566
 20
10.5590465725
 11
9.1223438866
 21
10.5613232817
  0
LINE
  5
2A2
100
AcDbEntity
  8
0
100
AcDbLine
 62
4
  6
CONTINUOUS
 10
9.6176460118
 20
10.6330817485
 11
9.6538806484
 21
10.6680817218
  0
LINE
  5
2A3
100
AcDbEntity
  8
0
100
AcDbLine
 62
4
  6
CONTINUOUS
 10
9.5254445701
 20
10.5306886638
 11
9.5616792067
 21
10.5656886372
  0
LINE
  5
2A4
100
AcDbEntity
  8
0
100
AcDbLine
 62
4
  6
CONTINUOUS
 10
9.7214954605
 20
10.6633926187
 11
9.685260824
 21
10.6283926453
  0
LINE
  5
2A5
100
AcDbEntity
  8
0
100
AcDbLine
 62
4
  6
CONTINUOUS
 10
9.6170465439
 20
10.5591694096
 11
9.5963410377
 21
10.5391694253
  0
LINE
  5
2A6
100
AcDbEntity
  8
0
100
AcDbLine
 62
4
  6
CONTINUOUS
 10
9.9074634976
 20
10.7330239701
 11
9.871228861
 21
10.6980239968
  0
LINE
  5
2A7
100
AcDbEntity
  8
0
100
AcDbLine
 62
4
  6
CONTINUOUS
 10
9.718691667
 20
10.5306843803
 11
9.7419853616
 21
10.5531843629
  0
LINE
  5
2A8
100
AcDbEntity
  8
0
100
AcDbLine
 62
4
  6
CONTINUOUS
 10
9.984737564
 20
10.7276649954
 11
9.9485029274
 21
10.6926650221
  0
LINE
  5
2A9
100
AcDbEntity
  8
0
100
AcDbLine
 62
4
  6
CONTINUOUS
 10
9.7999409195
 20
10.5491651313
 11
9.7637062829
 21
10.5141651579
  0
LINE
  5
2AA
100
AcDbEntity
  8
0
100
AcDbLine
 62
4
  6
CONTINUOUS
 10
10.1392857129
 20
10.7169470449
 11
10.0644140431
 21
10.6846265589
  0
LINE
  5
2AB
100
AcDbEntity
  8
0
100
AcDbLine
 62
4
  6
CONTINUOUS
 10
9.6926570982
 20
10.5655369215
 11
9.6195109028
 21
10.5348830991
  0
LINE
  5
2AC
100
AcDbEntity
  8
0
100
AcDbLine
 62
4
  6
CONTINUOUS
 10
9.7238978572
 20
10.625713158
 11
9.8277473059
 21
10.6560240282
  0
LINE
  5
2AD
100
AcDbEntity
  8
0
100
AcDbLine
 62
7
  6
CONTINUOUS
 10
8.752648082
 20
6.1558913751
 11
10.3066350698
 21
6.0481220115
  0
LINE
  5
2AE
100
AcDbEntity
  8
0
100
AcDbLine
 62
7
  6
CONTINUOUS
 10
10.6991765662
 20
6.0208991663
 11
12.6163516161
 21
5.887942625
  0
LINE
  5
2AF
100
AcDbEntity
  8
0
100
AcDbLine
 62
7
  6
CONTINUOUS
 10
10.6991765662
 20
6.0518087953
 11
10.3066350698
 21
6.0790316405
  0
LINE
  5
2B0
100
AcDbEntity
  8
0
100
AcDbLine
 62
7
  6
CONTINUOUS
 10
8.752648082
 20
10.502557851
 11
8.752648082
 21
6.1558913751
  0
LINE
  5
2B1
100
AcDbEntity
  8
0
100
AcDbLine
 62
4
  6
CONTINUOUS
 10
9.944829798
 20
10.5391170534
 11
9.9085951615
 21
10.5041170801
  0
LINE
  5
2B2
100
AcDbEntity
  8
0
100
AcDbLine
 62
4
  6
CONTINUOUS
 10
10.1629632538
 20
10.6831511268
 11
10.1888451371
 21
10.7081511078
  0
LINE
  5
2B3
100
AcDbEntity
  8
0
100
AcDbLine
 62
4
  6
CONTINUOUS
 10
10.0124446102
 20
10.5344279503
 11
9.9762099736
 21
10.4994279769
  0
LINE
  5
2B4
100
AcDbEntity
  8
0
100
AcDbLine
 62
4
  6
CONTINUOUS
 10
10.0459052665
 20
10.5267484665
 11
10.0148470068
 21
10.4967484896
  0
LINE
  5
2B5
100
AcDbEntity
  8
0
100
AcDbLine
 62
4
  6
CONTINUOUS
 10
10.2616363181
 20
10.7084620016
 11
10.2254016815
 21
10.6734620283
  0
LINE
  5
2B6
100
AcDbEntity
  8
0
100
AcDbLine
 62
4
  6
CONTINUOUS
 10
10.0824618189
 20
10.4920593864
 11
10.1135200786
 21
10.5220593633
  0
LINE
  5
2B7
100
AcDbEntity
  8
0
100
AcDbLine
 62
4
  6
CONTINUOUS
 10
10.1521571118
 20
10.519379876
 11
10.1469807349
 21
10.5143798796
  0
LINE
  5
2B8
100
AcDbEntity
  8
0
100
AcDbLine
 62
4
  6
CONTINUOUS
 10
10.199066417
 20
10.4946907877
 11
10.1938900406
 21
10.4896907918
  0
LINE
  5
2B9
100
AcDbEntity
  8
0
100
AcDbLine
 62
4
  6
CONTINUOUS
 10
9.2665206266
 20
7.5981208416
 11
9.2954984024
 21
7.5284964136
  0
LINE
  5
2BA
100
AcDbEntity
  8
0
100
AcDbLine
 62
4
  6
CONTINUOUS
 10
9.2954984024
 20
7.5284964136
 11
9.2882539584
 21
7.5000210408
  0
LINE
  5
2BB
100
AcDbEntity
  8
0
100
AcDbLine
 62
4
  6
CONTINUOUS
 10
11.1134560247
 20
10.4919234408
 11
11.1194951294
 21
10.4977567683
  0
LINE
  5
2BC
100
AcDbEntity
  8
0
100
AcDbLine
 62
4
  6
CONTINUOUS
 10
9.2954984024
 20
7.5284964136
 11
9.3244761783
 21
7.5941016104
  0
LINE
  5
2BD
100
AcDbEntity
  8
0
100
AcDbLine
 62
4
  6
CONTINUOUS
 10
11.2112663666
 20
10.5164009814
 11
11.17503173
 21
10.4814010081
  0
LINE
  5
2BE
100
AcDbEntity
  8
0
100
AcDbLine
 62
4
  6
CONTINUOUS
 10
9.2737650705
 20
7.4817073308
 11
9.2592761826
 21
7.4827121386
  0
LINE
  5
2BF
100
AcDbEntity
  8
0
100
AcDbLine
 62
4
  6
CONTINUOUS
 10
9.8972702527
 20
7.9175661943
 11
9.8972702527
 21
8.0334772978
  0
LINE
  5
2C0
100
AcDbEntity
  8
0
100
AcDbLine
 62
4
  6
CONTINUOUS
 10
9.6774664284
 20
10.5308638698
 11
9.6743705173
 21
10.5578734682
  0
LINE
  5
2C1
100
AcDbEntity
  8
0
100
AcDbLine
 62
4
  6
CONTINUOUS
 10
10.0644140431
 20
10.6846265589
 11
10.0620116304
 21
10.7223060207
  0
LINE
  5
2C2
100
AcDbEntity
  8
0
100
AcDbLine
 62
4
  6
CONTINUOUS
 10
10.2594924321
 20
8.344499509
 11
10.2594924321
 21
8.3638180251
  0
LINE
  5
2C3
100
AcDbEntity
  8
0
100
AcDbLine
 62
7
  6
CONTINUOUS
 10
10.3066350698
 20
6.0481220115
 11
10.3066350698
 21
6.0790316405
  0
LINE
  5
2C4
100
AcDbEntity
  8
0
100
AcDbLine
 62
4
  6
CONTINUOUS
 10
10.3174479838
 20
8.3887765732
 11
10.3174479838
 21
8.311502502
  0
LINE
  5
2C5
100
AcDbEntity
  8
0
100
AcDbLine
 62
4
  6
CONTINUOUS
 10
9.2882539584
 20
7.5000210408
 11
9.2737650705
 21
7.4817073308
  0
LINE
  5
2C6
100
AcDbEntity
  8
0
100
AcDbLine
 62
4
  6
CONTINUOUS
 10
10.27398132
 20
8.3241761843
 11
10.2594924321
 21
8.344499509
  0
LINE
  5
2C7
100
AcDbEntity
  8
0
100
AcDbLine
 62
4
  6
CONTINUOUS
 10
10.2594924321
 20
8.3638180251
 11
10.27398132
 21
8.3821317334
  0
LINE
  5
2C8
100
AcDbEntity
  8
0
100
AcDbLine
 62
4
  6
CONTINUOUS
 10
10.7733650647
 20
8.959896292
 11
10.7878539527
 21
8.9782100003
  0
LINE
  5
2C9
100
AcDbEntity
  8
0
100
AcDbLine
 62
4
  6
CONTINUOUS
 10
10.3174479838
 20
8.3404802778
 11
10.3029590958
 21
8.3221665687
  0
LINE
  5
2CA
100
AcDbEntity
  8
0
100
AcDbLine
 62
4
  6
CONTINUOUS
 10
10.7878539527
 20
8.9782100003
 11
10.8023428406
 21
8.9868644558
  0
LINE
  5
2CB
100
AcDbEntity
  8
0
100
AcDbLine
 62
4
  6
CONTINUOUS
 10
10.8168317285
 20
8.9182448356
 11
10.8023428406
 21
8.9095903845
  0
LINE
  5
2CC
100
AcDbEntity
  8
0
100
AcDbLine
 62
4
  6
CONTINUOUS
 10
9.8755369208
 20
7.9866882141
 11
9.9190035846
 21
7.9836737907
  0
LINE
  5
2CD
100
AcDbEntity
  8
0
100
AcDbLine
 62
4
  6
CONTINUOUS
 10
11.6866479524
 20
7.8610872374
 11
11.7301146162
 21
7.858072814
  0
LINE
  5
2CE
100
AcDbEntity
  8
0
100
AcDbLine
 62
4
  6
CONTINUOUS
 10
10.2884702079
 20
8.3135121176
 11
10.27398132
 21
8.3241761843
  0
LINE
  5
2CF
100
AcDbEntity
  8
0
100
AcDbLine
 62
4
  6
CONTINUOUS
 10
10.2884702079
 20
8.3907861888
 11
10.3029590958
 21
8.3801221178
  0
LINE
  5
2D0
100
AcDbEntity
  8
0
100
AcDbLine
 62
4
  6
CONTINUOUS
 10
10.3029590958
 20
8.3801221178
 11
10.3174479838
 21
8.3597987939
  0
LINE
  5
2D1
100
AcDbEntity
  8
0
100
AcDbLine
 62
7
  6
CONTINUOUS
 10
10.6991765662
 20
6.0208991663
 11
10.6991765662
 21
6.0518087953
  0
LINE
  5
2D2
100
AcDbEntity
  8
0
100
AcDbLine
 62
4
  6
CONTINUOUS
 10
10.7733650647
 20
8.9888740713
 11
10.7733650647
 21
8.8729629645
  0
LINE
  5
2D3
100
AcDbEntity
  8
0
100
AcDbLine
 62
4
  6
CONTINUOUS
 10
10.8313206164
 20
8.9365585448
 11
10.8168317285
 21
8.9182448356
  0
LINE
  5
2D4
100
AcDbEntity
  8
0
100
AcDbLine
 62
4
  6
CONTINUOUS
 10
10.27398132
 20
8.3821317334
 11
10.2884702079
 21
8.3907861888
  0
LINE
  5
2D5
100
AcDbEntity
  8
0
100
AcDbLine
 62
4
  6
CONTINUOUS
 10
10.3029590958
 20
8.3221665687
 11
10.2884702079
 21
8.3135121176
  0
LINE
  5
2D6
100
AcDbEntity
  8
0
100
AcDbLine
 62
4
  6
CONTINUOUS
 10
10.8313206164
 20
8.9558770609
 11
10.8313206164
 21
8.9365585448
  0
LINE
  5
2D7
100
AcDbEntity
  8
0
100
AcDbLine
 62
7
  6
CONTINUOUS
 10
13.247351918
 20
10.8441086249
 11
12.6163516161
 21
10.2346091008
  0
LINE
  5
2D8
100
AcDbEntity
  8
0
100
AcDbLine
 62
4
  6
CONTINUOUS
 10
11.2060998433
 20
8.2691927855
 11
11.1916109554
 21
8.2798568522
  0
LINE
  5
2D9
100
AcDbEntity
  8
0
100
AcDbLine
 62
4
  6
CONTINUOUS
 10
11.2060998433
 20
8.3464668567
 11
11.2205887312
 21
8.3358027857
  0
LINE
  5
2DA
100
AcDbEntity
  8
0
100
AcDbLine
 62
4
  6
CONTINUOUS
 10
9.3574477713
 20
10.5584162178
 11
9.361930617
 21
10.5527463526
  0
LINE
  5
2DB
100
AcDbEntity
  8
0
100
AcDbLine
 62
4
  6
CONTINUOUS
 10
11.1916109554
 20
8.2798568522
 11
11.1771220675
 21
8.3001801769
  0
LINE
  5
2DC
100
AcDbEntity
  8
0
100
AcDbLine
 62
4
  6
CONTINUOUS
 10
10.7878539527
 20
8.9105951923
 11
10.7733650647
 21
8.9405777759
  0
LINE
  5
2DD
100
AcDbEntity
  8
0
100
AcDbLine
 62
4
  6
CONTINUOUS
 10
11.1771220675
 20
8.3871135045
 11
11.1771220675
 21
8.271202401
  0
LINE
  5
2DE
100
AcDbEntity
  8
0
100
AcDbLine
 62
4
  6
CONTINUOUS
 10
11.2350776192
 20
8.3154794618
 11
11.2350776192
 21
8.2961609457
  0
LINE
  5
2DF
100
AcDbEntity
  8
0
100
AcDbLine
 62
4
  6
CONTINUOUS
 10
11.1771220675
 20
8.319498693
 11
11.1916109554
 21
8.3378124013
  0
LINE
  5
2E0
100
AcDbEntity
  8
0
100
AcDbLine
 62
4
  6
CONTINUOUS
 10
11.1916109554
 20
8.3378124013
 11
11.2060998433
 21
8.3464668567
  0
LINE
  5
2E1
100
AcDbEntity
  8
0
100
AcDbLine
 62
4
  6
CONTINUOUS
 10
11.2205887312
 20
8.3358027857
 11
11.2350776192
 21
8.3154794618
  0
LINE
  5
2E2
100
AcDbEntity
  8
0
100
AcDbLine
 62
4
  6
CONTINUOUS
 10
10.8168317285
 20
8.9762003847
 11
10.8313206164
 21
8.9558770609
  0
LINE
  5
2E3
100
AcDbEntity
  8
0
100
AcDbLine
 62
4
  6
CONTINUOUS
 10
11.2350776192
 20
8.2961609457
 11
11.2205887312
 21
8.2778472366
  0
LINE
  5
2E4
100
AcDbEntity
  8
0
100
AcDbLine
 62
4
  6
CONTINUOUS
 10
11.2205887312
 20
8.2778472366
 11
11.2060998433
 21
8.2691927855
  0
LINE
  5
2E5
100
AcDbEntity
  8
0
100
AcDbLine
 62
4
  6
CONTINUOUS
 10
10.8023428406
 20
8.9095903845
 11
10.7878539527
 21
8.9105951923
  0
LINE
  5
2E6
100
AcDbEntity
  8
0
100
AcDbLine
 62
4
  6
CONTINUOUS
 10
10.8023428406
 20
8.9868644558
 11
10.8168317285
 21
8.9762003847
  0
LINE
  5
2E7
100
AcDbEntity
  8
0
100
AcDbLine
 62
4
  6
CONTINUOUS
 10
9.9762099736
 20
10.4994279769
 11
9.944829798
 21
10.5391170534
  0
LINE
  5
2E8
100
AcDbEntity
  8
0
100
AcDbLine
 62
4
  6
CONTINUOUS
 10
11.7083812843
 20
7.7919652177
 11
11.7083812843
 21
7.9078763211
  0
LINE
  5
2E9
100
AcDbEntity
  8
0
100
AcDbLine
 62
4
  6
CONTINUOUS
 10
9.4585232242
 20
10.5460476326
 11
9.4546719321
 21
10.5489942111
  0
LINE
  5
2EA
100
AcDbEntity
  8
0
100
AcDbLine
 62
4
  6
CONTINUOUS
 10
12.1715428362
 20
8.849409387
 11
12.2150095
 21
8.9236690349
  0
LINE
  5
2EB
100
AcDbEntity
  8
0
100
AcDbLine
 62
4
  6
CONTINUOUS
 10
8.9433627815
 20
10.5817741306
 11
8.9362917487
 21
10.5849439989
  0
LINE
  5
2EC
100
AcDbEntity
  8
0
100
AcDbLine
 62
4
  6
CONTINUOUS
 10
9.014952716
 20
10.6009247584
 11
9.0078816824
 21
10.6040946259
  0
LINE
  5
2ED
100
AcDbEntity
  8
0
100
AcDbLine
 62
4
  6
CONTINUOUS
 10
9.0948150676
 20
10.5980657752
 11
9.1018861012
 21
10.5948959077
  0
LINE
  5
2EE
100
AcDbEntity
  8
0
100
AcDbLine
 62
4
  6
CONTINUOUS
 10
12.6448216874
 20
9.2092498667
 11
12.681056324
 21
9.3118646522
  0
LINE
  5
2EF
100
AcDbEntity
  8
0
100
AcDbLine
 62
4
  6
CONTINUOUS
 10
12.7720742795
 20
8.3131146323
 11
12.7630156209
 21
8.3043646395
  0
LINE
  5
2F0
100
AcDbEntity
  8
0
100
AcDbLine
 62
4
  6
CONTINUOUS
 10
12.7539569607
 20
8.2871627936
 11
12.7448983016
 21
8.2784128003
  0
LINE
  5
2F1
100
AcDbEntity
  8
0
100
AcDbLine
 62
4
  6
CONTINUOUS
 10
9.2332643681
 20
10.5884642836
 11
9.2403354661
 21
10.5852944116
  0
LINE
  5
2F2
100
AcDbEntity
  8
0
100
AcDbLine
 62
4
  6
CONTINUOUS
 10
9.3369280733
 20
10.5785956915
 11
9.3298569752
 21
10.5817655635
  0
LINE
  5
2F3
100
AcDbEntity
  8
0
100
AcDbLine
 62
4
  6
CONTINUOUS
 10
9.725762732
 20
10.5275145097
 11
9.718691667
 21
10.5306843803
  0
LINE
  5
2F4
100
AcDbEntity
  8
0
100
AcDbLine
 62
4
  6
CONTINUOUS
 10
9.401144949
 20
10.7306244268
 11
9.3870028168
 21
10.7369641658
  0
LINE
  5
2F5
100
AcDbEntity
  8
0
100
AcDbLine
 62
4
  6
CONTINUOUS
 10
12.1715428362
 20
8.9266834583
 11
12.2150095
 21
8.8463949636
  0
LINE
  5
2F6
100
AcDbEntity
  8
0
100
AcDbLine
 62
7
  6
CONTINUOUS
 10
12.6163516161
 20
10.2346091008
 11
12.6163516161
 21
5.887942625
  0
LINE
  5
2F7
100
AcDbEntity
  8
0
100
AcDbLine
 62
4
  6
CONTINUOUS
 10
12.7418787493
 20
8.2078813244
 11
12.7781133858
 21
8.2428812978
  0
LINE
  5
2F8
100
AcDbEntity
  8
0
100
AcDbLine
 62
4
  6
CONTINUOUS
 10
8.9492326896
 20
10.5974439887
 11
8.9571664528
 21
10.595107454
  0
LINE
  5
2F9
100
AcDbEntity
  8
0
100
AcDbLine
 62
4
  6
CONTINUOUS
 10
8.9940780111
 20
10.5907613025
 11
9.0020117743
 21
10.5884247679
  0
LINE
  5
2FA
100
AcDbEntity
  8
0
100
AcDbLine
 62
4
  6
CONTINUOUS
 10
10.1469807349
 20
10.5143798796
 11
10.199066417
 21
10.4946907877
  0
LINE
  5
2FB
100
AcDbEntity
  8
0
100
AcDbLine
 62
4
  6
CONTINUOUS
 10
9.5073967782
 20
10.7232558374
 11
9.493254646
 21
10.7295955764
  0
LINE
  5
2FC
100
AcDbEntity
  8
0
100
AcDbLine
 62
4
  6
CONTINUOUS
 10
10.1307581105
 20
10.4887100272
 11
10.1236870414
 21
10.4918798981
  0
LINE
  5
2FD
100
AcDbEntity
  8
0
100
AcDbLine
 62
4
  6
CONTINUOUS
 10
9.5726092098
 20
10.7562461939
 11
9.5867513415
 21
10.7499064543
  0
LINE
  5
2FE
100
AcDbEntity
  8
0
100
AcDbLine
 62
4
  6
CONTINUOUS
 10
10.1135200786
 20
10.5220593633
 11
10.0993779389
 21
10.5283991034
  0
LINE
  5
2FF
100
AcDbEntity
  8
0
100
AcDbLine
 62
4
  6
CONTINUOUS
 10
9.6853005204
 20
10.7484310249
 11
9.6994426521
 21
10.7420912854
  0
LINE
  5
300
100
AcDbEntity
  8
0
100
AcDbLine
 62
4
  6
CONTINUOUS
 10
10.2223601124
 20
10.5171907711
 11
10.2152890415
 21
10.5203606412
  0
LINE
  5
301
100
AcDbEntity
  8
0
100
AcDbLine
 62
4
  6
CONTINUOUS
 10
12.7569765152
 20
8.281627608
 11
12.7539569607
 21
8.2871627936
  0
LINE
  5
302
100
AcDbEntity
  8
0
100
AcDbLine
 62
4
  6
CONTINUOUS
 10
12.7781133858
 20
8.3020442584
 11
12.7720742795
 21
8.3131146323
  0
LINE
  5
303
100
AcDbEntity
  8
0
100
AcDbLine
 62
4
  6
CONTINUOUS
 10
12.7418787493
 20
8.267044285
 11
12.7418787493
 21
8.2078813244
  0
LINE
  5
304
100
AcDbEntity
  8
0
100
AcDbLine
 62
4
  6
CONTINUOUS
 10
12.7569765152
 20
8.2224646473
 11
12.7569765152
 21
8.281627608
  0
LINE
  5
305
100
AcDbEntity
  8
0
100
AcDbLine
 62
4
  6
CONTINUOUS
 10
12.7781133858
 20
8.2428812978
 11
12.7781133858
 21
8.3020442584
  0
LINE
  5
306
100
AcDbEntity
  8
0
100
AcDbLine
 62
4
  6
CONTINUOUS
 10
12.7448983016
 20
8.2784128003
 11
12.7418787493
 21
8.267044285
  0
LINE
  5
307
100
AcDbEntity
  8
0
100
AcDbLine
 62
4
  6
CONTINUOUS
 10
12.7630156209
 20
8.3043646395
 11
12.7569765152
 21
8.281627608
  0
LINE
  5
308
100
AcDbEntity
  8
0
100
AcDbLine
 62
7
  6
CONTINUOUS
 10
8.752648082
 20
10.502557851
 11
12.6163516161
 21
10.2346091008
  0
LINE
  5
309
100
AcDbEntity
  8
0
100
AcDbLine
 62
4
  6
CONTINUOUS
 10
8.9571664528
 20
10.595107454
 11
8.9940780111
 21
10.5907613025
  0
LINE
  5
30A
100
AcDbEntity
  8
0
100
AcDbLine
 62
4
  6
CONTINUOUS
 10
9.4167902959
 20
10.5757367173
 11
9.433520616
 21
10.5718969759
  0
LINE
  5
30B
100
AcDbEntity
  8
0
100
AcDbLine
 62
4
  6
CONTINUOUS
 10
9.6003162238
 20
10.5630091509
 11
9.6170465439
 21
10.5591694096
  0
LINE
  5
30C
100
AcDbEntity
  8
0
100
AcDbLine
 62
4
  6
CONTINUOUS
 10
9.2443017186
 20
10.755792152
 11
9.1996875105
 21
10.766031464
  0
LINE
  5
30D
100
AcDbEntity
  8
0
100
AcDbLine
 62
4
  6
CONTINUOUS
 10
10.177105394
 20
10.6768113872
 11
10.1629632538
 21
10.6831511268
  0
LINE
  5
30E
100
AcDbEntity
  8
0
100
AcDbLine
 62
4
  6
CONTINUOUS
 10
11.1188883217
 20
10.4884206371
 11
11.1134560247
 21
10.4919234408
  0
LINE
  5
30F
100
AcDbEntity
  8
0
100
AcDbLine
 62
4
  6
CONTINUOUS
 10
12.681056324
 20
9.24424984
 11
12.6448216874
 21
9.2768646788
  0
LINE
  5
310
100
AcDbEntity
  8
0
100
AcDbLine
 62
4
  6
CONTINUOUS
 10
11.1194951294
 20
10.4977567683
 11
11.1309665354
 21
10.5000872963
  0
LINE
  5
311
100
AcDbEntity
  8
0
100
AcDbLine
 62
4
  6
CONTINUOUS
 10
10.1938900406
 20
10.4896907918
 11
10.1693951457
 21
10.4860305397
  0
LINE
  5
312
100
AcDbEntity
  8
0
100
AcDbLine
 62
4
  6
CONTINUOUS
 10
11.1309665354
 20
10.5000872963
 11
11.1508897907
 21
10.5018316842
  0
LINE
  5
313
100
AcDbEntity
  8
0
100
AcDbLine
 62
4
  6
CONTINUOUS
 10
10.1693951457
 20
10.4860305397
 11
10.1307581105
 21
10.4887100272
  0
LINE
  5
314
100
AcDbEntity
  8
0
100
AcDbLine
 62
4
  6
CONTINUOUS
 10
9.1197556973
 20
10.5588232827
 11
9.1165359566
 21
10.5590465725
  0
LINE
  5
315
100
AcDbEntity
  8
0
100
AcDbLine
 62
4
  6
CONTINUOUS
 10
9.7740590356
 20
10.5241651497
 11
9.725762732
 21
10.5275145097
  0
LINE
  5
316
100
AcDbEntity
  8
0
100
AcDbLine
 62
4
  6
CONTINUOUS
 10
9.5744343399
 20
10.5380091694
 11
9.5357973228
 21
10.5406886556
  0
LINE
  5
317
100
AcDbEntity
  8
0
100
AcDbLine
 62
4
  6
CONTINUOUS
 10
9.4971602413
 20
10.5433681463
 11
9.4585232242
 21
10.5460476326
  0
LINE
  5
318
100
AcDbEntity
  8
0
100
AcDbLine
 62
4
  6
CONTINUOUS
 10
9.0689331837
 20
10.5730657936
 11
9.0302960377
 21
10.5757452888
  0
LINE
  5
319
100
AcDbEntity
  8
0
100
AcDbLine
 62
4
  6
CONTINUOUS
 10
8.9819997986
 20
10.5790946444
 11
8.9433627815
 21
10.5817741306
  0
LINE
  5
31A
100
AcDbEntity
  8
0
100
AcDbLine
 62
4
  6
CONTINUOUS
 10
9.361930617
 20
10.5527463526
 11
9.4102269206
 21
10.5493969926
  0
LINE
  5
31B
100
AcDbEntity
  8
0
100
AcDbLine
 62
4
  6
CONTINUOUS
 10
9.403849354
 20
10.5632367265
 11
9.3652123369
 21
10.5659162127
  0
LINE
  5
31C
100
AcDbEntity
  8
0
100
AcDbLine
 62
4
  6
CONTINUOUS
 10
10.2152890415
 20
10.5203606412
 11
10.1766520053
 21
10.5230401287
  0
LINE
  5
31D
100
AcDbEntity
  8
0
100
AcDbLine
 62
4
  6
CONTINUOUS
 10
10.0993779389
 20
10.5283991034
 11
10.0704001519
 21
10.5304087198
  0
LINE
  5
31E
100
AcDbEntity
  8
0
100
AcDbLine
 62
4
  6
CONTINUOUS
 10
9.3298569752
 20
10.5817655635
 11
9.2815606716
 21
10.5851149236
  0
LINE
  5
31F
100
AcDbEntity
  8
0
100
AcDbLine
 62
4
  6
CONTINUOUS
 10
9.0078816824
 20
10.6040946259
 11
8.9692446653
 21
10.6067741122
  0
LINE
  5
320
100
AcDbEntity
  8
0
100
AcDbLine
 62
4
  6
CONTINUOUS
 10
9.0561779215
 20
10.6007452704
 11
9.0948150676
 21
10.5980657752
  0
LINE
  5
321
100
AcDbEntity
  8
0
100
AcDbLine
 62
4
  6
CONTINUOUS
 10
9.2139458595
 20
10.5898040267
 11
9.2332643681
 21
10.5884642836
  0
LINE
  5
322
100
AcDbEntity
  8
0
100
AcDbLine
 62
4
  6
CONTINUOUS
 10
9.3781532788
 20
10.5784162035
 11
9.4167902959
 21
10.5757367173
  0
LINE
  5
323
100
AcDbEntity
  8
0
100
AcDbLine
 62
4
  6
CONTINUOUS
 10
9.5616792067
 20
10.5656886372
 11
9.6003162238
 21
10.5630091509
  0
LINE
  5
324
100
AcDbEntity
  8
0
100
AcDbLine
 62
4
  6
CONTINUOUS
 10
9.7119756068
 20
10.5641971783
 11
9.6926570982
 21
10.5655369215
  0
LINE
  5
325
100
AcDbEntity
  8
0
100
AcDbLine
 62
4
  6
CONTINUOUS
 10
11.17503173
 20
10.4814010081
 11
11.1327724724
 21
10.4843316976
  0
LINE
  5
326
100
AcDbEntity
  8
0
100
AcDbLine
 62
4
  6
CONTINUOUS
 10
11.1508897907
 20
10.5018316842
 11
11.1931490483
 21
10.4989009948
  0
LINE
  5
327
100
AcDbEntity
  8
0
100
AcDbLine
 62
4
  6
CONTINUOUS
 10
9.7915126693
 20
10.6210240548
 11
9.7238978572
 21
10.625713158
  0
LINE
  5
328
100
AcDbEntity
  8
0
100
AcDbLine
 62
4
  6
CONTINUOUS
 10
9.700789953
 20
10.643392633
 11
9.6331751409
 21
10.6480817362
  0
LINE
  5
329
100
AcDbEntity
  8
0
100
AcDbLine
 62
4
  6
CONTINUOUS
 10
9.8277473059
 20
10.6560240282
 11
9.7601324937
 21
10.6607131313
  0
LINE
  5
32A
100
AcDbEntity
  8
0
100
AcDbLine
 62
4
  6
CONTINUOUS
 10
9.6152436152
 20
10.6707612092
 11
9.5669473116
 21
10.6741105692
  0
LINE
  5
32B
100
AcDbEntity
  8
0
100
AcDbLine
 62
4
  6
CONTINUOUS
 10
10.3233812624
 20
10.6881030376
 11
10.2787670498
 21
10.6983423494
  0
LINE
  5
32C
100
AcDbEntity
  8
0
100
AcDbLine
 62
4
  6
CONTINUOUS
 10
11.1327724724
 20
10.4843316976
 11
11.1188883217
 21
10.4884206371
  0
LINE
  5
32D
100
AcDbEntity
  8
0
100
AcDbLine
 62
7
  6
CONTINUOUS
 10
13.247351918
 20
6.497442149
 11
13.247351918
 21
10.8441086249
  0
LINE
  5
32E
100
AcDbEntity
  8
0
100
AcDbLine
 62
4
  6
CONTINUOUS
 10
10.1766520053
 20
10.5230401287
 11
10.1521571118
 21
10.519379876
  0
LINE
  5
32F
100
AcDbEntity
  8
0
100
AcDbLine
 62
4
  6
CONTINUOUS
 10
10.0704001519
 20
10.5304087198
 11
10.0459052665
 21
10.5267484665
  0
LINE
  5
330
100
AcDbEntity
  8
0
100
AcDbLine
 62
4
  6
CONTINUOUS
 10
10.1888451371
 20
10.7081511078
 11
10.2133400306
 21
10.7118113605
  0
LINE
  5
331
100
AcDbEntity
  8
0
100
AcDbLine
 62
4
  6
CONTINUOUS
 10
9.5963410377
 20
10.5391694253
 11
9.5744343399
 21
10.5380091694
  0
LINE
  5
332
100
AcDbEntity
  8
0
100
AcDbLine
 62
4
  6
CONTINUOUS
 10
9.4257560507
 20
10.5643969813
 11
9.403849354
 21
10.5632367265
  0
LINE
  5
333
100
AcDbEntity
  8
0
100
AcDbLine
 62
4
  6
CONTINUOUS
 10
10.2649633779
 20
10.6850090255
 11
10.3233812624
 21
10.6881030376
  0
LINE
  5
334
100
AcDbEntity
  8
0
100
AcDbLine
 62
4
  6
CONTINUOUS
 10
10.2254016815
 20
10.6734620283
 11
10.177105394
 21
10.6768113872
  0
LINE
  5
335
100
AcDbEntity
  8
0
100
AcDbLine
 62
4
  6
CONTINUOUS
 10
9.9871399767
 20
10.6899855336
 11
9.9098659103
 21
10.6953445083
  0
LINE
  5
336
100
AcDbEntity
  8
0
100
AcDbLine
 62
4
  6
CONTINUOUS
 10
9.871228861
 20
10.6980239968
 11
9.8132733031
 21
10.7020432284
  0
LINE
  5
337
100
AcDbEntity
  8
0
100
AcDbLine
 62
4
  6
CONTINUOUS
 10
9.6490658838
 20
10.7134310516
 11
9.6104288667
 21
10.7161105378
  0
LINE
  5
338
100
AcDbEntity
  8
0
100
AcDbLine
 62
4
  6
CONTINUOUS
 10
9.5363745733
 20
10.7212462205
 11
9.5073967782
 21
10.7232558374
  0
LINE
  5
339
100
AcDbEntity
  8
0
100
AcDbLine
 62
4
  6
CONTINUOUS
 10
9.4494412526
 20
10.7272750668
 11
9.401144949
 21
10.7306244268
  0
LINE
  5
33A
100
AcDbEntity
  8
0
100
AcDbLine
 62
4
  6
CONTINUOUS
 10
9.327090591
 20
10.735760114
 11
9.2691350654
 21
10.7397793433
  0
LINE
  5
33B
100
AcDbEntity
  8
0
100
AcDbLine
 62
4
  6
CONTINUOUS
 10
9.303982703
 20
10.7534395879
 11
9.3426197201
 21
10.7507601017
  0
LINE
  5
33C
100
AcDbEntity
  8
0
100
AcDbLine
 62
4
  6
CONTINUOUS
 10
9.8481209407
 20
10.7157034729
 11
9.88675799
 21
10.7130239845
  0
LINE
  5
33D
100
AcDbEntity
  8
0
100
AcDbLine
 62
4
  6
CONTINUOUS
 10
10.1160539481
 20
10.7078402145
 11
10.0645379038
 21
10.7114128643
  0
LINE
  5
33E
100
AcDbEntity
  8
0
100
AcDbLine
 62
4
  6
CONTINUOUS
 10
9.9074634976
 20
10.7330239701
 11
9.8495079397
 21
10.7370432017
  0
LINE
  5
33F
100
AcDbEntity
  8
0
100
AcDbLine
 62
4
  6
CONTINUOUS
 10
9.3633252276
 20
10.7707600873
 11
9.305369702
 21
10.7747793167
  0
LINE
  5
340
100
AcDbEntity
  8
0
100
AcDbLine
 62
4
  6
CONTINUOUS
 10
9.4373795856
 20
10.7656244002
 11
9.4856758891
 21
10.7622750401
  0
LINE
  5
341
100
AcDbEntity
  8
0
100
AcDbLine
 62
4
  6
CONTINUOUS
 10
9.5436314148
 20
10.7582558108
 11
9.5726092098
 21
10.7562461939
  0
LINE
  5
342
100
AcDbEntity
  8
0
100
AcDbLine
 62
4
  6
CONTINUOUS
 10
9.6466635033
 20
10.7511105112
 11
9.6853005204
 21
10.7484310249
  0
LINE
  5
343
100
AcDbEntity
  8
0
100
AcDbLine
 62
4
  6
CONTINUOUS
 10
10.2133400306
 20
10.7118113605
 11
10.2616363181
 21
10.7084620016
  0
LINE
  5
344
100
AcDbEntity
  8
0
100
AcDbLine
 62
4
  6
CONTINUOUS
 10
9.081180595
 20
10.5748959233
 11
9.0689331837
 21
10.5730657936
  0
LINE
  5
345
100
AcDbEntity
  8
0
100
AcDbLine
 62
4
  6
CONTINUOUS
 10
8.9942472098
 20
10.580924774
 11
8.9819997986
 21
10.5790946444
  0
LINE
  5
346
100
AcDbEntity
  8
0
100
AcDbLine
 62
4
  6
CONTINUOUS
 10
8.9692446653
 20
10.6067741122
 11
8.9569972549
 21
10.6049439833
  0
LINE
  5
347
100
AcDbEntity
  8
0
100
AcDbLine
 62
4
  6
CONTINUOUS
 10
9.6735607687
 20
10.7170913044
 11
9.6490658838
 21
10.7134310516
  0
LINE
  5
348
100
AcDbEntity
  8
0
100
AcDbLine
 62
4
  6
CONTINUOUS
 10
9.5608694581
 20
10.7249064733
 11
9.5363745733
 21
10.7212462205
  0
LINE
  5
349
100
AcDbEntity
  8
0
100
AcDbLine
 62
4
  6
CONTINUOUS
 10
9.5191365293
 20
10.7545955575
 11
9.5436314148
 21
10.7582558108
  0
LINE
  5
34A
100
AcDbEntity
  8
0
100
AcDbLine
 62
4
  6
CONTINUOUS
 10
9.4128847001
 20
10.7619641469
 11
9.4373795856
 21
10.7656244002
  0
LINE
  5
34B
100
AcDbEntity
  8
0
100
AcDbLine
 62
4
  6
CONTINUOUS
 10
9.1996875105
 20
10.766031464
 11
9.2581053904
 21
10.7691254759
  0
LINE
  5
34C
100
AcDbEntity
  8
0
100
AcDbLine
 62
7
  6
CONTINUOUS
 10
9.3836483839
 20
11.112057375
 11
13.247351918
 21
10.8441086249
  0
LINE
  5
34D
100
AcDbEntity
  8
0
100
AcDbLine
 62
7
  6
CONTINUOUS
 10
12.6163516161
 20
5.887942625
 11
13.247351918
 21
6.497442149
  0
ARC
  5
34E
100
AcDbEntity
  8
0
100
AcDbCircle
 62
7
  6
CONTINUOUS
 10
11.8653256165
 20
9.4718389449
 40
0.8791844292
100
AcDbArc
 50
359.9874735738
 51
1.3317191953
  0
ARC
  5
34F
100
AcDbEntity
  8
0
100
AcDbCircle
 62
7
  6
CONTINUOUS
 10
11.8851773412
 20
9.4537415573
 40
0.858043755
100
AcDbArc
 50
350.7203371985
 51
351.1227136611
  0
ARC
  5
350
100
AcDbEntity
  8
0
100
AcDbCircle
 62
7
  6
CONTINUOUS
 10
10.1084751437
 20
8.2113886612
 40
0.2050523826
100
AcDbArc
 50
211.5543692421
 51
213.9698059886
  0
ARC
  5
351
100
AcDbEntity
  8
0
100
AcDbCircle
 62
7
  6
CONTINUOUS
 10
9.8850316437
 20
9.3290617382
 40
0.1204890005
100
AcDbArc
 50
216.0335857955
 51
232.0498253923
  0
ARC
  5
352
100
AcDbEntity
  8
0
100
AcDbCircle
 62
7
  6
CONTINUOUS
 10
11.9376241462
 20
9.1867139647
 40
0.1204890005
100
AcDbArc
 50
216.0335857955
 51
232.0498253923
  0
ARC
  5
353
100
AcDbEntity
  8
0
100
AcDbCircle
 62
7
  6
CONTINUOUS
 10
9.8850316437
 20
7.5778381464
 40
0.1204890005
100
AcDbArc
 50
216.0335857955
 51
232.0498253923
  0
ARC
  5
354
100
AcDbEntity
  8
0
100
AcDbCircle
 62
7
  6
CONTINUOUS
 10
11.9376241462
 20
7.4354903729
 40
0.1204890005
100
AcDbArc
 50
216.0335857955
 51
232.0498253923
  0
SPLINE
  5
355
100
AcDbEntity
  8
0
100
AcDbSpline
 62
7
  6
CONTINUOUS
 70
0
 71
3
 72
51
 73
47
 74
0
 42
0.0000001
 43
0.0000001
 44
0.0000000001
 40
0.0
 40
0.0
 40
0.0
 40
0.0
 40
0.0417745182
 40
0.0840381526
 40
0.1266602401
 40
0.1695088421
 40
0.2124510407
 40
0.2553535857
 40
0.2980833694
 40
0.3405079697
 40
0.3824961696
 40
0.4239184888
 40
0.4646477158
 40
0.5045594497
 40
0.543532651
 40
0.5814502093
 40
0.6181995334
 40
0.6536731755
 40
0.6877695033
 40
0.7203934427
 40
0.7514573218
 40
0.7663795148
 40
0.7808827261
 40
0.7949585461
 40
0.8085992857
 40
0.8217979826
 40
0.8345485116
 40
0.8468456263
 40
0.8586850779
 40
0.8700637036
 40
0.8809795661
 40
0.8914321058
 40
0.9014223196
 40
0.9109530019
 40
0.9200289921
 40
0.9286575381
 40
0.9368486523
 40
0.9446156358
 40
0.9519755804
 40
0.9589500677
 40
0.9655657995
 40
0.9778459317
 40
0.9836071722
 40
0.9891799125
 40
0.9946230091
 40
1.0
 40
1.0
 40
1.0
 40
1.0
 10
12.7154792286
 20
9.2736361284
 30
0.0
 10
12.7154792286
 20
9.2828148164
 30
0.0
 10
12.7156224279
 20
9.3012799492
 30
0.0
 10
12.7162554752
 20
9.3291034746
 30
0.0
 10
12.7173061886
 20
9.357150568
 30
0.0
 10
12.7187711098
 20
9.3853283413
 30
0.0
 10
12.7206454076
 20
9.4135436044
 30
0.0
 10
12.7229228815
 20
9.4417029984
 30
0.0
 10
12.7255959893
 20
9.4697133645
 30
0.0
 10
12.7286558688
 20
9.4974820361
 30
0.0
 10
12.7320923682
 20
9.5249171527
 30
0.0
 10
12.7358940787
 20
9.5519279649
 30
0.0
 10
12.7400483722
 20
9.5784251382
 30
0.0
 10
12.7445414416
 20
9.6043210511
 30
0.0
 10
12.7493583463
 20
9.6295300909
 30
0.0
 10
12.7544830601
 20
9.6539689402
 30
0.0
 10
12.7598985229
 20
9.6775568665
 30
0.0
 10
12.7655866987
 20
9.7002159773
 30
0.0
 10
12.7715286266
 20
9.7218715698
 30
0.0
 10
12.777704516
 20
9.7424521214
 30
0.0
 10
12.7830985836
 20
9.7588629621
 30
0.0
 10
12.7875250652
 20
9.7713953305
 30
0.0
 10
12.7908460284
 20
9.7803583571
 30
0.0
 10
12.7942098407
 20
9.7890039643
 30
0.0
 10
12.797613731
 20
9.7973250349
 30
0.0
 10
12.8010548833
 20
9.8053147113
 30
0.0
 10
12.8045304443
 20
9.8129664213
 30
0.0
 10
12.8080375465
 20
9.8202738762
 30
0.0
 10
12.8115732932
 20
9.8272310811
 30
0.0
 10
12.8151347743
 20
9.8338323396
 30
0.0
 10
12.8187190693
 20
9.8400722585
 30
0.0
 10
12.8223232458
 20
9.8459457578
 30
0.0
 10
12.825944385
 20
9.8514480663
 30
0.0
 10
12.8295795622
 20
9.8565747406
 30
0.0
 10
12.833225897
 20
9.8613216428
 30
0.0
 10
12.836880523
 20
9.865684976
 30
0.0
 10
12.8405406341
 20
9.8696612156
 30
0.0
 10
12.8442035495
 20
9.8732472145
 30
0.0
 10
12.847866381
 20
9.8764398842
 30
0.0
 10
12.8515274533
 20
9.8792369971
 30
0.0
 10
12.8562821881
 20
9.8823568584
 30
0.0
 10
12.8611570488
 20
9.8847967475
 30
0.0
 10
12.8660947776
 20
9.8864151203
 30
0.0
 10
12.8697049555
 20
9.8871955963
 30
0.0
 10
12.873294884
 20
9.8875661245
 30
0.0
 10
12.8756783301
 20
9.8875388691
 30
0.0
 10
12.8768569302
 20
9.8874571275
 30
0.0
  0
SPLINE
  5
356
100
AcDbEntity
  8
0
100
AcDbSpline
 62
7
  6
CONTINUOUS
 70
0
 71
3
 72
54
 73
50
 74
0
 42
0.0000001
 43
0.0000001
 44
0.0000000001
 40
0.0
 40
0.0
 40
0.0
 40
0.0
 40
0.0417740848
 40
0.0840369828
 40
0.1266585743
 40
0.1695065841
 40
0.2124482174
 40
0.2553501902
 40
0.2980794065
 40
0.3405034434
 40
0.3824910856
 40
0.4239128535
 40
0.4646415381
 40
0.5045527407
 40
0.5435254244
 40
0.5814424805
 40
0.6181913195
 40
0.6536644943
 40
0.6877603722
 40
0.7042621337
 40
0.7203845126
 40
0.7361167638
 40
0.7514487122
 40
0.7663707127
 40
0.7808737249
 40
0.7949493691
 40
0.8085899172
 40
0.8217884518
 40
0.8345388015
 40
0.8468357624
 40
0.8586750526
 40
0.8700535295
 40
0.8809692513
 40
0.8914216469
 40
0.9014117394
 40
0.9109422847
 40
0.9200181679
 40
0.9286465891
 40
0.9368376049
 40
0.9446044798
 40
0.9519643317
 40
0.9589387265
 40
0.9655543709
 40
0.9718438607
 40
0.9778462236
 40
0.9836073893
 40
0.9891800561
 40
0.99462308
 40
1.0
 40
1.0
 40
1.0
 40
1.0
 10
12.8117598433
 20
8.2799693321
 30
0.0
 10
12.8117598433
 20
8.2950246621
 30
0.0
 10
12.8119947215
 20
8.325311963
 30
0.0
 10
12.8130330845
 20
8.3709493343
 30
0.0
 10
12.8147565026
 20
8.41695336
 30
0.0
 10
12.817159336
 20
8.4631717972
 30
0.0
 10
12.8202336386
 20
8.509451701
 30
0.0
 10
12.8239692506
 20
8.5556399742
 30
0.0
 10
12.8283537971
 20
8.6015838037
 30
0.0
 10
12.8333727439
 20
8.6471311959
 30
0.0
 10
12.8390094402
 20
8.6921314762
 30
0.0
 10
12.845245173
 20
8.736435793
 30
0.0
 10
12.8520592278
 20
8.7798976165
 30
0.0
 10
12.8594289575
 20
8.8223732261
 30
0.0
 10
12.8673298549
 20
8.8637222004
 30
0.0
 10
12.8757356351
 20
8.9038078657
 30
0.0
 10
12.8846183087
 20
8.9424978482
 30
0.0
 10
12.8939483173
 20
8.9796642175
 30
0.0
 10
12.9021569346
 20
9.0095813191
 30
0.0
 10
12.9089363734
 20
9.0326521942
 30
0.0
 10
12.9140577916
 20
9.0493107887
 30
0.0
 10
12.9192671913
 20
9.0654997621
 30
0.0
 10
12.9245602523
 20
9.0812057594
 30
0.0
 10
12.9299325926
 20
9.0964158052
 30
0.0
 10
12.9353797648
 20
9.1111173452
 30
0.0
 10
12.9408972283
 20
9.1252982555
 30
0.0
 10
12.9464804551
 20
9.1389468372
 30
0.0
 10
12.9521247646
 20
9.1520518605
 30
0.0
 10
12.9578255498
 20
9.1646025274
 30
0.0
 10
12.9635780383
 20
9.17658854
 30
0.0
 10
12.9693775332
 20
9.1880000514
 30
0.0
 10
12.9752192293
 20
9.1988277265
 30
0.0
 10
12.9810983403
 20
9.2090627196
 30
0.0
 10
12.9870100826
 20
9.2186966859
 30
0.0
 10
12.9929496128
 20
9.2277218259
 30
0.0
 10
12.9989122148
 20
9.2361308095
 30
0.0
 10
13.0048930672
 20
9.2439169058
 30
0.0
 10
13.0108875649
 20
9.2510738171
 30
0.0
 10
13.0168910388
 20
9.2575958487
 30
0.0
 10
13.0228990547
 20
9.2634777117
 30
0.0
 10
13.0289072413
 20
9.2687146092
 30
0.0
 10
13.034911399
 20
9.2733021102
 30
0.0
 10
13.0409074967
 20
9.2772360034
 30
0.0
 10
13.0468914662
 20
9.2805123547
 30
0.0
 10
13.0528592692
 20
9.2831270975
 30
0.0
 10
13.0588062631
 20
9.285076439
 30
0.0
 10
13.0647275765
 20
9.2863564884
 30
0.0
 10
13.0706160035
 20
9.2869642645
 30
0.0
 10
13.0745254214
 20
9.286919572
 30
0.0
 10
13.0764586132
 20
9.2867854964
 30
0.0
  0
SPLINE
  5
357
100
AcDbEntity
  8
0
100
AcDbSpline
 62
7
  6
CONTINUOUS
 70
0
 71
3
 72
21
 73
17
 74
0
 42
0.0000001
 43
0.0000001
 44
0.0000000001
 40
0.0
 40
0.0
 40
0.0
 40
0.0
 40
0.1273176984
 40
0.2537999461
 40
0.3167619614
 40
0.3795355204
 40
0.4421314992
 40
0.5045621453
 40
0.5668413456
 40
0.6289845231
 40
0.6910084433
 40
0.7529310869
 40
0.8147714401
 40
0.8765493236
 40
0.9382852134
 40
1.0
 40
1.0
 40
1.0
 40
1.0
 10
9.3872613813
 20
10.0354717384
 30
0.0
 10
9.3872613813
 20
10.0287269303
 30
0.0
 10
9.3866175443
 20
10.0152728909
 30
0.0
 10
9.384185953
 20
9.9986407939
 30
0.0
 10
9.381279686
 20
9.9855943702
 30
0.0
 10
9.378629322
 20
9.9759713217
 30
0.0
 10
9.3755113274
 20
9.96651927
 30
0.0
 10
9.3719328906
 20
9.9572597355
 30
0.0
 10
9.3679022619
 20
9.9482141341
 30
0.0
 10
9.3634286541
 20
9.9394033425
 30
0.0
 10
9.3585224159
 20
9.930847671
 30
0.0
 10
9.3531948623
 20
9.9225668371
 30
0.0
 10
9.3474582279
 20
9.9145800025
 30
0.0
 10
9.3413257066
 20
9.90690551
 30
0.0
 10
9.3348117132
 20
9.8995612717
 30
0.0
 10
9.3302238204
 20
9.8948957791
 30
0.0
 10
9.3278722717
 20
9.8926243714
 30
0.0
  0
SPLINE
  5
358
100
AcDbEntity
  8
0
100
AcDbSpline
 62
7
  6
CONTINUOUS
 70
0
 71
3
 72
21
 73
17
 74
0
 42
0.0000001
 43
0.0000001
 44
0.0000000001
 40
0.0
 40
0.0
 40
0.0
 40
0.0
 40
0.1273176984
 40
0.2537999461
 40
0.3167619614
 40
0.3795355204
 40
0.4421314992
 40
0.5045621453
 40
0.5668413456
 40
0.6289845231
 40
0.6910084433
 40
0.7529310869
 40
0.8147714401
 40
0.8765493236
 40
0.9382852134
 40
1.0
 40
1.0
 40
1.0
 40
1.0
 10
12.4048138826
 20
9.8262037617
 30
0.0
 10
12.4048138826
 20
9.8194589536
 30
0.0
 10
12.4041700456
 20
9.8060049142
 30
0.0
 10
12.4017384544
 20
9.7893728171
 30
0.0
 10
12.3988321873
 20
9.7763263935
 30
0.0
 10
12.3961818234
 20
9.766703345
 30
0.0
 10
12.3930638287
 20
9.7572512933
 30
0.0
 10
12.3894853919
 20
9.7479917587
 30
0.0
 10
12.3854547633
 20
9.7389461573
 30
0.0
 10
12.3809811554
 20
9.7301353658
 30
0.0
 10
12.3760749173
 20
9.7215796942
 30
0.0
 10
12.3707473636
 20
9.7132988603
 30
0.0
 10
12.3650107292
 20
9.7053120257
 30
0.0
 10
12.358878208
 20
9.6976375332
 30
0.0
 10
12.3523642145
 20
9.690293295
 30
0.0
 10
12.3477763218
 20
9.6856278024
 30
0.0
 10
12.3454247731
 20
9.6833563946
 30
0.0
  0
SPLINE
  5
359
100
AcDbEntity
  8
0
100
AcDbSpline
 62
7
  6
CONTINUOUS
 70
0
 71
3
 72
21
 73
17
 74
0
 42
0.0000001
 43
0.0000001
 44
0.0000000001
 40
0.0
 40
0.0
 40
0.0
 40
0.0
 40
0.1273176984
 40
0.2537999461
 40
0.3167619614
 40
0.3795355204
 40
0.4421314992
 40
0.5045621453
 40
0.5668413456
 40
0.6289845231
 40
0.6910084433
 40
0.7529310869
 40
0.8147714401
 40
0.8765493236
 40
0.9382852134
 40
1.0
 40
1.0
 40
1.0
 40
1.0
 10
12.4048138826
 20
6.3256885489
 30
0.0
 10
12.4048138826
 20
6.3189437408
 30
0.0
 10
12.4041700456
 20
6.3054897014
 30
0.0
 10
12.4017384544
 20
6.2888576043
 30
0.0
 10
12.3988321873
 20
6.2758111807
 30
0.0
 10
12.3961818234
 20
6.2661881322
 30
0.0
 10
12.3930638287
 20
6.2567360805
 30
0.0
 10
12.3894853919
 20
6.2474765459
 30
0.0
 10
12.3854547633
 20
6.2384309445
 30
0.0
 10
12.3809811554
 20
6.2296201529
 30
0.0
 10
12.3760749173
 20
6.2210644814
 30
0.0
 10
12.3707473636
 20
6.2127836475
 30
0.0
 10
12.3650107292
 20
6.2047968129
 30
0.0
 10
12.358878208
 20
6.1971223204
 30
0.0
 10
12.3523642145
 20
6.1897780822
 30
0.0
 10
12.3477763218
 20
6.1851125896
 30
0.0
 10
12.3454247731
 20
6.1828411818
 30
0.0
  0
SPLINE
  5
35A
100
AcDbEntity
  8
0
100
AcDbSpline
 62
7
  6
CONTINUOUS
 70
0
 71
3
 72
21
 73
17
 74
0
 42
0.0000001
 43
0.0000001
 44
0.0000000001
 40
0.0
 40
0.0
 40
0.0
 40
0.0
 40
0.1273176984
 40
0.2537999461
 40
0.3167619614
 40
0.3795355204
 40
0.4421314992
 40
0.5045621453
 40
0.5668413456
 40
0.6289845231
 40
0.6910084433
 40
0.7529310869
 40
0.8147714401
 40
0.8765493236
 40
0.9382852134
 40
1.0
 40
1.0
 40
1.0
 40
1.0
 10
9.3872613813
 20
6.5349565256
 30
0.0
 10
9.3872613813
 20
6.5282117175
 30
0.0
 10
9.3866175443
 20
6.5147576781
 30
0.0
 10
9.384185953
 20
6.498125581
 30
0.0
 10
9.381279686
 20
6.4850791574
 30
0.0
 10
9.378629322
 20
6.4754561089
 30
0.0
 10
9.3755113274
 20
6.4660040572
 30
0.0
 10
9.3719328906
 20
6.4567445227
 30
0.0
 10
9.3679022619
 20
6.4476989212
 30
0.0
 10
9.3634286541
 20
6.4388881297
 30
0.0
 10
9.3585224159
 20
6.4303324582
 30
0.0
 10
9.3531948623
 20
6.4220516242
 30
0.0
 10
9.3474582279
 20
6.4140647897
 30
0.0
 10
9.3413257066
 20
6.4063902972
 30
0.0
 10
9.3348117132
 20
6.3990460589
 30
0.0
 10
9.3302238204
 20
6.3943805663
 30
0.0
 10
9.3278722717
 20
6.3921091585
 30
0.0
  0
SPLINE
  5
35B
100
AcDbEntity
  8
0
100
AcDbSpline
 62
7
  6
CONTINUOUS
 70
0
 71
3
 72
32
 73
28
 74
0
 42
0.0000001
 43
0.0000001
 44
0.0000000001
 40
0.0
 40
0.0
 40
0.0
 40
0.0
 40
0.0300884382
 40
0.0603093574
 40
0.0906731488
 40
0.1211916014
 40
0.1518691
 40
0.1827070429
 40
0.2137025563
 40
0.2448493483
 40
0.3075199964
 40
0.3706566162
 40
0.4023764625
 40
0.434163434
 40
0.4660000153
 40
0.4978686683
 40
0.5616055269
 40
0.6252698282
 40
0.6570492335
 40
0.688765194
 40
0.7204044379
 40
0.7519546996
 40
0.814716618
 40
0.8770027908
 40
0.9387607883
 40
0.9694493694
 40
1.0
 40
1.0
 40
1.0
 40
1.0
 10
12.158934492
 20
8.9818851227
 30
0.0
 10
12.1605717114
 20
8.9825350291
 30
0.0
 10
12.1639081168
 20
8.9837042113
 30
0.0
 10
12.1690482681
 20
8.9850514559
 30
0.0
 10
12.1743043601
 20
8.985989695
 30
0.0
 10
12.1796441278
 20
8.9865159809
 30
0.0
 10
12.1850361647
 20
8.9866307179
 30
0.0
 10
12.1904491624
 20
8.9863376268
 30
0.0
 10
12.1958531408
 20
8.9856431597
 30
0.0
 10
12.2030200345
 20
8.9841920338
 30
0.0
 10
12.2118133758
 20
8.9814201286
 30
0.0
 10
12.220184538
 20
8.97748487
 30
0.0
 10
12.2265646431
 20
8.9737000311
 30
0.0
 10
12.2311799751
 20
8.970554089
 30
0.0
 10
12.2355990043
 20
8.9671239439
 30
0.0
 10
12.2412068525
 20
8.9621969433
 30
0.0
 10
12.2476469264
 20
8.9554216424
 30
0.0
 10
12.2532442057
 20
8.9479426147
 30
0.0
 10
12.257169465
 20
8.9416129818
 30
0.0
 10
12.2598259313
 20
8.9367140742
 30
0.0
 10
12.2621864127
 20
8.9316806353
 30
0.0
 10
12.2649220072
 20
8.9248294933
 30
0.0
 10
12.2675634354
 20
8.9160254966
 30
0.0
 10
12.2694262874
 20
8.9052226247
 30
0.0
 10
12.2698452615
 20
8.8961465584
 30
0.0
 10
12.2694758928
 20
8.8889512315
 30
0.0
 10
12.2690551308
 20
8.8853874801
 30
0.0
 10
12.2687851882
 20
8.8836194145
 30
0.0
  0
SPLINE
  5
35C
100
AcDbEntity
  8
0
100
AcDbSpline
 62
7
  6
CONTINUOUS
 70
0
 71
3
 72
39
 73
35
 74
0
 42
0.0000001
 43
0.0000001
 44
0.0000000001
 40
0.0
 40
0.0
 40
0.0
 40
0.0
 40
0.0310022941
 40
0.0621464487
 40
0.093426615
 40
0.1248355255
 40
0.1563630504
 40
0.1879972998
 40
0.2197245252
 40
0.2515295301
 40
0.2833959252
 40
0.3153064479
 40
0.3472432662
 40
0.3791882844
 40
0.4111234392
 40
0.4430309838
 40
0.4748937576
 40
0.5066954398
 40
0.5384207839
 40
0.5700558337
 40
0.6015881182
 40
0.6330068276
 40
0.6643029682
 40
0.6954694963
 40
0.7265014303
 40
0.75739594
 40
0.7881524112
 40
0.8187724836
 40
0.8492600607
 40
0.8796212888
 40
0.9098645009
 40
0.9400001266
 40
0.9700405617
 40
1.0
 40
1.0
 40
1.0
 40
1.0
 10
10.7443872889
 20
9.0704550823
 30
0.0
 10
10.7490923215
 20
9.0701287872
 30
0.0
 10
10.7585048332
 20
9.0691562599
 30
0.0
 10
10.7725234891
 20
9.0667554044
 30
0.0
 10
10.7864138824
 20
9.0634204718
 30
0.0
 10
10.8001120598
 20
9.0591678284
 30
0.0
 10
10.8135563995
 20
9.0540180655
 30
0.0
 10
10.8266864875
 20
9.0479961549
 30
0.0
 10
10.8394438713
 20
9.0411310662
 30
0.0
 10
10.8517722423
 20
9.0334556133
 30
0.0
 10
10.8636177327
 20
9.0250061601
 30
0.0
 10
10.8749291426
 20
9.0158223627
 30
0.0
 10
10.8856581405
 20
9.0059468816
 30
0.0
 10
10.8957594294
 20
8.9954250977
 30
0.0
 10
10.9051908809
 20
8.9843048267
 30
0.0
 10
10.9139136393
 20
8.9726360405
 30
0.0
 10
10.9218921995
 20
8.9604705964
 30
0.0
 10
10.9290944616
 20
8.9478619796
 30
0.0
 10
10.9354917682
 20
8.9348650592
 30
0.0
 10
10.9410589214
 20
8.9215358566
 30
0.0
 10
10.9457741894
 20
8.9079313313
 30
0.0
 10
10.9496193058
 20
8.8941091802
 30
0.0
 10
10.9525794628
 20
8.880127651
 30
0.0
 10
10.9546433027
 20
8.8660453674
 30
0.0
 10
10.9558029096
 20
8.8519211634
 30
0.0
 10
10.9560538031
 20
8.8378139253
 30
0.0
 10
10.9553949366
 20
8.8237824384
 30
0.0
 10
10.9538286978
 20
8.8098852335
 30
0.0
 10
10.9513609185
 20
8.7961804398
 30
0.0
 10
10.9480008751
 20
8.7827256036
 30
0.0
 10
10.9437613528
 20
8.7695776097
 30
0.0
 10
10.9386584611
 20
8.7567921864
 30
0.0
 10
10.9327123859
 20
8.7444249137
 30
0.0
 10
10.9281952606
 20
8.7364833684
 30
0.0
 10
10.925805466
 20
8.7326024694
 30
0.0
  0
SPLINE
  5
35D
100
AcDbEntity
  8
0
100
AcDbSpline
 62
7
  6
CONTINUOUS
 70
0
 71
3
 72
21
 73
17
 74
0
 42
0.0000001
 43
0.0000001
 44
0.0000000001
 40
0.0
 40
0.0
 40
0.0
 40
0.0
 40
0.1273176984
 40
0.2537999461
 40
0.3167619614
 40
0.3795355204
 40
0.4421314992
 40
0.5045621453
 40
0.5668413456
 40
0.6289845231
 40
0.6910084433
 40
0.7529310869
 40
0.8147714401
 40
0.8765493236
 40
0.9382852134
 40
1.0
 40
1.0
 40
1.0
 40
1.0
 10
10.5637591311
 20
8.2944207659
 30
0.0
 10
10.5637591311
 20
8.2876759578
 30
0.0
 10
10.5631152941
 20
8.2742219184
 30
0.0
 10
10.5606837029
 20
8.2575898213
 30
0.0
 10
10.5577774358
 20
8.2445433977
 30
0.0
 10
10.5551270719
 20
8.2349203492
 30
0.0
 10
10.5520090772
 20
8.2254682975
 30
0.0
 10
10.5484306405
 20
8.2162087629
 30
0.0
 10
10.5444000118
 20
8.2071631615
 30
0.0
 10
10.5399264039
 20
8.19835237
 30
0.0
 10
10.5350201658
 20
8.1897966984
 30
0.0
 10
10.5296926122
 20
8.1815158645
 30
0.0
 10
10.5239559777
 20
8.1735290299
 30
0.0
 10
10.5178234565
 20
8.1658545374
 30
0.0
 10
10.511309463
 20
8.1585102992
 30
0.0
 10
10.5067215703
 20
8.1538448066
 30
0.0
 10
10.5043700216
 20
8.1515733988
 30
0.0
  0
SPLINE
  5
35E
100
AcDbEntity
  8
0
100
AcDbSpline
 62
7
  6
CONTINUOUS
 70
0
 71
3
 72
21
 73
17
 74
0
 42
0.0000001
 43
0.0000001
 44
0.0000000001
 40
0.0
 40
0.0
 40
0.0
 40
0.0
 40
0.1273176984
 40
0.2537999461
 40
0.3167619614
 40
0.3795355204
 40
0.4421314992
 40
0.5045621453
 40
0.5668413456
 40
0.6289845231
 40
0.6910084433
 40
0.7529310869
 40
0.8147714401
 40
0.8765493236
 40
0.9382852134
 40
1.0
 40
1.0
 40
1.0
 40
1.0
 10
10.0508524695
 20
7.9069152314
 30
0.0
 10
10.0508524695
 20
7.9001704233
 30
0.0
 10
10.0502086325
 20
7.8867163839
 30
0.0
 10
10.0477770412
 20
7.8700842868
 30
0.0
 10
10.0448707742
 20
7.8570378632
 30
0.0
 10
10.0422204102
 20
7.8474148147
 30
0.0
 10
10.0391024155
 20
7.837962763
 30
0.0
 10
10.0355239788
 20
7.8287032285
 30
0.0
 10
10.0314933501
 20
7.819657627
 30
0.0
 10
10.0270197423
 20
7.8108468355
 30
0.0
 10
10.0221135041
 20
7.802291164
 30
0.0
 10
10.0167859505
 20
7.79401033
 30
0.0
 10
10.0110493161
 20
7.7860234955
 30
0.0
 10
10.0049167948
 20
7.778349003
 30
0.0
 10
9.9984028014
 20
7.7710047647
 30
0.0
 10
9.9938149086
 20
7.7663392721
 30
0.0
 10
9.9914633599
 20
7.7640678643
 30
0.0
  0
SPLINE
  5
35F
100
AcDbEntity
  8
0
100
AcDbSpline
 62
7
  6
CONTINUOUS
 70
0
 71
3
 72
47
 73
43
 74
0
 42
0.0000001
 43
0.0000001
 44
0.0000000001
 40
0.0
 40
0.0
 40
0.0
 40
0.0
 40
0.0315534237
 40
0.062901628
 40
0.0940485357
 40
0.1250045361
 40
0.1557874798
 40
0.1711253991
 40
0.1864291048
 40
0.2017022129
 40
0.2169483669
 40
0.2321714127
 40
0.2473752357
 40
0.2625636844
 40
0.2777407145
 40
0.2929100749
 40
0.3080755916
 40
0.3384026718
 40
0.3687566443
 40
0.3839548132
 40
0.3991688218
 40
0.4296492842
 40
0.460223754
 40
0.4909089052
 40
0.5217185736
 40
0.5526638304
 40
0.5837530633
 40
0.6149920438
 40
0.6463839691
 40
0.67792947
 40
0.7096265803
 40
0.7255331179
 40
0.7414756027
 40
0.7734592658
 40
0.8055722066
 40
0.8216757475
 40
0.8378063617
 40
0.8701346916
 40
0.9025427209
 40
0.9350074626
 40
0.967502834
 40
1.0
 40
1.0
 40
1.0
 40
1.0
 10
11.4356847974
 20
7.7845099119
 30
0.0
 10
11.4350042254
 20
7.7900999239
 30
0.0
 10
11.4341640974
 20
7.8013138301
 30
0.0
 10
11.4344884671
 20
7.8181191324
 30
0.0
 10
11.4363870604
 20
7.8347143856
 30
0.0
 10
11.439826026
 20
7.850955598
 30
0.0
 10
11.4439386439
 20
7.8641054178
 30
0.0
 10
11.4479390963
 20
7.874315244
 30
0.0
 10
11.4512815967
 20
7.8818002516
 30
0.0
 10
11.454959109
 20
7.8891078859
 30
0.0
 10
11.4589610962
 20
7.8962264797
 30
0.0
 10
11.4632763186
 20
7.9031450225
 30
0.0
 10
11.4678933005
 20
7.9098533865
 30
0.0
 10
11.4728003448
 20
7.9163422296
 30
0.0
 10
11.4779853887
 20
7.9226030559
 30
0.0
 10
11.4834366094
 20
7.9286281279
 30
0.0
 10
11.4910422499
 20
7.9363367394
 30
0.0
 10
11.5011601472
 20
7.9453548415
 30
0.0
 10
11.5119990314
 20
7.9535000561
 30
0.0
 10
11.5210525574
 20
7.9594749885
 30
0.0
 10
11.5303585734
 20
7.965092278
 30
0.0
 10
11.5424245441
 20
7.9714251817
 30
0.0
 10
11.5574839485
 20
7.9778901687
 30
0.0
 10
11.5730471366
 20
7.9832095327
 30
0.0
 10
11.5890273134
 20
7.9873691383
 30
0.0
 10
11.6053400958
 20
7.9903584151
 30
0.0
 10
11.6219020995
 20
7.9921692389
 30
0.0
 10
11.6386305344
 20
7.9927957538
 30
0.0
 10
11.6554427134
 20
7.9922341098
 30
0.0
 10
11.6722545894
 20
7.9904826681
 30
0.0
 10
11.6861792557
 20
7.988034453
 30
0.0
 10
11.697232028
 20
7.985485044
 30
0.0
 10
11.7082377013
 20
7.9825350155
 30
0.0
 10
11.7218319033
 20
7.9781072679
 30
0.0
 10
11.7351041365
 20
7.9727140719
 30
0.0
 10
11.7454971752
 20
7.9678236965
 30
0.0
 10
11.7557407829
 20
7.9625432721
 30
0.0
 10
11.768200542
 20
7.9552323586
 30
0.0
 10
11.7824848989
 20
7.9453615457
 30
0.0
 10
11.7960086555
 20
7.9344221447
 30
0.0
 10
11.8086609737
 20
7.9224631487
 30
0.0
 10
11.8164459566
 20
7.9138449343
 30
0.0
 10
11.820156519
 20
7.9093875311
 30
0.0
  0
SPLINE
  5
360
100
AcDbEntity
  8
0
100
AcDbSpline
 62
7
  6
CONTINUOUS
 70
0
 71
3
 72
17
 73
13
 74
0
 42
0.0000001
 43
0.0000001
 44
0.0000000001
 40
0.0
 40
0.0
 40
0.0
 40
0.0
 40
0.0611905953
 40
0.1226656604
 40
0.1843990735
 40
0.246382392
 40
0.3709487791
 40
0.4962232682
 40
0.6219797858
 40
0.7479935972
 40
0.8740592391
 40
1.0
 40
1.0
 40
1.0
 40
1.0
 10
9.295498406
 20
7.4473545016
 30
0.0
 10
9.2940853744
 20
7.4474524957
 30
0.0
 10
9.2912584287
 20
7.4477437226
 30
0.0
 10
9.2870476552
 20
7.4484601742
 30
0.0
 10
9.2828741672
 20
7.4494527611
 30
0.0
 10
9.2773759266
 20
7.4511369709
 30
0.0
 10
9.2706846003
 20
7.4538958646
 30
0.0
 10
9.26308052
 20
7.4581498455
 30
0.0
 10
9.2559759249
 20
7.4632492725
 30
0.0
 10
9.2494397776
 20
7.4690841859
 30
0.0
 10
9.2435194085
 20
7.475545655
 30
0.0
 10
9.2399986716
 20
7.4802090568
 30
0.0
 10
9.2383492203
 20
7.482612799
 30
0.0
  0
SPLINE
  5
361
100
AcDbEntity
  8
0
100
AcDbSpline
 62
7
  6
CONTINUOUS
 70
0
 71
3
 72
50
 73
46
 74
0
 42
0.0000001
 43
0.0000001
 44
0.0000000001
 40
0.0
 40
0.0
 40
0.0
 40
0.0
 40
0.0481981287
 40
0.0958299599
 40
0.1428201049
 40
0.1890981954
 40
0.234593352
 40
0.2792370461
 40
0.3229624947
 40
0.36570495
 40
0.4074019186
 40
0.4479933318
 40
0.4874217928
 40
0.5256328281
 40
0.5625751314
 40
0.5982008569
 40
0.6324659593
 40
0.6653306126
 40
0.6967596903
 40
0.7267233109
 40
0.7551975361
 40
0.7821652471
 40
0.7950815822
 40
0.8076186149
 40
0.8197766865
 40
0.8315567917
 40
0.8429607842
 40
0.8539912606
 40
0.864651826
 40
0.8749471086
 40
0.8848828406
 40
0.8944661314
 40
0.9037054259
 40
0.9126108225
 40
0.9211941803
 40
0.9294692613
 40
0.9374520529
 40
0.9451607947
 40
0.9598349339
 40
0.9668567682
 40
0.9737036333
 40
0.9804068546
 40
0.9870000766
 40
0.9935188336
 40
1.0
 40
1.0
 40
1.0
 40
1.0
 10
11.2421302826
 20
10.532213145
 30
0.0
 10
11.2315584515
 20
10.532946304
 30
0.0
 10
11.2105469785
 20
10.5345220238
 30
0.0
 10
11.1792618373
 20
10.5372314074
 30
0.0
 10
11.148430992
 20
10.5402693645
 30
0.0
 10
11.1181063212
 20
10.5436307028
 30
0.0
 10
11.088338288
 20
10.5473098382
 30
0.0
 10
11.0591767526
 20
10.5513005685
 30
0.0
 10
11.0306704317
 20
10.5555961875
 30
0.0
 10
11.0028669638
 20
10.5601894738
 30
0.0
 10
10.9758128053
 20
10.5650727045
 30
0.0
 10
10.9495531488
 20
10.5702376737
 30
0.0
 10
10.9241318425
 20
10.5756756992
 30
0.0
 10
10.8995913085
 20
10.581377629
 30
0.0
 10
10.8759724736
 20
10.5873338726
 30
0.0
 10
10.8533147007
 20
10.5935344138
 30
0.0
 10
10.831655717
 20
10.5999688339
 30
0.0
 10
10.8110315239
 20
10.6066263262
 30
0.0
 10
10.7914763572
 20
10.6134957112
 30
0.0
 10
10.7730225055
 20
10.6205654962
 30
0.0
 10
10.7557006577
 20
10.6278238519
 30
0.0
 10
10.7420429804
 20
10.6341066922
 30
0.0
 10
10.731716946
 20
10.639228272
 30
0.0
 10
10.7243847186
 20
10.6430537476
 30
0.0
 10
10.7173561618
 20
10.6469171813
 30
0.0
 10
10.7106341966
 20
10.6508170559
 30
0.0
 10
10.7042215785
 20
10.6547516925
 30
0.0
 10
10.698120981
 20
10.6587195325
 30
0.0
 10
10.6923349108
 20
10.6627189289
 30
0.0
 10
10.6868657415
 20
10.6667482412
 30
0.0
 10
10.6817157617
 20
10.670805897
 30
0.0
 10
10.676887051
 20
10.6748902048
 30
0.0
 10
10.672381642
 20
10.6789996048
 30
0.0
 10
10.6682014004
 20
10.6831324543
 30
0.0
 10
10.6643480381
 20
10.6872871639
 30
0.0
 10
10.6608233242
 20
10.691462072
 30
0.0
 10
10.6576284883
 20
10.6956559592
 30
0.0
 10
10.6538731463
 20
10.7011786093
 30
0.0
 10
10.6506959135
 20
10.706831741
 30
0.0
 10
10.6481786788
 20
10.7125848231
 30
0.0
 10
10.6466544735
 20
10.7168475319
 30
0.0
 10
10.6454678868
 20
10.7211186152
 30
0.0
 10
10.6446196489
 20
10.725396358
 30
0.0
 10
10.6441103852
 20
10.7296782542
 30
0.0
 10
10.6439970961
 20
10.7325377972
 30
0.0
 10
10.6439970936
 20
10.7339627978
 30
0.0
  0
SPLINE
  5
362
100
AcDbEntity
  8
0
100
AcDbSpline
 62
7
  6
CONTINUOUS
 70
0
 71
3
 72
9
 73
5
 74
0
 42
0.0000001
 43
0.0000001
 44
0.0000000001
 40
0.0
 40
0.0
 40
0.0
 40
0.0
 40
0.2510867774
 40
1.0
 40
1.0
 40
1.0
 40
1.0
 10
9.9384186117
 20
8.0968144253
 30
0.0
 10
9.9393877576
 20
8.0965195852
 30
0.0
 10
9.9432601553
 20
8.0953869381
 30
0.0
 10
9.9471793158
 20
8.0944157092
 30
0.0
 10
9.9501311936
 20
8.0937709627
 30
0.0
  0
SPLINE
  5
363
100
AcDbEntity
  8
0
100
AcDbSpline
 62
7
  6
CONTINUOUS
 70
0
 71
3
 72
39
 73
35
 74
0
 42
0.0000001
 43
0.0000001
 44
0.0000000001
 40
0.0
 40
0.0
 40
0.0
 40
0.0
 40
0.0311445425
 40
0.0624433652
 40
0.093888256
 40
0.1254710218
 40
0.1571788766
 40
0.1889972611
 40
0.2209091725
 40
0.2528958428
 40
0.2849370253
 40
0.3170114183
 40
0.349097079
 40
0.3811718482
 40
0.4132137779
 40
0.4452015551
 40
0.4771149166
 40
0.5089350506
 40
0.5406449764
 40
0.5722298984
 40
0.6036775288
 40
0.634978368
 40
0.6661259371
 40
0.6971169555
 40
0.7279514574
 40
0.758632841
 40
0.7891678449
 40
0.819566448
 40
0.8498416915
 40
0.8800094239
 40
0.9100879689
 40
0.9400977235
 40
0.9700606966
 40
1.0
 40
1.0
 40
1.0
 40
1.0
 10
9.7246562081
 20
9.2828175267
 30
0.0
 10
9.7273097054
 20
9.282633506
 30
0.0
 10
9.7326183462
 20
9.282070305
 30
0.0
 10
9.7405169212
 20
9.2806516815
 30
0.0
 10
9.7483309264
 20
9.2786645037
 30
0.0
 10
9.7560180825
 20
9.2761196308
 30
0.0
 10
9.7635376144
 20
9.2730305831
 30
0.0
 10
9.7708493907
 20
9.2694139465
 30
0.0
 10
9.7779144643
 20
9.2652890199
 30
0.0
 10
9.7846951876
 20
9.2606778362
 30
0.0
 10
9.7911554303
 20
9.2556049944
 30
0.0
 10
9.7972607681
 20
9.2500975509
 30
0.0
 10
9.8029786678
 20
9.2441848718
 30
0.0
 10
9.8082786539
 20
9.2378984735
 30
0.0
 10
9.8131324707
 20
9.2312718575
 30
0.0
 10
9.8175142305
 20
9.2243403335
 30
0.0
 10
9.8214005507
 20
9.2171408341
 30
0.0
 10
9.8247706773
 20
9.2097117199
 30
0.0
 10
9.8276065955
 20
9.2020925786
 30
0.0
 10
9.8298931243
 20
9.1943240167
 30
0.0
 10
9.8316180063
 20
9.1864474476
 30
0.0
 10
9.8327719697
 20
9.1785048714
 30
0.0
 10
9.8333487774
 20
9.1705386532
 30
0.0
 10
9.8333452631
 20
9.1625913009
 30
0.0
 10
9.8327613518
 20
9.1547052407
 30
0.0
 10
9.8316000643
 20
9.1469225927
 30
0.0
 10
9.8298675067
 20
9.1392849478
 30
0.0
 10
9.8275728416
 20
9.1318331442
 30
0.0
 10
9.8247282495
 20
9.1246070514
 30
0.0
 10
9.8213488618
 20
9.1176453368
 30
0.0
 10
9.8174527262
 20
9.1109853075
 30
0.0
 10
9.8130605253
 20
9.1046625164
 30
0.0
 10
9.8081961697
 20
9.0987112709
 30
0.0
 10
9.8046542928
 20
9.0950111478
 30
0.0
 10
9.8028151955
 20
9.0932347316
 30
0.0
  0
SPLINE
  5
364
100
AcDbEntity
  8
0
100
AcDbSpline
 62
7
  6
CONTINUOUS
 70
0
 71
3
 72
39
 73
35
 74
0
 42
0.0000001
 43
0.0000001
 44
0.0000000001
 40
0.0
 40
0.0
 40
0.0
 40
0.0
 40
0.0311445425
 40
0.0624433652
 40
0.093888256
 40
0.1254710218
 40
0.1571788766
 40
0.1889972611
 40
0.2209091725
 40
0.2528958428
 40
0.2849370253
 40
0.3170114183
 40
0.349097079
 40
0.3811718482
 40
0.4132137779
 40
0.4452015551
 40
0.4771149166
 40
0.5089350506
 40
0.5406449764
 40
0.5722298984
 40
0.6036775288
 40
0.634978368
 40
0.6661259371
 40
0.6971169555
 40
0.7279514574
 40
0.758632841
 40
0.7891678449
 40
0.819566448
 40
0.8498416915
 40
0.8800094239
 40
0.9100879689
 40
0.9400977235
 40
0.9700606966
 40
1.0
 40
1.0
 40
1.0
 40
1.0
 10
11.7772487106
 20
9.1404697531
 30
0.0
 10
11.7799022078
 20
9.1402857325
 30
0.0
 10
11.7852108487
 20
9.1397225315
 30
0.0
 10
11.7931094236
 20
9.138303908
 30
0.0
 10
11.8009234288
 20
9.1363167301
 30
0.0
 10
11.808610585
 20
9.1337718573
 30
0.0
 10
11.8161301169
 20
9.1306828095
 30
0.0
 10
11.8234418932
 20
9.127066173
 30
0.0
 10
11.8305069668
 20
9.1229412464
 30
0.0
 10
11.8372876901
 20
9.1183300627
 30
0.0
 10
11.8437479327
 20
9.1132572209
 30
0.0
 10
11.8498532706
 20
9.1077497774
 30
0.0
 10
11.8555711703
 20
9.1018370982
 30
0.0
 10
11.8608711564
 20
9.0955506999
 30
0.0
 10
11.8657249731
 20
9.0889240839
 30
0.0
 10
11.870106733
 20
9.08199256
 30
0.0
 10
11.8739930532
 20
9.0747930606
 30
0.0
 10
11.8773631798
 20
9.0673639463
 30
0.0
 10
11.880199098
 20
9.0597448051
 30
0.0
 10
11.8824856268
 20
9.0519762432
 30
0.0
 10
11.8842105088
 20
9.0440996741
 30
0.0
 10
11.8853644722
 20
9.0361570979
 30
0.0
 10
11.8859412799
 20
9.0281908797
 30
0.0
 10
11.8859377656
 20
9.0202435274
 30
0.0
 10
11.8853538543
 20
9.0123574671
 30
0.0
 10
11.8841925668
 20
9.0045748191
 30
0.0
 10
11.8824600092
 20
8.9969371742
 30
0.0
 10
11.8801653441
 20
8.9894853707
 30
0.0
 10
11.877320752
 20
8.9822592779
 30
0.0
 10
11.8739413643
 20
8.9752975632
 30
0.0
 10
11.8700452287
 20
8.968637534
 30
0.0
 10
11.8656530278
 20
8.9623147429
 30
0.0
 10
11.8607886722
 20
8.9563634974
 30
0.0
 10
11.8572467952
 20
8.9526633743
 30
0.0
 10
11.855407698
 20
8.9508869581
 30
0.0
  0
SPLINE
  5
365
100
AcDbEntity
  8
0
100
AcDbSpline
 62
7
  6
CONTINUOUS
 70
0
 71
3
 72
39
 73
35
 74
0
 42
0.0000001
 43
0.0000001
 44
0.0000000001
 40
0.0
 40
0.0
 40
0.0
 40
0.0
 40
0.0311445425
 40
0.0624433652
 40
0.093888256
 40
0.1254710218
 40
0.1571788766
 40
0.1889972611
 40
0.2209091725
 40
0.2528958428
 40
0.2849370253
 40
0.3170114183
 40
0.349097079
 40
0.3811718482
 40
0.4132137779
 40
0.4452015551
 40
0.4771149166
 40
0.5089350506
 40
0.5406449764
 40
0.5722298984
 40
0.6036775288
 40
0.634978368
 40
0.6661259371
 40
0.6971169555
 40
0.7279514574
 40
0.758632841
 40
0.7891678449
 40
0.819566448
 40
0.8498416915
 40
0.8800094239
 40
0.9100879689
 40
0.9400977235
 40
0.9700606966
 40
1.0
 40
1.0
 40
1.0
 40
1.0
 10
9.7246562081
 20
7.5315939348
 30
0.0
 10
9.7273097054
 20
7.5314099142
 30
0.0
 10
9.7326183462
 20
7.5308467132
 30
0.0
 10
9.7405169212
 20
7.5294280897
 30
0.0
 10
9.7483309264
 20
7.5274409118
 30
0.0
 10
9.7560180825
 20
7.524896039
 30
0.0
 10
9.7635376144
 20
7.5218069912
 30
0.0
 10
9.7708493907
 20
7.5181903547
 30
0.0
 10
9.7779144643
 20
7.5140654281
 30
0.0
 10
9.7846951876
 20
7.5094542444
 30
0.0
 10
9.7911554303
 20
7.5043814026
 30
0.0
 10
9.7972607681
 20
7.4988739591
 30
0.0
 10
9.8029786678
 20
7.49296128
 30
0.0
 10
9.8082786539
 20
7.4866748816
 30
0.0
 10
9.8131324707
 20
7.4800482656
 30
0.0
 10
9.8175142305
 20
7.4731167417
 30
0.0
 10
9.8214005507
 20
7.4659172423
 30
0.0
 10
9.8247706773
 20
7.4584881281
 30
0.0
 10
9.8276065955
 20
7.4508689868
 30
0.0
 10
9.8298931243
 20
7.4431004249
 30
0.0
 10
9.8316180063
 20
7.4352238558
 30
0.0
 10
9.8327719697
 20
7.4272812796
 30
0.0
 10
9.8333487774
 20
7.4193150614
 30
0.0
 10
9.8333452631
 20
7.4113677091
 30
0.0
 10
9.8327613518
 20
7.4034816488
 30
0.0
 10
9.8316000643
 20
7.3956990008
 30
0.0
 10
9.8298675067
 20
7.3880613559
 30
0.0
 10
9.8275728416
 20
7.3806095524
 30
0.0
 10
9.8247282495
 20
7.3733834596
 30
0.0
 10
9.8213488618
 20
7.3664217449
 30
0.0
 10
9.8174527262
 20
7.3597617157
 30
0.0
 10
9.8130605253
 20
7.3534389246
 30
0.0
 10
9.8081961697
 20
7.3474876791
 30
0.0
 10
9.8046542928
 20
7.343787556
 30
0.0
 10
9.8028151955
 20
7.3420111398
 30
0.0
  0
SPLINE
  5
366
100
AcDbEntity
  8
0
100
AcDbSpline
 62
7
  6
CONTINUOUS
 70
0
 71
3
 72
39
 73
35
 74
0
 42
0.0000001
 43
0.0000001
 44
0.0000000001
 40
0.0
 40
0.0
 40
0.0
 40
0.0
 40
0.0311445425
 40
0.0624433652
 40
0.093888256
 40
0.1254710218
 40
0.1571788766
 40
0.1889972611
 40
0.2209091725
 40
0.2528958428
 40
0.2849370253
 40
0.3170114183
 40
0.349097079
 40
0.3811718482
 40
0.4132137779
 40
0.4452015551
 40
0.4771149166
 40
0.5089350506
 40
0.5406449764
 40
0.5722298984
 40
0.6036775288
 40
0.634978368
 40
0.6661259371
 40
0.6971169555
 40
0.7279514574
 40
0.758632841
 40
0.7891678449
 40
0.819566448
 40
0.8498416915
 40
0.8800094239
 40
0.9100879689
 40
0.9400977235
 40
0.9700606966
 40
1.0
 40
1.0
 40
1.0
 40
1.0
 10
11.7772487106
 20
7.3892461613
 30
0.0
 10
11.7799022078
 20
7.3890621406
 30
0.0
 10
11.7852108487
 20
7.3884989397
 30
0.0
 10
11.7931094236
 20
7.3870803162
 30
0.0
 10
11.8009234288
 20
7.3850931383
 30
0.0
 10
11.808610585
 20
7.3825482655
 30
0.0
 10
11.8161301169
 20
7.3794592177
 30
0.0
 10
11.8234418932
 20
7.3758425811
 30
0.0
 10
11.8305069668
 20
7.3717176546
 30
0.0
 10
11.8372876901
 20
7.3671064708
 30
0.0
 10
11.8437479327
 20
7.362033629
 30
0.0
 10
11.8498532706
 20
7.3565261856
 30
0.0
 10
11.8555711703
 20
7.3506135064
 30
0.0
 10
11.8608711564
 20
7.3443271081
 30
0.0
 10
11.8657249731
 20
7.3377004921
 30
0.0
 10
11.870106733
 20
7.3307689682
 30
0.0
 10
11.8739930532
 20
7.3235694687
 30
0.0
 10
11.8773631798
 20
7.3161403545
 30
0.0
 10
11.880199098
 20
7.3085212133
 30
0.0
 10
11.8824856268
 20
7.3007526514
 30
0.0
 10
11.8842105088
 20
7.2928760823
 30
0.0
 10
11.8853644722
 20
7.2849335061
 30
0.0
 10
11.8859412799
 20
7.2769672879
 30
0.0
 10
11.8859377656
 20
7.2690199356
 30
0.0
 10
11.8853538543
 20
7.2611338753
 30
0.0
 10
11.8841925668
 20
7.2533512273
 30
0.0
 10
11.8824600092
 20
7.2457135824
 30
0.0
 10
11.8801653441
 20
7.2382617788
 30
0.0
 10
11.877320752
 20
7.2310356861
 30
0.0
 10
11.8739413643
 20
7.2240739714
 30
0.0
 10
11.8700452287
 20
7.2174139421
 30
0.0
 10
11.8656530278
 20
7.211091151
 30
0.0
 10
11.8607886722
 20
7.2051399056
 30
0.0
 10
11.8572467952
 20
7.2014397824
 30
0.0
 10
11.855407698
 20
7.1996633663
 30
0.0
  0
SPLINE
  5
367
100
AcDbEntity
  8
0
100
AcDbSpline
 62
7
  6
CONTINUOUS
 70
0
 71
3
 72
45
 73
41
 74
0
 42
0.0000001
 43
0.0000001
 44
0.0000000001
 40
0.0
 40
0.0
 40
0.0
 40
0.0
 40
0.0823537974
 40
0.1660994942
 40
0.250261565
 40
0.2921925391
 40
0.3338594651
 40
0.3751409802
 40
0.4159171585
 40
0.4560699777
 40
0.4954837792
 40
0.5340457453
 40
0.5716464029
 40
0.6081801224
 40
0.6435456385
 40
0.6776466107
 40
0.710392234
 40
0.7416979265
 40
0.7714861411
 40
0.7996872922
 40
0.8262408929
 40
0.8510970218
 40
0.8628769971
 40
0.8742198067
 40
0.8851230877
 40
0.8955858402
 40
0.9056081847
 40
0.9151918879
 40
0.9243403624
 40
0.9330589524
 40
0.9413554089
 40
0.9492399535
 40
0.9567260863
 40
0.963830766
 40
0.9705751879
 40
0.9769853551
 40
0.9830925676
 40
0.9889341461
 40
0.9945534571
 40
1.0
 40
1.0
 40
1.0
 40
1.0
 10
12.7319334458
 20
9.3215296834
 30
0.0
 10
12.7319334458
 20
9.3327768744
 30
0.0
 10
12.7322758002
 20
9.3554626065
 30
0.0
 10
12.733763222
 20
9.3896129644
 30
0.0
 10
12.7358067594
 20
9.4182021518
 30
0.0
 10
12.7379192947
 20
9.4410164142
 30
0.0
 10
12.7397317528
 20
9.4579754256
 30
0.0
 10
12.7417683622
 20
9.4747501008
 30
0.0
 10
12.7440227938
 20
9.4912882523
 30
0.0
 10
12.7464879927
 20
9.507538379
 30
0.0
 10
12.7491562538
 20
9.5234498961
 30
0.0
 10
12.7520192314
 20
9.5389732782
 30
0.0
 10
12.7550679618
 20
9.5540602237
 30
0.0
 10
12.7582928954
 20
9.5686638072
 30
0.0
 10
12.7616839271
 20
9.5827386276
 30
0.0
 10
12.7652304268
 20
9.5962409546
 30
0.0
 10
12.7689212726
 20
9.6091288695
 30
0.0
 10
12.7727448892
 20
9.6213624184
 30
0.0
 10
12.7766892792
 20
9.6329037279
 30
0.0
 10
12.7807420722
 20
9.6437172425
 30
0.0
 10
12.7848905856
 20
9.6537695211
 30
0.0
 10
12.788478004
 20
9.6616213042
 30
0.0
 10
12.7913943765
 20
9.6674896224
 30
0.0
 10
12.7935582733
 20
9.6716025708
 30
0.0
 10
12.7957364138
 20
9.6755032288
 30
0.0
 10
12.7979270791
 20
9.679188629
 30
0.0
 10
12.8001286414
 20
9.6826559227
 30
0.0
 10
12.8023393888
 20
9.6859024772
 30
0.0
 10
12.8045576507
 20
9.6889258257
 30
0.0
 10
12.8067818096
 20
9.6917236508
 30
0.0
 10
12.809010165
 20
9.6942938807
 30
0.0
 10
12.811241194
 20
9.6966345131
 30
0.0
 10
12.8134732621
 20
9.6987438178
 30
0.0
 10
12.8157048962
 20
9.7006201242
 30
0.0
 10
12.8179346193
 20
9.7022619098
 30
0.0
 10
12.8201609766
 20
9.7036677945
 30
0.0
 10
12.8223825733
 20
9.7048363063
 30
0.0
 10
12.8245979692
 20
9.7057662166
 30
0.0
 10
12.8268052542
 20
9.7064560462
 30
0.0
 10
12.8282892098
 20
9.7067589225
 30
0.0
 10
12.8290250123
 20
9.7068679975
 30
0.0
  0
SPLINE
  5
368
100
AcDbEntity
  8
0
100
AcDbSpline
 62
7
  6
CONTINUOUS
 70
0
 71
3
 72
34
 73
30
 74
0
 42
0.0000001
 43
0.0000001
 44
0.0000000001
 40
0.0
 40
0.0
 40
0.0
 40
0.0
 40
0.0940076859
 40
0.1855740619
 40
0.2741930896
 40
0.3593781171
 40
0.4406712721
 40
0.4797249718
 40
0.5176489465
 40
0.5543958095
 40
0.5899212541
 40
0.624183766
 40
0.657145323
 40
0.688771561
 40
0.7190320497
 40
0.747901186
 40
0.7753581946
 40
0.8013885023
 40
0.8259841721
 40
0.8491453358
 40
0.8708818283
 40
0.8912147913
 40
0.9101798571
 40
0.9278298303
 40
0.9442393385
 40
0.9595095222
 40
0.9737733712
 40
0.9872007116
 40
1.0
 40
1.0
 40
1.0
 40
1.0
 10
12.7319334458
 20
9.3215296834
 30
0.0
 10
12.7319334458
 20
9.3138715722
 30
0.0
 10
12.7320890379
 20
9.2987536827
 30
0.0
 10
12.7328052801
 20
9.2764269071
 30
0.0
 10
12.733997106
 20
9.2548399126
 30
0.0
 10
12.7356571173
 20
9.2341232238
 30
0.0
 10
12.7374447977
 20
9.2174732351
 30
0.0
 10
12.7391124002
 20
9.2046879256
 30
0.0
 10
12.7404563333
 20
9.1955211973
 30
0.0
 10
12.7419081517
 20
9.1866620431
 30
0.0
 10
12.7434656157
 20
9.1781238239
 30
0.0
 10
12.7451263788
 20
9.1699194237
 30
0.0
 10
12.7468878903
 20
9.1620612054
 30
0.0
 10
12.7487474508
 20
9.1545609945
 30
0.0
 10
12.7507022667
 20
9.1474300623
 30
0.0
 10
12.7527493067
 20
9.1406790885
 30
0.0
 10
12.754885533
 20
9.1343181659
 30
0.0
 10
12.7571076747
 20
9.1283567453
 30
0.0
 10
12.759412436
 20
9.122803642
 30
0.0
 10
12.7617964343
 20
9.1176670076
 30
0.0
 10
12.7642561826
 20
9.1129542823
 30
0.0
 10
12.7667883272
 20
9.1086722631
 30
0.0
 10
12.7693894323
 20
9.1048269914
 30
0.0
 10
12.7720563689
 20
9.1014239492
 30
0.0
 10
12.7747861929
 20
9.0984680514
 30
0.0
 10
12.7775761841
 20
9.0959639614
 30
0.0
 10
12.7804242417
 20
9.0939164274
 30
0.0
 10
12.7833266636
 20
9.0923308241
 30
0.0
 10
12.7853331653
 20
9.0915716696
 30
0.0
 10
12.7863335788
 20
9.0912778674
 30
0.0
  0
SPLINE
  5
369
100
AcDbEntity
  8
0
100
AcDbSpline
 62
7
  6
CONTINUOUS
 70
0
 71
3
 72
51
 73
47
 74
0
 42
0.0000001
 43
0.0000001
 44
0.0000000001
 40
0.0
 40
0.0
 40
0.0
 40
0.0
 40
0.0407255939
 40
0.0819148707
 40
0.1234497405
 40
0.165211251
 40
0.2070793786
 40
0.2489338144
 40
0.2906542607
 40
0.3321209221
 40
0.3732149271
 40
0.4138187759
 40
0.4538167833
 40
0.4930955291
 40
0.5315443152
 40
0.5690556342
 40
0.6055256524
 40
0.640854717
 40
0.6749478938
 40
0.7077155516
 40
0.7390740112
 40
0.7689462885
 40
0.783303493
 40
0.7972637824
 40
0.8108198826
 40
0.8239650674
 40
0.8366933511
 40
0.8489994216
 40
0.8608788167
 40
0.8723279158
 40
0.8833441008
 40
0.8939258234
 40
0.9040727602
 40
0.9137859731
 40
0.9230680773
 40
0.9319235183
 40
0.9403587809
 40
0.9483828096
 40
0.9560072958
 40
0.963247261
 40
0.9701214471
 40
0.9766530383
 40
0.982870104
 40
0.9888062941
 40
0.9945010836
 40
1.0
 40
1.0
 40
1.0
 40
1.0
 10
12.8408961832
 20
8.3401128777
 30
0.0
 10
12.8408961832
 20
8.3504341469
 30
0.0
 10
12.8410511029
 20
8.3711944999
 30
0.0
 10
12.8417364244
 20
8.402474421
 30
0.0
 10
12.8428741721
 20
8.4340039105
 30
0.0
 10
12.8444608697
 20
8.4656862219
 30
0.0
 10
12.8464916769
 20
8.4974243214
 30
0.0
 10
12.8489603691
 20
8.5291209273
 30
0.0
 10
12.8518593774
 20
8.5606789138
 30
0.0
 10
12.8551798019
 20
8.592001573
 30
0.0
 10
12.8589114428
 20
8.6229929257
 30
0.0
 10
12.8630428299
 20
8.6535580137
 30
0.0
 10
12.8675612577
 20
8.6836031943
 30
0.0
 10
12.8724528239
 20
8.71303643
 30
0.0
 10
12.8777024707
 20
8.7417675741
 30
0.0
 10
12.8832940303
 20
8.769708652
 30
0.0
 10
12.8892102739
 20
8.7967741344
 30
0.0
 10
12.8954329626
 20
8.8228812148
 30
0.0
 10
12.9019429051
 20
8.8479500488
 30
0.0
 10
12.9087200104
 20
8.8719040969
 30
0.0
 10
12.9157433731
 20
8.8946700841
 30
0.0
 10
12.921861399
 20
8.9128262244
 30
0.0
 10
12.9268730931
 20
8.9266963154
 30
0.0
 10
12.9306301652
 20
8.9366216762
 30
0.0
 10
12.9344323361
 20
8.9462001415
 30
0.0
 10
12.9382767593
 20
8.9554244001
 30
0.0
 10
12.942160442
 20
8.9642874192
 30
0.0
 10
12.9460804429
 20
8.9727824376
 30
0.0
 10
12.950033735
 20
8.9809029947
 30
0.0
 10
12.9540173179
 20
8.9886429135
 30
0.0
 10
12.9580281419
 20
8.9959963251
 30
0.0
 10
12.9620631638
 20
9.0029576622
 30
0.0
 10
12.9661193326
 20
9.0095216671
 30
0.0
 10
12.9701935848
 20
9.0156834055
 30
0.0
 10
12.9742828984
 20
9.0214382449
 30
0.0
 10
12.9783842228
 20
9.0267819005
 30
0.0
 10
12.9824946076
 20
9.0317103659
 30
0.0
 10
12.9866110651
 20
9.0362200041
 30
0.0
 10
12.9907307724
 20
9.0403074029
 30
0.0
 10
12.9948508671
 20
9.0439695246
 30
0.0
 10
12.9989686991
 20
9.047203449
 30
0.0
 10
13.0030815729
 20
9.0500066014
 30
0.0
 10
13.0071869216
 20
9.0523763389
 30
0.0
 10
13.011282221
 20
9.0543103458
 30
0.0
 10
13.0153641361
 20
9.0558059466
 30
0.0
 10
13.0181155864
 20
9.0565198685
 30
0.0
 10
13.0194810442
 20
9.0567985935
 30
0.0
  0
SPLINE
  5
36A
100
AcDbEntity
  8
0
100
AcDbSpline
 62
7
  6
CONTINUOUS
 70
0
 71
3
 72
38
 73
34
 74
0
 42
0.0000001
 43
0.0000001
 44
0.0000000001
 40
0.0
 40
0.0
 40
0.0
 40
0.0
 40
0.093371942
 40
0.1843533724
 40
0.2287941043
 40
0.2724539204
 40
0.3152746869
 40
0.3571997725
 40
0.3981743018
 40
0.4381452844
 40
0.4770618682
 40
0.514875448
 40
0.5515397846
 40
0.5870113648
 40
0.6212495634
 40
0.65421682
 40
0.685879116
 40
0.7162062815
 40
0.7451723253
 40
0.7727561461
 40
0.7989421582
 40
0.8237210023
 40
0.8470907815
 40
0.8690584125
 40
0.8896412512
 40
0.9088695356
 40
0.9267893214
 40
0.9434660309
 40
0.9589890654
 40
0.9734768499
 40
0.9870815553
 40
0.9936141032
 40
1.0
 40
1.0
 40
1.0
 40
1.0
 10
12.8408961832
 20
8.3401128777
 30
0.0
 10
12.8408961832
 20
8.3260244082
 30
0.0
 10
12.8411792699
 20
8.298207277
 30
0.0
 10
12.8422730518
 20
8.263699903
 30
0.0
 10
12.8435947434
 20
8.2367108412
 30
0.0
 10
12.8447941546
 20
8.2169926712
 30
0.0
 10
12.8462075781
 20
8.1976692438
 30
0.0
 10
12.8478329157
 20
8.1787690833
 30
0.0
 10
12.8496677285
 20
8.160320134
 30
0.0
 10
12.8517093016
 20
8.1423496613
 30
0.0
 10
12.8539545739
 20
8.124884211
 30
0.0
 10
12.8564001844
 20
8.1079495758
 30
0.0
 10
12.8590425082
 20
8.0915707593
 30
0.0
 10
12.8618775897
 20
8.0757719249
 30
0.0
 10
12.8649011851
 20
8.0605763626
 30
0.0
 10
12.8681088104
 20
8.0460064607
 30
0.0
 10
12.8714956746
 20
8.0320836516
 30
0.0
 10
12.8750567161
 20
8.0188283784
 30
0.0
 10
12.8787866696
 20
8.0062600738
 30
0.0
 10
12.8826800014
 20
7.9943971
 30
0.0
 10
12.8867309468
 20
7.9832567117
 30
0.0
 10
12.8909336051
 20
7.9728550444
 30
0.0
 10
12.8952818972
 20
7.9632070486
 30
0.0
 10
12.8997696207
 20
7.9543264503
 30
0.0
 10
12.9043906173
 20
7.946225773
 30
0.0
 10
12.9091387847
 20
7.9389163113
 30
0.0
 10
12.9140082471
 20
7.9324081547
 30
0.0
 10
12.9189934807
 20
7.9267104796
 30
0.0
 10
12.9240898188
 20
7.9218316721
 30
0.0
 10
12.9292917855
 20
7.9177804093
 30
0.0
 10
12.9337725871
 20
7.9150647949
 30
0.0
 10
12.9373869994
 20
7.9133408464
 30
0.0
 10
12.9392017871
 20
7.9126241756
 30
0.0
 10
12.9401102209
 20
7.9123029973
 30
0.0
  0
SPLINE
  5
36B
100
AcDbEntity
  8
0
100
AcDbSpline
 62
7
  6
CONTINUOUS
 70
0
 71
3
 72
38
 73
34
 74
0
 42
0.0000001
 43
0.0000001
 44
0.0000000001
 40
0.0
 40
0.0
 40
0.0
 40
0.0
 40
0.0927669204
 40
0.1832200588
 40
0.227425613
 40
0.2708696149
 40
0.3134939768
 40
0.355242102
 40
0.3960591669
 40
0.4358922346
 40
0.474690501
 40
0.5124054382
 40
0.5489909005
 40
0.5844034667
 40
0.6186026542
 40
0.6515510774
 40
0.6832148975
 40
0.7135641985
 40
0.7425732953
 40
0.7702214025
 40
0.7964933448
 40
0.8213802353
 40
0.8448806457
 40
0.8670020315
 40
0.8877622892
 40
0.9071920577
 40
0.9253376268
 40
0.9422642593
 40
0.958060416
 40
0.9728424509
 40
0.9867587798
 40
0.9934517599
 40
1.0
 40
1.0
 40
1.0
 40
1.0
 10
11.3021762515
 20
10.5593034716
 30
0.0
 10
11.2880123085
 20
10.5602857444
 30
0.0
 10
11.2600571987
 20
10.5625207675
 30
0.0
 10
11.225427535
 20
10.566066171
 30
0.0
 10
11.1983638531
 20
10.5693248836
 30
0.0
 10
11.1785984598
 20
10.5719497926
 30
0.0
 10
11.1592400095
 20
10.5747702135
 30
0.0
 10
11.1403173637
 20
10.5777819329
 30
0.0
 10
11.1218587782
 20
10.5809804143
 30
0.0
 10
11.1038918056
 20
10.5843608797
 30
0.0
 10
11.0864432505
 20
10.5879182446
 30
0.0
 10
11.0695391348
 20
10.5916471546
 30
0.0
 10
11.0532046659
 20
10.5955420329
 30
0.0
 10
11.0374641809
 20
10.5995970265
 30
0.0
 10
11.0223411105
 20
10.6038060298
 30
0.0
 10
11.0078579567
 20
10.6081627477
 30
0.0
 10
10.9940362363
 20
10.6126606467
 30
0.0
 10
10.9808964404
 20
10.6172929654
 30
0.0
 10
10.9684580225
 20
10.622052797
 30
0.0
 10
10.9567393407
 20
10.6269330517
 30
0.0
 10
10.9457576084
 20
10.6319264586
 30
0.0
 10
10.9355288955
 20
10.6370256769
 30
0.0
 10
10.926068076
 20
10.6422232894
 30
0.0
 10
10.9173887712
 20
10.6475118126
 30
0.0
 10
10.9095033909
 20
10.6528838722
 30
0.0
 10
10.9024231414
 20
10.6583322554
 30
0.0
 10
10.8961580285
 20
10.6638500076
 30
0.0
 10
10.8907171512
 20
10.669430534
 30
0.0
 10
10.8861088964
 20
10.6750681027
 30
0.0
 10
10.8823417868
 20
10.6807560713
 30
0.0
 10
10.8798788065
 20
10.6855970474
 30
0.0
 10
10.8783614176
 20
10.6894693018
 30
0.0
 10
10.877749448
 20
10.6914032849
 30
0.0
 10
10.8774809113
 20
10.6923688454
 30
0.0
  0
SPLINE
  5
36C
100
AcDbEntity
  8
0
100
AcDbSpline
 62
7
  6
CONTINUOUS
 70
0
 71
3
 72
51
 73
47
 74
0
 42
0.0000001
 43
0.0000001
 44
0.0000000001
 40
0.0
 40
0.0
 40
0.0
 40
0.0
 40
0.0407232332
 40
0.0818863366
 40
0.1233732967
 40
0.1650674131
 40
0.2068509298
 40
0.2486058938
 40
0.2902144079
 40
0.3315591253
 40
0.3725236576
 40
0.4129930157
 40
0.4528540437
 40
0.491995862
 40
0.5303103176
 40
0.5676924462
 40
0.6040409516
 40
0.6392587085
 40
0.6732532994
 40
0.7059375994
 40
0.7372304285
 40
0.7670572999
 40
0.7814001779
 40
0.7953521585
 40
0.8089062424
 40
0.8220560653
 40
0.8347959151
 40
0.8471208513
 40
0.8590266867
 40
0.8705101797
 40
0.8815689904
 40
0.8922019523
 40
0.9024090205
 40
0.9121916286
 40
0.9215526586
 40
0.9304968896
 40
0.9390310273
 40
0.9471642531
 40
0.9549083557
 40
0.9622783805
 40
0.9692928881
 40
0.9759746641
 40
0.9823510536
 40
0.9884545742
 40
0.9943230979
 40
1.0
 40
1.0
 40
1.0
 40
1.0
 10
11.3021762515
 20
10.5593034716
 30
0.0
 10
11.3124278486
 20
10.5585925209
 30
0.0
 10
11.3330530077
 20
10.5573203478
 30
0.0
 10
11.3641523559
 20
10.5558638889
 30
0.0
 10
11.3955145039
 20
10.5548516395
 30
0.0
 10
11.4270444426
 20
10.5542866769
 30
0.0
 10
11.4586468573
 20
10.5541707282
 30
0.0
 10
11.4902261243
 20
10.5545041421
 30
0.0
 10
11.5216867235
 20
10.5552859055
 30
0.0
 10
11.5529334847
 20
10.5565136363
 30
0.0
 10
11.5838718921
 20
10.5581835951
 30
0.0
 10
11.6144083682
 20
10.5602906944
 30
0.0
 10
11.64445056
 20
10.5628285136
 30
0.0
 10
11.6739076216
 20
10.5657893181
 30
0.0
 10
11.7026904921
 20
10.5691640812
 30
0.0
 10
11.7307121704
 20
10.5729425107
 30
0.0
 10
11.7578879822
 20
10.5771130793
 30
0.0
 10
11.7841358508
 20
10.5816630571
 30
0.0
 10
11.8093765313
 20
10.5865785533
 30
0.0
 10
11.8335339506
 20
10.5918445467
 30
0.0
 10
11.8565351519
 20
10.5974449729
 30
0.0
 10
11.8749138474
 20
10.6024393116
 30
0.0
 10
11.8889783967
 20
10.6066001075
 30
0.0
 10
11.899057574
 20
10.6097528077
 30
0.0
 10
11.9087978556
 20
10.6129759382
 30
0.0
 10
11.918191914
 20
10.616267071
 30
0.0
 10
11.9272326664
 20
10.6196237303
 30
0.0
 10
11.9359133172
 20
10.6230433463
 30
0.0
 10
11.9442273329
 20
10.6265233769
 30
0.0
 10
11.9521684866
 20
10.6300611468
 30
0.0
 10
11.9597308125
 20
10.6336540546
 30
0.0
 10
11.9669086779
 20
10.6372993375
 30
0.0
 10
11.9736967037
 20
10.6409943518
 30
0.0
 10
11.980089874
 20
10.6447362704
 30
0.0
 10
11.9860834107
 20
10.6485224313
 30
0.0
 10
11.99167293
 20
10.652349979
 30
0.0
 10
11.9968542574
 20
10.6562162665
 30
0.0
 10
12.001623637
 20
10.660118461
 30
0.0
 10
12.0059774735
 20
10.6640539741
 30
0.0
 10
12.0099125901
 20
10.6680200573
 30
0.0
 10
12.0134258872
 20
10.6720142128
 30
0.0
 10
12.0165146392
 20
10.6760338161
 30
0.0
 10
12.019176066
 20
10.6800763745
 30
0.0
 10
12.0214077202
 20
10.6841394016
 30
0.0
 10
12.0232068555
 20
10.6882196472
 30
0.0
 10
12.0241294474
 20
10.6909888039
 30
0.0
 10
12.0245132843
 20
10.6923689489
 30
0.0
  0
SPLINE
  5
36D
100
AcDbEntity
  8
0
100
AcDbSpline
 62
7
  6
CONTINUOUS
 70
0
 71
3
 72
54
 73
50
 74
0
 42
0.0000001
 43
0.0000001
 44
0.0000000001
 40
0.0
 40
0.0
 40
0.0
 40
0.0
 40
0.0055575314
 40
0.0111779514
 40
0.0169218741
 40
0.0228457549
 40
0.0290005166
 40
0.0354309104
 40
0.0421753481
 40
0.0492661819
 40
0.0567302289
 40
0.0645893164
 40
0.0728609992
 40
0.0815590171
 40
0.0906939529
 40
0.1002735511
 40
0.1103032084
 40
0.120786225
 40
0.131724095
 40
0.1431167574
 40
0.1549627059
 40
0.1672592594
 40
0.1800025507
 40
0.1931877841
 40
0.2068091928
 40
0.2208602246
 40
0.2353335436
 40
0.2502211095
 40
0.265514256
 40
0.2812036668
 40
0.2972795185
 40
0.3137313951
 40
0.3477187121
 40
0.383073812
 40
0.4196976091
 40
0.4574851642
 40
0.4963263633
 40
0.5361065441
 40
0.5767070861
 40
0.6180059759
 40
0.6598783548
 40
0.7021970543
 40
0.7448331254
 40
0.7876563595
 40
0.8305358172
 40
0.8733403047
 40
0.9159390443
 40
0.9582017033
 40
1.0
 40
1.0
 40
1.0
 40
1.0
 10
12.2579970656
 20
10.7339631832
 30
0.0
 10
12.2579970692
 20
10.7319668222
 30
0.0
 10
12.2577735916
 20
10.7279480314
 30
0.0
 10
12.2567704077
 20
10.7219413032
 30
0.0
 10
12.2551010514
 20
10.7159479583
 30
0.0
 10
12.2527686497
 20
10.7099749802
 30
0.0
 10
12.2497771301
 20
10.7040271792
 30
0.0
 10
12.2461304691
 20
10.6981091334
 30
0.0
 10
12.2418328251
 20
10.6922249065
 30
0.0
 10
12.2368884389
 20
10.6863784353
 30
0.0
 10
12.2313016818
 20
10.6805737104
 30
0.0
 10
12.2250773003
 20
10.6748146894
 30
0.0
 10
12.2182202879
 20
10.6691055788
 30
0.0
 10
12.2107361936
 20
10.6634505035
 30
0.0
 10
12.2026309274
 20
10.6578538284
 30
0.0
 10
12.1939109841
 20
10.652319816
 30
0.0
 10
12.184583308
 20
10.6468528557
 30
0.0
 10
12.1746553843
 20
10.6414572819
 30
0.0
 10
12.164135203
 20
10.6361374111
 30
0.0
 10
12.1530312423
 20
10.6308975803
 30
0.0
 10
12.1413525042
 20
10.6257419862
 30
0.0
 10
12.1291084434
 20
10.6206748989
 30
0.0
 10
12.116309027
 20
10.6157003875
 30
0.0
 10
12.1029646594
 20
10.6108225876
 30
0.0
 10
12.0890862255
 20
10.6060454478
 30
0.0
 10
12.0746850425
 20
10.6013729177
 30
0.0
 10
12.0597728704
 20
10.5968088248
 30
0.0
 10
12.044361895
 20
10.5923569058
 30
0.0
 10
12.0284647108
 20
10.588020848
 30
0.0
 10
12.0120943284
 20
10.5838041771
 30
0.0
 10
11.9952641203
 20
10.5797103815
 30
0.0
 10
11.9719764219
 20
10.5743623453
 30
0.0
 10
11.9418131679
 20
10.5680242697
 30
0.0
 10
11.9043917063
 20
10.561039334
 30
0.0
 10
11.8654852655
 20
10.5546183532
 30
0.0
 10
11.8252212705
 20
10.5487825396
 30
0.0
 10
11.7837314106
 20
10.5435512079
 30
0.0
 10
11.7411515159
 20
10.538941652
 30
0.0
 10
11.6976210081
 20
10.5349691082
 30
0.0
 10
11.6532824603
 20
10.5316467017
 30
0.0
 10
11.6082811157
 20
10.5289854071
 30
0.0
 10
11.5627644075
 20
10.5269940115
 30
0.0
 10
11.5168814701
 20
10.5256790891
 30
0.0
 10
11.4707826448
 20
10.5250449791
 30
0.0
 10
11.4246189905
 20
10.5250937772
 30
0.0
 10
11.3785417593
 20
10.5258253154
 30
0.0
 10
11.3327019672
 20
10.5272371938
 30
0.0
 10
11.2872498694
 20
10.529324723
 30
0.0
 10
11.2571089741
 20
10.5311743693
 30
0.0
 10
11.2421302826
 20
10.532213145
 30
0.0
  0
SPLINE
  5
36E
100
AcDbEntity
  8
0
100
AcDbSpline
 62
7
  6
CONTINUOUS
 70
0
 71
3
 72
42
 73
38
 74
0
 42
0.0000001
 43
0.0000001
 44
0.0000000001
 40
0.0
 40
0.0
 40
0.0
 40
0.0
 40
0.0299419634
 40
0.0449235299
 40
0.0599142017
 40
0.0899287029
 40
0.1200139772
 40
0.1350926626
 40
0.1501967046
 40
0.1804840506
 40
0.2108978877
 40
0.2414513551
 40
0.2721543675
 40
0.3030134354
 40
0.3340315696
 40
0.3652082675
 40
0.3965395775
 40
0.4280182343
 40
0.4596338596
 40
0.4913732188
 40
0.5232205284
 40
0.5551578047
 40
0.5871652463
 40
0.6192216448
 40
0.6513048151
 40
0.6833920402
 40
0.7154605222
 40
0.747487836
 40
0.7794523759
 40
0.8113337934
 40
0.8431134117
 40
0.8747746318
 40
0.9063032512
 40
0.9376879208
 40
0.9533258
 40
0.9689252634
 40
1.0
 40
1.0
 40
1.0
 40
1.0
 10
9.0235749539
 20
10.2076594937
 30
0.0
 10
9.027208093
 20
10.2111688152
 30
0.0
 10
9.0328719605
 20
10.2162201484
 30
0.0
 10
9.0408040793
 20
10.2224877527
 30
0.0
 10
9.0489887962
 20
10.2284434715
 30
0.0
 10
9.059668506
 20
10.2352825662
 30
0.0
 10
9.0708674698
 20
10.2412647947
 30
0.0
 10
9.0801037125
 20
10.2455205581
 30
0.0
 10
9.089530749
 20
10.2494250016
 30
0.0
 10
9.1016252093
 20
10.2536233819
 30
0.0
 10
9.1165297983
 20
10.257536167
 30
0.0
 10
9.1317596078
 20
10.260308074
 30
0.0
 10
9.1472302364
 20
10.2619238107
 30
0.0
 10
9.1628567005
 20
10.2623747544
 30
0.0
 10
9.178553019
 20
10.2616586101
 30
0.0
 10
9.1942329213
 20
10.2597795147
 30
0.0
 10
9.2098102533
 20
10.2567479776
 30
0.0
 10
9.2251994624
 20
10.2525808234
 30
0.0
 10
9.2403160565
 20
10.2473010922
 30
0.0
 10
9.2550770622
 20
10.2409379093
 30
0.0
 10
9.2694014741
 20
10.2335263236
 30
0.0
 10
9.2832106928
 20
10.2251071137
 30
0.0
 10
9.2964289503
 20
10.2157265648
 30
0.0
 10
9.3089837209
 20
10.2054362157
 30
0.0
 10
9.320806114
 20
10.1942925775
 30
0.0
 10
9.331831248
 20
10.1823568265
 30
0.0
 10
9.3419986028
 20
10.1696944716
 30
0.0
 10
9.3512523485
 20
10.1563749972
 30
0.0
 10
9.3595416493
 20
10.1424714907
 30
0.0
 10
9.3668209406
 20
10.1280602297
 30
0.0
 10
9.3730501759
 20
10.1132203285
 30
0.0
 10
9.3781950591
 20
10.0980330892
 30
0.0
 10
9.382227168
 20
10.0825823758
 30
0.0
 10
9.3846445069
 20
10.0695402986
 30
0.0
 10
9.3860005623
 20
10.0590611476
 30
0.0
 10
9.3869683458
 20
10.0485920244
 30
0.0
 10
9.3872613813
 20
10.0407140797
 30
0.0
 10
9.3872613813
 20
10.0354717384
 30
0.0
  0
SPLINE
  5
36F
100
AcDbEntity
  8
0
100
AcDbSpline
 62
7
  6
CONTINUOUS
 70
0
 71
3
 72
50
 73
46
 74
0
 42
0.0000001
 43
0.0000001
 44
0.0000000001
 40
0.0
 40
0.0
 40
0.0
 40
0.0
 40
0.0063158628
 40
0.0126706388
 40
0.0191024575
 40
0.0256479993
 40
0.0323418674
 40
0.039216204
 40
0.0536140195
 40
0.0611947492
 40
0.0690565012
 40
0.0772176038
 40
0.0856940071
 40
0.0944993844
 40
0.1036455057
 40
0.1131422796
 40
0.1229980214
 40
0.1332196594
 40
0.1438127402
 40
0.1547817587
 40
0.1661301165
 40
0.1778602858
 40
0.1899739713
 40
0.2024720154
 40
0.2153546703
 40
0.2422704625
 40
0.2707126998
 40
0.3006636352
 40
0.3320988302
 40
0.3649880253
 40
0.3992958242
 40
0.4349822322
 40
0.4720031
 40
0.5103105418
 40
0.5498532687
 40
0.5905768749
 40
0.6324240735
 40
0.6753349284
 40
0.7192471051
 40
0.764096031
 40
0.8098151214
 40
0.8563360409
 40
0.9035881022
 40
0.9515011825
 40
1.0
 40
1.0
 40
1.0
 40
1.0
 10
12.9647946675
 20
7.6766528588
 30
0.0
 10
12.9634306887
 20
7.6767474569
 30
0.0
 10
12.9607007742
 20
7.677048896
 30
0.0
 10
12.9566365046
 20
7.6778345906
 30
0.0
 10
12.9525993838
 20
7.6789537192
 30
0.0
 10
12.9485918164
 20
7.6804055264
 30
0.0
 10
12.9446153307
 20
7.6821890485
 30
0.0
 10
12.9392759848
 20
7.6850512609
 30
0.0
 10
12.9340816323
 20
7.688555031
 30
0.0
 10
12.9290548381
 20
7.6926153678
 30
0.0
 10
12.925257911
 20
7.6960387007
 30
0.0
 10
12.9215015064
 20
7.6997855195
 30
0.0
 10
12.9177866315
 20
7.7038545469
 30
0.0
 10
12.9141147198
 20
7.7082439567
 30
0.0
 10
12.9104871906
 20
7.7129520194
 30
0.0
 10
12.9069054079
 20
7.7179767834
 30
0.0
 10
12.903370751
 20
7.7233162101
 30
0.0
 10
12.8998846583
 20
7.7289681597
 30
0.0
 10
12.8964484456
 20
7.7349303074
 30
0.0
 10
12.8930635436
 20
7.7412002601
 30
0.0
 10
12.8897312925
 20
7.7477754562
 30
0.0
 10
12.8864530211
 20
7.7546532148
 30
0.0
 10
12.8832301229
 20
7.761830745
 30
0.0
 10
12.8800638188
 20
7.7693051071
 30
0.0
 10
12.8758578614
 20
7.7798166304
 30
0.0
 10
12.8707648474
 20
7.7936873868
 30
0.0
 10
12.8649852893
 20
7.8112305012
 30
0.0
 10
12.8594613129
 20
7.8298782474
 30
0.0
 10
12.8542020621
 20
7.8496000274
 30
0.0
 10
12.8492162605
 20
7.8703636975
 30
0.0
 10
12.8445122038
 20
7.8921352418
 30
0.0
 10
12.8400977267
 20
7.9148789485
 30
0.0
 10
12.835980175
 20
7.9385574454
 30
0.0
 10
12.8321664087
 20
7.9631317874
 30
0.0
 10
12.8286627839
 20
7.9885615306
 30
0.0
 10
12.8254751453
 20
8.0148048004
 30
0.0
 10
12.8226088057
 20
8.0418183576
 30
0.0
 10
12.8200685355
 20
8.0695576765
 30
0.0
 10
12.8178585698
 20
8.097977022
 30
0.0
 10
12.8159825937
 20
8.1270295331
 30
0.0
 10
12.8144437392
 20
8.1566673209
 30
0.0
 10
12.8132445889
 20
8.1868414024
 30
0.0
 10
12.8123871019
 20
8.2175022453
 30
0.0
 10
12.8118727807
 20
8.2485989321
 30
0.0
 10
12.8117598433
 20
8.2694703291
 30
0.0
 10
12.8117598433
 20
8.2799693321
 30
0.0
  0
SPLINE
  5
370
100
AcDbEntity
  8
0
100
AcDbSpline
 62
7
  6
CONTINUOUS
 70
0
 71
3
 72
42
 73
38
 74
0
 42
0.0000001
 43
0.0000001
 44
0.0000000001
 40
0.0
 40
0.0
 40
0.0
 40
0.0
 40
0.0299419634
 40
0.0449235299
 40
0.0599142017
 40
0.0899287029
 40
0.1200139772
 40
0.1350926626
 40
0.1501967046
 40
0.1804840506
 40
0.2108978877
 40
0.2414513551
 40
0.2721543675
 40
0.3030134354
 40
0.3340315696
 40
0.3652082675
 40
0.3965395775
 40
0.4280182343
 40
0.4596338596
 40
0.4913732188
 40
0.5232205284
 40
0.5551578047
 40
0.5871652463
 40
0.6192216448
 40
0.6513048151
 40
0.6833920402
 40
0.7154605222
 40
0.747487836
 40
0.7794523759
 40
0.8113337934
 40
0.8431134117
 40
0.8747746318
 40
0.9063032512
 40
0.9376879208
 40
0.9533258
 40
0.9689252634
 40
1.0
 40
1.0
 40
1.0
 40
1.0
 10
12.0411274552
 20
9.9983915169
 30
0.0
 10
12.0447605944
 20
10.0019008385
 30
0.0
 10
12.0504244618
 20
10.0069521716
 30
0.0
 10
12.0583565806
 20
10.013219776
 30
0.0
 10
12.0665412976
 20
10.0191754948
 30
0.0
 10
12.0772210074
 20
10.0260145894
 30
0.0
 10
12.0884199711
 20
10.031996818
 30
0.0
 10
12.0976562139
 20
10.0362525813
 30
0.0
 10
12.1070832503
 20
10.0401570249
 30
0.0
 10
12.1191777106
 20
10.0443554051
 30
0.0
 10
12.1340822997
 20
10.0482681902
 30
0.0
 10
12.1493121092
 20
10.0510400973
 30
0.0
 10
12.1647827377
 20
10.052655834
 30
0.0
 10
12.1804092019
 20
10.0531067777
 30
0.0
 10
12.1961055203
 20
10.0523906334
 30
0.0
 10
12.2117854227
 20
10.0505115379
 30
0.0
 10
12.2273627547
 20
10.0474800008
 30
0.0
 10
12.2427519638
 20
10.0433128467
 30
0.0
 10
12.2578685578
 20
10.0380331155
 30
0.0
 10
12.2726295635
 20
10.0316699326
 30
0.0
 10
12.2869539755
 20
10.0242583468
 30
0.0
 10
12.3007631942
 20
10.0158391369
 30
0.0
 10
12.3139814517
 20
10.0064585881
 30
0.0
 10
12.3265362223
 20
9.9961682389
 30
0.0
 10
12.3383586153
 20
9.9850246008
 30
0.0
 10
12.3493837493
 20
9.9730888498
 30
0.0
 10
12.3595511041
 20
9.9604264949
 30
0.0
 10
12.3688048498
 20
9.9471070205
 30
0.0
 10
12.3770941506
 20
9.933203514
 30
0.0
 10
12.3843734419
 20
9.918792253
 30
0.0
 10
12.3906026773
 20
9.9039523518
 30
0.0
 10
12.3957475604
 20
9.8887651125
 30
0.0
 10
12.3997796693
 20
9.873314399
 30
0.0
 10
12.4021970083
 20
9.8602723218
 30
0.0
 10
12.4035530637
 20
9.8497931709
 30
0.0
 10
12.4045208471
 20
9.8393240477
 30
0.0
 10
12.4048138826
 20
9.831446103
 30
0.0
 10
12.4048138826
 20
9.8262037617
 30
0.0
  0
SPLINE
  5
371
100
AcDbEntity
  8
0
100
AcDbSpline
 62
7
  6
CONTINUOUS
 70
0
 71
3
 72
42
 73
38
 74
0
 42
0.0000001
 43
0.0000001
 44
0.0000000001
 40
0.0
 40
0.0
 40
0.0
 40
0.0
 40
0.0299419634
 40
0.0449235299
 40
0.0599142017
 40
0.0899287029
 40
0.1200139772
 40
0.1350926626
 40
0.1501967046
 40
0.1804840506
 40
0.2108978877
 40
0.2414513551
 40
0.2721543675
 40
0.3030134354
 40
0.3340315696
 40
0.3652082675
 40
0.3965395775
 40
0.4280182343
 40
0.4596338596
 40
0.4913732188
 40
0.5232205284
 40
0.5551578047
 40
0.5871652463
 40
0.6192216448
 40
0.6513048151
 40
0.6833920402
 40
0.7154605222
 40
0.747487836
 40
0.7794523759
 40
0.8113337934
 40
0.8431134117
 40
0.8747746318
 40
0.9063032512
 40
0.9376879208
 40
0.9533258
 40
0.9689252634
 40
1.0
 40
1.0
 40
1.0
 40
1.0
 10
12.0411274552
 20
6.4978763041
 30
0.0
 10
12.0447605944
 20
6.5013856257
 30
0.0
 10
12.0504244618
 20
6.5064369588
 30
0.0
 10
12.0583565806
 20
6.5127045632
 30
0.0
 10
12.0665412976
 20
6.518660282
 30
0.0
 10
12.0772210074
 20
6.5254993766
 30
0.0
 10
12.0884199711
 20
6.5314816052
 30
0.0
 10
12.0976562139
 20
6.5357373685
 30
0.0
 10
12.1070832503
 20
6.5396418121
 30
0.0
 10
12.1191777106
 20
6.5438401923
 30
0.0
 10
12.1340822997
 20
6.5477529774
 30
0.0
 10
12.1493121092
 20
6.5505248845
 30
0.0
 10
12.1647827377
 20
6.5521406212
 30
0.0
 10
12.1804092019
 20
6.5525915649
 30
0.0
 10
12.1961055203
 20
6.5518754206
 30
0.0
 10
12.2117854227
 20
6.5499963251
 30
0.0
 10
12.2273627547
 20
6.546964788
 30
0.0
 10
12.2427519638
 20
6.5427976339
 30
0.0
 10
12.2578685578
 20
6.5375179026
 30
0.0
 10
12.2726295635
 20
6.5311547198
 30
0.0
 10
12.2869539755
 20
6.523743134
 30
0.0
 10
12.3007631942
 20
6.5153239241
 30
0.0
 10
12.3139814517
 20
6.5059433753
 30
0.0
 10
12.3265362223
 20
6.4956530261
 30
0.0
 10
12.3383586153
 20
6.484509388
 30
0.0
 10
12.3493837493
 20
6.472573637
 30
0.0
 10
12.3595511041
 20
6.4599112821
 30
0.0
 10
12.3688048498
 20
6.4465918077
 30
0.0
 10
12.3770941506
 20
6.4326883012
 30
0.0
 10
12.3843734419
 20
6.4182770402
 30
0.0
 10
12.3906026773
 20
6.403437139
 30
0.0
 10
12.3957475604
 20
6.3882498997
 30
0.0
 10
12.3997796693
 20
6.3727991862
 30
0.0
 10
12.4021970083
 20
6.359757109
 30
0.0
 10
12.4035530637
 20
6.3492779581
 30
0.0
 10
12.4045208471
 20
6.3388088349
 30
0.0
 10
12.4048138826
 20
6.3309308902
 30
0.0
 10
12.4048138826
 20
6.3256885489
 30
0.0
  0
SPLINE
  5
372
100
AcDbEntity
  8
0
100
AcDbSpline
 62
7
  6
CONTINUOUS
 70
0
 71
3
 72
42
 73
38
 74
0
 42
0.0000001
 43
0.0000001
 44
0.0000000001
 40
0.0
 40
0.0
 40
0.0
 40
0.0
 40
0.0299419634
 40
0.0449235299
 40
0.0599142017
 40
0.0899287029
 40
0.1200139772
 40
0.1350926626
 40
0.1501967046
 40
0.1804840506
 40
0.2108978877
 40
0.2414513551
 40
0.2721543675
 40
0.3030134354
 40
0.3340315696
 40
0.3652082675
 40
0.3965395775
 40
0.4280182343
 40
0.4596338596
 40
0.4913732188
 40
0.5232205284
 40
0.5551578047
 40
0.5871652463
 40
0.6192216448
 40
0.6513048151
 40
0.6833920402
 40
0.7154605222
 40
0.747487836
 40
0.7794523759
 40
0.8113337934
 40
0.8431134117
 40
0.8747746318
 40
0.9063032512
 40
0.9376879208
 40
0.9533258
 40
0.9689252634
 40
1.0
 40
1.0
 40
1.0
 40
1.0
 10
9.0235749539
 20
6.7071442808
 30
0.0
 10
9.027208093
 20
6.7106536024
 30
0.0
 10
9.0328719605
 20
6.7157049356
 30
0.0
 10
9.0408040793
 20
6.7219725399
 30
0.0
 10
9.0489887962
 20
6.7279282587
 30
0.0
 10
9.059668506
 20
6.7347673534
 30
0.0
 10
9.0708674698
 20
6.7407495819
 30
0.0
 10
9.0801037125
 20
6.7450053453
 30
0.0
 10
9.089530749
 20
6.7489097888
 30
0.0
 10
9.1016252093
 20
6.7531081691
 30
0.0
 10
9.1165297983
 20
6.7570209542
 30
0.0
 10
9.1317596078
 20
6.7597928612
 30
0.0
 10
9.1472302364
 20
6.7614085979
 30
0.0
 10
9.1628567005
 20
6.7618595416
 30
0.0
 10
9.178553019
 20
6.7611433973
 30
0.0
 10
9.1942329213
 20
6.7592643019
 30
0.0
 10
9.2098102533
 20
6.7562327647
 30
0.0
 10
9.2251994624
 20
6.7520656106
 30
0.0
 10
9.2403160565
 20
6.7467858794
 30
0.0
 10
9.2550770622
 20
6.7404226965
 30
0.0
 10
9.2694014741
 20
6.7330111108
 30
0.0
 10
9.2832106928
 20
6.7245919009
 30
0.0
 10
9.2964289503
 20
6.715211352
 30
0.0
 10
9.3089837209
 20
6.7049210029
 30
0.0
 10
9.320806114
 20
6.6937773647
 30
0.0
 10
9.331831248
 20
6.6818416137
 30
0.0
 10
9.3419986028
 20
6.6691792588
 30
0.0
 10
9.3512523485
 20
6.6558597844
 30
0.0
 10
9.3595416493
 20
6.6419562779
 30
0.0
 10
9.3668209406
 20
6.6275450169
 30
0.0
 10
9.3730501759
 20
6.6127051157
 30
0.0
 10
9.3781950591
 20
6.5975178764
 30
0.0
 10
9.382227168
 20
6.582067163
 30
0.0
 10
9.3846445069
 20
6.5690250858
 30
0.0
 10
9.3860005623
 20
6.5585459348
 30
0.0
 10
9.3869683458
 20
6.5480768116
 30
0.0
 10
9.3872613813
 20
6.5401988669
 30
0.0
 10
9.3872613813
 20
6.5349565256
 30
0.0
  0
SPLINE
  5
373
100
AcDbEntity
  8
0
100
AcDbSpline
 62
7
  6
CONTINUOUS
 70
0
 71
3
 72
15
 73
11
 74
0
 42
0.0000001
 43
0.0000001
 44
0.0000000001
 40
0.0
 40
0.0
 40
0.0
 40
0.0
 40
0.1233171261
 40
0.2468171865
 40
0.3706749939
 40
0.4950495802
 40
0.6200773232
 40
0.7458671315
 40
0.872492731
 40
1.0
 40
1.0
 40
1.0
 40
1.0
 10
9.6464972207
 20
9.2550669979
 30
0.0
 10
9.6490217544
 20
9.257505489
 30
0.0
 10
9.654341725
 20
9.2621179147
 30
0.0
 10
9.6630244413
 20
9.2681451049
 30
0.0
 10
9.6723282662
 20
9.2732259462
 30
0.0
 10
9.6821579669
 20
9.2773082167
 30
0.0
 10
9.6924143887
 20
9.2803513872
 30
0.0
 10
9.702994213
 20
9.2823250303
 30
0.0
 10
9.7137894439
 20
9.2832099495
 30
0.0
 10
9.7210357261
 20
9.2830686079
 30
0.0
 10
9.7246562081
 20
9.2828175267
 30
0.0
  0
SPLINE
  5
374
100
AcDbEntity
  8
0
100
AcDbSpline
 62
7
  6
CONTINUOUS
 70
0
 71
3
 72
15
 73
11
 74
0
 42
0.0000001
 43
0.0000001
 44
0.0000000001
 40
0.0
 40
0.0
 40
0.0
 40
0.0
 40
0.1233171261
 40
0.2468171865
 40
0.3706749939
 40
0.4950495802
 40
0.6200773232
 40
0.7458671315
 40
0.872492731
 40
1.0
 40
1.0
 40
1.0
 40
1.0
 10
11.6990897232
 20
9.1127192243
 30
0.0
 10
11.7016142569
 20
9.1151577154
 30
0.0
 10
11.7069342275
 20
9.1197701412
 30
0.0
 10
11.7156169438
 20
9.1257973314
 30
0.0
 10
11.7249207687
 20
9.1308781726
 30
0.0
 10
11.7347504694
 20
9.1349604432
 30
0.0
 10
11.7450068912
 20
9.1380036137
 30
0.0
 10
11.7555867155
 20
9.1399772568
 30
0.0
 10
11.7663819464
 20
9.1408621759
 30
0.0
 10
11.7736282286
 20
9.1407208344
 30
0.0
 10
11.7772487106
 20
9.1404697531
 30
0.0
  0
SPLINE
  5
375
100
AcDbEntity
  8
0
100
AcDbSpline
 62
7
  6
CONTINUOUS
 70
0
 71
3
 72
15
 73
11
 74
0
 42
0.0000001
 43
0.0000001
 44
0.0000000001
 40
0.0
 40
0.0
 40
0.0
 40
0.0
 40
0.1233171261
 40
0.2468171865
 40
0.3706749939
 40
0.4950495802
 40
0.6200773232
 40
0.7458671315
 40
0.872492731
 40
1.0
 40
1.0
 40
1.0
 40
1.0
 10
9.6464972207
 20
7.5038434061
 30
0.0
 10
9.6490217544
 20
7.5062818972
 30
0.0
 10
9.654341725
 20
7.5108943229
 30
0.0
 10
9.6630244413
 20
7.5169215131
 30
0.0
 10
9.6723282662
 20
7.5220023544
 30
0.0
 10
9.6821579669
 20
7.5260846249
 30
0.0
 10
9.6924143887
 20
7.5291277954
 30
0.0
 10
9.702994213
 20
7.5311014385
 30
0.0
 10
9.7137894439
 20
7.5319863576
 30
0.0
 10
9.7210357261
 20
7.5318450161
 30
0.0
 10
9.7246562081
 20
7.5315939348
 30
0.0
  0
SPLINE
  5
376
100
AcDbEntity
  8
0
100
AcDbSpline
 62
7
  6
CONTINUOUS
 70
0
 71
3
 72
15
 73
11
 74
0
 42
0.0000001
 43
0.0000001
 44
0.0000000001
 40
0.0
 40
0.0
 40
0.0
 40
0.0
 40
0.1233171261
 40
0.2468171865
 40
0.3706749939
 40
0.4950495802
 40
0.6200773232
 40
0.7458671315
 40
0.872492731
 40
1.0
 40
1.0
 40
1.0
 40
1.0
 10
11.6990897232
 20
7.3614956325
 30
0.0
 10
11.7016142569
 20
7.3639341236
 30
0.0
 10
11.7069342275
 20
7.3685465494
 30
0.0
 10
11.7156169438
 20
7.3745737396
 30
0.0
 10
11.7249207687
 20
7.3796545808
 30
0.0
 10
11.7347504694
 20
7.3837368514
 30
0.0
 10
11.7450068912
 20
7.3867800219
 30
0.0
 10
11.7555867155
 20
7.3887536649
 30
0.0
 10
11.7663819464
 20
7.3896385841
 30
0.0
 10
11.7736282286
 20
7.3894972426
 30
0.0
 10
11.7772487106
 20
7.3892461613
 30
0.0
  0
SPLINE
  5
377
100
AcDbEntity
  8
0
100
AcDbSpline
 62
7
  6
CONTINUOUS
 70
0
 71
3
 72
21
 73
17
 74
0
 42
0.0000001
 43
0.0000001
 44
0.0000000001
 40
0.0
 40
0.0
 40
0.0
 40
0.0
 40
0.1266975249
 40
0.2525125142
 40
0.3151571125
 40
0.3776342843
 40
0.4399692859
 40
0.5021902513
 40
0.5643285965
 40
0.6264185914
 40
0.6884960165
 40
0.7505986159
 40
0.812763847
 40
0.8750273874
 40
0.9374328697
 40
1.0
 40
1.0
 40
1.0
 40
1.0
 10
12.1177670401
 20
8.9280959391
 30
0.0
 10
12.1182191904
 20
8.9310574256
 30
0.0
 10
12.1194574882
 20
8.936914124
 30
0.0
 10
12.1218597957
 20
8.9439886479
 30
0.0
 10
12.1242819066
 20
8.9494089128
 30
0.0
 10
12.1263428904
 20
8.9533365833
 30
0.0
 10
12.1286463337
 20
8.9571153919
 30
0.0
 10
12.1311867354
 20
8.9607295133
 30
0.0
 10
12.1339572046
 20
8.9641631072
 30
0.0
 10
12.1369495443
 20
8.9674006608
 30
0.0
 10
12.1401540312
 20
8.9704272469
 30
0.0
 10
12.1435595006
 20
8.9732286629
 30
0.0
 10
12.1471533577
 20
8.9757915451
 30
0.0
 10
12.1509218302
 20
8.9781038498
 30
0.0
 10
12.1548493747
 20
8.9801544014
 30
0.0
 10
12.157559447
 20
8.9813392884
 30
0.0
 10
12.158934492
 20
8.9818851227
 30
0.0
  0
SPLINE
  5
378
100
AcDbEntity
  8
0
100
AcDbSpline
 62
7
  6
CONTINUOUS
 70
0
 71
3
 72
40
 73
36
 74
0
 42
0.0000001
 43
0.0000001
 44
0.0000000001
 40
0.0
 40
0.0
 40
0.0
 40
0.0
 40
0.0063160317
 40
0.0126709803
 40
0.0191029757
 40
0.0256486833
 40
0.0323427436
 40
0.0392172655
 40
0.0536154772
 40
0.0690526586
 40
0.0856860581
 40
0.1036344402
 40
0.1229845836
 40
0.1437975252
 40
0.1661136309
 40
0.1899565788
 40
0.215336668
 40
0.2422532113
 40
0.2706962166
 40
0.3006479298
 40
0.3320839776
 40
0.3649740847
 40
0.3992827974
 40
0.4349701487
 40
0.4719920266
 40
0.5103004985
 40
0.5498442818
 40
0.5905689983
 40
0.6324173162
 40
0.6753293134
 40
0.7192426811
 40
0.7640927959
 40
0.8098131949
 40
0.9035868196
 40
1.0
 40
1.0
 40
1.0
 40
1.0
 10
12.8087792572
 20
8.9058149408
 30
0.0
 10
12.8079476867
 20
8.9058726142
 30
0.0
 10
12.8062833509
 20
8.9060563773
 30
0.0
 10
12.8038055064
 20
8.9065353995
 30
0.0
 10
12.8013442214
 20
8.9072177085
 30
0.0
 10
12.798900928
 20
8.908102796
 30
0.0
 10
12.7964766357
 20
8.9091901662
 30
0.0
 10
12.7932213045
 20
8.9109352108
 30
0.0
 10
12.7891931399
 20
8.9136524548
 30
0.0
 10
12.7845339015
 20
8.9176577869
 30
0.0
 10
12.7799784757
 20
8.9224487379
 30
0.0
 10
12.7755321366
 20
8.9280164285
 30
0.0
 10
12.7711996669
 20
8.9343521273
 30
0.0
 10
12.7669867827
 20
8.9414460871
 30
0.0
 10
12.7628994656
 20
8.9492874133
 30
0.0
 10
12.7589438606
 20
8.9578638743
 30
0.0
 10
12.7551261691
 20
8.9671619428
 30
0.0
 10
12.7514525418
 20
8.9771667927
 30
0.0
 10
12.7479289416
 20
8.98786231
 30
0.0
 10
12.7445611566
 20
8.999231165
 30
0.0
 10
12.7413547755
 20
9.0112548606
 30
0.0
 10
12.7383151132
 20
9.0239137548
 30
0.0
 10
12.7354472092
 20
9.0371871118
 30
0.0
 10
12.73275585
 20
9.0510531598
 30
0.0
 10
12.7302455274
 20
9.0654891206
 30
0.0
 10
12.7279204056
 20
9.080471247
 30
0.0
 10
12.7257843631
 20
9.0959748817
 30
0.0
 10
12.7238409762
 20
9.1119744958
 30
0.0
 10
12.7220934678
 20
9.1284437258
 30
0.0
 10
12.7205447457
 20
9.1453554276
 30
0.0
 10
12.7191974144
 20
9.1626817132
 30
0.0
 10
12.7180536833
 20
9.1803940462
 30
0.0
 10
12.7167922205
 20
9.204690974
 30
0.0
 10
12.7157488063
 20
9.2358107554
 30
0.0
 10
12.7154792286
 20
9.2609118496
 30
0.0
 10
12.7154792286
 20
9.2736361284
 30
0.0
  0
SPLINE
  5
379
100
AcDbEntity
  8
0
100
AcDbSpline
 62
7
  6
CONTINUOUS
 70
0
 71
3
 72
24
 73
20
 74
0
 42
0.0000001
 43
0.0000001
 44
0.0000000001
 40
0.0
 40
0.0
 40
0.0
 40
0.0
 40
0.0620109569
 40
0.1239239661
 40
0.185774548
 40
0.2475996525
 40
0.2785190238
 40
0.3094461919
 40
0.3713336594
 40
0.4333084744
 40
0.4954065735
 40
0.5576618893
 40
0.6201056725
 40
0.6827659109
 40
0.7456666532
 40
0.808827938
 40
0.8722642904
 40
0.9359872582
 40
1.0
 40
1.0
 40
1.0
 40
1.0
 10
10.5629691117
 20
8.9787055361
 30
0.0
 10
10.5652862723
 20
8.9824684813
 30
0.0
 10
10.5701722863
 20
8.9898346447
 30
0.0
 10
10.5782287841
 20
9.0003525506
 30
0.0
 10
10.5869761113
 20
9.0102862138
 30
0.0
 10
10.5948136381
 20
9.0180423045
 30
0.0
 10
10.6013908434
 20
9.0239110634
 30
0.0
 10
10.6081696345
 20
9.029552715
 30
0.0
 10
10.6170096483
 20
9.0361667975
 30
0.0
 10
10.6281516917
 20
9.0433606466
 30
0.0
 10
10.6397863203
 20
9.0497821789
 30
0.0
 10
10.651865409
 20
9.0554020334
 30
0.0
 10
10.6643388798
 20
9.0601945326
 30
0.0
 10
10.6771544245
 20
9.0641374629
 30
0.0
 10
10.6902579165
 20
9.0672124143
 30
0.0
 10
10.7035935214
 20
9.0694048128
 30
0.0
 10
10.7171044417
 20
9.0707042421
 30
0.0
 10
10.730731795
 20
9.0711042944
 30
0.0
 10
10.7398364022
 20
9.0707706874
 30
0.0
 10
10.7443872889
 20
9.0704550823
 30
0.0
  0
SPLINE
  5
37A
100
AcDbEntity
  8
0
100
AcDbSpline
 62
7
  6
CONTINUOUS
 70
0
 71
3
 72
42
 73
38
 74
0
 42
0.0000001
 43
0.0000001
 44
0.0000000001
 40
0.0
 40
0.0
 40
0.0
 40
0.0
 40
0.0299419634
 40
0.0449235299
 40
0.0599142017
 40
0.0899287029
 40
0.1200139772
 40
0.1350926626
 40
0.1501967046
 40
0.1804840506
 40
0.2108978877
 40
0.2414513551
 40
0.2721543675
 40
0.3030134354
 40
0.3340315696
 40
0.3652082675
 40
0.3965395775
 40
0.4280182343
 40
0.4596338596
 40
0.4913732188
 40
0.5232205284
 40
0.5551578047
 40
0.5871652463
 40
0.6192216448
 40
0.6513048151
 40
0.6833920402
 40
0.7154605222
 40
0.747487836
 40
0.7794523759
 40
0.8113337934
 40
0.8431134117
 40
0.8747746318
 40
0.9063032512
 40
0.9376879208
 40
0.9533258
 40
0.9689252634
 40
1.0
 40
1.0
 40
1.0
 40
1.0
 10
10.2000727037
 20
8.4666085211
 30
0.0
 10
10.2037058429
 20
8.4701178427
 30
0.0
 10
10.2093697103
 20
8.4751691758
 30
0.0
 10
10.2173018291
 20
8.4814367802
 30
0.0
 10
10.2254865461
 20
8.487392499
 30
0.0
 10
10.2361662559
 20
8.4942315936
 30
0.0
 10
10.2473652196
 20
8.5002138222
 30
0.0
 10
10.2566014624
 20
8.5044695855
 30
0.0
 10
10.2660284988
 20
8.5083740291
 30
0.0
 10
10.2781229591
 20
8.5125724093
 30
0.0
 10
10.2930275482
 20
8.5164851944
 30
0.0
 10
10.3082573577
 20
8.5192571015
 30
0.0
 10
10.3237279862
 20
8.5208728382
 30
0.0
 10
10.3393544504
 20
8.5213237819
 30
0.0
 10
10.3550507688
 20
8.5206076376
 30
0.0
 10
10.3707306712
 20
8.5187285421
 30
0.0
 10
10.3863080032
 20
8.515697005
 30
0.0
 10
10.4016972123
 20
8.5115298509
 30
0.0
 10
10.4168138063
 20
8.5062501197
 30
0.0
 10
10.431574812
 20
8.4998869368
 30
0.0
 10
10.445899224
 20
8.492475351
 30
0.0
 10
10.4597084427
 20
8.4840561411
 30
0.0
 10
10.4729267002
 20
8.4746755923
 30
0.0
 10
10.4854814708
 20
8.4643852431
 30
0.0
 10
10.4973038638
 20
8.453241605
 30
0.0
 10
10.5083289978
 20
8.441305854
 30
0.0
 10
10.5184963526
 20
8.4286434991
 30
0.0
 10
10.5277500983
 20
8.4153240247
 30
0.0
 10
10.5360393991
 20
8.4014205182
 30
0.0
 10
10.5433186904
 20
8.3870092572
 30
0.0
 10
10.5495479258
 20
8.372169356
 30
0.0
 10
10.5546928089
 20
8.3569821167
 30
0.0
 10
10.5587249178
 20
8.3415314032
 30
0.0
 10
10.5611422568
 20
8.328489326
 30
0.0
 10
10.5624983122
 20
8.3180101751
 30
0.0
 10
10.5634660957
 20
8.3075410519
 30
0.0
 10
10.5637591311
 20
8.2996631072
 30
0.0
 10
10.5637591311
 20
8.2944207659
 30
0.0
  0
SPLINE
  5
37B
100
AcDbEntity
  8
0
100
AcDbSpline
 62
7
  6
CONTINUOUS
 70
0
 71
3
 72
28
 73
24
 74
0
 42
0.0000001
 43
0.0000001
 44
0.0000000001
 40
0.0
 40
0.0
 40
0.0
 40
0.0
 40
0.0418207344
 40
0.0828988273
 40
0.1232202721
 40
0.1627768617
 40
0.2395635153
 40
0.3133373988
 40
0.3842139513
 40
0.4523456285
 40
0.5178917573
 40
0.580992961
 40
0.6417519762
 40
0.7002217812
 40
0.7564003836
 40
0.8102320951
 40
0.8362471582
 40
0.8616355138
 40
0.8863809203
 40
0.9104677068
 40
0.933881969
 40
0.9566140547
 40
1.0
 40
1.0
 40
1.0
 40
1.0
 10
10.5542663554
 20
8.2326505858
 30
0.0
 10
10.5518956647
 20
8.2321433209
 30
0.0
 10
10.5471690343
 20
8.2312606104
 30
0.0
 10
10.5400839589
 20
8.2303268449
 30
0.0
 10
10.5330891115
 20
8.2297882803
 30
0.0
 10
10.5240058269
 20
8.22958746
 30
0.0
 10
10.512979886
 20
8.2302484094
 30
0.0
 10
10.5003054236
 20
8.2324418252
 30
0.0
 10
10.4884360245
 20
8.2358917411
 30
0.0
 10
10.4774623966
 20
8.2404480572
 30
0.0
 10
10.4674467037
 20
8.2459545332
 30
0.0
 10
10.458429266
 20
8.2522551831
 30
0.0
 10
10.4504341246
 20
8.2591978871
 30
0.0
 10
10.4434745038
 20
8.2666362404
 30
0.0
 10
10.4375582561
 20
8.2744282415
 30
0.0
 10
10.4334544477
 20
8.2811800767
 30
0.0
 10
10.4307129762
 20
8.2866326485
 30
0.0
 10
10.4289452474
 20
8.2906801006
 30
0.0
 10
10.42744411
 20
8.2947147626
 30
0.0
 10
10.4262110267
 20
8.2987196712
 30
0.0
 10
10.4252477326
 20
8.3026785191
 30
0.0
 10
10.4243400661
 20
8.3077906002
 30
0.0
 10
10.4240420687
 20
8.3116288695
 30
0.0
 10
10.4240433429
 20
8.3141439586
 30
0.0
  0
SPLINE
  5
37C
100
AcDbEntity
  8
0
100
AcDbSpline
 62
7
  6
CONTINUOUS
 70
0
 71
3
 72
34
 73
30
 74
0
 42
0.0000001
 43
0.0000001
 44
0.0000000001
 40
0.0
 40
0.0
 40
0.0
 40
0.0
 40
0.0649702054
 40
0.097358879
 40
0.1296574788
 40
0.1618568572
 40
0.1939498234
 40
0.2259307917
 40
0.257795284
 40
0.3211389521
 40
0.3839932394
 40
0.4152505458
 40
0.4463889863
 40
0.5082968188
 40
0.5697882671
 40
0.6004171698
 40
0.6309736139
 40
0.6614729267
 40
0.691933301
 40
0.7223757029
 40
0.752824117
 40
0.783305383
 40
0.8138486028
 40
0.8444841901
 40
0.8752424414
 40
0.9061518362
 40
0.9372368047
 40
0.9685159848
 40
1.0
 40
1.0
 40
1.0
 40
1.0
 10
9.3526475922
 20
7.5917667961
 30
0.0
 10
9.3549832833
 20
7.588362998
 30
0.0
 10
9.3581603731
 20
7.5830304838
 30
0.0
 10
9.3617180794
 20
7.575596676
 30
0.0
 10
9.3640443428
 20
7.5698928979
 30
0.0
 10
9.3660298914
 20
7.564082238
 30
0.0
 10
9.3676755857
 20
7.5581873203
 30
0.0
 10
9.3689821023
 20
7.5522297839
 30
0.0
 10
9.3702701536
 20
7.5442481532
 30
0.0
 10
9.3710415923
 20
7.5342126494
 30
0.0
 10
9.3706900527
 20
7.5241917312
 30
0.0
 10
9.3697306161
 20
7.5162876124
 30
0.0
 10
9.36832528
 20
7.5085116847
 30
0.0
 10
9.3657249508
 20
7.4990171573
 30
0.0
 10
9.3619769166
 20
7.4899450703
 30
0.0
 10
9.3582972961
 20
7.483067763
 30
0.0
 10
9.3552005183
 20
7.4781277492
 30
0.0
 10
9.3517659108
 20
7.4734294073
 30
0.0
 10
9.347997265
 20
7.4690034209
 30
0.0
 10
9.3439009309
 20
7.4648827926
 30
0.0
 10
9.3394863908
 20
7.4611022558
 30
0.0
 10
9.3347670927
 20
7.4576979615
 30
0.0
 10
9.3297612813
 20
7.4547067501
 30
0.0
 10
9.3244927962
 20
7.4521651336
 30
0.0
 10
9.3189916587
 20
7.4501078929
 30
0.0
 10
9.3132944147
 20
7.4485664098
 30
0.0
 10
9.307443611
 20
7.4475667844
 30
0.0
 10
9.3014880898
 20
7.4471279922
 30
0.0
 10
9.2974940603
 20
7.4472161025
 30
0.0
 10
9.295498406
 20
7.4473545016
 30
0.0
  0
SPLINE
  5
37D
100
AcDbEntity
  8
0
100
AcDbSpline
 62
7
  6
CONTINUOUS
 70
0
 71
3
 72
17
 73
13
 74
0
 42
0.0000001
 43
0.0000001
 44
0.0000000001
 40
0.0
 40
0.0
 40
0.0
 40
0.0
 40
0.1261728122
 40
0.2521689971
 40
0.3779035907
 40
0.4406564968
 40
0.5033132018
 40
0.6282793031
 40
0.75275079
 40
0.8147909666
 40
0.8766875852
 40
1.0
 40
1.0
 40
1.0
 40
1.0
 10
11.4806949462
 20
7.6825813666
 30
0.0
 10
11.4776558415
 20
7.6862321649
 30
0.0
 10
11.4718216863
 20
7.6937324604
 30
0.0
 10
11.4638595243
 20
7.705535754
 30
0.0
 10
11.4579259061
 20
7.7157936579
 30
0.0
 10
11.4536299544
 20
7.7242184816
 30
0.0
 10
11.449648372
 20
7.7327644785
 30
0.0
 10
11.4452621695
 20
7.743676694
 30
0.0
 10
11.4416918778
 20
7.7548584917
 30
0.0
 10
11.4393480022
 20
7.7639142745
 30
0.0
 10
11.4373539206
 20
7.7730082821
 30
0.0
 10
11.4362458713
 20
7.7799014215
 30
0.0
 10
11.4356847974
 20
7.7845099119
 30
0.0
  0
SPLINE
  5
37E
100
AcDbEntity
  8
0
100
AcDbSpline
 62
7
  6
CONTINUOUS
 70
0
 71
3
 72
42
 73
38
 74
0
 42
0.0000001
 43
0.0000001
 44
0.0000000001
 40
0.0
 40
0.0
 40
0.0
 40
0.0
 40
0.0299419634
 40
0.0449235299
 40
0.0599142017
 40
0.0899287029
 40
0.1200139772
 40
0.1350926626
 40
0.1501967046
 40
0.1804840506
 40
0.2108978877
 40
0.2414513551
 40
0.2721543675
 40
0.3030134354
 40
0.3340315696
 40
0.3652082675
 40
0.3965395775
 40
0.4280182343
 40
0.4596338596
 40
0.4913732188
 40
0.5232205284
 40
0.5551578047
 40
0.5871652463
 40
0.6192216448
 40
0.6513048151
 40
0.6833920402
 40
0.7154605222
 40
0.747487836
 40
0.7794523759
 40
0.8113337934
 40
0.8431134117
 40
0.8747746318
 40
0.9063032512
 40
0.9376879208
 40
0.9533258
 40
0.9689252634
 40
1.0
 40
1.0
 40
1.0
 40
1.0
 10
9.6871660421
 20
8.0791029867
 30
0.0
 10
9.6907991812
 20
8.0826123082
 30
0.0
 10
9.6964630487
 20
8.0876636414
 30
0.0
 10
9.7043951675
 20
8.0939312457
 30
0.0
 10
9.7125798844
 20
8.0998869645
 30
0.0
 10
9.7232595942
 20
8.1067260592
 30
0.0
 10
9.734458558
 20
8.1127082877
 30
0.0
 10
9.7436948007
 20
8.1169640511
 30
0.0
 10
9.7531218372
 20
8.1208684946
 30
0.0
 10
9.7652162975
 20
8.1250668749
 30
0.0
 10
9.7801208865
 20
8.12897966
 30
0.0
 10
9.795350696
 20
8.131751567
 30
0.0
 10
9.8108213246
 20
8.1333673037
 30
0.0
 10
9.8264477887
 20
8.1338182474
 30
0.0
 10
9.8421441072
 20
8.1331021031
 30
0.0
 10
9.8578240095
 20
8.1312230077
 30
0.0
 10
9.8734013415
 20
8.1281914705
 30
0.0
 10
9.8887905506
 20
8.1240243164
 30
0.0
 10
9.9039071447
 20
8.1187445852
 30
0.0
 10
9.9186681504
 20
8.1123814023
 30
0.0
 10
9.9329925623
 20
8.1049698166
 30
0.0
 10
9.946801781
 20
8.0965506067
 30
0.0
 10
9.9600200385
 20
8.0871700578
 30
0.0
 10
9.9725748091
 20
8.0768797087
 30
0.0
 10
9.9843972022
 20
8.0657360705
 30
0.0
 10
9.9954223362
 20
8.0538003195
 30
0.0
 10
10.005589691
 20
8.0411379646
 30
0.0
 10
10.0148434367
 20
8.0278184902
 30
0.0
 10
10.0231327375
 20
8.0139149837
 30
0.0
 10
10.0304120288
 20
7.9995037227
 30
0.0
 10
10.0366412641
 20
7.9846638215
 30
0.0
 10
10.0417861472
 20
7.9694765822
 30
0.0
 10
10.0458182562
 20
7.9540258688
 30
0.0
 10
10.0482355951
 20
7.9409837916
 30
0.0
 10
10.0495916505
 20
7.9305046406
 30
0.0
 10
10.050559434
 20
7.9200355174
 30
0.0
 10
10.0508524695
 20
7.9121575727
 30
0.0
 10
10.0508524695
 20
7.9069152314
 30
0.0
  0
SPLINE
  5
37F
100
AcDbEntity
  8
0
100
AcDbSpline
 62
7
  6
CONTINUOUS
 70
0
 71
3
 72
39
 73
35
 74
0
 42
0.0000001
 43
0.0000001
 44
0.0000000001
 40
0.0
 40
0.0
 40
0.0
 40
0.0
 40
0.0314026163
 40
0.0630094802
 40
0.0948071156
 40
0.1267734443
 40
0.1588809719
 40
0.1910970226
 40
0.2233851133
 40
0.2557062446
 40
0.2880202668
 40
0.3202872758
 40
0.3524690062
 40
0.3845301827
 40
0.4164397934
 40
0.4481722512
 40
0.4797084083
 40
0.5110363787
 40
0.5421521198
 40
0.5730597435
 40
0.6037715204
 40
0.6343075558
 40
0.6646951112
 40
0.69496759
 40
0.7251632189
 40
0.7553234785
 40
0.7854913552
 40
0.8157095102
 40
0.8460184684
 40
0.8764549241
 40
0.9070502294
 40
0.9378293436
 40
0.9688091107
 40
1.0
 40
1.0
 40
1.0
 40
1.0
 10
9.7185739656
 20
9.2996417894
 30
0.0
 10
9.7228857016
 20
9.2993427695
 30
0.0
 10
9.731513476
 20
9.2983178739
 30
0.0
 10
9.7442812669
 20
9.2955342491
 30
0.0
 10
9.7568015759
 20
9.2915261646
 30
0.0
 10
9.7689526126
 20
9.2863324588
 30
0.0
 10
9.7806181651
 20
9.2800033196
 30
0.0
 10
9.7916862028
 20
9.2725997148
 30
0.0
 10
9.802050595
 20
9.2641928862
 30
0.0
 10
9.8116118981
 20
9.254863611
 30
0.0
 10
9.8202783456
 20
9.2447014545
 30
0.0
 10
9.8279666877
 20
9.2338039224
 30
0.0
 10
9.8346030304
 20
9.2222755775
 30
0.0
 10
9.8401235017
 20
9.2102270232
 30
0.0
 10
9.8444748499
 20
9.1977738649
 30
0.0
 10
9.8476149503
 20
9.1850356308
 30
0.0
 10
9.8495132375
 20
9.1721346622
 30
0.0
 10
9.8501510478
 20
9.1591949644
 30
0.0
 10
9.8495217698
 20
9.1463410305
 30
0.0
 10
9.8476309541
 20
9.1336966717
 30
0.0
 10
9.8444962935
 20
9.1213838433
 30
0.0
 10
9.8401475604
 20
9.109521454
 30
0.0
 10
9.8346263372
 20
9.0982241953
 30
0.0
 10
9.8279856366
 20
9.0876014091
 30
0.0
 10
9.8202894235
 20
9.0777559832
 30
0.0
 10
9.8116120144
 20
9.0687832958
 30
0.0
 10
9.8020373763
 20
9.0607701947
 30
0.0
 10
9.7916582218
 20
9.0537941492
 30
0.0
 10
9.7805750823
 20
9.0479224673
 30
0.0
 10
9.7688952272
 20
9.0432116631
 30
0.0
 10
9.7567317586
 20
9.0397068368
 30
0.0
 10
9.7442018555
 20
9.0374414399
 30
0.0
 10
9.7314279633
 20
9.0364365898
 30
0.0
 10
9.7228566305
 20
9.0366129453
 30
0.0
 10
9.7185739656
 20
9.0369099491
 30
0.0
  0
SPLINE
  5
380
100
AcDbEntity
  8
0
100
AcDbSpline
 62
7
  6
CONTINUOUS
 70
0
 71
3
 72
39
 73
35
 74
0
 42
0.0000001
 43
0.0000001
 44
0.0000000001
 40
0.0
 40
0.0
 40
0.0
 40
0.0
 40
0.0311445425
 40
0.0624433652
 40
0.093888256
 40
0.1254710218
 40
0.1571788766
 40
0.1889972611
 40
0.2209091725
 40
0.2528958428
 40
0.2849370253
 40
0.3170114183
 40
0.349097079
 40
0.3811718482
 40
0.4132137779
 40
0.4452015551
 40
0.4771149166
 40
0.5089350506
 40
0.5406449764
 40
0.5722298984
 40
0.6036775288
 40
0.634978368
 40
0.6661259371
 40
0.6971169555
 40
0.7279514574
 40
0.758632841
 40
0.7891678449
 40
0.819566448
 40
0.8498416915
 40
0.8800094239
 40
0.9100879689
 40
0.9400977235
 40
0.9700606966
 40
1.0
 40
1.0
 40
1.0
 40
1.0
 10
9.7246562081
 20
7.314260611
 30
0.0
 10
9.7220027108
 20
7.3144446317
 30
0.0
 10
9.71669407
 20
7.3150078327
 30
0.0
 10
9.7087954951
 20
7.3164264562
 30
0.0
 10
9.7009814899
 20
7.318413634
 30
0.0
 10
9.6932943337
 20
7.3209585069
 30
0.0
 10
9.6857748018
 20
7.3240475546
 30
0.0
 10
9.6784630255
 20
7.3276641912
 30
0.0
 10
9.6713979519
 20
7.3317891178
 30
0.0
 10
9.6646172286
 20
7.3364003015
 30
0.0
 10
9.6581569859
 20
7.3414731433
 30
0.0
 10
9.6520516481
 20
7.3469805868
 30
0.0
 10
9.6463337484
 20
7.3528932659
 30
0.0
 10
9.6410337623
 20
7.3591796642
 30
0.0
 10
9.6361799455
 20
7.3658062802
 30
0.0
 10
9.6317981857
 20
7.3727378041
 30
0.0
 10
9.6279118655
 20
7.3799373036
 30
0.0
 10
9.6245417389
 20
7.3873664178
 30
0.0
 10
9.6217058207
 20
7.3949855591
 30
0.0
 10
9.6194192919
 20
7.4027541209
 30
0.0
 10
9.6176944099
 20
7.41063069
 30
0.0
 10
9.6165404465
 20
7.4185732663
 30
0.0
 10
9.6159636388
 20
7.4265394844
 30
0.0
 10
9.6159671531
 20
7.4344868368
 30
0.0
 10
9.6165510644
 20
7.442372897
 30
0.0
 10
9.6177123519
 20
7.450155545
 30
0.0
 10
9.6194449095
 20
7.4577931899
 30
0.0
 10
9.6217395746
 20
7.4652449935
 30
0.0
 10
9.6245841667
 20
7.4724710863
 30
0.0
 10
9.6279635544
 20
7.4794328009
 30
0.0
 10
9.63185969
 20
7.4860928302
 30
0.0
 10
9.6362518909
 20
7.4924156213
 30
0.0
 10
9.6411162465
 20
7.4983668668
 30
0.0
 10
9.6446581235
 20
7.5020669899
 30
0.0
 10
9.6464972207
 20
7.5038434061
 30
0.0
  0
SPLINE
  5
381
100
AcDbEntity
  8
0
100
AcDbSpline
 62
7
  6
CONTINUOUS
 70
0
 71
3
 72
39
 73
35
 74
0
 42
0.0000001
 43
0.0000001
 44
0.0000000001
 40
0.0
 40
0.0
 40
0.0
 40
0.0
 40
0.0311445425
 40
0.0624433652
 40
0.093888256
 40
0.1254710218
 40
0.1571788766
 40
0.1889972611
 40
0.2209091725
 40
0.2528958428
 40
0.2849370253
 40
0.3170114183
 40
0.349097079
 40
0.3811718482
 40
0.4132137779
 40
0.4452015551
 40
0.4771149166
 40
0.5089350506
 40
0.5406449764
 40
0.5722298984
 40
0.6036775288
 40
0.634978368
 40
0.6661259371
 40
0.6971169555
 40
0.7279514574
 40
0.758632841
 40
0.7891678449
 40
0.819566448
 40
0.8498416915
 40
0.8800094239
 40
0.9100879689
 40
0.9400977235
 40
0.9700606966
 40
1.0
 40
1.0
 40
1.0
 40
1.0
 10
11.7772487106
 20
7.1719128375
 30
0.0
 10
11.7745952133
 20
7.1720968582
 30
0.0
 10
11.7692865725
 20
7.1726600591
 30
0.0
 10
11.7613879975
 20
7.1740786827
 30
0.0
 10
11.7535739923
 20
7.1760658605
 30
0.0
 10
11.7458868362
 20
7.1786107334
 30
0.0
 10
11.7383673042
 20
7.1816997811
 30
0.0
 10
11.731055528
 20
7.1853164177
 30
0.0
 10
11.7239904544
 20
7.1894413443
 30
0.0
 10
11.7172097311
 20
7.194052528
 30
0.0
 10
11.7107494884
 20
7.1991253698
 30
0.0
 10
11.7046441506
 20
7.2046328133
 30
0.0
 10
11.6989262509
 20
7.2105454924
 30
0.0
 10
11.6936262648
 20
7.2168318907
 30
0.0
 10
11.688772448
 20
7.2234585067
 30
0.0
 10
11.6843906882
 20
7.2303900306
 30
0.0
 10
11.680504368
 20
7.2375895301
 30
0.0
 10
11.6771342414
 20
7.2450186443
 30
0.0
 10
11.6742983232
 20
7.2526377855
 30
0.0
 10
11.6720117944
 20
7.2604063474
 30
0.0
 10
11.6702869124
 20
7.2682829165
 30
0.0
 10
11.669132949
 20
7.2762254928
 30
0.0
 10
11.6685561413
 20
7.2841917109
 30
0.0
 10
11.6685596556
 20
7.2921390632
 30
0.0
 10
11.6691435669
 20
7.3000251235
 30
0.0
 10
11.6703048544
 20
7.3078077715
 30
0.0
 10
11.672037412
 20
7.3154454164
 30
0.0
 10
11.6743320771
 20
7.32289722
 30
0.0
 10
11.6771766692
 20
7.3301233128
 30
0.0
 10
11.6805560569
 20
7.3370850274
 30
0.0
 10
11.6844521925
 20
7.3437450567
 30
0.0
 10
11.6888443934
 20
7.3500678478
 30
0.0
 10
11.693708749
 20
7.3560190933
 30
0.0
 10
11.6972506259
 20
7.3597192164
 30
0.0
 10
11.6990897232
 20
7.3614956325
 30
0.0
  0
SPLINE
  5
382
100
AcDbEntity
  8
0
100
AcDbSpline
 62
7
  6
CONTINUOUS
 70
0
 71
3
 72
39
 73
35
 74
0
 42
0.0000001
 43
0.0000001
 44
0.0000000001
 40
0.0
 40
0.0
 40
0.0
 40
0.0
 40
0.0314026163
 40
0.0630094802
 40
0.0948071156
 40
0.1267734443
 40
0.1588809719
 40
0.1910970226
 40
0.2233851133
 40
0.2557062446
 40
0.2880202668
 40
0.3202872758
 40
0.3524690062
 40
0.3845301827
 40
0.4164397934
 40
0.4481722512
 40
0.4797084083
 40
0.5110363787
 40
0.5421521198
 40
0.5730597435
 40
0.6037715204
 40
0.6343075558
 40
0.6646951112
 40
0.69496759
 40
0.7251632189
 40
0.7553234785
 40
0.7854913552
 40
0.8157095102
 40
0.8460184684
 40
0.8764549241
 40
0.9070502294
 40
0.9378293436
 40
0.9688091107
 40
1.0
 40
1.0
 40
1.0
 40
1.0
 10
11.771166468
 20
7.1433385838
 30
0.0
 10
11.766854732
 20
7.1436376037
 30
0.0
 10
11.7582269577
 20
7.1446624993
 30
0.0
 10
11.7454591667
 20
7.1474461241
 30
0.0
 10
11.7329388577
 20
7.1514542086
 30
0.0
 10
11.7207878211
 20
7.1566479143
 30
0.0
 10
11.7091222686
 20
7.1629770536
 30
0.0
 10
11.6980542308
 20
7.1703806584
 30
0.0
 10
11.6876898386
 20
7.178787487
 30
0.0
 10
11.6781285355
 20
7.1881167621
 30
0.0
 10
11.669462088
 20
7.1982789187
 30
0.0
 10
11.6617737459
 20
7.2091764508
 30
0.0
 10
11.6551374032
 20
7.2207047957
 30
0.0
 10
11.6496169319
 20
7.23275335
 30
0.0
 10
11.6452655837
 20
7.2452065082
 30
0.0
 10
11.6421254833
 20
7.2579447423
 30
0.0
 10
11.6402271962
 20
7.270845711
 30
0.0
 10
11.6395893858
 20
7.2837854087
 30
0.0
 10
11.6402186638
 20
7.2966393427
 30
0.0
 10
11.6421094795
 20
7.3092837014
 30
0.0
 10
11.6452441401
 20
7.3215965298
 30
0.0
 10
11.6495928732
 20
7.3334589192
 30
0.0
 10
11.6551140964
 20
7.3447561779
 30
0.0
 10
11.661754797
 20
7.355378964
 30
0.0
 10
11.6694510101
 20
7.36522439
 30
0.0
 10
11.6781284192
 20
7.3741970773
 30
0.0
 10
11.6877030573
 20
7.3822101784
 30
0.0
 10
11.6980822118
 20
7.389186224
 30
0.0
 10
11.7091653514
 20
7.3950579058
 30
0.0
 10
11.7208452064
 20
7.3997687101
 30
0.0
 10
11.733008675
 20
7.4032735364
 30
0.0
 10
11.7455385781
 20
7.4055389333
 30
0.0
 10
11.7583124703
 20
7.4065437833
 30
0.0
 10
11.7668838032
 20
7.4063674279
 30
0.0
 10
11.771166468
 20
7.4060704241
 30
0.0
  0
SPLINE
  5
383
100
AcDbEntity
  8
0
100
AcDbSpline
 62
7
  6
CONTINUOUS
 70
0
 71
3
 72
39
 73
35
 74
0
 42
0.0000001
 43
0.0000001
 44
0.0000000001
 40
0.0
 40
0.0
 40
0.0
 40
0.0
 40
0.0314026163
 40
0.0630094802
 40
0.0948071156
 40
0.1267734443
 40
0.1588809719
 40
0.1910970226
 40
0.2233851133
 40
0.2557062446
 40
0.2880202668
 40
0.3202872758
 40
0.3524690062
 40
0.3845301827
 40
0.4164397934
 40
0.4481722512
 40
0.4797084083
 40
0.5110363787
 40
0.5421521198
 40
0.5730597435
 40
0.6037715204
 40
0.6343075558
 40
0.6646951112
 40
0.69496759
 40
0.7251632189
 40
0.7553234785
 40
0.7854913552
 40
0.8157095102
 40
0.8460184684
 40
0.8764549241
 40
0.9070502294
 40
0.9378293436
 40
0.9688091107
 40
1.0
 40
1.0
 40
1.0
 40
1.0
 10
9.7185739656
 20
9.0369099491
 30
0.0
 10
9.7142622295
 20
9.037208969
 30
0.0
 10
9.7056344552
 20
9.0382338646
 30
0.0
 10
9.6928666642
 20
9.0410174894
 30
0.0
 10
9.6803463552
 20
9.045025574
 30
0.0
 10
9.6681953186
 20
9.0502192797
 30
0.0
 10
9.6565297661
 20
9.056548419
 30
0.0
 10
9.6454617283
 20
9.0639520237
 30
0.0
 10
9.6350973361
 20
9.0723588523
 30
0.0
 10
9.625536033
 20
9.0816881275
 30
0.0
 10
9.6168695855
 20
9.091850284
 30
0.0
 10
9.6091812434
 20
9.1027478162
 30
0.0
 10
9.6025449007
 20
9.114276161
 30
0.0
 10
9.5970244294
 20
9.1263247153
 30
0.0
 10
9.5926730812
 20
9.1387778736
 30
0.0
 10
9.5895329808
 20
9.1515161077
 30
0.0
 10
9.5876346937
 20
9.1644170763
 30
0.0
 10
9.5869968833
 20
9.1773567741
 30
0.0
 10
9.5876261613
 20
9.190210708
 30
0.0
 10
9.589516977
 20
9.2028550668
 30
0.0
 10
9.5926516376
 20
9.2151678952
 30
0.0
 10
9.5970003707
 20
9.2270302845
 30
0.0
 10
9.602521594
 20
9.2383275432
 30
0.0
 10
9.6091622945
 20
9.2489503294
 30
0.0
 10
9.6168585076
 20
9.2587957553
 30
0.0
 10
9.6255359167
 20
9.2677684427
 30
0.0
 10
9.6351105549
 20
9.2757815438
 30
0.0
 10
9.6454897093
 20
9.2827575893
 30
0.0
 10
9.6565728489
 20
9.2886292712
 30
0.0
 10
9.668252704
 20
9.2933400754
 30
0.0
 10
9.6804161725
 20
9.2968449017
 30
0.0
 10
9.6929460756
 20
9.2991102986
 30
0.0
 10
9.7057199678
 20
9.3001151487
 30
0.0
 10
9.7142913007
 20
9.2999387932
 30
0.0
 10
9.7185739656
 20
9.2996417894
 30
0.0
  0
SPLINE
  5
384
100
AcDbEntity
  8
0
100
AcDbSpline
 62
7
  6
CONTINUOUS
 70
0
 71
3
 72
21
 73
17
 74
0
 42
0.0000001
 43
0.0000001
 44
0.0000000001
 40
0.0
 40
0.0
 40
0.0
 40
0.0
 40
0.1273176984
 40
0.2537999461
 40
0.3167619614
 40
0.3795355204
 40
0.4421314992
 40
0.5045621453
 40
0.5668413456
 40
0.6289845231
 40
0.6910084433
 40
0.7529310869
 40
0.8147714401
 40
0.8765493236
 40
0.9382852134
 40
1.0
 40
1.0
 40
1.0
 40
1.0
 10
11.9817383457
 20
6.355028937
 30
0.0
 10
11.9817383457
 20
6.3617737451
 30
0.0
 10
11.9823821827
 20
6.3752277845
 30
0.0
 10
11.9848137739
 20
6.3918598816
 30
0.0
 10
11.987720041
 20
6.4049063053
 30
0.0
 10
11.9903704049
 20
6.4145293537
 30
0.0
 10
11.9934883996
 20
6.4239814055
 30
0.0
 10
11.9970668364
 20
6.43324094
 30
0.0
 10
12.001097465
 20
6.4422865414
 30
0.0
 10
12.0055710729
 20
6.451097333
 30
0.0
 10
12.010477311
 20
6.4596530045
 30
0.0
 10
12.0158048647
 20
6.4679338384
 30
0.0
 10
12.0215414991
 20
6.475920673
 30
0.0
 10
12.0276740203
 20
6.4835951655
 30
0.0
 10
12.0341880138
 20
6.4909394038
 30
0.0
 10
12.0387759065
 20
6.4956048963
 30
0.0
 10
12.0411274552
 20
6.4978763041
 30
0.0
  0
SPLINE
  5
385
100
AcDbEntity
  8
0
100
AcDbSpline
 62
7
  6
CONTINUOUS
 70
0
 71
3
 72
11
 73
7
 74
0
 42
0.0000001
 43
0.0000001
 44
0.0000000001
 40
0.0
 40
0.0
 40
0.0
 40
0.0
 40
0.2496564127
 40
0.4995375144
 40
0.7496490786
 40
1.0
 40
1.0
 40
1.0
 40
1.0
 10
10.4766444006
 20
8.3516777995
 30
0.0
 10
10.4790234194
 20
8.359087234
 30
0.0
 10
10.4839653584
 20
8.3738551959
 30
0.0
 10
10.4919525335
 20
8.3958178087
 30
0.0
 10
10.500549481
 20
8.4175725728
 30
0.0
 10
10.5067092489
 20
8.4319079274
 30
0.0
 10
10.5099032869
 20
8.4390279678
 30
0.0
  0
SPLINE
  5
386
100
AcDbEntity
  8
0
100
AcDbSpline
 62
7
  6
CONTINUOUS
 70
0
 71
3
 72
21
 73
17
 74
0
 42
0.0000001
 43
0.0000001
 44
0.0000000001
 40
0.0
 40
0.0
 40
0.0
 40
0.0
 40
0.0614238882
 40
0.1230812619
 40
0.1849595269
 40
0.2470445984
 40
0.3093192695
 40
0.3717639573
 40
0.434356896
 40
0.4970744278
 40
0.6227334299
 40
0.7485738815
 40
0.811516122
 40
0.8744187272
 40
0.9372569898
 40
1.0
 40
1.0
 40
1.0
 40
1.0
 10
10.3699391011
 20
8.5185528013
 30
0.0
 10
10.3704323794
 20
8.5143914445
 30
0.0
 10
10.3716630047
 20
8.5060796298
 30
0.0
 10
10.3742259682
 20
8.4937175739
 30
0.0
 10
10.3775009919
 20
8.4814777334
 30
0.0
 10
10.3814765678
 20
8.4694030345
 30
0.0
 10
10.3861389815
 20
8.45753504
 30
0.0
 10
10.3914719796
 20
8.4459149154
 30
0.0
 10
10.397457366
 20
8.4345824504
 30
0.0
 10
10.4062833964
 20
8.41990231
 30
0.0
 10
10.4188381069
 20
8.402469741
 30
0.0
 10
10.4332392944
 20
8.386508325
 30
0.0
 10
10.4457559175
 20
8.3747435478
 30
0.0
 10
10.455610482
 20
8.3664511625
 30
0.0
 10
10.4658948259
 20
8.3587220484
 30
0.0
 10
10.4730214189
 20
8.3539573944
 30
0.0
 10
10.4766444006
 20
8.3516777995
 30
0.0
  0
SPLINE
  5
387
100
AcDbEntity
  8
0
100
AcDbSpline
 62
7
  6
CONTINUOUS
 70
0
 71
3
 72
32
 73
28
 74
0
 42
0.0000001
 43
0.0000001
 44
0.0000000001
 40
0.0
 40
0.0
 40
0.0
 40
0.0
 40
0.0300884375
 40
0.0603093555
 40
0.0906731467
 40
0.1211915984
 40
0.1518690963
 40
0.1827070386
 40
0.2137025514
 40
0.244849343
 40
0.3075199903
 40
0.3706566098
 40
0.402376456
 40
0.4341634276
 40
0.466000009
 40
0.4978686622
 40
0.5616055214
 40
0.6252698234
 40
0.6570492291
 40
0.6887651901
 40
0.7204044344
 40
0.7519546966
 40
0.8147166159
 40
0.8770027895
 40
0.9387607877
 40
0.9694493691
 40
1.0
 40
1.0
 40
1.0
 40
1.0
 10
12.2276177693
 20
8.8298302459
 30
0.0
 10
12.2259805496
 20
8.8291803393
 30
0.0
 10
12.2226441454
 20
8.8280111524
 30
0.0
 10
12.2175039937
 20
8.8266639046
 30
0.0
 10
12.2122479012
 20
8.8257256634
 30
0.0
 10
12.2069081328
 20
8.8251993745
 30
0.0
 10
12.201516095
 20
8.8250846351
 30
0.0
 10
12.1961030961
 20
8.825377724
 30
0.0
 10
12.1906991164
 20
8.8260721891
 30
0.0
 10
12.1835322208
 20
8.8275233126
 30
0.0
 10
12.1747388768
 20
8.8302952153
 30
0.0
 10
12.1663677118
 20
8.8342304723
 30
0.0
 10
12.1599876043
 20
8.8380153102
 30
0.0
 10
12.1553722706
 20
8.8411612519
 30
0.0
 10
12.1509532397
 20
8.8445913967
 30
0.0
 10
12.1453453892
 20
8.8495183971
 30
0.0
 10
12.1389053126
 20
8.8562936983
 30
0.0
 10
12.1333080309
 20
8.8637727266
 30
0.0
 10
12.1293827699
 20
8.8701023604
 30
0.0
 10
12.1267263023
 20
8.8750012687
 30
0.0
 10
12.1243658198
 20
8.8800347085
 30
0.0
 10
12.121630224
 20
8.8868858517
 30
0.0
 10
12.1189887945
 20
8.8956898501
 30
0.0
 10
12.1171259413
 20
8.9064927242
 30
0.0
 10
12.1167069667
 20
8.9155687925
 30
0.0
 10
12.1170763354
 20
8.922764121
 30
0.0
 10
12.1174970974
 20
8.9263278731
 30
0.0
 10
12.1177670401
 20
8.9280959391
 30
0.0
  0
SPLINE
  5
388
100
AcDbEntity
  8
0
100
AcDbSpline
 62
7
  6
CONTINUOUS
 70
0
 71
3
 72
21
 73
17
 74
0
 42
0.0000001
 43
0.0000001
 44
0.0000000001
 40
0.0
 40
0.0
 40
0.0
 40
0.0
 40
0.0503433409
 40
0.1015136773
 40
0.1537393957
 40
0.2072391956
 40
0.2622172538
 40
0.3188531539
 40
0.3773041037
 40
0.437701479
 40
0.5001537297
 40
0.5647487524
 40
0.6315531397
 40
0.7006188271
 40
0.8456576248
 40
1.0
 40
1.0
 40
1.0
 40
1.0
 10
10.4336181568
 20
8.339019346
 30
0.0
 10
10.4341713928
 20
8.339553731
 30
0.0
 10
10.4353286256
 20
8.3405889769
 30
0.0
 10
10.4371912783
 20
8.3420232382
 30
0.0
 10
10.4391908481
 20
8.3433489011
 30
0.0
 10
10.441325186
 20
8.3445661653
 30
0.0
 10
10.4435920902
 20
8.3456766099
 30
0.0
 10
10.4459897043
 20
8.3466816292
 30
0.0
 10
10.4485157109
 20
8.3475840103
 30
0.0
 10
10.4511679962
 20
8.3483865833
 30
0.0
 10
10.453944426
 20
8.3490925239
 30
0.0
 10
10.4568427391
 20
8.3497059587
 30
0.0
 10
10.4598608993
 20
8.3502308019
 30
0.0
 10
10.464111693
 20
8.3508280827
 30
0.0
 10
10.46971812
 20
8.3513657323
 30
0.0
 10
10.4742876207
 20
8.3515975036
 30
0.0
 10
10.4766444006
 20
8.3516777995
 30
0.0
  0
SPLINE
  5
389
100
AcDbEntity
  8
0
100
AcDbSpline
 62
7
  6
CONTINUOUS
 70
0
 71
3
 72
21
 73
17
 74
0
 42
0.0000001
 43
0.0000001
 44
0.0000000001
 40
0.0
 40
0.0
 40
0.0
 40
0.0
 40
0.1273176984
 40
0.2537999461
 40
0.3167619614
 40
0.3795355204
 40
0.4421314992
 40
0.5045621453
 40
0.5668413456
 40
0.6289845231
 40
0.6910084433
 40
0.7529310869
 40
0.8147714401
 40
0.8765493236
 40
0.9382852134
 40
1.0
 40
1.0
 40
1.0
 40
1.0
 10
11.9817383457
 20
9.8555441498
 30
0.0
 10
11.9817383457
 20
9.8622889579
 30
0.0
 10
11.9823821827
 20
9.8757429974
 30
0.0
 10
11.9848137739
 20
9.8923750944
 30
0.0
 10
11.987720041
 20
9.9054215181
 30
0.0
 10
11.9903704049
 20
9.9150445665
 30
0.0
 10
11.9934883996
 20
9.9244966183
 30
0.0
 10
11.9970668364
 20
9.9337561528
 30
0.0
 10
12.001097465
 20
9.9428017542
 30
0.0
 10
12.0055710729
 20
9.9516125458
 30
0.0
 10
12.010477311
 20
9.9601682173
 30
0.0
 10
12.0158048647
 20
9.9684490512
 30
0.0
 10
12.0215414991
 20
9.9764358858
 30
0.0
 10
12.0276740203
 20
9.9841103783
 30
0.0
 10
12.0341880138
 20
9.9914546166
 30
0.0
 10
12.0387759065
 20
9.9961201092
 30
0.0
 10
12.0411274552
 20
9.9983915169
 30
0.0
  0
SPLINE
  5
38A
100
AcDbEntity
  8
0
100
AcDbSpline
 62
7
  6
CONTINUOUS
 70
0
 71
3
 72
39
 73
35
 74
0
 42
0.0000001
 43
0.0000001
 44
0.0000000001
 40
0.0
 40
0.0
 40
0.0
 40
0.0
 40
0.0314026163
 40
0.0630094802
 40
0.0948071156
 40
0.1267734443
 40
0.1588809719
 40
0.1910970226
 40
0.2233851133
 40
0.2557062446
 40
0.2880202668
 40
0.3202872758
 40
0.3524690062
 40
0.3845301827
 40
0.4164397934
 40
0.4481722512
 40
0.4797084083
 40
0.5110363787
 40
0.5421521198
 40
0.5730597435
 40
0.6037715204
 40
0.6343075558
 40
0.6646951112
 40
0.69496759
 40
0.7251632189
 40
0.7553234785
 40
0.7854913552
 40
0.8157095102
 40
0.8460184684
 40
0.8764549241
 40
0.9070502294
 40
0.9378293436
 40
0.9688091107
 40
1.0
 40
1.0
 40
1.0
 40
1.0
 10
11.771166468
 20
9.1572940159
 30
0.0
 10
11.7754782041
 20
9.156994996
 30
0.0
 10
11.7841059784
 20
9.1559701003
 30
0.0
 10
11.7968737694
 20
9.1531864755
 30
0.0
 10
11.8093940784
 20
9.149178391
 30
0.0
 10
11.821545115
 20
9.1439846853
 30
0.0
 10
11.8332106675
 20
9.137655546
 30
0.0
 10
11.8442787053
 20
9.1302519413
 30
0.0
 10
11.8546430975
 20
9.1218451127
 30
0.0
 10
11.8642044006
 20
9.1125158375
 30
0.0
 10
11.8728708481
 20
9.102353681
 30
0.0
 10
11.8805591902
 20
9.0914561488
 30
0.0
 10
11.8871955329
 20
9.079927804
 30
0.0
 10
11.8927160042
 20
9.0678792497
 30
0.0
 10
11.8970673524
 20
9.0554260914
 30
0.0
 10
11.9002074528
 20
9.0426878573
 30
0.0
 10
11.9021057399
 20
9.0297868887
 30
0.0
 10
11.9027435503
 20
9.0168471909
 30
0.0
 10
11.9021142723
 20
9.003993257
 30
0.0
 10
11.9002234566
 20
8.9913488982
 30
0.0
 10
11.897088796
 20
8.9790360698
 30
0.0
 10
11.8927400629
 20
8.9671736804
 30
0.0
 10
11.8872188397
 20
8.9558764218
 30
0.0
 10
11.8805781391
 20
8.9452536356
 30
0.0
 10
11.872881926
 20
8.9354082097
 30
0.0
 10
11.8642045169
 20
8.9264355223
 30
0.0
 10
11.8546298787
 20
8.9184224212
 30
0.0
 10
11.8442507243
 20
8.9114463757
 30
0.0
 10
11.8331675847
 20
8.9055746938
 30
0.0
 10
11.8214877297
 20
8.9008638896
 30
0.0
 10
11.8093242611
 20
8.8973590633
 30
0.0
 10
11.796794358
 20
8.8950936664
 30
0.0
 10
11.7840204658
 20
8.8940888163
 30
0.0
 10
11.7754491329
 20
8.8942651718
 30
0.0
 10
11.771166468
 20
8.8945621756
 30
0.0
  0
SPLINE
  5
38B
100
AcDbEntity
  8
0
100
AcDbSpline
 62
7
  6
CONTINUOUS
 70
0
 71
3
 72
39
 73
35
 74
0
 42
0.0000001
 43
0.0000001
 44
0.0000000001
 40
0.0
 40
0.0
 40
0.0
 40
0.0
 40
0.0314026163
 40
0.0630094802
 40
0.0948071156
 40
0.1267734443
 40
0.1588809719
 40
0.1910970226
 40
0.2233851133
 40
0.2557062446
 40
0.2880202668
 40
0.3202872758
 40
0.3524690062
 40
0.3845301827
 40
0.4164397934
 40
0.4481722512
 40
0.4797084083
 40
0.5110363787
 40
0.5421521198
 40
0.5730597435
 40
0.6037715204
 40
0.6343075558
 40
0.6646951112
 40
0.69496759
 40
0.7251632189
 40
0.7553234785
 40
0.7854913552
 40
0.8157095102
 40
0.8460184684
 40
0.8764549241
 40
0.9070502294
 40
0.9378293436
 40
0.9688091107
 40
1.0
 40
1.0
 40
1.0
 40
1.0
 10
11.771166468
 20
8.8945621756
 30
0.0
 10
11.766854732
 20
8.8948611955
 30
0.0
 10
11.7582269577
 20
8.8958860911
 30
0.0
 10
11.7454591667
 20
8.8986697159
 30
0.0
 10
11.7329388577
 20
8.9026778004
 30
0.0
 10
11.7207878211
 20
8.9078715061
 30
0.0
 10
11.7091222686
 20
8.9142006454
 30
0.0
 10
11.6980542308
 20
8.9216042502
 30
0.0
 10
11.6876898386
 20
8.9300110788
 30
0.0
 10
11.6781285355
 20
8.9393403539
 30
0.0
 10
11.669462088
 20
8.9495025105
 30
0.0
 10
11.6617737459
 20
8.9604000426
 30
0.0
 10
11.6551374032
 20
8.9719283875
 30
0.0
 10
11.6496169319
 20
8.9839769418
 30
0.0
 10
11.6452655837
 20
8.9964301001
 30
0.0
 10
11.6421254833
 20
9.0091683341
 30
0.0
 10
11.6402271962
 20
9.0220693028
 30
0.0
 10
11.6395893858
 20
9.0350090006
 30
0.0
 10
11.6402186638
 20
9.0478629345
 30
0.0
 10
11.6421094795
 20
9.0605072933
 30
0.0
 10
11.6452441401
 20
9.0728201217
 30
0.0
 10
11.6495928732
 20
9.084682511
 30
0.0
 10
11.6551140964
 20
9.0959797697
 30
0.0
 10
11.661754797
 20
9.1066025559
 30
0.0
 10
11.6694510101
 20
9.1164479818
 30
0.0
 10
11.6781284192
 20
9.1254206692
 30
0.0
 10
11.6877030573
 20
9.1334337702
 30
0.0
 10
11.6980822118
 20
9.1404098158
 30
0.0
 10
11.7091653514
 20
9.1462814977
 30
0.0
 10
11.7208452064
 20
9.1509923019
 30
0.0
 10
11.733008675
 20
9.1544971282
 30
0.0
 10
11.7455385781
 20
9.1567625251
 30
0.0
 10
11.7583124703
 20
9.1577673751
 30
0.0
 10
11.7668838032
 20
9.1575910197
 30
0.0
 10
11.771166468
 20
9.1572940159
 30
0.0
  0
SPLINE
  5
38C
100
AcDbEntity
  8
0
100
AcDbSpline
 62
7
  6
CONTINUOUS
 70
0
 71
3
 72
39
 73
35
 74
0
 42
0.0000001
 43
0.0000001
 44
0.0000000001
 40
0.0
 40
0.0
 40
0.0
 40
0.0
 40
0.0314026163
 40
0.0630094802
 40
0.0948071156
 40
0.1267734443
 40
0.1588809719
 40
0.1910970226
 40
0.2233851133
 40
0.2557062446
 40
0.2880202668
 40
0.3202872758
 40
0.3524690062
 40
0.3845301827
 40
0.4164397934
 40
0.4481722512
 40
0.4797084083
 40
0.5110363787
 40
0.5421521198
 40
0.5730597435
 40
0.6037715204
 40
0.6343075558
 40
0.6646951112
 40
0.69496759
 40
0.7251632189
 40
0.7553234785
 40
0.7854913552
 40
0.8157095102
 40
0.8460184684
 40
0.8764549241
 40
0.9070502294
 40
0.9378293436
 40
0.9688091107
 40
1.0
 40
1.0
 40
1.0
 40
1.0
 10
9.7185739656
 20
7.5484181976
 30
0.0
 10
9.7228857016
 20
7.5481191777
 30
0.0
 10
9.731513476
 20
7.547094282
 30
0.0
 10
9.7442812669
 20
7.5443106572
 30
0.0
 10
9.7568015759
 20
7.5403025727
 30
0.0
 10
9.7689526126
 20
7.535108867
 30
0.0
 10
9.7806181651
 20
7.5287797277
 30
0.0
 10
9.7916862028
 20
7.521376123
 30
0.0
 10
9.802050595
 20
7.5129692944
 30
0.0
 10
9.8116118981
 20
7.5036400192
 30
0.0
 10
9.8202783456
 20
7.4934778627
 30
0.0
 10
9.8279666877
 20
7.4825803305
 30
0.0
 10
9.8346030304
 20
7.4710519857
 30
0.0
 10
9.8401235017
 20
7.4590034314
 30
0.0
 10
9.8444748499
 20
7.4465502731
 30
0.0
 10
9.8476149503
 20
7.433812039
 30
0.0
 10
9.8495132375
 20
7.4209110704
 30
0.0
 10
9.8501510478
 20
7.4079713726
 30
0.0
 10
9.8495217698
 20
7.3951174387
 30
0.0
 10
9.8476309541
 20
7.3824730799
 30
0.0
 10
9.8444962935
 20
7.3701602515
 30
0.0
 10
9.8401475604
 20
7.3582978621
 30
0.0
 10
9.8346263372
 20
7.3470006035
 30
0.0
 10
9.8279856366
 20
7.3363778173
 30
0.0
 10
9.8202894235
 20
7.3265323914
 30
0.0
 10
9.8116120144
 20
7.317559704
 30
0.0
 10
9.8020373763
 20
7.3095466029
 30
0.0
 10
9.7916582218
 20
7.3025705574
 30
0.0
 10
9.7805750823
 20
7.2966988755
 30
0.0
 10
9.7688952272
 20
7.2919880713
 30
0.0
 10
9.7567317586
 20
7.288483245
 30
0.0
 10
9.7442018555
 20
7.2862178481
 30
0.0
 10
9.7314279633
 20
7.285212998
 30
0.0
 10
9.7228566305
 20
7.2853893535
 30
0.0
 10
9.7185739656
 20
7.2856863573
 30
0.0
  0
SPLINE
  5
38D
100
AcDbEntity
  8
0
100
AcDbSpline
 62
7
  6
CONTINUOUS
 70
0
 71
3
 72
21
 73
17
 74
0
 42
0.0000001
 43
0.0000001
 44
0.0000000001
 40
0.0
 40
0.0
 40
0.0
 40
0.0
 40
0.1273176984
 40
0.2537999461
 40
0.3167619614
 40
0.3795355204
 40
0.4421314992
 40
0.5045621453
 40
0.5668413456
 40
0.6289845231
 40
0.6910084433
 40
0.7529310869
 40
0.8147714401
 40
0.8765493236
 40
0.9382852134
 40
1.0
 40
1.0
 40
1.0
 40
1.0
 10
8.9641858443
 20
6.5642969138
 30
0.0
 10
8.9641858443
 20
6.5710417219
 30
0.0
 10
8.9648296813
 20
6.5844957613
 30
0.0
 10
8.9672612726
 20
6.6011278583
 30
0.0
 10
8.9701675397
 20
6.614174282
 30
0.0
 10
8.9728179036
 20
6.6237973305
 30
0.0
 10
8.9759358983
 20
6.6332493822
 30
0.0
 10
8.979514335
 20
6.6425089167
 30
0.0
 10
8.9835449637
 20
6.6515545181
 30
0.0
 10
8.9880185716
 20
6.6603653097
 30
0.0
 10
8.9929248097
 20
6.6689209812
 30
0.0
 10
8.9982523633
 20
6.6772018151
 30
0.0
 10
9.0039889977
 20
6.6851886497
 30
0.0
 10
9.010121519
 20
6.6928631422
 30
0.0
 10
9.0166355124
 20
6.7002073805
 30
0.0
 10
9.0212234052
 20
6.7048728731
 30
0.0
 10
9.0235749539
 20
6.7071442808
 30
0.0
  0
SPLINE
  5
38E
100
AcDbEntity
  8
0
100
AcDbSpline
 62
7
  6
CONTINUOUS
 70
0
 71
3
 72
39
 73
35
 74
0
 42
0.0000001
 43
0.0000001
 44
0.0000000001
 40
0.0
 40
0.0
 40
0.0
 40
0.0
 40
0.0314026163
 40
0.0630094802
 40
0.0948071156
 40
0.1267734443
 40
0.1588809719
 40
0.1910970226
 40
0.2233851133
 40
0.2557062446
 40
0.2880202668
 40
0.3202872758
 40
0.3524690062
 40
0.3845301827
 40
0.4164397934
 40
0.4481722512
 40
0.4797084083
 40
0.5110363787
 40
0.5421521198
 40
0.5730597435
 40
0.6037715204
 40
0.6343075558
 40
0.6646951112
 40
0.69496759
 40
0.7251632189
 40
0.7553234785
 40
0.7854913552
 40
0.8157095102
 40
0.8460184684
 40
0.8764549241
 40
0.9070502294
 40
0.9378293436
 40
0.9688091107
 40
1.0
 40
1.0
 40
1.0
 40
1.0
 10
9.7185739656
 20
7.2856863573
 30
0.0
 10
9.7142622295
 20
7.2859853772
 30
0.0
 10
9.7056344552
 20
7.2870102728
 30
0.0
 10
9.6928666642
 20
7.2897938976
 30
0.0
 10
9.6803463552
 20
7.2938019821
 30
0.0
 10
9.6681953186
 20
7.2989956879
 30
0.0
 10
9.6565297661
 20
7.3053248271
 30
0.0
 10
9.6454617283
 20
7.3127284319
 30
0.0
 10
9.6350973361
 20
7.3211352605
 30
0.0
 10
9.625536033
 20
7.3304645357
 30
0.0
 10
9.6168695855
 20
7.3406266922
 30
0.0
 10
9.6091812434
 20
7.3515242243
 30
0.0
 10
9.6025449007
 20
7.3630525692
 30
0.0
 10
9.5970244294
 20
7.3751011235
 30
0.0
 10
9.5926730812
 20
7.3875542818
 30
0.0
 10
9.5895329808
 20
7.4002925159
 30
0.0
 10
9.5876346937
 20
7.4131934845
 30
0.0
 10
9.5869968833
 20
7.4261331823
 30
0.0
 10
9.5876261613
 20
7.4389871162
 30
0.0
 10
9.589516977
 20
7.451631475
 30
0.0
 10
9.5926516376
 20
7.4639443034
 30
0.0
 10
9.5970003707
 20
7.4758066927
 30
0.0
 10
9.602521594
 20
7.4871039514
 30
0.0
 10
9.6091622945
 20
7.4977267376
 30
0.0
 10
9.6168585076
 20
7.5075721635
 30
0.0
 10
9.6255359167
 20
7.5165448509
 30
0.0
 10
9.6351105549
 20
7.5245579519
 30
0.0
 10
9.6454897093
 20
7.5315339975
 30
0.0
 10
9.6565728489
 20
7.5374056794
 30
0.0
 10
9.668252704
 20
7.5421164836
 30
0.0
 10
9.6804161725
 20
7.5456213099
 30
0.0
 10
9.6929460756
 20
7.5478867068
 30
0.0
 10
9.7057199678
 20
7.5488915568
 30
0.0
 10
9.7142913007
 20
7.5487152014
 30
0.0
 10
9.7185739656
 20
7.5484181976
 30
0.0
  0
SPLINE
  5
38F
100
AcDbEntity
  8
0
100
AcDbSpline
 62
7
  6
CONTINUOUS
 70
0
 71
3
 72
39
 73
35
 74
0
 42
0.0000001
 43
0.0000001
 44
0.0000000001
 40
0.0
 40
0.0
 40
0.0
 40
0.0
 40
0.0311445425
 40
0.0624433652
 40
0.093888256
 40
0.1254710218
 40
0.1571788766
 40
0.1889972611
 40
0.2209091725
 40
0.2528958428
 40
0.2849370253
 40
0.3170114183
 40
0.349097079
 40
0.3811718482
 40
0.4132137779
 40
0.4452015551
 40
0.4771149166
 40
0.5089350506
 40
0.5406449764
 40
0.5722298984
 40
0.6036775288
 40
0.634978368
 40
0.6661259371
 40
0.6971169555
 40
0.7279514574
 40
0.758632841
 40
0.7891678449
 40
0.819566448
 40
0.8498416915
 40
0.8800094239
 40
0.9100879689
 40
0.9400977235
 40
0.9700606966
 40
1.0
 40
1.0
 40
1.0
 40
1.0
 10
9.7246562081
 20
9.0654842029
 30
0.0
 10
9.7220027108
 20
9.0656682235
 30
0.0
 10
9.71669407
 20
9.0662314245
 30
0.0
 10
9.7087954951
 20
9.067650048
 30
0.0
 10
9.7009814899
 20
9.0696372259
 30
0.0
 10
9.6932943337
 20
9.0721820987
 30
0.0
 10
9.6857748018
 20
9.0752711465
 30
0.0
 10
9.6784630255
 20
9.078887783
 30
0.0
 10
9.6713979519
 20
9.0830127096
 30
0.0
 10
9.6646172286
 20
9.0876238933
 30
0.0
 10
9.6581569859
 20
9.0926967351
 30
0.0
 10
9.6520516481
 20
9.0982041786
 30
0.0
 10
9.6463337484
 20
9.1041168577
 30
0.0
 10
9.6410337623
 20
9.110403256
 30
0.0
 10
9.6361799455
 20
9.1170298721
 30
0.0
 10
9.6317981857
 20
9.123961396
 30
0.0
 10
9.6279118655
 20
9.1311608954
 30
0.0
 10
9.6245417389
 20
9.1385900096
 30
0.0
 10
9.6217058207
 20
9.1462091509
 30
0.0
 10
9.6194192919
 20
9.1539777128
 30
0.0
 10
9.6176944099
 20
9.1618542819
 30
0.0
 10
9.6165404465
 20
9.1697968581
 30
0.0
 10
9.6159636388
 20
9.1777630763
 30
0.0
 10
9.6159671531
 20
9.1857104286
 30
0.0
 10
9.6165510644
 20
9.1935964888
 30
0.0
 10
9.6177123519
 20
9.2013791368
 30
0.0
 10
9.6194449095
 20
9.2090167818
 30
0.0
 10
9.6217395746
 20
9.2164685853
 30
0.0
 10
9.6245841667
 20
9.2236946781
 30
0.0
 10
9.6279635544
 20
9.2306563927
 30
0.0
 10
9.63185969
 20
9.237316422
 30
0.0
 10
9.6362518909
 20
9.2436392131
 30
0.0
 10
9.6411162465
 20
9.2495904586
 30
0.0
 10
9.6446581235
 20
9.2532905817
 30
0.0
 10
9.6464972207
 20
9.2550669979
 30
0.0
  0
SPLINE
  5
390
100
AcDbEntity
  8
0
100
AcDbSpline
 62
7
  6
CONTINUOUS
 70
0
 71
3
 72
39
 73
35
 74
0
 42
0.0000001
 43
0.0000001
 44
0.0000000001
 40
0.0
 40
0.0
 40
0.0
 40
0.0
 40
0.0314026163
 40
0.0630094802
 40
0.0948071156
 40
0.1267734443
 40
0.1588809719
 40
0.1910970226
 40
0.2233851133
 40
0.2557062446
 40
0.2880202668
 40
0.3202872758
 40
0.3524690062
 40
0.3845301827
 40
0.4164397934
 40
0.4481722512
 40
0.4797084083
 40
0.5110363787
 40
0.5421521198
 40
0.5730597435
 40
0.6037715204
 40
0.6343075558
 40
0.6646951112
 40
0.69496759
 40
0.7251632189
 40
0.7553234785
 40
0.7854913552
 40
0.8157095102
 40
0.8460184684
 40
0.8764549241
 40
0.9070502294
 40
0.9378293436
 40
0.9688091107
 40
1.0
 40
1.0
 40
1.0
 40
1.0
 10
11.771166468
 20
7.4060704241
 30
0.0
 10
11.7754782041
 20
7.4057714042
 30
0.0
 10
11.7841059784
 20
7.4047465085
 30
0.0
 10
11.7968737694
 20
7.4019628837
 30
0.0
 10
11.8093940784
 20
7.3979547992
 30
0.0
 10
11.821545115
 20
7.3927610935
 30
0.0
 10
11.8332106675
 20
7.3864319542
 30
0.0
 10
11.8442787053
 20
7.3790283494
 30
0.0
 10
11.8546430975
 20
7.3706215208
 30
0.0
 10
11.8642044006
 20
7.3612922457
 30
0.0
 10
11.8728708481
 20
7.3511300891
 30
0.0
 10
11.8805591902
 20
7.340232557
 30
0.0
 10
11.8871955329
 20
7.3287042121
 30
0.0
 10
11.8927160042
 20
7.3166556578
 30
0.0
 10
11.8970673524
 20
7.3042024996
 30
0.0
 10
11.9002074528
 20
7.2914642655
 30
0.0
 10
11.9021057399
 20
7.2785632968
 30
0.0
 10
11.9027435503
 20
7.2656235991
 30
0.0
 10
11.9021142723
 20
7.2527696652
 30
0.0
 10
11.9002234566
 20
7.2401253064
 30
0.0
 10
11.897088796
 20
7.227812478
 30
0.0
 10
11.8927400629
 20
7.2159500886
 30
0.0
 10
11.8872188397
 20
7.20465283
 30
0.0
 10
11.8805781391
 20
7.1940300438
 30
0.0
 10
11.872881926
 20
7.1841846179
 30
0.0
 10
11.8642045169
 20
7.1752119305
 30
0.0
 10
11.8546298787
 20
7.1671988294
 30
0.0
 10
11.8442507243
 20
7.1602227839
 30
0.0
 10
11.8331675847
 20
7.154351102
 30
0.0
 10
11.8214877297
 20
7.1496402978
 30
0.0
 10
11.8093242611
 20
7.1461354715
 30
0.0
 10
11.796794358
 20
7.1438700746
 30
0.0
 10
11.7840204658
 20
7.1428652245
 30
0.0
 10
11.7754491329
 20
7.1430415799
 30
0.0
 10
11.771166468
 20
7.1433385838
 30
0.0
  0
SPLINE
  5
391
100
AcDbEntity
  8
0
100
AcDbSpline
 62
7
  6
CONTINUOUS
 70
0
 71
3
 72
17
 73
13
 74
0
 42
0.0000001
 43
0.0000001
 44
0.0000000001
 40
0.0
 40
0.0
 40
0.0
 40
0.0
 40
0.0611905989
 40
0.1226656714
 40
0.1843990837
 40
0.2463824034
 40
0.370948792
 40
0.4962232805
 40
0.6219797958
 40
0.7479936042
 40
0.8740592427
 40
1.0
 40
1.0
 40
1.0
 40
1.0
 10
9.2954984719
 20
7.6270250927
 30
0.0
 10
9.2969115024
 20
7.6269270987
 30
0.0
 10
9.2997384452
 20
7.6266358659
 30
0.0
 10
9.3039492137
 20
7.6259194083
 30
0.0
 10
9.3081226975
 20
7.6249268207
 30
0.0
 10
9.3136209316
 20
7.6232426076
 30
0.0
 10
9.3203122498
 20
7.6204837123
 30
0.0
 10
9.3279163209
 20
7.6162297314
 30
0.0
 10
9.3350209072
 20
7.6111303066
 30
0.0
 10
9.3415570467
 20
7.6052953972
 30
0.0
 10
9.3474774092
 20
7.5988339335
 30
0.0
 10
9.3509981424
 20
7.5941705359
 30
0.0
 10
9.3526475922
 20
7.5917667961
 30
0.0
  0
SPLINE
  5
392
100
AcDbEntity
  8
0
100
AcDbSpline
 62
7
  6
CONTINUOUS
 70
0
 71
3
 72
15
 73
11
 74
0
 42
0.0000001
 43
0.0000001
 44
0.0000000001
 40
0.0
 40
0.0
 40
0.0
 40
0.0
 40
0.1354247311
 40
0.2666407655
 40
0.3940450542
 40
0.518202271
 40
0.6398620924
 40
0.7599658352
 40
0.8796131507
 40
1.0
 40
1.0
 40
1.0
 40
1.0
 10
10.4240433429
 20
8.3141439586
 30
0.0
 10
10.4240439694
 20
8.3153807672
 30
0.0
 10
10.4241391002
 20
8.3178172295
 30
0.0
 10
10.4245823653
 20
8.3213930054
 30
0.0
 10
10.425326131
 20
8.3248141192
 30
0.0
 10
10.4263723617
 20
8.3280641694
 30
0.0
 10
10.4277222983
 20
8.3311281234
 30
0.0
 10
10.4293761702
 20
8.3339924456
 30
0.0
 10
10.431332643
 20
8.3366445908
 30
0.0
 10
10.4328273576
 20
8.3382554925
 30
0.0
 10
10.4336181568
 20
8.339019346
 30
0.0
  0
SPLINE
  5
393
100
AcDbEntity
  8
0
100
AcDbSpline
 62
7
  6
CONTINUOUS
 70
0
 71
3
 72
22
 73
18
 74
0
 42
0.0000001
 43
0.0000001
 44
0.0000000001
 40
0.0
 40
0.0
 40
0.0
 40
0.0
 40
0.0478911597
 40
0.0981210154
 40
0.1506281964
 40
0.2053427582
 40
0.2621871118
 40
0.3210766847
 40
0.3819205585
 40
0.4446221554
 40
0.5090797377
 40
0.5751867687
 40
0.6428322683
 40
0.7119015968
 40
0.7822764126
 40
0.8538341071
 40
1.0
 40
1.0
 40
1.0
 40
1.0
 10
11.8528601981
 20
10.596642247
 30
0.0
 10
11.8486644069
 20
10.598193949
 30
0.0
 10
11.8400184331
 20
10.6012404915
 30
0.0
 10
11.8266238719
 20
10.6055530924
 30
0.0
 10
11.8125147548
 20
10.6097109913
 30
0.0
 10
11.7977179389
 20
10.6137061686
 30
0.0
 10
11.7822614012
 20
10.6175309799
 30
0.0
 10
11.7661744734
 20
10.6211780887
 30
0.0
 10
11.7494877013
 20
10.62464052
 30
0.0
 10
11.7322327889
 20
10.6279116386
 30
0.0
 10
11.7144425284
 20
10.6309851668
 30
0.0
 10
11.696150758
 20
10.6338552176
 30
0.0
 10
11.6773922661
 20
10.6365163109
 30
0.0
 10
11.658202752
 20
10.6389633377
 30
0.0
 10
11.6386187483
 20
10.641191621
 30
0.0
 10
11.6118419007
 20
10.6438841982
 30
0.0
 10
11.5915683994
 20
10.6455321912
 30
0.0
 10
11.5779477164
 20
10.6464767888
 30
0.0
  0
SPLINE
  5
394
100
AcDbEntity
  8
0
100
AcDbSpline
 62
7
  6
CONTINUOUS
 70
0
 71
3
 72
51
 73
47
 74
0
 42
0.0000001
 43
0.0000001
 44
0.0000000001
 40
0.0
 40
0.0
 40
0.0
 40
0.0
 40
0.0417745182
 40
0.0840381526
 40
0.1266602401
 40
0.1695088421
 40
0.2124510407
 40
0.2553535857
 40
0.2980833694
 40
0.3405079697
 40
0.3824961696
 40
0.4239184888
 40
0.4646477158
 40
0.5045594497
 40
0.543532651
 40
0.5814502093
 40
0.6181995334
 40
0.6536731755
 40
0.6877695033
 40
0.7203934427
 40
0.7514573218
 40
0.7663795148
 40
0.7808827261
 40
0.7949585461
 40
0.8085992857
 40
0.8217979826
 40
0.8345485116
 40
0.8468456263
 40
0.8586850779
 40
0.8700637036
 40
0.8809795661
 40
0.8914321058
 40
0.9014223196
 40
0.9109530019
 40
0.9200289921
 40
0.9286575381
 40
0.9368486523
 40
0.9446156358
 40
0.9519755804
 40
0.9589500677
 40
0.9655657995
 40
0.9778459317
 40
0.9836071722
 40
0.9891799125
 40
0.9946230091
 40
1.0
 40
1.0
 40
1.0
 40
1.0
 10
12.9701569588
 20
9.51963594
 30
0.0
 10
12.9701569588
 20
9.510457252
 30
0.0
 10
12.9700137595
 20
9.4919921191
 30
0.0
 10
12.9693807122
 20
9.4641685938
 30
0.0
 10
12.9683299988
 20
9.4361215004
 30
0.0
 10
12.9668650776
 20
9.4079437271
 30
0.0
 10
12.9649907798
 20
9.379728464
 30
0.0
 10
12.9627133059
 20
9.35156907
 30
0.0
 10
12.9600401981
 20
9.3235587038
 30
0.0
 10
12.9569803186
 20
9.2957900323
 30
0.0
 10
12.9535438192
 20
9.2683549157
 30
0.0
 10
12.9497421087
 20
9.2413441034
 30
0.0
 10
12.9455878152
 20
9.2148469302
 30
0.0
 10
12.9410947458
 20
9.1889510173
 30
0.0
 10
12.9362778411
 20
9.1637419775
 30
0.0
 10
12.9311531273
 20
9.1393031282
 30
0.0
 10
12.9257376645
 20
9.1157152019
 30
0.0
 10
12.9200494887
 20
9.093056091
 30
0.0
 10
12.9141075608
 20
9.0714004986
 30
0.0
 10
12.9079316714
 20
9.050819947
 30
0.0
 10
12.9025376038
 20
9.0344091062
 30
0.0
 10
12.8981111222
 20
9.0218767379
 30
0.0
 10
12.894790159
 20
9.0129137113
 30
0.0
 10
12.8914263467
 20
9.004268104
 30
0.0
 10
12.8880224564
 20
8.9959470335
 30
0.0
 10
12.884581304
 20
8.9879573571
 30
0.0
 10
12.8811057431
 20
8.980305647
 30
0.0
 10
12.8775986409
 20
8.9729981922
 30
0.0
 10
12.8740628942
 20
8.9660409873
 30
0.0
 10
12.8705014131
 20
8.9594397287
 30
0.0
 10
12.8669171181
 20
8.9531998098
 30
0.0
 10
12.8633129416
 20
8.9473263105
 30
0.0
 10
12.8596918024
 20
8.9418240021
 30
0.0
 10
12.8560566252
 20
8.9366973278
 30
0.0
 10
12.8524102904
 20
8.9319504255
 30
0.0
 10
12.8487556644
 20
8.9275870924
 30
0.0
 10
12.8450955533
 20
8.9236108528
 30
0.0
 10
12.8414326379
 20
8.9200248539
 30
0.0
 10
12.8377698064
 20
8.9168321841
 30
0.0
 10
12.8341087341
 20
8.9140350713
 30
0.0
 10
12.8293539993
 20
8.9109152099
 30
0.0
 10
12.8244791386
 20
8.9084753208
 30
0.0
 10
12.8195414098
 20
8.906856948
 30
0.0
 10
12.8159312319
 20
8.9060764721
 30
0.0
 10
12.8123413034
 20
8.9057059439
 30
0.0
 10
12.8099578573
 20
8.9057331993
 30
0.0
 10
12.8087792572
 20
8.9058149408
 30
0.0
  0
SPLINE
  5
395
100
AcDbEntity
  8
0
100
AcDbSpline
 62
7
  6
CONTINUOUS
 70
0
 71
3
 72
28
 73
24
 74
0
 42
0.0000001
 43
0.0000001
 44
0.0000000001
 40
0.0
 40
0.0
 40
0.0
 40
0.0
 40
0.0197568628
 40
0.0403649731
 40
0.0618254673
 40
0.0841370318
 40
0.1072957964
 40
0.1312960208
 40
0.1561298348
 40
0.1817879038
 40
0.2082590817
 40
0.2355310378
 40
0.2924190983
 40
0.3523296398
 40
0.4151212911
 40
0.4806377933
 40
0.5487097238
 40
0.619155988
 40
0.6917850669
 40
0.7663963409
 40
0.8427807657
 40
0.9207228955
 40
1.0
 40
1.0
 40
1.0
 40
1.0
 10
11.9430162222
 20
10.6260960622
 30
0.0
 10
11.9409482099
 20
10.627305846
 30
0.0
 10
11.9366814381
 20
10.6297069018
 30
0.0
 10
11.9300389798
 20
10.6331860386
 30
0.0
 10
11.9230244574
 20
10.6366160118
 30
0.0
 10
11.9156433313
 20
10.6399940622
 30
0.0
 10
11.9079012689
 20
10.6433176716
 30
0.0
 10
11.8998042255
 20
10.6465841842
 30
0.0
 10
11.8913584638
 20
10.649791149
 30
0.0
 10
11.8825704995
 20
10.6529359856
 30
0.0
 10
11.8734471321
 20
10.6560163579
 30
0.0
 10
11.8606644398
 20
10.6600916444
 30
0.0
 10
11.8438917524
 20
10.6649930846
 30
0.0
 10
11.8228185487
 20
10.6705012803
 30
0.0
 10
11.8005906828
 20
10.6756983601
 30
0.0
 10
11.7772770907
 20
10.6805680225
 30
0.0
 10
11.7529499123
 20
10.6850949707
 30
0.0
 10
11.7276845865
 20
10.6892649929
 30
0.0
 10
11.7015594884
 20
10.6930650077
 30
0.0
 10
11.6746557446
 20
10.6964830862
 30
0.0
 10
11.6470568428
 20
10.6995085289
 30
0.0
 10
11.6188486547
 20
10.7021318276
 30
0.0
 10
11.5998383351
 20
10.7035961173
 30
0.0
 10
11.5902475667
 20
10.7042612394
 30
0.0
  0
SPLINE
  5
396
100
AcDbEntity
  8
0
100
AcDbSpline
 62
7
  6
CONTINUOUS
 70
0
 71
3
 72
39
 73
35
 74
0
 42
0.0000001
 43
0.0000001
 44
0.0000000001
 40
0.0
 40
0.0
 40
0.0
 40
0.0
 40
0.031002295
 40
0.0621464502
 40
0.0934266169
 40
0.1248355279
 40
0.1563630531
 40
0.1879973029
 40
0.2197245285
 40
0.2515295336
 40
0.2833959288
 40
0.3153064515
 40
0.3472432698
 40
0.379188288
 40
0.4111234427
 40
0.4430309871
 40
0.4748937608
 40
0.5066954427
 40
0.5384207866
 40
0.5700558361
 40
0.6015881204
 40
0.6330068295
 40
0.6643029699
 40
0.6954694977
 40
0.7265014315
 40
0.757395941
 40
0.788152412
 40
0.8187724842
 40
0.8492600612
 40
0.8796212891
 40
0.9098645012
 40
0.9400001267
 40
0.9700405618
 40
1.0
 40
1.0
 40
1.0
 40
1.0
 10
10.7443872274
 20
8.6408529253
 30
0.0
 10
10.7396821952
 20
8.6411792204
 30
0.0
 10
10.7302696852
 20
8.6421517551
 30
0.0
 10
10.7162510315
 20
8.6445526128
 30
0.0
 10
10.7023606407
 20
8.6478875488
 30
0.0
 10
10.6886624661
 20
8.6521401952
 30
0.0
 10
10.6752181293
 20
8.6572899606
 30
0.0
 10
10.6620880443
 20
8.6633118736
 30
0.0
 10
10.6493306637
 20
8.6701769642
 30
0.0
 10
10.6370022959
 20
8.6778524187
 30
0.0
 10
10.6251568088
 20
8.6863018732
 30
0.0
 10
10.6138454021
 20
8.6954856715
 30
0.0
 10
10.6031164075
 20
8.7053611532
 30
0.0
 10
10.5930151217
 20
8.7158829374
 30
0.0
 10
10.5835836733
 20
8.7270032084
 30
0.0
 10
10.574860918
 20
8.7386719944
 30
0.0
 10
10.5668823607
 20
8.7508374379
 30
0.0
 10
10.5596801014
 20
8.7634460539
 30
0.0
 10
10.5532827973
 20
8.7764429733
 30
0.0
 10
10.5477156466
 20
8.7897721747
 30
0.0
 10
10.5430003808
 20
8.8033766986
 30
0.0
 10
10.5391552664
 20
8.8171988482
 30
0.0
 10
10.5361951112
 20
8.8311803756
 30
0.0
 10
10.5341312729
 20
8.8452626574
 30
0.0
 10
10.5329716674
 20
8.8593868595
 30
0.0
 10
10.5327207749
 20
8.8734940956
 30
0.0
 10
10.5333796422
 20
8.8875255805
 30
0.0
 10
10.5349458817
 20
8.9014227833
 30
0.0
 10
10.5374136612
 20
8.915127575
 30
0.0
 10
10.5407737048
 20
8.9285824092
 30
0.0
 10
10.5450132269
 20
8.9417304012
 30
0.0
 10
10.5501161181
 20
8.9545158226
 30
0.0
 10
10.5560621927
 20
8.9668830935
 30
0.0
 10
10.5605793174
 20
8.9748246377
 30
0.0
 10
10.5629691117
 20
8.9787055361
 30
0.0
  0
SPLINE
  5
397
100
AcDbEntity
  8
0
100
AcDbSpline
 62
7
  6
CONTINUOUS
 70
0
 71
3
 72
51
 73
47
 74
0
 42
0.0000001
 43
0.0000001
 44
0.0000000001
 40
0.0
 40
0.0
 40
0.0
 40
0.0
 40
0.0068492705
 40
0.013599612
 40
0.0202927605
 40
0.02697162
 40
0.0336794025
 40
0.0404587098
 40
0.0473507029
 40
0.0543943273
 40
0.0616258533
 40
0.0690784463
 40
0.0767820051
 40
0.0847632368
 40
0.093045582
 40
0.1016495466
 40
0.1105928786
 40
0.119890698
 40
0.1295559515
 40
0.1395994431
 40
0.1500301289
 40
0.1608554178
 40
0.1720811094
 40
0.1837117893
 40
0.1957508664
 40
0.2082005995
 40
0.2210624351
 40
0.2343368524
 40
0.2621203798
 40
0.2915423835
 40
0.322582949
 40
0.3552139466
 40
0.3894001093
 40
0.4250999716
 40
0.4622665701
 40
0.5008479759
 40
0.540787753
 40
0.5820254389
 40
0.6244969045
 40
0.6681346446
 40
0.7128680572
 40
0.7586237024
 40
0.8053257058
 40
0.8528958847
 40
0.901253198
 40
1.0
 40
1.0
 40
1.0
 40
1.0
 10
12.0245132843
 20
10.6923689489
 30
0.0
 10
12.0248074068
 20
10.6934265116
 30
0.0
 10
12.0253106103
 20
10.6955499408
 30
0.0
 10
12.0258034443
 20
10.6987681156
 30
0.0
 10
12.0260271945
 20
10.7019890319
 30
0.0
 10
12.0259814613
 20
10.7052105383
 30
0.0
 10
12.0256664033
 20
10.7084307638
 30
0.0
 10
12.0250823007
 20
10.7116478069
 30
0.0
 10
12.0242296277
 20
10.7148598439
 30
0.0
 10
12.023109211
 20
10.7180652092
 30
0.0
 10
12.0217218203
 20
10.7212622958
 30
0.0
 10
12.0200684456
 20
10.7244496301
 30
0.0
 10
12.0181501596
 20
10.7276258409
 30
0.0
 10
12.0159679797
 20
10.7307895219
 30
0.0
 10
12.0135231437
 20
10.7339394009
 30
0.0
 10
12.0108168558
 20
10.7370741469
 30
0.0
 10
12.0078504058
 20
10.7401924161
 30
0.0
 10
12.0046252501
 20
10.7432929452
 30
0.0
 10
12.0011428378
 20
10.7463743449
 30
0.0
 10
11.9974047988
 20
10.7494352993
 30
0.0
 10
11.9934128597
 20
10.7524744835
 30
0.0
 10
11.9891688118
 20
10.7554904871
 30
0.0
 10
11.9846746365
 20
10.7584820159
 30
0.0
 10
11.9799323756
 20
10.7614476884
 30
0.0
 10
11.9749441977
 20
10.7643861392
 30
0.0
 10
11.9697124205
 20
10.7672960672
 30
0.0
 10
11.9642394179
 20
10.7701761091
 30
0.0
 10
11.9565059097
 20
10.774033277
 30
0.0
 10
11.9462434329
 20
10.7787598194
 30
0.0
 10
11.9331895986
 20
10.784208696
 30
0.0
 10
11.9192400276
 20
10.7895074896
 30
0.0
 10
11.9044205061
 20
10.7946463322
 30
0.0
 10
11.8887582538
 20
10.799615664
 30
0.0
 10
11.8722821953
 20
10.8044061981
 30
0.0
 10
11.8550227887
 20
10.8090089668
 30
0.0
 10
11.8370120019
 20
10.8134153485
 30
0.0
 10
11.8182832393
 20
10.8176171039
 30
0.0
 10
11.7988712625
 20
10.8216063651
 30
0.0
 10
11.7788121165
 20
10.8253756572
 30
0.0
 10
11.7581430678
 20
10.8289179172
 30
0.0
 10
11.7369025451
 20
10.8322265227
 30
0.0
 10
11.7151300335
 20
10.835295289
 30
0.0
 10
11.6928660241
 20
10.8381184608
 30
0.0
 10
11.6701519434
 20
10.8406907661
 30
0.0
 10
11.6391072209
 20
10.8438011077
 30
0.0
 10
11.6156056791
 20
10.8457083657
 30
0.0
 10
11.5998179077
 20
10.8468032514
 30
0.0
  0
SPLINE
  5
398
100
AcDbEntity
  8
0
100
AcDbSpline
 62
7
  6
CONTINUOUS
 70
0
 71
3
 72
45
 73
41
 74
0
 42
0.0000001
 43
0.0000001
 44
0.0000000001
 40
0.0
 40
0.0
 40
0.0
 40
0.0
 40
0.0065516933
 40
0.013249293
 40
0.027177731
 40
0.0419746897
 40
0.057787491
 40
0.0661138832
 40
0.074735053
 40
0.0836611952
 40
0.0929009857
 40
0.102461881
 40
0.1123501249
 40
0.1225708588
 40
0.1331283523
 40
0.1440259178
 40
0.1552661059
 40
0.1668508073
 40
0.1787811596
 40
0.2036796467
 40
0.2299613312
 40
0.2576172882
 40
0.2866322482
 40
0.316985378
 40
0.3486510163
 40
0.3815992279
 40
0.4157962097
 40
0.4512046342
 40
0.4877840277
 40
0.5254910428
 40
0.5642796501
 40
0.6041013522
 40
0.6449054187
 40
0.6866390594
 40
0.7292475491
 40
0.7726743495
 40
0.8168614372
 40
0.861749251
 40
0.9072763645
 40
1.0
 40
1.0
 40
1.0
 40
1.0
 10
12.2558579017
 20
10.7182511932
 30
0.0
 10
12.2554761977
 20
10.7196053033
 30
0.0
 10
12.2546078142
 20
10.7223174617
 30
0.0
 10
12.2524598117
 20
10.7277475308
 30
0.0
 10
12.2489814515
 20
10.7345355867
 30
0.0
 10
12.2436712951
 20
10.7425104435
 30
0.0
 10
12.2383580462
 20
10.7489830085
 30
0.0
 10
12.2335535604
 20
10.7541235975
 30
0.0
 10
12.2295965185
 20
10.7580259575
 30
0.0
 10
12.2253495533
 20
10.7619072925
 30
0.0
 10
12.2208141159
 20
10.7657664464
 30
0.0
 10
12.2159918945
 20
10.7696019617
 30
0.0
 10
12.2108846577
 20
10.7734124796
 30
0.0
 10
12.205494313
 20
10.7771966618
 30
0.0
 10
12.1998228093
 20
10.7809530788
 30
0.0
 10
12.1938722602
 20
10.7846804001
 30
0.0
 10
12.1876448633
 20
10.7883772574
 30
0.0
 10
12.1811428854
 20
10.7920422783
 30
0.0
 10
12.1719799303
 20
10.7969547749
 30
0.0
 10
12.1598443274
 20
10.8029948798
 30
0.0
 10
12.1444271502
 20
10.8099950523
 30
0.0
 10
12.1279774703
 20
10.816836516
 30
0.0
 10
12.1105196634
 20
10.8235090787
 30
0.0
 10
12.0920793938
 20
10.8300028349
 30
0.0
 10
12.0726839331
 20
10.8363080876
 30
0.0
 10
12.0523619903
 20
10.8424153986
 30
0.0
 10
12.0311437079
 20
10.8483156153
 30
0.0
 10
12.0090606063
 20
10.8539999115
 30
0.0
 10
11.9861455155
 20
10.8594597677
 30
0.0
 10
11.962432519
 20
10.8646869888
 30
0.0
 10
11.9379569142
 20
10.869673738
 30
0.0
 10
11.9127551562
 20
10.8744125514
 30
0.0
 10
11.8868647879
 20
10.8788963257
 30
0.0
 10
11.8603243817
 20
10.8831183306
 30
0.0
 10
11.833173503
 20
10.887072241
 30
0.0
 10
11.8054526164
 20
10.8907521489
 30
0.0
 10
11.7772030603
 20
10.894152528
 30
0.0
 10
11.748466972
 20
10.8972682923
 30
0.0
 10
11.7093232526
 20
10.9010598458
 30
0.0
 10
11.6797272127
 20
10.9034256799
 30
0.0
 10
11.6598638766
 20
10.9048032069
 30
0.0
  0
SPLINE
  5
399
100
AcDbEntity
  8
0
100
AcDbSpline
 62
7
  6
CONTINUOUS
 70
0
 71
3
 72
29
 73
25
 74
0
 42
0.0000001
 43
0.0000001
 44
0.0000000001
 40
0.0
 40
0.0
 40
0.0
 40
0.0
 40
0.0219032791
 40
0.044748482
 40
0.0685146336
 40
0.093178086
 40
0.1187127595
 40
0.1450902308
 40
0.1722801035
 40
0.2002500891
 40
0.2289660983
 40
0.2583925228
 40
0.2884922365
 40
0.3192267258
 40
0.3824388465
 40
0.4476989737
 40
0.5146605456
 40
0.5829645489
 40
0.6522422906
 40
0.7221181701
 40
0.7922123799
 40
0.8621436674
 40
0.9315312515
 40
1.0
 40
1.0
 40
1.0
 40
1.0
 10
11.0490880687
 20
10.5966252689
 30
0.0
 10
11.0527472091
 20
10.5979789771
 30
0.0
 10
11.0602604247
 20
10.6006438754
 30
0.0
 10
11.0718587958
 20
10.6044444204
 30
0.0
 10
11.0840095212
 20
10.608127989
 30
0.0
 10
11.0966948749
 20
10.6116891451
 30
0.0
 10
11.1098964798
 20
10.6151226596
 30
0.0
 10
11.1235951382
 20
10.6184235342
 30
0.0
 10
11.1377709364
 20
10.6215869177
 30
0.0
 10
11.1524032512
 20
10.6246081622
 30
0.0
 10
11.1674707819
 20
10.6274828732
 30
0.0
 10
11.1829515863
 20
10.6302068085
 30
0.0
 10
11.1988231386
 20
10.6327760078
 30
0.0
 10
11.2206798842
 20
10.6360205324
 30
0.0
 10
11.2488084262
 20
10.6396501648
 30
0.0
 10
11.2834315275
 20
10.6432957274
 30
0.0
 10
11.3190306191
 20
10.6462492883
 30
0.0
 10
11.3553982911
 20
10.648493431
 30
0.0
 10
11.3923228168
 20
10.650014901
 30
0.0
 10
11.4295891238
 20
10.6508047246
 30
0.0
 10
11.4669801399
 20
10.6508582318
 30
0.0
 10
11.5042780246
 20
10.6501750933
 30
0.0
 10
11.54126543
 20
10.6487593897
 30
0.0
 10
11.5657809578
 20
10.6473205564
 30
0.0
 10
11.5779477164
 20
10.6464767888
 30
0.0
  0
SPLINE
  5
39A
100
AcDbEntity
  8
0
100
AcDbSpline
 62
7
  6
CONTINUOUS
 70
0
 71
3
 72
33
 73
29
 74
0
 42
0.0000001
 43
0.0000001
 44
0.0000000001
 40
0.0
 40
0.0
 40
0.0
 40
0.0
 40
0.0179727639
 40
0.0371601346
 40
0.0575597007
 40
0.0791607579
 40
0.1019455939
 40
0.1258905504
 40
0.1509668125
 40
0.1771410112
 40
0.2043756921
 40
0.2326297819
 40
0.2618589497
 40
0.2920158969
 40
0.3230505878
 40
0.3549105281
 40
0.3875409969
 40
0.4208852415
 40
0.4548846407
 40
0.4894789109
 40
0.5246062978
 40
0.5602037406
 40
0.6325496345
 40
0.7059934706
 40
0.7800003025
 40
0.8540298346
 40
0.9275413285
 40
1.0
 40
1.0
 40
1.0
 40
1.0
 10
10.9589745293
 20
10.6260940687
 30
0.0
 10
10.9622970136
 20
10.6280377987
 30
0.0
 10
10.9692751482
 20
10.6318727253
 30
0.0
 10
10.9803397805
 20
10.6373161771
 30
0.0
 10
10.9923231176
 20
10.6426283413
 30
0.0
 10
11.0052018772
 20
10.6477987485
 30
0.0
 10
11.0189514437
 20
10.6528174171
 30
0.0
 10
11.0335452401
 20
10.6576745089
 30
0.0
 10
11.0489550149
 20
10.6623604913
 30
0.0
 10
11.0651508407
 20
10.6668661377
 30
0.0
 10
11.0821011951
 20
10.6711825902
 30
0.0
 10
11.0997730421
 20
10.6753013488
 30
0.0
 10
11.118131913
 20
10.6792142978
 30
0.0
 10
11.1371419705
 20
10.6829137191
 30
0.0
 10
11.1567660759
 20
10.6863923351
 30
0.0
 10
11.1769658726
 20
10.6896432993
 30
0.0
 10
11.1977018731
 20
10.6926602102
 30
0.0
 10
11.2189335312
 20
10.6954371194
 30
0.0
 10
11.2406193199
 20
10.697968569
 30
0.0
 10
11.2627168038
 20
10.7002495761
 30
0.0
 10
11.2851827864
 20
10.7022756831
 30
0.0
 10
11.3157336633
 20
10.704644508
 30
0.0
 10
11.3545185835
 20
10.706932869
 30
0.0
 10
11.401567736
 20
10.7085989593
 30
0.0
 10
11.4490033831
 20
10.7091861406
 30
0.0
 10
11.4964545914
 20
10.7086898357
 30
0.0
 10
11.5435502632
 20
10.7071139584
 30
0.0
 10
11.5747660466
 20
10.7053348865
 30
0.0
 10
11.5902475667
 20
10.7042612394
 30
0.0
  0
SPLINE
  5
39B
100
AcDbEntity
  8
0
100
AcDbSpline
 62
7
  6
CONTINUOUS
 70
0
 71
3
 72
54
 73
50
 74
0
 42
0.0000001
 43
0.0000001
 44
0.0000000001
 40
0.0
 40
0.0
 40
0.0
 40
0.0
 40
0.0058141414
 40
0.0115305235
 40
0.0172178965
 40
0.0229461557
 40
0.0287835845
 40
0.0347943765
 40
0.0410368003
 40
0.0475621425
 40
0.0544144285
 40
0.061630597
 40
0.0692411463
 40
0.0772707345
 40
0.085739062
 40
0.094661405
 40
0.1040494279
 40
0.1139115115
 40
0.1242534293
 40
0.1350784912
 40
0.1463880935
 40
0.1581817408
 40
0.1704574893
 40
0.1832119054
 40
0.1964404161
 40
0.2101372497
 40
0.2242957007
 40
0.2389080828
 40
0.2539659152
 40
0.2694599057
 40
0.2853800632
 40
0.3017157213
 40
0.3355870812
 40
0.3709776974
 40
0.4077822555
 40
0.445888211
 40
0.4851766469
 40
0.5255230533
 40
0.566798052
 40
0.6088680852
 40
0.651596078
 40
0.6948420832
 40
0.7384639166
 40
0.7823177793
 40
0.8262588919
 40
0.8701420712
 40
0.9138224774
 40
0.9571558839
 40
1.0
 40
1.0
 40
1.0
 40
1.0
 10
10.8774809113
 20
10.6923688454
 30
0.0
 10
10.8770765627
 20
10.6938227362
 30
0.0
 10
10.8764272167
 20
10.6967515095
 30
0.0
 10
10.8759558967
 20
10.7012049059
 30
0.0
 10
10.8759998037
 20
10.7056613383
 30
0.0
 10
10.8765590144
 20
10.710114074
 30
0.0
 10
10.8776319874
 20
10.7145574965
 30
0.0
 10
10.8792162302
 20
10.7189864642
 30
0.0
 10
10.8813086763
 20
10.7233966653
 30
0.0
 10
10.8839059765
 20
10.7277844461
 30
0.0
 10
10.8870048079
 20
10.7321464942
 30
0.0
 10
10.8906016962
 20
10.7364797465
 30
0.0
 10
10.8946931759
 20
10.7407810426
 30
0.0
 10
10.8992754476
 20
10.7450472926
 30
0.0
 10
10.9043445517
 20
10.7492751594
 30
0.0
 10
10.9098960533
 20
10.7534613961
 30
0.0
 10
10.9159252455
 20
10.7576025033
 30
0.0
 10
10.9224269003
 20
10.7616951346
 30
0.0
 10
10.9293954643
 20
10.7657357248
 30
0.0
 10
10.9368248724
 20
10.7697209041
 30
0.0
 10
10.94470871
 20
10.7736471256
 30
0.0
 10
10.9530400817
 20
10.7775110513
 30
0.0
 10
10.9618117323
 20
10.7813092108
 30
0.0
 10
10.9710159614
 20
10.7850383331
 30
0.0
 10
10.9806447059
 20
10.7886950622
 30
0.0
 10
10.9906894921
 20
10.792276219
 30
0.0
 10
11.0011414864
 20
10.7957785868
 30
0.0
 10
11.0119914748
 20
10.7991990962
 30
0.0
 10
11.0232298931
 20
10.8025346892
 30
0.0
 10
11.0348468192
 20
10.8057824151
 30
0.0
 10
11.0468320104
 20
10.8089394121
 30
0.0
 10
11.0634905298
 20
10.813073879
 30
0.0
 10
11.085161618
 20
10.8179813226
 30
0.0
 10
11.1121558666
 20
10.8233974375
 30
0.0
 10
11.1403483871
 20
10.8283900486
 30
0.0
 10
11.1696395083
 20
10.8329413261
 30
0.0
 10
11.1999258281
 20
10.837034987
 30
0.0
 10
11.2311003033
 20
10.8406564035
 30
0.0
 10
11.2630527254
 20
10.8437926385
 30
0.0
 10
11.2956700971
 20
10.8464324938
 30
0.0
 10
11.3288370461
 20
10.8485665465
 30
0.0
 10
11.3624362382
 20
10.8501871818
 30
0.0
 10
11.3963487967
 20
10.8512886175
 30
0.0
 10
11.4304547288
 20
10.8518669257
 30
0.0
 10
11.4646333489
 20
10.8519200417
 30
0.0
 10
11.4987637204
 20
10.8514477805
 30
0.0
 10
11.5327250717
 20
10.8504518175
 30
0.0
 10
11.5663971565
 20
10.8489357224
 30
0.0
 10
11.5887242823
 20
10.8475725969
 30
0.0
 10
11.5998179077
 20
10.8468032514
 30
0.0
  0
SPLINE
  5
39C
100
AcDbEntity
  8
0
100
AcDbSpline
 62
7
  6
CONTINUOUS
 70
0
 71
3
 72
53
 73
49
 74
0
 42
0.0000001
 43
0.0000001
 44
0.0000000001
 40
0.0
 40
0.0
 40
0.0
 40
0.0
 40
0.0056789095
 40
0.0115501948
 40
0.0176570646
 40
0.0240373154
 40
0.0307232875
 40
0.0377422937
 40
0.045116949
 40
0.0528658221
 40
0.0610038033
 40
0.0695427162
 40
0.078491607
 40
0.0878572277
 40
0.0976442463
 40
0.1078555894
 40
0.1184926061
 40
0.1295552854
 40
0.1410424049
 40
0.1529516414
 40
0.1652797267
 40
0.1780224707
 40
0.1911749334
 40
0.204731381
 40
0.2186854733
 40
0.2330301735
 40
0.247757943
 40
0.262860627
 40
0.2783296435
 40
0.2941558659
 40
0.3268408896
 40
0.3608351774
 40
0.3960516437
 40
0.4323979189
 40
0.4697769326
 40
0.50808745
 40
0.5472245741
 40
0.5870802239
 40
0.6275435964
 40
0.6685016158
 40
0.7098393755
 40
0.7514405749
 40
0.7931879484
 40
0.8349637068
 40
0.8766499291
 40
0.9181291077
 40
0.9592842578
 40
1.0
 40
1.0
 40
1.0
 40
1.0
 10
10.6461088612
 20
10.7181536895
 30
0.0
 10
10.6466512158
 20
10.7200902018
 30
0.0
 10
10.6479532447
 20
10.7239755773
 30
0.0
 10
10.6504885014
 20
10.7297000268
 30
0.0
 10
10.6536302541
 20
10.7354003272
 30
0.0
 10
10.6573749049
 20
10.7410717658
 30
0.0
 10
10.6617187659
 20
10.7467110493
 30
0.0
 10
10.6666581799
 20
10.7523144672
 30
0.0
 10
10.672189095
 20
10.7578785683
 30
0.0
 10
10.6783073635
 20
10.7633996105
 30
0.0
 10
10.6850083452
 20
10.7688739766
 30
0.0
 10
10.6922871467
 20
10.7742978036
 30
0.0
 10
10.7001383641
 20
10.7796673386
 30
0.0
 10
10.7085562447
 20
10.7849786658
 30
0.0
 10
10.7175345481
 20
10.7902279643
 30
0.0
 10
10.7270666352
 20
10.7954113406
 30
0.0
 10
10.7371454146
 20
10.8005249669
 30
0.0
 10
10.747763375
 20
10.8055650257
 30
0.0
 10
10.7589125856
 20
10.8105277286
 30
0.0
 10
10.7705846924
 20
10.815409368
 30
0.0
 10
10.7827709481
 20
10.8202062293
 30
0.0
 10
10.7954621902
 20
10.8249147359
 30
0.0
 10
10.8086488838
 20
10.8295312743
 30
0.0
 10
10.8223210929
 20
10.8340524115
 30
0.0
 10
10.8364685262
 20
10.8384746585
 30
0.0
 10
10.8510805104
 20
10.8427947332
 30
0.0
 10
10.8661460322
 20
10.8470092937
 30
0.0
 10
10.8816537133
 20
10.8511152069
 30
0.0
 10
10.8975918682
 20
10.8551093229
 30
0.0
 10
10.9196376514
 20
10.86033787
 30
0.0
 10
10.9481879032
 20
10.8665578615
 30
0.0
 10
10.983609359
 20
10.8734523346
 30
0.0
 10
11.0204432005
 20
10.8798339872
 30
0.0
 10
11.0585781249
 20
10.8856833768
 30
0.0
 10
11.0978990674
 20
10.8909826517
 30
0.0
 10
11.1382872652
 20
10.8957156561
 30
0.0
 10
11.1796207112
 20
10.8998679635
 30
0.0
 10
11.2217745076
 20
10.9034269221
 30
0.0
 10
11.2646212568
 20
10.9063816912
 30
0.0
 10
11.3080314493
 20
10.9087232726
 30
0.0
 10
11.3518738601
 20
10.910444537
 30
0.0
 10
11.3960159484
 20
10.9115402439
 30
0.0
 10
11.4403242633
 20
10.912007059
 30
0.0
 10
11.4846648433
 20
10.9118435591
 30
0.0
 10
11.5289036404
 20
10.9110502468
 30
0.0
 10
11.5729069009
 20
10.9096295268
 30
0.0
 10
11.616541515
 20
10.9075857436
 30
0.0
 10
11.645480085
 20
10.9058007263
 30
0.0
 10
11.6598638766
 20
10.9048032069
 30
0.0
  0
SPLINE
  5
39D
100
AcDbEntity
  8
0
100
AcDbSpline
 62
7
  6
CONTINUOUS
 70
0
 71
3
 72
54
 73
50
 74
0
 42
0.0000001
 43
0.0000001
 44
0.0000000001
 40
0.0
 40
0.0
 40
0.0
 40
0.0
 40
0.0055575314
 40
0.0111779514
 40
0.0169218741
 40
0.0228457549
 40
0.0290005166
 40
0.0354309104
 40
0.0421753481
 40
0.0492661819
 40
0.0567302289
 40
0.0645893164
 40
0.0728609992
 40
0.0815590171
 40
0.0906939529
 40
0.1002735511
 40
0.1103032084
 40
0.120786225
 40
0.131724095
 40
0.1431167574
 40
0.1549627059
 40
0.1672592594
 40
0.1800025507
 40
0.1931877841
 40
0.2068091928
 40
0.2208602246
 40
0.2353335436
 40
0.2502211095
 40
0.265514256
 40
0.2812036668
 40
0.2972795185
 40
0.3137313951
 40
0.3477187121
 40
0.383073812
 40
0.4196976091
 40
0.4574851642
 40
0.4963263633
 40
0.5361065441
 40
0.5767070861
 40
0.6180059759
 40
0.6598783548
 40
0.7021970543
 40
0.7448331254
 40
0.7876563595
 40
0.8305358172
 40
0.8733403047
 40
0.9159390443
 40
0.9582017033
 40
1.0
 40
1.0
 40
1.0
 40
1.0
 10
10.6439970936
 20
10.7339627978
 30
0.0
 10
10.64399709
 20
10.7359591588
 30
0.0
 10
10.6442205676
 20
10.7399779496
 30
0.0
 10
10.6452237514
 20
10.7459846778
 30
0.0
 10
10.6468931078
 20
10.7519780227
 30
0.0
 10
10.6492255095
 20
10.7579510008
 30
0.0
 10
10.6522170291
 20
10.7638988018
 30
0.0
 10
10.6558636901
 20
10.7698168476
 30
0.0
 10
10.6601613341
 20
10.7757010745
 30
0.0
 10
10.6651057203
 20
10.7815475457
 30
0.0
 10
10.6706924774
 20
10.7873522706
 30
0.0
 10
10.6769168589
 20
10.7931112916
 30
0.0
 10
10.6837738713
 20
10.7988204022
 30
0.0
 10
10.6912579656
 20
10.8044754775
 30
0.0
 10
10.6993632318
 20
10.8100721526
 30
0.0
 10
10.7080831751
 20
10.815606165
 30
0.0
 10
10.7174108512
 20
10.8210731253
 30
0.0
 10
10.7273387749
 20
10.8264686991
 30
0.0
 10
10.7378589562
 20
10.8317885699
 30
0.0
 10
10.7489629169
 20
10.8370284007
 30
0.0
 10
10.760641655
 20
10.8421839948
 30
0.0
 10
10.7728857158
 20
10.8472510821
 30
0.0
 10
10.7856851322
 20
10.8522255935
 30
0.0
 10
10.7990294998
 20
10.8571033934
 30
0.0
 10
10.8129079337
 20
10.8618805332
 30
0.0
 10
10.8273091167
 20
10.8665530633
 30
0.0
 10
10.8422212888
 20
10.8711171562
 30
0.0
 10
10.8576322642
 20
10.8755690752
 30
0.0
 10
10.8735294484
 20
10.879905133
 30
0.0
 10
10.8898998308
 20
10.8841218039
 30
0.0
 10
10.9067300389
 20
10.8882155995
 30
0.0
 10
10.9300177373
 20
10.8935636357
 30
0.0
 10
10.9601809913
 20
10.8999017113
 30
0.0
 10
10.9976024529
 20
10.906886647
 30
0.0
 10
11.0365088937
 20
10.9133076278
 30
0.0
 10
11.0767728887
 20
10.9191434414
 30
0.0
 10
11.1182627486
 20
10.9243747731
 30
0.0
 10
11.1608426433
 20
10.928984329
 30
0.0
 10
11.2043731511
 20
10.9329568728
 30
0.0
 10
11.2487116989
 20
10.9362792793
 30
0.0
 10
11.2937130435
 20
10.9389405739
 30
0.0
 10
11.3392297517
 20
10.9409319695
 30
0.0
 10
11.3851126891
 20
10.9422468919
 30
0.0
 10
11.4312115144
 20
10.9428810019
 30
0.0
 10
11.4773751687
 20
10.9428322038
 30
0.0
 10
11.5234523999
 20
10.9421006656
 30
0.0
 10
11.569292192
 20
10.9406887872
 30
0.0
 10
11.6147442898
 20
10.938601258
 30
0.0
 10
11.6448851851
 20
10.9367516117
 30
0.0
 10
11.6598638766
 20
10.935712836
 30
0.0
  0
SPLINE
  5
39E
100
AcDbEntity
  8
0
100
AcDbSpline
 62
7
  6
CONTINUOUS
 70
0
 71
3
 72
50
 73
46
 74
0
 42
0.0000001
 43
0.0000001
 44
0.0000000001
 40
0.0
 40
0.0
 40
0.0
 40
0.0
 40
0.0481981287
 40
0.0958299599
 40
0.1428201049
 40
0.1890981954
 40
0.234593352
 40
0.2792370461
 40
0.3229624947
 40
0.36570495
 40
0.4074019186
 40
0.4479933318
 40
0.4874217928
 40
0.5256328281
 40
0.5625751314
 40
0.5982008569
 40
0.6324659593
 40
0.6653306126
 40
0.6967596903
 40
0.7267233109
 40
0.7551975361
 40
0.7821652471
 40
0.7950815822
 40
0.8076186149
 40
0.8197766865
 40
0.8315567917
 40
0.8429607842
 40
0.8539912606
 40
0.864651826
 40
0.8749471086
 40
0.8848828406
 40
0.8944661314
 40
0.9037054259
 40
0.9126108225
 40
0.9211941803
 40
0.9294692613
 40
0.9374520529
 40
0.9451607947
 40
0.9598349339
 40
0.9668567682
 40
0.9737036333
 40
0.9804068546
 40
0.9870000766
 40
0.9935188336
 40
1.0
 40
1.0
 40
1.0
 40
1.0
 10
11.6598638766
 20
10.935712836
 30
0.0
 10
11.6704357077
 20
10.934979677
 30
0.0
 10
11.6914471807
 20
10.9334039572
 30
0.0
 10
11.7227323219
 20
10.9306945736
 30
0.0
 10
11.7535631672
 20
10.9276566165
 30
0.0
 10
11.783887838
 20
10.9242952782
 30
0.0
 10
11.8136558712
 20
10.9206161428
 30
0.0
 10
11.8428174066
 20
10.9166254125
 30
0.0
 10
11.8713237275
 20
10.9123297935
 30
0.0
 10
11.8991271954
 20
10.9077365072
 30
0.0
 10
11.9261813539
 20
10.9028532765
 30
0.0
 10
11.9524410104
 20
10.8976883073
 30
0.0
 10
11.9778623167
 20
10.8922502818
 30
0.0
 10
12.0024028507
 20
10.886548352
 30
0.0
 10
12.0260216856
 20
10.8805921084
 30
0.0
 10
12.0486794585
 20
10.8743915672
 30
0.0
 10
12.0703384422
 20
10.8679571471
 30
0.0
 10
12.0909626353
 20
10.8612996548
 30
0.0
 10
12.110517802
 20
10.8544302698
 30
0.0
 10
12.1289716537
 20
10.8473604848
 30
0.0
 10
12.1462935015
 20
10.8401021291
 30
0.0
 10
12.1599511788
 20
10.8338192888
 30
0.0
 10
12.1702772132
 20
10.828697709
 30
0.0
 10
12.1776094406
 20
10.8248722334
 30
0.0
 10
12.1846379974
 20
10.8210087997
 30
0.0
 10
12.1913599626
 20
10.8171089251
 30
0.0
 10
12.1977725807
 20
10.8131742885
 30
0.0
 10
12.2038731782
 20
10.8092064485
 30
0.0
 10
12.2096592484
 20
10.8052070521
 30
0.0
 10
12.2151284177
 20
10.8011777398
 30
0.0
 10
12.2202783975
 20
10.797120084
 30
0.0
 10
12.2251071082
 20
10.7930357762
 30
0.0
 10
12.2296125172
 20
10.7889263762
 30
0.0
 10
12.2337927588
 20
10.7847935267
 30
0.0
 10
12.2376461211
 20
10.7806388171
 30
0.0
 10
12.241170835
 20
10.776463909
 30
0.0
 10
12.2443656709
 20
10.7722700218
 30
0.0
 10
12.2481210129
 20
10.7667473717
 30
0.0
 10
12.2512982457
 20
10.76109424
 30
0.0
 10
12.2538154804
 20
10.7553411579
 30
0.0
 10
12.2553396857
 20
10.7510784491
 30
0.0
 10
12.2565262724
 20
10.7468073658
 30
0.0
 10
12.2573745103
 20
10.742529623
 30
0.0
 10
12.257883774
 20
10.7382477268
 30
0.0
 10
12.2579970631
 20
10.7353881838
 30
0.0
 10
12.2579970656
 20
10.7339631832
 30
0.0
  0
SPLINE
  5
39F
100
AcDbEntity
  8
0
100
AcDbSpline
 62
7
  6
CONTINUOUS
 70
0
 71
3
 72
28
 73
24
 74
0
 42
0.0000001
 43
0.0000001
 44
0.0000000001
 40
0.0
 40
0.0
 40
0.0
 40
0.0
 40
0.0225648841
 40
0.0460257697
 40
0.0703599414
 40
0.0955423884
 40
0.1215460563
 40
0.1483421128
 40
0.1758999044
 40
0.204187252
 40
0.2331705301
 40
0.2628146797
 40
0.3239383678
 40
0.3872560089
 40
0.4524483495
 40
0.5191830788
 40
0.5871173344
 40
0.6559001944
 40
0.7251750968
 40
0.7945822154
 40
0.8637609798
 40
0.9323515905
 40
1.0
 40
1.0
 40
1.0
 40
1.0
 10
12.8575124565
 20
8.1015605912
 30
0.0
 10
12.8590063395
 20
8.105225366
 30
0.0
 10
12.8619661566
 20
8.1127362554
 30
0.0
 10
12.8662471914
 20
8.1243108419
 30
0.0
 10
12.8704513895
 20
8.136400687
 30
0.0
 10
12.8745728888
 20
8.1489890161
 30
0.0
 10
12.8786059852
 20
8.1620584603
 30
0.0
 10
12.8825450309
 20
8.1755909527
 30
0.0
 10
12.8863845811
 20
8.1895677733
 30
0.0
 10
12.8901192827
 20
8.2039695779
 30
0.0
 10
12.8937439522
 20
8.2187764521
 30
0.0
 10
12.8984715825
 20
8.2392405848
 30
0.0
 10
12.9040569315
 20
8.265684424
 30
0.0
 10
12.910178765
 20
8.2983778882
 30
0.0
 10
12.9157521694
 20
8.3321669959
 30
0.0
 10
12.9207460586
 20
8.3668646255
 30
0.0
 10
12.9251325795
 20
8.402278772
 30
0.0
 10
12.9288873082
 20
8.4382133456
 30
0.0
 10
12.9319893576
 20
8.4744693633
 30
0.0
 10
12.9344215017
 20
8.5108460411
 30
0.0
 10
12.9361702687
 20
8.5471418771
 30
0.0
 10
12.9372260637
 20
8.5831557951
 30
0.0
 10
12.9374661694
 20
8.6070507766
 30
0.0
 10
12.9374661694
 20
8.6189153384
 30
0.0
  0
SPLINE
  5
3A0
100
AcDbEntity
  8
0
100
AcDbSpline
 62
7
  6
CONTINUOUS
 70
0
 71
3
 72
33
 73
29
 74
0
 42
0.0000001
 43
0.0000001
 44
0.0000000001
 40
0.0
 40
0.0
 40
0.0
 40
0.0
 40
0.0183279998
 40
0.0378642304
 40
0.0586008132
 40
0.0805227257
 40
0.1036088396
 40
0.1278327411
 40
0.1531634401
 40
0.1795658934
 40
0.2070013966
 40
0.2354279271
 40
0.2648005005
 40
0.295071436
 40
0.3261905647
 40
0.3581054308
 40
0.3907615338
 40
0.4241025131
 40
0.458070303
 40
0.4926052917
 40
0.5276465187
 40
0.5631318327
 40
0.635179848
 40
0.7082352047
 40
0.7817732718
 40
0.855264967
 40
0.9281813867
 40
1.0
 40
1.0
 40
1.0
 40
1.0
 10
12.8797753203
 20
8.0033391041
 30
0.0
 10
12.8818487654
 20
8.0066584473
 30
0.0
 10
12.8859661174
 20
8.0136206918
 30
0.0
 10
12.8918884747
 20
8.0246472456
 30
0.0
 10
12.8977436708
 20
8.0365707822
 30
0.0
 10
12.9035203717
 20
8.049368576
 30
0.0
 10
12.9092075773
 20
8.0630165672
 30
0.0
 10
12.9147943609
 20
8.0774888343
 30
0.0
 10
12.920269975
 20
8.0927578553
 30
0.0
 10
12.9256238617
 20
8.1087945251
 30
0.0
 10
12.9308456962
 20
8.1255682216
 30
0.0
 10
12.9359254208
 20
8.1430468658
 30
0.0
 10
12.9408532412
 20
8.1611970072
 30
0.0
 10
12.9456196514
 20
8.179983894
 30
0.0
 10
12.9502154589
 20
8.1993715325
 30
0.0
 10
12.9546318175
 20
8.2193227556
 30
0.0
 10
12.9588602194
 20
8.2397993083
 30
0.0
 10
12.9628925146
 20
8.2607619249
 30
0.0
 10
12.9667209344
 20
8.2821703996
 30
0.0
 10
12.9703381105
 20
8.3039836498
 30
0.0
 10
12.9737371111
 20
8.3261598526
 30
0.0
 10
12.9779907441
 20
8.356306899
 30
0.0
 10
12.9827088555
 20
8.3945834072
 30
0.0
 10
12.987380696
 20
8.4410410242
 30
0.0
 10
12.9910546062
 20
8.4878974758
 30
0.0
 10
12.9937024494
 20
8.534793419
 30
0.0
 10
12.9953039611
 20
8.5813691861
 30
0.0
 10
12.9956697265
 20
8.6122766589
 30
0.0
 10
12.9956697265
 20
8.6276126493
 30
0.0
  0
SPLINE
  5
3A1
100
AcDbEntity
  8
0
100
AcDbSpline
 62
7
  6
CONTINUOUS
 70
0
 71
3
 72
54
 73
50
 74
0
 42
0.0000001
 43
0.0000001
 44
0.0000000001
 40
0.0
 40
0.0
 40
0.0
 40
0.0
 40
0.0056188358
 40
0.011142062
 40
0.0166418798
 40
0.0221914822
 40
0.0278619534
 40
0.0337195841
 40
0.0398239198
 40
0.0462268276
 40
0.0529722888
 40
0.0600968269
 40
0.0676302128
 40
0.0755962811
 40
0.0840138008
 40
0.0928971542
 40
0.1022570994
 40
0.1121011886
 40
0.1224343915
 40
0.1332592871
 40
0.144576582
 40
0.156385141
 40
0.168682431
 40
0.1814644539
 40
0.1947261279
 40
0.208461176
 40
0.2226624456
 40
0.2373217922
 40
0.2524303332
 40
0.2679783549
 40
0.2839554984
 40
0.3003507052
 40
0.3343475004
 40
0.3698696253
 40
0.4068091282
 40
0.4450509348
 40
0.4844736895
 40
0.5249505221
 40
0.566349766
 40
0.6085356426
 40
0.6513689225
 40
0.6947075711
 40
0.7384073857
 40
0.7823226207
 40
0.8263066264
 40
0.870212428
 40
0.9138934837
 40
0.9572039394
 40
1.0
 40
1.0
 40
1.0
 40
1.0
 10
12.9401102209
 20
7.9123029973
 30
0.0
 10
12.9414883313
 20
7.9118157642
 30
0.0
 10
12.9442773257
 20
7.9109994652
 30
0.0
 10
12.948555736
 20
7.9102764506
 30
0.0
 10
12.9528725916
 20
7.9100711175
 30
0.0
 10
12.9572209649
 20
7.910383961
 30
0.0
 10
12.961595084
 20
7.9112134301
 30
0.0
 10
12.9659897052
 20
7.9125571627
 30
0.0
 10
12.9704005513
 20
7.9144120289
 30
0.0
 10
12.9748239622
 20
7.916774855
 30
0.0
 10
12.9792566933
 20
7.9196423829
 30
0.0
 10
12.9836956049
 20
7.9230113862
 30
0.0
 10
12.9881375127
 20
7.9268785372
 30
0.0
 10
12.9925791481
 20
7.9312402776
 30
0.0
 10
12.9970170514
 20
7.9360927982
 30
0.0
 10
13.0014477229
 20
7.9414318682
 30
0.0
 10
13.0058674574
 20
7.9472529259
 30
0.0
 10
13.0102726021
 20
7.9535509121
 30
0.0
 10
13.0146593107
 20
7.9603204112
 30
0.0
 10
13.0190238622
 20
7.9675554988
 30
0.0
 10
13.0233623565
 20
7.9752498901
 30
0.0
 10
13.0276710613
 20
7.9833968089
 30
0.0
 10
13.0319460833
 20
7.9919891193
 30
0.0
 10
13.0361837135
 20
8.0010192227
 30
0.0
 10
13.0403801077
 20
8.0104791632
 30
0.0
 10
13.0445316022
 20
8.0203605536
 30
0.0
 10
13.0486344322
 20
8.0306546536
 30
0.0
 10
13.0526849953
 20
8.0413523224
 30
0.0
 10
13.05667963
 20
8.0524440734
 30
0.0
 10
13.0606148035
 20
8.0639200457
 30
0.0
 10
13.0644869997
 20
8.0757700555
 30
0.0
 10
13.0696234409
 20
8.0922543266
 30
0.0
 10
13.0758485367
 20
8.1137226256
 30
0.0
 10
13.0829270322
 20
8.1404996387
 30
0.0
 10
13.0896758235
 20
8.1684987597
 30
0.0
 10
13.096070716
 20
8.1976203597
 30
0.0
 10
13.102088768
 20
8.2277609593
 30
0.0
 10
13.107708411
 20
8.2588133348
 30
0.0
 10
13.1129095145
 20
8.2906669921
 30
0.0
 10
13.1176734589
 20
8.3232085481
 30
0.0
 10
13.1219831996
 20
8.3563221476
 30
0.0
 10
13.1258233266
 20
8.3898898807
 30
0.0
 10
13.1291801181
 20
8.423792207
 30
0.0
 10
13.1320415902
 20
8.4579083866
 30
0.0
 10
13.1343975347
 20
8.492116909
 30
0.0
 10
13.1362395662
 20
8.5262959414
 30
0.0
 10
13.1375611298
 20
8.5603237454
 30
0.0
 10
13.1383575617
 20
8.5940790588
 30
0.0
 10
13.1385378394
 20
8.616479522
 30
0.0
 10
13.1385378394
 20
8.6276126575
 30
0.0
  0
SPLINE
  5
3A2
100
AcDbEntity
  8
0
100
AcDbSpline
 62
7
  6
CONTINUOUS
 70
0
 71
3
 72
53
 73
49
 74
0
 42
0.0000001
 43
0.0000001
 44
0.0000000001
 40
0.0
 40
0.0
 40
0.0
 40
0.0
 40
0.0055310092
 40
0.0112690295
 40
0.0172575102
 40
0.0235340177
 40
0.0301303479
 40
0.0370730515
 40
0.0443838738
 40
0.0520804704
 40
0.0601768154
 40
0.0686838599
 40
0.0776098075
 40
0.0869606445
 40
0.0967403027
 40
0.1069510574
 40
0.1175936254
 40
0.1286674438
 40
0.1401707472
 40
0.1521007405
 40
0.1644536856
 40
0.1772249824
 40
0.19040928
 40
0.2040004815
 40
0.2179918832
 40
0.2323761202
 40
0.2471453293
 40
0.2622910534
 40
0.2778044178
 40
0.2936760133
 40
0.3264538307
 40
0.3605418808
 40
0.395851141
 40
0.4322874065
 40
0.4697518598
 40
0.5081415967
 40
0.547350121
 40
0.587267818
 40
0.6277824133
 40
0.6687794206
 40
0.7101425825
 40
0.7517543076
 40
0.7934961004
 40
0.8352490035
 40
0.8768939901
 40
0.918312514
 40
0.9593866094
 40
1.0
 40
1.0
 40
1.0
 40
1.0
 10
12.9494615761
 20
7.6800914598
 30
0.0
 10
12.9513748355
 20
7.6805370542
 30
0.0
 10
12.9552284169
 20
7.6816466534
 30
0.0
 10
12.9609382959
 20
7.683897231
 30
0.0
 10
12.9666658556
 20
7.6867569564
 30
0.0
 10
12.9724064173
 20
7.6902223807
 30
0.0
 10
12.978156667
 20
7.6942900308
 30
0.0
 10
12.9839128506
 20
7.6989564453
 30
0.0
 10
12.9896713929
 20
7.704217792
 30
0.0
 10
12.995428396
 20
7.7100701314
 30
0.0
 10
13.0011800477
 20
7.7165090107
 30
0.0
 10
13.0069222365
 20
7.7235297347
 30
0.0
 10
13.0126509598
 20
7.7311270589
 30
0.0
 10
13.0183619776
 20
7.7392954133
 30
0.0
 10
13.0240511678
 20
7.7480286985
 30
0.0
 10
13.0297142465
 20
7.7573204423
 30
0.0
 10
13.0353470311
 20
7.7671636826
 30
0.0
 10
13.0409452535
 20
7.7775510589
 30
0.0
 10
13.0465047135
 20
7.7884747611
 30
0.0
 10
13.052021197
 20
7.7999265702
 30
0.0
 10
13.0574905184
 20
7.8118978521
 30
0.0
 10
13.0629085427
 20
7.8243795633
 30
0.0
 10
13.0682711246
 20
7.837362274
 30
0.0
 10
13.0735742239
 20
7.8508361524
 30
0.0
 10
13.0788137593
 20
7.8647910032
 30
0.0
 10
13.0839857953
 20
7.8792162426
 30
0.0
 10
13.0890863376
 20
7.8941009432
 30
0.0
 10
13.0941115567
 20
7.9094338032
 30
0.0
 10
13.0990575915
 20
7.9252032092
 30
0.0
 10
13.1056120628
 20
7.9470296314
 30
0.0
 10
13.1135662513
 20
7.9753215528
 30
0.0
 10
13.1226379898
 20
8.0104617543
 30
0.0
 10
13.1313080784
 20
8.0470397988
 30
0.0
 10
13.1395500244
 20
8.0849445927
 30
0.0
 10
13.1473386272
 20
8.1240611709
 30
0.0
 10
13.1546500919
 20
8.1642707784
 30
0.0
 10
13.1614620895
 20
8.2054513209
 30
0.0
 10
13.167753827
 20
8.2474777218
 30
0.0
 10
13.1735061083
 20
8.2902223141
 30
0.0
 10
13.1787013914
 20
8.3335552317
 30
0.0
 10
13.1833238415
 20
8.3773448087
 30
0.0
 10
13.1873593774
 20
8.4214579823
 30
0.0
 10
13.1907957158
 20
8.4657607014
 30
0.0
 10
13.1936224039
 20
8.5101183308
 30
0.0
 10
13.1958308623
 20
8.5543960797
 30
0.0
 10
13.1974143875
 20
8.598459382
 30
0.0
 10
13.1983682134
 20
8.6421742659
 30
0.0
 10
13.1985838083
 20
8.6711878466
 30
0.0
 10
13.1985838083
 20
8.6856126131
 30
0.0
  0
SPLINE
  5
3A3
100
AcDbEntity
  8
0
100
AcDbSpline
 62
7
  6
CONTINUOUS
 70
0
 71
3
 72
21
 73
17
 74
0
 42
0.0000001
 43
0.0000001
 44
0.0000000001
 40
0.0
 40
0.0
 40
0.0
 40
0.0
 40
0.1273176984
 40
0.2537999461
 40
0.3167619614
 40
0.3795355204
 40
0.4421314992
 40
0.5045621453
 40
0.5668413456
 40
0.6289845231
 40
0.6910084433
 40
0.7529310869
 40
0.8147714401
 40
0.8765493236
 40
0.9382852134
 40
1.0
 40
1.0
 40
1.0
 40
1.0
 10
10.1406835942
 20
8.323761154
 30
0.0
 10
10.1406835942
 20
8.3305059621
 30
0.0
 10
10.1413274312
 20
8.3439600016
 30
0.0
 10
10.1437590224
 20
8.3605920986
 30
0.0
 10
10.1466652895
 20
8.3736385223
 30
0.0
 10
10.1493156534
 20
8.3832615707
 30
0.0
 10
10.1524336481
 20
8.3927136225
 30
0.0
 10
10.1560120849
 20
8.401973157
 30
0.0
 10
10.1600427135
 20
8.4110187584
 30
0.0
 10
10.1645163214
 20
8.41982955
 30
0.0
 10
10.1694225595
 20
8.4283852215
 30
0.0
 10
10.1747501132
 20
8.4366660554
 30
0.0
 10
10.1804867476
 20
8.44465289
 30
0.0
 10
10.1866192688
 20
8.4523273825
 30
0.0
 10
10.1931332623
 20
8.4596716208
 30
0.0
 10
10.197721155
 20
8.4643371134
 30
0.0
 10
10.2000727037
 20
8.4666085211
 30
0.0
  0
SPLINE
  5
3A4
100
AcDbEntity
  8
0
100
AcDbSpline
 62
7
  6
CONTINUOUS
 70
0
 71
3
 72
42
 73
38
 74
0
 42
0.0000001
 43
0.0000001
 44
0.0000000001
 40
0.0
 40
0.0
 40
0.0
 40
0.0
 40
0.0299419634
 40
0.0449235299
 40
0.0599142017
 40
0.0899287029
 40
0.1200139772
 40
0.1350926626
 40
0.1501967046
 40
0.1804840506
 40
0.2108978877
 40
0.2414513551
 40
0.2721543675
 40
0.3030134354
 40
0.3340315696
 40
0.3652082675
 40
0.3965395775
 40
0.4280182343
 40
0.4596338596
 40
0.4913732188
 40
0.5232205284
 40
0.5551578047
 40
0.5871652463
 40
0.6192216448
 40
0.6513048151
 40
0.6833920402
 40
0.7154605222
 40
0.747487836
 40
0.7794523759
 40
0.8113337934
 40
0.8431134117
 40
0.8747746318
 40
0.9063032512
 40
0.9376879208
 40
0.9533258
 40
0.9689252634
 40
1.0
 40
1.0
 40
1.0
 40
1.0
 10
9.3278722717
 20
9.8926243714
 30
0.0
 10
9.3242391326
 20
9.8891150498
 30
0.0
 10
9.3185752651
 20
9.8840637166
 30
0.0
 10
9.3106431463
 20
9.8777961123
 30
0.0
 10
9.3024584294
 20
9.8718403935
 30
0.0
 10
9.2917787196
 20
9.8650012988
 30
0.0
 10
9.2805797559
 20
9.8590190703
 30
0.0
 10
9.2713435131
 20
9.8547633069
 30
0.0
 10
9.2619164766
 20
9.8508588634
 30
0.0
 10
9.2498220164
 20
9.8466604832
 30
0.0
 10
9.2349174273
 20
9.842747698
 30
0.0
 10
9.2196876178
 20
9.839975791
 30
0.0
 10
9.2042169893
 20
9.8383600543
 30
0.0
 10
9.1885905251
 20
9.8379091106
 30
0.0
 10
9.1728942066
 20
9.8386252549
 30
0.0
 10
9.1572143043
 20
9.8405043503
 30
0.0
 10
9.1416369723
 20
9.8435358875
 30
0.0
 10
9.1262477632
 20
9.8477030416
 30
0.0
 10
9.1111311692
 20
9.8529827728
 30
0.0
 10
9.0963701634
 20
9.8593459557
 30
0.0
 10
9.0820457515
 20
9.8667575414
 30
0.0
 10
9.0682365328
 20
9.8751767513
 30
0.0
 10
9.0550182753
 20
9.8845573002
 30
0.0
 10
9.0424635047
 20
9.8948476493
 30
0.0
 10
9.0306411117
 20
9.9059912875
 30
0.0
 10
9.0196159777
 20
9.9179270385
 30
0.0
 10
9.0094486229
 20
9.9305893934
 30
0.0
 10
9.0001948772
 20
9.9439088678
 30
0.0
 10
8.9919055763
 20
9.9578123743
 30
0.0
 10
8.984626285
 20
9.9722236353
 30
0.0
 10
8.9783970497
 20
9.9870635365
 30
0.0
 10
8.9732521666
 20
10.0022507758
 30
0.0
 10
8.9692200576
 20
10.0177014892
 30
0.0
 10
8.9668027187
 20
10.0307435665
 30
0.0
 10
8.9654466633
 20
10.0412227174
 30
0.0
 10
8.9644788798
 20
10.0516918406
 30
0.0
 10
8.9641858443
 20
10.0595697853
 30
0.0
 10
8.9641858443
 20
10.0648121266
 30
0.0
  0
SPLINE
  5
3A5
100
AcDbEntity
  8
0
100
AcDbSpline
 62
7
  6
CONTINUOUS
 70
0
 71
3
 72
21
 73
17
 74
0
 42
0.0000001
 43
0.0000001
 44
0.0000000001
 40
0.0
 40
0.0
 40
0.0
 40
0.0
 40
0.0492290262
 40
0.100584178
 40
0.1540055188
 40
0.2094270186
 40
0.2667768805
 40
0.3259781926
 40
0.3869494676
 40
0.4496048176
 40
0.5138543843
 40
0.5796047485
 40
0.6467590797
 40
0.7152177472
 40
0.8556310614
 40
1.0
 40
1.0
 40
1.0
 40
1.0
 10
12.9115399405
 20
8.8807928135
 30
0.0
 10
12.912605207
 20
8.8765975846
 30
0.0
 10
12.914672285
 20
8.8679978473
 30
0.0
 10
12.9175347912
 20
8.8547622056
 30
0.0
 10
12.9202211432
 20
8.8409346571
 30
0.0
 10
12.9227268115
 20
8.8265380568
 30
0.0
 10
12.9250476365
 20
8.811596081
 30
0.0
 10
12.9271797538
 20
8.7961333652
 30
0.0
 10
12.9291195874
 20
8.7801753996
 30
0.0
 10
12.9308639037
 20
8.76374851
 30
0.0
 10
12.9324098083
 20
8.7468798065
 30
0.0
 10
12.9337546997
 20
8.729597142
 30
0.0
 10
12.934896359
 20
8.7119290125
 30
0.0
 10
12.9361555509
 20
8.687692086
 30
0.0
 10
12.9371970848
 20
8.6566484998
 30
0.0
 10
12.9374661694
 20
8.6316086907
 30
0.0
 10
12.9374661694
 20
8.6189153384
 30
0.0
  0
SPLINE
  5
3A6
100
AcDbEntity
  8
0
100
AcDbSpline
 62
7
  6
CONTINUOUS
 70
0
 71
3
 72
54
 73
50
 74
0
 42
0.0000001
 43
0.0000001
 44
0.0000000001
 40
0.0
 40
0.0
 40
0.0
 40
0.0
 40
0.0417740848
 40
0.0840369828
 40
0.1266585743
 40
0.1695065841
 40
0.2124482174
 40
0.2553501902
 40
0.2980794065
 40
0.3405034434
 40
0.3824910856
 40
0.4239128535
 40
0.4646415381
 40
0.5045527407
 40
0.5435254244
 40
0.5814424805
 40
0.6181913195
 40
0.6536644943
 40
0.6877603722
 40
0.7042621337
 40
0.7203845126
 40
0.7361167638
 40
0.7514487122
 40
0.7663707127
 40
0.7808737249
 40
0.7949493691
 40
0.8085899172
 40
0.8217884518
 40
0.8345388015
 40
0.8468357624
 40
0.8586750526
 40
0.8700535295
 40
0.8809692513
 40
0.8914216469
 40
0.9014117394
 40
0.9109422847
 40
0.9200181679
 40
0.9286465891
 40
0.9368376049
 40
0.9446044798
 40
0.9519643317
 40
0.9589387265
 40
0.9655543709
 40
0.9718438607
 40
0.9778462236
 40
0.9836073893
 40
0.9891800561
 40
0.99462308
 40
1.0
 40
1.0
 40
1.0
 40
1.0
 10
13.2294934373
 20
8.683469023
 30
0.0
 10
13.2294934373
 20
8.668413693
 30
0.0
 10
13.2292585592
 20
8.6381263921
 30
0.0
 10
13.2282201961
 20
8.5924890208
 30
0.0
 10
13.226496778
 20
8.5464849951
 30
0.0
 10
13.2240939446
 20
8.5002665579
 30
0.0
 10
13.221019642
 20
8.4539866541
 30
0.0
 10
13.21728403
 20
8.407798381
 30
0.0
 10
13.2128994835
 20
8.3618545514
 30
0.0
 10
13.2078805367
 20
8.3163071592
 30
0.0
 10
13.2022438404
 20
8.271306879
 30
0.0
 10
13.1960081076
 20
8.2270025621
 30
0.0
 10
13.1891940528
 20
8.1835407386
 30
0.0
 10
13.1818243231
 20
8.141065129
 30
0.0
 10
13.1739234257
 20
8.0997161548
 30
0.0
 10
13.1655176455
 20
8.0596304894
 30
0.0
 10
13.156634972
 20
8.0209405069
 30
0.0
 10
13.1473049633
 20
7.9837741376
 30
0.0
 10
13.139096346
 20
7.9538570361
 30
0.0
 10
13.1323169072
 20
7.9307861609
 30
0.0
 10
13.127195489
 20
7.9141275664
 30
0.0
 10
13.1219860893
 20
7.897938593
 30
0.0
 10
13.1166930283
 20
7.8822325957
 30
0.0
 10
13.111320688
 20
7.8670225499
 30
0.0
 10
13.1058735158
 20
7.85232101
 30
0.0
 10
13.1003560523
 20
7.8381400997
 30
0.0
 10
13.0947728256
 20
7.8244915179
 30
0.0
 10
13.0891285161
 20
7.8113864946
 30
0.0
 10
13.0834277309
 20
7.7988358278
 30
0.0
 10
13.0776752423
 20
7.7868498151
 30
0.0
 10
13.0718757475
 20
7.7754383037
 30
0.0
 10
13.0660340514
 20
7.7646106286
 30
0.0
 10
13.0601549403
 20
7.7543756355
 30
0.0
 10
13.0542431981
 20
7.7447416692
 30
0.0
 10
13.0483036678
 20
7.7357165292
 30
0.0
 10
13.0423410659
 20
7.7273075457
 30
0.0
 10
13.0363602135
 20
7.7195214494
 30
0.0
 10
13.0303657157
 20
7.7123645381
 30
0.0
 10
13.0243622418
 20
7.7058425064
 30
0.0
 10
13.018354226
 20
7.6999606435
 30
0.0
 10
13.0123460393
 20
7.694723746
 30
0.0
 10
13.0063418817
 20
7.6901362449
 30
0.0
 10
13.000345784
 20
7.6862023518
 30
0.0
 10
12.9943618144
 20
7.6829260004
 30
0.0
 10
12.9883940115
 20
7.6803112577
 30
0.0
 10
12.9824470176
 20
7.6783619161
 30
0.0
 10
12.9765257041
 20
7.6770818667
 30
0.0
 10
12.9706372772
 20
7.6764740907
 30
0.0
 10
12.9667278592
 20
7.6765187831
 30
0.0
 10
12.9647946675
 20
7.6766528588
 30
0.0
  0
SPLINE
  5
3A7
100
AcDbEntity
  8
0
100
AcDbSpline
 62
7
  6
CONTINUOUS
 70
0
 71
3
 72
28
 73
24
 74
0
 42
0.0000001
 43
0.0000001
 44
0.0000000001
 40
0.0
 40
0.0
 40
0.0
 40
0.0
 40
0.0201858005
 40
0.0411992654
 40
0.0630391088
 40
0.0857017519
 40
0.1091819462
 40
0.1334724914
 40
0.1585648983
 40
0.1844490129
 40
0.2111136164
 40
0.2385460968
 40
0.295657908
 40
0.355664975
 40
0.4184317251
 40
0.4838097884
 40
0.551639398
 40
0.6217506351
 40
0.6939644135
 40
0.7680937565
 40
0.8439438984
 40
0.9213151451
 40
1.0
 40
1.0
 40
1.0
 40
1.0
 10
12.9471916763
 20
8.9748861005
 30
0.0
 10
12.9481582703
 20
8.9727188477
 30
0.0
 10
12.9500659188
 20
8.9682661753
 30
0.0
 10
12.9528022509
 20
8.9613781877
 30
0.0
 10
12.9554690018
 20
8.9541517811
 30
0.0
 10
12.9580642803
 20
8.9465922152
 30
0.0
 10
12.9605861515
 20
8.9387048762
 30
0.0
 10
12.9630328671
 20
8.9304954449
 30
0.0
 10
12.9654025797
 20
8.9219698129
 30
0.0
 10
12.9676936387
 20
8.9131341271
 30
0.0
 10
12.9699043432
 20
8.9039947366
 30
0.0
 10
12.9727813345
 20
8.8912411075
 30
0.0
 10
12.9761526164
 20
8.8745830033
 30
0.0
 10
12.9798016133
 20
8.8537507819
 30
0.0
 10
12.9830956159
 20
8.8318763996
 30
0.0
 10
12.9860249715
 20
8.8090230091
 30
0.0
 10
12.988581052
 20
8.7852564508
 30
0.0
 10
12.9907563367
 20
8.7606453242
 30
0.0
 10
12.9925444287
 20
8.735260672
 30
0.0
 10
12.9939400478
 20
8.7091758662
 30
0.0
 10
12.9949390995
 20
8.6824661828
 30
0.0
 10
12.9955385956
 20
8.6552089911
 30
0.0
 10
12.9956697265
 20
8.6368628053
 30
0.0
 10
12.9956697265
 20
8.6276126493
 30
0.0
  0
SPLINE
  5
3A8
100
AcDbEntity
  8
0
100
AcDbSpline
 62
7
  6
CONTINUOUS
 70
0
 71
3
 72
42
 73
38
 74
0
 42
0.0000001
 43
0.0000001
 44
0.0000000001
 40
0.0
 40
0.0
 40
0.0
 40
0.0
 40
0.0299419634
 40
0.0449235299
 40
0.0599142017
 40
0.0899287029
 40
0.1200139772
 40
0.1350926626
 40
0.1501967046
 40
0.1804840506
 40
0.2108978877
 40
0.2414513551
 40
0.2721543675
 40
0.3030134354
 40
0.3340315696
 40
0.3652082675
 40
0.3965395775
 40
0.4280182343
 40
0.4596338596
 40
0.4913732188
 40
0.5232205284
 40
0.5551578047
 40
0.5871652463
 40
0.6192216448
 40
0.6513048151
 40
0.6833920402
 40
0.7154605222
 40
0.747487836
 40
0.7794523759
 40
0.8113337934
 40
0.8431134117
 40
0.8747746318
 40
0.9063032512
 40
0.9376879208
 40
0.9533258
 40
0.9689252634
 40
1.0
 40
1.0
 40
1.0
 40
1.0
 10
12.3454247731
 20
9.6833563946
 30
0.0
 10
12.3417916339
 20
9.679847073
 30
0.0
 10
12.3361277665
 20
9.6747957399
 30
0.0
 10
12.3281956477
 20
9.6685281356
 30
0.0
 10
12.3200109307
 20
9.6625724168
 30
0.0
 10
12.309331221
 20
9.6557333221
 30
0.0
 10
12.2981322572
 20
9.6497510935
 30
0.0
 10
12.2888960144
 20
9.6454953302
 30
0.0
 10
12.279468978
 20
9.6415908867
 30
0.0
 10
12.2673745177
 20
9.6373925064
 30
0.0
 10
12.2524699286
 20
9.6334797213
 30
0.0
 10
12.2372401192
 20
9.6307078142
 30
0.0
 10
12.2217694906
 20
9.6290920775
 30
0.0
 10
12.2061430264
 20
9.6286411338
 30
0.0
 10
12.190446708
 20
9.6293572781
 30
0.0
 10
12.1747668057
 20
9.6312363736
 30
0.0
 10
12.1591894736
 20
9.6342679107
 30
0.0
 10
12.1438002645
 20
9.6384350649
 30
0.0
 10
12.1286836705
 20
9.6437147961
 30
0.0
 10
12.1139226648
 20
9.6500779789
 30
0.0
 10
12.0995982528
 20
9.6574895647
 30
0.0
 10
12.0857890341
 20
9.6659087746
 30
0.0
 10
12.0725707766
 20
9.6752893235
 30
0.0
 10
12.0600160061
 20
9.6855796726
 30
0.0
 10
12.048193613
 20
9.6967233108
 30
0.0
 10
12.037168479
 20
9.7086590617
 30
0.0
 10
12.0270011242
 20
9.7213214167
 30
0.0
 10
12.0177473785
 20
9.7346408911
 30
0.0
 10
12.0094580777
 20
9.7485443975
 30
0.0
 10
12.0021787864
 20
9.7629556585
 30
0.0
 10
11.995949551
 20
9.7777955597
 30
0.0
 10
11.9908046679
 20
9.7929827991
 30
0.0
 10
11.986772559
 20
9.8084335125
 30
0.0
 10
11.98435522
 20
9.8214755897
 30
0.0
 10
11.9829991646
 20
9.8319547406
 30
0.0
 10
11.9820313812
 20
9.8424238638
 30
0.0
 10
11.9817383457
 20
9.8503018086
 30
0.0
 10
11.9817383457
 20
9.8555441498
 30
0.0
  0
SPLINE
  5
3A9
100
AcDbEntity
  8
0
100
AcDbSpline
 62
7
  6
CONTINUOUS
 70
0
 71
3
 72
51
 73
47
 74
0
 42
0.0000001
 43
0.0000001
 44
0.0000000001
 40
0.0
 40
0.0
 40
0.0
 40
0.0
 40
0.00667042
 40
0.0132428585
 40
0.0197604399
 40
0.0262674942
 40
0.0328085778
 40
0.0394275118
 40
0.0461664442
 40
0.0530651073
 40
0.0601603106
 40
0.0674854904
 40
0.0750706959
 40
0.082942548
 40
0.091124311
 40
0.0996362731
 40
0.1084958042
 40
0.1177177188
 40
0.127314609
 40
0.1372968752
 40
0.1476731872
 40
0.1584505772
 40
0.1696345402
 40
0.1812294182
 40
0.193238293
 40
0.2056632282
 40
0.2185054549
 40
0.2317652188
 40
0.2595338185
 40
0.2889589833
 40
0.3200199074
 40
0.3526878404
 40
0.3869270742
 40
0.422695857
 40
0.459947091
 40
0.4986288609
 40
0.5386848348
 40
0.5800547325
 40
0.622674687
 40
0.6664775322
 40
0.7113930471
 40
0.757348205
 40
0.8042675971
 40
0.8520735019
 40
0.90068538
 40
1.0
 40
1.0
 40
1.0
 40
1.0
 10
13.0194810442
 20
9.0567985935
 30
0.0
 10
13.0205110723
 20
9.0570088486
 30
0.0
 10
13.0225736036
 20
9.0573454284
 30
0.0
 10
13.0256817077
 20
9.0575909071
 30
0.0
 10
13.0287739858
 20
9.0575720139
 30
0.0
 10
13.0318483081
 20
9.0572885983
 30
0.0
 10
13.0349028925
 20
9.056740971
 30
0.0
 10
13.0379359066
 20
9.0559294854
 30
0.0
 10
13.0409456811
 20
9.0548548928
 30
0.0
 10
13.043930688
 20
9.0535180685
 30
0.0
 10
13.0468894724
 20
9.051919905
 30
0.0
 10
13.0498207838
 20
9.0500615478
 30
0.0
 10
13.052723377
 20
9.0479440563
 30
0.0
 10
13.0555960643
 20
9.045568579
 30
0.0
 10
13.0584377558
 20
9.0429363851
 30
0.0
 10
13.0612472547
 20
9.04004869
 30
0.0
 10
13.0640234595
 20
9.0369068855
 30
0.0
 10
13.066765246
 20
9.0335124194
 30
0.0
 10
13.0694714113
 20
9.0298667907
 30
0.0
 10
13.0721408709
 20
9.0259716843
 30
0.0
 10
13.0747724414
 20
9.0218288255
 30
0.0
 10
13.0773649599
 20
9.0174400686
 30
0.0
 10
13.0799173357
 20
9.0128074093
 30
0.0
 10
13.0824283754
 20
9.0079329051
 30
0.0
 10
13.0848969884
 20
9.0028187685
 30
0.0
 10
13.08732207
 20
8.9974673148
 30
0.0
 10
13.089702502
 20
8.9918809388
 30
0.0
 10
13.092864203
 20
8.984000946
 30
0.0
 10
13.0966856939
 20
8.973572593
 30
0.0
 10
13.1010089429
 20
8.960349887
 30
0.0
 10
13.105129561
 20
8.9462564928
 30
0.0
 10
13.1090399705
 20
8.9313180333
 30
0.0
 10
13.1127329792
 20
8.9155615078
 30
0.0
 10
13.1162017706
 20
8.8990155522
 30
0.0
 10
13.1194399279
 20
8.8817102642
 30
0.0
 10
13.1224414489
 20
8.863677177
 30
0.0
 10
13.1252007912
 20
8.844949193
 30
0.0
 10
13.1277128514
 20
8.8255605107
 30
0.0
 10
13.129972977
 20
8.8055465476
 30
0.0
 10
13.1319769754
 20
8.7849438795
 30
0.0
 10
13.1337211453
 20
8.7637901854
 30
0.0
 10
13.1352022665
 20
8.7421241464
 30
0.0
 10
13.1364175827
 20
8.7199853982
 30
0.0
 10
13.1373648503
 20
8.697414464
 30
0.0
 10
13.1382745076
 20
8.6665796027
 30
0.0
 10
13.1385378394
 20
8.6432647925
 30
0.0
 10
13.1385378394
 20
8.6276126575
 30
0.0
  0
SPLINE
  5
3AA
100
AcDbEntity
  8
0
100
AcDbSpline
 62
7
  6
CONTINUOUS
 70
0
 71
3
 72
46
 73
42
 74
0
 42
0.0000001
 43
0.0000001
 44
0.0000000001
 40
0.0
 40
0.0
 40
0.0
 40
0.0
 40
0.0064144547
 40
0.0129843531
 40
0.0266854943
 40
0.0338679408
 40
0.0412956829
 40
0.0489856359
 40
0.0569526578
 40
0.0652096923
 40
0.0737680418
 40
0.0826373693
 40
0.0918259384
 40
0.1013407973
 40
0.1111877468
 40
0.1213716211
 40
0.1318963335
 40
0.1427648769
 40
0.1539795799
 40
0.1774519322
 40
0.2023204325
 40
0.2285821893
 40
0.2562272403
 40
0.2852395664
 40
0.3155978229
 40
0.3472759882
 40
0.3802439374
 40
0.4144678493
 40
0.4499104917
 40
0.4865315746
 40
0.5242880355
 40
0.5631342331
 40
0.6030221094
 40
0.6439014314
 40
0.6857199678
 40
0.7284236038
 40
0.7719564366
 40
0.8162611244
 40
0.8612787824
 40
0.906948723
 40
1.0
 40
1.0
 40
1.0
 40
1.0
 10
13.0607535467
 20
9.285513014
 30
0.0
 10
13.0620187192
 20
9.2850274139
 30
0.0
 10
13.0645456171
 20
9.2839529558
 30
0.0
 10
13.0695764385
 20
9.2814011756
 30
0.0
 10
13.0744841193
 20
9.2782782152
 30
0.0
 10
13.0792451856
 20
9.2746548019
 30
0.0
 10
13.0828393881
 20
9.2716052375
 30
0.0
 10
13.0863984924
 20
9.2682682045
 30
0.0
 10
13.089921698
 20
9.2646447652
 30
0.0
 10
13.0934077763
 20
9.2607363664
 30
0.0
 10
13.0968555287
 20
9.2565443748
 30
0.0
 10
13.1002638148
 20
9.2520703498
 30
0.0
 10
13.1036314791
 20
9.2473159092
 30
0.0
 10
13.1069573005
 20
9.2422827338
 30
0.0
 10
13.1102401712
 20
9.2369726695
 30
0.0
 10
13.1134789122
 20
9.2313876121
 30
0.0
 10
13.1166723385
 20
9.225529566
 30
0.0
 10
13.119819397
 20
9.2194006563
 30
0.0
 10
13.124015888
 20
9.2107385244
 30
0.0
 10
13.1291247796
 20
9.1992359582
 30
0.0
 10
13.1349626625
 20
9.1845923283
 30
0.0
 10
13.1405891268
 20
9.1689264239
 30
0.0
 10
13.1459959803
 20
9.152260945
 30
0.0
 10
13.1511753338
 20
9.1346197912
 30
0.0
 10
13.1561195983
 20
9.1160284745
 30
0.0
 10
13.1608215232
 20
9.0965139338
 30
0.0
 10
13.1652741847
 20
9.0761045022
 30
0.0
 10
13.1694710075
 20
9.0548298536
 30
0.0
 10
13.1734058171
 20
9.0327209686
 30
0.0
 10
13.1770728174
 20
9.0098100721
 30
0.0
 10
13.1804665941
 20
8.986130571
 30
0.0
 10
13.1835821319
 20
8.9617170134
 30
0.0
 10
13.18641485
 20
8.9366050412
 30
0.0
 10
13.1889605724
 20
8.9108313243
 30
0.0
 10
13.1912155348
 20
8.8844335004
 30
0.0
 10
13.1931764062
 20
8.8574501398
 30
0.0
 10
13.1948403114
 20
8.8299206562
 30
0.0
 10
13.1962047813
 20
8.8018852898
 30
0.0
 10
13.1972678085
 20
8.7733850305
 30
0.0
 10
13.1982873924
 20
8.7345798859
 30
0.0
 10
13.1985838083
 20
8.7052712945
 30
0.0
 10
13.1985838083
 20
8.6856126131
 30
0.0
  0
SPLINE
  5
3AB
100
AcDbEntity
  8
0
100
AcDbSpline
 62
7
  6
CONTINUOUS
 70
0
 71
3
 72
50
 73
46
 74
0
 42
0.0000001
 43
0.0000001
 44
0.0000000001
 40
0.0
 40
0.0
 40
0.0
 40
0.0
 40
0.0063158628
 40
0.0126706388
 40
0.0191024575
 40
0.0256479993
 40
0.0323418674
 40
0.039216204
 40
0.0536140195
 40
0.0611947492
 40
0.0690565012
 40
0.0772176038
 40
0.0856940071
 40
0.0944993844
 40
0.1036455057
 40
0.1131422796
 40
0.1229980214
 40
0.1332196594
 40
0.1438127402
 40
0.1547817587
 40
0.1661301165
 40
0.1778602858
 40
0.1899739713
 40
0.2024720154
 40
0.2153546703
 40
0.2422704625
 40
0.2707126998
 40
0.3006636352
 40
0.3320988302
 40
0.3649880253
 40
0.3992958242
 40
0.4349822322
 40
0.4720031
 40
0.5103105418
 40
0.5498532687
 40
0.5905768749
 40
0.6324240735
 40
0.6753349284
 40
0.7192471051
 40
0.764096031
 40
0.8098151214
 40
0.8563360409
 40
0.9035881022
 40
0.9515011825
 40
1.0
 40
1.0
 40
1.0
 40
1.0
 10
13.0764586132
 20
9.2867854964
 30
0.0
 10
13.0778225919
 20
9.2866908982
 30
0.0
 10
13.0805525064
 20
9.2863894592
 30
0.0
 10
13.0846167761
 20
9.2856037645
 30
0.0
 10
13.0886538969
 20
9.2844846359
 30
0.0
 10
13.0926614642
 20
9.2830328287
 30
0.0
 10
13.09663795
 20
9.2812493066
 30
0.0
 10
13.1019772959
 20
9.2783870942
 30
0.0
 10
13.1071716483
 20
9.2748833241
 30
0.0
 10
13.1121984426
 20
9.2708229873
 30
0.0
 10
13.1159953696
 20
9.2673996544
 30
0.0
 10
13.1197517742
 20
9.2636528356
 30
0.0
 10
13.1234666492
 20
9.2595838083
 30
0.0
 10
13.1271385609
 20
9.2551943985
 30
0.0
 10
13.13076609
 20
9.2504863357
 30
0.0
 10
13.1343478727
 20
9.2454615718
 30
0.0
 10
13.1378825297
 20
9.240122145
 30
0.0
 10
13.1413686224
 20
9.2344701954
 30
0.0
 10
13.1448048351
 20
9.2285080477
 30
0.0
 10
13.1481897371
 20
9.2222380951
 30
0.0
 10
13.1515219882
 20
9.2156628989
 30
0.0
 10
13.1548002596
 20
9.2087851403
 30
0.0
 10
13.1580231577
 20
9.2016076102
 30
0.0
 10
13.1611894618
 20
9.194133248
 30
0.0
 10
13.1653954192
 20
9.1836217248
 30
0.0
 10
13.1704884332
 20
9.1697509684
 30
0.0
 10
13.1762679914
 20
9.1522078539
 30
0.0
 10
13.1817919678
 20
9.1335601077
 30
0.0
 10
13.1870512186
 20
9.1138383277
 30
0.0
 10
13.1920370202
 20
9.0930746577
 30
0.0
 10
13.1967410769
 20
9.0713031134
 30
0.0
 10
13.201155554
 20
9.0485594066
 30
0.0
 10
13.2052731056
 20
9.0248809097
 30
0.0
 10
13.2090868719
 20
9.0003065677
 30
0.0
 10
13.2125904968
 20
8.9748768245
 30
0.0
 10
13.2157781353
 20
8.9486335548
 30
0.0
 10
13.2186444749
 20
8.9216199976
 30
0.0
 10
13.2211847451
 20
8.8938806786
 30
0.0
 10
13.2233947108
 20
8.8654613331
 30
0.0
 10
13.2252706869
 20
8.8364088221
 30
0.0
 10
13.2268095415
 20
8.8067710342
 30
0.0
 10
13.2280086917
 20
8.7765969527
 30
0.0
 10
13.2288661787
 20
8.7459361098
 30
0.0
 10
13.2293804999
 20
8.714839423
 30
0.0
 10
13.2294934373
 20
8.6939680261
 30
0.0
 10
13.2294934373
 20
8.683469023
 30
0.0
  0
SPLINE
  5
3AC
100
AcDbEntity
  8
0
100
AcDbSpline
 62
7
  6
CONTINUOUS
 70
0
 71
3
 72
42
 73
38
 74
0
 42
0.0000001
 43
0.0000001
 44
0.0000000001
 40
0.0
 40
0.0
 40
0.0
 40
0.0
 40
0.0299419634
 40
0.0449235299
 40
0.0599142017
 40
0.0899287029
 40
0.1200139772
 40
0.1350926626
 40
0.1501967046
 40
0.1804840506
 40
0.2108978877
 40
0.2414513551
 40
0.2721543675
 40
0.3030134354
 40
0.3340315696
 40
0.3652082675
 40
0.3965395775
 40
0.4280182343
 40
0.4596338596
 40
0.4913732188
 40
0.5232205284
 40
0.5551578047
 40
0.5871652463
 40
0.6192216448
 40
0.6513048151
 40
0.6833920402
 40
0.7154605222
 40
0.747487836
 40
0.7794523759
 40
0.8113337934
 40
0.8431134117
 40
0.8747746318
 40
0.9063032512
 40
0.9376879208
 40
0.9533258
 40
0.9689252634
 40
1.0
 40
1.0
 40
1.0
 40
1.0
 10
12.3454247731
 20
6.1828411818
 30
0.0
 10
12.3417916339
 20
6.1793318602
 30
0.0
 10
12.3361277665
 20
6.1742805271
 30
0.0
 10
12.3281956477
 20
6.1680129228
 30
0.0
 10
12.3200109307
 20
6.1620572039
 30
0.0
 10
12.309331221
 20
6.1552181093
 30
0.0
 10
12.2981322572
 20
6.1492358807
 30
0.0
 10
12.2888960144
 20
6.1449801174
 30
0.0
 10
12.279468978
 20
6.1410756739
 30
0.0
 10
12.2673745177
 20
6.1368772936
 30
0.0
 10
12.2524699286
 20
6.1329645085
 30
0.0
 10
12.2372401192
 20
6.1301926014
 30
0.0
 10
12.2217694906
 20
6.1285768647
 30
0.0
 10
12.2061430264
 20
6.128125921
 30
0.0
 10
12.190446708
 20
6.1288420653
 30
0.0
 10
12.1747668057
 20
6.1307211608
 30
0.0
 10
12.1591894736
 20
6.1337526979
 30
0.0
 10
12.1438002645
 20
6.137919852
 30
0.0
 10
12.1286836705
 20
6.1431995833
 30
0.0
 10
12.1139226648
 20
6.1495627661
 30
0.0
 10
12.0995982528
 20
6.1569743519
 30
0.0
 10
12.0857890341
 20
6.1653935618
 30
0.0
 10
12.0725707766
 20
6.1747741107
 30
0.0
 10
12.0600160061
 20
6.1850644598
 30
0.0
 10
12.048193613
 20
6.196208098
 30
0.0
 10
12.037168479
 20
6.2081438489
 30
0.0
 10
12.0270011242
 20
6.2208062038
 30
0.0
 10
12.0177473785
 20
6.2341256782
 30
0.0
 10
12.0094580777
 20
6.2480291847
 30
0.0
 10
12.0021787864
 20
6.2624404457
 30
0.0
 10
11.995949551
 20
6.2772803469
 30
0.0
 10
11.9908046679
 20
6.2924675863
 30
0.0
 10
11.986772559
 20
6.3079182997
 30
0.0
 10
11.98435522
 20
6.3209603769
 30
0.0
 10
11.9829991646
 20
6.3314395278
 30
0.0
 10
11.9820313812
 20
6.341908651
 30
0.0
 10
11.9817383457
 20
6.3497865957
 30
0.0
 10
11.9817383457
 20
6.355028937
 30
0.0
  0
SPLINE
  5
3AD
100
AcDbEntity
  8
0
100
AcDbSpline
 62
7
  6
CONTINUOUS
 70
0
 71
3
 72
42
 73
38
 74
0
 42
0.0000001
 43
0.0000001
 44
0.0000000001
 40
0.0
 40
0.0
 40
0.0
 40
0.0
 40
0.0299419634
 40
0.0449235299
 40
0.0599142017
 40
0.0899287029
 40
0.1200139772
 40
0.1350926626
 40
0.1501967046
 40
0.1804840506
 40
0.2108978877
 40
0.2414513551
 40
0.2721543675
 40
0.3030134354
 40
0.3340315696
 40
0.3652082675
 40
0.3965395775
 40
0.4280182343
 40
0.4596338596
 40
0.4913732188
 40
0.5232205284
 40
0.5551578047
 40
0.5871652463
 40
0.6192216448
 40
0.6513048151
 40
0.6833920402
 40
0.7154605222
 40
0.747487836
 40
0.7794523759
 40
0.8113337934
 40
0.8431134117
 40
0.8747746318
 40
0.9063032512
 40
0.9376879208
 40
0.9533258
 40
0.9689252634
 40
1.0
 40
1.0
 40
1.0
 40
1.0
 10
9.3278722717
 20
6.3921091585
 30
0.0
 10
9.3242391326
 20
6.388599837
 30
0.0
 10
9.3185752651
 20
6.3835485038
 30
0.0
 10
9.3106431463
 20
6.3772808995
 30
0.0
 10
9.3024584294
 20
6.3713251807
 30
0.0
 10
9.2917787196
 20
6.364486086
 30
0.0
 10
9.2805797559
 20
6.3585038575
 30
0.0
 10
9.2713435131
 20
6.3542480941
 30
0.0
 10
9.2619164766
 20
6.3503436506
 30
0.0
 10
9.2498220164
 20
6.3461452703
 30
0.0
 10
9.2349174273
 20
6.3422324852
 30
0.0
 10
9.2196876178
 20
6.3394605782
 30
0.0
 10
9.2042169893
 20
6.3378448415
 30
0.0
 10
9.1885905251
 20
6.3373938978
 30
0.0
 10
9.1728942066
 20
6.3381100421
 30
0.0
 10
9.1572143043
 20
6.3399891375
 30
0.0
 10
9.1416369723
 20
6.3430206747
 30
0.0
 10
9.1262477632
 20
6.3471878288
 30
0.0
 10
9.1111311692
 20
6.35246756
 30
0.0
 10
9.0963701634
 20
6.3588307429
 30
0.0
 10
9.0820457515
 20
6.3662423286
 30
0.0
 10
9.0682365328
 20
6.3746615385
 30
0.0
 10
9.0550182753
 20
6.3840420874
 30
0.0
 10
9.0424635047
 20
6.3943324365
 30
0.0
 10
9.0306411117
 20
6.4054760747
 30
0.0
 10
9.0196159777
 20
6.4174118257
 30
0.0
 10
9.0094486229
 20
6.4300741806
 30
0.0
 10
9.0001948772
 20
6.443393655
 30
0.0
 10
8.9919055763
 20
6.4572971615
 30
0.0
 10
8.984626285
 20
6.4717084225
 30
0.0
 10
8.9783970497
 20
6.4865483237
 30
0.0
 10
8.9732521666
 20
6.501735563
 30
0.0
 10
8.9692200576
 20
6.5171862764
 30
0.0
 10
8.9668027187
 20
6.5302283536
 30
0.0
 10
8.9654466633
 20
6.5407075046
 30
0.0
 10
8.9644788798
 20
6.5511766278
 30
0.0
 10
8.9641858443
 20
6.5590545725
 30
0.0
 10
8.9641858443
 20
6.5642969138
 30
0.0
  0
SPLINE
  5
3AE
100
AcDbEntity
  8
0
100
AcDbSpline
 62
7
  6
CONTINUOUS
 70
0
 71
3
 72
15
 73
11
 74
0
 42
0.0000001
 43
0.0000001
 44
0.0000000001
 40
0.0
 40
0.0
 40
0.0
 40
0.0
 40
0.1217336924
 40
0.2457247749
 40
0.3713202346
 40
0.4978562163
 40
0.6246623391
 40
0.7510669985
 40
0.8763996311
 40
1.0
 40
1.0
 40
1.0
 40
1.0
 10
12.7329426928
 20
9.3213293441
 30
0.0
 10
12.7338877849
 20
9.3273793878
 30
0.0
 10
12.7356669412
 20
9.339612084
 30
0.0
 10
12.7379860994
 20
9.3581467383
 30
0.0
 10
12.7399716965
 20
9.3769630513
 30
0.0
 10
12.7416124494
 20
9.3959546503
 30
0.0
 10
12.7428990785
 20
9.4150143126
 30
0.0
 10
12.7438243046
 20
9.4340343625
 30
0.0
 10
12.7443829498
 20
9.45290733
 30
0.0
 10
12.7445100248
 20
9.4654294177
 30
0.0
 10
12.7445100248
 20
9.4716467311
 30
0.0
  0
SPLINE
  5
3AF
100
AcDbEntity
  8
0
100
AcDbSpline
 62
7
  6
CONTINUOUS
 70
0
 71
3
 72
15
 73
11
 74
0
 42
0.0000001
 43
0.0000001
 44
0.0000000001
 40
0.0
 40
0.0
 40
0.0
 40
0.0
 40
0.1233171261
 40
0.2468171865
 40
0.3706749939
 40
0.4950495802
 40
0.6200773232
 40
0.7458671315
 40
0.872492731
 40
1.0
 40
1.0
 40
1.0
 40
1.0
 10
9.8028151955
 20
9.0932347316
 30
0.0
 10
9.8002906618
 20
9.0907962405
 30
0.0
 10
9.7949706912
 20
9.0861838148
 30
0.0
 10
9.7862879749
 20
9.0801566246
 30
0.0
 10
9.77698415
 20
9.0750757833
 30
0.0
 10
9.7671544493
 20
9.0709935128
 30
0.0
 10
9.7568980275
 20
9.0679503423
 30
0.0
 10
9.7463182032
 20
9.0659766992
 30
0.0
 10
9.7355229723
 20
9.0650917801
 30
0.0
 10
9.7282766901
 20
9.0652331216
 30
0.0
 10
9.7246562081
 20
9.0654842029
 30
0.0
  0
SPLINE
  5
3B0
100
AcDbEntity
  8
0
100
AcDbSpline
 62
7
  6
CONTINUOUS
 70
0
 71
3
 72
23
 73
19
 74
0
 42
0.0000001
 43
0.0000001
 44
0.0000000001
 40
0.0
 40
0.0
 40
0.0
 40
0.0
 40
0.0484402488
 40
0.0999399135
 40
0.1542954003
 40
0.2112817647
 40
0.2706556403
 40
0.332157758
 40
0.3955152043
 40
0.4604435135
 40
0.5266486526
 40
0.5938289423
 40
0.6616769275
 40
0.7298812502
 40
0.7981284212
 40
0.866104847
 40
0.9334981461
 40
1.0
 40
1.0
 40
1.0
 40
1.0
 10
12.7417794518
 20
9.1878960975
 30
0.0
 10
12.7433909102
 20
9.1923587816
 30
0.0
 10
12.7465398346
 20
9.2016300912
 30
0.0
 10
12.7509341179
 20
9.2160926373
 30
0.0
 10
12.7551279902
 20
9.2314838524
 30
0.0
 10
12.7591005993
 20
9.2477284733
 30
0.0
 10
12.7628322979
 20
9.2647473025
 30
0.0
 10
12.7663046218
 20
9.2824571453
 30
0.0
 10
12.7695004145
 20
9.3007713849
 30
0.0
 10
12.772403899
 20
9.3196003864
 30
0.0
 10
12.7750007554
 20
9.3388519599
 30
0.0
 10
12.7772781884
 20
9.3584318193
 30
0.0
 10
12.7792249891
 20
9.3782440532
 30
0.0
 10
12.7808315866
 20
9.3981915984
 30
0.0
 10
12.7820901001
 20
9.4181767244
 30
0.0
 10
12.7829943651
 20
9.4381015204
 30
0.0
 10
12.7835399841
 20
9.4578682962
 30
0.0
 10
12.783663894
 20
9.4709836119
 30
0.0
 10
12.783663894
 20
9.4774974624
 30
0.0
  0
SPLINE
  5
3B1
100
AcDbEntity
  8
0
100
AcDbSpline
 62
7
  6
CONTINUOUS
 70
0
 71
3
 72
15
 73
11
 74
0
 42
0.0000001
 43
0.0000001
 44
0.0000000001
 40
0.0
 40
0.0
 40
0.0
 40
0.0
 40
0.1233171261
 40
0.2468171865
 40
0.3706749939
 40
0.4950495802
 40
0.6200773232
 40
0.7458671315
 40
0.872492731
 40
1.0
 40
1.0
 40
1.0
 40
1.0
 10
11.855407698
 20
8.9508869581
 30
0.0
 10
11.8528831643
 20
8.948448467
 30
0.0
 10
11.8475631937
 20
8.9438360412
 30
0.0
 10
11.8388804774
 20
8.937808851
 30
0.0
 10
11.8295766525
 20
8.9327280098
 30
0.0
 10
11.8197469518
 20
8.9286457393
 30
0.0
 10
11.80949053
 20
8.9256025688
 30
0.0
 10
11.7989107057
 20
8.9236289257
 30
0.0
 10
11.7881154748
 20
8.9227440065
 30
0.0
 10
11.7808691926
 20
8.9228853481
 30
0.0
 10
11.7772487106
 20
8.9231364293
 30
0.0
  0
SPLINE
  5
3B2
100
AcDbEntity
  8
0
100
AcDbSpline
 62
7
  6
CONTINUOUS
 70
0
 71
3
 72
50
 73
46
 74
0
 42
0.0000001
 43
0.0000001
 44
0.0000000001
 40
0.0
 40
0.0
 40
0.0
 40
0.0
 40
0.0055377868
 40
0.0110145179
 40
0.0165018141
 40
0.0220708577
 40
0.0277894712
 40
0.033719893
 40
0.0399172446
 40
0.0464290178
 40
0.0532951853
 40
0.060548646
 40
0.0682161834
 40
0.0763189809
 40
0.0848737579
 40
0.0938930839
 40
0.1033863157
 40
0.1133598419
 40
0.1238176293
 40
0.1347615722
 40
0.1461916203
 40
0.1581062858
 40
0.1705024614
 40
0.183375992
 40
0.2105310801
 40
0.2395182235
 40
0.2702688845
 40
0.3027029218
 40
0.3367301557
 40
0.3722516266
 40
0.4091606448
 40
0.4473436896
 40
0.4866812117
 40
0.527048367
 40
0.5683157067
 40
0.610349834
 40
0.6530140407
 40
0.696168929
 40
0.7396730241
 40
0.7833834058
 40
0.8271562227
 40
0.8708475928
 40
0.9143133132
 40
0.9574117114
 40
1.0
 40
1.0
 40
1.0
 40
1.0
 10
12.7863335788
 20
9.0912778674
 30
0.0
 10
12.7870743676
 20
9.091060312
 30
0.0
 10
12.7885737307
 20
9.0907102246
 30
0.0
 10
12.7908653237
 20
9.0904540893
 30
0.0
 10
12.7931757379
 20
9.0904720467
 30
0.0
 10
12.7955013621
 20
9.0907640572
 30
0.0
 10
12.7978393637
 20
9.0913289362
 30
0.0
 10
12.8001871872
 20
9.0921653516
 30
0.0
 10
12.8025427664
 20
9.0932715856
 30
0.0
 10
12.8049042889
 20
9.0946459688
 30
0.0
 10
12.8072700541
 20
9.096286838
 30
0.0
 10
12.8096384576
 20
9.0981924272
 30
0.0
 10
12.8120077295
 20
9.1003610239
 30
0.0
 10
12.8143761958
 20
9.1027906309
 30
0.0
 10
12.8167419367
 20
9.1054792344
 30
0.0
 10
12.8191031442
 20
9.1084244887
 30
0.0
 10
12.8214578238
 20
9.1116239344
 30
0.0
 10
12.8238040413
 20
9.1150748263
 30
0.0
 10
12.826139804
 20
9.1187742196
 30
0.0
 10
12.8284630843
 20
9.1227189478
 30
0.0
 10
12.8307719275
 20
9.1269055936
 30
0.0
 10
12.8330642538
 20
9.1313305596
 30
0.0
 10
12.8353381704
 20
9.1359899878
 30
0.0
 10
12.8383973356
 20
9.1426285631
 30
0.0
 10
12.8421493689
 20
9.1514918984
 30
0.0
 10
12.8464708583
 20
9.1628117509
 30
0.0
 10
12.8506727162
 20
9.1749579569
 30
0.0
 10
12.8547400941
 20
9.1878881495
 30
0.0
 10
12.8586586022
 20
9.2015573549
 30
0.0
 10
12.8624143799
 20
9.2159178397
 30
0.0
 10
12.8659941457
 20
9.2309194038
 30
0.0
 10
12.8693852476
 20
9.2465095451
 30
0.0
 10
12.8725757073
 20
9.2626336637
 30
0.0
 10
12.8755542616
 20
9.2792352597
 30
0.0
 10
12.8783104015
 20
9.2962561381
 30
0.0
 10
12.8808344082
 20
9.3136366171
 30
0.0
 10
12.8831173858
 20
9.3313157414
 30
0.0
 10
12.8851512943
 20
9.3492314976
 30
0.0
 10
12.8869289772
 20
9.367321038
 30
0.0
 10
12.8884441802
 20
9.3855208933
 30
0.0
 10
12.8896915888
 20
9.4037672309
 30
0.0
 10
12.890666809
 20
9.4219959799
 30
0.0
 10
12.8913664597
 20
9.4401433113
 30
0.0
 10
12.8917880569
 20
9.4581453676
 30
0.0
 10
12.8918834836
 20
9.4700919381
 30
0.0
 10
12.8918834836
 20
9.4760295651
 30
0.0
  0
SPLINE
  5
3B3
100
AcDbEntity
  8
0
100
AcDbSpline
 62
7
  6
CONTINUOUS
 70
0
 71
3
 72
15
 73
11
 74
0
 42
0.0000001
 43
0.0000001
 44
0.0000000001
 40
0.0
 40
0.0
 40
0.0
 40
0.0
 40
0.1233171261
 40
0.2468171865
 40
0.3706749939
 40
0.4950495802
 40
0.6200773232
 40
0.7458671315
 40
0.872492731
 40
1.0
 40
1.0
 40
1.0
 40
1.0
 10
9.8028151955
 20
7.3420111398
 30
0.0
 10
9.8002906618
 20
7.3395726487
 30
0.0
 10
9.7949706912
 20
7.3349602229
 30
0.0
 10
9.7862879749
 20
7.3289330327
 30
0.0
 10
9.77698415
 20
7.3238521915
 30
0.0
 10
9.7671544493
 20
7.319769921
 30
0.0
 10
9.7568980275
 20
7.3167267505
 30
0.0
 10
9.7463182032
 20
7.3147531074
 30
0.0
 10
9.7355229723
 20
7.3138681882
 30
0.0
 10
9.7282766901
 20
7.3140095298
 30
0.0
 10
9.7246562081
 20
7.314260611
 30
0.0
  0
SPLINE
  5
3B4
100
AcDbEntity
  8
0
100
AcDbSpline
 62
7
  6
CONTINUOUS
 70
0
 71
3
 72
39
 73
35
 74
0
 42
0.0000001
 43
0.0000001
 44
0.0000000001
 40
0.0
 40
0.0
 40
0.0
 40
0.0
 40
0.0311445425
 40
0.0624433652
 40
0.093888256
 40
0.1254710218
 40
0.1571788766
 40
0.1889972611
 40
0.2209091725
 40
0.2528958428
 40
0.2849370253
 40
0.3170114183
 40
0.349097079
 40
0.3811718482
 40
0.4132137779
 40
0.4452015551
 40
0.4771149166
 40
0.5089350506
 40
0.5406449764
 40
0.5722298984
 40
0.6036775288
 40
0.634978368
 40
0.6661259371
 40
0.6971169555
 40
0.7279514574
 40
0.758632841
 40
0.7891678449
 40
0.819566448
 40
0.8498416915
 40
0.8800094239
 40
0.9100879689
 40
0.9400977235
 40
0.9700606966
 40
1.0
 40
1.0
 40
1.0
 40
1.0
 10
11.7772487106
 20
8.9231364293
 30
0.0
 10
11.7745952133
 20
8.92332045
 30
0.0
 10
11.7692865725
 20
8.9238836509
 30
0.0
 10
11.7613879975
 20
8.9253022745
 30
0.0
 10
11.7535739923
 20
8.9272894523
 30
0.0
 10
11.7458868362
 20
8.9298343252
 30
0.0
 10
11.7383673042
 20
8.9329233729
 30
0.0
 10
11.731055528
 20
8.9365400095
 30
0.0
 10
11.7239904544
 20
8.9406649361
 30
0.0
 10
11.7172097311
 20
8.9452761198
 30
0.0
 10
11.7107494884
 20
8.9503489616
 30
0.0
 10
11.7046441506
 20
8.9558564051
 30
0.0
 10
11.6989262509
 20
8.9617690842
 30
0.0
 10
11.6936262648
 20
8.9680554825
 30
0.0
 10
11.688772448
 20
8.9746820985
 30
0.0
 10
11.6843906882
 20
8.9816136224
 30
0.0
 10
11.680504368
 20
8.9888131219
 30
0.0
 10
11.6771342414
 20
8.9962422361
 30
0.0
 10
11.6742983232
 20
9.0038613774
 30
0.0
 10
11.6720117944
 20
9.0116299392
 30
0.0
 10
11.6702869124
 20
9.0195065083
 30
0.0
 10
11.669132949
 20
9.0274490846
 30
0.0
 10
11.6685561413
 20
9.0354153027
 30
0.0
 10
11.6685596556
 20
9.043362655
 30
0.0
 10
11.6691435669
 20
9.0512487153
 30
0.0
 10
11.6703048544
 20
9.0590313633
 30
0.0
 10
11.672037412
 20
9.0666690082
 30
0.0
 10
11.6743320771
 20
9.0741208118
 30
0.0
 10
11.6771766692
 20
9.0813469046
 30
0.0
 10
11.6805560569
 20
9.0883086192
 30
0.0
 10
11.6844521925
 20
9.0949686485
 30
0.0
 10
11.6888443934
 20
9.1012914396
 30
0.0
 10
11.693708749
 20
9.1072426851
 30
0.0
 10
11.6972506259
 20
9.1109428082
 30
0.0
 10
11.6990897232
 20
9.1127192243
 30
0.0
  0
SPLINE
  5
3B5
100
AcDbEntity
  8
0
100
AcDbSpline
 62
7
  6
CONTINUOUS
 70
0
 71
3
 72
21
 73
17
 74
0
 42
0.0000001
 43
0.0000001
 44
0.0000000001
 40
0.0
 40
0.0
 40
0.0
 40
0.0
 40
0.1273176984
 40
0.2537999461
 40
0.3167619614
 40
0.3795355204
 40
0.4421314992
 40
0.5045621453
 40
0.5668413456
 40
0.6289845231
 40
0.6910084433
 40
0.7529310869
 40
0.8147714401
 40
0.8765493236
 40
0.9382852134
 40
1.0
 40
1.0
 40
1.0
 40
1.0
 10
8.9641858443
 20
10.0648121266
 30
0.0
 10
8.9641858443
 20
10.0715569347
 30
0.0
 10
8.9648296813
 20
10.0850109741
 30
0.0
 10
8.9672612726
 20
10.1016430712
 30
0.0
 10
8.9701675397
 20
10.1146894948
 30
0.0
 10
8.9728179036
 20
10.1243125433
 30
0.0
 10
8.9759358983
 20
10.133764595
 30
0.0
 10
8.979514335
 20
10.1430241295
 30
0.0
 10
8.9835449637
 20
10.152069731
 30
0.0
 10
8.9880185716
 20
10.1608805225
 30
0.0
 10
8.9929248097
 20
10.169436194
 30
0.0
 10
8.9982523633
 20
10.177717028
 30
0.0
 10
9.0039889977
 20
10.1857038625
 30
0.0
 10
9.010121519
 20
10.193378355
 30
0.0
 10
9.0166355124
 20
10.2007225933
 30
0.0
 10
9.0212234052
 20
10.2053880859
 30
0.0
 10
9.0235749539
 20
10.2076594937
 30
0.0
  0
SPLINE
  5
3B6
100
AcDbEntity
  8
0
100
AcDbSpline
 62
7
  6
CONTINUOUS
 70
0
 71
3
 72
15
 73
11
 74
0
 42
0.0000001
 43
0.0000001
 44
0.0000000001
 40
0.0
 40
0.0
 40
0.0
 40
0.0
 40
0.1233171261
 40
0.2468171865
 40
0.3706749939
 40
0.4950495802
 40
0.6200773232
 40
0.7458671315
 40
0.872492731
 40
1.0
 40
1.0
 40
1.0
 40
1.0
 10
11.855407698
 20
7.1996633663
 30
0.0
 10
11.8528831643
 20
7.1972248752
 30
0.0
 10
11.8475631937
 20
7.1926124494
 30
0.0
 10
11.8388804774
 20
7.1865852592
 30
0.0
 10
11.8295766525
 20
7.181504418
 30
0.0
 10
11.8197469518
 20
7.1774221474
 30
0.0
 10
11.80949053
 20
7.1743789769
 30
0.0
 10
11.7989107057
 20
7.1724053339
 30
0.0
 10
11.7881154748
 20
7.1715204147
 30
0.0
 10
11.7808691926
 20
7.1716617562
 30
0.0
 10
11.7772487106
 20
7.1719128375
 30
0.0
  0
SPLINE
  5
3B7
100
AcDbEntity
  8
0
100
AcDbSpline
 62
7
  6
CONTINUOUS
 70
0
 71
3
 72
15
 73
11
 74
0
 42
0.0000001
 43
0.0000001
 44
0.0000000001
 40
0.0
 40
0.0
 40
0.0
 40
0.0
 40
0.1048231753
 40
0.2164708015
 40
0.3344695299
 40
0.4582955263
 40
0.5873813702
 40
0.7211229692
 40
0.8588829007
 40
1.0
 40
1.0
 40
1.0
 40
1.0
 10
12.7715598681
 20
9.6173274234
 30
0.0
 10
12.7725745096
 20
9.6125211712
 30
0.0
 10
12.7744736724
 20
9.6025537023
 30
0.0
 10
12.7768919067
 20
9.5870651875
 30
0.0
 10
12.7789601301
 20
9.570628261
 30
0.0
 10
12.780667129
 20
9.553328922
 30
0.0
 10
12.7820036934
 20
9.535257393
 30
0.0
 10
12.7829625711
 20
9.5165081962
 30
0.0
 10
12.7835385744
 20
9.4971794723
 30
0.0
 10
12.783663894
 20
9.4841104394
 30
0.0
 10
12.783663894
 20
9.4774974624
 30
0.0
  0
SPLINE
  5
3B8
100
AcDbEntity
  8
0
100
AcDbSpline
 62
7
  6
CONTINUOUS
 70
0
 71
3
 72
40
 73
36
 74
0
 42
0.0000001
 43
0.0000001
 44
0.0000000001
 40
0.0
 40
0.0
 40
0.0
 40
0.0
 40
0.0065611329
 40
0.0130536734
 40
0.0195204839
 40
0.0260049581
 40
0.0325501311
 40
0.0391977235
 40
0.0459873903
 40
0.0529561743
 40
0.0675553197
 40
0.0832366939
 40
0.1001807593
 40
0.1185228802
 40
0.1383608353
 40
0.1597622903
 40
0.1827712868
 40
0.2074126543
 40
0.2336960713
 40
0.2616188978
 40
0.2911679162
 40
0.3223214221
 40
0.355050209
 40
0.3893184268
 40
0.4250847406
 40
0.4623025442
 40
0.5009206518
 40
0.5408838943
 40
0.5821331011
 40
0.6246057912
 40
0.6682363703
 40
0.7129561249
 40
0.8053744856
 40
0.9012646831
 40
1.0
 40
1.0
 40
1.0
 40
1.0
 10
12.8290250123
 20
9.7068679975
 30
0.0
 10
12.8295722081
 20
9.7069491135
 30
0.0
 10
12.8306679513
 20
9.7070667029
 30
0.0
 10
12.832315152
 20
9.7071052218
 30
0.0
 10
12.8339533867
 20
9.7070046327
 30
0.0
 10
12.8355815547
 20
9.7067649645
 30
0.0
 10
12.8371987351
 20
9.7063863461
 30
0.0
 10
12.8388040173
 20
9.7058691658
 30
0.0
 10
12.8403966368
 20
9.7052138027
 30
0.0
 10
12.8425348965
 20
9.7041399391
 30
0.0
 10
12.845181831
 20
9.7024305941
 30
0.0
 10
12.8482400679
 20
9.6998681093
 30
0.0
 10
12.8512273309
 20
9.6967694716
 30
0.0
 10
12.8541399962
 20
9.6931409473
 30
0.0
 10
12.8569748292
 20
9.6889887263
 30
0.0
 10
12.8597278985
 20
9.6843197256
 30
0.0
 10
12.8623949547
 20
9.6791416659
 30
0.0
 10
12.8649716812
 20
9.6734632971
 30
0.0
 10
12.8674536939
 20
9.6672943259
 30
0.0
 10
12.8698366232
 20
9.6606454226
 30
0.0
 10
12.8721162961
 20
9.6535282203
 30
0.0
 10
12.8742886073
 20
9.6459552347
 30
0.0
 10
12.87634964
 20
9.6379398558
 30
0.0
 10
12.8782957104
 20
9.629496312
 30
0.0
 10
12.8801232615
 20
9.6206396202
 30
0.0
 10
12.8818290009
 20
9.6113855691
 30
0.0
 10
12.8834098548
 20
9.6017506764
 30
0.0
 10
12.8848629234
 20
9.5917521549
 30
0.0
 10
12.8861856071
 20
9.5814078826
 30
0.0
 10
12.8873754971
 20
9.5707363698
 30
0.0
 10
12.8884304403
 20
9.5597567005
 30
0.0
 10
12.8896680557
 20
9.5445658109
 30
0.0
 10
12.8908535481
 20
9.52495219
 30
0.0
 10
12.8916999758
 20
9.5007638221
 30
0.0
 10
12.8918834836
 20
9.484354034
 30
0.0
 10
12.8918834836
 20
9.4760295651
 30
0.0
  0
SPLINE
  5
3B9
100
AcDbEntity
  8
0
100
AcDbSpline
 62
7
  6
CONTINUOUS
 70
0
 71
3
 72
48
 73
44
 74
0
 42
0.0000001
 43
0.0000001
 44
0.0000000001
 40
0.0
 40
0.0
 40
0.0
 40
0.0
 40
0.0119134692
 40
0.0183070783
 40
0.0250247486
 40
0.032087876
 40
0.0395138758
 40
0.0473168195
 40
0.0555078093
 40
0.0640953923
 40
0.0730859718
 40
0.0824839638
 40
0.0922922469
 40
0.1025121203
 40
0.1131437513
 40
0.1241860487
 40
0.1356370274
 40
0.14749372
 40
0.1597523868
 40
0.1724085432
 40
0.1854569902
 40
0.2127062893
 40
0.24144814
 40
0.271621453
 40
0.3031581181
 40
0.3359838112
 40
0.3700186718
 40
0.4051778901
 40
0.4413722311
 40
0.4785085141
 40
0.5164900598
 40
0.5552171148
 40
0.5945872602
 40
0.6344958087
 40
0.6748361944
 40
0.71550036
 40
0.756379132
 40
0.7973626174
 40
0.8383405186
 40
0.8792027033
 40
0.9198390266
 40
0.9601410796
 40
1.0
 40
1.0
 40
1.0
 40
1.0
 10
12.7936660596
 20
8.9108252056
 30
0.0
 10
12.7960153487
 20
8.9118253172
 30
0.0
 10
12.7994918406
 20
8.9136901415
 30
0.0
 10
12.8039255925
 20
8.9167110933
 30
0.0
 10
12.8073347703
 20
8.9193759598
 30
0.0
 10
12.8107453354
 20
8.922383624
 30
0.0
 10
12.8141560134
 20
8.9257322689
 30
0.0
 10
12.8175643595
 20
8.9294194245
 30
0.0
 10
12.8209682111
 20
8.9334425308
 30
0.0
 10
12.8243652843
 20
8.9377987594
 30
0.0
 10
12.8277532243
 20
8.9424850927
 30
0.0
 10
12.8311297499
 20
8.9474982159
 30
0.0
 10
12.8344924259
 20
8.9528346443
 30
0.0
 10
12.8378389686
 20
8.9584905805
 30
0.0
 10
12.8411669273
 20
8.9644620604
 30
0.0
 10
12.8444740087
 20
8.9707448256
 30
0.0
 10
12.8477577968
 20
8.9773344346
 30
0.0
 10
12.8510159839
 20
8.9842261875
 30
0.0
 10
12.8542462136
 20
8.9914151786
 30
0.0
 10
12.8574461946
 20
8.9988962863
 30
0.0
 10
12.8617314531
 20
9.0094058021
 30
0.0
 10
12.8669840257
 20
9.0232414779
 30
0.0
 10
12.8730431935
 20
9.0406882952
 30
0.0
 10
12.8789286118
 20
9.0591611326
 30
0.0
 10
12.8846232954
 20
9.0786071498
 30
0.0
 10
12.8901107933
 20
9.0989708655
 30
0.0
 10
12.895375261
 20
9.1201940391
 30
0.0
 10
12.900401502
 20
9.1422159377
 30
0.0
 10
12.905175014
 20
9.1649734972
 30
0.0
 10
12.9096820299
 20
9.1884015177
 30
0.0
 10
12.9139095568
 20
9.2124328545
 30
0.0
 10
12.9178454127
 20
9.236998616
 30
0.0
 10
12.9214782606
 20
9.2620283643
 30
0.0
 10
12.9247976411
 20
9.28745032
 30
0.0
 10
12.9277940027
 20
9.3131915708
 30
0.0
 10
12.9304587268
 20
9.3391782822
 30
0.0
 10
12.9327841546
 20
9.365335914
 30
0.0
 10
12.9347636026
 20
9.3915894252
 30
0.0
 10
12.9363913973
 20
9.4178635236
 30
0.0
 10
12.9376628568
 20
9.4440827859
 30
0.0
 10
12.9385743718
 20
9.4701721202
 30
0.0
 10
12.9391233064
 20
9.4960564964
 30
0.0
 10
12.9392473298
 20
9.5132369211
 30
0.0
 10
12.9392473298
 20
9.52177953
 30
0.0
  0
SPLINE
  5
3BA
100
AcDbEntity
  8
0
100
AcDbSpline
 62
7
  6
CONTINUOUS
 70
0
 71
3
 72
21
 73
17
 74
0
 42
0.0000001
 43
0.0000001
 44
0.0000000001
 40
0.0
 40
0.0
 40
0.0
 40
0.0
 40
0.1273176984
 40
0.2537999461
 40
0.3167619614
 40
0.3795355204
 40
0.4421314992
 40
0.5045621453
 40
0.5668413456
 40
0.6289845231
 40
0.6910084433
 40
0.7529310869
 40
0.8147714401
 40
0.8765493236
 40
0.9382852134
 40
1.0
 40
1.0
 40
1.0
 40
1.0
 10
9.6277769325
 20
7.9362556196
 30
0.0
 10
9.6277769325
 20
7.9430004277
 30
0.0
 10
9.6284207695
 20
7.9564544671
 30
0.0
 10
9.6308523608
 20
7.9730865641
 30
0.0
 10
9.6337586279
 20
7.9861329878
 30
0.0
 10
9.6364089918
 20
7.9957560363
 30
0.0
 10
9.6395269865
 20
8.005208088
 30
0.0
 10
9.6431054232
 20
8.0144676225
 30
0.0
 10
9.6471360519
 20
8.0235132239
 30
0.0
 10
9.6516096598
 20
8.0323240155
 30
0.0
 10
9.6565158979
 20
8.040879687
 30
0.0
 10
9.6618434515
 20
8.0491605209
 30
0.0
 10
9.6675800859
 20
8.0571473555
 30
0.0
 10
9.6737126072
 20
8.064821848
 30
0.0
 10
9.6802266006
 20
8.0721660863
 30
0.0
 10
9.6848144934
 20
8.0768315789
 30
0.0
 10
9.6871660421
 20
8.0791029867
 30
0.0
  0
SPLINE
  5
3BB
100
AcDbEntity
  8
0
100
AcDbSpline
 62
7
  6
CONTINUOUS
 70
0
 71
3
 72
21
 73
17
 74
0
 42
0.0000001
 43
0.0000001
 44
0.0000000001
 40
0.0
 40
0.0
 40
0.0
 40
0.0
 40
0.1266975252
 40
0.2525125153
 40
0.315157114
 40
0.3776342862
 40
0.4399692883
 40
0.5021902541
 40
0.5643285996
 40
0.6264185947
 40
0.6884960197
 40
0.7505986189
 40
0.8127638495
 40
0.8750273891
 40
0.9374328703
 40
1.0
 40
1.0
 40
1.0
 40
1.0
 10
12.2687851882
 20
8.8836194145
 30
0.0
 10
12.2683330382
 20
8.8806579295
 30
0.0
 10
12.2670947412
 20
8.874801234
 30
0.0
 10
12.2646924356
 20
8.8677267135
 30
0.0
 10
12.2622703266
 20
8.8623064511
 30
0.0
 10
12.2602093445
 20
8.8583787821
 30
0.0
 10
12.2579059033
 20
8.8545999749
 30
0.0
 10
12.2553655037
 20
8.8509858547
 30
0.0
 10
12.252595037
 20
8.8475522618
 30
0.0
 10
12.2496026998
 20
8.8443147088
 30
0.0
 10
12.2463982156
 20
8.8412881231
 30
0.0
 10
12.2429927491
 20
8.8384867072
 30
0.0
 10
12.239398895
 20
8.8359238248
 30
0.0
 10
12.2356304257
 20
8.8336115193
 30
0.0
 10
12.2317028843
 20
8.8315609669
 30
0.0
 10
12.2289928136
 20
8.8303760799
 30
0.0
 10
12.2276177693
 20
8.8298302459
 30
0.0
  0
SPLINE
  5
3BC
100
AcDbEntity
  8
0
100
AcDbSpline
 62
7
  6
CONTINUOUS
 70
0
 71
3
 72
47
 73
43
 74
0
 42
0.0000001
 43
0.0000001
 44
0.0000000001
 40
0.0
 40
0.0
 40
0.0
 40
0.0
 40
0.0315534235
 40
0.0629016276
 40
0.0940485352
 40
0.1250045356
 40
0.1557874792
 40
0.1711253984
 40
0.1864291041
 40
0.2017022121
 40
0.2169483662
 40
0.2321714119
 40
0.247375235
 40
0.2625636836
 40
0.2777407137
 40
0.2929100741
 40
0.3080755908
 40
0.338402671
 40
0.3687566435
 40
0.3839548124
 40
0.399168821
 40
0.4296492835
 40
0.4602237533
 40
0.4909089047
 40
0.5217185731
 40
0.55266383
 40
0.5837530629
 40
0.6149920435
 40
0.6463839688
 40
0.6779294698
 40
0.7096265801
 40
0.7255331178
 40
0.7414756026
 40
0.7734592657
 40
0.8055722065
 40
0.8216757474
 40
0.8378063616
 40
0.8701346916
 40
0.9025427209
 40
0.9350074626
 40
0.967502834
 40
1.0
 40
1.0
 40
1.0
 40
1.0
 10
11.8651666697
 20
7.8074589737
 30
0.0
 10
11.8658472417
 20
7.8018689618
 30
0.0
 10
11.8666873675
 20
7.7906550558
 30
0.0
 10
11.8663629976
 20
7.773849754
 30
0.0
 10
11.864464403
 20
7.7572545014
 30
0.0
 10
11.8610254365
 20
7.7410132896
 30
0.0
 10
11.856912818
 20
7.7278634704
 30
0.0
 10
11.8529123651
 20
7.7176536447
 30
0.0
 10
11.8495698644
 20
7.7101686374
 30
0.0
 10
11.8458923518
 20
7.7028610035
 30
0.0
 10
11.8418903644
 20
7.6957424101
 30
0.0
 10
11.8375751416
 20
7.6888238676
 30
0.0
 10
11.8329581596
 20
7.6821155041
 30
0.0
 10
11.828051115
 20
7.6756266614
 30
0.0
 10
11.822866071
 20
7.6693658355
 30
0.0
 10
11.8174148501
 20
7.6633407638
 30
0.0
 10
11.8098092094
 20
7.6556321529
 30
0.0
 10
11.799691312
 20
7.6466140514
 30
0.0
 10
11.7888524278
 20
7.6384688373
 30
0.0
 10
11.7797989017
 20
7.6324939054
 30
0.0
 10
11.7704928858
 20
7.6268766163
 30
0.0
 10
11.7584269151
 20
7.6205437132
 30
0.0
 10
11.7433675108
 20
7.6140787267
 30
0.0
 10
11.7278043229
 20
7.6087593633
 30
0.0
 10
11.7118241463
 20
7.6045997582
 30
0.0
 10
11.6955113642
 20
7.6016104819
 30
0.0
 10
11.6789493608
 20
7.5997996585
 30
0.0
 10
11.6622209262
 20
7.5991731439
 30
0.0
 10
11.6454087477
 20
7.5997347882
 30
0.0
 10
11.628596872
 20
7.6014862302
 30
0.0
 10
11.6146722061
 20
7.6039344454
 30
0.0
 10
11.603619434
 20
7.6064838545
 30
0.0
 10
11.592613761
 20
7.6094338831
 30
0.0
 10
11.5790195594
 20
7.6138616308
 30
0.0
 10
11.5657473265
 20
7.6192548268
 30
0.0
 10
11.5553542881
 20
7.6241452021
 30
0.0
 10
11.5451106807
 20
7.6294256265
 30
0.0
 10
11.5326509219
 20
7.63673654
 30
0.0
 10
11.5183665653
 20
7.6466073528
 30
0.0
 10
11.5048428092
 20
7.6575467536
 30
0.0
 10
11.4921904912
 20
7.6695057493
 30
0.0
 10
11.4844055085
 20
7.6781239636
 30
0.0
 10
11.4806949462
 20
7.6825813666
 30
0.0
  0
SPLINE
  5
3BD
100
AcDbEntity
  8
0
100
AcDbSpline
 62
7
  6
CONTINUOUS
 70
0
 71
3
 72
24
 73
20
 74
0
 42
0.0000001
 43
0.0000001
 44
0.0000000001
 40
0.0
 40
0.0
 40
0.0
 40
0.0
 40
0.0620109565
 40
0.1239239652
 40
0.1857745467
 40
0.2475996507
 40
0.2785190218
 40
0.3094461898
 40
0.3713336569
 40
0.4333084717
 40
0.4954065707
 40
0.5576618865
 40
0.6201056698
 40
0.6827659085
 40
0.7456666511
 40
0.8088279364
 40
0.8722642894
 40
0.935987258
 40
1.0
 40
1.0
 40
1.0
 40
1.0
 10
10.925805466
 20
8.7326024694
 30
0.0
 10
10.9234883048
 20
8.7288395232
 30
0.0
 10
10.9186022894
 20
8.7214733578
 30
0.0
 10
10.910545789
 20
8.7109554492
 30
0.0
 10
10.9017984588
 20
8.7010217836
 30
0.0
 10
10.8939609293
 20
8.6932656912
 30
0.0
 10
10.8873837217
 20
8.6873969312
 30
0.0
 10
10.8806049282
 20
8.6817552786
 30
0.0
 10
10.8717649112
 20
8.6751411952
 30
0.0
 10
10.8606228636
 20
8.6679473455
 30
0.0
 10
10.8489882308
 20
8.661525813
 30
0.0
 10
10.8369091376
 20
8.6559059589
 30
0.0
 10
10.8244356624
 20
8.6511134606
 30
0.0
 10
10.8116201132
 20
8.6471705318
 30
0.0
 10
10.7985166166
 20
8.6440955823
 30
0.0
 10
10.7851810072
 20
8.6419031863
 30
0.0
 10
10.7716700826
 20
8.64060376
 30
0.0
 10
10.7580427252
 20
8.6402037116
 30
0.0
 10
10.7489381154
 20
8.6405373201
 30
0.0
 10
10.7443872274
 20
8.6408529253
 30
0.0
  0
SPLINE
  5
3BE
100
AcDbEntity
  8
0
100
AcDbSpline
 62
7
  6
CONTINUOUS
 70
0
 71
3
 72
35
 73
31
 74
0
 42
0.0000001
 43
0.0000001
 44
0.0000000001
 40
0.0
 40
0.0
 40
0.0
 40
0.0
 40
0.0136138931
 40
0.0281140749
 40
0.0436216577
 40
0.0602309694
 40
0.0780133423
 40
0.0970212663
 40
0.1172917927
 40
0.1388491393
 40
0.1617072664
 40
0.1858713618
 40
0.2113393134
 40
0.2381029527
 40
0.2661485835
 40
0.295457984
 40
0.326008813
 40
0.3577749554
 40
0.3907271674
 40
0.4248330754
 40
0.4600576208
 40
0.4963633203
 40
0.533710239
 40
0.5720564473
 40
0.6113579861
 40
0.6515690424
 40
0.7345268698
 40
0.8205339171
 40
0.9091700848
 40
1.0
 40
1.0
 40
1.0
 40
1.0
 10
12.8611990051
 20
9.8845793806
 30
0.0
 10
12.8626760894
 20
9.8836919098
 30
0.0
 10
12.8656167466
 20
9.8816722318
 30
0.0
 10
12.8698219825
 20
9.878081548
 30
0.0
 10
12.8739444957
 20
9.8738496427
 30
0.0
 10
12.8779796225
 20
9.8689830925
 30
0.0
 10
12.881923751
 20
9.8634882053
 30
0.0
 10
12.8857725315
 20
9.8573720061
 30
0.0
 10
12.8895214807
 20
9.8506422131
 30
0.0
 10
12.8931660667
 20
9.8433074401
 30
0.0
 10
12.8967016199
 20
9.8353771089
 30
0.0
 10
12.9001235709
 20
9.8268615368
 30
0.0
 10
12.9034274343
 20
9.8177718818
 30
0.0
 10
12.9066087608
 20
9.8081201101
 30
0.0
 10
12.9096633373
 20
9.7979190123
 30
0.0
 10
12.9125870304
 20
9.7871821372
 30
0.0
 10
12.9153758812
 20
9.7759237874
 30
0.0
 10
12.9180261588
 20
9.7641589955
 30
0.0
 10
12.9205342336
 20
9.751903486
 30
0.0
 10
12.9228967347
 20
9.7391736652
 30
0.0
 10
12.9251104677
 20
9.7259865863
 30
0.0
 10
12.9271724013
 20
9.7123599263
 30
0.0
 10
12.9290797834
 20
9.6983119621
 30
0.0
 10
12.9308299965
 20
9.6838615493
 30
0.0
 10
12.9324206982
 20
9.6690280638
 30
0.0
 10
12.9343459849
 20
9.6485530699
 30
0.0
 10
12.9363256718
 20
9.6221477459
 30
0.0
 10
12.9380131296
 20
9.5895827507
 30
0.0
 10
12.9390268328
 20
9.5559931753
 30
0.0
 10
12.9392473298
 20
9.5332764005
 30
0.0
 10
12.9392473298
 20
9.52177953
 30
0.0
  0
SPLINE
  5
3BF
100
AcDbEntity
  8
0
100
AcDbSpline
 62
7
  6
CONTINUOUS
 70
0
 71
3
 72
40
 73
36
 74
0
 42
0.0000001
 43
0.0000001
 44
0.0000000001
 40
0.0
 40
0.0
 40
0.0
 40
0.0
 40
0.0063160317
 40
0.0126709803
 40
0.0191029757
 40
0.0256486833
 40
0.0323427436
 40
0.0392172655
 40
0.0536154772
 40
0.0690526586
 40
0.0856860581
 40
0.1036344402
 40
0.1229845836
 40
0.1437975252
 40
0.1661136309
 40
0.1899565788
 40
0.215336668
 40
0.2422532113
 40
0.2706962166
 40
0.3006479298
 40
0.3320839776
 40
0.3649740847
 40
0.3992827974
 40
0.4349701487
 40
0.4719920266
 40
0.5103004985
 40
0.5498442818
 40
0.5905689983
 40
0.6324173162
 40
0.6753293134
 40
0.7192426811
 40
0.7640927959
 40
0.8098131949
 40
0.9035868196
 40
1.0
 40
1.0
 40
1.0
 40
1.0
 10
12.8768569302
 20
9.8874571275
 30
0.0
 10
12.8776885007
 20
9.8873994542
 30
0.0
 10
12.8793528365
 20
9.887215691
 30
0.0
 10
12.881830681
 20
9.8867366688
 30
0.0
 10
12.884291966
 20
9.8860543598
 30
0.0
 10
12.8867352594
 20
9.8851692724
 30
0.0
 10
12.8891595517
 20
9.8840819022
 30
0.0
 10
12.8924148829
 20
9.8823368576
 30
0.0
 10
12.8964430475
 20
9.8796196136
 30
0.0
 10
12.9011022859
 20
9.8756142814
 30
0.0
 10
12.9056577117
 20
9.8708233305
 30
0.0
 10
12.9101040508
 20
9.8652556399
 30
0.0
 10
12.9144365205
 20
9.858919941
 30
0.0
 10
12.9186494047
 20
9.8518259813
 30
0.0
 10
12.9227367218
 20
9.8439846551
 30
0.0
 10
12.9266923268
 20
9.8354081941
 30
0.0
 10
12.9305100183
 20
9.8261101256
 30
0.0
 10
12.9341836456
 20
9.8161052757
 30
0.0
 10
12.9377072458
 20
9.8054097583
 30
0.0
 10
12.9410750308
 20
9.7940409034
 30
0.0
 10
12.9442814119
 20
9.7820172078
 30
0.0
 10
12.9473210742
 20
9.7693583136
 30
0.0
 10
12.9501889782
 20
9.7560849566
 30
0.0
 10
12.9528803374
 20
9.7422189085
 30
0.0
 10
12.95539066
 20
9.7277829478
 30
0.0
 10
12.9577157818
 20
9.7128008214
 30
0.0
 10
12.9598518243
 20
9.6972971867
 30
0.0
 10
12.9617952112
 20
9.6812975725
 30
0.0
 10
12.9635427196
 20
9.6648283425
 30
0.0
 10
12.9650914417
 20
9.6479166407
 30
0.0
 10
12.966438773
 20
9.6305903552
 30
0.0
 10
12.9675825041
 20
9.6128780221
 30
0.0
 10
12.9688439669
 20
9.5885810944
 30
0.0
 10
12.9698873811
 20
9.5574613129
 30
0.0
 10
12.9701569588
 20
9.5323602188
 30
0.0
 10
12.9701569588
 20
9.51963594
 30
0.0
  0
SPLINE
  5
3C0
100
AcDbEntity
  8
0
100
AcDbSpline
 62
7
  6
CONTINUOUS
 70
0
 71
3
 72
34
 73
30
 74
0
 42
0.0000001
 43
0.0000001
 44
0.0000000001
 40
0.0
 40
0.0
 40
0.0
 40
0.0
 40
0.0649702052
 40
0.0973588786
 40
0.1296574782
 40
0.1618568564
 40
0.1939498223
 40
0.2259307902
 40
0.2577952822
 40
0.3211389494
 40
0.3839932356
 40
0.4152505413
 40
0.4463889812
 40
0.5082968124
 40
0.5697882594
 40
0.6004171615
 40
0.6309736051
 40
0.6614729175
 40
0.6919332915
 40
0.7223756932
 40
0.7528241074
 40
0.7833053737
 40
0.8138485942
 40
0.8444841823
 40
0.8752424348
 40
0.9061518312
 40
0.9372368014
 40
0.9685159835
 40
1.0
 40
1.0
 40
1.0
 40
1.0
 10
9.2383492203
 20
7.482612799
 30
0.0
 10
9.2360135283
 20
7.4860165982
 30
0.0
 10
9.2328364375
 20
7.4913491144
 30
0.0
 10
9.2292787303
 20
7.4987829248
 30
0.0
 10
9.2269524664
 20
7.504486705
 30
0.0
 10
9.2249669176
 20
7.5102973671
 30
0.0
 10
9.2233212234
 20
7.516192287
 30
0.0
 10
9.2220147071
 20
7.5221498256
 30
0.0
 10
9.2207266564
 20
7.5301314591
 30
0.0
 10
9.2199552192
 20
7.5401669665
 30
0.0
 10
9.220306761
 20
7.550187888
 30
0.0
 10
9.2212661998
 20
7.5580920091
 30
0.0
 10
9.2226715385
 20
7.565867939
 30
0.0
 10
9.2252718714
 20
7.5753624688
 30
0.0
 10
9.2290199102
 20
7.5844345574
 30
0.0
 10
9.2326995348
 20
7.5913118654
 30
0.0
 10
9.235796316
 20
7.5962518794
 30
0.0
 10
9.239230927
 20
7.6009502212
 30
0.0
 10
9.2429995766
 20
7.605376207
 30
0.0
 10
9.2470959146
 20
7.6094968342
 30
0.0
 10
9.2515104587
 20
7.6132773695
 30
0.0
 10
9.256229761
 20
7.6166816617
 30
0.0
 10
9.2612355765
 20
7.6196728703
 30
0.0
 10
9.2665040657
 20
7.6222144835
 30
0.0
 10
9.2720052072
 20
7.6242717202
 30
0.0
 10
9.2777024548
 20
7.6258131986
 30
0.0
 10
9.2835532619
 20
7.6268128189
 30
0.0
 10
9.289508786
 20
7.6272516047
 30
0.0
 10
9.2935028169
 20
7.6271634918
 30
0.0
 10
9.2954984719
 20
7.6270250927
 30
0.0
  0
SPLINE
  5
3C1
100
AcDbEntity
  8
0
100
AcDbSpline
 62
7
  6
CONTINUOUS
 70
0
 71
3
 72
42
 73
38
 74
0
 42
0.0000001
 43
0.0000001
 44
0.0000000001
 40
0.0
 40
0.0
 40
0.0
 40
0.0
 40
0.0299419634
 40
0.0449235299
 40
0.0599142017
 40
0.0899287029
 40
0.1200139772
 40
0.1350926626
 40
0.1501967046
 40
0.1804840506
 40
0.2108978877
 40
0.2414513551
 40
0.2721543675
 40
0.3030134354
 40
0.3340315696
 40
0.3652082675
 40
0.3965395775
 40
0.4280182343
 40
0.4596338596
 40
0.4913732188
 40
0.5232205284
 40
0.5551578047
 40
0.5871652463
 40
0.6192216448
 40
0.6513048151
 40
0.6833920402
 40
0.7154605222
 40
0.747487836
 40
0.7794523759
 40
0.8113337934
 40
0.8431134117
 40
0.8747746318
 40
0.9063032512
 40
0.9376879208
 40
0.9533258
 40
0.9689252634
 40
1.0
 40
1.0
 40
1.0
 40
1.0
 10
10.5043700216
 20
8.1515733988
 30
0.0
 10
10.5007368824
 20
8.1480640772
 30
0.0
 10
10.495073015
 20
8.1430127441
 30
0.0
 10
10.4871408962
 20
8.1367451398
 30
0.0
 10
10.4789561792
 20
8.130789421
 30
0.0
 10
10.4682764695
 20
8.1239503263
 30
0.0
 10
10.4570775057
 20
8.1179680977
 30
0.0
 10
10.4478412629
 20
8.1137123344
 30
0.0
 10
10.4384142265
 20
8.1098078909
 30
0.0
 10
10.4263197662
 20
8.1056095106
 30
0.0
 10
10.4114151771
 20
8.1016967255
 30
0.0
 10
10.3961853677
 20
8.0989248184
 30
0.0
 10
10.3807147391
 20
8.0973090817
 30
0.0
 10
10.3650882749
 20
8.096858138
 30
0.0
 10
10.3493919565
 20
8.0975742823
 30
0.0
 10
10.3337120542
 20
8.0994533778
 30
0.0
 10
10.3181347221
 20
8.1024849149
 30
0.0
 10
10.302745513
 20
8.1066520691
 30
0.0
 10
10.287628919
 20
8.1119318003
 30
0.0
 10
10.2728679133
 20
8.1182949832
 30
0.0
 10
10.2585435013
 20
8.1257065689
 30
0.0
 10
10.2447342827
 20
8.1341257788
 30
0.0
 10
10.2315160251
 20
8.1435063277
 30
0.0
 10
10.2189612546
 20
8.1537966768
 30
0.0
 10
10.2071388615
 20
8.164940315
 30
0.0
 10
10.1961137275
 20
8.1768760659
 30
0.0
 10
10.1859463727
 20
8.1895384209
 30
0.0
 10
10.176692627
 20
8.2028578953
 30
0.0
 10
10.1684033262
 20
8.2167614017
 30
0.0
 10
10.1611240349
 20
8.2311726627
 30
0.0
 10
10.1548947995
 20
8.2460125639
 30
0.0
 10
10.1497499164
 20
8.2611998033
 30
0.0
 10
10.1457178075
 20
8.2766505167
 30
0.0
 10
10.1433004685
 20
8.2896925939
 30
0.0
 10
10.1419444131
 20
8.3001717448
 30
0.0
 10
10.1409766297
 20
8.3106408681
 30
0.0
 10
10.1406835942
 20
8.3185188128
 30
0.0
 10
10.1406835942
 20
8.323761154
 30
0.0
  0
SPLINE
  5
3C2
100
AcDbEntity
  8
0
100
AcDbSpline
 62
7
  6
CONTINUOUS
 70
0
 71
3
 72
17
 73
13
 74
0
 42
0.0000001
 43
0.0000001
 44
0.0000000001
 40
0.0
 40
0.0
 40
0.0
 40
0.0
 40
0.1261728123
 40
0.2521689974
 40
0.3779035912
 40
0.4406564972
 40
0.5033132022
 40
0.6282793035
 40
0.7527507902
 40
0.8147909668
 40
0.8766875853
 40
1.0
 40
1.0
 40
1.0
 40
1.0
 10
11.820156519
 20
7.9093875311
 30
0.0
 10
11.8231956241
 20
7.9057367324
 30
0.0
 10
11.8290297799
 20
7.8982364361
 30
0.0
 10
11.8369919426
 20
7.8864331411
 30
0.0
 10
11.8429255613
 20
7.8761752359
 30
0.0
 10
11.8472215132
 20
7.8677504112
 30
0.0
 10
11.8512030958
 20
7.8592044132
 30
0.0
 10
11.8555892983
 20
7.8482921965
 30
0.0
 10
11.85915959
 20
7.8371103974
 30
0.0
 10
11.8615034654
 20
7.8280546135
 30
0.0
 10
11.8634975466
 20
7.8189606047
 30
0.0
 10
11.8646055958
 20
7.8120674646
 30
0.0
 10
11.8651666697
 20
7.8074589737
 30
0.0
  0
SPLINE
  5
3C3
100
AcDbEntity
  8
0
100
AcDbSpline
 62
7
  6
CONTINUOUS
 70
0
 71
3
 72
42
 73
38
 74
0
 42
0.0000001
 43
0.0000001
 44
0.0000000001
 40
0.0
 40
0.0
 40
0.0
 40
0.0
 40
0.0299419634
 40
0.0449235299
 40
0.0599142017
 40
0.0899287029
 40
0.1200139772
 40
0.1350926626
 40
0.1501967046
 40
0.1804840506
 40
0.2108978877
 40
0.2414513551
 40
0.2721543675
 40
0.3030134354
 40
0.3340315696
 40
0.3652082675
 40
0.3965395775
 40
0.4280182343
 40
0.4596338596
 40
0.4913732188
 40
0.5232205284
 40
0.5551578047
 40
0.5871652463
 40
0.6192216448
 40
0.6513048151
 40
0.6833920402
 40
0.7154605222
 40
0.747487836
 40
0.7794523759
 40
0.8113337934
 40
0.8431134117
 40
0.8747746318
 40
0.9063032512
 40
0.9376879208
 40
0.9533258
 40
0.9689252634
 40
1.0
 40
1.0
 40
1.0
 40
1.0
 10
9.9914633599
 20
7.7640678643
 30
0.0
 10
9.9878302208
 20
7.7605585428
 30
0.0
 10
9.9821663533
 20
7.7555072096
 30
0.0
 10
9.9742342345
 20
7.7492396053
 30
0.0
 10
9.9660495176
 20
7.7432838865
 30
0.0
 10
9.9553698078
 20
7.7364447918
 30
0.0
 10
9.9441708441
 20
7.7304625633
 30
0.0
 10
9.9349346013
 20
7.7262067999
 30
0.0
 10
9.9255075648
 20
7.7223023564
 30
0.0
 10
9.9134131045
 20
7.7181039761
 30
0.0
 10
9.8985085155
 20
7.714191191
 30
0.0
 10
9.883278706
 20
7.711419284
 30
0.0
 10
9.8678080775
 20
7.7098035473
 30
0.0
 10
9.8521816133
 20
7.7093526036
 30
0.0
 10
9.8364852948
 20
7.7100687479
 30
0.0
 10
9.8208053925
 20
7.7119478433
 30
0.0
 10
9.8052280605
 20
7.7149793805
 30
0.0
 10
9.7898388514
 20
7.7191465346
 30
0.0
 10
9.7747222574
 20
7.7244262658
 30
0.0
 10
9.7599612516
 20
7.7307894487
 30
0.0
 10
9.7456368397
 20
7.7382010344
 30
0.0
 10
9.731827621
 20
7.7466202443
 30
0.0
 10
9.7186093635
 20
7.7560007932
 30
0.0
 10
9.7060545929
 20
7.7662911423
 30
0.0
 10
9.6942321999
 20
7.7774347805
 30
0.0
 10
9.6832070659
 20
7.7893705315
 30
0.0
 10
9.673039711
 20
7.8020328864
 30
0.0
 10
9.6637859654
 20
7.8153523608
 30
0.0
 10
9.6554966645
 20
7.8292558673
 30
0.0
 10
9.6482173732
 20
7.8436671283
 30
0.0
 10
9.6419881379
 20
7.8585070295
 30
0.0
 10
9.6368432548
 20
7.8736942688
 30
0.0
 10
9.6328111458
 20
7.8891449822
 30
0.0
 10
9.6303938069
 20
7.9021870594
 30
0.0
 10
9.6290377515
 20
7.9126662104
 30
0.0
 10
9.628069968
 20
7.9231353336
 30
0.0
 10
9.6277769325
 20
7.9310132783
 30
0.0
 10
9.6277769325
 20
7.9362556196
 30
0.0
  0
SPLINE
  5
3C4
100
AcDbEntity
  8
0
100
AcDbSpline
 62
4
  6
CONTINUOUS
 70
0
 71
3
 72
317
 73
313
 74
0
 42
0.0000001
 43
0.0000001
 44
0.0000000001
 40
0.0
 40
0.0
 40
0.0
 40
0.0
 40
0.015625
 40
0.0234375
 40
0.03125
 40
0.0390625
 40
0.04296875
 40
0.046875
 40
0.05078125
 40
0.0546875
 40
0.056640625
 40
0.05859375
 40
0.0595703125
 40
0.060546875
 40
0.0615234375
 40
0.0620117188
 40
0.0622558594
 40
0.0625
 40
0.0627441406
 40
0.0629882812
 40
0.0634765625
 40
0.064453125
 40
0.0654296875
 40
0.06640625
 40
0.068359375
 40
0.0703125
 40
0.07421875
 40
0.078125
 40
0.08203125
 40
0.0859375
 40
0.09375
 40
0.1015625
 40
0.10546875
 40
0.109375
 40
0.11328125
 40
0.1171875
 40
0.119140625
 40
0.12109375
 40
0.1220703125
 40
0.123046875
 40
0.1240234375
 40
0.1245117188
 40
0.1247558594
 40
0.125
 40
0.1252441406
 40
0.1254882812
 40
0.1259765625
 40
0.126953125
 40
0.1279296875
 40
0.12890625
 40
0.130859375
 40
0.1328125
 40
0.13671875
 40
0.140625
 40
0.14453125
 40
0.1484375
 40
0.15625
 40
0.1640625
 40
0.16796875
 40
0.171875
 40
0.17578125
 40
0.1796875
 40
0.181640625
 40
0.18359375
 40
0.1845703125
 40
0.185546875
 40
0.1865234375
 40
0.1870117188
 40
0.1872558594
 40
0.1875
 40
0.1877441406
 40
0.1879882812
 40
0.1884765625
 40
0.189453125
 40
0.1904296875
 40
0.19140625
 40
0.193359375
 40
0.1953125
 40
0.19921875
 40
0.203125
 40
0.20703125
 40
0.2109375
 40
0.21875
 40
0.2265625
 40
0.234375
 40
0.23828125
 40
0.2421875
 40
0.244140625
 40
0.24609375
 40
0.248046875
 40
0.2490234375
 40
0.2495117188
 40
0.25
 40
0.2504882812
 40
0.2509765625
 40
0.251953125
 40
0.25390625
 40
0.255859375
 40
0.2578125
 40
0.26171875
 40
0.265625
 40
0.2734375
 40
0.28125
 40
0.2890625
 40
0.296875
 40
0.30078125
 40
0.3046875
 40
0.306640625
 40
0.30859375
 40
0.310546875
 40
0.3115234375
 40
0.3120117188
 40
0.3125
 40
0.3129882812
 40
0.3134765625
 40
0.314453125
 40
0.31640625
 40
0.318359375
 40
0.3203125
 40
0.32421875
 40
0.328125
 40
0.3359375
 40
0.34375
 40
0.3515625
 40
0.359375
 40
0.36328125
 40
0.3671875
 40
0.369140625
 40
0.37109375
 40
0.373046875
 40
0.3740234375
 40
0.3745117188
 40
0.375
 40
0.3754882812
 40
0.3759765625
 40
0.376953125
 40
0.37890625
 40
0.380859375
 40
0.3828125
 40
0.38671875
 40
0.390625
 40
0.3984375
 40
0.40625
 40
0.4140625
 40
0.421875
 40
0.42578125
 40
0.4296875
 40
0.431640625
 40
0.43359375
 40
0.435546875
 40
0.4365234375
 40
0.4370117188
 40
0.4375
 40
0.4379882812
 40
0.4384765625
 40
0.439453125
 40
0.44140625
 40
0.443359375
 40
0.4453125
 40
0.44921875
 40
0.453125
 40
0.4609375
 40
0.46875
 40
0.4765625
 40
0.484375
 40
0.48828125
 40
0.4921875
 40
0.49609375
 40
0.498046875
 40
0.4990234375
 40
0.5
 40
0.5009765625
 40
0.501953125
 40
0.50390625
 40
0.5078125
 40
0.51171875
 40
0.515625
 40
0.5234375
 40
0.53125
 40
0.5390625
 40
0.546875
 40
0.55078125
 40
0.5546875
 40
0.55859375
 40
0.560546875
 40
0.5615234375
 40
0.5625
 40
0.5634765625
 40
0.564453125
 40
0.56640625
 40
0.5703125
 40
0.57421875
 40
0.578125
 40
0.5859375
 40
0.59375
 40
0.6015625
 40
0.609375
 40
0.61328125
 40
0.6171875
 40
0.62109375
 40
0.623046875
 40
0.6240234375
 40
0.625
 40
0.6259765625
 40
0.626953125
 40
0.62890625
 40
0.6328125
 40
0.63671875
 40
0.640625
 40
0.6484375
 40
0.65625
 40
0.6640625
 40
0.671875
 40
0.67578125
 40
0.6796875
 40
0.68359375
 40
0.685546875
 40
0.6865234375
 40
0.6875
 40
0.6884765625
 40
0.689453125
 40
0.69140625
 40
0.6953125
 40
0.69921875
 40
0.703125
 40
0.7109375
 40
0.71875
 40
0.7265625
 40
0.734375
 40
0.73828125
 40
0.7421875
 40
0.744140625
 40
0.74609375
 40
0.748046875
 40
0.7490234375
 40
0.7495117188
 40
0.75
 40
0.7504882812
 40
0.7509765625
 40
0.751953125
 40
0.75390625
 40
0.755859375
 40
0.7578125
 40
0.76171875
 40
0.765625
 40
0.7734375
 40
0.78125
 40
0.7890625
 40
0.796875
 40
0.80078125
 40
0.8046875
 40
0.806640625
 40
0.80859375
 40
0.810546875
 40
0.8115234375
 40
0.8120117188
 40
0.8125
 40
0.8129882812
 40
0.8134765625
 40
0.814453125
 40
0.81640625
 40
0.818359375
 40
0.8203125
 40
0.82421875
 40
0.828125
 40
0.8359375
 40
0.84375
 40
0.8515625
 40
0.859375
 40
0.86328125
 40
0.8671875
 40
0.869140625
 40
0.87109375
 40
0.873046875
 40
0.8740234375
 40
0.8745117188
 40
0.875
 40
0.8754882812
 40
0.8759765625
 40
0.876953125
 40
0.87890625
 40
0.880859375
 40
0.8828125
 40
0.88671875
 40
0.890625
 40
0.8984375
 40
0.90625
 40
0.9140625
 40
0.91796875
 40
0.921875
 40
0.92578125
 40
0.9296875
 40
0.931640625
 40
0.93359375
 40
0.935546875
 40
0.9365234375
 40
0.9370117188
 40
0.9375
 40
0.9379882812
 40
0.9384765625
 40
0.939453125
 40
0.94140625
 40
0.943359375
 40
0.9453125
 40
0.94921875
 40
0.953125
 40
0.95703125
 40
0.9609375
 40
0.96875
 40
0.9765625
 40
0.984375
 40
1.0
 40
1.0
 40
1.0
 40
1.0
 10
9.844608805
 20
10.5273109759
 30
0.0
 10
9.8439877621
 20
10.5263400374
 30
0.0
 10
9.8430561977
 20
10.5248836297
 30
0.0
 10
9.8418141118
 20
10.5229417527
 30
0.0
 10
9.8408825475
 20
10.5214853449
 30
0.0
 10
9.8401062436
 20
10.5202716718
 30
0.0
 10
9.8394852011
 20
10.5193007333
 30
0.0
 10
9.8390194177
 20
10.5185725294
 30
0.0
 10
9.83855364
 20
10.5178443255
 30
0.0
 10
9.8381654741
 20
10.5172374892
 30
0.0
 10
9.8378549814
 20
10.5167520194
 30
0.0
 10
9.8376608324
 20
10.5164486024
 30
0.0
 10
9.8375057216
 20
10.5162058652
 30
0.0
 10
9.8373888179
 20
10.5160238221
 30
0.0
 10
9.8372932135
 20
10.5158720883
 30
0.0
 10
9.8372227278
 20
10.5157659359
 30
0.0
 10
9.837188013
 20
10.5157051818
 30
0.0
 10
9.8371463065
 20
10.5156598855
 30
0.0
 10
9.8371645003
 20
10.5156135596
 30
0.0
 10
9.8371678649
 20
10.5155521508
 30
0.0
 10
9.8371834878
 20
10.5154445182
 30
0.0
 10
9.8372007166
 20
10.5152908447
 30
0.0
 10
9.8372235698
 20
10.5151063991
 30
0.0
 10
9.8372532797
 20
10.5148604847
 30
0.0
 10
9.8372906776
 20
10.5145530872
 30
0.0
 10
9.8373503688
 20
10.5140612538
 30
0.0
 10
9.8374250326
 20
10.5134464611
 30
0.0
 10
9.8375146078
 20
10.5127087103
 30
0.0
 10
9.8376041887
 20
10.5119709593
 30
0.0
 10
9.837723628
 20
10.5109872914
 30
0.0
 10
9.8378729278
 20
10.5097577066
 30
0.0
 10
9.8380222271
 20
10.5085281217
 30
0.0
 10
9.8381416671
 20
10.5075444538
 30
0.0
 10
9.8382312456
 20
10.5068067029
 30
0.0
 10
9.8383208298
 20
10.5060689521
 30
0.0
 10
9.8383954656
 20
10.5054541592
 30
0.0
 10
9.838455214
 20
10.5049623262
 30
0.0
 10
9.8384924662
 20
10.5046549275
 30
0.0
 10
9.8385224752
 20
10.5044090156
 30
0.0
 10
9.8385444148
 20
10.5042245625
 30
0.0
 10
9.838564502
 20
10.5040709123
 30
0.0
 10
9.8385750222
 20
10.5039632382
 30
0.0
 10
9.8385865624
 20
10.5039018959
 30
0.0
 10
9.8385796434
 20
10.5038553657
 30
0.0
 10
9.8386322568
 20
10.5038108366
 30
0.0
 10
9.8386816423
 20
10.5037507665
 30
0.0
 10
9.8387777422
 20
10.5036459691
 30
0.0
 10
9.8389099694
 20
10.5034960885
 30
0.0
 10
9.8390708072
 20
10.5033163044
 30
0.0
 10
9.8392845013
 20
10.503076567
 30
0.0
 10
9.8395518779
 20
10.5027769039
 30
0.0
 10
9.8399795358
 20
10.5022974381
 30
0.0
 10
9.8405141578
 20
10.5016981076
 30
0.0
 10
9.8411556829
 20
10.5009789101
 30
0.0
 10
9.8417972137
 20
10.5002597129
 30
0.0
 10
9.842652586
 20
10.4993007832
 30
0.0
 10
9.8437218023
 20
10.4981021211
 30
0.0
 10
9.844791018
 20
10.496903459
 30
0.0
 10
9.8456463912
 20
10.4959445294
 30
0.0
 10
9.8462879196
 20
10.495225332
 30
0.0
 10
9.8469294536
 20
10.4945061351
 30
0.0
 10
9.8474640476
 20
10.4939068031
 30
0.0
 10
9.8478917626
 20
10.4934273401
 30
0.0
 10
9.8481589938
 20
10.49312767
 30
0.0
 10
9.8483729864
 20
10.4928879469
 30
0.0
 10
9.8485329126
 20
10.4927081191
 30
0.0
 10
9.8486679919
 20
10.4925583754
 30
0.0
 10
9.8487590003
 20
10.4924533335
 30
0.0
 10
9.8488165436
 20
10.4923936551
 30
0.0
 10
9.848844099
 20
10.4923479228
 30
0.0
 10
9.8489312936
 20
10.4923059119
 30
0.0
 10
9.8490267503
 20
10.4922485994
 30
0.0
 10
9.8492034918
 20
10.4921489071
 30
0.0
 10
9.8494509125
 20
10.4920061735
 30
0.0
 10
9.8497499862
 20
10.4918350284
 30
0.0
 10
9.8501479937
 20
10.4916067878
 30
0.0
 10
9.8506457624
 20
10.4913215031
 30
0.0
 10
9.8514420473
 20
10.4908650386
 30
0.0
 10
9.8524374532
 20
10.4902944611
 30
0.0
 10
9.853631919
 20
10.4896097668
 30
0.0
 10
9.8548263904
 20
10.4889250728
 30
0.0
 10
9.8564190173
 20
10.4880121474
 30
0.0
 10
9.8584097994
 20
10.4868709904
 30
0.0
 10
9.8607987475
 20
10.4855016037
 30
0.0
 10
9.8627895077
 20
10.4843604426
 30
0.0
 10
9.8643821829
 20
10.483447526
 30
0.0
 10
9.8653774522
 20
10.4828769254
 30
0.0
 10
9.8661740172
 20
10.4824205083
 30
0.0
 10
9.866770484
 20
10.4820780218
 30
0.0
 10
9.867270584
 20
10.481793169
 30
0.0
 10
9.8676146795
 20
10.4815926875
 30
0.0
 10
9.8678206342
 20
10.4814798201
 30
0.0
 10
9.8679488212
 20
10.4813903991
 30
0.0
 10
9.8681774597
 20
10.4813192131
 30
0.0
 10
9.8684472724
 20
10.4812179379
 30
0.0
 10
9.8689357698
 20
10.4810436697
 30
0.0
 10
9.8696250882
 20
10.4807931659
 30
0.0
 10
9.8704559235
 20
10.4804932244
 30
0.0
 10
9.8715624279
 20
10.4800930708
 30
0.0
 10
9.8729459953
 20
10.4795929582
 30
0.0
 10
9.8751594589
 20
10.4787927336
 30
0.0
 10
9.8779263728
 20
10.4777924681
 30
0.0
 10
9.8812466311
 20
10.4765921426
 30
0.0
 10
9.8845669077
 20
10.4753918207
 30
0.0
 10
9.8873337758
 20
10.474391546
 30
0.0
 10
9.889547331
 20
10.47359134
 30
0.0
 10
9.8909306657
 20
10.4730911801
 30
0.0
 10
9.8920376478
 20
10.4726911234
 30
0.0
 10
9.8928670237
 20
10.4723908859
 30
0.0
 10
9.8935609082
 20
10.4721413083
 30
0.0
 10
9.8940412543
 20
10.4719653866
 30
0.0
 10
9.8943241273
 20
10.4718667608
 30
0.0
 10
9.8945126488
 20
10.4717874366
 30
0.0
 10
9.8947915087
 20
10.4717285813
 30
0.0
 10
9.8951318109
 20
10.4716429677
 30
0.0
 10
9.8957420213
 20
10.4714964705
 30
0.0
 10
9.8966060747
 20
10.4712854496
 30
0.0
 10
9.8976462242
 20
10.4710329689
 30
0.0
 10
9.8990319428
 20
10.470696068
 30
0.0
 10
9.9007644839
 20
10.4702750309
 30
0.0
 10
9.90353633
 20
10.4696013218
 30
0.0
 10
9.9070012134
 20
10.4687592026
 30
0.0
 10
9.9111590393
 20
10.4677486517
 30
0.0
 10
9.9153168808
 20
10.466738105
 30
0.0
 10
9.918781725
 20
10.465895975
 30
0.0
 10
9.9215536496
 20
10.4652222876
 30
0.0
 10
9.9232859911
 20
10.4648011955
 30
0.0
 10
9.9246721193
 20
10.4644644075
 30
0.0
 10
9.9257110175
 20
10.4642115819
 30
0.0
 10
9.9265789861
 20
10.4640016401
 30
0.0
 10
9.9271822072
 20
10.4638532165
 30
0.0
 10
9.9275337081
 20
10.4637706895
 30
0.0
 10
9.9277781691
 20
10.4637023533
 30
0.0
 10
9.9280958871
 20
10.4636586375
 30
0.0
 10
9.9284939582
 20
10.4635917619
 30
0.0
 10
9.9292024882
 20
10.4634787309
 30
0.0
 10
9.9302084496
 20
10.4633151662
 30
0.0
 10
9.9314182674
 20
10.4631197838
 30
0.0
 10
9.9330304273
 20
10.4628589613
 30
0.0
 10
9.9350459459
 20
10.4625330403
 30
0.0
 10
9.9382705974
 20
10.4620115067
 30
0.0
 10
9.9423014732
 20
10.4613596105
 30
0.0
 10
9.9471384964
 20
10.4605773255
 30
0.0
 10
9.9519755327
 20
10.4597950455
 30
0.0
 10
9.9560063756
 20
10.4591431368
 30
0.0
 10
9.959231093
 20
10.4586216281
 30
0.0
 10
9.9612464441
 20
10.458295644
 30
0.0
 10
9.9628589477
 20
10.458034951
 30
0.0
 10
9.9640677156
 20
10.4578391731
 30
0.0
 10
9.965076962
 20
10.4576768459
 30
0.0
 10
9.9657796276
 20
10.4575616056
 30
0.0
 10
9.966187095
 20
10.4574982699
 30
0.0
 10
9.9664759505
 20
10.4574436806
 30
0.0
 10
9.9668288142
 20
10.4574161837
 30
0.0
 10
9.9672769723
 20
10.457370071
 30
0.0
 10
9.9680716516
 20
10.4572937767
 30
0.0
 10
9.9692014691
 20
10.457182483
 30
0.0
 10
9.9705595779
 20
10.4570499159
 30
0.0
 10
9.9723695767
 20
10.4568728155
 30
0.0
 10
9.9746323535
 20
10.456651558
 30
0.0
 10
9.9782526407
 20
10.4562974798
 30
0.0
 10
9.9827780543
 20
10.4558549065
 30
0.0
 10
9.9882085219
 20
10.4553238003
 30
0.0
 10
9.993639017
 20
10.4547927281
 30
0.0
 10
9.9981643621
 20
10.4543500698
 30
0.0
 10
10.0017847864
 20
10.4539961615
 30
0.0
 10
10.0044997004
 20
10.4537301343
 30
0.0
 10
10.0067634144
 20
10.4535103408
 30
0.0
 10
10.0083454911
 20
10.4533527647
 30
0.0
 10
10.0092534745
 20
10.4532685306
 30
0.0
 10
10.0099233642
 20
10.4531889899
 30
0.0
 10
10.0106356757
 20
10.4531720052
 30
0.0
 10
10.0115706271
 20
10.4531275386
 30
0.0
 10
10.0132136863
 20
10.4530598885
 30
0.0
 10
10.0155573094
 20
10.4529579303
 30
0.0
 10
10.0183712
 20
10.4528378557
 30
0.0
 10
10.0221225151
 20
10.4526769612
 30
0.0
 10
10.0268118443
 20
10.4524761176
 30
0.0
 10
10.032438958
 20
10.4522349799
 30
0.0
 10
10.0380661008
 20
10.4519939046
 30
0.0
 10
10.0427553569
 20
10.4517929048
 30
0.0
 10
10.0465068183
 20
10.4516323228
 30
0.0
 10
10.0493202626
 20
10.4515112952
 30
0.0
 10
10.0516652819
 20
10.4514123183
 30
0.0
 10
10.0533058488
 20
10.4513393462
 30
0.0
 10
10.0542447935
 20
10.4513034068
 30
0.0
 10
10.0549448388
 20
10.4512602291
 30
0.0
 10
10.0556607983
 20
10.4512790648
 30
0.0
 10
10.0566098599
 20
10.451282548
 30
0.0
 10
10.0582733041
 20
10.451298722
 30
0.0
 10
10.0606483007
 20
10.4513165586
 30
0.0
 10
10.0634988755
 20
10.4513402179
 30
0.0
 10
10.0672994397
 20
10.4513709756
 30
0.0
 10
10.0720502135
 20
10.4514096949
 30
0.0
 10
10.0777511166
 20
10.4514560337
 30
0.0
 10
10.0834520121
 20
10.4515024345
 30
0.0
 10
10.0882028047
 20
10.4515409987
 30
0.0
 10
10.0920033313
 20
10.4515720665
 30
0.0
 10
10.0948540209
 20
10.45159478
 30
0.0
 10
10.0972286582
 20
10.4516155758
 30
0.0
 10
10.0988927438
 20
10.4516264671
 30
0.0
 10
10.0998407777
 20
10.4516384144
 30
0.0
 10
10.1005598941
 20
10.4516312513
 30
0.0
 10
10.1012480827
 20
10.4516857206
 30
0.0
 10
10.1021764556
 20
10.4517368483
 30
0.0
 10
10.1037960817
 20
10.4518363381
 30
0.0
 10
10.1061124612
 20
10.4519732297
 30
0.0
 10
10.1088909917
 20
10.4521397411
 30
0.0
 10
10.1125960922
 20
10.4523609731
 30
0.0
 10
10.1172273312
 20
10.4526377836
 30
0.0
 10
10.1227848838
 20
10.4529698326
 30
0.0
 10
10.128342392
 20
10.4533019434
 30
0.0
 10
10.132973742
 20
10.4535785992
 30
0.0
 10
10.1366786207
 20
10.4538001407
 30
0.0
 10
10.1394578278
 20
10.4539657083
 30
0.0
 10
10.1417720906
 20
10.4541055525
 30
0.0
 10
10.1433954953
 20
10.4541997713
 30
0.0
 10
10.1443178139
 20
10.4542593445
 30
0.0
 10
10.1450245991
 20
10.4542878719
 30
0.0
 10
10.1456738699
 20
10.4543781423
 30
0.0
 10
10.1465596259
 20
10.4544769662
 30
0.0
 10
10.1481003519
 20
10.4546599424
 30
0.0
 10
10.1503062757
 20
10.4549160909
 30
0.0
 10
10.1529512926
 20
10.4552257146
 30
0.0
 10
10.1564787125
 20
10.4556377618
 30
0.0
 10
10.1608877362
 20
10.4561530901
 30
0.0
 10
10.1661786741
 20
10.456771368
 30
0.0
 10
10.1714695763
 20
10.4573896793
 30
0.0
 10
10.1758786891
 20
10.457904924
 30
0.0
 10
10.1794059309
 20
10.4583171385
 30
0.0
 10
10.1816105642
 20
10.4585747329
 30
0.0
 10
10.1833740257
 20
10.458780899
 30
0.0
 10
10.184697293
 20
10.4589352758
 30
0.0
 10
10.1857978806
 20
10.4590647111
 30
0.0
 10
10.1865724822
 20
10.4591537695
 30
0.0
 10
10.1870085688
 20
10.4592070744
 30
0.0
 10
10.1873540653
 20
10.4592402517
 30
0.0
 10
10.1876291071
 20
10.4592994276
 30
0.0
 10
10.1880204049
 20
10.4593692602
 30
0.0
 10
10.1886937259
 20
10.4594956925
 30
0.0
 10
10.1896615993
 20
10.4596741011
 30
0.0
 10
10.190820485
 20
10.4598891369
 30
0.0
 10
10.192366561
 20
10.4601755211
 30
0.0
 10
10.1942988496
 20
10.4605336144
 30
0.0
 10
10.1973906825
 20
10.4611065005
 30
0.0
 10
10.2012554146
 20
10.4618226299
 30
0.0
 10
10.2058931203
 20
10.4626819753
 30
0.0
 10
10.2105308116
 20
10.4635413254
 30
0.0
 10
10.2143955795
 20
10.4642574429
 30
0.0
 10
10.2174873407
 20
10.4648303527
 30
0.0
 10
10.2194198117
 20
10.4651883858
 30
0.0
 10
10.2209655133
 20
10.4654748936
 30
0.0
 10
10.2221255429
 20
10.4656895517
 30
0.0
 10
10.2230898374
 20
10.4658691421
 30
0.0
 10
10.2237695473
 20
10.4659934647
 30
0.0
 10
10.2241506085
 20
10.4660666776
 30
0.0
 10
10.2244570938
 20
10.4661154705
 30
0.0
 10
10.2246844937
 20
10.4661876447
 30
0.0
 10
10.2250152794
 20
10.4662757213
 30
0.0
 10
10.2255813017
 20
10.4664336552
 30
0.0
 10
10.2263966245
 20
10.4666572885
 30
0.0
 10
10.2273721357
 20
10.4669264988
 30
0.0
 10
10.2286738218
 20
10.4672851489
 30
0.0
 10
10.2303005855
 20
10.4677335631
 30
0.0
 10
10.2329035998
 20
10.4684509691
 30
0.0
 10
10.2361573011
 20
10.4693477462
 30
0.0
 10
10.2400617735
 20
10.4704238698
 30
0.0
 10
10.2439662291
 20
10.4714999975
 30
0.0
 10
10.2472199723
 20
10.4723967644
 30
0.0
 10
10.2498229029
 20
10.4731141907
 30
0.0
 10
10.2514498791
 20
10.4735625533
 30
0.0
 10
10.2527511291
 20
10.4739213094
 30
0.0
 10
10.2537279729
 20
10.4741901958
 30
0.0
 10
10.2545391264
 20
10.4744148424
 30
0.0
 10
10.2551125916
 20
10.4745709674
 30
0.0
 10
10.2554314519
 20
10.4746619424
 30
0.0
 10
10.2556954829
 20
10.4747252136
 30
0.0
 10
10.2558643878
 20
10.474807445
 30
0.0
 10
10.2561227754
 20
10.4749104733
 30
0.0
 10
10.256559494
 20
10.4750938542
 30
0.0
 10
10.2571914603
 20
10.4753542159
 30
0.0
 10
10.2579463602
 20
10.4756673395
 30
0.0
 10
10.2589541018
 20
10.4760845969
 30
0.0
 10
10.2602133651
 20
10.476606251
 30
0.0
 10
10.2622284175
 20
10.4774408516
 30
0.0
 10
10.2647471539
 20
10.4784841181
 30
0.0
 10
10.2677696709
 20
10.4797360312
 30
0.0
 10
10.2702884295
 20
10.4807792933
 30
0.0
 10
10.272303433
 20
10.4816139034
 30
0.0
 10
10.2738146991
 20
10.4822398589
 30
0.0
 10
10.2753259129
 20
10.4828658227
 30
0.0
 10
10.2765854208
 20
10.4833874334
 30
0.0
 10
10.277592662
 20
10.4838047797
 30
0.0
 10
10.2783490903
 20
10.4841176316
 30
0.0
 10
10.2789762748
 20
10.4843788436
 30
0.0
 10
10.2794215297
 20
10.4845607066
 30
0.0
 10
10.27966624
 20
10.4846661669
 30
0.0
 10
10.2798771572
 20
10.4847409281
 30
0.0
 10
10.2799833973
 20
10.4848322559
 30
0.0
 10
10.2801615633
 20
10.4849482478
 30
0.0
 10
10.2804563419
 20
10.4851539258
 30
0.0
 10
10.2808863483
 20
10.485446344
 30
0.0
 10
10.2813985489
 20
10.4857978483
 30
0.0
 10
10.282082813
 20
10.4862663102
 30
0.0
 10
10.2829376867
 20
10.4868519599
 30
0.0
 10
10.2839637308
 20
10.4875547085
 30
0.0
 10
10.2849897226
 20
10.4882574654
 30
0.0
 10
10.2863577299
 20
10.4891944718
 30
0.0
 10
10.2880677327
 20
10.4903657307
 30
0.0
 10
10.2901197389
 20
10.4917712409
 30
0.0
 10
10.2928557461
 20
10.4936452548
 30
0.0
 10
10.2949077517
 20
10.4950507651
 30
0.0
 10
10.2962757554
 20
10.495987772
 30
0.0
  0
SPLINE
  5
3C5
100
AcDbEntity
  8
0
100
AcDbSpline
 62
4
  6
CONTINUOUS
 70
0
 71
3
 72
317
 73
313
 74
0
 42
0.0000001
 43
0.0000001
 44
0.0000000001
 40
0.0
 40
0.0
 40
0.0
 40
0.0
 40
0.015625
 40
0.0234375
 40
0.03125
 40
0.0390625
 40
0.04296875
 40
0.046875
 40
0.05078125
 40
0.0546875
 40
0.056640625
 40
0.05859375
 40
0.0595703125
 40
0.060546875
 40
0.0615234375
 40
0.0620117188
 40
0.0622558594
 40
0.0625
 40
0.0627441406
 40
0.0629882812
 40
0.0634765625
 40
0.064453125
 40
0.0654296875
 40
0.06640625
 40
0.068359375
 40
0.0703125
 40
0.07421875
 40
0.078125
 40
0.08203125
 40
0.0859375
 40
0.09375
 40
0.1015625
 40
0.10546875
 40
0.109375
 40
0.11328125
 40
0.1171875
 40
0.119140625
 40
0.12109375
 40
0.1220703125
 40
0.123046875
 40
0.1240234375
 40
0.1245117188
 40
0.1247558594
 40
0.125
 40
0.1252441406
 40
0.1254882812
 40
0.1259765625
 40
0.126953125
 40
0.1279296875
 40
0.12890625
 40
0.130859375
 40
0.1328125
 40
0.13671875
 40
0.140625
 40
0.14453125
 40
0.1484375
 40
0.15625
 40
0.1640625
 40
0.16796875
 40
0.171875
 40
0.17578125
 40
0.1796875
 40
0.181640625
 40
0.18359375
 40
0.1845703125
 40
0.185546875
 40
0.1865234375
 40
0.1870117188
 40
0.1872558594
 40
0.1875
 40
0.1877441406
 40
0.1879882812
 40
0.1884765625
 40
0.189453125
 40
0.1904296875
 40
0.19140625
 40
0.193359375
 40
0.1953125
 40
0.19921875
 40
0.203125
 40
0.20703125
 40
0.2109375
 40
0.21875
 40
0.2265625
 40
0.234375
 40
0.23828125
 40
0.2421875
 40
0.244140625
 40
0.24609375
 40
0.248046875
 40
0.2490234375
 40
0.2495117188
 40
0.25
 40
0.2504882812
 40
0.2509765625
 40
0.251953125
 40
0.25390625
 40
0.255859375
 40
0.2578125
 40
0.26171875
 40
0.265625
 40
0.2734375
 40
0.28125
 40
0.2890625
 40
0.296875
 40
0.30078125
 40
0.3046875
 40
0.306640625
 40
0.30859375
 40
0.310546875
 40
0.3115234375
 40
0.3120117188
 40
0.3125
 40
0.3129882812
 40
0.3134765625
 40
0.314453125
 40
0.31640625
 40
0.318359375
 40
0.3203125
 40
0.32421875
 40
0.328125
 40
0.3359375
 40
0.34375
 40
0.3515625
 40
0.359375
 40
0.36328125
 40
0.3671875
 40
0.369140625
 40
0.37109375
 40
0.373046875
 40
0.3740234375
 40
0.3745117188
 40
0.375
 40
0.3754882812
 40
0.3759765625
 40
0.376953125
 40
0.37890625
 40
0.380859375
 40
0.3828125
 40
0.38671875
 40
0.390625
 40
0.3984375
 40
0.40625
 40
0.4140625
 40
0.421875
 40
0.42578125
 40
0.4296875
 40
0.431640625
 40
0.43359375
 40
0.435546875
 40
0.4365234375
 40
0.4370117188
 40
0.4375
 40
0.4379882812
 40
0.4384765625
 40
0.439453125
 40
0.44140625
 40
0.443359375
 40
0.4453125
 40
0.44921875
 40
0.453125
 40
0.4609375
 40
0.46875
 40
0.4765625
 40
0.484375
 40
0.48828125
 40
0.4921875
 40
0.49609375
 40
0.498046875
 40
0.4990234375
 40
0.5
 40
0.5009765625
 40
0.501953125
 40
0.50390625
 40
0.5078125
 40
0.51171875
 40
0.515625
 40
0.5234375
 40
0.53125
 40
0.5390625
 40
0.546875
 40
0.55078125
 40
0.5546875
 40
0.55859375
 40
0.560546875
 40
0.5615234375
 40
0.5625
 40
0.5634765625
 40
0.564453125
 40
0.56640625
 40
0.5703125
 40
0.57421875
 40
0.578125
 40
0.5859375
 40
0.59375
 40
0.6015625
 40
0.609375
 40
0.61328125
 40
0.6171875
 40
0.62109375
 40
0.623046875
 40
0.6240234375
 40
0.625
 40
0.6259765625
 40
0.626953125
 40
0.62890625
 40
0.6328125
 40
0.63671875
 40
0.640625
 40
0.6484375
 40
0.65625
 40
0.6640625
 40
0.671875
 40
0.67578125
 40
0.6796875
 40
0.68359375
 40
0.685546875
 40
0.6865234375
 40
0.6875
 40
0.6884765625
 40
0.689453125
 40
0.69140625
 40
0.6953125
 40
0.69921875
 40
0.703125
 40
0.7109375
 40
0.71875
 40
0.7265625
 40
0.734375
 40
0.73828125
 40
0.7421875
 40
0.744140625
 40
0.74609375
 40
0.748046875
 40
0.7490234375
 40
0.7495117188
 40
0.75
 40
0.7504882812
 40
0.7509765625
 40
0.751953125
 40
0.75390625
 40
0.755859375
 40
0.7578125
 40
0.76171875
 40
0.765625
 40
0.7734375
 40
0.78125
 40
0.7890625
 40
0.796875
 40
0.80078125
 40
0.8046875
 40
0.806640625
 40
0.80859375
 40
0.810546875
 40
0.8115234375
 40
0.8120117188
 40
0.8125
 40
0.8129882812
 40
0.8134765625
 40
0.814453125
 40
0.81640625
 40
0.818359375
 40
0.8203125
 40
0.82421875
 40
0.828125
 40
0.8359375
 40
0.84375
 40
0.8515625
 40
0.859375
 40
0.86328125
 40
0.8671875
 40
0.869140625
 40
0.87109375
 40
0.873046875
 40
0.8740234375
 40
0.8745117188
 40
0.875
 40
0.8754882812
 40
0.8759765625
 40
0.876953125
 40
0.87890625
 40
0.880859375
 40
0.8828125
 40
0.88671875
 40
0.890625
 40
0.8984375
 40
0.90625
 40
0.9140625
 40
0.91796875
 40
0.921875
 40
0.92578125
 40
0.9296875
 40
0.931640625
 40
0.93359375
 40
0.935546875
 40
0.9365234375
 40
0.9370117188
 40
0.9375
 40
0.9379882812
 40
0.9384765625
 40
0.939453125
 40
0.94140625
 40
0.943359375
 40
0.9453125
 40
0.94921875
 40
0.953125
 40
0.95703125
 40
0.9609375
 40
0.96875
 40
0.9765625
 40
0.984375
 40
1.0
 40
1.0
 40
1.0
 40
1.0
 10
10.2962757501
 20
10.4959877669
 30
0.0
 10
10.296896793
 20
10.4969587054
 30
0.0
 10
10.2978283574
 20
10.4984151131
 30
0.0
 10
10.2990704433
 20
10.5003569901
 30
0.0
 10
10.3000020076
 20
10.5018133979
 30
0.0
 10
10.3007783115
 20
10.503027071
 30
0.0
 10
10.301399354
 20
10.5039980095
 30
0.0
 10
10.3018651374
 20
10.5047262134
 30
0.0
 10
10.3023309151
 20
10.5054544173
 30
0.0
 10
10.302719081
 20
10.5060612537
 30
0.0
 10
10.3030295738
 20
10.5065467234
 30
0.0
 10
10.3032237228
 20
10.5068501404
 30
0.0
 10
10.3033788335
 20
10.5070928776
 30
0.0
 10
10.3034957372
 20
10.5072749207
 30
0.0
 10
10.3035913416
 20
10.5074266545
 30
0.0
 10
10.3036618274
 20
10.5075328069
 30
0.0
 10
10.3036965421
 20
10.5075935611
 30
0.0
 10
10.3037382487
 20
10.5076388573
 30
0.0
 10
10.3037200548
 20
10.5076851832
 30
0.0
 10
10.3037166902
 20
10.507746592
 30
0.0
 10
10.3037010674
 20
10.5078542247
 30
0.0
 10
10.3036838385
 20
10.5080078981
 30
0.0
 10
10.3036609854
 20
10.5081923437
 30
0.0
 10
10.3036312754
 20
10.5084382581
 30
0.0
 10
10.3035938775
 20
10.5087456556
 30
0.0
 10
10.3035341864
 20
10.509237489
 30
0.0
 10
10.3034595225
 20
10.5098522817
 30
0.0
 10
10.3033699473
 20
10.5105900326
 30
0.0
 10
10.3032803664
 20
10.5113277835
 30
0.0
 10
10.3031609272
 20
10.5123114514
 30
0.0
 10
10.3030116274
 20
10.5135410363
 30
0.0
 10
10.3028623281
 20
10.5147706211
 30
0.0
 10
10.302742888
 20
10.515754289
 30
0.0
 10
10.3026533095
 20
10.51649204
 30
0.0
 10
10.3025637253
 20
10.5172297907
 30
0.0
 10
10.3024890895
 20
10.5178445836
 30
0.0
 10
10.3024293412
 20
10.5183364166
 30
0.0
 10
10.3023920889
 20
10.5186438153
 30
0.0
 10
10.3023620799
 20
10.5188897272
 30
0.0
 10
10.3023401404
 20
10.5190741803
 30
0.0
 10
10.3023200532
 20
10.5192278305
 30
0.0
 10
10.3023095329
 20
10.5193355047
 30
0.0
 10
10.3022979927
 20
10.5193968469
 30
0.0
 10
10.3023049117
 20
10.5194433771
 30
0.0
 10
10.3022522984
 20
10.5194879062
 30
0.0
 10
10.3022029128
 20
10.5195479763
 30
0.0
 10
10.302106813
 20
10.5196527737
 30
0.0
 10
10.3019745857
 20
10.5198026544
 30
0.0
 10
10.3018137479
 20
10.5199824384
 30
0.0
 10
10.3016000538
 20
10.5202221758
 30
0.0
 10
10.3013326772
 20
10.5205218389
 30
0.0
 10
10.3009050193
 20
10.5210013047
 30
0.0
 10
10.3003703974
 20
10.5216006353
 30
0.0
 10
10.2997288723
 20
10.5223198327
 30
0.0
 10
10.2990873415
 20
10.5230390299
 30
0.0
 10
10.2982319691
 20
10.5239979596
 30
0.0
 10
10.2971627529
 20
10.5251966217
 30
0.0
 10
10.2960935371
 20
10.5263952838
 30
0.0
 10
10.295238164
 20
10.5273542134
 30
0.0
 10
10.2945966356
 20
10.5280734108
 30
0.0
 10
10.2939551015
 20
10.5287926078
 30
0.0
 10
10.2934205075
 20
10.5293919397
 30
0.0
 10
10.2929927925
 20
10.5298714027
 30
0.0
 10
10.2927255613
 20
10.5301710728
 30
0.0
 10
10.2925115688
 20
10.5304107959
 30
0.0
 10
10.2923516426
 20
10.5305906237
 30
0.0
 10
10.2922165633
 20
10.5307403674
 30
0.0
 10
10.2921255549
 20
10.5308454093
 30
0.0
 10
10.2920680115
 20
10.5309050877
 30
0.0
 10
10.2920404562
 20
10.53095082
 30
0.0
 10
10.2919532615
 20
10.5309928309
 30
0.0
 10
10.2918578049
 20
10.5310501435
 30
0.0
 10
10.2916810633
 20
10.5311498357
 30
0.0
 10
10.2914336426
 20
10.5312925693
 30
0.0
 10
10.2911345689
 20
10.5314637144
 30
0.0
 10
10.2907365614
 20
10.5316919551
 30
0.0
 10
10.2902387928
 20
10.5319772397
 30
0.0
 10
10.2894425078
 20
10.5324337042
 30
0.0
 10
10.2884471019
 20
10.5330042817
 30
0.0
 10
10.2872526361
 20
10.533688976
 30
0.0
 10
10.2860581647
 20
10.53437367
 30
0.0
 10
10.2844655378
 20
10.5352865954
 30
0.0
 10
10.2824747557
 20
10.5364277524
 30
0.0
 10
10.2800858076
 20
10.5377971392
 30
0.0
 10
10.2780950474
 20
10.5389383002
 30
0.0
 10
10.2765023723
 20
10.5398512168
 30
0.0
 10
10.2755071029
 20
10.5404218175
 30
0.0
 10
10.2747105379
 20
10.5408782345
 30
0.0
 10
10.2741140711
 20
10.541220721
 30
0.0
 10
10.2736139711
 20
10.5415055738
 30
0.0
 10
10.2732698756
 20
10.5417060553
 30
0.0
 10
10.2730639209
 20
10.5418189227
 30
0.0
 10
10.2729357339
 20
10.5419083437
 30
0.0
 10
10.2727070954
 20
10.5419795297
 30
0.0
 10
10.2724372827
 20
10.5420808049
 30
0.0
 10
10.2719487854
 20
10.5422550731
 30
0.0
 10
10.271259467
 20
10.5425055769
 30
0.0
 10
10.2704286317
 20
10.5428055184
 30
0.0
 10
10.2693221273
 20
10.543205672
 30
0.0
 10
10.2679385598
 20
10.5437057846
 30
0.0
 10
10.2657250962
 20
10.5445060092
 30
0.0
 10
10.2629581823
 20
10.5455062747
 30
0.0
 10
10.259637924
 20
10.5467066002
 30
0.0
 10
10.2563176474
 20
10.5479069221
 30
0.0
 10
10.2535507793
 20
10.5489071968
 30
0.0
 10
10.2513372241
 20
10.5497074028
 30
0.0
 10
10.2499538894
 20
10.5502075627
 30
0.0
 10
10.2488469073
 20
10.5506076194
 30
0.0
 10
10.2480175314
 20
10.5509078569
 30
0.0
 10
10.2473236469
 20
10.5511574345
 30
0.0
 10
10.2468433008
 20
10.5513333562
 30
0.0
 10
10.2465604278
 20
10.551431982
 30
0.0
 10
10.2463719064
 20
10.5515113062
 30
0.0
 10
10.2460930464
 20
10.5515701616
 30
0.0
 10
10.2457527443
 20
10.5516557751
 30
0.0
 10
10.2451425339
 20
10.5518022724
 30
0.0
 10
10.2442784804
 20
10.5520132932
 30
0.0
 10
10.2432383309
 20
10.5522657739
 30
0.0
 10
10.2418526123
 20
10.5526026748
 30
0.0
 10
10.2401200712
 20
10.5530237119
 30
0.0
 10
10.2373482251
 20
10.553697421
 30
0.0
 10
10.2338833417
 20
10.5545395402
 30
0.0
 10
10.2297255159
 20
10.5555500911
 30
0.0
 10
10.2255676743
 20
10.5565606378
 30
0.0
 10
10.2221028302
 20
10.5574027678
 30
0.0
 10
10.2193309055
 20
10.5580764553
 30
0.0
 10
10.217598564
 20
10.5584975473
 30
0.0
 10
10.2162124358
 20
10.5588343353
 30
0.0
 10
10.2151735377
 20
10.5590871609
 30
0.0
 10
10.214305569
 20
10.5592971027
 30
0.0
 10
10.213702348
 20
10.5594455263
 30
0.0
 10
10.2133508471
 20
10.5595280533
 30
0.0
 10
10.213106386
 20
10.5595963895
 30
0.0
 10
10.2127886681
 20
10.5596401053
 30
0.0
 10
10.2123905969
 20
10.5597069809
 30
0.0
 10
10.2116820669
 20
10.5598200119
 30
0.0
 10
10.2106761056
 20
10.5599835767
 30
0.0
 10
10.2094662877
 20
10.560178959
 30
0.0
 10
10.2078541278
 20
10.5604397815
 30
0.0
 10
10.2058386093
 20
10.5607657025
 30
0.0
 10
10.2026139578
 20
10.5612872361
 30
0.0
 10
10.1985830819
 20
10.5619391323
 30
0.0
 10
10.1937460588
 20
10.5627214173
 30
0.0
 10
10.1889090224
 20
10.5635036973
 30
0.0
 10
10.1848781795
 20
10.564155606
 30
0.0
 10
10.1816534621
 20
10.5646771147
 30
0.0
 10
10.179638111
 20
10.5650030988
 30
0.0
 10
10.1780256075
 20
10.5652637919
 30
0.0
 10
10.1768168396
 20
10.5654595697
 30
0.0
 10
10.1758075931
 20
10.5656218969
 30
0.0
 10
10.1751049276
 20
10.5657371373
 30
0.0
 10
10.1746974601
 20
10.5658004729
 30
0.0
 10
10.1744086046
 20
10.5658550622
 30
0.0
 10
10.1740557409
 20
10.5658825592
 30
0.0
 10
10.1736075828
 20
10.5659286719
 30
0.0
 10
10.1728129036
 20
10.5660049661
 30
0.0
 10
10.1716830861
 20
10.5661162598
 30
0.0
 10
10.1703249772
 20
10.5662488269
 30
0.0
 10
10.1685149785
 20
10.5664259273
 30
0.0
 10
10.1662522016
 20
10.5666471848
 30
0.0
 10
10.1626319145
 20
10.567001263
 30
0.0
 10
10.1581065008
 20
10.5674438363
 30
0.0
 10
10.1526760332
 20
10.5679749425
 30
0.0
 10
10.1472455381
 20
10.5685060148
 30
0.0
 10
10.142720193
 20
10.568948673
 30
0.0
 10
10.1390997687
 20
10.5693025813
 30
0.0
 10
10.1363848548
 20
10.5695686086
 30
0.0
 10
10.1341211407
 20
10.5697884021
 30
0.0
 10
10.132539064
 20
10.5699459781
 30
0.0
 10
10.1316310806
 20
10.5700302122
 30
0.0
 10
10.1309611909
 20
10.5701097529
 30
0.0
 10
10.1302488795
 20
10.5701267377
 30
0.0
 10
10.1293139281
 20
10.5701712042
 30
0.0
 10
10.1276708688
 20
10.5702388543
 30
0.0
 10
10.1253272457
 20
10.5703408125
 30
0.0
 10
10.1225133551
 20
10.5704608871
 30
0.0
 10
10.1187620401
 20
10.5706217816
 30
0.0
 10
10.1140727108
 20
10.5708226252
 30
0.0
 10
10.1084455972
 20
10.5710637629
 30
0.0
 10
10.1028184543
 20
10.5713048382
 30
0.0
 10
10.0981291982
 20
10.571505838
 30
0.0
 10
10.0943777368
 20
10.57166642
 30
0.0
 10
10.0915642925
 20
10.5717874476
 30
0.0
 10
10.0892192733
 20
10.5718864245
 30
0.0
 10
10.0875787063
 20
10.5719593966
 30
0.0
 10
10.0866397616
 20
10.571995336
 30
0.0
 10
10.0859397163
 20
10.5720385137
 30
0.0
 10
10.0852237568
 20
10.5720196781
 30
0.0
 10
10.0842746952
 20
10.5720161948
 30
0.0
 10
10.082611251
 20
10.5720000208
 30
0.0
 10
10.0802362544
 20
10.5719821842
 30
0.0
 10
10.0773856796
 20
10.5719585249
 30
0.0
 10
10.0735851154
 20
10.5719277672
 30
0.0
 10
10.0688343416
 20
10.5718890479
 30
0.0
 10
10.0631334386
 20
10.5718427091
 30
0.0
 10
10.0574325431
 20
10.5717963083
 30
0.0
 10
10.0526817504
 20
10.5717577441
 30
0.0
 10
10.0488812238
 20
10.5717266763
 30
0.0
 10
10.0460305343
 20
10.5717039629
 30
0.0
 10
10.0436558969
 20
10.5716831671
 30
0.0
 10
10.0419918113
 20
10.5716722757
 30
0.0
 10
10.0410437774
 20
10.5716603284
 30
0.0
 10
10.0403246611
 20
10.5716674915
 30
0.0
 10
10.0396364724
 20
10.5716130222
 30
0.0
 10
10.0387080996
 20
10.5715618945
 30
0.0
 10
10.0370884734
 20
10.5714624047
 30
0.0
 10
10.034772094
 20
10.5713255131
 30
0.0
 10
10.0319935635
 20
10.5711590017
 30
0.0
 10
10.028288463
 20
10.5709377697
 30
0.0
 10
10.0236572239
 20
10.5706609592
 30
0.0
 10
10.0180996713
 20
10.5703289102
 30
0.0
 10
10.0125421631
 20
10.5699967994
 30
0.0
 10
10.0079108131
 20
10.5697201436
 30
0.0
 10
10.0042059344
 20
10.5694986022
 30
0.0
 10
10.0014267274
 20
10.5693330346
 30
0.0
 10
9.9991124646
 20
10.5691931903
 30
0.0
 10
9.9974890598
 20
10.5690989715
 30
0.0
 10
9.9965667412
 20
10.5690393983
 30
0.0
 10
9.995859956
 20
10.5690108709
 30
0.0
 10
9.9952106852
 20
10.5689206005
 30
0.0
 10
9.9943249292
 20
10.5688217766
 30
0.0
 10
9.9927842033
 20
10.5686388004
 30
0.0
 10
9.9905782794
 20
10.5683826519
 30
0.0
 10
9.9879332626
 20
10.5680730282
 30
0.0
 10
9.9844058427
 20
10.567660981
 30
0.0
 10
9.9799968189
 20
10.5671456527
 30
0.0
 10
9.9747058811
 20
10.5665273748
 30
0.0
 10
9.9694149788
 20
10.5659090635
 30
0.0
 10
9.9650058661
 20
10.5653938188
 30
0.0
 10
9.9614786243
 20
10.5649816043
 30
0.0
 10
9.9592739909
 20
10.5647240099
 30
0.0
 10
9.9575105294
 20
10.5645178439
 30
0.0
 10
9.9561872621
 20
10.564363467
 30
0.0
 10
9.9550866746
 20
10.5642340317
 30
0.0
 10
9.9543120729
 20
10.5641449733
 30
0.0
 10
9.9538759863
 20
10.5640916684
 30
0.0
 10
9.9535304898
 20
10.5640584912
 30
0.0
 10
9.953255448
 20
10.5639993152
 30
0.0
 10
9.9528641503
 20
10.5639294826
 30
0.0
 10
9.9521908293
 20
10.5638030503
 30
0.0
 10
9.9512229559
 20
10.5636246417
 30
0.0
 10
9.9500640701
 20
10.5634096059
 30
0.0
 10
9.9485179941
 20
10.5631232217
 30
0.0
 10
9.9465857056
 20
10.5627651284
 30
0.0
 10
9.9434938726
 20
10.5621922423
 30
0.0
 10
9.9396291406
 20
10.5614761129
 30
0.0
 10
9.9349914349
 20
10.5606167676
 30
0.0
 10
9.9303537435
 20
10.5597574174
 30
0.0
 10
9.9264889756
 20
10.5590412999
 30
0.0
 10
9.9233972144
 20
10.5584683901
 30
0.0
 10
9.9214647435
 20
10.558110357
 30
0.0
 10
9.9199190419
 20
10.5578238492
 30
0.0
 10
9.9187590122
 20
10.5576091911
 30
0.0
 10
9.9177947177
 20
10.5574296007
 30
0.0
 10
9.9171150078
 20
10.5573052781
 30
0.0
 10
9.9167339466
 20
10.5572320653
 30
0.0
 10
9.9164274613
 20
10.5571832724
 30
0.0
 10
9.9162000614
 20
10.5571110982
 30
0.0
 10
9.9158692757
 20
10.5570230216
 30
0.0
 10
9.9153032534
 20
10.5568650876
 30
0.0
 10
9.9144879306
 20
10.5566414543
 30
0.0
 10
9.9135124195
 20
10.556372244
 30
0.0
 10
9.9122107333
 20
10.556013594
 30
0.0
 10
9.9105839696
 20
10.5555651797
 30
0.0
 10
9.9079809553
 20
10.5548477737
 30
0.0
 10
9.904727254
 20
10.5539509967
 30
0.0
 10
9.9008227816
 20
10.552874873
 30
0.0
 10
9.896918326
 20
10.5517987453
 30
0.0
 10
9.8936645829
 20
10.5509019784
 30
0.0
 10
9.8910616522
 20
10.5501845521
 30
0.0
 10
9.889434676
 20
10.5497361895
 30
0.0
 10
9.888133426
 20
10.5493774334
 30
0.0
 10
9.8871565822
 20
10.549108547
 30
0.0
 10
9.8863454288
 20
10.5488839004
 30
0.0
 10
9.8857719636
 20
10.5487277754
 30
0.0
 10
9.8854531033
 20
10.5486368004
 30
0.0
 10
9.8851890723
 20
10.5485735293
 30
0.0
 10
9.8850201673
 20
10.5484912979
 30
0.0
 10
9.8847617798
 20
10.5483882696
 30
0.0
 10
9.8843250611
 20
10.5482048887
 30
0.0
 10
9.8836930949
 20
10.5479445269
 30
0.0
 10
9.8829381949
 20
10.5476314033
 30
0.0
 10
9.8819304533
 20
10.5472141459
 30
0.0
 10
9.8806711901
 20
10.5466924918
 30
0.0
 10
9.8786561376
 20
10.5458578912
 30
0.0
 10
9.8761374012
 20
10.5448146247
 30
0.0
 10
9.8731148843
 20
10.5435627116
 30
0.0
 10
9.8705961257
 20
10.5425194495
 30
0.0
 10
9.8685811222
 20
10.5416848394
 30
0.0
 10
9.867069856
 20
10.5410588839
 30
0.0
 10
9.8655586422
 20
10.5404329201
 30
0.0
 10
9.8642991343
 20
10.5399113094
 30
0.0
 10
9.8632918931
 20
10.5394939631
 30
0.0
 10
9.8625354648
 20
10.5391811112
 30
0.0
 10
9.8619082803
 20
10.5389198993
 30
0.0
 10
9.8614630254
 20
10.5387380362
 30
0.0
 10
9.8612183151
 20
10.5386325759
 30
0.0
 10
9.861007398
 20
10.5385578147
 30
0.0
 10
9.8609011579
 20
10.5384664869
 30
0.0
 10
9.8607229919
 20
10.5383504951
 30
0.0
 10
9.8604282132
 20
10.538144817
 30
0.0
 10
9.8599982069
 20
10.5378523988
 30
0.0
 10
9.8594860062
 20
10.5375008945
 30
0.0
 10
9.8588017422
 20
10.5370324326
 30
0.0
 10
9.8579468684
 20
10.5364467829
 30
0.0
 10
9.8569208243
 20
10.5357440343
 30
0.0
 10
9.8558948326
 20
10.5350412774
 30
0.0
 10
9.8545268252
 20
10.534104271
 30
0.0
 10
9.8528168224
 20
10.5329330121
 30
0.0
 10
9.8507648163
 20
10.5315275019
 30
0.0
 10
9.8480288091
 20
10.529653488
 30
0.0
 10
9.8459768034
 20
10.5282479777
 30
0.0
 10
9.8446087997
 20
10.5273109708
 30
0.0
  0
ELLIPSE
  5
3C6
100
AcDbEntity
  8
0
100
AcDbEllipse
 62
7
  6
CONTINUOUS
 10
11.1375191861
 20
8.2546303709
 30
0.0
 11
0.2130762046
 21
-0.0318493087
 31
0.0
 40
0.9139820952
 41
0.0
 42
6.2831853072
  0
ENDSEC
  0
SECTION
  2
OBJECTS
  0
DICTIONARY
  5
C
100
AcDbDictionary
280
0
281
1
  3
ACAD_GROUP
350
D
  3
ACAD_MLINESTYLE
350
17
  3
ACAD_LAYOUT
350
1A
  3
ACAD_PLOTSETTINGS
350
19
  3
ACAD_PLOTSTYLENAME
350
E
  3
ACAD_IMAGE_DICT
350
       3C8
  3
ACAD_IMAGE_VARS
350
       3C9
  3
ACAD_TABLESTYLE
350
       3CA
  0
IMAGEDEF_REACTOR
  5
3C7
100
AcDbRasterImageDefReactor
 90
2
330
283
  0
DICTIONARY
  5
D
102
{ACAD_REACTORS
330
C
102
}
100
AcDbDictionary
280
0
281
1
  0
ACDBDICTIONARYWDFLT
  5
E
102
{ACAD_REACTORS
330
C
102
}
100
AcDbDictionary
281
1
  3
Normal
350
F
100
AcDbDictionaryWithDefault
340
F
  0
DICTIONARY
  5
3C8
330
C
100
AcDbDictionary
281
1
  3
ZHL_assy_2_img_1
350
       3CD
  0
RASTERVARIABLES
  5
3C9
330
C
100
AcDbRasterVariables
 90
0
 70
0
 71
1
 72
5
  0
DICTIONARY
  5
17
102
{ACAD_REACTORS
330
C
102
}
100
AcDbDictionary
280
0
281
1
  3
Standard
350
18
  0
DICTIONARY
  5
3CA
330
C
100
AcDbDictionary
281
1
  3
Standard
350
       3CE
  3
Standard1
350
       3CF
  0
DICTIONARY
  5
19
102
{ACAD_REACTORS
330
C
102
}
100
AcDbDictionary
281
1
  0
DICTIONARY
  5
1A
102
{ACAD_REACTORS
330
C
102
}
100
AcDbDictionary
281
1
  3
Model
350
3CB
  3
Layout1
350
3CC
  0
ACDBPLACEHOLDER
  5
F
102
{ACAD_REACTORS
330
E
102
}
  0
MLINESTYLE
  5
18
102
{ACAD_REACTORS
330
17
102
}
100
AcDbMlineStyle
  2
STANDARD
 70
0
  3

 62
256
 51
90.0
 52
90.0
 71
2
 49
0.5
 62
256
  6
BYLAYER
 49
-0.5
 62
256
  6
BYLAYER
  0
LAYOUT
  5
3CB
102
{ACAD_REACTORS
330
1A
102
}
100
AcDbPlotSettings
  1

  2
none_device
  4
ANSI_C_(22.00_x_17.00_Inches)
  6

 40
0.0
 41
0.0
 42
0.0
 43
0.0
 44
558.8
 45
431.8
 46
0.0
 47
0.0
 48
0.0
 49
0.0
140
0.0
141
0.0
142
1.0
143
1.0
 70
1024
 72
0
 73
0
 74
0
  7

 75
0
147
1.0
148
0.0
149
0.0
100
AcDbLayout
  1
Model
 70
0
 71
0
 10
0.0
 20
0.0
 11
22.0
 21
17.0
 12
0.0
 22
0.0
 32
0.0
 14
0.0
 24
0.0
 34
0.0
 15
0.0
 25
0.0
 35
0.0
146
0.0
 13
0.0
 23
0.0
 33
0.0
 16
1.0
 26
0.0
 36
0.0
 17
0.0
 27
1.0
 37
0.0
 76
0
330
204
345
0
346
0
  0
LAYOUT
  5
3CC
102
{ACAD_REACTORS
330
1A
102
}
100
AcDbPlotSettings
  1

  2
none_device
  4
ANSI_C_(22.00_x_17.00_Inches)
  6

 40
0.0
 41
0.0
 42
0.0
 43
0.0
 44
558.8
 45
431.8
 46
0.0
 47
0.0
 48
0.0
 49
0.0
140
0.0
141
0.0
142
1.0
143
1.0
 70
0
 72
0
 73
0
 74
0
  7

 75
0
147
1.0
148
0.0
149
0.0
100
AcDbLayout
  1
Layout1
 70
0
 71
1
 10
0.0
 20
0.0
 11
22.0
 21
17.0
 12
0.0
 22
0.0
 32
0.0
 14
0.0
 24
0.0
 34
0.0
 15
0.0
 25
0.0
 35
0.0
146
0.0
 13
0.0
 23
0.0
 33
0.0
 16
1.0
 26
0.0
 36
0.0
 17
0.0
 27
1.0
 37
0.0
 76
0
330
205
345
0
346
0
  0
IMAGEDEF
  5
3CD
102
{ACAD_REACTORS
330
3C8
330
3C7
102
}
100
AcDbRasterImageDef
 90
0
  1
ZHL_assy_2_img_1.png
 10
369.0
 20
92.0
 11
0.0066666667
 21
0.0066666667
280
1
281
0
  0
TABLESTYLE
  5
3CE
102
{ACAD_REACTORS
330
3CA
330
286
330
287
102
}
330
3CA
100
AcDbTableStyle
  3
Standard
 70
0
 71
0
 40
0.06
 41
0.06
280
1
281
1
  7
Standard
140
0.18
170
1
 62
0
 63
7
283
0
  7
Standard
140
0.18
170
1
 62
0
 63
7
283
0
  7
Standard
140
0.18
170
1
 62
0
 63
7
283
0
  0
TABLESTYLE
  5
3CF
102
{ACAD_REACTORS
330
3CA
330
285
102
}
330
3CA
100
AcDbTableStyle
  3
Standard1
 70
1
 71
0
 40
0.06
 41
0.06
280
1
281
1
  7
Standard
140
0.18
170
1
 62
0
 63
7
283
0
  7
Standard
140
0.18
170
1
 62
0
 63
7
283
0
  7
Standard
140
0.18
170
1
 62
0
 63
7
283
0
  0
ENDSEC
  0
EOF
