999
DXF file: ZHK_assy_2.dxf
999
Pro/ENGINEER 2014200 by Parametric Technology Corporation
  0
SECTION
  2
HEADER
  9
$ACADVER
  1
AC1021
  9
$DWGCODEPAGE
  3
ANSI_1252
  9
$EXTMAX
 10
22.0
 20
17.0
 30
0.0
  9
$EXTMIN
 10
0.0
 20
0.0
 30
0.0
  9
$LIMMIN
 10
0.0
 20
0.0
  9
$LIMMAX
 10
22.0
 20
17.0
  9
$VIEWCTR
 10
11.0
 20
8.5
  9
$VIEWSIZE
 40
17.0
  9
$CLAYER
  8
0
  9
$LTSCALE
 40
1.21
  9
$CELTYPE
  6
BYLAYER
  9
$DIMSCALE
 40
1.0
  9
$DIMASZ
 40
0.1875
  9
$DIMEXO
 40
0.0625
  9
$DIMDLI
 40
0.836
  9
$DIMEXE
 40
0.125
  9
$DIMCEN
 40
0.198
  9
$DIMLFAC
 40
1.0
  9
$DIMBLK
  1
_FILLED
  9
$DIMTXT
 40
0.1
  9
$DIMTOL
 70
0
  9
$DIMLIM
 70
0
  9
$DIMTFAC
 40
1.0
  9
$DIMGAP
 40
0.09
  9
$DIMDSEP
 70
46
  9
$AUNITS
 70
0
  9
$PDMODE
 70
3
  9
$PDSIZE
 40
0.3125
  9
$HANDSEED
  5
3B1
  9
$TILEMODE
 70
1
  9
$MEASUREMENT
 70
0
  9
$INSUNITS
 70
1
  0
ENDSEC
  0
SECTION
  2
CLASSES
  0
CLASS
  1
ACDBDICTIONARYWDFLT
  2
AcDbDictionaryWithDefault
  3
AutoCAD 2000
 90
0
 91
1
280
0
281
0
  0
CLASS
  1
ACDBPLACEHOLDER
  2
AcDbPlaceHolder
  3
AutoCAD 2000
 90
0
 91
1
280
0
281
0
  0
CLASS
  1
LAYOUT
  2
AcDbLayout
  3
AutoCAD 2000
 90
0
 91
0
280
0
281
0
  0
CLASS
  1
RASTERVARIABLES
  2
AcDbRasterVariables
  3
ISM
 90
0
 91
1
280
0
281
0
  0
CLASS
  1
IMAGEDEF
  2
AcDbRasterImageDef
  3
ISM
 90
0
 91
1
280
0
281
0
  0
CLASS
  1
IMAGEDEF_REACTOR
  2
AcDbRasterImageDefReactor
  3
ISM
 90
0
 91
1
280
0
281
0
  0
CLASS
  1
IMAGE
  2
AcDbRasterImage
  3
ISM
 90
127
 91
1
280
0
281
1
  0
CLASS
  1
TABLESTYLE
  2
AcDbTableStyle
  3
ObjectDBX Classes
 90
2047
 91
1
280
0
281
0
  0
CLASS
  1
ACAD_TABLE
  2
AcDbTable
  3
ObjectDBX Classes
 90
1025
 91
3
280
0
281
1
  0
ENDSEC
  0
SECTION
  2
TABLES
  0
TABLE
  2
VPORT
  5
8
100
AcDbSymbolTable
 70
2
  0
VPORT
  5
1F4
100
AcDbSymbolTableRecord
100
AcDbViewportTableRecord
  2
*ACTIVE
 70
0
 10
0.0
 20
0.0
 11
1.0
 21
1.0
 12
11.0
 22
8.5
 13
0.0
 23
0.0
 14
1.0
 24
1.0
 15
0.0
 25
0.0
 16
0.0
 26
0.0
 36
1.0
 17
0.0
 27
0.0
 37
0.0
 40
17.0
 41
1.2941176471
 42
50.0
 43
0.0
 44
0.0
 50
0.0
 51
0.0
 71
0
 72
100
 73
1
 74
1
 75
0
 76
0
 77
0
 78
0
  0
ENDTAB
  0
TABLE
  2
LTYPE
  5
5
100
AcDbSymbolTable
 70
6
  0
LTYPE
  5
14
100
AcDbSymbolTableRecord
100
AcDbLinetypeTableRecord
  2
BYBLOCK
 70
0
  3

 72
65
 73
0
 40
0.0
  0
LTYPE
  5
15
100
AcDbSymbolTableRecord
100
AcDbLinetypeTableRecord
  2
BYLAYER
 70
0
  3

 72
65
 73
0
 40
0.0
  0
LTYPE
  5
16
100
AcDbSymbolTableRecord
100
AcDbLinetypeTableRecord
  2
CONTINUOUS
 70
64
  3
Solid line
 72
65
 73
0
 40
0.0
  0
LTYPE
  5
1F5
100
AcDbSymbolTableRecord
100
AcDbLinetypeTableRecord
  2
CENTER
 70
64
  3
____ _ ____ _ ____ _ ____ _ ____ _ ____ _ ____
 72
65
 73
4
 40
0.6
 49
0.375
 74
0
 49
-0.075
 74
0
 49
0.075
 74
0
 49
-0.075
 74
0
  0
LTYPE
  5
1F6
100
AcDbSymbolTableRecord
100
AcDbLinetypeTableRecord
  2
HIDDEN
 70
64
  3
- - - - - - - - - - - - - - - - - - - -
 72
65
 73
2
 40
0.2
 49
0.1
 74
0
 49
-0.1
 74
0
  0
LTYPE
  5
1F7
100
AcDbSymbolTableRecord
100
AcDbLinetypeTableRecord
  2
PHANTOM
 70
64
  3
_____ _ _ _____ _ _ _____ _ _ _____
 72
65
 73
6
 40
0.8
 49
0.45
 74
0
 49
-0.05
 74
0
 49
0.1
 74
0
 49
-0.05
 74
0
 49
0.1
 74
0
 49
-0.05
 74
0
  0
LTYPE
  5
1F8
100
AcDbSymbolTableRecord
100
AcDbLinetypeTableRecord
  2
DOT
 70
64
  3
. . . . . . . . . . . . . . . . . . . .
 72
65
 73
2
 40
0.2
 49
0.1
 74
0
 49
-0.1
 74
0
  0
LTYPE
  5
1F9
100
AcDbSymbolTableRecord
100
AcDbLinetypeTableRecord
  2
DASHED
 70
64
  3
- - - - - - - - - - - - - - - - - - - -
 72
65
 73
2
 40
0.2
 49
0.1
 74
0
 49
-0.1
 74
0
  0
ENDTAB
  0
TABLE
  2
LAYER
  5
2
100
AcDbSymbolTable
 70
36
  0
LAYER
  5
10
100
AcDbSymbolTableRecord
100
AcDbLayerTableRecord
  2
0
 70
0
 62
7
  6
CONTINUOUS
370
-3
390
F
  0
LAYER
  5
1FA
100
AcDbSymbolTableRecord
100
AcDbLayerTableRecord
  2
DEFAULT_1
 70
0
 62
7
  6
CENTER
370
-3
390
F
  0
LAYER
  5
1FB
100
AcDbSymbolTableRecord
100
AcDbLayerTableRecord
  2
DEFAULT_2
 70
0
 62
8
  6
HIDDEN
370
-3
390
F
  0
LAYER
  5
1FC
100
AcDbSymbolTableRecord
100
AcDbLayerTableRecord
  2
DEFAULT_3
 70
0
 62
7
  6
PHANTOM
370
-3
390
F
  0
LAYER
  5
1FD
100
AcDbSymbolTableRecord
100
AcDbLayerTableRecord
  2
DATUM_PLANES
 70
0
 62
7
  6
CONTINUOUS
370
-3
390
F
  0
LAYER
  5
1FE
100
AcDbSymbolTableRecord
100
AcDbLayerTableRecord
  2
PORT_AREAS
 70
0
 62
7
  6
CONTINUOUS
370
-3
390
F
  0
LAYER
  5
1FF
100
AcDbSymbolTableRecord
100
AcDbLayerTableRecord
  2
SUNNBOMCOSMETIC
 70
0
 62
7
  6
CONTINUOUS
370
-3
390
F
  0
LAYER
  5
200
100
AcDbSymbolTableRecord
100
AcDbLayerTableRecord
  2
SUNNBOMSTAMPING
 70
0
 62
7
  6
CONTINUOUS
370
-3
390
F
  0
LAYER
  5
201
100
AcDbSymbolTableRecord
100
AcDbLayerTableRecord
  2
THREADS
 70
0
 62
7
  6
CONTINUOUS
370
-3
390
F
  0
ENDTAB
  0
TABLE
  2
STYLE
  5
3
100
AcDbSymbolTable
 70
1
  0
STYLE
  5
11
100
AcDbSymbolTableRecord
100
AcDbTextStyleTableRecord
  2
STANDARD
 70
0
 40
0.0
 41
0.8
 50
0.0
 71
0
 42
0.2
  3
txt
  4

  0
STYLE
  5
202
100
AcDbSymbolTableRecord
100
AcDbTextStyleTableRecord
  2
TEXTSTYLE_1
 70
0
 40
0.0
 41
0.8
 50
0.0
 71
0
 42
0.2
  3
gdt
  4

  0
ENDTAB
  0
TABLE
  2
VIEW
  5
6
100
AcDbSymbolTable
 70
0
  0
ENDTAB
  0
TABLE
  2
UCS
  5
7
100
AcDbSymbolTable
 70
0
  0
ENDTAB
  0
TABLE
  2
APPID
  5
9
100
AcDbSymbolTable
 70
1
  0
APPID
  5
203
100
AcDbSymbolTableRecord
100
AcDbRegAppTableRecord
  2
ACAD
 70
0
  0
ENDTAB
  0
TABLE
  2
BLOCK_RECORD
  5
1
100
AcDbSymbolTable
 70
0
  0
BLOCK_RECORD
  5
204
100
AcDbSymbolTableRecord
100
AcDbBlockTableRecord
  2
*Model_Space
  0
BLOCK_RECORD
  5
205
100
AcDbSymbolTableRecord
100
AcDbBlockTableRecord
  2
*Paper_Space
  0
BLOCK_RECORD
  5
206
100
AcDbSymbolTableRecord
100
AcDbBlockTableRecord
  2
SUN_FIRST_THIRD_ANGLE_BL0
  0
BLOCK_RECORD
  5
207
100
AcDbSymbolTableRecord
100
AcDbBlockTableRecord
  2
*T1
  0
BLOCK_RECORD
  5
208
100
AcDbSymbolTableRecord
100
AcDbBlockTableRecord
  2
*T2
  0
BLOCK_RECORD
  5
209
100
AcDbSymbolTableRecord
100
AcDbBlockTableRecord
  2
*T3
  0
ENDTAB
  0
TABLE
  2
DIMSTYLE
  5
A
100
AcDbSymbolTable
 70
1
100
AcDbDimStyleTable
 71
0
  0
DIMSTYLE
105
20A
100
AcDbSymbolTableRecord
100
AcDbDimStyleTableRecord
  2
STANDARD
 70
0
  3

  4

 40
1.0
 41
0.1875
 42
0.0625
 43
0.38
 44
0.125
 45
0.0
 46
0.0
 47
0.001
 48
0.001
140
0.1
141
0.09
142
0.0
143
25.4
144
1.0
145
0.0
146
1.0
147
0.09
 71
0.0
 72
0.0
 73
1
 74
1
 75
0
 76
0
 77
0
 78
4
170
0
171
2
172
0
173
0
174
0
175
0
176
0
177
0
178
0
270
2
271
3
272
3
273
2
274
2
275
0
280
0
281
0
282
0
283
1
284
4
285
0
286
0
287
3
288
0
340
11
278
46
  0
ENDTAB
  0
ENDSEC
  0
SECTION
  2
BLOCKS
  0
BLOCK
  5
20
100
AcDbEntity
  8
0
100
AcDbBlockBegin
  2
*Model_Space
 70
0
 10
0.0
 20
0.0
 30
0.0
  3
*Model_Space
  1

  0
ENDBLK
  5
21
100
AcDbEntity
  8
0
100
AcDbBlockEnd
  0
BLOCK
  5
1C
100
AcDbEntity
  8
0
100
AcDbBlockBegin
  2
*Paper_Space
 70
0
 10
0.0
 20
0.0
 30
0.0
  3
*Paper_Space
  1

  0
ENDBLK
  5
1D
100
AcDbEntity
  8
0
100
AcDbBlockEnd
  0
BLOCK
  5
20B
100
AcDbEntity
  8
0
100
AcDbBlockBegin
 62
2
  6
CONTINUOUS
  2
SUN_FIRST_THIRD_ANGLE_BL0
 70
64
 10
20.4816717061
 20
1.2289683772
  3
SUN_FIRST_THIRD_ANGLE_BL0
  1

  0
TEXT
  5
20C
100
AcDbEntity
  8
0
100
AcDbText
 62
2
  6
CONTINUOUS
 10
19.4750896608
 20
1.4136269581
  7
STANDARD
 40
0.08
  1
FIRST ANGLE
 41
0.8
 72
0
100
AcDbText
  0
TEXT
  5
20D
100
AcDbEntity
  8
0
100
AcDbText
 62
2
  6
CONTINUOUS
 10
20.7842537513
 20
1.4047600029
  7
STANDARD
 40
0.08
  1
THIRD ANGLE
 41
0.8
 72
0
100
AcDbText
  0
LINE
  5
20E
100
AcDbEntity
  8
0
100
AcDbLine
 62
7
  6
CONTINUOUS
 10
19.4767170086
 20
1.1727031207
 11
19.6334271527
 21
1.1717972817
  0
LINE
  5
20F
100
AcDbEntity
  8
0
100
AcDbLine
 62
7
  6
CONTINUOUS
 10
19.6596964832
 20
1.1717972817
 11
19.6950230232
 21
1.171593082
  0
LINE
  5
210
100
AcDbEntity
  8
0
100
AcDbLine
 62
7
  6
CONTINUOUS
 10
19.7194818561
 20
1.1708914427
 11
19.8852396156
 21
1.1699333054
  0
LINE
  5
211
100
AcDbEntity
  8
0
100
AcDbLine
 62
7
  6
CONTINUOUS
 10
19.4758111696
 20
1.2723454088
 11
19.88525039
 21
1.3511534004
  0
LINE
  5
212
100
AcDbEntity
  8
0
100
AcDbLine
 62
7
  6
CONTINUOUS
 10
19.88525039
 20
1.3511534004
 11
19.8831348489
 21
0.9851647912
  0
LINE
  5
213
100
AcDbEntity
  8
0
100
AcDbLine
 62
7
  6
CONTINUOUS
 10
19.8831348489
 20
0.9851647912
 11
19.4767170086
 21
1.0658141206
  0
LINE
  5
214
100
AcDbEntity
  8
0
100
AcDbLine
 62
7
  6
CONTINUOUS
 10
19.4767170086
 20
1.0658141206
 11
19.4779056764
 21
1.2714536432
  0
CIRCLE
  5
215
100
AcDbEntity
  8
0
100
AcDbCircle
 62
7
  6
CONTINUOUS
 10
20.2068232291
 20
1.1717972817
 40
0.175742101
  0
CIRCLE
  5
216
100
AcDbEntity
  8
0
100
AcDbCircle
 62
7
  6
CONTINUOUS
 10
20.2068232291
 20
1.1717972817
 40
0.1005522074
  0
LINE
  5
217
100
AcDbEntity
  8
0
100
AcDbLine
 62
7
  6
CONTINUOUS
 10
20.2077290681
 20
1.3756110529
 11
20.2071171714
 21
1.2379342989
  0
LINE
  5
218
100
AcDbEntity
  8
0
100
AcDbLine
 62
7
  6
CONTINUOUS
 10
20.2077290681
 20
1.2016899681
 11
20.2074674401
 21
1.1428236749
  0
LINE
  5
219
100
AcDbEntity
  8
0
100
AcDbLine
 62
7
  6
CONTINUOUS
 10
20.208634907
 20
1.101141841
 11
20.2080230104
 21
0.963465087
  0
LINE
  5
21A
100
AcDbEntity
  8
0
100
AcDbLine
 62
7
  6
CONTINUOUS
 10
20.0066328138
 20
1.1745147986
 11
20.1443095678
 21
1.1739029019
  0
LINE
  5
21B
100
AcDbEntity
  8
0
100
AcDbLine
 62
7
  6
CONTINUOUS
 10
20.1832714155
 20
1.1727031207
 11
20.238153505
 21
1.172335442
  0
LINE
  5
21C
100
AcDbEntity
  8
0
100
AcDbLine
 62
7
  6
CONTINUOUS
 10
20.2756669918
 20
1.1717972817
 11
20.407916871
 21
1.1712095044
  0
CIRCLE
  5
21D
100
AcDbEntity
  8
0
100
AcDbCircle
 62
7
  6
CONTINUOUS
 10
20.7509457401
 20
1.1693297793
 40
0.1722024983
  0
CIRCLE
  5
21E
100
AcDbEntity
  8
0
100
AcDbCircle
 62
7
  6
CONTINUOUS
 10
20.7509457401
 20
1.1693297793
 40
0.0985164967
  0
LINE
  5
21F
100
AcDbEntity
  8
0
100
AcDbLine
 62
7
  6
CONTINUOUS
 10
20.7169767782
 20
1.170462078
 11
20.7825395137
 21
1.1682766535
  0
LINE
  5
220
100
AcDbEntity
  8
0
100
AcDbLine
 62
7
  6
CONTINUOUS
 10
20.8177513651
 20
1.1693297793
 11
20.947965719
 21
1.1693297793
  0
LINE
  5
221
100
AcDbEntity
  8
0
100
AcDbLine
 62
7
  6
CONTINUOUS
 10
20.6875370113
 20
1.170462078
 11
20.5573226574
 21
1.170462078
  0
LINE
  5
222
100
AcDbEntity
  8
0
100
AcDbLine
 62
7
  6
CONTINUOUS
 10
20.7486811426
 20
1.1987695462
 11
20.7486811426
 21
1.1432869085
  0
LINE
  5
223
100
AcDbEntity
  8
0
100
AcDbLine
 62
7
  6
CONTINUOUS
 10
20.7498134414
 20
1.1059210505
 11
20.7498134414
 21
0.9757066966
  0
LINE
  5
224
100
AcDbEntity
  8
0
100
AcDbLine
 62
7
  6
CONTINUOUS
 10
20.7486811426
 20
1.2338708068
 11
20.7486811426
 21
1.3640851607
  0
LINE
  5
225
100
AcDbEntity
  8
0
100
AcDbLine
 62
7
  6
CONTINUOUS
 10
21.0702539817
 20
1.2701043662
 11
21.4790138229
 21
1.3448360823
  0
LINE
  5
226
100
AcDbEntity
  8
0
100
AcDbLine
 62
7
  6
CONTINUOUS
 10
21.4790138229
 20
1.3448360823
 11
21.4790138229
 21
0.9779712941
  0
LINE
  5
227
100
AcDbEntity
  8
0
100
AcDbLine
 62
7
  6
CONTINUOUS
 10
21.4790138229
 20
0.9779712941
 11
21.069121683
 21
1.0617614
  0
LINE
  5
228
100
AcDbEntity
  8
0
100
AcDbLine
 62
7
  6
CONTINUOUS
 10
21.0702539817
 20
1.2701043662
 11
21.069121683
 21
1.0617614
  0
LINE
  5
229
100
AcDbEntity
  8
0
100
AcDbLine
 62
7
  6
CONTINUOUS
 10
21.4790138229
 20
1.1693297793
 11
21.3159628059
 21
1.1693297793
  0
LINE
  5
22A
100
AcDbEntity
  8
0
100
AcDbLine
 62
7
  6
CONTINUOUS
 10
21.2876553377
 20
1.1693297793
 11
21.2502894796
 21
1.1693297793
  0
LINE
  5
22B
100
AcDbEntity
  8
0
100
AcDbLine
 62
7
  6
CONTINUOUS
 10
21.2208497126
 20
1.1659328831
 11
21.0713862804
 21
1.1659328831
  0
LINE
  5
22C
100
AcDbEntity
  8
0
100
AcDbLine
 62
7
  6
CONTINUOUS
 10
20.4796138713
 20
1.5284908897
 11
20.4766766948
 21
0.9294458646
  0
ENDBLK
  5
22D
100
AcDbEntity
  8
0
  6
BYBLOCK
 62
0
100
AcDbBlockEnd
  0
BLOCK
  5
22E
100
AcDbEntity
  8
0
100
AcDbBlockBegin
  2
*T1
 70
1
 10
0.0
 20
0.0
  3
*T1
  1

  0
LINE
  5
22F
100
AcDbEntity
  8
0
100
AcDbLine
 62
2
  6
CONTINUOUS
 10
9.275
 20
0.0
 11
-0.0
 21
0.0
  0
LINE
  5
230
100
AcDbEntity
  8
0
100
AcDbLine
 62
2
  6
CONTINUOUS
 10
9.275
 20
0.0
 11
9.275
 21
1.25
  0
LINE
  5
231
100
AcDbEntity
  8
0
100
AcDbLine
 62
2
  6
CONTINUOUS
 10
9.275
 20
0.625
 11
-0.0
 21
0.625
  0
LINE
  5
232
100
AcDbEntity
  8
0
100
AcDbLine
 62
2
  6
CONTINUOUS
 10
9.275
 20
1.25
 11
-0.0
 21
1.25
  0
LINE
  5
233
100
AcDbEntity
  8
0
100
AcDbLine
 62
2
  6
CONTINUOUS
 10
6.8
 20
0.0
 11
6.8
 21
1.25
  0
LINE
  5
234
100
AcDbEntity
  8
0
100
AcDbLine
 62
2
  6
CONTINUOUS
 10
6.4
 20
0.0
 11
6.4
 21
0.625
  0
LINE
  5
235
100
AcDbEntity
  8
0
100
AcDbLine
 62
2
  6
CONTINUOUS
 10
5.9
 20
0.0
 11
5.9
 21
0.625
  0
LINE
  5
236
100
AcDbEntity
  8
0
100
AcDbLine
 62
2
  6
CONTINUOUS
 10
5.2
 20
0.0
 11
5.2
 21
0.625
  0
LINE
  5
237
100
AcDbEntity
  8
0
100
AcDbLine
 62
2
  6
CONTINUOUS
 10
4.1
 20
0.0
 11
4.1
 21
1.25
  0
LINE
  5
238
100
AcDbEntity
  8
0
100
AcDbLine
 62
2
  6
CONTINUOUS
 10
-0.0
 20
0.0
 11
-0.0
 21
1.25
  0
MTEXT
  5
239
100
AcDbEntity
  8
0
100
AcDbMText
 62
2
  6
CONTINUOUS
  7
STANDARD
 71
2
 72
1
 10
6.6
 20
0.325
 30
0.0
 11
1.0
 21
0.0
 31
0.0
 44
0.9
  1
2
 40
0.125
 41
0.2
  0
MTEXT
  5
23A
100
AcDbEntity
  8
0
100
AcDbMText
 62
2
  6
CONTINUOUS
  7
STANDARD
 71
2
 72
1
 10
6.15
 20
0.325
 30
0.0
 11
1.0
 21
0.0
 31
0.0
 44
0.9
  1
C
 40
0.125
 41
0.2
  0
MTEXT
  5
23B
100
AcDbEntity
  8
0
100
AcDbMText
 62
2
  6
CONTINUOUS
  7
STANDARD
 71
2
 72
1
 10
5.55
 20
0.325
 30
0.0
 11
1.0
 21
0.0
 31
0.0
 44
0.9
  1
1.000
 40
0.125
 41
1.0
  0
MTEXT
  5
23C
100
AcDbEntity
  8
0
100
AcDbMText
 62
2
  6
CONTINUOUS
  7
STANDARD
 71
2
 72
1
 10
4.65
 20
0.325
 30
0.0
 11
1.0
 21
0.0
 31
0.0
 44
0.9
  1
Aug-04-23
 40
0.125
 41
1.8
  0
MTEXT
  5
23D
100
AcDbEntity
  8
0
100
AcDbMText
 62
2
  6
CONTINUOUS
  7
STANDARD
 71
2
 72
1
 10
2.05
 20
0.4625
 30
0.0
 11
1.0
 21
0.0
 31
0.0
 44
0.9
  1
T-10A Subplate ISO 05 - X&Y (US)\PP to T, side ports
 40
0.125
 41
6.4
  0
MTEXT
  5
23E
100
AcDbEntity
  8
0
100
AcDbMText
 62
2
  6
CONTINUOUS
  7
STANDARD
 71
1
 72
1
 10
6.45
 20
0.5625
 30
0.0
 11
1.0
 21
0.0
 31
0.0
 44
0.9
  1
SHEET
 40
0.06
 41
0.48
  0
MTEXT
  5
23F
100
AcDbEntity
  8
0
100
AcDbMText
 62
2
  6
CONTINUOUS
  7
STANDARD
 71
1
 72
1
 10
5.95
 20
0.5625
 30
0.0
 11
1.0
 21
0.0
 31
0.0
 44
0.9
  1
DWG SIZE
 40
0.06
 41
0.768
  0
MTEXT
  5
240
100
AcDbEntity
  8
0
100
AcDbMText
 62
2
  6
CONTINUOUS
  7
STANDARD
 71
1
 72
1
 10
5.25
 20
0.5625
 30
0.0
 11
1.0
 21
0.0
 31
0.0
 44
0.9
  1
SCALE
 40
0.06
 41
0.48
  0
MTEXT
  5
241
100
AcDbEntity
  8
0
100
AcDbMText
 62
2
  6
CONTINUOUS
  7
STANDARD
 71
1
 72
1
 10
4.15
 20
0.5625
 30
0.0
 11
1.0
 21
0.0
 31
0.0
 44
0.9
  1
DATE
 40
0.06
 41
0.384
  0
MTEXT
  5
242
100
AcDbEntity
  8
0
100
AcDbMText
 62
2
  6
CONTINUOUS
  7
STANDARD
 71
1
 72
1
 10
0.05
 20
0.5625
 30
0.0
 11
1.0
 21
0.0
 31
0.0
 44
0.9
  1
DESCRIPTION
 40
0.06
 41
1.056
  0
MTEXT
  5
243
100
AcDbEntity
  8
0
100
AcDbMText
 62
2
  6
CONTINUOUS
  7
STANDARD
 71
2
 72
1
 10
5.45
 20
1.0375
 30
0.0
 11
1.0
 21
0.0
 31
0.0
 44
0.9
  1
ALL DIMENSIONS IN INCH\PVIEWS ARE THIRD ANGLE
 40
0.12
 41
4.224
  0
MTEXT
  5
244
100
AcDbEntity
  8
0
100
AcDbMText
 62
2
  6
CONTINUOUS
  7
STANDARD
 71
2
 72
1
 10
2.05
 20
0.95
 30
0.0
 11
1.0
 21
0.0
 31
0.0
 44
0.9
  1
ZHK
 40
0.125
 41
0.6
  0
MTEXT
  5
245
100
AcDbEntity
  8
0
100
AcDbMText
 62
2
  6
CONTINUOUS
  7
STANDARD
 71
1
 72
1
 10
0.05
 20
1.1875
 30
0.0
 11
1.0
 21
0.0
 31
0.0
 44
0.9
  1
MODEL
 40
0.06
 41
0.48
  0
ENDBLK
  5
246
100
AcDbEntity
  8
0
  6
BYBLOCK
 62
0
100
AcDbBlockEnd
  0
BLOCK
  5
247
100
AcDbEntity
  8
0
100
AcDbBlockBegin
  2
*T2
 70
1
 10
0.0
 20
0.0
  3
*T2
  1

  0
LINE
  5
248
100
AcDbEntity
  8
0
100
AcDbLine
 62
2
  6
CONTINUOUS
 10
0.0
 20
0.0
 11
9.055
 21
0.0
  0
LINE
  5
249
100
AcDbEntity
  8
0
100
AcDbLine
 62
2
  6
CONTINUOUS
 10
0.0
 20
0.0
 11
0.0
 21
-2.594
  0
LINE
  5
24A
100
AcDbEntity
  8
0
100
AcDbLine
 62
2
  6
CONTINUOUS
 10
0.0
 20
-0.344
 11
9.055
 21
-0.344
  0
LINE
  5
24B
100
AcDbEntity
  8
0
100
AcDbLine
 62
2
  6
CONTINUOUS
 10
0.0
 20
-0.594
 11
9.055
 21
-0.594
  0
LINE
  5
24C
100
AcDbEntity
  8
0
100
AcDbLine
 62
2
  6
CONTINUOUS
 10
0.0
 20
-0.844
 11
9.055
 21
-0.844
  0
LINE
  5
24D
100
AcDbEntity
  8
0
100
AcDbLine
 62
2
  6
CONTINUOUS
 10
0.0
 20
-1.094
 11
9.055
 21
-1.094
  0
LINE
  5
24E
100
AcDbEntity
  8
0
100
AcDbLine
 62
2
  6
CONTINUOUS
 10
0.0
 20
-1.344
 11
9.055
 21
-1.344
  0
LINE
  5
24F
100
AcDbEntity
  8
0
100
AcDbLine
 62
2
  6
CONTINUOUS
 10
0.0
 20
-1.594
 11
9.055
 21
-1.594
  0
LINE
  5
250
100
AcDbEntity
  8
0
100
AcDbLine
 62
2
  6
CONTINUOUS
 10
0.0
 20
-1.844
 11
9.055
 21
-1.844
  0
LINE
  5
251
100
AcDbEntity
  8
0
100
AcDbLine
 62
2
  6
CONTINUOUS
 10
0.0
 20
-2.094
 11
9.055
 21
-2.094
  0
LINE
  5
252
100
AcDbEntity
  8
0
100
AcDbLine
 62
2
  6
CONTINUOUS
 10
0.0
 20
-2.344
 11
9.055
 21
-2.344
  0
LINE
  5
253
100
AcDbEntity
  8
0
100
AcDbLine
 62
2
  6
CONTINUOUS
 10
0.0
 20
-2.594
 11
9.055
 21
-2.594
  0
LINE
  5
254
100
AcDbEntity
  8
0
100
AcDbLine
 62
2
  6
CONTINUOUS
 10
3.055
 20
0.0
 11
3.055
 21
-2.594
  0
LINE
  5
255
100
AcDbEntity
  8
0
100
AcDbLine
 62
2
  6
CONTINUOUS
 10
9.055
 20
0.0
 11
9.055
 21
-2.594
  0
MTEXT
  5
256
100
AcDbEntity
  8
0
100
AcDbMText
 62
2
  6
CONTINUOUS
  7
STANDARD
 71
2
 72
1
 10
1.5275
 20
-0.0995
 30
0.0
 11
1.0
 21
0.0
 31
0.0
 44
0.9
  1
Technical Data
 40
0.145
 41
3.248
  0
MTEXT
  5
257
100
AcDbEntity
  8
0
100
AcDbMText
 62
2
  6
CONTINUOUS
  7
STANDARD
 71
2
 72
1
 10
4.555
 20
-0.0995
 30
0.0
 11
1.0
 21
0.0
 31
0.0
 44
0.9
  1
U.S. Units
 40
0.145
 41
2.32
  0
MTEXT
  5
258
100
AcDbEntity
  8
0
100
AcDbMText
 62
2
  6
CONTINUOUS
  7
STANDARD
 71
2
 72
1
 10
7.555
 20
-0.0995
 30
0.0
 11
1.0
 21
0.0
 31
0.0
 44
0.9
  1
Metric Units
 40
0.145
 41
2.784
  0
MTEXT
  5
259
100
AcDbEntity
  8
0
100
AcDbMText
 62
2
  6
CONTINUOUS
  7
STANDARD
 71
2
 72
1
 10
1.5275
 20
-0.4065
 30
0.0
 11
1.0
 21
0.0
 31
0.0
 44
0.9
  1
Cavity
 40
0.125
 41
1.2
  0
MTEXT
  5
25A
100
AcDbEntity
  8
0
100
AcDbMText
 62
2
  6
CONTINUOUS
  7
STANDARD
 71
2
 72
1
 10
6.055
 20
-0.4065
 30
0.0
 11
1.0
 21
0.0
 31
0.0
 44
0.9
  1
T-10A
 40
0.125
 41
1.0
  0
MTEXT
  5
25B
100
AcDbEntity
  8
0
100
AcDbMText
 62
2
  6
CONTINUOUS
  7
STANDARD
 71
2
 72
1
 10
1.5275
 20
-0.6565
 30
0.0
 11
1.0
 21
0.0
 31
0.0
 44
0.9
  1
Body Features
 40
0.125
 41
2.6
  0
MTEXT
  5
25C
100
AcDbEntity
  8
0
100
AcDbMText
 62
2
  6
CONTINUOUS
  7
STANDARD
 71
2
 72
1
 10
6.055
 20
-0.6565
 30
0.0
 11
1.0
 21
0.0
 31
0.0
 44
0.9
  1
P to T, side ports
 40
0.125
 41
3.6
  0
MTEXT
  5
25D
100
AcDbEntity
  8
0
100
AcDbMText
 62
2
  6
CONTINUOUS
  7
STANDARD
 71
2
 72
1
 10
1.5275
 20
-0.9065
 30
0.0
 11
1.0
 21
0.0
 31
0.0
 44
0.9
  1
Body Type
 40
0.125
 41
1.8
  0
MTEXT
  5
25E
100
AcDbEntity
  8
0
100
AcDbMText
 62
2
  6
CONTINUOUS
  7
STANDARD
 71
2
 72
1
 10
6.055
 20
-0.9065
 30
0.0
 11
1.0
 21
0.0
 31
0.0
 44
0.9
  1
Subplate
 40
0.125
 41
1.6
  0
MTEXT
  5
25F
100
AcDbEntity
  8
0
100
AcDbMText
 62
2
  6
CONTINUOUS
  7
STANDARD
 71
2
 72
1
 10
1.5275
 20
-1.1565
 30
0.0
 11
1.0
 21
0.0
 31
0.0
 44
0.9
  1
Interface
 40
0.125
 41
1.8
  0
MTEXT
  5
260
100
AcDbEntity
  8
0
100
AcDbMText
 62
2
  6
CONTINUOUS
  7
STANDARD
 71
2
 72
1
 10
6.055
 20
-1.1565
 30
0.0
 11
1.0
 21
0.0
 31
0.0
 44
0.9
  1
ISO 05 - X&Y (US)
 40
0.125
 41
3.4
  0
MTEXT
  5
261
100
AcDbEntity
  8
0
100
AcDbMText
 62
2
  6
CONTINUOUS
  7
STANDARD
 71
2
 72
1
 10
1.5275
 20
-1.4065
 30
0.0
 11
1.0
 21
0.0
 31
0.0
 44
0.9
  1
Open Cavity Quantity
 40
0.125
 41
4.0
  0
MTEXT
  5
262
100
AcDbEntity
  8
0
100
AcDbMText
 62
2
  6
CONTINUOUS
  7
STANDARD
 71
2
 72
1
 10
6.055
 20
-1.4065
 30
0.0
 11
1.0
 21
0.0
 31
0.0
 44
0.9
  1
1
 40
0.125
 41
0.2
  0
MTEXT
  5
263
100
AcDbEntity
  8
0
100
AcDbMText
 62
2
  6
CONTINUOUS
  7
STANDARD
 71
2
 72
1
 10
1.5275
 20
-1.6565
 30
0.0
 11
1.0
 21
0.0
 31
0.0
 44
0.9
  1
Weight
 40
0.125
 41
1.2
  0
MTEXT
  5
264
100
AcDbEntity
  8
0
100
AcDbMText
 62
2
  6
CONTINUOUS
  7
STANDARD
 71
2
 72
1
 10
4.555
 20
-1.6565
 30
0.0
 11
1.0
 21
0.0
 31
0.0
 44
0.9
  1
3.616 lb.
 40
0.125
 41
1.8
  0
MTEXT
  5
265
100
AcDbEntity
  8
0
100
AcDbMText
 62
2
  6
CONTINUOUS
  7
STANDARD
 71
2
 72
1
 10
7.555
 20
-1.6565
 30
0.0
 11
1.0
 21
0.0
 31
0.0
 44
0.9
  1
1,640 kg.
 40
0.125
 41
1.8
  0
MTEXT
  5
266
100
AcDbEntity
  8
0
100
AcDbMText
 62
2
  6
CONTINUOUS
  7
STANDARD
 71
2
 72
1
 10
1.5275
 20
-1.9065
 30
0.0
 11
1.0
 21
0.0
 31
0.0
 44
0.9
  1
Mounting Hole Diameter
 40
0.125
 41
4.4
  0
MTEXT
  5
267
100
AcDbEntity
  8
0
100
AcDbMText
 62
2
  6
CONTINUOUS
  7
STANDARD
 71
2
 72
1
 10
4.555
 20
-1.9065
 30
0.0
 11
1.0
 21
0.0
 31
0.0
 44
0.9
  1
.44 in.
 40
0.125
 41
1.4
  0
MTEXT
  5
268
100
AcDbEntity
  8
0
100
AcDbMText
 62
2
  6
CONTINUOUS
  7
STANDARD
 71
2
 72
1
 10
7.555
 20
-1.9065
 30
0.0
 11
1.0
 21
0.0
 31
0.0
 44
0.9
  1
11,1 mm
 40
0.125
 41
1.4
  0
MTEXT
  5
269
100
AcDbEntity
  8
0
100
AcDbMText
 62
2
  6
CONTINUOUS
  7
STANDARD
 71
2
 72
1
 10
1.5275
 20
-2.1565
 30
0.0
 11
1.0
 21
0.0
 31
0.0
 44
0.9
  1
Mounting Hole Depth
 40
0.125
 41
3.8
  0
MTEXT
  5
26A
100
AcDbEntity
  8
0
100
AcDbMText
 62
2
  6
CONTINUOUS
  7
STANDARD
 71
2
 72
1
 10
6.055
 20
-2.1565
 30
0.0
 11
1.0
 21
0.0
 31
0.0
 44
0.9
  1
Through
 40
0.125
 41
1.4
  0
MTEXT
  5
26B
100
AcDbEntity
  8
0
100
AcDbMText
 62
2
  6
CONTINUOUS
  7
STANDARD
 71
2
 72
1
 10
1.5275
 20
-2.4065
 30
0.0
 11
1.0
 21
0.0
 31
0.0
 44
0.9
  1
Mounting Hole Quantity
 40
0.125
 41
4.4
  0
MTEXT
  5
26C
100
AcDbEntity
  8
0
100
AcDbMText
 62
2
  6
CONTINUOUS
  7
STANDARD
 71
2
 72
1
 10
6.055
 20
-2.4065
 30
0.0
 11
1.0
 21
0.0
 31
0.0
 44
0.9
  1
4
 40
0.125
 41
0.2
  0
ENDBLK
  5
26D
100
AcDbEntity
  8
0
  6
BYBLOCK
 62
0
100
AcDbBlockEnd
  0
BLOCK
  5
26E
100
AcDbEntity
  8
0
100
AcDbBlockBegin
  2
*T3
 70
1
 10
0.0
 20
0.0
  3
*T3
  1

  0
LINE
  5
26F
100
AcDbEntity
  8
0
100
AcDbLine
 62
2
  6
CONTINUOUS
 10
0.0
 20
0.0
 11
4.6
 21
0.0
  0
LINE
  5
270
100
AcDbEntity
  8
0
100
AcDbLine
 62
2
  6
CONTINUOUS
 10
0.0
 20
0.0
 11
0.0
 21
-1.18775
  0
LINE
  5
271
100
AcDbEntity
  8
0
100
AcDbLine
 62
2
  6
CONTINUOUS
 10
0.0
 20
-0.34375
 11
4.6
 21
-0.34375
  0
LINE
  5
272
100
AcDbEntity
  8
0
100
AcDbLine
 62
2
  6
CONTINUOUS
 10
0.0
 20
-0.68775
 11
4.6
 21
-0.68775
  0
LINE
  5
273
100
AcDbEntity
  8
0
100
AcDbLine
 62
2
  6
CONTINUOUS
 10
0.0
 20
-0.93775
 11
4.6
 21
-0.93775
  0
LINE
  5
274
100
AcDbEntity
  8
0
100
AcDbLine
 62
2
  6
CONTINUOUS
 10
0.0
 20
-1.18775
 11
4.6
 21
-1.18775
  0
LINE
  5
275
100
AcDbEntity
  8
0
100
AcDbLine
 62
2
  6
CONTINUOUS
 10
1.3
 20
-0.34375
 11
1.3
 21
-1.18775
  0
LINE
  5
276
100
AcDbEntity
  8
0
100
AcDbLine
 62
2
  6
CONTINUOUS
 10
3.3
 20
-0.34375
 11
3.3
 21
-1.18775
  0
LINE
  5
277
100
AcDbEntity
  8
0
100
AcDbLine
 62
2
  6
CONTINUOUS
 10
4.6
 20
0.0
 11
4.6
 21
-1.18775
  0
MTEXT
  5
278
100
AcDbEntity
  8
0
100
AcDbMText
 62
2
  6
CONTINUOUS
  7
STANDARD
 71
2
 72
1
 10
2.3
 20
-0.099375
 30
0.0
 11
1.0
 21
0.0
 31
0.0
 44
0.9
  1
Port Headings
 40
0.145
 41
3.016
  0
MTEXT
  5
279
100
AcDbEntity
  8
0
100
AcDbMText
 62
2
  6
CONTINUOUS
  7
STANDARD
 71
2
 72
1
 10
0.65
 20
-0.44325
 30
0.0
 11
1.0
 21
0.0
 31
0.0
 44
0.9
  1
Product
 40
0.145
 41
1.624
  0
MTEXT
  5
27A
100
AcDbEntity
  8
0
100
AcDbMText
 62
2
  6
CONTINUOUS
  7
STANDARD
 71
2
 72
1
 10
2.3
 20
-0.44325
 30
0.0
 11
1.0
 21
0.0
 31
0.0
 44
0.9
  1
Port
 40
0.145
 41
0.928
  0
MTEXT
  5
27B
100
AcDbEntity
  8
0
100
AcDbMText
 62
2
  6
CONTINUOUS
  7
STANDARD
 71
2
 72
1
 10
3.95
 20
-0.44325
 30
0.0
 11
1.0
 21
0.0
 31
0.0
 44
0.9
  1
Size
 40
0.145
 41
0.928
  0
MTEXT
  5
27C
100
AcDbEntity
  8
0
100
AcDbMText
 62
2
  6
CONTINUOUS
  7
STANDARD
 71
2
 72
1
 10
0.65
 20
-0.75025
 30
0.0
 11
1.0
 21
0.0
 31
0.0
 44
0.9
  1
ZHK
 40
0.125
 41
0.6
  0
MTEXT
  5
27D
100
AcDbEntity
  8
0
100
AcDbMText
 62
2
  6
CONTINUOUS
  7
STANDARD
 71
2
 72
1
 10
2.3
 20
-0.75025
 30
0.0
 11
1.0
 21
0.0
 31
0.0
 44
0.9
  1
Ports A, B, P, T
 40
0.125
 41
3.2
  0
MTEXT
  5
27E
100
AcDbEntity
  8
0
100
AcDbMText
 62
2
  6
CONTINUOUS
  7
STANDARD
 71
2
 72
1
 10
3.95
 20
-0.75025
 30
0.0
 11
1.0
 21
0.0
 31
0.0
 44
0.9
  1
SAE 10
 40
0.125
 41
1.2
  0
MTEXT
  5
27F
100
AcDbEntity
  8
0
100
AcDbMText
 62
2
  6
CONTINUOUS
  7
STANDARD
 71
2
 72
1
 10
0.65
 20
-1.00025
 30
0.0
 11
1.0
 21
0.0
 31
0.0
 44
0.9
  1
ZHK
 40
0.125
 41
0.6
  0
MTEXT
  5
280
100
AcDbEntity
  8
0
100
AcDbMText
 62
2
  6
CONTINUOUS
  7
STANDARD
 71
2
 72
1
 10
2.3
 20
-1.00025
 30
0.0
 11
1.0
 21
0.0
 31
0.0
 44
0.9
  1
Ports X & Y
 40
0.125
 41
2.2
  0
MTEXT
  5
281
100
AcDbEntity
  8
0
100
AcDbMText
 62
2
  6
CONTINUOUS
  7
STANDARD
 71
2
 72
1
 10
3.95
 20
-1.00025
 30
0.0
 11
1.0
 21
0.0
 31
0.0
 44
0.9
  1
SAE 6
 40
0.125
 41
1.0
  0
ENDBLK
  5
282
100
AcDbEntity
  8
0
  6
BYBLOCK
 62
0
100
AcDbBlockEnd
  0
ENDSEC
  0
SECTION
  2
ENTITIES
  0
IMAGE
  5
283
100
AcDbEntity
  8
0
100
AcDbRasterImage
 62
7
  6
CONTINUOUS
 10
19.2297077316
 20
0.3094318264
 30
0.0
 11
0.0066666667
 21
0.0
 31
0.0
 12
0.0
 22
0.0066666667
 32
0.0
 13
369.0
 23
92.0
340
       3AE
 70
9
280
0
281
50
282
50
283
0
360
       3A8
 71
1
 91
2
 14
-0.5
 24
-0.5
 14
368.5
 24
91.5
  0
INSERT
  5
284
100
AcDbEntity
  8
0
100
AcDbBlockReference
 62
2
  6
CONTINUOUS
  2
SUN_FIRST_THIRD_ANGLE_BL0
 10
20.4816717061
 20
1.2289683772
  0
ACAD_TABLE
  5
285
100
AcDbEntity
  8
0
 62
2
  6
CONTINUOUS
100
AcDbBlockReference
  2
*T1
 10
12.42375
 20
0.30125
 30
0.0
100
AcDbTable
342
       3B0
343
207
 11
1.0
 21
0.0
 31
0.0
 90
6
 91
4
 92
6
 93
20
 94
0
 95
0
 96
0
 70
1
 41
0.0
141
0.525
141
0.1
141
0.525
141
0.1
142
4.1
142
1.1
142
0.7
142
0.5
142
0.4
142
2.475
171
1
172
0
173
0
174
0
175
1
176
1
 91
33
178
0
145
0.0
301
CELL_VALUE
 90
4
  1
T-10A Subplate ISO 05 - X&Y (US)\PP to T, side ports
304
ACVALUE_END
170
2
140
0.125
171
1
172
0
173
0
174
0
175
1
176
1
 91
33
178
0
145
0.0
301
CELL_VALUE
 90
4
  1
Aug-04-23
304
ACVALUE_END
170
5
140
0.125
171
1
172
0
173
0
174
0
175
1
176
1
 91
33
178
0
145
0.0
301
CELL_VALUE
 90
4
  1
1.000
304
ACVALUE_END
170
5
140
0.125
171
1
172
0
173
0
174
0
175
1
176
1
 91
33
178
0
145
0.0
301
CELL_VALUE
 90
4
  1
C
304
ACVALUE_END
170
5
140
0.125
171
1
172
0
173
0
174
0
175
1
176
1
 91
33
178
0
145
0.0
301
CELL_VALUE
 90
4
  1
2
304
ACVALUE_END
170
5
140
0.125
171
1
172
0
173
0
174
0
175
1
176
1
 91
33
178
0
145
0.0
301
CELL_VALUE
 90
4
  1
 
304
ACVALUE_END
170
1
140
0.125
171
1
172
0
173
0
174
0
175
1
176
1
 91
33
178
0
145
0.0
301
CELL_VALUE
 90
4
  1
DESCRIPTION
304
ACVALUE_END
170
1
140
0.06
171
1
172
0
173
0
174
0
175
1
176
1
 91
33
178
0
145
0.0
301
CELL_VALUE
 90
4
  1
DATE
304
ACVALUE_END
170
1
140
0.06
171
1
172
0
173
0
174
0
175
1
176
1
 91
33
178
0
145
0.0
301
CELL_VALUE
 90
4
  1
SCALE
304
ACVALUE_END
170
1
140
0.06
171
1
172
0
173
0
174
0
175
1
176
1
 91
33
178
0
145
0.0
301
CELL_VALUE
 90
4
  1
DWG SIZE
304
ACVALUE_END
170
1
140
0.06
171
1
172
0
173
0
174
0
175
1
176
1
 91
33
178
0
145
0.0
301
CELL_VALUE
 90
4
  1
SHEET
304
ACVALUE_END
170
1
140
0.06
171
1
172
0
173
0
174
0
175
1
176
1
 91
33
178
0
145
0.0
301
CELL_VALUE
 90
4
  1
 
304
ACVALUE_END
170
1
140
0.125
171
1
172
0
173
0
174
0
175
1
176
1
 91
33
178
0
145
0.0
301
CELL_VALUE
 90
4
  1
ZHK
304
ACVALUE_END
170
5
140
0.125
171
1
172
0
173
0
174
0
175
4
176
1
 91
33
178
0
145
0.0
301
CELL_VALUE
 90
4
  1
ALL DIMENSIONS IN INCH\PVIEWS ARE THIRD ANGLE
304
ACVALUE_END
170
5
140
0.12
171
1
172
0
173
1
174
0
175
1
176
1
 91
1
178
0
145
0.0
170
1
171
1
172
0
173
1
174
0
175
1
176
1
 91
1
178
0
145
0.0
170
1
171
1
172
0
173
1
174
0
175
1
176
1
 91
1
178
0
145
0.0
170
5
171
1
172
0
173
0
174
0
175
1
176
1
 91
33
178
0
145
0.0
301
CELL_VALUE
 90
4
  1
 
304
ACVALUE_END
170
1
140
0.125
171
1
172
0
173
0
174
0
175
1
176
1
 91
33
178
0
145
0.0
301
CELL_VALUE
 90
4
  1
MODEL
304
ACVALUE_END
170
1
140
0.06
171
1
172
0
173
0
174
0
175
1
176
1
 91
33
178
0
145
0.0
301
CELL_VALUE
 90
4
  1
 
304
ACVALUE_END
170
1
140
0.125
171
1
172
0
173
0
174
0
175
1
176
1
 91
33
178
0
145
0.0
301
CELL_VALUE
 90
4
  1
 
304
ACVALUE_END
170
1
140
0.125
171
1
172
0
173
0
174
0
175
1
176
1
 91
33
178
0
145
0.0
301
CELL_VALUE
 90
4
  1
 
304
ACVALUE_END
170
1
140
0.125
171
1
172
0
173
0
174
0
175
1
176
1
 91
33
178
0
145
0.0
301
CELL_VALUE
 90
4
  1
 
304
ACVALUE_END
170
1
140
0.125
171
1
172
0
173
0
174
0
175
1
176
1
 91
33
178
0
145
0.0
301
CELL_VALUE
 90
4
  1
 
304
ACVALUE_END
170
1
140
0.125
  0
ACAD_TABLE
  5
286
100
AcDbEntity
  8
0
 62
2
  6
CONTINUOUS
100
AcDbBlockReference
  2
*T2
 10
12.4237499994
 20
16.47875
 30
0.0
100
AcDbTable
342
       3AF
343
208
 11
1.0
 21
0.0
 31
0.0
 90
22
 91
10
 92
3
 93
16
 94
0
 95
0
 96
0
 41
0.028
141
0.344
141
0.25
141
0.25
141
0.25
141
0.25
141
0.25
141
0.25
141
0.25
141
0.25
141
0.25
142
3.055
142
3.0
142
3.0
171
1
172
0
173
0
174
0
175
1
176
1
 91
33
178
0
145
0.0
301
CELL_VALUE
 90
4
  1
Technical Data
304
ACVALUE_END
170
5
140
0.145
171
1
172
0
173
0
174
0
175
1
176
1
 91
33
178
0
145
0.0
301
CELL_VALUE
 90
4
  1
U.S. Units
304
ACVALUE_END
170
5
140
0.145
171
1
172
0
173
0
174
0
175
1
176
1
 91
33
178
0
145
0.0
301
CELL_VALUE
 90
4
  1
Metric Units
304
ACVALUE_END
170
5
140
0.145
171
1
172
0
173
0
174
0
175
1
176
1
 91
33
178
0
145
0.0
301
CELL_VALUE
 90
4
  1
Cavity
304
ACVALUE_END
170
5
140
0.125
171
1
172
0
173
0
174
0
175
2
176
1
 91
33
178
0
145
0.0
301
CELL_VALUE
 90
4
  1
T-10A
304
ACVALUE_END
170
5
140
0.125
171
1
172
0
173
1
174
0
175
1
176
1
 91
1
178
0
145
0.0
170
1
171
1
172
0
173
0
174
0
175
1
176
1
 91
33
178
0
145
0.0
301
CELL_VALUE
 90
4
  1
Body Features
304
ACVALUE_END
170
5
140
0.125
171
1
172
0
173
0
174
0
175
2
176
1
 91
33
178
0
145
0.0
301
CELL_VALUE
 90
4
  1
P to T, side ports
304
ACVALUE_END
170
5
140
0.125
171
1
172
0
173
1
174
0
175
1
176
1
 91
1
178
0
145
0.0
170
1
171
1
172
0
173
0
174
0
175
1
176
1
 91
33
178
0
145
0.0
301
CELL_VALUE
 90
4
  1
Body Type
304
ACVALUE_END
170
5
140
0.125
171
1
172
0
173
0
174
0
175
2
176
1
 91
33
178
0
145
0.0
301
CELL_VALUE
 90
4
  1
Subplate
304
ACVALUE_END
170
5
140
0.125
171
1
172
0
173
1
174
0
175
1
176
1
 91
1
178
0
145
0.0
170
1
171
1
172
0
173
0
174
0
175
1
176
1
 91
33
178
0
145
0.0
301
CELL_VALUE
 90
4
  1
Interface
304
ACVALUE_END
170
5
140
0.125
171
1
172
0
173
0
174
0
175
2
176
1
 91
33
178
0
145
0.0
301
CELL_VALUE
 90
4
  1
ISO 05 - X&Y (US)
304
ACVALUE_END
170
5
140
0.125
171
1
172
0
173
1
174
0
175
1
176
1
 91
1
178
0
145
0.0
170
1
171
1
172
0
173
0
174
0
175
1
176
1
 91
33
178
0
145
0.0
301
CELL_VALUE
 90
4
  1
Open Cavity Quantity
304
ACVALUE_END
170
5
140
0.125
171
1
172
0
173
0
174
0
175
2
176
1
 91
33
178
0
145
0.0
301
CELL_VALUE
 90
4
  1
1
304
ACVALUE_END
170
5
140
0.125
171
1
172
0
173
1
174
0
175
1
176
1
 91
1
178
0
145
0.0
170
1
171
1
172
0
173
0
174
0
175
1
176
1
 91
33
178
0
145
0.0
301
CELL_VALUE
 90
4
  1
Weight
304
ACVALUE_END
170
5
140
0.125
171
1
172
0
173
0
174
0
175
1
176
1
 91
33
178
0
145
0.0
301
CELL_VALUE
 90
4
  1
3.616 lb.
304
ACVALUE_END
170
5
140
0.125
171
1
172
0
173
0
174
0
175
1
176
1
 91
33
178
0
145
0.0
301
CELL_VALUE
 90
4
  1
1,640 kg.
304
ACVALUE_END
170
5
140
0.125
171
1
172
0
173
0
174
0
175
1
176
1
 91
33
178
0
145
0.0
301
CELL_VALUE
 90
4
  1
Mounting Hole Diameter
304
ACVALUE_END
170
5
140
0.125
171
1
172
0
173
0
174
0
175
1
176
1
 91
33
178
0
145
0.0
301
CELL_VALUE
 90
4
  1
.44 in.
304
ACVALUE_END
170
5
140
0.125
171
1
172
0
173
0
174
0
175
1
176
1
 91
33
178
0
145
0.0
301
CELL_VALUE
 90
4
  1
11,1 mm
304
ACVALUE_END
170
5
140
0.125
171
1
172
0
173
0
174
0
175
1
176
1
 91
33
178
0
145
0.0
301
CELL_VALUE
 90
4
  1
Mounting Hole Depth
304
ACVALUE_END
170
5
140
0.125
171
1
172
0
173
0
174
0
175
2
176
1
 91
33
178
0
145
0.0
301
CELL_VALUE
 90
4
  1
Through
304
ACVALUE_END
170
5
140
0.125
171
1
172
0
173
1
174
0
175
1
176
1
 91
1
178
0
145
0.0
170
1
171
1
172
0
173
0
174
0
175
1
176
1
 91
33
178
0
145
0.0
301
CELL_VALUE
 90
4
  1
Mounting Hole Quantity
304
ACVALUE_END
170
5
140
0.125
171
1
172
0
173
0
174
0
175
2
176
1
 91
33
178
0
145
0.0
301
CELL_VALUE
 90
4
  1
4
304
ACVALUE_END
170
5
140
0.125
171
1
172
0
173
1
174
0
175
1
176
1
 91
1
178
0
145
0.0
170
1
  0
ACAD_TABLE
  5
287
100
AcDbEntity
  8
0
 62
2
  6
CONTINUOUS
100
AcDbBlockReference
  2
*T3
 10
0.52125
 20
1.709
 30
0.0
100
AcDbTable
342
       3AF
343
209
 11
1.0
 21
0.0
 31
0.0
 90
22
 91
4
 92
3
 93
16
 94
0
 95
0
 96
0
 41
0.05
141
0.34375
141
0.344
141
0.25
141
0.25
142
1.3
142
2.0
142
1.3
171
1
172
0
173
0
174
0
175
3
176
1
 91
33
178
0
145
0.0
301
CELL_VALUE
 90
4
  1
Port Headings
304
ACVALUE_END
170
5
140
0.145
171
1
172
0
173
1
174
0
175
1
176
1
 91
1
178
0
145
0.0
170
1
171
1
172
0
173
1
174
0
175
1
176
1
 91
1
178
0
145
0.0
170
1
171
1
172
0
173
0
174
0
175
1
176
1
 91
33
178
0
145
0.0
301
CELL_VALUE
 90
4
  1
Product
304
ACVALUE_END
170
5
140
0.145
171
1
172
0
173
0
174
0
175
1
176
1
 91
33
178
0
145
0.0
301
CELL_VALUE
 90
4
  1
Port
304
ACVALUE_END
170
5
140
0.145
171
1
172
0
173
0
174
0
175
1
176
1
 91
33
178
0
145
0.0
301
CELL_VALUE
 90
4
  1
Size
304
ACVALUE_END
170
5
140
0.145
171
1
172
0
173
0
174
0
175
1
176
1
 91
33
178
0
145
0.0
301
CELL_VALUE
 90
4
  1
ZHK
304
ACVALUE_END
170
5
140
0.125
171
1
172
0
173
0
174
0
175
1
176
1
 91
33
178
0
145
0.0
301
CELL_VALUE
 90
4
  1
Ports A, B, P, T
304
ACVALUE_END
170
5
140
0.125
171
1
172
0
173
0
174
0
175
1
176
1
 91
33
178
0
145
0.0
301
CELL_VALUE
 90
4
  1
SAE 10
304
ACVALUE_END
170
5
140
0.125
171
1
172
0
173
0
174
0
175
1
176
1
 91
33
178
0
145
0.0
301
CELL_VALUE
 90
4
  1
ZHK
304
ACVALUE_END
170
5
140
0.125
171
1
172
0
173
0
174
0
175
1
176
1
 91
33
178
0
145
0.0
301
CELL_VALUE
 90
4
  1
Ports X & Y
304
ACVALUE_END
170
5
140
0.125
171
1
172
0
173
0
174
0
175
1
176
1
 91
33
178
0
145
0.0
301
CELL_VALUE
 90
4
  1
SAE 6
304
ACVALUE_END
170
5
140
0.125
  0
MTEXT
  5
288
100
AcDbEntity
  8
0
100
AcDbMText
 62
2
  6
CONTINUOUS
  7
STANDARD
 71
1
 72
1
 10
0.52125
 20
5.75995
 30
0.0
 11
1.0
 21
0.0
 31
0.0
 44
0.6
  3
Notes\P \P1. Important: Carefully consider\P   the maximum system pressure. The\P   pressure rating of the manifold is\P   dependent on the manifold material,\P   with the port type/size a secondary\P   consideration. Manifolds\P   constructed of alu
  3
minum are not\P   rated for pressures higher than\P   3000 psi (210 bar), regardless of\P   the port type/size specified.\P2. This drawing is for reference\P   only. It is generated by an\P   automated process and does not fall\P   under Sun's docume
  1
nt control\P   process.
 40
0.1
 41
3.04
  0
LINE
  5
289
100
AcDbEntity
  8
0
100
AcDbLine
 62
7
  6
CONTINUOUS
 10
0.30125
 20
0.30125
 11
0.30125
 21
16.69875
  0
LINE
  5
28A
100
AcDbEntity
  8
0
100
AcDbLine
 62
7
  6
CONTINUOUS
 10
0.30125
 20
0.30125
 11
21.69875
 21
0.30125
  0
LINE
  5
28B
100
AcDbEntity
  8
0
100
AcDbLine
 62
7
  6
CONTINUOUS
 10
0.30125
 20
16.69875
 11
21.69875
 21
16.69875
  0
LINE
  5
28C
100
AcDbEntity
  8
0
100
AcDbLine
 62
7
  6
CONTINUOUS
 10
21.69875
 20
0.30125
 11
21.69875
 21
16.69875
  0
LINE
  5
28D
100
AcDbEntity
  8
0
100
AcDbLine
 62
7
  6
CONTINUOUS
 10
9.3836483839
 20
11.112057375
 11
8.752648082
 21
10.502557851
  0
LINE
  5
28E
100
AcDbEntity
  8
0
100
AcDbLine
 62
4
  6
CONTINUOUS
 10
8.963721556
 20
10.5964391828
 11
8.9714861209
 21
10.603939177
  0
LINE
  5
28F
100
AcDbEntity
  8
0
100
AcDbLine
 62
4
  6
CONTINUOUS
 10
9.0139125441
 20
10.5849199573
 11
9.021677109
 21
10.5924199515
  0
LINE
  5
290
100
AcDbEntity
  8
0
100
AcDbLine
 62
4
  6
CONTINUOUS
 10
9.1105051324
 20
10.5782212385
 11
9.1260342623
 21
10.593221227
  0
LINE
  5
291
100
AcDbEntity
  8
0
100
AcDbLine
 62
4
  6
CONTINUOUS
 10
9.1646712976
 20
10.5905417395
 11
9.1491421677
 21
10.575541751
  0
LINE
  5
292
100
AcDbEntity
  8
0
100
AcDbLine
 62
4
  6
CONTINUOUS
 10
9.203308333
 20
10.587862252
 11
9.1722500732
 21
10.557862275
  0
LINE
  5
293
100
AcDbEntity
  8
0
100
AcDbLine
 62
4
  6
CONTINUOUS
 10
9.393443004
 20
10.7386611285
 11
9.3623847442
 21
10.7086611515
  0
LINE
  5
294
100
AcDbEntity
  8
0
100
AcDbLine
 62
4
  6
CONTINUOUS
 10
9.2419453683
 20
10.5851827645
 11
9.2264162384
 21
10.570182776
  0
LINE
  5
295
100
AcDbEntity
  8
0
100
AcDbLine
 62
4
  6
CONTINUOUS
 10
9.4137380804
 20
10.7096931959
 11
9.4359225517
 21
10.731121751
  0
LINE
  5
296
100
AcDbEntity
  8
0
100
AcDbLine
 62
4
  6
CONTINUOUS
 10
9.2843717914
 20
10.5661635448
 11
9.2999009213
 21
10.5811635333
  0
LINE
  5
297
100
AcDbEntity
  8
0
100
AcDbLine
 62
4
  6
CONTINUOUS
 10
9.3230088268
 20
10.5634840573
 11
9.3385379567
 21
10.5784840458
  0
LINE
  5
298
100
AcDbEntity
  8
0
100
AcDbLine
 62
4
  6
CONTINUOUS
 10
9.4983149992
 20
10.731388231
 11
9.4672567394
 21
10.7013882539
  0
LINE
  5
299
100
AcDbEntity
  8
0
100
AcDbLine
 62
4
  6
CONTINUOUS
 10
9.5048110765
 20
10.7033772622
 11
9.5269955478
 21
10.7248058173
  0
LINE
  5
29A
100
AcDbEntity
  8
0
100
AcDbLine
 62
4
  6
CONTINUOUS
 10
9.3964935097
 20
10.5744648145
 11
9.3861407564
 21
10.5644648222
  0
LINE
  5
29B
100
AcDbEntity
  8
0
100
AcDbLine
 62
4
  6
CONTINUOUS
 10
9.5849511008
 20
10.720786586
 11
9.5627666295
 21
10.699358031
  0
LINE
  5
29C
100
AcDbEntity
  8
0
100
AcDbLine
 62
4
  6
CONTINUOUS
 10
9.4775569681
 20
10.5527661073
 11
9.493086098
 21
10.5677660958
  0
LINE
  5
29D
100
AcDbEntity
  8
0
100
AcDbLine
 62
4
  6
CONTINUOUS
 10
9.6815436523
 20
10.7140878698
 11
9.659359181
 21
10.6926593148
  0
LINE
  5
29E
100
AcDbEntity
  8
0
100
AcDbLine
 62
4
  6
CONTINUOUS
 10
9.6176524069
 20
10.6523736294
 11
9.5865941472
 21
10.6223736524
  0
LINE
  5
29F
100
AcDbEntity
  8
0
100
AcDbLine
 62
4
  6
CONTINUOUS
 10
9.5006648736
 20
10.5350866313
 11
9.5317231334
 21
10.5650866083
  0
LINE
  5
2A0
100
AcDbEntity
  8
0
100
AcDbLine
 62
4
  6
CONTINUOUS
 10
9.619711604
 20
10.6200769489
 11
9.6507698638
 21
10.650076926
  0
LINE
  5
2A1
100
AcDbEntity
  8
0
100
AcDbLine
 62
4
  6
CONTINUOUS
 10
9.5896786864
 20
10.561067377
 11
9.5741495565
 21
10.5460673885
  0
LINE
  5
2A2
100
AcDbEntity
  8
0
100
AcDbLine
 62
4
  6
CONTINUOUS
 10
9.7087254168
 20
10.6460576947
 11
9.6776671571
 21
10.6160577177
  0
LINE
  5
2A3
100
AcDbEntity
  8
0
100
AcDbLine
 62
4
  6
CONTINUOUS
 10
9.6127865918
 20
10.543387901
 11
9.6438448516
 21
10.573387878
  0
LINE
  5
2A4
100
AcDbEntity
  8
0
100
AcDbLine
 62
4
  6
CONTINUOUS
 10
9.6862712747
 20
10.5543686583
 11
9.6707421448
 21
10.5393686698
  0
LINE
  5
2A5
100
AcDbEntity
  8
0
100
AcDbLine
 62
4
  6
CONTINUOUS
 10
9.8598472335
 20
10.7063158854
 11
9.8287889737
 21
10.6763159083
  0
LINE
  5
2A6
100
AcDbEntity
  8
0
100
AcDbLine
 62
4
  6
CONTINUOUS
 10
9.733601643
 20
10.5510862861
 11
9.7180725131
 21
10.5360862976
  0
LINE
  5
2A7
100
AcDbEntity
  8
0
100
AcDbLine
 62
4
  6
CONTINUOUS
 10
9.9260821472
 20
10.7017224785
 11
9.8950238875
 21
10.6717225015
  0
LINE
  5
2A8
100
AcDbEntity
  8
0
100
AcDbLine
 62
4
  6
CONTINUOUS
 10
9.791557196
 20
10.5470670548
 11
9.7604989363
 21
10.5170670778
  0
LINE
  5
2A9
100
AcDbEntity
  8
0
100
AcDbLine
 62
4
  6
CONTINUOUS
 10
10.0585519886
 20
10.6925356638
 11
9.9943762719
 21
10.6648323902
  0
LINE
  5
2AA
100
AcDbEntity
  8
0
100
AcDbLine
 62
4
  6
CONTINUOUS
 10
9.7107846139
 20
10.6137610143
 11
9.7997984267
 21
10.63974176
  0
LINE
  5
2AB
100
AcDbEntity
  8
0
100
AcDbLine
 62
7
  6
CONTINUOUS
 10
8.752648082
 20
6.1558913751
 11
12.6163516161
 21
5.887942625
  0
LINE
  5
2AC
100
AcDbEntity
  8
0
100
AcDbLine
 62
7
  6
CONTINUOUS
 10
8.752648082
 20
10.502557851
 11
8.752648082
 21
6.1558913751
  0
LINE
  5
2AD
100
AcDbEntity
  8
0
100
AcDbLine
 62
4
  6
CONTINUOUS
 10
9.8764100423
 20
10.5090286153
 11
9.9074683021
 21
10.5390285923
  0
LINE
  5
2AE
100
AcDbEntity
  8
0
100
AcDbLine
 62
4
  6
CONTINUOUS
 10
10.0788470235
 20
10.6635677341
 11
10.1010314949
 21
10.6849962892
  0
LINE
  5
2AF
100
AcDbEntity
  8
0
100
AcDbLine
 62
4
  6
CONTINUOUS
 10
9.9343655953
 20
10.5050093841
 11
9.9654238551
 21
10.5350093611
  0
LINE
  5
2B0
100
AcDbEntity
  8
0
100
AcDbLine
 62
4
  6
CONTINUOUS
 10
9.9633433718
 20
10.5029997684
 11
9.9944016316
 21
10.5329997454
  0
LINE
  5
2B1
100
AcDbEntity
  8
0
100
AcDbLine
 62
4
  6
CONTINUOUS
 10
10.1634239354
 20
10.6852627696
 11
10.1323656756
 21
10.6552627926
  0
LINE
  5
2B2
100
AcDbEntity
  8
0
100
AcDbLine
 62
4
  6
CONTINUOUS
 10
10.0523571846
 20
10.5289805142
 11
10.0212989248
 21
10.4989805372
  0
LINE
  5
2B3
100
AcDbEntity
  8
0
100
AcDbLine
 62
4
  6
CONTINUOUS
 10
10.0658058312
 20
10.5119709101
 11
10.0813349611
 21
10.5269708986
  0
LINE
  5
2B4
100
AcDbEntity
  8
0
100
AcDbLine
 62
4
  6
CONTINUOUS
 10
10.1082322543
 20
10.4929516903
 11
10.1237613842
 21
10.5079516788
  0
LINE
  5
2B5
100
AcDbEntity
  8
0
100
AcDbLine
 62
4
  6
CONTINUOUS
 10
9.2713502568
 20
7.6106649198
 11
9.3051576628
 21
7.5294364184
  0
LINE
  5
2B6
100
AcDbEntity
  8
0
100
AcDbLine
 62
4
  6
CONTINUOUS
 10
9.3051576628
 20
7.5294364184
 11
9.2967058113
 21
7.4962151492
  0
LINE
  5
2B7
100
AcDbEntity
  8
0
100
AcDbLine
 62
4
  6
CONTINUOUS
 10
11.1455495477
 20
10.5229234054
 11
11.1515886524
 21
10.5287567329
  0
LINE
  5
2B8
100
AcDbEntity
  8
0
100
AcDbLine
 62
4
  6
CONTINUOUS
 10
9.3051576628
 20
7.5294364184
 11
9.3389650689
 21
7.6059758167
  0
LINE
  5
2B9
100
AcDbEntity
  8
0
100
AcDbLine
 62
4
  6
CONTINUOUS
 10
11.2433598896
 20
10.547400946
 11
11.207125253
 21
10.5124009727
  0
LINE
  5
2BA
100
AcDbEntity
  8
0
100
AcDbLine
 62
4
  6
CONTINUOUS
 10
9.2798021083
 20
7.4748491536
 11
9.2628984052
 21
7.4760214294
  0
LINE
  5
2BB
100
AcDbEntity
  8
0
100
AcDbLine
 62
4
  6
CONTINUOUS
 10
9.9069295131
 20
7.9168963224
 11
9.9069295131
 21
8.0521259466
  0
LINE
  5
2BC
100
AcDbEntity
  8
0
100
AcDbLine
 62
4
  6
CONTINUOUS
 10
9.9943762719
 20
10.6648323902
 11
9.992317061
 21
10.6971290716
  0
LINE
  5
2BD
100
AcDbEntity
  8
0
100
AcDbLine
 62
4
  6
CONTINUOUS
 10
10.2643220623
 20
8.3489942032
 11
10.2643220623
 21
8.3715324726
  0
LINE
  5
2BE
100
AcDbEntity
  8
0
100
AcDbLine
 62
4
  6
CONTINUOUS
 10
10.3319368744
 20
8.4006507795
 11
10.3319368744
 21
8.310497694
  0
LINE
  5
2BF
100
AcDbEntity
  8
0
100
AcDbLine
 62
4
  6
CONTINUOUS
 10
9.2967058113
 20
7.4962151492
 11
9.2798021083
 21
7.4748491536
  0
LINE
  5
2C0
100
AcDbEntity
  8
0
100
AcDbLine
 62
4
  6
CONTINUOUS
 10
10.2812257653
 20
8.3252836571
 11
10.2643220623
 21
8.3489942032
  0
LINE
  5
2C1
100
AcDbEntity
  8
0
100
AcDbLine
 62
4
  6
CONTINUOUS
 10
10.2643220623
 20
8.3715324726
 11
10.2812257653
 21
8.3928984662
  0
LINE
  5
2C2
100
AcDbEntity
  8
0
100
AcDbLine
 62
4
  6
CONTINUOUS
 10
10.7781946949
 20
8.9695425664
 11
10.795098398
 21
8.99090856
  0
LINE
  5
2C3
100
AcDbEntity
  8
0
100
AcDbLine
 62
4
  6
CONTINUOUS
 10
10.795098398
 20
8.99090856
 11
10.812002101
 21
9.0010054249
  0
LINE
  5
2C4
100
AcDbEntity
  8
0
100
AcDbLine
 62
4
  6
CONTINUOUS
 10
10.828905804
 20
8.9209491993
 11
10.812002101
 21
8.9108523394
  0
LINE
  5
2C5
100
AcDbEntity
  8
0
100
AcDbLine
 62
4
  6
CONTINUOUS
 10
9.8815739586
 20
7.9975386808
 11
9.9322850677
 21
7.9940218535
  0
LINE
  5
2C6
100
AcDbEntity
  8
0
100
AcDbLine
 62
4
  6
CONTINUOUS
 10
11.6926849902
 20
7.8719377042
 11
11.7433960993
 21
7.8684208768
  0
LINE
  5
2C7
100
AcDbEntity
  8
0
100
AcDbLine
 62
4
  6
CONTINUOUS
 10
10.2981294683
 20
8.3128422456
 11
10.2812257653
 21
8.3252836571
  0
LINE
  5
2C8
100
AcDbEntity
  8
0
100
AcDbLine
 62
4
  6
CONTINUOUS
 10
10.2981294683
 20
8.4029953311
 11
10.3150331714
 21
8.3905539146
  0
LINE
  5
2C9
100
AcDbEntity
  8
0
100
AcDbLine
 62
4
  6
CONTINUOUS
 10
10.3150331714
 20
8.3905539146
 11
10.3319368744
 21
8.3668433694
  0
LINE
  5
2CA
100
AcDbEntity
  8
0
100
AcDbLine
 62
4
  6
CONTINUOUS
 10
10.7781946949
 20
9.0033499765
 11
10.7781946949
 21
8.8681203482
  0
LINE
  5
2CB
100
AcDbEntity
  8
0
100
AcDbLine
 62
4
  6
CONTINUOUS
 10
10.3319368744
 20
8.3443051001
 11
10.3150331714
 21
8.3229391055
  0
LINE
  5
2CC
100
AcDbEntity
  8
0
100
AcDbLine
 62
4
  6
CONTINUOUS
 10
10.8458095071
 20
8.9423151939
 11
10.828905804
 21
8.9209491993
  0
LINE
  5
2CD
100
AcDbEntity
  8
0
100
AcDbLine
 62
4
  6
CONTINUOUS
 10
10.2812257653
 20
8.3928984662
 11
10.2981294683
 21
8.4029953311
  0
LINE
  5
2CE
100
AcDbEntity
  8
0
100
AcDbLine
 62
4
  6
CONTINUOUS
 10
10.3150331714
 20
8.3229391055
 11
10.2981294683
 21
8.3128422456
  0
LINE
  5
2CF
100
AcDbEntity
  8
0
100
AcDbLine
 62
4
  6
CONTINUOUS
 10
10.8458095071
 20
8.9648534633
 11
10.8458095071
 21
8.9423151939
  0
LINE
  5
2D0
100
AcDbEntity
  8
0
100
AcDbLine
 62
7
  6
CONTINUOUS
 10
13.247351918
 20
10.8441086249
 11
12.6163516161
 21
10.2346091008
  0
LINE
  5
2D1
100
AcDbEntity
  8
0
100
AcDbLine
 62
4
  6
CONTINUOUS
 10
11.2157591037
 20
8.2685229135
 11
11.1988554007
 21
8.280964325
  0
LINE
  5
2D2
100
AcDbEntity
  8
0
100
AcDbLine
 62
4
  6
CONTINUOUS
 10
11.2157591037
 20
8.358675999
 11
11.2326628068
 21
8.3462345825
  0
LINE
  5
2D3
100
AcDbEntity
  8
0
100
AcDbLine
 62
4
  6
CONTINUOUS
 10
10.795098398
 20
8.9120246152
 11
10.7781946949
 21
8.9470042971
  0
LINE
  5
2D4
100
AcDbEntity
  8
0
100
AcDbLine
 62
4
  6
CONTINUOUS
 10
11.1819516977
 20
8.4060970893
 11
11.1819516977
 21
8.270867465
  0
LINE
  5
2D5
100
AcDbEntity
  8
0
100
AcDbLine
 62
4
  6
CONTINUOUS
 10
11.2495665098
 20
8.3225240373
 11
11.2495665098
 21
8.299985768
  0
LINE
  5
2D6
100
AcDbEntity
  8
0
100
AcDbLine
 62
4
  6
CONTINUOUS
 10
11.1819516977
 20
8.3272131405
 11
11.1988554007
 21
8.3485791341
  0
LINE
  5
2D7
100
AcDbEntity
  8
0
100
AcDbLine
 62
4
  6
CONTINUOUS
 10
11.1988554007
 20
8.3485791341
 11
11.2157591037
 21
8.358675999
  0
LINE
  5
2D8
100
AcDbEntity
  8
0
100
AcDbLine
 62
4
  6
CONTINUOUS
 10
9.575066733
 20
10.6369533124
 11
9.5596968539
 21
10.6563928607
  0
LINE
  5
2D9
100
AcDbEntity
  8
0
100
AcDbLine
 62
4
  6
CONTINUOUS
 10
11.1988554007
 20
8.280964325
 11
11.1819516977
 21
8.3046748711
  0
LINE
  5
2DA
100
AcDbEntity
  8
0
100
AcDbLine
 62
4
  6
CONTINUOUS
 10
11.2326628068
 20
8.3462345825
 11
11.2495665098
 21
8.3225240373
  0
LINE
  5
2DB
100
AcDbEntity
  8
0
100
AcDbLine
 62
4
  6
CONTINUOUS
 10
10.828905804
 20
8.9885640084
 11
10.8458095071
 21
8.9648534633
  0
LINE
  5
2DC
100
AcDbEntity
  8
0
100
AcDbLine
 62
4
  6
CONTINUOUS
 10
11.2495665098
 20
8.299985768
 11
11.2326628068
 21
8.2786197734
  0
LINE
  5
2DD
100
AcDbEntity
  8
0
100
AcDbLine
 62
4
  6
CONTINUOUS
 10
11.2326628068
 20
8.2786197734
 11
11.2157591037
 21
8.2685229135
  0
LINE
  5
2DE
100
AcDbEntity
  8
0
100
AcDbLine
 62
4
  6
CONTINUOUS
 10
10.812002101
 20
8.9108523394
 11
10.795098398
 21
8.9120246152
  0
LINE
  5
2DF
100
AcDbEntity
  8
0
100
AcDbLine
 62
4
  6
CONTINUOUS
 10
10.812002101
 20
9.0010054249
 11
10.828905804
 21
8.9885640084
  0
LINE
  5
2E0
100
AcDbEntity
  8
0
100
AcDbLine
 62
4
  6
CONTINUOUS
 10
11.7180405447
 20
7.7912953457
 11
11.7180405447
 21
7.92652497
  0
LINE
  5
2E1
100
AcDbEntity
  8
0
100
AcDbLine
 62
4
  6
CONTINUOUS
 10
12.177579874
 20
8.848990717
 11
12.2282909831
 21
8.9356269752
  0
LINE
  5
2E2
100
AcDbEntity
  8
0
100
AcDbLine
 62
4
  6
CONTINUOUS
 10
12.6528450682
 20
9.2169998579
 11
12.6890797048
 21
9.3196146433
  0
LINE
  5
2E3
100
AcDbEntity
  8
0
100
AcDbLine
 62
4
  6
CONTINUOUS
 10
12.8044266335
 20
8.3443646084
 11
12.7953679749
 21
8.3356146156
  0
LINE
  5
2E4
100
AcDbEntity
  8
0
100
AcDbLine
 62
4
  6
CONTINUOUS
 10
12.7863093147
 20
8.3184127697
 11
12.7772506555
 21
8.3096627764
  0
LINE
  5
2E5
100
AcDbEntity
  8
0
100
AcDbLine
 62
4
  6
CONTINUOUS
 10
9.4258599079
 20
10.704259134
 11
9.4137380804
 21
10.7096931959
  0
LINE
  5
2E6
100
AcDbEntity
  8
0
100
AcDbLine
 62
4
  6
CONTINUOUS
 10
9.516932904
 20
10.6979432002
 11
9.5048110765
 21
10.7033772622
  0
LINE
  5
2E7
100
AcDbEntity
  8
0
100
AcDbLine
 62
4
  6
CONTINUOUS
 10
12.177579874
 20
8.9391438025
 11
12.2282909831
 21
8.8454738896
  0
LINE
  5
2E8
100
AcDbEntity
  8
0
100
AcDbLine
 62
7
  6
CONTINUOUS
 10
12.6163516161
 20
10.2346091008
 11
12.6163516161
 21
5.887942625
  0
LINE
  5
2E9
100
AcDbEntity
  8
0
100
AcDbLine
 62
4
  6
CONTINUOUS
 10
12.7742311032
 20
8.2391313005
 11
12.8104657398
 21
8.2741312738
  0
LINE
  5
2EA
100
AcDbEntity
  8
0
100
AcDbLine
 62
4
  6
CONTINUOUS
 10
9.5728292737
 20
10.7262206485
 11
9.5849511008
 21
10.720786586
  0
LINE
  5
2EB
100
AcDbEntity
  8
0
100
AcDbLine
 62
4
  6
CONTINUOUS
 10
9.6694218252
 20
10.7195219323
 11
9.6815436523
 21
10.7140878698
  0
LINE
  5
2EC
100
AcDbEntity
  8
0
100
AcDbLine
 62
4
  6
CONTINUOUS
 10
10.090968858
 20
10.6581336716
 11
10.0788470235
 21
10.6635677341
  0
LINE
  5
2ED
100
AcDbEntity
  8
0
100
AcDbLine
 62
4
  6
CONTINUOUS
 10
12.7893288691
 20
8.312877584
 11
12.7863093147
 21
8.3184127697
  0
LINE
  5
2EE
100
AcDbEntity
  8
0
100
AcDbLine
 62
4
  6
CONTINUOUS
 10
12.8104657398
 20
8.3332942344
 11
12.8044266335
 21
8.3443646084
  0
LINE
  5
2EF
100
AcDbEntity
  8
0
100
AcDbLine
 62
4
  6
CONTINUOUS
 10
12.7742311032
 20
8.2982942611
 11
12.7742311032
 21
8.2391313005
  0
LINE
  5
2F0
100
AcDbEntity
  8
0
100
AcDbLine
 62
4
  6
CONTINUOUS
 10
12.7893288691
 20
8.2537146234
 11
12.7893288691
 21
8.312877584
  0
LINE
  5
2F1
100
AcDbEntity
  8
0
100
AcDbLine
 62
4
  6
CONTINUOUS
 10
12.8104657398
 20
8.2741312738
 11
12.8104657398
 21
8.3332942344
  0
LINE
  5
2F2
100
AcDbEntity
  8
0
100
AcDbLine
 62
4
  6
CONTINUOUS
 10
12.7772506555
 20
8.3096627764
 11
12.7742311032
 21
8.2982942611
  0
LINE
  5
2F3
100
AcDbEntity
  8
0
100
AcDbLine
 62
4
  6
CONTINUOUS
 10
12.7953679749
 20
8.3356146156
 11
12.7893288691
 21
8.312877584
  0
LINE
  5
2F4
100
AcDbEntity
  8
0
100
AcDbLine
 62
7
  6
CONTINUOUS
 10
8.752648082
 20
10.502557851
 11
12.6163516161
 21
10.2346091008
  0
LINE
  5
2F5
100
AcDbEntity
  8
0
100
AcDbLine
 62
4
  6
CONTINUOUS
 10
9.2914228539
 20
10.7258314697
 11
9.2531821043
 21
10.7346080228
  0
LINE
  5
2F6
100
AcDbEntity
  8
0
100
AcDbLine
 62
4
  6
CONTINUOUS
 10
11.1509818447
 20
10.5194206017
 11
11.1455495477
 21
10.5229234054
  0
LINE
  5
2F7
100
AcDbEntity
  8
0
100
AcDbLine
 62
4
  6
CONTINUOUS
 10
12.6890797048
 20
9.2519998312
 11
12.6528450682
 21
9.28461467
  0
LINE
  5
2F8
100
AcDbEntity
  8
0
100
AcDbLine
 62
4
  6
CONTINUOUS
 10
11.1515886524
 20
10.5287567329
 11
11.1630600584
 21
10.5310872608
  0
LINE
  5
2F9
100
AcDbEntity
  8
0
100
AcDbLine
 62
4
  6
CONTINUOUS
 10
11.1630600584
 20
10.5310872608
 11
11.1829833137
 21
10.5328316488
  0
LINE
  5
2FA
100
AcDbEntity
  8
0
100
AcDbLine
 62
4
  6
CONTINUOUS
 10
9.9343655953
 20
10.5050093841
 11
9.8764100423
 21
10.5090286153
  0
LINE
  5
2FB
100
AcDbEntity
  8
0
100
AcDbLine
 62
4
  6
CONTINUOUS
 10
10.0502767013
 20
10.4969709215
 11
10.1082322543
 21
10.4929516903
  0
LINE
  5
2FC
100
AcDbEntity
  8
0
100
AcDbLine
 62
4
  6
CONTINUOUS
 10
9.1486220469
 20
10.5675393529
 11
9.1341331587
 21
10.5685441607
  0
LINE
  5
2FD
100
AcDbEntity
  8
0
100
AcDbLine
 62
4
  6
CONTINUOUS
 10
10.1237613842
 20
10.5079516788
 11
10.0658058312
 21
10.5119709101
  0
LINE
  5
2FE
100
AcDbEntity
  8
0
100
AcDbLine
 62
4
  6
CONTINUOUS
 10
9.5741495565
 20
10.5460673885
 11
9.5161940035
 21
10.5500866198
  0
LINE
  5
2FF
100
AcDbEntity
  8
0
100
AcDbLine
 62
4
  6
CONTINUOUS
 10
9.4775569681
 20
10.5527661073
 11
9.4196014151
 21
10.5567853385
  0
LINE
  5
300
100
AcDbEntity
  8
0
100
AcDbLine
 62
4
  6
CONTINUOUS
 10
9.1105051324
 20
10.5782212385
 11
9.0525495794
 21
10.5822404698
  0
LINE
  5
301
100
AcDbEntity
  8
0
100
AcDbLine
 62
4
  6
CONTINUOUS
 10
9.0139125441
 20
10.5849199573
 11
8.955956991
 21
10.5889391885
  0
LINE
  5
302
100
AcDbEntity
  8
0
100
AcDbLine
 62
4
  6
CONTINUOUS
 10
9.3230088268
 20
10.5634840573
 11
9.3616458621
 21
10.5608045698
  0
LINE
  5
303
100
AcDbEntity
  8
0
100
AcDbLine
 62
4
  6
CONTINUOUS
 10
9.7180725131
 20
10.5360862976
 11
9.7760280662
 21
10.5320670663
  0
LINE
  5
304
100
AcDbEntity
  8
0
100
AcDbLine
 62
4
  6
CONTINUOUS
 10
9.3861407564
 20
10.5644648222
 11
9.3281852034
 21
10.5684840534
  0
LINE
  5
305
100
AcDbEntity
  8
0
100
AcDbLine
 62
4
  6
CONTINUOUS
 10
9.021677109
 20
10.5924199515
 11
8.963721556
 21
10.5964391828
  0
LINE
  5
306
100
AcDbEntity
  8
0
100
AcDbLine
 62
4
  6
CONTINUOUS
 10
9.2999009213
 20
10.5811635333
 11
9.2419453683
 21
10.5851827645
  0
LINE
  5
307
100
AcDbEntity
  8
0
100
AcDbLine
 62
4
  6
CONTINUOUS
 10
9.1260342623
 20
10.593221227
 11
9.0680787093
 21
10.5972404583
  0
LINE
  5
308
100
AcDbEntity
  8
0
100
AcDbLine
 62
4
  6
CONTINUOUS
 10
8.9714861209
 20
10.603939177
 11
9.0294416739
 21
10.5999199458
  0
LINE
  5
309
100
AcDbEntity
  8
0
100
AcDbLine
 62
4
  6
CONTINUOUS
 10
9.3385379567
 20
10.5784840458
 11
9.3964935097
 21
10.5744648145
  0
LINE
  5
30A
100
AcDbEntity
  8
0
100
AcDbLine
 62
4
  6
CONTINUOUS
 10
9.5317231334
 20
10.5650866083
 11
9.5896786864
 21
10.561067377
  0
LINE
  5
30B
100
AcDbEntity
  8
0
100
AcDbLine
 62
4
  6
CONTINUOUS
 10
9.6283157217
 20
10.5583878895
 11
9.6862712747
 21
10.5543686583
  0
LINE
  5
30C
100
AcDbEntity
  8
0
100
AcDbLine
 62
4
  6
CONTINUOUS
 10
9.9944016316
 20
10.5329997454
 11
10.0523571846
 21
10.5289805142
  0
LINE
  5
30D
100
AcDbEntity
  8
0
100
AcDbLine
 62
4
  6
CONTINUOUS
 10
10.0813349611
 20
10.5269708986
 11
10.1392905141
 21
10.5229516673
  0
LINE
  5
30E
100
AcDbEntity
  8
0
100
AcDbLine
 62
4
  6
CONTINUOUS
 10
9.6438448516
 20
10.573387878
 11
9.682481887
 21
10.5707083905
  0
LINE
  5
30F
100
AcDbEntity
  8
0
100
AcDbLine
 62
4
  6
CONTINUOUS
 10
9.768740167
 20
10.609741783
 11
9.7107846139
 21
10.6137610143
  0
LINE
  5
310
100
AcDbEntity
  8
0
100
AcDbLine
 62
4
  6
CONTINUOUS
 10
11.207125253
 20
10.5124009727
 11
11.1648659954
 21
10.5153316621
  0
LINE
  5
311
100
AcDbEntity
  8
0
100
AcDbLine
 62
4
  6
CONTINUOUS
 10
9.690977839
 20
10.6289148499
 11
9.633022286
 21
10.6329340812
  0
LINE
  5
312
100
AcDbEntity
  8
0
100
AcDbLine
 62
4
  6
CONTINUOUS
 10
11.1829833137
 20
10.5328316488
 11
11.2252425713
 21
10.5299009593
  0
LINE
  5
313
100
AcDbEntity
  8
0
100
AcDbLine
 62
4
  6
CONTINUOUS
 10
9.7997984267
 20
10.63974176
 11
9.7418428737
 21
10.6437609913
  0
LINE
  5
314
100
AcDbEntity
  8
0
100
AcDbLine
 62
4
  6
CONTINUOUS
 10
10.1323656756
 20
10.6552627926
 11
10.090968858
 21
10.6581336716
  0
LINE
  5
315
100
AcDbEntity
  8
0
100
AcDbLine
 62
4
  6
CONTINUOUS
 10
9.9281413582
 20
10.6694257971
 11
9.8619064444
 21
10.674019204
  0
LINE
  5
316
100
AcDbEntity
  8
0
100
AcDbLine
 62
4
  6
CONTINUOUS
 10
9.8287889737
 20
10.6763159083
 11
9.7791127814
 21
10.679760964
  0
LINE
  5
317
100
AcDbEntity
  8
0
100
AcDbLine
 62
4
  6
CONTINUOUS
 10
9.6383635655
 20
10.6895219553
 11
9.6052461224
 21
10.6918186577
  0
LINE
  5
318
100
AcDbEntity
  8
0
100
AcDbLine
 62
4
  6
CONTINUOUS
 10
9.541771014
 20
10.6962206715
 11
9.516932904
 21
10.6979432002
  0
LINE
  5
319
100
AcDbEntity
  8
0
100
AcDbLine
 62
4
  6
CONTINUOUS
 10
9.4672567394
 20
10.7013882539
 11
9.4258599079
 21
10.704259134
  0
LINE
  5
31A
100
AcDbEntity
  8
0
100
AcDbLine
 62
4
  6
CONTINUOUS
 10
9.3623847442
 20
10.7086611515
 11
9.3127085796
 21
10.7121062052
  0
LINE
  5
31B
100
AcDbEntity
  8
0
100
AcDbLine
 62
4
  6
CONTINUOUS
 10
10.2163481732
 20
10.6678122291
 11
10.1781074197
 21
10.676588782
  0
LINE
  5
31C
100
AcDbEntity
  8
0
100
AcDbLine
 62
4
  6
CONTINUOUS
 10
11.1648659954
 20
10.5153316621
 11
11.1509818447
 21
10.5194206017
  0
LINE
  5
31D
100
AcDbEntity
  8
0
100
AcDbLine
 62
7
  6
CONTINUOUS
 10
13.247351918
 20
6.497442149
 11
13.247351918
 21
10.8441086249
  0
LINE
  5
31E
100
AcDbEntity
  8
0
100
AcDbLine
 62
4
  6
CONTINUOUS
 10
10.1010314949
 20
10.6849962892
 11
10.1220271178
 21
10.6881336486
  0
LINE
  5
31F
100
AcDbEntity
  8
0
100
AcDbLine
 62
4
  6
CONTINUOUS
 10
10.166275701
 20
10.6651602187
 11
10.2163481732
 21
10.6678122291
  0
LINE
  5
320
100
AcDbEntity
  8
0
100
AcDbLine
 62
4
  6
CONTINUOUS
 10
9.2531821043
 20
10.7346080228
 11
9.3032545726
 21
10.737260033
  0
LINE
  5
321
100
AcDbEntity
  8
0
100
AcDbLine
 62
4
  6
CONTINUOUS
 10
9.3425779831
 20
10.7238149862
 11
9.3756954262
 21
10.7215182838
  0
LINE
  5
322
100
AcDbEntity
  8
0
100
AcDbLine
 62
4
  6
CONTINUOUS
 10
9.8089821849
 20
10.691469745
 11
9.8420996556
 21
10.6891730406
  0
LINE
  5
323
100
AcDbEntity
  8
0
100
AcDbLine
 62
4
  6
CONTINUOUS
 10
10.0386390474
 20
10.6847298092
 11
9.9944824382
 21
10.6877920805
  0
LINE
  5
324
100
AcDbEntity
  8
0
100
AcDbLine
 62
4
  6
CONTINUOUS
 10
9.8598472335
 20
10.7063158854
 11
9.8101710412
 21
10.709760941
  0
LINE
  5
325
100
AcDbEntity
  8
0
100
AcDbLine
 62
4
  6
CONTINUOUS
 10
9.393443004
 20
10.7386611285
 11
9.3437668394
 21
10.7421061823
  0
LINE
  5
326
100
AcDbEntity
  8
0
100
AcDbLine
 62
4
  6
CONTINUOUS
 10
9.4569181677
 20
10.734259111
 11
9.4983149992
 21
10.731388231
  0
LINE
  5
327
100
AcDbEntity
  8
0
100
AcDbLine
 62
4
  6
CONTINUOUS
 10
9.5479911638
 20
10.7279431773
 11
9.5728292737
 21
10.7262206485
  0
LINE
  5
328
100
AcDbEntity
  8
0
100
AcDbLine
 62
4
  6
CONTINUOUS
 10
9.6363043822
 20
10.7218186348
 11
9.6694218252
 21
10.7195219323
  0
LINE
  5
329
100
AcDbEntity
  8
0
100
AcDbLine
 62
4
  6
CONTINUOUS
 10
10.1220271178
 20
10.6881336486
 11
10.1634239354
 21
10.6852627696
  0
LINE
  5
32A
100
AcDbEntity
  8
0
100
AcDbLine
 62
4
  6
CONTINUOUS
 10
9.6072996534
 20
10.6423736368
 11
9.5286385941
 21
10.6263928836
  0
LINE
  5
32B
100
AcDbEntity
  8
0
100
AcDbLine
 62
4
  6
CONTINUOUS
 10
9.659359181
 20
10.6926593148
 11
9.6383635655
 21
10.6895219553
  0
LINE
  5
32C
100
AcDbEntity
  8
0
100
AcDbLine
 62
4
  6
CONTINUOUS
 10
9.5627666295
 20
10.699358031
 11
9.541771014
 21
10.6962206715
  0
LINE
  5
32D
100
AcDbEntity
  8
0
100
AcDbLine
 62
4
  6
CONTINUOUS
 10
9.5269955478
 20
10.7248058173
 11
9.5479911638
 21
10.7279431773
  0
LINE
  5
32E
100
AcDbEntity
  8
0
100
AcDbLine
 62
4
  6
CONTINUOUS
 10
9.4359225517
 20
10.731121751
 11
9.4569181677
 21
10.734259111
  0
LINE
  5
32F
100
AcDbEntity
  8
0
100
AcDbLine
 62
7
  6
CONTINUOUS
 10
9.3836483839
 20
11.112057375
 11
13.247351918
 21
10.8441086249
  0
LINE
  5
330
100
AcDbEntity
  8
0
100
AcDbLine
 62
7
  6
CONTINUOUS
 10
12.6163516161
 20
5.887942625
 11
13.247351918
 21
6.497442149
  0
ARC
  5
331
100
AcDbEntity
  8
0
100
AcDbCircle
 62
7
  6
CONTINUOUS
 10
11.8653256165
 20
9.4718389449
 40
0.8791844292
100
AcDbArc
 50
359.9874735738
 51
1.3317191953
  0
ARC
  5
332
100
AcDbEntity
  8
0
100
AcDbCircle
 62
7
  6
CONTINUOUS
 10
11.8851773412
 20
9.4537415573
 40
0.858043755
100
AcDbArc
 50
350.7203371985
 51
351.1227136611
  0
ARC
  5
333
100
AcDbEntity
  8
0
100
AcDbCircle
 62
7
  6
CONTINUOUS
 10
9.8850316437
 20
9.3290617382
 40
0.1204890005
100
AcDbArc
 50
216.0335857955
 51
232.0498253923
  0
ARC
  5
334
100
AcDbEntity
  8
0
100
AcDbCircle
 62
7
  6
CONTINUOUS
 10
11.9376241462
 20
9.1867139647
 40
0.1204890005
100
AcDbArc
 50
216.0335857955
 51
232.0498253923
  0
ARC
  5
335
100
AcDbEntity
  8
0
100
AcDbCircle
 62
7
  6
CONTINUOUS
 10
9.8850316437
 20
7.5778381464
 40
0.1204890005
100
AcDbArc
 50
216.0335857955
 51
232.0498253923
  0
ARC
  5
336
100
AcDbEntity
  8
0
100
AcDbCircle
 62
7
  6
CONTINUOUS
 10
11.9376241462
 20
7.4354903729
 40
0.1204890005
100
AcDbArc
 50
216.0335857955
 51
232.0498253923
  0
SPLINE
  5
337
100
AcDbEntity
  8
0
100
AcDbSpline
 62
7
  6
CONTINUOUS
 70
0
 71
3
 72
51
 73
47
 74
0
 42
0.0000001
 43
0.0000001
 44
0.0000000001
 40
0.0
 40
0.0
 40
0.0
 40
0.0
 40
0.0417745182
 40
0.0840381526
 40
0.1266602401
 40
0.1695088421
 40
0.2124510407
 40
0.2553535857
 40
0.2980833694
 40
0.3405079697
 40
0.3824961696
 40
0.4239184888
 40
0.4646477158
 40
0.5045594497
 40
0.543532651
 40
0.5814502093
 40
0.6181995334
 40
0.6536731755
 40
0.6877695033
 40
0.7203934427
 40
0.7514573218
 40
0.7663795148
 40
0.7808827261
 40
0.7949585461
 40
0.8085992857
 40
0.8217979826
 40
0.8345485116
 40
0.8468456263
 40
0.8586850779
 40
0.8700637036
 40
0.8809795661
 40
0.8914321058
 40
0.9014223196
 40
0.9109530019
 40
0.9200289921
 40
0.9286575381
 40
0.9368486523
 40
0.9446156358
 40
0.9519755804
 40
0.9589500677
 40
0.9655657995
 40
0.9778459317
 40
0.9836071722
 40
0.9891799125
 40
0.9946230091
 40
1.0
 40
1.0
 40
1.0
 40
1.0
 10
12.7154792286
 20
9.2736361284
 30
0.0
 10
12.7154792286
 20
9.2828148164
 30
0.0
 10
12.7156224279
 20
9.3012799492
 30
0.0
 10
12.7162554752
 20
9.3291034746
 30
0.0
 10
12.7173061886
 20
9.357150568
 30
0.0
 10
12.7187711098
 20
9.3853283413
 30
0.0
 10
12.7206454076
 20
9.4135436044
 30
0.0
 10
12.7229228815
 20
9.4417029984
 30
0.0
 10
12.7255959893
 20
9.4697133645
 30
0.0
 10
12.7286558688
 20
9.4974820361
 30
0.0
 10
12.7320923682
 20
9.5249171527
 30
0.0
 10
12.7358940787
 20
9.5519279649
 30
0.0
 10
12.7400483722
 20
9.5784251382
 30
0.0
 10
12.7445414416
 20
9.6043210511
 30
0.0
 10
12.7493583463
 20
9.6295300909
 30
0.0
 10
12.7544830601
 20
9.6539689402
 30
0.0
 10
12.7598985229
 20
9.6775568665
 30
0.0
 10
12.7655866987
 20
9.7002159773
 30
0.0
 10
12.7715286266
 20
9.7218715698
 30
0.0
 10
12.777704516
 20
9.7424521214
 30
0.0
 10
12.7830985836
 20
9.7588629621
 30
0.0
 10
12.7875250652
 20
9.7713953305
 30
0.0
 10
12.7908460284
 20
9.7803583571
 30
0.0
 10
12.7942098407
 20
9.7890039643
 30
0.0
 10
12.797613731
 20
9.7973250349
 30
0.0
 10
12.8010548833
 20
9.8053147113
 30
0.0
 10
12.8045304443
 20
9.8129664213
 30
0.0
 10
12.8080375465
 20
9.8202738762
 30
0.0
 10
12.8115732932
 20
9.8272310811
 30
0.0
 10
12.8151347743
 20
9.8338323396
 30
0.0
 10
12.8187190693
 20
9.8400722585
 30
0.0
 10
12.8223232458
 20
9.8459457578
 30
0.0
 10
12.825944385
 20
9.8514480663
 30
0.0
 10
12.8295795622
 20
9.8565747406
 30
0.0
 10
12.833225897
 20
9.8613216428
 30
0.0
 10
12.836880523
 20
9.865684976
 30
0.0
 10
12.8405406341
 20
9.8696612156
 30
0.0
 10
12.8442035495
 20
9.8732472145
 30
0.0
 10
12.847866381
 20
9.8764398842
 30
0.0
 10
12.8515274533
 20
9.8792369971
 30
0.0
 10
12.8562821881
 20
9.8823568584
 30
0.0
 10
12.8611570488
 20
9.8847967475
 30
0.0
 10
12.8660947776
 20
9.8864151203
 30
0.0
 10
12.8697049555
 20
9.8871955963
 30
0.0
 10
12.873294884
 20
9.8875661245
 30
0.0
 10
12.8756783301
 20
9.8875388691
 30
0.0
 10
12.8768569302
 20
9.8874571275
 30
0.0
  0
SPLINE
  5
338
100
AcDbEntity
  8
0
100
AcDbSpline
 62
7
  6
CONTINUOUS
 70
0
 71
3
 72
53
 73
49
 74
0
 42
0.0000001
 43
0.0000001
 44
0.0000000001
 40
0.0
 40
0.0
 40
0.0
 40
0.0
 40
0.0417740478
 40
0.0840369835
 40
0.1266585592
 40
0.1695065657
 40
0.2124481957
 40
0.2553501644
 40
0.2980793779
 40
0.3405034127
 40
0.3824910553
 40
0.4239128269
 40
0.4646415185
 40
0.5045527309
 40
0.5435254266
 40
0.5814424966
 40
0.6181913512
 40
0.6536645436
 40
0.6877604426
 40
0.7203839756
 40
0.7361162401
 40
0.7514482063
 40
0.7663702194
 40
0.7808732533
 40
0.7949489098
 40
0.808589482
 40
0.8217880323
 40
0.8345384043
 40
0.8468353889
 40
0.8586746951
 40
0.8700532057
 40
0.8809689358
 40
0.8914213732
 40
0.9014114696
 40
0.9109420597
 40
0.9200179488
 40
0.9286464106
 40
0.9368374402
 40
0.9446043453
 40
0.9519642202
 40
0.9589386335
 40
0.9655543067
 40
0.9718438059
 40
0.9778461959
 40
0.9836073668
 40
0.9891800504
 40
0.9946230772
 40
1.0
 40
1.0
 40
1.0
 40
1.0
 10
12.8473474326
 20
8.3143443058
 30
0.0
 10
12.8473474326
 20
8.3268344226
 30
0.0
 10
12.8475422914
 20
8.3519612225
 30
0.0
 10
12.8484037295
 20
8.3898226667
 30
0.0
 10
12.8498335024
 20
8.4279883031
 30
0.0
 10
12.8518269264
 20
8.4663318062
 30
0.0
 10
12.854377412
 20
8.5047263064
 30
0.0
 10
12.8574765296
 20
8.5430447886
 30
0.0
 10
12.8611140124
 20
8.5811604771
 30
0.0
 10
12.8652778025
 20
8.6189472768
 30
0.0
 10
12.8699540851
 20
8.6562801865
 30
0.0
 10
12.8751273359
 20
8.6930357175
 30
0.0
 10
12.8807803706
 20
8.7290923062
 30
0.0
 10
12.8868944015
 20
8.7643307207
 30
0.0
 10
12.8934490977
 20
8.7986344602
 30
0.0
 10
12.900422651
 20
8.8318901544
 30
0.0
 10
12.9077918491
 20
8.8639879249
 30
0.0
 10
12.9155321403
 20
8.8948218489
 30
0.0
 10
12.9236177554
 20
8.9242900211
 30
0.0
 10
12.9307040176
 20
8.9479049839
 30
0.0
 10
12.9365370421
 20
8.9660322624
 30
0.0
 10
12.9409282573
 20
8.9790622168
 30
0.0
 10
12.9453852288
 20
8.9916807131
 30
0.0
 10
12.9499042761
 20
9.0038773504
 30
0.0
 10
12.9544816511
 20
9.0156420633
 30
0.0
 10
12.9591135698
 20
9.0269651527
 30
0.0
 10
12.9637961765
 20
9.0378372959
 30
0.0
 10
12.9685256291
 20
9.0482495398
 30
0.0
 10
12.9732979738
 20
9.0581933396
 30
0.0
 10
12.9781093298
 20
9.0676605212
 30
0.0
 10
12.982955669
 20
9.0766433536
 30
0.0
 10
12.9878330903
 20
9.0851344733
 30
0.0
 10
12.9927375283
 20
9.0931269954
 30
0.0
 10
12.9976650848
 20
9.1006143974
 30
0.0
 10
13.0026117116
 20
9.1075906633
 30
0.0
 10
13.0075735497
 20
9.1140501344
 30
0.0
 10
13.0125466446
 20
9.1199876645
 30
0.0
 10
13.0175272377
 20
9.1253984554
 30
0.0
 10
13.0225115652
 20
9.1302781779
 30
0.0
 10
13.0274960483
 20
9.1346228193
 30
0.0
 10
13.032477196
 20
9.1384287007
 30
0.0
 10
13.0374516321
 20
9.1416923761
 30
0.0
 10
13.0424160451
 20
9.1444104837
 30
0.0
 10
13.0473670018
 20
9.1465797986
 30
0.0
 10
13.052300738
 20
9.1481969821
 30
0.0
 10
13.0572131354
 20
9.1492590285
 30
0.0
 10
13.0620982717
 20
9.149763227
 30
0.0
 10
13.065341585
 20
9.14972622
 30
0.0
 10
13.0669453912
 20
9.1496149953
 30
0.0
  0
SPLINE
  5
339
100
AcDbEntity
  8
0
100
AcDbSpline
 62
7
  6
CONTINUOUS
 70
0
 71
3
 72
21
 73
17
 74
0
 42
0.0000001
 43
0.0000001
 44
0.0000000001
 40
0.0
 40
0.0
 40
0.0
 40
0.0
 40
0.1273176984
 40
0.2537999461
 40
0.3167619614
 40
0.3795355204
 40
0.4421314992
 40
0.5045621453
 40
0.5668413456
 40
0.6289845231
 40
0.6910084433
 40
0.7529310869
 40
0.8147714401
 40
0.8765493236
 40
0.9382852134
 40
1.0
 40
1.0
 40
1.0
 40
1.0
 10
9.3872613813
 20
10.0354717384
 30
0.0
 10
9.3872613813
 20
10.0287269303
 30
0.0
 10
9.3866175443
 20
10.0152728909
 30
0.0
 10
9.384185953
 20
9.9986407939
 30
0.0
 10
9.381279686
 20
9.9855943702
 30
0.0
 10
9.378629322
 20
9.9759713217
 30
0.0
 10
9.3755113274
 20
9.96651927
 30
0.0
 10
9.3719328906
 20
9.9572597355
 30
0.0
 10
9.3679022619
 20
9.9482141341
 30
0.0
 10
9.3634286541
 20
9.9394033425
 30
0.0
 10
9.3585224159
 20
9.930847671
 30
0.0
 10
9.3531948623
 20
9.9225668371
 30
0.0
 10
9.3474582279
 20
9.9145800025
 30
0.0
 10
9.3413257066
 20
9.90690551
 30
0.0
 10
9.3348117132
 20
9.8995612717
 30
0.0
 10
9.3302238204
 20
9.8948957791
 30
0.0
 10
9.3278722717
 20
9.8926243714
 30
0.0
  0
SPLINE
  5
33A
100
AcDbEntity
  8
0
100
AcDbSpline
 62
7
  6
CONTINUOUS
 70
0
 71
3
 72
21
 73
17
 74
0
 42
0.0000001
 43
0.0000001
 44
0.0000000001
 40
0.0
 40
0.0
 40
0.0
 40
0.0
 40
0.1273176984
 40
0.2537999461
 40
0.3167619614
 40
0.3795355204
 40
0.4421314992
 40
0.5045621453
 40
0.5668413456
 40
0.6289845231
 40
0.6910084433
 40
0.7529310869
 40
0.8147714401
 40
0.8765493236
 40
0.9382852134
 40
1.0
 40
1.0
 40
1.0
 40
1.0
 10
12.4048138826
 20
9.8262037617
 30
0.0
 10
12.4048138826
 20
9.8194589536
 30
0.0
 10
12.4041700456
 20
9.8060049142
 30
0.0
 10
12.4017384544
 20
9.7893728171
 30
0.0
 10
12.3988321873
 20
9.7763263935
 30
0.0
 10
12.3961818234
 20
9.766703345
 30
0.0
 10
12.3930638287
 20
9.7572512933
 30
0.0
 10
12.3894853919
 20
9.7479917587
 30
0.0
 10
12.3854547633
 20
9.7389461573
 30
0.0
 10
12.3809811554
 20
9.7301353658
 30
0.0
 10
12.3760749173
 20
9.7215796942
 30
0.0
 10
12.3707473636
 20
9.7132988603
 30
0.0
 10
12.3650107292
 20
9.7053120257
 30
0.0
 10
12.358878208
 20
9.6976375332
 30
0.0
 10
12.3523642145
 20
9.690293295
 30
0.0
 10
12.3477763218
 20
9.6856278024
 30
0.0
 10
12.3454247731
 20
9.6833563946
 30
0.0
  0
SPLINE
  5
33B
100
AcDbEntity
  8
0
100
AcDbSpline
 62
7
  6
CONTINUOUS
 70
0
 71
3
 72
21
 73
17
 74
0
 42
0.0000001
 43
0.0000001
 44
0.0000000001
 40
0.0
 40
0.0
 40
0.0
 40
0.0
 40
0.1273176984
 40
0.2537999461
 40
0.3167619614
 40
0.3795355204
 40
0.4421314992
 40
0.5045621453
 40
0.5668413456
 40
0.6289845231
 40
0.6910084433
 40
0.7529310869
 40
0.8147714401
 40
0.8765493236
 40
0.9382852134
 40
1.0
 40
1.0
 40
1.0
 40
1.0
 10
12.4048138826
 20
6.3256885489
 30
0.0
 10
12.4048138826
 20
6.3189437408
 30
0.0
 10
12.4041700456
 20
6.3054897014
 30
0.0
 10
12.4017384544
 20
6.2888576043
 30
0.0
 10
12.3988321873
 20
6.2758111807
 30
0.0
 10
12.3961818234
 20
6.2661881322
 30
0.0
 10
12.3930638287
 20
6.2567360805
 30
0.0
 10
12.3894853919
 20
6.2474765459
 30
0.0
 10
12.3854547633
 20
6.2384309445
 30
0.0
 10
12.3809811554
 20
6.2296201529
 30
0.0
 10
12.3760749173
 20
6.2210644814
 30
0.0
 10
12.3707473636
 20
6.2127836475
 30
0.0
 10
12.3650107292
 20
6.2047968129
 30
0.0
 10
12.358878208
 20
6.1971223204
 30
0.0
 10
12.3523642145
 20
6.1897780822
 30
0.0
 10
12.3477763218
 20
6.1851125896
 30
0.0
 10
12.3454247731
 20
6.1828411818
 30
0.0
  0
SPLINE
  5
33C
100
AcDbEntity
  8
0
100
AcDbSpline
 62
7
  6
CONTINUOUS
 70
0
 71
3
 72
21
 73
17
 74
0
 42
0.0000001
 43
0.0000001
 44
0.0000000001
 40
0.0
 40
0.0
 40
0.0
 40
0.0
 40
0.1273176984
 40
0.2537999461
 40
0.3167619614
 40
0.3795355204
 40
0.4421314992
 40
0.5045621453
 40
0.5668413456
 40
0.6289845231
 40
0.6910084433
 40
0.7529310869
 40
0.8147714401
 40
0.8765493236
 40
0.9382852134
 40
1.0
 40
1.0
 40
1.0
 40
1.0
 10
9.3872613813
 20
6.5349565256
 30
0.0
 10
9.3872613813
 20
6.5282117175
 30
0.0
 10
9.3866175443
 20
6.5147576781
 30
0.0
 10
9.384185953
 20
6.498125581
 30
0.0
 10
9.381279686
 20
6.4850791574
 30
0.0
 10
9.378629322
 20
6.4754561089
 30
0.0
 10
9.3755113274
 20
6.4660040572
 30
0.0
 10
9.3719328906
 20
6.4567445227
 30
0.0
 10
9.3679022619
 20
6.4476989212
 30
0.0
 10
9.3634286541
 20
6.4388881297
 30
0.0
 10
9.3585224159
 20
6.4303324582
 30
0.0
 10
9.3531948623
 20
6.4220516242
 30
0.0
 10
9.3474582279
 20
6.4140647897
 30
0.0
 10
9.3413257066
 20
6.4063902972
 30
0.0
 10
9.3348117132
 20
6.3990460589
 30
0.0
 10
9.3302238204
 20
6.3943805663
 30
0.0
 10
9.3278722717
 20
6.3921091585
 30
0.0
  0
SPLINE
  5
33D
100
AcDbEntity
  8
0
100
AcDbSpline
 62
7
  6
CONTINUOUS
 70
0
 71
3
 72
32
 73
28
 74
0
 42
0.0000001
 43
0.0000001
 44
0.0000000001
 40
0.0
 40
0.0
 40
0.0
 40
0.0
 40
0.0300884382
 40
0.0603093574
 40
0.0906731488
 40
0.1211916014
 40
0.1518691
 40
0.1827070429
 40
0.2137025563
 40
0.2448493483
 40
0.3075199964
 40
0.3706566162
 40
0.4023764625
 40
0.434163434
 40
0.4660000153
 40
0.4978686683
 40
0.5616055269
 40
0.6252698282
 40
0.6570492335
 40
0.688765194
 40
0.7204044379
 40
0.7519546996
 40
0.814716618
 40
0.8770027908
 40
0.9387607883
 40
0.9694493694
 40
1.0
 40
1.0
 40
1.0
 40
1.0
 10
12.158934492
 20
8.9818851227
 30
0.0
 10
12.1605717114
 20
8.9825350291
 30
0.0
 10
12.1639081168
 20
8.9837042113
 30
0.0
 10
12.1690482681
 20
8.9850514559
 30
0.0
 10
12.1743043601
 20
8.985989695
 30
0.0
 10
12.1796441278
 20
8.9865159809
 30
0.0
 10
12.1850361647
 20
8.9866307179
 30
0.0
 10
12.1904491624
 20
8.9863376268
 30
0.0
 10
12.1958531408
 20
8.9856431597
 30
0.0
 10
12.2030200345
 20
8.9841920338
 30
0.0
 10
12.2118133758
 20
8.9814201286
 30
0.0
 10
12.220184538
 20
8.97748487
 30
0.0
 10
12.2265646431
 20
8.9737000311
 30
0.0
 10
12.2311799751
 20
8.970554089
 30
0.0
 10
12.2355990043
 20
8.9671239439
 30
0.0
 10
12.2412068525
 20
8.9621969433
 30
0.0
 10
12.2476469264
 20
8.9554216424
 30
0.0
 10
12.2532442057
 20
8.9479426147
 30
0.0
 10
12.257169465
 20
8.9416129818
 30
0.0
 10
12.2598259313
 20
8.9367140742
 30
0.0
 10
12.2621864127
 20
8.9316806353
 30
0.0
 10
12.2649220072
 20
8.9248294933
 30
0.0
 10
12.2675634354
 20
8.9160254966
 30
0.0
 10
12.2694262874
 20
8.9052226247
 30
0.0
 10
12.2698452615
 20
8.8961465584
 30
0.0
 10
12.2694758928
 20
8.8889512315
 30
0.0
 10
12.2690551308
 20
8.8853874801
 30
0.0
 10
12.2687851882
 20
8.8836194145
 30
0.0
  0
SPLINE
  5
33E
100
AcDbEntity
  8
0
100
AcDbSpline
 62
7
  6
CONTINUOUS
 70
0
 71
3
 72
39
 73
35
 74
0
 42
0.0000001
 43
0.0000001
 44
0.0000000001
 40
0.0
 40
0.0
 40
0.0
 40
0.0
 40
0.0310022941
 40
0.0621464487
 40
0.093426615
 40
0.1248355255
 40
0.1563630504
 40
0.1879972998
 40
0.2197245252
 40
0.2515295301
 40
0.2833959252
 40
0.3153064479
 40
0.3472432662
 40
0.3791882844
 40
0.4111234392
 40
0.4430309838
 40
0.4748937576
 40
0.5066954398
 40
0.5384207839
 40
0.5700558337
 40
0.6015881182
 40
0.6330068276
 40
0.6643029682
 40
0.6954694963
 40
0.7265014303
 40
0.75739594
 40
0.7881524112
 40
0.8187724836
 40
0.8492600607
 40
0.8796212888
 40
0.9098645009
 40
0.9400001266
 40
0.9700405617
 40
1.0
 40
1.0
 40
1.0
 40
1.0
 10
10.7443872889
 20
9.0704550823
 30
0.0
 10
10.7490923215
 20
9.0701287872
 30
0.0
 10
10.7585048332
 20
9.0691562599
 30
0.0
 10
10.7725234891
 20
9.0667554044
 30
0.0
 10
10.7864138824
 20
9.0634204718
 30
0.0
 10
10.8001120598
 20
9.0591678284
 30
0.0
 10
10.8135563995
 20
9.0540180655
 30
0.0
 10
10.8266864875
 20
9.0479961549
 30
0.0
 10
10.8394438713
 20
9.0411310662
 30
0.0
 10
10.8517722423
 20
9.0334556133
 30
0.0
 10
10.8636177327
 20
9.0250061601
 30
0.0
 10
10.8749291426
 20
9.0158223627
 30
0.0
 10
10.8856581405
 20
9.0059468816
 30
0.0
 10
10.8957594294
 20
8.9954250977
 30
0.0
 10
10.9051908809
 20
8.9843048267
 30
0.0
 10
10.9139136393
 20
8.9726360405
 30
0.0
 10
10.9218921995
 20
8.9604705964
 30
0.0
 10
10.9290944616
 20
8.9478619796
 30
0.0
 10
10.9354917682
 20
8.9348650592
 30
0.0
 10
10.9410589214
 20
8.9215358566
 30
0.0
 10
10.9457741894
 20
8.9079313313
 30
0.0
 10
10.9496193058
 20
8.8941091802
 30
0.0
 10
10.9525794628
 20
8.880127651
 30
0.0
 10
10.9546433027
 20
8.8660453674
 30
0.0
 10
10.9558029096
 20
8.8519211634
 30
0.0
 10
10.9560538031
 20
8.8378139253
 30
0.0
 10
10.9553949366
 20
8.8237824384
 30
0.0
 10
10.9538286978
 20
8.8098852335
 30
0.0
 10
10.9513609185
 20
8.7961804398
 30
0.0
 10
10.9480008751
 20
8.7827256036
 30
0.0
 10
10.9437613528
 20
8.7695776097
 30
0.0
 10
10.9386584611
 20
8.7567921864
 30
0.0
 10
10.9327123859
 20
8.7444249137
 30
0.0
 10
10.9281952606
 20
8.7364833684
 30
0.0
 10
10.925805466
 20
8.7326024694
 30
0.0
  0
SPLINE
  5
33F
100
AcDbEntity
  8
0
100
AcDbSpline
 62
7
  6
CONTINUOUS
 70
0
 71
3
 72
21
 73
17
 74
0
 42
0.0000001
 43
0.0000001
 44
0.0000000001
 40
0.0
 40
0.0
 40
0.0
 40
0.0
 40
0.1273176984
 40
0.2537999461
 40
0.3167619614
 40
0.3795355204
 40
0.4421314992
 40
0.5045621453
 40
0.5668413456
 40
0.6289845231
 40
0.6910084433
 40
0.7529310869
 40
0.8147714401
 40
0.8765493236
 40
0.9382852134
 40
1.0
 40
1.0
 40
1.0
 40
1.0
 10
10.5637591311
 20
8.2944207659
 30
0.0
 10
10.5637591311
 20
8.2876759578
 30
0.0
 10
10.5631152941
 20
8.2742219184
 30
0.0
 10
10.5606837029
 20
8.2575898213
 30
0.0
 10
10.5577774358
 20
8.2445433977
 30
0.0
 10
10.5551270719
 20
8.2349203492
 30
0.0
 10
10.5520090772
 20
8.2254682975
 30
0.0
 10
10.5484306405
 20
8.2162087629
 30
0.0
 10
10.5444000118
 20
8.2071631615
 30
0.0
 10
10.5399264039
 20
8.19835237
 30
0.0
 10
10.5350201658
 20
8.1897966984
 30
0.0
 10
10.5296926122
 20
8.1815158645
 30
0.0
 10
10.5239559777
 20
8.1735290299
 30
0.0
 10
10.5178234565
 20
8.1658545374
 30
0.0
 10
10.511309463
 20
8.1585102992
 30
0.0
 10
10.5067215703
 20
8.1538448066
 30
0.0
 10
10.5043700216
 20
8.1515733988
 30
0.0
  0
SPLINE
  5
340
100
AcDbEntity
  8
0
100
AcDbSpline
 62
7
  6
CONTINUOUS
 70
0
 71
3
 72
21
 73
17
 74
0
 42
0.0000001
 43
0.0000001
 44
0.0000000001
 40
0.0
 40
0.0
 40
0.0
 40
0.0
 40
0.1273176984
 40
0.2537999461
 40
0.3167619614
 40
0.3795355204
 40
0.4421314992
 40
0.5045621453
 40
0.5668413456
 40
0.6289845231
 40
0.6910084433
 40
0.7529310869
 40
0.8147714401
 40
0.8765493236
 40
0.9382852134
 40
1.0
 40
1.0
 40
1.0
 40
1.0
 10
10.0508524695
 20
7.9069152314
 30
0.0
 10
10.0508524695
 20
7.9001704233
 30
0.0
 10
10.0502086325
 20
7.8867163839
 30
0.0
 10
10.0477770412
 20
7.8700842868
 30
0.0
 10
10.0448707742
 20
7.8570378632
 30
0.0
 10
10.0422204102
 20
7.8474148147
 30
0.0
 10
10.0391024155
 20
7.837962763
 30
0.0
 10
10.0355239788
 20
7.8287032285
 30
0.0
 10
10.0314933501
 20
7.819657627
 30
0.0
 10
10.0270197423
 20
7.8108468355
 30
0.0
 10
10.0221135041
 20
7.802291164
 30
0.0
 10
10.0167859505
 20
7.79401033
 30
0.0
 10
10.0110493161
 20
7.7860234955
 30
0.0
 10
10.0049167948
 20
7.778349003
 30
0.0
 10
9.9984028014
 20
7.7710047647
 30
0.0
 10
9.9938149086
 20
7.7663392721
 30
0.0
 10
9.9914633599
 20
7.7640678643
 30
0.0
  0
SPLINE
  5
341
100
AcDbEntity
  8
0
100
AcDbSpline
 62
7
  6
CONTINUOUS
 70
0
 71
3
 72
47
 73
43
 74
0
 42
0.0000001
 43
0.0000001
 44
0.0000000001
 40
0.0
 40
0.0
 40
0.0
 40
0.0
 40
0.0315534237
 40
0.062901628
 40
0.0940485357
 40
0.1250045361
 40
0.1557874798
 40
0.1711253991
 40
0.1864291048
 40
0.2017022129
 40
0.2169483669
 40
0.2321714127
 40
0.2473752357
 40
0.2625636844
 40
0.2777407145
 40
0.2929100749
 40
0.3080755916
 40
0.3384026718
 40
0.3687566443
 40
0.3839548132
 40
0.3991688218
 40
0.4296492842
 40
0.460223754
 40
0.4909089052
 40
0.5217185736
 40
0.5526638304
 40
0.5837530633
 40
0.6149920438
 40
0.6463839691
 40
0.67792947
 40
0.7096265803
 40
0.7255331179
 40
0.7414756027
 40
0.7734592658
 40
0.8055722066
 40
0.8216757475
 40
0.8378063617
 40
0.8701346916
 40
0.9025427209
 40
0.9350074626
 40
0.967502834
 40
1.0
 40
1.0
 40
1.0
 40
1.0
 10
11.4356847974
 20
7.7845099119
 30
0.0
 10
11.4350042254
 20
7.7900999239
 30
0.0
 10
11.4341640974
 20
7.8013138301
 30
0.0
 10
11.4344884671
 20
7.8181191324
 30
0.0
 10
11.4363870604
 20
7.8347143856
 30
0.0
 10
11.439826026
 20
7.850955598
 30
0.0
 10
11.4439386439
 20
7.8641054178
 30
0.0
 10
11.4479390963
 20
7.874315244
 30
0.0
 10
11.4512815967
 20
7.8818002516
 30
0.0
 10
11.454959109
 20
7.8891078859
 30
0.0
 10
11.4589610962
 20
7.8962264797
 30
0.0
 10
11.4632763186
 20
7.9031450225
 30
0.0
 10
11.4678933005
 20
7.9098533865
 30
0.0
 10
11.4728003448
 20
7.9163422296
 30
0.0
 10
11.4779853887
 20
7.9226030559
 30
0.0
 10
11.4834366094
 20
7.9286281279
 30
0.0
 10
11.4910422499
 20
7.9363367394
 30
0.0
 10
11.5011601472
 20
7.9453548415
 30
0.0
 10
11.5119990314
 20
7.9535000561
 30
0.0
 10
11.5210525574
 20
7.9594749885
 30
0.0
 10
11.5303585734
 20
7.965092278
 30
0.0
 10
11.5424245441
 20
7.9714251817
 30
0.0
 10
11.5574839485
 20
7.9778901687
 30
0.0
 10
11.5730471366
 20
7.9832095327
 30
0.0
 10
11.5890273134
 20
7.9873691383
 30
0.0
 10
11.6053400958
 20
7.9903584151
 30
0.0
 10
11.6219020995
 20
7.9921692389
 30
0.0
 10
11.6386305344
 20
7.9927957538
 30
0.0
 10
11.6554427134
 20
7.9922341098
 30
0.0
 10
11.6722545894
 20
7.9904826681
 30
0.0
 10
11.6861792557
 20
7.988034453
 30
0.0
 10
11.697232028
 20
7.985485044
 30
0.0
 10
11.7082377013
 20
7.9825350155
 30
0.0
 10
11.7218319033
 20
7.9781072679
 30
0.0
 10
11.7351041365
 20
7.9727140719
 30
0.0
 10
11.7454971752
 20
7.9678236965
 30
0.0
 10
11.7557407829
 20
7.9625432721
 30
0.0
 10
11.768200542
 20
7.9552323586
 30
0.0
 10
11.7824848989
 20
7.9453615457
 30
0.0
 10
11.7960086555
 20
7.9344221447
 30
0.0
 10
11.8086609737
 20
7.9224631487
 30
0.0
 10
11.8164459566
 20
7.9138449343
 30
0.0
 10
11.820156519
 20
7.9093875311
 30
0.0
  0
SPLINE
  5
342
100
AcDbEntity
  8
0
100
AcDbSpline
 62
7
  6
CONTINUOUS
 70
0
 71
3
 72
17
 73
13
 74
0
 42
0.0000001
 43
0.0000001
 44
0.0000000001
 40
0.0
 40
0.0
 40
0.0
 40
0.0
 40
0.0611905953
 40
0.1226656604
 40
0.1843990735
 40
0.246382392
 40
0.3709487791
 40
0.4962232682
 40
0.6219797858
 40
0.7479935972
 40
0.8740592391
 40
1.0
 40
1.0
 40
1.0
 40
1.0
 10
9.295498406
 20
7.4473545016
 30
0.0
 10
9.2940853744
 20
7.4474524957
 30
0.0
 10
9.2912584287
 20
7.4477437226
 30
0.0
 10
9.2870476552
 20
7.4484601742
 30
0.0
 10
9.2828741672
 20
7.4494527611
 30
0.0
 10
9.2773759266
 20
7.4511369709
 30
0.0
 10
9.2706846003
 20
7.4538958646
 30
0.0
 10
9.26308052
 20
7.4581498455
 30
0.0
 10
9.2559759249
 20
7.4632492725
 30
0.0
 10
9.2494397776
 20
7.4690841859
 30
0.0
 10
9.2435194085
 20
7.475545655
 30
0.0
 10
9.2399986716
 20
7.4802090568
 30
0.0
 10
9.2383492203
 20
7.482612799
 30
0.0
  0
SPLINE
  5
343
100
AcDbEntity
  8
0
100
AcDbSpline
 62
7
  6
CONTINUOUS
 70
0
 71
3
 72
48
 73
44
 74
0
 42
0.0000001
 43
0.0000001
 44
0.0000000001
 40
0.0
 40
0.0
 40
0.0
 40
0.0
 40
0.0958286576
 40
0.1428188272
 40
0.1890970196
 40
0.2345922983
 40
0.2792360825
 40
0.3229616488
 40
0.3657042172
 40
0.4074012778
 40
0.4479927829
 40
0.4874213572
 40
0.5256325123
 40
0.5625749103
 40
0.598200717
 40
0.6324659207
 40
0.6653306956
 40
0.696759874
 40
0.7267235748
 40
0.7551978881
 40
0.7821657087
 40
0.8076178456
 40
0.8197759461
 40
0.8315561047
 40
0.8429601471
 40
0.8539906576
 40
0.8646512757
 40
0.874946597
 40
0.8848823707
 40
0.8944657071
 40
0.9037050399
 40
0.9126104751
 40
0.9211938751
 40
0.9294689913
 40
0.9374518164
 40
0.9451605991
 40
0.9598347983
 40
0.9668566638
 40
0.9737035496
 40
0.9804068013
 40
0.9870000417
 40
0.9935188169
 40
1.0
 40
1.0
 40
1.0
 40
1.0
 10
11.2777178719
 20
10.5665881187
 30
0.0
 10
11.2602800995
 20
10.5677974323
 30
0.0
 10
11.2343102221
 20
10.5698893275
 30
0.0
 10
11.1999835685
 20
10.5732716612
 30
0.0
 10
11.1748257347
 20
10.5760602947
 30
0.0
 10
11.1501297421
 20
10.5791125569
 30
0.0
 10
11.1259368896
 20
10.5824233278
 30
0.0
 10
11.1022876164
 20
10.5859870311
 30
0.0
 10
11.0792214377
 20
10.5897976839
 30
0.0
 10
11.0567769025
 20
10.5938488876
 30
0.0
 10
11.0349914964
 20
10.5981338248
 30
0.0
 10
11.0139015897
 20
10.6026452853
 30
0.0
 10
10.9935423819
 20
10.6073756819
 30
0.0
 10
10.9739478358
 20
10.6123170701
 30
0.0
 10
10.9551506043
 20
10.6174611349
 30
0.0
 10
10.9371819729
 20
10.6227992226
 30
0.0
 10
10.920071816
 20
10.6283223652
 30
0.0
 10
10.9038485258
 20
10.6340213083
 30
0.0
 10
10.8885389717
 20
10.6398865023
 30
0.0
 10
10.8741683246
 20
10.6459081668
 30
0.0
 10
10.860760426
 20
10.6520762612
 30
0.0
 10
10.8502528236
 20
10.6574082946
 30
0.0
 10
10.8423572325
 20
10.6617482345
 30
0.0
 10
10.8367805693
 20
10.6649836411
 30
0.0
 10
10.831460551
 20
10.668247864
 30
0.0
 10
10.8263993958
 20
10.6715396523
 30
0.0
 10
10.8215991669
 20
10.6748576005
 30
0.0
 10
10.8170618505
 20
10.6782003816
 30
0.0
 10
10.8127893361
 20
10.6815666721
 30
0.0
 10
10.8087833476
 20
10.6849550704
 30
0.0
 10
10.8050455791
 20
10.6883642907
 30
0.0
 10
10.8015775734
 20
10.6917929641
 30
0.0
 10
10.7983807467
 20
10.695239769
 30
0.0
 10
10.7954565759
 20
10.6987033351
 30
0.0
 10
10.7928060796
 20
10.7021826489
 30
0.0
 10
10.7896905559
 20
10.7067643121
 30
0.0
 10
10.7870546669
 20
10.7114542421
 30
0.0
 10
10.7849662899
 20
10.7162270766
 30
0.0
 10
10.7837017913
 20
10.7197634915
 30
0.0
 10
10.7827173316
 20
10.7233068363
 30
0.0
 10
10.7820136182
 20
10.7268557203
 30
0.0
 10
10.781591115
 20
10.7304080441
 30
0.0
 10
10.7814970898
 20
10.7327803633
 30
0.0
 10
10.7814970842
 20
10.7339625655
 30
0.0
  0
SPLINE
  5
344
100
AcDbEntity
  8
0
100
AcDbSpline
 62
7
  6
CONTINUOUS
 70
0
 71
3
 72
39
 73
35
 74
0
 42
0.0000001
 43
0.0000001
 44
0.0000000001
 40
0.0
 40
0.0
 40
0.0
 40
0.0
 40
0.0311445425
 40
0.0624433652
 40
0.093888256
 40
0.1254710218
 40
0.1571788766
 40
0.1889972611
 40
0.2209091725
 40
0.2528958428
 40
0.2849370253
 40
0.3170114183
 40
0.349097079
 40
0.3811718482
 40
0.4132137779
 40
0.4452015551
 40
0.4771149166
 40
0.5089350506
 40
0.5406449764
 40
0.5722298984
 40
0.6036775288
 40
0.634978368
 40
0.6661259371
 40
0.6971169555
 40
0.7279514574
 40
0.758632841
 40
0.7891678449
 40
0.819566448
 40
0.8498416915
 40
0.8800094239
 40
0.9100879689
 40
0.9400977235
 40
0.9700606966
 40
1.0
 40
1.0
 40
1.0
 40
1.0
 10
9.7246562081
 20
9.2828175267
 30
0.0
 10
9.7273097054
 20
9.282633506
 30
0.0
 10
9.7326183462
 20
9.282070305
 30
0.0
 10
9.7405169212
 20
9.2806516815
 30
0.0
 10
9.7483309264
 20
9.2786645037
 30
0.0
 10
9.7560180825
 20
9.2761196308
 30
0.0
 10
9.7635376144
 20
9.2730305831
 30
0.0
 10
9.7708493907
 20
9.2694139465
 30
0.0
 10
9.7779144643
 20
9.2652890199
 30
0.0
 10
9.7846951876
 20
9.2606778362
 30
0.0
 10
9.7911554303
 20
9.2556049944
 30
0.0
 10
9.7972607681
 20
9.2500975509
 30
0.0
 10
9.8029786678
 20
9.2441848718
 30
0.0
 10
9.8082786539
 20
9.2378984735
 30
0.0
 10
9.8131324707
 20
9.2312718575
 30
0.0
 10
9.8175142305
 20
9.2243403335
 30
0.0
 10
9.8214005507
 20
9.2171408341
 30
0.0
 10
9.8247706773
 20
9.2097117199
 30
0.0
 10
9.8276065955
 20
9.2020925786
 30
0.0
 10
9.8298931243
 20
9.1943240167
 30
0.0
 10
9.8316180063
 20
9.1864474476
 30
0.0
 10
9.8327719697
 20
9.1785048714
 30
0.0
 10
9.8333487774
 20
9.1705386532
 30
0.0
 10
9.8333452631
 20
9.1625913009
 30
0.0
 10
9.8327613518
 20
9.1547052407
 30
0.0
 10
9.8316000643
 20
9.1469225927
 30
0.0
 10
9.8298675067
 20
9.1392849478
 30
0.0
 10
9.8275728416
 20
9.1318331442
 30
0.0
 10
9.8247282495
 20
9.1246070514
 30
0.0
 10
9.8213488618
 20
9.1176453368
 30
0.0
 10
9.8174527262
 20
9.1109853075
 30
0.0
 10
9.8130605253
 20
9.1046625164
 30
0.0
 10
9.8081961697
 20
9.0987112709
 30
0.0
 10
9.8046542928
 20
9.0950111478
 30
0.0
 10
9.8028151955
 20
9.0932347316
 30
0.0
  0
SPLINE
  5
345
100
AcDbEntity
  8
0
100
AcDbSpline
 62
7
  6
CONTINUOUS
 70
0
 71
3
 72
39
 73
35
 74
0
 42
0.0000001
 43
0.0000001
 44
0.0000000001
 40
0.0
 40
0.0
 40
0.0
 40
0.0
 40
0.0311445425
 40
0.0624433652
 40
0.093888256
 40
0.1254710218
 40
0.1571788766
 40
0.1889972611
 40
0.2209091725
 40
0.2528958428
 40
0.2849370253
 40
0.3170114183
 40
0.349097079
 40
0.3811718482
 40
0.4132137779
 40
0.4452015551
 40
0.4771149166
 40
0.5089350506
 40
0.5406449764
 40
0.5722298984
 40
0.6036775288
 40
0.634978368
 40
0.6661259371
 40
0.6971169555
 40
0.7279514574
 40
0.758632841
 40
0.7891678449
 40
0.819566448
 40
0.8498416915
 40
0.8800094239
 40
0.9100879689
 40
0.9400977235
 40
0.9700606966
 40
1.0
 40
1.0
 40
1.0
 40
1.0
 10
11.7772487106
 20
9.1404697531
 30
0.0
 10
11.7799022078
 20
9.1402857325
 30
0.0
 10
11.7852108487
 20
9.1397225315
 30
0.0
 10
11.7931094236
 20
9.138303908
 30
0.0
 10
11.8009234288
 20
9.1363167301
 30
0.0
 10
11.808610585
 20
9.1337718573
 30
0.0
 10
11.8161301169
 20
9.1306828095
 30
0.0
 10
11.8234418932
 20
9.127066173
 30
0.0
 10
11.8305069668
 20
9.1229412464
 30
0.0
 10
11.8372876901
 20
9.1183300627
 30
0.0
 10
11.8437479327
 20
9.1132572209
 30
0.0
 10
11.8498532706
 20
9.1077497774
 30
0.0
 10
11.8555711703
 20
9.1018370982
 30
0.0
 10
11.8608711564
 20
9.0955506999
 30
0.0
 10
11.8657249731
 20
9.0889240839
 30
0.0
 10
11.870106733
 20
9.08199256
 30
0.0
 10
11.8739930532
 20
9.0747930606
 30
0.0
 10
11.8773631798
 20
9.0673639463
 30
0.0
 10
11.880199098
 20
9.0597448051
 30
0.0
 10
11.8824856268
 20
9.0519762432
 30
0.0
 10
11.8842105088
 20
9.0440996741
 30
0.0
 10
11.8853644722
 20
9.0361570979
 30
0.0
 10
11.8859412799
 20
9.0281908797
 30
0.0
 10
11.8859377656
 20
9.0202435274
 30
0.0
 10
11.8853538543
 20
9.0123574671
 30
0.0
 10
11.8841925668
 20
9.0045748191
 30
0.0
 10
11.8824600092
 20
8.9969371742
 30
0.0
 10
11.8801653441
 20
8.9894853707
 30
0.0
 10
11.877320752
 20
8.9822592779
 30
0.0
 10
11.8739413643
 20
8.9752975632
 30
0.0
 10
11.8700452287
 20
8.968637534
 30
0.0
 10
11.8656530278
 20
8.9623147429
 30
0.0
 10
11.8607886722
 20
8.9563634974
 30
0.0
 10
11.8572467952
 20
8.9526633743
 30
0.0
 10
11.855407698
 20
8.9508869581
 30
0.0
  0
SPLINE
  5
346
100
AcDbEntity
  8
0
100
AcDbSpline
 62
7
  6
CONTINUOUS
 70
0
 71
3
 72
39
 73
35
 74
0
 42
0.0000001
 43
0.0000001
 44
0.0000000001
 40
0.0
 40
0.0
 40
0.0
 40
0.0
 40
0.0311445425
 40
0.0624433652
 40
0.093888256
 40
0.1254710218
 40
0.1571788766
 40
0.1889972611
 40
0.2209091725
 40
0.2528958428
 40
0.2849370253
 40
0.3170114183
 40
0.349097079
 40
0.3811718482
 40
0.4132137779
 40
0.4452015551
 40
0.4771149166
 40
0.5089350506
 40
0.5406449764
 40
0.5722298984
 40
0.6036775288
 40
0.634978368
 40
0.6661259371
 40
0.6971169555
 40
0.7279514574
 40
0.758632841
 40
0.7891678449
 40
0.819566448
 40
0.8498416915
 40
0.8800094239
 40
0.9100879689
 40
0.9400977235
 40
0.9700606966
 40
1.0
 40
1.0
 40
1.0
 40
1.0
 10
9.7246562081
 20
7.5315939348
 30
0.0
 10
9.7273097054
 20
7.5314099142
 30
0.0
 10
9.7326183462
 20
7.5308467132
 30
0.0
 10
9.7405169212
 20
7.5294280897
 30
0.0
 10
9.7483309264
 20
7.5274409118
 30
0.0
 10
9.7560180825
 20
7.524896039
 30
0.0
 10
9.7635376144
 20
7.5218069912
 30
0.0
 10
9.7708493907
 20
7.5181903547
 30
0.0
 10
9.7779144643
 20
7.5140654281
 30
0.0
 10
9.7846951876
 20
7.5094542444
 30
0.0
 10
9.7911554303
 20
7.5043814026
 30
0.0
 10
9.7972607681
 20
7.4988739591
 30
0.0
 10
9.8029786678
 20
7.49296128
 30
0.0
 10
9.8082786539
 20
7.4866748816
 30
0.0
 10
9.8131324707
 20
7.4800482656
 30
0.0
 10
9.8175142305
 20
7.4731167417
 30
0.0
 10
9.8214005507
 20
7.4659172423
 30
0.0
 10
9.8247706773
 20
7.4584881281
 30
0.0
 10
9.8276065955
 20
7.4508689868
 30
0.0
 10
9.8298931243
 20
7.4431004249
 30
0.0
 10
9.8316180063
 20
7.4352238558
 30
0.0
 10
9.8327719697
 20
7.4272812796
 30
0.0
 10
9.8333487774
 20
7.4193150614
 30
0.0
 10
9.8333452631
 20
7.4113677091
 30
0.0
 10
9.8327613518
 20
7.4034816488
 30
0.0
 10
9.8316000643
 20
7.3956990008
 30
0.0
 10
9.8298675067
 20
7.3880613559
 30
0.0
 10
9.8275728416
 20
7.3806095524
 30
0.0
 10
9.8247282495
 20
7.3733834596
 30
0.0
 10
9.8213488618
 20
7.3664217449
 30
0.0
 10
9.8174527262
 20
7.3597617157
 30
0.0
 10
9.8130605253
 20
7.3534389246
 30
0.0
 10
9.8081961697
 20
7.3474876791
 30
0.0
 10
9.8046542928
 20
7.343787556
 30
0.0
 10
9.8028151955
 20
7.3420111398
 30
0.0
  0
SPLINE
  5
347
100
AcDbEntity
  8
0
100
AcDbSpline
 62
7
  6
CONTINUOUS
 70
0
 71
3
 72
39
 73
35
 74
0
 42
0.0000001
 43
0.0000001
 44
0.0000000001
 40
0.0
 40
0.0
 40
0.0
 40
0.0
 40
0.0311445425
 40
0.0624433652
 40
0.093888256
 40
0.1254710218
 40
0.1571788766
 40
0.1889972611
 40
0.2209091725
 40
0.2528958428
 40
0.2849370253
 40
0.3170114183
 40
0.349097079
 40
0.3811718482
 40
0.4132137779
 40
0.4452015551
 40
0.4771149166
 40
0.5089350506
 40
0.5406449764
 40
0.5722298984
 40
0.6036775288
 40
0.634978368
 40
0.6661259371
 40
0.6971169555
 40
0.7279514574
 40
0.758632841
 40
0.7891678449
 40
0.819566448
 40
0.8498416915
 40
0.8800094239
 40
0.9100879689
 40
0.9400977235
 40
0.9700606966
 40
1.0
 40
1.0
 40
1.0
 40
1.0
 10
11.7772487106
 20
7.3892461613
 30
0.0
 10
11.7799022078
 20
7.3890621406
 30
0.0
 10
11.7852108487
 20
7.3884989397
 30
0.0
 10
11.7931094236
 20
7.3870803162
 30
0.0
 10
11.8009234288
 20
7.3850931383
 30
0.0
 10
11.808610585
 20
7.3825482655
 30
0.0
 10
11.8161301169
 20
7.3794592177
 30
0.0
 10
11.8234418932
 20
7.3758425811
 30
0.0
 10
11.8305069668
 20
7.3717176546
 30
0.0
 10
11.8372876901
 20
7.3671064708
 30
0.0
 10
11.8437479327
 20
7.362033629
 30
0.0
 10
11.8498532706
 20
7.3565261856
 30
0.0
 10
11.8555711703
 20
7.3506135064
 30
0.0
 10
11.8608711564
 20
7.3443271081
 30
0.0
 10
11.8657249731
 20
7.3377004921
 30
0.0
 10
11.870106733
 20
7.3307689682
 30
0.0
 10
11.8739930532
 20
7.3235694687
 30
0.0
 10
11.8773631798
 20
7.3161403545
 30
0.0
 10
11.880199098
 20
7.3085212133
 30
0.0
 10
11.8824856268
 20
7.3007526514
 30
0.0
 10
11.8842105088
 20
7.2928760823
 30
0.0
 10
11.8853644722
 20
7.2849335061
 30
0.0
 10
11.8859412799
 20
7.2769672879
 30
0.0
 10
11.8859377656
 20
7.2690199356
 30
0.0
 10
11.8853538543
 20
7.2611338753
 30
0.0
 10
11.8841925668
 20
7.2533512273
 30
0.0
 10
11.8824600092
 20
7.2457135824
 30
0.0
 10
11.8801653441
 20
7.2382617788
 30
0.0
 10
11.877320752
 20
7.2310356861
 30
0.0
 10
11.8739413643
 20
7.2240739714
 30
0.0
 10
11.8700452287
 20
7.2174139421
 30
0.0
 10
11.8656530278
 20
7.211091151
 30
0.0
 10
11.8607886722
 20
7.2051399056
 30
0.0
 10
11.8572467952
 20
7.2014397824
 30
0.0
 10
11.855407698
 20
7.1996633663
 30
0.0
  0
SPLINE
  5
348
100
AcDbEntity
  8
0
100
AcDbSpline
 62
7
  6
CONTINUOUS
 70
0
 71
3
 72
45
 73
41
 74
0
 42
0.0000001
 43
0.0000001
 44
0.0000000001
 40
0.0
 40
0.0
 40
0.0
 40
0.0
 40
0.0823537974
 40
0.1660994942
 40
0.250261565
 40
0.2921925391
 40
0.3338594651
 40
0.3751409802
 40
0.4159171585
 40
0.4560699777
 40
0.4954837792
 40
0.5340457453
 40
0.5716464029
 40
0.6081801224
 40
0.6435456385
 40
0.6776466107
 40
0.710392234
 40
0.7416979265
 40
0.7714861411
 40
0.7996872922
 40
0.8262408929
 40
0.8510970218
 40
0.8628769971
 40
0.8742198067
 40
0.8851230877
 40
0.8955858402
 40
0.9056081847
 40
0.9151918879
 40
0.9243403624
 40
0.9330589524
 40
0.9413554089
 40
0.9492399535
 40
0.9567260863
 40
0.963830766
 40
0.9705751879
 40
0.9769853551
 40
0.9830925676
 40
0.9889341461
 40
0.9945534571
 40
1.0
 40
1.0
 40
1.0
 40
1.0
 10
12.7319334458
 20
9.3215296834
 30
0.0
 10
12.7319334458
 20
9.3327768744
 30
0.0
 10
12.7322758002
 20
9.3554626065
 30
0.0
 10
12.733763222
 20
9.3896129644
 30
0.0
 10
12.7358067594
 20
9.4182021518
 30
0.0
 10
12.7379192947
 20
9.4410164142
 30
0.0
 10
12.7397317528
 20
9.4579754256
 30
0.0
 10
12.7417683622
 20
9.4747501008
 30
0.0
 10
12.7440227938
 20
9.4912882523
 30
0.0
 10
12.7464879927
 20
9.507538379
 30
0.0
 10
12.7491562538
 20
9.5234498961
 30
0.0
 10
12.7520192314
 20
9.5389732782
 30
0.0
 10
12.7550679618
 20
9.5540602237
 30
0.0
 10
12.7582928954
 20
9.5686638072
 30
0.0
 10
12.7616839271
 20
9.5827386276
 30
0.0
 10
12.7652304268
 20
9.5962409546
 30
0.0
 10
12.7689212726
 20
9.6091288695
 30
0.0
 10
12.7727448892
 20
9.6213624184
 30
0.0
 10
12.7766892792
 20
9.6329037279
 30
0.0
 10
12.7807420722
 20
9.6437172425
 30
0.0
 10
12.7848905856
 20
9.6537695211
 30
0.0
 10
12.788478004
 20
9.6616213042
 30
0.0
 10
12.7913943765
 20
9.6674896224
 30
0.0
 10
12.7935582733
 20
9.6716025708
 30
0.0
 10
12.7957364138
 20
9.6755032288
 30
0.0
 10
12.7979270791
 20
9.679188629
 30
0.0
 10
12.8001286414
 20
9.6826559227
 30
0.0
 10
12.8023393888
 20
9.6859024772
 30
0.0
 10
12.8045576507
 20
9.6889258257
 30
0.0
 10
12.8067818096
 20
9.6917236508
 30
0.0
 10
12.809010165
 20
9.6942938807
 30
0.0
 10
12.811241194
 20
9.6966345131
 30
0.0
 10
12.8134732621
 20
9.6987438178
 30
0.0
 10
12.8157048962
 20
9.7006201242
 30
0.0
 10
12.8179346193
 20
9.7022619098
 30
0.0
 10
12.8201609766
 20
9.7036677945
 30
0.0
 10
12.8223825733
 20
9.7048363063
 30
0.0
 10
12.8245979692
 20
9.7057662166
 30
0.0
 10
12.8268052542
 20
9.7064560462
 30
0.0
 10
12.8282892098
 20
9.7067589225
 30
0.0
 10
12.8290250123
 20
9.7068679975
 30
0.0
  0
SPLINE
  5
349
100
AcDbEntity
  8
0
100
AcDbSpline
 62
7
  6
CONTINUOUS
 70
0
 71
3
 72
34
 73
30
 74
0
 42
0.0000001
 43
0.0000001
 44
0.0000000001
 40
0.0
 40
0.0
 40
0.0
 40
0.0
 40
0.0940076859
 40
0.1855740619
 40
0.2741930896
 40
0.3593781171
 40
0.4406712721
 40
0.4797249718
 40
0.5176489465
 40
0.5543958095
 40
0.5899212541
 40
0.624183766
 40
0.657145323
 40
0.688771561
 40
0.7190320497
 40
0.747901186
 40
0.7753581946
 40
0.8013885023
 40
0.8259841721
 40
0.8491453358
 40
0.8708818283
 40
0.8912147913
 40
0.9101798571
 40
0.9278298303
 40
0.9442393385
 40
0.9595095222
 40
0.9737733712
 40
0.9872007116
 40
1.0
 40
1.0
 40
1.0
 40
1.0
 10
12.7319334458
 20
9.3215296834
 30
0.0
 10
12.7319334458
 20
9.3138715722
 30
0.0
 10
12.7320890379
 20
9.2987536827
 30
0.0
 10
12.7328052801
 20
9.2764269071
 30
0.0
 10
12.733997106
 20
9.2548399126
 30
0.0
 10
12.7356571173
 20
9.2341232238
 30
0.0
 10
12.7374447977
 20
9.2174732351
 30
0.0
 10
12.7391124002
 20
9.2046879256
 30
0.0
 10
12.7404563333
 20
9.1955211973
 30
0.0
 10
12.7419081517
 20
9.1866620431
 30
0.0
 10
12.7434656157
 20
9.1781238239
 30
0.0
 10
12.7451263788
 20
9.1699194237
 30
0.0
 10
12.7468878903
 20
9.1620612054
 30
0.0
 10
12.7487474508
 20
9.1545609945
 30
0.0
 10
12.7507022667
 20
9.1474300623
 30
0.0
 10
12.7527493067
 20
9.1406790885
 30
0.0
 10
12.754885533
 20
9.1343181659
 30
0.0
 10
12.7571076747
 20
9.1283567453
 30
0.0
 10
12.759412436
 20
9.122803642
 30
0.0
 10
12.7617964343
 20
9.1176670076
 30
0.0
 10
12.7642561826
 20
9.1129542823
 30
0.0
 10
12.7667883272
 20
9.1086722631
 30
0.0
 10
12.7693894323
 20
9.1048269914
 30
0.0
 10
12.7720563689
 20
9.1014239492
 30
0.0
 10
12.7747861929
 20
9.0984680514
 30
0.0
 10
12.7775761841
 20
9.0959639614
 30
0.0
 10
12.7804242417
 20
9.0939164274
 30
0.0
 10
12.7833266636
 20
9.0923308241
 30
0.0
 10
12.7853331653
 20
9.0915716696
 30
0.0
 10
12.7863335788
 20
9.0912778674
 30
0.0
  0
SPLINE
  5
34A
100
AcDbEntity
  8
0
100
AcDbSpline
 62
7
  6
CONTINUOUS
 70
0
 71
3
 72
50
 73
46
 74
0
 42
0.0000001
 43
0.0000001
 44
0.0000000001
 40
0.0
 40
0.0
 40
0.0
 40
0.0
 40
0.0407256026
 40
0.0819150817
 40
0.1234499751
 40
0.1652115958
 40
0.2070797986
 40
0.24893432
 40
0.2906548464
 40
0.3321215867
 40
0.3732156677
 40
0.4138195895
 40
0.4538176663
 40
0.4930964772
 40
0.5315453235
 40
0.5690566965
 40
0.6055267615
 40
0.6408558643
 40
0.6749490701
 40
0.7077167477
 40
0.7390752181
 40
0.7689474975
 40
0.7972641734
 40
0.8108202733
 40
0.8239654444
 40
0.8366937295
 40
0.8489997772
 40
0.8608791729
 40
0.8723282431
 40
0.8833444249
 40
0.8939261162
 40
0.904073044
 40
0.9137862258
 40
0.9230683144
 40
0.9319237263
 40
0.9403589669
 40
0.9483829695
 40
0.9560074292
 40
0.9632473717
 40
0.9701215302
 40
0.9766531019
 40
0.9828701437
 40
0.9888063182
 40
0.9945010926
 40
1.0
 40
1.0
 40
1.0
 40
1.0
 10
12.8674251134
 20
8.3657378581
 30
0.0
 10
12.8674251134
 20
8.3742192492
 30
0.0
 10
12.8675524192
 20
8.3912788846
 30
0.0
 10
12.8681155733
 20
8.4169828642
 30
0.0
 10
12.8690505132
 20
8.4428919448
 30
0.0
 10
12.8703543673
 20
8.4689265787
 30
0.0
 10
12.872023169
 20
8.4950070685
 30
0.0
 10
12.8740517968
 20
8.5210534551
 30
0.0
 10
12.8764340342
 20
8.5469859333
 30
0.0
 10
12.8791625662
 20
8.5727250317
 30
0.0
 10
12.8822290119
 20
8.598191881
 30
0.0
 10
12.8856239456
 20
8.6233084497
 30
0.0
 10
12.8893369266
 20
8.6479977879
 30
0.0
 10
12.8933565309
 20
8.672184264
 30
0.0
 10
12.8976703849
 20
8.6957938007
 30
0.0
 10
12.9022652031
 20
8.7187541045
 30
0.0
 10
12.9071268275
 20
8.7409948936
 30
0.0
 10
12.9122402711
 20
8.7624481168
 30
0.0
 10
12.9175897622
 20
8.7830481788
 30
0.0
 10
12.9231587947
 20
8.8027321275
 30
0.0
 10
12.9289301765
 20
8.8214399477
 30
0.0
 10
12.9348861007
 20
8.8391144696
 30
0.0
 10
12.9400602241
 20
8.853134105
 30
0.0
 10
12.9442876628
 20
8.8637840886
 30
0.0
 10
12.9474468093
 20
8.8713640159
 30
0.0
 10
12.9506381765
 20
8.8786470961
 30
0.0
 10
12.9538594172
 20
8.8856277692
 30
0.0
 10
12.9571079853
 20
8.8923007386
 30
0.0
 10
12.9603814748
 20
8.8986609118
 30
0.0
 10
12.9636773184
 20
8.9047034856
 30
0.0
 10
12.9669930763
 20
8.9104238638
 30
0.0
 10
12.9703261833
 20
8.9158177483
 30
0.0
 10
12.9736741746
 20
8.9208810622
 30
0.0
 10
12.9770345218
 20
8.9256100196
 30
0.0
 10
12.980404754
 20
8.9300010815
 30
0.0
 10
12.9837824212
 20
8.9340509696
 30
0.0
 10
12.987165083
 20
8.9377566868
 30
0.0
 10
12.9905504156
 20
8.9411154308
 30
0.0
 10
12.9939360613
 20
8.9441247116
 30
0.0
 10
12.9973198556
 20
8.9467821154
 30
0.0
 10
13.0006995655
 20
8.9490855474
 30
0.0
 10
13.0040731012
 20
8.9510328104
 30
0.0
 10
13.0074383709
 20
8.9526220266
 30
0.0
 10
13.0107926462
 20
8.9538509811
 30
0.0
 10
13.0130536241
 20
8.954437601
 30
0.0
 10
13.0141756736
 20
8.954666633
 30
0.0
  0
SPLINE
  5
34B
100
AcDbEntity
  8
0
100
AcDbSpline
 62
7
  6
CONTINUOUS
 70
0
 71
3
 72
37
 73
33
 74
0
 42
0.0000001
 43
0.0000001
 44
0.0000000001
 40
0.0
 40
0.0
 40
0.0
 40
0.0
 40
0.0933722333
 40
0.1843538351
 40
0.2724531136
 40
0.3152739684
 40
0.3571991751
 40
0.3981737897
 40
0.4381448545
 40
0.477061548
 40
0.5148751839
 40
0.5515395866
 40
0.5870112643
 40
0.621249488
 40
0.6542167932
 40
0.6858791704
 40
0.7162063301
 40
0.7451724053
 40
0.7727562859
 40
0.7989422655
 40
0.8237211244
 40
0.8470909383
 40
0.8690585177
 40
0.889641357
 40
0.9088696513
 40
0.9267893793
 40
0.9434660809
 40
0.9589891094
 40
0.9734768514
 40
0.9870815546
 40
0.9936140923
 40
1.0
 40
1.0
 40
1.0
 40
1.0
 10
12.8674251134
 20
8.3657378581
 30
0.0
 10
12.8674251134
 20
8.3541607835
 30
0.0
 10
12.8676577025
 20
8.3313022237
 30
0.0
 10
12.8687281713
 20
8.2975356278
 30
0.0
 10
12.8702263406
 20
8.2700603351
 30
0.0
 10
12.8717897041
 20
8.2486861347
 30
0.0
 10
12.8731253204
 20
8.2331550941
 30
0.0
 10
12.8746330652
 20
8.21799485
 30
0.0
 10
12.8763107168
 20
8.2032277857
 30
0.0
 10
12.8781557413
 20
8.1888757208
 30
0.0
 10
12.880165412
 20
8.1749598517
 30
0.0
 10
12.8823367239
 20
8.1615007214
 30
0.0
 10
12.884666417
 20
8.1485181858
 30
0.0
 10
12.8871510459
 20
8.1360313895
 30
0.0
 10
12.8897868886
 20
8.124058723
 30
0.0
 10
12.8925700021
 20
8.1126177973
 30
0.0
 10
12.8954962769
 20
8.1017254225
 30
0.0
 10
12.8985613365
 20
8.0913975552
 30
0.0
 10
12.9017606338
 20
8.0816492833
 30
0.0
 10
12.9050894865
 20
8.0724948036
 30
0.0
 10
12.9085429845
 20
8.0639473557
 30
0.0
 10
12.9121161413
 20
8.0560192243
 30
0.0
 10
12.9158039149
 20
8.0487217156
 30
0.0
 10
12.9196011755
 20
8.042065089
 30
0.0
 10
12.923502928
 20
8.0360586287
 30
0.0
 10
12.9275043924
 20
8.0307106633
 30
0.0
 10
12.9316009581
 20
8.0260286839
 30
0.0
 10
12.9357888213
 20
8.0220195925
 30
0.0
 10
12.9400635162
 20
8.0186905756
 30
0.0
 10
12.9437455595
 20
8.0164590548
 30
0.0
 10
12.9467156851
 20
8.0150424701
 30
0.0
 10
12.9482069649
 20
8.014453552
 30
0.0
 10
12.9489534625
 20
8.0141896306
 30
0.0
  0
SPLINE
  5
34C
100
AcDbEntity
  8
0
100
AcDbSpline
 62
7
  6
CONTINUOUS
 70
0
 71
3
 72
37
 73
33
 74
0
 42
0.0000001
 43
0.0000001
 44
0.0000000001
 40
0.0
 40
0.0
 40
0.0
 40
0.0
 40
0.0927671373
 40
0.1832203766
 40
0.2708685112
 40
0.3134929335
 40
0.3552411551
 40
0.396058288
 40
0.4358914157
 40
0.4746897764
 40
0.5124047656
 40
0.5489902778
 40
0.5844029376
 40
0.6186021602
 40
0.6515506225
 40
0.6832145335
 40
0.7135638525
 40
0.742572978
 40
0.7702211702
 40
0.7964931152
 40
0.8213800253
 40
0.8448805104
 40
0.8670018876
 40
0.887762158
 40
0.9071919865
 40
0.9253375429
 40
0.9422641843
 40
0.9580603838
 40
0.9728424122
 40
0.9867587527
 40
0.9934517425
 40
1.0
 40
1.0
 40
1.0
 40
1.0
 10
11.3287051817
 20
10.584928452
 30
0.0
 10
11.3170661047
 20
10.5857356247
 30
0.0
 10
11.2940941872
 20
10.5875722028
 30
0.0
 10
11.2602023536
 20
10.5910422362
 30
0.0
 10
11.2326578374
 20
10.5945189715
 30
0.0
 10
11.2112488294
 20
10.5976380792
 30
0.0
 10
11.1956993304
 20
10.6001129377
 30
0.0
 10
11.180531186
 20
10.6027412564
 30
0.0
 10
11.1657670152
 20
10.6055191258
 30
0.0
 10
11.1514288478
 20
10.6084423432
 30
0.0
 10
11.1375380713
 20
10.611506543
 30
0.0
 10
11.1241153959
 20
10.6147071255
 30
0.0
 10
11.1111808168
 20
10.6180392614
 30
0.0
 10
11.0987535979
 20
10.6214979755
 30
0.0
 10
11.0868522233
 20
10.6250780706
 30
0.0
 10
11.0754943683
 20
10.6287741561
 30
0.0
 10
11.0646968874
 20
10.632580728
 30
0.0
 10
11.0544757556
 20
10.6364920779
 30
0.0
 10
11.044846049
 20
10.6405023573
 30
0.0
 10
11.0358219378
 20
10.6446056526
 30
0.0
 10
11.0274166109
 20
10.6487958898
 30
0.0
 10
11.0196422765
 20
10.6530669522
 30
0.0
 10
11.0125101657
 20
10.6574127585
 30
0.0
 10
11.006030451
 20
10.6618271992
 30
0.0
 10
11.0002123211
 20
10.6663043294
 30
0.0
 10
10.9950640531
 20
10.6708385032
 30
0.0
 10
10.9905930864
 20
10.6754242468
 30
0.0
 10
10.9868062862
 20
10.6800568417
 30
0.0
 10
10.9837107373
 20
10.6847308878
 30
0.0
 10
10.9816868152
 20
10.6887089046
 30
0.0
 10
10.9804399287
 20
10.6918908917
 30
0.0
 10
10.9799370381
 20
10.6934801189
 30
0.0
 10
10.9797163717
 20
10.694273559
 30
0.0
  0
SPLINE
  5
34D
100
AcDbEntity
  8
0
100
AcDbSpline
 62
7
  6
CONTINUOUS
 70
0
 71
3
 72
50
 73
46
 74
0
 42
0.0000001
 43
0.0000001
 44
0.0000000001
 40
0.0
 40
0.0
 40
0.0
 40
0.0
 40
0.0407231925
 40
0.0818864537
 40
0.1233733864
 40
0.1650675644
 40
0.2068511078
 40
0.2486061101
 40
0.2902146589
 40
0.3315594123
 40
0.3725239807
 40
0.4129933754
 40
0.4528544402
 40
0.4919962953
 40
0.5303107869
 40
0.5676929498
 40
0.6040414866
 40
0.6392592721
 40
0.6732538891
 40
0.7059382132
 40
0.737231065
 40
0.7670579581
 40
0.7953519845
 40
0.8089060986
 40
0.8220559125
 40
0.8347957925
 40
0.8471207196
 40
0.8590265822
 40
0.8705100689
 40
0.8815689017
 40
0.892201862
 40
0.902408946
 40
0.9121915575
 40
0.9215525975
 40
0.9304968359
 40
0.9390309792
 40
0.947164214
 40
0.9549083204
 40
0.9622783527
 40
0.9692928653
 40
0.9759746457
 40
0.9823510425
 40
0.9884545647
 40
0.9943230973
 40
1.0
 40
1.0
 40
1.0
 40
1.0
 10
11.3287051817
 20
10.584928452
 30
0.0
 10
11.3371293046
 20
10.5843442371
 30
0.0
 10
11.3540778149
 20
10.5832988437
 30
0.0
 10
11.379633363
 20
10.5821020112
 30
0.0
 10
11.4054048852
 20
10.58127021
 30
0.0
 10
11.4313142602
 20
10.5808059564
 30
0.0
 10
11.4572832053
 20
10.5807106785
 30
0.0
 10
11.4832331233
 20
10.5809846572
 30
0.0
 10
11.5090855294
 20
10.5816270629
 30
0.0
 10
11.534762216
 20
10.5826359367
 30
0.0
 10
11.560185517
 20
10.5840082066
 30
0.0
 10
11.5852785357
 20
10.5857396917
 30
0.0
 10
11.6099653822
 20
10.5878251162
 30
0.0
 10
11.6341714046
 20
10.5902581243
 30
0.0
 10
11.6578234177
 20
10.5930312987
 30
0.0
 10
11.6808499284
 20
10.5961361821
 30
0.0
 10
11.7031813574
 20
10.599563302
 30
0.0
 10
11.7247502544
 20
10.6033021982
 30
0.0
 10
11.7454915175
 20
10.6073414538
 30
0.0
 10
11.7653425764
 20
10.6116687319
 30
0.0
 10
11.7842436845
 20
10.6162708076
 30
0.0
 10
11.8021378163
 20
10.6211336368
 30
0.0
 10
11.816362419
 20
10.6254504092
 30
0.0
 10
11.8271898955
 20
10.6290331973
 30
0.0
 10
11.8349093633
 20
10.6317376877
 30
0.0
 10
11.8423385053
 20
10.6344959603
 30
0.0
 10
11.8494717315
 20
10.6373060149
 30
0.0
 10
11.8563036875
 20
10.6401656724
 30
0.0
 10
11.8628292394
 20
10.6430728142
 30
0.0
 10
11.8690435024
 20
10.6460252321
 30
0.0
 10
11.8749418312
 20
10.6490207161
 30
0.0
 10
11.8805198205
 20
10.6520570449
 30
0.0
 10
11.8857733364
 20
10.6551319319
 30
0.0
 10
11.8906984609
 20
10.6582431656
 30
0.0
 10
11.8952915875
 20
10.6613884116
 30
0.0
 10
11.8995492855
 20
10.6645654933
 30
0.0
 10
11.9034684732
 20
10.6677720763
 30
0.0
 10
11.9070461883
 20
10.6710060446
 30
0.0
 10
11.9102798288
 20
10.6742651283
 30
0.0
 10
11.9131668419
 20
10.6775472827
 30
0.0
 10
11.9157049871
 20
10.68085035
 30
0.0
 10
11.9178919917
 20
10.6841722742
 30
0.0
 10
11.9197258173
 20
10.6875110292
 30
0.0
 10
11.9212042536
 20
10.6908639189
 30
0.0
 10
11.9219623687
 20
10.6931394484
 30
0.0
 10
11.9222777822
 20
10.6942735667
 30
0.0
  0
SPLINE
  5
34E
100
AcDbEntity
  8
0
100
AcDbSpline
 62
7
  6
CONTINUOUS
 70
0
 71
3
 72
53
 73
49
 74
0
 42
0.0000001
 43
0.0000001
 44
0.0000000001
 40
0.0
 40
0.0
 40
0.0
 40
0.0
 40
0.0055575376
 40
0.0111779567
 40
0.0169218821
 40
0.0228457564
 40
0.0290005139
 40
0.0354309032
 40
0.0421753268
 40
0.0492661629
 40
0.0567301863
 40
0.0645892833
 40
0.0728609369
 40
0.0815589669
 40
0.0906938756
 40
0.1002734826
 40
0.1103031213
 40
0.1207861401
 40
0.1317240026
 40
0.14311666
 40
0.1549626112
 40
0.1672591551
 40
0.1800024545
 40
0.1931876791
 40
0.2068090973
 40
0.2208601246
 40
0.2353334527
 40
0.2502210197
 40
0.2655141749
 40
0.2812035909
 40
0.3137306612
 40
0.3477179984
 40
0.3830731233
 40
0.4196969504
 40
0.4574845402
 40
0.4963257781
 40
0.5361060008
 40
0.5767065869
 40
0.618005522
 40
0.6598779471
 40
0.7021966942
 40
0.7448328149
 40
0.7876560998
 40
0.8305356101
 40
0.8733401519
 40
0.9159389309
 40
0.9582016869
 40
1.0
 40
1.0
 40
1.0
 40
1.0
 10
12.120497075
 20
10.7339634155
 30
0.0
 10
12.1204970828
 20
10.7323072015
 30
0.0
 10
12.1203116761
 20
10.7289731503
 30
0.0
 10
12.1194794873
 20
10.7239898614
 30
0.0
 10
12.1180945581
 20
10.7190176911
 30
0.0
 10
12.1161596064
 20
10.7140624019
 30
0.0
 10
12.1136778142
 20
10.7091280077
 30
0.0
 10
12.1106525027
 20
10.7042183048
 30
0.0
 10
12.1070871504
 20
10.6993366345
 30
0.0
 10
12.102985205
 20
10.6944863302
 30
0.0
 10
12.0983503934
 20
10.6896705978
 30
0.0
 10
12.0931865363
 20
10.6848928576
 30
0.0
 10
12.087497898
 20
10.6801564399
 30
0.0
 10
12.081288967
 20
10.6754649357
 30
0.0
 10
12.0745647465
 20
10.6708218015
 30
0.0
 10
12.0673305437
 20
10.6662307219
 30
0.0
 10
12.0595921797
 20
10.661695216
 30
0.0
 10
12.0513558242
 20
10.6572189703
 30
0.0
 10
12.0426281287
 20
10.6528055095
 30
0.0
 10
12.033416118
 20
10.6484584545
 30
0.0
 10
12.0237272592
 20
10.6441812936
 30
0.0
 10
12.0135694038
 20
10.6399775394
 30
0.0
 10
12.00295081
 20
10.6358506133
 30
0.0
 10
11.9918801204
 20
10.6318038929
 30
0.0
 10
11.9803663553
 20
10.6278407082
 30
0.0
 10
11.9684189117
 20
10.6239642866
 30
0.0
 10
11.9560475392
 20
10.6201778436
 30
0.0
 10
11.9432623548
 20
10.6164844537
 30
0.0
 10
11.9300737911
 20
10.6128871704
 30
0.0
 10
11.9117448671
 20
10.6081660966
 30
0.0
 10
11.8878985543
 20
10.6025411399
 30
0.0
 10
11.8581864028
 20
10.5962976555
 30
0.0
 10
11.827140823
 20
10.5905028557
 30
0.0
 10
11.7948634475
 20
10.585175891
 30
0.0
 10
11.7614597711
 20
10.5803344004
 30
0.0
 10
11.7270391078
 20
10.5759943963
 30
0.0
 10
11.6917141279
 20
10.5721702291
 30
0.0
 10
11.6556005034
 20
10.5688745377
 30
0.0
 10
11.6188165149
 20
10.5661182108
 30
0.0
 10
11.5814826587
 20
10.5639103523
 30
0.0
 10
11.5437212475
 20
10.5622582527
 30
0.0
 10
11.5056560054
 20
10.5611673668
 30
0.0
 10
11.4674116578
 20
10.5606412948
 30
0.0
 10
11.4291135255
 20
10.5606817756
 30
0.0
 10
11.3908870945
 20
10.5612886705
 30
0.0
 10
11.3528576335
 20
10.5624599865
 30
0.0
 10
11.3151498212
 20
10.5641918372
 30
0.0
 10
11.2901444321
 20
10.5657263338
 30
0.0
 10
11.2777178719
 20
10.5665881187
 30
0.0
  0
SPLINE
  5
34F
100
AcDbEntity
  8
0
100
AcDbSpline
 62
7
  6
CONTINUOUS
 70
0
 71
3
 72
47
 73
43
 74
0
 42
0.0000001
 43
0.0000001
 44
0.0000000001
 40
0.0
 40
0.0
 40
0.0
 40
0.0
 40
0.0063158953
 40
0.0126706964
 40
0.0191025413
 40
0.0256481068
 40
0.0323419887
 40
0.0392163511
 40
0.0536141938
 40
0.0611949453
 40
0.0690567093
 40
0.0772178306
 40
0.0856942536
 40
0.094499648
 40
0.1036457893
 40
0.1131425899
 40
0.1229983503
 40
0.1332200167
 40
0.1438131323
 40
0.1547821683
 40
0.1661305713
 40
0.1899729423
 40
0.2153524409
 40
0.2422683478
 40
0.2707106917
 40
0.3006617255
 40
0.3320970385
 40
0.3649863926
 40
0.3992943516
 40
0.4349809011
 40
0.4720019229
 40
0.5103095575
 40
0.5498524869
 40
0.5905762826
 40
0.6324236706
 40
0.6753347453
 40
0.7192471563
 40
0.7640962954
 40
0.8098156376
 40
0.856336788
 40
0.9035890146
 40
1.0
 40
1.0
 40
1.0
 40
1.0
 10
12.9743078894
 20
7.8138233599
 30
0.0
 10
12.973176309
 20
7.8139018355
 30
0.0
 10
12.970911528
 20
7.814151919
 30
0.0
 10
12.9675397322
 20
7.8148036858
 30
0.0
 10
12.964190468
 20
7.8157321222
 30
0.0
 10
12.9608657224
 20
7.8169365454
 30
0.0
 10
12.9575667496
 20
7.8184161417
 30
0.0
 10
12.953137148
 20
7.8207906733
 30
0.0
 10
12.9488278057
 20
7.8236974076
 30
0.0
 10
12.9446574971
 20
7.8270659138
 30
0.0
 10
12.9415074921
 20
7.8299059398
 30
0.0
 10
12.9383911143
 20
7.8330143453
 30
0.0
 10
12.9353091882
 20
7.836390059
 30
0.0
 10
12.9322629029
 20
7.8400315659
 30
0.0
 10
12.9292534385
 20
7.8439374343
 30
0.0
 10
12.9262819313
 20
7.848106047
 30
0.0
 10
12.9233495116
 20
7.8525357039
 30
0.0
 10
12.9204573859
 20
7.8572246409
 30
0.0
 10
12.9176066539
 20
7.8621709229
 30
0.0
 10
12.9147984434
 20
7.8673725671
 30
0.0
 10
12.911050637
 20
7.8747679409
 30
0.0
 10
12.9064930577
 20
7.8846498621
 30
0.0
 10
12.9012980703
 20
7.8973022313
 30
0.0
 10
12.8962990722
 20
7.9109165971
 30
0.0
 10
12.8915042417
 20
7.9254707431
 30
0.0
 10
12.8869214457
 20
7.9409411719
 30
0.0
 10
12.8825582706
 20
7.9573026828
 30
0.0
 10
12.8784219666
 20
7.9745285628
 30
0.0
 10
12.874519399
 20
7.9925905951
 30
0.0
 10
12.870857062
 20
8.0114591425
 30
0.0
 10
12.8674410598
 20
8.0311032107
 30
0.0
 10
12.8642770948
 20
8.0514904967
 30
0.0
 10
12.8613704284
 20
8.072587441
 30
0.0
 10
12.8587259024
 20
8.0943592961
 30
0.0
 10
12.8563479275
 20
8.1167701945
 30
0.0
 10
12.8542404756
 20
8.1397832038
 30
0.0
 10
12.852407052
 20
8.1633603753
 30
0.0
 10
12.8508507054
 20
8.1874628383
 30
0.0
 10
12.8495740444
 20
8.2120508394
 30
0.0
 10
12.8485791911
 20
8.2370838038
 30
0.0
 10
12.8476243959
 20
8.2712270132
 30
0.0
 10
12.8473474326
 20
8.2970294501
 30
0.0
 10
12.8473474326
 20
8.3143443058
 30
0.0
  0
SPLINE
  5
350
100
AcDbEntity
  8
0
100
AcDbSpline
 62
7
  6
CONTINUOUS
 70
0
 71
3
 72
40
 73
36
 74
0
 42
0.0000001
 43
0.0000001
 44
0.0000000001
 40
0.0
 40
0.0
 40
0.0
 40
0.0
 40
0.0063160317
 40
0.0126709803
 40
0.0191029757
 40
0.0256486833
 40
0.0323427436
 40
0.0392172655
 40
0.0536154772
 40
0.0690526586
 40
0.0856860581
 40
0.1036344402
 40
0.1229845836
 40
0.1437975252
 40
0.1661136309
 40
0.1899565788
 40
0.215336668
 40
0.2422532113
 40
0.2706962166
 40
0.3006479298
 40
0.3320839776
 40
0.3649740847
 40
0.3992827974
 40
0.4349701487
 40
0.4719920266
 40
0.5103004985
 40
0.5498442818
 40
0.5905689983
 40
0.6324173162
 40
0.6753293134
 40
0.7192426811
 40
0.7640927959
 40
0.8098131949
 40
0.9035868196
 40
1.0
 40
1.0
 40
1.0
 40
1.0
 10
12.8087792572
 20
8.9058149408
 30
0.0
 10
12.8079476867
 20
8.9058726142
 30
0.0
 10
12.8062833509
 20
8.9060563773
 30
0.0
 10
12.8038055064
 20
8.9065353995
 30
0.0
 10
12.8013442214
 20
8.9072177085
 30
0.0
 10
12.798900928
 20
8.908102796
 30
0.0
 10
12.7964766357
 20
8.9091901662
 30
0.0
 10
12.7932213045
 20
8.9109352108
 30
0.0
 10
12.7891931399
 20
8.9136524548
 30
0.0
 10
12.7845339015
 20
8.9176577869
 30
0.0
 10
12.7799784757
 20
8.9224487379
 30
0.0
 10
12.7755321366
 20
8.9280164285
 30
0.0
 10
12.7711996669
 20
8.9343521273
 30
0.0
 10
12.7669867827
 20
8.9414460871
 30
0.0
 10
12.7628994656
 20
8.9492874133
 30
0.0
 10
12.7589438606
 20
8.9578638743
 30
0.0
 10
12.7551261691
 20
8.9671619428
 30
0.0
 10
12.7514525418
 20
8.9771667927
 30
0.0
 10
12.7479289416
 20
8.98786231
 30
0.0
 10
12.7445611566
 20
8.999231165
 30
0.0
 10
12.7413547755
 20
9.0112548606
 30
0.0
 10
12.7383151132
 20
9.0239137548
 30
0.0
 10
12.7354472092
 20
9.0371871118
 30
0.0
 10
12.73275585
 20
9.0510531598
 30
0.0
 10
12.7302455274
 20
9.0654891206
 30
0.0
 10
12.7279204056
 20
9.080471247
 30
0.0
 10
12.7257843631
 20
9.0959748817
 30
0.0
 10
12.7238409762
 20
9.1119744958
 30
0.0
 10
12.7220934678
 20
9.1284437258
 30
0.0
 10
12.7205447457
 20
9.1453554276
 30
0.0
 10
12.7191974144
 20
9.1626817132
 30
0.0
 10
12.7180536833
 20
9.1803940462
 30
0.0
 10
12.7167922205
 20
9.204690974
 30
0.0
 10
12.7157488063
 20
9.2358107554
 30
0.0
 10
12.7154792286
 20
9.2609118496
 30
0.0
 10
12.7154792286
 20
9.2736361284
 30
0.0
  0
SPLINE
  5
351
100
AcDbEntity
  8
0
100
AcDbSpline
 62
7
  6
CONTINUOUS
 70
0
 71
3
 72
42
 73
38
 74
0
 42
0.0000001
 43
0.0000001
 44
0.0000000001
 40
0.0
 40
0.0
 40
0.0
 40
0.0
 40
0.0299419634
 40
0.0449235299
 40
0.0599142017
 40
0.0899287029
 40
0.1200139772
 40
0.1350926626
 40
0.1501967046
 40
0.1804840506
 40
0.2108978877
 40
0.2414513551
 40
0.2721543675
 40
0.3030134354
 40
0.3340315696
 40
0.3652082675
 40
0.3965395775
 40
0.4280182343
 40
0.4596338596
 40
0.4913732188
 40
0.5232205284
 40
0.5551578047
 40
0.5871652463
 40
0.6192216448
 40
0.6513048151
 40
0.6833920402
 40
0.7154605222
 40
0.747487836
 40
0.7794523759
 40
0.8113337934
 40
0.8431134117
 40
0.8747746318
 40
0.9063032512
 40
0.9376879208
 40
0.9533258
 40
0.9689252634
 40
1.0
 40
1.0
 40
1.0
 40
1.0
 10
9.0235749539
 20
10.2076594937
 30
0.0
 10
9.027208093
 20
10.2111688152
 30
0.0
 10
9.0328719605
 20
10.2162201484
 30
0.0
 10
9.0408040793
 20
10.2224877527
 30
0.0
 10
9.0489887962
 20
10.2284434715
 30
0.0
 10
9.059668506
 20
10.2352825662
 30
0.0
 10
9.0708674698
 20
10.2412647947
 30
0.0
 10
9.0801037125
 20
10.2455205581
 30
0.0
 10
9.089530749
 20
10.2494250016
 30
0.0
 10
9.1016252093
 20
10.2536233819
 30
0.0
 10
9.1165297983
 20
10.257536167
 30
0.0
 10
9.1317596078
 20
10.260308074
 30
0.0
 10
9.1472302364
 20
10.2619238107
 30
0.0
 10
9.1628567005
 20
10.2623747544
 30
0.0
 10
9.178553019
 20
10.2616586101
 30
0.0
 10
9.1942329213
 20
10.2597795147
 30
0.0
 10
9.2098102533
 20
10.2567479776
 30
0.0
 10
9.2251994624
 20
10.2525808234
 30
0.0
 10
9.2403160565
 20
10.2473010922
 30
0.0
 10
9.2550770622
 20
10.2409379093
 30
0.0
 10
9.2694014741
 20
10.2335263236
 30
0.0
 10
9.2832106928
 20
10.2251071137
 30
0.0
 10
9.2964289503
 20
10.2157265648
 30
0.0
 10
9.3089837209
 20
10.2054362157
 30
0.0
 10
9.320806114
 20
10.1942925775
 30
0.0
 10
9.331831248
 20
10.1823568265
 30
0.0
 10
9.3419986028
 20
10.1696944716
 30
0.0
 10
9.3512523485
 20
10.1563749972
 30
0.0
 10
9.3595416493
 20
10.1424714907
 30
0.0
 10
9.3668209406
 20
10.1280602297
 30
0.0
 10
9.3730501759
 20
10.1132203285
 30
0.0
 10
9.3781950591
 20
10.0980330892
 30
0.0
 10
9.382227168
 20
10.0825823758
 30
0.0
 10
9.3846445069
 20
10.0695402986
 30
0.0
 10
9.3860005623
 20
10.0590611476
 30
0.0
 10
9.3869683458
 20
10.0485920244
 30
0.0
 10
9.3872613813
 20
10.0407140797
 30
0.0
 10
9.3872613813
 20
10.0354717384
 30
0.0
  0
SPLINE
  5
352
100
AcDbEntity
  8
0
100
AcDbSpline
 62
7
  6
CONTINUOUS
 70
0
 71
3
 72
42
 73
38
 74
0
 42
0.0000001
 43
0.0000001
 44
0.0000000001
 40
0.0
 40
0.0
 40
0.0
 40
0.0
 40
0.0299419634
 40
0.0449235299
 40
0.0599142017
 40
0.0899287029
 40
0.1200139772
 40
0.1350926626
 40
0.1501967046
 40
0.1804840506
 40
0.2108978877
 40
0.2414513551
 40
0.2721543675
 40
0.3030134354
 40
0.3340315696
 40
0.3652082675
 40
0.3965395775
 40
0.4280182343
 40
0.4596338596
 40
0.4913732188
 40
0.5232205284
 40
0.5551578047
 40
0.5871652463
 40
0.6192216448
 40
0.6513048151
 40
0.6833920402
 40
0.7154605222
 40
0.747487836
 40
0.7794523759
 40
0.8113337934
 40
0.8431134117
 40
0.8747746318
 40
0.9063032512
 40
0.9376879208
 40
0.9533258
 40
0.9689252634
 40
1.0
 40
1.0
 40
1.0
 40
1.0
 10
12.0411274552
 20
9.9983915169
 30
0.0
 10
12.0447605944
 20
10.0019008385
 30
0.0
 10
12.0504244618
 20
10.0069521716
 30
0.0
 10
12.0583565806
 20
10.013219776
 30
0.0
 10
12.0665412976
 20
10.0191754948
 30
0.0
 10
12.0772210074
 20
10.0260145894
 30
0.0
 10
12.0884199711
 20
10.031996818
 30
0.0
 10
12.0976562139
 20
10.0362525813
 30
0.0
 10
12.1070832503
 20
10.0401570249
 30
0.0
 10
12.1191777106
 20
10.0443554051
 30
0.0
 10
12.1340822997
 20
10.0482681902
 30
0.0
 10
12.1493121092
 20
10.0510400973
 30
0.0
 10
12.1647827377
 20
10.052655834
 30
0.0
 10
12.1804092019
 20
10.0531067777
 30
0.0
 10
12.1961055203
 20
10.0523906334
 30
0.0
 10
12.2117854227
 20
10.0505115379
 30
0.0
 10
12.2273627547
 20
10.0474800008
 30
0.0
 10
12.2427519638
 20
10.0433128467
 30
0.0
 10
12.2578685578
 20
10.0380331155
 30
0.0
 10
12.2726295635
 20
10.0316699326
 30
0.0
 10
12.2869539755
 20
10.0242583468
 30
0.0
 10
12.3007631942
 20
10.0158391369
 30
0.0
 10
12.3139814517
 20
10.0064585881
 30
0.0
 10
12.3265362223
 20
9.9961682389
 30
0.0
 10
12.3383586153
 20
9.9850246008
 30
0.0
 10
12.3493837493
 20
9.9730888498
 30
0.0
 10
12.3595511041
 20
9.9604264949
 30
0.0
 10
12.3688048498
 20
9.9471070205
 30
0.0
 10
12.3770941506
 20
9.933203514
 30
0.0
 10
12.3843734419
 20
9.918792253
 30
0.0
 10
12.3906026773
 20
9.9039523518
 30
0.0
 10
12.3957475604
 20
9.8887651125
 30
0.0
 10
12.3997796693
 20
9.873314399
 30
0.0
 10
12.4021970083
 20
9.8602723218
 30
0.0
 10
12.4035530637
 20
9.8497931709
 30
0.0
 10
12.4045208471
 20
9.8393240477
 30
0.0
 10
12.4048138826
 20
9.831446103
 30
0.0
 10
12.4048138826
 20
9.8262037617
 30
0.0
  0
SPLINE
  5
353
100
AcDbEntity
  8
0
100
AcDbSpline
 62
7
  6
CONTINUOUS
 70
0
 71
3
 72
34
 73
30
 74
0
 42
0.0000001
 43
0.0000001
 44
0.0000000001
 40
0.0
 40
0.0
 40
0.0
 40
0.0
 40
0.0649702054
 40
0.097358879
 40
0.1296574788
 40
0.1618568572
 40
0.1939498234
 40
0.2259307917
 40
0.257795284
 40
0.3211389521
 40
0.3839932394
 40
0.4152505458
 40
0.4463889863
 40
0.5082968188
 40
0.5697882671
 40
0.6004171698
 40
0.6309736139
 40
0.6614729267
 40
0.691933301
 40
0.7223757029
 40
0.752824117
 40
0.783305383
 40
0.8138486028
 40
0.8444841901
 40
0.8752424414
 40
0.9061518362
 40
0.9372368047
 40
0.9685159848
 40
1.0
 40
1.0
 40
1.0
 40
1.0
 10
9.3526475922
 20
7.5917667961
 30
0.0
 10
9.3549832833
 20
7.588362998
 30
0.0
 10
9.3581603731
 20
7.5830304838
 30
0.0
 10
9.3617180794
 20
7.575596676
 30
0.0
 10
9.3640443428
 20
7.5698928979
 30
0.0
 10
9.3660298914
 20
7.564082238
 30
0.0
 10
9.3676755857
 20
7.5581873203
 30
0.0
 10
9.3689821023
 20
7.5522297839
 30
0.0
 10
9.3702701536
 20
7.5442481532
 30
0.0
 10
9.3710415923
 20
7.5342126494
 30
0.0
 10
9.3706900527
 20
7.5241917312
 30
0.0
 10
9.3697306161
 20
7.5162876124
 30
0.0
 10
9.36832528
 20
7.5085116847
 30
0.0
 10
9.3657249508
 20
7.4990171573
 30
0.0
 10
9.3619769166
 20
7.4899450703
 30
0.0
 10
9.3582972961
 20
7.483067763
 30
0.0
 10
9.3552005183
 20
7.4781277492
 30
0.0
 10
9.3517659108
 20
7.4734294073
 30
0.0
 10
9.347997265
 20
7.4690034209
 30
0.0
 10
9.3439009309
 20
7.4648827926
 30
0.0
 10
9.3394863908
 20
7.4611022558
 30
0.0
 10
9.3347670927
 20
7.4576979615
 30
0.0
 10
9.3297612813
 20
7.4547067501
 30
0.0
 10
9.3244927962
 20
7.4521651336
 30
0.0
 10
9.3189916587
 20
7.4501078929
 30
0.0
 10
9.3132944147
 20
7.4485664098
 30
0.0
 10
9.307443611
 20
7.4475667844
 30
0.0
 10
9.3014880898
 20
7.4471279922
 30
0.0
 10
9.2974940603
 20
7.4472161025
 30
0.0
 10
9.295498406
 20
7.4473545016
 30
0.0
  0
SPLINE
  5
354
100
AcDbEntity
  8
0
100
AcDbSpline
 62
7
  6
CONTINUOUS
 70
0
 71
3
 72
42
 73
38
 74
0
 42
0.0000001
 43
0.0000001
 44
0.0000000001
 40
0.0
 40
0.0
 40
0.0
 40
0.0
 40
0.0299419634
 40
0.0449235299
 40
0.0599142017
 40
0.0899287029
 40
0.1200139772
 40
0.1350926626
 40
0.1501967046
 40
0.1804840506
 40
0.2108978877
 40
0.2414513551
 40
0.2721543675
 40
0.3030134354
 40
0.3340315696
 40
0.3652082675
 40
0.3965395775
 40
0.4280182343
 40
0.4596338596
 40
0.4913732188
 40
0.5232205284
 40
0.5551578047
 40
0.5871652463
 40
0.6192216448
 40
0.6513048151
 40
0.6833920402
 40
0.7154605222
 40
0.747487836
 40
0.7794523759
 40
0.8113337934
 40
0.8431134117
 40
0.8747746318
 40
0.9063032512
 40
0.9376879208
 40
0.9533258
 40
0.9689252634
 40
1.0
 40
1.0
 40
1.0
 40
1.0
 10
12.0411274552
 20
6.4978763041
 30
0.0
 10
12.0447605944
 20
6.5013856257
 30
0.0
 10
12.0504244618
 20
6.5064369588
 30
0.0
 10
12.0583565806
 20
6.5127045632
 30
0.0
 10
12.0665412976
 20
6.518660282
 30
0.0
 10
12.0772210074
 20
6.5254993766
 30
0.0
 10
12.0884199711
 20
6.5314816052
 30
0.0
 10
12.0976562139
 20
6.5357373685
 30
0.0
 10
12.1070832503
 20
6.5396418121
 30
0.0
 10
12.1191777106
 20
6.5438401923
 30
0.0
 10
12.1340822997
 20
6.5477529774
 30
0.0
 10
12.1493121092
 20
6.5505248845
 30
0.0
 10
12.1647827377
 20
6.5521406212
 30
0.0
 10
12.1804092019
 20
6.5525915649
 30
0.0
 10
12.1961055203
 20
6.5518754206
 30
0.0
 10
12.2117854227
 20
6.5499963251
 30
0.0
 10
12.2273627547
 20
6.546964788
 30
0.0
 10
12.2427519638
 20
6.5427976339
 30
0.0
 10
12.2578685578
 20
6.5375179026
 30
0.0
 10
12.2726295635
 20
6.5311547198
 30
0.0
 10
12.2869539755
 20
6.523743134
 30
0.0
 10
12.3007631942
 20
6.5153239241
 30
0.0
 10
12.3139814517
 20
6.5059433753
 30
0.0
 10
12.3265362223
 20
6.4956530261
 30
0.0
 10
12.3383586153
 20
6.484509388
 30
0.0
 10
12.3493837493
 20
6.472573637
 30
0.0
 10
12.3595511041
 20
6.4599112821
 30
0.0
 10
12.3688048498
 20
6.4465918077
 30
0.0
 10
12.3770941506
 20
6.4326883012
 30
0.0
 10
12.3843734419
 20
6.4182770402
 30
0.0
 10
12.3906026773
 20
6.403437139
 30
0.0
 10
12.3957475604
 20
6.3882498997
 30
0.0
 10
12.3997796693
 20
6.3727991862
 30
0.0
 10
12.4021970083
 20
6.359757109
 30
0.0
 10
12.4035530637
 20
6.3492779581
 30
0.0
 10
12.4045208471
 20
6.3388088349
 30
0.0
 10
12.4048138826
 20
6.3309308902
 30
0.0
 10
12.4048138826
 20
6.3256885489
 30
0.0
  0
SPLINE
  5
355
100
AcDbEntity
  8
0
100
AcDbSpline
 62
7
  6
CONTINUOUS
 70
0
 71
3
 72
17
 73
13
 74
0
 42
0.0000001
 43
0.0000001
 44
0.0000000001
 40
0.0
 40
0.0
 40
0.0
 40
0.0
 40
0.1261728122
 40
0.2521689971
 40
0.3779035907
 40
0.4406564968
 40
0.5033132018
 40
0.6282793031
 40
0.75275079
 40
0.8147909666
 40
0.8766875852
 40
1.0
 40
1.0
 40
1.0
 40
1.0
 10
11.4806949462
 20
7.6825813666
 30
0.0
 10
11.4776558415
 20
7.6862321649
 30
0.0
 10
11.4718216863
 20
7.6937324604
 30
0.0
 10
11.4638595243
 20
7.705535754
 30
0.0
 10
11.4579259061
 20
7.7157936579
 30
0.0
 10
11.4536299544
 20
7.7242184816
 30
0.0
 10
11.449648372
 20
7.7327644785
 30
0.0
 10
11.4452621695
 20
7.743676694
 30
0.0
 10
11.4416918778
 20
7.7548584917
 30
0.0
 10
11.4393480022
 20
7.7639142745
 30
0.0
 10
11.4373539206
 20
7.7730082821
 30
0.0
 10
11.4362458713
 20
7.7799014215
 30
0.0
 10
11.4356847974
 20
7.7845099119
 30
0.0
  0
SPLINE
  5
356
100
AcDbEntity
  8
0
100
AcDbSpline
 62
7
  6
CONTINUOUS
 70
0
 71
3
 72
42
 73
38
 74
0
 42
0.0000001
 43
0.0000001
 44
0.0000000001
 40
0.0
 40
0.0
 40
0.0
 40
0.0
 40
0.0299419634
 40
0.0449235299
 40
0.0599142017
 40
0.0899287029
 40
0.1200139772
 40
0.1350926626
 40
0.1501967046
 40
0.1804840506
 40
0.2108978877
 40
0.2414513551
 40
0.2721543675
 40
0.3030134354
 40
0.3340315696
 40
0.3652082675
 40
0.3965395775
 40
0.4280182343
 40
0.4596338596
 40
0.4913732188
 40
0.5232205284
 40
0.5551578047
 40
0.5871652463
 40
0.6192216448
 40
0.6513048151
 40
0.6833920402
 40
0.7154605222
 40
0.747487836
 40
0.7794523759
 40
0.8113337934
 40
0.8431134117
 40
0.8747746318
 40
0.9063032512
 40
0.9376879208
 40
0.9533258
 40
0.9689252634
 40
1.0
 40
1.0
 40
1.0
 40
1.0
 10
9.0235749539
 20
6.7071442808
 30
0.0
 10
9.027208093
 20
6.7106536024
 30
0.0
 10
9.0328719605
 20
6.7157049356
 30
0.0
 10
9.0408040793
 20
6.7219725399
 30
0.0
 10
9.0489887962
 20
6.7279282587
 30
0.0
 10
9.059668506
 20
6.7347673534
 30
0.0
 10
9.0708674698
 20
6.7407495819
 30
0.0
 10
9.0801037125
 20
6.7450053453
 30
0.0
 10
9.089530749
 20
6.7489097888
 30
0.0
 10
9.1016252093
 20
6.7531081691
 30
0.0
 10
9.1165297983
 20
6.7570209542
 30
0.0
 10
9.1317596078
 20
6.7597928612
 30
0.0
 10
9.1472302364
 20
6.7614085979
 30
0.0
 10
9.1628567005
 20
6.7618595416
 30
0.0
 10
9.178553019
 20
6.7611433973
 30
0.0
 10
9.1942329213
 20
6.7592643019
 30
0.0
 10
9.2098102533
 20
6.7562327647
 30
0.0
 10
9.2251994624
 20
6.7520656106
 30
0.0
 10
9.2403160565
 20
6.7467858794
 30
0.0
 10
9.2550770622
 20
6.7404226965
 30
0.0
 10
9.2694014741
 20
6.7330111108
 30
0.0
 10
9.2832106928
 20
6.7245919009
 30
0.0
 10
9.2964289503
 20
6.715211352
 30
0.0
 10
9.3089837209
 20
6.7049210029
 30
0.0
 10
9.320806114
 20
6.6937773647
 30
0.0
 10
9.331831248
 20
6.6818416137
 30
0.0
 10
9.3419986028
 20
6.6691792588
 30
0.0
 10
9.3512523485
 20
6.6558597844
 30
0.0
 10
9.3595416493
 20
6.6419562779
 30
0.0
 10
9.3668209406
 20
6.6275450169
 30
0.0
 10
9.3730501759
 20
6.6127051157
 30
0.0
 10
9.3781950591
 20
6.5975178764
 30
0.0
 10
9.382227168
 20
6.582067163
 30
0.0
 10
9.3846445069
 20
6.5690250858
 30
0.0
 10
9.3860005623
 20
6.5585459348
 30
0.0
 10
9.3869683458
 20
6.5480768116
 30
0.0
 10
9.3872613813
 20
6.5401988669
 30
0.0
 10
9.3872613813
 20
6.5349565256
 30
0.0
  0
SPLINE
  5
357
100
AcDbEntity
  8
0
100
AcDbSpline
 62
7
  6
CONTINUOUS
 70
0
 71
3
 72
42
 73
38
 74
0
 42
0.0000001
 43
0.0000001
 44
0.0000000001
 40
0.0
 40
0.0
 40
0.0
 40
0.0
 40
0.0299419634
 40
0.0449235299
 40
0.0599142017
 40
0.0899287029
 40
0.1200139772
 40
0.1350926626
 40
0.1501967046
 40
0.1804840506
 40
0.2108978877
 40
0.2414513551
 40
0.2721543675
 40
0.3030134354
 40
0.3340315696
 40
0.3652082675
 40
0.3965395775
 40
0.4280182343
 40
0.4596338596
 40
0.4913732188
 40
0.5232205284
 40
0.5551578047
 40
0.5871652463
 40
0.6192216448
 40
0.6513048151
 40
0.6833920402
 40
0.7154605222
 40
0.747487836
 40
0.7794523759
 40
0.8113337934
 40
0.8431134117
 40
0.8747746318
 40
0.9063032512
 40
0.9376879208
 40
0.9533258
 40
0.9689252634
 40
1.0
 40
1.0
 40
1.0
 40
1.0
 10
9.6871660421
 20
8.0791029867
 30
0.0
 10
9.6907991812
 20
8.0826123082
 30
0.0
 10
9.6964630487
 20
8.0876636414
 30
0.0
 10
9.7043951675
 20
8.0939312457
 30
0.0
 10
9.7125798844
 20
8.0998869645
 30
0.0
 10
9.7232595942
 20
8.1067260592
 30
0.0
 10
9.734458558
 20
8.1127082877
 30
0.0
 10
9.7436948007
 20
8.1169640511
 30
0.0
 10
9.7531218372
 20
8.1208684946
 30
0.0
 10
9.7652162975
 20
8.1250668749
 30
0.0
 10
9.7801208865
 20
8.12897966
 30
0.0
 10
9.795350696
 20
8.131751567
 30
0.0
 10
9.8108213246
 20
8.1333673037
 30
0.0
 10
9.8264477887
 20
8.1338182474
 30
0.0
 10
9.8421441072
 20
8.1331021031
 30
0.0
 10
9.8578240095
 20
8.1312230077
 30
0.0
 10
9.8734013415
 20
8.1281914705
 30
0.0
 10
9.8887905506
 20
8.1240243164
 30
0.0
 10
9.9039071447
 20
8.1187445852
 30
0.0
 10
9.9186681504
 20
8.1123814023
 30
0.0
 10
9.9329925623
 20
8.1049698166
 30
0.0
 10
9.946801781
 20
8.0965506067
 30
0.0
 10
9.9600200385
 20
8.0871700578
 30
0.0
 10
9.9725748091
 20
8.0768797087
 30
0.0
 10
9.9843972022
 20
8.0657360705
 30
0.0
 10
9.9954223362
 20
8.0538003195
 30
0.0
 10
10.005589691
 20
8.0411379646
 30
0.0
 10
10.0148434367
 20
8.0278184902
 30
0.0
 10
10.0231327375
 20
8.0139149837
 30
0.0
 10
10.0304120288
 20
7.9995037227
 30
0.0
 10
10.0366412641
 20
7.9846638215
 30
0.0
 10
10.0417861472
 20
7.9694765822
 30
0.0
 10
10.0458182562
 20
7.9540258688
 30
0.0
 10
10.0482355951
 20
7.9409837916
 30
0.0
 10
10.0495916505
 20
7.9305046406
 30
0.0
 10
10.050559434
 20
7.9200355174
 30
0.0
 10
10.0508524695
 20
7.9121575727
 30
0.0
 10
10.0508524695
 20
7.9069152314
 30
0.0
  0
SPLINE
  5
358
100
AcDbEntity
  8
0
100
AcDbSpline
 62
7
  6
CONTINUOUS
 70
0
 71
3
 72
15
 73
11
 74
0
 42
0.0000001
 43
0.0000001
 44
0.0000000001
 40
0.0
 40
0.0
 40
0.0
 40
0.0
 40
0.1233171261
 40
0.2468171865
 40
0.3706749939
 40
0.4950495802
 40
0.6200773232
 40
0.7458671315
 40
0.872492731
 40
1.0
 40
1.0
 40
1.0
 40
1.0
 10
9.6464972207
 20
9.2550669979
 30
0.0
 10
9.6490217544
 20
9.257505489
 30
0.0
 10
9.654341725
 20
9.2621179147
 30
0.0
 10
9.6630244413
 20
9.2681451049
 30
0.0
 10
9.6723282662
 20
9.2732259462
 30
0.0
 10
9.6821579669
 20
9.2773082167
 30
0.0
 10
9.6924143887
 20
9.2803513872
 30
0.0
 10
9.702994213
 20
9.2823250303
 30
0.0
 10
9.7137894439
 20
9.2832099495
 30
0.0
 10
9.7210357261
 20
9.2830686079
 30
0.0
 10
9.7246562081
 20
9.2828175267
 30
0.0
  0
SPLINE
  5
359
100
AcDbEntity
  8
0
100
AcDbSpline
 62
7
  6
CONTINUOUS
 70
0
 71
3
 72
28
 73
24
 74
0
 42
0.0000001
 43
0.0000001
 44
0.0000000001
 40
0.0
 40
0.0
 40
0.0
 40
0.0
 40
0.0418207344
 40
0.0828988273
 40
0.1232202721
 40
0.1627768617
 40
0.2395635153
 40
0.3133373988
 40
0.3842139513
 40
0.4523456285
 40
0.5178917573
 40
0.580992961
 40
0.6417519762
 40
0.7002217812
 40
0.7564003836
 40
0.8102320951
 40
0.8362471582
 40
0.8616355138
 40
0.8863809203
 40
0.9104677068
 40
0.933881969
 40
0.9566140547
 40
1.0
 40
1.0
 40
1.0
 40
1.0
 10
10.5542663554
 20
8.2326505858
 30
0.0
 10
10.5518956647
 20
8.2321433209
 30
0.0
 10
10.5471690343
 20
8.2312606104
 30
0.0
 10
10.5400839589
 20
8.2303268449
 30
0.0
 10
10.5330891115
 20
8.2297882803
 30
0.0
 10
10.5240058269
 20
8.22958746
 30
0.0
 10
10.512979886
 20
8.2302484094
 30
0.0
 10
10.5003054236
 20
8.2324418252
 30
0.0
 10
10.4884360245
 20
8.2358917411
 30
0.0
 10
10.4774623966
 20
8.2404480572
 30
0.0
 10
10.4674467037
 20
8.2459545332
 30
0.0
 10
10.458429266
 20
8.2522551831
 30
0.0
 10
10.4504341246
 20
8.2591978871
 30
0.0
 10
10.4434745038
 20
8.2666362404
 30
0.0
 10
10.4375582561
 20
8.2744282415
 30
0.0
 10
10.4334544477
 20
8.2811800767
 30
0.0
 10
10.4307129762
 20
8.2866326485
 30
0.0
 10
10.4289452474
 20
8.2906801006
 30
0.0
 10
10.42744411
 20
8.2947147626
 30
0.0
 10
10.4262110267
 20
8.2987196712
 30
0.0
 10
10.4252477326
 20
8.3026785191
 30
0.0
 10
10.4243400661
 20
8.3077906002
 30
0.0
 10
10.4240420687
 20
8.3116288695
 30
0.0
 10
10.4240433429
 20
8.3141439586
 30
0.0
  0
SPLINE
  5
35A
100
AcDbEntity
  8
0
100
AcDbSpline
 62
7
  6
CONTINUOUS
 70
0
 71
3
 72
15
 73
11
 74
0
 42
0.0000001
 43
0.0000001
 44
0.0000000001
 40
0.0
 40
0.0
 40
0.0
 40
0.0
 40
0.1233171261
 40
0.2468171865
 40
0.3706749939
 40
0.4950495802
 40
0.6200773232
 40
0.7458671315
 40
0.872492731
 40
1.0
 40
1.0
 40
1.0
 40
1.0
 10
11.6990897232
 20
9.1127192243
 30
0.0
 10
11.7016142569
 20
9.1151577154
 30
0.0
 10
11.7069342275
 20
9.1197701412
 30
0.0
 10
11.7156169438
 20
9.1257973314
 30
0.0
 10
11.7249207687
 20
9.1308781726
 30
0.0
 10
11.7347504694
 20
9.1349604432
 30
0.0
 10
11.7450068912
 20
9.1380036137
 30
0.0
 10
11.7555867155
 20
9.1399772568
 30
0.0
 10
11.7663819464
 20
9.1408621759
 30
0.0
 10
11.7736282286
 20
9.1407208344
 30
0.0
 10
11.7772487106
 20
9.1404697531
 30
0.0
  0
SPLINE
  5
35B
100
AcDbEntity
  8
0
100
AcDbSpline
 62
7
  6
CONTINUOUS
 70
0
 71
3
 72
42
 73
38
 74
0
 42
0.0000001
 43
0.0000001
 44
0.0000000001
 40
0.0
 40
0.0
 40
0.0
 40
0.0
 40
0.0299419634
 40
0.0449235299
 40
0.0599142017
 40
0.0899287029
 40
0.1200139772
 40
0.1350926626
 40
0.1501967046
 40
0.1804840506
 40
0.2108978877
 40
0.2414513551
 40
0.2721543675
 40
0.3030134354
 40
0.3340315696
 40
0.3652082675
 40
0.3965395775
 40
0.4280182343
 40
0.4596338596
 40
0.4913732188
 40
0.5232205284
 40
0.5551578047
 40
0.5871652463
 40
0.6192216448
 40
0.6513048151
 40
0.6833920402
 40
0.7154605222
 40
0.747487836
 40
0.7794523759
 40
0.8113337934
 40
0.8431134117
 40
0.8747746318
 40
0.9063032512
 40
0.9376879208
 40
0.9533258
 40
0.9689252634
 40
1.0
 40
1.0
 40
1.0
 40
1.0
 10
10.2000727037
 20
8.4666085211
 30
0.0
 10
10.2037058429
 20
8.4701178427
 30
0.0
 10
10.2093697103
 20
8.4751691758
 30
0.0
 10
10.2173018291
 20
8.4814367802
 30
0.0
 10
10.2254865461
 20
8.487392499
 30
0.0
 10
10.2361662559
 20
8.4942315936
 30
0.0
 10
10.2473652196
 20
8.5002138222
 30
0.0
 10
10.2566014624
 20
8.5044695855
 30
0.0
 10
10.2660284988
 20
8.5083740291
 30
0.0
 10
10.2781229591
 20
8.5125724093
 30
0.0
 10
10.2930275482
 20
8.5164851944
 30
0.0
 10
10.3082573577
 20
8.5192571015
 30
0.0
 10
10.3237279862
 20
8.5208728382
 30
0.0
 10
10.3393544504
 20
8.5213237819
 30
0.0
 10
10.3550507688
 20
8.5206076376
 30
0.0
 10
10.3707306712
 20
8.5187285421
 30
0.0
 10
10.3863080032
 20
8.515697005
 30
0.0
 10
10.4016972123
 20
8.5115298509
 30
0.0
 10
10.4168138063
 20
8.5062501197
 30
0.0
 10
10.431574812
 20
8.4998869368
 30
0.0
 10
10.445899224
 20
8.492475351
 30
0.0
 10
10.4597084427
 20
8.4840561411
 30
0.0
 10
10.4729267002
 20
8.4746755923
 30
0.0
 10
10.4854814708
 20
8.4643852431
 30
0.0
 10
10.4973038638
 20
8.453241605
 30
0.0
 10
10.5083289978
 20
8.441305854
 30
0.0
 10
10.5184963526
 20
8.4286434991
 30
0.0
 10
10.5277500983
 20
8.4153240247
 30
0.0
 10
10.5360393991
 20
8.4014205182
 30
0.0
 10
10.5433186904
 20
8.3870092572
 30
0.0
 10
10.5495479258
 20
8.372169356
 30
0.0
 10
10.5546928089
 20
8.3569821167
 30
0.0
 10
10.5587249178
 20
8.3415314032
 30
0.0
 10
10.5611422568
 20
8.328489326
 30
0.0
 10
10.5624983122
 20
8.3180101751
 30
0.0
 10
10.5634660957
 20
8.3075410519
 30
0.0
 10
10.5637591311
 20
8.2996631072
 30
0.0
 10
10.5637591311
 20
8.2944207659
 30
0.0
  0
SPLINE
  5
35C
100
AcDbEntity
  8
0
100
AcDbSpline
 62
7
  6
CONTINUOUS
 70
0
 71
3
 72
15
 73
11
 74
0
 42
0.0000001
 43
0.0000001
 44
0.0000000001
 40
0.0
 40
0.0
 40
0.0
 40
0.0
 40
0.1233171261
 40
0.2468171865
 40
0.3706749939
 40
0.4950495802
 40
0.6200773232
 40
0.7458671315
 40
0.872492731
 40
1.0
 40
1.0
 40
1.0
 40
1.0
 10
9.6464972207
 20
7.5038434061
 30
0.0
 10
9.6490217544
 20
7.5062818972
 30
0.0
 10
9.654341725
 20
7.5108943229
 30
0.0
 10
9.6630244413
 20
7.5169215131
 30
0.0
 10
9.6723282662
 20
7.5220023544
 30
0.0
 10
9.6821579669
 20
7.5260846249
 30
0.0
 10
9.6924143887
 20
7.5291277954
 30
0.0
 10
9.702994213
 20
7.5311014385
 30
0.0
 10
9.7137894439
 20
7.5319863576
 30
0.0
 10
9.7210357261
 20
7.5318450161
 30
0.0
 10
9.7246562081
 20
7.5315939348
 30
0.0
  0
SPLINE
  5
35D
100
AcDbEntity
  8
0
100
AcDbSpline
 62
7
  6
CONTINUOUS
 70
0
 71
3
 72
15
 73
11
 74
0
 42
0.0000001
 43
0.0000001
 44
0.0000000001
 40
0.0
 40
0.0
 40
0.0
 40
0.0
 40
0.1233171261
 40
0.2468171865
 40
0.3706749939
 40
0.4950495802
 40
0.6200773232
 40
0.7458671315
 40
0.872492731
 40
1.0
 40
1.0
 40
1.0
 40
1.0
 10
11.6990897232
 20
7.3614956325
 30
0.0
 10
11.7016142569
 20
7.3639341236
 30
0.0
 10
11.7069342275
 20
7.3685465494
 30
0.0
 10
11.7156169438
 20
7.3745737396
 30
0.0
 10
11.7249207687
 20
7.3796545808
 30
0.0
 10
11.7347504694
 20
7.3837368514
 30
0.0
 10
11.7450068912
 20
7.3867800219
 30
0.0
 10
11.7555867155
 20
7.3887536649
 30
0.0
 10
11.7663819464
 20
7.3896385841
 30
0.0
 10
11.7736282286
 20
7.3894972426
 30
0.0
 10
11.7772487106
 20
7.3892461613
 30
0.0
  0
SPLINE
  5
35E
100
AcDbEntity
  8
0
100
AcDbSpline
 62
7
  6
CONTINUOUS
 70
0
 71
3
 72
24
 73
20
 74
0
 42
0.0000001
 43
0.0000001
 44
0.0000000001
 40
0.0
 40
0.0
 40
0.0
 40
0.0
 40
0.0620109569
 40
0.1239239661
 40
0.185774548
 40
0.2475996525
 40
0.2785190238
 40
0.3094461919
 40
0.3713336594
 40
0.4333084744
 40
0.4954065735
 40
0.5576618893
 40
0.6201056725
 40
0.6827659109
 40
0.7456666532
 40
0.808827938
 40
0.8722642904
 40
0.9359872582
 40
1.0
 40
1.0
 40
1.0
 40
1.0
 10
10.5629691117
 20
8.9787055361
 30
0.0
 10
10.5652862723
 20
8.9824684813
 30
0.0
 10
10.5701722863
 20
8.9898346447
 30
0.0
 10
10.5782287841
 20
9.0003525506
 30
0.0
 10
10.5869761113
 20
9.0102862138
 30
0.0
 10
10.5948136381
 20
9.0180423045
 30
0.0
 10
10.6013908434
 20
9.0239110634
 30
0.0
 10
10.6081696345
 20
9.029552715
 30
0.0
 10
10.6170096483
 20
9.0361667975
 30
0.0
 10
10.6281516917
 20
9.0433606466
 30
0.0
 10
10.6397863203
 20
9.0497821789
 30
0.0
 10
10.651865409
 20
9.0554020334
 30
0.0
 10
10.6643388798
 20
9.0601945326
 30
0.0
 10
10.6771544245
 20
9.0641374629
 30
0.0
 10
10.6902579165
 20
9.0672124143
 30
0.0
 10
10.7035935214
 20
9.0694048128
 30
0.0
 10
10.7171044417
 20
9.0707042421
 30
0.0
 10
10.730731795
 20
9.0711042944
 30
0.0
 10
10.7398364022
 20
9.0707706874
 30
0.0
 10
10.7443872889
 20
9.0704550823
 30
0.0
  0
SPLINE
  5
35F
100
AcDbEntity
  8
0
100
AcDbSpline
 62
7
  6
CONTINUOUS
 70
0
 71
3
 72
21
 73
17
 74
0
 42
0.0000001
 43
0.0000001
 44
0.0000000001
 40
0.0
 40
0.0
 40
0.0
 40
0.0
 40
0.1266975249
 40
0.2525125142
 40
0.3151571125
 40
0.3776342843
 40
0.4399692859
 40
0.5021902513
 40
0.5643285965
 40
0.6264185914
 40
0.6884960165
 40
0.7505986159
 40
0.812763847
 40
0.8750273874
 40
0.9374328697
 40
1.0
 40
1.0
 40
1.0
 40
1.0
 10
12.1177670401
 20
8.9280959391
 30
0.0
 10
12.1182191904
 20
8.9310574256
 30
0.0
 10
12.1194574882
 20
8.936914124
 30
0.0
 10
12.1218597957
 20
8.9439886479
 30
0.0
 10
12.1242819066
 20
8.9494089128
 30
0.0
 10
12.1263428904
 20
8.9533365833
 30
0.0
 10
12.1286463337
 20
8.9571153919
 30
0.0
 10
12.1311867354
 20
8.9607295133
 30
0.0
 10
12.1339572046
 20
8.9641631072
 30
0.0
 10
12.1369495443
 20
8.9674006608
 30
0.0
 10
12.1401540312
 20
8.9704272469
 30
0.0
 10
12.1435595006
 20
8.9732286629
 30
0.0
 10
12.1471533577
 20
8.9757915451
 30
0.0
 10
12.1509218302
 20
8.9781038498
 30
0.0
 10
12.1548493747
 20
8.9801544014
 30
0.0
 10
12.157559447
 20
8.9813392884
 30
0.0
 10
12.158934492
 20
8.9818851227
 30
0.0
  0
SPLINE
  5
360
100
AcDbEntity
  8
0
100
AcDbSpline
 62
7
  6
CONTINUOUS
 70
0
 71
3
 72
21
 73
17
 74
0
 42
0.0000001
 43
0.0000001
 44
0.0000000001
 40
0.0
 40
0.0
 40
0.0
 40
0.0
 40
0.1273176984
 40
0.2537999461
 40
0.3167619614
 40
0.3795355204
 40
0.4421314992
 40
0.5045621453
 40
0.5668413456
 40
0.6289845231
 40
0.6910084433
 40
0.7529310869
 40
0.8147714401
 40
0.8765493236
 40
0.9382852134
 40
1.0
 40
1.0
 40
1.0
 40
1.0
 10
10.1406835942
 20
8.323761154
 30
0.0
 10
10.1406835942
 20
8.3305059621
 30
0.0
 10
10.1413274312
 20
8.3439600016
 30
0.0
 10
10.1437590224
 20
8.3605920986
 30
0.0
 10
10.1466652895
 20
8.3736385223
 30
0.0
 10
10.1493156534
 20
8.3832615707
 30
0.0
 10
10.1524336481
 20
8.3927136225
 30
0.0
 10
10.1560120849
 20
8.401973157
 30
0.0
 10
10.1600427135
 20
8.4110187584
 30
0.0
 10
10.1645163214
 20
8.41982955
 30
0.0
 10
10.1694225595
 20
8.4283852215
 30
0.0
 10
10.1747501132
 20
8.4366660554
 30
0.0
 10
10.1804867476
 20
8.44465289
 30
0.0
 10
10.1866192688
 20
8.4523273825
 30
0.0
 10
10.1931332623
 20
8.4596716208
 30
0.0
 10
10.197721155
 20
8.4643371134
 30
0.0
 10
10.2000727037
 20
8.4666085211
 30
0.0
  0
SPLINE
  5
361
100
AcDbEntity
  8
0
100
AcDbSpline
 62
7
  6
CONTINUOUS
 70
0
 71
3
 72
39
 73
35
 74
0
 42
0.0000001
 43
0.0000001
 44
0.0000000001
 40
0.0
 40
0.0
 40
0.0
 40
0.0
 40
0.0311445425
 40
0.0624433652
 40
0.093888256
 40
0.1254710218
 40
0.1571788766
 40
0.1889972611
 40
0.2209091725
 40
0.2528958428
 40
0.2849370253
 40
0.3170114183
 40
0.349097079
 40
0.3811718482
 40
0.4132137779
 40
0.4452015551
 40
0.4771149166
 40
0.5089350506
 40
0.5406449764
 40
0.5722298984
 40
0.6036775288
 40
0.634978368
 40
0.6661259371
 40
0.6971169555
 40
0.7279514574
 40
0.758632841
 40
0.7891678449
 40
0.819566448
 40
0.8498416915
 40
0.8800094239
 40
0.9100879689
 40
0.9400977235
 40
0.9700606966
 40
1.0
 40
1.0
 40
1.0
 40
1.0
 10
9.7246562081
 20
9.0654842029
 30
0.0
 10
9.7220027108
 20
9.0656682235
 30
0.0
 10
9.71669407
 20
9.0662314245
 30
0.0
 10
9.7087954951
 20
9.067650048
 30
0.0
 10
9.7009814899
 20
9.0696372259
 30
0.0
 10
9.6932943337
 20
9.0721820987
 30
0.0
 10
9.6857748018
 20
9.0752711465
 30
0.0
 10
9.6784630255
 20
9.078887783
 30
0.0
 10
9.6713979519
 20
9.0830127096
 30
0.0
 10
9.6646172286
 20
9.0876238933
 30
0.0
 10
9.6581569859
 20
9.0926967351
 30
0.0
 10
9.6520516481
 20
9.0982041786
 30
0.0
 10
9.6463337484
 20
9.1041168577
 30
0.0
 10
9.6410337623
 20
9.110403256
 30
0.0
 10
9.6361799455
 20
9.1170298721
 30
0.0
 10
9.6317981857
 20
9.123961396
 30
0.0
 10
9.6279118655
 20
9.1311608954
 30
0.0
 10
9.6245417389
 20
9.1385900096
 30
0.0
 10
9.6217058207
 20
9.1462091509
 30
0.0
 10
9.6194192919
 20
9.1539777128
 30
0.0
 10
9.6176944099
 20
9.1618542819
 30
0.0
 10
9.6165404465
 20
9.1697968581
 30
0.0
 10
9.6159636388
 20
9.1777630763
 30
0.0
 10
9.6159671531
 20
9.1857104286
 30
0.0
 10
9.6165510644
 20
9.1935964888
 30
0.0
 10
9.6177123519
 20
9.2013791368
 30
0.0
 10
9.6194449095
 20
9.2090167818
 30
0.0
 10
9.6217395746
 20
9.2164685853
 30
0.0
 10
9.6245841667
 20
9.2236946781
 30
0.0
 10
9.6279635544
 20
9.2306563927
 30
0.0
 10
9.63185969
 20
9.237316422
 30
0.0
 10
9.6362518909
 20
9.2436392131
 30
0.0
 10
9.6411162465
 20
9.2495904586
 30
0.0
 10
9.6446581235
 20
9.2532905817
 30
0.0
 10
9.6464972207
 20
9.2550669979
 30
0.0
  0
SPLINE
  5
362
100
AcDbEntity
  8
0
100
AcDbSpline
 62
7
  6
CONTINUOUS
 70
0
 71
3
 72
21
 73
17
 74
0
 42
0.0000001
 43
0.0000001
 44
0.0000000001
 40
0.0
 40
0.0
 40
0.0
 40
0.0
 40
0.1273176984
 40
0.2537999461
 40
0.3167619614
 40
0.3795355204
 40
0.4421314992
 40
0.5045621453
 40
0.5668413456
 40
0.6289845231
 40
0.6910084433
 40
0.7529310869
 40
0.8147714401
 40
0.8765493236
 40
0.9382852134
 40
1.0
 40
1.0
 40
1.0
 40
1.0
 10
11.9817383457
 20
6.355028937
 30
0.0
 10
11.9817383457
 20
6.3617737451
 30
0.0
 10
11.9823821827
 20
6.3752277845
 30
0.0
 10
11.9848137739
 20
6.3918598816
 30
0.0
 10
11.987720041
 20
6.4049063053
 30
0.0
 10
11.9903704049
 20
6.4145293537
 30
0.0
 10
11.9934883996
 20
6.4239814055
 30
0.0
 10
11.9970668364
 20
6.43324094
 30
0.0
 10
12.001097465
 20
6.4422865414
 30
0.0
 10
12.0055710729
 20
6.451097333
 30
0.0
 10
12.010477311
 20
6.4596530045
 30
0.0
 10
12.0158048647
 20
6.4679338384
 30
0.0
 10
12.0215414991
 20
6.475920673
 30
0.0
 10
12.0276740203
 20
6.4835951655
 30
0.0
 10
12.0341880138
 20
6.4909394038
 30
0.0
 10
12.0387759065
 20
6.4956048963
 30
0.0
 10
12.0411274552
 20
6.4978763041
 30
0.0
  0
SPLINE
  5
363
100
AcDbEntity
  8
0
100
AcDbSpline
 62
7
  6
CONTINUOUS
 70
0
 71
3
 72
51
 73
47
 74
0
 42
0.0000001
 43
0.0000001
 44
0.0000000001
 40
0.0
 40
0.0
 40
0.0
 40
0.0
 40
0.0417745182
 40
0.0840381526
 40
0.1266602401
 40
0.1695088421
 40
0.2124510407
 40
0.2553535857
 40
0.2980833694
 40
0.3405079697
 40
0.3824961696
 40
0.4239184888
 40
0.4646477158
 40
0.5045594497
 40
0.543532651
 40
0.5814502093
 40
0.6181995334
 40
0.6536731755
 40
0.6877695033
 40
0.7203934427
 40
0.7514573218
 40
0.7663795148
 40
0.7808827261
 40
0.7949585461
 40
0.8085992857
 40
0.8217979826
 40
0.8345485116
 40
0.8468456263
 40
0.8586850779
 40
0.8700637036
 40
0.8809795661
 40
0.8914321058
 40
0.9014223196
 40
0.9109530019
 40
0.9200289921
 40
0.9286575381
 40
0.9368486523
 40
0.9446156358
 40
0.9519755804
 40
0.9589500677
 40
0.9655657995
 40
0.9778459317
 40
0.9836071722
 40
0.9891799125
 40
0.9946230091
 40
1.0
 40
1.0
 40
1.0
 40
1.0
 10
12.9701569588
 20
9.51963594
 30
0.0
 10
12.9701569588
 20
9.510457252
 30
0.0
 10
12.9700137595
 20
9.4919921191
 30
0.0
 10
12.9693807122
 20
9.4641685938
 30
0.0
 10
12.9683299988
 20
9.4361215004
 30
0.0
 10
12.9668650776
 20
9.4079437271
 30
0.0
 10
12.9649907798
 20
9.379728464
 30
0.0
 10
12.9627133059
 20
9.35156907
 30
0.0
 10
12.9600401981
 20
9.3235587038
 30
0.0
 10
12.9569803186
 20
9.2957900323
 30
0.0
 10
12.9535438192
 20
9.2683549157
 30
0.0
 10
12.9497421087
 20
9.2413441034
 30
0.0
 10
12.9455878152
 20
9.2148469302
 30
0.0
 10
12.9410947458
 20
9.1889510173
 30
0.0
 10
12.9362778411
 20
9.1637419775
 30
0.0
 10
12.9311531273
 20
9.1393031282
 30
0.0
 10
12.9257376645
 20
9.1157152019
 30
0.0
 10
12.9200494887
 20
9.093056091
 30
0.0
 10
12.9141075608
 20
9.0714004986
 30
0.0
 10
12.9079316714
 20
9.050819947
 30
0.0
 10
12.9025376038
 20
9.0344091062
 30
0.0
 10
12.8981111222
 20
9.0218767379
 30
0.0
 10
12.894790159
 20
9.0129137113
 30
0.0
 10
12.8914263467
 20
9.004268104
 30
0.0
 10
12.8880224564
 20
8.9959470335
 30
0.0
 10
12.884581304
 20
8.9879573571
 30
0.0
 10
12.8811057431
 20
8.980305647
 30
0.0
 10
12.8775986409
 20
8.9729981922
 30
0.0
 10
12.8740628942
 20
8.9660409873
 30
0.0
 10
12.8705014131
 20
8.9594397287
 30
0.0
 10
12.8669171181
 20
8.9531998098
 30
0.0
 10
12.8633129416
 20
8.9473263105
 30
0.0
 10
12.8596918024
 20
8.9418240021
 30
0.0
 10
12.8560566252
 20
8.9366973278
 30
0.0
 10
12.8524102904
 20
8.9319504255
 30
0.0
 10
12.8487556644
 20
8.9275870924
 30
0.0
 10
12.8450955533
 20
8.9236108528
 30
0.0
 10
12.8414326379
 20
8.9200248539
 30
0.0
 10
12.8377698064
 20
8.9168321841
 30
0.0
 10
12.8341087341
 20
8.9140350713
 30
0.0
 10
12.8293539993
 20
8.9109152099
 30
0.0
 10
12.8244791386
 20
8.9084753208
 30
0.0
 10
12.8195414098
 20
8.906856948
 30
0.0
 10
12.8159312319
 20
8.9060764721
 30
0.0
 10
12.8123413034
 20
8.9057059439
 30
0.0
 10
12.8099578573
 20
8.9057331993
 30
0.0
 10
12.8087792572
 20
8.9058149408
 30
0.0
  0
SPLINE
  5
364
100
AcDbEntity
  8
0
100
AcDbSpline
 62
7
  6
CONTINUOUS
 70
0
 71
3
 72
39
 73
35
 74
0
 42
0.0000001
 43
0.0000001
 44
0.0000000001
 40
0.0
 40
0.0
 40
0.0
 40
0.0
 40
0.0311445425
 40
0.0624433652
 40
0.093888256
 40
0.1254710218
 40
0.1571788766
 40
0.1889972611
 40
0.2209091725
 40
0.2528958428
 40
0.2849370253
 40
0.3170114183
 40
0.349097079
 40
0.3811718482
 40
0.4132137779
 40
0.4452015551
 40
0.4771149166
 40
0.5089350506
 40
0.5406449764
 40
0.5722298984
 40
0.6036775288
 40
0.634978368
 40
0.6661259371
 40
0.6971169555
 40
0.7279514574
 40
0.758632841
 40
0.7891678449
 40
0.819566448
 40
0.8498416915
 40
0.8800094239
 40
0.9100879689
 40
0.9400977235
 40
0.9700606966
 40
1.0
 40
1.0
 40
1.0
 40
1.0
 10
11.7772487106
 20
8.9231364293
 30
0.0
 10
11.7745952133
 20
8.92332045
 30
0.0
 10
11.7692865725
 20
8.9238836509
 30
0.0
 10
11.7613879975
 20
8.9253022745
 30
0.0
 10
11.7535739923
 20
8.9272894523
 30
0.0
 10
11.7458868362
 20
8.9298343252
 30
0.0
 10
11.7383673042
 20
8.9329233729
 30
0.0
 10
11.731055528
 20
8.9365400095
 30
0.0
 10
11.7239904544
 20
8.9406649361
 30
0.0
 10
11.7172097311
 20
8.9452761198
 30
0.0
 10
11.7107494884
 20
8.9503489616
 30
0.0
 10
11.7046441506
 20
8.9558564051
 30
0.0
 10
11.6989262509
 20
8.9617690842
 30
0.0
 10
11.6936262648
 20
8.9680554825
 30
0.0
 10
11.688772448
 20
8.9746820985
 30
0.0
 10
11.6843906882
 20
8.9816136224
 30
0.0
 10
11.680504368
 20
8.9888131219
 30
0.0
 10
11.6771342414
 20
8.9962422361
 30
0.0
 10
11.6742983232
 20
9.0038613774
 30
0.0
 10
11.6720117944
 20
9.0116299392
 30
0.0
 10
11.6702869124
 20
9.0195065083
 30
0.0
 10
11.669132949
 20
9.0274490846
 30
0.0
 10
11.6685561413
 20
9.0354153027
 30
0.0
 10
11.6685596556
 20
9.043362655
 30
0.0
 10
11.6691435669
 20
9.0512487153
 30
0.0
 10
11.6703048544
 20
9.0590313633
 30
0.0
 10
11.672037412
 20
9.0666690082
 30
0.0
 10
11.6743320771
 20
9.0741208118
 30
0.0
 10
11.6771766692
 20
9.0813469046
 30
0.0
 10
11.6805560569
 20
9.0883086192
 30
0.0
 10
11.6844521925
 20
9.0949686485
 30
0.0
 10
11.6888443934
 20
9.1012914396
 30
0.0
 10
11.693708749
 20
9.1072426851
 30
0.0
 10
11.6972506259
 20
9.1109428082
 30
0.0
 10
11.6990897232
 20
9.1127192243
 30
0.0
  0
SPLINE
  5
365
100
AcDbEntity
  8
0
100
AcDbSpline
 62
7
  6
CONTINUOUS
 70
0
 71
3
 72
32
 73
28
 74
0
 42
0.0000001
 43
0.0000001
 44
0.0000000001
 40
0.0
 40
0.0
 40
0.0
 40
0.0
 40
0.0300884375
 40
0.0603093555
 40
0.0906731467
 40
0.1211915984
 40
0.1518690963
 40
0.1827070386
 40
0.2137025514
 40
0.244849343
 40
0.3075199903
 40
0.3706566098
 40
0.402376456
 40
0.4341634276
 40
0.466000009
 40
0.4978686622
 40
0.5616055214
 40
0.6252698234
 40
0.6570492291
 40
0.6887651901
 40
0.7204044344
 40
0.7519546966
 40
0.8147166159
 40
0.8770027895
 40
0.9387607877
 40
0.9694493691
 40
1.0
 40
1.0
 40
1.0
 40
1.0
 10
12.2276177693
 20
8.8298302459
 30
0.0
 10
12.2259805496
 20
8.8291803393
 30
0.0
 10
12.2226441454
 20
8.8280111524
 30
0.0
 10
12.2175039937
 20
8.8266639046
 30
0.0
 10
12.2122479012
 20
8.8257256634
 30
0.0
 10
12.2069081328
 20
8.8251993745
 30
0.0
 10
12.201516095
 20
8.8250846351
 30
0.0
 10
12.1961030961
 20
8.825377724
 30
0.0
 10
12.1906991164
 20
8.8260721891
 30
0.0
 10
12.1835322208
 20
8.8275233126
 30
0.0
 10
12.1747388768
 20
8.8302952153
 30
0.0
 10
12.1663677118
 20
8.8342304723
 30
0.0
 10
12.1599876043
 20
8.8380153102
 30
0.0
 10
12.1553722706
 20
8.8411612519
 30
0.0
 10
12.1509532397
 20
8.8445913967
 30
0.0
 10
12.1453453892
 20
8.8495183971
 30
0.0
 10
12.1389053126
 20
8.8562936983
 30
0.0
 10
12.1333080309
 20
8.8637727266
 30
0.0
 10
12.1293827699
 20
8.8701023604
 30
0.0
 10
12.1267263023
 20
8.8750012687
 30
0.0
 10
12.1243658198
 20
8.8800347085
 30
0.0
 10
12.121630224
 20
8.8868858517
 30
0.0
 10
12.1189887945
 20
8.8956898501
 30
0.0
 10
12.1171259413
 20
8.9064927242
 30
0.0
 10
12.1167069667
 20
8.9155687925
 30
0.0
 10
12.1170763354
 20
8.922764121
 30
0.0
 10
12.1174970974
 20
8.9263278731
 30
0.0
 10
12.1177670401
 20
8.9280959391
 30
0.0
  0
SPLINE
  5
366
100
AcDbEntity
  8
0
100
AcDbSpline
 62
7
  6
CONTINUOUS
 70
0
 71
3
 72
21
 73
17
 74
0
 42
0.0000001
 43
0.0000001
 44
0.0000000001
 40
0.0
 40
0.0
 40
0.0
 40
0.0
 40
0.1273176984
 40
0.2537999461
 40
0.3167619614
 40
0.3795355204
 40
0.4421314992
 40
0.5045621453
 40
0.5668413456
 40
0.6289845231
 40
0.6910084433
 40
0.7529310869
 40
0.8147714401
 40
0.8765493236
 40
0.9382852134
 40
1.0
 40
1.0
 40
1.0
 40
1.0
 10
8.9641858443
 20
6.5642969138
 30
0.0
 10
8.9641858443
 20
6.5710417219
 30
0.0
 10
8.9648296813
 20
6.5844957613
 30
0.0
 10
8.9672612726
 20
6.6011278583
 30
0.0
 10
8.9701675397
 20
6.614174282
 30
0.0
 10
8.9728179036
 20
6.6237973305
 30
0.0
 10
8.9759358983
 20
6.6332493822
 30
0.0
 10
8.979514335
 20
6.6425089167
 30
0.0
 10
8.9835449637
 20
6.6515545181
 30
0.0
 10
8.9880185716
 20
6.6603653097
 30
0.0
 10
8.9929248097
 20
6.6689209812
 30
0.0
 10
8.9982523633
 20
6.6772018151
 30
0.0
 10
9.0039889977
 20
6.6851886497
 30
0.0
 10
9.010121519
 20
6.6928631422
 30
0.0
 10
9.0166355124
 20
6.7002073805
 30
0.0
 10
9.0212234052
 20
6.7048728731
 30
0.0
 10
9.0235749539
 20
6.7071442808
 30
0.0
  0
SPLINE
  5
367
100
AcDbEntity
  8
0
100
AcDbSpline
 62
7
  6
CONTINUOUS
 70
0
 71
3
 72
39
 73
35
 74
0
 42
0.0000001
 43
0.0000001
 44
0.0000000001
 40
0.0
 40
0.0
 40
0.0
 40
0.0
 40
0.0311445425
 40
0.0624433652
 40
0.093888256
 40
0.1254710218
 40
0.1571788766
 40
0.1889972611
 40
0.2209091725
 40
0.2528958428
 40
0.2849370253
 40
0.3170114183
 40
0.349097079
 40
0.3811718482
 40
0.4132137779
 40
0.4452015551
 40
0.4771149166
 40
0.5089350506
 40
0.5406449764
 40
0.5722298984
 40
0.6036775288
 40
0.634978368
 40
0.6661259371
 40
0.6971169555
 40
0.7279514574
 40
0.758632841
 40
0.7891678449
 40
0.819566448
 40
0.8498416915
 40
0.8800094239
 40
0.9100879689
 40
0.9400977235
 40
0.9700606966
 40
1.0
 40
1.0
 40
1.0
 40
1.0
 10
9.7246562081
 20
7.314260611
 30
0.0
 10
9.7220027108
 20
7.3144446317
 30
0.0
 10
9.71669407
 20
7.3150078327
 30
0.0
 10
9.7087954951
 20
7.3164264562
 30
0.0
 10
9.7009814899
 20
7.318413634
 30
0.0
 10
9.6932943337
 20
7.3209585069
 30
0.0
 10
9.6857748018
 20
7.3240475546
 30
0.0
 10
9.6784630255
 20
7.3276641912
 30
0.0
 10
9.6713979519
 20
7.3317891178
 30
0.0
 10
9.6646172286
 20
7.3364003015
 30
0.0
 10
9.6581569859
 20
7.3414731433
 30
0.0
 10
9.6520516481
 20
7.3469805868
 30
0.0
 10
9.6463337484
 20
7.3528932659
 30
0.0
 10
9.6410337623
 20
7.3591796642
 30
0.0
 10
9.6361799455
 20
7.3658062802
 30
0.0
 10
9.6317981857
 20
7.3727378041
 30
0.0
 10
9.6279118655
 20
7.3799373036
 30
0.0
 10
9.6245417389
 20
7.3873664178
 30
0.0
 10
9.6217058207
 20
7.3949855591
 30
0.0
 10
9.6194192919
 20
7.4027541209
 30
0.0
 10
9.6176944099
 20
7.41063069
 30
0.0
 10
9.6165404465
 20
7.4185732663
 30
0.0
 10
9.6159636388
 20
7.4265394844
 30
0.0
 10
9.6159671531
 20
7.4344868368
 30
0.0
 10
9.6165510644
 20
7.442372897
 30
0.0
 10
9.6177123519
 20
7.450155545
 30
0.0
 10
9.6194449095
 20
7.4577931899
 30
0.0
 10
9.6217395746
 20
7.4652449935
 30
0.0
 10
9.6245841667
 20
7.4724710863
 30
0.0
 10
9.6279635544
 20
7.4794328009
 30
0.0
 10
9.63185969
 20
7.4860928302
 30
0.0
 10
9.6362518909
 20
7.4924156213
 30
0.0
 10
9.6411162465
 20
7.4983668668
 30
0.0
 10
9.6446581235
 20
7.5020669899
 30
0.0
 10
9.6464972207
 20
7.5038434061
 30
0.0
  0
SPLINE
  5
368
100
AcDbEntity
  8
0
100
AcDbSpline
 62
7
  6
CONTINUOUS
 70
0
 71
3
 72
39
 73
35
 74
0
 42
0.0000001
 43
0.0000001
 44
0.0000000001
 40
0.0
 40
0.0
 40
0.0
 40
0.0
 40
0.0314026163
 40
0.0630094802
 40
0.0948071156
 40
0.1267734443
 40
0.1588809719
 40
0.1910970226
 40
0.2233851133
 40
0.2557062446
 40
0.2880202668
 40
0.3202872758
 40
0.3524690062
 40
0.3845301827
 40
0.4164397934
 40
0.4481722512
 40
0.4797084083
 40
0.5110363787
 40
0.5421521198
 40
0.5730597435
 40
0.6037715204
 40
0.6343075558
 40
0.6646951112
 40
0.69496759
 40
0.7251632189
 40
0.7553234785
 40
0.7854913552
 40
0.8157095102
 40
0.8460184684
 40
0.8764549241
 40
0.9070502294
 40
0.9378293436
 40
0.9688091107
 40
1.0
 40
1.0
 40
1.0
 40
1.0
 10
9.7185739656
 20
9.2996417894
 30
0.0
 10
9.7228857016
 20
9.2993427695
 30
0.0
 10
9.731513476
 20
9.2983178739
 30
0.0
 10
9.7442812669
 20
9.2955342491
 30
0.0
 10
9.7568015759
 20
9.2915261646
 30
0.0
 10
9.7689526126
 20
9.2863324588
 30
0.0
 10
9.7806181651
 20
9.2800033196
 30
0.0
 10
9.7916862028
 20
9.2725997148
 30
0.0
 10
9.802050595
 20
9.2641928862
 30
0.0
 10
9.8116118981
 20
9.254863611
 30
0.0
 10
9.8202783456
 20
9.2447014545
 30
0.0
 10
9.8279666877
 20
9.2338039224
 30
0.0
 10
9.8346030304
 20
9.2222755775
 30
0.0
 10
9.8401235017
 20
9.2102270232
 30
0.0
 10
9.8444748499
 20
9.1977738649
 30
0.0
 10
9.8476149503
 20
9.1850356308
 30
0.0
 10
9.8495132375
 20
9.1721346622
 30
0.0
 10
9.8501510478
 20
9.1591949644
 30
0.0
 10
9.8495217698
 20
9.1463410305
 30
0.0
 10
9.8476309541
 20
9.1336966717
 30
0.0
 10
9.8444962935
 20
9.1213838433
 30
0.0
 10
9.8401475604
 20
9.109521454
 30
0.0
 10
9.8346263372
 20
9.0982241953
 30
0.0
 10
9.8279856366
 20
9.0876014091
 30
0.0
 10
9.8202894235
 20
9.0777559832
 30
0.0
 10
9.8116120144
 20
9.0687832958
 30
0.0
 10
9.8020373763
 20
9.0607701947
 30
0.0
 10
9.7916582218
 20
9.0537941492
 30
0.0
 10
9.7805750823
 20
9.0479224673
 30
0.0
 10
9.7688952272
 20
9.0432116631
 30
0.0
 10
9.7567317586
 20
9.0397068368
 30
0.0
 10
9.7442018555
 20
9.0374414399
 30
0.0
 10
9.7314279633
 20
9.0364365898
 30
0.0
 10
9.7228566305
 20
9.0366129453
 30
0.0
 10
9.7185739656
 20
9.0369099491
 30
0.0
  0
SPLINE
  5
369
100
AcDbEntity
  8
0
100
AcDbSpline
 62
7
  6
CONTINUOUS
 70
0
 71
3
 72
48
 73
44
 74
0
 42
0.0000001
 43
0.0000001
 44
0.0000000001
 40
0.0
 40
0.0
 40
0.0
 40
0.0
 40
0.0958286576
 40
0.1428188272
 40
0.1890970196
 40
0.2345922983
 40
0.2792360825
 40
0.3229616488
 40
0.3657042172
 40
0.4074012778
 40
0.4479927829
 40
0.4874213572
 40
0.5256325123
 40
0.5625749103
 40
0.598200717
 40
0.6324659207
 40
0.6653306956
 40
0.696759874
 40
0.7267235748
 40
0.7551978881
 40
0.7821657087
 40
0.8076178456
 40
0.8197759461
 40
0.8315561047
 40
0.8429601471
 40
0.8539906576
 40
0.8646512757
 40
0.874946597
 40
0.8848823707
 40
0.8944657071
 40
0.9037050399
 40
0.9126104751
 40
0.9211938751
 40
0.9294689913
 40
0.9374518164
 40
0.9451605991
 40
0.9598347983
 40
0.9668566638
 40
0.9737035496
 40
0.9804068013
 40
0.9870000417
 40
0.9935188169
 40
1.0
 40
1.0
 40
1.0
 40
1.0
 10
11.6242762873
 20
10.9013378623
 30
0.0
 10
11.6417140597
 20
10.9001285487
 30
0.0
 10
11.6676839371
 20
10.8980366535
 30
0.0
 10
11.7020105907
 20
10.8946543198
 30
0.0
 10
11.7271684245
 20
10.8918656863
 30
0.0
 10
11.7518644171
 20
10.8888134241
 30
0.0
 10
11.7760572696
 20
10.8855026532
 30
0.0
 10
11.7997065428
 20
10.8819389499
 30
0.0
 10
11.8227727215
 20
10.8781282971
 30
0.0
 10
11.8452172567
 20
10.8740770934
 30
0.0
 10
11.8670026628
 20
10.8697921562
 30
0.0
 10
11.8880925695
 20
10.8652806957
 30
0.0
 10
11.9084517772
 20
10.8605502991
 30
0.0
 10
11.9280463234
 20
10.8556089109
 30
0.0
 10
11.9468435549
 20
10.8504648461
 30
0.0
 10
11.9648121863
 20
10.8451267584
 30
0.0
 10
11.9819223432
 20
10.8396036158
 30
0.0
 10
11.9981456334
 20
10.8339046727
 30
0.0
 10
12.0134551875
 20
10.8280394787
 30
0.0
 10
12.0278258346
 20
10.8220178142
 30
0.0
 10
12.0412337332
 20
10.8158497198
 30
0.0
 10
12.0517413356
 20
10.8105176864
 30
0.0
 10
12.0596369267
 20
10.8061777465
 30
0.0
 10
12.0652135899
 20
10.8029423399
 30
0.0
 10
12.0705336082
 20
10.799678117
 30
0.0
 10
12.0755947634
 20
10.7963863287
 30
0.0
 10
12.0803949923
 20
10.7930683805
 30
0.0
 10
12.0849323087
 20
10.7897255994
 30
0.0
 10
12.0892048231
 20
10.7863593089
 30
0.0
 10
12.0932108115
 20
10.7829709106
 30
0.0
 10
12.0969485801
 20
10.7795616903
 30
0.0
 10
12.1004165858
 20
10.7761330169
 30
0.0
 10
12.1036134125
 20
10.772686212
 30
0.0
 10
12.1065375833
 20
10.7692226459
 30
0.0
 10
12.1091880796
 20
10.7657433321
 30
0.0
 10
12.1123036033
 20
10.7611616689
 30
0.0
 10
12.1149394923
 20
10.7564717389
 30
0.0
 10
12.1170278693
 20
10.7516989044
 30
0.0
 10
12.1182923679
 20
10.7481624895
 30
0.0
 10
12.1192768276
 20
10.7446191447
 30
0.0
 10
12.119980541
 20
10.7410702607
 30
0.0
 10
12.1204030442
 20
10.7375179369
 30
0.0
 10
12.1204970694
 20
10.7351456177
 30
0.0
 10
12.120497075
 20
10.7339634155
 30
0.0
  0
SPLINE
  5
36A
100
AcDbEntity
  8
0
100
AcDbSpline
 62
7
  6
CONTINUOUS
 70
0
 71
3
 72
39
 73
35
 74
0
 42
0.0000001
 43
0.0000001
 44
0.0000000001
 40
0.0
 40
0.0
 40
0.0
 40
0.0
 40
0.031002295
 40
0.0621464502
 40
0.0934266169
 40
0.1248355279
 40
0.1563630531
 40
0.1879973029
 40
0.2197245285
 40
0.2515295336
 40
0.2833959288
 40
0.3153064515
 40
0.3472432698
 40
0.379188288
 40
0.4111234427
 40
0.4430309871
 40
0.4748937608
 40
0.5066954427
 40
0.5384207866
 40
0.5700558361
 40
0.6015881204
 40
0.6330068295
 40
0.6643029699
 40
0.6954694977
 40
0.7265014315
 40
0.757395941
 40
0.788152412
 40
0.8187724842
 40
0.8492600612
 40
0.8796212891
 40
0.9098645012
 40
0.9400001267
 40
0.9700405618
 40
1.0
 40
1.0
 40
1.0
 40
1.0
 10
10.7443872274
 20
8.6408529253
 30
0.0
 10
10.7396821952
 20
8.6411792204
 30
0.0
 10
10.7302696852
 20
8.6421517551
 30
0.0
 10
10.7162510315
 20
8.6445526128
 30
0.0
 10
10.7023606407
 20
8.6478875488
 30
0.0
 10
10.6886624661
 20
8.6521401952
 30
0.0
 10
10.6752181293
 20
8.6572899606
 30
0.0
 10
10.6620880443
 20
8.6633118736
 30
0.0
 10
10.6493306637
 20
8.6701769642
 30
0.0
 10
10.6370022959
 20
8.6778524187
 30
0.0
 10
10.6251568088
 20
8.6863018732
 30
0.0
 10
10.6138454021
 20
8.6954856715
 30
0.0
 10
10.6031164075
 20
8.7053611532
 30
0.0
 10
10.5930151217
 20
8.7158829374
 30
0.0
 10
10.5835836733
 20
8.7270032084
 30
0.0
 10
10.574860918
 20
8.7386719944
 30
0.0
 10
10.5668823607
 20
8.7508374379
 30
0.0
 10
10.5596801014
 20
8.7634460539
 30
0.0
 10
10.5532827973
 20
8.7764429733
 30
0.0
 10
10.5477156466
 20
8.7897721747
 30
0.0
 10
10.5430003808
 20
8.8033766986
 30
0.0
 10
10.5391552664
 20
8.8171988482
 30
0.0
 10
10.5361951112
 20
8.8311803756
 30
0.0
 10
10.5341312729
 20
8.8452626574
 30
0.0
 10
10.5329716674
 20
8.8593868595
 30
0.0
 10
10.5327207749
 20
8.8734940956
 30
0.0
 10
10.5333796422
 20
8.8875255805
 30
0.0
 10
10.5349458817
 20
8.9014227833
 30
0.0
 10
10.5374136612
 20
8.915127575
 30
0.0
 10
10.5407737048
 20
8.9285824092
 30
0.0
 10
10.5450132269
 20
8.9417304012
 30
0.0
 10
10.5501161181
 20
8.9545158226
 30
0.0
 10
10.5560621927
 20
8.9668830935
 30
0.0
 10
10.5605793174
 20
8.9748246377
 30
0.0
 10
10.5629691117
 20
8.9787055361
 30
0.0
  0
SPLINE
  5
36B
100
AcDbEntity
  8
0
100
AcDbSpline
 62
7
  6
CONTINUOUS
 70
0
 71
3
 72
39
 73
35
 74
0
 42
0.0000001
 43
0.0000001
 44
0.0000000001
 40
0.0
 40
0.0
 40
0.0
 40
0.0
 40
0.0311445425
 40
0.0624433652
 40
0.093888256
 40
0.1254710218
 40
0.1571788766
 40
0.1889972611
 40
0.2209091725
 40
0.2528958428
 40
0.2849370253
 40
0.3170114183
 40
0.349097079
 40
0.3811718482
 40
0.4132137779
 40
0.4452015551
 40
0.4771149166
 40
0.5089350506
 40
0.5406449764
 40
0.5722298984
 40
0.6036775288
 40
0.634978368
 40
0.6661259371
 40
0.6971169555
 40
0.7279514574
 40
0.758632841
 40
0.7891678449
 40
0.819566448
 40
0.8498416915
 40
0.8800094239
 40
0.9100879689
 40
0.9400977235
 40
0.9700606966
 40
1.0
 40
1.0
 40
1.0
 40
1.0
 10
11.7772487106
 20
7.1719128375
 30
0.0
 10
11.7745952133
 20
7.1720968582
 30
0.0
 10
11.7692865725
 20
7.1726600591
 30
0.0
 10
11.7613879975
 20
7.1740786827
 30
0.0
 10
11.7535739923
 20
7.1760658605
 30
0.0
 10
11.7458868362
 20
7.1786107334
 30
0.0
 10
11.7383673042
 20
7.1816997811
 30
0.0
 10
11.731055528
 20
7.1853164177
 30
0.0
 10
11.7239904544
 20
7.1894413443
 30
0.0
 10
11.7172097311
 20
7.194052528
 30
0.0
 10
11.7107494884
 20
7.1991253698
 30
0.0
 10
11.7046441506
 20
7.2046328133
 30
0.0
 10
11.6989262509
 20
7.2105454924
 30
0.0
 10
11.6936262648
 20
7.2168318907
 30
0.0
 10
11.688772448
 20
7.2234585067
 30
0.0
 10
11.6843906882
 20
7.2303900306
 30
0.0
 10
11.680504368
 20
7.2375895301
 30
0.0
 10
11.6771342414
 20
7.2450186443
 30
0.0
 10
11.6742983232
 20
7.2526377855
 30
0.0
 10
11.6720117944
 20
7.2604063474
 30
0.0
 10
11.6702869124
 20
7.2682829165
 30
0.0
 10
11.669132949
 20
7.2762254928
 30
0.0
 10
11.6685561413
 20
7.2841917109
 30
0.0
 10
11.6685596556
 20
7.2921390632
 30
0.0
 10
11.6691435669
 20
7.3000251235
 30
0.0
 10
11.6703048544
 20
7.3078077715
 30
0.0
 10
11.672037412
 20
7.3154454164
 30
0.0
 10
11.6743320771
 20
7.32289722
 30
0.0
 10
11.6771766692
 20
7.3301233128
 30
0.0
 10
11.6805560569
 20
7.3370850274
 30
0.0
 10
11.6844521925
 20
7.3437450567
 30
0.0
 10
11.6888443934
 20
7.3500678478
 30
0.0
 10
11.693708749
 20
7.3560190933
 30
0.0
 10
11.6972506259
 20
7.3597192164
 30
0.0
 10
11.6990897232
 20
7.3614956325
 30
0.0
  0
SPLINE
  5
36C
100
AcDbEntity
  8
0
100
AcDbSpline
 62
7
  6
CONTINUOUS
 70
0
 71
3
 72
21
 73
17
 74
0
 42
0.0000001
 43
0.0000001
 44
0.0000000001
 40
0.0
 40
0.0
 40
0.0
 40
0.0
 40
0.1273176984
 40
0.2537999461
 40
0.3167619614
 40
0.3795355204
 40
0.4421314992
 40
0.5045621453
 40
0.5668413456
 40
0.6289845231
 40
0.6910084433
 40
0.7529310869
 40
0.8147714401
 40
0.8765493236
 40
0.9382852134
 40
1.0
 40
1.0
 40
1.0
 40
1.0
 10
9.6277769325
 20
7.9362556196
 30
0.0
 10
9.6277769325
 20
7.9430004277
 30
0.0
 10
9.6284207695
 20
7.9564544671
 30
0.0
 10
9.6308523608
 20
7.9730865641
 30
0.0
 10
9.6337586279
 20
7.9861329878
 30
0.0
 10
9.6364089918
 20
7.9957560363
 30
0.0
 10
9.6395269865
 20
8.005208088
 30
0.0
 10
9.6431054232
 20
8.0144676225
 30
0.0
 10
9.6471360519
 20
8.0235132239
 30
0.0
 10
9.6516096598
 20
8.0323240155
 30
0.0
 10
9.6565158979
 20
8.040879687
 30
0.0
 10
9.6618434515
 20
8.0491605209
 30
0.0
 10
9.6675800859
 20
8.0571473555
 30
0.0
 10
9.6737126072
 20
8.064821848
 30
0.0
 10
9.6802266006
 20
8.0721660863
 30
0.0
 10
9.6848144934
 20
8.0768315789
 30
0.0
 10
9.6871660421
 20
8.0791029867
 30
0.0
  0
SPLINE
  5
36D
100
AcDbEntity
  8
0
100
AcDbSpline
 62
7
  6
CONTINUOUS
 70
0
 71
3
 72
53
 73
49
 74
0
 42
0.0000001
 43
0.0000001
 44
0.0000000001
 40
0.0
 40
0.0
 40
0.0
 40
0.0
 40
0.0417740478
 40
0.0840369835
 40
0.1266585592
 40
0.1695065657
 40
0.2124481957
 40
0.2553501644
 40
0.2980793779
 40
0.3405034127
 40
0.3824910553
 40
0.4239128269
 40
0.4646415185
 40
0.5045527309
 40
0.5435254266
 40
0.5814424966
 40
0.6181913512
 40
0.6536645436
 40
0.6877604426
 40
0.7203839756
 40
0.7361162401
 40
0.7514482063
 40
0.7663702194
 40
0.7808732533
 40
0.7949489098
 40
0.808589482
 40
0.8217880323
 40
0.8345384043
 40
0.8468353889
 40
0.8586746951
 40
0.8700532057
 40
0.8809689358
 40
0.8914213732
 40
0.9014114696
 40
0.9109420597
 40
0.9200179488
 40
0.9286464106
 40
0.9368374402
 40
0.9446043453
 40
0.9519642202
 40
0.9589386335
 40
0.9655543067
 40
0.9718438059
 40
0.9778461959
 40
0.9836073668
 40
0.9891800504
 40
0.9946230772
 40
1.0
 40
1.0
 40
1.0
 40
1.0
 10
13.193905848
 20
8.6490940494
 30
0.0
 10
13.193905848
 20
8.6366039325
 30
0.0
 10
13.1937109893
 20
8.6114771326
 30
0.0
 10
13.1928495511
 20
8.5736156884
 30
0.0
 10
13.1914197783
 20
8.5354500521
 30
0.0
 10
13.1894263542
 20
8.497106549
 30
0.0
 10
13.1868758687
 20
8.4587120487
 30
0.0
 10
13.1837767511
 20
8.4203935665
 30
0.0
 10
13.1801392682
 20
8.382277878
 30
0.0
 10
13.1759754781
 20
8.3444910783
 30
0.0
 10
13.1712991955
 20
8.3071581687
 30
0.0
 10
13.1661259448
 20
8.2704026376
 30
0.0
 10
13.16047291
 20
8.2343460489
 30
0.0
 10
13.1543588792
 20
8.1991076344
 30
0.0
 10
13.1478041829
 20
8.1648038949
 30
0.0
 10
13.1408306296
 20
8.1315482007
 30
0.0
 10
13.1334614315
 20
8.0994504302
 30
0.0
 10
13.1257211403
 20
8.0686165062
 30
0.0
 10
13.1176355253
 20
8.0391483341
 30
0.0
 10
13.110549263
 20
8.0155333712
 30
0.0
 10
13.1047162385
 20
7.9974060927
 30
0.0
 10
13.1003250234
 20
7.9843761384
 30
0.0
 10
13.0958680518
 20
7.971757642
 30
0.0
 10
13.0913490045
 20
7.9595610047
 30
0.0
 10
13.0867716295
 20
7.9477962919
 30
0.0
 10
13.0821397108
 20
7.9364732025
 30
0.0
 10
13.0774571042
 20
7.9256010593
 30
0.0
 10
13.0727276515
 20
7.9151888154
 30
0.0
 10
13.0679553068
 20
7.9052450155
 30
0.0
 10
13.0631439508
 20
7.895777834
 30
0.0
 10
13.0582976116
 20
7.8867950015
 30
0.0
 10
13.0534201903
 20
7.8783038819
 30
0.0
 10
13.0485157523
 20
7.8703113597
 30
0.0
 10
13.0435881958
 20
7.8628239577
 30
0.0
 10
13.0386415691
 20
7.8558476918
 30
0.0
 10
13.0336797309
 20
7.8493882207
 30
0.0
 10
13.0287066361
 20
7.8434506906
 30
0.0
 10
13.023726043
 20
7.8380398997
 30
0.0
 10
13.0187417155
 20
7.8331601772
 30
0.0
 10
13.0137572324
 20
7.8288155359
 30
0.0
 10
13.0087760847
 20
7.8250096545
 30
0.0
 10
13.0038016486
 20
7.821745979
 30
0.0
 10
12.9988372355
 20
7.8190278715
 30
0.0
 10
12.9938862789
 20
7.8168585565
 30
0.0
 10
12.9889525427
 20
7.8152413731
 30
0.0
 10
12.9840401452
 20
7.8141793266
 30
0.0
 10
12.9791550089
 20
7.8136751281
 30
0.0
 10
12.9759116956
 20
7.8137121352
 30
0.0
 10
12.9743078894
 20
7.8138233599
 30
0.0
  0
SPLINE
  5
36E
100
AcDbEntity
  8
0
100
AcDbSpline
 62
7
  6
CONTINUOUS
 70
0
 71
3
 72
39
 73
35
 74
0
 42
0.0000001
 43
0.0000001
 44
0.0000000001
 40
0.0
 40
0.0
 40
0.0
 40
0.0
 40
0.0314026163
 40
0.0630094802
 40
0.0948071156
 40
0.1267734443
 40
0.1588809719
 40
0.1910970226
 40
0.2233851133
 40
0.2557062446
 40
0.2880202668
 40
0.3202872758
 40
0.3524690062
 40
0.3845301827
 40
0.4164397934
 40
0.4481722512
 40
0.4797084083
 40
0.5110363787
 40
0.5421521198
 40
0.5730597435
 40
0.6037715204
 40
0.6343075558
 40
0.6646951112
 40
0.69496759
 40
0.7251632189
 40
0.7553234785
 40
0.7854913552
 40
0.8157095102
 40
0.8460184684
 40
0.8764549241
 40
0.9070502294
 40
0.9378293436
 40
0.9688091107
 40
1.0
 40
1.0
 40
1.0
 40
1.0
 10
9.7185739656
 20
9.0369099491
 30
0.0
 10
9.7142622295
 20
9.037208969
 30
0.0
 10
9.7056344552
 20
9.0382338646
 30
0.0
 10
9.6928666642
 20
9.0410174894
 30
0.0
 10
9.6803463552
 20
9.045025574
 30
0.0
 10
9.6681953186
 20
9.0502192797
 30
0.0
 10
9.6565297661
 20
9.056548419
 30
0.0
 10
9.6454617283
 20
9.0639520237
 30
0.0
 10
9.6350973361
 20
9.0723588523
 30
0.0
 10
9.625536033
 20
9.0816881275
 30
0.0
 10
9.6168695855
 20
9.091850284
 30
0.0
 10
9.6091812434
 20
9.1027478162
 30
0.0
 10
9.6025449007
 20
9.114276161
 30
0.0
 10
9.5970244294
 20
9.1263247153
 30
0.0
 10
9.5926730812
 20
9.1387778736
 30
0.0
 10
9.5895329808
 20
9.1515161077
 30
0.0
 10
9.5876346937
 20
9.1644170763
 30
0.0
 10
9.5869968833
 20
9.1773567741
 30
0.0
 10
9.5876261613
 20
9.190210708
 30
0.0
 10
9.589516977
 20
9.2028550668
 30
0.0
 10
9.5926516376
 20
9.2151678952
 30
0.0
 10
9.5970003707
 20
9.2270302845
 30
0.0
 10
9.602521594
 20
9.2383275432
 30
0.0
 10
9.6091622945
 20
9.2489503294
 30
0.0
 10
9.6168585076
 20
9.2587957553
 30
0.0
 10
9.6255359167
 20
9.2677684427
 30
0.0
 10
9.6351105549
 20
9.2757815438
 30
0.0
 10
9.6454897093
 20
9.2827575893
 30
0.0
 10
9.6565728489
 20
9.2886292712
 30
0.0
 10
9.668252704
 20
9.2933400754
 30
0.0
 10
9.6804161725
 20
9.2968449017
 30
0.0
 10
9.6929460756
 20
9.2991102986
 30
0.0
 10
9.7057199678
 20
9.3001151487
 30
0.0
 10
9.7142913007
 20
9.2999387932
 30
0.0
 10
9.7185739656
 20
9.2996417894
 30
0.0
  0
SPLINE
  5
36F
100
AcDbEntity
  8
0
100
AcDbSpline
 62
7
  6
CONTINUOUS
 70
0
 71
3
 72
11
 73
7
 74
0
 42
0.0000001
 43
0.0000001
 44
0.0000000001
 40
0.0
 40
0.0
 40
0.0
 40
0.0
 40
0.2496564127
 40
0.4995375144
 40
0.7496490786
 40
1.0
 40
1.0
 40
1.0
 40
1.0
 10
10.4766444006
 20
8.3516777995
 30
0.0
 10
10.4790234194
 20
8.359087234
 30
0.0
 10
10.4839653584
 20
8.3738551959
 30
0.0
 10
10.4919525335
 20
8.3958178087
 30
0.0
 10
10.500549481
 20
8.4175725728
 30
0.0
 10
10.5067092489
 20
8.4319079274
 30
0.0
 10
10.5099032869
 20
8.4390279678
 30
0.0
  0
SPLINE
  5
370
100
AcDbEntity
  8
0
100
AcDbSpline
 62
7
  6
CONTINUOUS
 70
0
 71
3
 72
21
 73
17
 74
0
 42
0.0000001
 43
0.0000001
 44
0.0000000001
 40
0.0
 40
0.0
 40
0.0
 40
0.0
 40
0.0614238882
 40
0.1230812619
 40
0.1849595269
 40
0.2470445984
 40
0.3093192695
 40
0.3717639573
 40
0.434356896
 40
0.4970744278
 40
0.6227334299
 40
0.7485738815
 40
0.811516122
 40
0.8744187272
 40
0.9372569898
 40
1.0
 40
1.0
 40
1.0
 40
1.0
 10
10.3699391011
 20
8.5185528013
 30
0.0
 10
10.3704323794
 20
8.5143914445
 30
0.0
 10
10.3716630047
 20
8.5060796298
 30
0.0
 10
10.3742259682
 20
8.4937175739
 30
0.0
 10
10.3775009919
 20
8.4814777334
 30
0.0
 10
10.3814765678
 20
8.4694030345
 30
0.0
 10
10.3861389815
 20
8.45753504
 30
0.0
 10
10.3914719796
 20
8.4459149154
 30
0.0
 10
10.397457366
 20
8.4345824504
 30
0.0
 10
10.4062833964
 20
8.41990231
 30
0.0
 10
10.4188381069
 20
8.402469741
 30
0.0
 10
10.4332392944
 20
8.386508325
 30
0.0
 10
10.4457559175
 20
8.3747435478
 30
0.0
 10
10.455610482
 20
8.3664511625
 30
0.0
 10
10.4658948259
 20
8.3587220484
 30
0.0
 10
10.4730214189
 20
8.3539573944
 30
0.0
 10
10.4766444006
 20
8.3516777995
 30
0.0
  0
SPLINE
  5
371
100
AcDbEntity
  8
0
100
AcDbSpline
 62
7
  6
CONTINUOUS
 70
0
 71
3
 72
21
 73
17
 74
0
 42
0.0000001
 43
0.0000001
 44
0.0000000001
 40
0.0
 40
0.0
 40
0.0
 40
0.0
 40
0.0503433409
 40
0.1015136773
 40
0.1537393957
 40
0.2072391956
 40
0.2622172538
 40
0.3188531539
 40
0.3773041037
 40
0.437701479
 40
0.5001537297
 40
0.5647487524
 40
0.6315531397
 40
0.7006188271
 40
0.8456576248
 40
1.0
 40
1.0
 40
1.0
 40
1.0
 10
10.4336181568
 20
8.339019346
 30
0.0
 10
10.4341713928
 20
8.339553731
 30
0.0
 10
10.4353286256
 20
8.3405889769
 30
0.0
 10
10.4371912783
 20
8.3420232382
 30
0.0
 10
10.4391908481
 20
8.3433489011
 30
0.0
 10
10.441325186
 20
8.3445661653
 30
0.0
 10
10.4435920902
 20
8.3456766099
 30
0.0
 10
10.4459897043
 20
8.3466816292
 30
0.0
 10
10.4485157109
 20
8.3475840103
 30
0.0
 10
10.4511679962
 20
8.3483865833
 30
0.0
 10
10.453944426
 20
8.3490925239
 30
0.0
 10
10.4568427391
 20
8.3497059587
 30
0.0
 10
10.4598608993
 20
8.3502308019
 30
0.0
 10
10.464111693
 20
8.3508280827
 30
0.0
 10
10.46971812
 20
8.3513657323
 30
0.0
 10
10.4742876207
 20
8.3515975036
 30
0.0
 10
10.4766444006
 20
8.3516777995
 30
0.0
  0
SPLINE
  5
372
100
AcDbEntity
  8
0
100
AcDbSpline
 62
7
  6
CONTINUOUS
 70
0
 71
3
 72
47
 73
43
 74
0
 42
0.0000001
 43
0.0000001
 44
0.0000000001
 40
0.0
 40
0.0
 40
0.0
 40
0.0
 40
0.0315534235
 40
0.0629016276
 40
0.0940485352
 40
0.1250045356
 40
0.1557874792
 40
0.1711253984
 40
0.1864291041
 40
0.2017022121
 40
0.2169483662
 40
0.2321714119
 40
0.247375235
 40
0.2625636836
 40
0.2777407137
 40
0.2929100741
 40
0.3080755908
 40
0.338402671
 40
0.3687566435
 40
0.3839548124
 40
0.399168821
 40
0.4296492835
 40
0.4602237533
 40
0.4909089047
 40
0.5217185731
 40
0.55266383
 40
0.5837530629
 40
0.6149920435
 40
0.6463839688
 40
0.6779294698
 40
0.7096265801
 40
0.7255331178
 40
0.7414756026
 40
0.7734592657
 40
0.8055722065
 40
0.8216757474
 40
0.8378063616
 40
0.8701346916
 40
0.9025427209
 40
0.9350074626
 40
0.967502834
 40
1.0
 40
1.0
 40
1.0
 40
1.0
 10
11.8651666697
 20
7.8074589737
 30
0.0
 10
11.8658472417
 20
7.8018689618
 30
0.0
 10
11.8666873675
 20
7.7906550558
 30
0.0
 10
11.8663629976
 20
7.773849754
 30
0.0
 10
11.864464403
 20
7.7572545014
 30
0.0
 10
11.8610254365
 20
7.7410132896
 30
0.0
 10
11.856912818
 20
7.7278634704
 30
0.0
 10
11.8529123651
 20
7.7176536447
 30
0.0
 10
11.8495698644
 20
7.7101686374
 30
0.0
 10
11.8458923518
 20
7.7028610035
 30
0.0
 10
11.8418903644
 20
7.6957424101
 30
0.0
 10
11.8375751416
 20
7.6888238676
 30
0.0
 10
11.8329581596
 20
7.6821155041
 30
0.0
 10
11.828051115
 20
7.6756266614
 30
0.0
 10
11.822866071
 20
7.6693658355
 30
0.0
 10
11.8174148501
 20
7.6633407638
 30
0.0
 10
11.8098092094
 20
7.6556321529
 30
0.0
 10
11.799691312
 20
7.6466140514
 30
0.0
 10
11.7888524278
 20
7.6384688373
 30
0.0
 10
11.7797989017
 20
7.6324939054
 30
0.0
 10
11.7704928858
 20
7.6268766163
 30
0.0
 10
11.7584269151
 20
7.6205437132
 30
0.0
 10
11.7433675108
 20
7.6140787267
 30
0.0
 10
11.7278043229
 20
7.6087593633
 30
0.0
 10
11.7118241463
 20
7.6045997582
 30
0.0
 10
11.6955113642
 20
7.6016104819
 30
0.0
 10
11.6789493608
 20
7.5997996585
 30
0.0
 10
11.6622209262
 20
7.5991731439
 30
0.0
 10
11.6454087477
 20
7.5997347882
 30
0.0
 10
11.628596872
 20
7.6014862302
 30
0.0
 10
11.6146722061
 20
7.6039344454
 30
0.0
 10
11.603619434
 20
7.6064838545
 30
0.0
 10
11.592613761
 20
7.6094338831
 30
0.0
 10
11.5790195594
 20
7.6138616308
 30
0.0
 10
11.5657473265
 20
7.6192548268
 30
0.0
 10
11.5553542881
 20
7.6241452021
 30
0.0
 10
11.5451106807
 20
7.6294256265
 30
0.0
 10
11.5326509219
 20
7.63673654
 30
0.0
 10
11.5183665653
 20
7.6466073528
 30
0.0
 10
11.5048428092
 20
7.6575467536
 30
0.0
 10
11.4921904912
 20
7.6695057493
 30
0.0
 10
11.4844055085
 20
7.6781239636
 30
0.0
 10
11.4806949462
 20
7.6825813666
 30
0.0
  0
SPLINE
  5
373
100
AcDbEntity
  8
0
100
AcDbSpline
 62
7
  6
CONTINUOUS
 70
0
 71
3
 72
17
 73
13
 74
0
 42
0.0000001
 43
0.0000001
 44
0.0000000001
 40
0.0
 40
0.0
 40
0.0
 40
0.0
 40
0.0611905989
 40
0.1226656714
 40
0.1843990837
 40
0.2463824034
 40
0.370948792
 40
0.4962232805
 40
0.6219797958
 40
0.7479936042
 40
0.8740592427
 40
1.0
 40
1.0
 40
1.0
 40
1.0
 10
9.2954984719
 20
7.6270250927
 30
0.0
 10
9.2969115024
 20
7.6269270987
 30
0.0
 10
9.2997384452
 20
7.6266358659
 30
0.0
 10
9.3039492137
 20
7.6259194083
 30
0.0
 10
9.3081226975
 20
7.6249268207
 30
0.0
 10
9.3136209316
 20
7.6232426076
 30
0.0
 10
9.3203122498
 20
7.6204837123
 30
0.0
 10
9.3279163209
 20
7.6162297314
 30
0.0
 10
9.3350209072
 20
7.6111303066
 30
0.0
 10
9.3415570467
 20
7.6052953972
 30
0.0
 10
9.3474774092
 20
7.5988339335
 30
0.0
 10
9.3509981424
 20
7.5941705359
 30
0.0
 10
9.3526475922
 20
7.5917667961
 30
0.0
  0
SPLINE
  5
374
100
AcDbEntity
  8
0
100
AcDbSpline
 62
7
  6
CONTINUOUS
 70
0
 71
3
 72
21
 73
17
 74
0
 42
0.0000001
 43
0.0000001
 44
0.0000000001
 40
0.0
 40
0.0
 40
0.0
 40
0.0
 40
0.1273176984
 40
0.2537999461
 40
0.3167619614
 40
0.3795355204
 40
0.4421314992
 40
0.5045621453
 40
0.5668413456
 40
0.6289845231
 40
0.6910084433
 40
0.7529310869
 40
0.8147714401
 40
0.8765493236
 40
0.9382852134
 40
1.0
 40
1.0
 40
1.0
 40
1.0
 10
8.9641858443
 20
10.0648121266
 30
0.0
 10
8.9641858443
 20
10.0715569347
 30
0.0
 10
8.9648296813
 20
10.0850109741
 30
0.0
 10
8.9672612726
 20
10.1016430712
 30
0.0
 10
8.9701675397
 20
10.1146894948
 30
0.0
 10
8.9728179036
 20
10.1243125433
 30
0.0
 10
8.9759358983
 20
10.133764595
 30
0.0
 10
8.979514335
 20
10.1430241295
 30
0.0
 10
8.9835449637
 20
10.152069731
 30
0.0
 10
8.9880185716
 20
10.1608805225
 30
0.0
 10
8.9929248097
 20
10.169436194
 30
0.0
 10
8.9982523633
 20
10.177717028
 30
0.0
 10
9.0039889977
 20
10.1857038625
 30
0.0
 10
9.010121519
 20
10.193378355
 30
0.0
 10
9.0166355124
 20
10.2007225933
 30
0.0
 10
9.0212234052
 20
10.2053880859
 30
0.0
 10
9.0235749539
 20
10.2076594937
 30
0.0
  0
SPLINE
  5
375
100
AcDbEntity
  8
0
100
AcDbSpline
 62
7
  6
CONTINUOUS
 70
0
 71
3
 72
15
 73
11
 74
0
 42
0.0000001
 43
0.0000001
 44
0.0000000001
 40
0.0
 40
0.0
 40
0.0
 40
0.0
 40
0.1354247311
 40
0.2666407655
 40
0.3940450542
 40
0.518202271
 40
0.6398620924
 40
0.7599658352
 40
0.8796131507
 40
1.0
 40
1.0
 40
1.0
 40
1.0
 10
10.4240433429
 20
8.3141439586
 30
0.0
 10
10.4240439694
 20
8.3153807672
 30
0.0
 10
10.4241391002
 20
8.3178172295
 30
0.0
 10
10.4245823653
 20
8.3213930054
 30
0.0
 10
10.425326131
 20
8.3248141192
 30
0.0
 10
10.4263723617
 20
8.3280641694
 30
0.0
 10
10.4277222983
 20
8.3311281234
 30
0.0
 10
10.4293761702
 20
8.3339924456
 30
0.0
 10
10.431332643
 20
8.3366445908
 30
0.0
 10
10.4328273576
 20
8.3382554925
 30
0.0
 10
10.4336181568
 20
8.339019346
 30
0.0
  0
SPLINE
  5
376
100
AcDbEntity
  8
0
100
AcDbSpline
 62
7
  6
CONTINUOUS
 70
0
 71
3
 72
39
 73
35
 74
0
 42
0.0000001
 43
0.0000001
 44
0.0000000001
 40
0.0
 40
0.0
 40
0.0
 40
0.0
 40
0.0314026163
 40
0.0630094802
 40
0.0948071156
 40
0.1267734443
 40
0.1588809719
 40
0.1910970226
 40
0.2233851133
 40
0.2557062446
 40
0.2880202668
 40
0.3202872758
 40
0.3524690062
 40
0.3845301827
 40
0.4164397934
 40
0.4481722512
 40
0.4797084083
 40
0.5110363787
 40
0.5421521198
 40
0.5730597435
 40
0.6037715204
 40
0.6343075558
 40
0.6646951112
 40
0.69496759
 40
0.7251632189
 40
0.7553234785
 40
0.7854913552
 40
0.8157095102
 40
0.8460184684
 40
0.8764549241
 40
0.9070502294
 40
0.9378293436
 40
0.9688091107
 40
1.0
 40
1.0
 40
1.0
 40
1.0
 10
11.771166468
 20
9.1572940159
 30
0.0
 10
11.7754782041
 20
9.156994996
 30
0.0
 10
11.7841059784
 20
9.1559701003
 30
0.0
 10
11.7968737694
 20
9.1531864755
 30
0.0
 10
11.8093940784
 20
9.149178391
 30
0.0
 10
11.821545115
 20
9.1439846853
 30
0.0
 10
11.8332106675
 20
9.137655546
 30
0.0
 10
11.8442787053
 20
9.1302519413
 30
0.0
 10
11.8546430975
 20
9.1218451127
 30
0.0
 10
11.8642044006
 20
9.1125158375
 30
0.0
 10
11.8728708481
 20
9.102353681
 30
0.0
 10
11.8805591902
 20
9.0914561488
 30
0.0
 10
11.8871955329
 20
9.079927804
 30
0.0
 10
11.8927160042
 20
9.0678792497
 30
0.0
 10
11.8970673524
 20
9.0554260914
 30
0.0
 10
11.9002074528
 20
9.0426878573
 30
0.0
 10
11.9021057399
 20
9.0297868887
 30
0.0
 10
11.9027435503
 20
9.0168471909
 30
0.0
 10
11.9021142723
 20
9.003993257
 30
0.0
 10
11.9002234566
 20
8.9913488982
 30
0.0
 10
11.897088796
 20
8.9790360698
 30
0.0
 10
11.8927400629
 20
8.9671736804
 30
0.0
 10
11.8872188397
 20
8.9558764218
 30
0.0
 10
11.8805781391
 20
8.9452536356
 30
0.0
 10
11.872881926
 20
8.9354082097
 30
0.0
 10
11.8642045169
 20
8.9264355223
 30
0.0
 10
11.8546298787
 20
8.9184224212
 30
0.0
 10
11.8442507243
 20
8.9114463757
 30
0.0
 10
11.8331675847
 20
8.9055746938
 30
0.0
 10
11.8214877297
 20
8.9008638896
 30
0.0
 10
11.8093242611
 20
8.8973590633
 30
0.0
 10
11.796794358
 20
8.8950936664
 30
0.0
 10
11.7840204658
 20
8.8940888163
 30
0.0
 10
11.7754491329
 20
8.8942651718
 30
0.0
 10
11.771166468
 20
8.8945621756
 30
0.0
  0
SPLINE
  5
377
100
AcDbEntity
  8
0
100
AcDbSpline
 62
7
  6
CONTINUOUS
 70
0
 71
3
 72
22
 73
18
 74
0
 42
0.0000001
 43
0.0000001
 44
0.0000000001
 40
0.0
 40
0.0
 40
0.0
 40
0.0
 40
0.0466068219
 40
0.0957478227
 40
0.1473622862
 40
0.2013784298
 40
0.2577147928
 40
0.3162812064
 40
0.376979563
 40
0.4397047511
 40
0.5043453405
 40
0.5707840494
 40
0.6388981639
 40
0.7085605442
 40
0.7796395329
 40
0.8519984888
 40
1.0
 40
1.0
 40
1.0
 40
1.0
 10
11.78922368
 20
10.6176794983
 30
0.0
 10
11.7857775929
 20
10.6190562465
 30
0.0
 10
11.778647467
 20
10.6217591745
 30
0.0
 10
11.7675512809
 20
10.6255776529
 30
0.0
 10
11.7557898853
 20
10.6292610872
 30
0.0
 10
11.7433879953
 20
10.6328016256
 30
0.0
 10
11.7303714706
 20
10.6361917873
 30
0.0
 10
11.7167675734
 20
10.6394243742
 30
0.0
 10
11.7026048229
 20
10.6424925544
 30
0.0
 10
11.6879129381
 20
10.6453898283
 30
0.0
 10
11.6727227582
 20
10.6481100482
 30
0.0
 10
11.6570661986
 20
10.6506474475
 30
0.0
 10
11.6409761544
 20
10.6529966734
 30
0.0
 10
11.6244864593
 20
10.6551527379
 30
0.0
 10
11.6076317984
 20
10.6571110856
 30
0.0
 10
11.5845465999
 20
10.6594706593
 30
0.0
 10
11.5670569933
 20
10.660902836
 30
0.0
 10
11.5553010687
 20
10.6617181122
 30
0.0
  0
SPLINE
  5
378
100
AcDbEntity
  8
0
100
AcDbSpline
 62
7
  6
CONTINUOUS
 70
0
 71
3
 72
28
 73
24
 74
0
 42
0.0000001
 43
0.0000001
 44
0.0000000001
 40
0.0
 40
0.0
 40
0.0
 40
0.0
 40
0.0189761046
 40
0.0388455383
 40
0.0596136376
 40
0.0812824688
 40
0.1038507519
 40
0.1273147625
 40
0.1516680667
 40
0.1769023493
 40
0.2030070481
 40
0.2299700992
 40
0.2864122553
 40
0.3461031629
 40
0.4088942935
 40
0.4746192786
 40
0.5430960941
 40
0.6141289139
 40
0.68750965
 40
0.763019535
 40
0.8404300023
 40
0.9195049571
 40
1.0
 40
1.0
 40
1.0
 40
1.0
 10
11.8633188977
 20
10.6433610649
 30
0.0
 10
11.8616854233
 20
10.6444177758
 30
0.0
 10
11.8582989403
 20
10.6465155866
 30
0.0
 10
11.852993413
 20
10.6495516227
 30
0.0
 10
11.8473501208
 20
10.6525466372
 30
0.0
 10
11.8413738084
 20
10.655498016
 30
0.0
 10
11.8350694239
 20
10.6584034065
 30
0.0
 10
11.8284421941
 20
10.6612602961
 30
0.0
 10
11.821497657
 20
10.6640663784
 30
0.0
 10
11.8142415948
 20
10.6668192086
 30
0.0
 10
11.806680077
 20
10.6695165823
 30
0.0
 10
11.7960363265
 20
10.6730905538
 30
0.0
 10
11.7820065144
 20
10.6773890671
 30
0.0
 10
11.7643065914
 20
10.6822158743
 30
0.0
 10
11.7455540099
 20
10.686770402
 30
0.0
 10
11.7258116577
 20
10.6910371822
 30
0.0
 10
11.7051455837
 20
10.6950016975
 30
0.0
 10
11.6836251054
 20
10.698650468
 30
0.0
 10
11.6613224405
 20
10.7019710961
 30
0.0
 10
11.6383125175
 20
10.704952293
 30
0.0
 10
11.6146725969
 20
10.7075839521
 30
0.0
 10
11.5904822644
 20
10.7098571178
 30
0.0
 10
11.5741706176
 20
10.7111185345
 30
0.0
 10
11.565937846
 20
10.7116894792
 30
0.0
  0
SPLINE
  5
379
100
AcDbEntity
  8
0
100
AcDbSpline
 62
7
  6
CONTINUOUS
 70
0
 71
3
 72
48
 73
44
 74
0
 42
0.0000001
 43
0.0000001
 44
0.0000000001
 40
0.0
 40
0.0
 40
0.0
 40
0.0
 40
0.0068493486
 40
0.0135997588
 40
0.0202929777
 40
0.0269719074
 40
0.0336797638
 40
0.040459141
 40
0.0473512038
 40
0.0543949143
 40
0.0616265022
 40
0.0690791812
 40
0.0847569507
 40
0.0930394075
 40
0.1016434602
 40
0.110586867
 40
0.1198848198
 40
0.1295501471
 40
0.1395937488
 40
0.1500245748
 40
0.1608499336
 40
0.1720757752
 40
0.1837065831
 40
0.2081937797
 40
0.2343287255
 40
0.2621125424
 40
0.2915348951
 40
0.3225757912
 40
0.3552070986
 40
0.3893936298
 40
0.4250938995
 40
0.4622608867
 40
0.5008426735
 40
0.5407828856
 40
0.5820210259
 40
0.6244929323
 40
0.6681311221
 40
0.712865019
 40
0.7586211427
 40
0.8053236682
 40
0.852894317
 40
0.901252086
 40
1.0
 40
1.0
 40
1.0
 40
1.0
 10
11.9222777822
 20
10.6942735667
 30
0.0
 10
11.9225194742
 20
10.6951426081
 30
0.0
 10
11.9229329926
 20
10.6968875095
 30
0.0
 10
11.9233379596
 20
10.699532013
 30
0.0
 10
11.9235218141
 20
10.7021787648
 30
0.0
 10
11.9234842606
 20
10.7048260037
 30
0.0
 10
11.923225336
 20
10.7074721871
 30
0.0
 10
11.9227453687
 20
10.7101157566
 30
0.0
 10
11.9220447025
 20
10.7127552226
 30
0.0
 10
11.9211239916
 20
10.715389167
 30
0.0
 10
11.9199839135
 20
10.7180164205
 30
0.0
 10
11.9181415235
 20
10.7215680959
 30
0.0
 10
11.9158771429
 20
10.725044789
 30
0.0
 10
11.9132468338
 20
10.7284335019
 30
0.0
 10
11.9110228633
 20
10.7310096076
 30
0.0
 10
11.9085852606
 20
10.7335719818
 30
0.0
 10
11.9059349921
 20
10.7361197942
 30
0.0
 10
11.9030733783
 20
10.7386519189
 30
0.0
 10
11.9000016806
 20
10.7411672227
 30
0.0
 10
11.8967213359
 20
10.743664621
 30
0.0
 10
11.8932338553
 20
10.7461430135
 30
0.0
 10
11.8895407984
 20
10.7486012695
 30
0.0
 10
11.8842538187
 20
10.7519074965
 30
0.0
 10
11.8771297567
 20
10.7559723625
 30
0.0
 10
11.8679319795
 20
10.7606716663
 30
0.0
 10
11.8579604579
 20
10.7652643217
 30
0.0
 10
11.8472335094
 20
10.7697418746
 30
0.0
 10
11.8357706279
 20
10.7740960975
 30
0.0
 10
11.8235928474
 20
10.7783188974
 30
0.0
 10
11.8107225634
 20
10.7824023886
 30
0.0
 10
11.7971835347
 20
10.7863389501
 30
0.0
 10
11.7830008063
 20
10.7901212261
 30
0.0
 10
11.7682006433
 20
10.7937421313
 30
0.0
 10
11.7528104852
 20
10.7971948734
 30
0.0
 10
11.736858901
 20
10.8004730006
 30
0.0
 10
11.7203755173
 20
10.8035703774
 30
0.0
 10
11.703390954
 20
10.8064811964
 30
0.0
 10
11.6859367861
 20
10.8092000023
 30
0.0
 10
11.6680454575
 20
10.8117217268
 30
0.0
 10
11.6497502521
 20
10.814041638
 30
0.0
 10
11.6310852121
 20
10.8161554036
 30
0.0
 10
11.6055745526
 20
10.8187112906
 30
0.0
 10
11.5862624154
 20
10.82027856
 30
0.0
 10
11.5732889775
 20
10.821178271
 30
0.0
  0
SPLINE
  5
37A
100
AcDbEntity
  8
0
100
AcDbSpline
 62
7
  6
CONTINUOUS
 70
0
 71
3
 72
38
 73
34
 74
0
 42
0.0000001
 43
0.0000001
 44
0.0000000001
 40
0.0
 40
0.0
 40
0.0
 40
0.0
 40
0.006623295
 40
0.0134113374
 40
0.0275672006
 40
0.0426359125
 40
0.058746867
 40
0.0760005051
 40
0.0944726884
 40
0.1142188888
 40
0.1352777311
 40
0.1576741291
 40
0.1814217469
 40
0.2065247729
 40
0.2329794744
 40
0.2607754556
 40
0.2898964744
 40
0.3203211691
 40
0.352023771
 40
0.3849745205
 40
0.4191399942
 40
0.4544835705
 40
0.4909656916
 40
0.528544006
 40
0.5671736972
 40
0.6068076905
 40
0.6473967272
 40
0.6888896033
 40
0.7312333386
 40
0.7743732325
 40
0.8182532119
 40
0.9079995448
 40
1.0
 40
1.0
 40
1.0
 40
1.0
 10
12.1178069189
 20
10.7185714536
 30
0.0
 10
12.1174219193
 20
10.7196796615
 30
0.0
 10
12.1165668868
 20
10.7218981644
 30
0.0
 10
12.1145251487
 20
10.7263366259
 30
0.0
 10
12.111334184
 20
10.7318777716
 30
0.0
 10
12.1066011915
 20
10.738380695
 30
0.0
 10
12.1009205396
 20
10.7448241167
 30
0.0
 10
12.0943018414
 20
10.7512005813
 30
0.0
 10
12.0867545987
 20
10.7575033591
 30
0.0
 10
12.0782893246
 20
10.7637248211
 30
0.0
 10
12.0689176986
 20
10.7698571145
 30
0.0
 10
12.0586526862
 20
10.7758920784
 30
0.0
 10
12.0475085776
 20
10.7818213991
 30
0.0
 10
12.0355010486
 20
10.7876367748
 30
0.0
 10
12.0226471078
 20
10.7933299502
 30
0.0
 10
12.0089650456
 20
10.7988927312
 30
0.0
 10
11.9944744313
 20
10.804317083
 30
0.0
 10
11.9791960718
 20
10.8095951642
 30
0.0
 10
11.9631519435
 20
10.8147192908
 30
0.0
 10
11.9463651719
 20
10.8196819904
 30
0.0
 10
11.9288600031
 20
10.8244760563
 30
0.0
 10
11.910661738
 20
10.8290944957
 30
0.0
 10
11.8917966977
 20
10.8335305539
 30
0.0
 10
11.8722921989
 20
10.8377777818
 30
0.0
 10
11.8521764941
 20
10.841829989
 30
0.0
 10
11.8314787262
 20
10.8456812466
 30
0.0
 10
11.8102288986
 20
10.84932595
 30
0.0
 10
11.7884578227
 20
10.8527587976
 30
0.0
 10
11.766197078
 20
10.8559747609
 30
0.0
 10
11.743478911
 20
10.8589691885
 30
0.0
 10
11.7123894658
 20
10.8626882561
 30
0.0
 10
11.6726266557
 20
10.8667397563
 30
0.0
 10
11.6405332104
 20
10.8693008118
 30
0.0
 10
11.6242762873
 20
10.8704282333
 30
0.0
  0
SPLINE
  5
37B
100
AcDbEntity
  8
0
100
AcDbSpline
 62
7
  6
CONTINUOUS
 70
0
 71
3
 72
29
 73
25
 74
0
 42
0.0000001
 43
0.0000001
 44
0.0000000001
 40
0.0
 40
0.0
 40
0.0
 40
0.0
 40
0.02121948
 40
0.0434343549
 40
0.0666251766
 40
0.0907691704
 40
0.1158405218
 40
0.1418108818
 40
0.1686493663
 40
0.1963229029
 40
0.2247964633
 40
0.2540330325
 40
0.2839939751
 40
0.3146390574
 40
0.3778121412
 40
0.4432047964
 40
0.5104502947
 40
0.5791674319
 40
0.6489637692
 40
0.7194387425
 40
0.7901867028
 40
0.8608001238
 40
0.9308716234
 40
1.0
 40
1.0
 40
1.0
 40
1.0
 10
11.1127576243
 20
10.6176743681
 30
0.0
 10
11.1156978776
 20
10.6188491864
 30
0.0
 10
11.1217530321
 20
10.6211628066
 30
0.0
 10
11.1311328235
 20
10.6244602763
 30
0.0
 10
11.1410060991
 20
10.6276601808
 30
0.0
 10
11.1513576104
 20
10.630757514
 30
0.0
 10
11.1621714898
 20
10.6337475213
 30
0.0
 10
11.1734311082
 20
10.6366255194
 30
0.0
 10
11.1851191365
 20
10.6393870647
 30
0.0
 10
11.1972175714
 20
10.6420278791
 30
0.0
 10
11.2097077742
 20
10.6445438313
 30
0.0
 10
11.2225704797
 20
10.6469310466
 30
0.0
 10
11.2357858695
 20
10.6491858286
 30
0.0
 10
11.2540342947
 20
10.6520397351
 30
0.0
 10
11.2775774335
 20
10.6552393358
 30
0.0
 10
11.3066197163
 20
10.6584634453
 30
0.0
 10
11.3365526016
 20
10.6610895923
 30
0.0
 10
11.3671913948
 20
10.6631013795
 30
0.0
 10
11.3983471941
 20
10.6644862033
 30
0.0
 10
11.4298278076
 20
10.6652353978
 30
0.0
 10
11.4614390333
 20
10.6653442707
 30
0.0
 10
11.4929858083
 20
10.6648121354
 30
0.0
 10
11.5242734388
 20
10.6636423626
 30
0.0
 10
11.545010765
 20
10.6624317471
 30
0.0
 10
11.5553010687
 20
10.6617181122
 30
0.0
  0
SPLINE
  5
37C
100
AcDbEntity
  8
0
100
AcDbSpline
 62
7
  6
CONTINUOUS
 70
0
 71
3
 72
33
 73
29
 74
0
 42
0.0000001
 43
0.0000001
 44
0.0000000001
 40
0.0
 40
0.0
 40
0.0
 40
0.0
 40
0.0172107568
 40
0.0356756603
 40
0.0554000785
 40
0.0763790148
 40
0.0985988735
 40
0.1220387664
 40
0.1466716232
 40
0.1724650134
 40
0.1993817629
 40
0.2273804309
 40
0.2564158078
 40
0.2864392929
 40
0.317399187
 40
0.3492409398
 40
0.3819074598
 40
0.4153393555
 40
0.4494751341
 40
0.4842513839
 40
0.5196030172
 40
0.5554634657
 40
0.6284367615
 40
0.7026172991
 40
0.7774375539
 40
0.852323605
 40
0.9267006082
 40
1.0
 40
1.0
 40
1.0
 40
1.0
 10
11.0387399252
 20
10.6434028817
 30
0.0
 10
11.0413300758
 20
10.6450765707
 30
0.0
 10
11.046807091
 20
10.6483805034
 30
0.0
 10
11.0555628272
 20
10.6530650716
 30
0.0
 10
11.0651291171
 20
10.6576425847
 30
0.0
 10
11.0754865078
 20
10.6621036092
 30
0.0
 10
11.086614361
 20
10.6664391532
 30
0.0
 10
11.0984901541
 20
10.6706403278
 30
0.0
 10
11.111089792
 20
10.6746984918
 30
0.0
 10
11.1243876168
 20
10.6786052597
 30
0.0
 10
11.1383564819
 20
10.6823525431
 30
0.0
 10
11.1529678056
 20
10.685932598
 30
0.0
 10
11.1681916553
 20
10.6893380134
 30
0.0
 10
11.1839968217
 20
10.6925617337
 30
0.0
 10
11.2003508778
 20
10.6955970753
 30
0.0
 10
11.2172202433
 20
10.6984377656
 30
0.0
 10
11.2345702676
 20
10.7010779273
 30
0.0
 10
11.2523653075
 20
10.7035120935
 30
0.0
 10
11.2705687974
 20
10.7057352216
 30
0.0
 10
11.2891433095
 20
10.7077427166
 30
0.0
 10
11.3080506881
 20
10.7095304574
 30
0.0
 10
11.3338013224
 20
10.7116281667
 30
0.0
 10
11.3665342687
 20
10.7136678453
 30
0.0
 10
11.406282823
 20
10.7151796805
 30
0.0
 10
11.4463987325
 20
10.7157568097
 30
0.0
 10
11.4865523831
 20
10.7153945012
 30
0.0
 10
11.526413826
 20
10.7140957495
 30
0.0
 10
11.5528354286
 20
10.7125981349
 30
0.0
 10
11.565937846
 20
10.7116894792
 30
0.0
  0
SPLINE
  5
37D
100
AcDbEntity
  8
0
100
AcDbSpline
 62
7
  6
CONTINUOUS
 70
0
 71
3
 72
53
 73
49
 74
0
 42
0.0000001
 43
0.0000001
 44
0.0000000001
 40
0.0
 40
0.0
 40
0.0
 40
0.0
 40
0.0058141369
 40
0.0115305232
 40
0.0172179001
 40
0.0229461621
 40
0.0287836011
 40
0.0347943965
 40
0.0410368341
 40
0.0475621819
 40
0.0544144829
 40
0.0616306601
 40
0.069241224
 40
0.0772708238
 40
0.0857391652
 40
0.0946615222
 40
0.1040495583
 40
0.1139116572
 40
0.1242535883
 40
0.1350786654
 40
0.146388282
 40
0.1581819435
 40
0.1704577082
 40
0.1832121363
 40
0.196440666
 40
0.2101375088
 40
0.2242959819
 40
0.2389083701
 40
0.2539662278
 40
0.2694602214
 40
0.3017152417
 40
0.3355866304
 40
0.3709772757
 40
0.4077818631
 40
0.4458878481
 40
0.4851763136
 40
0.5255227494
 40
0.5667977776
 40
0.6088678401
 40
0.6515958617
 40
0.6948418956
 40
0.7384637569
 40
0.7823176484
 40
0.8262587842
 40
0.8701420024
 40
0.9138224004
 40
0.9571559093
 40
1.0
 40
1.0
 40
1.0
 40
1.0
 10
10.9797163717
 20
10.694273559
 30
0.0
 10
10.9793841046
 20
10.6954682763
 30
0.0
 10
10.9788505508
 20
10.697874969
 30
0.0
 10
10.9784632138
 20
10.7015344927
 30
0.0
 10
10.9784993432
 20
10.7051965164
 30
0.0
 10
10.9789588422
 20
10.7088555061
 30
0.0
 10
10.9798405845
 20
10.7125068317
 30
0.0
 10
10.9811424028
 20
10.716146295
 30
0.0
 10
10.9828618745
 20
10.7197703188
 30
0.0
 10
10.9849961712
 20
10.7233759371
 30
0.0
 10
10.9875426194
 20
10.7269603935
 30
0.0
 10
10.9904983236
 20
10.7305212006
 30
0.0
 10
10.9938604632
 20
10.7340557379
 30
0.0
 10
10.9976258992
 20
10.7375614832
 30
0.0
 10
11.0017913872
 20
10.7410356838
 30
0.0
 10
11.0063532786
 20
10.7444756764
 30
0.0
 10
11.0113077066
 20
10.7478785851
 30
0.0
 10
11.016650376
 20
10.7512416574
 30
0.0
 10
11.0223767217
 20
10.7545619676
 30
0.0
 10
11.0284817612
 20
10.7578367428
 30
0.0
 10
11.0349602227
 20
10.7610630705
 30
0.0
 10
11.0418064398
 20
10.7642382087
 30
0.0
 10
11.0490144518
 20
10.7673593006
 30
0.0
 10
11.0565779287
 20
10.7704236682
 30
0.0
 10
11.0644902481
 20
10.7734285383
 30
0.0
 10
11.0727444425
 20
10.7763713198
 30
0.0
 10
11.0813332584
 20
10.779249343
 30
0.0
 10
11.0902491166
 20
10.7820601132
 30
0.0
 10
11.0994841734
 20
10.7848011047
 30
0.0
 10
11.1123856513
 20
10.7884078811
 30
0.0
 10
11.1292563253
 20
10.7927115138
 30
0.0
 10
11.1503757893
 20
10.7974942093
 30
0.0
 10
11.1725581373
 20
10.8019448181
 30
0.0
 10
11.195724997
 20
10.8060474452
 30
0.0
 10
11.219794663
 20
10.8097874034
 30
0.0
 10
11.2446821094
 20
10.8131513225
 30
0.0
 10
11.2702993906
 20
10.8161271794
 30
0.0
 10
11.2965559397
 20
10.818704344
 30
0.0
 10
11.3233589033
 20
10.820873614
 30
0.0
 10
11.3506134756
 20
10.8226272466
 30
0.0
 10
11.3782232382
 20
10.823958984
 30
0.0
 10
11.406090506
 20
10.8248640753
 30
0.0
 10
11.4341166751
 20
10.825339292
 30
0.0
 10
11.462202577
 20
10.825382939
 30
0.0
 10
11.4902488233
 20
10.8249948614
 30
0.0
 10
11.5181561962
 20
10.8241764411
 30
0.0
 10
11.5458258538
 20
10.8229306039
 30
0.0
 10
11.5641729255
 20
10.8218104714
 30
0.0
 10
11.5732889775
 20
10.821178271
 30
0.0
  0
SPLINE
  5
37E
100
AcDbEntity
  8
0
100
AcDbSpline
 62
7
  6
CONTINUOUS
 70
0
 71
3
 72
51
 73
47
 74
0
 42
0.0000001
 43
0.0000001
 44
0.0000000001
 40
0.0
 40
0.0
 40
0.0
 40
0.0
 40
0.0057558493
 40
0.0117276183
 40
0.0179542144
 40
0.0244693109
 40
0.0313014794
 40
0.0384746704
 40
0.0460086007
 40
0.0539193377
 40
0.0622196803
 40
0.0709196709
 40
0.0800268859
 40
0.089546835
 40
0.0994831613
 40
0.1098379375
 40
0.1206117996
 40
0.1318041612
 40
0.1434133061
 40
0.1554365391
 40
0.1678702553
 40
0.1807100438
 40
0.1939507453
 40
0.207586519
 40
0.2216108973
 40
0.2360168231
 40
0.2659417493
 40
0.2972954274
 40
0.3300040507
 40
0.363987497
 40
0.3991600247
 40
0.4354308827
 40
0.4727048606
 40
0.5108827961
 40
0.5498620511
 40
0.5895369669
 40
0.6297993041
 40
0.6705386712
 40
0.7116429469
 40
0.7529986955
 40
0.7944915819
 40
0.8360067775
 40
0.8774293862
 40
0.9186448088
 40
0.9595392669
 40
1.0
 40
1.0
 40
1.0
 40
1.0
 10
10.7841710284
 20
10.7185246859
 30
0.0
 10
10.7847225236
 20
10.7201169475
 30
0.0
 10
10.7860032055
 20
10.7233086905
 30
0.0
 10
10.7883876588
 20
10.7279996534
 30
0.0
 10
10.7912638889
 20
10.7326691024
 30
0.0
 10
10.794628916
 20
10.737313396
 30
0.0
 10
10.7984797571
 20
10.7419298873
 30
0.0
 10
10.8028133522
 20
10.7465155951
 30
0.0
 10
10.807626349
 20
10.7510676745
 30
0.0
 10
10.8129152331
 20
10.7555830955
 30
0.0
 10
10.8186761216
 20
10.7600588812
 30
0.0
 10
10.8249048778
 20
10.7644919135
 30
0.0
 10
10.8315969774
 20
10.7688791331
 30
0.0
 10
10.8387475953
 20
10.7732173866
 30
0.0
 10
10.8463515259
 20
10.77750359
 30
0.0
 10
10.8544032448
 20
10.7817346066
 30
0.0
 10
10.8628968632
 20
10.7859073733
 30
0.0
 10
10.8718261702
 20
10.790018808
 30
0.0
 10
10.8811846088
 20
10.7940659008
 30
0.0
 10
10.8909653038
 20
10.7980456496
 30
0.0
 10
10.9011610513
 20
10.8019551205
 30
0.0
 10
10.9117643372
 20
10.8057914088
 30
0.0
 10
10.9227673364
 20
10.8095516752
 30
0.0
 10
10.9341619195
 20
10.8132331187
 30
0.0
 10
10.9459396778
 20
10.8168330349
 30
0.0
 10
10.9623511476
 20
10.821580836
 30
0.0
 10
10.9837665507
 20
10.8272777548
 30
0.0
 10
11.0105332442
 20
10.8336643754
 30
0.0
 10
11.0386049294
 20
10.8396659038
 30
0.0
 10
11.0678984927
 20
10.8452643977
 30
0.0
 10
11.098327374
 20
10.8504430919
 30
0.0
 10
11.1298015137
 20
10.8551864932
 30
0.0
 10
11.1622277274
 20
10.8594804137
 30
0.0
 10
11.1955099664
 20
10.8633120157
 30
0.0
 10
11.2295496183
 20
10.8666698477
 30
0.0
 10
11.2642458035
 20
10.8695438774
 30
0.0
 10
11.2994956794
 20
10.8719255205
 30
0.0
 10
11.3351947493
 20
10.873807665
 30
0.0
 10
11.3712371752
 20
10.8751846913
 30
0.0
 10
11.407516095
 20
10.8760524889
 30
0.0
 10
11.4439239393
 20
10.8764084671
 30
0.0
 10
11.4803527594
 20
10.8762515641
 30
0.0
 10
11.5166945268
 20
10.8755822472
 30
0.0
 10
11.5528415269
 20
10.8744025149
 30
0.0
 10
11.5886864628
 20
10.8727158915
 30
0.0
 10
11.6124595078
 20
10.8712477297
 30
0.0
 10
11.6242762873
 20
10.8704282333
 30
0.0
  0
SPLINE
  5
37F
100
AcDbEntity
  8
0
100
AcDbSpline
 62
7
  6
CONTINUOUS
 70
0
 71
3
 72
53
 73
49
 74
0
 42
0.0000001
 43
0.0000001
 44
0.0000000001
 40
0.0
 40
0.0
 40
0.0
 40
0.0
 40
0.0055575376
 40
0.0111779567
 40
0.0169218821
 40
0.0228457564
 40
0.0290005139
 40
0.0354309032
 40
0.0421753268
 40
0.0492661629
 40
0.0567301863
 40
0.0645892833
 40
0.0728609369
 40
0.0815589669
 40
0.0906938756
 40
0.1002734826
 40
0.1103031213
 40
0.1207861401
 40
0.1317240026
 40
0.14311666
 40
0.1549626112
 40
0.1672591551
 40
0.1800024545
 40
0.1931876791
 40
0.2068090973
 40
0.2208601246
 40
0.2353334527
 40
0.2502210197
 40
0.2655141749
 40
0.2812035909
 40
0.3137306612
 40
0.3477179984
 40
0.3830731233
 40
0.4196969504
 40
0.4574845402
 40
0.4963257781
 40
0.5361060008
 40
0.5767065869
 40
0.618005522
 40
0.6598779471
 40
0.7021966942
 40
0.7448328149
 40
0.7876560998
 40
0.8305356101
 40
0.8733401519
 40
0.9159389309
 40
0.9582016869
 40
1.0
 40
1.0
 40
1.0
 40
1.0
 10
10.7814970842
 20
10.7339625655
 30
0.0
 10
10.7814970764
 20
10.7356187795
 30
0.0
 10
10.7816824831
 20
10.7389528307
 30
0.0
 10
10.7825146719
 20
10.7439361196
 30
0.0
 10
10.7838996011
 20
10.7489082899
 30
0.0
 10
10.7858345528
 20
10.7538635791
 30
0.0
 10
10.788316345
 20
10.7587979733
 30
0.0
 10
10.7913416565
 20
10.7637076762
 30
0.0
 10
10.7949070088
 20
10.7685893465
 30
0.0
 10
10.7990089542
 20
10.7734396508
 30
0.0
 10
10.8036437658
 20
10.7782553832
 30
0.0
 10
10.8088076229
 20
10.7830331234
 30
0.0
 10
10.8144962611
 20
10.7877695411
 30
0.0
 10
10.8207051921
 20
10.7924610453
 30
0.0
 10
10.8274294127
 20
10.7971041795
 30
0.0
 10
10.8346636154
 20
10.8016952591
 30
0.0
 10
10.8424019795
 20
10.806230765
 30
0.0
 10
10.850638335
 20
10.8107070107
 30
0.0
 10
10.8593660305
 20
10.8151204715
 30
0.0
 10
10.8685780412
 20
10.8194675265
 30
0.0
 10
10.8782669
 20
10.8237446874
 30
0.0
 10
10.8884247554
 20
10.8279484416
 30
0.0
 10
10.8990433492
 20
10.8320753677
 30
0.0
 10
10.9101140388
 20
10.8361220881
 30
0.0
 10
10.9216278039
 20
10.8400852728
 30
0.0
 10
10.9335752475
 20
10.8439616944
 30
0.0
 10
10.9459466199
 20
10.8477481374
 30
0.0
 10
10.9587318044
 20
10.8514415273
 30
0.0
 10
10.9719203681
 20
10.8550388106
 30
0.0
 10
10.990249292
 20
10.8597598844
 30
0.0
 10
11.0140956049
 20
10.8653848411
 30
0.0
 10
11.0438077564
 20
10.8716283255
 30
0.0
 10
11.0748533362
 20
10.8774231253
 30
0.0
 10
11.1071307117
 20
10.88275009
 30
0.0
 10
11.1405343881
 20
10.8875915806
 30
0.0
 10
11.1749550514
 20
10.8919315847
 30
0.0
 10
11.2102800313
 20
10.8957557519
 30
0.0
 10
11.2463936557
 20
10.8990514433
 30
0.0
 10
11.2831776443
 20
10.9018077702
 30
0.0
 10
11.3205115005
 20
10.9040156287
 30
0.0
 10
11.3582729117
 20
10.9056677283
 30
0.0
 10
11.3963381538
 20
10.9067586142
 30
0.0
 10
11.4345825014
 20
10.9072846862
 30
0.0
 10
11.4728806337
 20
10.9072442054
 30
0.0
 10
11.5111070647
 20
10.9066373105
 30
0.0
 10
11.5491365257
 20
10.9054659945
 30
0.0
 10
11.586844338
 20
10.9037341438
 30
0.0
 10
11.6118497271
 20
10.9021996472
 30
0.0
 10
11.6242762873
 20
10.9013378623
 30
0.0
  0
SPLINE
  5
380
100
AcDbEntity
  8
0
100
AcDbSpline
 62
7
  6
CONTINUOUS
 70
0
 71
3
 72
28
 73
24
 74
0
 42
0.0000001
 43
0.0000001
 44
0.0000000001
 40
0.0
 40
0.0
 40
0.0
 40
0.0
 40
0.0218594436
 40
0.0446727388
 40
0.0684178886
 40
0.0930702852
 40
0.1186028859
 40
0.1449863175
 40
0.1721893078
 40
0.2001785943
 40
0.2289192274
 40
0.258374714
 40
0.3192754758
 40
0.3825625161
 40
0.4478976672
 40
0.5149274378
 40
0.5832859777
 40
0.6525979134
 40
0.7224811085
 40
0.7925493724
 40
0.8624154142
 40
0.9316924549
 40
1.0
 40
1.0
 40
1.0
 40
1.0
 10
12.8825747773
 20
8.1606946848
 30
0.0
 10
12.8838615303
 20
8.1636450617
 30
0.0
 10
12.8864119356
 20
8.169709369
 30
0.0
 10
12.8900978605
 20
8.1790861484
 30
0.0
 10
12.8937215832
 20
8.1889265914
 30
0.0
 10
12.8972776953
 20
8.1992161839
 30
0.0
 10
12.9007609265
 20
8.2099398451
 30
0.0
 10
12.9041661577
 20
8.2210817994
 30
0.0
 10
12.9074883101
 20
8.2326256678
 30
0.0
 10
12.9107224833
 20
8.2445544529
 30
0.0
 10
12.9138639231
 20
8.256850605
 30
0.0
 10
12.917968166
 20
8.2739008708
 30
0.0
 10
12.922820774
 20
8.2960008016
 30
0.0
 10
12.9281418017
 20
8.3233982649
 30
0.0
 10
12.9329917535
 20
8.3517989072
 30
0.0
 10
12.9373418371
 20
8.3810353969
 30
0.0
 10
12.9411662146
 20
8.4109356161
 30
0.0
 10
12.9444422095
 20
8.4413234215
 30
0.0
 10
12.9471504154
 20
8.4720197785
 30
0.0
 10
12.9492748341
 20
8.5028438151
 30
0.0
 10
12.9508029356
 20
8.5336138504
 30
0.0
 10
12.9517257974
 20
8.5641485126
 30
0.0
 10
12.9519358283
 20
8.5844081593
 30
0.0
 10
12.9519358283
 20
8.5944663306
 30
0.0
  0
SPLINE
  5
381
100
AcDbEntity
  8
0
100
AcDbSpline
 62
7
  6
CONTINUOUS
 70
0
 71
3
 72
32
 73
28
 74
0
 42
0.0000001
 43
0.0000001
 44
0.0000000001
 40
0.0
 40
0.0
 40
0.0
 40
0.0
 40
0.017512202
 40
0.0362799069
 40
0.0563020574
 40
0.0775685503
 40
0.1000617486
 40
0.1237575653
 40
0.1486263371
 40
0.1746335786
 40
0.2017405292
 40
0.2299045484
 40
0.2590795045
 40
0.2892161521
 40
0.3202624067
 40
0.3521635499
 40
0.3848624843
 40
0.4182999853
 40
0.4524148927
 40
0.4871442662
 40
0.5581856697
 40
0.6308942136
 40
0.7047219406
 40
0.7791100543
 40
0.8534943083
 40
0.9273102046
 40
1.0
 40
1.0
 40
1.0
 40
1.0
 10
12.9023295514
 20
8.0801566294
 30
0.0
 10
12.9041018954
 20
8.0827392834
 30
0.0
 10
12.9076232497
 20
8.0881939085
 30
0.0
 10
12.9126819564
 20
8.0969049664
 30
0.0
 10
12.9176900935
 20
8.1064110858
 30
0.0
 10
12.9226374668
 20
8.1166932315
 30
0.0
 10
12.9275142053
 20
8.1277311642
 30
0.0
 10
12.9323104382
 20
8.1395028674
 30
0.0
 10
12.9370164632
 20
8.151984794
 30
0.0
 10
12.9416227227
 20
8.1651518987
 30
0.0
 10
12.9461198458
 20
8.1789777144
 30
0.0
 10
12.9504986896
 20
8.1934343947
 30
0.0
 10
12.9547503586
 20
8.2084927824
 30
0.0
 10
12.9588662065
 20
8.2241224889
 30
0.0
 10
12.9628378563
 20
8.2402919576
 30
0.0
 10
12.9666572374
 20
8.256968517
 30
0.0
 10
12.9703165984
 20
8.2741184572
 30
0.0
 10
12.9738084958
 20
8.2917070995
 30
0.0
 10
12.9771258609
 20
8.309698906
 30
0.0
 10
12.9813389101
 20
8.334362749
 30
0.0
 10
12.9861103384
 20
8.3659312788
 30
0.0
 10
12.9910016042
 20
8.4045429537
 30
0.0
 10
12.9950607325
 20
8.443852792
 30
0.0
 10
12.9982547205
 20
8.4835429283
 30
0.0
 10
13.0005577185
 20
8.523292675
 30
0.0
 10
13.0019511502
 20
8.5627805649
 30
0.0
 10
13.0022696341
 20
8.5889860927
 30
0.0
 10
13.0022696341
 20
8.6019876708
 30
0.0
  0
SPLINE
  5
382
100
AcDbEntity
  8
0
100
AcDbSpline
 62
7
  6
CONTINUOUS
 70
0
 71
3
 72
53
 73
49
 74
0
 42
0.0000001
 43
0.0000001
 44
0.0000000001
 40
0.0
 40
0.0
 40
0.0
 40
0.0
 40
0.00561882
 40
0.0111420428
 40
0.0166418616
 40
0.0221914682
 40
0.0278619549
 40
0.0337195974
 40
0.0398239585
 40
0.0462268852
 40
0.0529723767
 40
0.0600969397
 40
0.0676303569
 40
0.075596455
 40
0.0840140046
 40
0.0928973914
 40
0.1022573641
 40
0.1121014886
 40
0.1224347163
 40
0.1332596478
 40
0.1445769649
 40
0.1563855586
 40
0.1686828695
 40
0.1814649241
 40
0.1947266187
 40
0.2084616942
 40
0.2226629851
 40
0.2373223538
 40
0.2524309172
 40
0.2679789554
 40
0.300350572
 40
0.3343473976
 40
0.3698695492
 40
0.4068090749
 40
0.4450509009
 40
0.4844736716
 40
0.524950517
 40
0.5663497708
 40
0.6085356546
 40
0.6513689391
 40
0.6947075901
 40
0.7384074048
 40
0.7823226395
 40
0.8263066389
 40
0.8702124484
 40
0.913893467
 40
0.9572039929
 40
1.0
 40
1.0
 40
1.0
 40
1.0
 10
12.9489534625
 20
8.0141896306
 30
0.0
 10
12.9500859071
 20
8.013789259
 30
0.0
 10
12.9523777417
 20
8.0131185317
 30
0.0
 10
12.9558934693
 20
8.0125243974
 30
0.0
 10
12.9594407982
 20
8.0123557389
 30
0.0
 10
12.9630140259
 20
8.0126128151
 30
0.0
 10
12.966608402
 20
8.0132944837
 30
0.0
 10
12.970219638
 20
8.0143986883
 30
0.0
 10
12.9738441905
 20
8.0159229536
 30
0.0
 10
12.9774790843
 20
8.0178645943
 30
0.0
 10
12.9811216215
 20
8.0202209916
 30
0.0
 10
12.9847692495
 20
8.0229894529
 30
0.0
 10
12.988419331
 20
8.0261672706
 30
0.0
 10
12.9920691927
 20
8.0297515055
 30
0.0
 10
12.9957159874
 20
8.0337390333
 30
0.0
 10
12.9993568353
 20
8.0381263786
 30
0.0
 10
13.0029887031
 20
8.0429097867
 30
0.0
 10
13.0066085714
 20
8.0480851095
 30
0.0
 10
13.0102133023
 20
8.0536478858
 30
0.0
 10
13.0137998119
 20
8.0595932589
 30
0.0
 10
13.0173649237
 20
8.0659160529
 30
0.0
 10
13.0209055416
 20
8.07261071
 30
0.0
 10
13.0244184946
 20
8.0796713573
 30
0.0
 10
13.0279007091
 20
8.0870917582
 30
0.0
 10
13.0313490483
 20
8.0948653694
 30
0.0
 10
13.0347604841
 20
8.1029853026
 30
0.0
 10
13.0381319358
 20
8.1114443737
 30
0.0
 10
13.0414604313
 20
8.1202350703
 30
0.0
 10
13.0447429876
 20
8.1293496053
 30
0.0
 10
13.0491134037
 20
8.1420951139
 30
0.0
 10
13.0544280987
 20
8.158783015
 30
0.0
 10
13.0604947957
 20
8.1797044923
 30
0.0
 10
13.0663114434
 20
8.2017083175
 30
0.0
 10
13.0718571815
 20
8.2247162459
 30
0.0
 10
13.0771121016
 20
8.2486465972
 30
0.0
 10
13.0820573592
 20
8.2734142852
 30
0.0
 10
13.0866752286
 20
8.2989312153
 30
0.0
 10
13.0909491685
 20
8.3251065862
 30
0.0
 10
13.0948638782
 20
8.351847228
 30
0.0
 10
13.0984053516
 20
8.3790579379
 30
0.0
 10
13.1015609259
 20
8.4066418251
 30
0.0
 10
13.1043193255
 20
8.4345006591
 30
0.0
 10
13.1066707023
 20
8.4625352226
 30
0.0
 10
13.1086066694
 20
8.4906456692
 30
0.0
 10
13.1101203328
 20
8.5187318749
 30
0.0
 10
13.1112063127
 20
8.5466938266
 30
0.0
 10
13.1118607673
 20
8.5744318494
 30
0.0
 10
13.1120089092
 20
8.592839167
 30
0.0
 10
13.1120089092
 20
8.6019876771
 30
0.0
  0
SPLINE
  5
383
100
AcDbEntity
  8
0
100
AcDbSpline
 62
7
  6
CONTINUOUS
 70
0
 71
3
 72
51
 73
47
 74
0
 42
0.0000001
 43
0.0000001
 44
0.0000000001
 40
0.0
 40
0.0
 40
0.0
 40
0.0
 40
0.005611694
 40
0.0114525839
 40
0.0175617986
 40
0.0239728138
 40
0.0307137717
 40
0.0378079773
 40
0.0452744534
 40
0.0531284848
 40
0.0613821361
 40
0.0700446849
 40
0.0791230293
 40
0.0886219888
 40
0.0985446112
 40
0.1088923638
 40
0.1196653684
 40
0.1308625107
 40
0.1424816289
 40
0.1545195646
 40
0.1669723232
 40
0.1798350823
 40
0.1931023364
 40
0.2067678749
 40
0.2208249173
 40
0.2352660696
 40
0.2652680117
 40
0.2967054678
 40
0.3295024695
 40
0.3635768512
 40
0.3988409241
 40
0.4352020716
 40
0.4725632874
 40
0.5108236751
 40
0.5498789197
 40
0.5896217392
 40
0.6299423232
 40
0.6707287609
 40
0.7118674638
 40
0.7532435827
 40
0.794741424
 40
0.8362448591
 40
0.8776377481
 40
0.9188043197
 40
0.9596296656
 40
1.0
 40
1.0
 40
1.0
 40
1.0
 10
12.9590588639
 20
7.8177643084
 30
0.0
 10
12.9606397216
 20
7.8182307202
 30
0.0
 10
12.9638207019
 20
7.8193423652
 30
0.0
 10
12.9685227138
 20
7.8214776212
 30
0.0
 10
12.9732373774
 20
7.8241075702
 30
0.0
 10
12.9779610753
 20
7.8272293302
 30
0.0
 10
12.9826910804
 20
7.8308401405
 30
0.0
 10
12.9874243883
 20
7.8349370571
 30
0.0
 10
12.992157984
 20
7.8395169493
 30
0.0
 10
12.9968887445
 20
7.8445764231
 30
0.0
 10
13.0016134575
 20
7.8501117914
 30
0.0
 10
13.0063288512
 20
7.8561190321
 30
0.0
 10
13.0110315801
 20
7.8625937907
 30
0.0
 10
13.0157182825
 20
7.8695313499
 30
0.0
 10
13.0203855431
 20
7.8769266523
 30
0.0
 10
13.0250299652
 20
7.8847742743
 30
0.0
 10
13.0296481117
 20
7.8930684575
 30
0.0
 10
13.0342365895
 20
7.9018030848
 30
0.0
 10
13.038791973
 20
7.9109717137
 30
0.0
 10
13.0433108992
 20
7.9205675551
 30
0.0
 10
13.0477899776
 20
7.9305835055
 30
0.0
 10
13.052225894
 20
7.9410121283
 30
0.0
 10
13.0566153119
 20
7.9518456848
 30
0.0
 10
13.0609549737
 20
7.9630761149
 30
0.0
 10
13.0652416388
 20
7.9746950804
 30
0.0
 10
13.070954994
 20
7.9909001488
 30
0.0
 10
13.0779270193
 20
8.0120716243
 30
0.0
 10
13.0859297076
 20
8.0385705104
 30
0.0
 10
13.0936474283
 20
8.0663969648
 30
0.0
 10
13.1010570115
 20
8.0954680837
 30
0.0
 10
13.1081361961
 20
8.1256974157
 30
0.0
 10
13.1148637296
 20
8.1569949255
 30
0.0
 10
13.121219423
 20
8.1892673654
 30
0.0
 10
13.1271842124
 20
8.2224185385
 30
0.0
 10
13.1327402149
 20
8.2563496006
 30
0.0
 10
13.1378707805
 20
8.2909593596
 30
0.0
 10
13.1425605414
 20
8.3261445819
 30
0.0
 10
13.1467954567
 20
8.3618003047
 30
0.0
 10
13.1505628536
 20
8.3978201518
 30
0.0
 10
13.1538514652
 20
8.434096654
 30
0.0
 10
13.1566514627
 20
8.4705215703
 30
0.0
 10
13.1589544868
 20
8.5069862188
 30
0.0
 10
13.1607536685
 20
8.5433817835
 30
0.0
 10
13.1620436572
 20
8.5795997029
 30
0.0
 10
13.1628206246
 20
8.6155317998
 30
0.0
 10
13.162996219
 20
8.6393803529
 30
0.0
 10
13.162996219
 20
8.6512376394
 30
0.0
  0
SPLINE
  5
384
100
AcDbEntity
  8
0
100
AcDbSpline
 62
7
  6
CONTINUOUS
 70
0
 71
3
 72
21
 73
17
 74
0
 42
0.0000001
 43
0.0000001
 44
0.0000000001
 40
0.0
 40
0.0
 40
0.0
 40
0.0
 40
0.0479283086
 40
0.0981850624
 40
0.1507087742
 40
0.2054300127
 40
0.2622719298
 40
0.3211511175
 40
0.381978372
 40
0.4446589622
 40
0.5090931659
 40
0.5751768255
 40
0.6428015646
 40
0.7118555043
 40
0.8537811397
 40
1.0
 40
1.0
 40
1.0
 40
1.0
 10
12.9282122829
 20
8.8187166714
 30
0.0
 10
12.929185444
 20
8.8152376817
 30
0.0
 10
12.9310739382
 20
8.8080809665
 30
0.0
 10
12.9336849559
 20
8.7970245098
 30
0.0
 10
12.9361376921
 20
8.7854080845
 30
0.0
 10
12.9384275116
 20
8.7732531465
 30
0.0
 10
12.940550159
 20
8.7605820184
 30
0.0
 10
12.9425016794
 20
8.7474180468
 30
0.0
 10
12.9442784082
 20
8.7337854848
 30
0.0
 10
12.9458770273
 20
8.7197094723
 30
0.0
 10
12.9472945683
 20
8.7052159811
 30
0.0
 10
12.9485283608
 20
8.6903317681
 30
0.0
 10
12.9495761248
 20
8.6750842744
 30
0.0
 10
12.9507329212
 20
8.654116171
 30
0.0
 10
12.9516892342
 20
8.6272067898
 30
0.0
 10
12.9519358283
 20
8.6054873915
 30
0.0
 10
12.9519358283
 20
8.5944663306
 30
0.0
  0
SPLINE
  5
385
100
AcDbEntity
  8
0
100
AcDbSpline
 62
7
  6
CONTINUOUS
 70
0
 71
3
 72
28
 73
24
 74
0
 42
0.0000001
 43
0.0000001
 44
0.0000000001
 40
0.0
 40
0.0
 40
0.0
 40
0.0
 40
0.0193594547
 40
0.0395948775
 40
0.0607084794
 40
0.0826993388
 40
0.1055643143
 40
0.129297727
 40
0.1538921709
 40
0.1793381795
 40
0.2056248449
 40
0.2327396016
 40
0.2893950196
 40
0.3491804262
 40
0.411952124
 40
0.4775508965
 40
0.5458038093
 40
0.6165257768
 40
0.6895208082
 40
0.7645835196
 40
0.8414994246
 40
0.9200480136
 40
1.0
 40
1.0
 40
1.0
 40
1.0
 10
12.958916066
 20
8.8957193536
 30
0.0
 10
12.9597770463
 20
8.8939930383
 30
0.0
 10
12.9614766256
 20
8.8904314395
 30
0.0
 10
12.9639113699
 20
8.8848927262
 30
0.0
 10
12.9662858636
 20
8.8790439356
 30
0.0
 10
12.9685982955
 20
8.872889713
 30
0.0
 10
12.9708467854
 20
8.8664348068
 30
0.0
 10
12.9730296435
 20
8.859684274
 30
0.0
 10
12.9751450817
 20
8.8526433778
 30
0.0
 10
12.9771914857
 20
8.845317641
 30
0.0
 10
12.9791672181
 20
8.8377127899
 30
0.0
 10
12.9817429469
 20
8.827052292
 30
0.0
 10
12.9847621923
 20
8.813067188
 30
0.0
 10
12.9880294537
 20
8.7955085393
 30
0.0
 10
12.9909812958
 20
8.7769912913
 30
0.0
 10
12.9936082838
 20
8.7575736479
 30
0.0
 10
12.9959019745
 20
8.7373165082
 30
0.0
 10
12.9978550052
 20
8.7162835455
 30
0.0
 10
12.9994611095
 20
8.6945408861
 30
0.0
 10
13.0007151138
 20
8.6721569808
 30
0.0
 10
13.0016130029
 20
8.6492022008
 30
0.0
 10
13.0021518489
 20
8.6257489735
 30
0.0
 10
13.0022696341
 20
8.6099546253
 30
0.0
 10
13.0022696341
 20
8.6019876708
 30
0.0
  0
SPLINE
  5
386
100
AcDbEntity
  8
0
100
AcDbSpline
 62
7
  6
CONTINUOUS
 70
0
 71
3
 72
49
 73
45
 74
0
 42
0.0000001
 43
0.0000001
 44
0.0000000001
 40
0.0
 40
0.0
 40
0.0
 40
0.0
 40
0.0066704173
 40
0.0132428534
 40
0.0197604443
 40
0.0262675126
 40
0.0328086194
 40
0.0394275724
 40
0.0461665439
 40
0.0530652474
 40
0.0601604775
 40
0.0674857224
 40
0.0750709668
 40
0.0829428634
 40
0.0911247083
 40
0.0996366965
 40
0.1084962988
 40
0.117718294
 40
0.1273152045
 40
0.1372975668
 40
0.1476739389
 40
0.1584513626
 40
0.1696354343
 40
0.1812303451
 40
0.2056625186
 40
0.2317631378
 40
0.2595318338
 40
0.2889571533
 40
0.3200182242
 40
0.3526862465
 40
0.3869255856
 40
0.4226945153
 40
0.4599458729
 40
0.4986277252
 40
0.5386838121
 40
0.5800538384
 40
0.6226738961
 40
0.66647683
 40
0.7113924558
 40
0.757347711
 40
0.8042672336
 40
0.8520731969
 40
0.9006851209
 40
1.0
 40
1.0
 40
1.0
 40
1.0
 10
13.0141756736
 20
8.954666633
 30
0.0
 10
13.015022085
 20
8.9548394019
 30
0.0
 10
13.0167169433
 20
8.9551159652
 30
0.0
 10
13.0192709874
 20
8.9553176291
 30
0.0
 10
13.0218120245
 20
8.9553020941
 30
0.0
 10
13.0243383087
 20
8.9550691657
 30
0.0
 10
13.026848366
 20
8.9546191076
 30
0.0
 10
13.0293407132
 20
8.9539522837
 30
0.0
 10
13.0318139476
 20
8.9530691986
 30
0.0
 10
13.0342668315
 20
8.951970647
 30
0.0
 10
13.0366981876
 20
8.9506573744
 30
0.0
 10
13.039106933
 20
8.9491302363
 30
0.0
 10
13.0414921085
 20
8.9473902031
 30
0.0
 10
13.043852707
 20
8.9454381644
 30
0.0
 10
13.0461878041
 20
8.9432751449
 30
0.0
 10
13.0484964958
 20
8.9409022172
 30
0.0
 10
13.0507777934
 20
8.9383204449
 30
0.0
 10
13.0530308038
 20
8.935531053
 30
0.0
 10
13.0552545864
 20
8.9325353006
 30
0.0
 10
13.0574481523
 20
8.9293345086
 30
0.0
 10
13.0596106133
 20
8.9259301484
 30
0.0
 10
13.0617409919
 20
8.9223237322
 30
0.0
 10
13.0638383625
 20
8.9185168651
 30
0.0
 10
13.0666385641
 20
8.9130808746
 30
0.0
 10
13.0700390091
 20
8.905784893
 30
0.0
 10
13.0739049201
 20
8.8964070444
 30
0.0
 10
13.0776175289
 20
8.8862761169
 30
0.0
 10
13.0811700852
 20
8.8754104027
 30
0.0
 10
13.0845561373
 20
8.8638293302
 30
0.0
 10
13.0877694697
 20
8.851553816
 30
0.0
 10
13.0908041496
 20
8.8386060755
 30
0.0
 10
13.0936545697
 20
8.8250096225
 30
0.0
 10
13.0963154752
 20
8.8107892046
 30
0.0
 10
13.0987819412
 20
8.7959707346
 30
0.0
 10
13.1010493886
 20
8.7805812409
 30
0.0
 10
13.1031136316
 20
8.7646488247
 30
0.0
 10
13.1049708567
 20
8.7482025971
 30
0.0
 10
13.1066176196
 20
8.7312726126
 30
0.0
 10
13.1080508617
 20
8.7138898303
 30
0.0
 10
13.1092679498
 20
8.6960860309
 30
0.0
 10
13.1102666179
 20
8.6778937964
 30
0.0
 10
13.1110450241
 20
8.6593464261
 30
0.0
 10
13.1117925192
 20
8.6340082759
 30
0.0
 10
13.1120089092
 20
8.6148496271
 30
0.0
 10
13.1120089092
 20
8.6019876771
 30
0.0
  0
SPLINE
  5
387
100
AcDbEntity
  8
0
100
AcDbSpline
 62
7
  6
CONTINUOUS
 70
0
 71
3
 72
37
 73
33
 74
0
 42
0.0000001
 43
0.0000001
 44
0.0000000001
 40
0.0
 40
0.0
 40
0.0
 40
0.0
 40
0.0131621969
 40
0.0271133023
 40
0.0420115339
 40
0.0579821843
 40
0.0751215374
 40
0.0935015007
 40
0.1131740859
 40
0.1341750431
 40
0.1565268149
 40
0.1802410574
 40
0.2053204331
 40
0.2317599479
 40
0.2595482296
 40
0.2886683875
 40
0.3190985801
 40
0.3508127193
 40
0.3837809398
 40
0.4179698398
 40
0.4533429041
 40
0.4898608186
 40
0.5274815798
 40
0.5661607622
 40
0.6058517697
 40
0.6465059026
 40
0.6880725407
 40
0.7304993368
 40
0.773732285
 40
0.8177160236
 40
0.9077050085
 40
1.0
 40
1.0
 40
1.0
 40
1.0
 10
13.0514365291
 20
9.1477538376
 30
0.0
 10
13.0535228893
 20
9.146801033
 30
0.0
 10
13.0576897878
 20
9.144541829
 30
0.0
 10
13.0636724906
 20
9.1402974993
 30
0.0
 10
13.0695399968
 20
9.1351230224
 30
0.0
 10
13.0752855964
 20
9.1290283115
 30
0.0
 10
13.0809044859
 20
9.1220223153
 30
0.0
 10
13.0863907118
 20
9.1141147481
 30
0.0
 10
13.0917379835
 20
9.1053161455
 30
0.0
 10
13.0969396537
 20
9.0956382691
 30
0.0
 10
13.1019889805
 20
9.0850941886
 30
0.0
 10
13.1068791394
 20
9.0736982658
 30
0.0
 10
13.1116033695
 20
9.0614661753
 30
0.0
 10
13.1161550961
 20
9.0484148957
 30
0.0
 10
13.120527887
 20
9.0345626311
 30
0.0
 10
13.1247155075
 20
9.0199287863
 30
0.0
 10
13.1287120152
 20
9.0045339482
 30
0.0
 10
13.1325117005
 20
8.9883998194
 30
0.0
 10
13.1361091012
 20
8.9715491806
 30
0.0
 10
13.139499084
 20
8.9540058703
 30
0.0
 10
13.1426767993
 20
8.9357947312
 30
0.0
 10
13.1456376702
 20
8.9169415647
 30
0.0
 10
13.1483774627
 20
8.8974731065
 30
0.0
 10
13.1508922625
 20
8.8774169794
 30
0.0
 10
13.1531784464
 20
8.8568016443
 30
0.0
 10
13.1552327385
 20
8.8356563672
 30
0.0
 10
13.1570522114
 20
8.814011176
 30
0.0
 10
13.1586342361
 20
8.7918968219
 30
0.0
 10
13.1599765678
 20
8.7693446749
 30
0.0
 10
13.1614552997
 20
8.7384998579
 30
0.0
 10
13.1626792459
 20
8.6990864265
 30
0.0
 10
13.162996219
 20
8.6673208592
 30
0.0
 10
13.162996219
 20
8.6512376394
 30
0.0
  0
SPLINE
  5
388
100
AcDbEntity
  8
0
100
AcDbSpline
 62
7
  6
CONTINUOUS
 70
0
 71
3
 72
47
 73
43
 74
0
 42
0.0000001
 43
0.0000001
 44
0.0000000001
 40
0.0
 40
0.0
 40
0.0
 40
0.0
 40
0.0063158953
 40
0.0126706964
 40
0.0191025413
 40
0.0256481068
 40
0.0323419887
 40
0.0392163511
 40
0.0536141938
 40
0.0611949453
 40
0.0690567093
 40
0.0772178306
 40
0.0856942536
 40
0.094499648
 40
0.1036457893
 40
0.1131425899
 40
0.1229983503
 40
0.1332200167
 40
0.1438131323
 40
0.1547821683
 40
0.1661305713
 40
0.1899729423
 40
0.2153524409
 40
0.2422683478
 40
0.2707106917
 40
0.3006617255
 40
0.3320970385
 40
0.3649863926
 40
0.3992943516
 40
0.4349809011
 40
0.4720019229
 40
0.5103095575
 40
0.5498524869
 40
0.5905762826
 40
0.6324236706
 40
0.6753347453
 40
0.7192471563
 40
0.7640962954
 40
0.8098156376
 40
0.856336788
 40
0.9035890146
 40
1.0
 40
1.0
 40
1.0
 40
1.0
 10
13.0669453912
 20
9.1496149953
 30
0.0
 10
13.0680769716
 20
9.1495365197
 30
0.0
 10
13.0703417526
 20
9.1492864361
 30
0.0
 10
13.0737135484
 20
9.1486346693
 30
0.0
 10
13.0770628126
 20
9.1477062329
 30
0.0
 10
13.0803875582
 20
9.1465018097
 30
0.0
 10
13.083686531
 20
9.1450222134
 30
0.0
 10
13.0881161326
 20
9.1426476819
 30
0.0
 10
13.092425475
 20
9.1397409475
 30
0.0
 10
13.0965957835
 20
9.1363724414
 30
0.0
 10
13.0997457885
 20
9.1335324154
 30
0.0
 10
13.1028621663
 20
9.1304240098
 30
0.0
 10
13.1059440925
 20
9.1270482961
 30
0.0
 10
13.1089903777
 20
9.1234067893
 30
0.0
 10
13.1119998422
 20
9.1195009208
 30
0.0
 10
13.1149713493
 20
9.1153323082
 30
0.0
 10
13.117903769
 20
9.1109026513
 30
0.0
 10
13.1207958948
 20
9.1062137142
 30
0.0
 10
13.1236466268
 20
9.1012674322
 30
0.0
 10
13.1264548372
 20
9.0960657881
 30
0.0
 10
13.1302026436
 20
9.0886704142
 30
0.0
 10
13.1347602229
 20
9.078788493
 30
0.0
 10
13.1399552103
 20
9.0661361238
 30
0.0
 10
13.1449542085
 20
9.052521758
 30
0.0
 10
13.149749039
 20
9.037967612
 30
0.0
 10
13.1543318349
 20
9.0224971832
 30
0.0
 10
13.15869501
 20
9.0061356724
 30
0.0
 10
13.162831314
 20
8.9889097923
 30
0.0
 10
13.1667338817
 20
8.9708477601
 30
0.0
 10
13.1703962187
 20
8.9519792127
 30
0.0
 10
13.1738122208
 20
8.9323351445
 30
0.0
 10
13.1769761858
 20
8.9119478585
 30
0.0
 10
13.1798828522
 20
8.8908509141
 30
0.0
 10
13.1825273782
 20
8.869079059
 30
0.0
 10
13.1849053532
 20
8.8466681606
 30
0.0
 10
13.1870128051
 20
8.8236551513
 30
0.0
 10
13.1888462286
 20
8.8000779799
 30
0.0
 10
13.1904025752
 20
8.7759755169
 30
0.0
 10
13.1916792363
 20
8.7513875157
 30
0.0
 10
13.1926740895
 20
8.7263545513
 30
0.0
 10
13.1936288848
 20
8.6922113419
 30
0.0
 10
13.193905848
 20
8.666408905
 30
0.0
 10
13.193905848
 20
8.6490940494
 30
0.0
  0
SPLINE
  5
389
100
AcDbEntity
  8
0
100
AcDbSpline
 62
7
  6
CONTINUOUS
 70
0
 71
3
 72
15
 73
11
 74
0
 42
0.0000001
 43
0.0000001
 44
0.0000000001
 40
0.0
 40
0.0
 40
0.0
 40
0.0
 40
0.1217336924
 40
0.2457247749
 40
0.3713202346
 40
0.4978562163
 40
0.6246623391
 40
0.7510669985
 40
0.8763996311
 40
1.0
 40
1.0
 40
1.0
 40
1.0
 10
12.7329426928
 20
9.3213293441
 30
0.0
 10
12.7338877849
 20
9.3273793878
 30
0.0
 10
12.7356669412
 20
9.339612084
 30
0.0
 10
12.7379860994
 20
9.3581467383
 30
0.0
 10
12.7399716965
 20
9.3769630513
 30
0.0
 10
12.7416124494
 20
9.3959546503
 30
0.0
 10
12.7428990785
 20
9.4150143126
 30
0.0
 10
12.7438243046
 20
9.4340343625
 30
0.0
 10
12.7443829498
 20
9.45290733
 30
0.0
 10
12.7445100248
 20
9.4654294177
 30
0.0
 10
12.7445100248
 20
9.4716467311
 30
0.0
  0
SPLINE
  5
38A
100
AcDbEntity
  8
0
100
AcDbSpline
 62
7
  6
CONTINUOUS
 70
0
 71
3
 72
23
 73
19
 74
0
 42
0.0000001
 43
0.0000001
 44
0.0000000001
 40
0.0
 40
0.0
 40
0.0
 40
0.0
 40
0.0484402488
 40
0.0999399135
 40
0.1542954003
 40
0.2112817647
 40
0.2706556403
 40
0.332157758
 40
0.3955152043
 40
0.4604435135
 40
0.5266486526
 40
0.5938289423
 40
0.6616769275
 40
0.7298812502
 40
0.7981284212
 40
0.866104847
 40
0.9334981461
 40
1.0
 40
1.0
 40
1.0
 40
1.0
 10
12.7417794518
 20
9.1878960975
 30
0.0
 10
12.7433909102
 20
9.1923587816
 30
0.0
 10
12.7465398346
 20
9.2016300912
 30
0.0
 10
12.7509341179
 20
9.2160926373
 30
0.0
 10
12.7551279902
 20
9.2314838524
 30
0.0
 10
12.7591005993
 20
9.2477284733
 30
0.0
 10
12.7628322979
 20
9.2647473025
 30
0.0
 10
12.7663046218
 20
9.2824571453
 30
0.0
 10
12.7695004145
 20
9.3007713849
 30
0.0
 10
12.772403899
 20
9.3196003864
 30
0.0
 10
12.7750007554
 20
9.3388519599
 30
0.0
 10
12.7772781884
 20
9.3584318193
 30
0.0
 10
12.7792249891
 20
9.3782440532
 30
0.0
 10
12.7808315866
 20
9.3981915984
 30
0.0
 10
12.7820901001
 20
9.4181767244
 30
0.0
 10
12.7829943651
 20
9.4381015204
 30
0.0
 10
12.7835399841
 20
9.4578682962
 30
0.0
 10
12.783663894
 20
9.4709836119
 30
0.0
 10
12.783663894
 20
9.4774974624
 30
0.0
  0
SPLINE
  5
38B
100
AcDbEntity
  8
0
100
AcDbSpline
 62
7
  6
CONTINUOUS
 70
0
 71
3
 72
50
 73
46
 74
0
 42
0.0000001
 43
0.0000001
 44
0.0000000001
 40
0.0
 40
0.0
 40
0.0
 40
0.0
 40
0.0055377868
 40
0.0110145179
 40
0.0165018141
 40
0.0220708577
 40
0.0277894712
 40
0.033719893
 40
0.0399172446
 40
0.0464290178
 40
0.0532951853
 40
0.060548646
 40
0.0682161834
 40
0.0763189809
 40
0.0848737579
 40
0.0938930839
 40
0.1033863157
 40
0.1133598419
 40
0.1238176293
 40
0.1347615722
 40
0.1461916203
 40
0.1581062858
 40
0.1705024614
 40
0.183375992
 40
0.2105310801
 40
0.2395182235
 40
0.2702688845
 40
0.3027029218
 40
0.3367301557
 40
0.3722516266
 40
0.4091606448
 40
0.4473436896
 40
0.4866812117
 40
0.527048367
 40
0.5683157067
 40
0.610349834
 40
0.6530140407
 40
0.696168929
 40
0.7396730241
 40
0.7833834058
 40
0.8271562227
 40
0.8708475928
 40
0.9143133132
 40
0.9574117114
 40
1.0
 40
1.0
 40
1.0
 40
1.0
 10
12.7863335788
 20
9.0912778674
 30
0.0
 10
12.7870743676
 20
9.091060312
 30
0.0
 10
12.7885737307
 20
9.0907102246
 30
0.0
 10
12.7908653237
 20
9.0904540893
 30
0.0
 10
12.7931757379
 20
9.0904720467
 30
0.0
 10
12.7955013621
 20
9.0907640572
 30
0.0
 10
12.7978393637
 20
9.0913289362
 30
0.0
 10
12.8001871872
 20
9.0921653516
 30
0.0
 10
12.8025427664
 20
9.0932715856
 30
0.0
 10
12.8049042889
 20
9.0946459688
 30
0.0
 10
12.8072700541
 20
9.096286838
 30
0.0
 10
12.8096384576
 20
9.0981924272
 30
0.0
 10
12.8120077295
 20
9.1003610239
 30
0.0
 10
12.8143761958
 20
9.1027906309
 30
0.0
 10
12.8167419367
 20
9.1054792344
 30
0.0
 10
12.8191031442
 20
9.1084244887
 30
0.0
 10
12.8214578238
 20
9.1116239344
 30
0.0
 10
12.8238040413
 20
9.1150748263
 30
0.0
 10
12.826139804
 20
9.1187742196
 30
0.0
 10
12.8284630843
 20
9.1227189478
 30
0.0
 10
12.8307719275
 20
9.1269055936
 30
0.0
 10
12.8330642538
 20
9.1313305596
 30
0.0
 10
12.8353381704
 20
9.1359899878
 30
0.0
 10
12.8383973356
 20
9.1426285631
 30
0.0
 10
12.8421493689
 20
9.1514918984
 30
0.0
 10
12.8464708583
 20
9.1628117509
 30
0.0
 10
12.8506727162
 20
9.1749579569
 30
0.0
 10
12.8547400941
 20
9.1878881495
 30
0.0
 10
12.8586586022
 20
9.2015573549
 30
0.0
 10
12.8624143799
 20
9.2159178397
 30
0.0
 10
12.8659941457
 20
9.2309194038
 30
0.0
 10
12.8693852476
 20
9.2465095451
 30
0.0
 10
12.8725757073
 20
9.2626336637
 30
0.0
 10
12.8755542616
 20
9.2792352597
 30
0.0
 10
12.8783104015
 20
9.2962561381
 30
0.0
 10
12.8808344082
 20
9.3136366171
 30
0.0
 10
12.8831173858
 20
9.3313157414
 30
0.0
 10
12.8851512943
 20
9.3492314976
 30
0.0
 10
12.8869289772
 20
9.367321038
 30
0.0
 10
12.8884441802
 20
9.3855208933
 30
0.0
 10
12.8896915888
 20
9.4037672309
 30
0.0
 10
12.890666809
 20
9.4219959799
 30
0.0
 10
12.8913664597
 20
9.4401433113
 30
0.0
 10
12.8917880569
 20
9.4581453676
 30
0.0
 10
12.8918834836
 20
9.4700919381
 30
0.0
 10
12.8918834836
 20
9.4760295651
 30
0.0
  0
SPLINE
  5
38C
100
AcDbEntity
  8
0
100
AcDbSpline
 62
7
  6
CONTINUOUS
 70
0
 71
3
 72
15
 73
11
 74
0
 42
0.0000001
 43
0.0000001
 44
0.0000000001
 40
0.0
 40
0.0
 40
0.0
 40
0.0
 40
0.1048231753
 40
0.2164708015
 40
0.3344695299
 40
0.4582955263
 40
0.5873813702
 40
0.7211229692
 40
0.8588829007
 40
1.0
 40
1.0
 40
1.0
 40
1.0
 10
12.7715598681
 20
9.6173274234
 30
0.0
 10
12.7725745096
 20
9.6125211712
 30
0.0
 10
12.7744736724
 20
9.6025537023
 30
0.0
 10
12.7768919067
 20
9.5870651875
 30
0.0
 10
12.7789601301
 20
9.570628261
 30
0.0
 10
12.780667129
 20
9.553328922
 30
0.0
 10
12.7820036934
 20
9.535257393
 30
0.0
 10
12.7829625711
 20
9.5165081962
 30
0.0
 10
12.7835385744
 20
9.4971794723
 30
0.0
 10
12.783663894
 20
9.4841104394
 30
0.0
 10
12.783663894
 20
9.4774974624
 30
0.0
  0
SPLINE
  5
38D
100
AcDbEntity
  8
0
100
AcDbSpline
 62
7
  6
CONTINUOUS
 70
0
 71
3
 72
40
 73
36
 74
0
 42
0.0000001
 43
0.0000001
 44
0.0000000001
 40
0.0
 40
0.0
 40
0.0
 40
0.0
 40
0.0065611329
 40
0.0130536734
 40
0.0195204839
 40
0.0260049581
 40
0.0325501311
 40
0.0391977235
 40
0.0459873903
 40
0.0529561743
 40
0.0675553197
 40
0.0832366939
 40
0.1001807593
 40
0.1185228802
 40
0.1383608353
 40
0.1597622903
 40
0.1827712868
 40
0.2074126543
 40
0.2336960713
 40
0.2616188978
 40
0.2911679162
 40
0.3223214221
 40
0.355050209
 40
0.3893184268
 40
0.4250847406
 40
0.4623025442
 40
0.5009206518
 40
0.5408838943
 40
0.5821331011
 40
0.6246057912
 40
0.6682363703
 40
0.7129561249
 40
0.8053744856
 40
0.9012646831
 40
1.0
 40
1.0
 40
1.0
 40
1.0
 10
12.8290250123
 20
9.7068679975
 30
0.0
 10
12.8295722081
 20
9.7069491135
 30
0.0
 10
12.8306679513
 20
9.7070667029
 30
0.0
 10
12.832315152
 20
9.7071052218
 30
0.0
 10
12.8339533867
 20
9.7070046327
 30
0.0
 10
12.8355815547
 20
9.7067649645
 30
0.0
 10
12.8371987351
 20
9.7063863461
 30
0.0
 10
12.8388040173
 20
9.7058691658
 30
0.0
 10
12.8403966368
 20
9.7052138027
 30
0.0
 10
12.8425348965
 20
9.7041399391
 30
0.0
 10
12.845181831
 20
9.7024305941
 30
0.0
 10
12.8482400679
 20
9.6998681093
 30
0.0
 10
12.8512273309
 20
9.6967694716
 30
0.0
 10
12.8541399962
 20
9.6931409473
 30
0.0
 10
12.8569748292
 20
9.6889887263
 30
0.0
 10
12.8597278985
 20
9.6843197256
 30
0.0
 10
12.8623949547
 20
9.6791416659
 30
0.0
 10
12.8649716812
 20
9.6734632971
 30
0.0
 10
12.8674536939
 20
9.6672943259
 30
0.0
 10
12.8698366232
 20
9.6606454226
 30
0.0
 10
12.8721162961
 20
9.6535282203
 30
0.0
 10
12.8742886073
 20
9.6459552347
 30
0.0
 10
12.87634964
 20
9.6379398558
 30
0.0
 10
12.8782957104
 20
9.629496312
 30
0.0
 10
12.8801232615
 20
9.6206396202
 30
0.0
 10
12.8818290009
 20
9.6113855691
 30
0.0
 10
12.8834098548
 20
9.6017506764
 30
0.0
 10
12.8848629234
 20
9.5917521549
 30
0.0
 10
12.8861856071
 20
9.5814078826
 30
0.0
 10
12.8873754971
 20
9.5707363698
 30
0.0
 10
12.8884304403
 20
9.5597567005
 30
0.0
 10
12.8896680557
 20
9.5445658109
 30
0.0
 10
12.8908535481
 20
9.52495219
 30
0.0
 10
12.8916999758
 20
9.5007638221
 30
0.0
 10
12.8918834836
 20
9.484354034
 30
0.0
 10
12.8918834836
 20
9.4760295651
 30
0.0
  0
SPLINE
  5
38E
100
AcDbEntity
  8
0
100
AcDbSpline
 62
7
  6
CONTINUOUS
 70
0
 71
3
 72
48
 73
44
 74
0
 42
0.0000001
 43
0.0000001
 44
0.0000000001
 40
0.0
 40
0.0
 40
0.0
 40
0.0
 40
0.0119134692
 40
0.0183070783
 40
0.0250247486
 40
0.032087876
 40
0.0395138758
 40
0.0473168195
 40
0.0555078093
 40
0.0640953923
 40
0.0730859718
 40
0.0824839638
 40
0.0922922469
 40
0.1025121203
 40
0.1131437513
 40
0.1241860487
 40
0.1356370274
 40
0.14749372
 40
0.1597523868
 40
0.1724085432
 40
0.1854569902
 40
0.2127062893
 40
0.24144814
 40
0.271621453
 40
0.3031581181
 40
0.3359838112
 40
0.3700186718
 40
0.4051778901
 40
0.4413722311
 40
0.4785085141
 40
0.5164900598
 40
0.5552171148
 40
0.5945872602
 40
0.6344958087
 40
0.6748361944
 40
0.71550036
 40
0.756379132
 40
0.7973626174
 40
0.8383405186
 40
0.8792027033
 40
0.9198390266
 40
0.9601410796
 40
1.0
 40
1.0
 40
1.0
 40
1.0
 10
12.7936660596
 20
8.9108252056
 30
0.0
 10
12.7960153487
 20
8.9118253172
 30
0.0
 10
12.7994918406
 20
8.9136901415
 30
0.0
 10
12.8039255925
 20
8.9167110933
 30
0.0
 10
12.8073347703
 20
8.9193759598
 30
0.0
 10
12.8107453354
 20
8.922383624
 30
0.0
 10
12.8141560134
 20
8.9257322689
 30
0.0
 10
12.8175643595
 20
8.9294194245
 30
0.0
 10
12.8209682111
 20
8.9334425308
 30
0.0
 10
12.8243652843
 20
8.9377987594
 30
0.0
 10
12.8277532243
 20
8.9424850927
 30
0.0
 10
12.8311297499
 20
8.9474982159
 30
0.0
 10
12.8344924259
 20
8.9528346443
 30
0.0
 10
12.8378389686
 20
8.9584905805
 30
0.0
 10
12.8411669273
 20
8.9644620604
 30
0.0
 10
12.8444740087
 20
8.9707448256
 30
0.0
 10
12.8477577968
 20
8.9773344346
 30
0.0
 10
12.8510159839
 20
8.9842261875
 30
0.0
 10
12.8542462136
 20
8.9914151786
 30
0.0
 10
12.8574461946
 20
8.9988962863
 30
0.0
 10
12.8617314531
 20
9.0094058021
 30
0.0
 10
12.8669840257
 20
9.0232414779
 30
0.0
 10
12.8730431935
 20
9.0406882952
 30
0.0
 10
12.8789286118
 20
9.0591611326
 30
0.0
 10
12.8846232954
 20
9.0786071498
 30
0.0
 10
12.8901107933
 20
9.0989708655
 30
0.0
 10
12.895375261
 20
9.1201940391
 30
0.0
 10
12.900401502
 20
9.1422159377
 30
0.0
 10
12.905175014
 20
9.1649734972
 30
0.0
 10
12.9096820299
 20
9.1884015177
 30
0.0
 10
12.9139095568
 20
9.2124328545
 30
0.0
 10
12.9178454127
 20
9.236998616
 30
0.0
 10
12.9214782606
 20
9.2620283643
 30
0.0
 10
12.9247976411
 20
9.28745032
 30
0.0
 10
12.9277940027
 20
9.3131915708
 30
0.0
 10
12.9304587268
 20
9.3391782822
 30
0.0
 10
12.9327841546
 20
9.365335914
 30
0.0
 10
12.9347636026
 20
9.3915894252
 30
0.0
 10
12.9363913973
 20
9.4178635236
 30
0.0
 10
12.9376628568
 20
9.4440827859
 30
0.0
 10
12.9385743718
 20
9.4701721202
 30
0.0
 10
12.9391233064
 20
9.4960564964
 30
0.0
 10
12.9392473298
 20
9.5132369211
 30
0.0
 10
12.9392473298
 20
9.52177953
 30
0.0
  0
SPLINE
  5
38F
100
AcDbEntity
  8
0
100
AcDbSpline
 62
7
  6
CONTINUOUS
 70
0
 71
3
 72
39
 73
35
 74
0
 42
0.0000001
 43
0.0000001
 44
0.0000000001
 40
0.0
 40
0.0
 40
0.0
 40
0.0
 40
0.0314026163
 40
0.0630094802
 40
0.0948071156
 40
0.1267734443
 40
0.1588809719
 40
0.1910970226
 40
0.2233851133
 40
0.2557062446
 40
0.2880202668
 40
0.3202872758
 40
0.3524690062
 40
0.3845301827
 40
0.4164397934
 40
0.4481722512
 40
0.4797084083
 40
0.5110363787
 40
0.5421521198
 40
0.5730597435
 40
0.6037715204
 40
0.6343075558
 40
0.6646951112
 40
0.69496759
 40
0.7251632189
 40
0.7553234785
 40
0.7854913552
 40
0.8157095102
 40
0.8460184684
 40
0.8764549241
 40
0.9070502294
 40
0.9378293436
 40
0.9688091107
 40
1.0
 40
1.0
 40
1.0
 40
1.0
 10
11.771166468
 20
8.8945621756
 30
0.0
 10
11.766854732
 20
8.8948611955
 30
0.0
 10
11.7582269577
 20
8.8958860911
 30
0.0
 10
11.7454591667
 20
8.8986697159
 30
0.0
 10
11.7329388577
 20
8.9026778004
 30
0.0
 10
11.7207878211
 20
8.9078715061
 30
0.0
 10
11.7091222686
 20
8.9142006454
 30
0.0
 10
11.6980542308
 20
8.9216042502
 30
0.0
 10
11.6876898386
 20
8.9300110788
 30
0.0
 10
11.6781285355
 20
8.9393403539
 30
0.0
 10
11.669462088
 20
8.9495025105
 30
0.0
 10
11.6617737459
 20
8.9604000426
 30
0.0
 10
11.6551374032
 20
8.9719283875
 30
0.0
 10
11.6496169319
 20
8.9839769418
 30
0.0
 10
11.6452655837
 20
8.9964301001
 30
0.0
 10
11.6421254833
 20
9.0091683341
 30
0.0
 10
11.6402271962
 20
9.0220693028
 30
0.0
 10
11.6395893858
 20
9.0350090006
 30
0.0
 10
11.6402186638
 20
9.0478629345
 30
0.0
 10
11.6421094795
 20
9.0605072933
 30
0.0
 10
11.6452441401
 20
9.0728201217
 30
0.0
 10
11.6495928732
 20
9.084682511
 30
0.0
 10
11.6551140964
 20
9.0959797697
 30
0.0
 10
11.661754797
 20
9.1066025559
 30
0.0
 10
11.6694510101
 20
9.1164479818
 30
0.0
 10
11.6781284192
 20
9.1254206692
 30
0.0
 10
11.6877030573
 20
9.1334337702
 30
0.0
 10
11.6980822118
 20
9.1404098158
 30
0.0
 10
11.7091653514
 20
9.1462814977
 30
0.0
 10
11.7208452064
 20
9.1509923019
 30
0.0
 10
11.733008675
 20
9.1544971282
 30
0.0
 10
11.7455385781
 20
9.1567625251
 30
0.0
 10
11.7583124703
 20
9.1577673751
 30
0.0
 10
11.7668838032
 20
9.1575910197
 30
0.0
 10
11.771166468
 20
9.1572940159
 30
0.0
  0
SPLINE
  5
390
100
AcDbEntity
  8
0
100
AcDbSpline
 62
7
  6
CONTINUOUS
 70
0
 71
3
 72
35
 73
31
 74
0
 42
0.0000001
 43
0.0000001
 44
0.0000000001
 40
0.0
 40
0.0
 40
0.0
 40
0.0
 40
0.0136138931
 40
0.0281140749
 40
0.0436216577
 40
0.0602309694
 40
0.0780133423
 40
0.0970212663
 40
0.1172917927
 40
0.1388491393
 40
0.1617072664
 40
0.1858713618
 40
0.2113393134
 40
0.2381029527
 40
0.2661485835
 40
0.295457984
 40
0.326008813
 40
0.3577749554
 40
0.3907271674
 40
0.4248330754
 40
0.4600576208
 40
0.4963633203
 40
0.533710239
 40
0.5720564473
 40
0.6113579861
 40
0.6515690424
 40
0.7345268698
 40
0.8205339171
 40
0.9091700848
 40
1.0
 40
1.0
 40
1.0
 40
1.0
 10
12.8611990051
 20
9.8845793806
 30
0.0
 10
12.8626760894
 20
9.8836919098
 30
0.0
 10
12.8656167466
 20
9.8816722318
 30
0.0
 10
12.8698219825
 20
9.878081548
 30
0.0
 10
12.8739444957
 20
9.8738496427
 30
0.0
 10
12.8779796225
 20
9.8689830925
 30
0.0
 10
12.881923751
 20
9.8634882053
 30
0.0
 10
12.8857725315
 20
9.8573720061
 30
0.0
 10
12.8895214807
 20
9.8506422131
 30
0.0
 10
12.8931660667
 20
9.8433074401
 30
0.0
 10
12.8967016199
 20
9.8353771089
 30
0.0
 10
12.9001235709
 20
9.8268615368
 30
0.0
 10
12.9034274343
 20
9.8177718818
 30
0.0
 10
12.9066087608
 20
9.8081201101
 30
0.0
 10
12.9096633373
 20
9.7979190123
 30
0.0
 10
12.9125870304
 20
9.7871821372
 30
0.0
 10
12.9153758812
 20
9.7759237874
 30
0.0
 10
12.9180261588
 20
9.7641589955
 30
0.0
 10
12.9205342336
 20
9.751903486
 30
0.0
 10
12.9228967347
 20
9.7391736652
 30
0.0
 10
12.9251104677
 20
9.7259865863
 30
0.0
 10
12.9271724013
 20
9.7123599263
 30
0.0
 10
12.9290797834
 20
9.6983119621
 30
0.0
 10
12.9308299965
 20
9.6838615493
 30
0.0
 10
12.9324206982
 20
9.6690280638
 30
0.0
 10
12.9343459849
 20
9.6485530699
 30
0.0
 10
12.9363256718
 20
9.6221477459
 30
0.0
 10
12.9380131296
 20
9.5895827507
 30
0.0
 10
12.9390268328
 20
9.5559931753
 30
0.0
 10
12.9392473298
 20
9.5332764005
 30
0.0
 10
12.9392473298
 20
9.52177953
 30
0.0
  0
SPLINE
  5
391
100
AcDbEntity
  8
0
100
AcDbSpline
 62
7
  6
CONTINUOUS
 70
0
 71
3
 72
40
 73
36
 74
0
 42
0.0000001
 43
0.0000001
 44
0.0000000001
 40
0.0
 40
0.0
 40
0.0
 40
0.0
 40
0.0063160317
 40
0.0126709803
 40
0.0191029757
 40
0.0256486833
 40
0.0323427436
 40
0.0392172655
 40
0.0536154772
 40
0.0690526586
 40
0.0856860581
 40
0.1036344402
 40
0.1229845836
 40
0.1437975252
 40
0.1661136309
 40
0.1899565788
 40
0.215336668
 40
0.2422532113
 40
0.2706962166
 40
0.3006479298
 40
0.3320839776
 40
0.3649740847
 40
0.3992827974
 40
0.4349701487
 40
0.4719920266
 40
0.5103004985
 40
0.5498442818
 40
0.5905689983
 40
0.6324173162
 40
0.6753293134
 40
0.7192426811
 40
0.7640927959
 40
0.8098131949
 40
0.9035868196
 40
1.0
 40
1.0
 40
1.0
 40
1.0
 10
12.8768569302
 20
9.8874571275
 30
0.0
 10
12.8776885007
 20
9.8873994542
 30
0.0
 10
12.8793528365
 20
9.887215691
 30
0.0
 10
12.881830681
 20
9.8867366688
 30
0.0
 10
12.884291966
 20
9.8860543598
 30
0.0
 10
12.8867352594
 20
9.8851692724
 30
0.0
 10
12.8891595517
 20
9.8840819022
 30
0.0
 10
12.8924148829
 20
9.8823368576
 30
0.0
 10
12.8964430475
 20
9.8796196136
 30
0.0
 10
12.9011022859
 20
9.8756142814
 30
0.0
 10
12.9056577117
 20
9.8708233305
 30
0.0
 10
12.9101040508
 20
9.8652556399
 30
0.0
 10
12.9144365205
 20
9.858919941
 30
0.0
 10
12.9186494047
 20
9.8518259813
 30
0.0
 10
12.9227367218
 20
9.8439846551
 30
0.0
 10
12.9266923268
 20
9.8354081941
 30
0.0
 10
12.9305100183
 20
9.8261101256
 30
0.0
 10
12.9341836456
 20
9.8161052757
 30
0.0
 10
12.9377072458
 20
9.8054097583
 30
0.0
 10
12.9410750308
 20
9.7940409034
 30
0.0
 10
12.9442814119
 20
9.7820172078
 30
0.0
 10
12.9473210742
 20
9.7693583136
 30
0.0
 10
12.9501889782
 20
9.7560849566
 30
0.0
 10
12.9528803374
 20
9.7422189085
 30
0.0
 10
12.95539066
 20
9.7277829478
 30
0.0
 10
12.9577157818
 20
9.7128008214
 30
0.0
 10
12.9598518243
 20
9.6972971867
 30
0.0
 10
12.9617952112
 20
9.6812975725
 30
0.0
 10
12.9635427196
 20
9.6648283425
 30
0.0
 10
12.9650914417
 20
9.6479166407
 30
0.0
 10
12.966438773
 20
9.6305903552
 30
0.0
 10
12.9675825041
 20
9.6128780221
 30
0.0
 10
12.9688439669
 20
9.5885810944
 30
0.0
 10
12.9698873811
 20
9.5574613129
 30
0.0
 10
12.9701569588
 20
9.5323602188
 30
0.0
 10
12.9701569588
 20
9.51963594
 30
0.0
  0
SPLINE
  5
392
100
AcDbEntity
  8
0
100
AcDbSpline
 62
7
  6
CONTINUOUS
 70
0
 71
3
 72
34
 73
30
 74
0
 42
0.0000001
 43
0.0000001
 44
0.0000000001
 40
0.0
 40
0.0
 40
0.0
 40
0.0
 40
0.0649702052
 40
0.0973588786
 40
0.1296574782
 40
0.1618568564
 40
0.1939498223
 40
0.2259307902
 40
0.2577952822
 40
0.3211389494
 40
0.3839932356
 40
0.4152505413
 40
0.4463889812
 40
0.5082968124
 40
0.5697882594
 40
0.6004171615
 40
0.6309736051
 40
0.6614729175
 40
0.6919332915
 40
0.7223756932
 40
0.7528241074
 40
0.7833053737
 40
0.8138485942
 40
0.8444841823
 40
0.8752424348
 40
0.9061518312
 40
0.9372368014
 40
0.9685159835
 40
1.0
 40
1.0
 40
1.0
 40
1.0
 10
9.2383492203
 20
7.482612799
 30
0.0
 10
9.2360135283
 20
7.4860165982
 30
0.0
 10
9.2328364375
 20
7.4913491144
 30
0.0
 10
9.2292787303
 20
7.4987829248
 30
0.0
 10
9.2269524664
 20
7.504486705
 30
0.0
 10
9.2249669176
 20
7.5102973671
 30
0.0
 10
9.2233212234
 20
7.516192287
 30
0.0
 10
9.2220147071
 20
7.5221498256
 30
0.0
 10
9.2207266564
 20
7.5301314591
 30
0.0
 10
9.2199552192
 20
7.5401669665
 30
0.0
 10
9.220306761
 20
7.550187888
 30
0.0
 10
9.2212661998
 20
7.5580920091
 30
0.0
 10
9.2226715385
 20
7.565867939
 30
0.0
 10
9.2252718714
 20
7.5753624688
 30
0.0
 10
9.2290199102
 20
7.5844345574
 30
0.0
 10
9.2326995348
 20
7.5913118654
 30
0.0
 10
9.235796316
 20
7.5962518794
 30
0.0
 10
9.239230927
 20
7.6009502212
 30
0.0
 10
9.2429995766
 20
7.605376207
 30
0.0
 10
9.2470959146
 20
7.6094968342
 30
0.0
 10
9.2515104587
 20
7.6132773695
 30
0.0
 10
9.256229761
 20
7.6166816617
 30
0.0
 10
9.2612355765
 20
7.6196728703
 30
0.0
 10
9.2665040657
 20
7.6222144835
 30
0.0
 10
9.2720052072
 20
7.6242717202
 30
0.0
 10
9.2777024548
 20
7.6258131986
 30
0.0
 10
9.2835532619
 20
7.6268128189
 30
0.0
 10
9.289508786
 20
7.6272516047
 30
0.0
 10
9.2935028169
 20
7.6271634918
 30
0.0
 10
9.2954984719
 20
7.6270250927
 30
0.0
  0
SPLINE
  5
393
100
AcDbEntity
  8
0
100
AcDbSpline
 62
7
  6
CONTINUOUS
 70
0
 71
3
 72
42
 73
38
 74
0
 42
0.0000001
 43
0.0000001
 44
0.0000000001
 40
0.0
 40
0.0
 40
0.0
 40
0.0
 40
0.0299419634
 40
0.0449235299
 40
0.0599142017
 40
0.0899287029
 40
0.1200139772
 40
0.1350926626
 40
0.1501967046
 40
0.1804840506
 40
0.2108978877
 40
0.2414513551
 40
0.2721543675
 40
0.3030134354
 40
0.3340315696
 40
0.3652082675
 40
0.3965395775
 40
0.4280182343
 40
0.4596338596
 40
0.4913732188
 40
0.5232205284
 40
0.5551578047
 40
0.5871652463
 40
0.6192216448
 40
0.6513048151
 40
0.6833920402
 40
0.7154605222
 40
0.747487836
 40
0.7794523759
 40
0.8113337934
 40
0.8431134117
 40
0.8747746318
 40
0.9063032512
 40
0.9376879208
 40
0.9533258
 40
0.9689252634
 40
1.0
 40
1.0
 40
1.0
 40
1.0
 10
9.3278722717
 20
9.8926243714
 30
0.0
 10
9.3242391326
 20
9.8891150498
 30
0.0
 10
9.3185752651
 20
9.8840637166
 30
0.0
 10
9.3106431463
 20
9.8777961123
 30
0.0
 10
9.3024584294
 20
9.8718403935
 30
0.0
 10
9.2917787196
 20
9.8650012988
 30
0.0
 10
9.2805797559
 20
9.8590190703
 30
0.0
 10
9.2713435131
 20
9.8547633069
 30
0.0
 10
9.2619164766
 20
9.8508588634
 30
0.0
 10
9.2498220164
 20
9.8466604832
 30
0.0
 10
9.2349174273
 20
9.842747698
 30
0.0
 10
9.2196876178
 20
9.839975791
 30
0.0
 10
9.2042169893
 20
9.8383600543
 30
0.0
 10
9.1885905251
 20
9.8379091106
 30
0.0
 10
9.1728942066
 20
9.8386252549
 30
0.0
 10
9.1572143043
 20
9.8405043503
 30
0.0
 10
9.1416369723
 20
9.8435358875
 30
0.0
 10
9.1262477632
 20
9.8477030416
 30
0.0
 10
9.1111311692
 20
9.8529827728
 30
0.0
 10
9.0963701634
 20
9.8593459557
 30
0.0
 10
9.0820457515
 20
9.8667575414
 30
0.0
 10
9.0682365328
 20
9.8751767513
 30
0.0
 10
9.0550182753
 20
9.8845573002
 30
0.0
 10
9.0424635047
 20
9.8948476493
 30
0.0
 10
9.0306411117
 20
9.9059912875
 30
0.0
 10
9.0196159777
 20
9.9179270385
 30
0.0
 10
9.0094486229
 20
9.9305893934
 30
0.0
 10
9.0001948772
 20
9.9439088678
 30
0.0
 10
8.9919055763
 20
9.9578123743
 30
0.0
 10
8.984626285
 20
9.9722236353
 30
0.0
 10
8.9783970497
 20
9.9870635365
 30
0.0
 10
8.9732521666
 20
10.0022507758
 30
0.0
 10
8.9692200576
 20
10.0177014892
 30
0.0
 10
8.9668027187
 20
10.0307435665
 30
0.0
 10
8.9654466633
 20
10.0412227174
 30
0.0
 10
8.9644788798
 20
10.0516918406
 30
0.0
 10
8.9641858443
 20
10.0595697853
 30
0.0
 10
8.9641858443
 20
10.0648121266
 30
0.0
  0
SPLINE
  5
394
100
AcDbEntity
  8
0
100
AcDbSpline
 62
7
  6
CONTINUOUS
 70
0
 71
3
 72
17
 73
13
 74
0
 42
0.0000001
 43
0.0000001
 44
0.0000000001
 40
0.0
 40
0.0
 40
0.0
 40
0.0
 40
0.1261728123
 40
0.2521689974
 40
0.3779035912
 40
0.4406564972
 40
0.5033132022
 40
0.6282793035
 40
0.7527507902
 40
0.8147909668
 40
0.8766875853
 40
1.0
 40
1.0
 40
1.0
 40
1.0
 10
11.820156519
 20
7.9093875311
 30
0.0
 10
11.8231956241
 20
7.9057367324
 30
0.0
 10
11.8290297799
 20
7.8982364361
 30
0.0
 10
11.8369919426
 20
7.8864331411
 30
0.0
 10
11.8429255613
 20
7.8761752359
 30
0.0
 10
11.8472215132
 20
7.8677504112
 30
0.0
 10
11.8512030958
 20
7.8592044132
 30
0.0
 10
11.8555892983
 20
7.8482921965
 30
0.0
 10
11.85915959
 20
7.8371103974
 30
0.0
 10
11.8615034654
 20
7.8280546135
 30
0.0
 10
11.8634975466
 20
7.8189606047
 30
0.0
 10
11.8646055958
 20
7.8120674646
 30
0.0
 10
11.8651666697
 20
7.8074589737
 30
0.0
  0
SPLINE
  5
395
100
AcDbEntity
  8
0
100
AcDbSpline
 62
7
  6
CONTINUOUS
 70
0
 71
3
 72
42
 73
38
 74
0
 42
0.0000001
 43
0.0000001
 44
0.0000000001
 40
0.0
 40
0.0
 40
0.0
 40
0.0
 40
0.0299419634
 40
0.0449235299
 40
0.0599142017
 40
0.0899287029
 40
0.1200139772
 40
0.1350926626
 40
0.1501967046
 40
0.1804840506
 40
0.2108978877
 40
0.2414513551
 40
0.2721543675
 40
0.3030134354
 40
0.3340315696
 40
0.3652082675
 40
0.3965395775
 40
0.4280182343
 40
0.4596338596
 40
0.4913732188
 40
0.5232205284
 40
0.5551578047
 40
0.5871652463
 40
0.6192216448
 40
0.6513048151
 40
0.6833920402
 40
0.7154605222
 40
0.747487836
 40
0.7794523759
 40
0.8113337934
 40
0.8431134117
 40
0.8747746318
 40
0.9063032512
 40
0.9376879208
 40
0.9533258
 40
0.9689252634
 40
1.0
 40
1.0
 40
1.0
 40
1.0
 10
12.3454247731
 20
9.6833563946
 30
0.0
 10
12.3417916339
 20
9.679847073
 30
0.0
 10
12.3361277665
 20
9.6747957399
 30
0.0
 10
12.3281956477
 20
9.6685281356
 30
0.0
 10
12.3200109307
 20
9.6625724168
 30
0.0
 10
12.309331221
 20
9.6557333221
 30
0.0
 10
12.2981322572
 20
9.6497510935
 30
0.0
 10
12.2888960144
 20
9.6454953302
 30
0.0
 10
12.279468978
 20
9.6415908867
 30
0.0
 10
12.2673745177
 20
9.6373925064
 30
0.0
 10
12.2524699286
 20
9.6334797213
 30
0.0
 10
12.2372401192
 20
9.6307078142
 30
0.0
 10
12.2217694906
 20
9.6290920775
 30
0.0
 10
12.2061430264
 20
9.6286411338
 30
0.0
 10
12.190446708
 20
9.6293572781
 30
0.0
 10
12.1747668057
 20
9.6312363736
 30
0.0
 10
12.1591894736
 20
9.6342679107
 30
0.0
 10
12.1438002645
 20
9.6384350649
 30
0.0
 10
12.1286836705
 20
9.6437147961
 30
0.0
 10
12.1139226648
 20
9.6500779789
 30
0.0
 10
12.0995982528
 20
9.6574895647
 30
0.0
 10
12.0857890341
 20
9.6659087746
 30
0.0
 10
12.0725707766
 20
9.6752893235
 30
0.0
 10
12.0600160061
 20
9.6855796726
 30
0.0
 10
12.048193613
 20
9.6967233108
 30
0.0
 10
12.037168479
 20
9.7086590617
 30
0.0
 10
12.0270011242
 20
9.7213214167
 30
0.0
 10
12.0177473785
 20
9.7346408911
 30
0.0
 10
12.0094580777
 20
9.7485443975
 30
0.0
 10
12.0021787864
 20
9.7629556585
 30
0.0
 10
11.995949551
 20
9.7777955597
 30
0.0
 10
11.9908046679
 20
9.7929827991
 30
0.0
 10
11.986772559
 20
9.8084335125
 30
0.0
 10
11.98435522
 20
9.8214755897
 30
0.0
 10
11.9829991646
 20
9.8319547406
 30
0.0
 10
11.9820313812
 20
9.8424238638
 30
0.0
 10
11.9817383457
 20
9.8503018086
 30
0.0
 10
11.9817383457
 20
9.8555441498
 30
0.0
  0
SPLINE
  5
396
100
AcDbEntity
  8
0
100
AcDbSpline
 62
7
  6
CONTINUOUS
 70
0
 71
3
 72
39
 73
35
 74
0
 42
0.0000001
 43
0.0000001
 44
0.0000000001
 40
0.0
 40
0.0
 40
0.0
 40
0.0
 40
0.0314026163
 40
0.0630094802
 40
0.0948071156
 40
0.1267734443
 40
0.1588809719
 40
0.1910970226
 40
0.2233851133
 40
0.2557062446
 40
0.2880202668
 40
0.3202872758
 40
0.3524690062
 40
0.3845301827
 40
0.4164397934
 40
0.4481722512
 40
0.4797084083
 40
0.5110363787
 40
0.5421521198
 40
0.5730597435
 40
0.6037715204
 40
0.6343075558
 40
0.6646951112
 40
0.69496759
 40
0.7251632189
 40
0.7553234785
 40
0.7854913552
 40
0.8157095102
 40
0.8460184684
 40
0.8764549241
 40
0.9070502294
 40
0.9378293436
 40
0.9688091107
 40
1.0
 40
1.0
 40
1.0
 40
1.0
 10
11.771166468
 20
7.1433385838
 30
0.0
 10
11.766854732
 20
7.1436376037
 30
0.0
 10
11.7582269577
 20
7.1446624993
 30
0.0
 10
11.7454591667
 20
7.1474461241
 30
0.0
 10
11.7329388577
 20
7.1514542086
 30
0.0
 10
11.7207878211
 20
7.1566479143
 30
0.0
 10
11.7091222686
 20
7.1629770536
 30
0.0
 10
11.6980542308
 20
7.1703806584
 30
0.0
 10
11.6876898386
 20
7.178787487
 30
0.0
 10
11.6781285355
 20
7.1881167621
 30
0.0
 10
11.669462088
 20
7.1982789187
 30
0.0
 10
11.6617737459
 20
7.2091764508
 30
0.0
 10
11.6551374032
 20
7.2207047957
 30
0.0
 10
11.6496169319
 20
7.23275335
 30
0.0
 10
11.6452655837
 20
7.2452065082
 30
0.0
 10
11.6421254833
 20
7.2579447423
 30
0.0
 10
11.6402271962
 20
7.270845711
 30
0.0
 10
11.6395893858
 20
7.2837854087
 30
0.0
 10
11.6402186638
 20
7.2966393427
 30
0.0
 10
11.6421094795
 20
7.3092837014
 30
0.0
 10
11.6452441401
 20
7.3215965298
 30
0.0
 10
11.6495928732
 20
7.3334589192
 30
0.0
 10
11.6551140964
 20
7.3447561779
 30
0.0
 10
11.661754797
 20
7.355378964
 30
0.0
 10
11.6694510101
 20
7.36522439
 30
0.0
 10
11.6781284192
 20
7.3741970773
 30
0.0
 10
11.6877030573
 20
7.3822101784
 30
0.0
 10
11.6980822118
 20
7.389186224
 30
0.0
 10
11.7091653514
 20
7.3950579058
 30
0.0
 10
11.7208452064
 20
7.3997687101
 30
0.0
 10
11.733008675
 20
7.4032735364
 30
0.0
 10
11.7455385781
 20
7.4055389333
 30
0.0
 10
11.7583124703
 20
7.4065437833
 30
0.0
 10
11.7668838032
 20
7.4063674279
 30
0.0
 10
11.771166468
 20
7.4060704241
 30
0.0
  0
SPLINE
  5
397
100
AcDbEntity
  8
0
100
AcDbSpline
 62
7
  6
CONTINUOUS
 70
0
 71
3
 72
42
 73
38
 74
0
 42
0.0000001
 43
0.0000001
 44
0.0000000001
 40
0.0
 40
0.0
 40
0.0
 40
0.0
 40
0.0299419634
 40
0.0449235299
 40
0.0599142017
 40
0.0899287029
 40
0.1200139772
 40
0.1350926626
 40
0.1501967046
 40
0.1804840506
 40
0.2108978877
 40
0.2414513551
 40
0.2721543675
 40
0.3030134354
 40
0.3340315696
 40
0.3652082675
 40
0.3965395775
 40
0.4280182343
 40
0.4596338596
 40
0.4913732188
 40
0.5232205284
 40
0.5551578047
 40
0.5871652463
 40
0.6192216448
 40
0.6513048151
 40
0.6833920402
 40
0.7154605222
 40
0.747487836
 40
0.7794523759
 40
0.8113337934
 40
0.8431134117
 40
0.8747746318
 40
0.9063032512
 40
0.9376879208
 40
0.9533258
 40
0.9689252634
 40
1.0
 40
1.0
 40
1.0
 40
1.0
 10
9.9914633599
 20
7.7640678643
 30
0.0
 10
9.9878302208
 20
7.7605585428
 30
0.0
 10
9.9821663533
 20
7.7555072096
 30
0.0
 10
9.9742342345
 20
7.7492396053
 30
0.0
 10
9.9660495176
 20
7.7432838865
 30
0.0
 10
9.9553698078
 20
7.7364447918
 30
0.0
 10
9.9441708441
 20
7.7304625633
 30
0.0
 10
9.9349346013
 20
7.7262067999
 30
0.0
 10
9.9255075648
 20
7.7223023564
 30
0.0
 10
9.9134131045
 20
7.7181039761
 30
0.0
 10
9.8985085155
 20
7.714191191
 30
0.0
 10
9.883278706
 20
7.711419284
 30
0.0
 10
9.8678080775
 20
7.7098035473
 30
0.0
 10
9.8521816133
 20
7.7093526036
 30
0.0
 10
9.8364852948
 20
7.7100687479
 30
0.0
 10
9.8208053925
 20
7.7119478433
 30
0.0
 10
9.8052280605
 20
7.7149793805
 30
0.0
 10
9.7898388514
 20
7.7191465346
 30
0.0
 10
9.7747222574
 20
7.7244262658
 30
0.0
 10
9.7599612516
 20
7.7307894487
 30
0.0
 10
9.7456368397
 20
7.7382010344
 30
0.0
 10
9.731827621
 20
7.7466202443
 30
0.0
 10
9.7186093635
 20
7.7560007932
 30
0.0
 10
9.7060545929
 20
7.7662911423
 30
0.0
 10
9.6942321999
 20
7.7774347805
 30
0.0
 10
9.6832070659
 20
7.7893705315
 30
0.0
 10
9.673039711
 20
7.8020328864
 30
0.0
 10
9.6637859654
 20
7.8153523608
 30
0.0
 10
9.6554966645
 20
7.8292558673
 30
0.0
 10
9.6482173732
 20
7.8436671283
 30
0.0
 10
9.6419881379
 20
7.8585070295
 30
0.0
 10
9.6368432548
 20
7.8736942688
 30
0.0
 10
9.6328111458
 20
7.8891449822
 30
0.0
 10
9.6303938069
 20
7.9021870594
 30
0.0
 10
9.6290377515
 20
7.9126662104
 30
0.0
 10
9.628069968
 20
7.9231353336
 30
0.0
 10
9.6277769325
 20
7.9310132783
 30
0.0
 10
9.6277769325
 20
7.9362556196
 30
0.0
  0
SPLINE
  5
398
100
AcDbEntity
  8
0
100
AcDbSpline
 62
7
  6
CONTINUOUS
 70
0
 71
3
 72
42
 73
38
 74
0
 42
0.0000001
 43
0.0000001
 44
0.0000000001
 40
0.0
 40
0.0
 40
0.0
 40
0.0
 40
0.0299419634
 40
0.0449235299
 40
0.0599142017
 40
0.0899287029
 40
0.1200139772
 40
0.1350926626
 40
0.1501967046
 40
0.1804840506
 40
0.2108978877
 40
0.2414513551
 40
0.2721543675
 40
0.3030134354
 40
0.3340315696
 40
0.3652082675
 40
0.3965395775
 40
0.4280182343
 40
0.4596338596
 40
0.4913732188
 40
0.5232205284
 40
0.5551578047
 40
0.5871652463
 40
0.6192216448
 40
0.6513048151
 40
0.6833920402
 40
0.7154605222
 40
0.747487836
 40
0.7794523759
 40
0.8113337934
 40
0.8431134117
 40
0.8747746318
 40
0.9063032512
 40
0.9376879208
 40
0.9533258
 40
0.9689252634
 40
1.0
 40
1.0
 40
1.0
 40
1.0
 10
12.3454247731
 20
6.1828411818
 30
0.0
 10
12.3417916339
 20
6.1793318602
 30
0.0
 10
12.3361277665
 20
6.1742805271
 30
0.0
 10
12.3281956477
 20
6.1680129228
 30
0.0
 10
12.3200109307
 20
6.1620572039
 30
0.0
 10
12.309331221
 20
6.1552181093
 30
0.0
 10
12.2981322572
 20
6.1492358807
 30
0.0
 10
12.2888960144
 20
6.1449801174
 30
0.0
 10
12.279468978
 20
6.1410756739
 30
0.0
 10
12.2673745177
 20
6.1368772936
 30
0.0
 10
12.2524699286
 20
6.1329645085
 30
0.0
 10
12.2372401192
 20
6.1301926014
 30
0.0
 10
12.2217694906
 20
6.1285768647
 30
0.0
 10
12.2061430264
 20
6.128125921
 30
0.0
 10
12.190446708
 20
6.1288420653
 30
0.0
 10
12.1747668057
 20
6.1307211608
 30
0.0
 10
12.1591894736
 20
6.1337526979
 30
0.0
 10
12.1438002645
 20
6.137919852
 30
0.0
 10
12.1286836705
 20
6.1431995833
 30
0.0
 10
12.1139226648
 20
6.1495627661
 30
0.0
 10
12.0995982528
 20
6.1569743519
 30
0.0
 10
12.0857890341
 20
6.1653935618
 30
0.0
 10
12.0725707766
 20
6.1747741107
 30
0.0
 10
12.0600160061
 20
6.1850644598
 30
0.0
 10
12.048193613
 20
6.196208098
 30
0.0
 10
12.037168479
 20
6.2081438489
 30
0.0
 10
12.0270011242
 20
6.2208062038
 30
0.0
 10
12.0177473785
 20
6.2341256782
 30
0.0
 10
12.0094580777
 20
6.2480291847
 30
0.0
 10
12.0021787864
 20
6.2624404457
 30
0.0
 10
11.995949551
 20
6.2772803469
 30
0.0
 10
11.9908046679
 20
6.2924675863
 30
0.0
 10
11.986772559
 20
6.3079182997
 30
0.0
 10
11.98435522
 20
6.3209603769
 30
0.0
 10
11.9829991646
 20
6.3314395278
 30
0.0
 10
11.9820313812
 20
6.341908651
 30
0.0
 10
11.9817383457
 20
6.3497865957
 30
0.0
 10
11.9817383457
 20
6.355028937
 30
0.0
  0
SPLINE
  5
399
100
AcDbEntity
  8
0
100
AcDbSpline
 62
7
  6
CONTINUOUS
 70
0
 71
3
 72
39
 73
35
 74
0
 42
0.0000001
 43
0.0000001
 44
0.0000000001
 40
0.0
 40
0.0
 40
0.0
 40
0.0
 40
0.0314026163
 40
0.0630094802
 40
0.0948071156
 40
0.1267734443
 40
0.1588809719
 40
0.1910970226
 40
0.2233851133
 40
0.2557062446
 40
0.2880202668
 40
0.3202872758
 40
0.3524690062
 40
0.3845301827
 40
0.4164397934
 40
0.4481722512
 40
0.4797084083
 40
0.5110363787
 40
0.5421521198
 40
0.5730597435
 40
0.6037715204
 40
0.6343075558
 40
0.6646951112
 40
0.69496759
 40
0.7251632189
 40
0.7553234785
 40
0.7854913552
 40
0.8157095102
 40
0.8460184684
 40
0.8764549241
 40
0.9070502294
 40
0.9378293436
 40
0.9688091107
 40
1.0
 40
1.0
 40
1.0
 40
1.0
 10
9.7185739656
 20
7.5484181976
 30
0.0
 10
9.7228857016
 20
7.5481191777
 30
0.0
 10
9.731513476
 20
7.547094282
 30
0.0
 10
9.7442812669
 20
7.5443106572
 30
0.0
 10
9.7568015759
 20
7.5403025727
 30
0.0
 10
9.7689526126
 20
7.535108867
 30
0.0
 10
9.7806181651
 20
7.5287797277
 30
0.0
 10
9.7916862028
 20
7.521376123
 30
0.0
 10
9.802050595
 20
7.5129692944
 30
0.0
 10
9.8116118981
 20
7.5036400192
 30
0.0
 10
9.8202783456
 20
7.4934778627
 30
0.0
 10
9.8279666877
 20
7.4825803305
 30
0.0
 10
9.8346030304
 20
7.4710519857
 30
0.0
 10
9.8401235017
 20
7.4590034314
 30
0.0
 10
9.8444748499
 20
7.4465502731
 30
0.0
 10
9.8476149503
 20
7.433812039
 30
0.0
 10
9.8495132375
 20
7.4209110704
 30
0.0
 10
9.8501510478
 20
7.4079713726
 30
0.0
 10
9.8495217698
 20
7.3951174387
 30
0.0
 10
9.8476309541
 20
7.3824730799
 30
0.0
 10
9.8444962935
 20
7.3701602515
 30
0.0
 10
9.8401475604
 20
7.3582978621
 30
0.0
 10
9.8346263372
 20
7.3470006035
 30
0.0
 10
9.8279856366
 20
7.3363778173
 30
0.0
 10
9.8202894235
 20
7.3265323914
 30
0.0
 10
9.8116120144
 20
7.317559704
 30
0.0
 10
9.8020373763
 20
7.3095466029
 30
0.0
 10
9.7916582218
 20
7.3025705574
 30
0.0
 10
9.7805750823
 20
7.2966988755
 30
0.0
 10
9.7688952272
 20
7.2919880713
 30
0.0
 10
9.7567317586
 20
7.288483245
 30
0.0
 10
9.7442018555
 20
7.2862178481
 30
0.0
 10
9.7314279633
 20
7.285212998
 30
0.0
 10
9.7228566305
 20
7.2853893535
 30
0.0
 10
9.7185739656
 20
7.2856863573
 30
0.0
  0
SPLINE
  5
39A
100
AcDbEntity
  8
0
100
AcDbSpline
 62
7
  6
CONTINUOUS
 70
0
 71
3
 72
39
 73
35
 74
0
 42
0.0000001
 43
0.0000001
 44
0.0000000001
 40
0.0
 40
0.0
 40
0.0
 40
0.0
 40
0.0314026163
 40
0.0630094802
 40
0.0948071156
 40
0.1267734443
 40
0.1588809719
 40
0.1910970226
 40
0.2233851133
 40
0.2557062446
 40
0.2880202668
 40
0.3202872758
 40
0.3524690062
 40
0.3845301827
 40
0.4164397934
 40
0.4481722512
 40
0.4797084083
 40
0.5110363787
 40
0.5421521198
 40
0.5730597435
 40
0.6037715204
 40
0.6343075558
 40
0.6646951112
 40
0.69496759
 40
0.7251632189
 40
0.7553234785
 40
0.7854913552
 40
0.8157095102
 40
0.8460184684
 40
0.8764549241
 40
0.9070502294
 40
0.9378293436
 40
0.9688091107
 40
1.0
 40
1.0
 40
1.0
 40
1.0
 10
9.7185739656
 20
7.2856863573
 30
0.0
 10
9.7142622295
 20
7.2859853772
 30
0.0
 10
9.7056344552
 20
7.2870102728
 30
0.0
 10
9.6928666642
 20
7.2897938976
 30
0.0
 10
9.6803463552
 20
7.2938019821
 30
0.0
 10
9.6681953186
 20
7.2989956879
 30
0.0
 10
9.6565297661
 20
7.3053248271
 30
0.0
 10
9.6454617283
 20
7.3127284319
 30
0.0
 10
9.6350973361
 20
7.3211352605
 30
0.0
 10
9.625536033
 20
7.3304645357
 30
0.0
 10
9.6168695855
 20
7.3406266922
 30
0.0
 10
9.6091812434
 20
7.3515242243
 30
0.0
 10
9.6025449007
 20
7.3630525692
 30
0.0
 10
9.5970244294
 20
7.3751011235
 30
0.0
 10
9.5926730812
 20
7.3875542818
 30
0.0
 10
9.5895329808
 20
7.4002925159
 30
0.0
 10
9.5876346937
 20
7.4131934845
 30
0.0
 10
9.5869968833
 20
7.4261331823
 30
0.0
 10
9.5876261613
 20
7.4389871162
 30
0.0
 10
9.589516977
 20
7.451631475
 30
0.0
 10
9.5926516376
 20
7.4639443034
 30
0.0
 10
9.5970003707
 20
7.4758066927
 30
0.0
 10
9.602521594
 20
7.4871039514
 30
0.0
 10
9.6091622945
 20
7.4977267376
 30
0.0
 10
9.6168585076
 20
7.5075721635
 30
0.0
 10
9.6255359167
 20
7.5165448509
 30
0.0
 10
9.6351105549
 20
7.5245579519
 30
0.0
 10
9.6454897093
 20
7.5315339975
 30
0.0
 10
9.6565728489
 20
7.5374056794
 30
0.0
 10
9.668252704
 20
7.5421164836
 30
0.0
 10
9.6804161725
 20
7.5456213099
 30
0.0
 10
9.6929460756
 20
7.5478867068
 30
0.0
 10
9.7057199678
 20
7.5488915568
 30
0.0
 10
9.7142913007
 20
7.5487152014
 30
0.0
 10
9.7185739656
 20
7.5484181976
 30
0.0
  0
SPLINE
  5
39B
100
AcDbEntity
  8
0
100
AcDbSpline
 62
7
  6
CONTINUOUS
 70
0
 71
3
 72
21
 73
17
 74
0
 42
0.0000001
 43
0.0000001
 44
0.0000000001
 40
0.0
 40
0.0
 40
0.0
 40
0.0
 40
0.1273176984
 40
0.2537999461
 40
0.3167619614
 40
0.3795355204
 40
0.4421314992
 40
0.5045621453
 40
0.5668413456
 40
0.6289845231
 40
0.6910084433
 40
0.7529310869
 40
0.8147714401
 40
0.8765493236
 40
0.9382852134
 40
1.0
 40
1.0
 40
1.0
 40
1.0
 10
11.9817383457
 20
9.8555441498
 30
0.0
 10
11.9817383457
 20
9.8622889579
 30
0.0
 10
11.9823821827
 20
9.8757429974
 30
0.0
 10
11.9848137739
 20
9.8923750944
 30
0.0
 10
11.987720041
 20
9.9054215181
 30
0.0
 10
11.9903704049
 20
9.9150445665
 30
0.0
 10
11.9934883996
 20
9.9244966183
 30
0.0
 10
11.9970668364
 20
9.9337561528
 30
0.0
 10
12.001097465
 20
9.9428017542
 30
0.0
 10
12.0055710729
 20
9.9516125458
 30
0.0
 10
12.010477311
 20
9.9601682173
 30
0.0
 10
12.0158048647
 20
9.9684490512
 30
0.0
 10
12.0215414991
 20
9.9764358858
 30
0.0
 10
12.0276740203
 20
9.9841103783
 30
0.0
 10
12.0341880138
 20
9.9914546166
 30
0.0
 10
12.0387759065
 20
9.9961201092
 30
0.0
 10
12.0411274552
 20
9.9983915169
 30
0.0
  0
SPLINE
  5
39C
100
AcDbEntity
  8
0
100
AcDbSpline
 62
7
  6
CONTINUOUS
 70
0
 71
3
 72
39
 73
35
 74
0
 42
0.0000001
 43
0.0000001
 44
0.0000000001
 40
0.0
 40
0.0
 40
0.0
 40
0.0
 40
0.0314026163
 40
0.0630094802
 40
0.0948071156
 40
0.1267734443
 40
0.1588809719
 40
0.1910970226
 40
0.2233851133
 40
0.2557062446
 40
0.2880202668
 40
0.3202872758
 40
0.3524690062
 40
0.3845301827
 40
0.4164397934
 40
0.4481722512
 40
0.4797084083
 40
0.5110363787
 40
0.5421521198
 40
0.5730597435
 40
0.6037715204
 40
0.6343075558
 40
0.6646951112
 40
0.69496759
 40
0.7251632189
 40
0.7553234785
 40
0.7854913552
 40
0.8157095102
 40
0.8460184684
 40
0.8764549241
 40
0.9070502294
 40
0.9378293436
 40
0.9688091107
 40
1.0
 40
1.0
 40
1.0
 40
1.0
 10
11.771166468
 20
7.4060704241
 30
0.0
 10
11.7754782041
 20
7.4057714042
 30
0.0
 10
11.7841059784
 20
7.4047465085
 30
0.0
 10
11.7968737694
 20
7.4019628837
 30
0.0
 10
11.8093940784
 20
7.3979547992
 30
0.0
 10
11.821545115
 20
7.3927610935
 30
0.0
 10
11.8332106675
 20
7.3864319542
 30
0.0
 10
11.8442787053
 20
7.3790283494
 30
0.0
 10
11.8546430975
 20
7.3706215208
 30
0.0
 10
11.8642044006
 20
7.3612922457
 30
0.0
 10
11.8728708481
 20
7.3511300891
 30
0.0
 10
11.8805591902
 20
7.340232557
 30
0.0
 10
11.8871955329
 20
7.3287042121
 30
0.0
 10
11.8927160042
 20
7.3166556578
 30
0.0
 10
11.8970673524
 20
7.3042024996
 30
0.0
 10
11.9002074528
 20
7.2914642655
 30
0.0
 10
11.9021057399
 20
7.2785632968
 30
0.0
 10
11.9027435503
 20
7.2656235991
 30
0.0
 10
11.9021142723
 20
7.2527696652
 30
0.0
 10
11.9002234566
 20
7.2401253064
 30
0.0
 10
11.897088796
 20
7.227812478
 30
0.0
 10
11.8927400629
 20
7.2159500886
 30
0.0
 10
11.8872188397
 20
7.20465283
 30
0.0
 10
11.8805781391
 20
7.1940300438
 30
0.0
 10
11.872881926
 20
7.1841846179
 30
0.0
 10
11.8642045169
 20
7.1752119305
 30
0.0
 10
11.8546298787
 20
7.1671988294
 30
0.0
 10
11.8442507243
 20
7.1602227839
 30
0.0
 10
11.8331675847
 20
7.154351102
 30
0.0
 10
11.8214877297
 20
7.1496402978
 30
0.0
 10
11.8093242611
 20
7.1461354715
 30
0.0
 10
11.796794358
 20
7.1438700746
 30
0.0
 10
11.7840204658
 20
7.1428652245
 30
0.0
 10
11.7754491329
 20
7.1430415799
 30
0.0
 10
11.771166468
 20
7.1433385838
 30
0.0
  0
SPLINE
  5
39D
100
AcDbEntity
  8
0
100
AcDbSpline
 62
7
  6
CONTINUOUS
 70
0
 71
3
 72
42
 73
38
 74
0
 42
0.0000001
 43
0.0000001
 44
0.0000000001
 40
0.0
 40
0.0
 40
0.0
 40
0.0
 40
0.0299419634
 40
0.0449235299
 40
0.0599142017
 40
0.0899287029
 40
0.1200139772
 40
0.1350926626
 40
0.1501967046
 40
0.1804840506
 40
0.2108978877
 40
0.2414513551
 40
0.2721543675
 40
0.3030134354
 40
0.3340315696
 40
0.3652082675
 40
0.3965395775
 40
0.4280182343
 40
0.4596338596
 40
0.4913732188
 40
0.5232205284
 40
0.5551578047
 40
0.5871652463
 40
0.6192216448
 40
0.6513048151
 40
0.6833920402
 40
0.7154605222
 40
0.747487836
 40
0.7794523759
 40
0.8113337934
 40
0.8431134117
 40
0.8747746318
 40
0.9063032512
 40
0.9376879208
 40
0.9533258
 40
0.9689252634
 40
1.0
 40
1.0
 40
1.0
 40
1.0
 10
9.3278722717
 20
6.3921091585
 30
0.0
 10
9.3242391326
 20
6.388599837
 30
0.0
 10
9.3185752651
 20
6.3835485038
 30
0.0
 10
9.3106431463
 20
6.3772808995
 30
0.0
 10
9.3024584294
 20
6.3713251807
 30
0.0
 10
9.2917787196
 20
6.364486086
 30
0.0
 10
9.2805797559
 20
6.3585038575
 30
0.0
 10
9.2713435131
 20
6.3542480941
 30
0.0
 10
9.2619164766
 20
6.3503436506
 30
0.0
 10
9.2498220164
 20
6.3461452703
 30
0.0
 10
9.2349174273
 20
6.3422324852
 30
0.0
 10
9.2196876178
 20
6.3394605782
 30
0.0
 10
9.2042169893
 20
6.3378448415
 30
0.0
 10
9.1885905251
 20
6.3373938978
 30
0.0
 10
9.1728942066
 20
6.3381100421
 30
0.0
 10
9.1572143043
 20
6.3399891375
 30
0.0
 10
9.1416369723
 20
6.3430206747
 30
0.0
 10
9.1262477632
 20
6.3471878288
 30
0.0
 10
9.1111311692
 20
6.35246756
 30
0.0
 10
9.0963701634
 20
6.3588307429
 30
0.0
 10
9.0820457515
 20
6.3662423286
 30
0.0
 10
9.0682365328
 20
6.3746615385
 30
0.0
 10
9.0550182753
 20
6.3840420874
 30
0.0
 10
9.0424635047
 20
6.3943324365
 30
0.0
 10
9.0306411117
 20
6.4054760747
 30
0.0
 10
9.0196159777
 20
6.4174118257
 30
0.0
 10
9.0094486229
 20
6.4300741806
 30
0.0
 10
9.0001948772
 20
6.443393655
 30
0.0
 10
8.9919055763
 20
6.4572971615
 30
0.0
 10
8.984626285
 20
6.4717084225
 30
0.0
 10
8.9783970497
 20
6.4865483237
 30
0.0
 10
8.9732521666
 20
6.501735563
 30
0.0
 10
8.9692200576
 20
6.5171862764
 30
0.0
 10
8.9668027187
 20
6.5302283536
 30
0.0
 10
8.9654466633
 20
6.5407075046
 30
0.0
 10
8.9644788798
 20
6.5511766278
 30
0.0
 10
8.9641858443
 20
6.5590545725
 30
0.0
 10
8.9641858443
 20
6.5642969138
 30
0.0
  0
SPLINE
  5
39E
100
AcDbEntity
  8
0
100
AcDbSpline
 62
7
  6
CONTINUOUS
 70
0
 71
3
 72
15
 73
11
 74
0
 42
0.0000001
 43
0.0000001
 44
0.0000000001
 40
0.0
 40
0.0
 40
0.0
 40
0.0
 40
0.1233171261
 40
0.2468171865
 40
0.3706749939
 40
0.4950495802
 40
0.6200773232
 40
0.7458671315
 40
0.872492731
 40
1.0
 40
1.0
 40
1.0
 40
1.0
 10
9.8028151955
 20
9.0932347316
 30
0.0
 10
9.8002906618
 20
9.0907962405
 30
0.0
 10
9.7949706912
 20
9.0861838148
 30
0.0
 10
9.7862879749
 20
9.0801566246
 30
0.0
 10
9.77698415
 20
9.0750757833
 30
0.0
 10
9.7671544493
 20
9.0709935128
 30
0.0
 10
9.7568980275
 20
9.0679503423
 30
0.0
 10
9.7463182032
 20
9.0659766992
 30
0.0
 10
9.7355229723
 20
9.0650917801
 30
0.0
 10
9.7282766901
 20
9.0652331216
 30
0.0
 10
9.7246562081
 20
9.0654842029
 30
0.0
  0
SPLINE
  5
39F
100
AcDbEntity
  8
0
100
AcDbSpline
 62
7
  6
CONTINUOUS
 70
0
 71
3
 72
15
 73
11
 74
0
 42
0.0000001
 43
0.0000001
 44
0.0000000001
 40
0.0
 40
0.0
 40
0.0
 40
0.0
 40
0.1233171261
 40
0.2468171865
 40
0.3706749939
 40
0.4950495802
 40
0.6200773232
 40
0.7458671315
 40
0.872492731
 40
1.0
 40
1.0
 40
1.0
 40
1.0
 10
11.855407698
 20
8.9508869581
 30
0.0
 10
11.8528831643
 20
8.948448467
 30
0.0
 10
11.8475631937
 20
8.9438360412
 30
0.0
 10
11.8388804774
 20
8.937808851
 30
0.0
 10
11.8295766525
 20
8.9327280098
 30
0.0
 10
11.8197469518
 20
8.9286457393
 30
0.0
 10
11.80949053
 20
8.9256025688
 30
0.0
 10
11.7989107057
 20
8.9236289257
 30
0.0
 10
11.7881154748
 20
8.9227440065
 30
0.0
 10
11.7808691926
 20
8.9228853481
 30
0.0
 10
11.7772487106
 20
8.9231364293
 30
0.0
  0
SPLINE
  5
3A0
100
AcDbEntity
  8
0
100
AcDbSpline
 62
7
  6
CONTINUOUS
 70
0
 71
3
 72
42
 73
38
 74
0
 42
0.0000001
 43
0.0000001
 44
0.0000000001
 40
0.0
 40
0.0
 40
0.0
 40
0.0
 40
0.0299419634
 40
0.0449235299
 40
0.0599142017
 40
0.0899287029
 40
0.1200139772
 40
0.1350926626
 40
0.1501967046
 40
0.1804840506
 40
0.2108978877
 40
0.2414513551
 40
0.2721543675
 40
0.3030134354
 40
0.3340315696
 40
0.3652082675
 40
0.3965395775
 40
0.4280182343
 40
0.4596338596
 40
0.4913732188
 40
0.5232205284
 40
0.5551578047
 40
0.5871652463
 40
0.6192216448
 40
0.6513048151
 40
0.6833920402
 40
0.7154605222
 40
0.747487836
 40
0.7794523759
 40
0.8113337934
 40
0.8431134117
 40
0.8747746318
 40
0.9063032512
 40
0.9376879208
 40
0.9533258
 40
0.9689252634
 40
1.0
 40
1.0
 40
1.0
 40
1.0
 10
10.5043700216
 20
8.1515733988
 30
0.0
 10
10.5007368824
 20
8.1480640772
 30
0.0
 10
10.495073015
 20
8.1430127441
 30
0.0
 10
10.4871408962
 20
8.1367451398
 30
0.0
 10
10.4789561792
 20
8.130789421
 30
0.0
 10
10.4682764695
 20
8.1239503263
 30
0.0
 10
10.4570775057
 20
8.1179680977
 30
0.0
 10
10.4478412629
 20
8.1137123344
 30
0.0
 10
10.4384142265
 20
8.1098078909
 30
0.0
 10
10.4263197662
 20
8.1056095106
 30
0.0
 10
10.4114151771
 20
8.1016967255
 30
0.0
 10
10.3961853677
 20
8.0989248184
 30
0.0
 10
10.3807147391
 20
8.0973090817
 30
0.0
 10
10.3650882749
 20
8.096858138
 30
0.0
 10
10.3493919565
 20
8.0975742823
 30
0.0
 10
10.3337120542
 20
8.0994533778
 30
0.0
 10
10.3181347221
 20
8.1024849149
 30
0.0
 10
10.302745513
 20
8.1066520691
 30
0.0
 10
10.287628919
 20
8.1119318003
 30
0.0
 10
10.2728679133
 20
8.1182949832
 30
0.0
 10
10.2585435013
 20
8.1257065689
 30
0.0
 10
10.2447342827
 20
8.1341257788
 30
0.0
 10
10.2315160251
 20
8.1435063277
 30
0.0
 10
10.2189612546
 20
8.1537966768
 30
0.0
 10
10.2071388615
 20
8.164940315
 30
0.0
 10
10.1961137275
 20
8.1768760659
 30
0.0
 10
10.1859463727
 20
8.1895384209
 30
0.0
 10
10.176692627
 20
8.2028578953
 30
0.0
 10
10.1684033262
 20
8.2167614017
 30
0.0
 10
10.1611240349
 20
8.2311726627
 30
0.0
 10
10.1548947995
 20
8.2460125639
 30
0.0
 10
10.1497499164
 20
8.2611998033
 30
0.0
 10
10.1457178075
 20
8.2766505167
 30
0.0
 10
10.1433004685
 20
8.2896925939
 30
0.0
 10
10.1419444131
 20
8.3001717448
 30
0.0
 10
10.1409766297
 20
8.3106408681
 30
0.0
 10
10.1406835942
 20
8.3185188128
 30
0.0
 10
10.1406835942
 20
8.323761154
 30
0.0
  0
SPLINE
  5
3A1
100
AcDbEntity
  8
0
100
AcDbSpline
 62
7
  6
CONTINUOUS
 70
0
 71
3
 72
15
 73
11
 74
0
 42
0.0000001
 43
0.0000001
 44
0.0000000001
 40
0.0
 40
0.0
 40
0.0
 40
0.0
 40
0.1233171261
 40
0.2468171865
 40
0.3706749939
 40
0.4950495802
 40
0.6200773232
 40
0.7458671315
 40
0.872492731
 40
1.0
 40
1.0
 40
1.0
 40
1.0
 10
9.8028151955
 20
7.3420111398
 30
0.0
 10
9.8002906618
 20
7.3395726487
 30
0.0
 10
9.7949706912
 20
7.3349602229
 30
0.0
 10
9.7862879749
 20
7.3289330327
 30
0.0
 10
9.77698415
 20
7.3238521915
 30
0.0
 10
9.7671544493
 20
7.319769921
 30
0.0
 10
9.7568980275
 20
7.3167267505
 30
0.0
 10
9.7463182032
 20
7.3147531074
 30
0.0
 10
9.7355229723
 20
7.3138681882
 30
0.0
 10
9.7282766901
 20
7.3140095298
 30
0.0
 10
9.7246562081
 20
7.314260611
 30
0.0
  0
SPLINE
  5
3A2
100
AcDbEntity
  8
0
100
AcDbSpline
 62
7
  6
CONTINUOUS
 70
0
 71
3
 72
24
 73
20
 74
0
 42
0.0000001
 43
0.0000001
 44
0.0000000001
 40
0.0
 40
0.0
 40
0.0
 40
0.0
 40
0.0620109565
 40
0.1239239652
 40
0.1857745467
 40
0.2475996507
 40
0.2785190218
 40
0.3094461898
 40
0.3713336569
 40
0.4333084717
 40
0.4954065707
 40
0.5576618865
 40
0.6201056698
 40
0.6827659085
 40
0.7456666511
 40
0.8088279364
 40
0.8722642894
 40
0.935987258
 40
1.0
 40
1.0
 40
1.0
 40
1.0
 10
10.925805466
 20
8.7326024694
 30
0.0
 10
10.9234883048
 20
8.7288395232
 30
0.0
 10
10.9186022894
 20
8.7214733578
 30
0.0
 10
10.910545789
 20
8.7109554492
 30
0.0
 10
10.9017984588
 20
8.7010217836
 30
0.0
 10
10.8939609293
 20
8.6932656912
 30
0.0
 10
10.8873837217
 20
8.6873969312
 30
0.0
 10
10.8806049282
 20
8.6817552786
 30
0.0
 10
10.8717649112
 20
8.6751411952
 30
0.0
 10
10.8606228636
 20
8.6679473455
 30
0.0
 10
10.8489882308
 20
8.661525813
 30
0.0
 10
10.8369091376
 20
8.6559059589
 30
0.0
 10
10.8244356624
 20
8.6511134606
 30
0.0
 10
10.8116201132
 20
8.6471705318
 30
0.0
 10
10.7985166166
 20
8.6440955823
 30
0.0
 10
10.7851810072
 20
8.6419031863
 30
0.0
 10
10.7716700826
 20
8.64060376
 30
0.0
 10
10.7580427252
 20
8.6402037116
 30
0.0
 10
10.7489381154
 20
8.6405373201
 30
0.0
 10
10.7443872274
 20
8.6408529253
 30
0.0
  0
SPLINE
  5
3A3
100
AcDbEntity
  8
0
100
AcDbSpline
 62
7
  6
CONTINUOUS
 70
0
 71
3
 72
15
 73
11
 74
0
 42
0.0000001
 43
0.0000001
 44
0.0000000001
 40
0.0
 40
0.0
 40
0.0
 40
0.0
 40
0.1233171261
 40
0.2468171865
 40
0.3706749939
 40
0.4950495802
 40
0.6200773232
 40
0.7458671315
 40
0.872492731
 40
1.0
 40
1.0
 40
1.0
 40
1.0
 10
11.855407698
 20
7.1996633663
 30
0.0
 10
11.8528831643
 20
7.1972248752
 30
0.0
 10
11.8475631937
 20
7.1926124494
 30
0.0
 10
11.8388804774
 20
7.1865852592
 30
0.0
 10
11.8295766525
 20
7.181504418
 30
0.0
 10
11.8197469518
 20
7.1774221474
 30
0.0
 10
11.80949053
 20
7.1743789769
 30
0.0
 10
11.7989107057
 20
7.1724053339
 30
0.0
 10
11.7881154748
 20
7.1715204147
 30
0.0
 10
11.7808691926
 20
7.1716617562
 30
0.0
 10
11.7772487106
 20
7.1719128375
 30
0.0
  0
SPLINE
  5
3A4
100
AcDbEntity
  8
0
100
AcDbSpline
 62
7
  6
CONTINUOUS
 70
0
 71
3
 72
21
 73
17
 74
0
 42
0.0000001
 43
0.0000001
 44
0.0000000001
 40
0.0
 40
0.0
 40
0.0
 40
0.0
 40
0.1266975252
 40
0.2525125153
 40
0.315157114
 40
0.3776342862
 40
0.4399692883
 40
0.5021902541
 40
0.5643285996
 40
0.6264185947
 40
0.6884960197
 40
0.7505986189
 40
0.8127638495
 40
0.8750273891
 40
0.9374328703
 40
1.0
 40
1.0
 40
1.0
 40
1.0
 10
12.2687851882
 20
8.8836194145
 30
0.0
 10
12.2683330382
 20
8.8806579295
 30
0.0
 10
12.2670947412
 20
8.874801234
 30
0.0
 10
12.2646924356
 20
8.8677267135
 30
0.0
 10
12.2622703266
 20
8.8623064511
 30
0.0
 10
12.2602093445
 20
8.8583787821
 30
0.0
 10
12.2579059033
 20
8.8545999749
 30
0.0
 10
12.2553655037
 20
8.8509858547
 30
0.0
 10
12.252595037
 20
8.8475522618
 30
0.0
 10
12.2496026998
 20
8.8443147088
 30
0.0
 10
12.2463982156
 20
8.8412881231
 30
0.0
 10
12.2429927491
 20
8.8384867072
 30
0.0
 10
12.239398895
 20
8.8359238248
 30
0.0
 10
12.2356304257
 20
8.8336115193
 30
0.0
 10
12.2317028843
 20
8.8315609669
 30
0.0
 10
12.2289928136
 20
8.8303760799
 30
0.0
 10
12.2276177693
 20
8.8298302459
 30
0.0
  0
SPLINE
  5
3A5
100
AcDbEntity
  8
0
100
AcDbSpline
 62
4
  6
CONTINUOUS
 70
0
 71
3
 72
281
 73
277
 74
0
 42
0.0000001
 43
0.0000001
 44
0.0000000001
 40
0.0
 40
0.0
 40
0.0
 40
0.0
 40
0.015625
 40
0.0234375
 40
0.03125
 40
0.0390625
 40
0.046875
 40
0.05078125
 40
0.0546875
 40
0.056640625
 40
0.05859375
 40
0.060546875
 40
0.0615234375
 40
0.0620117188
 40
0.0625
 40
0.0629882812
 40
0.0634765625
 40
0.064453125
 40
0.06640625
 40
0.068359375
 40
0.0703125
 40
0.07421875
 40
0.078125
 40
0.0859375
 40
0.09375
 40
0.1015625
 40
0.109375
 40
0.11328125
 40
0.1171875
 40
0.119140625
 40
0.12109375
 40
0.123046875
 40
0.1240234375
 40
0.1245117188
 40
0.125
 40
0.1254882812
 40
0.1259765625
 40
0.126953125
 40
0.12890625
 40
0.130859375
 40
0.1328125
 40
0.13671875
 40
0.140625
 40
0.1484375
 40
0.15625
 40
0.1640625
 40
0.171875
 40
0.17578125
 40
0.1796875
 40
0.181640625
 40
0.18359375
 40
0.185546875
 40
0.1865234375
 40
0.1870117188
 40
0.1875
 40
0.1879882812
 40
0.1884765625
 40
0.189453125
 40
0.19140625
 40
0.193359375
 40
0.1953125
 40
0.19921875
 40
0.203125
 40
0.2109375
 40
0.21875
 40
0.2265625
 40
0.234375
 40
0.23828125
 40
0.2421875
 40
0.244140625
 40
0.24609375
 40
0.248046875
 40
0.2490234375
 40
0.2495117188
 40
0.25
 40
0.2504882812
 40
0.2509765625
 40
0.251953125
 40
0.25390625
 40
0.255859375
 40
0.2578125
 40
0.26171875
 40
0.265625
 40
0.2734375
 40
0.28125
 40
0.2890625
 40
0.296875
 40
0.30078125
 40
0.3046875
 40
0.306640625
 40
0.30859375
 40
0.310546875
 40
0.3115234375
 40
0.3120117188
 40
0.3125
 40
0.3129882812
 40
0.3134765625
 40
0.314453125
 40
0.31640625
 40
0.318359375
 40
0.3203125
 40
0.32421875
 40
0.328125
 40
0.3359375
 40
0.34375
 40
0.3515625
 40
0.359375
 40
0.36328125
 40
0.3671875
 40
0.369140625
 40
0.37109375
 40
0.373046875
 40
0.3740234375
 40
0.3745117188
 40
0.375
 40
0.3754882812
 40
0.3759765625
 40
0.376953125
 40
0.37890625
 40
0.380859375
 40
0.3828125
 40
0.38671875
 40
0.390625
 40
0.3984375
 40
0.40625
 40
0.4140625
 40
0.421875
 40
0.42578125
 40
0.4296875
 40
0.43359375
 40
0.435546875
 40
0.4365234375
 40
0.4375
 40
0.4384765625
 40
0.439453125
 40
0.44140625
 40
0.4453125
 40
0.44921875
 40
0.453125
 40
0.4609375
 40
0.46875
 40
0.4765625
 40
0.484375
 40
0.48828125
 40
0.4921875
 40
0.49609375
 40
0.498046875
 40
0.5
 40
0.501953125
 40
0.50390625
 40
0.5078125
 40
0.51171875
 40
0.515625
 40
0.5234375
 40
0.53125
 40
0.5390625
 40
0.546875
 40
0.5546875
 40
0.55859375
 40
0.560546875
 40
0.5625
 40
0.564453125
 40
0.56640625
 40
0.5703125
 40
0.578125
 40
0.5859375
 40
0.59375
 40
0.6015625
 40
0.609375
 40
0.6171875
 40
0.62109375
 40
0.623046875
 40
0.625
 40
0.626953125
 40
0.62890625
 40
0.6328125
 40
0.640625
 40
0.6484375
 40
0.65625
 40
0.6640625
 40
0.671875
 40
0.67578125
 40
0.6796875
 40
0.68359375
 40
0.685546875
 40
0.6865234375
 40
0.6875
 40
0.6884765625
 40
0.689453125
 40
0.69140625
 40
0.6953125
 40
0.69921875
 40
0.703125
 40
0.7109375
 40
0.71875
 40
0.7265625
 40
0.734375
 40
0.73828125
 40
0.7421875
 40
0.744140625
 40
0.74609375
 40
0.748046875
 40
0.7490234375
 40
0.75
 40
0.7509765625
 40
0.751953125
 40
0.75390625
 40
0.755859375
 40
0.7578125
 40
0.76171875
 40
0.765625
 40
0.7734375
 40
0.78125
 40
0.7890625
 40
0.796875
 40
0.80078125
 40
0.8046875
 40
0.806640625
 40
0.80859375
 40
0.810546875
 40
0.8115234375
 40
0.8120117188
 40
0.8125
 40
0.8129882812
 40
0.8134765625
 40
0.814453125
 40
0.81640625
 40
0.818359375
 40
0.8203125
 40
0.82421875
 40
0.828125
 40
0.8359375
 40
0.84375
 40
0.8515625
 40
0.859375
 40
0.86328125
 40
0.8671875
 40
0.869140625
 40
0.87109375
 40
0.873046875
 40
0.8740234375
 40
0.8745117188
 40
0.875
 40
0.8754882812
 40
0.8759765625
 40
0.876953125
 40
0.87890625
 40
0.880859375
 40
0.8828125
 40
0.88671875
 40
0.890625
 40
0.8984375
 40
0.90625
 40
0.9140625
 40
0.921875
 40
0.92578125
 40
0.9296875
 40
0.931640625
 40
0.93359375
 40
0.935546875
 40
0.9365234375
 40
0.9370117188
 40
0.9375
 40
0.9379882812
 40
0.9384765625
 40
0.939453125
 40
0.94140625
 40
0.943359375
 40
0.9453125
 40
0.94921875
 40
0.953125
 40
0.9609375
 40
0.96875
 40
0.9765625
 40
0.984375
 40
1.0
 40
1.0
 40
1.0
 40
1.0
 10
9.8339836192
 20
10.5280478351
 30
0.0
 10
9.8335054852
 20
10.5273003204
 30
0.0
 10
9.832788284
 20
10.5261790484
 30
0.0
 10
9.8318320166
 20
10.5246840191
 30
0.0
 10
9.8311148137
 20
10.5235627471
 30
0.0
 10
9.8303976197
 20
10.522441475
 30
0.0
 10
9.8297999306
 20
10.521507082
 30
0.0
 10
9.8293218408
 20
10.5207595666
 30
0.0
 10
9.8290228945
 20
10.5202923718
 30
0.0
 10
9.8287840585
 20
10.5199186105
 30
0.0
 10
9.8286040527
 20
10.5196383047
 30
0.0
 10
9.8284568432
 20
10.5194046684
 30
0.0
 10
9.8283483109
 20
10.5192412173
 30
0.0
 10
9.8282948578
 20
10.5191476694
 30
0.0
 10
9.8282306391
 20
10.5190779233
 30
0.0
 10
9.8282586536
 20
10.5190065916
 30
0.0
 10
9.8282638343
 20
10.5189120358
 30
0.0
 10
9.82828789
 20
10.5187463055
 30
0.0
 10
9.8283144186
 20
10.5185096825
 30
0.0
 10
9.8283496074
 20
10.5182256773
 30
0.0
 10
9.828395354
 20
10.5178470238
 30
0.0
 10
9.8284529386
 20
10.5173737001
 30
0.0
 10
9.8285448496
 20
10.516616386
 30
0.0
 10
9.8286598157
 20
10.515669742
 30
0.0
 10
9.8287977397
 20
10.5145337697
 30
0.0
 10
9.8289356814
 20
10.5133977976
 30
0.0
 10
9.8290506034
 20
10.5124511533
 30
0.0
 10
9.8291426027
 20
10.5116938399
 30
0.0
 10
9.8291999629
 20
10.5112205143
 30
0.0
 10
9.82924617
 20
10.5108418646
 30
0.0
 10
9.829279952
 20
10.5105578479
 30
0.0
 10
9.8293108819
 20
10.5103212608
 30
0.0
 10
9.8293270808
 20
10.5101554665
 30
0.0
 10
9.8293448501
 20
10.5100610131
 30
0.0
 10
9.8293341963
 20
10.5099893669
 30
0.0
 10
9.8294152092
 20
10.5099208021
 30
0.0
 10
9.829491252
 20
10.5098283075
 30
0.0
 10
9.8296392244
 20
10.5096669427
 30
0.0
 10
9.8298428249
 20
10.5094361599
 30
0.0
 10
9.8300904793
 20
10.5091593325
 30
0.0
 10
9.8304195208
 20
10.5087901902
 30
0.0
 10
9.8308312213
 20
10.5083287757
 30
0.0
 10
9.8314897192
 20
10.507590505
 30
0.0
 10
9.8323129186
 20
10.5066676692
 30
0.0
 10
9.8333007227
 20
10.505560265
 30
0.0
 10
9.8342885443
 20
10.5044528617
 30
0.0
 10
9.8351116997
 20
10.5035300238
 30
0.0
 10
9.8357702857
 20
10.5027917574
 30
0.0
 10
9.8361817624
 20
10.5023303321
 30
0.0
 10
9.8365112632
 20
10.5019612119
 30
0.0
 10
9.836757514
 20
10.5016843171
 30
0.0
 10
9.8369655061
 20
10.5014537451
 30
0.0
 10
9.8371056388
 20
10.5012920039
 30
0.0
 10
9.8371942428
 20
10.5012001125
 30
0.0
 10
9.8372366719
 20
10.5011296949
 30
0.0
 10
9.8373709322
 20
10.5010650075
 30
0.0
 10
9.8375179142
 20
10.5009767588
 30
0.0
 10
9.837790057
 20
10.500823255
 30
0.0
 10
9.8381710297
 20
10.5006034769
 30
0.0
 10
9.8386315368
 20
10.5003399516
 30
0.0
 10
9.8392443797
 20
10.4999885117
 30
0.0
 10
9.8400108328
 20
10.4995492368
 30
0.0
 10
9.8412369344
 20
10.4988463831
 30
0.0
 10
9.8427696385
 20
10.4979678207
 30
0.0
 10
9.8446088485
 20
10.4969135434
 30
0.0
 10
9.8464480748
 20
10.495859268
 30
0.0
 10
9.8479807383
 20
10.4949807009
 30
0.0
 10
9.8492069211
 20
10.4942778566
 30
0.0
 10
9.8499731678
 20
10.4938385576
 30
0.0
 10
9.8505864343
 20
10.4934871673
 30
0.0
 10
9.8510456474
 20
10.4932234907
 30
0.0
 10
9.8514306688
 20
10.4930041858
 30
0.0
 10
9.8516955841
 20
10.4928498373
 30
0.0
 10
9.8518541462
 20
10.492762942
 30
0.0
 10
9.851952836
 20
10.4926940977
 30
0.0
 10
9.8521288622
 20
10.4926392924
 30
0.0
 10
9.852336588
 20
10.4925613218
 30
0.0
 10
9.8527126766
 20
10.4924271547
 30
0.0
 10
9.8532433751
 20
10.4922342945
 30
0.0
 10
9.8538830259
 20
10.492003373
 30
0.0
 10
9.8547349113
 20
10.4916952992
 30
0.0
 10
9.8558001043
 20
10.4913102681
 30
0.0
 10
9.8575042251
 20
10.4906941841
 30
0.0
 10
9.8596344411
 20
10.489924091
 30
0.0
 10
9.8621906708
 20
10.4889999738
 30
0.0
 10
9.8647469145
 20
10.4880758595
 30
0.0
 10
9.8668770952
 20
10.4873057592
 30
0.0
 10
9.8685812866
 20
10.4866896895
 30
0.0
 10
9.8696463004
 20
10.486304622
 30
0.0
 10
9.8704985536
 20
10.4859966229
 30
0.0
 10
9.8711370808
 20
10.4857654734
 30
0.0
 10
9.8716712947
 20
10.4855733264
 30
0.0
 10
9.8720411078
 20
10.4854378863
 30
0.0
 10
9.8722588885
 20
10.4853619553
 30
0.0
 10
9.872404029
 20
10.4853008846
 30
0.0
 10
9.8726187202
 20
10.4852555725
 30
0.0
 10
9.872880715
 20
10.4851896595
 30
0.0
 10
9.8733505092
 20
10.485076873
 30
0.0
 10
9.8740157342
 20
10.4849144103
 30
0.0
 10
9.8748165337
 20
10.4847200283
 30
0.0
 10
9.8758833829
 20
10.4844606521
 30
0.0
 10
9.8772172468
 20
10.4841365004
 30
0.0
 10
9.8793512601
 20
10.4836178193
 30
0.0
 10
9.882018835
 20
10.4829694812
 30
0.0
 10
9.8852198985
 20
10.4821914693
 30
0.0
 10
9.8884209741
 20
10.4814134607
 30
0.0
 10
9.8910885188
 20
10.4807651143
 30
0.0
 10
9.8932225925
 20
10.4802464499
 30
0.0
 10
9.8945563028
 20
10.4799222558
 30
0.0
 10
9.8956234673
 20
10.4796629665
 30
0.0
 10
9.8964233034
 20
10.4794683189
 30
0.0
 10
9.8970915428
 20
10.4793066871
 30
0.0
 10
9.8975559559
 20
10.4791924174
 30
0.0
 10
9.8978265725
 20
10.4791288808
 30
0.0
 10
9.8980147803
 20
10.4790762695
 30
0.0
 10
9.8982593878
 20
10.4790426132
 30
0.0
 10
9.8985658583
 20
10.4789911265
 30
0.0
 10
9.8991113476
 20
10.4789041052
 30
0.0
 10
9.899885826
 20
10.4787781785
 30
0.0
 10
9.9008172512
 20
10.4786277558
 30
0.0
 10
9.902058435
 20
10.4784269515
 30
0.0
 10
9.9036101602
 20
10.4781760286
 30
0.0
 10
9.9060927829
 20
10.4777745056
 30
0.0
 10
9.9091961114
 20
10.477272619
 30
0.0
 10
9.9129200718
 20
10.4766703425
 30
0.0
 10
9.916644087
 20
10.4760680888
 30
0.0
 10
9.9197472783
 20
10.4755661453
 30
0.0
 10
9.9222301754
 20
10.4751647361
 30
0.0
 10
9.924091409
 20
10.4748632817
 30
0.0
 10
9.9256454241
 20
10.4746133339
 30
0.0
 10
9.9267273728
 20
10.4744358894
 30
0.0
 10
9.927354782
 20
10.4743383666
 30
0.0
 10
9.9277995552
 20
10.4742543112
 30
0.0
 10
9.9283428868
 20
10.4742119721
 30
0.0
 10
9.9290329507
 20
10.4741409687
 30
0.0
 10
9.9302565799
 20
10.4740234926
 30
0.0
 10
9.9319962476
 20
10.4738521251
 30
0.0
 10
9.9340874331
 20
10.4736480011
 30
0.0
 10
9.9368744288
 20
10.4733753064
 30
0.0
 10
9.9403586003
 20
10.4730346158
 30
0.0
 10
9.9445394345
 20
10.4726257277
 30
0.0
 10
9.948720272
 20
10.4722167925
 30
0.0
 10
9.9522044354
 20
10.47187622
 30
0.0
 10
9.9549914472
 20
10.471603289
 30
0.0
 10
9.9570825837
 20
10.4713998855
 30
0.0
 10
9.9588224046
 20
10.471226264
 30
0.0
 10
9.9602205254
 20
10.471096604
 30
0.0
 10
9.9612519995
 20
10.4709741186
 30
0.0
 10
9.9623488078
 20
10.4709479762
 30
0.0
 10
9.9637883967
 20
10.4708794659
 30
0.0
 10
9.965595713
 20
10.4708053743
 30
0.0
 10
9.9677611411
 20
10.4707115226
 30
0.0
 10
9.9706495488
 20
10.4705881112
 30
0.0
 10
9.9742596605
 20
10.4704332695
 30
0.0
 10
9.9785919492
 20
10.4702476449
 30
0.0
 10
9.9829242559
 20
10.4700622025
 30
0.0
 10
9.9872563358
 20
10.4698758461
 30
0.0
 10
9.9908671435
 20
10.4697234439
 30
0.0
 10
9.9933932517
 20
10.469611083
 30
0.0
 10
9.9948390178
 20
10.4695557444
 30
0.0
 10
9.9959169318
 20
10.4694892603
 30
0.0
 10
9.9970193502
 20
10.4695182631
 30
0.0
 10
9.998480694
 20
10.4695236265
 30
0.0
 10
10.0010420279
 20
10.4695485313
 30
0.0
 10
10.0046989959
 20
10.4695759912
 30
0.0
 10
10.0090882411
 20
10.4696124401
 30
0.0
 10
10.0134772805
 20
10.4696478903
 30
0.0
 10
10.0178662595
 20
10.4696838385
 30
0.0
 10
10.0222556861
 20
10.4697187932
 30
0.0
 10
10.0259120998
 20
10.4697508187
 30
0.0
 10
10.0284744214
 20
10.4697675884
 30
0.0
 10
10.0299341828
 20
10.4697859847
 30
0.0
 10
10.031041462
 20
10.4697749551
 30
0.0
 10
10.0321011195
 20
10.4698588257
 30
0.0
 10
10.0335306072
 20
10.4699375509
 30
0.0
 10
10.0360244711
 20
10.4700907432
 30
0.0
 10
10.0395911811
 20
10.4703015244
 30
0.0
 10
10.0438694965
 20
10.470557921
 30
0.0
 10
10.0481482828
 20
10.4708133847
 30
0.0
 10
10.0524269222
 20
10.4710691208
 30
0.0
 10
10.0559925524
 20
10.4712821035
 30
0.0
 10
10.0588448962
 20
10.4714526672
 30
0.0
 10
10.0609845767
 20
10.4715801356
 30
0.0
 10
10.0627663017
 20
10.4716878002
 30
0.0
 10
10.0640161428
 20
10.4717603382
 30
0.0
 10
10.0647262255
 20
10.4718062029
 30
0.0
 10
10.0652703716
 20
10.4718281658
 30
0.0
 10
10.0657702378
 20
10.471897664
 30
0.0
 10
10.0664521715
 20
10.4719737474
 30
0.0
 10
10.0676383591
 20
10.4721146188
 30
0.0
 10
10.0693366751
 20
10.4723118246
 30
0.0
 10
10.071373044
 20
10.4725502004
 30
0.0
 10
10.0740887649
 20
10.472867431
 30
0.0
 10
10.0774832239
 20
10.4732641761
 30
0.0
 10
10.0815566534
 20
10.4737401829
 30
0.0
 10
10.0856300754
 20
10.474216208
 30
0.0
 10
10.0890245532
 20
10.4746129071
 30
0.0
 10
10.0917402365
 20
10.4749302298
 30
0.0
 10
10.0934373061
 20
10.4751286421
 30
0.0
 10
10.0947954943
 20
10.4752871755
 30
0.0
 10
10.0958126774
 20
10.4754066137
 30
0.0
 10
10.0966649685
 20
10.4755044337
 30
0.0
 10
10.0973363979
 20
10.4755865288
 30
0.0
 10
10.0978683973
 20
10.47563761
 30
0.0
 10
10.0982918888
 20
10.4757287321
 30
0.0
 10
10.0988944473
 20
10.4758362415
 30
0.0
 10
10.0996346411
 20
10.475975427
 30
0.0
 10
10.1005284399
 20
10.4761403955
 30
0.0
 10
10.1017182275
 20
10.476361071
 30
0.0
 10
10.1032061276
 20
10.4766366697
 30
0.0
 10
10.1055863958
 20
10.477077765
 30
0.0
 10
10.1085618584
 20
10.477629087
 30
0.0
 10
10.1121323603
 20
10.4782906931
 30
0.0
 10
10.1157028711
 20
10.4789522956
 30
0.0
 10
10.1186783116
 20
10.4795036269
 30
0.0
 10
10.1210586241
 20
10.4799447036
 30
0.0
 10
10.1225464118
 20
10.4802203493
 30
0.0
 10
10.1237364301
 20
10.4804409284
 30
0.0
 10
10.1246295239
 20
10.4806061913
 30
0.0
 10
10.1253719234
 20
10.4807444559
 30
0.0
 10
10.1258952244
 20
10.4808401705
 30
0.0
 10
10.1261885992
 20
10.4808965363
 30
0.0
 10
10.1264245588
 20
10.4809341014
 30
0.0
 10
10.1265996314
 20
10.4809896675
 30
0.0
 10
10.1268542997
 20
10.4810574767
 30
0.0
 10
10.1272900738
 20
10.4811790682
 30
0.0
 10
10.1279177817
 20
10.481351241
 30
0.0
 10
10.1286688169
 20
10.481558503
 30
0.0
 10
10.1296709704
 20
10.4818346237
 30
0.0
 10
10.1309233976
 20
10.4821798528
 30
0.0
 10
10.1329274291
 20
10.4827321756
 30
0.0
 10
10.1354324173
 20
10.4834225942
 30
0.0
 10
10.1384384268
 20
10.4842510897
 30
0.0
 10
10.1414444234
 20
10.4850795884
 30
0.0
 10
10.1439494438
 20
10.4857699992
 30
0.0
 10
10.1459534109
 20
10.4863223376
 30
0.0
 10
10.1472060017
 20
10.486667527
 30
0.0
 10
10.1482078194
 20
10.4869437293
 30
0.0
 10
10.1489598805
 20
10.4871507419
 30
0.0
 10
10.1495843785
 20
10.4873236948
 30
0.0
 10
10.1500258829
 20
10.4874438937
 30
0.0
 10
10.1502713699
 20
10.4875139344
 30
0.0
 10
10.1504746444
 20
10.4875626461
 30
0.0
 10
10.1506046824
 20
10.4876259551
 30
0.0
 10
10.1508036121
 20
10.4877052754
 30
0.0
 10
10.1511398369
 20
10.4878464583
 30
0.0
 10
10.1516263806
 20
10.4880469079
 30
0.0
 10
10.1522075696
 20
10.4882879783
 30
0.0
 10
10.1529834186
 20
10.4886092201
 30
0.0
 10
10.1539529112
 20
10.4890108358
 30
0.0
 10
10.1555042776
 20
10.4896533854
 30
0.0
 10
10.157443424
 20
10.4904565846
 30
0.0
 10
10.159770428
 20
10.4914204181
 30
0.0
 10
10.1620974172
 20
10.4923842543
 30
0.0
 10
10.1640366005
 20
10.493187447
 30
0.0
 10
10.165587893
 20
10.4938300097
 30
0.0
 10
10.1665575733
 20
10.494231592
 30
0.0
 10
10.1673330372
 20
10.4945529023
 30
0.0
 10
10.1679154028
 20
10.4947937634
 30
0.0
 10
10.1683982651
 20
10.4949948676
 30
0.0
 10
10.1687410619
 20
10.4951348819
 30
0.0
 10
10.1689294616
 20
10.4952160746
 30
0.0
 10
10.1690918443
 20
10.4952736324
 30
0.0
 10
10.1691736374
 20
10.4953439447
 30
0.0
 10
10.1693108054
 20
10.4954332455
 30
0.0
 10
10.1695377522
 20
10.4955915947
 30
0.0
 10
10.1698688093
 20
10.4958167242
 30
0.0
 10
10.1702631468
 20
10.4960873434
 30
0.0
 10
10.170789954
 20
10.4964480071
 30
0.0
 10
10.1714481124
 20
10.4968988921
 30
0.0
 10
10.1725013617
 20
10.497620277
 30
0.0
 10
10.1738178561
 20
10.4985220189
 30
0.0
 10
10.1753976783
 20
10.4996041046
 30
0.0
 10
10.1769774928
 20
10.5006861915
 30
0.0
 10
10.1790839147
 20
10.5021289737
 30
0.0
 10
10.1806637306
 20
10.5032110604
 30
0.0
 10
10.1817169413
 20
10.5039324515
 30
0.0
  0
SPLINE
  5
3A6
100
AcDbEntity
  8
0
100
AcDbSpline
 62
4
  6
CONTINUOUS
 70
0
 71
3
 72
281
 73
277
 74
0
 42
0.0000001
 43
0.0000001
 44
0.0000000001
 40
0.0
 40
0.0
 40
0.0
 40
0.0
 40
0.015625
 40
0.0234375
 40
0.03125
 40
0.0390625
 40
0.046875
 40
0.05078125
 40
0.0546875
 40
0.056640625
 40
0.05859375
 40
0.060546875
 40
0.0615234375
 40
0.0620117188
 40
0.0625
 40
0.0629882812
 40
0.0634765625
 40
0.064453125
 40
0.06640625
 40
0.068359375
 40
0.0703125
 40
0.07421875
 40
0.078125
 40
0.0859375
 40
0.09375
 40
0.1015625
 40
0.109375
 40
0.11328125
 40
0.1171875
 40
0.119140625
 40
0.12109375
 40
0.123046875
 40
0.1240234375
 40
0.1245117188
 40
0.125
 40
0.1254882812
 40
0.1259765625
 40
0.126953125
 40
0.12890625
 40
0.130859375
 40
0.1328125
 40
0.13671875
 40
0.140625
 40
0.1484375
 40
0.15625
 40
0.1640625
 40
0.171875
 40
0.17578125
 40
0.1796875
 40
0.181640625
 40
0.18359375
 40
0.185546875
 40
0.1865234375
 40
0.1870117188
 40
0.1875
 40
0.1879882812
 40
0.1884765625
 40
0.189453125
 40
0.19140625
 40
0.193359375
 40
0.1953125
 40
0.19921875
 40
0.203125
 40
0.2109375
 40
0.21875
 40
0.2265625
 40
0.234375
 40
0.23828125
 40
0.2421875
 40
0.244140625
 40
0.24609375
 40
0.248046875
 40
0.2490234375
 40
0.2495117188
 40
0.25
 40
0.2504882812
 40
0.2509765625
 40
0.251953125
 40
0.25390625
 40
0.255859375
 40
0.2578125
 40
0.26171875
 40
0.265625
 40
0.2734375
 40
0.28125
 40
0.2890625
 40
0.296875
 40
0.30078125
 40
0.3046875
 40
0.306640625
 40
0.30859375
 40
0.310546875
 40
0.3115234375
 40
0.3120117188
 40
0.3125
 40
0.3129882812
 40
0.3134765625
 40
0.314453125
 40
0.31640625
 40
0.318359375
 40
0.3203125
 40
0.32421875
 40
0.328125
 40
0.3359375
 40
0.34375
 40
0.3515625
 40
0.359375
 40
0.36328125
 40
0.3671875
 40
0.369140625
 40
0.37109375
 40
0.373046875
 40
0.3740234375
 40
0.3745117188
 40
0.375
 40
0.3754882812
 40
0.3759765625
 40
0.376953125
 40
0.37890625
 40
0.380859375
 40
0.3828125
 40
0.38671875
 40
0.390625
 40
0.3984375
 40
0.40625
 40
0.4140625
 40
0.421875
 40
0.42578125
 40
0.4296875
 40
0.43359375
 40
0.435546875
 40
0.4365234375
 40
0.4375
 40
0.4384765625
 40
0.439453125
 40
0.44140625
 40
0.4453125
 40
0.44921875
 40
0.453125
 40
0.4609375
 40
0.46875
 40
0.4765625
 40
0.484375
 40
0.48828125
 40
0.4921875
 40
0.49609375
 40
0.498046875
 40
0.5
 40
0.501953125
 40
0.50390625
 40
0.5078125
 40
0.51171875
 40
0.515625
 40
0.5234375
 40
0.53125
 40
0.5390625
 40
0.546875
 40
0.5546875
 40
0.55859375
 40
0.560546875
 40
0.5625
 40
0.564453125
 40
0.56640625
 40
0.5703125
 40
0.578125
 40
0.5859375
 40
0.59375
 40
0.6015625
 40
0.609375
 40
0.6171875
 40
0.62109375
 40
0.623046875
 40
0.625
 40
0.626953125
 40
0.62890625
 40
0.6328125
 40
0.640625
 40
0.6484375
 40
0.65625
 40
0.6640625
 40
0.671875
 40
0.67578125
 40
0.6796875
 40
0.68359375
 40
0.685546875
 40
0.6865234375
 40
0.6875
 40
0.6884765625
 40
0.689453125
 40
0.69140625
 40
0.6953125
 40
0.69921875
 40
0.703125
 40
0.7109375
 40
0.71875
 40
0.7265625
 40
0.734375
 40
0.73828125
 40
0.7421875
 40
0.744140625
 40
0.74609375
 40
0.748046875
 40
0.7490234375
 40
0.75
 40
0.7509765625
 40
0.751953125
 40
0.75390625
 40
0.755859375
 40
0.7578125
 40
0.76171875
 40
0.765625
 40
0.7734375
 40
0.78125
 40
0.7890625
 40
0.796875
 40
0.80078125
 40
0.8046875
 40
0.806640625
 40
0.80859375
 40
0.810546875
 40
0.8115234375
 40
0.8120117188
 40
0.8125
 40
0.8129882812
 40
0.8134765625
 40
0.814453125
 40
0.81640625
 40
0.818359375
 40
0.8203125
 40
0.82421875
 40
0.828125
 40
0.8359375
 40
0.84375
 40
0.8515625
 40
0.859375
 40
0.86328125
 40
0.8671875
 40
0.869140625
 40
0.87109375
 40
0.873046875
 40
0.8740234375
 40
0.8745117188
 40
0.875
 40
0.8754882812
 40
0.8759765625
 40
0.876953125
 40
0.87890625
 40
0.880859375
 40
0.8828125
 40
0.88671875
 40
0.890625
 40
0.8984375
 40
0.90625
 40
0.9140625
 40
0.921875
 40
0.92578125
 40
0.9296875
 40
0.931640625
 40
0.93359375
 40
0.935546875
 40
0.9365234375
 40
0.9370117188
 40
0.9375
 40
0.9379882812
 40
0.9384765625
 40
0.939453125
 40
0.94140625
 40
0.943359375
 40
0.9453125
 40
0.94921875
 40
0.953125
 40
0.9609375
 40
0.96875
 40
0.9765625
 40
0.984375
 40
1.0
 40
1.0
 40
1.0
 40
1.0
 10
10.1817169372
 20
10.5039324475
 30
0.0
 10
10.1821950712
 20
10.5046799622
 30
0.0
 10
10.1829122724
 20
10.5058012342
 30
0.0
 10
10.1838685398
 20
10.5072962636
 30
0.0
 10
10.1845857427
 20
10.5084175355
 30
0.0
 10
10.1853029367
 20
10.5095388077
 30
0.0
 10
10.1859006258
 20
10.5104732006
 30
0.0
 10
10.1863787156
 20
10.511220716
 30
0.0
 10
10.1866776619
 20
10.5116879108
 30
0.0
 10
10.1869164979
 20
10.5120616721
 30
0.0
 10
10.1870965037
 20
10.512341978
 30
0.0
 10
10.1872437132
 20
10.5125756142
 30
0.0
 10
10.1873522455
 20
10.5127390653
 30
0.0
 10
10.1874056986
 20
10.5128326132
 30
0.0
 10
10.1874699173
 20
10.5129023593
 30
0.0
 10
10.1874419028
 20
10.512973691
 30
0.0
 10
10.1874367221
 20
10.5130682468
 30
0.0
 10
10.1874126664
 20
10.5132339772
 30
0.0
 10
10.1873861378
 20
10.5134706001
 30
0.0
 10
10.187350949
 20
10.5137546053
 30
0.0
 10
10.1873052023
 20
10.5141332588
 30
0.0
 10
10.1872476178
 20
10.5146065825
 30
0.0
 10
10.1871557068
 20
10.5153638967
 30
0.0
 10
10.1870407407
 20
10.5163105406
 30
0.0
 10
10.1869028167
 20
10.5174465129
 30
0.0
 10
10.186764875
 20
10.518582485
 30
0.0
 10
10.1866499529
 20
10.5195291293
 30
0.0
 10
10.1865579537
 20
10.5202864427
 30
0.0
 10
10.1865005935
 20
10.5207597683
 30
0.0
 10
10.1864543864
 20
10.521138418
 30
0.0
 10
10.1864206044
 20
10.5214224347
 30
0.0
 10
10.1863896745
 20
10.5216590218
 30
0.0
 10
10.1863734756
 20
10.5218248161
 30
0.0
 10
10.1863557063
 20
10.5219192695
 30
0.0
 10
10.1863663601
 20
10.5219909157
 30
0.0
 10
10.1862853472
 20
10.5220594806
 30
0.0
 10
10.1862093044
 20
10.5221519751
 30
0.0
 10
10.186061332
 20
10.5223133399
 30
0.0
 10
10.1858577315
 20
10.5225441228
 30
0.0
 10
10.1856100771
 20
10.5228209501
 30
0.0
 10
10.1852810356
 20
10.5231900925
 30
0.0
 10
10.1848693351
 20
10.523651507
 30
0.0
 10
10.1842108372
 20
10.5243897776
 30
0.0
 10
10.1833876378
 20
10.5253126134
 30
0.0
 10
10.1823998337
 20
10.5264200176
 30
0.0
 10
10.1814120121
 20
10.5275274209
 30
0.0
 10
10.1805888567
 20
10.5284502588
 30
0.0
 10
10.1799302707
 20
10.5291885252
 30
0.0
 10
10.179518794
 20
10.5296499505
 30
0.0
 10
10.1791892931
 20
10.5300190707
 30
0.0
 10
10.1789430424
 20
10.5302959655
 30
0.0
 10
10.1787350503
 20
10.5305265375
 30
0.0
 10
10.1785949176
 20
10.5306882787
 30
0.0
 10
10.1785063136
 20
10.5307801701
 30
0.0
 10
10.1784638845
 20
10.5308505877
 30
0.0
 10
10.1783296242
 20
10.5309152751
 30
0.0
 10
10.1781826422
 20
10.5310035238
 30
0.0
 10
10.1779104994
 20
10.5311570276
 30
0.0
 10
10.1775295267
 20
10.5313768057
 30
0.0
 10
10.1770690196
 20
10.531640331
 30
0.0
 10
10.1764561767
 20
10.5319917709
 30
0.0
 10
10.1756897236
 20
10.5324310458
 30
0.0
 10
10.174463622
 20
10.5331338996
 30
0.0
 10
10.1729309179
 20
10.5340124619
 30
0.0
 10
10.1710917078
 20
10.5350667392
 30
0.0
 10
10.1692524816
 20
10.5361210146
 30
0.0
 10
10.1677198181
 20
10.5369995817
 30
0.0
 10
10.1664936353
 20
10.537702426
 30
0.0
 10
10.1657273886
 20
10.538141725
 30
0.0
 10
10.1651141221
 20
10.5384931154
 30
0.0
 10
10.164654909
 20
10.5387567919
 30
0.0
 10
10.1642698876
 20
10.5389760968
 30
0.0
 10
10.1640049723
 20
10.5391304453
 30
0.0
 10
10.1638464102
 20
10.5392173407
 30
0.0
 10
10.1637477204
 20
10.5392861849
 30
0.0
 10
10.1635716942
 20
10.5393409902
 30
0.0
 10
10.1633639684
 20
10.5394189609
 30
0.0
 10
10.1629878798
 20
10.539553128
 30
0.0
 10
10.1624571813
 20
10.5397459881
 30
0.0
 10
10.1618175305
 20
10.5399769096
 30
0.0
 10
10.1609656451
 20
10.5402849834
 30
0.0
 10
10.1599004521
 20
10.5406700145
 30
0.0
 10
10.1581963312
 20
10.5412860985
 30
0.0
 10
10.1560661153
 20
10.5420561916
 30
0.0
 10
10.1535098856
 20
10.5429803088
 30
0.0
 10
10.1509536419
 20
10.5439044232
 30
0.0
 10
10.1488234612
 20
10.5446745234
 30
0.0
 10
10.1471192698
 20
10.5452905931
 30
0.0
 10
10.146054256
 20
10.5456756606
 30
0.0
 10
10.1452020028
 20
10.5459836597
 30
0.0
 10
10.1445634756
 20
10.5462148092
 30
0.0
 10
10.1440292617
 20
10.5464069562
 30
0.0
 10
10.1436594486
 20
10.5465423964
 30
0.0
 10
10.1434416679
 20
10.5466183273
 30
0.0
 10
10.1432965273
 20
10.5466793981
 30
0.0
 10
10.1430818362
 20
10.5467247102
 30
0.0
 10
10.1428198414
 20
10.5467906231
 30
0.0
 10
10.1423500472
 20
10.5469034097
 30
0.0
 10
10.1416848222
 20
10.5470658723
 30
0.0
 10
10.1408840227
 20
10.5472602543
 30
0.0
 10
10.1398171735
 20
10.5475196305
 30
0.0
 10
10.1384833096
 20
10.5478437823
 30
0.0
 10
10.1363492963
 20
10.5483624633
 30
0.0
 10
10.1336817214
 20
10.5490108015
 30
0.0
 10
10.1304806579
 20
10.5497888133
 30
0.0
 10
10.1272795823
 20
10.5505668219
 30
0.0
 10
10.1246120376
 20
10.5512151683
 30
0.0
 10
10.1224779639
 20
10.5517338327
 30
0.0
 10
10.1211442536
 20
10.5520580268
 30
0.0
 10
10.1200770891
 20
10.5523173161
 30
0.0
 10
10.119277253
 20
10.5525119637
 30
0.0
 10
10.1186090136
 20
10.5526735955
 30
0.0
 10
10.1181446005
 20
10.5527878652
 30
0.0
 10
10.1178739839
 20
10.5528514018
 30
0.0
 10
10.1176857761
 20
10.5529040131
 30
0.0
 10
10.1174411686
 20
10.5529376694
 30
0.0
 10
10.1171346981
 20
10.5529891561
 30
0.0
 10
10.1165892088
 20
10.5530761775
 30
0.0
 10
10.1158147304
 20
10.5532021041
 30
0.0
 10
10.1148833052
 20
10.5533525268
 30
0.0
 10
10.1136421214
 20
10.5535533311
 30
0.0
 10
10.1120903962
 20
10.553804254
 30
0.0
 10
10.1096077735
 20
10.554205777
 30
0.0
 10
10.106504445
 20
10.5547076636
 30
0.0
 10
10.1027804846
 20
10.5553099401
 30
0.0
 10
10.0990564694
 20
10.5559121938
 30
0.0
 10
10.0959532781
 20
10.5564141373
 30
0.0
 10
10.093470381
 20
10.5568155466
 30
0.0
 10
10.0916091474
 20
10.557117001
 30
0.0
 10
10.0900551323
 20
10.5573669487
 30
0.0
 10
10.0889731836
 20
10.5575443932
 30
0.0
 10
10.0883457744
 20
10.557641916
 30
0.0
 10
10.0879010012
 20
10.5577259714
 30
0.0
 10
10.0873576696
 20
10.5577683106
 30
0.0
 10
10.0866676057
 20
10.5578393139
 30
0.0
 10
10.0854439765
 20
10.55795679
 30
0.0
 10
10.0837043088
 20
10.5581281576
 30
0.0
 10
10.0816131233
 20
10.5583322815
 30
0.0
 10
10.0788261276
 20
10.5586049763
 30
0.0
 10
10.0753419561
 20
10.5589456669
 30
0.0
 10
10.0711611219
 20
10.5593545549
 30
0.0
 10
10.0669802844
 20
10.5597634902
 30
0.0
 10
10.0634961209
 20
10.5601040627
 30
0.0
 10
10.0607091092
 20
10.5603769936
 30
0.0
 10
10.0586179727
 20
10.5605803971
 30
0.0
 10
10.0568781518
 20
10.5607540186
 30
0.0
 10
10.0554800309
 20
10.5608836786
 30
0.0
 10
10.0544485569
 20
10.561006164
 30
0.0
 10
10.0533517486
 20
10.5610323064
 30
0.0
 10
10.0519121597
 20
10.5611008167
 30
0.0
 10
10.0501048434
 20
10.5611749083
 30
0.0
 10
10.0479394153
 20
10.5612687601
 30
0.0
 10
10.0450510076
 20
10.5613921714
 30
0.0
 10
10.0414408959
 20
10.5615470131
 30
0.0
 10
10.0371086072
 20
10.5617326377
 30
0.0
 10
10.0327763005
 20
10.5619180801
 30
0.0
 10
10.0284442206
 20
10.5621044365
 30
0.0
 10
10.0248334129
 20
10.5622568387
 30
0.0
 10
10.0223073047
 20
10.5623691996
 30
0.0
 10
10.0208615386
 20
10.5624245382
 30
0.0
 10
10.0197836246
 20
10.5624910223
 30
0.0
 10
10.0186812062
 20
10.5624620195
 30
0.0
 10
10.0172198624
 20
10.5624566561
 30
0.0
 10
10.0146585285
 20
10.5624317513
 30
0.0
 10
10.0110015605
 20
10.5624042914
 30
0.0
 10
10.0066123153
 20
10.5623678425
 30
0.0
 10
10.0022232759
 20
10.5623323923
 30
0.0
 10
9.9978342969
 20
10.5622964441
 30
0.0
 10
9.9934448703
 20
10.5622614894
 30
0.0
 10
9.9897884566
 20
10.5622294639
 30
0.0
 10
9.987226135
 20
10.5622126942
 30
0.0
 10
9.9857663736
 20
10.562194298
 30
0.0
 10
9.9846590944
 20
10.5622053276
 30
0.0
 10
9.9835994369
 20
10.5621214569
 30
0.0
 10
9.9821699492
 20
10.5620427317
 30
0.0
 10
9.9796760853
 20
10.5618895394
 30
0.0
 10
9.9761093753
 20
10.5616787582
 30
0.0
 10
9.9718310599
 20
10.5614223616
 30
0.0
 10
9.9675522736
 20
10.561166898
 30
0.0
 10
9.9632736342
 20
10.5609111618
 30
0.0
 10
9.959708004
 20
10.5606981792
 30
0.0
 10
9.9568556602
 20
10.5605276154
 30
0.0
 10
9.9547159797
 20
10.560400147
 30
0.0
 10
9.9529342547
 20
10.5602924824
 30
0.0
 10
9.9516844136
 20
10.5602199445
 30
0.0
 10
9.9509743309
 20
10.5601740797
 30
0.0
 10
9.9504301848
 20
10.5601521168
 30
0.0
 10
9.9499303186
 20
10.5600826186
 30
0.0
 10
9.9492483849
 20
10.5600065352
 30
0.0
 10
9.9480621973
 20
10.5598656639
 30
0.0
 10
9.9463638813
 20
10.559668458
 30
0.0
 10
9.9443275124
 20
10.5594300822
 30
0.0
 10
9.9416117915
 20
10.5591128516
 30
0.0
 10
9.9382173325
 20
10.5587161065
 30
0.0
 10
9.934143903
 20
10.5582400998
 30
0.0
 10
9.930070481
 20
10.5577640746
 30
0.0
 10
9.9266760032
 20
10.5573673755
 30
0.0
 10
9.9239603199
 20
10.5570500528
 30
0.0
 10
9.9222632503
 20
10.5568516405
 30
0.0
 10
9.9209050621
 20
10.5566931071
 30
0.0
 10
9.919887879
 20
10.556573669
 30
0.0
 10
9.9190355879
 20
10.5564758489
 30
0.0
 10
9.9183641585
 20
10.5563937538
 30
0.0
 10
9.9178321591
 20
10.5563426726
 30
0.0
 10
9.9174086676
 20
10.5562515505
 30
0.0
 10
9.9168061091
 20
10.5561440411
 30
0.0
 10
9.9160659153
 20
10.5560048556
 30
0.0
 10
9.9151721165
 20
10.5558398871
 30
0.0
 10
9.9139823289
 20
10.5556192116
 30
0.0
 10
9.9124944288
 20
10.5553436129
 30
0.0
 10
9.9101141606
 20
10.5549025177
 30
0.0
 10
9.907138698
 20
10.5543511956
 30
0.0
 10
9.9035681961
 20
10.5536895895
 30
0.0
 10
9.8999976852
 20
10.553027987
 30
0.0
 10
9.8970222448
 20
10.5524766558
 30
0.0
 10
9.8946419323
 20
10.552035579
 30
0.0
 10
9.8931541446
 20
10.5517599333
 30
0.0
 10
9.8919641263
 20
10.5515393542
 30
0.0
 10
9.8910710325
 20
10.5513740913
 30
0.0
 10
9.890328633
 20
10.5512358267
 30
0.0
 10
9.889805332
 20
10.5511401121
 30
0.0
 10
9.8895119572
 20
10.5510837463
 30
0.0
 10
9.8892759976
 20
10.5510461812
 30
0.0
 10
9.889100925
 20
10.5509906151
 30
0.0
 10
9.8888462567
 20
10.5509228059
 30
0.0
 10
9.8884104825
 20
10.5508012144
 30
0.0
 10
9.8877827747
 20
10.5506290416
 30
0.0
 10
9.8870317395
 20
10.5504217796
 30
0.0
 10
9.886029586
 20
10.550145659
 30
0.0
 10
9.8847771588
 20
10.5498004298
 30
0.0
 10
9.8827731273
 20
10.549248107
 30
0.0
 10
9.8802681391
 20
10.5485576884
 30
0.0
 10
9.8772621296
 20
10.5477291929
 30
0.0
 10
9.874256133
 20
10.5469006942
 30
0.0
 10
9.8717511126
 20
10.5462102834
 30
0.0
 10
9.8697471455
 20
10.545657945
 30
0.0
 10
9.8684945547
 20
10.5453127556
 30
0.0
 10
9.867492737
 20
10.5450365534
 30
0.0
 10
9.8667406759
 20
10.5448295407
 30
0.0
 10
9.8661161779
 20
10.5446565878
 30
0.0
 10
9.8656746735
 20
10.5445363889
 30
0.0
 10
9.8654291865
 20
10.5444663483
 30
0.0
 10
9.865225912
 20
10.5444176365
 30
0.0
 10
9.865095874
 20
10.5443543275
 30
0.0
 10
9.8648969443
 20
10.5442750072
 30
0.0
 10
9.8645607195
 20
10.5441338243
 30
0.0
 10
9.8640741758
 20
10.5439333747
 30
0.0
 10
9.8634929868
 20
10.5436923043
 30
0.0
 10
9.8627171378
 20
10.5433710625
 30
0.0
 10
9.8617476452
 20
10.5429694469
 30
0.0
 10
9.8601962788
 20
10.5423268973
 30
0.0
 10
9.8582571324
 20
10.541523698
 30
0.0
 10
9.8559301284
 20
10.5405598645
 30
0.0
 10
9.8536031392
 20
10.5395960283
 30
0.0
 10
9.8516639559
 20
10.5387928356
 30
0.0
 10
9.8501126634
 20
10.5381502729
 30
0.0
 10
9.8491429831
 20
10.5377486906
 30
0.0
 10
9.8483675192
 20
10.5374273804
 30
0.0
 10
9.8477851536
 20
10.5371865192
 30
0.0
 10
9.8473022913
 20
10.536985415
 30
0.0
 10
9.8469594945
 20
10.5368454007
 30
0.0
 10
9.8467710948
 20
10.536764208
 30
0.0
 10
9.846608712
 20
10.5367066502
 30
0.0
 10
9.846526919
 20
10.5366363379
 30
0.0
 10
9.846389751
 20
10.5365470371
 30
0.0
 10
9.8461628042
 20
10.5363886879
 30
0.0
 10
9.8458317471
 20
10.5361635584
 30
0.0
 10
9.8454374096
 20
10.5358929392
 30
0.0
 10
9.8449106024
 20
10.5355322756
 30
0.0
 10
9.844252444
 20
10.5350813906
 30
0.0
 10
9.8431991947
 20
10.5343600056
 30
0.0
 10
9.8418827002
 20
10.5334582637
 30
0.0
 10
9.8403028781
 20
10.532376178
 30
0.0
 10
9.8387230636
 20
10.5312940911
 30
0.0
 10
9.8366166417
 20
10.5298513089
 30
0.0
 10
9.8350368258
 20
10.5287692222
 30
0.0
 10
9.8339836151
 20
10.5280478311
 30
0.0
  0
ELLIPSE
  5
3A7
100
AcDbEntity
  8
0
100
AcDbEllipse
 62
7
  6
CONTINUOUS
 10
11.1375191861
 20
8.2546303709
 30
0.0
 11
0.2130762046
 21
-0.0318493087
 31
0.0
 40
0.9139820952
 41
0.0
 42
6.2831853072
  0
ENDSEC
  0
SECTION
  2
OBJECTS
  0
DICTIONARY
  5
C
100
AcDbDictionary
280
0
281
1
  3
ACAD_GROUP
350
D
  3
ACAD_MLINESTYLE
350
17
  3
ACAD_LAYOUT
350
1A
  3
ACAD_PLOTSETTINGS
350
19
  3
ACAD_PLOTSTYLENAME
350
E
  3
ACAD_IMAGE_DICT
350
       3A9
  3
ACAD_IMAGE_VARS
350
       3AA
  3
ACAD_TABLESTYLE
350
       3AB
  0
IMAGEDEF_REACTOR
  5
3A8
100
AcDbRasterImageDefReactor
 90
2
330
283
  0
DICTIONARY
  5
D
102
{ACAD_REACTORS
330
C
102
}
100
AcDbDictionary
280
0
281
1
  0
ACDBDICTIONARYWDFLT
  5
E
102
{ACAD_REACTORS
330
C
102
}
100
AcDbDictionary
281
1
  3
Normal
350
F
100
AcDbDictionaryWithDefault
340
F
  0
DICTIONARY
  5
3A9
330
C
100
AcDbDictionary
281
1
  3
ZHK_assy_2_img_1
350
       3AE
  0
RASTERVARIABLES
  5
3AA
330
C
100
AcDbRasterVariables
 90
0
 70
0
 71
1
 72
5
  0
DICTIONARY
  5
17
102
{ACAD_REACTORS
330
C
102
}
100
AcDbDictionary
280
0
281
1
  3
Standard
350
18
  0
DICTIONARY
  5
3AB
330
C
100
AcDbDictionary
281
1
  3
Standard
350
       3AF
  3
Standard1
350
       3B0
  0
DICTIONARY
  5
19
102
{ACAD_REACTORS
330
C
102
}
100
AcDbDictionary
281
1
  0
DICTIONARY
  5
1A
102
{ACAD_REACTORS
330
C
102
}
100
AcDbDictionary
281
1
  3
Model
350
3AC
  3
Layout1
350
3AD
  0
ACDBPLACEHOLDER
  5
F
102
{ACAD_REACTORS
330
E
102
}
  0
MLINESTYLE
  5
18
102
{ACAD_REACTORS
330
17
102
}
100
AcDbMlineStyle
  2
STANDARD
 70
0
  3

 62
256
 51
90.0
 52
90.0
 71
2
 49
0.5
 62
256
  6
BYLAYER
 49
-0.5
 62
256
  6
BYLAYER
  0
LAYOUT
  5
3AC
102
{ACAD_REACTORS
330
1A
102
}
100
AcDbPlotSettings
  1

  2
none_device
  4
ANSI_C_(22.00_x_17.00_Inches)
  6

 40
0.0
 41
0.0
 42
0.0
 43
0.0
 44
558.8
 45
431.8
 46
0.0
 47
0.0
 48
0.0
 49
0.0
140
0.0
141
0.0
142
1.0
143
1.0
 70
1024
 72
0
 73
0
 74
0
  7

 75
0
147
1.0
148
0.0
149
0.0
100
AcDbLayout
  1
Model
 70
0
 71
0
 10
0.0
 20
0.0
 11
22.0
 21
17.0
 12
0.0
 22
0.0
 32
0.0
 14
0.0
 24
0.0
 34
0.0
 15
0.0
 25
0.0
 35
0.0
146
0.0
 13
0.0
 23
0.0
 33
0.0
 16
1.0
 26
0.0
 36
0.0
 17
0.0
 27
1.0
 37
0.0
 76
0
330
204
345
0
346
0
  0
LAYOUT
  5
3AD
102
{ACAD_REACTORS
330
1A
102
}
100
AcDbPlotSettings
  1

  2
none_device
  4
ANSI_C_(22.00_x_17.00_Inches)
  6

 40
0.0
 41
0.0
 42
0.0
 43
0.0
 44
558.8
 45
431.8
 46
0.0
 47
0.0
 48
0.0
 49
0.0
140
0.0
141
0.0
142
1.0
143
1.0
 70
0
 72
0
 73
0
 74
0
  7

 75
0
147
1.0
148
0.0
149
0.0
100
AcDbLayout
  1
Layout1
 70
0
 71
1
 10
0.0
 20
0.0
 11
22.0
 21
17.0
 12
0.0
 22
0.0
 32
0.0
 14
0.0
 24
0.0
 34
0.0
 15
0.0
 25
0.0
 35
0.0
146
0.0
 13
0.0
 23
0.0
 33
0.0
 16
1.0
 26
0.0
 36
0.0
 17
0.0
 27
1.0
 37
0.0
 76
0
330
205
345
0
346
0
  0
IMAGEDEF
  5
3AE
102
{ACAD_REACTORS
330
3A9
330
3A8
102
}
100
AcDbRasterImageDef
 90
0
  1
ZHK_assy_2_img_1.png
 10
369.0
 20
92.0
 11
0.0066666667
 21
0.0066666667
280
1
281
0
  0
TABLESTYLE
  5
3AF
102
{ACAD_REACTORS
330
3AB
330
286
330
287
102
}
330
3AB
100
AcDbTableStyle
  3
Standard
 70
0
 71
0
 40
0.06
 41
0.06
280
1
281
1
  7
Standard
140
0.18
170
1
 62
0
 63
7
283
0
  7
Standard
140
0.18
170
1
 62
0
 63
7
283
0
  7
Standard
140
0.18
170
1
 62
0
 63
7
283
0
  0
TABLESTYLE
  5
3B0
102
{ACAD_REACTORS
330
3AB
330
285
102
}
330
3AB
100
AcDbTableStyle
  3
Standard1
 70
1
 71
0
 40
0.06
 41
0.06
280
1
281
1
  7
Standard
140
0.18
170
1
 62
0
 63
7
283
0
  7
Standard
140
0.18
170
1
 62
0
 63
7
283
0
  7
Standard
140
0.18
170
1
 62
0
 63
7
283
0
  0
ENDSEC
  0
EOF
