999
DXF file: ZHJ_assy_2.dxf
999
Pro/ENGINEER 2014200 by Parametric Technology Corporation
  0
SECTION
  2
HEADER
  9
$ACADVER
  1
AC1021
  9
$DWGCODEPAGE
  3
ANSI_1252
  9
$EXTMAX
 10
22.0
 20
17.0
 30
0.0
  9
$EXTMIN
 10
0.0
 20
0.0
 30
0.0
  9
$LIMMIN
 10
0.0
 20
0.0
  9
$LIMMAX
 10
22.0
 20
17.0
  9
$VIEWCTR
 10
11.0
 20
8.5
  9
$VIEWSIZE
 40
17.0
  9
$CLAYER
  8
0
  9
$LTSCALE
 40
1.21
  9
$CELTYPE
  6
BYLAYER
  9
$DIMSCALE
 40
1.0
  9
$DIMASZ
 40
0.1875
  9
$DIMEXO
 40
0.0625
  9
$DIMDLI
 40
0.836
  9
$DIMEXE
 40
0.125
  9
$DIMCEN
 40
0.198
  9
$DIMLFAC
 40
1.0
  9
$DIMBLK
  1
_FILLED
  9
$DIMTXT
 40
0.1
  9
$DIMTOL
 70
0
  9
$DIMLIM
 70
0
  9
$DIMTFAC
 40
1.0
  9
$DIMGAP
 40
0.09
  9
$DIMDSEP
 70
46
  9
$AUNITS
 70
0
  9
$PDMODE
 70
3
  9
$PDSIZE
 40
0.3125
  9
$HANDSEED
  5
398
  9
$TILEMODE
 70
1
  9
$MEASUREMENT
 70
0
  9
$INSUNITS
 70
1
  0
ENDSEC
  0
SECTION
  2
CLASSES
  0
CLASS
  1
ACDBDICTIONARYWDFLT
  2
AcDbDictionaryWithDefault
  3
AutoCAD 2000
 90
0
 91
1
280
0
281
0
  0
CLASS
  1
ACDBPLACEHOLDER
  2
AcDbPlaceHolder
  3
AutoCAD 2000
 90
0
 91
1
280
0
281
0
  0
CLASS
  1
LAYOUT
  2
AcDbLayout
  3
AutoCAD 2000
 90
0
 91
0
280
0
281
0
  0
CLASS
  1
RASTERVARIABLES
  2
AcDbRasterVariables
  3
ISM
 90
0
 91
1
280
0
281
0
  0
CLASS
  1
IMAGEDEF
  2
AcDbRasterImageDef
  3
ISM
 90
0
 91
1
280
0
281
0
  0
CLASS
  1
IMAGEDEF_REACTOR
  2
AcDbRasterImageDefReactor
  3
ISM
 90
0
 91
1
280
0
281
0
  0
CLASS
  1
IMAGE
  2
AcDbRasterImage
  3
ISM
 90
127
 91
1
280
0
281
1
  0
CLASS
  1
TABLESTYLE
  2
AcDbTableStyle
  3
ObjectDBX Classes
 90
2047
 91
1
280
0
281
0
  0
CLASS
  1
ACAD_TABLE
  2
AcDbTable
  3
ObjectDBX Classes
 90
1025
 91
3
280
0
281
1
  0
ENDSEC
  0
SECTION
  2
TABLES
  0
TABLE
  2
VPORT
  5
8
100
AcDbSymbolTable
 70
2
  0
VPORT
  5
1F4
100
AcDbSymbolTableRecord
100
AcDbViewportTableRecord
  2
*ACTIVE
 70
0
 10
0.0
 20
0.0
 11
1.0
 21
1.0
 12
11.0
 22
8.5
 13
0.0
 23
0.0
 14
1.0
 24
1.0
 15
0.0
 25
0.0
 16
0.0
 26
0.0
 36
1.0
 17
0.0
 27
0.0
 37
0.0
 40
17.0
 41
1.2941176471
 42
50.0
 43
0.0
 44
0.0
 50
0.0
 51
0.0
 71
0
 72
100
 73
1
 74
1
 75
0
 76
0
 77
0
 78
0
  0
ENDTAB
  0
TABLE
  2
LTYPE
  5
5
100
AcDbSymbolTable
 70
6
  0
LTYPE
  5
14
100
AcDbSymbolTableRecord
100
AcDbLinetypeTableRecord
  2
BYBLOCK
 70
0
  3

 72
65
 73
0
 40
0.0
  0
LTYPE
  5
15
100
AcDbSymbolTableRecord
100
AcDbLinetypeTableRecord
  2
BYLAYER
 70
0
  3

 72
65
 73
0
 40
0.0
  0
LTYPE
  5
16
100
AcDbSymbolTableRecord
100
AcDbLinetypeTableRecord
  2
CONTINUOUS
 70
64
  3
Solid line
 72
65
 73
0
 40
0.0
  0
LTYPE
  5
1F5
100
AcDbSymbolTableRecord
100
AcDbLinetypeTableRecord
  2
CENTER
 70
64
  3
____ _ ____ _ ____ _ ____ _ ____ _ ____ _ ____
 72
65
 73
4
 40
0.6
 49
0.375
 74
0
 49
-0.075
 74
0
 49
0.075
 74
0
 49
-0.075
 74
0
  0
LTYPE
  5
1F6
100
AcDbSymbolTableRecord
100
AcDbLinetypeTableRecord
  2
HIDDEN
 70
64
  3
- - - - - - - - - - - - - - - - - - - -
 72
65
 73
2
 40
0.2
 49
0.1
 74
0
 49
-0.1
 74
0
  0
LTYPE
  5
1F7
100
AcDbSymbolTableRecord
100
AcDbLinetypeTableRecord
  2
PHANTOM
 70
64
  3
_____ _ _ _____ _ _ _____ _ _ _____
 72
65
 73
6
 40
0.8
 49
0.45
 74
0
 49
-0.05
 74
0
 49
0.1
 74
0
 49
-0.05
 74
0
 49
0.1
 74
0
 49
-0.05
 74
0
  0
LTYPE
  5
1F8
100
AcDbSymbolTableRecord
100
AcDbLinetypeTableRecord
  2
DOT
 70
64
  3
. . . . . . . . . . . . . . . . . . . .
 72
65
 73
2
 40
0.2
 49
0.1
 74
0
 49
-0.1
 74
0
  0
LTYPE
  5
1F9
100
AcDbSymbolTableRecord
100
AcDbLinetypeTableRecord
  2
DASHED
 70
64
  3
- - - - - - - - - - - - - - - - - - - -
 72
65
 73
2
 40
0.2
 49
0.1
 74
0
 49
-0.1
 74
0
  0
ENDTAB
  0
TABLE
  2
LAYER
  5
2
100
AcDbSymbolTable
 70
36
  0
LAYER
  5
10
100
AcDbSymbolTableRecord
100
AcDbLayerTableRecord
  2
0
 70
0
 62
7
  6
CONTINUOUS
370
-3
390
F
  0
LAYER
  5
1FA
100
AcDbSymbolTableRecord
100
AcDbLayerTableRecord
  2
DEFAULT_1
 70
0
 62
7
  6
CENTER
370
-3
390
F
  0
LAYER
  5
1FB
100
AcDbSymbolTableRecord
100
AcDbLayerTableRecord
  2
DEFAULT_2
 70
0
 62
8
  6
HIDDEN
370
-3
390
F
  0
LAYER
  5
1FC
100
AcDbSymbolTableRecord
100
AcDbLayerTableRecord
  2
DEFAULT_3
 70
0
 62
7
  6
PHANTOM
370
-3
390
F
  0
LAYER
  5
1FD
100
AcDbSymbolTableRecord
100
AcDbLayerTableRecord
  2
DATUM_PLANES
 70
0
 62
7
  6
CONTINUOUS
370
-3
390
F
  0
LAYER
  5
1FE
100
AcDbSymbolTableRecord
100
AcDbLayerTableRecord
  2
PORT_AREAS
 70
0
 62
7
  6
CONTINUOUS
370
-3
390
F
  0
LAYER
  5
1FF
100
AcDbSymbolTableRecord
100
AcDbLayerTableRecord
  2
SUNNBOMCOSMETIC
 70
0
 62
7
  6
CONTINUOUS
370
-3
390
F
  0
LAYER
  5
200
100
AcDbSymbolTableRecord
100
AcDbLayerTableRecord
  2
SUNNBOMSTAMPING
 70
0
 62
7
  6
CONTINUOUS
370
-3
390
F
  0
LAYER
  5
201
100
AcDbSymbolTableRecord
100
AcDbLayerTableRecord
  2
THREADS
 70
0
 62
7
  6
CONTINUOUS
370
-3
390
F
  0
ENDTAB
  0
TABLE
  2
STYLE
  5
3
100
AcDbSymbolTable
 70
1
  0
STYLE
  5
11
100
AcDbSymbolTableRecord
100
AcDbTextStyleTableRecord
  2
STANDARD
 70
0
 40
0.0
 41
0.8
 50
0.0
 71
0
 42
0.2
  3
txt
  4

  0
STYLE
  5
202
100
AcDbSymbolTableRecord
100
AcDbTextStyleTableRecord
  2
TEXTSTYLE_1
 70
0
 40
0.0
 41
0.8
 50
0.0
 71
0
 42
0.2
  3
gdt
  4

  0
ENDTAB
  0
TABLE
  2
VIEW
  5
6
100
AcDbSymbolTable
 70
0
  0
ENDTAB
  0
TABLE
  2
UCS
  5
7
100
AcDbSymbolTable
 70
0
  0
ENDTAB
  0
TABLE
  2
APPID
  5
9
100
AcDbSymbolTable
 70
1
  0
APPID
  5
203
100
AcDbSymbolTableRecord
100
AcDbRegAppTableRecord
  2
ACAD
 70
0
  0
ENDTAB
  0
TABLE
  2
BLOCK_RECORD
  5
1
100
AcDbSymbolTable
 70
0
  0
BLOCK_RECORD
  5
204
100
AcDbSymbolTableRecord
100
AcDbBlockTableRecord
  2
*Model_Space
  0
BLOCK_RECORD
  5
205
100
AcDbSymbolTableRecord
100
AcDbBlockTableRecord
  2
*Paper_Space
  0
BLOCK_RECORD
  5
206
100
AcDbSymbolTableRecord
100
AcDbBlockTableRecord
  2
SUN_FIRST_THIRD_ANGLE_BL0
  0
BLOCK_RECORD
  5
207
100
AcDbSymbolTableRecord
100
AcDbBlockTableRecord
  2
*T1
  0
BLOCK_RECORD
  5
208
100
AcDbSymbolTableRecord
100
AcDbBlockTableRecord
  2
*T2
  0
BLOCK_RECORD
  5
209
100
AcDbSymbolTableRecord
100
AcDbBlockTableRecord
  2
*T3
  0
ENDTAB
  0
TABLE
  2
DIMSTYLE
  5
A
100
AcDbSymbolTable
 70
1
100
AcDbDimStyleTable
 71
0
  0
DIMSTYLE
105
20A
100
AcDbSymbolTableRecord
100
AcDbDimStyleTableRecord
  2
STANDARD
 70
0
  3

  4

 40
1.0
 41
0.1875
 42
0.0625
 43
0.38
 44
0.125
 45
0.0
 46
0.0
 47
0.001
 48
0.001
140
0.1
141
0.09
142
0.0
143
25.4
144
1.0
145
0.0
146
1.0
147
0.09
 71
0.0
 72
0.0
 73
1
 74
1
 75
0
 76
0
 77
0
 78
4
170
0
171
2
172
0
173
0
174
0
175
0
176
0
177
0
178
0
270
2
271
3
272
3
273
2
274
2
275
0
280
0
281
0
282
0
283
1
284
4
285
0
286
0
287
3
288
0
340
11
278
46
  0
ENDTAB
  0
ENDSEC
  0
SECTION
  2
BLOCKS
  0
BLOCK
  5
20
100
AcDbEntity
  8
0
100
AcDbBlockBegin
  2
*Model_Space
 70
0
 10
0.0
 20
0.0
 30
0.0
  3
*Model_Space
  1

  0
ENDBLK
  5
21
100
AcDbEntity
  8
0
100
AcDbBlockEnd
  0
BLOCK
  5
1C
100
AcDbEntity
  8
0
100
AcDbBlockBegin
  2
*Paper_Space
 70
0
 10
0.0
 20
0.0
 30
0.0
  3
*Paper_Space
  1

  0
ENDBLK
  5
1D
100
AcDbEntity
  8
0
100
AcDbBlockEnd
  0
BLOCK
  5
20B
100
AcDbEntity
  8
0
100
AcDbBlockBegin
 62
2
  6
CONTINUOUS
  2
SUN_FIRST_THIRD_ANGLE_BL0
 70
64
 10
20.4816717061
 20
1.2289683772
  3
SUN_FIRST_THIRD_ANGLE_BL0
  1

  0
TEXT
  5
20C
100
AcDbEntity
  8
0
100
AcDbText
 62
2
  6
CONTINUOUS
 10
19.4750896608
 20
1.4136269581
  7
STANDARD
 40
0.08
  1
FIRST ANGLE
 41
0.8
 72
0
100
AcDbText
  0
TEXT
  5
20D
100
AcDbEntity
  8
0
100
AcDbText
 62
2
  6
CONTINUOUS
 10
20.7842537513
 20
1.4047600029
  7
STANDARD
 40
0.08
  1
THIRD ANGLE
 41
0.8
 72
0
100
AcDbText
  0
LINE
  5
20E
100
AcDbEntity
  8
0
100
AcDbLine
 62
7
  6
CONTINUOUS
 10
19.4767170086
 20
1.1727031207
 11
19.6334271527
 21
1.1717972817
  0
LINE
  5
20F
100
AcDbEntity
  8
0
100
AcDbLine
 62
7
  6
CONTINUOUS
 10
19.6596964832
 20
1.1717972817
 11
19.6950230232
 21
1.171593082
  0
LINE
  5
210
100
AcDbEntity
  8
0
100
AcDbLine
 62
7
  6
CONTINUOUS
 10
19.7194818561
 20
1.1708914427
 11
19.8852396156
 21
1.1699333054
  0
LINE
  5
211
100
AcDbEntity
  8
0
100
AcDbLine
 62
7
  6
CONTINUOUS
 10
19.4758111696
 20
1.2723454088
 11
19.88525039
 21
1.3511534004
  0
LINE
  5
212
100
AcDbEntity
  8
0
100
AcDbLine
 62
7
  6
CONTINUOUS
 10
19.88525039
 20
1.3511534004
 11
19.8831348489
 21
0.9851647912
  0
LINE
  5
213
100
AcDbEntity
  8
0
100
AcDbLine
 62
7
  6
CONTINUOUS
 10
19.8831348489
 20
0.9851647912
 11
19.4767170086
 21
1.0658141206
  0
LINE
  5
214
100
AcDbEntity
  8
0
100
AcDbLine
 62
7
  6
CONTINUOUS
 10
19.4767170086
 20
1.0658141206
 11
19.4779056764
 21
1.2714536432
  0
CIRCLE
  5
215
100
AcDbEntity
  8
0
100
AcDbCircle
 62
7
  6
CONTINUOUS
 10
20.2068232291
 20
1.1717972817
 40
0.175742101
  0
CIRCLE
  5
216
100
AcDbEntity
  8
0
100
AcDbCircle
 62
7
  6
CONTINUOUS
 10
20.2068232291
 20
1.1717972817
 40
0.1005522074
  0
LINE
  5
217
100
AcDbEntity
  8
0
100
AcDbLine
 62
7
  6
CONTINUOUS
 10
20.2077290681
 20
1.3756110529
 11
20.2071171714
 21
1.2379342989
  0
LINE
  5
218
100
AcDbEntity
  8
0
100
AcDbLine
 62
7
  6
CONTINUOUS
 10
20.2077290681
 20
1.2016899681
 11
20.2074674401
 21
1.1428236749
  0
LINE
  5
219
100
AcDbEntity
  8
0
100
AcDbLine
 62
7
  6
CONTINUOUS
 10
20.208634907
 20
1.101141841
 11
20.2080230104
 21
0.963465087
  0
LINE
  5
21A
100
AcDbEntity
  8
0
100
AcDbLine
 62
7
  6
CONTINUOUS
 10
20.0066328138
 20
1.1745147986
 11
20.1443095678
 21
1.1739029019
  0
LINE
  5
21B
100
AcDbEntity
  8
0
100
AcDbLine
 62
7
  6
CONTINUOUS
 10
20.1832714155
 20
1.1727031207
 11
20.238153505
 21
1.172335442
  0
LINE
  5
21C
100
AcDbEntity
  8
0
100
AcDbLine
 62
7
  6
CONTINUOUS
 10
20.2756669918
 20
1.1717972817
 11
20.407916871
 21
1.1712095044
  0
CIRCLE
  5
21D
100
AcDbEntity
  8
0
100
AcDbCircle
 62
7
  6
CONTINUOUS
 10
20.7509457401
 20
1.1693297793
 40
0.1722024983
  0
CIRCLE
  5
21E
100
AcDbEntity
  8
0
100
AcDbCircle
 62
7
  6
CONTINUOUS
 10
20.7509457401
 20
1.1693297793
 40
0.0985164967
  0
LINE
  5
21F
100
AcDbEntity
  8
0
100
AcDbLine
 62
7
  6
CONTINUOUS
 10
20.7169767782
 20
1.170462078
 11
20.7825395137
 21
1.1682766535
  0
LINE
  5
220
100
AcDbEntity
  8
0
100
AcDbLine
 62
7
  6
CONTINUOUS
 10
20.8177513651
 20
1.1693297793
 11
20.947965719
 21
1.1693297793
  0
LINE
  5
221
100
AcDbEntity
  8
0
100
AcDbLine
 62
7
  6
CONTINUOUS
 10
20.6875370113
 20
1.170462078
 11
20.5573226574
 21
1.170462078
  0
LINE
  5
222
100
AcDbEntity
  8
0
100
AcDbLine
 62
7
  6
CONTINUOUS
 10
20.7486811426
 20
1.1987695462
 11
20.7486811426
 21
1.1432869085
  0
LINE
  5
223
100
AcDbEntity
  8
0
100
AcDbLine
 62
7
  6
CONTINUOUS
 10
20.7498134414
 20
1.1059210505
 11
20.7498134414
 21
0.9757066966
  0
LINE
  5
224
100
AcDbEntity
  8
0
100
AcDbLine
 62
7
  6
CONTINUOUS
 10
20.7486811426
 20
1.2338708068
 11
20.7486811426
 21
1.3640851607
  0
LINE
  5
225
100
AcDbEntity
  8
0
100
AcDbLine
 62
7
  6
CONTINUOUS
 10
21.0702539817
 20
1.2701043662
 11
21.4790138229
 21
1.3448360823
  0
LINE
  5
226
100
AcDbEntity
  8
0
100
AcDbLine
 62
7
  6
CONTINUOUS
 10
21.4790138229
 20
1.3448360823
 11
21.4790138229
 21
0.9779712941
  0
LINE
  5
227
100
AcDbEntity
  8
0
100
AcDbLine
 62
7
  6
CONTINUOUS
 10
21.4790138229
 20
0.9779712941
 11
21.069121683
 21
1.0617614
  0
LINE
  5
228
100
AcDbEntity
  8
0
100
AcDbLine
 62
7
  6
CONTINUOUS
 10
21.0702539817
 20
1.2701043662
 11
21.069121683
 21
1.0617614
  0
LINE
  5
229
100
AcDbEntity
  8
0
100
AcDbLine
 62
7
  6
CONTINUOUS
 10
21.4790138229
 20
1.1693297793
 11
21.3159628059
 21
1.1693297793
  0
LINE
  5
22A
100
AcDbEntity
  8
0
100
AcDbLine
 62
7
  6
CONTINUOUS
 10
21.2876553377
 20
1.1693297793
 11
21.2502894796
 21
1.1693297793
  0
LINE
  5
22B
100
AcDbEntity
  8
0
100
AcDbLine
 62
7
  6
CONTINUOUS
 10
21.2208497126
 20
1.1659328831
 11
21.0713862804
 21
1.1659328831
  0
LINE
  5
22C
100
AcDbEntity
  8
0
100
AcDbLine
 62
7
  6
CONTINUOUS
 10
20.4796138713
 20
1.5284908897
 11
20.4766766948
 21
0.9294458646
  0
ENDBLK
  5
22D
100
AcDbEntity
  8
0
  6
BYBLOCK
 62
0
100
AcDbBlockEnd
  0
BLOCK
  5
22E
100
AcDbEntity
  8
0
100
AcDbBlockBegin
  2
*T1
 70
1
 10
0.0
 20
0.0
  3
*T1
  1

  0
LINE
  5
22F
100
AcDbEntity
  8
0
100
AcDbLine
 62
2
  6
CONTINUOUS
 10
9.275
 20
0.0
 11
-0.0
 21
0.0
  0
LINE
  5
230
100
AcDbEntity
  8
0
100
AcDbLine
 62
2
  6
CONTINUOUS
 10
9.275
 20
0.0
 11
9.275
 21
1.25
  0
LINE
  5
231
100
AcDbEntity
  8
0
100
AcDbLine
 62
2
  6
CONTINUOUS
 10
9.275
 20
0.625
 11
-0.0
 21
0.625
  0
LINE
  5
232
100
AcDbEntity
  8
0
100
AcDbLine
 62
2
  6
CONTINUOUS
 10
9.275
 20
1.25
 11
-0.0
 21
1.25
  0
LINE
  5
233
100
AcDbEntity
  8
0
100
AcDbLine
 62
2
  6
CONTINUOUS
 10
6.8
 20
0.0
 11
6.8
 21
1.25
  0
LINE
  5
234
100
AcDbEntity
  8
0
100
AcDbLine
 62
2
  6
CONTINUOUS
 10
6.4
 20
0.0
 11
6.4
 21
0.625
  0
LINE
  5
235
100
AcDbEntity
  8
0
100
AcDbLine
 62
2
  6
CONTINUOUS
 10
5.9
 20
0.0
 11
5.9
 21
0.625
  0
LINE
  5
236
100
AcDbEntity
  8
0
100
AcDbLine
 62
2
  6
CONTINUOUS
 10
5.2
 20
0.0
 11
5.2
 21
0.625
  0
LINE
  5
237
100
AcDbEntity
  8
0
100
AcDbLine
 62
2
  6
CONTINUOUS
 10
4.1
 20
0.0
 11
4.1
 21
1.25
  0
LINE
  5
238
100
AcDbEntity
  8
0
100
AcDbLine
 62
2
  6
CONTINUOUS
 10
-0.0
 20
0.0
 11
-0.0
 21
1.25
  0
MTEXT
  5
239
100
AcDbEntity
  8
0
100
AcDbMText
 62
2
  6
CONTINUOUS
  7
STANDARD
 71
2
 72
1
 10
6.6
 20
0.325
 30
0.0
 11
1.0
 21
0.0
 31
0.0
 44
0.9
  1
2
 40
0.125
 41
0.2
  0
MTEXT
  5
23A
100
AcDbEntity
  8
0
100
AcDbMText
 62
2
  6
CONTINUOUS
  7
STANDARD
 71
2
 72
1
 10
6.15
 20
0.325
 30
0.0
 11
1.0
 21
0.0
 31
0.0
 44
0.9
  1
C
 40
0.125
 41
0.2
  0
MTEXT
  5
23B
100
AcDbEntity
  8
0
100
AcDbMText
 62
2
  6
CONTINUOUS
  7
STANDARD
 71
2
 72
1
 10
5.55
 20
0.325
 30
0.0
 11
1.0
 21
0.0
 31
0.0
 44
0.9
  1
1.000
 40
0.125
 41
1.0
  0
MTEXT
  5
23C
100
AcDbEntity
  8
0
100
AcDbMText
 62
2
  6
CONTINUOUS
  7
STANDARD
 71
2
 72
1
 10
4.65
 20
0.325
 30
0.0
 11
1.0
 21
0.0
 31
0.0
 44
0.9
  1
Jun-28-23
 40
0.125
 41
1.8
  0
MTEXT
  5
23D
100
AcDbEntity
  8
0
100
AcDbMText
 62
2
  6
CONTINUOUS
  7
STANDARD
 71
2
 72
1
 10
2.05
 20
0.4625
 30
0.0
 11
1.0
 21
0.0
 31
0.0
 44
0.9
  1
T-10A Subplate ISO 05 - X&Y (US)\PP to T, side ports
 40
0.125
 41
6.4
  0
MTEXT
  5
23E
100
AcDbEntity
  8
0
100
AcDbMText
 62
2
  6
CONTINUOUS
  7
STANDARD
 71
1
 72
1
 10
6.45
 20
0.5625
 30
0.0
 11
1.0
 21
0.0
 31
0.0
 44
0.9
  1
SHEET
 40
0.06
 41
0.48
  0
MTEXT
  5
23F
100
AcDbEntity
  8
0
100
AcDbMText
 62
2
  6
CONTINUOUS
  7
STANDARD
 71
1
 72
1
 10
5.95
 20
0.5625
 30
0.0
 11
1.0
 21
0.0
 31
0.0
 44
0.9
  1
DWG SIZE
 40
0.06
 41
0.768
  0
MTEXT
  5
240
100
AcDbEntity
  8
0
100
AcDbMText
 62
2
  6
CONTINUOUS
  7
STANDARD
 71
1
 72
1
 10
5.25
 20
0.5625
 30
0.0
 11
1.0
 21
0.0
 31
0.0
 44
0.9
  1
SCALE
 40
0.06
 41
0.48
  0
MTEXT
  5
241
100
AcDbEntity
  8
0
100
AcDbMText
 62
2
  6
CONTINUOUS
  7
STANDARD
 71
1
 72
1
 10
4.15
 20
0.5625
 30
0.0
 11
1.0
 21
0.0
 31
0.0
 44
0.9
  1
DATE
 40
0.06
 41
0.384
  0
MTEXT
  5
242
100
AcDbEntity
  8
0
100
AcDbMText
 62
2
  6
CONTINUOUS
  7
STANDARD
 71
1
 72
1
 10
0.05
 20
0.5625
 30
0.0
 11
1.0
 21
0.0
 31
0.0
 44
0.9
  1
DESCRIPTION
 40
0.06
 41
1.056
  0
MTEXT
  5
243
100
AcDbEntity
  8
0
100
AcDbMText
 62
2
  6
CONTINUOUS
  7
STANDARD
 71
2
 72
1
 10
5.45
 20
1.0375
 30
0.0
 11
1.0
 21
0.0
 31
0.0
 44
0.9
  1
ALL DIMENSIONS IN INCH\PVIEWS ARE THIRD ANGLE
 40
0.12
 41
4.224
  0
MTEXT
  5
244
100
AcDbEntity
  8
0
100
AcDbMText
 62
2
  6
CONTINUOUS
  7
STANDARD
 71
2
 72
1
 10
2.05
 20
0.95
 30
0.0
 11
1.0
 21
0.0
 31
0.0
 44
0.9
  1
ZHJ
 40
0.125
 41
0.6
  0
MTEXT
  5
245
100
AcDbEntity
  8
0
100
AcDbMText
 62
2
  6
CONTINUOUS
  7
STANDARD
 71
1
 72
1
 10
0.05
 20
1.1875
 30
0.0
 11
1.0
 21
0.0
 31
0.0
 44
0.9
  1
MODEL
 40
0.06
 41
0.48
  0
ENDBLK
  5
246
100
AcDbEntity
  8
0
  6
BYBLOCK
 62
0
100
AcDbBlockEnd
  0
BLOCK
  5
247
100
AcDbEntity
  8
0
100
AcDbBlockBegin
  2
*T2
 70
1
 10
0.0
 20
0.0
  3
*T2
  1

  0
LINE
  5
248
100
AcDbEntity
  8
0
100
AcDbLine
 62
2
  6
CONTINUOUS
 10
0.0
 20
0.0
 11
9.055
 21
0.0
  0
LINE
  5
249
100
AcDbEntity
  8
0
100
AcDbLine
 62
2
  6
CONTINUOUS
 10
0.0
 20
0.0
 11
0.0
 21
-2.594
  0
LINE
  5
24A
100
AcDbEntity
  8
0
100
AcDbLine
 62
2
  6
CONTINUOUS
 10
0.0
 20
-0.344
 11
9.055
 21
-0.344
  0
LINE
  5
24B
100
AcDbEntity
  8
0
100
AcDbLine
 62
2
  6
CONTINUOUS
 10
0.0
 20
-0.594
 11
9.055
 21
-0.594
  0
LINE
  5
24C
100
AcDbEntity
  8
0
100
AcDbLine
 62
2
  6
CONTINUOUS
 10
0.0
 20
-0.844
 11
9.055
 21
-0.844
  0
LINE
  5
24D
100
AcDbEntity
  8
0
100
AcDbLine
 62
2
  6
CONTINUOUS
 10
0.0
 20
-1.094
 11
9.055
 21
-1.094
  0
LINE
  5
24E
100
AcDbEntity
  8
0
100
AcDbLine
 62
2
  6
CONTINUOUS
 10
0.0
 20
-1.344
 11
9.055
 21
-1.344
  0
LINE
  5
24F
100
AcDbEntity
  8
0
100
AcDbLine
 62
2
  6
CONTINUOUS
 10
0.0
 20
-1.594
 11
9.055
 21
-1.594
  0
LINE
  5
250
100
AcDbEntity
  8
0
100
AcDbLine
 62
2
  6
CONTINUOUS
 10
0.0
 20
-1.844
 11
9.055
 21
-1.844
  0
LINE
  5
251
100
AcDbEntity
  8
0
100
AcDbLine
 62
2
  6
CONTINUOUS
 10
0.0
 20
-2.094
 11
9.055
 21
-2.094
  0
LINE
  5
252
100
AcDbEntity
  8
0
100
AcDbLine
 62
2
  6
CONTINUOUS
 10
0.0
 20
-2.344
 11
9.055
 21
-2.344
  0
LINE
  5
253
100
AcDbEntity
  8
0
100
AcDbLine
 62
2
  6
CONTINUOUS
 10
0.0
 20
-2.594
 11
9.055
 21
-2.594
  0
LINE
  5
254
100
AcDbEntity
  8
0
100
AcDbLine
 62
2
  6
CONTINUOUS
 10
3.055
 20
0.0
 11
3.055
 21
-2.594
  0
LINE
  5
255
100
AcDbEntity
  8
0
100
AcDbLine
 62
2
  6
CONTINUOUS
 10
9.055
 20
0.0
 11
9.055
 21
-2.594
  0
MTEXT
  5
256
100
AcDbEntity
  8
0
100
AcDbMText
 62
2
  6
CONTINUOUS
  7
STANDARD
 71
2
 72
1
 10
1.5275
 20
-0.0995
 30
0.0
 11
1.0
 21
0.0
 31
0.0
 44
0.9
  1
Technical Data
 40
0.145
 41
3.248
  0
MTEXT
  5
257
100
AcDbEntity
  8
0
100
AcDbMText
 62
2
  6
CONTINUOUS
  7
STANDARD
 71
2
 72
1
 10
4.555
 20
-0.0995
 30
0.0
 11
1.0
 21
0.0
 31
0.0
 44
0.9
  1
U.S. Units
 40
0.145
 41
2.32
  0
MTEXT
  5
258
100
AcDbEntity
  8
0
100
AcDbMText
 62
2
  6
CONTINUOUS
  7
STANDARD
 71
2
 72
1
 10
7.555
 20
-0.0995
 30
0.0
 11
1.0
 21
0.0
 31
0.0
 44
0.9
  1
Metric Units
 40
0.145
 41
2.784
  0
MTEXT
  5
259
100
AcDbEntity
  8
0
100
AcDbMText
 62
2
  6
CONTINUOUS
  7
STANDARD
 71
2
 72
1
 10
1.5275
 20
-0.4065
 30
0.0
 11
1.0
 21
0.0
 31
0.0
 44
0.9
  1
Cavity
 40
0.125
 41
1.2
  0
MTEXT
  5
25A
100
AcDbEntity
  8
0
100
AcDbMText
 62
2
  6
CONTINUOUS
  7
STANDARD
 71
2
 72
1
 10
6.055
 20
-0.4065
 30
0.0
 11
1.0
 21
0.0
 31
0.0
 44
0.9
  1
T-10A
 40
0.125
 41
1.0
  0
MTEXT
  5
25B
100
AcDbEntity
  8
0
100
AcDbMText
 62
2
  6
CONTINUOUS
  7
STANDARD
 71
2
 72
1
 10
1.5275
 20
-0.6565
 30
0.0
 11
1.0
 21
0.0
 31
0.0
 44
0.9
  1
Body Features
 40
0.125
 41
2.6
  0
MTEXT
  5
25C
100
AcDbEntity
  8
0
100
AcDbMText
 62
2
  6
CONTINUOUS
  7
STANDARD
 71
2
 72
1
 10
6.055
 20
-0.6565
 30
0.0
 11
1.0
 21
0.0
 31
0.0
 44
0.9
  1
P to T, side ports
 40
0.125
 41
3.6
  0
MTEXT
  5
25D
100
AcDbEntity
  8
0
100
AcDbMText
 62
2
  6
CONTINUOUS
  7
STANDARD
 71
2
 72
1
 10
1.5275
 20
-0.9065
 30
0.0
 11
1.0
 21
0.0
 31
0.0
 44
0.9
  1
Body Type
 40
0.125
 41
1.8
  0
MTEXT
  5
25E
100
AcDbEntity
  8
0
100
AcDbMText
 62
2
  6
CONTINUOUS
  7
STANDARD
 71
2
 72
1
 10
6.055
 20
-0.9065
 30
0.0
 11
1.0
 21
0.0
 31
0.0
 44
0.9
  1
Subplate
 40
0.125
 41
1.6
  0
MTEXT
  5
25F
100
AcDbEntity
  8
0
100
AcDbMText
 62
2
  6
CONTINUOUS
  7
STANDARD
 71
2
 72
1
 10
1.5275
 20
-1.1565
 30
0.0
 11
1.0
 21
0.0
 31
0.0
 44
0.9
  1
Interface
 40
0.125
 41
1.8
  0
MTEXT
  5
260
100
AcDbEntity
  8
0
100
AcDbMText
 62
2
  6
CONTINUOUS
  7
STANDARD
 71
2
 72
1
 10
6.055
 20
-1.1565
 30
0.0
 11
1.0
 21
0.0
 31
0.0
 44
0.9
  1
ISO 05 - X&Y (US)
 40
0.125
 41
3.4
  0
MTEXT
  5
261
100
AcDbEntity
  8
0
100
AcDbMText
 62
2
  6
CONTINUOUS
  7
STANDARD
 71
2
 72
1
 10
1.5275
 20
-1.4065
 30
0.0
 11
1.0
 21
0.0
 31
0.0
 44
0.9
  1
Open Cavity Quantity
 40
0.125
 41
4.0
  0
MTEXT
  5
262
100
AcDbEntity
  8
0
100
AcDbMText
 62
2
  6
CONTINUOUS
  7
STANDARD
 71
2
 72
1
 10
6.055
 20
-1.4065
 30
0.0
 11
1.0
 21
0.0
 31
0.0
 44
0.9
  1
1
 40
0.125
 41
0.2
  0
MTEXT
  5
263
100
AcDbEntity
  8
0
100
AcDbMText
 62
2
  6
CONTINUOUS
  7
STANDARD
 71
2
 72
1
 10
1.5275
 20
-1.6565
 30
0.0
 11
1.0
 21
0.0
 31
0.0
 44
0.9
  1
Weight
 40
0.125
 41
1.2
  0
MTEXT
  5
264
100
AcDbEntity
  8
0
100
AcDbMText
 62
2
  6
CONTINUOUS
  7
STANDARD
 71
2
 72
1
 10
4.555
 20
-1.6565
 30
0.0
 11
1.0
 21
0.0
 31
0.0
 44
0.9
  1
3.574 lb.
 40
0.125
 41
1.8
  0
MTEXT
  5
265
100
AcDbEntity
  8
0
100
AcDbMText
 62
2
  6
CONTINUOUS
  7
STANDARD
 71
2
 72
1
 10
7.555
 20
-1.6565
 30
0.0
 11
1.0
 21
0.0
 31
0.0
 44
0.9
  1
1,621 kg.
 40
0.125
 41
1.8
  0
MTEXT
  5
266
100
AcDbEntity
  8
0
100
AcDbMText
 62
2
  6
CONTINUOUS
  7
STANDARD
 71
2
 72
1
 10
1.5275
 20
-1.9065
 30
0.0
 11
1.0
 21
0.0
 31
0.0
 44
0.9
  1
Mounting Hole Diameter
 40
0.125
 41
4.4
  0
MTEXT
  5
267
100
AcDbEntity
  8
0
100
AcDbMText
 62
2
  6
CONTINUOUS
  7
STANDARD
 71
2
 72
1
 10
4.555
 20
-1.9065
 30
0.0
 11
1.0
 21
0.0
 31
0.0
 44
0.9
  1
.44 in.
 40
0.125
 41
1.4
  0
MTEXT
  5
268
100
AcDbEntity
  8
0
100
AcDbMText
 62
2
  6
CONTINUOUS
  7
STANDARD
 71
2
 72
1
 10
7.555
 20
-1.9065
 30
0.0
 11
1.0
 21
0.0
 31
0.0
 44
0.9
  1
11,1 mm
 40
0.125
 41
1.4
  0
MTEXT
  5
269
100
AcDbEntity
  8
0
100
AcDbMText
 62
2
  6
CONTINUOUS
  7
STANDARD
 71
2
 72
1
 10
1.5275
 20
-2.1565
 30
0.0
 11
1.0
 21
0.0
 31
0.0
 44
0.9
  1
Mounting Hole Depth
 40
0.125
 41
3.8
  0
MTEXT
  5
26A
100
AcDbEntity
  8
0
100
AcDbMText
 62
2
  6
CONTINUOUS
  7
STANDARD
 71
2
 72
1
 10
6.055
 20
-2.1565
 30
0.0
 11
1.0
 21
0.0
 31
0.0
 44
0.9
  1
Through
 40
0.125
 41
1.4
  0
MTEXT
  5
26B
100
AcDbEntity
  8
0
100
AcDbMText
 62
2
  6
CONTINUOUS
  7
STANDARD
 71
2
 72
1
 10
1.5275
 20
-2.4065
 30
0.0
 11
1.0
 21
0.0
 31
0.0
 44
0.9
  1
Mounting Hole Quantity
 40
0.125
 41
4.4
  0
MTEXT
  5
26C
100
AcDbEntity
  8
0
100
AcDbMText
 62
2
  6
CONTINUOUS
  7
STANDARD
 71
2
 72
1
 10
6.055
 20
-2.4065
 30
0.0
 11
1.0
 21
0.0
 31
0.0
 44
0.9
  1
4
 40
0.125
 41
0.2
  0
ENDBLK
  5
26D
100
AcDbEntity
  8
0
  6
BYBLOCK
 62
0
100
AcDbBlockEnd
  0
BLOCK
  5
26E
100
AcDbEntity
  8
0
100
AcDbBlockBegin
  2
*T3
 70
1
 10
0.0
 20
0.0
  3
*T3
  1

  0
LINE
  5
26F
100
AcDbEntity
  8
0
100
AcDbLine
 62
2
  6
CONTINUOUS
 10
0.0
 20
0.0
 11
4.6
 21
0.0
  0
LINE
  5
270
100
AcDbEntity
  8
0
100
AcDbLine
 62
2
  6
CONTINUOUS
 10
0.0
 20
0.0
 11
0.0
 21
-1.18775
  0
LINE
  5
271
100
AcDbEntity
  8
0
100
AcDbLine
 62
2
  6
CONTINUOUS
 10
0.0
 20
-0.34375
 11
4.6
 21
-0.34375
  0
LINE
  5
272
100
AcDbEntity
  8
0
100
AcDbLine
 62
2
  6
CONTINUOUS
 10
0.0
 20
-0.68775
 11
4.6
 21
-0.68775
  0
LINE
  5
273
100
AcDbEntity
  8
0
100
AcDbLine
 62
2
  6
CONTINUOUS
 10
0.0
 20
-0.93775
 11
4.6
 21
-0.93775
  0
LINE
  5
274
100
AcDbEntity
  8
0
100
AcDbLine
 62
2
  6
CONTINUOUS
 10
0.0
 20
-1.18775
 11
4.6
 21
-1.18775
  0
LINE
  5
275
100
AcDbEntity
  8
0
100
AcDbLine
 62
2
  6
CONTINUOUS
 10
1.3
 20
-0.34375
 11
1.3
 21
-1.18775
  0
LINE
  5
276
100
AcDbEntity
  8
0
100
AcDbLine
 62
2
  6
CONTINUOUS
 10
3.3
 20
-0.34375
 11
3.3
 21
-1.18775
  0
LINE
  5
277
100
AcDbEntity
  8
0
100
AcDbLine
 62
2
  6
CONTINUOUS
 10
4.6
 20
0.0
 11
4.6
 21
-1.18775
  0
MTEXT
  5
278
100
AcDbEntity
  8
0
100
AcDbMText
 62
2
  6
CONTINUOUS
  7
STANDARD
 71
2
 72
1
 10
2.3
 20
-0.099375
 30
0.0
 11
1.0
 21
0.0
 31
0.0
 44
0.9
  1
Port Headings
 40
0.145
 41
3.016
  0
MTEXT
  5
279
100
AcDbEntity
  8
0
100
AcDbMText
 62
2
  6
CONTINUOUS
  7
STANDARD
 71
2
 72
1
 10
0.65
 20
-0.44325
 30
0.0
 11
1.0
 21
0.0
 31
0.0
 44
0.9
  1
Product
 40
0.145
 41
1.624
  0
MTEXT
  5
27A
100
AcDbEntity
  8
0
100
AcDbMText
 62
2
  6
CONTINUOUS
  7
STANDARD
 71
2
 72
1
 10
2.3
 20
-0.44325
 30
0.0
 11
1.0
 21
0.0
 31
0.0
 44
0.9
  1
Port
 40
0.145
 41
0.928
  0
MTEXT
  5
27B
100
AcDbEntity
  8
0
100
AcDbMText
 62
2
  6
CONTINUOUS
  7
STANDARD
 71
2
 72
1
 10
3.95
 20
-0.44325
 30
0.0
 11
1.0
 21
0.0
 31
0.0
 44
0.9
  1
Size
 40
0.145
 41
0.928
  0
MTEXT
  5
27C
100
AcDbEntity
  8
0
100
AcDbMText
 62
2
  6
CONTINUOUS
  7
STANDARD
 71
2
 72
1
 10
0.65
 20
-0.75025
 30
0.0
 11
1.0
 21
0.0
 31
0.0
 44
0.9
  1
ZHJ
 40
0.125
 41
0.6
  0
MTEXT
  5
27D
100
AcDbEntity
  8
0
100
AcDbMText
 62
2
  6
CONTINUOUS
  7
STANDARD
 71
2
 72
1
 10
2.3
 20
-0.75025
 30
0.0
 11
1.0
 21
0.0
 31
0.0
 44
0.9
  1
Ports A, B, P, T
 40
0.125
 41
3.2
  0
MTEXT
  5
27E
100
AcDbEntity
  8
0
100
AcDbMText
 62
2
  6
CONTINUOUS
  7
STANDARD
 71
2
 72
1
 10
3.95
 20
-0.75025
 30
0.0
 11
1.0
 21
0.0
 31
0.0
 44
0.9
  1
3/4" NPTF
 40
0.125
 41
1.8
  0
MTEXT
  5
27F
100
AcDbEntity
  8
0
100
AcDbMText
 62
2
  6
CONTINUOUS
  7
STANDARD
 71
2
 72
1
 10
0.65
 20
-1.00025
 30
0.0
 11
1.0
 21
0.0
 31
0.0
 44
0.9
  1
ZHJ
 40
0.125
 41
0.6
  0
MTEXT
  5
280
100
AcDbEntity
  8
0
100
AcDbMText
 62
2
  6
CONTINUOUS
  7
STANDARD
 71
2
 72
1
 10
2.3
 20
-1.00025
 30
0.0
 11
1.0
 21
0.0
 31
0.0
 44
0.9
  1
Ports X & Y
 40
0.125
 41
2.2
  0
MTEXT
  5
281
100
AcDbEntity
  8
0
100
AcDbMText
 62
2
  6
CONTINUOUS
  7
STANDARD
 71
2
 72
1
 10
3.95
 20
-1.00025
 30
0.0
 11
1.0
 21
0.0
 31
0.0
 44
0.9
  1
1/4" NPTF
 40
0.125
 41
1.8
  0
ENDBLK
  5
282
100
AcDbEntity
  8
0
  6
BYBLOCK
 62
0
100
AcDbBlockEnd
  0
ENDSEC
  0
SECTION
  2
ENTITIES
  0
IMAGE
  5
283
100
AcDbEntity
  8
0
100
AcDbRasterImage
 62
7
  6
CONTINUOUS
 10
19.2297077316
 20
0.3094318264
 30
0.0
 11
0.0066666667
 21
0.0
 31
0.0
 12
0.0
 22
0.0066666667
 32
0.0
 13
369.0
 23
92.0
340
       395
 70
9
280
0
281
50
282
50
283
0
360
       38F
 71
1
 91
2
 14
-0.5
 24
-0.5
 14
368.5
 24
91.5
  0
INSERT
  5
284
100
AcDbEntity
  8
0
100
AcDbBlockReference
 62
2
  6
CONTINUOUS
  2
SUN_FIRST_THIRD_ANGLE_BL0
 10
20.4816717061
 20
1.2289683772
  0
ACAD_TABLE
  5
285
100
AcDbEntity
  8
0
 62
2
  6
CONTINUOUS
100
AcDbBlockReference
  2
*T1
 10
12.42375
 20
0.30125
 30
0.0
100
AcDbTable
342
       397
343
207
 11
1.0
 21
0.0
 31
0.0
 90
6
 91
4
 92
6
 93
20
 94
0
 95
0
 96
0
 70
1
 41
0.0
141
0.525
141
0.1
141
0.525
141
0.1
142
4.1
142
1.1
142
0.7
142
0.5
142
0.4
142
2.475
171
1
172
0
173
0
174
0
175
1
176
1
 91
33
178
0
145
0.0
301
CELL_VALUE
 90
4
  1
T-10A Subplate ISO 05 - X&Y (US)\PP to T, side ports
304
ACVALUE_END
170
2
140
0.125
171
1
172
0
173
0
174
0
175
1
176
1
 91
33
178
0
145
0.0
301
CELL_VALUE
 90
4
  1
Jun-28-23
304
ACVALUE_END
170
5
140
0.125
171
1
172
0
173
0
174
0
175
1
176
1
 91
33
178
0
145
0.0
301
CELL_VALUE
 90
4
  1
1.000
304
ACVALUE_END
170
5
140
0.125
171
1
172
0
173
0
174
0
175
1
176
1
 91
33
178
0
145
0.0
301
CELL_VALUE
 90
4
  1
C
304
ACVALUE_END
170
5
140
0.125
171
1
172
0
173
0
174
0
175
1
176
1
 91
33
178
0
145
0.0
301
CELL_VALUE
 90
4
  1
2
304
ACVALUE_END
170
5
140
0.125
171
1
172
0
173
0
174
0
175
1
176
1
 91
33
178
0
145
0.0
301
CELL_VALUE
 90
4
  1
 
304
ACVALUE_END
170
1
140
0.125
171
1
172
0
173
0
174
0
175
1
176
1
 91
33
178
0
145
0.0
301
CELL_VALUE
 90
4
  1
DESCRIPTION
304
ACVALUE_END
170
1
140
0.06
171
1
172
0
173
0
174
0
175
1
176
1
 91
33
178
0
145
0.0
301
CELL_VALUE
 90
4
  1
DATE
304
ACVALUE_END
170
1
140
0.06
171
1
172
0
173
0
174
0
175
1
176
1
 91
33
178
0
145
0.0
301
CELL_VALUE
 90
4
  1
SCALE
304
ACVALUE_END
170
1
140
0.06
171
1
172
0
173
0
174
0
175
1
176
1
 91
33
178
0
145
0.0
301
CELL_VALUE
 90
4
  1
DWG SIZE
304
ACVALUE_END
170
1
140
0.06
171
1
172
0
173
0
174
0
175
1
176
1
 91
33
178
0
145
0.0
301
CELL_VALUE
 90
4
  1
SHEET
304
ACVALUE_END
170
1
140
0.06
171
1
172
0
173
0
174
0
175
1
176
1
 91
33
178
0
145
0.0
301
CELL_VALUE
 90
4
  1
 
304
ACVALUE_END
170
1
140
0.125
171
1
172
0
173
0
174
0
175
1
176
1
 91
33
178
0
145
0.0
301
CELL_VALUE
 90
4
  1
ZHJ
304
ACVALUE_END
170
5
140
0.125
171
1
172
0
173
0
174
0
175
4
176
1
 91
33
178
0
145
0.0
301
CELL_VALUE
 90
4
  1
ALL DIMENSIONS IN INCH\PVIEWS ARE THIRD ANGLE
304
ACVALUE_END
170
5
140
0.12
171
1
172
0
173
1
174
0
175
1
176
1
 91
1
178
0
145
0.0
170
1
171
1
172
0
173
1
174
0
175
1
176
1
 91
1
178
0
145
0.0
170
1
171
1
172
0
173
1
174
0
175
1
176
1
 91
1
178
0
145
0.0
170
5
171
1
172
0
173
0
174
0
175
1
176
1
 91
33
178
0
145
0.0
301
CELL_VALUE
 90
4
  1
 
304
ACVALUE_END
170
1
140
0.125
171
1
172
0
173
0
174
0
175
1
176
1
 91
33
178
0
145
0.0
301
CELL_VALUE
 90
4
  1
MODEL
304
ACVALUE_END
170
1
140
0.06
171
1
172
0
173
0
174
0
175
1
176
1
 91
33
178
0
145
0.0
301
CELL_VALUE
 90
4
  1
 
304
ACVALUE_END
170
1
140
0.125
171
1
172
0
173
0
174
0
175
1
176
1
 91
33
178
0
145
0.0
301
CELL_VALUE
 90
4
  1
 
304
ACVALUE_END
170
1
140
0.125
171
1
172
0
173
0
174
0
175
1
176
1
 91
33
178
0
145
0.0
301
CELL_VALUE
 90
4
  1
 
304
ACVALUE_END
170
1
140
0.125
171
1
172
0
173
0
174
0
175
1
176
1
 91
33
178
0
145
0.0
301
CELL_VALUE
 90
4
  1
 
304
ACVALUE_END
170
1
140
0.125
171
1
172
0
173
0
174
0
175
1
176
1
 91
33
178
0
145
0.0
301
CELL_VALUE
 90
4
  1
 
304
ACVALUE_END
170
1
140
0.125
  0
ACAD_TABLE
  5
286
100
AcDbEntity
  8
0
 62
2
  6
CONTINUOUS
100
AcDbBlockReference
  2
*T2
 10
12.4237499994
 20
16.47875
 30
0.0
100
AcDbTable
342
       396
343
208
 11
1.0
 21
0.0
 31
0.0
 90
22
 91
10
 92
3
 93
16
 94
0
 95
0
 96
0
 41
0.028
141
0.344
141
0.25
141
0.25
141
0.25
141
0.25
141
0.25
141
0.25
141
0.25
141
0.25
141
0.25
142
3.055
142
3.0
142
3.0
171
1
172
0
173
0
174
0
175
1
176
1
 91
33
178
0
145
0.0
301
CELL_VALUE
 90
4
  1
Technical Data
304
ACVALUE_END
170
5
140
0.145
171
1
172
0
173
0
174
0
175
1
176
1
 91
33
178
0
145
0.0
301
CELL_VALUE
 90
4
  1
U.S. Units
304
ACVALUE_END
170
5
140
0.145
171
1
172
0
173
0
174
0
175
1
176
1
 91
33
178
0
145
0.0
301
CELL_VALUE
 90
4
  1
Metric Units
304
ACVALUE_END
170
5
140
0.145
171
1
172
0
173
0
174
0
175
1
176
1
 91
33
178
0
145
0.0
301
CELL_VALUE
 90
4
  1
Cavity
304
ACVALUE_END
170
5
140
0.125
171
1
172
0
173
0
174
0
175
2
176
1
 91
33
178
0
145
0.0
301
CELL_VALUE
 90
4
  1
T-10A
304
ACVALUE_END
170
5
140
0.125
171
1
172
0
173
1
174
0
175
1
176
1
 91
1
178
0
145
0.0
170
1
171
1
172
0
173
0
174
0
175
1
176
1
 91
33
178
0
145
0.0
301
CELL_VALUE
 90
4
  1
Body Features
304
ACVALUE_END
170
5
140
0.125
171
1
172
0
173
0
174
0
175
2
176
1
 91
33
178
0
145
0.0
301
CELL_VALUE
 90
4
  1
P to T, side ports
304
ACVALUE_END
170
5
140
0.125
171
1
172
0
173
1
174
0
175
1
176
1
 91
1
178
0
145
0.0
170
1
171
1
172
0
173
0
174
0
175
1
176
1
 91
33
178
0
145
0.0
301
CELL_VALUE
 90
4
  1
Body Type
304
ACVALUE_END
170
5
140
0.125
171
1
172
0
173
0
174
0
175
2
176
1
 91
33
178
0
145
0.0
301
CELL_VALUE
 90
4
  1
Subplate
304
ACVALUE_END
170
5
140
0.125
171
1
172
0
173
1
174
0
175
1
176
1
 91
1
178
0
145
0.0
170
1
171
1
172
0
173
0
174
0
175
1
176
1
 91
33
178
0
145
0.0
301
CELL_VALUE
 90
4
  1
Interface
304
ACVALUE_END
170
5
140
0.125
171
1
172
0
173
0
174
0
175
2
176
1
 91
33
178
0
145
0.0
301
CELL_VALUE
 90
4
  1
ISO 05 - X&Y (US)
304
ACVALUE_END
170
5
140
0.125
171
1
172
0
173
1
174
0
175
1
176
1
 91
1
178
0
145
0.0
170
1
171
1
172
0
173
0
174
0
175
1
176
1
 91
33
178
0
145
0.0
301
CELL_VALUE
 90
4
  1
Open Cavity Quantity
304
ACVALUE_END
170
5
140
0.125
171
1
172
0
173
0
174
0
175
2
176
1
 91
33
178
0
145
0.0
301
CELL_VALUE
 90
4
  1
1
304
ACVALUE_END
170
5
140
0.125
171
1
172
0
173
1
174
0
175
1
176
1
 91
1
178
0
145
0.0
170
1
171
1
172
0
173
0
174
0
175
1
176
1
 91
33
178
0
145
0.0
301
CELL_VALUE
 90
4
  1
Weight
304
ACVALUE_END
170
5
140
0.125
171
1
172
0
173
0
174
0
175
1
176
1
 91
33
178
0
145
0.0
301
CELL_VALUE
 90
4
  1
3.574 lb.
304
ACVALUE_END
170
5
140
0.125
171
1
172
0
173
0
174
0
175
1
176
1
 91
33
178
0
145
0.0
301
CELL_VALUE
 90
4
  1
1,621 kg.
304
ACVALUE_END
170
5
140
0.125
171
1
172
0
173
0
174
0
175
1
176
1
 91
33
178
0
145
0.0
301
CELL_VALUE
 90
4
  1
Mounting Hole Diameter
304
ACVALUE_END
170
5
140
0.125
171
1
172
0
173
0
174
0
175
1
176
1
 91
33
178
0
145
0.0
301
CELL_VALUE
 90
4
  1
.44 in.
304
ACVALUE_END
170
5
140
0.125
171
1
172
0
173
0
174
0
175
1
176
1
 91
33
178
0
145
0.0
301
CELL_VALUE
 90
4
  1
11,1 mm
304
ACVALUE_END
170
5
140
0.125
171
1
172
0
173
0
174
0
175
1
176
1
 91
33
178
0
145
0.0
301
CELL_VALUE
 90
4
  1
Mounting Hole Depth
304
ACVALUE_END
170
5
140
0.125
171
1
172
0
173
0
174
0
175
2
176
1
 91
33
178
0
145
0.0
301
CELL_VALUE
 90
4
  1
Through
304
ACVALUE_END
170
5
140
0.125
171
1
172
0
173
1
174
0
175
1
176
1
 91
1
178
0
145
0.0
170
1
171
1
172
0
173
0
174
0
175
1
176
1
 91
33
178
0
145
0.0
301
CELL_VALUE
 90
4
  1
Mounting Hole Quantity
304
ACVALUE_END
170
5
140
0.125
171
1
172
0
173
0
174
0
175
2
176
1
 91
33
178
0
145
0.0
301
CELL_VALUE
 90
4
  1
4
304
ACVALUE_END
170
5
140
0.125
171
1
172
0
173
1
174
0
175
1
176
1
 91
1
178
0
145
0.0
170
1
  0
ACAD_TABLE
  5
287
100
AcDbEntity
  8
0
 62
2
  6
CONTINUOUS
100
AcDbBlockReference
  2
*T3
 10
0.52125
 20
1.709
 30
0.0
100
AcDbTable
342
       396
343
209
 11
1.0
 21
0.0
 31
0.0
 90
22
 91
4
 92
3
 93
16
 94
0
 95
0
 96
0
 41
0.05
141
0.34375
141
0.344
141
0.25
141
0.25
142
1.3
142
2.0
142
1.3
171
1
172
0
173
0
174
0
175
3
176
1
 91
33
178
0
145
0.0
301
CELL_VALUE
 90
4
  1
Port Headings
304
ACVALUE_END
170
5
140
0.145
171
1
172
0
173
1
174
0
175
1
176
1
 91
1
178
0
145
0.0
170
1
171
1
172
0
173
1
174
0
175
1
176
1
 91
1
178
0
145
0.0
170
1
171
1
172
0
173
0
174
0
175
1
176
1
 91
33
178
0
145
0.0
301
CELL_VALUE
 90
4
  1
Product
304
ACVALUE_END
170
5
140
0.145
171
1
172
0
173
0
174
0
175
1
176
1
 91
33
178
0
145
0.0
301
CELL_VALUE
 90
4
  1
Port
304
ACVALUE_END
170
5
140
0.145
171
1
172
0
173
0
174
0
175
1
176
1
 91
33
178
0
145
0.0
301
CELL_VALUE
 90
4
  1
Size
304
ACVALUE_END
170
5
140
0.145
171
1
172
0
173
0
174
0
175
1
176
1
 91
33
178
0
145
0.0
301
CELL_VALUE
 90
4
  1
ZHJ
304
ACVALUE_END
170
5
140
0.125
171
1
172
0
173
0
174
0
175
1
176
1
 91
33
178
0
145
0.0
301
CELL_VALUE
 90
4
  1
Ports A, B, P, T
304
ACVALUE_END
170
5
140
0.125
171
1
172
0
173
0
174
0
175
1
176
1
 91
33
178
0
145
0.0
301
CELL_VALUE
 90
4
  1
3/4" NPTF
304
ACVALUE_END
170
5
140
0.125
171
1
172
0
173
0
174
0
175
1
176
1
 91
33
178
0
145
0.0
301
CELL_VALUE
 90
4
  1
ZHJ
304
ACVALUE_END
170
5
140
0.125
171
1
172
0
173
0
174
0
175
1
176
1
 91
33
178
0
145
0.0
301
CELL_VALUE
 90
4
  1
Ports X & Y
304
ACVALUE_END
170
5
140
0.125
171
1
172
0
173
0
174
0
175
1
176
1
 91
33
178
0
145
0.0
301
CELL_VALUE
 90
4
  1
1/4" NPTF
304
ACVALUE_END
170
5
140
0.125
  0
MTEXT
  5
288
100
AcDbEntity
  8
0
100
AcDbMText
 62
2
  6
CONTINUOUS
  7
STANDARD
 71
1
 72
1
 10
0.52125
 20
5.75995
 30
0.0
 11
1.0
 21
0.0
 31
0.0
 44
0.6
  3
Notes\P \P1. Important: Carefully consider\P   the maximum system pressure. The\P   pressure rating of the manifold is\P   dependent on the manifold material,\P   with the port type/size a secondary\P   consideration. Manifolds\P   constructed of alu
  3
minum are not\P   rated for pressures higher than\P   3000 psi (210 bar), regardless of\P   the port type/size specified.\P2. This drawing is for reference\P   only. It is generated by an\P   automated process and does not fall\P   under Sun's docume
  1
nt control\P   process.
 40
0.1
 41
3.04
  0
LINE
  5
289
100
AcDbEntity
  8
0
100
AcDbLine
 62
7
  6
CONTINUOUS
 10
0.30125
 20
0.30125
 11
0.30125
 21
16.69875
  0
LINE
  5
28A
100
AcDbEntity
  8
0
100
AcDbLine
 62
7
  6
CONTINUOUS
 10
0.30125
 20
0.30125
 11
21.69875
 21
0.30125
  0
LINE
  5
28B
100
AcDbEntity
  8
0
100
AcDbLine
 62
7
  6
CONTINUOUS
 10
0.30125
 20
16.69875
 11
21.69875
 21
16.69875
  0
LINE
  5
28C
100
AcDbEntity
  8
0
100
AcDbLine
 62
7
  6
CONTINUOUS
 10
21.69875
 20
0.30125
 11
21.69875
 21
16.69875
  0
LINE
  5
28D
100
AcDbEntity
  8
0
100
AcDbLine
 62
7
  6
CONTINUOUS
 10
9.3836483839
 20
11.112057375
 11
8.752648082
 21
10.502557851
  0
LINE
  5
28E
100
AcDbEntity
  8
0
100
AcDbLine
 62
4
  6
CONTINUOUS
 10
8.963721556
 20
10.5964391828
 11
8.9714861209
 21
10.603939177
  0
LINE
  5
28F
100
AcDbEntity
  8
0
100
AcDbLine
 62
4
  6
CONTINUOUS
 10
9.0139125441
 20
10.5849199573
 11
9.021677109
 21
10.5924199515
  0
LINE
  5
290
100
AcDbEntity
  8
0
100
AcDbLine
 62
4
  6
CONTINUOUS
 10
9.1105051324
 20
10.5782212385
 11
9.1260342623
 21
10.593221227
  0
LINE
  5
291
100
AcDbEntity
  8
0
100
AcDbLine
 62
4
  6
CONTINUOUS
 10
9.1646712976
 20
10.5905417395
 11
9.1491421677
 21
10.575541751
  0
LINE
  5
292
100
AcDbEntity
  8
0
100
AcDbLine
 62
4
  6
CONTINUOUS
 10
9.203308333
 20
10.587862252
 11
9.1722500732
 21
10.557862275
  0
LINE
  5
293
100
AcDbEntity
  8
0
100
AcDbLine
 62
4
  6
CONTINUOUS
 10
9.393443004
 20
10.7386611285
 11
9.3623847442
 21
10.7086611515
  0
LINE
  5
294
100
AcDbEntity
  8
0
100
AcDbLine
 62
4
  6
CONTINUOUS
 10
9.2419453683
 20
10.5851827645
 11
9.2264162384
 21
10.570182776
  0
LINE
  5
295
100
AcDbEntity
  8
0
100
AcDbLine
 62
4
  6
CONTINUOUS
 10
9.4137380804
 20
10.7096931959
 11
9.4359225517
 21
10.731121751
  0
LINE
  5
296
100
AcDbEntity
  8
0
100
AcDbLine
 62
4
  6
CONTINUOUS
 10
9.2843717914
 20
10.5661635448
 11
9.2999009213
 21
10.5811635333
  0
LINE
  5
297
100
AcDbEntity
  8
0
100
AcDbLine
 62
4
  6
CONTINUOUS
 10
9.3230088268
 20
10.5634840573
 11
9.3385379567
 21
10.5784840458
  0
LINE
  5
298
100
AcDbEntity
  8
0
100
AcDbLine
 62
4
  6
CONTINUOUS
 10
9.4983149992
 20
10.731388231
 11
9.4672567394
 21
10.7013882539
  0
LINE
  5
299
100
AcDbEntity
  8
0
100
AcDbLine
 62
4
  6
CONTINUOUS
 10
9.5048110765
 20
10.7033772622
 11
9.5269955478
 21
10.7248058173
  0
LINE
  5
29A
100
AcDbEntity
  8
0
100
AcDbLine
 62
4
  6
CONTINUOUS
 10
9.3964935097
 20
10.5744648145
 11
9.3861407564
 21
10.5644648222
  0
LINE
  5
29B
100
AcDbEntity
  8
0
100
AcDbLine
 62
4
  6
CONTINUOUS
 10
9.5849511008
 20
10.720786586
 11
9.5627666295
 21
10.699358031
  0
LINE
  5
29C
100
AcDbEntity
  8
0
100
AcDbLine
 62
4
  6
CONTINUOUS
 10
9.5635393211
 20
10.6515329738
 11
9.5369179558
 21
10.625818708
  0
LINE
  5
29D
100
AcDbEntity
  8
0
100
AcDbLine
 62
4
  6
CONTINUOUS
 10
9.4775569681
 20
10.5527661073
 11
9.493086098
 21
10.5677660958
  0
LINE
  5
29E
100
AcDbEntity
  8
0
100
AcDbLine
 62
4
  6
CONTINUOUS
 10
9.6815436523
 20
10.7140878698
 11
9.659359181
 21
10.6926593148
  0
LINE
  5
29F
100
AcDbEntity
  8
0
100
AcDbLine
 62
4
  6
CONTINUOUS
 10
9.5006648736
 20
10.5350866313
 11
9.5317231334
 21
10.5650866083
  0
LINE
  5
2A0
100
AcDbEntity
  8
0
100
AcDbLine
 62
4
  6
CONTINUOUS
 10
9.6114322441
 20
10.6206511245
 11
9.6424905039
 21
10.6506511015
  0
LINE
  5
2A1
100
AcDbEntity
  8
0
100
AcDbLine
 62
4
  6
CONTINUOUS
 10
9.5896786864
 20
10.561067377
 11
9.5741495565
 21
10.5460673885
  0
LINE
  5
2A2
100
AcDbEntity
  8
0
100
AcDbLine
 62
4
  6
CONTINUOUS
 10
9.7004460569
 20
10.6466318703
 11
9.6693877971
 21
10.6166318933
  0
LINE
  5
2A3
100
AcDbEntity
  8
0
100
AcDbLine
 62
4
  6
CONTINUOUS
 10
9.6127865918
 20
10.543387901
 11
9.6438448516
 21
10.573387878
  0
LINE
  5
2A4
100
AcDbEntity
  8
0
100
AcDbLine
 62
4
  6
CONTINUOUS
 10
9.6862712747
 20
10.5543686583
 11
9.6707421448
 21
10.5393686698
  0
LINE
  5
2A5
100
AcDbEntity
  8
0
100
AcDbLine
 62
4
  6
CONTINUOUS
 10
9.8598472335
 20
10.7063158854
 11
9.8287889737
 21
10.6763159083
  0
LINE
  5
2A6
100
AcDbEntity
  8
0
100
AcDbLine
 62
4
  6
CONTINUOUS
 10
9.733601643
 20
10.5510862861
 11
9.7180725131
 21
10.5360862976
  0
LINE
  5
2A7
100
AcDbEntity
  8
0
100
AcDbLine
 62
4
  6
CONTINUOUS
 10
9.9260821472
 20
10.7017224785
 11
9.8950238875
 21
10.6717225015
  0
LINE
  5
2A8
100
AcDbEntity
  8
0
100
AcDbLine
 62
4
  6
CONTINUOUS
 10
9.791557196
 20
10.5470670548
 11
9.7604989363
 21
10.5170670778
  0
LINE
  5
2A9
100
AcDbEntity
  8
0
100
AcDbLine
 62
4
  6
CONTINUOUS
 10
10.0585519886
 20
10.6925356638
 11
9.9943762719
 21
10.6648323902
  0
LINE
  5
2AA
100
AcDbEntity
  8
0
100
AcDbLine
 62
4
  6
CONTINUOUS
 10
9.702505254
 20
10.6143351898
 11
9.7915190668
 21
10.6403159356
  0
LINE
  5
2AB
100
AcDbEntity
  8
0
100
AcDbLine
 62
7
  6
CONTINUOUS
 10
8.752648082
 20
6.1558913751
 11
12.6163516161
 21
5.887942625
  0
LINE
  5
2AC
100
AcDbEntity
  8
0
100
AcDbLine
 62
7
  6
CONTINUOUS
 10
8.752648082
 20
10.502557851
 11
8.752648082
 21
6.1558913751
  0
LINE
  5
2AD
100
AcDbEntity
  8
0
100
AcDbLine
 62
4
  6
CONTINUOUS
 10
9.8764100423
 20
10.5090286153
 11
9.9074683021
 21
10.5390285923
  0
LINE
  5
2AE
100
AcDbEntity
  8
0
100
AcDbLine
 62
4
  6
CONTINUOUS
 10
10.0788470235
 20
10.6635677341
 11
10.1010314949
 21
10.6849962892
  0
LINE
  5
2AF
100
AcDbEntity
  8
0
100
AcDbLine
 62
4
  6
CONTINUOUS
 10
9.9343655953
 20
10.5050093841
 11
9.9654238551
 21
10.5350093611
  0
LINE
  5
2B0
100
AcDbEntity
  8
0
100
AcDbLine
 62
4
  6
CONTINUOUS
 10
9.9633433718
 20
10.5029997684
 11
9.9944016316
 21
10.5329997454
  0
LINE
  5
2B1
100
AcDbEntity
  8
0
100
AcDbLine
 62
4
  6
CONTINUOUS
 10
10.1634239354
 20
10.6852627696
 11
10.1323656756
 21
10.6552627926
  0
LINE
  5
2B2
100
AcDbEntity
  8
0
100
AcDbLine
 62
4
  6
CONTINUOUS
 10
10.0523571846
 20
10.5289805142
 11
10.0212989248
 21
10.4989805372
  0
LINE
  5
2B3
100
AcDbEntity
  8
0
100
AcDbLine
 62
4
  6
CONTINUOUS
 10
10.0658058312
 20
10.5119709101
 11
10.0813349611
 21
10.5269708986
  0
LINE
  5
2B4
100
AcDbEntity
  8
0
100
AcDbLine
 62
4
  6
CONTINUOUS
 10
10.1082322543
 20
10.4929516903
 11
10.1237613842
 21
10.5079516788
  0
LINE
  5
2B5
100
AcDbEntity
  8
0
100
AcDbLine
 62
4
  6
CONTINUOUS
 10
9.2713502568
 20
7.6106649198
 11
9.3051576628
 21
7.5294364184
  0
LINE
  5
2B6
100
AcDbEntity
  8
0
100
AcDbLine
 62
4
  6
CONTINUOUS
 10
9.3051576628
 20
7.5294364184
 11
9.2967058113
 21
7.4962151492
  0
LINE
  5
2B7
100
AcDbEntity
  8
0
100
AcDbLine
 62
4
  6
CONTINUOUS
 10
9.3051576628
 20
7.5294364184
 11
9.3389650689
 21
7.6059758167
  0
LINE
  5
2B8
100
AcDbEntity
  8
0
100
AcDbLine
 62
4
  6
CONTINUOUS
 10
11.1715143898
 20
10.5380035279
 11
11.1775534944
 21
10.5438368554
  0
LINE
  5
2B9
100
AcDbEntity
  8
0
100
AcDbLine
 62
4
  6
CONTINUOUS
 10
11.2693247316
 20
10.5624810685
 11
11.2330900951
 21
10.5274810952
  0
LINE
  5
2BA
100
AcDbEntity
  8
0
100
AcDbLine
 62
4
  6
CONTINUOUS
 10
9.2798021083
 20
7.4748491536
 11
9.2628984052
 21
7.4760214294
  0
LINE
  5
2BB
100
AcDbEntity
  8
0
100
AcDbLine
 62
4
  6
CONTINUOUS
 10
9.9069295131
 20
7.9168963224
 11
9.9069295131
 21
8.0521259466
  0
LINE
  5
2BC
100
AcDbEntity
  8
0
100
AcDbLine
 62
4
  6
CONTINUOUS
 10
9.9943762719
 20
10.6648323902
 11
9.992317061
 21
10.6971290716
  0
LINE
  5
2BD
100
AcDbEntity
  8
0
100
AcDbLine
 62
4
  6
CONTINUOUS
 10
10.2643220623
 20
8.3489942032
 11
10.2643220623
 21
8.3715324726
  0
LINE
  5
2BE
100
AcDbEntity
  8
0
100
AcDbLine
 62
4
  6
CONTINUOUS
 10
10.3319368744
 20
8.4006507795
 11
10.3319368744
 21
8.310497694
  0
LINE
  5
2BF
100
AcDbEntity
  8
0
100
AcDbLine
 62
4
  6
CONTINUOUS
 10
9.2967058113
 20
7.4962151492
 11
9.2798021083
 21
7.4748491536
  0
LINE
  5
2C0
100
AcDbEntity
  8
0
100
AcDbLine
 62
4
  6
CONTINUOUS
 10
10.2812257653
 20
8.3252836571
 11
10.2643220623
 21
8.3489942032
  0
LINE
  5
2C1
100
AcDbEntity
  8
0
100
AcDbLine
 62
4
  6
CONTINUOUS
 10
10.2643220623
 20
8.3715324726
 11
10.2812257653
 21
8.3928984662
  0
LINE
  5
2C2
100
AcDbEntity
  8
0
100
AcDbLine
 62
4
  6
CONTINUOUS
 10
10.7781946949
 20
8.9695425664
 11
10.795098398
 21
8.99090856
  0
LINE
  5
2C3
100
AcDbEntity
  8
0
100
AcDbLine
 62
4
  6
CONTINUOUS
 10
10.795098398
 20
8.99090856
 11
10.812002101
 21
9.0010054249
  0
LINE
  5
2C4
100
AcDbEntity
  8
0
100
AcDbLine
 62
4
  6
CONTINUOUS
 10
10.828905804
 20
8.9209491993
 11
10.812002101
 21
8.9108523394
  0
LINE
  5
2C5
100
AcDbEntity
  8
0
100
AcDbLine
 62
4
  6
CONTINUOUS
 10
9.8815739586
 20
7.9975386808
 11
9.9322850677
 21
7.9940218535
  0
LINE
  5
2C6
100
AcDbEntity
  8
0
100
AcDbLine
 62
4
  6
CONTINUOUS
 10
11.6926849902
 20
7.8719377042
 11
11.7433960993
 21
7.8684208768
  0
LINE
  5
2C7
100
AcDbEntity
  8
0
100
AcDbLine
 62
4
  6
CONTINUOUS
 10
10.2981294683
 20
8.3128422456
 11
10.2812257653
 21
8.3252836571
  0
LINE
  5
2C8
100
AcDbEntity
  8
0
100
AcDbLine
 62
4
  6
CONTINUOUS
 10
10.2981294683
 20
8.4029953311
 11
10.3150331714
 21
8.3905539146
  0
LINE
  5
2C9
100
AcDbEntity
  8
0
100
AcDbLine
 62
4
  6
CONTINUOUS
 10
10.3150331714
 20
8.3905539146
 11
10.3319368744
 21
8.3668433694
  0
LINE
  5
2CA
100
AcDbEntity
  8
0
100
AcDbLine
 62
4
  6
CONTINUOUS
 10
10.7781946949
 20
9.0033499765
 11
10.7781946949
 21
8.8681203482
  0
LINE
  5
2CB
100
AcDbEntity
  8
0
100
AcDbLine
 62
4
  6
CONTINUOUS
 10
10.3319368744
 20
8.3443051001
 11
10.3150331714
 21
8.3229391055
  0
LINE
  5
2CC
100
AcDbEntity
  8
0
100
AcDbLine
 62
4
  6
CONTINUOUS
 10
10.8458095071
 20
8.9423151939
 11
10.828905804
 21
8.9209491993
  0
LINE
  5
2CD
100
AcDbEntity
  8
0
100
AcDbLine
 62
4
  6
CONTINUOUS
 10
10.2812257653
 20
8.3928984662
 11
10.2981294683
 21
8.4029953311
  0
LINE
  5
2CE
100
AcDbEntity
  8
0
100
AcDbLine
 62
4
  6
CONTINUOUS
 10
10.3150331714
 20
8.3229391055
 11
10.2981294683
 21
8.3128422456
  0
LINE
  5
2CF
100
AcDbEntity
  8
0
100
AcDbLine
 62
4
  6
CONTINUOUS
 10
10.8458095071
 20
8.9648534633
 11
10.8458095071
 21
8.9423151939
  0
LINE
  5
2D0
100
AcDbEntity
  8
0
100
AcDbLine
 62
7
  6
CONTINUOUS
 10
13.247351918
 20
10.8441086249
 11
12.6163516161
 21
10.2346091008
  0
LINE
  5
2D1
100
AcDbEntity
  8
0
100
AcDbLine
 62
4
  6
CONTINUOUS
 10
11.2157591037
 20
8.2685229135
 11
11.1988554007
 21
8.280964325
  0
LINE
  5
2D2
100
AcDbEntity
  8
0
100
AcDbLine
 62
4
  6
CONTINUOUS
 10
11.2157591037
 20
8.358675999
 11
11.2326628068
 21
8.3462345825
  0
LINE
  5
2D3
100
AcDbEntity
  8
0
100
AcDbLine
 62
4
  6
CONTINUOUS
 10
10.795098398
 20
8.9120246152
 11
10.7781946949
 21
8.9470042971
  0
LINE
  5
2D4
100
AcDbEntity
  8
0
100
AcDbLine
 62
4
  6
CONTINUOUS
 10
11.1819516977
 20
8.4060970893
 11
11.1819516977
 21
8.270867465
  0
LINE
  5
2D5
100
AcDbEntity
  8
0
100
AcDbLine
 62
4
  6
CONTINUOUS
 10
11.2495665098
 20
8.3225240373
 11
11.2495665098
 21
8.299985768
  0
LINE
  5
2D6
100
AcDbEntity
  8
0
100
AcDbLine
 62
4
  6
CONTINUOUS
 10
11.1819516977
 20
8.3272131405
 11
11.1988554007
 21
8.3485791341
  0
LINE
  5
2D7
100
AcDbEntity
  8
0
100
AcDbLine
 62
4
  6
CONTINUOUS
 10
11.1988554007
 20
8.3485791341
 11
11.2157591037
 21
8.358675999
  0
LINE
  5
2D8
100
AcDbEntity
  8
0
100
AcDbLine
 62
4
  6
CONTINUOUS
 10
11.1988554007
 20
8.280964325
 11
11.1819516977
 21
8.3046748711
  0
LINE
  5
2D9
100
AcDbEntity
  8
0
100
AcDbLine
 62
4
  6
CONTINUOUS
 10
11.2326628068
 20
8.3462345825
 11
11.2495665098
 21
8.3225240373
  0
LINE
  5
2DA
100
AcDbEntity
  8
0
100
AcDbLine
 62
4
  6
CONTINUOUS
 10
10.828905804
 20
8.9885640084
 11
10.8458095071
 21
8.9648534633
  0
LINE
  5
2DB
100
AcDbEntity
  8
0
100
AcDbLine
 62
4
  6
CONTINUOUS
 10
11.2495665098
 20
8.299985768
 11
11.2326628068
 21
8.2786197734
  0
LINE
  5
2DC
100
AcDbEntity
  8
0
100
AcDbLine
 62
4
  6
CONTINUOUS
 10
11.2326628068
 20
8.2786197734
 11
11.2157591037
 21
8.2685229135
  0
LINE
  5
2DD
100
AcDbEntity
  8
0
100
AcDbLine
 62
4
  6
CONTINUOUS
 10
10.812002101
 20
8.9108523394
 11
10.795098398
 21
8.9120246152
  0
LINE
  5
2DE
100
AcDbEntity
  8
0
100
AcDbLine
 62
4
  6
CONTINUOUS
 10
10.812002101
 20
9.0010054249
 11
10.828905804
 21
8.9885640084
  0
LINE
  5
2DF
100
AcDbEntity
  8
0
100
AcDbLine
 62
4
  6
CONTINUOUS
 10
11.7180405447
 20
7.7912953457
 11
11.7180405447
 21
7.92652497
  0
LINE
  5
2E0
100
AcDbEntity
  8
0
100
AcDbLine
 62
4
  6
CONTINUOUS
 10
12.177579874
 20
8.848990717
 11
12.2282909831
 21
8.9356269752
  0
LINE
  5
2E1
100
AcDbEntity
  8
0
100
AcDbLine
 62
4
  6
CONTINUOUS
 10
12.6934796261
 20
9.2562498291
 11
12.7297142627
 21
9.3588646146
  0
LINE
  5
2E2
100
AcDbEntity
  8
0
100
AcDbLine
 62
4
  6
CONTINUOUS
 10
12.820473395
 20
8.3598645907
 11
12.8114147364
 21
8.3511145979
  0
LINE
  5
2E3
100
AcDbEntity
  8
0
100
AcDbLine
 62
4
  6
CONTINUOUS
 10
12.8023560762
 20
8.333912752
 11
12.793297417
 21
8.3251627586
  0
LINE
  5
2E4
100
AcDbEntity
  8
0
100
AcDbLine
 62
4
  6
CONTINUOUS
 10
9.4258599079
 20
10.704259134
 11
9.4137380804
 21
10.7096931959
  0
LINE
  5
2E5
100
AcDbEntity
  8
0
100
AcDbLine
 62
4
  6
CONTINUOUS
 10
9.516932904
 20
10.6979432002
 11
9.5048110765
 21
10.7033772622
  0
LINE
  5
2E6
100
AcDbEntity
  8
0
100
AcDbLine
 62
4
  6
CONTINUOUS
 10
12.177579874
 20
8.9391438025
 11
12.2282909831
 21
8.8454738896
  0
LINE
  5
2E7
100
AcDbEntity
  8
0
100
AcDbLine
 62
7
  6
CONTINUOUS
 10
12.6163516161
 20
10.2346091008
 11
12.6163516161
 21
5.887942625
  0
LINE
  5
2E8
100
AcDbEntity
  8
0
100
AcDbLine
 62
4
  6
CONTINUOUS
 10
12.7902778647
 20
8.2546312828
 11
12.8265125013
 21
8.2896312561
  0
LINE
  5
2E9
100
AcDbEntity
  8
0
100
AcDbLine
 62
4
  6
CONTINUOUS
 10
9.5728292737
 20
10.7262206485
 11
9.5849511008
 21
10.720786586
  0
LINE
  5
2EA
100
AcDbEntity
  8
0
100
AcDbLine
 62
4
  6
CONTINUOUS
 10
9.6694218252
 20
10.7195219323
 11
9.6815436523
 21
10.7140878698
  0
LINE
  5
2EB
100
AcDbEntity
  8
0
100
AcDbLine
 62
4
  6
CONTINUOUS
 10
10.090968858
 20
10.6581336716
 11
10.0788470235
 21
10.6635677341
  0
LINE
  5
2EC
100
AcDbEntity
  8
0
100
AcDbLine
 62
4
  6
CONTINUOUS
 10
12.8053756307
 20
8.3283775663
 11
12.8023560762
 21
8.333912752
  0
LINE
  5
2ED
100
AcDbEntity
  8
0
100
AcDbLine
 62
4
  6
CONTINUOUS
 10
12.8265125013
 20
8.3487942167
 11
12.820473395
 21
8.3598645907
  0
LINE
  5
2EE
100
AcDbEntity
  8
0
100
AcDbLine
 62
4
  6
CONTINUOUS
 10
12.7902778647
 20
8.3137942434
 11
12.7902778647
 21
8.2546312828
  0
LINE
  5
2EF
100
AcDbEntity
  8
0
100
AcDbLine
 62
4
  6
CONTINUOUS
 10
12.8053756307
 20
8.2692146057
 11
12.8053756307
 21
8.3283775663
  0
LINE
  5
2F0
100
AcDbEntity
  8
0
100
AcDbLine
 62
4
  6
CONTINUOUS
 10
12.8265125013
 20
8.2896312561
 11
12.8265125013
 21
8.3487942167
  0
LINE
  5
2F1
100
AcDbEntity
  8
0
100
AcDbLine
 62
4
  6
CONTINUOUS
 10
12.793297417
 20
8.3251627586
 11
12.7902778647
 21
8.3137942434
  0
LINE
  5
2F2
100
AcDbEntity
  8
0
100
AcDbLine
 62
4
  6
CONTINUOUS
 10
12.8114147364
 20
8.3511145979
 11
12.8053756307
 21
8.3283775663
  0
LINE
  5
2F3
100
AcDbEntity
  8
0
100
AcDbLine
 62
7
  6
CONTINUOUS
 10
8.752648082
 20
10.502557851
 11
12.6163516161
 21
10.2346091008
  0
LINE
  5
2F4
100
AcDbEntity
  8
0
100
AcDbLine
 62
4
  6
CONTINUOUS
 10
9.2914228539
 20
10.7258314697
 11
9.2531821043
 21
10.7346080228
  0
LINE
  5
2F5
100
AcDbEntity
  8
0
100
AcDbLine
 62
4
  6
CONTINUOUS
 10
11.1769466868
 20
10.5345007242
 11
11.1715143898
 21
10.5380035279
  0
LINE
  5
2F6
100
AcDbEntity
  8
0
100
AcDbLine
 62
4
  6
CONTINUOUS
 10
12.7297142627
 20
9.2912498024
 11
12.6934796261
 21
9.3238646412
  0
LINE
  5
2F7
100
AcDbEntity
  8
0
100
AcDbLine
 62
4
  6
CONTINUOUS
 10
11.1775534944
 20
10.5438368554
 11
11.1890249004
 21
10.5461673834
  0
LINE
  5
2F8
100
AcDbEntity
  8
0
100
AcDbLine
 62
4
  6
CONTINUOUS
 10
11.1890249004
 20
10.5461673834
 11
11.2089481558
 21
10.5479117713
  0
LINE
  5
2F9
100
AcDbEntity
  8
0
100
AcDbLine
 62
4
  6
CONTINUOUS
 10
9.9343655953
 20
10.5050093841
 11
9.8764100423
 21
10.5090286153
  0
LINE
  5
2FA
100
AcDbEntity
  8
0
100
AcDbLine
 62
4
  6
CONTINUOUS
 10
10.0502767013
 20
10.4969709215
 11
10.1082322543
 21
10.4929516903
  0
LINE
  5
2FB
100
AcDbEntity
  8
0
100
AcDbLine
 62
4
  6
CONTINUOUS
 10
9.1486220469
 20
10.5675393529
 11
9.1341331587
 21
10.5685441607
  0
LINE
  5
2FC
100
AcDbEntity
  8
0
100
AcDbLine
 62
4
  6
CONTINUOUS
 10
10.1237613842
 20
10.5079516788
 11
10.0658058312
 21
10.5119709101
  0
LINE
  5
2FD
100
AcDbEntity
  8
0
100
AcDbLine
 62
4
  6
CONTINUOUS
 10
9.5741495565
 20
10.5460673885
 11
9.5161940035
 21
10.5500866198
  0
LINE
  5
2FE
100
AcDbEntity
  8
0
100
AcDbLine
 62
4
  6
CONTINUOUS
 10
9.4775569681
 20
10.5527661073
 11
9.4196014151
 21
10.5567853385
  0
LINE
  5
2FF
100
AcDbEntity
  8
0
100
AcDbLine
 62
4
  6
CONTINUOUS
 10
9.1105051324
 20
10.5782212385
 11
9.0525495794
 21
10.5822404698
  0
LINE
  5
300
100
AcDbEntity
  8
0
100
AcDbLine
 62
4
  6
CONTINUOUS
 10
9.0139125441
 20
10.5849199573
 11
8.955956991
 21
10.5889391885
  0
LINE
  5
301
100
AcDbEntity
  8
0
100
AcDbLine
 62
4
  6
CONTINUOUS
 10
9.3230088268
 20
10.5634840573
 11
9.3616458621
 21
10.5608045698
  0
LINE
  5
302
100
AcDbEntity
  8
0
100
AcDbLine
 62
4
  6
CONTINUOUS
 10
9.7180725131
 20
10.5360862976
 11
9.7760280662
 21
10.5320670663
  0
LINE
  5
303
100
AcDbEntity
  8
0
100
AcDbLine
 62
4
  6
CONTINUOUS
 10
9.3861407564
 20
10.5644648222
 11
9.3281852034
 21
10.5684840534
  0
LINE
  5
304
100
AcDbEntity
  8
0
100
AcDbLine
 62
4
  6
CONTINUOUS
 10
9.021677109
 20
10.5924199515
 11
8.963721556
 21
10.5964391828
  0
LINE
  5
305
100
AcDbEntity
  8
0
100
AcDbLine
 62
4
  6
CONTINUOUS
 10
9.2999009213
 20
10.5811635333
 11
9.2419453683
 21
10.5851827645
  0
LINE
  5
306
100
AcDbEntity
  8
0
100
AcDbLine
 62
4
  6
CONTINUOUS
 10
9.1260342623
 20
10.593221227
 11
9.0680787093
 21
10.5972404583
  0
LINE
  5
307
100
AcDbEntity
  8
0
100
AcDbLine
 62
4
  6
CONTINUOUS
 10
8.9714861209
 20
10.603939177
 11
9.0294416739
 21
10.5999199458
  0
LINE
  5
308
100
AcDbEntity
  8
0
100
AcDbLine
 62
4
  6
CONTINUOUS
 10
9.3385379567
 20
10.5784840458
 11
9.3964935097
 21
10.5744648145
  0
LINE
  5
309
100
AcDbEntity
  8
0
100
AcDbLine
 62
4
  6
CONTINUOUS
 10
9.5317231334
 20
10.5650866083
 11
9.5896786864
 21
10.561067377
  0
LINE
  5
30A
100
AcDbEntity
  8
0
100
AcDbLine
 62
4
  6
CONTINUOUS
 10
9.6283157217
 20
10.5583878895
 11
9.6862712747
 21
10.5543686583
  0
LINE
  5
30B
100
AcDbEntity
  8
0
100
AcDbLine
 62
4
  6
CONTINUOUS
 10
9.9944016316
 20
10.5329997454
 11
10.0523571846
 21
10.5289805142
  0
LINE
  5
30C
100
AcDbEntity
  8
0
100
AcDbLine
 62
4
  6
CONTINUOUS
 10
10.0813349611
 20
10.5269708986
 11
10.1392905141
 21
10.5229516673
  0
LINE
  5
30D
100
AcDbEntity
  8
0
100
AcDbLine
 62
4
  6
CONTINUOUS
 10
9.6438448516
 20
10.573387878
 11
9.682481887
 21
10.5707083905
  0
LINE
  5
30E
100
AcDbEntity
  8
0
100
AcDbLine
 62
4
  6
CONTINUOUS
 10
9.760460807
 20
10.6103159586
 11
9.702505254
 21
10.6143351898
  0
LINE
  5
30F
100
AcDbEntity
  8
0
100
AcDbLine
 62
4
  6
CONTINUOUS
 10
9.6826984791
 20
10.6294890255
 11
9.6247429261
 21
10.6335082567
  0
LINE
  5
310
100
AcDbEntity
  8
0
100
AcDbLine
 62
4
  6
CONTINUOUS
 10
11.2330900951
 20
10.5274810952
 11
11.1908308375
 21
10.5304117847
  0
LINE
  5
311
100
AcDbEntity
  8
0
100
AcDbLine
 62
4
  6
CONTINUOUS
 10
9.7915190668
 20
10.6403159356
 11
9.7335635138
 21
10.6443351668
  0
LINE
  5
312
100
AcDbEntity
  8
0
100
AcDbLine
 62
4
  6
CONTINUOUS
 10
9.609373047
 20
10.652947805
 11
9.5845349509
 21
10.6546703328
  0
LINE
  5
313
100
AcDbEntity
  8
0
100
AcDbLine
 62
4
  6
CONTINUOUS
 10
11.2089481558
 20
10.5479117713
 11
11.2512074134
 21
10.5449810819
  0
LINE
  5
314
100
AcDbEntity
  8
0
100
AcDbLine
 62
4
  6
CONTINUOUS
 10
10.1323656756
 20
10.6552627926
 11
10.090968858
 21
10.6581336716
  0
LINE
  5
315
100
AcDbEntity
  8
0
100
AcDbLine
 62
4
  6
CONTINUOUS
 10
9.9281413582
 20
10.6694257971
 11
9.8619064444
 21
10.674019204
  0
LINE
  5
316
100
AcDbEntity
  8
0
100
AcDbLine
 62
4
  6
CONTINUOUS
 10
9.8287889737
 20
10.6763159083
 11
9.7791127814
 21
10.679760964
  0
LINE
  5
317
100
AcDbEntity
  8
0
100
AcDbLine
 62
4
  6
CONTINUOUS
 10
9.6383635655
 20
10.6895219553
 11
9.6052461224
 21
10.6918186577
  0
LINE
  5
318
100
AcDbEntity
  8
0
100
AcDbLine
 62
4
  6
CONTINUOUS
 10
9.541771014
 20
10.6962206715
 11
9.516932904
 21
10.6979432002
  0
LINE
  5
319
100
AcDbEntity
  8
0
100
AcDbLine
 62
4
  6
CONTINUOUS
 10
9.4672567394
 20
10.7013882539
 11
9.4258599079
 21
10.704259134
  0
LINE
  5
31A
100
AcDbEntity
  8
0
100
AcDbLine
 62
4
  6
CONTINUOUS
 10
9.3623847442
 20
10.7086611515
 11
9.3127085796
 21
10.7121062052
  0
LINE
  5
31B
100
AcDbEntity
  8
0
100
AcDbLine
 62
4
  6
CONTINUOUS
 10
10.2163481732
 20
10.6678122291
 11
10.1781074197
 21
10.676588782
  0
LINE
  5
31C
100
AcDbEntity
  8
0
100
AcDbLine
 62
4
  6
CONTINUOUS
 10
11.1908308375
 20
10.5304117847
 11
11.1769466868
 21
10.5345007242
  0
LINE
  5
31D
100
AcDbEntity
  8
0
100
AcDbLine
 62
7
  6
CONTINUOUS
 10
13.247351918
 20
6.497442149
 11
13.247351918
 21
10.8441086249
  0
LINE
  5
31E
100
AcDbEntity
  8
0
100
AcDbLine
 62
4
  6
CONTINUOUS
 10
10.1010314949
 20
10.6849962892
 11
10.1220271178
 21
10.6881336486
  0
LINE
  5
31F
100
AcDbEntity
  8
0
100
AcDbLine
 62
4
  6
CONTINUOUS
 10
10.166275701
 20
10.6651602187
 11
10.2163481732
 21
10.6678122291
  0
LINE
  5
320
100
AcDbEntity
  8
0
100
AcDbLine
 62
4
  6
CONTINUOUS
 10
9.2531821043
 20
10.7346080228
 11
9.3032545726
 21
10.737260033
  0
LINE
  5
321
100
AcDbEntity
  8
0
100
AcDbLine
 62
4
  6
CONTINUOUS
 10
9.3425779831
 20
10.7238149862
 11
9.3756954262
 21
10.7215182838
  0
LINE
  5
322
100
AcDbEntity
  8
0
100
AcDbLine
 62
4
  6
CONTINUOUS
 10
9.8089821849
 20
10.691469745
 11
9.8420996556
 21
10.6891730406
  0
LINE
  5
323
100
AcDbEntity
  8
0
100
AcDbLine
 62
4
  6
CONTINUOUS
 10
10.0386390474
 20
10.6847298092
 11
9.9944824382
 21
10.6877920805
  0
LINE
  5
324
100
AcDbEntity
  8
0
100
AcDbLine
 62
4
  6
CONTINUOUS
 10
9.8598472335
 20
10.7063158854
 11
9.8101710412
 21
10.709760941
  0
LINE
  5
325
100
AcDbEntity
  8
0
100
AcDbLine
 62
4
  6
CONTINUOUS
 10
9.393443004
 20
10.7386611285
 11
9.3437668394
 21
10.7421061823
  0
LINE
  5
326
100
AcDbEntity
  8
0
100
AcDbLine
 62
4
  6
CONTINUOUS
 10
9.4569181677
 20
10.734259111
 11
9.4983149992
 21
10.731388231
  0
LINE
  5
327
100
AcDbEntity
  8
0
100
AcDbLine
 62
4
  6
CONTINUOUS
 10
9.5479911638
 20
10.7279431773
 11
9.5728292737
 21
10.7262206485
  0
LINE
  5
328
100
AcDbEntity
  8
0
100
AcDbLine
 62
4
  6
CONTINUOUS
 10
9.6363043822
 20
10.7218186348
 11
9.6694218252
 21
10.7195219323
  0
LINE
  5
329
100
AcDbEntity
  8
0
100
AcDbLine
 62
4
  6
CONTINUOUS
 10
10.1220271178
 20
10.6881336486
 11
10.1634239354
 21
10.6852627696
  0
LINE
  5
32A
100
AcDbEntity
  8
0
100
AcDbLine
 62
4
  6
CONTINUOUS
 10
9.5845349509
 20
10.6546703328
 11
9.5635393211
 21
10.6515329738
  0
LINE
  5
32B
100
AcDbEntity
  8
0
100
AcDbLine
 62
4
  6
CONTINUOUS
 10
9.659359181
 20
10.6926593148
 11
9.6383635655
 21
10.6895219553
  0
LINE
  5
32C
100
AcDbEntity
  8
0
100
AcDbLine
 62
4
  6
CONTINUOUS
 10
9.5627666295
 20
10.699358031
 11
9.541771014
 21
10.6962206715
  0
LINE
  5
32D
100
AcDbEntity
  8
0
100
AcDbLine
 62
4
  6
CONTINUOUS
 10
9.5269955478
 20
10.7248058173
 11
9.5479911638
 21
10.7279431773
  0
LINE
  5
32E
100
AcDbEntity
  8
0
100
AcDbLine
 62
4
  6
CONTINUOUS
 10
9.4359225517
 20
10.731121751
 11
9.4569181677
 21
10.734259111
  0
LINE
  5
32F
100
AcDbEntity
  8
0
100
AcDbLine
 62
7
  6
CONTINUOUS
 10
9.3836483839
 20
11.112057375
 11
13.247351918
 21
10.8441086249
  0
LINE
  5
330
100
AcDbEntity
  8
0
100
AcDbLine
 62
7
  6
CONTINUOUS
 10
12.6163516161
 20
5.887942625
 11
13.247351918
 21
6.497442149
  0
ARC
  5
331
100
AcDbEntity
  8
0
100
AcDbCircle
 62
7
  6
CONTINUOUS
 10
9.8850316437
 20
9.3290617382
 40
0.1204890005
100
AcDbArc
 50
216.0335857955
 51
232.0498253923
  0
ARC
  5
332
100
AcDbEntity
  8
0
100
AcDbCircle
 62
7
  6
CONTINUOUS
 10
11.9376241462
 20
9.1867139647
 40
0.1204890005
100
AcDbArc
 50
216.0335857955
 51
232.0498253923
  0
ARC
  5
333
100
AcDbEntity
  8
0
100
AcDbCircle
 62
7
  6
CONTINUOUS
 10
9.8850316437
 20
7.5778381464
 40
0.1204890005
100
AcDbArc
 50
216.0335857955
 51
232.0498253923
  0
ARC
  5
334
100
AcDbEntity
  8
0
100
AcDbCircle
 62
7
  6
CONTINUOUS
 10
11.9376241462
 20
7.4354903729
 40
0.1204890005
100
AcDbArc
 50
216.0335857955
 51
232.0498253923
  0
SPLINE
  5
335
100
AcDbEntity
  8
0
100
AcDbSpline
 62
7
  6
CONTINUOUS
 70
0
 71
3
 72
36
 73
32
 74
0
 42
0.0000001
 43
0.0000001
 44
0.0000000001
 40
0.0
 40
0.0
 40
0.0
 40
0.0
 40
0.0762767741
 40
0.1537867671
 40
0.2318244727
 40
0.3096765706
 40
0.3866322801
 40
0.4619913276
 40
0.4988590332
 40
0.5350740003
 40
0.5705553956
 40
0.6052246164
 40
0.6390056452
 40
0.6718253417
 40
0.7036137107
 40
0.7343042488
 40
0.7638344197
 40
0.7921460299
 40
0.819185672
 40
0.8449053356
 40
0.8692632244
 40
0.8922245579
 40
0.9137626852
 40
0.9338606591
 40
0.952513363
 40
0.9613010409
 40
0.9697323732
 40
0.9778114583
 40
0.9855439524
 40
0.9929370458
 40
1.0
 40
1.0
 40
1.0
 40
1.0
 10
12.7703488209
 20
9.3266360878
 30
0.0
 10
12.7703488209
 20
9.3356401151
 30
0.0
 10
12.7705910555
 20
9.3537945278
 30
0.0
 10
12.771647873
 20
9.3811423202
 30
0.0
 10
12.7733921175
 20
9.4086413589
 30
0.0
 10
12.7758068117
 20
9.4360239662
 30
0.0
 10
12.778868428
 20
9.4630235943
 30
0.0
 10
12.7819557551
 20
9.4851439428
 30
0.0
 10
12.7847335871
 20
9.5024455198
 30
0.0
 10
12.7869430362
 20
9.5150694364
 30
0.0
 10
12.7892882286
 20
9.5274047786
 30
0.0
 10
12.791763462
 20
9.5394215234
 30
0.0
 10
12.7943626662
 20
9.5510904102
 30
0.0
 10
12.7970794711
 20
9.5623830451
 30
0.0
 10
12.799907222
 20
9.5732719542
 30
0.0
 10
12.8028390009
 20
9.5837306585
 30
0.0
 10
12.805867614
 20
9.5937337551
 30
0.0
 10
12.8089856322
 20
9.6032569772
 30
0.0
 10
12.8121854162
 20
9.6122772501
 30
0.0
 10
12.8154591404
 20
9.6207727604
 30
0.0
 10
12.8187987895
 20
9.6287230496
 30
0.0
 10
12.8221962134
 20
9.6361090317
 30
0.0
 10
12.8256432001
 20
9.642913168
 30
0.0
 10
12.8291314357
 20
9.6491191502
 30
0.0
 10
12.8321225318
 20
9.6538707971
 30
0.0
 10
12.8345359147
 20
9.6573509022
 30
0.0
 10
12.8363149487
 20
9.6597501298
 30
0.0
 10
12.8380980169
 20
9.6619892528
 30
0.0
 10
12.8398840876
 20
9.6640669854
 30
0.0
 10
12.841672112
 20
9.6659819927
 30
0.0
 10
12.8428921115
 20
9.6671762124
 30
0.0
 10
12.8435024264
 20
9.6677442254
 30
0.0
  0
SPLINE
  5
336
100
AcDbEntity
  8
0
100
AcDbSpline
 62
7
  6
CONTINUOUS
 70
0
 71
3
 72
43
 73
39
 74
0
 42
0.0000001
 43
0.0000001
 44
0.0000000001
 40
0.0
 40
0.0
 40
0.0
 40
0.0
 40
0.0379403561
 40
0.0762772703
 40
0.1149222977
 40
0.1537882401
 40
0.2318250805
 40
0.3096763248
 40
0.3483106895
 40
0.3866327606
 40
0.4245553993
 40
0.461992642
 40
0.4988599643
 40
0.5350745482
 40
0.5705555554
 40
0.6052244092
 40
0.6390050899
 40
0.6718244337
 40
0.7036124533
 40
0.7343026852
 40
0.7638325704
 40
0.792143884
 40
0.819183232
 40
0.8449026469
 40
0.8692602986
 40
0.8922213868
 40
0.9031700835
 40
0.9137604011
 40
0.923990592
 40
0.9338595721
 40
0.9433670879
 40
0.9525138178
 40
0.9613013814
 40
0.969732647
 40
0.9778116645
 40
0.9855440694
 40
0.9929371083
 40
1.0
 40
1.0
 40
1.0
 40
1.0
 10
12.8821585655
 20
8.34796928
 30
0.0
 10
12.8821585655
 20
8.3565267639
 30
0.0
 10
12.8822729955
 20
8.3737313778
 30
0.0
 10
12.8827801356
 20
8.3996479127
 30
0.0
 10
12.8836225923
 20
8.4257646594
 30
0.0
 10
12.8851923617
 20
8.4608142409
 30
0.0
 10
12.8879734824
 20
8.5046578223
 30
0.0
 10
12.8918278233
 20
8.548367735
 30
0.0
 10
12.8955479681
 20
8.5830867998
 30
0.0
 10
12.8986353935
 20
8.6088140287
 30
0.0
 10
12.9020194445
 20
8.6342315407
 30
0.0
 10
12.9056918864
 20
8.6592774447
 30
0.0
 10
12.9096437321
 20
8.6838907081
 30
0.0
 10
12.9138653204
 20
8.7080113717
 30
0.0
 10
12.9183463244
 20
8.7315806812
 30
0.0
 10
12.9230757795
 20
8.7545412381
 30
0.0
 10
12.928042106
 20
8.7768371425
 30
0.0
 10
12.9332331414
 20
8.7984141322
 30
0.0
 10
12.9386361689
 20
8.8192197181
 30
0.0
 10
12.9442379485
 20
8.8392033178
 30
0.0
 10
12.9500247502
 20
8.8583163845
 30
0.0
 10
12.9559823894
 20
8.876512544
 30
0.0
 10
12.9620962655
 20
8.8937476928
 30
0.0
 10
12.9683514071
 20
8.9099802343
 30
0.0
 10
12.9747325028
 20
8.9251708321
 30
0.0
 10
12.980225735
 20
8.9371134331
 30
0.0
 10
12.984681493
 20
8.9461078717
 30
0.0
 10
12.987992054
 20
8.952463447
 30
0.0
 10
12.9913223946
 20
8.9585323436
 30
0.0
 10
12.9946705539
 20
8.9643108997
 30
0.0
 10
12.9980345095
 20
8.9697956293
 30
0.0
 10
13.0014122066
 20
8.9749832541
 30
0.0
 10
13.0048016837
 20
8.9798706333
 30
0.0
 10
13.0082008573
 20
8.9844548859
 30
0.0
 10
13.011607791
 20
8.9887332253
 30
0.0
 10
13.0150204752
 20
8.9927031728
 30
0.0
 10
13.0184368638
 20
8.9963622255
 30
0.0
 10
13.0207679352
 20
8.9986440475
 30
0.0
 10
13.0219340733
 20
8.9997293607
 30
0.0
  0
SPLINE
  5
337
100
AcDbEntity
  8
0
100
AcDbSpline
 62
7
  6
CONTINUOUS
 70
0
 71
3
 72
21
 73
17
 74
0
 42
0.0000001
 43
0.0000001
 44
0.0000000001
 40
0.0
 40
0.0
 40
0.0
 40
0.0
 40
0.1273176984
 40
0.2537999461
 40
0.3167619614
 40
0.3795355204
 40
0.4421314992
 40
0.5045621453
 40
0.5668413456
 40
0.6289845231
 40
0.6910084433
 40
0.7529310869
 40
0.8147714401
 40
0.8765493236
 40
0.9382852134
 40
1.0
 40
1.0
 40
1.0
 40
1.0
 10
9.3872613813
 20
10.0354717384
 30
0.0
 10
9.3872613813
 20
10.0287269303
 30
0.0
 10
9.3866175443
 20
10.0152728909
 30
0.0
 10
9.384185953
 20
9.9986407939
 30
0.0
 10
9.381279686
 20
9.9855943702
 30
0.0
 10
9.378629322
 20
9.9759713217
 30
0.0
 10
9.3755113274
 20
9.96651927
 30
0.0
 10
9.3719328906
 20
9.9572597355
 30
0.0
 10
9.3679022619
 20
9.9482141341
 30
0.0
 10
9.3634286541
 20
9.9394033425
 30
0.0
 10
9.3585224159
 20
9.930847671
 30
0.0
 10
9.3531948623
 20
9.9225668371
 30
0.0
 10
9.3474582279
 20
9.9145800025
 30
0.0
 10
9.3413257066
 20
9.90690551
 30
0.0
 10
9.3348117132
 20
9.8995612717
 30
0.0
 10
9.3302238204
 20
9.8948957791
 30
0.0
 10
9.3278722717
 20
9.8926243714
 30
0.0
  0
SPLINE
  5
338
100
AcDbEntity
  8
0
100
AcDbSpline
 62
7
  6
CONTINUOUS
 70
0
 71
3
 72
21
 73
17
 74
0
 42
0.0000001
 43
0.0000001
 44
0.0000000001
 40
0.0
 40
0.0
 40
0.0
 40
0.0
 40
0.1273176984
 40
0.2537999461
 40
0.3167619614
 40
0.3795355204
 40
0.4421314992
 40
0.5045621453
 40
0.5668413456
 40
0.6289845231
 40
0.6910084433
 40
0.7529310869
 40
0.8147714401
 40
0.8765493236
 40
0.9382852134
 40
1.0
 40
1.0
 40
1.0
 40
1.0
 10
12.4048138826
 20
9.8262037617
 30
0.0
 10
12.4048138826
 20
9.8194589536
 30
0.0
 10
12.4041700456
 20
9.8060049142
 30
0.0
 10
12.4017384544
 20
9.7893728171
 30
0.0
 10
12.3988321873
 20
9.7763263935
 30
0.0
 10
12.3961818234
 20
9.766703345
 30
0.0
 10
12.3930638287
 20
9.7572512933
 30
0.0
 10
12.3894853919
 20
9.7479917587
 30
0.0
 10
12.3854547633
 20
9.7389461573
 30
0.0
 10
12.3809811554
 20
9.7301353658
 30
0.0
 10
12.3760749173
 20
9.7215796942
 30
0.0
 10
12.3707473636
 20
9.7132988603
 30
0.0
 10
12.3650107292
 20
9.7053120257
 30
0.0
 10
12.358878208
 20
9.6976375332
 30
0.0
 10
12.3523642145
 20
9.690293295
 30
0.0
 10
12.3477763218
 20
9.6856278024
 30
0.0
 10
12.3454247731
 20
9.6833563946
 30
0.0
  0
SPLINE
  5
339
100
AcDbEntity
  8
0
100
AcDbSpline
 62
7
  6
CONTINUOUS
 70
0
 71
3
 72
21
 73
17
 74
0
 42
0.0000001
 43
0.0000001
 44
0.0000000001
 40
0.0
 40
0.0
 40
0.0
 40
0.0
 40
0.1273176984
 40
0.2537999461
 40
0.3167619614
 40
0.3795355204
 40
0.4421314992
 40
0.5045621453
 40
0.5668413456
 40
0.6289845231
 40
0.6910084433
 40
0.7529310869
 40
0.8147714401
 40
0.8765493236
 40
0.9382852134
 40
1.0
 40
1.0
 40
1.0
 40
1.0
 10
12.4048138826
 20
6.3256885489
 30
0.0
 10
12.4048138826
 20
6.3189437408
 30
0.0
 10
12.4041700456
 20
6.3054897014
 30
0.0
 10
12.4017384544
 20
6.2888576043
 30
0.0
 10
12.3988321873
 20
6.2758111807
 30
0.0
 10
12.3961818234
 20
6.2661881322
 30
0.0
 10
12.3930638287
 20
6.2567360805
 30
0.0
 10
12.3894853919
 20
6.2474765459
 30
0.0
 10
12.3854547633
 20
6.2384309445
 30
0.0
 10
12.3809811554
 20
6.2296201529
 30
0.0
 10
12.3760749173
 20
6.2210644814
 30
0.0
 10
12.3707473636
 20
6.2127836475
 30
0.0
 10
12.3650107292
 20
6.2047968129
 30
0.0
 10
12.358878208
 20
6.1971223204
 30
0.0
 10
12.3523642145
 20
6.1897780822
 30
0.0
 10
12.3477763218
 20
6.1851125896
 30
0.0
 10
12.3454247731
 20
6.1828411818
 30
0.0
  0
SPLINE
  5
33A
100
AcDbEntity
  8
0
100
AcDbSpline
 62
7
  6
CONTINUOUS
 70
0
 71
3
 72
21
 73
17
 74
0
 42
0.0000001
 43
0.0000001
 44
0.0000000001
 40
0.0
 40
0.0
 40
0.0
 40
0.0
 40
0.1273176984
 40
0.2537999461
 40
0.3167619614
 40
0.3795355204
 40
0.4421314992
 40
0.5045621453
 40
0.5668413456
 40
0.6289845231
 40
0.6910084433
 40
0.7529310869
 40
0.8147714401
 40
0.8765493236
 40
0.9382852134
 40
1.0
 40
1.0
 40
1.0
 40
1.0
 10
9.3872613813
 20
6.5349565256
 30
0.0
 10
9.3872613813
 20
6.5282117175
 30
0.0
 10
9.3866175443
 20
6.5147576781
 30
0.0
 10
9.384185953
 20
6.498125581
 30
0.0
 10
9.381279686
 20
6.4850791574
 30
0.0
 10
9.378629322
 20
6.4754561089
 30
0.0
 10
9.3755113274
 20
6.4660040572
 30
0.0
 10
9.3719328906
 20
6.4567445227
 30
0.0
 10
9.3679022619
 20
6.4476989212
 30
0.0
 10
9.3634286541
 20
6.4388881297
 30
0.0
 10
9.3585224159
 20
6.4303324582
 30
0.0
 10
9.3531948623
 20
6.4220516242
 30
0.0
 10
9.3474582279
 20
6.4140647897
 30
0.0
 10
9.3413257066
 20
6.4063902972
 30
0.0
 10
9.3348117132
 20
6.3990460589
 30
0.0
 10
9.3302238204
 20
6.3943805663
 30
0.0
 10
9.3278722717
 20
6.3921091585
 30
0.0
  0
SPLINE
  5
33B
100
AcDbEntity
  8
0
100
AcDbSpline
 62
7
  6
CONTINUOUS
 70
0
 71
3
 72
32
 73
28
 74
0
 42
0.0000001
 43
0.0000001
 44
0.0000000001
 40
0.0
 40
0.0
 40
0.0
 40
0.0
 40
0.0300884382
 40
0.0603093574
 40
0.0906731488
 40
0.1211916014
 40
0.1518691
 40
0.1827070429
 40
0.2137025563
 40
0.2448493483
 40
0.3075199964
 40
0.3706566162
 40
0.4023764625
 40
0.434163434
 40
0.4660000153
 40
0.4978686683
 40
0.5616055269
 40
0.6252698282
 40
0.6570492335
 40
0.688765194
 40
0.7204044379
 40
0.7519546996
 40
0.814716618
 40
0.8770027908
 40
0.9387607883
 40
0.9694493694
 40
1.0
 40
1.0
 40
1.0
 40
1.0
 10
12.158934492
 20
8.9818851227
 30
0.0
 10
12.1605717114
 20
8.9825350291
 30
0.0
 10
12.1639081168
 20
8.9837042113
 30
0.0
 10
12.1690482681
 20
8.9850514559
 30
0.0
 10
12.1743043601
 20
8.985989695
 30
0.0
 10
12.1796441278
 20
8.9865159809
 30
0.0
 10
12.1850361647
 20
8.9866307179
 30
0.0
 10
12.1904491624
 20
8.9863376268
 30
0.0
 10
12.1958531408
 20
8.9856431597
 30
0.0
 10
12.2030200345
 20
8.9841920338
 30
0.0
 10
12.2118133758
 20
8.9814201286
 30
0.0
 10
12.220184538
 20
8.97748487
 30
0.0
 10
12.2265646431
 20
8.9737000311
 30
0.0
 10
12.2311799751
 20
8.970554089
 30
0.0
 10
12.2355990043
 20
8.9671239439
 30
0.0
 10
12.2412068525
 20
8.9621969433
 30
0.0
 10
12.2476469264
 20
8.9554216424
 30
0.0
 10
12.2532442057
 20
8.9479426147
 30
0.0
 10
12.257169465
 20
8.9416129818
 30
0.0
 10
12.2598259313
 20
8.9367140742
 30
0.0
 10
12.2621864127
 20
8.9316806353
 30
0.0
 10
12.2649220072
 20
8.9248294933
 30
0.0
 10
12.2675634354
 20
8.9160254966
 30
0.0
 10
12.2694262874
 20
8.9052226247
 30
0.0
 10
12.2698452615
 20
8.8961465584
 30
0.0
 10
12.2694758928
 20
8.8889512315
 30
0.0
 10
12.2690551308
 20
8.8853874801
 30
0.0
 10
12.2687851882
 20
8.8836194145
 30
0.0
  0
SPLINE
  5
33C
100
AcDbEntity
  8
0
100
AcDbSpline
 62
7
  6
CONTINUOUS
 70
0
 71
3
 72
39
 73
35
 74
0
 42
0.0000001
 43
0.0000001
 44
0.0000000001
 40
0.0
 40
0.0
 40
0.0
 40
0.0
 40
0.0310022941
 40
0.0621464487
 40
0.093426615
 40
0.1248355255
 40
0.1563630504
 40
0.1879972998
 40
0.2197245252
 40
0.2515295301
 40
0.2833959252
 40
0.3153064479
 40
0.3472432662
 40
0.3791882844
 40
0.4111234392
 40
0.4430309838
 40
0.4748937576
 40
0.5066954398
 40
0.5384207839
 40
0.5700558337
 40
0.6015881182
 40
0.6330068276
 40
0.6643029682
 40
0.6954694963
 40
0.7265014303
 40
0.75739594
 40
0.7881524112
 40
0.8187724836
 40
0.8492600607
 40
0.8796212888
 40
0.9098645009
 40
0.9400001266
 40
0.9700405617
 40
1.0
 40
1.0
 40
1.0
 40
1.0
 10
10.7443872889
 20
9.0704550823
 30
0.0
 10
10.7490923215
 20
9.0701287872
 30
0.0
 10
10.7585048332
 20
9.0691562599
 30
0.0
 10
10.7725234891
 20
9.0667554044
 30
0.0
 10
10.7864138824
 20
9.0634204718
 30
0.0
 10
10.8001120598
 20
9.0591678284
 30
0.0
 10
10.8135563995
 20
9.0540180655
 30
0.0
 10
10.8266864875
 20
9.0479961549
 30
0.0
 10
10.8394438713
 20
9.0411310662
 30
0.0
 10
10.8517722423
 20
9.0334556133
 30
0.0
 10
10.8636177327
 20
9.0250061601
 30
0.0
 10
10.8749291426
 20
9.0158223627
 30
0.0
 10
10.8856581405
 20
9.0059468816
 30
0.0
 10
10.8957594294
 20
8.9954250977
 30
0.0
 10
10.9051908809
 20
8.9843048267
 30
0.0
 10
10.9139136393
 20
8.9726360405
 30
0.0
 10
10.9218921995
 20
8.9604705964
 30
0.0
 10
10.9290944616
 20
8.9478619796
 30
0.0
 10
10.9354917682
 20
8.9348650592
 30
0.0
 10
10.9410589214
 20
8.9215358566
 30
0.0
 10
10.9457741894
 20
8.9079313313
 30
0.0
 10
10.9496193058
 20
8.8941091802
 30
0.0
 10
10.9525794628
 20
8.880127651
 30
0.0
 10
10.9546433027
 20
8.8660453674
 30
0.0
 10
10.9558029096
 20
8.8519211634
 30
0.0
 10
10.9560538031
 20
8.8378139253
 30
0.0
 10
10.9553949366
 20
8.8237824384
 30
0.0
 10
10.9538286978
 20
8.8098852335
 30
0.0
 10
10.9513609185
 20
8.7961804398
 30
0.0
 10
10.9480008751
 20
8.7827256036
 30
0.0
 10
10.9437613528
 20
8.7695776097
 30
0.0
 10
10.9386584611
 20
8.7567921864
 30
0.0
 10
10.9327123859
 20
8.7444249137
 30
0.0
 10
10.9281952606
 20
8.7364833684
 30
0.0
 10
10.925805466
 20
8.7326024694
 30
0.0
  0
SPLINE
  5
33D
100
AcDbEntity
  8
0
100
AcDbSpline
 62
7
  6
CONTINUOUS
 70
0
 71
3
 72
21
 73
17
 74
0
 42
0.0000001
 43
0.0000001
 44
0.0000000001
 40
0.0
 40
0.0
 40
0.0
 40
0.0
 40
0.1273176984
 40
0.2537999461
 40
0.3167619614
 40
0.3795355204
 40
0.4421314992
 40
0.5045621453
 40
0.5668413456
 40
0.6289845231
 40
0.6910084433
 40
0.7529310869
 40
0.8147714401
 40
0.8765493236
 40
0.9382852134
 40
1.0
 40
1.0
 40
1.0
 40
1.0
 10
10.5637591311
 20
8.2944207659
 30
0.0
 10
10.5637591311
 20
8.2876759578
 30
0.0
 10
10.5631152941
 20
8.2742219184
 30
0.0
 10
10.5606837029
 20
8.2575898213
 30
0.0
 10
10.5577774358
 20
8.2445433977
 30
0.0
 10
10.5551270719
 20
8.2349203492
 30
0.0
 10
10.5520090772
 20
8.2254682975
 30
0.0
 10
10.5484306405
 20
8.2162087629
 30
0.0
 10
10.5444000118
 20
8.2071631615
 30
0.0
 10
10.5399264039
 20
8.19835237
 30
0.0
 10
10.5350201658
 20
8.1897966984
 30
0.0
 10
10.5296926122
 20
8.1815158645
 30
0.0
 10
10.5239559777
 20
8.1735290299
 30
0.0
 10
10.5178234565
 20
8.1658545374
 30
0.0
 10
10.511309463
 20
8.1585102992
 30
0.0
 10
10.5067215703
 20
8.1538448066
 30
0.0
 10
10.5043700216
 20
8.1515733988
 30
0.0
  0
SPLINE
  5
33E
100
AcDbEntity
  8
0
100
AcDbSpline
 62
7
  6
CONTINUOUS
 70
0
 71
3
 72
21
 73
17
 74
0
 42
0.0000001
 43
0.0000001
 44
0.0000000001
 40
0.0
 40
0.0
 40
0.0
 40
0.0
 40
0.1273176984
 40
0.2537999461
 40
0.3167619614
 40
0.3795355204
 40
0.4421314992
 40
0.5045621453
 40
0.5668413456
 40
0.6289845231
 40
0.6910084433
 40
0.7529310869
 40
0.8147714401
 40
0.8765493236
 40
0.9382852134
 40
1.0
 40
1.0
 40
1.0
 40
1.0
 10
10.0508524695
 20
7.9069152314
 30
0.0
 10
10.0508524695
 20
7.9001704233
 30
0.0
 10
10.0502086325
 20
7.8867163839
 30
0.0
 10
10.0477770412
 20
7.8700842868
 30
0.0
 10
10.0448707742
 20
7.8570378632
 30
0.0
 10
10.0422204102
 20
7.8474148147
 30
0.0
 10
10.0391024155
 20
7.837962763
 30
0.0
 10
10.0355239788
 20
7.8287032285
 30
0.0
 10
10.0314933501
 20
7.819657627
 30
0.0
 10
10.0270197423
 20
7.8108468355
 30
0.0
 10
10.0221135041
 20
7.802291164
 30
0.0
 10
10.0167859505
 20
7.79401033
 30
0.0
 10
10.0110493161
 20
7.7860234955
 30
0.0
 10
10.0049167948
 20
7.778349003
 30
0.0
 10
9.9984028014
 20
7.7710047647
 30
0.0
 10
9.9938149086
 20
7.7663392721
 30
0.0
 10
9.9914633599
 20
7.7640678643
 30
0.0
  0
SPLINE
  5
33F
100
AcDbEntity
  8
0
100
AcDbSpline
 62
7
  6
CONTINUOUS
 70
0
 71
3
 72
47
 73
43
 74
0
 42
0.0000001
 43
0.0000001
 44
0.0000000001
 40
0.0
 40
0.0
 40
0.0
 40
0.0
 40
0.0315534237
 40
0.062901628
 40
0.0940485357
 40
0.1250045361
 40
0.1557874798
 40
0.1711253991
 40
0.1864291048
 40
0.2017022129
 40
0.2169483669
 40
0.2321714127
 40
0.2473752357
 40
0.2625636844
 40
0.2777407145
 40
0.2929100749
 40
0.3080755916
 40
0.3384026718
 40
0.3687566443
 40
0.3839548132
 40
0.3991688218
 40
0.4296492842
 40
0.460223754
 40
0.4909089052
 40
0.5217185736
 40
0.5526638304
 40
0.5837530633
 40
0.6149920438
 40
0.6463839691
 40
0.67792947
 40
0.7096265803
 40
0.7255331179
 40
0.7414756027
 40
0.7734592658
 40
0.8055722066
 40
0.8216757475
 40
0.8378063617
 40
0.8701346916
 40
0.9025427209
 40
0.9350074626
 40
0.967502834
 40
1.0
 40
1.0
 40
1.0
 40
1.0
 10
11.4356847974
 20
7.7845099119
 30
0.0
 10
11.4350042254
 20
7.7900999239
 30
0.0
 10
11.4341640974
 20
7.8013138301
 30
0.0
 10
11.4344884671
 20
7.8181191324
 30
0.0
 10
11.4363870604
 20
7.8347143856
 30
0.0
 10
11.439826026
 20
7.850955598
 30
0.0
 10
11.4439386439
 20
7.8641054178
 30
0.0
 10
11.4479390963
 20
7.874315244
 30
0.0
 10
11.4512815967
 20
7.8818002516
 30
0.0
 10
11.454959109
 20
7.8891078859
 30
0.0
 10
11.4589610962
 20
7.8962264797
 30
0.0
 10
11.4632763186
 20
7.9031450225
 30
0.0
 10
11.4678933005
 20
7.9098533865
 30
0.0
 10
11.4728003448
 20
7.9163422296
 30
0.0
 10
11.4779853887
 20
7.9226030559
 30
0.0
 10
11.4834366094
 20
7.9286281279
 30
0.0
 10
11.4910422499
 20
7.9363367394
 30
0.0
 10
11.5011601472
 20
7.9453548415
 30
0.0
 10
11.5119990314
 20
7.9535000561
 30
0.0
 10
11.5210525574
 20
7.9594749885
 30
0.0
 10
11.5303585734
 20
7.965092278
 30
0.0
 10
11.5424245441
 20
7.9714251817
 30
0.0
 10
11.5574839485
 20
7.9778901687
 30
0.0
 10
11.5730471366
 20
7.9832095327
 30
0.0
 10
11.5890273134
 20
7.9873691383
 30
0.0
 10
11.6053400958
 20
7.9903584151
 30
0.0
 10
11.6219020995
 20
7.9921692389
 30
0.0
 10
11.6386305344
 20
7.9927957538
 30
0.0
 10
11.6554427134
 20
7.9922341098
 30
0.0
 10
11.6722545894
 20
7.9904826681
 30
0.0
 10
11.6861792557
 20
7.988034453
 30
0.0
 10
11.697232028
 20
7.985485044
 30
0.0
 10
11.7082377013
 20
7.9825350155
 30
0.0
 10
11.7218319033
 20
7.9781072679
 30
0.0
 10
11.7351041365
 20
7.9727140719
 30
0.0
 10
11.7454971752
 20
7.9678236965
 30
0.0
 10
11.7557407829
 20
7.9625432721
 30
0.0
 10
11.768200542
 20
7.9552323586
 30
0.0
 10
11.7824848989
 20
7.9453615457
 30
0.0
 10
11.7960086555
 20
7.9344221447
 30
0.0
 10
11.8086609737
 20
7.9224631487
 30
0.0
 10
11.8164459566
 20
7.9138449343
 30
0.0
 10
11.820156519
 20
7.9093875311
 30
0.0
  0
SPLINE
  5
340
100
AcDbEntity
  8
0
100
AcDbSpline
 62
7
  6
CONTINUOUS
 70
0
 71
3
 72
17
 73
13
 74
0
 42
0.0000001
 43
0.0000001
 44
0.0000000001
 40
0.0
 40
0.0
 40
0.0
 40
0.0
 40
0.0611905953
 40
0.1226656604
 40
0.1843990735
 40
0.246382392
 40
0.3709487791
 40
0.4962232682
 40
0.6219797858
 40
0.7479935972
 40
0.8740592391
 40
1.0
 40
1.0
 40
1.0
 40
1.0
 10
9.295498406
 20
7.4473545016
 30
0.0
 10
9.2940853744
 20
7.4474524957
 30
0.0
 10
9.2912584287
 20
7.4477437226
 30
0.0
 10
9.2870476552
 20
7.4484601742
 30
0.0
 10
9.2828741672
 20
7.4494527611
 30
0.0
 10
9.2773759266
 20
7.4511369709
 30
0.0
 10
9.2706846003
 20
7.4538958646
 30
0.0
 10
9.26308052
 20
7.4581498455
 30
0.0
 10
9.2559759249
 20
7.4632492725
 30
0.0
 10
9.2494397776
 20
7.4690841859
 30
0.0
 10
9.2435194085
 20
7.475545655
 30
0.0
 10
9.2399986716
 20
7.4802090568
 30
0.0
 10
9.2383492203
 20
7.482612799
 30
0.0
  0
SPLINE
  5
341
100
AcDbEntity
  8
0
100
AcDbSpline
 62
7
  6
CONTINUOUS
 70
0
 71
3
 72
33
 73
29
 74
0
 42
0.0000001
 43
0.0000001
 44
0.0000000001
 40
0.0
 40
0.0
 40
0.0
 40
0.0
 40
0.084501654
 40
0.1673002823
 40
0.248078793
 40
0.3265289039
 40
0.4023560626
 40
0.4752802237
 40
0.5105715219
 40
0.5450400252
 40
0.5786558791
 40
0.6113907873
 40
0.6432177926
 40
0.6741117018
 40
0.7040489759
 40
0.7330079972
 40
0.760969262
 40
0.7879154051
 40
0.813831726
 40
0.8387060924
 40
0.8625296464
 40
0.8852968835
 40
0.9070063326
 40
0.9276611035
 40
0.9472694961
 40
0.9658461538
 40
0.983412809
 40
1.0
 40
1.0
 40
1.0
 40
1.0
 10
11.3125290047
 20
10.600213093
 30
0.0
 10
11.3014541983
 20
10.6009811334
 30
0.0
 10
11.2795406985
 20
10.6026961104
 30
0.0
 10
11.2470995408
 20
10.6058408243
 30
0.0
 10
11.2155148467
 20
10.6095215987
 30
0.0
 10
11.1849191787
 20
10.6137228138
 30
0.0
 10
11.1554410876
 20
10.6184266221
 30
0.0
 10
11.1316576292
 20
10.6227948208
 30
0.0
 10
11.1132892651
 20
10.626536432
 30
0.0
 10
11.1000185286
 20
10.6294247511
 30
0.0
 10
11.0871166885
 20
10.632422759
 30
0.0
 10
11.0745972667
 20
10.6355272677
 30
0.0
 10
11.0624734047
 20
10.638735045
 30
0.0
 10
11.0507578111
 20
10.6420426702
 30
0.0
 10
11.0394627652
 20
10.6454466746
 30
0.0
 10
11.0286000954
 20
10.6489434732
 30
0.0
 10
11.0181811614
 20
10.6525293545
 30
0.0
 10
11.0082168585
 20
10.6562005932
 30
0.0
 10
10.9987175704
 20
10.6599532686
 30
0.0
 10
10.9896932025
 20
10.66378351
 30
0.0
 10
10.9811531155
 20
10.667687257
 30
0.0
 10
10.9731061614
 20
10.6716604815
 30
0.0
 10
10.9655606437
 20
10.675699065
 30
0.0
 10
10.9585242941
 20
10.6797988496
 30
0.0
 10
10.9520043523
 20
10.6839557173
 30
0.0
 10
10.9460073265
 20
10.6881655359
 30
0.0
 10
10.9405396262
 20
10.6924240467
 30
0.0
 10
10.9371560304
 20
10.6953756938
 30
0.0
 10
10.9355607833
 20
10.6968602304
 30
0.0
  0
SPLINE
  5
342
100
AcDbEntity
  8
0
100
AcDbSpline
 62
7
  6
CONTINUOUS
 70
0
 71
3
 72
39
 73
35
 74
0
 42
0.0000001
 43
0.0000001
 44
0.0000000001
 40
0.0
 40
0.0
 40
0.0
 40
0.0
 40
0.0311445425
 40
0.0624433652
 40
0.093888256
 40
0.1254710218
 40
0.1571788766
 40
0.1889972611
 40
0.2209091725
 40
0.2528958428
 40
0.2849370253
 40
0.3170114183
 40
0.349097079
 40
0.3811718482
 40
0.4132137779
 40
0.4452015551
 40
0.4771149166
 40
0.5089350506
 40
0.5406449764
 40
0.5722298984
 40
0.6036775288
 40
0.634978368
 40
0.6661259371
 40
0.6971169555
 40
0.7279514574
 40
0.758632841
 40
0.7891678449
 40
0.819566448
 40
0.8498416915
 40
0.8800094239
 40
0.9100879689
 40
0.9400977235
 40
0.9700606966
 40
1.0
 40
1.0
 40
1.0
 40
1.0
 10
9.7246562081
 20
9.2828175267
 30
0.0
 10
9.7273097054
 20
9.282633506
 30
0.0
 10
9.7326183462
 20
9.282070305
 30
0.0
 10
9.7405169212
 20
9.2806516815
 30
0.0
 10
9.7483309264
 20
9.2786645037
 30
0.0
 10
9.7560180825
 20
9.2761196308
 30
0.0
 10
9.7635376144
 20
9.2730305831
 30
0.0
 10
9.7708493907
 20
9.2694139465
 30
0.0
 10
9.7779144643
 20
9.2652890199
 30
0.0
 10
9.7846951876
 20
9.2606778362
 30
0.0
 10
9.7911554303
 20
9.2556049944
 30
0.0
 10
9.7972607681
 20
9.2500975509
 30
0.0
 10
9.8029786678
 20
9.2441848718
 30
0.0
 10
9.8082786539
 20
9.2378984735
 30
0.0
 10
9.8131324707
 20
9.2312718575
 30
0.0
 10
9.8175142305
 20
9.2243403335
 30
0.0
 10
9.8214005507
 20
9.2171408341
 30
0.0
 10
9.8247706773
 20
9.2097117199
 30
0.0
 10
9.8276065955
 20
9.2020925786
 30
0.0
 10
9.8298931243
 20
9.1943240167
 30
0.0
 10
9.8316180063
 20
9.1864474476
 30
0.0
 10
9.8327719697
 20
9.1785048714
 30
0.0
 10
9.8333487774
 20
9.1705386532
 30
0.0
 10
9.8333452631
 20
9.1625913009
 30
0.0
 10
9.8327613518
 20
9.1547052407
 30
0.0
 10
9.8316000643
 20
9.1469225927
 30
0.0
 10
9.8298675067
 20
9.1392849478
 30
0.0
 10
9.8275728416
 20
9.1318331442
 30
0.0
 10
9.8247282495
 20
9.1246070514
 30
0.0
 10
9.8213488618
 20
9.1176453368
 30
0.0
 10
9.8174527262
 20
9.1109853075
 30
0.0
 10
9.8130605253
 20
9.1046625164
 30
0.0
 10
9.8081961697
 20
9.0987112709
 30
0.0
 10
9.8046542928
 20
9.0950111478
 30
0.0
 10
9.8028151955
 20
9.0932347316
 30
0.0
  0
SPLINE
  5
343
100
AcDbEntity
  8
0
100
AcDbSpline
 62
7
  6
CONTINUOUS
 70
0
 71
3
 72
39
 73
35
 74
0
 42
0.0000001
 43
0.0000001
 44
0.0000000001
 40
0.0
 40
0.0
 40
0.0
 40
0.0
 40
0.0311445425
 40
0.0624433652
 40
0.093888256
 40
0.1254710218
 40
0.1571788766
 40
0.1889972611
 40
0.2209091725
 40
0.2528958428
 40
0.2849370253
 40
0.3170114183
 40
0.349097079
 40
0.3811718482
 40
0.4132137779
 40
0.4452015551
 40
0.4771149166
 40
0.5089350506
 40
0.5406449764
 40
0.5722298984
 40
0.6036775288
 40
0.634978368
 40
0.6661259371
 40
0.6971169555
 40
0.7279514574
 40
0.758632841
 40
0.7891678449
 40
0.819566448
 40
0.8498416915
 40
0.8800094239
 40
0.9100879689
 40
0.9400977235
 40
0.9700606966
 40
1.0
 40
1.0
 40
1.0
 40
1.0
 10
11.7772487106
 20
9.1404697531
 30
0.0
 10
11.7799022078
 20
9.1402857325
 30
0.0
 10
11.7852108487
 20
9.1397225315
 30
0.0
 10
11.7931094236
 20
9.138303908
 30
0.0
 10
11.8009234288
 20
9.1363167301
 30
0.0
 10
11.808610585
 20
9.1337718573
 30
0.0
 10
11.8161301169
 20
9.1306828095
 30
0.0
 10
11.8234418932
 20
9.127066173
 30
0.0
 10
11.8305069668
 20
9.1229412464
 30
0.0
 10
11.8372876901
 20
9.1183300627
 30
0.0
 10
11.8437479327
 20
9.1132572209
 30
0.0
 10
11.8498532706
 20
9.1077497774
 30
0.0
 10
11.8555711703
 20
9.1018370982
 30
0.0
 10
11.8608711564
 20
9.0955506999
 30
0.0
 10
11.8657249731
 20
9.0889240839
 30
0.0
 10
11.870106733
 20
9.08199256
 30
0.0
 10
11.8739930532
 20
9.0747930606
 30
0.0
 10
11.8773631798
 20
9.0673639463
 30
0.0
 10
11.880199098
 20
9.0597448051
 30
0.0
 10
11.8824856268
 20
9.0519762432
 30
0.0
 10
11.8842105088
 20
9.0440996741
 30
0.0
 10
11.8853644722
 20
9.0361570979
 30
0.0
 10
11.8859412799
 20
9.0281908797
 30
0.0
 10
11.8859377656
 20
9.0202435274
 30
0.0
 10
11.8853538543
 20
9.0123574671
 30
0.0
 10
11.8841925668
 20
9.0045748191
 30
0.0
 10
11.8824600092
 20
8.9969371742
 30
0.0
 10
11.8801653441
 20
8.9894853707
 30
0.0
 10
11.877320752
 20
8.9822592779
 30
0.0
 10
11.8739413643
 20
8.9752975632
 30
0.0
 10
11.8700452287
 20
8.968637534
 30
0.0
 10
11.8656530278
 20
8.9623147429
 30
0.0
 10
11.8607886722
 20
8.9563634974
 30
0.0
 10
11.8572467952
 20
8.9526633743
 30
0.0
 10
11.855407698
 20
8.9508869581
 30
0.0
  0
SPLINE
  5
344
100
AcDbEntity
  8
0
100
AcDbSpline
 62
7
  6
CONTINUOUS
 70
0
 71
3
 72
39
 73
35
 74
0
 42
0.0000001
 43
0.0000001
 44
0.0000000001
 40
0.0
 40
0.0
 40
0.0
 40
0.0
 40
0.0311445425
 40
0.0624433652
 40
0.093888256
 40
0.1254710218
 40
0.1571788766
 40
0.1889972611
 40
0.2209091725
 40
0.2528958428
 40
0.2849370253
 40
0.3170114183
 40
0.349097079
 40
0.3811718482
 40
0.4132137779
 40
0.4452015551
 40
0.4771149166
 40
0.5089350506
 40
0.5406449764
 40
0.5722298984
 40
0.6036775288
 40
0.634978368
 40
0.6661259371
 40
0.6971169555
 40
0.7279514574
 40
0.758632841
 40
0.7891678449
 40
0.819566448
 40
0.8498416915
 40
0.8800094239
 40
0.9100879689
 40
0.9400977235
 40
0.9700606966
 40
1.0
 40
1.0
 40
1.0
 40
1.0
 10
9.7246562081
 20
7.5315939348
 30
0.0
 10
9.7273097054
 20
7.5314099142
 30
0.0
 10
9.7326183462
 20
7.5308467132
 30
0.0
 10
9.7405169212
 20
7.5294280897
 30
0.0
 10
9.7483309264
 20
7.5274409118
 30
0.0
 10
9.7560180825
 20
7.524896039
 30
0.0
 10
9.7635376144
 20
7.5218069912
 30
0.0
 10
9.7708493907
 20
7.5181903547
 30
0.0
 10
9.7779144643
 20
7.5140654281
 30
0.0
 10
9.7846951876
 20
7.5094542444
 30
0.0
 10
9.7911554303
 20
7.5043814026
 30
0.0
 10
9.7972607681
 20
7.4988739591
 30
0.0
 10
9.8029786678
 20
7.49296128
 30
0.0
 10
9.8082786539
 20
7.4866748816
 30
0.0
 10
9.8131324707
 20
7.4800482656
 30
0.0
 10
9.8175142305
 20
7.4731167417
 30
0.0
 10
9.8214005507
 20
7.4659172423
 30
0.0
 10
9.8247706773
 20
7.4584881281
 30
0.0
 10
9.8276065955
 20
7.4508689868
 30
0.0
 10
9.8298931243
 20
7.4431004249
 30
0.0
 10
9.8316180063
 20
7.4352238558
 30
0.0
 10
9.8327719697
 20
7.4272812796
 30
0.0
 10
9.8333487774
 20
7.4193150614
 30
0.0
 10
9.8333452631
 20
7.4113677091
 30
0.0
 10
9.8327613518
 20
7.4034816488
 30
0.0
 10
9.8316000643
 20
7.3956990008
 30
0.0
 10
9.8298675067
 20
7.3880613559
 30
0.0
 10
9.8275728416
 20
7.3806095524
 30
0.0
 10
9.8247282495
 20
7.3733834596
 30
0.0
 10
9.8213488618
 20
7.3664217449
 30
0.0
 10
9.8174527262
 20
7.3597617157
 30
0.0
 10
9.8130605253
 20
7.3534389246
 30
0.0
 10
9.8081961697
 20
7.3474876791
 30
0.0
 10
9.8046542928
 20
7.343787556
 30
0.0
 10
9.8028151955
 20
7.3420111398
 30
0.0
  0
SPLINE
  5
345
100
AcDbEntity
  8
0
100
AcDbSpline
 62
7
  6
CONTINUOUS
 70
0
 71
3
 72
39
 73
35
 74
0
 42
0.0000001
 43
0.0000001
 44
0.0000000001
 40
0.0
 40
0.0
 40
0.0
 40
0.0
 40
0.0311445425
 40
0.0624433652
 40
0.093888256
 40
0.1254710218
 40
0.1571788766
 40
0.1889972611
 40
0.2209091725
 40
0.2528958428
 40
0.2849370253
 40
0.3170114183
 40
0.349097079
 40
0.3811718482
 40
0.4132137779
 40
0.4452015551
 40
0.4771149166
 40
0.5089350506
 40
0.5406449764
 40
0.5722298984
 40
0.6036775288
 40
0.634978368
 40
0.6661259371
 40
0.6971169555
 40
0.7279514574
 40
0.758632841
 40
0.7891678449
 40
0.819566448
 40
0.8498416915
 40
0.8800094239
 40
0.9100879689
 40
0.9400977235
 40
0.9700606966
 40
1.0
 40
1.0
 40
1.0
 40
1.0
 10
11.7772487106
 20
7.3892461613
 30
0.0
 10
11.7799022078
 20
7.3890621406
 30
0.0
 10
11.7852108487
 20
7.3884989397
 30
0.0
 10
11.7931094236
 20
7.3870803162
 30
0.0
 10
11.8009234288
 20
7.3850931383
 30
0.0
 10
11.808610585
 20
7.3825482655
 30
0.0
 10
11.8161301169
 20
7.3794592177
 30
0.0
 10
11.8234418932
 20
7.3758425811
 30
0.0
 10
11.8305069668
 20
7.3717176546
 30
0.0
 10
11.8372876901
 20
7.3671064708
 30
0.0
 10
11.8437479327
 20
7.362033629
 30
0.0
 10
11.8498532706
 20
7.3565261856
 30
0.0
 10
11.8555711703
 20
7.3506135064
 30
0.0
 10
11.8608711564
 20
7.3443271081
 30
0.0
 10
11.8657249731
 20
7.3377004921
 30
0.0
 10
11.870106733
 20
7.3307689682
 30
0.0
 10
11.8739930532
 20
7.3235694687
 30
0.0
 10
11.8773631798
 20
7.3161403545
 30
0.0
 10
11.880199098
 20
7.3085212133
 30
0.0
 10
11.8824856268
 20
7.3007526514
 30
0.0
 10
11.8842105088
 20
7.2928760823
 30
0.0
 10
11.8853644722
 20
7.2849335061
 30
0.0
 10
11.8859412799
 20
7.2769672879
 30
0.0
 10
11.8859377656
 20
7.2690199356
 30
0.0
 10
11.8853538543
 20
7.2611338753
 30
0.0
 10
11.8841925668
 20
7.2533512273
 30
0.0
 10
11.8824600092
 20
7.2457135824
 30
0.0
 10
11.8801653441
 20
7.2382617788
 30
0.0
 10
11.877320752
 20
7.2310356861
 30
0.0
 10
11.8739413643
 20
7.2240739714
 30
0.0
 10
11.8700452287
 20
7.2174139421
 30
0.0
 10
11.8656530278
 20
7.211091151
 30
0.0
 10
11.8607886722
 20
7.2051399056
 30
0.0
 10
11.8572467952
 20
7.2014397824
 30
0.0
 10
11.855407698
 20
7.1996633663
 30
0.0
  0
SPLINE
  5
346
100
AcDbEntity
  8
0
100
AcDbSpline
 62
7
  6
CONTINUOUS
 70
0
 71
3
 72
42
 73
38
 74
0
 42
0.0000001
 43
0.0000001
 44
0.0000000001
 40
0.0
 40
0.0
 40
0.0
 40
0.0
 40
0.0299419634
 40
0.0449235299
 40
0.0599142017
 40
0.0899287029
 40
0.1200139772
 40
0.1350926626
 40
0.1501967046
 40
0.1804840506
 40
0.2108978877
 40
0.2414513551
 40
0.2721543675
 40
0.3030134354
 40
0.3340315696
 40
0.3652082675
 40
0.3965395775
 40
0.4280182343
 40
0.4596338596
 40
0.4913732188
 40
0.5232205284
 40
0.5551578047
 40
0.5871652463
 40
0.6192216448
 40
0.6513048151
 40
0.6833920402
 40
0.7154605222
 40
0.747487836
 40
0.7794523759
 40
0.8113337934
 40
0.8431134117
 40
0.8747746318
 40
0.9063032512
 40
0.9376879208
 40
0.9533258
 40
0.9689252634
 40
1.0
 40
1.0
 40
1.0
 40
1.0
 10
9.0235749539
 20
10.2076594937
 30
0.0
 10
9.027208093
 20
10.2111688152
 30
0.0
 10
9.0328719605
 20
10.2162201484
 30
0.0
 10
9.0408040793
 20
10.2224877527
 30
0.0
 10
9.0489887962
 20
10.2284434715
 30
0.0
 10
9.059668506
 20
10.2352825662
 30
0.0
 10
9.0708674698
 20
10.2412647947
 30
0.0
 10
9.0801037125
 20
10.2455205581
 30
0.0
 10
9.089530749
 20
10.2494250016
 30
0.0
 10
9.1016252093
 20
10.2536233819
 30
0.0
 10
9.1165297983
 20
10.257536167
 30
0.0
 10
9.1317596078
 20
10.260308074
 30
0.0
 10
9.1472302364
 20
10.2619238107
 30
0.0
 10
9.1628567005
 20
10.2623747544
 30
0.0
 10
9.178553019
 20
10.2616586101
 30
0.0
 10
9.1942329213
 20
10.2597795147
 30
0.0
 10
9.2098102533
 20
10.2567479776
 30
0.0
 10
9.2251994624
 20
10.2525808234
 30
0.0
 10
9.2403160565
 20
10.2473010922
 30
0.0
 10
9.2550770622
 20
10.2409379093
 30
0.0
 10
9.2694014741
 20
10.2335263236
 30
0.0
 10
9.2832106928
 20
10.2251071137
 30
0.0
 10
9.2964289503
 20
10.2157265648
 30
0.0
 10
9.3089837209
 20
10.2054362157
 30
0.0
 10
9.320806114
 20
10.1942925775
 30
0.0
 10
9.331831248
 20
10.1823568265
 30
0.0
 10
9.3419986028
 20
10.1696944716
 30
0.0
 10
9.3512523485
 20
10.1563749972
 30
0.0
 10
9.3595416493
 20
10.1424714907
 30
0.0
 10
9.3668209406
 20
10.1280602297
 30
0.0
 10
9.3730501759
 20
10.1132203285
 30
0.0
 10
9.3781950591
 20
10.0980330892
 30
0.0
 10
9.382227168
 20
10.0825823758
 30
0.0
 10
9.3846445069
 20
10.0695402986
 30
0.0
 10
9.3860005623
 20
10.0590611476
 30
0.0
 10
9.3869683458
 20
10.0485920244
 30
0.0
 10
9.3872613813
 20
10.0407140797
 30
0.0
 10
9.3872613813
 20
10.0354717384
 30
0.0
  0
SPLINE
  5
347
100
AcDbEntity
  8
0
100
AcDbSpline
 62
7
  6
CONTINUOUS
 70
0
 71
3
 72
42
 73
38
 74
0
 42
0.0000001
 43
0.0000001
 44
0.0000000001
 40
0.0
 40
0.0
 40
0.0
 40
0.0
 40
0.0299419634
 40
0.0449235299
 40
0.0599142017
 40
0.0899287029
 40
0.1200139772
 40
0.1350926626
 40
0.1501967046
 40
0.1804840506
 40
0.2108978877
 40
0.2414513551
 40
0.2721543675
 40
0.3030134354
 40
0.3340315696
 40
0.3652082675
 40
0.3965395775
 40
0.4280182343
 40
0.4596338596
 40
0.4913732188
 40
0.5232205284
 40
0.5551578047
 40
0.5871652463
 40
0.6192216448
 40
0.6513048151
 40
0.6833920402
 40
0.7154605222
 40
0.747487836
 40
0.7794523759
 40
0.8113337934
 40
0.8431134117
 40
0.8747746318
 40
0.9063032512
 40
0.9376879208
 40
0.9533258
 40
0.9689252634
 40
1.0
 40
1.0
 40
1.0
 40
1.0
 10
12.0411274552
 20
9.9983915169
 30
0.0
 10
12.0447605944
 20
10.0019008385
 30
0.0
 10
12.0504244618
 20
10.0069521716
 30
0.0
 10
12.0583565806
 20
10.013219776
 30
0.0
 10
12.0665412976
 20
10.0191754948
 30
0.0
 10
12.0772210074
 20
10.0260145894
 30
0.0
 10
12.0884199711
 20
10.031996818
 30
0.0
 10
12.0976562139
 20
10.0362525813
 30
0.0
 10
12.1070832503
 20
10.0401570249
 30
0.0
 10
12.1191777106
 20
10.0443554051
 30
0.0
 10
12.1340822997
 20
10.0482681902
 30
0.0
 10
12.1493121092
 20
10.0510400973
 30
0.0
 10
12.1647827377
 20
10.052655834
 30
0.0
 10
12.1804092019
 20
10.0531067777
 30
0.0
 10
12.1961055203
 20
10.0523906334
 30
0.0
 10
12.2117854227
 20
10.0505115379
 30
0.0
 10
12.2273627547
 20
10.0474800008
 30
0.0
 10
12.2427519638
 20
10.0433128467
 30
0.0
 10
12.2578685578
 20
10.0380331155
 30
0.0
 10
12.2726295635
 20
10.0316699326
 30
0.0
 10
12.2869539755
 20
10.0242583468
 30
0.0
 10
12.3007631942
 20
10.0158391369
 30
0.0
 10
12.3139814517
 20
10.0064585881
 30
0.0
 10
12.3265362223
 20
9.9961682389
 30
0.0
 10
12.3383586153
 20
9.9850246008
 30
0.0
 10
12.3493837493
 20
9.9730888498
 30
0.0
 10
12.3595511041
 20
9.9604264949
 30
0.0
 10
12.3688048498
 20
9.9471070205
 30
0.0
 10
12.3770941506
 20
9.933203514
 30
0.0
 10
12.3843734419
 20
9.918792253
 30
0.0
 10
12.3906026773
 20
9.9039523518
 30
0.0
 10
12.3957475604
 20
9.8887651125
 30
0.0
 10
12.3997796693
 20
9.873314399
 30
0.0
 10
12.4021970083
 20
9.8602723218
 30
0.0
 10
12.4035530637
 20
9.8497931709
 30
0.0
 10
12.4045208471
 20
9.8393240477
 30
0.0
 10
12.4048138826
 20
9.831446103
 30
0.0
 10
12.4048138826
 20
9.8262037617
 30
0.0
  0
SPLINE
  5
348
100
AcDbEntity
  8
0
100
AcDbSpline
 62
7
  6
CONTINUOUS
 70
0
 71
3
 72
42
 73
38
 74
0
 42
0.0000001
 43
0.0000001
 44
0.0000000001
 40
0.0
 40
0.0
 40
0.0
 40
0.0
 40
0.0299419634
 40
0.0449235299
 40
0.0599142017
 40
0.0899287029
 40
0.1200139772
 40
0.1350926626
 40
0.1501967046
 40
0.1804840506
 40
0.2108978877
 40
0.2414513551
 40
0.2721543675
 40
0.3030134354
 40
0.3340315696
 40
0.3652082675
 40
0.3965395775
 40
0.4280182343
 40
0.4596338596
 40
0.4913732188
 40
0.5232205284
 40
0.5551578047
 40
0.5871652463
 40
0.6192216448
 40
0.6513048151
 40
0.6833920402
 40
0.7154605222
 40
0.747487836
 40
0.7794523759
 40
0.8113337934
 40
0.8431134117
 40
0.8747746318
 40
0.9063032512
 40
0.9376879208
 40
0.9533258
 40
0.9689252634
 40
1.0
 40
1.0
 40
1.0
 40
1.0
 10
12.0411274552
 20
6.4978763041
 30
0.0
 10
12.0447605944
 20
6.5013856257
 30
0.0
 10
12.0504244618
 20
6.5064369588
 30
0.0
 10
12.0583565806
 20
6.5127045632
 30
0.0
 10
12.0665412976
 20
6.518660282
 30
0.0
 10
12.0772210074
 20
6.5254993766
 30
0.0
 10
12.0884199711
 20
6.5314816052
 30
0.0
 10
12.0976562139
 20
6.5357373685
 30
0.0
 10
12.1070832503
 20
6.5396418121
 30
0.0
 10
12.1191777106
 20
6.5438401923
 30
0.0
 10
12.1340822997
 20
6.5477529774
 30
0.0
 10
12.1493121092
 20
6.5505248845
 30
0.0
 10
12.1647827377
 20
6.5521406212
 30
0.0
 10
12.1804092019
 20
6.5525915649
 30
0.0
 10
12.1961055203
 20
6.5518754206
 30
0.0
 10
12.2117854227
 20
6.5499963251
 30
0.0
 10
12.2273627547
 20
6.546964788
 30
0.0
 10
12.2427519638
 20
6.5427976339
 30
0.0
 10
12.2578685578
 20
6.5375179026
 30
0.0
 10
12.2726295635
 20
6.5311547198
 30
0.0
 10
12.2869539755
 20
6.523743134
 30
0.0
 10
12.3007631942
 20
6.5153239241
 30
0.0
 10
12.3139814517
 20
6.5059433753
 30
0.0
 10
12.3265362223
 20
6.4956530261
 30
0.0
 10
12.3383586153
 20
6.484509388
 30
0.0
 10
12.3493837493
 20
6.472573637
 30
0.0
 10
12.3595511041
 20
6.4599112821
 30
0.0
 10
12.3688048498
 20
6.4465918077
 30
0.0
 10
12.3770941506
 20
6.4326883012
 30
0.0
 10
12.3843734419
 20
6.4182770402
 30
0.0
 10
12.3906026773
 20
6.403437139
 30
0.0
 10
12.3957475604
 20
6.3882498997
 30
0.0
 10
12.3997796693
 20
6.3727991862
 30
0.0
 10
12.4021970083
 20
6.359757109
 30
0.0
 10
12.4035530637
 20
6.3492779581
 30
0.0
 10
12.4045208471
 20
6.3388088349
 30
0.0
 10
12.4048138826
 20
6.3309308902
 30
0.0
 10
12.4048138826
 20
6.3256885489
 30
0.0
  0
SPLINE
  5
349
100
AcDbEntity
  8
0
100
AcDbSpline
 62
7
  6
CONTINUOUS
 70
0
 71
3
 72
42
 73
38
 74
0
 42
0.0000001
 43
0.0000001
 44
0.0000000001
 40
0.0
 40
0.0
 40
0.0
 40
0.0
 40
0.0299419634
 40
0.0449235299
 40
0.0599142017
 40
0.0899287029
 40
0.1200139772
 40
0.1350926626
 40
0.1501967046
 40
0.1804840506
 40
0.2108978877
 40
0.2414513551
 40
0.2721543675
 40
0.3030134354
 40
0.3340315696
 40
0.3652082675
 40
0.3965395775
 40
0.4280182343
 40
0.4596338596
 40
0.4913732188
 40
0.5232205284
 40
0.5551578047
 40
0.5871652463
 40
0.6192216448
 40
0.6513048151
 40
0.6833920402
 40
0.7154605222
 40
0.747487836
 40
0.7794523759
 40
0.8113337934
 40
0.8431134117
 40
0.8747746318
 40
0.9063032512
 40
0.9376879208
 40
0.9533258
 40
0.9689252634
 40
1.0
 40
1.0
 40
1.0
 40
1.0
 10
9.0235749539
 20
6.7071442808
 30
0.0
 10
9.027208093
 20
6.7106536024
 30
0.0
 10
9.0328719605
 20
6.7157049356
 30
0.0
 10
9.0408040793
 20
6.7219725399
 30
0.0
 10
9.0489887962
 20
6.7279282587
 30
0.0
 10
9.059668506
 20
6.7347673534
 30
0.0
 10
9.0708674698
 20
6.7407495819
 30
0.0
 10
9.0801037125
 20
6.7450053453
 30
0.0
 10
9.089530749
 20
6.7489097888
 30
0.0
 10
9.1016252093
 20
6.7531081691
 30
0.0
 10
9.1165297983
 20
6.7570209542
 30
0.0
 10
9.1317596078
 20
6.7597928612
 30
0.0
 10
9.1472302364
 20
6.7614085979
 30
0.0
 10
9.1628567005
 20
6.7618595416
 30
0.0
 10
9.178553019
 20
6.7611433973
 30
0.0
 10
9.1942329213
 20
6.7592643019
 30
0.0
 10
9.2098102533
 20
6.7562327647
 30
0.0
 10
9.2251994624
 20
6.7520656106
 30
0.0
 10
9.2403160565
 20
6.7467858794
 30
0.0
 10
9.2550770622
 20
6.7404226965
 30
0.0
 10
9.2694014741
 20
6.7330111108
 30
0.0
 10
9.2832106928
 20
6.7245919009
 30
0.0
 10
9.2964289503
 20
6.715211352
 30
0.0
 10
9.3089837209
 20
6.7049210029
 30
0.0
 10
9.320806114
 20
6.6937773647
 30
0.0
 10
9.331831248
 20
6.6818416137
 30
0.0
 10
9.3419986028
 20
6.6691792588
 30
0.0
 10
9.3512523485
 20
6.6558597844
 30
0.0
 10
9.3595416493
 20
6.6419562779
 30
0.0
 10
9.3668209406
 20
6.6275450169
 30
0.0
 10
9.3730501759
 20
6.6127051157
 30
0.0
 10
9.3781950591
 20
6.5975178764
 30
0.0
 10
9.382227168
 20
6.582067163
 30
0.0
 10
9.3846445069
 20
6.5690250858
 30
0.0
 10
9.3860005623
 20
6.5585459348
 30
0.0
 10
9.3869683458
 20
6.5480768116
 30
0.0
 10
9.3872613813
 20
6.5401988669
 30
0.0
 10
9.3872613813
 20
6.5349565256
 30
0.0
  0
SPLINE
  5
34A
100
AcDbEntity
  8
0
100
AcDbSpline
 62
7
  6
CONTINUOUS
 70
0
 71
3
 72
42
 73
38
 74
0
 42
0.0000001
 43
0.0000001
 44
0.0000000001
 40
0.0
 40
0.0
 40
0.0
 40
0.0
 40
0.0072740241
 40
0.0148705954
 40
0.0227981564
 40
0.0310634978
 40
0.0396717571
 40
0.0486267841
 40
0.0579311899
 40
0.0675864972
 40
0.0775933419
 40
0.0879514035
 40
0.0986597084
 40
0.1097164811
 40
0.132864564
 40
0.157371151
 40
0.1832027565
 40
0.2103191046
 40
0.2386739844
 40
0.2682159345
 40
0.2988888029
 40
0.3306322293
 40
0.363382069
 40
0.3970707624
 40
0.4316276711
 40
0.4669793887
 40
0.5030500326
 40
0.539761519
 40
0.5770338379
 40
0.6147853188
 40
0.6529328865
 40
0.6913923154
 40
0.730078477
 40
0.7689055902
 40
0.8466362046
 40
0.9238957044
 40
1.0
 40
1.0
 40
1.0
 40
1.0
 10
11.9664334536
 20
10.6968603096
 30
0.0
 10
11.9652419511
 20
10.6957514964
 30
0.0
 10
11.9627513223
 20
10.6935430093
 30
0.0
 10
11.9587910868
 20
10.6903253664
 30
0.0
 10
11.9545292431
 20
10.6871338617
 30
0.0
 10
11.9499683424
 20
10.6839704785
 30
0.0
 10
11.9451110494
 20
10.6808369221
 30
0.0
 10
11.9399601857
 20
10.6777350486
 30
0.0
 10
11.9345187689
 20
10.6746666471
 30
0.0
 10
11.9287899974
 20
10.6716334876
 30
0.0
 10
11.9227772183
 20
10.6686374003
 30
0.0
 10
11.9164839952
 20
10.6656800919
 30
0.0
 10
11.9099140084
 20
10.6627633472
 30
0.0
 10
11.9006480642
 20
10.6588711095
 30
0.0
 10
11.8883921034
 20
10.6541321836
 30
0.0
 10
11.8728633161
 20
10.6487174753
 30
0.0
 10
11.8563324671
 20
10.6435041334
 30
0.0
 10
11.8388386909
 20
10.6385046213
 30
0.0
 10
11.8204232221
 20
10.6337309148
 30
0.0
 10
11.8011296437
 20
10.629194459
 30
0.0
 10
11.7810036627
 20
10.6249061307
 30
0.0
 10
11.7600930181
 20
10.6208762101
 30
0.0
 10
11.7384473456
 20
10.6171143574
 30
0.0
 10
11.7161180545
 20
10.613629588
 30
0.0
 10
11.6931581989
 20
10.6104302518
 30
0.0
 10
11.6696223485
 20
10.6075240128
 30
0.0
 10
11.6455664568
 20
10.6049178326
 30
0.0
 10
11.6210477265
 20
10.6026179494
 30
0.0
 10
11.5961244697
 20
10.6006298661
 30
0.0
 10
11.5708559674
 20
10.59895834
 30
0.0
 10
11.5453023208
 20
10.597607368
 30
0.0
 10
11.5195243321
 20
10.596580191
 30
0.0
 10
11.4935832681
 20
10.5958792357
 30
0.0
 10
11.4588490557
 20
10.5953818251
 30
0.0
 10
11.4154763076
 20
10.5955813685
 30
0.0
 10
11.3637850578
 20
10.5971255096
 30
0.0
 10
11.3295171295
 20
10.5990349625
 30
0.0
 10
11.3125290047
 20
10.600213093
 30
0.0
  0
SPLINE
  5
34B
100
AcDbEntity
  8
0
100
AcDbSpline
 62
7
  6
CONTINUOUS
 70
0
 71
3
 72
15
 73
11
 74
0
 42
0.0000001
 43
0.0000001
 44
0.0000000001
 40
0.0
 40
0.0
 40
0.0
 40
0.0
 40
0.1233171261
 40
0.2468171865
 40
0.3706749939
 40
0.4950495802
 40
0.6200773232
 40
0.7458671315
 40
0.872492731
 40
1.0
 40
1.0
 40
1.0
 40
1.0
 10
9.6464972207
 20
9.2550669979
 30
0.0
 10
9.6490217544
 20
9.257505489
 30
0.0
 10
9.654341725
 20
9.2621179147
 30
0.0
 10
9.6630244413
 20
9.2681451049
 30
0.0
 10
9.6723282662
 20
9.2732259462
 30
0.0
 10
9.6821579669
 20
9.2773082167
 30
0.0
 10
9.6924143887
 20
9.2803513872
 30
0.0
 10
9.702994213
 20
9.2823250303
 30
0.0
 10
9.7137894439
 20
9.2832099495
 30
0.0
 10
9.7210357261
 20
9.2830686079
 30
0.0
 10
9.7246562081
 20
9.2828175267
 30
0.0
  0
SPLINE
  5
34C
100
AcDbEntity
  8
0
100
AcDbSpline
 62
7
  6
CONTINUOUS
 70
0
 71
3
 72
15
 73
11
 74
0
 42
0.0000001
 43
0.0000001
 44
0.0000000001
 40
0.0
 40
0.0
 40
0.0
 40
0.0
 40
0.1233171261
 40
0.2468171865
 40
0.3706749939
 40
0.4950495802
 40
0.6200773232
 40
0.7458671315
 40
0.872492731
 40
1.0
 40
1.0
 40
1.0
 40
1.0
 10
11.6990897232
 20
9.1127192243
 30
0.0
 10
11.7016142569
 20
9.1151577154
 30
0.0
 10
11.7069342275
 20
9.1197701412
 30
0.0
 10
11.7156169438
 20
9.1257973314
 30
0.0
 10
11.7249207687
 20
9.1308781726
 30
0.0
 10
11.7347504694
 20
9.1349604432
 30
0.0
 10
11.7450068912
 20
9.1380036137
 30
0.0
 10
11.7555867155
 20
9.1399772568
 30
0.0
 10
11.7663819464
 20
9.1408621759
 30
0.0
 10
11.7736282286
 20
9.1407208344
 30
0.0
 10
11.7772487106
 20
9.1404697531
 30
0.0
  0
SPLINE
  5
34D
100
AcDbEntity
  8
0
100
AcDbSpline
 62
7
  6
CONTINUOUS
 70
0
 71
3
 72
15
 73
11
 74
0
 42
0.0000001
 43
0.0000001
 44
0.0000000001
 40
0.0
 40
0.0
 40
0.0
 40
0.0
 40
0.1233171261
 40
0.2468171865
 40
0.3706749939
 40
0.4950495802
 40
0.6200773232
 40
0.7458671315
 40
0.872492731
 40
1.0
 40
1.0
 40
1.0
 40
1.0
 10
9.6464972207
 20
7.5038434061
 30
0.0
 10
9.6490217544
 20
7.5062818972
 30
0.0
 10
9.654341725
 20
7.5108943229
 30
0.0
 10
9.6630244413
 20
7.5169215131
 30
0.0
 10
9.6723282662
 20
7.5220023544
 30
0.0
 10
9.6821579669
 20
7.5260846249
 30
0.0
 10
9.6924143887
 20
7.5291277954
 30
0.0
 10
9.702994213
 20
7.5311014385
 30
0.0
 10
9.7137894439
 20
7.5319863576
 30
0.0
 10
9.7210357261
 20
7.5318450161
 30
0.0
 10
9.7246562081
 20
7.5315939348
 30
0.0
  0
SPLINE
  5
34E
100
AcDbEntity
  8
0
100
AcDbSpline
 62
7
  6
CONTINUOUS
 70
0
 71
3
 72
15
 73
11
 74
0
 42
0.0000001
 43
0.0000001
 44
0.0000000001
 40
0.0
 40
0.0
 40
0.0
 40
0.0
 40
0.1233171261
 40
0.2468171865
 40
0.3706749939
 40
0.4950495802
 40
0.6200773232
 40
0.7458671315
 40
0.872492731
 40
1.0
 40
1.0
 40
1.0
 40
1.0
 10
11.6990897232
 20
7.3614956325
 30
0.0
 10
11.7016142569
 20
7.3639341236
 30
0.0
 10
11.7069342275
 20
7.3685465494
 30
0.0
 10
11.7156169438
 20
7.3745737396
 30
0.0
 10
11.7249207687
 20
7.3796545808
 30
0.0
 10
11.7347504694
 20
7.3837368514
 30
0.0
 10
11.7450068912
 20
7.3867800219
 30
0.0
 10
11.7555867155
 20
7.3887536649
 30
0.0
 10
11.7663819464
 20
7.3896385841
 30
0.0
 10
11.7736282286
 20
7.3894972426
 30
0.0
 10
11.7772487106
 20
7.3892461613
 30
0.0
  0
SPLINE
  5
34F
100
AcDbEntity
  8
0
100
AcDbSpline
 62
7
  6
CONTINUOUS
 70
0
 71
3
 72
21
 73
17
 74
0
 42
0.0000001
 43
0.0000001
 44
0.0000000001
 40
0.0
 40
0.0
 40
0.0
 40
0.0
 40
0.1266975249
 40
0.2525125142
 40
0.3151571125
 40
0.3776342843
 40
0.4399692859
 40
0.5021902513
 40
0.5643285965
 40
0.6264185914
 40
0.6884960165
 40
0.7505986159
 40
0.812763847
 40
0.8750273874
 40
0.9374328697
 40
1.0
 40
1.0
 40
1.0
 40
1.0
 10
12.1177670401
 20
8.9280959391
 30
0.0
 10
12.1182191904
 20
8.9310574256
 30
0.0
 10
12.1194574882
 20
8.936914124
 30
0.0
 10
12.1218597957
 20
8.9439886479
 30
0.0
 10
12.1242819066
 20
8.9494089128
 30
0.0
 10
12.1263428904
 20
8.9533365833
 30
0.0
 10
12.1286463337
 20
8.9571153919
 30
0.0
 10
12.1311867354
 20
8.9607295133
 30
0.0
 10
12.1339572046
 20
8.9641631072
 30
0.0
 10
12.1369495443
 20
8.9674006608
 30
0.0
 10
12.1401540312
 20
8.9704272469
 30
0.0
 10
12.1435595006
 20
8.9732286629
 30
0.0
 10
12.1471533577
 20
8.9757915451
 30
0.0
 10
12.1509218302
 20
8.9781038498
 30
0.0
 10
12.1548493747
 20
8.9801544014
 30
0.0
 10
12.157559447
 20
8.9813392884
 30
0.0
 10
12.158934492
 20
8.9818851227
 30
0.0
  0
SPLINE
  5
350
100
AcDbEntity
  8
0
100
AcDbSpline
 62
7
  6
CONTINUOUS
 70
0
 71
3
 72
33
 73
29
 74
0
 42
0.0000001
 43
0.0000001
 44
0.0000000001
 40
0.0
 40
0.0
 40
0.0
 40
0.0
 40
0.0162144692
 40
0.0334275894
 40
0.0516720786
 40
0.0709712473
 40
0.091340872
 40
0.1127900333
 40
0.1353223936
 40
0.1589368226
 40
0.183628034
 40
0.2093872636
 40
0.2362023918
 40
0.2640586644
 40
0.2929385944
 40
0.3228225234
 40
0.3536886216
 40
0.3855131152
 40
0.4182705339
 40
0.4519336172
 40
0.486473739
 40
0.521860682
 40
0.5950467061
 40
0.6712269155
 40
0.7501175304
 40
0.8314199122
 40
0.9148213441
 40
1.0
 40
1.0
 40
1.0
 40
1.0
 10
12.9504165703
 20
7.9684881299
 30
0.0
 10
12.9490851579
 20
7.9701251809
 30
0.0
 10
12.9464524314
 20
7.9735923458
 30
0.0
 10
12.9426978041
 20
7.9791746629
 30
0.0
 10
12.9390257645
 20
7.9852849089
 30
0.0
 10
12.9354399936
 20
7.9919165679
 30
0.0
 10
12.9319440407
 20
7.9990630431
 30
0.0
 10
12.9285413973
 20
8.0067169912
 30
0.0
 10
12.9252355814
 20
8.0148705707
 30
0.0
 10
12.9220300212
 20
8.023515358
 30
0.0
 10
12.9189280379
 20
8.0326423845
 30
0.0
 10
12.9159329397
 20
8.0422421599
 30
0.0
 10
12.9130478204
 20
8.0523046587
 30
0.0
 10
12.9102757903
 20
8.0628193659
 30
0.0
 10
12.9076197306
 20
8.0737752634
 30
0.0
 10
12.9050824861
 20
8.0851608634
 30
0.0
 10
12.9026667376
 20
8.0969642128
 30
0.0
 10
12.9003750312
 20
8.1091729105
 30
0.0
 10
12.8982098306
 20
8.1217741226
 30
0.0
 10
12.8961733914
 20
8.1347545919
 30
0.0
 10
12.8942678987
 20
8.148100675
 30
0.0
 10
12.8918777631
 20
8.1665715601
 30
0.0
 10
12.8892447995
 20
8.1904729274
 30
0.0
 10
12.8866699434
 20
8.2200683195
 30
0.0
 10
12.8846567182
 20
8.2507656848
 30
0.0
 10
12.8832138048
 20
8.2824357039
 30
0.0
 10
12.8823474534
 20
8.3149451105
 30
0.0
 10
12.8821585655
 20
8.3368843068
 30
0.0
 10
12.8821585655
 20
8.34796928
 30
0.0
  0
SPLINE
  5
351
100
AcDbEntity
  8
0
100
AcDbSpline
 62
7
  6
CONTINUOUS
 70
0
 71
3
 72
24
 73
20
 74
0
 42
0.0000001
 43
0.0000001
 44
0.0000000001
 40
0.0
 40
0.0
 40
0.0
 40
0.0
 40
0.0620109569
 40
0.1239239661
 40
0.185774548
 40
0.2475996525
 40
0.2785190238
 40
0.3094461919
 40
0.3713336594
 40
0.4333084744
 40
0.4954065735
 40
0.5576618893
 40
0.6201056725
 40
0.6827659109
 40
0.7456666532
 40
0.808827938
 40
0.8722642904
 40
0.9359872582
 40
1.0
 40
1.0
 40
1.0
 40
1.0
 10
10.5629691117
 20
8.9787055361
 30
0.0
 10
10.5652862723
 20
8.9824684813
 30
0.0
 10
10.5701722863
 20
8.9898346447
 30
0.0
 10
10.5782287841
 20
9.0003525506
 30
0.0
 10
10.5869761113
 20
9.0102862138
 30
0.0
 10
10.5948136381
 20
9.0180423045
 30
0.0
 10
10.6013908434
 20
9.0239110634
 30
0.0
 10
10.6081696345
 20
9.029552715
 30
0.0
 10
10.6170096483
 20
9.0361667975
 30
0.0
 10
10.6281516917
 20
9.0433606466
 30
0.0
 10
10.6397863203
 20
9.0497821789
 30
0.0
 10
10.651865409
 20
9.0554020334
 30
0.0
 10
10.6643388798
 20
9.0601945326
 30
0.0
 10
10.6771544245
 20
9.0641374629
 30
0.0
 10
10.6902579165
 20
9.0672124143
 30
0.0
 10
10.7035935214
 20
9.0694048128
 30
0.0
 10
10.7171044417
 20
9.0707042421
 30
0.0
 10
10.730731795
 20
9.0711042944
 30
0.0
 10
10.7398364022
 20
9.0707706874
 30
0.0
 10
10.7443872889
 20
9.0704550823
 30
0.0
  0
SPLINE
  5
352
100
AcDbEntity
  8
0
100
AcDbSpline
 62
7
  6
CONTINUOUS
 70
0
 71
3
 72
42
 73
38
 74
0
 42
0.0000001
 43
0.0000001
 44
0.0000000001
 40
0.0
 40
0.0
 40
0.0
 40
0.0
 40
0.0299419634
 40
0.0449235299
 40
0.0599142017
 40
0.0899287029
 40
0.1200139772
 40
0.1350926626
 40
0.1501967046
 40
0.1804840506
 40
0.2108978877
 40
0.2414513551
 40
0.2721543675
 40
0.3030134354
 40
0.3340315696
 40
0.3652082675
 40
0.3965395775
 40
0.4280182343
 40
0.4596338596
 40
0.4913732188
 40
0.5232205284
 40
0.5551578047
 40
0.5871652463
 40
0.6192216448
 40
0.6513048151
 40
0.6833920402
 40
0.7154605222
 40
0.747487836
 40
0.7794523759
 40
0.8113337934
 40
0.8431134117
 40
0.8747746318
 40
0.9063032512
 40
0.9376879208
 40
0.9533258
 40
0.9689252634
 40
1.0
 40
1.0
 40
1.0
 40
1.0
 10
10.2000727037
 20
8.4666085211
 30
0.0
 10
10.2037058429
 20
8.4701178427
 30
0.0
 10
10.2093697103
 20
8.4751691758
 30
0.0
 10
10.2173018291
 20
8.4814367802
 30
0.0
 10
10.2254865461
 20
8.487392499
 30
0.0
 10
10.2361662559
 20
8.4942315936
 30
0.0
 10
10.2473652196
 20
8.5002138222
 30
0.0
 10
10.2566014624
 20
8.5044695855
 30
0.0
 10
10.2660284988
 20
8.5083740291
 30
0.0
 10
10.2781229591
 20
8.5125724093
 30
0.0
 10
10.2930275482
 20
8.5164851944
 30
0.0
 10
10.3082573577
 20
8.5192571015
 30
0.0
 10
10.3237279862
 20
8.5208728382
 30
0.0
 10
10.3393544504
 20
8.5213237819
 30
0.0
 10
10.3550507688
 20
8.5206076376
 30
0.0
 10
10.3707306712
 20
8.5187285421
 30
0.0
 10
10.3863080032
 20
8.515697005
 30
0.0
 10
10.4016972123
 20
8.5115298509
 30
0.0
 10
10.4168138063
 20
8.5062501197
 30
0.0
 10
10.431574812
 20
8.4998869368
 30
0.0
 10
10.445899224
 20
8.492475351
 30
0.0
 10
10.4597084427
 20
8.4840561411
 30
0.0
 10
10.4729267002
 20
8.4746755923
 30
0.0
 10
10.4854814708
 20
8.4643852431
 30
0.0
 10
10.4973038638
 20
8.453241605
 30
0.0
 10
10.5083289978
 20
8.441305854
 30
0.0
 10
10.5184963526
 20
8.4286434991
 30
0.0
 10
10.5277500983
 20
8.4153240247
 30
0.0
 10
10.5360393991
 20
8.4014205182
 30
0.0
 10
10.5433186904
 20
8.3870092572
 30
0.0
 10
10.5495479258
 20
8.372169356
 30
0.0
 10
10.5546928089
 20
8.3569821167
 30
0.0
 10
10.5587249178
 20
8.3415314032
 30
0.0
 10
10.5611422568
 20
8.328489326
 30
0.0
 10
10.5624983122
 20
8.3180101751
 30
0.0
 10
10.5634660957
 20
8.3075410519
 30
0.0
 10
10.5637591311
 20
8.2996631072
 30
0.0
 10
10.5637591311
 20
8.2944207659
 30
0.0
  0
SPLINE
  5
353
100
AcDbEntity
  8
0
100
AcDbSpline
 62
7
  6
CONTINUOUS
 70
0
 71
3
 72
28
 73
24
 74
0
 42
0.0000001
 43
0.0000001
 44
0.0000000001
 40
0.0
 40
0.0
 40
0.0
 40
0.0
 40
0.0418207344
 40
0.0828988273
 40
0.1232202721
 40
0.1627768617
 40
0.2395635153
 40
0.3133373988
 40
0.3842139513
 40
0.4523456285
 40
0.5178917573
 40
0.580992961
 40
0.6417519762
 40
0.7002217812
 40
0.7564003836
 40
0.8102320951
 40
0.8362471582
 40
0.8616355138
 40
0.8863809203
 40
0.9104677068
 40
0.933881969
 40
0.9566140547
 40
1.0
 40
1.0
 40
1.0
 40
1.0
 10
10.5542663554
 20
8.2326505858
 30
0.0
 10
10.5518956647
 20
8.2321433209
 30
0.0
 10
10.5471690343
 20
8.2312606104
 30
0.0
 10
10.5400839589
 20
8.2303268449
 30
0.0
 10
10.5330891115
 20
8.2297882803
 30
0.0
 10
10.5240058269
 20
8.22958746
 30
0.0
 10
10.512979886
 20
8.2302484094
 30
0.0
 10
10.5003054236
 20
8.2324418252
 30
0.0
 10
10.4884360245
 20
8.2358917411
 30
0.0
 10
10.4774623966
 20
8.2404480572
 30
0.0
 10
10.4674467037
 20
8.2459545332
 30
0.0
 10
10.458429266
 20
8.2522551831
 30
0.0
 10
10.4504341246
 20
8.2591978871
 30
0.0
 10
10.4434745038
 20
8.2666362404
 30
0.0
 10
10.4375582561
 20
8.2744282415
 30
0.0
 10
10.4334544477
 20
8.2811800767
 30
0.0
 10
10.4307129762
 20
8.2866326485
 30
0.0
 10
10.4289452474
 20
8.2906801006
 30
0.0
 10
10.42744411
 20
8.2947147626
 30
0.0
 10
10.4262110267
 20
8.2987196712
 30
0.0
 10
10.4252477326
 20
8.3026785191
 30
0.0
 10
10.4243400661
 20
8.3077906002
 30
0.0
 10
10.4240420687
 20
8.3116288695
 30
0.0
 10
10.4240433429
 20
8.3141439586
 30
0.0
  0
SPLINE
  5
354
100
AcDbEntity
  8
0
100
AcDbSpline
 62
7
  6
CONTINUOUS
 70
0
 71
3
 72
30
 73
26
 74
0
 42
0.0000001
 43
0.0000001
 44
0.0000000001
 40
0.0
 40
0.0
 40
0.0
 40
0.0
 40
0.0162144102
 40
0.0334276028
 40
0.0516720355
 40
0.0709712949
 40
0.0913408931
 40
0.1127901468
 40
0.135322532
 40
0.1589370491
 40
0.18362834
 40
0.2093876596
 40
0.2362029073
 40
0.2640592898
 40
0.2929393611
 40
0.322823436
 40
0.3855122696
 40
0.4519313893
 40
0.5218573588
 40
0.5950438491
 40
0.6712245377
 40
0.7501157803
 40
0.8314184881
 40
0.9148211419
 40
1.0
 40
1.0
 40
1.0
 40
1.0
 10
12.8060728921
 20
9.1280288292
 30
0.0
 10
12.8053760796
 20
9.1288855946
 30
0.0
 10
12.8039981702
 20
9.1307001515
 30
0.0
 10
12.8020331539
 20
9.1336217354
 30
0.0
 10
12.8001112928
 20
9.1368195865
 30
0.0
 10
12.7982346457
 20
9.1402903568
 30
0.0
 10
12.7964049499
 20
9.144030545
 30
0.0
 10
12.7946241352
 20
9.1480363438
 30
0.0
 10
12.7928939628
 20
9.1523036251
 30
0.0
 10
12.7912162828
 20
9.1568279949
 30
0.0
 10
12.7895928006
 20
9.1616047517
 30
0.0
 10
12.7880252612
 20
9.1666289312
 30
0.0
 10
12.7865152827
 20
9.1718952867
 30
0.0
 10
12.7850644918
 20
9.1773983121
 30
0.0
 10
12.7836743793
 20
9.18313225
 30
0.0
 10
12.7818750885
 20
9.191206682
 30
0.0
 10
12.779799409
 20
9.2018369225
 30
0.0
 10
12.7776099105
 20
9.2152168323
 30
0.0
 10
12.7756932026
 20
9.2293602554
 30
0.0
 10
12.774057519
 20
9.2442077516
 30
0.0
 10
12.7727099352
 20
9.2596970341
 30
0.0
 10
12.7716562757
 20
9.2757629721
 30
0.0
 10
12.7709010945
 20
9.2923380302
 30
0.0
 10
12.7704476817
 20
9.3093523587
 30
0.0
 10
12.7703488209
 20
9.3208346127
 30
0.0
 10
12.7703488209
 20
9.3266360878
 30
0.0
  0
SPLINE
  5
355
100
AcDbEntity
  8
0
100
AcDbSpline
 62
7
  6
CONTINUOUS
 70
0
 71
3
 72
42
 73
38
 74
0
 42
0.0000001
 43
0.0000001
 44
0.0000000001
 40
0.0
 40
0.0
 40
0.0
 40
0.0
 40
0.0299419634
 40
0.0449235299
 40
0.0599142017
 40
0.0899287029
 40
0.1200139772
 40
0.1350926626
 40
0.1501967046
 40
0.1804840506
 40
0.2108978877
 40
0.2414513551
 40
0.2721543675
 40
0.3030134354
 40
0.3340315696
 40
0.3652082675
 40
0.3965395775
 40
0.4280182343
 40
0.4596338596
 40
0.4913732188
 40
0.5232205284
 40
0.5551578047
 40
0.5871652463
 40
0.6192216448
 40
0.6513048151
 40
0.6833920402
 40
0.7154605222
 40
0.747487836
 40
0.7794523759
 40
0.8113337934
 40
0.8431134117
 40
0.8747746318
 40
0.9063032512
 40
0.9376879208
 40
0.9533258
 40
0.9689252634
 40
1.0
 40
1.0
 40
1.0
 40
1.0
 10
9.6871660421
 20
8.0791029867
 30
0.0
 10
9.6907991812
 20
8.0826123082
 30
0.0
 10
9.6964630487
 20
8.0876636414
 30
0.0
 10
9.7043951675
 20
8.0939312457
 30
0.0
 10
9.7125798844
 20
8.0998869645
 30
0.0
 10
9.7232595942
 20
8.1067260592
 30
0.0
 10
9.734458558
 20
8.1127082877
 30
0.0
 10
9.7436948007
 20
8.1169640511
 30
0.0
 10
9.7531218372
 20
8.1208684946
 30
0.0
 10
9.7652162975
 20
8.1250668749
 30
0.0
 10
9.7801208865
 20
8.12897966
 30
0.0
 10
9.795350696
 20
8.131751567
 30
0.0
 10
9.8108213246
 20
8.1333673037
 30
0.0
 10
9.8264477887
 20
8.1338182474
 30
0.0
 10
9.8421441072
 20
8.1331021031
 30
0.0
 10
9.8578240095
 20
8.1312230077
 30
0.0
 10
9.8734013415
 20
8.1281914705
 30
0.0
 10
9.8887905506
 20
8.1240243164
 30
0.0
 10
9.9039071447
 20
8.1187445852
 30
0.0
 10
9.9186681504
 20
8.1123814023
 30
0.0
 10
9.9329925623
 20
8.1049698166
 30
0.0
 10
9.946801781
 20
8.0965506067
 30
0.0
 10
9.9600200385
 20
8.0871700578
 30
0.0
 10
9.9725748091
 20
8.0768797087
 30
0.0
 10
9.9843972022
 20
8.0657360705
 30
0.0
 10
9.9954223362
 20
8.0538003195
 30
0.0
 10
10.005589691
 20
8.0411379646
 30
0.0
 10
10.0148434367
 20
8.0278184902
 30
0.0
 10
10.0231327375
 20
8.0139149837
 30
0.0
 10
10.0304120288
 20
7.9995037227
 30
0.0
 10
10.0366412641
 20
7.9846638215
 30
0.0
 10
10.0417861472
 20
7.9694765822
 30
0.0
 10
10.0458182562
 20
7.9540258688
 30
0.0
 10
10.0482355951
 20
7.9409837916
 30
0.0
 10
10.0495916505
 20
7.9305046406
 30
0.0
 10
10.050559434
 20
7.9200355174
 30
0.0
 10
10.0508524695
 20
7.9121575727
 30
0.0
 10
10.0508524695
 20
7.9069152314
 30
0.0
  0
SPLINE
  5
356
100
AcDbEntity
  8
0
100
AcDbSpline
 62
7
  6
CONTINUOUS
 70
0
 71
3
 72
17
 73
13
 74
0
 42
0.0000001
 43
0.0000001
 44
0.0000000001
 40
0.0
 40
0.0
 40
0.0
 40
0.0
 40
0.1261728122
 40
0.2521689971
 40
0.3779035907
 40
0.4406564968
 40
0.5033132018
 40
0.6282793031
 40
0.75275079
 40
0.8147909666
 40
0.8766875852
 40
1.0
 40
1.0
 40
1.0
 40
1.0
 10
11.4806949462
 20
7.6825813666
 30
0.0
 10
11.4776558415
 20
7.6862321649
 30
0.0
 10
11.4718216863
 20
7.6937324604
 30
0.0
 10
11.4638595243
 20
7.705535754
 30
0.0
 10
11.4579259061
 20
7.7157936579
 30
0.0
 10
11.4536299544
 20
7.7242184816
 30
0.0
 10
11.449648372
 20
7.7327644785
 30
0.0
 10
11.4452621695
 20
7.743676694
 30
0.0
 10
11.4416918778
 20
7.7548584917
 30
0.0
 10
11.4393480022
 20
7.7639142745
 30
0.0
 10
11.4373539206
 20
7.7730082821
 30
0.0
 10
11.4362458713
 20
7.7799014215
 30
0.0
 10
11.4356847974
 20
7.7845099119
 30
0.0
  0
SPLINE
  5
357
100
AcDbEntity
  8
0
100
AcDbSpline
 62
7
  6
CONTINUOUS
 70
0
 71
3
 72
34
 73
30
 74
0
 42
0.0000001
 43
0.0000001
 44
0.0000000001
 40
0.0
 40
0.0
 40
0.0
 40
0.0
 40
0.0649702054
 40
0.097358879
 40
0.1296574788
 40
0.1618568572
 40
0.1939498234
 40
0.2259307917
 40
0.257795284
 40
0.3211389521
 40
0.3839932394
 40
0.4152505458
 40
0.4463889863
 40
0.5082968188
 40
0.5697882671
 40
0.6004171698
 40
0.6309736139
 40
0.6614729267
 40
0.691933301
 40
0.7223757029
 40
0.752824117
 40
0.783305383
 40
0.8138486028
 40
0.8444841901
 40
0.8752424414
 40
0.9061518362
 40
0.9372368047
 40
0.9685159848
 40
1.0
 40
1.0
 40
1.0
 40
1.0
 10
9.3526475922
 20
7.5917667961
 30
0.0
 10
9.3549832833
 20
7.588362998
 30
0.0
 10
9.3581603731
 20
7.5830304838
 30
0.0
 10
9.3617180794
 20
7.575596676
 30
0.0
 10
9.3640443428
 20
7.5698928979
 30
0.0
 10
9.3660298914
 20
7.564082238
 30
0.0
 10
9.3676755857
 20
7.5581873203
 30
0.0
 10
9.3689821023
 20
7.5522297839
 30
0.0
 10
9.3702701536
 20
7.5442481532
 30
0.0
 10
9.3710415923
 20
7.5342126494
 30
0.0
 10
9.3706900527
 20
7.5241917312
 30
0.0
 10
9.3697306161
 20
7.5162876124
 30
0.0
 10
9.36832528
 20
7.5085116847
 30
0.0
 10
9.3657249508
 20
7.4990171573
 30
0.0
 10
9.3619769166
 20
7.4899450703
 30
0.0
 10
9.3582972961
 20
7.483067763
 30
0.0
 10
9.3552005183
 20
7.4781277492
 30
0.0
 10
9.3517659108
 20
7.4734294073
 30
0.0
 10
9.347997265
 20
7.4690034209
 30
0.0
 10
9.3439009309
 20
7.4648827926
 30
0.0
 10
9.3394863908
 20
7.4611022558
 30
0.0
 10
9.3347670927
 20
7.4576979615
 30
0.0
 10
9.3297612813
 20
7.4547067501
 30
0.0
 10
9.3244927962
 20
7.4521651336
 30
0.0
 10
9.3189916587
 20
7.4501078929
 30
0.0
 10
9.3132944147
 20
7.4485664098
 30
0.0
 10
9.307443611
 20
7.4475667844
 30
0.0
 10
9.3014880898
 20
7.4471279922
 30
0.0
 10
9.2974940603
 20
7.4472161025
 30
0.0
 10
9.295498406
 20
7.4473545016
 30
0.0
  0
SPLINE
  5
358
100
AcDbEntity
  8
0
100
AcDbSpline
 62
7
  6
CONTINUOUS
 70
0
 71
3
 72
39
 73
35
 74
0
 42
0.0000001
 43
0.0000001
 44
0.0000000001
 40
0.0
 40
0.0
 40
0.0
 40
0.0
 40
0.0314026163
 40
0.0630094802
 40
0.0948071156
 40
0.1267734443
 40
0.1588809719
 40
0.1910970226
 40
0.2233851133
 40
0.2557062446
 40
0.2880202668
 40
0.3202872758
 40
0.3524690062
 40
0.3845301827
 40
0.4164397934
 40
0.4481722512
 40
0.4797084083
 40
0.5110363787
 40
0.5421521198
 40
0.5730597435
 40
0.6037715204
 40
0.6343075558
 40
0.6646951112
 40
0.69496759
 40
0.7251632189
 40
0.7553234785
 40
0.7854913552
 40
0.8157095102
 40
0.8460184684
 40
0.8764549241
 40
0.9070502294
 40
0.9378293436
 40
0.9688091107
 40
1.0
 40
1.0
 40
1.0
 40
1.0
 10
11.771166468
 20
7.1433385838
 30
0.0
 10
11.766854732
 20
7.1436376037
 30
0.0
 10
11.7582269577
 20
7.1446624993
 30
0.0
 10
11.7454591667
 20
7.1474461241
 30
0.0
 10
11.7329388577
 20
7.1514542086
 30
0.0
 10
11.7207878211
 20
7.1566479143
 30
0.0
 10
11.7091222686
 20
7.1629770536
 30
0.0
 10
11.6980542308
 20
7.1703806584
 30
0.0
 10
11.6876898386
 20
7.178787487
 30
0.0
 10
11.6781285355
 20
7.1881167621
 30
0.0
 10
11.669462088
 20
7.1982789187
 30
0.0
 10
11.6617737459
 20
7.2091764508
 30
0.0
 10
11.6551374032
 20
7.2207047957
 30
0.0
 10
11.6496169319
 20
7.23275335
 30
0.0
 10
11.6452655837
 20
7.2452065082
 30
0.0
 10
11.6421254833
 20
7.2579447423
 30
0.0
 10
11.6402271962
 20
7.270845711
 30
0.0
 10
11.6395893858
 20
7.2837854087
 30
0.0
 10
11.6402186638
 20
7.2966393427
 30
0.0
 10
11.6421094795
 20
7.3092837014
 30
0.0
 10
11.6452441401
 20
7.3215965298
 30
0.0
 10
11.6495928732
 20
7.3334589192
 30
0.0
 10
11.6551140964
 20
7.3447561779
 30
0.0
 10
11.661754797
 20
7.355378964
 30
0.0
 10
11.6694510101
 20
7.36522439
 30
0.0
 10
11.6781284192
 20
7.3741970773
 30
0.0
 10
11.6877030573
 20
7.3822101784
 30
0.0
 10
11.6980822118
 20
7.389186224
 30
0.0
 10
11.7091653514
 20
7.3950579058
 30
0.0
 10
11.7208452064
 20
7.3997687101
 30
0.0
 10
11.733008675
 20
7.4032735364
 30
0.0
 10
11.7455385781
 20
7.4055389333
 30
0.0
 10
11.7583124703
 20
7.4065437833
 30
0.0
 10
11.7668838032
 20
7.4063674279
 30
0.0
 10
11.771166468
 20
7.4060704241
 30
0.0
  0
SPLINE
  5
359
100
AcDbEntity
  8
0
100
AcDbSpline
 62
7
  6
CONTINUOUS
 70
0
 71
3
 72
39
 73
35
 74
0
 42
0.0000001
 43
0.0000001
 44
0.0000000001
 40
0.0
 40
0.0
 40
0.0
 40
0.0
 40
0.0311445425
 40
0.0624433652
 40
0.093888256
 40
0.1254710218
 40
0.1571788766
 40
0.1889972611
 40
0.2209091725
 40
0.2528958428
 40
0.2849370253
 40
0.3170114183
 40
0.349097079
 40
0.3811718482
 40
0.4132137779
 40
0.4452015551
 40
0.4771149166
 40
0.5089350506
 40
0.5406449764
 40
0.5722298984
 40
0.6036775288
 40
0.634978368
 40
0.6661259371
 40
0.6971169555
 40
0.7279514574
 40
0.758632841
 40
0.7891678449
 40
0.819566448
 40
0.8498416915
 40
0.8800094239
 40
0.9100879689
 40
0.9400977235
 40
0.9700606966
 40
1.0
 40
1.0
 40
1.0
 40
1.0
 10
9.7246562081
 20
9.0654842029
 30
0.0
 10
9.7220027108
 20
9.0656682235
 30
0.0
 10
9.71669407
 20
9.0662314245
 30
0.0
 10
9.7087954951
 20
9.067650048
 30
0.0
 10
9.7009814899
 20
9.0696372259
 30
0.0
 10
9.6932943337
 20
9.0721820987
 30
0.0
 10
9.6857748018
 20
9.0752711465
 30
0.0
 10
9.6784630255
 20
9.078887783
 30
0.0
 10
9.6713979519
 20
9.0830127096
 30
0.0
 10
9.6646172286
 20
9.0876238933
 30
0.0
 10
9.6581569859
 20
9.0926967351
 30
0.0
 10
9.6520516481
 20
9.0982041786
 30
0.0
 10
9.6463337484
 20
9.1041168577
 30
0.0
 10
9.6410337623
 20
9.110403256
 30
0.0
 10
9.6361799455
 20
9.1170298721
 30
0.0
 10
9.6317981857
 20
9.123961396
 30
0.0
 10
9.6279118655
 20
9.1311608954
 30
0.0
 10
9.6245417389
 20
9.1385900096
 30
0.0
 10
9.6217058207
 20
9.1462091509
 30
0.0
 10
9.6194192919
 20
9.1539777128
 30
0.0
 10
9.6176944099
 20
9.1618542819
 30
0.0
 10
9.6165404465
 20
9.1697968581
 30
0.0
 10
9.6159636388
 20
9.1777630763
 30
0.0
 10
9.6159671531
 20
9.1857104286
 30
0.0
 10
9.6165510644
 20
9.1935964888
 30
0.0
 10
9.6177123519
 20
9.2013791368
 30
0.0
 10
9.6194449095
 20
9.2090167818
 30
0.0
 10
9.6217395746
 20
9.2164685853
 30
0.0
 10
9.6245841667
 20
9.2236946781
 30
0.0
 10
9.6279635544
 20
9.2306563927
 30
0.0
 10
9.63185969
 20
9.237316422
 30
0.0
 10
9.6362518909
 20
9.2436392131
 30
0.0
 10
9.6411162465
 20
9.2495904586
 30
0.0
 10
9.6446581235
 20
9.2532905817
 30
0.0
 10
9.6464972207
 20
9.2550669979
 30
0.0
  0
SPLINE
  5
35A
100
AcDbEntity
  8
0
100
AcDbSpline
 62
7
  6
CONTINUOUS
 70
0
 71
3
 72
39
 73
35
 74
0
 42
0.0000001
 43
0.0000001
 44
0.0000000001
 40
0.0
 40
0.0
 40
0.0
 40
0.0
 40
0.0314026163
 40
0.0630094802
 40
0.0948071156
 40
0.1267734443
 40
0.1588809719
 40
0.1910970226
 40
0.2233851133
 40
0.2557062446
 40
0.2880202668
 40
0.3202872758
 40
0.3524690062
 40
0.3845301827
 40
0.4164397934
 40
0.4481722512
 40
0.4797084083
 40
0.5110363787
 40
0.5421521198
 40
0.5730597435
 40
0.6037715204
 40
0.6343075558
 40
0.6646951112
 40
0.69496759
 40
0.7251632189
 40
0.7553234785
 40
0.7854913552
 40
0.8157095102
 40
0.8460184684
 40
0.8764549241
 40
0.9070502294
 40
0.9378293436
 40
0.9688091107
 40
1.0
 40
1.0
 40
1.0
 40
1.0
 10
11.771166468
 20
8.8945621756
 30
0.0
 10
11.766854732
 20
8.8948611955
 30
0.0
 10
11.7582269577
 20
8.8958860911
 30
0.0
 10
11.7454591667
 20
8.8986697159
 30
0.0
 10
11.7329388577
 20
8.9026778004
 30
0.0
 10
11.7207878211
 20
8.9078715061
 30
0.0
 10
11.7091222686
 20
8.9142006454
 30
0.0
 10
11.6980542308
 20
8.9216042502
 30
0.0
 10
11.6876898386
 20
8.9300110788
 30
0.0
 10
11.6781285355
 20
8.9393403539
 30
0.0
 10
11.669462088
 20
8.9495025105
 30
0.0
 10
11.6617737459
 20
8.9604000426
 30
0.0
 10
11.6551374032
 20
8.9719283875
 30
0.0
 10
11.6496169319
 20
8.9839769418
 30
0.0
 10
11.6452655837
 20
8.9964301001
 30
0.0
 10
11.6421254833
 20
9.0091683341
 30
0.0
 10
11.6402271962
 20
9.0220693028
 30
0.0
 10
11.6395893858
 20
9.0350090006
 30
0.0
 10
11.6402186638
 20
9.0478629345
 30
0.0
 10
11.6421094795
 20
9.0605072933
 30
0.0
 10
11.6452441401
 20
9.0728201217
 30
0.0
 10
11.6495928732
 20
9.084682511
 30
0.0
 10
11.6551140964
 20
9.0959797697
 30
0.0
 10
11.661754797
 20
9.1066025559
 30
0.0
 10
11.6694510101
 20
9.1164479818
 30
0.0
 10
11.6781284192
 20
9.1254206692
 30
0.0
 10
11.6877030573
 20
9.1334337702
 30
0.0
 10
11.6980822118
 20
9.1404098158
 30
0.0
 10
11.7091653514
 20
9.1462814977
 30
0.0
 10
11.7208452064
 20
9.1509923019
 30
0.0
 10
11.733008675
 20
9.1544971282
 30
0.0
 10
11.7455385781
 20
9.1567625251
 30
0.0
 10
11.7583124703
 20
9.1577673751
 30
0.0
 10
11.7668838032
 20
9.1575910197
 30
0.0
 10
11.771166468
 20
9.1572940159
 30
0.0
  0
SPLINE
  5
35B
100
AcDbEntity
  8
0
100
AcDbSpline
 62
7
  6
CONTINUOUS
 70
0
 71
3
 72
21
 73
17
 74
0
 42
0.0000001
 43
0.0000001
 44
0.0000000001
 40
0.0
 40
0.0
 40
0.0
 40
0.0
 40
0.1273176984
 40
0.2537999461
 40
0.3167619614
 40
0.3795355204
 40
0.4421314992
 40
0.5045621453
 40
0.5668413456
 40
0.6289845231
 40
0.6910084433
 40
0.7529310869
 40
0.8147714401
 40
0.8765493236
 40
0.9382852134
 40
1.0
 40
1.0
 40
1.0
 40
1.0
 10
11.9817383457
 20
9.8555441498
 30
0.0
 10
11.9817383457
 20
9.8622889579
 30
0.0
 10
11.9823821827
 20
9.8757429974
 30
0.0
 10
11.9848137739
 20
9.8923750944
 30
0.0
 10
11.987720041
 20
9.9054215181
 30
0.0
 10
11.9903704049
 20
9.9150445665
 30
0.0
 10
11.9934883996
 20
9.9244966183
 30
0.0
 10
11.9970668364
 20
9.9337561528
 30
0.0
 10
12.001097465
 20
9.9428017542
 30
0.0
 10
12.0055710729
 20
9.9516125458
 30
0.0
 10
12.010477311
 20
9.9601682173
 30
0.0
 10
12.0158048647
 20
9.9684490512
 30
0.0
 10
12.0215414991
 20
9.9764358858
 30
0.0
 10
12.0276740203
 20
9.9841103783
 30
0.0
 10
12.0341880138
 20
9.9914546166
 30
0.0
 10
12.0387759065
 20
9.9961201092
 30
0.0
 10
12.0411274552
 20
9.9983915169
 30
0.0
  0
SPLINE
  5
35C
100
AcDbEntity
  8
0
100
AcDbSpline
 62
7
  6
CONTINUOUS
 70
0
 71
3
 72
21
 73
17
 74
0
 42
0.0000001
 43
0.0000001
 44
0.0000000001
 40
0.0
 40
0.0
 40
0.0
 40
0.0
 40
0.1273176984
 40
0.2537999461
 40
0.3167619614
 40
0.3795355204
 40
0.4421314992
 40
0.5045621453
 40
0.5668413456
 40
0.6289845231
 40
0.6910084433
 40
0.7529310869
 40
0.8147714401
 40
0.8765493236
 40
0.9382852134
 40
1.0
 40
1.0
 40
1.0
 40
1.0
 10
10.1406835942
 20
8.323761154
 30
0.0
 10
10.1406835942
 20
8.3305059621
 30
0.0
 10
10.1413274312
 20
8.3439600016
 30
0.0
 10
10.1437590224
 20
8.3605920986
 30
0.0
 10
10.1466652895
 20
8.3736385223
 30
0.0
 10
10.1493156534
 20
8.3832615707
 30
0.0
 10
10.1524336481
 20
8.3927136225
 30
0.0
 10
10.1560120849
 20
8.401973157
 30
0.0
 10
10.1600427135
 20
8.4110187584
 30
0.0
 10
10.1645163214
 20
8.41982955
 30
0.0
 10
10.1694225595
 20
8.4283852215
 30
0.0
 10
10.1747501132
 20
8.4366660554
 30
0.0
 10
10.1804867476
 20
8.44465289
 30
0.0
 10
10.1866192688
 20
8.4523273825
 30
0.0
 10
10.1931332623
 20
8.4596716208
 30
0.0
 10
10.197721155
 20
8.4643371134
 30
0.0
 10
10.2000727037
 20
8.4666085211
 30
0.0
  0
SPLINE
  5
35D
100
AcDbEntity
  8
0
100
AcDbSpline
 62
7
  6
CONTINUOUS
 70
0
 71
3
 72
39
 73
35
 74
0
 42
0.0000001
 43
0.0000001
 44
0.0000000001
 40
0.0
 40
0.0
 40
0.0
 40
0.0
 40
0.0311445425
 40
0.0624433652
 40
0.093888256
 40
0.1254710218
 40
0.1571788766
 40
0.1889972611
 40
0.2209091725
 40
0.2528958428
 40
0.2849370253
 40
0.3170114183
 40
0.349097079
 40
0.3811718482
 40
0.4132137779
 40
0.4452015551
 40
0.4771149166
 40
0.5089350506
 40
0.5406449764
 40
0.5722298984
 40
0.6036775288
 40
0.634978368
 40
0.6661259371
 40
0.6971169555
 40
0.7279514574
 40
0.758632841
 40
0.7891678449
 40
0.819566448
 40
0.8498416915
 40
0.8800094239
 40
0.9100879689
 40
0.9400977235
 40
0.9700606966
 40
1.0
 40
1.0
 40
1.0
 40
1.0
 10
11.7772487106
 20
8.9231364293
 30
0.0
 10
11.7745952133
 20
8.92332045
 30
0.0
 10
11.7692865725
 20
8.9238836509
 30
0.0
 10
11.7613879975
 20
8.9253022745
 30
0.0
 10
11.7535739923
 20
8.9272894523
 30
0.0
 10
11.7458868362
 20
8.9298343252
 30
0.0
 10
11.7383673042
 20
8.9329233729
 30
0.0
 10
11.731055528
 20
8.9365400095
 30
0.0
 10
11.7239904544
 20
8.9406649361
 30
0.0
 10
11.7172097311
 20
8.9452761198
 30
0.0
 10
11.7107494884
 20
8.9503489616
 30
0.0
 10
11.7046441506
 20
8.9558564051
 30
0.0
 10
11.6989262509
 20
8.9617690842
 30
0.0
 10
11.6936262648
 20
8.9680554825
 30
0.0
 10
11.688772448
 20
8.9746820985
 30
0.0
 10
11.6843906882
 20
8.9816136224
 30
0.0
 10
11.680504368
 20
8.9888131219
 30
0.0
 10
11.6771342414
 20
8.9962422361
 30
0.0
 10
11.6742983232
 20
9.0038613774
 30
0.0
 10
11.6720117944
 20
9.0116299392
 30
0.0
 10
11.6702869124
 20
9.0195065083
 30
0.0
 10
11.669132949
 20
9.0274490846
 30
0.0
 10
11.6685561413
 20
9.0354153027
 30
0.0
 10
11.6685596556
 20
9.043362655
 30
0.0
 10
11.6691435669
 20
9.0512487153
 30
0.0
 10
11.6703048544
 20
9.0590313633
 30
0.0
 10
11.672037412
 20
9.0666690082
 30
0.0
 10
11.6743320771
 20
9.0741208118
 30
0.0
 10
11.6771766692
 20
9.0813469046
 30
0.0
 10
11.6805560569
 20
9.0883086192
 30
0.0
 10
11.6844521925
 20
9.0949686485
 30
0.0
 10
11.6888443934
 20
9.1012914396
 30
0.0
 10
11.693708749
 20
9.1072426851
 30
0.0
 10
11.6972506259
 20
9.1109428082
 30
0.0
 10
11.6990897232
 20
9.1127192243
 30
0.0
  0
SPLINE
  5
35E
100
AcDbEntity
  8
0
100
AcDbSpline
 62
7
  6
CONTINUOUS
 70
0
 71
3
 72
21
 73
17
 74
0
 42
0.0000001
 43
0.0000001
 44
0.0000000001
 40
0.0
 40
0.0
 40
0.0
 40
0.0
 40
0.1273176984
 40
0.2537999461
 40
0.3167619614
 40
0.3795355204
 40
0.4421314992
 40
0.5045621453
 40
0.5668413456
 40
0.6289845231
 40
0.6910084433
 40
0.7529310869
 40
0.8147714401
 40
0.8765493236
 40
0.9382852134
 40
1.0
 40
1.0
 40
1.0
 40
1.0
 10
11.9817383457
 20
6.355028937
 30
0.0
 10
11.9817383457
 20
6.3617737451
 30
0.0
 10
11.9823821827
 20
6.3752277845
 30
0.0
 10
11.9848137739
 20
6.3918598816
 30
0.0
 10
11.987720041
 20
6.4049063053
 30
0.0
 10
11.9903704049
 20
6.4145293537
 30
0.0
 10
11.9934883996
 20
6.4239814055
 30
0.0
 10
11.9970668364
 20
6.43324094
 30
0.0
 10
12.001097465
 20
6.4422865414
 30
0.0
 10
12.0055710729
 20
6.451097333
 30
0.0
 10
12.010477311
 20
6.4596530045
 30
0.0
 10
12.0158048647
 20
6.4679338384
 30
0.0
 10
12.0215414991
 20
6.475920673
 30
0.0
 10
12.0276740203
 20
6.4835951655
 30
0.0
 10
12.0341880138
 20
6.4909394038
 30
0.0
 10
12.0387759065
 20
6.4956048963
 30
0.0
 10
12.0411274552
 20
6.4978763041
 30
0.0
  0
SPLINE
  5
35F
100
AcDbEntity
  8
0
100
AcDbSpline
 62
7
  6
CONTINUOUS
 70
0
 71
3
 72
54
 73
50
 74
0
 42
0.0000001
 43
0.0000001
 44
0.0000000001
 40
0.0
 40
0.0
 40
0.0
 40
0.0
 40
0.0452109975
 40
0.0910031439
 40
0.1371917004
 40
0.1835902123
 40
0.230010951
 40
0.276266156
 40
0.3221688865
 40
0.3675340284
 40
0.4121792524
 40
0.4559260001
 40
0.4986004801
 40
0.5400346915
 40
0.5800674858
 40
0.6185456896
 40
0.6553253192
 40
0.6902729346
 40
0.7232672083
 40
0.7389983313
 40
0.7542021463
 40
0.7688678608
 40
0.7829858402
 40
0.7965478683
 40
0.8095471391
 40
0.8219786196
 40
0.8338390662
 40
0.8451275217
 40
0.8558454032
 40
0.8659971849
 40
0.8755906333
 40
0.8846377479
 40
0.8931552484
 40
0.9011658517
 40
0.9086990907
 40
0.9157928906
 40
0.922494554
 40
0.9288621098
 40
0.9349645468
 40
0.9408814424
 40
0.9467007488
 40
0.9525153099
 40
0.9584182125
 40
0.9644980872
 40
0.9708354869
 40
0.9775005081
 40
0.984552298
 40
0.9920391814
 40
1.0
 40
1.0
 40
1.0
 40
1.0
 10
12.9152873665
 20
9.4666359806
 30
0.0
 10
12.9152873665
 20
9.4606661924
 30
0.0
 10
12.9151808962
 20
9.4486496378
 30
0.0
 10
12.9147114338
 20
9.430539729
 30
0.0
 10
12.9139329607
 20
9.4122834862
 30
0.0
 10
12.9128488198
 20
9.3939597234
 30
0.0
 10
12.9114636739
 20
9.3756474247
 30
0.0
 10
12.9097835033
 20
9.3574255683
 30
0.0
 10
12.9078155699
 20
9.3393727243
 30
0.0
 10
12.9055683909
 20
9.3215667322
 30
0.0
 10
12.9030517007
 20
9.3040843555
 30
0.0
 10
12.9002764103
 20
9.287000949
 30
0.0
 10
12.8972545617
 20
9.2703901267
 30
0.0
 10
12.8939992767
 20
9.2543234399
 30
0.0
 10
12.8905247028
 20
9.2388700527
 30
0.0
 10
12.8868459504
 20
9.2240964527
 30
0.0
 10
12.8829790389
 20
9.2100660689
 30
0.0
 10
12.878940787
 20
9.1968392412
 30
0.0
 10
12.8753933911
 20
9.1863735035
 30
0.0
 10
12.8724743499
 20
9.1784524494
 30
0.0
 10
12.8702880742
 20
9.1728417411
 30
0.0
 10
12.8680723394
 20
9.1674723062
 30
0.0
 10
12.8658294858
 20
9.1623499012
 30
0.0
 10
12.8635619676
 20
9.1574800023
 30
0.0
 10
12.8612721892
 20
9.1528678196
 30
0.0
 10
12.8589626461
 20
9.1485182537
 30
0.0
 10
12.856635762
 20
9.144435937
 30
0.0
 10
12.8542940549
 20
9.1406251659
 30
0.0
 10
12.8519399348
 20
9.1370899718
 30
0.0
 10
12.8495759033
 20
9.1338340226
 30
0.0
 10
12.8472043053
 20
9.1308607388
 30
0.0
 10
12.8448275611
 20
9.1281731564
 30
0.0
 10
12.8424478727
 20
9.125774117
 30
0.0
 10
12.8400674879
 20
9.1236660891
 30
0.0
 10
12.8376883876
 20
9.1218514787
 30
0.0
 10
12.835312605
 20
9.1203324087
 30
0.0
 10
12.8329419944
 20
9.1191111812
 30
0.0
 10
12.8305786817
 20
9.1181899398
 30
0.0
 10
12.828225057
 20
9.1175711313
 30
0.0
 10
12.8258842632
 20
9.1172567404
 30
0.0
 10
12.8235601334
 20
9.1172484425
 30
0.0
 10
12.8212570239
 20
9.1175464881
 30
0.0
 10
12.8189792534
 20
9.1181501552
 30
0.0
 10
12.8167304682
 20
9.1190573312
 30
0.0
 10
12.8145135887
 20
9.1202656543
 30
0.0
 10
12.8123307018
 20
9.1217723505
 30
0.0
 10
12.8101836235
 20
9.1235750329
 30
0.0
 10
12.8080739701
 20
9.1256710231
 30
0.0
 10
12.8067361474
 20
9.1272133239
 30
0.0
 10
12.8060728921
 20
9.1280288292
 30
0.0
  0
SPLINE
  5
360
100
AcDbEntity
  8
0
100
AcDbSpline
 62
7
  6
CONTINUOUS
 70
0
 71
3
 72
39
 73
35
 74
0
 42
0.0000001
 43
0.0000001
 44
0.0000000001
 40
0.0
 40
0.0
 40
0.0
 40
0.0
 40
0.0311445425
 40
0.0624433652
 40
0.093888256
 40
0.1254710218
 40
0.1571788766
 40
0.1889972611
 40
0.2209091725
 40
0.2528958428
 40
0.2849370253
 40
0.3170114183
 40
0.349097079
 40
0.3811718482
 40
0.4132137779
 40
0.4452015551
 40
0.4771149166
 40
0.5089350506
 40
0.5406449764
 40
0.5722298984
 40
0.6036775288
 40
0.634978368
 40
0.6661259371
 40
0.6971169555
 40
0.7279514574
 40
0.758632841
 40
0.7891678449
 40
0.819566448
 40
0.8498416915
 40
0.8800094239
 40
0.9100879689
 40
0.9400977235
 40
0.9700606966
 40
1.0
 40
1.0
 40
1.0
 40
1.0
 10
9.7246562081
 20
7.314260611
 30
0.0
 10
9.7220027108
 20
7.3144446317
 30
0.0
 10
9.71669407
 20
7.3150078327
 30
0.0
 10
9.7087954951
 20
7.3164264562
 30
0.0
 10
9.7009814899
 20
7.318413634
 30
0.0
 10
9.6932943337
 20
7.3209585069
 30
0.0
 10
9.6857748018
 20
7.3240475546
 30
0.0
 10
9.6784630255
 20
7.3276641912
 30
0.0
 10
9.6713979519
 20
7.3317891178
 30
0.0
 10
9.6646172286
 20
7.3364003015
 30
0.0
 10
9.6581569859
 20
7.3414731433
 30
0.0
 10
9.6520516481
 20
7.3469805868
 30
0.0
 10
9.6463337484
 20
7.3528932659
 30
0.0
 10
9.6410337623
 20
7.3591796642
 30
0.0
 10
9.6361799455
 20
7.3658062802
 30
0.0
 10
9.6317981857
 20
7.3727378041
 30
0.0
 10
9.6279118655
 20
7.3799373036
 30
0.0
 10
9.6245417389
 20
7.3873664178
 30
0.0
 10
9.6217058207
 20
7.3949855591
 30
0.0
 10
9.6194192919
 20
7.4027541209
 30
0.0
 10
9.6176944099
 20
7.41063069
 30
0.0
 10
9.6165404465
 20
7.4185732663
 30
0.0
 10
9.6159636388
 20
7.4265394844
 30
0.0
 10
9.6159671531
 20
7.4344868368
 30
0.0
 10
9.6165510644
 20
7.442372897
 30
0.0
 10
9.6177123519
 20
7.450155545
 30
0.0
 10
9.6194449095
 20
7.4577931899
 30
0.0
 10
9.6217395746
 20
7.4652449935
 30
0.0
 10
9.6245841667
 20
7.4724710863
 30
0.0
 10
9.6279635544
 20
7.4794328009
 30
0.0
 10
9.63185969
 20
7.4860928302
 30
0.0
 10
9.6362518909
 20
7.4924156213
 30
0.0
 10
9.6411162465
 20
7.4983668668
 30
0.0
 10
9.6446581235
 20
7.5020669899
 30
0.0
 10
9.6464972207
 20
7.5038434061
 30
0.0
  0
SPLINE
  5
361
100
AcDbEntity
  8
0
100
AcDbSpline
 62
7
  6
CONTINUOUS
 70
0
 71
3
 72
39
 73
35
 74
0
 42
0.0000001
 43
0.0000001
 44
0.0000000001
 40
0.0
 40
0.0
 40
0.0
 40
0.0
 40
0.0314026163
 40
0.0630094802
 40
0.0948071156
 40
0.1267734443
 40
0.1588809719
 40
0.1910970226
 40
0.2233851133
 40
0.2557062446
 40
0.2880202668
 40
0.3202872758
 40
0.3524690062
 40
0.3845301827
 40
0.4164397934
 40
0.4481722512
 40
0.4797084083
 40
0.5110363787
 40
0.5421521198
 40
0.5730597435
 40
0.6037715204
 40
0.6343075558
 40
0.6646951112
 40
0.69496759
 40
0.7251632189
 40
0.7553234785
 40
0.7854913552
 40
0.8157095102
 40
0.8460184684
 40
0.8764549241
 40
0.9070502294
 40
0.9378293436
 40
0.9688091107
 40
1.0
 40
1.0
 40
1.0
 40
1.0
 10
9.7185739656
 20
7.5484181976
 30
0.0
 10
9.7228857016
 20
7.5481191777
 30
0.0
 10
9.731513476
 20
7.547094282
 30
0.0
 10
9.7442812669
 20
7.5443106572
 30
0.0
 10
9.7568015759
 20
7.5403025727
 30
0.0
 10
9.7689526126
 20
7.535108867
 30
0.0
 10
9.7806181651
 20
7.5287797277
 30
0.0
 10
9.7916862028
 20
7.521376123
 30
0.0
 10
9.802050595
 20
7.5129692944
 30
0.0
 10
9.8116118981
 20
7.5036400192
 30
0.0
 10
9.8202783456
 20
7.4934778627
 30
0.0
 10
9.8279666877
 20
7.4825803305
 30
0.0
 10
9.8346030304
 20
7.4710519857
 30
0.0
 10
9.8401235017
 20
7.4590034314
 30
0.0
 10
9.8444748499
 20
7.4465502731
 30
0.0
 10
9.8476149503
 20
7.433812039
 30
0.0
 10
9.8495132375
 20
7.4209110704
 30
0.0
 10
9.8501510478
 20
7.4079713726
 30
0.0
 10
9.8495217698
 20
7.3951174387
 30
0.0
 10
9.8476309541
 20
7.3824730799
 30
0.0
 10
9.8444962935
 20
7.3701602515
 30
0.0
 10
9.8401475604
 20
7.3582978621
 30
0.0
 10
9.8346263372
 20
7.3470006035
 30
0.0
 10
9.8279856366
 20
7.3363778173
 30
0.0
 10
9.8202894235
 20
7.3265323914
 30
0.0
 10
9.8116120144
 20
7.317559704
 30
0.0
 10
9.8020373763
 20
7.3095466029
 30
0.0
 10
9.7916582218
 20
7.3025705574
 30
0.0
 10
9.7805750823
 20
7.2966988755
 30
0.0
 10
9.7688952272
 20
7.2919880713
 30
0.0
 10
9.7567317586
 20
7.288483245
 30
0.0
 10
9.7442018555
 20
7.2862178481
 30
0.0
 10
9.7314279633
 20
7.285212998
 30
0.0
 10
9.7228566305
 20
7.2853893535
 30
0.0
 10
9.7185739656
 20
7.2856863573
 30
0.0
  0
SPLINE
  5
362
100
AcDbEntity
  8
0
100
AcDbSpline
 62
7
  6
CONTINUOUS
 70
0
 71
3
 72
32
 73
28
 74
0
 42
0.0000001
 43
0.0000001
 44
0.0000000001
 40
0.0
 40
0.0
 40
0.0
 40
0.0
 40
0.0300884375
 40
0.0603093555
 40
0.0906731467
 40
0.1211915984
 40
0.1518690963
 40
0.1827070386
 40
0.2137025514
 40
0.244849343
 40
0.3075199903
 40
0.3706566098
 40
0.402376456
 40
0.4341634276
 40
0.466000009
 40
0.4978686622
 40
0.5616055214
 40
0.6252698234
 40
0.6570492291
 40
0.6887651901
 40
0.7204044344
 40
0.7519546966
 40
0.8147166159
 40
0.8770027895
 40
0.9387607877
 40
0.9694493691
 40
1.0
 40
1.0
 40
1.0
 40
1.0
 10
12.2276177693
 20
8.8298302459
 30
0.0
 10
12.2259805496
 20
8.8291803393
 30
0.0
 10
12.2226441454
 20
8.8280111524
 30
0.0
 10
12.2175039937
 20
8.8266639046
 30
0.0
 10
12.2122479012
 20
8.8257256634
 30
0.0
 10
12.2069081328
 20
8.8251993745
 30
0.0
 10
12.201516095
 20
8.8250846351
 30
0.0
 10
12.1961030961
 20
8.825377724
 30
0.0
 10
12.1906991164
 20
8.8260721891
 30
0.0
 10
12.1835322208
 20
8.8275233126
 30
0.0
 10
12.1747388768
 20
8.8302952153
 30
0.0
 10
12.1663677118
 20
8.8342304723
 30
0.0
 10
12.1599876043
 20
8.8380153102
 30
0.0
 10
12.1553722706
 20
8.8411612519
 30
0.0
 10
12.1509532397
 20
8.8445913967
 30
0.0
 10
12.1453453892
 20
8.8495183971
 30
0.0
 10
12.1389053126
 20
8.8562936983
 30
0.0
 10
12.1333080309
 20
8.8637727266
 30
0.0
 10
12.1293827699
 20
8.8701023604
 30
0.0
 10
12.1267263023
 20
8.8750012687
 30
0.0
 10
12.1243658198
 20
8.8800347085
 30
0.0
 10
12.121630224
 20
8.8868858517
 30
0.0
 10
12.1189887945
 20
8.8956898501
 30
0.0
 10
12.1171259413
 20
8.9064927242
 30
0.0
 10
12.1167069667
 20
8.9155687925
 30
0.0
 10
12.1170763354
 20
8.922764121
 30
0.0
 10
12.1174970974
 20
8.9263278731
 30
0.0
 10
12.1177670401
 20
8.9280959391
 30
0.0
  0
SPLINE
  5
363
100
AcDbEntity
  8
0
100
AcDbSpline
 62
7
  6
CONTINUOUS
 70
0
 71
3
 72
39
 73
35
 74
0
 42
0.0000001
 43
0.0000001
 44
0.0000000001
 40
0.0
 40
0.0
 40
0.0
 40
0.0
 40
0.0311445425
 40
0.0624433652
 40
0.093888256
 40
0.1254710218
 40
0.1571788766
 40
0.1889972611
 40
0.2209091725
 40
0.2528958428
 40
0.2849370253
 40
0.3170114183
 40
0.349097079
 40
0.3811718482
 40
0.4132137779
 40
0.4452015551
 40
0.4771149166
 40
0.5089350506
 40
0.5406449764
 40
0.5722298984
 40
0.6036775288
 40
0.634978368
 40
0.6661259371
 40
0.6971169555
 40
0.7279514574
 40
0.758632841
 40
0.7891678449
 40
0.819566448
 40
0.8498416915
 40
0.8800094239
 40
0.9100879689
 40
0.9400977235
 40
0.9700606966
 40
1.0
 40
1.0
 40
1.0
 40
1.0
 10
11.7772487106
 20
7.1719128375
 30
0.0
 10
11.7745952133
 20
7.1720968582
 30
0.0
 10
11.7692865725
 20
7.1726600591
 30
0.0
 10
11.7613879975
 20
7.1740786827
 30
0.0
 10
11.7535739923
 20
7.1760658605
 30
0.0
 10
11.7458868362
 20
7.1786107334
 30
0.0
 10
11.7383673042
 20
7.1816997811
 30
0.0
 10
11.731055528
 20
7.1853164177
 30
0.0
 10
11.7239904544
 20
7.1894413443
 30
0.0
 10
11.7172097311
 20
7.194052528
 30
0.0
 10
11.7107494884
 20
7.1991253698
 30
0.0
 10
11.7046441506
 20
7.2046328133
 30
0.0
 10
11.6989262509
 20
7.2105454924
 30
0.0
 10
11.6936262648
 20
7.2168318907
 30
0.0
 10
11.688772448
 20
7.2234585067
 30
0.0
 10
11.6843906882
 20
7.2303900306
 30
0.0
 10
11.680504368
 20
7.2375895301
 30
0.0
 10
11.6771342414
 20
7.2450186443
 30
0.0
 10
11.6742983232
 20
7.2526377855
 30
0.0
 10
11.6720117944
 20
7.2604063474
 30
0.0
 10
11.6702869124
 20
7.2682829165
 30
0.0
 10
11.669132949
 20
7.2762254928
 30
0.0
 10
11.6685561413
 20
7.2841917109
 30
0.0
 10
11.6685596556
 20
7.2921390632
 30
0.0
 10
11.6691435669
 20
7.3000251235
 30
0.0
 10
11.6703048544
 20
7.3078077715
 30
0.0
 10
11.672037412
 20
7.3154454164
 30
0.0
 10
11.6743320771
 20
7.32289722
 30
0.0
 10
11.6771766692
 20
7.3301233128
 30
0.0
 10
11.6805560569
 20
7.3370850274
 30
0.0
 10
11.6844521925
 20
7.3437450567
 30
0.0
 10
11.6888443934
 20
7.3500678478
 30
0.0
 10
11.693708749
 20
7.3560190933
 30
0.0
 10
11.6972506259
 20
7.3597192164
 30
0.0
 10
11.6990897232
 20
7.3614956325
 30
0.0
  0
SPLINE
  5
364
100
AcDbEntity
  8
0
100
AcDbSpline
 62
7
  6
CONTINUOUS
 70
0
 71
3
 72
21
 73
17
 74
0
 42
0.0000001
 43
0.0000001
 44
0.0000000001
 40
0.0
 40
0.0
 40
0.0
 40
0.0
 40
0.1273176984
 40
0.2537999461
 40
0.3167619614
 40
0.3795355204
 40
0.4421314992
 40
0.5045621453
 40
0.5668413456
 40
0.6289845231
 40
0.6910084433
 40
0.7529310869
 40
0.8147714401
 40
0.8765493236
 40
0.9382852134
 40
1.0
 40
1.0
 40
1.0
 40
1.0
 10
8.9641858443
 20
6.5642969138
 30
0.0
 10
8.9641858443
 20
6.5710417219
 30
0.0
 10
8.9648296813
 20
6.5844957613
 30
0.0
 10
8.9672612726
 20
6.6011278583
 30
0.0
 10
8.9701675397
 20
6.614174282
 30
0.0
 10
8.9728179036
 20
6.6237973305
 30
0.0
 10
8.9759358983
 20
6.6332493822
 30
0.0
 10
8.979514335
 20
6.6425089167
 30
0.0
 10
8.9835449637
 20
6.6515545181
 30
0.0
 10
8.9880185716
 20
6.6603653097
 30
0.0
 10
8.9929248097
 20
6.6689209812
 30
0.0
 10
8.9982523633
 20
6.6772018151
 30
0.0
 10
9.0039889977
 20
6.6851886497
 30
0.0
 10
9.010121519
 20
6.6928631422
 30
0.0
 10
9.0166355124
 20
6.7002073805
 30
0.0
 10
9.0212234052
 20
6.7048728731
 30
0.0
 10
9.0235749539
 20
6.7071442808
 30
0.0
  0
SPLINE
  5
365
100
AcDbEntity
  8
0
100
AcDbSpline
 62
7
  6
CONTINUOUS
 70
0
 71
3
 72
39
 73
35
 74
0
 42
0.0000001
 43
0.0000001
 44
0.0000000001
 40
0.0
 40
0.0
 40
0.0
 40
0.0
 40
0.0314026163
 40
0.0630094802
 40
0.0948071156
 40
0.1267734443
 40
0.1588809719
 40
0.1910970226
 40
0.2233851133
 40
0.2557062446
 40
0.2880202668
 40
0.3202872758
 40
0.3524690062
 40
0.3845301827
 40
0.4164397934
 40
0.4481722512
 40
0.4797084083
 40
0.5110363787
 40
0.5421521198
 40
0.5730597435
 40
0.6037715204
 40
0.6343075558
 40
0.6646951112
 40
0.69496759
 40
0.7251632189
 40
0.7553234785
 40
0.7854913552
 40
0.8157095102
 40
0.8460184684
 40
0.8764549241
 40
0.9070502294
 40
0.9378293436
 40
0.9688091107
 40
1.0
 40
1.0
 40
1.0
 40
1.0
 10
9.7185739656
 20
7.2856863573
 30
0.0
 10
9.7142622295
 20
7.2859853772
 30
0.0
 10
9.7056344552
 20
7.2870102728
 30
0.0
 10
9.6928666642
 20
7.2897938976
 30
0.0
 10
9.6803463552
 20
7.2938019821
 30
0.0
 10
9.6681953186
 20
7.2989956879
 30
0.0
 10
9.6565297661
 20
7.3053248271
 30
0.0
 10
9.6454617283
 20
7.3127284319
 30
0.0
 10
9.6350973361
 20
7.3211352605
 30
0.0
 10
9.625536033
 20
7.3304645357
 30
0.0
 10
9.6168695855
 20
7.3406266922
 30
0.0
 10
9.6091812434
 20
7.3515242243
 30
0.0
 10
9.6025449007
 20
7.3630525692
 30
0.0
 10
9.5970244294
 20
7.3751011235
 30
0.0
 10
9.5926730812
 20
7.3875542818
 30
0.0
 10
9.5895329808
 20
7.4002925159
 30
0.0
 10
9.5876346937
 20
7.4131934845
 30
0.0
 10
9.5869968833
 20
7.4261331823
 30
0.0
 10
9.5876261613
 20
7.4389871162
 30
0.0
 10
9.589516977
 20
7.451631475
 30
0.0
 10
9.5926516376
 20
7.4639443034
 30
0.0
 10
9.5970003707
 20
7.4758066927
 30
0.0
 10
9.602521594
 20
7.4871039514
 30
0.0
 10
9.6091622945
 20
7.4977267376
 30
0.0
 10
9.6168585076
 20
7.5075721635
 30
0.0
 10
9.6255359167
 20
7.5165448509
 30
0.0
 10
9.6351105549
 20
7.5245579519
 30
0.0
 10
9.6454897093
 20
7.5315339975
 30
0.0
 10
9.6565728489
 20
7.5374056794
 30
0.0
 10
9.668252704
 20
7.5421164836
 30
0.0
 10
9.6804161725
 20
7.5456213099
 30
0.0
 10
9.6929460756
 20
7.5478867068
 30
0.0
 10
9.7057199678
 20
7.5488915568
 30
0.0
 10
9.7142913007
 20
7.5487152014
 30
0.0
 10
9.7185739656
 20
7.5484181976
 30
0.0
  0
SPLINE
  5
366
100
AcDbEntity
  8
0
100
AcDbSpline
 62
7
  6
CONTINUOUS
 70
0
 71
3
 72
21
 73
17
 74
0
 42
0.0000001
 43
0.0000001
 44
0.0000000001
 40
0.0
 40
0.0
 40
0.0
 40
0.0
 40
0.1273176984
 40
0.2537999461
 40
0.3167619614
 40
0.3795355204
 40
0.4421314992
 40
0.5045621453
 40
0.5668413456
 40
0.6289845231
 40
0.6910084433
 40
0.7529310869
 40
0.8147714401
 40
0.8765493236
 40
0.9382852134
 40
1.0
 40
1.0
 40
1.0
 40
1.0
 10
9.6277769325
 20
7.9362556196
 30
0.0
 10
9.6277769325
 20
7.9430004277
 30
0.0
 10
9.6284207695
 20
7.9564544671
 30
0.0
 10
9.6308523608
 20
7.9730865641
 30
0.0
 10
9.6337586279
 20
7.9861329878
 30
0.0
 10
9.6364089918
 20
7.9957560363
 30
0.0
 10
9.6395269865
 20
8.005208088
 30
0.0
 10
9.6431054232
 20
8.0144676225
 30
0.0
 10
9.6471360519
 20
8.0235132239
 30
0.0
 10
9.6516096598
 20
8.0323240155
 30
0.0
 10
9.6565158979
 20
8.040879687
 30
0.0
 10
9.6618434515
 20
8.0491605209
 30
0.0
 10
9.6675800859
 20
8.0571473555
 30
0.0
 10
9.6737126072
 20
8.064821848
 30
0.0
 10
9.6802266006
 20
8.0721660863
 30
0.0
 10
9.6848144934
 20
8.0768315789
 30
0.0
 10
9.6871660421
 20
8.0791029867
 30
0.0
  0
SPLINE
  5
367
100
AcDbEntity
  8
0
100
AcDbSpline
 62
7
  6
CONTINUOUS
 70
0
 71
3
 72
57
 73
53
 74
0
 42
0.0000001
 43
0.0000001
 44
0.0000000001
 40
0.0
 40
0.0
 40
0.0
 40
0.0
 40
0.0452111151
 40
0.0910028922
 40
0.1371914731
 40
0.183589865
 40
0.2300105241
 40
0.2762656379
 40
0.3221682775
 40
0.3675333237
 40
0.4121784488
 40
0.4559250957
 40
0.4985994741
 40
0.5400335829
 40
0.5800662712
 40
0.6185443608
 40
0.637155417
 40
0.6553246567
 40
0.6730357378
 40
0.6902730659
 40
0.7070219026
 40
0.7232683064
 40
0.7389993698
 40
0.7542031206
 40
0.7688687611
 40
0.7829866902
 40
0.7965486293
 40
0.8095478594
 40
0.8219792442
 40
0.8338396478
 40
0.8451280137
 40
0.8558458432
 40
0.8659975471
 40
0.8755909364
 40
0.8846379793
 40
0.8931554241
 40
0.9011659533
 40
0.9086991512
 40
0.9157928765
 40
0.9224945133
 40
0.9288620062
 40
0.9349644242
 40
0.9408812842
 40
0.946700577
 40
0.9525151341
 40
0.9584180353
 40
0.9644979297
 40
0.9708353444
 40
0.9775004039
 40
0.9845522178
 40
0.9920391601
 40
1.0
 40
1.0
 40
1.0
 40
1.0
 10
13.1590947152
 20
8.6154690751
 30
0.0
 10
13.1590947152
 20
8.6040624424
 30
0.0
 10
13.1588912846
 20
8.5811022158
 30
0.0
 10
13.1579942582
 20
8.5464992802
 30
0.0
 10
13.1565068232
 20
8.5116168003
 30
0.0
 10
13.1544353262
 20
8.4766052363
 30
0.0
 10
13.1517887023
 20
8.4416156055
 30
0.0
 10
13.1485783656
 20
8.4067987777
 30
0.0
 10
13.1448181941
 20
8.3723048896
 30
0.0
 10
13.1405244597
 20
8.338282669
 30
0.0
 10
13.1357157648
 20
8.3048787909
 30
0.0
 10
13.1304129589
 20
8.2722372323
 30
0.0
 10
13.1246390486
 20
8.240498662
 30
0.0
 10
13.1184191144
 20
8.2097997465
 30
0.0
 10
13.1117801569
 20
8.1802728134
 30
0.0
 10
13.1058588464
 20
8.1564927936
 30
0.0
 10
13.1009234995
 20
8.1381574854
 30
0.0
 10
13.0971766445
 20
8.1249294594
 30
0.0
 10
13.0933474422
 20
8.1120862786
 30
0.0
 10
13.0894399917
 20
8.099641764
 30
0.0
 10
13.085458562
 20
8.0876093125
 30
0.0
 10
13.0814074093
 20
8.0760018776
 30
0.0
 10
13.0772909673
 20
8.0648319334
 30
0.0
 10
13.0731136427
 20
8.0541114891
 30
0.0
 10
13.0688799744
 20
8.0438520473
 30
0.0
 10
13.0645945332
 20
8.0340646055
 30
0.0
 10
13.0602619124
 20
8.0247596462
 30
0.0
 10
13.0558868237
 20
8.0159470925
 30
0.0
 10
13.0514738981
 20
8.0076363514
 30
0.0
 10
13.0470279116
 20
7.9998362234
 30
0.0
 10
13.0425535368
 20
7.9925549708
 30
0.0
 10
13.0380555001
 20
7.9858002448
 30
0.0
 10
13.0335384825
 20
7.9795790998
 30
0.0
 10
13.0290070411
 20
7.9738980317
 30
0.0
 10
13.0244657383
 20
7.968762879
 30
0.0
 10
13.0199188423
 20
7.9641790271
 30
0.0
 10
13.0153705733
 20
7.9601512587
 30
0.0
 10
13.0108248172
 20
7.9566840633
 30
0.0
 10
13.0062853272
 20
7.9537816633
 30
0.0
 10
13.001755803
 20
7.9514482193
 30
0.0
 10
12.9972401407
 20
7.9496881412
 30
0.0
 10
12.9927430599
 20
7.9485057263
 30
0.0
 10
12.9882704493
 20
7.9479051825
 30
0.0
 10
12.983829699
 20
7.9478892938
 30
0.0
 10
12.9794291195
 20
7.9484589201
 30
0.0
 10
12.9750769327
 20
7.9496123593
 30
0.0
 10
12.9707801632
 20
7.9513458284
 30
0.0
 10
12.9665443184
 20
7.9536546233
 30
0.0
 10
12.9623734688
 20
7.9565335927
 30
0.0
 10
12.9582709861
 20
7.959978047
 30
0.0
 10
12.9542400788
 20
7.9639829923
 30
0.0
 10
12.9516838636
 20
7.9669299171
 30
0.0
 10
12.9504165703
 20
7.9684881299
 30
0.0
  0
SPLINE
  5
368
100
AcDbEntity
  8
0
100
AcDbSpline
 62
7
  6
CONTINUOUS
 70
0
 71
3
 72
55
 73
51
 74
0
 42
0.0000001
 43
0.0000001
 44
0.0000000001
 40
0.0
 40
0.0
 40
0.0
 40
0.0
 40
0.0528986749
 40
0.1050253132
 40
0.156261594
 40
0.2064949565
 40
0.2556141762
 40
0.3035122875
 40
0.350086054
 40
0.3952367262
 40
0.4388704634
 40
0.4808988885
 40
0.521239686
 40
0.5598172957
 40
0.5965637329
 40
0.6314195812
 40
0.6481232109
 40
0.664336536
 40
0.6800550711
 40
0.6952753277
 40
0.7099945976
 40
0.7242112623
 40
0.7379247959
 40
0.7511358592
 40
0.763846603
 40
0.7760605783
 40
0.7877832503
 40
0.7990219199
 40
0.8097862428
 40
0.8200883953
 40
0.8299434517
 40
0.8393698778
 40
0.8483897664
 40
0.857029529
 40
0.873286487
 40
0.8809916147
 40
0.8884708877
 40
0.8957754969
 40
0.9029607674
 40
0.9100851369
 40
0.91720867
 40
0.924391459
 40
0.9316919951
 40
0.9391657293
 40
0.9468639446
 40
0.9631035761
 40
0.9717332287
 40
0.9807422239
 40
0.99015706
 40
1.0
 40
1.0
 40
1.0
 40
1.0
 10
11.5894651545
 20
10.867712888
 30
0.0
 10
11.5979161843
 20
10.8671268071
 30
0.0
 10
11.6146872732
 20
10.8658496311
 30
0.0
 10
11.6396109317
 20
10.8636005355
 30
0.0
 10
11.6640750961
 20
10.8610362051
 30
0.0
 10
11.6880199494
 20
10.8581629967
 30
0.0
 10
11.7113873303
 20
10.8549879107
 30
0.0
 10
11.7341202753
 20
10.8515187631
 30
0.0
 10
11.7561634713
 20
10.8477640583
 30
0.0
 10
11.7774632778
 20
10.8437330173
 30
0.0
 10
11.7979679007
 20
10.8394355401
 30
0.0
 10
11.8176275234
 20
10.8348821857
 30
0.0
 10
11.836394414
 20
10.83008414
 30
0.0
 10
11.854223141
 20
10.8250531911
 30
0.0
 10
11.8710703957
 20
10.8198016744
 30
0.0
 10
11.8844414081
 20
10.8151892838
 30
0.0
 10
11.8946082589
 20
10.8113893028
 30
0.0
 10
11.9018546039
 20
10.8085327435
 30
0.0
 10
11.9088262955
 20
10.8056308112
 30
0.0
 10
11.9155191348
 20
10.8026853027
 30
0.0
 10
11.921929061
 20
10.7996979689
 30
0.0
 10
11.9280522071
 20
10.7966706361
 30
0.0
 10
11.9338848865
 20
10.7936051438
 30
0.0
 10
11.9394235726
 20
10.7905032956
 30
0.0
 10
11.9446649662
 20
10.7873670126
 30
0.0
 10
11.949605892
 20
10.7841980828
 30
0.0
 10
11.954243433
 20
10.7809984528
 30
0.0
 10
11.95857479
 20
10.7777699304
 30
0.0
 10
11.9625973983
 20
10.7745144085
 30
0.0
 10
11.966308849
 20
10.7712337462
 30
0.0
 10
11.9697069049
 20
10.7679296961
 30
0.0
 10
11.9727894563
 20
10.764604278
 30
0.0
 10
11.9755548043
 20
10.7612586642
 30
0.0
 10
11.9787508199
 20
10.7568644374
 30
0.0
 10
11.9813999669
 20
10.7523395426
 30
0.0
 10
11.983406398
 20
10.7477161978
 30
0.0
 10
11.9845591472
 20
10.7442993396
 30
0.0
 10
11.9853849305
 20
10.7408744935
 30
0.0
 10
11.9858826562
 20
10.7374439594
 30
0.0
 10
11.9860517317
 20
10.7340105394
 30
0.0
 10
11.9858917734
 20
10.7305770771
 30
0.0
 10
11.9854031193
 20
10.7271464302
 30
0.0
 10
11.9845864406
 20
10.7237213838
 30
0.0
 10
11.9834426933
 20
10.7203042804
 30
0.0
 10
11.981448637
 20
10.7156807662
 30
0.0
 10
11.9788113806
 20
10.7111552082
 30
0.0
 10
11.9756268535
 20
10.7067602231
 30
0.0
 10
11.9728702947
 20
10.7034140833
 30
0.0
 10
11.969796588
 20
10.7000881348
 30
0.0
 10
11.9675873681
 20
10.6979341434
 30
0.0
 10
11.9664334536
 20
10.6968603096
 30
0.0
  0
SPLINE
  5
369
100
AcDbEntity
  8
0
100
AcDbSpline
 62
7
  6
CONTINUOUS
 70
0
 71
3
 72
39
 73
35
 74
0
 42
0.0000001
 43
0.0000001
 44
0.0000000001
 40
0.0
 40
0.0
 40
0.0
 40
0.0
 40
0.0314026163
 40
0.0630094802
 40
0.0948071156
 40
0.1267734443
 40
0.1588809719
 40
0.1910970226
 40
0.2233851133
 40
0.2557062446
 40
0.2880202668
 40
0.3202872758
 40
0.3524690062
 40
0.3845301827
 40
0.4164397934
 40
0.4481722512
 40
0.4797084083
 40
0.5110363787
 40
0.5421521198
 40
0.5730597435
 40
0.6037715204
 40
0.6343075558
 40
0.6646951112
 40
0.69496759
 40
0.7251632189
 40
0.7553234785
 40
0.7854913552
 40
0.8157095102
 40
0.8460184684
 40
0.8764549241
 40
0.9070502294
 40
0.9378293436
 40
0.9688091107
 40
1.0
 40
1.0
 40
1.0
 40
1.0
 10
11.771166468
 20
7.4060704241
 30
0.0
 10
11.7754782041
 20
7.4057714042
 30
0.0
 10
11.7841059784
 20
7.4047465085
 30
0.0
 10
11.7968737694
 20
7.4019628837
 30
0.0
 10
11.8093940784
 20
7.3979547992
 30
0.0
 10
11.821545115
 20
7.3927610935
 30
0.0
 10
11.8332106675
 20
7.3864319542
 30
0.0
 10
11.8442787053
 20
7.3790283494
 30
0.0
 10
11.8546430975
 20
7.3706215208
 30
0.0
 10
11.8642044006
 20
7.3612922457
 30
0.0
 10
11.8728708481
 20
7.3511300891
 30
0.0
 10
11.8805591902
 20
7.340232557
 30
0.0
 10
11.8871955329
 20
7.3287042121
 30
0.0
 10
11.8927160042
 20
7.3166556578
 30
0.0
 10
11.8970673524
 20
7.3042024996
 30
0.0
 10
11.9002074528
 20
7.2914642655
 30
0.0
 10
11.9021057399
 20
7.2785632968
 30
0.0
 10
11.9027435503
 20
7.2656235991
 30
0.0
 10
11.9021142723
 20
7.2527696652
 30
0.0
 10
11.9002234566
 20
7.2401253064
 30
0.0
 10
11.897088796
 20
7.227812478
 30
0.0
 10
11.8927400629
 20
7.2159500886
 30
0.0
 10
11.8872188397
 20
7.20465283
 30
0.0
 10
11.8805781391
 20
7.1940300438
 30
0.0
 10
11.872881926
 20
7.1841846179
 30
0.0
 10
11.8642045169
 20
7.1752119305
 30
0.0
 10
11.8546298787
 20
7.1671988294
 30
0.0
 10
11.8442507243
 20
7.1602227839
 30
0.0
 10
11.8331675847
 20
7.154351102
 30
0.0
 10
11.8214877297
 20
7.1496402978
 30
0.0
 10
11.8093242611
 20
7.1461354715
 30
0.0
 10
11.796794358
 20
7.1438700746
 30
0.0
 10
11.7840204658
 20
7.1428652245
 30
0.0
 10
11.7754491329
 20
7.1430415799
 30
0.0
 10
11.771166468
 20
7.1433385838
 30
0.0
  0
SPLINE
  5
36A
100
AcDbEntity
  8
0
100
AcDbSpline
 62
7
  6
CONTINUOUS
 70
0
 71
3
 72
47
 73
43
 74
0
 42
0.0000001
 43
0.0000001
 44
0.0000000001
 40
0.0
 40
0.0
 40
0.0
 40
0.0
 40
0.0315534235
 40
0.0629016276
 40
0.0940485352
 40
0.1250045356
 40
0.1557874792
 40
0.1711253984
 40
0.1864291041
 40
0.2017022121
 40
0.2169483662
 40
0.2321714119
 40
0.247375235
 40
0.2625636836
 40
0.2777407137
 40
0.2929100741
 40
0.3080755908
 40
0.338402671
 40
0.3687566435
 40
0.3839548124
 40
0.399168821
 40
0.4296492835
 40
0.4602237533
 40
0.4909089047
 40
0.5217185731
 40
0.55266383
 40
0.5837530629
 40
0.6149920435
 40
0.6463839688
 40
0.6779294698
 40
0.7096265801
 40
0.7255331178
 40
0.7414756026
 40
0.7734592657
 40
0.8055722065
 40
0.8216757474
 40
0.8378063616
 40
0.8701346916
 40
0.9025427209
 40
0.9350074626
 40
0.967502834
 40
1.0
 40
1.0
 40
1.0
 40
1.0
 10
11.8651666697
 20
7.8074589737
 30
0.0
 10
11.8658472417
 20
7.8018689618
 30
0.0
 10
11.8666873675
 20
7.7906550558
 30
0.0
 10
11.8663629976
 20
7.773849754
 30
0.0
 10
11.864464403
 20
7.7572545014
 30
0.0
 10
11.8610254365
 20
7.7410132896
 30
0.0
 10
11.856912818
 20
7.7278634704
 30
0.0
 10
11.8529123651
 20
7.7176536447
 30
0.0
 10
11.8495698644
 20
7.7101686374
 30
0.0
 10
11.8458923518
 20
7.7028610035
 30
0.0
 10
11.8418903644
 20
7.6957424101
 30
0.0
 10
11.8375751416
 20
7.6888238676
 30
0.0
 10
11.8329581596
 20
7.6821155041
 30
0.0
 10
11.828051115
 20
7.6756266614
 30
0.0
 10
11.822866071
 20
7.6693658355
 30
0.0
 10
11.8174148501
 20
7.6633407638
 30
0.0
 10
11.8098092094
 20
7.6556321529
 30
0.0
 10
11.799691312
 20
7.6466140514
 30
0.0
 10
11.7888524278
 20
7.6384688373
 30
0.0
 10
11.7797989017
 20
7.6324939054
 30
0.0
 10
11.7704928858
 20
7.6268766163
 30
0.0
 10
11.7584269151
 20
7.6205437132
 30
0.0
 10
11.7433675108
 20
7.6140787267
 30
0.0
 10
11.7278043229
 20
7.6087593633
 30
0.0
 10
11.7118241463
 20
7.6045997582
 30
0.0
 10
11.6955113642
 20
7.6016104819
 30
0.0
 10
11.6789493608
 20
7.5997996585
 30
0.0
 10
11.6622209262
 20
7.5991731439
 30
0.0
 10
11.6454087477
 20
7.5997347882
 30
0.0
 10
11.628596872
 20
7.6014862302
 30
0.0
 10
11.6146722061
 20
7.6039344454
 30
0.0
 10
11.603619434
 20
7.6064838545
 30
0.0
 10
11.592613761
 20
7.6094338831
 30
0.0
 10
11.5790195594
 20
7.6138616308
 30
0.0
 10
11.5657473265
 20
7.6192548268
 30
0.0
 10
11.5553542881
 20
7.6241452021
 30
0.0
 10
11.5451106807
 20
7.6294256265
 30
0.0
 10
11.5326509219
 20
7.63673654
 30
0.0
 10
11.5183665653
 20
7.6466073528
 30
0.0
 10
11.5048428092
 20
7.6575467536
 30
0.0
 10
11.4921904912
 20
7.6695057493
 30
0.0
 10
11.4844055085
 20
7.6781239636
 30
0.0
 10
11.4806949462
 20
7.6825813666
 30
0.0
  0
SPLINE
  5
36B
100
AcDbEntity
  8
0
100
AcDbSpline
 62
7
  6
CONTINUOUS
 70
0
 71
3
 72
11
 73
7
 74
0
 42
0.0000001
 43
0.0000001
 44
0.0000000001
 40
0.0
 40
0.0
 40
0.0
 40
0.0
 40
0.2496564127
 40
0.4995375144
 40
0.7496490786
 40
1.0
 40
1.0
 40
1.0
 40
1.0
 10
10.4766444006
 20
8.3516777995
 30
0.0
 10
10.4790234194
 20
8.359087234
 30
0.0
 10
10.4839653584
 20
8.3738551959
 30
0.0
 10
10.4919525335
 20
8.3958178087
 30
0.0
 10
10.500549481
 20
8.4175725728
 30
0.0
 10
10.5067092489
 20
8.4319079274
 30
0.0
 10
10.5099032869
 20
8.4390279678
 30
0.0
  0
SPLINE
  5
36C
100
AcDbEntity
  8
0
100
AcDbSpline
 62
7
  6
CONTINUOUS
 70
0
 71
3
 72
21
 73
17
 74
0
 42
0.0000001
 43
0.0000001
 44
0.0000000001
 40
0.0
 40
0.0
 40
0.0
 40
0.0
 40
0.0614238882
 40
0.1230812619
 40
0.1849595269
 40
0.2470445984
 40
0.3093192695
 40
0.3717639573
 40
0.434356896
 40
0.4970744278
 40
0.6227334299
 40
0.7485738815
 40
0.811516122
 40
0.8744187272
 40
0.9372569898
 40
1.0
 40
1.0
 40
1.0
 40
1.0
 10
10.3699391011
 20
8.5185528013
 30
0.0
 10
10.3704323794
 20
8.5143914445
 30
0.0
 10
10.3716630047
 20
8.5060796298
 30
0.0
 10
10.3742259682
 20
8.4937175739
 30
0.0
 10
10.3775009919
 20
8.4814777334
 30
0.0
 10
10.3814765678
 20
8.4694030345
 30
0.0
 10
10.3861389815
 20
8.45753504
 30
0.0
 10
10.3914719796
 20
8.4459149154
 30
0.0
 10
10.397457366
 20
8.4345824504
 30
0.0
 10
10.4062833964
 20
8.41990231
 30
0.0
 10
10.4188381069
 20
8.402469741
 30
0.0
 10
10.4332392944
 20
8.386508325
 30
0.0
 10
10.4457559175
 20
8.3747435478
 30
0.0
 10
10.455610482
 20
8.3664511625
 30
0.0
 10
10.4658948259
 20
8.3587220484
 30
0.0
 10
10.4730214189
 20
8.3539573944
 30
0.0
 10
10.4766444006
 20
8.3516777995
 30
0.0
  0
SPLINE
  5
36D
100
AcDbEntity
  8
0
100
AcDbSpline
 62
7
  6
CONTINUOUS
 70
0
 71
3
 72
21
 73
17
 74
0
 42
0.0000001
 43
0.0000001
 44
0.0000000001
 40
0.0
 40
0.0
 40
0.0
 40
0.0
 40
0.0503433409
 40
0.1015136773
 40
0.1537393957
 40
0.2072391956
 40
0.2622172538
 40
0.3188531539
 40
0.3773041037
 40
0.437701479
 40
0.5001537297
 40
0.5647487524
 40
0.6315531397
 40
0.7006188271
 40
0.8456576248
 40
1.0
 40
1.0
 40
1.0
 40
1.0
 10
10.4336181568
 20
8.339019346
 30
0.0
 10
10.4341713928
 20
8.339553731
 30
0.0
 10
10.4353286256
 20
8.3405889769
 30
0.0
 10
10.4371912783
 20
8.3420232382
 30
0.0
 10
10.4391908481
 20
8.3433489011
 30
0.0
 10
10.441325186
 20
8.3445661653
 30
0.0
 10
10.4435920902
 20
8.3456766099
 30
0.0
 10
10.4459897043
 20
8.3466816292
 30
0.0
 10
10.4485157109
 20
8.3475840103
 30
0.0
 10
10.4511679962
 20
8.3483865833
 30
0.0
 10
10.453944426
 20
8.3490925239
 30
0.0
 10
10.4568427391
 20
8.3497059587
 30
0.0
 10
10.4598608993
 20
8.3502308019
 30
0.0
 10
10.464111693
 20
8.3508280827
 30
0.0
 10
10.46971812
 20
8.3513657323
 30
0.0
 10
10.4742876207
 20
8.3515975036
 30
0.0
 10
10.4766444006
 20
8.3516777995
 30
0.0
  0
SPLINE
  5
36E
100
AcDbEntity
  8
0
100
AcDbSpline
 62
7
  6
CONTINUOUS
 70
0
 71
3
 72
39
 73
35
 74
0
 42
0.0000001
 43
0.0000001
 44
0.0000000001
 40
0.0
 40
0.0
 40
0.0
 40
0.0
 40
0.031002295
 40
0.0621464502
 40
0.0934266169
 40
0.1248355279
 40
0.1563630531
 40
0.1879973029
 40
0.2197245285
 40
0.2515295336
 40
0.2833959288
 40
0.3153064515
 40
0.3472432698
 40
0.379188288
 40
0.4111234427
 40
0.4430309871
 40
0.4748937608
 40
0.5066954427
 40
0.5384207866
 40
0.5700558361
 40
0.6015881204
 40
0.6330068295
 40
0.6643029699
 40
0.6954694977
 40
0.7265014315
 40
0.757395941
 40
0.788152412
 40
0.8187724842
 40
0.8492600612
 40
0.8796212891
 40
0.9098645012
 40
0.9400001267
 40
0.9700405618
 40
1.0
 40
1.0
 40
1.0
 40
1.0
 10
10.7443872274
 20
8.6408529253
 30
0.0
 10
10.7396821952
 20
8.6411792204
 30
0.0
 10
10.7302696852
 20
8.6421517551
 30
0.0
 10
10.7162510315
 20
8.6445526128
 30
0.0
 10
10.7023606407
 20
8.6478875488
 30
0.0
 10
10.6886624661
 20
8.6521401952
 30
0.0
 10
10.6752181293
 20
8.6572899606
 30
0.0
 10
10.6620880443
 20
8.6633118736
 30
0.0
 10
10.6493306637
 20
8.6701769642
 30
0.0
 10
10.6370022959
 20
8.6778524187
 30
0.0
 10
10.6251568088
 20
8.6863018732
 30
0.0
 10
10.6138454021
 20
8.6954856715
 30
0.0
 10
10.6031164075
 20
8.7053611532
 30
0.0
 10
10.5930151217
 20
8.7158829374
 30
0.0
 10
10.5835836733
 20
8.7270032084
 30
0.0
 10
10.574860918
 20
8.7386719944
 30
0.0
 10
10.5668823607
 20
8.7508374379
 30
0.0
 10
10.5596801014
 20
8.7634460539
 30
0.0
 10
10.5532827973
 20
8.7764429733
 30
0.0
 10
10.5477156466
 20
8.7897721747
 30
0.0
 10
10.5430003808
 20
8.8033766986
 30
0.0
 10
10.5391552664
 20
8.8171988482
 30
0.0
 10
10.5361951112
 20
8.8311803756
 30
0.0
 10
10.5341312729
 20
8.8452626574
 30
0.0
 10
10.5329716674
 20
8.8593868595
 30
0.0
 10
10.5327207749
 20
8.8734940956
 30
0.0
 10
10.5333796422
 20
8.8875255805
 30
0.0
 10
10.5349458817
 20
8.9014227833
 30
0.0
 10
10.5374136612
 20
8.915127575
 30
0.0
 10
10.5407737048
 20
8.9285824092
 30
0.0
 10
10.5450132269
 20
8.9417304012
 30
0.0
 10
10.5501161181
 20
8.9545158226
 30
0.0
 10
10.5560621927
 20
8.9668830935
 30
0.0
 10
10.5605793174
 20
8.9748246377
 30
0.0
 10
10.5629691117
 20
8.9787055361
 30
0.0
  0
SPLINE
  5
36F
100
AcDbEntity
  8
0
100
AcDbSpline
 62
7
  6
CONTINUOUS
 70
0
 71
3
 72
39
 73
35
 74
0
 42
0.0000001
 43
0.0000001
 44
0.0000000001
 40
0.0
 40
0.0
 40
0.0
 40
0.0
 40
0.0314026163
 40
0.0630094802
 40
0.0948071156
 40
0.1267734443
 40
0.1588809719
 40
0.1910970226
 40
0.2233851133
 40
0.2557062446
 40
0.2880202668
 40
0.3202872758
 40
0.3524690062
 40
0.3845301827
 40
0.4164397934
 40
0.4481722512
 40
0.4797084083
 40
0.5110363787
 40
0.5421521198
 40
0.5730597435
 40
0.6037715204
 40
0.6343075558
 40
0.6646951112
 40
0.69496759
 40
0.7251632189
 40
0.7553234785
 40
0.7854913552
 40
0.8157095102
 40
0.8460184684
 40
0.8764549241
 40
0.9070502294
 40
0.9378293436
 40
0.9688091107
 40
1.0
 40
1.0
 40
1.0
 40
1.0
 10
9.7185739656
 20
9.2996417894
 30
0.0
 10
9.7228857016
 20
9.2993427695
 30
0.0
 10
9.731513476
 20
9.2983178739
 30
0.0
 10
9.7442812669
 20
9.2955342491
 30
0.0
 10
9.7568015759
 20
9.2915261646
 30
0.0
 10
9.7689526126
 20
9.2863324588
 30
0.0
 10
9.7806181651
 20
9.2800033196
 30
0.0
 10
9.7916862028
 20
9.2725997148
 30
0.0
 10
9.802050595
 20
9.2641928862
 30
0.0
 10
9.8116118981
 20
9.254863611
 30
0.0
 10
9.8202783456
 20
9.2447014545
 30
0.0
 10
9.8279666877
 20
9.2338039224
 30
0.0
 10
9.8346030304
 20
9.2222755775
 30
0.0
 10
9.8401235017
 20
9.2102270232
 30
0.0
 10
9.8444748499
 20
9.1977738649
 30
0.0
 10
9.8476149503
 20
9.1850356308
 30
0.0
 10
9.8495132375
 20
9.1721346622
 30
0.0
 10
9.8501510478
 20
9.1591949644
 30
0.0
 10
9.8495217698
 20
9.1463410305
 30
0.0
 10
9.8476309541
 20
9.1336966717
 30
0.0
 10
9.8444962935
 20
9.1213838433
 30
0.0
 10
9.8401475604
 20
9.109521454
 30
0.0
 10
9.8346263372
 20
9.0982241953
 30
0.0
 10
9.8279856366
 20
9.0876014091
 30
0.0
 10
9.8202894235
 20
9.0777559832
 30
0.0
 10
9.8116120144
 20
9.0687832958
 30
0.0
 10
9.8020373763
 20
9.0607701947
 30
0.0
 10
9.7916582218
 20
9.0537941492
 30
0.0
 10
9.7805750823
 20
9.0479224673
 30
0.0
 10
9.7688952272
 20
9.0432116631
 30
0.0
 10
9.7567317586
 20
9.0397068368
 30
0.0
 10
9.7442018555
 20
9.0374414399
 30
0.0
 10
9.7314279633
 20
9.0364365898
 30
0.0
 10
9.7228566305
 20
9.0366129453
 30
0.0
 10
9.7185739656
 20
9.0369099491
 30
0.0
  0
SPLINE
  5
370
100
AcDbEntity
  8
0
100
AcDbSpline
 62
7
  6
CONTINUOUS
 70
0
 71
3
 72
17
 73
13
 74
0
 42
0.0000001
 43
0.0000001
 44
0.0000000001
 40
0.0
 40
0.0
 40
0.0
 40
0.0
 40
0.0611905989
 40
0.1226656714
 40
0.1843990837
 40
0.2463824034
 40
0.370948792
 40
0.4962232805
 40
0.6219797958
 40
0.7479936042
 40
0.8740592427
 40
1.0
 40
1.0
 40
1.0
 40
1.0
 10
9.2954984719
 20
7.6270250927
 30
0.0
 10
9.2969115024
 20
7.6269270987
 30
0.0
 10
9.2997384452
 20
7.6266358659
 30
0.0
 10
9.3039492137
 20
7.6259194083
 30
0.0
 10
9.3081226975
 20
7.6249268207
 30
0.0
 10
9.3136209316
 20
7.6232426076
 30
0.0
 10
9.3203122498
 20
7.6204837123
 30
0.0
 10
9.3279163209
 20
7.6162297314
 30
0.0
 10
9.3350209072
 20
7.6111303066
 30
0.0
 10
9.3415570467
 20
7.6052953972
 30
0.0
 10
9.3474774092
 20
7.5988339335
 30
0.0
 10
9.3509981424
 20
7.5941705359
 30
0.0
 10
9.3526475922
 20
7.5917667961
 30
0.0
  0
SPLINE
  5
371
100
AcDbEntity
  8
0
100
AcDbSpline
 62
7
  6
CONTINUOUS
 70
0
 71
3
 72
21
 73
17
 74
0
 42
0.0000001
 43
0.0000001
 44
0.0000000001
 40
0.0
 40
0.0
 40
0.0
 40
0.0
 40
0.1273176984
 40
0.2537999461
 40
0.3167619614
 40
0.3795355204
 40
0.4421314992
 40
0.5045621453
 40
0.5668413456
 40
0.6289845231
 40
0.6910084433
 40
0.7529310869
 40
0.8147714401
 40
0.8765493236
 40
0.9382852134
 40
1.0
 40
1.0
 40
1.0
 40
1.0
 10
8.9641858443
 20
10.0648121266
 30
0.0
 10
8.9641858443
 20
10.0715569347
 30
0.0
 10
8.9648296813
 20
10.0850109741
 30
0.0
 10
8.9672612726
 20
10.1016430712
 30
0.0
 10
8.9701675397
 20
10.1146894948
 30
0.0
 10
8.9728179036
 20
10.1243125433
 30
0.0
 10
8.9759358983
 20
10.133764595
 30
0.0
 10
8.979514335
 20
10.1430241295
 30
0.0
 10
8.9835449637
 20
10.152069731
 30
0.0
 10
8.9880185716
 20
10.1608805225
 30
0.0
 10
8.9929248097
 20
10.169436194
 30
0.0
 10
8.9982523633
 20
10.177717028
 30
0.0
 10
9.0039889977
 20
10.1857038625
 30
0.0
 10
9.010121519
 20
10.193378355
 30
0.0
 10
9.0166355124
 20
10.2007225933
 30
0.0
 10
9.0212234052
 20
10.2053880859
 30
0.0
 10
9.0235749539
 20
10.2076594937
 30
0.0
  0
SPLINE
  5
372
100
AcDbEntity
  8
0
100
AcDbSpline
 62
7
  6
CONTINUOUS
 70
0
 71
3
 72
15
 73
11
 74
0
 42
0.0000001
 43
0.0000001
 44
0.0000000001
 40
0.0
 40
0.0
 40
0.0
 40
0.0
 40
0.1354247311
 40
0.2666407655
 40
0.3940450542
 40
0.518202271
 40
0.6398620924
 40
0.7599658352
 40
0.8796131507
 40
1.0
 40
1.0
 40
1.0
 40
1.0
 10
10.4240433429
 20
8.3141439586
 30
0.0
 10
10.4240439694
 20
8.3153807672
 30
0.0
 10
10.4241391002
 20
8.3178172295
 30
0.0
 10
10.4245823653
 20
8.3213930054
 30
0.0
 10
10.425326131
 20
8.3248141192
 30
0.0
 10
10.4263723617
 20
8.3280641694
 30
0.0
 10
10.4277222983
 20
8.3311281234
 30
0.0
 10
10.4293761702
 20
8.3339924456
 30
0.0
 10
10.431332643
 20
8.3366445908
 30
0.0
 10
10.4328273576
 20
8.3382554925
 30
0.0
 10
10.4336181568
 20
8.339019346
 30
0.0
  0
SPLINE
  5
373
100
AcDbEntity
  8
0
100
AcDbSpline
 62
7
  6
CONTINUOUS
 70
0
 71
3
 72
42
 73
38
 74
0
 42
0.0000001
 43
0.0000001
 44
0.0000000001
 40
0.0
 40
0.0
 40
0.0
 40
0.0
 40
0.0299419634
 40
0.0449235299
 40
0.0599142017
 40
0.0899287029
 40
0.1200139772
 40
0.1350926626
 40
0.1501967046
 40
0.1804840506
 40
0.2108978877
 40
0.2414513551
 40
0.2721543675
 40
0.3030134354
 40
0.3340315696
 40
0.3652082675
 40
0.3965395775
 40
0.4280182343
 40
0.4596338596
 40
0.4913732188
 40
0.5232205284
 40
0.5551578047
 40
0.5871652463
 40
0.6192216448
 40
0.6513048151
 40
0.6833920402
 40
0.7154605222
 40
0.747487836
 40
0.7794523759
 40
0.8113337934
 40
0.8431134117
 40
0.8747746318
 40
0.9063032512
 40
0.9376879208
 40
0.9533258
 40
0.9689252634
 40
1.0
 40
1.0
 40
1.0
 40
1.0
 10
9.3278722717
 20
9.8926243714
 30
0.0
 10
9.3242391326
 20
9.8891150498
 30
0.0
 10
9.3185752651
 20
9.8840637166
 30
0.0
 10
9.3106431463
 20
9.8777961123
 30
0.0
 10
9.3024584294
 20
9.8718403935
 30
0.0
 10
9.2917787196
 20
9.8650012988
 30
0.0
 10
9.2805797559
 20
9.8590190703
 30
0.0
 10
9.2713435131
 20
9.8547633069
 30
0.0
 10
9.2619164766
 20
9.8508588634
 30
0.0
 10
9.2498220164
 20
9.8466604832
 30
0.0
 10
9.2349174273
 20
9.842747698
 30
0.0
 10
9.2196876178
 20
9.839975791
 30
0.0
 10
9.2042169893
 20
9.8383600543
 30
0.0
 10
9.1885905251
 20
9.8379091106
 30
0.0
 10
9.1728942066
 20
9.8386252549
 30
0.0
 10
9.1572143043
 20
9.8405043503
 30
0.0
 10
9.1416369723
 20
9.8435358875
 30
0.0
 10
9.1262477632
 20
9.8477030416
 30
0.0
 10
9.1111311692
 20
9.8529827728
 30
0.0
 10
9.0963701634
 20
9.8593459557
 30
0.0
 10
9.0820457515
 20
9.8667575414
 30
0.0
 10
9.0682365328
 20
9.8751767513
 30
0.0
 10
9.0550182753
 20
9.8845573002
 30
0.0
 10
9.0424635047
 20
9.8948476493
 30
0.0
 10
9.0306411117
 20
9.9059912875
 30
0.0
 10
9.0196159777
 20
9.9179270385
 30
0.0
 10
9.0094486229
 20
9.9305893934
 30
0.0
 10
9.0001948772
 20
9.9439088678
 30
0.0
 10
8.9919055763
 20
9.9578123743
 30
0.0
 10
8.984626285
 20
9.9722236353
 30
0.0
 10
8.9783970497
 20
9.9870635365
 30
0.0
 10
8.9732521666
 20
10.0022507758
 30
0.0
 10
8.9692200576
 20
10.0177014892
 30
0.0
 10
8.9668027187
 20
10.0307435665
 30
0.0
 10
8.9654466633
 20
10.0412227174
 30
0.0
 10
8.9644788798
 20
10.0516918406
 30
0.0
 10
8.9641858443
 20
10.0595697853
 30
0.0
 10
8.9641858443
 20
10.0648121266
 30
0.0
  0
SPLINE
  5
374
100
AcDbEntity
  8
0
100
AcDbSpline
 62
7
  6
CONTINUOUS
 70
0
 71
3
 72
39
 73
35
 74
0
 42
0.0000001
 43
0.0000001
 44
0.0000000001
 40
0.0
 40
0.0
 40
0.0
 40
0.0
 40
0.0314026163
 40
0.0630094802
 40
0.0948071156
 40
0.1267734443
 40
0.1588809719
 40
0.1910970226
 40
0.2233851133
 40
0.2557062446
 40
0.2880202668
 40
0.3202872758
 40
0.3524690062
 40
0.3845301827
 40
0.4164397934
 40
0.4481722512
 40
0.4797084083
 40
0.5110363787
 40
0.5421521198
 40
0.5730597435
 40
0.6037715204
 40
0.6343075558
 40
0.6646951112
 40
0.69496759
 40
0.7251632189
 40
0.7553234785
 40
0.7854913552
 40
0.8157095102
 40
0.8460184684
 40
0.8764549241
 40
0.9070502294
 40
0.9378293436
 40
0.9688091107
 40
1.0
 40
1.0
 40
1.0
 40
1.0
 10
9.7185739656
 20
9.0369099491
 30
0.0
 10
9.7142622295
 20
9.037208969
 30
0.0
 10
9.7056344552
 20
9.0382338646
 30
0.0
 10
9.6928666642
 20
9.0410174894
 30
0.0
 10
9.6803463552
 20
9.045025574
 30
0.0
 10
9.6681953186
 20
9.0502192797
 30
0.0
 10
9.6565297661
 20
9.056548419
 30
0.0
 10
9.6454617283
 20
9.0639520237
 30
0.0
 10
9.6350973361
 20
9.0723588523
 30
0.0
 10
9.625536033
 20
9.0816881275
 30
0.0
 10
9.6168695855
 20
9.091850284
 30
0.0
 10
9.6091812434
 20
9.1027478162
 30
0.0
 10
9.6025449007
 20
9.114276161
 30
0.0
 10
9.5970244294
 20
9.1263247153
 30
0.0
 10
9.5926730812
 20
9.1387778736
 30
0.0
 10
9.5895329808
 20
9.1515161077
 30
0.0
 10
9.5876346937
 20
9.1644170763
 30
0.0
 10
9.5869968833
 20
9.1773567741
 30
0.0
 10
9.5876261613
 20
9.190210708
 30
0.0
 10
9.589516977
 20
9.2028550668
 30
0.0
 10
9.5926516376
 20
9.2151678952
 30
0.0
 10
9.5970003707
 20
9.2270302845
 30
0.0
 10
9.602521594
 20
9.2383275432
 30
0.0
 10
9.6091622945
 20
9.2489503294
 30
0.0
 10
9.6168585076
 20
9.2587957553
 30
0.0
 10
9.6255359167
 20
9.2677684427
 30
0.0
 10
9.6351105549
 20
9.2757815438
 30
0.0
 10
9.6454897093
 20
9.2827575893
 30
0.0
 10
9.6565728489
 20
9.2886292712
 30
0.0
 10
9.668252704
 20
9.2933400754
 30
0.0
 10
9.6804161725
 20
9.2968449017
 30
0.0
 10
9.6929460756
 20
9.2991102986
 30
0.0
 10
9.7057199678
 20
9.3001151487
 30
0.0
 10
9.7142913007
 20
9.2999387932
 30
0.0
 10
9.7185739656
 20
9.2996417894
 30
0.0
  0
SPLINE
  5
375
100
AcDbEntity
  8
0
100
AcDbSpline
 62
7
  6
CONTINUOUS
 70
0
 71
3
 72
42
 73
38
 74
0
 42
0.0000001
 43
0.0000001
 44
0.0000000001
 40
0.0
 40
0.0
 40
0.0
 40
0.0
 40
0.0299419634
 40
0.0449235299
 40
0.0599142017
 40
0.0899287029
 40
0.1200139772
 40
0.1350926626
 40
0.1501967046
 40
0.1804840506
 40
0.2108978877
 40
0.2414513551
 40
0.2721543675
 40
0.3030134354
 40
0.3340315696
 40
0.3652082675
 40
0.3965395775
 40
0.4280182343
 40
0.4596338596
 40
0.4913732188
 40
0.5232205284
 40
0.5551578047
 40
0.5871652463
 40
0.6192216448
 40
0.6513048151
 40
0.6833920402
 40
0.7154605222
 40
0.747487836
 40
0.7794523759
 40
0.8113337934
 40
0.8431134117
 40
0.8747746318
 40
0.9063032512
 40
0.9376879208
 40
0.9533258
 40
0.9689252634
 40
1.0
 40
1.0
 40
1.0
 40
1.0
 10
12.3454247731
 20
9.6833563946
 30
0.0
 10
12.3417916339
 20
9.679847073
 30
0.0
 10
12.3361277665
 20
9.6747957399
 30
0.0
 10
12.3281956477
 20
9.6685281356
 30
0.0
 10
12.3200109307
 20
9.6625724168
 30
0.0
 10
12.309331221
 20
9.6557333221
 30
0.0
 10
12.2981322572
 20
9.6497510935
 30
0.0
 10
12.2888960144
 20
9.6454953302
 30
0.0
 10
12.279468978
 20
9.6415908867
 30
0.0
 10
12.2673745177
 20
9.6373925064
 30
0.0
 10
12.2524699286
 20
9.6334797213
 30
0.0
 10
12.2372401192
 20
9.6307078142
 30
0.0
 10
12.2217694906
 20
9.6290920775
 30
0.0
 10
12.2061430264
 20
9.6286411338
 30
0.0
 10
12.190446708
 20
9.6293572781
 30
0.0
 10
12.1747668057
 20
9.6312363736
 30
0.0
 10
12.1591894736
 20
9.6342679107
 30
0.0
 10
12.1438002645
 20
9.6384350649
 30
0.0
 10
12.1286836705
 20
9.6437147961
 30
0.0
 10
12.1139226648
 20
9.6500779789
 30
0.0
 10
12.0995982528
 20
9.6574895647
 30
0.0
 10
12.0857890341
 20
9.6659087746
 30
0.0
 10
12.0725707766
 20
9.6752893235
 30
0.0
 10
12.0600160061
 20
9.6855796726
 30
0.0
 10
12.048193613
 20
9.6967233108
 30
0.0
 10
12.037168479
 20
9.7086590617
 30
0.0
 10
12.0270011242
 20
9.7213214167
 30
0.0
 10
12.0177473785
 20
9.7346408911
 30
0.0
 10
12.0094580777
 20
9.7485443975
 30
0.0
 10
12.0021787864
 20
9.7629556585
 30
0.0
 10
11.995949551
 20
9.7777955597
 30
0.0
 10
11.9908046679
 20
9.7929827991
 30
0.0
 10
11.986772559
 20
9.8084335125
 30
0.0
 10
11.98435522
 20
9.8214755897
 30
0.0
 10
11.9829991646
 20
9.8319547406
 30
0.0
 10
11.9820313812
 20
9.8424238638
 30
0.0
 10
11.9817383457
 20
9.8503018086
 30
0.0
 10
11.9817383457
 20
9.8555441498
 30
0.0
  0
SPLINE
  5
376
100
AcDbEntity
  8
0
100
AcDbSpline
 62
7
  6
CONTINUOUS
 70
0
 71
3
 72
42
 73
38
 74
0
 42
0.0000001
 43
0.0000001
 44
0.0000000001
 40
0.0
 40
0.0
 40
0.0
 40
0.0
 40
0.0299419634
 40
0.0449235299
 40
0.0599142017
 40
0.0899287029
 40
0.1200139772
 40
0.1350926626
 40
0.1501967046
 40
0.1804840506
 40
0.2108978877
 40
0.2414513551
 40
0.2721543675
 40
0.3030134354
 40
0.3340315696
 40
0.3652082675
 40
0.3965395775
 40
0.4280182343
 40
0.4596338596
 40
0.4913732188
 40
0.5232205284
 40
0.5551578047
 40
0.5871652463
 40
0.6192216448
 40
0.6513048151
 40
0.6833920402
 40
0.7154605222
 40
0.747487836
 40
0.7794523759
 40
0.8113337934
 40
0.8431134117
 40
0.8747746318
 40
0.9063032512
 40
0.9376879208
 40
0.9533258
 40
0.9689252634
 40
1.0
 40
1.0
 40
1.0
 40
1.0
 10
12.3454247731
 20
6.1828411818
 30
0.0
 10
12.3417916339
 20
6.1793318602
 30
0.0
 10
12.3361277665
 20
6.1742805271
 30
0.0
 10
12.3281956477
 20
6.1680129228
 30
0.0
 10
12.3200109307
 20
6.1620572039
 30
0.0
 10
12.309331221
 20
6.1552181093
 30
0.0
 10
12.2981322572
 20
6.1492358807
 30
0.0
 10
12.2888960144
 20
6.1449801174
 30
0.0
 10
12.279468978
 20
6.1410756739
 30
0.0
 10
12.2673745177
 20
6.1368772936
 30
0.0
 10
12.2524699286
 20
6.1329645085
 30
0.0
 10
12.2372401192
 20
6.1301926014
 30
0.0
 10
12.2217694906
 20
6.1285768647
 30
0.0
 10
12.2061430264
 20
6.128125921
 30
0.0
 10
12.190446708
 20
6.1288420653
 30
0.0
 10
12.1747668057
 20
6.1307211608
 30
0.0
 10
12.1591894736
 20
6.1337526979
 30
0.0
 10
12.1438002645
 20
6.137919852
 30
0.0
 10
12.1286836705
 20
6.1431995833
 30
0.0
 10
12.1139226648
 20
6.1495627661
 30
0.0
 10
12.0995982528
 20
6.1569743519
 30
0.0
 10
12.0857890341
 20
6.1653935618
 30
0.0
 10
12.0725707766
 20
6.1747741107
 30
0.0
 10
12.0600160061
 20
6.1850644598
 30
0.0
 10
12.048193613
 20
6.196208098
 30
0.0
 10
12.037168479
 20
6.2081438489
 30
0.0
 10
12.0270011242
 20
6.2208062038
 30
0.0
 10
12.0177473785
 20
6.2341256782
 30
0.0
 10
12.0094580777
 20
6.2480291847
 30
0.0
 10
12.0021787864
 20
6.2624404457
 30
0.0
 10
11.995949551
 20
6.2772803469
 30
0.0
 10
11.9908046679
 20
6.2924675863
 30
0.0
 10
11.986772559
 20
6.3079182997
 30
0.0
 10
11.98435522
 20
6.3209603769
 30
0.0
 10
11.9829991646
 20
6.3314395278
 30
0.0
 10
11.9820313812
 20
6.341908651
 30
0.0
 10
11.9817383457
 20
6.3497865957
 30
0.0
 10
11.9817383457
 20
6.355028937
 30
0.0
  0
SPLINE
  5
377
100
AcDbEntity
  8
0
100
AcDbSpline
 62
7
  6
CONTINUOUS
 70
0
 71
3
 72
38
 73
34
 74
0
 42
0.0000001
 43
0.0000001
 44
0.0000000001
 40
0.0
 40
0.0
 40
0.0
 40
0.0
 40
0.0064780392
 40
0.0130669338
 40
0.0197969769
 40
0.0266964069
 40
0.0410984182
 40
0.0564595647
 40
0.0729222422
 40
0.0905960953
 40
0.1095630827
 40
0.1298821347
 40
0.1515936239
 40
0.1747228256
 40
0.1992824348
 40
0.225274978
 40
0.2526943943
 40
0.2815271577
 40
0.3117535684
 40
0.3433484169
 40
0.3762815292
 40
0.4105185419
 40
0.4460211546
 40
0.4827474707
 40
0.5206525106
 40
0.5596882834
 40
0.5998040654
 40
0.6409467645
 40
0.6830609283
 40
0.72608896
 40
0.8146456113
 40
0.9061218154
 40
1.0
 40
1.0
 40
1.0
 40
1.0
 10
11.903518308
 20
10.6601460726
 30
0.0
 10
11.9033804116
 20
10.6609217176
 30
0.0
 10
11.903043704
 20
10.662476456
 30
0.0
 10
11.9023655364
 20
10.6647884854
 30
0.0
 10
11.9015110573
 20
10.6670961212
 30
0.0
 10
11.9001176937
 20
10.6702096245
 30
0.0
 10
11.8979112156
 20
10.6740973665
 30
0.0
 10
11.8946060227
 20
10.6786565859
 30
0.0
 10
11.8906131085
 20
10.6831721691
 30
0.0
 10
11.8859396948
 20
10.6876386517
 30
0.0
 10
11.8805929349
 20
10.6920510291
 30
0.0
 10
11.8745808341
 20
10.6964036903
 30
0.0
 10
11.8679122294
 20
10.700690733
 30
0.0
 10
11.8605969755
 20
10.7049059985
 30
0.0
 10
11.8526460254
 20
10.7090433164
 30
0.0
 10
11.8440713554
 20
10.713096436
 30
0.0
 10
11.8348859814
 20
10.7170591393
 30
0.0
 10
11.8251039542
 20
10.7209253539
 30
0.0
 10
11.814740281
 20
10.7246890611
 30
0.0
 10
11.8038109212
 20
10.7283443875
 30
0.0
 10
11.7923327617
 20
10.7318856614
 30
0.0
 10
11.7803235553
 20
10.7353073239
 30
0.0
 10
11.7678019095
 20
10.7386040195
 30
0.0
 10
11.7547872533
 20
10.7417706158
 30
0.0
 10
11.7412997868
 20
10.7448021307
 30
0.0
 10
11.7273604644
 20
10.7476938228
 30
0.0
 10
11.7129909535
 20
10.7504411885
 30
0.0
 10
11.698213598
 20
10.7530398943
 30
0.0
 10
11.6830513633
 20
10.7554859125
 30
0.0
 10
11.6621530178
 20
10.7585680145
 30
0.0
 10
11.6352408273
 20
10.7619992466
 30
0.0
 10
11.6021028079
 20
10.7654156556
 30
0.0
 10
11.579631371
 20
10.7672171265
 30
0.0
 10
11.5682420103
 20
10.7680069813
 30
0.0
  0
SPLINE
  5
378
100
AcDbEntity
  8
0
100
AcDbSpline
 62
7
  6
CONTINUOUS
 70
0
 71
3
 72
42
 73
38
 74
0
 42
0.0000001
 43
0.0000001
 44
0.0000000001
 40
0.0
 40
0.0
 40
0.0
 40
0.0
 40
0.0299419634
 40
0.0449235299
 40
0.0599142017
 40
0.0899287029
 40
0.1200139772
 40
0.1350926626
 40
0.1501967046
 40
0.1804840506
 40
0.2108978877
 40
0.2414513551
 40
0.2721543675
 40
0.3030134354
 40
0.3340315696
 40
0.3652082675
 40
0.3965395775
 40
0.4280182343
 40
0.4596338596
 40
0.4913732188
 40
0.5232205284
 40
0.5551578047
 40
0.5871652463
 40
0.6192216448
 40
0.6513048151
 40
0.6833920402
 40
0.7154605222
 40
0.747487836
 40
0.7794523759
 40
0.8113337934
 40
0.8431134117
 40
0.8747746318
 40
0.9063032512
 40
0.9376879208
 40
0.9533258
 40
0.9689252634
 40
1.0
 40
1.0
 40
1.0
 40
1.0
 10
9.3278722717
 20
6.3921091585
 30
0.0
 10
9.3242391326
 20
6.388599837
 30
0.0
 10
9.3185752651
 20
6.3835485038
 30
0.0
 10
9.3106431463
 20
6.3772808995
 30
0.0
 10
9.3024584294
 20
6.3713251807
 30
0.0
 10
9.2917787196
 20
6.364486086
 30
0.0
 10
9.2805797559
 20
6.3585038575
 30
0.0
 10
9.2713435131
 20
6.3542480941
 30
0.0
 10
9.2619164766
 20
6.3503436506
 30
0.0
 10
9.2498220164
 20
6.3461452703
 30
0.0
 10
9.2349174273
 20
6.3422324852
 30
0.0
 10
9.2196876178
 20
6.3394605782
 30
0.0
 10
9.2042169893
 20
6.3378448415
 30
0.0
 10
9.1885905251
 20
6.3373938978
 30
0.0
 10
9.1728942066
 20
6.3381100421
 30
0.0
 10
9.1572143043
 20
6.3399891375
 30
0.0
 10
9.1416369723
 20
6.3430206747
 30
0.0
 10
9.1262477632
 20
6.3471878288
 30
0.0
 10
9.1111311692
 20
6.35246756
 30
0.0
 10
9.0963701634
 20
6.3588307429
 30
0.0
 10
9.0820457515
 20
6.3662423286
 30
0.0
 10
9.0682365328
 20
6.3746615385
 30
0.0
 10
9.0550182753
 20
6.3840420874
 30
0.0
 10
9.0424635047
 20
6.3943324365
 30
0.0
 10
9.0306411117
 20
6.4054760747
 30
0.0
 10
9.0196159777
 20
6.4174118257
 30
0.0
 10
9.0094486229
 20
6.4300741806
 30
0.0
 10
9.0001948772
 20
6.443393655
 30
0.0
 10
8.9919055763
 20
6.4572971615
 30
0.0
 10
8.984626285
 20
6.4717084225
 30
0.0
 10
8.9783970497
 20
6.4865483237
 30
0.0
 10
8.9732521666
 20
6.501735563
 30
0.0
 10
8.9692200576
 20
6.5171862764
 30
0.0
 10
8.9668027187
 20
6.5302283536
 30
0.0
 10
8.9654466633
 20
6.5407075046
 30
0.0
 10
8.9644788798
 20
6.5511766278
 30
0.0
 10
8.9641858443
 20
6.5590545725
 30
0.0
 10
8.9641858443
 20
6.5642969138
 30
0.0
  0
SPLINE
  5
379
100
AcDbEntity
  8
0
100
AcDbSpline
 62
7
  6
CONTINUOUS
 70
0
 71
3
 72
15
 73
11
 74
0
 42
0.0000001
 43
0.0000001
 44
0.0000000001
 40
0.0
 40
0.0
 40
0.0
 40
0.0
 40
0.1233171261
 40
0.2468171865
 40
0.3706749939
 40
0.4950495802
 40
0.6200773232
 40
0.7458671315
 40
0.872492731
 40
1.0
 40
1.0
 40
1.0
 40
1.0
 10
9.8028151955
 20
9.0932347316
 30
0.0
 10
9.8002906618
 20
9.0907962405
 30
0.0
 10
9.7949706912
 20
9.0861838148
 30
0.0
 10
9.7862879749
 20
9.0801566246
 30
0.0
 10
9.77698415
 20
9.0750757833
 30
0.0
 10
9.7671544493
 20
9.0709935128
 30
0.0
 10
9.7568980275
 20
9.0679503423
 30
0.0
 10
9.7463182032
 20
9.0659766992
 30
0.0
 10
9.7355229723
 20
9.0650917801
 30
0.0
 10
9.7282766901
 20
9.0652331216
 30
0.0
 10
9.7246562081
 20
9.0654842029
 30
0.0
  0
SPLINE
  5
37A
100
AcDbEntity
  8
0
100
AcDbSpline
 62
7
  6
CONTINUOUS
 70
0
 71
3
 72
50
 73
46
 74
0
 42
0.0000001
 43
0.0000001
 44
0.0000000001
 40
0.0
 40
0.0
 40
0.0
 40
0.0
 40
0.0055920357
 40
0.0113331183
 40
0.0172734071
 40
0.0234576586
 40
0.0299248343
 40
0.0367082023
 40
0.0438357084
 40
0.0513304088
 40
0.0592111466
 40
0.0674929178
 40
0.0761875967
 40
0.085304116
 40
0.0948491317
 40
0.1048270606
 40
0.1152406232
 40
0.1260908346
 40
0.137377385
 40
0.1490986673
 40
0.1612519784
 40
0.1738336325
 40
0.1868389888
 40
0.2002626631
 40
0.2283384902
 40
0.2580047027
 40
0.289194216
 40
0.3218316341
 40
0.355834251
 40
0.3911128873
 40
0.4275726125
 40
0.4651133866
 40
0.5036306455
 40
0.5430158469
 40
0.5831569892
 40
0.6239391105
 40
0.6652447727
 40
0.7069545383
 40
0.7489474346
 40
0.7911014345
 40
0.8332938651
 40
0.8754020313
 40
0.9173032219
 40
0.9588762799
 40
1.0
 40
1.0
 40
1.0
 40
1.0
 10
10.9984585613
 20
10.6600478467
 30
0.0
 10
10.9986507298
 20
10.6611488853
 30
0.0
 10
10.9991590974
 20
10.6633611511
 30
0.0
 10
11.0002686783
 20
10.6666359279
 30
0.0
 10
11.001731204
 20
10.6698990125
 30
0.0
 10
11.0035446436
 20
10.6731473988
 30
0.0
 10
11.00570689
 20
10.6763790108
 30
0.0
 10
11.0082157909
 20
10.6795917074
 30
0.0
 10
11.011069146
 20
10.6827834033
 30
0.0
 10
11.0142645692
 20
10.6859520515
 30
0.0
 10
11.0177996014
 20
10.6890954532
 30
0.0
 10
11.021671469
 20
10.6922115105
 30
0.0
 10
11.0258772868
 20
10.6952979113
 30
0.0
 10
11.0304138085
 20
10.6983525052
 30
0.0
 10
11.035277638
 20
10.7013729314
 30
0.0
 10
11.0404650298
 20
10.7043570083
 30
0.0
 10
11.0459720522
 20
10.707302393
 30
0.0
 10
11.0517944605
 20
10.7102068911
 30
0.0
 10
11.0579277939
 20
10.713068224
 30
0.0
 10
11.0643673173
 20
10.7158842015
 30
0.0
 10
11.0711080607
 20
10.7186526372
 30
0.0
 10
11.0781448089
 20
10.7213713562
 30
0.0
 10
11.0854721153
 20
10.7240383016
 30
0.0
 10
11.0957763844
 20
10.7275753253
 30
0.0
 10
11.1093491425
 20
10.7318391798
 30
0.0
 10
11.126464716
 20
10.7366439092
 30
0.0
 10
11.1445907659
 20
10.7411951986
 30
0.0
 10
11.1636709615
 20
10.745478734
 30
0.0
 10
11.1836461587
 20
10.7494810193
 30
0.0
 10
11.2044542781
 20
10.753189453
 30
0.0
 10
11.226030612
 20
10.7565923606
 30
0.0
 10
11.2483080113
 20
10.7596790346
 30
0.0
 10
11.2712171122
 20
10.7624397668
 30
0.0
 10
11.2946865574
 20
10.7648658779
 30
0.0
 10
11.318643225
 20
10.7669497435
 30
0.0
 10
11.3430124605
 20
10.7686848168
 30
0.0
 10
11.3677183135
 20
10.7700656482
 30
0.0
 10
11.3926837754
 20
10.7710879014
 30
0.0
 10
11.4178310254
 20
10.7717483675
 30
0.0
 10
11.4430816652
 20
10.7720449709
 30
0.0
 10
11.4683569928
 20
10.7719767855
 30
0.0
 10
11.4935781714
 20
10.7715440153
 30
0.0
 10
11.5186666744
 20
10.7707480346
 30
0.0
 10
11.5435441217
 20
10.7695913227
 30
0.0
 10
11.5600422874
 20
10.768575634
 30
0.0
 10
11.5682420103
 20
10.7680069813
 30
0.0
  0
SPLINE
  5
37B
100
AcDbEntity
  8
0
100
AcDbSpline
 62
7
  6
CONTINUOUS
 70
0
 71
3
 72
15
 73
11
 74
0
 42
0.0000001
 43
0.0000001
 44
0.0000000001
 40
0.0
 40
0.0
 40
0.0
 40
0.0
 40
0.1233171261
 40
0.2468171865
 40
0.3706749939
 40
0.4950495802
 40
0.6200773232
 40
0.7458671315
 40
0.872492731
 40
1.0
 40
1.0
 40
1.0
 40
1.0
 10
11.855407698
 20
8.9508869581
 30
0.0
 10
11.8528831643
 20
8.948448467
 30
0.0
 10
11.8475631937
 20
8.9438360412
 30
0.0
 10
11.8388804774
 20
8.937808851
 30
0.0
 10
11.8295766525
 20
8.9327280098
 30
0.0
 10
11.8197469518
 20
8.9286457393
 30
0.0
 10
11.80949053
 20
8.9256025688
 30
0.0
 10
11.7989107057
 20
8.9236289257
 30
0.0
 10
11.7881154748
 20
8.9227440065
 30
0.0
 10
11.7808691926
 20
8.9228853481
 30
0.0
 10
11.7772487106
 20
8.9231364293
 30
0.0
  0
SPLINE
  5
37C
100
AcDbEntity
  8
0
100
AcDbSpline
 62
7
  6
CONTINUOUS
 70
0
 71
3
 72
57
 73
53
 74
0
 42
0.0000001
 43
0.0000001
 44
0.0000000001
 40
0.0
 40
0.0
 40
0.0
 40
0.0
 40
0.0082491347
 40
0.0160250206
 40
0.023364072
 40
0.0303115979
 40
0.03692285
 40
0.0432633703
 40
0.0494086548
 40
0.0554423768
 40
0.0614533697
 40
0.0675315572
 40
0.073763684
 40
0.0802296444
 40
0.0870001529
 40
0.0941356123
 40
0.101686255
 40
0.1096928509
 40
0.1181877805
 40
0.1271962872
 40
0.1367374224
 40
0.1468251922
 40
0.1574691954
 40
0.1686754191
 40
0.1804467402
 40
0.1927833226
 40
0.2056831046
 40
0.2191419068
 40
0.2331538677
 40
0.2477114741
 40
0.2628058236
 40
0.2784267459
 40
0.2945628473
 40
0.3112017478
 40
0.3283299912
 40
0.3459332908
 40
0.3639964664
 40
0.3825035664
 40
0.4207814241
 40
0.4606263615
 40
0.5018875052
 40
0.5444057396
 40
0.5880148641
 40
0.6325426799
 40
0.6778120327
 40
0.7236418239
 40
0.7698480033
 40
0.8162445609
 40
0.8626444629
 40
0.908860813
 40
0.9547071408
 40
1.0
 40
1.0
 40
1.0
 40
1.0
 10
10.9355607833
 20
10.6968602304
 30
0.0
 10
10.9340358476
 20
10.6982793352
 30
0.0
 10
10.9311569726
 20
10.701128277
 30
0.0
 10
10.9272660806
 20
10.7055706231
 30
0.0
 10
10.9239389149
 20
10.7100476984
 30
0.0
 10
10.9211802432
 20
10.7145556697
 30
0.0
 10
10.9189944287
 20
10.7190906386
 30
0.0
 10
10.9173861676
 20
10.7236481525
 30
0.0
 10
10.9163596644
 20
10.728222593
 30
0.0
 10
10.9159183854
 20
10.7328070865
 30
0.0
 10
10.9160639834
 20
10.7373936596
 30
0.0
 10
10.9167958436
 20
10.7419741169
 30
0.0
 10
10.9181114494
 20
10.746540927
 30
0.0
 10
10.9200067206
 20
10.7510878931
 30
0.0
 10
10.922477278
 20
10.7556099739
 30
0.0
 10
10.9255184721
 20
10.7601030784
 30
0.0
 10
10.9291258673
 20
10.7645634393
 30
0.0
 10
10.9332949535
 20
10.7689873751
 30
0.0
 10
10.9380210017
 20
10.7733711462
 30
0.0
 10
10.9432990118
 20
10.7777107437
 30
0.0
 10
10.9491234116
 20
10.7820021575
 30
0.0
 10
10.9554881924
 20
10.7862411082
 30
0.0
 10
10.962386694
 20
10.7904233703
 30
0.0
 10
10.9698117076
 20
10.7945446114
 30
0.0
 10
10.977755423
 20
10.7986005012
 30
0.0
 10
10.9862094252
 20
10.8025867903
 30
0.0
 10
10.9951647544
 20
10.8064991632
 30
0.0
 10
11.0046118479
 20
10.8103334905
 30
0.0
 10
11.0145406229
 20
10.8140855896
 30
0.0
 10
11.0249404371
 20
10.8177514444
 30
0.0
 10
11.0358001339
 20
10.8213270868
 30
0.0
 10
11.0471080485
 20
10.8248086251
 30
0.0
 10
11.0588520134
 20
10.8281923312
 30
0.0
 10
11.0710193923
 20
10.8314744845
 30
0.0
 10
11.0835970743
 20
10.8346515811
 30
0.0
 10
11.096571502
 20
10.8377201306
 30
0.0
 10
11.1099287006
 20
10.8406768537
 30
0.0
 10
11.1284375673
 20
10.8445087329
 30
0.0
 10
11.1524280952
 20
10.8489824467
 30
0.0
 10
11.1821906123
 20
10.8537990113
 30
0.0
 10
11.2131132006
 20
10.8581009831
 30
0.0
 10
11.2450624042
 20
10.8618696011
 30
0.0
 10
11.2779004917
 20
10.8650883943
 30
0.0
 10
11.3114857781
 20
10.8677433146
 30
0.0
 10
11.3456733321
 20
10.8698227764
 30
0.0
 10
11.3803155886
 20
10.8713177076
 30
0.0
 10
11.4152630009
 20
10.8722215914
 30
0.0
 10
11.4503646888
 20
10.8725304866
 30
0.0
 10
11.4854691183
 20
10.8722430546
 30
0.0
 10
11.5204246928
 20
10.8713605325
 30
0.0
 10
11.5550804524
 20
10.8698867998
 30
0.0
 10
11.5780550745
 20
10.8685041798
 30
0.0
 10
11.5894651545
 20
10.867712888
 30
0.0
  0
SPLINE
  5
37D
100
AcDbEntity
  8
0
100
AcDbSpline
 62
7
  6
CONTINUOUS
 70
0
 71
3
 72
15
 73
11
 74
0
 42
0.0000001
 43
0.0000001
 44
0.0000000001
 40
0.0
 40
0.0
 40
0.0
 40
0.0
 40
0.1233171261
 40
0.2468171865
 40
0.3706749939
 40
0.4950495802
 40
0.6200773232
 40
0.7458671315
 40
0.872492731
 40
1.0
 40
1.0
 40
1.0
 40
1.0
 10
9.8028151955
 20
7.3420111398
 30
0.0
 10
9.8002906618
 20
7.3395726487
 30
0.0
 10
9.7949706912
 20
7.3349602229
 30
0.0
 10
9.7862879749
 20
7.3289330327
 30
0.0
 10
9.77698415
 20
7.3238521915
 30
0.0
 10
9.7671544493
 20
7.319769921
 30
0.0
 10
9.7568980275
 20
7.3167267505
 30
0.0
 10
9.7463182032
 20
7.3147531074
 30
0.0
 10
9.7355229723
 20
7.3138681882
 30
0.0
 10
9.7282766901
 20
7.3140095298
 30
0.0
 10
9.7246562081
 20
7.314260611
 30
0.0
  0
SPLINE
  5
37E
100
AcDbEntity
  8
0
100
AcDbSpline
 62
7
  6
CONTINUOUS
 70
0
 71
3
 72
15
 73
11
 74
0
 42
0.0000001
 43
0.0000001
 44
0.0000000001
 40
0.0
 40
0.0
 40
0.0
 40
0.0
 40
0.1233171261
 40
0.2468171865
 40
0.3706749939
 40
0.4950495802
 40
0.6200773232
 40
0.7458671315
 40
0.872492731
 40
1.0
 40
1.0
 40
1.0
 40
1.0
 10
11.855407698
 20
7.1996633663
 30
0.0
 10
11.8528831643
 20
7.1972248752
 30
0.0
 10
11.8475631937
 20
7.1926124494
 30
0.0
 10
11.8388804774
 20
7.1865852592
 30
0.0
 10
11.8295766525
 20
7.181504418
 30
0.0
 10
11.8197469518
 20
7.1774221474
 30
0.0
 10
11.80949053
 20
7.1743789769
 30
0.0
 10
11.7989107057
 20
7.1724053339
 30
0.0
 10
11.7881154748
 20
7.1715204147
 30
0.0
 10
11.7808691926
 20
7.1716617562
 30
0.0
 10
11.7772487106
 20
7.1719128375
 30
0.0
  0
SPLINE
  5
37F
100
AcDbEntity
  8
0
100
AcDbSpline
 62
7
  6
CONTINUOUS
 70
0
 71
3
 72
50
 73
46
 74
0
 42
0.0000001
 43
0.0000001
 44
0.0000000001
 40
0.0
 40
0.0
 40
0.0
 40
0.0
 40
0.0054972503
 40
0.0111897758
 40
0.0171231545
 40
0.0233370473
 40
0.0298651152
 40
0.0367356106
 40
0.043971701
 40
0.0515922786
 40
0.0596123479
 40
0.0680436993
 40
0.0768952831
 40
0.0861736243
 40
0.0958832089
 40
0.106026637
 40
0.1166050441
 40
0.1276180502
 40
0.1390642001
 40
0.1509407999
 40
0.1632443203
 40
0.1759702275
 40
0.1891132815
 40
0.2026674451
 40
0.2309809389
 40
0.2608509142
 40
0.292207952
 40
0.3249750513
 40
0.3590685082
 40
0.3943986589
 40
0.43087053
 40
0.4683844236
 40
0.5068364558
 40
0.5461190634
 40
0.5861214877
 40
0.6267302445
 40
0.6678295822
 40
0.7093019331
 40
0.7510283538
 40
0.7928889848
 40
0.8347634325
 40
0.8765313868
 40
0.9180725585
 40
0.9592683496
 40
1.0
 40
1.0
 40
1.0
 40
1.0
 10
12.9179252858
 20
8.035828884
 30
0.0
 10
12.9190011192
 20
8.0360467901
 30
0.0
 10
12.9211690328
 20
8.0366058811
 30
0.0
 10
12.9243854242
 20
8.0377795377
 30
0.0
 10
12.927612453
 20
8.03929865
 30
0.0
 10
12.9308473641
 20
8.0411613396
 30
0.0
 10
12.9340883058
 20
8.0433655649
 30
0.0
 10
12.9373331097
 20
8.0459094344
 30
0.0
 10
12.9405797921
 20
8.0487907599
 30
0.0
 10
12.9438261386
 20
8.0520073673
 30
0.0
 10
12.9470699978
 20
8.0555567718
 30
0.0
 10
12.9503090679
 20
8.0594363485
 30
0.0
 10
12.9535410415
 20
8.0636431973
 30
0.0
 10
12.9567635759
 20
8.068174177
 30
0.0
 10
12.9599742549
 20
8.0730259153
 30
0.0
 10
12.9631707333
 20
8.0781947483
 30
0.0
 10
12.9663505375
 20
8.0836768119
 30
0.0
 10
12.9695113367
 20
8.0894679365
 30
0.0
 10
12.9726506474
 20
8.0955637647
 30
0.0
 10
12.9757661528
 20
8.1019596444
 30
0.0
 10
12.9788554032
 20
8.1086507335
 30
0.0
 10
12.9819160841
 20
8.1156319186
 30
0.0
 10
12.9849458346
 20
8.1228978943
 30
0.0
 10
12.9890002322
 20
8.1331071644
 30
0.0
 10
12.9939625641
 20
8.1465471927
 30
0.0
 10
12.9996747225
 20
8.1634916322
 30
0.0
 10
13.0052099457
 20
8.1814274035
 30
0.0
 10
13.0105511532
 20
8.2002996694
 30
0.0
 10
13.0156818471
 20
8.2200508645
 30
0.0
 10
13.0205861897
 20
8.240620604
 30
0.0
 10
13.0252490475
 20
8.2619459658
 30
0.0
 10
13.029656039
 20
8.2839616717
 30
0.0
 10
13.0337935785
 20
8.3066003012
 30
0.0
 10
13.0376489172
 20
8.329792503
 30
0.0
 10
13.0412101821
 20
8.353467212
 30
0.0
 10
13.0444664108
 20
8.3775518717
 30
0.0
 10
13.0474075852
 20
8.4019726598
 30
0.0
 10
13.0500246604
 20
8.4266547156
 30
0.0
 10
13.0523095945
 20
8.4515223751
 30
0.0
 10
13.0542553676
 20
8.4764993943
 30
0.0
 10
13.055856016
 20
8.5015092138
 30
0.0
 10
13.0571066216
 20
8.5264751119
 30
0.0
 10
13.0580033843
 20
8.5513206509
 30
0.0
 10
13.0585435399
 20
8.5759694872
 30
0.0
 10
13.0586656485
 20
8.5923288279
 30
0.0
 10
13.0586656485
 20
8.6004620402
 30
0.0
  0
SPLINE
  5
380
100
AcDbEntity
  8
0
100
AcDbSpline
 62
7
  6
CONTINUOUS
 70
0
 71
3
 72
21
 73
17
 74
0
 42
0.0000001
 43
0.0000001
 44
0.0000000001
 40
0.0
 40
0.0
 40
0.0
 40
0.0
 40
0.1266975252
 40
0.2525125153
 40
0.315157114
 40
0.3776342862
 40
0.4399692883
 40
0.5021902541
 40
0.5643285996
 40
0.6264185947
 40
0.6884960197
 40
0.7505986189
 40
0.8127638495
 40
0.8750273891
 40
0.9374328703
 40
1.0
 40
1.0
 40
1.0
 40
1.0
 10
12.2687851882
 20
8.8836194145
 30
0.0
 10
12.2683330382
 20
8.8806579295
 30
0.0
 10
12.2670947412
 20
8.874801234
 30
0.0
 10
12.2646924356
 20
8.8677267135
 30
0.0
 10
12.2622703266
 20
8.8623064511
 30
0.0
 10
12.2602093445
 20
8.8583787821
 30
0.0
 10
12.2579059033
 20
8.8545999749
 30
0.0
 10
12.2553655037
 20
8.8509858547
 30
0.0
 10
12.252595037
 20
8.8475522618
 30
0.0
 10
12.2496026998
 20
8.8443147088
 30
0.0
 10
12.2463982156
 20
8.8412881231
 30
0.0
 10
12.2429927491
 20
8.8384867072
 30
0.0
 10
12.239398895
 20
8.8359238248
 30
0.0
 10
12.2356304257
 20
8.8336115193
 30
0.0
 10
12.2317028843
 20
8.8315609669
 30
0.0
 10
12.2289928136
 20
8.8303760799
 30
0.0
 10
12.2276177693
 20
8.8298302459
 30
0.0
  0
SPLINE
  5
381
100
AcDbEntity
  8
0
100
AcDbSpline
 62
7
  6
CONTINUOUS
 70
0
 71
3
 72
37
 73
33
 74
0
 42
0.0000001
 43
0.0000001
 44
0.0000000001
 40
0.0
 40
0.0
 40
0.0
 40
0.0
 40
0.0063856747
 40
0.0129179413
 40
0.0265218605
 40
0.0410086986
 40
0.056530666
 40
0.0732062599
 40
0.0911249305
 40
0.1103521218
 40
0.130933958
 40
0.1529006385
 40
0.1762695692
 40
0.2010477169
 40
0.2272330906
 40
0.2548164273
 40
0.2837821475
 40
0.3141090451
 40
0.3457712606
 40
0.3787385765
 40
0.4129768923
 40
0.4484487879
 40
0.4851135488
 40
0.5229276191
 40
0.5618448771
 40
0.6018166131
 40
0.6427919756
 40
0.6847180428
 40
0.7275398305
 40
0.8156412379
 40
0.9066251785
 40
1.0
 40
1.0
 40
1.0
 40
1.0
 10
12.9804955347
 20
8.937504193
 30
0.0
 10
12.9812112695
 20
8.9372513305
 30
0.0
 10
12.9826411053
 20
8.9366870518
 30
0.0
 10
12.9854888176
 20
8.9353294865
 30
0.0
 10
12.9890191876
 20
8.9331908216
 30
0.0
 10
12.9931177439
 20
8.9299999074
 30
0.0
 10
12.9971330948
 20
8.9261569794
 30
0.0
 10
13.001060906
 20
8.9216688479
 30
0.0
 10
13.0048975028
 20
8.9165421265
 30
0.0
 10
13.0086385473
 20
8.9107840486
 30
0.0
 10
13.012279381
 20
8.90440255
 30
0.0
 10
13.0158152303
 20
8.8974065474
 30
0.0
 10
13.0192412265
 20
8.8898058951
 30
0.0
 10
13.0225524617
 20
8.881611404
 30
0.0
 10
13.025744195
 20
8.8728348691
 30
0.0
 10
13.0288117354
 20
8.8634889881
 30
0.0
 10
13.0317505393
 20
8.853587359
 30
0.0
 10
13.0345562922
 20
8.8431444586
 30
0.0
 10
13.0372247903
 20
8.8321755857
 30
0.0
 10
13.0397520642
 20
8.8206968532
 30
0.0
 10
13.0421343714
 20
8.808725152
 30
0.0
 10
13.0443681216
 20
8.7962781138
 30
0.0
 10
13.0464500045
 20
8.7833740944
 30
0.0
 10
13.0483769195
 20
8.7700321344
 30
0.0
 10
13.0501459601
 20
8.7562719302
 30
0.0
 10
13.0517545197
 20
8.7421138057
 30
0.0
 10
13.05320018
 20
8.7275786838
 30
0.0
 10
13.0544807907
 20
8.712688027
 30
0.0
 10
13.055979776
 20
8.692195086
 30
0.0
 10
13.05741625
 20
8.6658525539
 30
0.0
 10
13.0584426385
 20
8.6334780451
 30
0.0
 10
13.0586656485
 20
8.6115618503
 30
0.0
 10
13.0586656485
 20
8.6004620402
 30
0.0
  0
SPLINE
  5
382
100
AcDbEntity
  8
0
100
AcDbSpline
 62
7
  6
CONTINUOUS
 70
0
 71
3
 72
24
 73
20
 74
0
 42
0.0000001
 43
0.0000001
 44
0.0000000001
 40
0.0
 40
0.0
 40
0.0
 40
0.0
 40
0.0620109565
 40
0.1239239652
 40
0.1857745467
 40
0.2475996507
 40
0.2785190218
 40
0.3094461898
 40
0.3713336569
 40
0.4333084717
 40
0.4954065707
 40
0.5576618865
 40
0.6201056698
 40
0.6827659085
 40
0.7456666511
 40
0.8088279364
 40
0.8722642894
 40
0.935987258
 40
1.0
 40
1.0
 40
1.0
 40
1.0
 10
10.925805466
 20
8.7326024694
 30
0.0
 10
10.9234883048
 20
8.7288395232
 30
0.0
 10
10.9186022894
 20
8.7214733578
 30
0.0
 10
10.910545789
 20
8.7109554492
 30
0.0
 10
10.9017984588
 20
8.7010217836
 30
0.0
 10
10.8939609293
 20
8.6932656912
 30
0.0
 10
10.8873837217
 20
8.6873969312
 30
0.0
 10
10.8806049282
 20
8.6817552786
 30
0.0
 10
10.8717649112
 20
8.6751411952
 30
0.0
 10
10.8606228636
 20
8.6679473455
 30
0.0
 10
10.8489882308
 20
8.661525813
 30
0.0
 10
10.8369091376
 20
8.6559059589
 30
0.0
 10
10.8244356624
 20
8.6511134606
 30
0.0
 10
10.8116201132
 20
8.6471705318
 30
0.0
 10
10.7985166166
 20
8.6440955823
 30
0.0
 10
10.7851810072
 20
8.6419031863
 30
0.0
 10
10.7716700826
 20
8.64060376
 30
0.0
 10
10.7580427252
 20
8.6402037116
 30
0.0
 10
10.7489381154
 20
8.6405373201
 30
0.0
 10
10.7443872274
 20
8.6408529253
 30
0.0
  0
SPLINE
  5
383
100
AcDbEntity
  8
0
100
AcDbSpline
 62
7
  6
CONTINUOUS
 70
0
 71
3
 72
55
 73
51
 74
0
 42
0.0000001
 43
0.0000001
 44
0.0000000001
 40
0.0
 40
0.0
 40
0.0
 40
0.0
 40
0.0095825819
 40
0.0187371424
 40
0.0274870077
 40
0.0358597765
 40
0.0515981845
 40
0.0590560109
 40
0.0662987855
 40
0.0733799977
 40
0.0803572919
 40
0.0872911216
 40
0.0942431942
 40
0.1012746911
 40
0.1084445784
 40
0.115808164
 40
0.1234161365
 40
0.1313138569
 40
0.1395413357
 40
0.1481331538
 40
0.1571189369
 40
0.166523697
 40
0.176368282
 40
0.1866699867
 40
0.1974427542
 40
0.2086978719
 40
0.2204440349
 40
0.2326878727
 40
0.2454341107
 40
0.2586857537
 40
0.2724444547
 40
0.2867103953
 40
0.3014827497
 40
0.3167595002
 40
0.332537753
 40
0.3655816089
 40
0.4005762908
 40
0.4374714424
 40
0.4762073351
 40
0.5167160364
 40
0.5589223426
 40
0.6027445495
 40
0.6480951047
 40
0.6948811777
 40
0.7430051698
 40
0.792365118
 40
0.8428554393
 40
0.8943663173
 40
0.946786822
 40
1.0
 40
1.0
 40
1.0
 40
1.0
 10
13.0219340733
 20
8.9997293607
 30
0.0
 10
13.0230345889
 20
9.0007535997
 30
0.0
 10
13.0252346352
 20
9.002705571
 30
0.0
 10
13.0286101043
 20
9.005392689
 30
0.0
 10
13.0319824706
 20
9.0077690982
 30
0.0
 10
13.0363796867
 20
9.0104645517
 30
0.0
 10
13.040865671
 20
9.0126169036
 30
0.0
 10
13.0453993794
 20
9.0141329636
 30
0.0
 10
13.0487268352
 20
9.0149318698
 30
0.0
 10
13.0520391041
 20
9.0154113264
 30
0.0
 10
13.0553338415
 20
9.0155707554
 30
0.0
 10
13.0586083002
 20
9.0154095851
 30
0.0
 10
13.0618597173
 20
9.014928028
 30
0.0
 10
13.0650853912
 20
9.0141266004
 30
0.0
 10
13.0682828243
 20
9.013006324
 30
0.0
 10
13.0714498247
 20
9.0115685658
 30
0.0
 10
13.0745843897
 20
9.0098147372
 30
0.0
 10
13.0776848489
 20
9.0077465466
 30
0.0
 10
13.0807495305
 20
9.0053655428
 30
0.0
 10
13.0837769717
 20
9.0026735052
 30
0.0
 10
13.0867656404
 20
8.999672159
 30
0.0
 10
13.0897140335
 20
8.99636337
 30
0.0
 10
13.092620674
 20
8.9927491423
 30
0.0
 10
13.095483958
 20
8.9888315531
 30
0.0
 10
13.0983024206
 20
8.9846129303
 30
0.0
 10
13.101074423
 20
8.9800956758
 30
0.0
 10
13.1037984684
 20
8.975282442
 30
0.0
 10
13.1064729725
 20
8.9701760114
 30
0.0
 10
13.1090963881
 20
8.9647793614
 30
0.0
 10
13.1116672278
 20
8.9590956571
 30
0.0
 10
13.1141839238
 20
8.9531282127
 30
0.0
 10
13.1166450695
 20
8.9468805526
 30
0.0
 10
13.1190491367
 20
8.9403563414
 30
0.0
 10
13.1213947808
 20
8.9335594284
 30
0.0
 10
13.1244902117
 20
8.9239907556
 30
0.0
 10
13.1281903084
 20
8.9113691603
 30
0.0
 10
13.1323105415
 20
8.8954277018
 30
0.0
 10
13.1361666263
 20
8.8785033285
 30
0.0
 10
13.139749301
 20
8.8606361289
 30
0.0
 10
13.1430499229
 20
8.8418682615
 30
0.0
 10
13.1460605312
 20
8.8222441723
 30
0.0
 10
13.1487738601
 20
8.8018103731
 30
0.0
 10
13.1511833609
 20
8.7806153484
 30
0.0
 10
13.1532832171
 20
8.758709422
 30
0.0
 10
13.1550683592
 20
8.7361446441
 30
0.0
 10
13.156534487
 20
8.7129746203
 30
0.0
 10
13.1576780377
 20
8.6892545057
 30
0.0
 10
13.1584962818
 20
8.6650405352
 30
0.0
 10
13.1589871789
 20
8.6403905306
 30
0.0
 10
13.1590947152
 20
8.6238176068
 30
0.0
 10
13.1590947152
 20
8.6154690751
 30
0.0
  0
SPLINE
  5
384
100
AcDbEntity
  8
0
100
AcDbSpline
 62
7
  6
CONTINUOUS
 70
0
 71
3
 72
30
 73
26
 74
0
 42
0.0000001
 43
0.0000001
 44
0.0000000001
 40
0.0
 40
0.0
 40
0.0
 40
0.0
 40
0.0161548597
 40
0.0336286091
 40
0.0524367826
 40
0.0725812818
 40
0.0940531354
 40
0.116834047
 40
0.1408982345
 40
0.1662134472
 40
0.1927415545
 40
0.2204396164
 40
0.2492601974
 40
0.2791517491
 40
0.3100592989
 40
0.3419244906
 40
0.4082779278
 40
0.4776932943
 40
0.5496145269
 40
0.6234578468
 40
0.698618801
 40
0.7744789823
 40
0.8504127749
 40
0.9257926752
 40
1.0
 40
1.0
 40
1.0
 40
1.0
 10
12.7799335597
 20
9.2015686598
 30
0.0
 10
12.7808214004
 20
9.202655195
 30
0.0
 10
12.7825874673
 20
9.2049847375
 30
0.0
 10
12.785119304
 20
9.2087731258
 30
0.0
 10
12.7876316256
 20
9.2129833991
 30
0.0
 10
12.7901189503
 20
9.2176064645
 30
0.0
 10
12.792575951
 20
9.2226325933
 30
0.0
 10
12.7949972948
 20
9.2280509568
 30
0.0
 10
12.797377663
 20
9.2338498528
 30
0.0
 10
12.7997117844
 20
9.240016687
 30
0.0
 10
12.8019945392
 20
9.2465380027
 30
0.0
 10
12.8042208575
 20
9.2533995496
 30
0.0
 10
12.8063858078
 20
9.2605863039
 30
0.0
 10
12.8084846191
 20
9.2680824974
 30
0.0
 10
12.8105126513
 20
9.2758716929
 30
0.0
 10
12.8131518993
 20
9.2867725835
 30
0.0
 10
12.8162303453
 20
9.3010060502
 30
0.0
 10
12.8195285673
 20
9.3187433804
 30
0.0
 10
12.8224494054
 20
9.3372055707
 30
0.0
 10
12.8249669389
 20
9.3562303758
 30
0.0
 10
12.827058807
 20
9.375650726
 30
0.0
 10
12.8287064869
 20
9.3952959463
 30
0.0
 10
12.8298954308
 20
9.4149933404
 30
0.0
 10
12.8306152583
 20
9.4345697015
 30
0.0
 10
12.8307799812
 20
9.447562759
 30
0.0
 10
12.8307799812
 20
9.4540081097
 30
0.0
  0
SPLINE
  5
385
100
AcDbEntity
  8
0
100
AcDbSpline
 62
7
  6
CONTINUOUS
 70
0
 71
3
 72
42
 73
38
 74
0
 42
0.0000001
 43
0.0000001
 44
0.0000000001
 40
0.0
 40
0.0
 40
0.0
 40
0.0
 40
0.0299419634
 40
0.0449235299
 40
0.0599142017
 40
0.0899287029
 40
0.1200139772
 40
0.1350926626
 40
0.1501967046
 40
0.1804840506
 40
0.2108978877
 40
0.2414513551
 40
0.2721543675
 40
0.3030134354
 40
0.3340315696
 40
0.3652082675
 40
0.3965395775
 40
0.4280182343
 40
0.4596338596
 40
0.4913732188
 40
0.5232205284
 40
0.5551578047
 40
0.5871652463
 40
0.6192216448
 40
0.6513048151
 40
0.6833920402
 40
0.7154605222
 40
0.747487836
 40
0.7794523759
 40
0.8113337934
 40
0.8431134117
 40
0.8747746318
 40
0.9063032512
 40
0.9376879208
 40
0.9533258
 40
0.9689252634
 40
1.0
 40
1.0
 40
1.0
 40
1.0
 10
10.5043700216
 20
8.1515733988
 30
0.0
 10
10.5007368824
 20
8.1480640772
 30
0.0
 10
10.495073015
 20
8.1430127441
 30
0.0
 10
10.4871408962
 20
8.1367451398
 30
0.0
 10
10.4789561792
 20
8.130789421
 30
0.0
 10
10.4682764695
 20
8.1239503263
 30
0.0
 10
10.4570775057
 20
8.1179680977
 30
0.0
 10
10.4478412629
 20
8.1137123344
 30
0.0
 10
10.4384142265
 20
8.1098078909
 30
0.0
 10
10.4263197662
 20
8.1056095106
 30
0.0
 10
10.4114151771
 20
8.1016967255
 30
0.0
 10
10.3961853677
 20
8.0989248184
 30
0.0
 10
10.3807147391
 20
8.0973090817
 30
0.0
 10
10.3650882749
 20
8.096858138
 30
0.0
 10
10.3493919565
 20
8.0975742823
 30
0.0
 10
10.3337120542
 20
8.0994533778
 30
0.0
 10
10.3181347221
 20
8.1024849149
 30
0.0
 10
10.302745513
 20
8.1066520691
 30
0.0
 10
10.287628919
 20
8.1119318003
 30
0.0
 10
10.2728679133
 20
8.1182949832
 30
0.0
 10
10.2585435013
 20
8.1257065689
 30
0.0
 10
10.2447342827
 20
8.1341257788
 30
0.0
 10
10.2315160251
 20
8.1435063277
 30
0.0
 10
10.2189612546
 20
8.1537966768
 30
0.0
 10
10.2071388615
 20
8.164940315
 30
0.0
 10
10.1961137275
 20
8.1768760659
 30
0.0
 10
10.1859463727
 20
8.1895384209
 30
0.0
 10
10.176692627
 20
8.2028578953
 30
0.0
 10
10.1684033262
 20
8.2167614017
 30
0.0
 10
10.1611240349
 20
8.2311726627
 30
0.0
 10
10.1548947995
 20
8.2460125639
 30
0.0
 10
10.1497499164
 20
8.2611998033
 30
0.0
 10
10.1457178075
 20
8.2766505167
 30
0.0
 10
10.1433004685
 20
8.2896925939
 30
0.0
 10
10.1419444131
 20
8.3001717448
 30
0.0
 10
10.1409766297
 20
8.3106408681
 30
0.0
 10
10.1406835942
 20
8.3185188128
 30
0.0
 10
10.1406835942
 20
8.323761154
 30
0.0
  0
SPLINE
  5
386
100
AcDbEntity
  8
0
100
AcDbSpline
 62
7
  6
CONTINUOUS
 70
0
 71
3
 72
39
 73
35
 74
0
 42
0.0000001
 43
0.0000001
 44
0.0000000001
 40
0.0
 40
0.0
 40
0.0
 40
0.0
 40
0.0314026163
 40
0.0630094802
 40
0.0948071156
 40
0.1267734443
 40
0.1588809719
 40
0.1910970226
 40
0.2233851133
 40
0.2557062446
 40
0.2880202668
 40
0.3202872758
 40
0.3524690062
 40
0.3845301827
 40
0.4164397934
 40
0.4481722512
 40
0.4797084083
 40
0.5110363787
 40
0.5421521198
 40
0.5730597435
 40
0.6037715204
 40
0.6343075558
 40
0.6646951112
 40
0.69496759
 40
0.7251632189
 40
0.7553234785
 40
0.7854913552
 40
0.8157095102
 40
0.8460184684
 40
0.8764549241
 40
0.9070502294
 40
0.9378293436
 40
0.9688091107
 40
1.0
 40
1.0
 40
1.0
 40
1.0
 10
11.771166468
 20
9.1572940159
 30
0.0
 10
11.7754782041
 20
9.156994996
 30
0.0
 10
11.7841059784
 20
9.1559701003
 30
0.0
 10
11.7968737694
 20
9.1531864755
 30
0.0
 10
11.8093940784
 20
9.149178391
 30
0.0
 10
11.821545115
 20
9.1439846853
 30
0.0
 10
11.8332106675
 20
9.137655546
 30
0.0
 10
11.8442787053
 20
9.1302519413
 30
0.0
 10
11.8546430975
 20
9.1218451127
 30
0.0
 10
11.8642044006
 20
9.1125158375
 30
0.0
 10
11.8728708481
 20
9.102353681
 30
0.0
 10
11.8805591902
 20
9.0914561488
 30
0.0
 10
11.8871955329
 20
9.079927804
 30
0.0
 10
11.8927160042
 20
9.0678792497
 30
0.0
 10
11.8970673524
 20
9.0554260914
 30
0.0
 10
11.9002074528
 20
9.0426878573
 30
0.0
 10
11.9021057399
 20
9.0297868887
 30
0.0
 10
11.9027435503
 20
9.0168471909
 30
0.0
 10
11.9021142723
 20
9.003993257
 30
0.0
 10
11.9002234566
 20
8.9913488982
 30
0.0
 10
11.897088796
 20
8.9790360698
 30
0.0
 10
11.8927400629
 20
8.9671736804
 30
0.0
 10
11.8872188397
 20
8.9558764218
 30
0.0
 10
11.8805781391
 20
8.9452536356
 30
0.0
 10
11.872881926
 20
8.9354082097
 30
0.0
 10
11.8642045169
 20
8.9264355223
 30
0.0
 10
11.8546298787
 20
8.9184224212
 30
0.0
 10
11.8442507243
 20
8.9114463757
 30
0.0
 10
11.8331675847
 20
8.9055746938
 30
0.0
 10
11.8214877297
 20
8.9008638896
 30
0.0
 10
11.8093242611
 20
8.8973590633
 30
0.0
 10
11.796794358
 20
8.8950936664
 30
0.0
 10
11.7840204658
 20
8.8940888163
 30
0.0
 10
11.7754491329
 20
8.8942651718
 30
0.0
 10
11.771166468
 20
8.8945621756
 30
0.0
  0
SPLINE
  5
387
100
AcDbEntity
  8
0
100
AcDbSpline
 62
7
  6
CONTINUOUS
 70
0
 71
3
 72
26
 73
22
 74
0
 42
0.0000001
 43
0.0000001
 44
0.0000000001
 40
0.0
 40
0.0
 40
0.0
 40
0.0
 40
0.0179669654
 40
0.0368794395
 40
0.0567485587
 40
0.0775809692
 40
0.0993787529
 40
0.1221409642
 40
0.1705347719
 40
0.2227006035
 40
0.2785368276
 40
0.3379125199
 40
0.4006721393
 40
0.4666389844
 40
0.5356179455
 40
0.6073976905
 40
0.6817524524
 40
0.7584444347
 40
0.8372225706
 40
0.917832276
 40
1.0
 40
1.0
 40
1.0
 40
1.0
 10
12.8074595187
 20
9.5985204794
 30
0.0
 10
12.8079193442
 20
9.5977649155
 30
0.0
 10
12.8088274842
 20
9.5961920844
 30
0.0
 10
12.8101256091
 20
9.5937176351
 30
0.0
 10
12.8113931965
 20
9.5910701272
 30
0.0
 10
12.8126290466
 20
9.5882519409
 30
0.0
 10
12.8138321781
 20
9.5852655573
 30
0.0
 10
12.8154237728
 20
9.5809747699
 30
0.0
 10
12.8173131063
 20
9.5752026398
 30
0.0
 10
12.8193897271
 20
9.5677868195
 30
0.0
 10
12.8213121388
 20
9.5597726836
 30
0.0
 10
12.8230733312
 20
9.551188826
 30
0.0
 10
12.8246668306
 20
9.5420657604
 30
0.0
 10
12.826086779
 20
9.5324361157
 30
0.0
 10
12.8273279504
 20
9.522334388
 30
0.0
 10
12.8283857725
 20
9.5117968356
 30
0.0
 10
12.8292563611
 20
9.5008612994
 30
0.0
 10
12.8299364922
 20
9.4895671697
 30
0.0
 10
12.8304237023
 20
9.4779549172
 30
0.0
 10
12.830716123
 20
9.4660665537
 30
0.0
 10
12.8307799812
 20
9.4580531022
 30
0.0
 10
12.8307799812
 20
9.4540081097
 30
0.0
  0
SPLINE
  5
388
100
AcDbEntity
  8
0
100
AcDbSpline
 62
7
  6
CONTINUOUS
 70
0
 71
3
 72
50
 73
46
 74
0
 42
0.0000001
 43
0.0000001
 44
0.0000000001
 40
0.0
 40
0.0
 40
0.0
 40
0.0
 40
0.0187306845
 40
0.027480653
 40
0.0358535572
 40
0.0515921597
 40
0.0590500858
 40
0.0662929425
 40
0.0733742679
 40
0.0803516522
 40
0.0872855819
 40
0.0942377528
 40
0.1012693626
 40
0.1084393503
 40
0.1158030482
 40
0.1234111457
 40
0.1313089823
 40
0.1395365815
 40
0.148128557
 40
0.1571144489
 40
0.1665193712
 40
0.1763641291
 40
0.1866659415
 40
0.1974389329
 40
0.2086941911
 40
0.2204405268
 40
0.2326845896
 40
0.2454309765
 40
0.2724395249
 40
0.3014764558
 40
0.3325304333
 40
0.3655748084
 40
0.4005700261
 40
0.4374656915
 40
0.4762021266
 40
0.5167114467
 40
0.5589183821
 40
0.6027412081
 40
0.6480924227
 40
0.6948792056
 40
0.7430038305
 40
0.7923645572
 40
0.8428556053
 40
0.8943668228
 40
1.0
 40
1.0
 40
1.0
 40
1.0
 10
12.8435024264
 20
9.6677442254
 30
0.0
 10
12.8446282373
 20
9.6687920045
 30
0.0
 10
12.846353525
 20
9.6702550998
 30
0.0
 10
12.8487613524
 20
9.6719518901
 30
0.0
 10
12.8510627618
 20
9.673362644
 30
0.0
 10
12.8534105452
 20
9.6744890659
 30
0.0
 10
12.8557833236
 20
9.6752825274
 30
0.0
 10
12.8575248009
 20
9.6757006054
 30
0.0
 10
12.8592583163
 20
9.6759515777
 30
0.0
 10
12.8609826673
 20
9.6760349729
 30
0.0
 10
12.8626963991
 20
9.6759506287
 30
0.0
 10
12.8643980783
 20
9.6756986098
 30
0.0
 10
12.8660862729
 20
9.6752791391
 30
0.0
 10
12.8677597001
 20
9.6746928401
 30
0.0
 10
12.8694171933
 20
9.6739403601
 30
0.0
 10
12.8710577084
 20
9.6730224584
 30
0.0
 10
12.8726803789
 20
9.671940041
 30
0.0
 10
12.8742843286
 20
9.6706939096
 30
0.0
 10
12.8758687681
 20
9.6692849753
 30
0.0
 10
12.877432946
 20
9.6677141897
 30
0.0
 10
12.8789760215
 20
9.665982476
 30
0.0
 10
12.8804972422
 20
9.664090909
 30
0.0
 10
12.8819958068
 20
9.6620405945
 30
0.0
 10
12.8834708607
 20
9.6598326987
 30
0.0
 10
12.8849216448
 20
9.6574685349
 30
0.0
 10
12.8863473078
 20
9.6549494577
 30
0.0
 10
12.8877470505
 20
9.6522769231
 30
0.0
 10
12.8896138822
 20
9.6484365201
 30
0.0
 10
12.891867738
 20
9.6432542273
 30
0.0
 10
12.8944066477
 20
9.6365661101
 30
0.0
 10
12.896823688
 20
9.6293088833
 30
0.0
 10
12.899113119
 20
9.6214995557
 30
0.0
 10
12.9012694911
 20
9.6131562933
 30
0.0
 10
12.9032876329
 20
9.6042987031
 30
0.0
 10
12.9051626798
 20
9.5949476455
 30
0.0
 10
12.9068901007
 20
9.5851252128
 30
0.0
 10
12.9084657424
 20
9.5748546627
 30
0.0
 10
12.9098858043
 20
9.5641603433
 30
0.0
 10
12.9111468504
 20
9.5530676235
 30
0.0
 10
12.9122458331
 20
9.5416028476
 30
0.0
 10
12.9131801173
 20
9.5297932456
 30
0.0
 10
12.9139474347
 20
9.5176668925
 30
0.0
 10
12.9145459392
 20
9.5052526303
 30
0.0
 10
12.9151216653
 20
9.4882132884
 30
0.0
 10
12.9152873665
 20
9.4753093729
 30
0.0
 10
12.9152873665
 20
9.4666359806
 30
0.0
  0
SPLINE
  5
389
100
AcDbEntity
  8
0
100
AcDbSpline
 62
7
  6
CONTINUOUS
 70
0
 71
3
 72
42
 73
38
 74
0
 42
0.0000001
 43
0.0000001
 44
0.0000000001
 40
0.0
 40
0.0
 40
0.0
 40
0.0
 40
0.0299419634
 40
0.0449235299
 40
0.0599142017
 40
0.0899287029
 40
0.1200139772
 40
0.1350926626
 40
0.1501967046
 40
0.1804840506
 40
0.2108978877
 40
0.2414513551
 40
0.2721543675
 40
0.3030134354
 40
0.3340315696
 40
0.3652082675
 40
0.3965395775
 40
0.4280182343
 40
0.4596338596
 40
0.4913732188
 40
0.5232205284
 40
0.5551578047
 40
0.5871652463
 40
0.6192216448
 40
0.6513048151
 40
0.6833920402
 40
0.7154605222
 40
0.747487836
 40
0.7794523759
 40
0.8113337934
 40
0.8431134117
 40
0.8747746318
 40
0.9063032512
 40
0.9376879208
 40
0.9533258
 40
0.9689252634
 40
1.0
 40
1.0
 40
1.0
 40
1.0
 10
9.9914633599
 20
7.7640678643
 30
0.0
 10
9.9878302208
 20
7.7605585428
 30
0.0
 10
9.9821663533
 20
7.7555072096
 30
0.0
 10
9.9742342345
 20
7.7492396053
 30
0.0
 10
9.9660495176
 20
7.7432838865
 30
0.0
 10
9.9553698078
 20
7.7364447918
 30
0.0
 10
9.9441708441
 20
7.7304625633
 30
0.0
 10
9.9349346013
 20
7.7262067999
 30
0.0
 10
9.9255075648
 20
7.7223023564
 30
0.0
 10
9.9134131045
 20
7.7181039761
 30
0.0
 10
9.8985085155
 20
7.714191191
 30
0.0
 10
9.883278706
 20
7.711419284
 30
0.0
 10
9.8678080775
 20
7.7098035473
 30
0.0
 10
9.8521816133
 20
7.7093526036
 30
0.0
 10
9.8364852948
 20
7.7100687479
 30
0.0
 10
9.8208053925
 20
7.7119478433
 30
0.0
 10
9.8052280605
 20
7.7149793805
 30
0.0
 10
9.7898388514
 20
7.7191465346
 30
0.0
 10
9.7747222574
 20
7.7244262658
 30
0.0
 10
9.7599612516
 20
7.7307894487
 30
0.0
 10
9.7456368397
 20
7.7382010344
 30
0.0
 10
9.731827621
 20
7.7466202443
 30
0.0
 10
9.7186093635
 20
7.7560007932
 30
0.0
 10
9.7060545929
 20
7.7662911423
 30
0.0
 10
9.6942321999
 20
7.7774347805
 30
0.0
 10
9.6832070659
 20
7.7893705315
 30
0.0
 10
9.673039711
 20
7.8020328864
 30
0.0
 10
9.6637859654
 20
7.8153523608
 30
0.0
 10
9.6554966645
 20
7.8292558673
 30
0.0
 10
9.6482173732
 20
7.8436671283
 30
0.0
 10
9.6419881379
 20
7.8585070295
 30
0.0
 10
9.6368432548
 20
7.8736942688
 30
0.0
 10
9.6328111458
 20
7.8891449822
 30
0.0
 10
9.6303938069
 20
7.9021870594
 30
0.0
 10
9.6290377515
 20
7.9126662104
 30
0.0
 10
9.628069968
 20
7.9231353336
 30
0.0
 10
9.6277769325
 20
7.9310132783
 30
0.0
 10
9.6277769325
 20
7.9362556196
 30
0.0
  0
SPLINE
  5
38A
100
AcDbEntity
  8
0
100
AcDbSpline
 62
7
  6
CONTINUOUS
 70
0
 71
3
 72
34
 73
30
 74
0
 42
0.0000001
 43
0.0000001
 44
0.0000000001
 40
0.0
 40
0.0
 40
0.0
 40
0.0
 40
0.0649702052
 40
0.0973588786
 40
0.1296574782
 40
0.1618568564
 40
0.1939498223
 40
0.2259307902
 40
0.2577952822
 40
0.3211389494
 40
0.3839932356
 40
0.4152505413
 40
0.4463889812
 40
0.5082968124
 40
0.5697882594
 40
0.6004171615
 40
0.6309736051
 40
0.6614729175
 40
0.6919332915
 40
0.7223756932
 40
0.7528241074
 40
0.7833053737
 40
0.8138485942
 40
0.8444841823
 40
0.8752424348
 40
0.9061518312
 40
0.9372368014
 40
0.9685159835
 40
1.0
 40
1.0
 40
1.0
 40
1.0
 10
9.2383492203
 20
7.482612799
 30
0.0
 10
9.2360135283
 20
7.4860165982
 30
0.0
 10
9.2328364375
 20
7.4913491144
 30
0.0
 10
9.2292787303
 20
7.4987829248
 30
0.0
 10
9.2269524664
 20
7.504486705
 30
0.0
 10
9.2249669176
 20
7.5102973671
 30
0.0
 10
9.2233212234
 20
7.516192287
 30
0.0
 10
9.2220147071
 20
7.5221498256
 30
0.0
 10
9.2207266564
 20
7.5301314591
 30
0.0
 10
9.2199552192
 20
7.5401669665
 30
0.0
 10
9.220306761
 20
7.550187888
 30
0.0
 10
9.2212661998
 20
7.5580920091
 30
0.0
 10
9.2226715385
 20
7.565867939
 30
0.0
 10
9.2252718714
 20
7.5753624688
 30
0.0
 10
9.2290199102
 20
7.5844345574
 30
0.0
 10
9.2326995348
 20
7.5913118654
 30
0.0
 10
9.235796316
 20
7.5962518794
 30
0.0
 10
9.239230927
 20
7.6009502212
 30
0.0
 10
9.2429995766
 20
7.605376207
 30
0.0
 10
9.2470959146
 20
7.6094968342
 30
0.0
 10
9.2515104587
 20
7.6132773695
 30
0.0
 10
9.256229761
 20
7.6166816617
 30
0.0
 10
9.2612355765
 20
7.6196728703
 30
0.0
 10
9.2665040657
 20
7.6222144835
 30
0.0
 10
9.2720052072
 20
7.6242717202
 30
0.0
 10
9.2777024548
 20
7.6258131986
 30
0.0
 10
9.2835532619
 20
7.6268128189
 30
0.0
 10
9.289508786
 20
7.6272516047
 30
0.0
 10
9.2935028169
 20
7.6271634918
 30
0.0
 10
9.2954984719
 20
7.6270250927
 30
0.0
  0
SPLINE
  5
38B
100
AcDbEntity
  8
0
100
AcDbSpline
 62
7
  6
CONTINUOUS
 70
0
 71
3
 72
17
 73
13
 74
0
 42
0.0000001
 43
0.0000001
 44
0.0000000001
 40
0.0
 40
0.0
 40
0.0
 40
0.0
 40
0.1261728123
 40
0.2521689974
 40
0.3779035912
 40
0.4406564972
 40
0.5033132022
 40
0.6282793035
 40
0.7527507902
 40
0.8147909668
 40
0.8766875853
 40
1.0
 40
1.0
 40
1.0
 40
1.0
 10
11.820156519
 20
7.9093875311
 30
0.0
 10
11.8231956241
 20
7.9057367324
 30
0.0
 10
11.8290297799
 20
7.8982364361
 30
0.0
 10
11.8369919426
 20
7.8864331411
 30
0.0
 10
11.8429255613
 20
7.8761752359
 30
0.0
 10
11.8472215132
 20
7.8677504112
 30
0.0
 10
11.8512030958
 20
7.8592044132
 30
0.0
 10
11.8555892983
 20
7.8482921965
 30
0.0
 10
11.85915959
 20
7.8371103974
 30
0.0
 10
11.8615034654
 20
7.8280546135
 30
0.0
 10
11.8634975466
 20
7.8189606047
 30
0.0
 10
11.8646055958
 20
7.8120674646
 30
0.0
 10
11.8651666697
 20
7.8074589737
 30
0.0
  0
SPLINE
  5
38C
100
AcDbEntity
  8
0
100
AcDbSpline
 62
4
  6
CONTINUOUS
 70
0
 71
3
 72
281
 73
277
 74
0
 42
0.0000001
 43
0.0000001
 44
0.0000000001
 40
0.0
 40
0.0
 40
0.0
 40
0.0
 40
0.015625
 40
0.0234375
 40
0.03125
 40
0.0390625
 40
0.046875
 40
0.05078125
 40
0.0546875
 40
0.056640625
 40
0.05859375
 40
0.060546875
 40
0.0615234375
 40
0.0620117188
 40
0.0625
 40
0.0629882812
 40
0.0634765625
 40
0.064453125
 40
0.06640625
 40
0.068359375
 40
0.0703125
 40
0.07421875
 40
0.078125
 40
0.0859375
 40
0.09375
 40
0.1015625
 40
0.109375
 40
0.11328125
 40
0.1171875
 40
0.119140625
 40
0.12109375
 40
0.123046875
 40
0.1240234375
 40
0.1245117188
 40
0.125
 40
0.1254882812
 40
0.1259765625
 40
0.126953125
 40
0.12890625
 40
0.130859375
 40
0.1328125
 40
0.13671875
 40
0.140625
 40
0.1484375
 40
0.15625
 40
0.1640625
 40
0.171875
 40
0.17578125
 40
0.1796875
 40
0.181640625
 40
0.18359375
 40
0.185546875
 40
0.1865234375
 40
0.1870117188
 40
0.1875
 40
0.1879882812
 40
0.1884765625
 40
0.189453125
 40
0.19140625
 40
0.193359375
 40
0.1953125
 40
0.19921875
 40
0.203125
 40
0.2109375
 40
0.21875
 40
0.2265625
 40
0.234375
 40
0.23828125
 40
0.2421875
 40
0.244140625
 40
0.24609375
 40
0.248046875
 40
0.2490234375
 40
0.2495117188
 40
0.25
 40
0.2504882812
 40
0.2509765625
 40
0.251953125
 40
0.25390625
 40
0.255859375
 40
0.2578125
 40
0.26171875
 40
0.265625
 40
0.2734375
 40
0.28125
 40
0.2890625
 40
0.296875
 40
0.30078125
 40
0.3046875
 40
0.306640625
 40
0.30859375
 40
0.310546875
 40
0.3115234375
 40
0.3120117188
 40
0.3125
 40
0.3129882812
 40
0.3134765625
 40
0.314453125
 40
0.31640625
 40
0.318359375
 40
0.3203125
 40
0.32421875
 40
0.328125
 40
0.3359375
 40
0.34375
 40
0.3515625
 40
0.359375
 40
0.36328125
 40
0.3671875
 40
0.369140625
 40
0.37109375
 40
0.373046875
 40
0.3740234375
 40
0.3745117188
 40
0.375
 40
0.3754882812
 40
0.3759765625
 40
0.376953125
 40
0.37890625
 40
0.380859375
 40
0.3828125
 40
0.38671875
 40
0.390625
 40
0.3984375
 40
0.40625
 40
0.4140625
 40
0.421875
 40
0.42578125
 40
0.4296875
 40
0.43359375
 40
0.435546875
 40
0.4365234375
 40
0.4375
 40
0.4384765625
 40
0.439453125
 40
0.44140625
 40
0.4453125
 40
0.44921875
 40
0.453125
 40
0.4609375
 40
0.46875
 40
0.4765625
 40
0.484375
 40
0.48828125
 40
0.4921875
 40
0.49609375
 40
0.498046875
 40
0.5
 40
0.501953125
 40
0.50390625
 40
0.5078125
 40
0.51171875
 40
0.515625
 40
0.5234375
 40
0.53125
 40
0.5390625
 40
0.546875
 40
0.5546875
 40
0.55859375
 40
0.560546875
 40
0.5625
 40
0.564453125
 40
0.56640625
 40
0.5703125
 40
0.578125
 40
0.5859375
 40
0.59375
 40
0.6015625
 40
0.609375
 40
0.6171875
 40
0.62109375
 40
0.623046875
 40
0.625
 40
0.626953125
 40
0.62890625
 40
0.6328125
 40
0.640625
 40
0.6484375
 40
0.65625
 40
0.6640625
 40
0.671875
 40
0.67578125
 40
0.6796875
 40
0.68359375
 40
0.685546875
 40
0.6865234375
 40
0.6875
 40
0.6884765625
 40
0.689453125
 40
0.69140625
 40
0.6953125
 40
0.69921875
 40
0.703125
 40
0.7109375
 40
0.71875
 40
0.7265625
 40
0.734375
 40
0.73828125
 40
0.7421875
 40
0.744140625
 40
0.74609375
 40
0.748046875
 40
0.7490234375
 40
0.75
 40
0.7509765625
 40
0.751953125
 40
0.75390625
 40
0.755859375
 40
0.7578125
 40
0.76171875
 40
0.765625
 40
0.7734375
 40
0.78125
 40
0.7890625
 40
0.796875
 40
0.80078125
 40
0.8046875
 40
0.806640625
 40
0.80859375
 40
0.810546875
 40
0.8115234375
 40
0.8120117188
 40
0.8125
 40
0.8129882812
 40
0.8134765625
 40
0.814453125
 40
0.81640625
 40
0.818359375
 40
0.8203125
 40
0.82421875
 40
0.828125
 40
0.8359375
 40
0.84375
 40
0.8515625
 40
0.859375
 40
0.86328125
 40
0.8671875
 40
0.869140625
 40
0.87109375
 40
0.873046875
 40
0.8740234375
 40
0.8745117188
 40
0.875
 40
0.8754882812
 40
0.8759765625
 40
0.876953125
 40
0.87890625
 40
0.880859375
 40
0.8828125
 40
0.88671875
 40
0.890625
 40
0.8984375
 40
0.90625
 40
0.9140625
 40
0.921875
 40
0.92578125
 40
0.9296875
 40
0.931640625
 40
0.93359375
 40
0.935546875
 40
0.9365234375
 40
0.9370117188
 40
0.9375
 40
0.9379882812
 40
0.9384765625
 40
0.939453125
 40
0.94140625
 40
0.943359375
 40
0.9453125
 40
0.94921875
 40
0.953125
 40
0.9609375
 40
0.96875
 40
0.9765625
 40
0.984375
 40
1.0
 40
1.0
 40
1.0
 40
1.0
 10
9.8339836192
 20
10.5280478351
 30
0.0
 10
9.8335054852
 20
10.5273003204
 30
0.0
 10
9.832788284
 20
10.5261790484
 30
0.0
 10
9.8318320166
 20
10.5246840191
 30
0.0
 10
9.8311148137
 20
10.5235627471
 30
0.0
 10
9.8303976197
 20
10.522441475
 30
0.0
 10
9.8297999306
 20
10.521507082
 30
0.0
 10
9.8293218408
 20
10.5207595666
 30
0.0
 10
9.8290228945
 20
10.5202923718
 30
0.0
 10
9.8287840585
 20
10.5199186105
 30
0.0
 10
9.8286040527
 20
10.5196383047
 30
0.0
 10
9.8284568432
 20
10.5194046684
 30
0.0
 10
9.8283483109
 20
10.5192412173
 30
0.0
 10
9.8282948578
 20
10.5191476694
 30
0.0
 10
9.8282306391
 20
10.5190779233
 30
0.0
 10
9.8282586536
 20
10.5190065916
 30
0.0
 10
9.8282638343
 20
10.5189120358
 30
0.0
 10
9.82828789
 20
10.5187463055
 30
0.0
 10
9.8283144186
 20
10.5185096825
 30
0.0
 10
9.8283496074
 20
10.5182256773
 30
0.0
 10
9.828395354
 20
10.5178470238
 30
0.0
 10
9.8284529386
 20
10.5173737001
 30
0.0
 10
9.8285448496
 20
10.516616386
 30
0.0
 10
9.8286598157
 20
10.515669742
 30
0.0
 10
9.8287977397
 20
10.5145337697
 30
0.0
 10
9.8289356814
 20
10.5133977976
 30
0.0
 10
9.8290506034
 20
10.5124511533
 30
0.0
 10
9.8291426027
 20
10.5116938399
 30
0.0
 10
9.8291999629
 20
10.5112205143
 30
0.0
 10
9.82924617
 20
10.5108418646
 30
0.0
 10
9.829279952
 20
10.5105578479
 30
0.0
 10
9.8293108819
 20
10.5103212608
 30
0.0
 10
9.8293270808
 20
10.5101554665
 30
0.0
 10
9.8293448501
 20
10.5100610131
 30
0.0
 10
9.8293341963
 20
10.5099893669
 30
0.0
 10
9.8294152092
 20
10.5099208021
 30
0.0
 10
9.829491252
 20
10.5098283075
 30
0.0
 10
9.8296392244
 20
10.5096669427
 30
0.0
 10
9.8298428249
 20
10.5094361599
 30
0.0
 10
9.8300904793
 20
10.5091593325
 30
0.0
 10
9.8304195208
 20
10.5087901902
 30
0.0
 10
9.8308312213
 20
10.5083287757
 30
0.0
 10
9.8314897192
 20
10.507590505
 30
0.0
 10
9.8323129186
 20
10.5066676692
 30
0.0
 10
9.8333007227
 20
10.505560265
 30
0.0
 10
9.8342885443
 20
10.5044528617
 30
0.0
 10
9.8351116997
 20
10.5035300238
 30
0.0
 10
9.8357702857
 20
10.5027917574
 30
0.0
 10
9.8361817624
 20
10.5023303321
 30
0.0
 10
9.8365112632
 20
10.5019612119
 30
0.0
 10
9.836757514
 20
10.5016843171
 30
0.0
 10
9.8369655061
 20
10.5014537451
 30
0.0
 10
9.8371056388
 20
10.5012920039
 30
0.0
 10
9.8371942428
 20
10.5012001125
 30
0.0
 10
9.8372366719
 20
10.5011296949
 30
0.0
 10
9.8373709322
 20
10.5010650075
 30
0.0
 10
9.8375179142
 20
10.5009767588
 30
0.0
 10
9.837790057
 20
10.500823255
 30
0.0
 10
9.8381710297
 20
10.5006034769
 30
0.0
 10
9.8386315368
 20
10.5003399516
 30
0.0
 10
9.8392443797
 20
10.4999885117
 30
0.0
 10
9.8400108328
 20
10.4995492368
 30
0.0
 10
9.8412369344
 20
10.4988463831
 30
0.0
 10
9.8427696385
 20
10.4979678207
 30
0.0
 10
9.8446088485
 20
10.4969135434
 30
0.0
 10
9.8464480748
 20
10.495859268
 30
0.0
 10
9.8479807383
 20
10.4949807009
 30
0.0
 10
9.8492069211
 20
10.4942778566
 30
0.0
 10
9.8499731678
 20
10.4938385576
 30
0.0
 10
9.8505864343
 20
10.4934871673
 30
0.0
 10
9.8510456474
 20
10.4932234907
 30
0.0
 10
9.8514306688
 20
10.4930041858
 30
0.0
 10
9.8516955841
 20
10.4928498373
 30
0.0
 10
9.8518541462
 20
10.492762942
 30
0.0
 10
9.851952836
 20
10.4926940977
 30
0.0
 10
9.8521288622
 20
10.4926392924
 30
0.0
 10
9.852336588
 20
10.4925613218
 30
0.0
 10
9.8527126766
 20
10.4924271547
 30
0.0
 10
9.8532433751
 20
10.4922342945
 30
0.0
 10
9.8538830259
 20
10.492003373
 30
0.0
 10
9.8547349113
 20
10.4916952992
 30
0.0
 10
9.8558001043
 20
10.4913102681
 30
0.0
 10
9.8575042251
 20
10.4906941841
 30
0.0
 10
9.8596344411
 20
10.489924091
 30
0.0
 10
9.8621906708
 20
10.4889999738
 30
0.0
 10
9.8647469145
 20
10.4880758595
 30
0.0
 10
9.8668770952
 20
10.4873057592
 30
0.0
 10
9.8685812866
 20
10.4866896895
 30
0.0
 10
9.8696463004
 20
10.486304622
 30
0.0
 10
9.8704985536
 20
10.4859966229
 30
0.0
 10
9.8711370808
 20
10.4857654734
 30
0.0
 10
9.8716712947
 20
10.4855733264
 30
0.0
 10
9.8720411078
 20
10.4854378863
 30
0.0
 10
9.8722588885
 20
10.4853619553
 30
0.0
 10
9.872404029
 20
10.4853008846
 30
0.0
 10
9.8726187202
 20
10.4852555725
 30
0.0
 10
9.872880715
 20
10.4851896595
 30
0.0
 10
9.8733505092
 20
10.485076873
 30
0.0
 10
9.8740157342
 20
10.4849144103
 30
0.0
 10
9.8748165337
 20
10.4847200283
 30
0.0
 10
9.8758833829
 20
10.4844606521
 30
0.0
 10
9.8772172468
 20
10.4841365004
 30
0.0
 10
9.8793512601
 20
10.4836178193
 30
0.0
 10
9.882018835
 20
10.4829694812
 30
0.0
 10
9.8852198985
 20
10.4821914693
 30
0.0
 10
9.8884209741
 20
10.4814134607
 30
0.0
 10
9.8910885188
 20
10.4807651143
 30
0.0
 10
9.8932225925
 20
10.4802464499
 30
0.0
 10
9.8945563028
 20
10.4799222558
 30
0.0
 10
9.8956234673
 20
10.4796629665
 30
0.0
 10
9.8964233034
 20
10.4794683189
 30
0.0
 10
9.8970915428
 20
10.4793066871
 30
0.0
 10
9.8975559559
 20
10.4791924174
 30
0.0
 10
9.8978265725
 20
10.4791288808
 30
0.0
 10
9.8980147803
 20
10.4790762695
 30
0.0
 10
9.8982593878
 20
10.4790426132
 30
0.0
 10
9.8985658583
 20
10.4789911265
 30
0.0
 10
9.8991113476
 20
10.4789041052
 30
0.0
 10
9.899885826
 20
10.4787781785
 30
0.0
 10
9.9008172512
 20
10.4786277558
 30
0.0
 10
9.902058435
 20
10.4784269515
 30
0.0
 10
9.9036101602
 20
10.4781760286
 30
0.0
 10
9.9060927829
 20
10.4777745056
 30
0.0
 10
9.9091961114
 20
10.477272619
 30
0.0
 10
9.9129200718
 20
10.4766703425
 30
0.0
 10
9.916644087
 20
10.4760680888
 30
0.0
 10
9.9197472783
 20
10.4755661453
 30
0.0
 10
9.9222301754
 20
10.4751647361
 30
0.0
 10
9.924091409
 20
10.4748632817
 30
0.0
 10
9.9256454241
 20
10.4746133339
 30
0.0
 10
9.9267273728
 20
10.4744358894
 30
0.0
 10
9.927354782
 20
10.4743383666
 30
0.0
 10
9.9277995552
 20
10.4742543112
 30
0.0
 10
9.9283428868
 20
10.4742119721
 30
0.0
 10
9.9290329507
 20
10.4741409687
 30
0.0
 10
9.9302565799
 20
10.4740234926
 30
0.0
 10
9.9319962476
 20
10.4738521251
 30
0.0
 10
9.9340874331
 20
10.4736480011
 30
0.0
 10
9.9368744288
 20
10.4733753064
 30
0.0
 10
9.9403586003
 20
10.4730346158
 30
0.0
 10
9.9445394345
 20
10.4726257277
 30
0.0
 10
9.948720272
 20
10.4722167925
 30
0.0
 10
9.9522044354
 20
10.47187622
 30
0.0
 10
9.9549914472
 20
10.471603289
 30
0.0
 10
9.9570825837
 20
10.4713998855
 30
0.0
 10
9.9588224046
 20
10.471226264
 30
0.0
 10
9.9602205254
 20
10.471096604
 30
0.0
 10
9.9612519995
 20
10.4709741186
 30
0.0
 10
9.9623488078
 20
10.4709479762
 30
0.0
 10
9.9637883967
 20
10.4708794659
 30
0.0
 10
9.965595713
 20
10.4708053743
 30
0.0
 10
9.9677611411
 20
10.4707115226
 30
0.0
 10
9.9706495488
 20
10.4705881112
 30
0.0
 10
9.9742596605
 20
10.4704332695
 30
0.0
 10
9.9785919492
 20
10.4702476449
 30
0.0
 10
9.9829242559
 20
10.4700622025
 30
0.0
 10
9.9872563358
 20
10.4698758461
 30
0.0
 10
9.9908671435
 20
10.4697234439
 30
0.0
 10
9.9933932517
 20
10.469611083
 30
0.0
 10
9.9948390178
 20
10.4695557444
 30
0.0
 10
9.9959169318
 20
10.4694892603
 30
0.0
 10
9.9970193502
 20
10.4695182631
 30
0.0
 10
9.998480694
 20
10.4695236265
 30
0.0
 10
10.0010420279
 20
10.4695485313
 30
0.0
 10
10.0046989959
 20
10.4695759912
 30
0.0
 10
10.0090882411
 20
10.4696124401
 30
0.0
 10
10.0134772805
 20
10.4696478903
 30
0.0
 10
10.0178662595
 20
10.4696838385
 30
0.0
 10
10.0222556861
 20
10.4697187932
 30
0.0
 10
10.0259120998
 20
10.4697508187
 30
0.0
 10
10.0284744214
 20
10.4697675884
 30
0.0
 10
10.0299341828
 20
10.4697859847
 30
0.0
 10
10.031041462
 20
10.4697749551
 30
0.0
 10
10.0321011195
 20
10.4698588257
 30
0.0
 10
10.0335306072
 20
10.4699375509
 30
0.0
 10
10.0360244711
 20
10.4700907432
 30
0.0
 10
10.0395911811
 20
10.4703015244
 30
0.0
 10
10.0438694965
 20
10.470557921
 30
0.0
 10
10.0481482828
 20
10.4708133847
 30
0.0
 10
10.0524269222
 20
10.4710691208
 30
0.0
 10
10.0559925524
 20
10.4712821035
 30
0.0
 10
10.0588448962
 20
10.4714526672
 30
0.0
 10
10.0609845767
 20
10.4715801356
 30
0.0
 10
10.0627663017
 20
10.4716878002
 30
0.0
 10
10.0640161428
 20
10.4717603382
 30
0.0
 10
10.0647262255
 20
10.4718062029
 30
0.0
 10
10.0652703716
 20
10.4718281658
 30
0.0
 10
10.0657702378
 20
10.471897664
 30
0.0
 10
10.0664521715
 20
10.4719737474
 30
0.0
 10
10.0676383591
 20
10.4721146188
 30
0.0
 10
10.0693366751
 20
10.4723118246
 30
0.0
 10
10.071373044
 20
10.4725502004
 30
0.0
 10
10.0740887649
 20
10.472867431
 30
0.0
 10
10.0774832239
 20
10.4732641761
 30
0.0
 10
10.0815566534
 20
10.4737401829
 30
0.0
 10
10.0856300754
 20
10.474216208
 30
0.0
 10
10.0890245532
 20
10.4746129071
 30
0.0
 10
10.0917402365
 20
10.4749302298
 30
0.0
 10
10.0934373061
 20
10.4751286421
 30
0.0
 10
10.0947954943
 20
10.4752871755
 30
0.0
 10
10.0958126774
 20
10.4754066137
 30
0.0
 10
10.0966649685
 20
10.4755044337
 30
0.0
 10
10.0973363979
 20
10.4755865288
 30
0.0
 10
10.0978683973
 20
10.47563761
 30
0.0
 10
10.0982918888
 20
10.4757287321
 30
0.0
 10
10.0988944473
 20
10.4758362415
 30
0.0
 10
10.0996346411
 20
10.475975427
 30
0.0
 10
10.1005284399
 20
10.4761403955
 30
0.0
 10
10.1017182275
 20
10.476361071
 30
0.0
 10
10.1032061276
 20
10.4766366697
 30
0.0
 10
10.1055863958
 20
10.477077765
 30
0.0
 10
10.1085618584
 20
10.477629087
 30
0.0
 10
10.1121323603
 20
10.4782906931
 30
0.0
 10
10.1157028711
 20
10.4789522956
 30
0.0
 10
10.1186783116
 20
10.4795036269
 30
0.0
 10
10.1210586241
 20
10.4799447036
 30
0.0
 10
10.1225464118
 20
10.4802203493
 30
0.0
 10
10.1237364301
 20
10.4804409284
 30
0.0
 10
10.1246295239
 20
10.4806061913
 30
0.0
 10
10.1253719234
 20
10.4807444559
 30
0.0
 10
10.1258952244
 20
10.4808401705
 30
0.0
 10
10.1261885992
 20
10.4808965363
 30
0.0
 10
10.1264245588
 20
10.4809341014
 30
0.0
 10
10.1265996314
 20
10.4809896675
 30
0.0
 10
10.1268542997
 20
10.4810574767
 30
0.0
 10
10.1272900738
 20
10.4811790682
 30
0.0
 10
10.1279177817
 20
10.481351241
 30
0.0
 10
10.1286688169
 20
10.481558503
 30
0.0
 10
10.1296709704
 20
10.4818346237
 30
0.0
 10
10.1309233976
 20
10.4821798528
 30
0.0
 10
10.1329274291
 20
10.4827321756
 30
0.0
 10
10.1354324173
 20
10.4834225942
 30
0.0
 10
10.1384384268
 20
10.4842510897
 30
0.0
 10
10.1414444234
 20
10.4850795884
 30
0.0
 10
10.1439494438
 20
10.4857699992
 30
0.0
 10
10.1459534109
 20
10.4863223376
 30
0.0
 10
10.1472060017
 20
10.486667527
 30
0.0
 10
10.1482078194
 20
10.4869437293
 30
0.0
 10
10.1489598805
 20
10.4871507419
 30
0.0
 10
10.1495843785
 20
10.4873236948
 30
0.0
 10
10.1500258829
 20
10.4874438937
 30
0.0
 10
10.1502713699
 20
10.4875139344
 30
0.0
 10
10.1504746444
 20
10.4875626461
 30
0.0
 10
10.1506046824
 20
10.4876259551
 30
0.0
 10
10.1508036121
 20
10.4877052754
 30
0.0
 10
10.1511398369
 20
10.4878464583
 30
0.0
 10
10.1516263806
 20
10.4880469079
 30
0.0
 10
10.1522075696
 20
10.4882879783
 30
0.0
 10
10.1529834186
 20
10.4886092201
 30
0.0
 10
10.1539529112
 20
10.4890108358
 30
0.0
 10
10.1555042776
 20
10.4896533854
 30
0.0
 10
10.157443424
 20
10.4904565846
 30
0.0
 10
10.159770428
 20
10.4914204181
 30
0.0
 10
10.1620974172
 20
10.4923842543
 30
0.0
 10
10.1640366005
 20
10.493187447
 30
0.0
 10
10.165587893
 20
10.4938300097
 30
0.0
 10
10.1665575733
 20
10.494231592
 30
0.0
 10
10.1673330372
 20
10.4945529023
 30
0.0
 10
10.1679154028
 20
10.4947937634
 30
0.0
 10
10.1683982651
 20
10.4949948676
 30
0.0
 10
10.1687410619
 20
10.4951348819
 30
0.0
 10
10.1689294616
 20
10.4952160746
 30
0.0
 10
10.1690918443
 20
10.4952736324
 30
0.0
 10
10.1691736374
 20
10.4953439447
 30
0.0
 10
10.1693108054
 20
10.4954332455
 30
0.0
 10
10.1695377522
 20
10.4955915947
 30
0.0
 10
10.1698688093
 20
10.4958167242
 30
0.0
 10
10.1702631468
 20
10.4960873434
 30
0.0
 10
10.170789954
 20
10.4964480071
 30
0.0
 10
10.1714481124
 20
10.4968988921
 30
0.0
 10
10.1725013617
 20
10.497620277
 30
0.0
 10
10.1738178561
 20
10.4985220189
 30
0.0
 10
10.1753976783
 20
10.4996041046
 30
0.0
 10
10.1769774928
 20
10.5006861915
 30
0.0
 10
10.1790839147
 20
10.5021289737
 30
0.0
 10
10.1806637306
 20
10.5032110604
 30
0.0
 10
10.1817169413
 20
10.5039324515
 30
0.0
  0
SPLINE
  5
38D
100
AcDbEntity
  8
0
100
AcDbSpline
 62
4
  6
CONTINUOUS
 70
0
 71
3
 72
281
 73
277
 74
0
 42
0.0000001
 43
0.0000001
 44
0.0000000001
 40
0.0
 40
0.0
 40
0.0
 40
0.0
 40
0.015625
 40
0.0234375
 40
0.03125
 40
0.0390625
 40
0.046875
 40
0.05078125
 40
0.0546875
 40
0.056640625
 40
0.05859375
 40
0.060546875
 40
0.0615234375
 40
0.0620117188
 40
0.0625
 40
0.0629882812
 40
0.0634765625
 40
0.064453125
 40
0.06640625
 40
0.068359375
 40
0.0703125
 40
0.07421875
 40
0.078125
 40
0.0859375
 40
0.09375
 40
0.1015625
 40
0.109375
 40
0.11328125
 40
0.1171875
 40
0.119140625
 40
0.12109375
 40
0.123046875
 40
0.1240234375
 40
0.1245117188
 40
0.125
 40
0.1254882812
 40
0.1259765625
 40
0.126953125
 40
0.12890625
 40
0.130859375
 40
0.1328125
 40
0.13671875
 40
0.140625
 40
0.1484375
 40
0.15625
 40
0.1640625
 40
0.171875
 40
0.17578125
 40
0.1796875
 40
0.181640625
 40
0.18359375
 40
0.185546875
 40
0.1865234375
 40
0.1870117188
 40
0.1875
 40
0.1879882812
 40
0.1884765625
 40
0.189453125
 40
0.19140625
 40
0.193359375
 40
0.1953125
 40
0.19921875
 40
0.203125
 40
0.2109375
 40
0.21875
 40
0.2265625
 40
0.234375
 40
0.23828125
 40
0.2421875
 40
0.244140625
 40
0.24609375
 40
0.248046875
 40
0.2490234375
 40
0.2495117188
 40
0.25
 40
0.2504882812
 40
0.2509765625
 40
0.251953125
 40
0.25390625
 40
0.255859375
 40
0.2578125
 40
0.26171875
 40
0.265625
 40
0.2734375
 40
0.28125
 40
0.2890625
 40
0.296875
 40
0.30078125
 40
0.3046875
 40
0.306640625
 40
0.30859375
 40
0.310546875
 40
0.3115234375
 40
0.3120117188
 40
0.3125
 40
0.3129882812
 40
0.3134765625
 40
0.314453125
 40
0.31640625
 40
0.318359375
 40
0.3203125
 40
0.32421875
 40
0.328125
 40
0.3359375
 40
0.34375
 40
0.3515625
 40
0.359375
 40
0.36328125
 40
0.3671875
 40
0.369140625
 40
0.37109375
 40
0.373046875
 40
0.3740234375
 40
0.3745117188
 40
0.375
 40
0.3754882812
 40
0.3759765625
 40
0.376953125
 40
0.37890625
 40
0.380859375
 40
0.3828125
 40
0.38671875
 40
0.390625
 40
0.3984375
 40
0.40625
 40
0.4140625
 40
0.421875
 40
0.42578125
 40
0.4296875
 40
0.43359375
 40
0.435546875
 40
0.4365234375
 40
0.4375
 40
0.4384765625
 40
0.439453125
 40
0.44140625
 40
0.4453125
 40
0.44921875
 40
0.453125
 40
0.4609375
 40
0.46875
 40
0.4765625
 40
0.484375
 40
0.48828125
 40
0.4921875
 40
0.49609375
 40
0.498046875
 40
0.5
 40
0.501953125
 40
0.50390625
 40
0.5078125
 40
0.51171875
 40
0.515625
 40
0.5234375
 40
0.53125
 40
0.5390625
 40
0.546875
 40
0.5546875
 40
0.55859375
 40
0.560546875
 40
0.5625
 40
0.564453125
 40
0.56640625
 40
0.5703125
 40
0.578125
 40
0.5859375
 40
0.59375
 40
0.6015625
 40
0.609375
 40
0.6171875
 40
0.62109375
 40
0.623046875
 40
0.625
 40
0.626953125
 40
0.62890625
 40
0.6328125
 40
0.640625
 40
0.6484375
 40
0.65625
 40
0.6640625
 40
0.671875
 40
0.67578125
 40
0.6796875
 40
0.68359375
 40
0.685546875
 40
0.6865234375
 40
0.6875
 40
0.6884765625
 40
0.689453125
 40
0.69140625
 40
0.6953125
 40
0.69921875
 40
0.703125
 40
0.7109375
 40
0.71875
 40
0.7265625
 40
0.734375
 40
0.73828125
 40
0.7421875
 40
0.744140625
 40
0.74609375
 40
0.748046875
 40
0.7490234375
 40
0.75
 40
0.7509765625
 40
0.751953125
 40
0.75390625
 40
0.755859375
 40
0.7578125
 40
0.76171875
 40
0.765625
 40
0.7734375
 40
0.78125
 40
0.7890625
 40
0.796875
 40
0.80078125
 40
0.8046875
 40
0.806640625
 40
0.80859375
 40
0.810546875
 40
0.8115234375
 40
0.8120117188
 40
0.8125
 40
0.8129882812
 40
0.8134765625
 40
0.814453125
 40
0.81640625
 40
0.818359375
 40
0.8203125
 40
0.82421875
 40
0.828125
 40
0.8359375
 40
0.84375
 40
0.8515625
 40
0.859375
 40
0.86328125
 40
0.8671875
 40
0.869140625
 40
0.87109375
 40
0.873046875
 40
0.8740234375
 40
0.8745117188
 40
0.875
 40
0.8754882812
 40
0.8759765625
 40
0.876953125
 40
0.87890625
 40
0.880859375
 40
0.8828125
 40
0.88671875
 40
0.890625
 40
0.8984375
 40
0.90625
 40
0.9140625
 40
0.921875
 40
0.92578125
 40
0.9296875
 40
0.931640625
 40
0.93359375
 40
0.935546875
 40
0.9365234375
 40
0.9370117188
 40
0.9375
 40
0.9379882812
 40
0.9384765625
 40
0.939453125
 40
0.94140625
 40
0.943359375
 40
0.9453125
 40
0.94921875
 40
0.953125
 40
0.9609375
 40
0.96875
 40
0.9765625
 40
0.984375
 40
1.0
 40
1.0
 40
1.0
 40
1.0
 10
10.1817169372
 20
10.5039324475
 30
0.0
 10
10.1821950712
 20
10.5046799622
 30
0.0
 10
10.1829122724
 20
10.5058012342
 30
0.0
 10
10.1838685398
 20
10.5072962636
 30
0.0
 10
10.1845857427
 20
10.5084175355
 30
0.0
 10
10.1853029367
 20
10.5095388077
 30
0.0
 10
10.1859006258
 20
10.5104732006
 30
0.0
 10
10.1863787156
 20
10.511220716
 30
0.0
 10
10.1866776619
 20
10.5116879108
 30
0.0
 10
10.1869164979
 20
10.5120616721
 30
0.0
 10
10.1870965037
 20
10.512341978
 30
0.0
 10
10.1872437132
 20
10.5125756142
 30
0.0
 10
10.1873522455
 20
10.5127390653
 30
0.0
 10
10.1874056986
 20
10.5128326132
 30
0.0
 10
10.1874699173
 20
10.5129023593
 30
0.0
 10
10.1874419028
 20
10.512973691
 30
0.0
 10
10.1874367221
 20
10.5130682468
 30
0.0
 10
10.1874126664
 20
10.5132339772
 30
0.0
 10
10.1873861378
 20
10.5134706001
 30
0.0
 10
10.187350949
 20
10.5137546053
 30
0.0
 10
10.1873052023
 20
10.5141332588
 30
0.0
 10
10.1872476178
 20
10.5146065825
 30
0.0
 10
10.1871557068
 20
10.5153638967
 30
0.0
 10
10.1870407407
 20
10.5163105406
 30
0.0
 10
10.1869028167
 20
10.5174465129
 30
0.0
 10
10.186764875
 20
10.518582485
 30
0.0
 10
10.1866499529
 20
10.5195291293
 30
0.0
 10
10.1865579537
 20
10.5202864427
 30
0.0
 10
10.1865005935
 20
10.5207597683
 30
0.0
 10
10.1864543864
 20
10.521138418
 30
0.0
 10
10.1864206044
 20
10.5214224347
 30
0.0
 10
10.1863896745
 20
10.5216590218
 30
0.0
 10
10.1863734756
 20
10.5218248161
 30
0.0
 10
10.1863557063
 20
10.5219192695
 30
0.0
 10
10.1863663601
 20
10.5219909157
 30
0.0
 10
10.1862853472
 20
10.5220594806
 30
0.0
 10
10.1862093044
 20
10.5221519751
 30
0.0
 10
10.186061332
 20
10.5223133399
 30
0.0
 10
10.1858577315
 20
10.5225441228
 30
0.0
 10
10.1856100771
 20
10.5228209501
 30
0.0
 10
10.1852810356
 20
10.5231900925
 30
0.0
 10
10.1848693351
 20
10.523651507
 30
0.0
 10
10.1842108372
 20
10.5243897776
 30
0.0
 10
10.1833876378
 20
10.5253126134
 30
0.0
 10
10.1823998337
 20
10.5264200176
 30
0.0
 10
10.1814120121
 20
10.5275274209
 30
0.0
 10
10.1805888567
 20
10.5284502588
 30
0.0
 10
10.1799302707
 20
10.5291885252
 30
0.0
 10
10.179518794
 20
10.5296499505
 30
0.0
 10
10.1791892931
 20
10.5300190707
 30
0.0
 10
10.1789430424
 20
10.5302959655
 30
0.0
 10
10.1787350503
 20
10.5305265375
 30
0.0
 10
10.1785949176
 20
10.5306882787
 30
0.0
 10
10.1785063136
 20
10.5307801701
 30
0.0
 10
10.1784638845
 20
10.5308505877
 30
0.0
 10
10.1783296242
 20
10.5309152751
 30
0.0
 10
10.1781826422
 20
10.5310035238
 30
0.0
 10
10.1779104994
 20
10.5311570276
 30
0.0
 10
10.1775295267
 20
10.5313768057
 30
0.0
 10
10.1770690196
 20
10.531640331
 30
0.0
 10
10.1764561767
 20
10.5319917709
 30
0.0
 10
10.1756897236
 20
10.5324310458
 30
0.0
 10
10.174463622
 20
10.5331338996
 30
0.0
 10
10.1729309179
 20
10.5340124619
 30
0.0
 10
10.1710917078
 20
10.5350667392
 30
0.0
 10
10.1692524816
 20
10.5361210146
 30
0.0
 10
10.1677198181
 20
10.5369995817
 30
0.0
 10
10.1664936353
 20
10.537702426
 30
0.0
 10
10.1657273886
 20
10.538141725
 30
0.0
 10
10.1651141221
 20
10.5384931154
 30
0.0
 10
10.164654909
 20
10.5387567919
 30
0.0
 10
10.1642698876
 20
10.5389760968
 30
0.0
 10
10.1640049723
 20
10.5391304453
 30
0.0
 10
10.1638464102
 20
10.5392173407
 30
0.0
 10
10.1637477204
 20
10.5392861849
 30
0.0
 10
10.1635716942
 20
10.5393409902
 30
0.0
 10
10.1633639684
 20
10.5394189609
 30
0.0
 10
10.1629878798
 20
10.539553128
 30
0.0
 10
10.1624571813
 20
10.5397459881
 30
0.0
 10
10.1618175305
 20
10.5399769096
 30
0.0
 10
10.1609656451
 20
10.5402849834
 30
0.0
 10
10.1599004521
 20
10.5406700145
 30
0.0
 10
10.1581963312
 20
10.5412860985
 30
0.0
 10
10.1560661153
 20
10.5420561916
 30
0.0
 10
10.1535098856
 20
10.5429803088
 30
0.0
 10
10.1509536419
 20
10.5439044232
 30
0.0
 10
10.1488234612
 20
10.5446745234
 30
0.0
 10
10.1471192698
 20
10.5452905931
 30
0.0
 10
10.146054256
 20
10.5456756606
 30
0.0
 10
10.1452020028
 20
10.5459836597
 30
0.0
 10
10.1445634756
 20
10.5462148092
 30
0.0
 10
10.1440292617
 20
10.5464069562
 30
0.0
 10
10.1436594486
 20
10.5465423964
 30
0.0
 10
10.1434416679
 20
10.5466183273
 30
0.0
 10
10.1432965273
 20
10.5466793981
 30
0.0
 10
10.1430818362
 20
10.5467247102
 30
0.0
 10
10.1428198414
 20
10.5467906231
 30
0.0
 10
10.1423500472
 20
10.5469034097
 30
0.0
 10
10.1416848222
 20
10.5470658723
 30
0.0
 10
10.1408840227
 20
10.5472602543
 30
0.0
 10
10.1398171735
 20
10.5475196305
 30
0.0
 10
10.1384833096
 20
10.5478437823
 30
0.0
 10
10.1363492963
 20
10.5483624633
 30
0.0
 10
10.1336817214
 20
10.5490108015
 30
0.0
 10
10.1304806579
 20
10.5497888133
 30
0.0
 10
10.1272795823
 20
10.5505668219
 30
0.0
 10
10.1246120376
 20
10.5512151683
 30
0.0
 10
10.1224779639
 20
10.5517338327
 30
0.0
 10
10.1211442536
 20
10.5520580268
 30
0.0
 10
10.1200770891
 20
10.5523173161
 30
0.0
 10
10.119277253
 20
10.5525119637
 30
0.0
 10
10.1186090136
 20
10.5526735955
 30
0.0
 10
10.1181446005
 20
10.5527878652
 30
0.0
 10
10.1178739839
 20
10.5528514018
 30
0.0
 10
10.1176857761
 20
10.5529040131
 30
0.0
 10
10.1174411686
 20
10.5529376694
 30
0.0
 10
10.1171346981
 20
10.5529891561
 30
0.0
 10
10.1165892088
 20
10.5530761775
 30
0.0
 10
10.1158147304
 20
10.5532021041
 30
0.0
 10
10.1148833052
 20
10.5533525268
 30
0.0
 10
10.1136421214
 20
10.5535533311
 30
0.0
 10
10.1120903962
 20
10.553804254
 30
0.0
 10
10.1096077735
 20
10.554205777
 30
0.0
 10
10.106504445
 20
10.5547076636
 30
0.0
 10
10.1027804846
 20
10.5553099401
 30
0.0
 10
10.0990564694
 20
10.5559121938
 30
0.0
 10
10.0959532781
 20
10.5564141373
 30
0.0
 10
10.093470381
 20
10.5568155466
 30
0.0
 10
10.0916091474
 20
10.557117001
 30
0.0
 10
10.0900551323
 20
10.5573669487
 30
0.0
 10
10.0889731836
 20
10.5575443932
 30
0.0
 10
10.0883457744
 20
10.557641916
 30
0.0
 10
10.0879010012
 20
10.5577259714
 30
0.0
 10
10.0873576696
 20
10.5577683106
 30
0.0
 10
10.0866676057
 20
10.5578393139
 30
0.0
 10
10.0854439765
 20
10.55795679
 30
0.0
 10
10.0837043088
 20
10.5581281576
 30
0.0
 10
10.0816131233
 20
10.5583322815
 30
0.0
 10
10.0788261276
 20
10.5586049763
 30
0.0
 10
10.0753419561
 20
10.5589456669
 30
0.0
 10
10.0711611219
 20
10.5593545549
 30
0.0
 10
10.0669802844
 20
10.5597634902
 30
0.0
 10
10.0634961209
 20
10.5601040627
 30
0.0
 10
10.0607091092
 20
10.5603769936
 30
0.0
 10
10.0586179727
 20
10.5605803971
 30
0.0
 10
10.0568781518
 20
10.5607540186
 30
0.0
 10
10.0554800309
 20
10.5608836786
 30
0.0
 10
10.0544485569
 20
10.561006164
 30
0.0
 10
10.0533517486
 20
10.5610323064
 30
0.0
 10
10.0519121597
 20
10.5611008167
 30
0.0
 10
10.0501048434
 20
10.5611749083
 30
0.0
 10
10.0479394153
 20
10.5612687601
 30
0.0
 10
10.0450510076
 20
10.5613921714
 30
0.0
 10
10.0414408959
 20
10.5615470131
 30
0.0
 10
10.0371086072
 20
10.5617326377
 30
0.0
 10
10.0327763005
 20
10.5619180801
 30
0.0
 10
10.0284442206
 20
10.5621044365
 30
0.0
 10
10.0248334129
 20
10.5622568387
 30
0.0
 10
10.0223073047
 20
10.5623691996
 30
0.0
 10
10.0208615386
 20
10.5624245382
 30
0.0
 10
10.0197836246
 20
10.5624910223
 30
0.0
 10
10.0186812062
 20
10.5624620195
 30
0.0
 10
10.0172198624
 20
10.5624566561
 30
0.0
 10
10.0146585285
 20
10.5624317513
 30
0.0
 10
10.0110015605
 20
10.5624042914
 30
0.0
 10
10.0066123153
 20
10.5623678425
 30
0.0
 10
10.0022232759
 20
10.5623323923
 30
0.0
 10
9.9978342969
 20
10.5622964441
 30
0.0
 10
9.9934448703
 20
10.5622614894
 30
0.0
 10
9.9897884566
 20
10.5622294639
 30
0.0
 10
9.987226135
 20
10.5622126942
 30
0.0
 10
9.9857663736
 20
10.562194298
 30
0.0
 10
9.9846590944
 20
10.5622053276
 30
0.0
 10
9.9835994369
 20
10.5621214569
 30
0.0
 10
9.9821699492
 20
10.5620427317
 30
0.0
 10
9.9796760853
 20
10.5618895394
 30
0.0
 10
9.9761093753
 20
10.5616787582
 30
0.0
 10
9.9718310599
 20
10.5614223616
 30
0.0
 10
9.9675522736
 20
10.561166898
 30
0.0
 10
9.9632736342
 20
10.5609111618
 30
0.0
 10
9.959708004
 20
10.5606981792
 30
0.0
 10
9.9568556602
 20
10.5605276154
 30
0.0
 10
9.9547159797
 20
10.560400147
 30
0.0
 10
9.9529342547
 20
10.5602924824
 30
0.0
 10
9.9516844136
 20
10.5602199445
 30
0.0
 10
9.9509743309
 20
10.5601740797
 30
0.0
 10
9.9504301848
 20
10.5601521168
 30
0.0
 10
9.9499303186
 20
10.5600826186
 30
0.0
 10
9.9492483849
 20
10.5600065352
 30
0.0
 10
9.9480621973
 20
10.5598656639
 30
0.0
 10
9.9463638813
 20
10.559668458
 30
0.0
 10
9.9443275124
 20
10.5594300822
 30
0.0
 10
9.9416117915
 20
10.5591128516
 30
0.0
 10
9.9382173325
 20
10.5587161065
 30
0.0
 10
9.934143903
 20
10.5582400998
 30
0.0
 10
9.930070481
 20
10.5577640746
 30
0.0
 10
9.9266760032
 20
10.5573673755
 30
0.0
 10
9.9239603199
 20
10.5570500528
 30
0.0
 10
9.9222632503
 20
10.5568516405
 30
0.0
 10
9.9209050621
 20
10.5566931071
 30
0.0
 10
9.919887879
 20
10.556573669
 30
0.0
 10
9.9190355879
 20
10.5564758489
 30
0.0
 10
9.9183641585
 20
10.5563937538
 30
0.0
 10
9.9178321591
 20
10.5563426726
 30
0.0
 10
9.9174086676
 20
10.5562515505
 30
0.0
 10
9.9168061091
 20
10.5561440411
 30
0.0
 10
9.9160659153
 20
10.5560048556
 30
0.0
 10
9.9151721165
 20
10.5558398871
 30
0.0
 10
9.9139823289
 20
10.5556192116
 30
0.0
 10
9.9124944288
 20
10.5553436129
 30
0.0
 10
9.9101141606
 20
10.5549025177
 30
0.0
 10
9.907138698
 20
10.5543511956
 30
0.0
 10
9.9035681961
 20
10.5536895895
 30
0.0
 10
9.8999976852
 20
10.553027987
 30
0.0
 10
9.8970222448
 20
10.5524766558
 30
0.0
 10
9.8946419323
 20
10.552035579
 30
0.0
 10
9.8931541446
 20
10.5517599333
 30
0.0
 10
9.8919641263
 20
10.5515393542
 30
0.0
 10
9.8910710325
 20
10.5513740913
 30
0.0
 10
9.890328633
 20
10.5512358267
 30
0.0
 10
9.889805332
 20
10.5511401121
 30
0.0
 10
9.8895119572
 20
10.5510837463
 30
0.0
 10
9.8892759976
 20
10.5510461812
 30
0.0
 10
9.889100925
 20
10.5509906151
 30
0.0
 10
9.8888462567
 20
10.5509228059
 30
0.0
 10
9.8884104825
 20
10.5508012144
 30
0.0
 10
9.8877827747
 20
10.5506290416
 30
0.0
 10
9.8870317395
 20
10.5504217796
 30
0.0
 10
9.886029586
 20
10.550145659
 30
0.0
 10
9.8847771588
 20
10.5498004298
 30
0.0
 10
9.8827731273
 20
10.549248107
 30
0.0
 10
9.8802681391
 20
10.5485576884
 30
0.0
 10
9.8772621296
 20
10.5477291929
 30
0.0
 10
9.874256133
 20
10.5469006942
 30
0.0
 10
9.8717511126
 20
10.5462102834
 30
0.0
 10
9.8697471455
 20
10.545657945
 30
0.0
 10
9.8684945547
 20
10.5453127556
 30
0.0
 10
9.867492737
 20
10.5450365534
 30
0.0
 10
9.8667406759
 20
10.5448295407
 30
0.0
 10
9.8661161779
 20
10.5446565878
 30
0.0
 10
9.8656746735
 20
10.5445363889
 30
0.0
 10
9.8654291865
 20
10.5444663483
 30
0.0
 10
9.865225912
 20
10.5444176365
 30
0.0
 10
9.865095874
 20
10.5443543275
 30
0.0
 10
9.8648969443
 20
10.5442750072
 30
0.0
 10
9.8645607195
 20
10.5441338243
 30
0.0
 10
9.8640741758
 20
10.5439333747
 30
0.0
 10
9.8634929868
 20
10.5436923043
 30
0.0
 10
9.8627171378
 20
10.5433710625
 30
0.0
 10
9.8617476452
 20
10.5429694469
 30
0.0
 10
9.8601962788
 20
10.5423268973
 30
0.0
 10
9.8582571324
 20
10.541523698
 30
0.0
 10
9.8559301284
 20
10.5405598645
 30
0.0
 10
9.8536031392
 20
10.5395960283
 30
0.0
 10
9.8516639559
 20
10.5387928356
 30
0.0
 10
9.8501126634
 20
10.5381502729
 30
0.0
 10
9.8491429831
 20
10.5377486906
 30
0.0
 10
9.8483675192
 20
10.5374273804
 30
0.0
 10
9.8477851536
 20
10.5371865192
 30
0.0
 10
9.8473022913
 20
10.536985415
 30
0.0
 10
9.8469594945
 20
10.5368454007
 30
0.0
 10
9.8467710948
 20
10.536764208
 30
0.0
 10
9.846608712
 20
10.5367066502
 30
0.0
 10
9.846526919
 20
10.5366363379
 30
0.0
 10
9.846389751
 20
10.5365470371
 30
0.0
 10
9.8461628042
 20
10.5363886879
 30
0.0
 10
9.8458317471
 20
10.5361635584
 30
0.0
 10
9.8454374096
 20
10.5358929392
 30
0.0
 10
9.8449106024
 20
10.5355322756
 30
0.0
 10
9.844252444
 20
10.5350813906
 30
0.0
 10
9.8431991947
 20
10.5343600056
 30
0.0
 10
9.8418827002
 20
10.5334582637
 30
0.0
 10
9.8403028781
 20
10.532376178
 30
0.0
 10
9.8387230636
 20
10.5312940911
 30
0.0
 10
9.8366166417
 20
10.5298513089
 30
0.0
 10
9.8350368258
 20
10.5287692222
 30
0.0
 10
9.8339836151
 20
10.5280478311
 30
0.0
  0
ELLIPSE
  5
38E
100
AcDbEntity
  8
0
100
AcDbEllipse
 62
7
  6
CONTINUOUS
 10
11.1375191861
 20
8.2546303709
 30
0.0
 11
0.2130762046
 21
-0.0318493087
 31
0.0
 40
0.9139820952
 41
0.0
 42
6.2831853072
  0
ENDSEC
  0
SECTION
  2
OBJECTS
  0
DICTIONARY
  5
C
100
AcDbDictionary
280
0
281
1
  3
ACAD_GROUP
350
D
  3
ACAD_MLINESTYLE
350
17
  3
ACAD_LAYOUT
350
1A
  3
ACAD_PLOTSETTINGS
350
19
  3
ACAD_PLOTSTYLENAME
350
E
  3
ACAD_IMAGE_DICT
350
       390
  3
ACAD_IMAGE_VARS
350
       391
  3
ACAD_TABLESTYLE
350
       392
  0
IMAGEDEF_REACTOR
  5
38F
100
AcDbRasterImageDefReactor
 90
2
330
283
  0
DICTIONARY
  5
D
102
{ACAD_REACTORS
330
C
102
}
100
AcDbDictionary
280
0
281
1
  0
ACDBDICTIONARYWDFLT
  5
E
102
{ACAD_REACTORS
330
C
102
}
100
AcDbDictionary
281
1
  3
Normal
350
F
100
AcDbDictionaryWithDefault
340
F
  0
DICTIONARY
  5
390
330
C
100
AcDbDictionary
281
1
  3
ZHJ_assy_2_img_1
350
       395
  0
RASTERVARIABLES
  5
391
330
C
100
AcDbRasterVariables
 90
0
 70
0
 71
1
 72
5
  0
DICTIONARY
  5
17
102
{ACAD_REACTORS
330
C
102
}
100
AcDbDictionary
280
0
281
1
  3
Standard
350
18
  0
DICTIONARY
  5
392
330
C
100
AcDbDictionary
281
1
  3
Standard
350
       396
  3
Standard1
350
       397
  0
DICTIONARY
  5
19
102
{ACAD_REACTORS
330
C
102
}
100
AcDbDictionary
281
1
  0
DICTIONARY
  5
1A
102
{ACAD_REACTORS
330
C
102
}
100
AcDbDictionary
281
1
  3
Model
350
393
  3
Layout1
350
394
  0
ACDBPLACEHOLDER
  5
F
102
{ACAD_REACTORS
330
E
102
}
  0
MLINESTYLE
  5
18
102
{ACAD_REACTORS
330
17
102
}
100
AcDbMlineStyle
  2
STANDARD
 70
0
  3

 62
256
 51
90.0
 52
90.0
 71
2
 49
0.5
 62
256
  6
BYLAYER
 49
-0.5
 62
256
  6
BYLAYER
  0
LAYOUT
  5
393
102
{ACAD_REACTORS
330
1A
102
}
100
AcDbPlotSettings
  1

  2
none_device
  4
ANSI_C_(22.00_x_17.00_Inches)
  6

 40
0.0
 41
0.0
 42
0.0
 43
0.0
 44
558.8
 45
431.8
 46
0.0
 47
0.0
 48
0.0
 49
0.0
140
0.0
141
0.0
142
1.0
143
1.0
 70
1024
 72
0
 73
0
 74
0
  7

 75
0
147
1.0
148
0.0
149
0.0
100
AcDbLayout
  1
Model
 70
0
 71
0
 10
0.0
 20
0.0
 11
22.0
 21
17.0
 12
0.0
 22
0.0
 32
0.0
 14
0.0
 24
0.0
 34
0.0
 15
0.0
 25
0.0
 35
0.0
146
0.0
 13
0.0
 23
0.0
 33
0.0
 16
1.0
 26
0.0
 36
0.0
 17
0.0
 27
1.0
 37
0.0
 76
0
330
204
345
0
346
0
  0
LAYOUT
  5
394
102
{ACAD_REACTORS
330
1A
102
}
100
AcDbPlotSettings
  1

  2
none_device
  4
ANSI_C_(22.00_x_17.00_Inches)
  6

 40
0.0
 41
0.0
 42
0.0
 43
0.0
 44
558.8
 45
431.8
 46
0.0
 47
0.0
 48
0.0
 49
0.0
140
0.0
141
0.0
142
1.0
143
1.0
 70
0
 72
0
 73
0
 74
0
  7

 75
0
147
1.0
148
0.0
149
0.0
100
AcDbLayout
  1
Layout1
 70
0
 71
1
 10
0.0
 20
0.0
 11
22.0
 21
17.0
 12
0.0
 22
0.0
 32
0.0
 14
0.0
 24
0.0
 34
0.0
 15
0.0
 25
0.0
 35
0.0
146
0.0
 13
0.0
 23
0.0
 33
0.0
 16
1.0
 26
0.0
 36
0.0
 17
0.0
 27
1.0
 37
0.0
 76
0
330
205
345
0
346
0
  0
IMAGEDEF
  5
395
102
{ACAD_REACTORS
330
390
330
38F
102
}
100
AcDbRasterImageDef
 90
0
  1
ZHJ_assy_2_img_1.png
 10
369.0
 20
92.0
 11
0.0066666667
 21
0.0066666667
280
1
281
0
  0
TABLESTYLE
  5
396
102
{ACAD_REACTORS
330
392
330
286
330
287
102
}
330
392
100
AcDbTableStyle
  3
Standard
 70
0
 71
0
 40
0.06
 41
0.06
280
1
281
1
  7
Standard
140
0.18
170
1
 62
0
 63
7
283
0
  7
Standard
140
0.18
170
1
 62
0
 63
7
283
0
  7
Standard
140
0.18
170
1
 62
0
 63
7
283
0
  0
TABLESTYLE
  5
397
102
{ACAD_REACTORS
330
392
330
285
102
}
330
392
100
AcDbTableStyle
  3
Standard1
 70
1
 71
0
 40
0.06
 41
0.06
280
1
281
1
  7
Standard
140
0.18
170
1
 62
0
 63
7
283
0
  7
Standard
140
0.18
170
1
 62
0
 63
7
283
0
  7
Standard
140
0.18
170
1
 62
0
 63
7
283
0
  0
ENDSEC
  0
EOF
