999
DXF file: ZFS_assy_2.dxf
999
Pro/ENGINEER 2014200 by Parametric Technology Corporation
  0
SECTION
  2
HEADER
  9
$ACADVER
  1
AC1021
  9
$DWGCODEPAGE
  3
ANSI_1252
  9
$EXTMAX
 10
22.0
 20
17.0
 30
0.0
  9
$EXTMIN
 10
0.0
 20
0.0
 30
0.0
  9
$LIMMIN
 10
0.0
 20
0.0
  9
$LIMMAX
 10
22.0
 20
17.0
  9
$VIEWCTR
 10
11.0
 20
8.5
  9
$VIEWSIZE
 40
17.0
  9
$CLAYER
  8
0
  9
$LTSCALE
 40
1.21
  9
$CELTYPE
  6
BYLAYER
  9
$DIMSCALE
 40
1.0
  9
$DIMASZ
 40
0.1875
  9
$DIMEXO
 40
0.0625
  9
$DIMDLI
 40
0.836
  9
$DIMEXE
 40
0.125
  9
$DIMCEN
 40
0.198
  9
$DIMLFAC
 40
1.0
  9
$DIMBLK
  1
_FILLED
  9
$DIMTXT
 40
0.1
  9
$DIMTOL
 70
0
  9
$DIMLIM
 70
0
  9
$DIMTFAC
 40
1.0
  9
$DIMGAP
 40
0.09
  9
$DIMDSEP
 70
46
  9
$AUNITS
 70
0
  9
$PDMODE
 70
3
  9
$PDSIZE
 40
0.3125
  9
$HANDSEED
  5
370
  9
$TILEMODE
 70
1
  9
$MEASUREMENT
 70
0
  9
$INSUNITS
 70
1
  0
ENDSEC
  0
SECTION
  2
CLASSES
  0
CLASS
  1
ACDBDICTIONARYWDFLT
  2
AcDbDictionaryWithDefault
  3
AutoCAD 2000
 90
0
 91
1
280
0
281
0
  0
CLASS
  1
ACDBPLACEHOLDER
  2
AcDbPlaceHolder
  3
AutoCAD 2000
 90
0
 91
1
280
0
281
0
  0
CLASS
  1
LAYOUT
  2
AcDbLayout
  3
AutoCAD 2000
 90
0
 91
0
280
0
281
0
  0
CLASS
  1
RASTERVARIABLES
  2
AcDbRasterVariables
  3
ISM
 90
0
 91
1
280
0
281
0
  0
CLASS
  1
IMAGEDEF
  2
AcDbRasterImageDef
  3
ISM
 90
0
 91
1
280
0
281
0
  0
CLASS
  1
IMAGEDEF_REACTOR
  2
AcDbRasterImageDefReactor
  3
ISM
 90
0
 91
1
280
0
281
0
  0
CLASS
  1
IMAGE
  2
AcDbRasterImage
  3
ISM
 90
127
 91
1
280
0
281
1
  0
CLASS
  1
TABLESTYLE
  2
AcDbTableStyle
  3
ObjectDBX Classes
 90
2047
 91
1
280
0
281
0
  0
CLASS
  1
ACAD_TABLE
  2
AcDbTable
  3
ObjectDBX Classes
 90
1025
 91
3
280
0
281
1
  0
ENDSEC
  0
SECTION
  2
TABLES
  0
TABLE
  2
VPORT
  5
8
100
AcDbSymbolTable
 70
2
  0
VPORT
  5
1F4
100
AcDbSymbolTableRecord
100
AcDbViewportTableRecord
  2
*ACTIVE
 70
0
 10
0.0
 20
0.0
 11
1.0
 21
1.0
 12
11.0
 22
8.5
 13
0.0
 23
0.0
 14
1.0
 24
1.0
 15
0.0
 25
0.0
 16
0.0
 26
0.0
 36
1.0
 17
0.0
 27
0.0
 37
0.0
 40
17.0
 41
1.2941176471
 42
50.0
 43
0.0
 44
0.0
 50
0.0
 51
0.0
 71
0
 72
100
 73
1
 74
1
 75
0
 76
0
 77
0
 78
0
  0
ENDTAB
  0
TABLE
  2
LTYPE
  5
5
100
AcDbSymbolTable
 70
6
  0
LTYPE
  5
14
100
AcDbSymbolTableRecord
100
AcDbLinetypeTableRecord
  2
BYBLOCK
 70
0
  3

 72
65
 73
0
 40
0.0
  0
LTYPE
  5
15
100
AcDbSymbolTableRecord
100
AcDbLinetypeTableRecord
  2
BYLAYER
 70
0
  3

 72
65
 73
0
 40
0.0
  0
LTYPE
  5
16
100
AcDbSymbolTableRecord
100
AcDbLinetypeTableRecord
  2
CONTINUOUS
 70
64
  3
Solid line
 72
65
 73
0
 40
0.0
  0
LTYPE
  5
1F5
100
AcDbSymbolTableRecord
100
AcDbLinetypeTableRecord
  2
CENTER
 70
64
  3
____ _ ____ _ ____ _ ____ _ ____ _ ____ _ ____
 72
65
 73
4
 40
0.6
 49
0.375
 74
0
 49
-0.075
 74
0
 49
0.075
 74
0
 49
-0.075
 74
0
  0
LTYPE
  5
1F6
100
AcDbSymbolTableRecord
100
AcDbLinetypeTableRecord
  2
HIDDEN
 70
64
  3
- - - - - - - - - - - - - - - - - - - -
 72
65
 73
2
 40
0.2
 49
0.1
 74
0
 49
-0.1
 74
0
  0
LTYPE
  5
1F7
100
AcDbSymbolTableRecord
100
AcDbLinetypeTableRecord
  2
PHANTOM
 70
64
  3
_____ _ _ _____ _ _ _____ _ _ _____
 72
65
 73
6
 40
0.8
 49
0.45
 74
0
 49
-0.05
 74
0
 49
0.1
 74
0
 49
-0.05
 74
0
 49
0.1
 74
0
 49
-0.05
 74
0
  0
LTYPE
  5
1F8
100
AcDbSymbolTableRecord
100
AcDbLinetypeTableRecord
  2
DOT
 70
64
  3
. . . . . . . . . . . . . . . . . . . .
 72
65
 73
2
 40
0.2
 49
0.1
 74
0
 49
-0.1
 74
0
  0
LTYPE
  5
1F9
100
AcDbSymbolTableRecord
100
AcDbLinetypeTableRecord
  2
DASHED
 70
64
  3
- - - - - - - - - - - - - - - - - - - -
 72
65
 73
2
 40
0.2
 49
0.1
 74
0
 49
-0.1
 74
0
  0
ENDTAB
  0
TABLE
  2
LAYER
  5
2
100
AcDbSymbolTable
 70
36
  0
LAYER
  5
10
100
AcDbSymbolTableRecord
100
AcDbLayerTableRecord
  2
0
 70
0
 62
7
  6
CONTINUOUS
370
-3
390
F
  0
LAYER
  5
1FA
100
AcDbSymbolTableRecord
100
AcDbLayerTableRecord
  2
DEFAULT_1
 70
0
 62
7
  6
CENTER
370
-3
390
F
  0
LAYER
  5
1FB
100
AcDbSymbolTableRecord
100
AcDbLayerTableRecord
  2
DEFAULT_2
 70
0
 62
8
  6
HIDDEN
370
-3
390
F
  0
LAYER
  5
1FC
100
AcDbSymbolTableRecord
100
AcDbLayerTableRecord
  2
DEFAULT_3
 70
0
 62
7
  6
PHANTOM
370
-3
390
F
  0
LAYER
  5
1FD
100
AcDbSymbolTableRecord
100
AcDbLayerTableRecord
  2
DATUM_PLANES
 70
0
 62
7
  6
CONTINUOUS
370
-3
390
F
  0
LAYER
  5
1FE
100
AcDbSymbolTableRecord
100
AcDbLayerTableRecord
  2
PORT_AREAS
 70
0
 62
7
  6
CONTINUOUS
370
-3
390
F
  0
LAYER
  5
1FF
100
AcDbSymbolTableRecord
100
AcDbLayerTableRecord
  2
SUNNBOMCOSMETIC
 70
0
 62
7
  6
CONTINUOUS
370
-3
390
F
  0
LAYER
  5
200
100
AcDbSymbolTableRecord
100
AcDbLayerTableRecord
  2
SUNNBOMSTAMPING
 70
0
 62
7
  6
CONTINUOUS
370
-3
390
F
  0
LAYER
  5
201
100
AcDbSymbolTableRecord
100
AcDbLayerTableRecord
  2
THREADS
 70
0
 62
7
  6
CONTINUOUS
370
-3
390
F
  0
ENDTAB
  0
TABLE
  2
STYLE
  5
3
100
AcDbSymbolTable
 70
1
  0
STYLE
  5
11
100
AcDbSymbolTableRecord
100
AcDbTextStyleTableRecord
  2
STANDARD
 70
0
 40
0.0
 41
0.8
 50
0.0
 71
0
 42
0.2
  3
txt
  4

  0
STYLE
  5
202
100
AcDbSymbolTableRecord
100
AcDbTextStyleTableRecord
  2
TEXTSTYLE_1
 70
0
 40
0.0
 41
0.8
 50
0.0
 71
0
 42
0.2
  3
gdt
  4

  0
ENDTAB
  0
TABLE
  2
VIEW
  5
6
100
AcDbSymbolTable
 70
0
  0
ENDTAB
  0
TABLE
  2
UCS
  5
7
100
AcDbSymbolTable
 70
0
  0
ENDTAB
  0
TABLE
  2
APPID
  5
9
100
AcDbSymbolTable
 70
1
  0
APPID
  5
203
100
AcDbSymbolTableRecord
100
AcDbRegAppTableRecord
  2
ACAD
 70
0
  0
ENDTAB
  0
TABLE
  2
BLOCK_RECORD
  5
1
100
AcDbSymbolTable
 70
0
  0
BLOCK_RECORD
  5
204
100
AcDbSymbolTableRecord
100
AcDbBlockTableRecord
  2
*Model_Space
  0
BLOCK_RECORD
  5
205
100
AcDbSymbolTableRecord
100
AcDbBlockTableRecord
  2
*Paper_Space
  0
BLOCK_RECORD
  5
206
100
AcDbSymbolTableRecord
100
AcDbBlockTableRecord
  2
SUN_FIRST_THIRD_ANGLE_BL0
  0
BLOCK_RECORD
  5
207
100
AcDbSymbolTableRecord
100
AcDbBlockTableRecord
  2
*T1
  0
BLOCK_RECORD
  5
208
100
AcDbSymbolTableRecord
100
AcDbBlockTableRecord
  2
*T2
  0
BLOCK_RECORD
  5
209
100
AcDbSymbolTableRecord
100
AcDbBlockTableRecord
  2
*T3
  0
ENDTAB
  0
TABLE
  2
DIMSTYLE
  5
A
100
AcDbSymbolTable
 70
1
100
AcDbDimStyleTable
 71
0
  0
DIMSTYLE
105
20A
100
AcDbSymbolTableRecord
100
AcDbDimStyleTableRecord
  2
STANDARD
 70
0
  3

  4

 40
1.0
 41
0.1875
 42
0.0625
 43
0.38
 44
0.125
 45
0.0
 46
0.0
 47
0.001
 48
0.001
140
0.1
141
0.09
142
0.0
143
25.4
144
1.0
145
0.0
146
1.0
147
0.09
 71
0.0
 72
0.0
 73
1
 74
1
 75
0
 76
0
 77
0
 78
4
170
0
171
2
172
0
173
0
174
0
175
0
176
0
177
0
178
0
270
2
271
3
272
3
273
2
274
2
275
0
280
0
281
0
282
0
283
1
284
4
285
0
286
0
287
3
288
0
340
11
278
46
  0
ENDTAB
  0
ENDSEC
  0
SECTION
  2
BLOCKS
  0
BLOCK
  5
20
100
AcDbEntity
  8
0
100
AcDbBlockBegin
  2
*Model_Space
 70
0
 10
0.0
 20
0.0
 30
0.0
  3
*Model_Space
  1

  0
ENDBLK
  5
21
100
AcDbEntity
  8
0
100
AcDbBlockEnd
  0
BLOCK
  5
1C
100
AcDbEntity
  8
0
100
AcDbBlockBegin
  2
*Paper_Space
 70
0
 10
0.0
 20
0.0
 30
0.0
  3
*Paper_Space
  1

  0
ENDBLK
  5
1D
100
AcDbEntity
  8
0
100
AcDbBlockEnd
  0
BLOCK
  5
20B
100
AcDbEntity
  8
0
100
AcDbBlockBegin
 62
2
  6
CONTINUOUS
  2
SUN_FIRST_THIRD_ANGLE_BL0
 70
64
 10
20.4816717061
 20
1.2289683772
  3
SUN_FIRST_THIRD_ANGLE_BL0
  1

  0
TEXT
  5
20C
100
AcDbEntity
  8
0
100
AcDbText
 62
2
  6
CONTINUOUS
 10
19.4750896608
 20
1.4136269581
  7
STANDARD
 40
0.08
  1
FIRST ANGLE
 41
0.8
 72
0
100
AcDbText
  0
TEXT
  5
20D
100
AcDbEntity
  8
0
100
AcDbText
 62
2
  6
CONTINUOUS
 10
20.7842537513
 20
1.4047600029
  7
STANDARD
 40
0.08
  1
THIRD ANGLE
 41
0.8
 72
0
100
AcDbText
  0
LINE
  5
20E
100
AcDbEntity
  8
0
100
AcDbLine
 62
7
  6
CONTINUOUS
 10
19.4767170086
 20
1.1727031207
 11
19.6334271527
 21
1.1717972817
  0
LINE
  5
20F
100
AcDbEntity
  8
0
100
AcDbLine
 62
7
  6
CONTINUOUS
 10
19.6596964832
 20
1.1717972817
 11
19.6950230232
 21
1.171593082
  0
LINE
  5
210
100
AcDbEntity
  8
0
100
AcDbLine
 62
7
  6
CONTINUOUS
 10
19.7194818561
 20
1.1708914427
 11
19.8852396156
 21
1.1699333054
  0
LINE
  5
211
100
AcDbEntity
  8
0
100
AcDbLine
 62
7
  6
CONTINUOUS
 10
19.4758111696
 20
1.2723454088
 11
19.88525039
 21
1.3511534004
  0
LINE
  5
212
100
AcDbEntity
  8
0
100
AcDbLine
 62
7
  6
CONTINUOUS
 10
19.88525039
 20
1.3511534004
 11
19.8831348489
 21
0.9851647912
  0
LINE
  5
213
100
AcDbEntity
  8
0
100
AcDbLine
 62
7
  6
CONTINUOUS
 10
19.8831348489
 20
0.9851647912
 11
19.4767170086
 21
1.0658141206
  0
LINE
  5
214
100
AcDbEntity
  8
0
100
AcDbLine
 62
7
  6
CONTINUOUS
 10
19.4767170086
 20
1.0658141206
 11
19.4779056764
 21
1.2714536432
  0
CIRCLE
  5
215
100
AcDbEntity
  8
0
100
AcDbCircle
 62
7
  6
CONTINUOUS
 10
20.2068232291
 20
1.1717972817
 40
0.175742101
  0
CIRCLE
  5
216
100
AcDbEntity
  8
0
100
AcDbCircle
 62
7
  6
CONTINUOUS
 10
20.2068232291
 20
1.1717972817
 40
0.1005522074
  0
LINE
  5
217
100
AcDbEntity
  8
0
100
AcDbLine
 62
7
  6
CONTINUOUS
 10
20.2077290681
 20
1.3756110529
 11
20.2071171714
 21
1.2379342989
  0
LINE
  5
218
100
AcDbEntity
  8
0
100
AcDbLine
 62
7
  6
CONTINUOUS
 10
20.2077290681
 20
1.2016899681
 11
20.2074674401
 21
1.1428236749
  0
LINE
  5
219
100
AcDbEntity
  8
0
100
AcDbLine
 62
7
  6
CONTINUOUS
 10
20.208634907
 20
1.101141841
 11
20.2080230104
 21
0.963465087
  0
LINE
  5
21A
100
AcDbEntity
  8
0
100
AcDbLine
 62
7
  6
CONTINUOUS
 10
20.0066328138
 20
1.1745147986
 11
20.1443095678
 21
1.1739029019
  0
LINE
  5
21B
100
AcDbEntity
  8
0
100
AcDbLine
 62
7
  6
CONTINUOUS
 10
20.1832714155
 20
1.1727031207
 11
20.238153505
 21
1.172335442
  0
LINE
  5
21C
100
AcDbEntity
  8
0
100
AcDbLine
 62
7
  6
CONTINUOUS
 10
20.2756669918
 20
1.1717972817
 11
20.407916871
 21
1.1712095044
  0
CIRCLE
  5
21D
100
AcDbEntity
  8
0
100
AcDbCircle
 62
7
  6
CONTINUOUS
 10
20.7509457401
 20
1.1693297793
 40
0.1722024983
  0
CIRCLE
  5
21E
100
AcDbEntity
  8
0
100
AcDbCircle
 62
7
  6
CONTINUOUS
 10
20.7509457401
 20
1.1693297793
 40
0.0985164967
  0
LINE
  5
21F
100
AcDbEntity
  8
0
100
AcDbLine
 62
7
  6
CONTINUOUS
 10
20.7169767782
 20
1.170462078
 11
20.7825395137
 21
1.1682766535
  0
LINE
  5
220
100
AcDbEntity
  8
0
100
AcDbLine
 62
7
  6
CONTINUOUS
 10
20.8177513651
 20
1.1693297793
 11
20.947965719
 21
1.1693297793
  0
LINE
  5
221
100
AcDbEntity
  8
0
100
AcDbLine
 62
7
  6
CONTINUOUS
 10
20.6875370113
 20
1.170462078
 11
20.5573226574
 21
1.170462078
  0
LINE
  5
222
100
AcDbEntity
  8
0
100
AcDbLine
 62
7
  6
CONTINUOUS
 10
20.7486811426
 20
1.1987695462
 11
20.7486811426
 21
1.1432869085
  0
LINE
  5
223
100
AcDbEntity
  8
0
100
AcDbLine
 62
7
  6
CONTINUOUS
 10
20.7498134414
 20
1.1059210505
 11
20.7498134414
 21
0.9757066966
  0
LINE
  5
224
100
AcDbEntity
  8
0
100
AcDbLine
 62
7
  6
CONTINUOUS
 10
20.7486811426
 20
1.2338708068
 11
20.7486811426
 21
1.3640851607
  0
LINE
  5
225
100
AcDbEntity
  8
0
100
AcDbLine
 62
7
  6
CONTINUOUS
 10
21.0702539817
 20
1.2701043662
 11
21.4790138229
 21
1.3448360823
  0
LINE
  5
226
100
AcDbEntity
  8
0
100
AcDbLine
 62
7
  6
CONTINUOUS
 10
21.4790138229
 20
1.3448360823
 11
21.4790138229
 21
0.9779712941
  0
LINE
  5
227
100
AcDbEntity
  8
0
100
AcDbLine
 62
7
  6
CONTINUOUS
 10
21.4790138229
 20
0.9779712941
 11
21.069121683
 21
1.0617614
  0
LINE
  5
228
100
AcDbEntity
  8
0
100
AcDbLine
 62
7
  6
CONTINUOUS
 10
21.0702539817
 20
1.2701043662
 11
21.069121683
 21
1.0617614
  0
LINE
  5
229
100
AcDbEntity
  8
0
100
AcDbLine
 62
7
  6
CONTINUOUS
 10
21.4790138229
 20
1.1693297793
 11
21.3159628059
 21
1.1693297793
  0
LINE
  5
22A
100
AcDbEntity
  8
0
100
AcDbLine
 62
7
  6
CONTINUOUS
 10
21.2876553377
 20
1.1693297793
 11
21.2502894796
 21
1.1693297793
  0
LINE
  5
22B
100
AcDbEntity
  8
0
100
AcDbLine
 62
7
  6
CONTINUOUS
 10
21.2208497126
 20
1.1659328831
 11
21.0713862804
 21
1.1659328831
  0
LINE
  5
22C
100
AcDbEntity
  8
0
100
AcDbLine
 62
7
  6
CONTINUOUS
 10
20.4796138713
 20
1.5284908897
 11
20.4766766948
 21
0.9294458646
  0
ENDBLK
  5
22D
100
AcDbEntity
  8
0
  6
BYBLOCK
 62
0
100
AcDbBlockEnd
  0
BLOCK
  5
22E
100
AcDbEntity
  8
0
100
AcDbBlockBegin
  2
*T1
 70
1
 10
0.0
 20
0.0
  3
*T1
  1

  0
LINE
  5
22F
100
AcDbEntity
  8
0
100
AcDbLine
 62
2
  6
CONTINUOUS
 10
9.275
 20
0.0
 11
-0.0
 21
0.0
  0
LINE
  5
230
100
AcDbEntity
  8
0
100
AcDbLine
 62
2
  6
CONTINUOUS
 10
9.275
 20
0.0
 11
9.275
 21
1.25
  0
LINE
  5
231
100
AcDbEntity
  8
0
100
AcDbLine
 62
2
  6
CONTINUOUS
 10
9.275
 20
0.625
 11
-0.0
 21
0.625
  0
LINE
  5
232
100
AcDbEntity
  8
0
100
AcDbLine
 62
2
  6
CONTINUOUS
 10
9.275
 20
1.25
 11
-0.0
 21
1.25
  0
LINE
  5
233
100
AcDbEntity
  8
0
100
AcDbLine
 62
2
  6
CONTINUOUS
 10
6.8
 20
0.0
 11
6.8
 21
1.25
  0
LINE
  5
234
100
AcDbEntity
  8
0
100
AcDbLine
 62
2
  6
CONTINUOUS
 10
6.4
 20
0.0
 11
6.4
 21
0.625
  0
LINE
  5
235
100
AcDbEntity
  8
0
100
AcDbLine
 62
2
  6
CONTINUOUS
 10
5.9
 20
0.0
 11
5.9
 21
0.625
  0
LINE
  5
236
100
AcDbEntity
  8
0
100
AcDbLine
 62
2
  6
CONTINUOUS
 10
5.2
 20
0.0
 11
5.2
 21
0.625
  0
LINE
  5
237
100
AcDbEntity
  8
0
100
AcDbLine
 62
2
  6
CONTINUOUS
 10
4.1
 20
0.0
 11
4.1
 21
1.25
  0
LINE
  5
238
100
AcDbEntity
  8
0
100
AcDbLine
 62
2
  6
CONTINUOUS
 10
-0.0
 20
0.0
 11
-0.0
 21
1.25
  0
MTEXT
  5
239
100
AcDbEntity
  8
0
100
AcDbMText
 62
2
  6
CONTINUOUS
  7
STANDARD
 71
2
 72
1
 10
6.6
 20
0.325
 30
0.0
 11
1.0
 21
0.0
 31
0.0
 44
0.9
  1
2
 40
0.125
 41
0.2
  0
MTEXT
  5
23A
100
AcDbEntity
  8
0
100
AcDbMText
 62
2
  6
CONTINUOUS
  7
STANDARD
 71
2
 72
1
 10
6.15
 20
0.325
 30
0.0
 11
1.0
 21
0.0
 31
0.0
 44
0.9
  1
C
 40
0.125
 41
0.2
  0
MTEXT
  5
23B
100
AcDbEntity
  8
0
100
AcDbMText
 62
2
  6
CONTINUOUS
  7
STANDARD
 71
2
 72
1
 10
5.55
 20
0.325
 30
0.0
 11
1.0
 21
0.0
 31
0.0
 44
0.9
  1
1.000
 40
0.125
 41
1.0
  0
MTEXT
  5
23C
100
AcDbEntity
  8
0
100
AcDbMText
 62
2
  6
CONTINUOUS
  7
STANDARD
 71
2
 72
1
 10
4.65
 20
0.325
 30
0.0
 11
1.0
 21
0.0
 31
0.0
 44
0.9
  1
Mar-09-20
 40
0.125
 41
1.8
  0
MTEXT
  5
23D
100
AcDbEntity
  8
0
100
AcDbMText
 62
2
  6
CONTINUOUS
  7
STANDARD
 71
2
 72
1
 10
2.05
 20
0.4625
 30
0.0
 11
1.0
 21
0.0
 31
0.0
 44
0.9
  1
T-10A Subplate ISO 03\PP to T, side ports
 40
0.125
 41
4.2
  0
MTEXT
  5
23E
100
AcDbEntity
  8
0
100
AcDbMText
 62
2
  6
CONTINUOUS
  7
STANDARD
 71
1
 72
1
 10
6.45
 20
0.5625
 30
0.0
 11
1.0
 21
0.0
 31
0.0
 44
0.9
  1
SHEET
 40
0.06
 41
0.48
  0
MTEXT
  5
23F
100
AcDbEntity
  8
0
100
AcDbMText
 62
2
  6
CONTINUOUS
  7
STANDARD
 71
1
 72
1
 10
5.95
 20
0.5625
 30
0.0
 11
1.0
 21
0.0
 31
0.0
 44
0.9
  1
DWG SIZE
 40
0.06
 41
0.768
  0
MTEXT
  5
240
100
AcDbEntity
  8
0
100
AcDbMText
 62
2
  6
CONTINUOUS
  7
STANDARD
 71
1
 72
1
 10
5.25
 20
0.5625
 30
0.0
 11
1.0
 21
0.0
 31
0.0
 44
0.9
  1
SCALE
 40
0.06
 41
0.48
  0
MTEXT
  5
241
100
AcDbEntity
  8
0
100
AcDbMText
 62
2
  6
CONTINUOUS
  7
STANDARD
 71
1
 72
1
 10
4.15
 20
0.5625
 30
0.0
 11
1.0
 21
0.0
 31
0.0
 44
0.9
  1
DATE
 40
0.06
 41
0.384
  0
MTEXT
  5
242
100
AcDbEntity
  8
0
100
AcDbMText
 62
2
  6
CONTINUOUS
  7
STANDARD
 71
1
 72
1
 10
0.05
 20
0.5625
 30
0.0
 11
1.0
 21
0.0
 31
0.0
 44
0.9
  1
DESCRIPTION
 40
0.06
 41
1.056
  0
MTEXT
  5
243
100
AcDbEntity
  8
0
100
AcDbMText
 62
2
  6
CONTINUOUS
  7
STANDARD
 71
2
 72
1
 10
5.45
 20
1.0375
 30
0.0
 11
1.0
 21
0.0
 31
0.0
 44
0.9
  1
ALL DIMENSIONS IN INCH\PVIEWS ARE THIRD ANGLE
 40
0.12
 41
4.224
  0
MTEXT
  5
244
100
AcDbEntity
  8
0
100
AcDbMText
 62
2
  6
CONTINUOUS
  7
STANDARD
 71
2
 72
1
 10
2.05
 20
0.95
 30
0.0
 11
1.0
 21
0.0
 31
0.0
 44
0.9
  1
ZFS
 40
0.125
 41
0.6
  0
MTEXT
  5
245
100
AcDbEntity
  8
0
100
AcDbMText
 62
2
  6
CONTINUOUS
  7
STANDARD
 71
1
 72
1
 10
0.05
 20
1.1875
 30
0.0
 11
1.0
 21
0.0
 31
0.0
 44
0.9
  1
MODEL
 40
0.06
 41
0.48
  0
ENDBLK
  5
246
100
AcDbEntity
  8
0
  6
BYBLOCK
 62
0
100
AcDbBlockEnd
  0
BLOCK
  5
247
100
AcDbEntity
  8
0
100
AcDbBlockBegin
  2
*T2
 70
1
 10
0.0
 20
0.0
  3
*T2
  1

  0
LINE
  5
248
100
AcDbEntity
  8
0
100
AcDbLine
 62
2
  6
CONTINUOUS
 10
0.0
 20
0.0
 11
9.055
 21
0.0
  0
LINE
  5
249
100
AcDbEntity
  8
0
100
AcDbLine
 62
2
  6
CONTINUOUS
 10
0.0
 20
0.0
 11
0.0
 21
-2.594
  0
LINE
  5
24A
100
AcDbEntity
  8
0
100
AcDbLine
 62
2
  6
CONTINUOUS
 10
0.0
 20
-0.344
 11
9.055
 21
-0.344
  0
LINE
  5
24B
100
AcDbEntity
  8
0
100
AcDbLine
 62
2
  6
CONTINUOUS
 10
0.0
 20
-0.594
 11
9.055
 21
-0.594
  0
LINE
  5
24C
100
AcDbEntity
  8
0
100
AcDbLine
 62
2
  6
CONTINUOUS
 10
0.0
 20
-0.844
 11
9.055
 21
-0.844
  0
LINE
  5
24D
100
AcDbEntity
  8
0
100
AcDbLine
 62
2
  6
CONTINUOUS
 10
0.0
 20
-1.094
 11
9.055
 21
-1.094
  0
LINE
  5
24E
100
AcDbEntity
  8
0
100
AcDbLine
 62
2
  6
CONTINUOUS
 10
0.0
 20
-1.344
 11
9.055
 21
-1.344
  0
LINE
  5
24F
100
AcDbEntity
  8
0
100
AcDbLine
 62
2
  6
CONTINUOUS
 10
0.0
 20
-1.594
 11
9.055
 21
-1.594
  0
LINE
  5
250
100
AcDbEntity
  8
0
100
AcDbLine
 62
2
  6
CONTINUOUS
 10
0.0
 20
-1.844
 11
9.055
 21
-1.844
  0
LINE
  5
251
100
AcDbEntity
  8
0
100
AcDbLine
 62
2
  6
CONTINUOUS
 10
0.0
 20
-2.094
 11
9.055
 21
-2.094
  0
LINE
  5
252
100
AcDbEntity
  8
0
100
AcDbLine
 62
2
  6
CONTINUOUS
 10
0.0
 20
-2.344
 11
9.055
 21
-2.344
  0
LINE
  5
253
100
AcDbEntity
  8
0
100
AcDbLine
 62
2
  6
CONTINUOUS
 10
0.0
 20
-2.594
 11
9.055
 21
-2.594
  0
LINE
  5
254
100
AcDbEntity
  8
0
100
AcDbLine
 62
2
  6
CONTINUOUS
 10
3.055
 20
0.0
 11
3.055
 21
-2.594
  0
LINE
  5
255
100
AcDbEntity
  8
0
100
AcDbLine
 62
2
  6
CONTINUOUS
 10
9.055
 20
0.0
 11
9.055
 21
-2.594
  0
MTEXT
  5
256
100
AcDbEntity
  8
0
100
AcDbMText
 62
2
  6
CONTINUOUS
  7
STANDARD
 71
2
 72
1
 10
1.5275
 20
-0.0995
 30
0.0
 11
1.0
 21
0.0
 31
0.0
 44
0.9
  1
Technical Data
 40
0.145
 41
3.248
  0
MTEXT
  5
257
100
AcDbEntity
  8
0
100
AcDbMText
 62
2
  6
CONTINUOUS
  7
STANDARD
 71
2
 72
1
 10
4.555
 20
-0.0995
 30
0.0
 11
1.0
 21
0.0
 31
0.0
 44
0.9
  1
U.S. Units
 40
0.145
 41
2.32
  0
MTEXT
  5
258
100
AcDbEntity
  8
0
100
AcDbMText
 62
2
  6
CONTINUOUS
  7
STANDARD
 71
2
 72
1
 10
7.555
 20
-0.0995
 30
0.0
 11
1.0
 21
0.0
 31
0.0
 44
0.9
  1
Metric Units
 40
0.145
 41
2.784
  0
MTEXT
  5
259
100
AcDbEntity
  8
0
100
AcDbMText
 62
2
  6
CONTINUOUS
  7
STANDARD
 71
2
 72
1
 10
1.5275
 20
-0.4065
 30
0.0
 11
1.0
 21
0.0
 31
0.0
 44
0.9
  1
Cavity
 40
0.125
 41
1.2
  0
MTEXT
  5
25A
100
AcDbEntity
  8
0
100
AcDbMText
 62
2
  6
CONTINUOUS
  7
STANDARD
 71
2
 72
1
 10
6.055
 20
-0.4065
 30
0.0
 11
1.0
 21
0.0
 31
0.0
 44
0.9
  1
T-10A
 40
0.125
 41
1.0
  0
MTEXT
  5
25B
100
AcDbEntity
  8
0
100
AcDbMText
 62
2
  6
CONTINUOUS
  7
STANDARD
 71
2
 72
1
 10
1.5275
 20
-0.6565
 30
0.0
 11
1.0
 21
0.0
 31
0.0
 44
0.9
  1
Body Features
 40
0.125
 41
2.6
  0
MTEXT
  5
25C
100
AcDbEntity
  8
0
100
AcDbMText
 62
2
  6
CONTINUOUS
  7
STANDARD
 71
2
 72
1
 10
6.055
 20
-0.6565
 30
0.0
 11
1.0
 21
0.0
 31
0.0
 44
0.9
  1
P to T, side ports
 40
0.125
 41
3.6
  0
MTEXT
  5
25D
100
AcDbEntity
  8
0
100
AcDbMText
 62
2
  6
CONTINUOUS
  7
STANDARD
 71
2
 72
1
 10
1.5275
 20
-0.9065
 30
0.0
 11
1.0
 21
0.0
 31
0.0
 44
0.9
  1
Body Type
 40
0.125
 41
1.8
  0
MTEXT
  5
25E
100
AcDbEntity
  8
0
100
AcDbMText
 62
2
  6
CONTINUOUS
  7
STANDARD
 71
2
 72
1
 10
6.055
 20
-0.9065
 30
0.0
 11
1.0
 21
0.0
 31
0.0
 44
0.9
  1
Subplate
 40
0.125
 41
1.6
  0
MTEXT
  5
25F
100
AcDbEntity
  8
0
100
AcDbMText
 62
2
  6
CONTINUOUS
  7
STANDARD
 71
2
 72
1
 10
1.5275
 20
-1.1565
 30
0.0
 11
1.0
 21
0.0
 31
0.0
 44
0.9
  1
Interface
 40
0.125
 41
1.8
  0
MTEXT
  5
260
100
AcDbEntity
  8
0
100
AcDbMText
 62
2
  6
CONTINUOUS
  7
STANDARD
 71
2
 72
1
 10
6.055
 20
-1.1565
 30
0.0
 11
1.0
 21
0.0
 31
0.0
 44
0.9
  1
ISO 03
 40
0.125
 41
1.2
  0
MTEXT
  5
261
100
AcDbEntity
  8
0
100
AcDbMText
 62
2
  6
CONTINUOUS
  7
STANDARD
 71
2
 72
1
 10
1.5275
 20
-1.4065
 30
0.0
 11
1.0
 21
0.0
 31
0.0
 44
0.9
  1
Open Cavity Quantity
 40
0.125
 41
4.0
  0
MTEXT
  5
262
100
AcDbEntity
  8
0
100
AcDbMText
 62
2
  6
CONTINUOUS
  7
STANDARD
 71
2
 72
1
 10
6.055
 20
-1.4065
 30
0.0
 11
1.0
 21
0.0
 31
0.0
 44
0.9
  1
1
 40
0.125
 41
0.2
  0
MTEXT
  5
263
100
AcDbEntity
  8
0
100
AcDbMText
 62
2
  6
CONTINUOUS
  7
STANDARD
 71
2
 72
1
 10
1.5275
 20
-1.6565
 30
0.0
 11
1.0
 21
0.0
 31
0.0
 44
0.9
  1
Weight
 40
0.125
 41
1.2
  0
MTEXT
  5
264
100
AcDbEntity
  8
0
100
AcDbMText
 62
2
  6
CONTINUOUS
  7
STANDARD
 71
2
 72
1
 10
4.555
 20
-1.6565
 30
0.0
 11
1.0
 21
0.0
 31
0.0
 44
0.9
  1
2.989 lb.
 40
0.125
 41
1.8
  0
MTEXT
  5
265
100
AcDbEntity
  8
0
100
AcDbMText
 62
2
  6
CONTINUOUS
  7
STANDARD
 71
2
 72
1
 10
7.555
 20
-1.6565
 30
0.0
 11
1.0
 21
0.0
 31
0.0
 44
0.9
  1
1,356 kg.
 40
0.125
 41
1.8
  0
MTEXT
  5
266
100
AcDbEntity
  8
0
100
AcDbMText
 62
2
  6
CONTINUOUS
  7
STANDARD
 71
2
 72
1
 10
1.5275
 20
-1.9065
 30
0.0
 11
1.0
 21
0.0
 31
0.0
 44
0.9
  1
Mounting Hole Diameter
 40
0.125
 41
4.4
  0
MTEXT
  5
267
100
AcDbEntity
  8
0
100
AcDbMText
 62
2
  6
CONTINUOUS
  7
STANDARD
 71
2
 72
1
 10
4.555
 20
-1.9065
 30
0.0
 11
1.0
 21
0.0
 31
0.0
 44
0.9
  1
.28 in.
 40
0.125
 41
1.4
  0
MTEXT
  5
268
100
AcDbEntity
  8
0
100
AcDbMText
 62
2
  6
CONTINUOUS
  7
STANDARD
 71
2
 72
1
 10
7.555
 20
-1.9065
 30
0.0
 11
1.0
 21
0.0
 31
0.0
 44
0.9
  1
7,1 mm
 40
0.125
 41
1.2
  0
MTEXT
  5
269
100
AcDbEntity
  8
0
100
AcDbMText
 62
2
  6
CONTINUOUS
  7
STANDARD
 71
2
 72
1
 10
1.5275
 20
-2.1565
 30
0.0
 11
1.0
 21
0.0
 31
0.0
 44
0.9
  1
Mounting Hole Depth
 40
0.125
 41
3.8
  0
MTEXT
  5
26A
100
AcDbEntity
  8
0
100
AcDbMText
 62
2
  6
CONTINUOUS
  7
STANDARD
 71
2
 72
1
 10
6.055
 20
-2.1565
 30
0.0
 11
1.0
 21
0.0
 31
0.0
 44
0.9
  1
Through
 40
0.125
 41
1.4
  0
MTEXT
  5
26B
100
AcDbEntity
  8
0
100
AcDbMText
 62
2
  6
CONTINUOUS
  7
STANDARD
 71
2
 72
1
 10
1.5275
 20
-2.4065
 30
0.0
 11
1.0
 21
0.0
 31
0.0
 44
0.9
  1
Mounting Hole Quantity
 40
0.125
 41
4.4
  0
MTEXT
  5
26C
100
AcDbEntity
  8
0
100
AcDbMText
 62
2
  6
CONTINUOUS
  7
STANDARD
 71
2
 72
1
 10
6.055
 20
-2.4065
 30
0.0
 11
1.0
 21
0.0
 31
0.0
 44
0.9
  1
4
 40
0.125
 41
0.2
  0
ENDBLK
  5
26D
100
AcDbEntity
  8
0
  6
BYBLOCK
 62
0
100
AcDbBlockEnd
  0
BLOCK
  5
26E
100
AcDbEntity
  8
0
100
AcDbBlockBegin
  2
*T3
 70
1
 10
0.0
 20
0.0
  3
*T3
  1

  0
LINE
  5
26F
100
AcDbEntity
  8
0
100
AcDbLine
 62
2
  6
CONTINUOUS
 10
0.0
 20
0.0
 11
4.6
 21
0.0
  0
LINE
  5
270
100
AcDbEntity
  8
0
100
AcDbLine
 62
2
  6
CONTINUOUS
 10
0.0
 20
0.0
 11
0.0
 21
-1.18775
  0
LINE
  5
271
100
AcDbEntity
  8
0
100
AcDbLine
 62
2
  6
CONTINUOUS
 10
0.0
 20
-0.34375
 11
4.6
 21
-0.34375
  0
LINE
  5
272
100
AcDbEntity
  8
0
100
AcDbLine
 62
2
  6
CONTINUOUS
 10
0.0
 20
-0.68775
 11
4.6
 21
-0.68775
  0
LINE
  5
273
100
AcDbEntity
  8
0
100
AcDbLine
 62
2
  6
CONTINUOUS
 10
0.0
 20
-0.93775
 11
4.6
 21
-0.93775
  0
LINE
  5
274
100
AcDbEntity
  8
0
100
AcDbLine
 62
2
  6
CONTINUOUS
 10
0.0
 20
-1.18775
 11
4.6
 21
-1.18775
  0
LINE
  5
275
100
AcDbEntity
  8
0
100
AcDbLine
 62
2
  6
CONTINUOUS
 10
1.3
 20
-0.34375
 11
1.3
 21
-1.18775
  0
LINE
  5
276
100
AcDbEntity
  8
0
100
AcDbLine
 62
2
  6
CONTINUOUS
 10
3.3
 20
-0.34375
 11
3.3
 21
-1.18775
  0
LINE
  5
277
100
AcDbEntity
  8
0
100
AcDbLine
 62
2
  6
CONTINUOUS
 10
4.6
 20
0.0
 11
4.6
 21
-1.18775
  0
MTEXT
  5
278
100
AcDbEntity
  8
0
100
AcDbMText
 62
2
  6
CONTINUOUS
  7
STANDARD
 71
2
 72
1
 10
2.3
 20
-0.099375
 30
0.0
 11
1.0
 21
0.0
 31
0.0
 44
0.9
  1
Port Headings
 40
0.145
 41
3.016
  0
MTEXT
  5
279
100
AcDbEntity
  8
0
100
AcDbMText
 62
2
  6
CONTINUOUS
  7
STANDARD
 71
2
 72
1
 10
0.65
 20
-0.44325
 30
0.0
 11
1.0
 21
0.0
 31
0.0
 44
0.9
  1
Product
 40
0.145
 41
1.624
  0
MTEXT
  5
27A
100
AcDbEntity
  8
0
100
AcDbMText
 62
2
  6
CONTINUOUS
  7
STANDARD
 71
2
 72
1
 10
2.3
 20
-0.44325
 30
0.0
 11
1.0
 21
0.0
 31
0.0
 44
0.9
  1
Port
 40
0.145
 41
0.928
  0
MTEXT
  5
27B
100
AcDbEntity
  8
0
100
AcDbMText
 62
2
  6
CONTINUOUS
  7
STANDARD
 71
2
 72
1
 10
3.95
 20
-0.44325
 30
0.0
 11
1.0
 21
0.0
 31
0.0
 44
0.9
  1
Size
 40
0.145
 41
0.928
  0
MTEXT
  5
27C
100
AcDbEntity
  8
0
100
AcDbMText
 62
2
  6
CONTINUOUS
  7
STANDARD
 71
2
 72
1
 10
0.65
 20
-0.75025
 30
0.0
 11
1.0
 21
0.0
 31
0.0
 44
0.9
  1
ZFS
 40
0.125
 41
0.6
  0
MTEXT
  5
27D
100
AcDbEntity
  8
0
100
AcDbMText
 62
2
  6
CONTINUOUS
  7
STANDARD
 71
2
 72
1
 10
2.3
 20
-0.75025
 30
0.0
 11
1.0
 21
0.0
 31
0.0
 44
0.9
  1
Ports A, B, P, T
 40
0.125
 41
3.2
  0
MTEXT
  5
27E
100
AcDbEntity
  8
0
100
AcDbMText
 62
2
  6
CONTINUOUS
  7
STANDARD
 71
2
 72
1
 10
3.95
 20
-0.75025
 30
0.0
 11
1.0
 21
0.0
 31
0.0
 44
0.9
  1
3/4" NPTF
 40
0.125
 41
1.8
  0
MTEXT
  5
27F
100
AcDbEntity
  8
0
100
AcDbMText
 62
2
  6
CONTINUOUS
  7
STANDARD
 71
2
 72
1
 10
0.65
 20
-1.00025
 30
0.0
 11
1.0
 21
0.0
 31
0.0
 44
0.9
  1
ZFS
 40
0.125
 41
0.6
  0
MTEXT
  5
280
100
AcDbEntity
  8
0
100
AcDbMText
 62
2
  6
CONTINUOUS
  7
STANDARD
 71
2
 72
1
 10
2.3
 20
-1.00025
 30
0.0
 11
1.0
 21
0.0
 31
0.0
 44
0.9
  1
Gage Port
 40
0.125
 41
1.8
  0
MTEXT
  5
281
100
AcDbEntity
  8
0
100
AcDbMText
 62
2
  6
CONTINUOUS
  7
STANDARD
 71
2
 72
1
 10
3.95
 20
-1.00025
 30
0.0
 11
1.0
 21
0.0
 31
0.0
 44
0.9
  1
1/4" NPTF
 40
0.125
 41
1.8
  0
ENDBLK
  5
282
100
AcDbEntity
  8
0
  6
BYBLOCK
 62
0
100
AcDbBlockEnd
  0
ENDSEC
  0
SECTION
  2
ENTITIES
  0
IMAGE
  5
283
100
AcDbEntity
  8
0
100
AcDbRasterImage
 62
7
  6
CONTINUOUS
 10
19.2297077316
 20
0.3094318264
 30
0.0
 11
0.0066666667
 21
0.0
 31
0.0
 12
0.0
 22
0.0066666667
 32
0.0
 13
369.0
 23
92.0
340
       36D
 70
9
280
0
281
50
282
50
283
0
360
       367
 71
1
 91
2
 14
-0.5
 24
-0.5
 14
368.5
 24
91.5
  0
INSERT
  5
284
100
AcDbEntity
  8
0
100
AcDbBlockReference
 62
2
  6
CONTINUOUS
  2
SUN_FIRST_THIRD_ANGLE_BL0
 10
20.4816717061
 20
1.2289683772
  0
ACAD_TABLE
  5
285
100
AcDbEntity
  8
0
 62
2
  6
CONTINUOUS
100
AcDbBlockReference
  2
*T1
 10
12.42375
 20
0.30125
 30
0.0
100
AcDbTable
342
       36F
343
207
 11
1.0
 21
0.0
 31
0.0
 90
6
 91
4
 92
6
 93
20
 94
0
 95
0
 96
0
 70
1
 41
0.0
141
0.525
141
0.1
141
0.525
141
0.1
142
4.1
142
1.1
142
0.7
142
0.5
142
0.4
142
2.475
171
1
172
0
173
0
174
0
175
1
176
1
 91
33
178
0
145
0.0
301
CELL_VALUE
 90
4
  1
T-10A Subplate ISO 03\PP to T, side ports
304
ACVALUE_END
170
2
140
0.125
171
1
172
0
173
0
174
0
175
1
176
1
 91
33
178
0
145
0.0
301
CELL_VALUE
 90
4
  1
Mar-09-20
304
ACVALUE_END
170
5
140
0.125
171
1
172
0
173
0
174
0
175
1
176
1
 91
33
178
0
145
0.0
301
CELL_VALUE
 90
4
  1
1.000
304
ACVALUE_END
170
5
140
0.125
171
1
172
0
173
0
174
0
175
1
176
1
 91
33
178
0
145
0.0
301
CELL_VALUE
 90
4
  1
C
304
ACVALUE_END
170
5
140
0.125
171
1
172
0
173
0
174
0
175
1
176
1
 91
33
178
0
145
0.0
301
CELL_VALUE
 90
4
  1
2
304
ACVALUE_END
170
5
140
0.125
171
1
172
0
173
0
174
0
175
1
176
1
 91
33
178
0
145
0.0
301
CELL_VALUE
 90
4
  1
 
304
ACVALUE_END
170
1
140
0.125
171
1
172
0
173
0
174
0
175
1
176
1
 91
33
178
0
145
0.0
301
CELL_VALUE
 90
4
  1
DESCRIPTION
304
ACVALUE_END
170
1
140
0.06
171
1
172
0
173
0
174
0
175
1
176
1
 91
33
178
0
145
0.0
301
CELL_VALUE
 90
4
  1
DATE
304
ACVALUE_END
170
1
140
0.06
171
1
172
0
173
0
174
0
175
1
176
1
 91
33
178
0
145
0.0
301
CELL_VALUE
 90
4
  1
SCALE
304
ACVALUE_END
170
1
140
0.06
171
1
172
0
173
0
174
0
175
1
176
1
 91
33
178
0
145
0.0
301
CELL_VALUE
 90
4
  1
DWG SIZE
304
ACVALUE_END
170
1
140
0.06
171
1
172
0
173
0
174
0
175
1
176
1
 91
33
178
0
145
0.0
301
CELL_VALUE
 90
4
  1
SHEET
304
ACVALUE_END
170
1
140
0.06
171
1
172
0
173
0
174
0
175
1
176
1
 91
33
178
0
145
0.0
301
CELL_VALUE
 90
4
  1
 
304
ACVALUE_END
170
1
140
0.125
171
1
172
0
173
0
174
0
175
1
176
1
 91
33
178
0
145
0.0
301
CELL_VALUE
 90
4
  1
ZFS
304
ACVALUE_END
170
5
140
0.125
171
1
172
0
173
0
174
0
175
4
176
1
 91
33
178
0
145
0.0
301
CELL_VALUE
 90
4
  1
ALL DIMENSIONS IN INCH\PVIEWS ARE THIRD ANGLE
304
ACVALUE_END
170
5
140
0.12
171
1
172
0
173
1
174
0
175
1
176
1
 91
1
178
0
145
0.0
170
1
171
1
172
0
173
1
174
0
175
1
176
1
 91
1
178
0
145
0.0
170
1
171
1
172
0
173
1
174
0
175
1
176
1
 91
1
178
0
145
0.0
170
5
171
1
172
0
173
0
174
0
175
1
176
1
 91
33
178
0
145
0.0
301
CELL_VALUE
 90
4
  1
 
304
ACVALUE_END
170
1
140
0.125
171
1
172
0
173
0
174
0
175
1
176
1
 91
33
178
0
145
0.0
301
CELL_VALUE
 90
4
  1
MODEL
304
ACVALUE_END
170
1
140
0.06
171
1
172
0
173
0
174
0
175
1
176
1
 91
33
178
0
145
0.0
301
CELL_VALUE
 90
4
  1
 
304
ACVALUE_END
170
1
140
0.125
171
1
172
0
173
0
174
0
175
1
176
1
 91
33
178
0
145
0.0
301
CELL_VALUE
 90
4
  1
 
304
ACVALUE_END
170
1
140
0.125
171
1
172
0
173
0
174
0
175
1
176
1
 91
33
178
0
145
0.0
301
CELL_VALUE
 90
4
  1
 
304
ACVALUE_END
170
1
140
0.125
171
1
172
0
173
0
174
0
175
1
176
1
 91
33
178
0
145
0.0
301
CELL_VALUE
 90
4
  1
 
304
ACVALUE_END
170
1
140
0.125
171
1
172
0
173
0
174
0
175
1
176
1
 91
33
178
0
145
0.0
301
CELL_VALUE
 90
4
  1
 
304
ACVALUE_END
170
1
140
0.125
  0
ACAD_TABLE
  5
286
100
AcDbEntity
  8
0
 62
2
  6
CONTINUOUS
100
AcDbBlockReference
  2
*T2
 10
12.4237499994
 20
16.47875
 30
0.0
100
AcDbTable
342
       36E
343
208
 11
1.0
 21
0.0
 31
0.0
 90
22
 91
10
 92
3
 93
16
 94
0
 95
0
 96
0
 41
0.028
141
0.344
141
0.25
141
0.25
141
0.25
141
0.25
141
0.25
141
0.25
141
0.25
141
0.25
141
0.25
142
3.055
142
3.0
142
3.0
171
1
172
0
173
0
174
0
175
1
176
1
 91
33
178
0
145
0.0
301
CELL_VALUE
 90
4
  1
Technical Data
304
ACVALUE_END
170
5
140
0.145
171
1
172
0
173
0
174
0
175
1
176
1
 91
33
178
0
145
0.0
301
CELL_VALUE
 90
4
  1
U.S. Units
304
ACVALUE_END
170
5
140
0.145
171
1
172
0
173
0
174
0
175
1
176
1
 91
33
178
0
145
0.0
301
CELL_VALUE
 90
4
  1
Metric Units
304
ACVALUE_END
170
5
140
0.145
171
1
172
0
173
0
174
0
175
1
176
1
 91
33
178
0
145
0.0
301
CELL_VALUE
 90
4
  1
Cavity
304
ACVALUE_END
170
5
140
0.125
171
1
172
0
173
0
174
0
175
2
176
1
 91
33
178
0
145
0.0
301
CELL_VALUE
 90
4
  1
T-10A
304
ACVALUE_END
170
5
140
0.125
171
1
172
0
173
1
174
0
175
1
176
1
 91
1
178
0
145
0.0
170
1
171
1
172
0
173
0
174
0
175
1
176
1
 91
33
178
0
145
0.0
301
CELL_VALUE
 90
4
  1
Body Features
304
ACVALUE_END
170
5
140
0.125
171
1
172
0
173
0
174
0
175
2
176
1
 91
33
178
0
145
0.0
301
CELL_VALUE
 90
4
  1
P to T, side ports
304
ACVALUE_END
170
5
140
0.125
171
1
172
0
173
1
174
0
175
1
176
1
 91
1
178
0
145
0.0
170
1
171
1
172
0
173
0
174
0
175
1
176
1
 91
33
178
0
145
0.0
301
CELL_VALUE
 90
4
  1
Body Type
304
ACVALUE_END
170
5
140
0.125
171
1
172
0
173
0
174
0
175
2
176
1
 91
33
178
0
145
0.0
301
CELL_VALUE
 90
4
  1
Subplate
304
ACVALUE_END
170
5
140
0.125
171
1
172
0
173
1
174
0
175
1
176
1
 91
1
178
0
145
0.0
170
1
171
1
172
0
173
0
174
0
175
1
176
1
 91
33
178
0
145
0.0
301
CELL_VALUE
 90
4
  1
Interface
304
ACVALUE_END
170
5
140
0.125
171
1
172
0
173
0
174
0
175
2
176
1
 91
33
178
0
145
0.0
301
CELL_VALUE
 90
4
  1
ISO 03
304
ACVALUE_END
170
5
140
0.125
171
1
172
0
173
1
174
0
175
1
176
1
 91
1
178
0
145
0.0
170
1
171
1
172
0
173
0
174
0
175
1
176
1
 91
33
178
0
145
0.0
301
CELL_VALUE
 90
4
  1
Open Cavity Quantity
304
ACVALUE_END
170
5
140
0.125
171
1
172
0
173
0
174
0
175
2
176
1
 91
33
178
0
145
0.0
301
CELL_VALUE
 90
4
  1
1
304
ACVALUE_END
170
5
140
0.125
171
1
172
0
173
1
174
0
175
1
176
1
 91
1
178
0
145
0.0
170
1
171
1
172
0
173
0
174
0
175
1
176
1
 91
33
178
0
145
0.0
301
CELL_VALUE
 90
4
  1
Weight
304
ACVALUE_END
170
5
140
0.125
171
1
172
0
173
0
174
0
175
1
176
1
 91
33
178
0
145
0.0
301
CELL_VALUE
 90
4
  1
2.989 lb.
304
ACVALUE_END
170
5
140
0.125
171
1
172
0
173
0
174
0
175
1
176
1
 91
33
178
0
145
0.0
301
CELL_VALUE
 90
4
  1
1,356 kg.
304
ACVALUE_END
170
5
140
0.125
171
1
172
0
173
0
174
0
175
1
176
1
 91
33
178
0
145
0.0
301
CELL_VALUE
 90
4
  1
Mounting Hole Diameter
304
ACVALUE_END
170
5
140
0.125
171
1
172
0
173
0
174
0
175
1
176
1
 91
33
178
0
145
0.0
301
CELL_VALUE
 90
4
  1
.28 in.
304
ACVALUE_END
170
5
140
0.125
171
1
172
0
173
0
174
0
175
1
176
1
 91
33
178
0
145
0.0
301
CELL_VALUE
 90
4
  1
7,1 mm
304
ACVALUE_END
170
5
140
0.125
171
1
172
0
173
0
174
0
175
1
176
1
 91
33
178
0
145
0.0
301
CELL_VALUE
 90
4
  1
Mounting Hole Depth
304
ACVALUE_END
170
5
140
0.125
171
1
172
0
173
0
174
0
175
2
176
1
 91
33
178
0
145
0.0
301
CELL_VALUE
 90
4
  1
Through
304
ACVALUE_END
170
5
140
0.125
171
1
172
0
173
1
174
0
175
1
176
1
 91
1
178
0
145
0.0
170
1
171
1
172
0
173
0
174
0
175
1
176
1
 91
33
178
0
145
0.0
301
CELL_VALUE
 90
4
  1
Mounting Hole Quantity
304
ACVALUE_END
170
5
140
0.125
171
1
172
0
173
0
174
0
175
2
176
1
 91
33
178
0
145
0.0
301
CELL_VALUE
 90
4
  1
4
304
ACVALUE_END
170
5
140
0.125
171
1
172
0
173
1
174
0
175
1
176
1
 91
1
178
0
145
0.0
170
1
  0
ACAD_TABLE
  5
287
100
AcDbEntity
  8
0
 62
2
  6
CONTINUOUS
100
AcDbBlockReference
  2
*T3
 10
0.52125
 20
1.709
 30
0.0
100
AcDbTable
342
       36E
343
209
 11
1.0
 21
0.0
 31
0.0
 90
22
 91
4
 92
3
 93
16
 94
0
 95
0
 96
0
 41
0.05
141
0.34375
141
0.344
141
0.25
141
0.25
142
1.3
142
2.0
142
1.3
171
1
172
0
173
0
174
0
175
3
176
1
 91
33
178
0
145
0.0
301
CELL_VALUE
 90
4
  1
Port Headings
304
ACVALUE_END
170
5
140
0.145
171
1
172
0
173
1
174
0
175
1
176
1
 91
1
178
0
145
0.0
170
1
171
1
172
0
173
1
174
0
175
1
176
1
 91
1
178
0
145
0.0
170
1
171
1
172
0
173
0
174
0
175
1
176
1
 91
33
178
0
145
0.0
301
CELL_VALUE
 90
4
  1
Product
304
ACVALUE_END
170
5
140
0.145
171
1
172
0
173
0
174
0
175
1
176
1
 91
33
178
0
145
0.0
301
CELL_VALUE
 90
4
  1
Port
304
ACVALUE_END
170
5
140
0.145
171
1
172
0
173
0
174
0
175
1
176
1
 91
33
178
0
145
0.0
301
CELL_VALUE
 90
4
  1
Size
304
ACVALUE_END
170
5
140
0.145
171
1
172
0
173
0
174
0
175
1
176
1
 91
33
178
0
145
0.0
301
CELL_VALUE
 90
4
  1
ZFS
304
ACVALUE_END
170
5
140
0.125
171
1
172
0
173
0
174
0
175
1
176
1
 91
33
178
0
145
0.0
301
CELL_VALUE
 90
4
  1
Ports A, B, P, T
304
ACVALUE_END
170
5
140
0.125
171
1
172
0
173
0
174
0
175
1
176
1
 91
33
178
0
145
0.0
301
CELL_VALUE
 90
4
  1
3/4" NPTF
304
ACVALUE_END
170
5
140
0.125
171
1
172
0
173
0
174
0
175
1
176
1
 91
33
178
0
145
0.0
301
CELL_VALUE
 90
4
  1
ZFS
304
ACVALUE_END
170
5
140
0.125
171
1
172
0
173
0
174
0
175
1
176
1
 91
33
178
0
145
0.0
301
CELL_VALUE
 90
4
  1
Gage Port
304
ACVALUE_END
170
5
140
0.125
171
1
172
0
173
0
174
0
175
1
176
1
 91
33
178
0
145
0.0
301
CELL_VALUE
 90
4
  1
1/4" NPTF
304
ACVALUE_END
170
5
140
0.125
  0
MTEXT
  5
288
100
AcDbEntity
  8
0
100
AcDbMText
 62
2
  6
CONTINUOUS
  7
STANDARD
 71
1
 72
1
 10
0.52125
 20
5.75995
 30
0.0
 11
1.0
 21
0.0
 31
0.0
 44
0.6
  3
Notes\P \P1. Important: Carefully consider\P   the maximum system pressure. The\P   pressure rating of the manifold is\P   dependent on the manifold material,\P   with the port type/size a secondary\P   consideration. Manifolds\P   constructed of alu
  1
minum are not\P   rated for pressures higher than\P   3000 psi (210 bar), regardless of\P   the port type/size specified.
 40
0.1
 41
3.04
  0
LINE
  5
289
100
AcDbEntity
  8
0
100
AcDbLine
 62
7
  6
CONTINUOUS
 10
0.30125
 20
0.30125
 11
0.30125
 21
16.69875
  0
LINE
  5
28A
100
AcDbEntity
  8
0
100
AcDbLine
 62
7
  6
CONTINUOUS
 10
0.30125
 20
0.30125
 11
21.69875
 21
0.30125
  0
LINE
  5
28B
100
AcDbEntity
  8
0
100
AcDbLine
 62
7
  6
CONTINUOUS
 10
0.30125
 20
16.69875
 11
21.69875
 21
16.69875
  0
LINE
  5
28C
100
AcDbEntity
  8
0
100
AcDbLine
 62
7
  6
CONTINUOUS
 10
21.69875
 20
0.30125
 11
21.69875
 21
16.69875
  0
LINE
  5
28D
100
AcDbEntity
  8
0
100
AcDbLine
 62
7
  6
CONTINUOUS
 10
9.4763711055
 20
10.6561577101
 11
8.7806660958
 21
9.9841582339
  0
LINE
  5
28E
100
AcDbEntity
  8
0
100
AcDbLine
 62
7
  6
CONTINUOUS
 10
8.7806660958
 20
6.6034176416
 11
8.7806660958
 21
9.9841582339
  0
LINE
  5
28F
100
AcDbEntity
  8
0
100
AcDbLine
 62
7
  6
CONTINUOUS
 10
8.7806660958
 20
6.6034176416
 11
12.5236288945
 21
6.3438422899
  0
LINE
  5
290
100
AcDbEntity
  8
0
100
AcDbLine
 62
4
  6
CONTINUOUS
 10
11.7209694197
 20
10.0642733853
 11
11.7520276788
 21
10.0942733616
  0
LINE
  5
291
100
AcDbEntity
  8
0
100
AcDbLine
 62
7
  6
CONTINUOUS
 10
12.5236288945
 20
9.7245828822
 11
13.2193339042
 21
10.3965823584
  0
LINE
  5
292
100
AcDbEntity
  8
0
100
AcDbLine
 62
4
  6
CONTINUOUS
 10
12.6663489926
 20
9.6802938474
 11
12.6596936511
 21
9.6738652808
  0
LINE
  5
293
100
AcDbEntity
  8
0
100
AcDbLine
 62
4
  6
CONTINUOUS
 10
12.6552567572
 20
9.6199034619
 11
12.6486014163
 21
9.6134748959
  0
LINE
  5
294
100
AcDbEntity
  8
0
100
AcDbLine
 62
4
  6
CONTINUOUS
 10
12.6663489926
 20
9.556103411
 11
12.6486014163
 21
9.5389605678
  0
LINE
  5
295
100
AcDbEntity
  8
0
100
AcDbLine
 62
4
  6
CONTINUOUS
 10
12.6685674398
 20
9.5140896584
 11
12.6463829685
 21
9.4926611033
  0
LINE
  5
296
100
AcDbEntity
  8
0
100
AcDbLine
 62
4
  6
CONTINUOUS
 10
12.6397276286
 20
9.4862325383
 11
12.6375091807
 21
9.484089682
  0
LINE
  5
297
100
AcDbEntity
  8
0
100
AcDbLine
 62
4
  6
CONTINUOUS
 10
12.8269645611
 20
9.6477710587
 11
12.795906302
 21
9.6177710824
  0
LINE
  5
298
100
AcDbEntity
  8
0
100
AcDbLine
 62
4
  6
CONTINUOUS
 10
12.8003431959
 20
9.5751403519
 11
12.8225276668
 21
9.5965689065
  0
LINE
  5
299
100
AcDbEntity
  8
0
100
AcDbLine
 62
4
  6
CONTINUOUS
 10
12.6663489926
 20
9.4374325299
 11
12.6375091807
 21
9.4095754091
  0
LINE
  5
29A
100
AcDbEntity
  8
0
100
AcDbLine
 62
4
  6
CONTINUOUS
 10
12.6685674398
 20
9.4064579432
 11
12.6463829685
 21
9.3850293881
  0
LINE
  5
29B
100
AcDbEntity
  8
0
100
AcDbLine
 62
4
  6
CONTINUOUS
 10
12.8269645611
 20
9.5428990659
 11
12.795906302
 21
9.5128990895
  0
LINE
  5
29C
100
AcDbEntity
  8
0
100
AcDbLine
 62
4
  6
CONTINUOUS
 10
12.8003431959
 20
9.4840673579
 11
12.8225276668
 21
9.5054959125
  0
LINE
  5
29D
100
AcDbEntity
  8
0
100
AcDbLine
 62
4
  6
CONTINUOUS
 10
12.6463829685
 20
9.3353531694
 11
12.6663489926
 21
9.3546388688
  0
LINE
  5
29E
100
AcDbEntity
  8
0
100
AcDbLine
 62
4
  6
CONTINUOUS
 10
12.6685674398
 20
9.3236642821
 11
12.6508198624
 21
9.3065214377
  0
LINE
  5
29F
100
AcDbEntity
  8
0
100
AcDbLine
 62
4
  6
CONTINUOUS
 10
12.8225276668
 20
9.4475403607
 11
12.8003431959
 21
9.4261118061
  0
LINE
  5
2A0
100
AcDbEntity
  8
0
100
AcDbLine
 62
4
  6
CONTINUOUS
 10
12.6663489926
 20
9.271845263
 11
12.6596936511
 21
9.2654166964
  0
LINE
  5
2A1
100
AcDbEntity
  8
0
100
AcDbLine
 62
4
  6
CONTINUOUS
 10
12.7541994968
 20
9.3387636785
 11
12.7497626024
 21
9.3344779674
  0
LINE
  5
2A2
100
AcDbEntity
  8
0
100
AcDbLine
 62
4
  6
CONTINUOUS
 10
12.6486014163
 20
9.2188251445
 11
12.6530383102
 21
9.2231108551
  0
LINE
  5
2A3
100
AcDbEntity
  8
0
100
AcDbLine
 62
4
  6
CONTINUOUS
 10
12.8225276668
 20
9.3509478114
 11
12.8003431959
 21
9.3295192568
  0
LINE
  5
2A4
100
AcDbEntity
  8
0
100
AcDbLine
 62
4
  6
CONTINUOUS
 10
12.6685674398
 20
9.1994738457
 11
12.6463829685
 21
9.1780452906
  0
LINE
  5
2A5
100
AcDbEntity
  8
0
100
AcDbLine
 62
4
  6
CONTINUOUS
 10
12.7364519198
 20
9.2636652829
 11
12.7320150259
 21
9.2593795722
  0
LINE
  5
2A6
100
AcDbEntity
  8
0
100
AcDbLine
 62
4
  6
CONTINUOUS
 10
12.6375091807
 20
9.1363563717
 11
12.6685674398
 21
9.1663563481
  0
LINE
  5
2A7
100
AcDbEntity
  8
0
100
AcDbLine
 62
4
  6
CONTINUOUS
 10
12.6663489926
 20
9.114537329
 11
12.6486014163
 21
9.0973944858
  0
LINE
  5
2A8
100
AcDbEntity
  8
0
100
AcDbLine
 62
4
  6
CONTINUOUS
 10
12.7586363911
 20
9.2023001906
 11
12.727578132
 21
9.1723002143
  0
LINE
  5
2A9
100
AcDbEntity
  8
0
100
AcDbLine
 62
4
  6
CONTINUOUS
 10
12.8269645611
 20
9.1813668397
 11
12.795906302
 21
9.1513668634
  0
LINE
  5
2AA
100
AcDbEntity
  8
0
100
AcDbLine
 62
4
  6
CONTINUOUS
 10
12.6486014163
 20
8.9925225206
 11
12.6685674398
 21
9.0118082194
  0
LINE
  5
2AB
100
AcDbEntity
  8
0
100
AcDbLine
 62
4
  6
CONTINUOUS
 10
12.8269645611
 20
9.1151319274
 11
12.795906302
 21
9.0851319511
  0
LINE
  5
2AC
100
AcDbEntity
  8
0
100
AcDbLine
 62
4
  6
CONTINUOUS
 10
12.6685674398
 20
8.9621320283
 11
12.6375091807
 21
8.9321320519
  0
LINE
  5
2AD
100
AcDbEntity
  8
0
100
AcDbLine
 62
4
  6
CONTINUOUS
 10
12.8269645611
 20
8.982662089
 11
12.795906302
 21
8.9857795688
  0
LINE
  5
2AE
100
AcDbEntity
  8
0
100
AcDbLine
 62
4
  6
CONTINUOUS
 10
12.6759622634
 20
9.0686272621
 11
12.6463829685
 21
9.0731732978
  0
LINE
  5
2AF
100
AcDbEntity
  8
0
100
AcDbLine
 62
4
  6
CONTINUOUS
 10
12.6685674398
 20
8.8379415642
 11
12.6375091807
 21
8.8079415879
  0
LINE
  5
2B0
100
AcDbEntity
  8
0
100
AcDbLine
 62
4
  6
CONTINUOUS
 10
12.8003431959
 20
8.9100314236
 11
12.8225276668
 21
8.9314599782
  0
LINE
  5
2B1
100
AcDbEntity
  8
0
100
AcDbLine
 62
4
  6
CONTINUOUS
 10
12.6685674398
 20
8.7799860125
 11
12.6375091807
 21
8.7499860362
  0
LINE
  5
2B2
100
AcDbEntity
  8
0
100
AcDbLine
 62
4
  6
CONTINUOUS
 10
12.6641305454
 20
8.7425828453
 11
12.6375091807
 21
8.71686858
  0
LINE
  5
2B3
100
AcDbEntity
  8
0
100
AcDbLine
 62
4
  6
CONTINUOUS
 10
12.8269645611
 20
8.8777901445
 11
12.795906302
 21
8.8477901682
  0
LINE
  5
2B4
100
AcDbEntity
  8
0
100
AcDbLine
 62
4
  6
CONTINUOUS
 10
12.6375091807
 20
8.6589130283
 11
12.6641305454
 21
8.6846272936
  0
LINE
  5
2B5
100
AcDbEntity
  8
0
100
AcDbLine
 62
4
  6
CONTINUOUS
 10
12.6641305454
 20
8.6515098374
 11
12.6596936511
 21
8.6472241263
  0
LINE
  5
2B6
100
AcDbEntity
  8
0
100
AcDbLine
 62
4
  6
CONTINUOUS
 10
12.6463829685
 20
9.0234971343
 11
12.6685674398
 21
9.0697637987
  0
LINE
  5
2B7
100
AcDbEntity
  8
0
100
AcDbLine
 62
4
  6
CONTINUOUS
 10
12.6463829685
 20
8.5764114417
 11
12.6419460746
 21
8.5721257311
  0
LINE
  5
2B8
100
AcDbEntity
  8
0
100
AcDbLine
 62
4
  6
CONTINUOUS
 10
12.6596936511
 20
9.6738652808
 11
12.6582146864
 21
9.6641573776
  0
LINE
  5
2B9
100
AcDbEntity
  8
0
100
AcDbLine
 62
4
  6
CONTINUOUS
 10
12.6567357218
 20
9.629611365
 11
12.6552567572
 21
9.6199034619
  0
LINE
  5
2BA
100
AcDbEntity
  8
0
100
AcDbLine
 62
4
  6
CONTINUOUS
 10
12.6463829685
 20
9.652728815
 11
12.6486014163
 21
9.6631510041
  0
LINE
  5
2BB
100
AcDbEntity
  8
0
100
AcDbLine
 62
4
  6
CONTINUOUS
 10
12.6663489926
 20
9.6306177392
 11
12.6685674398
 21
9.6410399277
  0
LINE
  5
2BC
100
AcDbEntity
  8
0
100
AcDbLine
 62
4
  6
CONTINUOUS
 10
12.6685674398
 20
9.5665255995
 11
12.6663489926
 21
9.556103411
  0
LINE
  5
2BD
100
AcDbEntity
  8
0
100
AcDbLine
 62
4
  6
CONTINUOUS
 10
12.6685674398
 20
9.4478547737
 11
12.6663489926
 21
9.4374325299
  0
LINE
  5
2BE
100
AcDbEntity
  8
0
100
AcDbLine
 62
4
  6
CONTINUOUS
 10
12.6663489926
 20
9.3546388688
 11
12.6685674398
 21
9.3650611126
  0
LINE
  5
2BF
100
AcDbEntity
  8
0
100
AcDbLine
 62
4
  6
CONTINUOUS
 10
12.6463829685
 20
9.211162733
 11
12.6486014163
 21
9.2188251445
  0
LINE
  5
2C0
100
AcDbEntity
  8
0
100
AcDbLine
 62
4
  6
CONTINUOUS
 10
12.6508198624
 20
9.3065214377
 11
12.6463829685
 21
9.2939563941
  0
LINE
  5
2C1
100
AcDbEntity
  8
0
100
AcDbLine
 62
4
  6
CONTINUOUS
 10
12.6375091807
 20
8.7499860362
 11
12.6685674398
 21
8.8379415642
  0
LINE
  5
2C2
100
AcDbEntity
  8
0
100
AcDbLine
 62
4
  6
CONTINUOUS
 10
12.795906302
 20
8.9857795688
 11
12.8269645611
 21
9.0488970151
  0
LINE
  5
2C3
100
AcDbEntity
  8
0
100
AcDbLine
 62
7
  6
CONTINUOUS
 10
12.9926086265
 20
8.4495411324
 11
12.9937358824
 21
8.4506099793
  0
LINE
  5
2C4
100
AcDbEntity
  8
0
100
AcDbLine
 62
7
  6
CONTINUOUS
 10
8.7806660958
 20
9.9841582339
 11
12.5236288945
 21
9.7245828822
  0
LINE
  5
2C5
100
AcDbEntity
  8
0
100
AcDbLine
 62
4
  6
CONTINUOUS
 10
12.6375091807
 20
9.4868494597
 11
12.6397276286
 21
9.4862325383
  0
LINE
  5
2C6
100
AcDbEntity
  8
0
100
AcDbLine
 62
7
  6
CONTINUOUS
 10
12.5236288945
 20
6.3438422899
 11
12.5236288945
 21
9.7245828822
  0
LINE
  5
2C7
100
AcDbEntity
  8
0
100
AcDbLine
 62
4
  6
CONTINUOUS
 10
12.6375091807
 20
8.5843987502
 11
12.6375091807
 21
8.6175162081
  0
LINE
  5
2C8
100
AcDbEntity
  8
0
100
AcDbLine
 62
4
  6
CONTINUOUS
 10
12.6375091807
 20
9.484089682
 11
12.6375091807
 21
9.4868494597
  0
LINE
  5
2C9
100
AcDbEntity
  8
0
100
AcDbLine
 62
4
  6
CONTINUOUS
 10
12.6463829685
 20
9.2939563941
 11
12.6463829685
 21
9.2525595635
  0
LINE
  5
2CA
100
AcDbEntity
  8
0
100
AcDbLine
 62
4
  6
CONTINUOUS
 10
12.6463829685
 20
8.9407034732
 11
12.6463829685
 21
8.9821003038
  0
LINE
  5
2CB
100
AcDbEntity
  8
0
100
AcDbLine
 62
4
  6
CONTINUOUS
 10
12.6463829685
 20
9.1118103507
 11
12.6463829685
 21
9.144927793
  0
LINE
  5
2CC
100
AcDbEntity
  8
0
100
AcDbLine
 62
4
  6
CONTINUOUS
 10
12.6463829685
 20
9.1780452906
 11
12.6463829685
 21
9.211162733
  0
LINE
  5
2CD
100
AcDbEntity
  8
0
100
AcDbLine
 62
4
  6
CONTINUOUS
 10
12.6463829685
 20
9.5450970445
 11
12.6463829685
 21
9.5782145974
  0
LINE
  5
2CE
100
AcDbEntity
  8
0
100
AcDbLine
 62
4
  6
CONTINUOUS
 10
12.6463829685
 20
9.6196113726
 11
12.6463829685
 21
9.652728815
  0
LINE
  5
2CF
100
AcDbEntity
  8
0
100
AcDbLine
 62
4
  6
CONTINUOUS
 10
12.6574752041
 20
9.2798325622
 11
12.6574752041
 21
9.3129500045
  0
LINE
  5
2D0
100
AcDbEntity
  8
0
100
AcDbLine
 62
4
  6
CONTINUOUS
 10
12.6685674398
 20
9.5996431524
 11
12.6685674398
 21
9.5665255995
  0
LINE
  5
2D1
100
AcDbEntity
  8
0
100
AcDbLine
 62
4
  6
CONTINUOUS
 10
12.6685674398
 20
9.4644134949
 11
12.6685674398
 21
9.4478547737
  0
LINE
  5
2D2
100
AcDbEntity
  8
0
100
AcDbLine
 62
4
  6
CONTINUOUS
 10
12.6685674398
 20
9.3236642821
 11
12.6685674398
 21
9.2905468397
  0
LINE
  5
2D3
100
AcDbEntity
  8
0
100
AcDbLine
 62
4
  6
CONTINUOUS
 10
12.6685674398
 20
9.1663563481
 11
12.6685674398
 21
9.1332389058
  0
LINE
  5
2D4
100
AcDbEntity
  8
0
100
AcDbLine
 62
4
  6
CONTINUOUS
 10
12.6685674398
 20
8.6061193617
 11
12.6685674398
 21
8.6392368204
  0
LINE
  5
2D5
100
AcDbEntity
  8
0
100
AcDbLine
 62
4
  6
CONTINUOUS
 10
12.6685674398
 20
8.7054717327
 11
12.6685674398
 21
8.7303098352
  0
LINE
  5
2D6
100
AcDbEntity
  8
0
100
AcDbLine
 62
4
  6
CONTINUOUS
 10
12.6685674398
 20
9.3650611126
 11
12.6685674398
 21
9.4064579432
  0
LINE
  5
2D7
100
AcDbEntity
  8
0
100
AcDbLine
 62
4
  6
CONTINUOUS
 10
12.6685674398
 20
9.6410399277
 11
12.6685674398
 21
9.67415737
  0
LINE
  5
2D8
100
AcDbEntity
  8
0
100
AcDbLine
 62
4
  6
CONTINUOUS
 10
12.6759622634
 20
9.0520685409
 11
12.6759622634
 21
9.0686272621
  0
LINE
  5
2D9
100
AcDbEntity
  8
0
100
AcDbLine
 62
4
  6
CONTINUOUS
 10
12.6582146864
 20
9.6641573776
 11
12.6567357218
 21
9.629611365
  0
LINE
  5
2DA
100
AcDbEntity
  8
0
100
AcDbLine
 62
4
  6
CONTINUOUS
 10
12.6685674398
 20
9.2905468397
 11
12.6663489926
 21
9.271845263
  0
LINE
  5
2DB
100
AcDbEntity
  8
0
100
AcDbLine
 62
4
  6
CONTINUOUS
 10
12.6685674398
 20
9.1332389058
 11
12.6663489926
 21
9.114537329
  0
LINE
  5
2DC
100
AcDbEntity
  8
0
100
AcDbLine
 62
4
  6
CONTINUOUS
 10
12.8077380191
 20
9.7119932499
 11
12.8136538785
 21
9.7618641399
  0
LINE
  5
2DD
100
AcDbEntity
  8
0
100
AcDbLine
 62
4
  6
CONTINUOUS
 10
12.7497626024
 20
9.3344779674
 11
12.7364519198
 21
9.2636652829
  0
LINE
  5
2DE
100
AcDbEntity
  8
0
100
AcDbLine
 62
4
  6
CONTINUOUS
 10
12.6596936511
 20
8.6472241263
 11
12.6463829685
 21
8.5764114417
  0
LINE
  5
2DF
100
AcDbEntity
  8
0
100
AcDbLine
 62
4
  6
CONTINUOUS
 10
12.6463829685
 20
8.9821003038
 11
12.6486014163
 21
8.9925225206
  0
LINE
  5
2E0
100
AcDbEntity
  8
0
100
AcDbLine
 62
4
  6
CONTINUOUS
 10
12.727578132
 20
9.3047700527
 11
12.7297965799
 21
9.3151922695
  0
LINE
  5
2E1
100
AcDbEntity
  8
0
100
AcDbLine
 62
4
  6
CONTINUOUS
 10
12.795906302
 20
9.5542959201
 11
12.8003431959
 21
9.5751403519
  0
LINE
  5
2E2
100
AcDbEntity
  8
0
100
AcDbLine
 62
4
  6
CONTINUOUS
 10
12.7564179439
 20
9.2829509824
 11
12.7586363911
 21
9.2933731985
  0
LINE
  5
2E3
100
AcDbEntity
  8
0
100
AcDbLine
 62
4
  6
CONTINUOUS
 10
12.795906302
 20
9.463222926
 11
12.8003431959
 21
9.4840673579
  0
LINE
  5
2E4
100
AcDbEntity
  8
0
100
AcDbLine
 62
4
  6
CONTINUOUS
 10
12.6375091807
 20
8.6175162081
 11
12.6397276286
 21
8.6279384284
  0
LINE
  5
2E5
100
AcDbEntity
  8
0
100
AcDbLine
 62
4
  6
CONTINUOUS
 10
12.8269645611
 20
9.468384793
 11
12.8225276668
 21
9.4475403607
  0
LINE
  5
2E6
100
AcDbEntity
  8
0
100
AcDbLine
 62
4
  6
CONTINUOUS
 10
12.6641305454
 20
8.6846272936
 11
12.6685674398
 21
8.7054717327
  0
LINE
  5
2E7
100
AcDbEntity
  8
0
100
AcDbLine
 62
4
  6
CONTINUOUS
 10
12.8269645611
 20
9.3717922437
 11
12.8225276668
 21
9.3509478114
  0
LINE
  5
2E8
100
AcDbEntity
  8
0
100
AcDbLine
 62
4
  6
CONTINUOUS
 10
12.6663489926
 20
8.5956971412
 11
12.6685674398
 21
8.6061193617
  0
LINE
  5
2E9
100
AcDbEntity
  8
0
100
AcDbLine
 62
4
  6
CONTINUOUS
 10
12.795906302
 20
8.8891869849
 11
12.8003431959
 21
8.9100314236
  0
LINE
  5
2EA
100
AcDbEntity
  8
0
100
AcDbLine
 62
4
  6
CONTINUOUS
 10
11.7571916395
 20
10.0617613658
 11
11.6847471998
 21
10.0667854047
  0
LINE
  5
2EB
100
AcDbEntity
  8
0
100
AcDbLine
 62
4
  6
CONTINUOUS
 10
12.727578132
 20
9.1391827581
 11
12.7586363911
 21
9.1112271828
  0
LINE
  5
2EC
100
AcDbEntity
  8
0
100
AcDbLine
 62
4
  6
CONTINUOUS
 10
12.6419460746
 20
8.5721257311
 11
12.6375091807
 21
8.5843987502
  0
LINE
  5
2ED
100
AcDbEntity
  8
0
100
AcDbLine
 62
4
  6
CONTINUOUS
 10
12.6685674398
 20
8.6392368204
 11
12.6641305454
 21
8.6515098374
  0
LINE
  5
2EE
100
AcDbEntity
  8
0
100
AcDbLine
 62
4
  6
CONTINUOUS
 10
12.6685674398
 20
8.7303098352
 11
12.6641305454
 21
8.7425828453
  0
LINE
  5
2EF
100
AcDbEntity
  8
0
100
AcDbLine
 62
4
  6
CONTINUOUS
 10
12.727578132
 20
9.0812272064
 11
12.727578132
 21
9.1391827581
  0
LINE
  5
2F0
100
AcDbEntity
  8
0
100
AcDbLine
 62
4
  6
CONTINUOUS
 10
12.727578132
 20
9.1723002143
 11
12.727578132
 21
9.2219764054
  0
LINE
  5
2F1
100
AcDbEntity
  8
0
100
AcDbLine
 62
4
  6
CONTINUOUS
 10
12.727578132
 20
9.2716525966
 11
12.727578132
 21
9.3047700527
  0
LINE
  5
2F2
100
AcDbEntity
  8
0
100
AcDbLine
 62
4
  6
CONTINUOUS
 10
12.7408888137
 20
9.2348335374
 11
12.7408888137
 21
9.1851573463
  0
LINE
  5
2F3
100
AcDbEntity
  8
0
100
AcDbLine
 62
4
  6
CONTINUOUS
 10
12.7586363911
 20
9.1112271828
 11
12.7586363911
 21
9.1691827345
  0
LINE
  5
2F4
100
AcDbEntity
  8
0
100
AcDbLine
 62
4
  6
CONTINUOUS
 10
12.7586363911
 20
9.2933731985
 11
12.7586363911
 21
9.3264906547
  0
LINE
  5
2F5
100
AcDbEntity
  8
0
100
AcDbLine
 62
4
  6
CONTINUOUS
 10
12.795906302
 20
8.8477901682
 11
12.795906302
 21
8.8891869849
  0
LINE
  5
2F6
100
AcDbEntity
  8
0
100
AcDbLine
 62
4
  6
CONTINUOUS
 10
12.795906302
 20
9.0520144811
 11
12.795906302
 21
9.1182493934
  0
LINE
  5
2F7
100
AcDbEntity
  8
0
100
AcDbLine
 62
4
  6
CONTINUOUS
 10
12.795906302
 20
9.1513668634
 11
12.795906302
 21
9.2010430545
  0
LINE
  5
2F8
100
AcDbEntity
  8
0
100
AcDbLine
 62
4
  6
CONTINUOUS
 10
12.795906302
 20
9.3417922673
 11
12.795906302
 21
9.3749097096
  0
LINE
  5
2F9
100
AcDbEntity
  8
0
100
AcDbLine
 62
4
  6
CONTINUOUS
 10
12.795906302
 20
9.4383848167
 11
12.795906302
 21
9.463222926
  0
LINE
  5
2FA
100
AcDbEntity
  8
0
100
AcDbLine
 62
4
  6
CONTINUOUS
 10
12.795906302
 20
9.5128990895
 11
12.795906302
 21
9.5542959201
  0
LINE
  5
2FB
100
AcDbEntity
  8
0
100
AcDbLine
 62
4
  6
CONTINUOUS
 10
12.795906302
 20
9.6177710824
 11
12.795906302
 21
9.6674472459
  0
LINE
  5
2FC
100
AcDbEntity
  8
0
100
AcDbLine
 62
4
  6
CONTINUOUS
 10
12.8092169837
 20
9.6637456567
 11
12.8092169837
 21
9.6306282143
  0
LINE
  5
2FD
100
AcDbEntity
  8
0
100
AcDbLine
 62
4
  6
CONTINUOUS
 10
12.8092169837
 20
9.1973414653
 11
12.8092169837
 21
9.1642239953
  0
LINE
  5
2FE
100
AcDbEntity
  8
0
100
AcDbLine
 62
4
  6
CONTINUOUS
 10
12.8180907724
 20
8.9851298188
 11
12.8180907724
 21
9.029286427
  0
LINE
  5
2FF
100
AcDbEntity
  8
0
100
AcDbLine
 62
4
  6
CONTINUOUS
 10
12.8269645611
 20
9.5842958964
 11
12.8269645611
 21
9.5428990659
  0
LINE
  5
300
100
AcDbEntity
  8
0
100
AcDbLine
 62
4
  6
CONTINUOUS
 10
12.8269645611
 20
9.4932229024
 11
12.8269645611
 21
9.468384793
  0
LINE
  5
301
100
AcDbEntity
  8
0
100
AcDbLine
 62
4
  6
CONTINUOUS
 10
12.8269645611
 20
9.404909686
 11
12.8269645611
 21
9.3717922437
  0
LINE
  5
302
100
AcDbEntity
  8
0
100
AcDbLine
 62
4
  6
CONTINUOUS
 10
12.8269645611
 20
8.9191869613
 11
12.8269645611
 21
8.8777901445
  0
LINE
  5
303
100
AcDbEntity
  8
0
100
AcDbLine
 62
4
  6
CONTINUOUS
 10
12.8269645611
 20
9.1813668397
 11
12.8269645611
 21
9.2310430308
  0
LINE
  5
304
100
AcDbEntity
  8
0
100
AcDbLine
 62
4
  6
CONTINUOUS
 10
12.8269645611
 20
9.6477710587
 11
12.8269645611
 21
9.6974472222
  0
LINE
  5
305
100
AcDbEntity
  8
0
100
AcDbLine
 62
4
  6
CONTINUOUS
 10
12.8136538785
 20
8.7986980925
 11
12.8195697375
 21
8.8485689854
  0
LINE
  5
306
100
AcDbEntity
  8
0
100
AcDbLine
 62
4
  6
CONTINUOUS
 10
12.8225276668
 20
8.9314599782
 11
12.8269645611
 21
8.9191869613
  0
LINE
  5
307
100
AcDbEntity
  8
0
100
AcDbLine
 62
4
  6
CONTINUOUS
 10
12.6486014163
 20
9.0973944858
 11
12.6463829685
 21
9.1118103507
  0
LINE
  5
308
100
AcDbEntity
  8
0
100
AcDbLine
 62
4
  6
CONTINUOUS
 10
12.6596936511
 20
9.2654166964
 11
12.6574752041
 21
9.2798325622
  0
LINE
  5
309
100
AcDbEntity
  8
0
100
AcDbLine
 62
4
  6
CONTINUOUS
 10
12.8077380191
 20
8.8371404224
 11
12.8136538785
 21
8.7986980925
  0
LINE
  5
30A
100
AcDbEntity
  8
0
100
AcDbLine
 62
7
  6
CONTINUOUS
 10
13.2193339042
 20
10.3965823584
 11
9.4763711055
 21
10.6561577101
  0
LINE
  5
30B
100
AcDbEntity
  8
0
100
AcDbLine
 62
4
  6
CONTINUOUS
 10
12.7320150259
 20
9.2593795722
 11
12.727578132
 21
9.2716525966
  0
LINE
  5
30C
100
AcDbEntity
  8
0
100
AcDbLine
 62
4
  6
CONTINUOUS
 10
12.6486014163
 20
9.5389605678
 11
12.6463829685
 21
9.5450970445
  0
LINE
  5
30D
100
AcDbEntity
  8
0
100
AcDbLine
 62
4
  6
CONTINUOUS
 10
12.6486014163
 20
9.6134748959
 11
12.6463829685
 21
9.6196113726
  0
LINE
  5
30E
100
AcDbEntity
  8
0
100
AcDbLine
 62
4
  6
CONTINUOUS
 10
12.7586363911
 20
9.3264906547
 11
12.7541994968
 21
9.3387636785
  0
LINE
  5
30F
100
AcDbEntity
  8
0
100
AcDbLine
 62
4
  6
CONTINUOUS
 10
12.6685674398
 20
9.67415737
 11
12.6663489926
 21
9.6802938474
  0
LINE
  5
310
100
AcDbEntity
  8
0
100
AcDbLine
 62
4
  6
CONTINUOUS
 10
12.8003431959
 20
9.3295192568
 11
12.795906302
 21
9.3417922673
  0
LINE
  5
311
100
AcDbEntity
  8
0
100
AcDbLine
 62
4
  6
CONTINUOUS
 10
12.8003431959
 20
9.4261118061
 11
12.795906302
 21
9.4383848167
  0
LINE
  5
312
100
AcDbEntity
  8
0
100
AcDbLine
 62
4
  6
CONTINUOUS
 10
12.8225276668
 20
9.5054959125
 11
12.8269645611
 21
9.4932229024
  0
LINE
  5
313
100
AcDbEntity
  8
0
100
AcDbLine
 62
4
  6
CONTINUOUS
 10
12.8225276668
 20
9.5965689065
 11
12.8269645611
 21
9.5842958964
  0
LINE
  5
314
100
AcDbEntity
  8
0
100
AcDbLine
 62
4
  6
CONTINUOUS
 10
12.8136538785
 20
9.7618641399
 11
12.8195697375
 21
9.723421813
  0
LINE
  5
315
100
AcDbEntity
  8
0
100
AcDbLine
 62
7
  6
CONTINUOUS
 10
13.2193339042
 20
7.0158417661
 11
13.2193339042
 21
10.3965823584
  0
LINE
  5
316
100
AcDbEntity
  8
0
100
AcDbLine
 62
7
  6
CONTINUOUS
 10
12.5236288945
 20
6.3438422899
 11
13.2193339042
 21
7.0158417661
  0
ARC
  5
317
100
AcDbEntity
  8
0
100
AcDbCircle
 62
7
  6
CONTINUOUS
 10
10.1906573644
 20
7.7394862384
 40
0.0905793681
100
AcDbArc
 50
222.1284318884
 51
226.075417608
  0
SPLINE
  5
318
100
AcDbEntity
  8
0
100
AcDbSpline
 62
7
  6
CONTINUOUS
 70
0
 71
3
 72
33
 73
29
 74
0
 42
0.0000001
 43
0.0000001
 44
0.0000000001
 40
0.0
 40
0.0
 40
0.0
 40
0.0
 40
0.0845018879
 40
0.1673006947
 40
0.2480793749
 40
0.3265296559
 40
0.4023569432
 40
0.4752811983
 40
0.5105725315
 40
0.5450410489
 40
0.5786569493
 40
0.6113918338
 40
0.6432188773
 40
0.6741127503
 40
0.7040500174
 40
0.7330090191
 40
0.7609702172
 40
0.7879163572
 40
0.8138325728
 40
0.8387069143
 40
0.8625303685
 40
0.8852975233
 40
0.907006901
 40
0.9276615333
 40
0.9472698654
 40
0.9658463673
 40
0.9834129366
 40
1.0
 40
1.0
 40
1.0
 40
1.0
 10
11.7974175375
 20
10.1171166367
 30
0.0
 10
11.7863426701
 20
10.1178846813
 30
0.0
 10
11.7644290566
 20
10.1195996684
 30
0.0
 10
11.7319877349
 20
10.1227444035
 30
0.0
 10
11.7004028879
 20
10.1264252037
 30
0.0
 10
11.6698070768
 20
10.1306264486
 30
0.0
 10
11.6403288565
 20
10.1353302917
 30
0.0
 10
11.6165453036
 20
10.1396985281
 30
0.0
 10
11.5981768738
 20
10.1434401674
 30
0.0
 10
11.5849060936
 20
10.1463285185
 30
0.0
 10
11.5720042131
 20
10.1493265344
 30
0.0
 10
11.5594847582
 20
10.1524310889
 30
0.0
 10
11.5473608649
 20
10.1556388703
 30
0.0
 10
11.5356452495
 20
10.1589465386
 30
0.0
 10
11.524350185
 20
10.1623505635
 30
0.0
 10
11.5134875023
 20
10.1658473845
 30
0.0
 10
11.5030685651
 20
10.1694333122
 30
0.0
 10
11.4931042562
 20
10.1731045522
 30
0.0
 10
11.4836049807
 20
10.1768572877
 30
0.0
 10
11.4745806179
 20
10.1806875319
 30
0.0
 10
11.4660405532
 20
10.1845913248
 30
0.0
 10
11.4579936238
 20
10.1885645785
 30
0.0
 10
11.4504481303
 20
10.1926031766
 30
0.0
 10
11.4434118312
 20
10.1967030204
 30
0.0
 10
11.4368919152
 20
10.200859882
 30
0.0
 10
11.4308949605
 20
10.2050697673
 30
0.0
 10
11.4254272959
 20
10.2093282764
 30
0.0
 10
11.4220437602
 20
10.2122799685
 30
0.0
 10
11.4204485289
 20
10.2137645061
 30
0.0
  0
SPLINE
  5
319
100
AcDbEntity
  8
0
100
AcDbSpline
 62
7
  6
CONTINUOUS
 70
0
 71
3
 72
41
 73
37
 74
0
 42
0.0000001
 43
0.0000001
 44
0.0000000001
 40
0.0
 40
0.0
 40
0.0
 40
0.0
 40
0.031144444
 40
0.0624425093
 40
0.0938872508
 40
0.1254695847
 40
0.1571771078
 40
0.1889951283
 40
0.2209066801
 40
0.2528929859
 40
0.2849338014
 40
0.3170078274
 40
0.3490931225
 40
0.3811675283
 40
0.4132090962
 40
0.4451965119
 40
0.4771095115
 40
0.5089292827
 40
0.5406388458
 40
0.5722234075
 40
0.6036706813
 40
0.6349711679
 40
0.6661183875
 40
0.6971090579
 40
0.7279432122
 40
0.7586242475
 40
0.7891589026
 40
0.8195571573
 40
0.8498320547
 40
0.8649308931
 40
0.8800050545
 40
0.9100832586
 40
0.9400926739
 40
0.9550812746
 40
0.9700610358
 40
1.0
 40
1.0
 40
1.0
 40
1.0
 10
9.4635757121
 20
9.7518234679
 30
0.0
 10
9.4668896637
 20
9.7515936446
 30
0.0
 10
9.4735195553
 20
9.7508902854
 30
0.0
 10
9.4833840023
 20
9.7491185525
 30
0.0
 10
9.4931428106
 20
9.7466368266
 30
0.0
 10
9.5027432292
 20
9.7434585388
 30
0.0
 10
9.5121342897
 20
9.7396006672
 30
0.0
 10
9.5212658873
 20
9.735083877
 30
0.0
 10
9.5300893783
 20
9.7299322935
 30
0.0
 10
9.5385577462
 20
9.7241734278
 30
0.0
 10
9.5466258712
 20
9.7178380071
 30
0.0
 10
9.5542507633
 20
9.7109598216
 30
0.0
 10
9.5613917892
 20
9.703575542
 30
0.0
 10
9.568010887
 20
9.6957245271
 30
0.0
 10
9.5740727665
 20
9.6874486158
 30
0.0
 10
9.5795450961
 20
9.6787919066
 30
0.0
 10
9.5843986735
 20
9.6698005247
 30
0.0
 10
9.5886075807
 20
9.6605223798
 30
0.0
 10
9.5921493215
 20
9.6510069136
 30
0.0
 10
9.5950049418
 20
9.6413048396
 30
0.0
 10
9.5971591309
 20
9.6314678767
 30
0.0
 10
9.5986003056
 20
9.6215484773
 30
0.0
 10
9.5993206735
 20
9.6115995507
 30
0.0
 10
9.5993162795
 20
9.6016741869
 30
0.0
 10
9.5985870267
 20
9.5918253661
 30
0.0
 10
9.5971367011
 20
9.5821057167
 30
0.0
 10
9.5949728868
 20
9.5725670921
 30
0.0
 10
9.5921071947
 20
9.5632608222
 30
0.0
 10
9.5891435946
 20
9.5557325945
 30
0.0
 10
9.5864391498
 20
9.5498782367
 30
0.0
 10
9.5835205444
 20
9.544151167
 30
0.0
 10
9.5794682192
 20
9.5372239804
 30
0.0
 10
9.574894693
 20
9.5306403195
 30
0.0
 10
9.5709425189
 20
9.5256079149
 30
0.0
 10
9.5668017776
 20
9.520739796
 30
0.0
 10
9.5634843387
 20
9.5172740974
 30
0.0
 10
9.5611875182
 20
9.5150555412
 30
0.0
  0
SPLINE
  5
31A
100
AcDbEntity
  8
0
100
AcDbSpline
 62
7
  6
CONTINUOUS
 70
0
 71
3
 72
41
 73
37
 74
0
 42
0.0000001
 43
0.0000001
 44
0.0000000001
 40
0.0
 40
0.0
 40
0.0
 40
0.0
 40
0.031144444
 40
0.0624425093
 40
0.0938872508
 40
0.1254695847
 40
0.1571771078
 40
0.1889951283
 40
0.2209066801
 40
0.2528929859
 40
0.2849338014
 40
0.3170078274
 40
0.3490931225
 40
0.3811675283
 40
0.4132090962
 40
0.4451965119
 40
0.4771095115
 40
0.5089292827
 40
0.5406388458
 40
0.5722234075
 40
0.6036706813
 40
0.6349711679
 40
0.6661183875
 40
0.6971090579
 40
0.7279432122
 40
0.7586242475
 40
0.7891589026
 40
0.8195571573
 40
0.8498320547
 40
0.8649308931
 40
0.8800050545
 40
0.9100832586
 40
0.9400926739
 40
0.9550812746
 40
0.9700610358
 40
1.0
 40
1.0
 40
1.0
 40
1.0
 10
12.2029414846
 20
9.5618478064
 30
0.0
 10
12.2062554362
 20
9.561617983
 30
0.0
 10
12.2128853278
 20
9.5609146238
 30
0.0
 10
12.2227497748
 20
9.5591428909
 30
0.0
 10
12.2325085831
 20
9.556661165
 30
0.0
 10
12.2421090017
 20
9.5534828772
 30
0.0
 10
12.2515000622
 20
9.5496250057
 30
0.0
 10
12.2606316598
 20
9.5451082154
 30
0.0
 10
12.2694551509
 20
9.5399566319
 30
0.0
 10
12.2779235187
 20
9.5341977662
 30
0.0
 10
12.2859916437
 20
9.5278623455
 30
0.0
 10
12.2936165358
 20
9.52098416
 30
0.0
 10
12.3007575617
 20
9.5135998804
 30
0.0
 10
12.3073766595
 20
9.5057488655
 30
0.0
 10
12.313438539
 20
9.4974729543
 30
0.0
 10
12.3189108686
 20
9.488816245
 30
0.0
 10
12.323764446
 20
9.4798248631
 30
0.0
 10
12.3279733532
 20
9.4705467183
 30
0.0
 10
12.3315150941
 20
9.461031252
 30
0.0
 10
12.3343707143
 20
9.451329178
 30
0.0
 10
12.3365249034
 20
9.4414922151
 30
0.0
 10
12.3379660781
 20
9.4315728158
 30
0.0
 10
12.338686446
 20
9.4216238891
 30
0.0
 10
12.338682052
 20
9.4116985253
 30
0.0
 10
12.3379527992
 20
9.4018497046
 30
0.0
 10
12.3365024736
 20
9.3921300551
 30
0.0
 10
12.3343386593
 20
9.3825914305
 30
0.0
 10
12.3314729672
 20
9.3732851606
 30
0.0
 10
12.3285093671
 20
9.365756933
 30
0.0
 10
12.3258049223
 20
9.3599025751
 30
0.0
 10
12.3228863169
 20
9.3541755054
 30
0.0
 10
12.3188339917
 20
9.3472483188
 30
0.0
 10
12.3142604655
 20
9.340664658
 30
0.0
 10
12.3103082914
 20
9.3356322533
 30
0.0
 10
12.3061675501
 20
9.3307641344
 30
0.0
 10
12.3028501112
 20
9.3272984358
 30
0.0
 10
12.3005532907
 20
9.3250798796
 30
0.0
  0
SPLINE
  5
31B
100
AcDbEntity
  8
0
100
AcDbSpline
 62
7
  6
CONTINUOUS
 70
0
 71
3
 72
41
 73
37
 74
0
 42
0.0000001
 43
0.0000001
 44
0.0000000001
 40
0.0
 40
0.0
 40
0.0
 40
0.0
 40
0.031144444
 40
0.0624425093
 40
0.0938872508
 40
0.1254695847
 40
0.1571771078
 40
0.1889951283
 40
0.2209066801
 40
0.2528929859
 40
0.2849338014
 40
0.3170078274
 40
0.3490931225
 40
0.3811675283
 40
0.4132090962
 40
0.4451965119
 40
0.4771095115
 40
0.5089292827
 40
0.5406388458
 40
0.5722234075
 40
0.6036706813
 40
0.6349711679
 40
0.6661183875
 40
0.6971090579
 40
0.7279432122
 40
0.7586242475
 40
0.7891589026
 40
0.8195571573
 40
0.8498320547
 40
0.8649308931
 40
0.8800050545
 40
0.9100832586
 40
0.9400926739
 40
0.9550812746
 40
0.9700610358
 40
1.0
 40
1.0
 40
1.0
 40
1.0
 10
9.4635757121
 20
7.0124576666
 30
0.0
 10
9.4668896637
 20
7.0122278433
 30
0.0
 10
9.4735195553
 20
7.0115244841
 30
0.0
 10
9.4833840023
 20
7.0097527512
 30
0.0
 10
9.4931428106
 20
7.0072710253
 30
0.0
 10
9.5027432292
 20
7.0040927375
 30
0.0
 10
9.5121342897
 20
7.0002348659
 30
0.0
 10
9.5212658873
 20
6.9957180757
 30
0.0
 10
9.5300893783
 20
6.9905664922
 30
0.0
 10
9.5385577462
 20
6.9848076265
 30
0.0
 10
9.5466258712
 20
6.9784722058
 30
0.0
 10
9.5542507633
 20
6.9715940203
 30
0.0
 10
9.5613917892
 20
6.9642097407
 30
0.0
 10
9.568010887
 20
6.9563587258
 30
0.0
 10
9.5740727665
 20
6.9480828145
 30
0.0
 10
9.5795450961
 20
6.9394261053
 30
0.0
 10
9.5843986735
 20
6.9304347234
 30
0.0
 10
9.5886075807
 20
6.9211565786
 30
0.0
 10
9.5921493215
 20
6.9116411123
 30
0.0
 10
9.5950049418
 20
6.9019390383
 30
0.0
 10
9.5971591309
 20
6.8921020754
 30
0.0
 10
9.5986003056
 20
6.882182676
 30
0.0
 10
9.5993206735
 20
6.8722337494
 30
0.0
 10
9.5993162795
 20
6.8623083856
 30
0.0
 10
9.5985870267
 20
6.8524595648
 30
0.0
 10
9.5971367011
 20
6.8427399154
 30
0.0
 10
9.5949728868
 20
6.8332012908
 30
0.0
 10
9.5921071947
 20
6.8238950209
 30
0.0
 10
9.5891435946
 20
6.8163667932
 30
0.0
 10
9.5864391498
 20
6.8105124354
 30
0.0
 10
9.5835205444
 20
6.8047853657
 30
0.0
 10
9.5794682192
 20
6.7978581791
 30
0.0
 10
9.574894693
 20
6.7912745182
 30
0.0
 10
9.5709425189
 20
6.7862421136
 30
0.0
 10
9.5668017776
 20
6.7813739947
 30
0.0
 10
9.5634843387
 20
6.7779082961
 30
0.0
 10
9.5611875182
 20
6.7756897399
 30
0.0
  0
SPLINE
  5
31C
100
AcDbEntity
  8
0
100
AcDbSpline
 62
7
  6
CONTINUOUS
 70
0
 71
3
 72
41
 73
37
 74
0
 42
0.0000001
 43
0.0000001
 44
0.0000000001
 40
0.0
 40
0.0
 40
0.0
 40
0.0
 40
0.031144444
 40
0.0624425093
 40
0.0938872508
 40
0.1254695847
 40
0.1571771078
 40
0.1889951283
 40
0.2209066801
 40
0.2528929859
 40
0.2849338014
 40
0.3170078274
 40
0.3490931225
 40
0.3811675283
 40
0.4132090962
 40
0.4451965119
 40
0.4771095115
 40
0.5089292827
 40
0.5406388458
 40
0.5722234075
 40
0.6036706813
 40
0.6349711679
 40
0.6661183875
 40
0.6971090579
 40
0.7279432122
 40
0.7586242475
 40
0.7891589026
 40
0.8195571573
 40
0.8498320547
 40
0.8649308931
 40
0.8800050545
 40
0.9100832586
 40
0.9400926739
 40
0.9550812746
 40
0.9700610358
 40
1.0
 40
1.0
 40
1.0
 40
1.0
 10
12.2029414846
 20
6.8224820051
 30
0.0
 10
12.2062554362
 20
6.8222521817
 30
0.0
 10
12.2128853278
 20
6.8215488225
 30
0.0
 10
12.2227497748
 20
6.8197770896
 30
0.0
 10
12.2325085831
 20
6.8172953638
 30
0.0
 10
12.2421090017
 20
6.8141170759
 30
0.0
 10
12.2515000622
 20
6.8102592044
 30
0.0
 10
12.2606316598
 20
6.8057424141
 30
0.0
 10
12.2694551509
 20
6.8005908307
 30
0.0
 10
12.2779235187
 20
6.7948319649
 30
0.0
 10
12.2859916437
 20
6.7884965442
 30
0.0
 10
12.2936165358
 20
6.7816183587
 30
0.0
 10
12.3007575617
 20
6.7742340791
 30
0.0
 10
12.3073766595
 20
6.7663830642
 30
0.0
 10
12.313438539
 20
6.758107153
 30
0.0
 10
12.3189108686
 20
6.7494504437
 30
0.0
 10
12.323764446
 20
6.7404590618
 30
0.0
 10
12.3279733532
 20
6.731180917
 30
0.0
 10
12.3315150941
 20
6.7216654507
 30
0.0
 10
12.3343707143
 20
6.7119633767
 30
0.0
 10
12.3365249034
 20
6.7021264138
 30
0.0
 10
12.3379660781
 20
6.6922070145
 30
0.0
 10
12.338686446
 20
6.6822580878
 30
0.0
 10
12.338682052
 20
6.672332724
 30
0.0
 10
12.3379527992
 20
6.6624839033
 30
0.0
 10
12.3365024736
 20
6.6527642538
 30
0.0
 10
12.3343386593
 20
6.6432256292
 30
0.0
 10
12.3314729672
 20
6.6339193593
 30
0.0
 10
12.3285093671
 20
6.6263911317
 30
0.0
 10
12.3258049223
 20
6.6205367738
 30
0.0
 10
12.3228863169
 20
6.6148097041
 30
0.0
 10
12.3188339917
 20
6.6078825175
 30
0.0
 10
12.3142604655
 20
6.6012988567
 30
0.0
 10
12.3103082914
 20
6.596266452
 30
0.0
 10
12.3061675501
 20
6.5913983332
 30
0.0
 10
12.3028501112
 20
6.5879326345
 30
0.0
 10
12.3005532907
 20
6.5857140783
 30
0.0
  0
SPLINE
  5
31D
100
AcDbEntity
  8
0
100
AcDbSpline
 62
7
  6
CONTINUOUS
 70
0
 71
3
 72
11
 73
7
 74
0
 42
0.0000001
 43
0.0000001
 44
0.0000000001
 40
0.0
 40
0.0
 40
0.0
 40
0.0
 40
0.2523302101
 40
0.5030346319
 40
0.7522106845
 40
1.0
 40
1.0
 40
1.0
 40
1.0
 10
11.0009028359
 20
7.7476480632
 30
0.0
 10
11.0009028359
 20
7.74391707
 30
0.0
 10
11.0005532795
 20
7.7364742115
 30
0.0
 10
10.9989726999
 20
7.7254480911
 30
0.0
 10
10.9963528856
 20
7.7146906241
 30
0.0
 10
10.9939222648
 20
7.707741354
 30
0.0
 10
10.9925437468
 20
7.7043467271
 30
0.0
  0
SPLINE
  5
31E
100
AcDbEntity
  8
0
100
AcDbSpline
 62
7
  6
CONTINUOUS
 70
0
 71
3
 72
35
 73
31
 74
0
 42
0.0000001
 43
0.0000001
 44
0.0000000001
 40
0.0
 40
0.0
 40
0.0
 40
0.0
 40
0.0301936605
 40
0.0602990866
 40
0.0903527016
 40
0.120390428
 40
0.150447515
 40
0.180555845
 40
0.2107429892
 40
0.2410314781
 40
0.2714386814
 40
0.3019770402
 40
0.3326545439
 40
0.3634753213
 40
0.3944402549
 40
0.4255475617
 40
0.4881419674
 40
0.5512419179
 40
0.582973277
 40
0.6148037997
 40
0.6786959239
 40
0.7428519342
 40
0.7750097577
 40
0.8071946901
 40
0.8393921935
 40
0.8715869003
 40
0.903762582
 40
0.935902122
 40
0.9679875116
 40
1.0
 40
1.0
 40
1.0
 40
1.0
 10
11.084331364
 20
8.195777245
 30
0.0
 10
11.0857252514
 20
8.1985384712
 30
0.0
 10
11.0887801045
 20
8.2039208297
 30
0.0
 10
11.0941234261
 20
8.2114959391
 30
0.0
 10
11.100168889
 20
8.2185031233
 30
0.0
 10
11.106855355
 20
8.2248932575
 30
0.0
 10
11.1141166457
 20
8.2306298435
 30
0.0
 10
11.1218836776
 20
8.2356871632
 30
0.0
 10
11.1300869835
 20
8.2400498788
 30
0.0
 10
11.1386586415
 20
8.2437115759
 30
0.0
 10
11.1475336729
 20
8.2466732691
 30
0.0
 10
11.1566509069
 20
8.2489418298
 30
0.0
 10
11.1659534591
 20
8.2505285374
 30
0.0
 10
11.1753886594
 20
8.2514478346
 30
0.0
 10
11.1849085261
 20
8.2517162162
 30
0.0
 10
11.1976781607
 20
8.2512291853
 30
0.0
 10
11.2136409569
 20
8.2490744135
 30
0.0
 10
11.2292866826
 20
8.2450080114
 30
0.0
 10
11.2415249548
 20
8.2406786941
 30
0.0
 10
11.2535750836
 20
8.2356359215
 30
0.0
 10
11.2681357562
 20
8.2280602145
 30
0.0
 10
11.2818084015
 20
8.2189191672
 30
0.0
 10
11.2921163552
 20
8.2107230293
 30
0.0
 10
11.2995077444
 20
8.2041441589
 30
0.0
 10
11.3065199784
 20
8.1971573716
 30
0.0
 10
11.31312043
 20
8.1897812142
 30
0.0
 10
11.3192746622
 20
8.1820361647
 30
0.0
 10
11.3249468826
 20
8.173944584
 30
0.0
 10
11.330099419
 20
8.1655322266
 30
0.0
 10
11.3331667963
 20
8.1597201398
 30
0.0
 10
11.3346003315
 20
8.1567706265
 30
0.0
  0
SPLINE
  5
31F
100
AcDbEntity
  8
0
100
AcDbSpline
 62
7
  6
CONTINUOUS
 70
0
 71
3
 72
37
 73
33
 74
0
 42
0.0000001
 43
0.0000001
 44
0.0000000001
 40
0.0
 40
0.0
 40
0.0
 40
0.0
 40
0.0311464763
 40
0.0624483004
 40
0.0938952738
 40
0.1254804953
 40
0.1571907415
 40
0.1890115257
 40
0.2209258547
 40
0.252914932
 40
0.2849585264
 40
0.317035338
 40
0.3491234252
 40
0.381200621
 40
0.4451976236
 40
0.5088978732
 40
0.5406101981
 40
0.5721975056
 40
0.6036475114
 40
0.634950721
 40
0.6661006564
 40
0.6970940303
 40
0.7279308694
 40
0.7586145731
 40
0.7891518852
 40
0.8195527902
 40
0.8498303302
 40
0.8800003491
 40
0.9100811696
 40
0.9400931924
 40
0.9700584311
 40
1.0
 40
1.0
 40
1.0
 40
1.0
 10
11.3162215401
 20
7.5741302667
 30
0.0
 10
11.3180612689
 20
7.5740026811
 30
0.0
 10
11.3217419285
 20
7.5736121806
 30
0.0
 10
11.3272182608
 20
7.5726286299
 30
0.0
 10
11.3326359771
 20
7.5712508324
 30
0.0
 10
11.3379657191
 20
7.5694864165
 30
0.0
 10
11.3431792562
 20
7.5673446893
 30
0.0
 10
11.3482487423
 20
7.5648371616
 30
0.0
 10
11.3531471794
 20
7.5619772148
 30
0.0
 10
11.3578484662
 20
7.5587801384
 30
0.0
 10
11.3623275702
 20
7.5552629741
 30
0.0
 10
11.3665605778
 20
7.55144455
 30
0.0
 10
11.3705251001
 20
7.5473449445
 30
0.0
 10
11.3754196188
 20
7.5415396905
 30
0.0
 10
11.3807649952
 20
7.5336965037
 30
0.0
 10
11.3849756188
 20
7.525213384
 30
0.0
 10
11.3876003238
 20
7.518161325
 30
0.0
 10
11.3891857495
 20
7.512774968
 30
0.0
 10
11.3903816582
 20
7.5073139425
 30
0.0
 10
11.391181771
 20
7.501807094
 30
0.0
 10
11.3915817194
 20
7.4962838663
 30
0.0
 10
11.3915793053
 20
7.4907737122
 30
0.0
 10
11.3911744723
 20
7.4853060549
 30
0.0
 10
11.3903693297
 20
7.479910096
 30
0.0
 10
11.3891681152
 20
7.4746146696
 30
0.0
 10
11.3875771818
 20
7.4694480882
 30
0.0
 10
11.3856049685
 20
7.4644379951
 30
0.0
 10
11.3832619528
 20
7.4596112064
 30
0.0
 10
11.3805606597
 20
7.4549935844
 30
0.0
 10
11.3775154326
 20
7.4506097758
 30
0.0
 10
11.3741428502
 20
7.4464835645
 30
0.0
 10
11.3716871708
 20
7.4439181363
 30
0.0
 10
11.3704120755
 20
7.4426864812
 30
0.0
  0
SPLINE
  5
320
100
AcDbEntity
  8
0
100
AcDbSpline
 62
7
  6
CONTINUOUS
 70
0
 71
3
 72
15
 73
11
 74
0
 42
0.0000001
 43
0.0000001
 44
0.0000000001
 40
0.0
 40
0.0
 40
0.0
 40
0.0
 40
0.1273481239
 40
0.2538605621
 40
0.3795879444
 40
0.5046050907
 40
0.6290174474
 40
0.7529533717
 40
0.8765605757
 40
1.0
 40
1.0
 40
1.0
 40
1.0
 10
10.1506009624
 20
8.7927923664
 30
0.0
 10
10.1506009624
 20
8.7901899387
 30
0.0
 10
10.1503524833
 20
8.7849985632
 30
0.0
 10
10.1492287605
 20
8.7773113444
 30
0.0
 10
10.147365431
 20
8.7698172755
 30
0.0
 10
10.1447793254
 20
8.7625864486
 30
0.0
 10
10.1414941889
 20
8.7556855386
 30
0.0
 10
10.1375399519
 20
8.7491782724
 30
0.0
 10
10.1329538095
 20
8.743125611
 30
0.0
 10
10.1295006569
 20
8.7394283201
 30
0.0
 10
10.1276863103
 20
8.7376757758
 30
0.0
  0
SPLINE
  5
321
100
AcDbEntity
  8
0
100
AcDbSpline
 62
7
  6
CONTINUOUS
 70
0
 71
3
 72
15
 73
11
 74
0
 42
0.0000001
 43
0.0000001
 44
0.0000000001
 40
0.0
 40
0.0
 40
0.0
 40
0.0
 40
0.1273481239
 40
0.2538605621
 40
0.3795879444
 40
0.5046050907
 40
0.6290174474
 40
0.7529533717
 40
0.8765605757
 40
1.0
 40
1.0
 40
1.0
 40
1.0
 10
11.6902868032
 20
8.7169244816
 30
0.0
 10
11.6902868032
 20
8.7143220539
 30
0.0
 10
11.6900383242
 20
8.7091306784
 30
0.0
 10
11.6889146013
 20
8.7014434596
 30
0.0
 10
11.6870512719
 20
8.6939493907
 30
0.0
 10
11.6844651663
 20
8.6867185637
 30
0.0
 10
11.6811800297
 20
8.6798176537
 30
0.0
 10
11.6772257927
 20
8.6733103876
 30
0.0
 10
11.6726396504
 20
8.6672577262
 30
0.0
 10
11.6691864977
 20
8.6635604353
 30
0.0
 10
11.6673721511
 20
8.661807891
 30
0.0
  0
SPLINE
  5
322
100
AcDbEntity
  8
0
100
AcDbSpline
 62
7
  6
CONTINUOUS
 70
0
 71
3
 72
15
 73
11
 74
0
 42
0.0000001
 43
0.0000001
 44
0.0000000001
 40
0.0
 40
0.0
 40
0.0
 40
0.0
 40
0.1273481239
 40
0.2538605621
 40
0.3795879444
 40
0.5046050907
 40
0.6290174474
 40
0.7529533717
 40
0.8765605757
 40
1.0
 40
1.0
 40
1.0
 40
1.0
 10
10.1506009624
 20
7.6162947029
 30
0.0
 10
10.1506009624
 20
7.6136922752
 30
0.0
 10
10.1503524833
 20
7.6085008997
 30
0.0
 10
10.1492287605
 20
7.6008136809
 30
0.0
 10
10.147365431
 20
7.593319612
 30
0.0
 10
10.1447793254
 20
7.5860887851
 30
0.0
 10
10.1414941889
 20
7.5791878751
 30
0.0
 10
10.1375399519
 20
7.5726806089
 30
0.0
 10
10.1329538095
 20
7.5666279475
 30
0.0
 10
10.1295006569
 20
7.5629306566
 30
0.0
 10
10.1276863103
 20
7.5611781123
 30
0.0
  0
SPLINE
  5
323
100
AcDbEntity
  8
0
100
AcDbSpline
 62
7
  6
CONTINUOUS
 70
0
 71
3
 72
15
 73
11
 74
0
 42
0.0000001
 43
0.0000001
 44
0.0000000001
 40
0.0
 40
0.0
 40
0.0
 40
0.0
 40
0.1273481239
 40
0.2538605621
 40
0.3795879444
 40
0.5046050907
 40
0.6290174474
 40
0.7529533717
 40
0.8765605757
 40
1.0
 40
1.0
 40
1.0
 40
1.0
 10
11.6902868032
 20
7.4786074363
 30
0.0
 10
11.6902868032
 20
7.4760050086
 30
0.0
 10
11.6900383242
 20
7.4708136331
 30
0.0
 10
11.6889146013
 20
7.4631264143
 30
0.0
 10
11.6870512719
 20
7.4556323454
 30
0.0
 10
11.6844651663
 20
7.4484015184
 30
0.0
 10
11.6811800297
 20
7.4415006084
 30
0.0
 10
11.6772257927
 20
7.4349933423
 30
0.0
 10
11.6726396504
 20
7.4289406809
 30
0.0
 10
11.6691864977
 20
7.42524339
 30
0.0
 10
11.6673721511
 20
7.4234908457
 30
0.0
  0
SPLINE
  5
324
100
AcDbEntity
  8
0
100
AcDbSpline
 62
7
  6
CONTINUOUS
 70
0
 71
3
 72
46
 73
42
 74
0
 42
0.0000001
 43
0.0000001
 44
0.0000000001
 40
0.0
 40
0.0
 40
0.0
 40
0.0
 40
0.007273983
 40
0.0148705064
 40
0.022798022
 40
0.0310633147
 40
0.0396715192
 40
0.0486265007
 40
0.0579308425
 40
0.0675861042
 40
0.0775928807
 40
0.0879508871
 40
0.098659129
 40
0.1097158298
 40
0.1211186815
 40
0.1328646936
 40
0.1573711414
 40
0.1832026044
 40
0.210318804
 40
0.2386735246
 40
0.268215301
 40
0.2988879846
 40
0.3306312228
 40
0.3633808755
 40
0.3970693828
 40
0.4316261023
 40
0.4669776235
 40
0.5030480612
 40
0.5397593352
 40
0.5770314397
 40
0.614782706
 40
0.6529300597
 40
0.6913892733
 40
0.730075218
 40
0.7689021107
 40
0.8077837764
 40
0.8466338414
 40
0.885366163
 40
0.9238945305
 40
0.962134293
 40
1.0
 40
1.0
 40
1.0
 40
1.0
 10
12.4513220135
 20
10.2137638769
 30
0.0
 10
12.450130511
 20
10.2126550633
 30
0.0
 10
12.4476398819
 20
10.2104465779
 30
0.0
 10
12.4436796506
 20
10.207228931
 30
0.0
 10
12.439417807
 20
10.2040374278
 30
0.0
 10
12.4348569079
 20
10.200874045
 30
0.0
 10
12.4299996185
 20
10.1977404828
 30
0.0
 10
12.4248487522
 20
10.194638618
 30
0.0
 10
12.4194073411
 20
10.1915702039
 30
0.0
 10
12.4136785655
 20
10.1885370567
 30
0.0
 10
12.407665792
 20
10.1855409587
 30
0.0
 10
12.4013725663
 20
10.1825836516
 30
0.0
 10
12.3948025866
 20
10.1796669252
 30
0.0
 10
12.3879597486
 20
10.1767924581
 30
0.0
 10
12.3808480739
 20
10.1739619898
 30
0.0
 10
12.3708715818
 20
10.1701955911
 30
0.0
 10
12.3577517833
 20
10.1656210364
 30
0.0
 10
12.3412210779
 20
10.1604076887
 30
0.0
 10
12.3237272549
 20
10.1554081791
 30
0.0
 10
12.3053117963
 20
10.1506344726
 30
0.0
 10
12.2860182168
 20
10.1460980149
 30
0.0
 10
12.2658922416
 20
10.1418096826
 30
0.0
 10
12.2449816002
 20
10.1377797585
 30
0.0
 10
12.2233359272
 20
10.1340179042
 30
0.0
 10
12.2010066316
 20
10.1305331358
 30
0.0
 10
12.1780467702
 20
10.1273338015
 30
0.0
 10
12.1545109154
 20
10.1244275642
 30
0.0
 10
12.1304550223
 20
10.121821383
 30
0.0
 10
12.1059362921
 20
10.1195214968
 30
0.0
 10
12.0810130353
 20
10.1175334105
 30
0.0
 10
12.0557445306
 20
10.1158618819
 30
0.0
 10
12.0301908833
 20
10.1145109109
 30
0.0
 10
12.0044128812
 20
10.1134837303
 30
0.0
 10
11.9784718495
 20
10.1127827971
 30
0.0
 10
11.9524295011
 20
10.1124097862
 30
0.0
 10
11.9263477987
 20
10.1123655915
 30
0.0
 10
11.9002887727
 20
10.112650313
 30
0.0
 10
11.874314474
 20
10.113263281
 30
0.0
 10
11.84848657
 20
10.1142030109
 30
0.0
 10
11.8228666965
 20
10.1154672796
 30
0.0
 10
11.8058700309
 20
10.1165304543
 30
0.0
 10
11.7974175375
 20
10.1171166367
 30
0.0
  0
SPLINE
  5
325
100
AcDbEntity
  8
0
100
AcDbSpline
 62
7
  6
CONTINUOUS
 70
0
 71
3
 72
19
 73
15
 74
0
 42
0.0000001
 43
0.0000001
 44
0.0000000001
 40
0.0
 40
0.0
 40
0.0
 40
0.0
 40
0.0616584454
 40
0.1233399317
 40
0.185067215
 40
0.2468625626
 40
0.3087474945
 40
0.3707425066
 40
0.4328668994
 40
0.4951385746
 40
0.6201443393
 40
0.7459117862
 40
0.8725152911
 40
1.0
 40
1.0
 40
1.0
 40
1.0
 10
9.3659639059
 20
9.7171662214
 30
0.0
 10
9.3675406042
 20
9.7186891937
 30
0.0
 10
9.3707771946
 20
9.7216515047
 30
0.0
 10
9.3758648656
 20
9.7258284691
 30
0.0
 10
9.3811734763
 20
9.7297293245
 30
0.0
 10
9.38668943
 20
9.7333441214
 30
0.0
 10
9.3923989252
 20
9.736663757
 30
0.0
 10
9.398287489
 20
9.7396798616
 30
0.0
 10
9.4043404911
 20
9.7423849446
 30
0.0
 10
9.4126187311
 20
9.7455713773
 30
0.0
 10
9.4233097385
 20
9.7487437512
 30
0.0
 10
9.4365221954
 20
9.7512083553
 30
0.0
 10
9.4500043783
 20
9.7523135689
 30
0.0
 10
9.4590541402
 20
9.75213704
 30
0.0
 10
9.4635757121
 20
9.7518234679
 30
0.0
  0
SPLINE
  5
326
100
AcDbEntity
  8
0
100
AcDbSpline
 62
7
  6
CONTINUOUS
 70
0
 71
3
 72
19
 73
15
 74
0
 42
0.0000001
 43
0.0000001
 44
0.0000000001
 40
0.0
 40
0.0
 40
0.0
 40
0.0
 40
0.0616584454
 40
0.1233399317
 40
0.185067215
 40
0.2468625626
 40
0.3087474945
 40
0.3707425066
 40
0.4328668994
 40
0.4951385746
 40
0.6201443393
 40
0.7459117862
 40
0.8725152911
 40
1.0
 40
1.0
 40
1.0
 40
1.0
 10
12.1053296784
 20
9.5271905598
 30
0.0
 10
12.1069063767
 20
9.5287135321
 30
0.0
 10
12.1101429671
 20
9.5316758432
 30
0.0
 10
12.1152306381
 20
9.5358528075
 30
0.0
 10
12.1205392488
 20
9.5397536629
 30
0.0
 10
12.1260552025
 20
9.5433684598
 30
0.0
 10
12.1317646977
 20
9.5466880954
 30
0.0
 10
12.1376532615
 20
9.5497042
 30
0.0
 10
12.1437062636
 20
9.552409283
 30
0.0
 10
12.1519845036
 20
9.5555957158
 30
0.0
 10
12.162675511
 20
9.5587680897
 30
0.0
 10
12.1758879679
 20
9.5612326938
 30
0.0
 10
12.1893701508
 20
9.5623379073
 30
0.0
 10
12.1984199127
 20
9.5621613784
 30
0.0
 10
12.2029414846
 20
9.5618478064
 30
0.0
  0
SPLINE
  5
327
100
AcDbEntity
  8
0
100
AcDbSpline
 62
7
  6
CONTINUOUS
 70
0
 71
3
 72
19
 73
15
 74
0
 42
0.0000001
 43
0.0000001
 44
0.0000000001
 40
0.0
 40
0.0
 40
0.0
 40
0.0
 40
0.0616584454
 40
0.1233399317
 40
0.185067215
 40
0.2468625626
 40
0.3087474945
 40
0.3707425066
 40
0.4328668994
 40
0.4951385746
 40
0.6201443393
 40
0.7459117862
 40
0.8725152911
 40
1.0
 40
1.0
 40
1.0
 40
1.0
 10
9.3659639059
 20
6.9778004201
 30
0.0
 10
9.3675406042
 20
6.9793233924
 30
0.0
 10
9.3707771946
 20
6.9822857034
 30
0.0
 10
9.3758648656
 20
6.9864626678
 30
0.0
 10
9.3811734763
 20
6.9903635232
 30
0.0
 10
9.38668943
 20
6.9939783201
 30
0.0
 10
9.3923989252
 20
6.9972979557
 30
0.0
 10
9.398287489
 20
7.0003140603
 30
0.0
 10
9.4043404911
 20
7.0030191433
 30
0.0
 10
9.4126187311
 20
7.006205576
 30
0.0
 10
9.4233097385
 20
7.0093779499
 30
0.0
 10
9.4365221954
 20
7.0118425541
 30
0.0
 10
9.4500043783
 20
7.0129477676
 30
0.0
 10
9.4590541402
 20
7.0127712387
 30
0.0
 10
9.4635757121
 20
7.0124576666
 30
0.0
  0
SPLINE
  5
328
100
AcDbEntity
  8
0
100
AcDbSpline
 62
7
  6
CONTINUOUS
 70
0
 71
3
 72
19
 73
15
 74
0
 42
0.0000001
 43
0.0000001
 44
0.0000000001
 40
0.0
 40
0.0
 40
0.0
 40
0.0
 40
0.0616584454
 40
0.1233399317
 40
0.185067215
 40
0.2468625626
 40
0.3087474945
 40
0.3707425066
 40
0.4328668994
 40
0.4951385746
 40
0.6201443393
 40
0.7459117862
 40
0.8725152911
 40
1.0
 40
1.0
 40
1.0
 40
1.0
 10
12.1053296784
 20
6.7878247585
 30
0.0
 10
12.1069063767
 20
6.7893477308
 30
0.0
 10
12.1101429671
 20
6.7923100419
 30
0.0
 10
12.1152306381
 20
6.7964870062
 30
0.0
 10
12.1205392488
 20
6.8003878616
 30
0.0
 10
12.1260552025
 20
6.8040026585
 30
0.0
 10
12.1317646977
 20
6.8073222941
 30
0.0
 10
12.1376532615
 20
6.8103383987
 30
0.0
 10
12.1437062636
 20
6.8130434817
 30
0.0
 10
12.1519845036
 20
6.8162299145
 30
0.0
 10
12.162675511
 20
6.8194022884
 30
0.0
 10
12.1758879679
 20
6.8218668925
 30
0.0
 10
12.1893701508
 20
6.822972106
 30
0.0
 10
12.1984199127
 20
6.8227955771
 30
0.0
 10
12.2029414846
 20
6.8224820051
 30
0.0
  0
SPLINE
  5
329
100
AcDbEntity
  8
0
100
AcDbSpline
 62
7
  6
CONTINUOUS
 70
0
 71
3
 72
37
 73
33
 74
0
 42
0.0000001
 43
0.0000001
 44
0.0000000001
 40
0.0
 40
0.0
 40
0.0
 40
0.0
 40
0.0299447773
 40
0.0599139305
 40
0.0899312459
 40
0.1200193412
 40
0.1501991262
 40
0.1804893155
 40
0.2109060063
 40
0.2414623368
 40
0.2721682234
 40
0.3030301797
 40
0.3340512199
 40
0.3652308433
 40
0.3965650964
 40
0.4280467089
 40
0.4596653
 40
0.4914076357
 40
0.5232579341
 40
0.5551982119
 40
0.6192294659
 40
0.6833674715
 40
0.7154389669
 40
0.7474692937
 40
0.7794368437
 40
0.8113212627
 40
0.8431038815
 40
0.8747680274
 40
0.9062997782
 40
0.9376869231
 40
0.968922956
 40
1.0
 40
1.0
 40
1.0
 40
1.0
 10
10.0102741401
 20
8.8592297917
 30
0.0
 10
10.0116759591
 20
8.8605838604
 30
0.0
 10
10.0145898574
 20
8.8631826866
 30
0.0
 10
10.0192583464
 20
8.8667231539
 30
0.0
 10
10.024200647
 20
8.8698880985
 30
0.0
 10
10.0293891368
 20
8.8726597743
 30
0.0
 10
10.0347952942
 20
8.8750230337
 30
0.0
 10
10.0403892851
 20
8.876964879
 30
0.0
 10
10.0461402809
 20
8.8784746874
 30
0.0
 10
10.0520165955
 20
8.8795442221
 30
0.0
 10
10.057985875
 20
8.8801676763
 30
0.0
 10
10.0640152725
 20
8.8803416987
 30
0.0
 10
10.0700716292
 20
8.880065408
 30
0.0
 10
10.0761216533
 20
8.8793403944
 30
0.0
 10
10.0821321029
 20
8.8781707053
 30
0.0
 10
10.0880699621
 20
8.8765628436
 30
0.0
 10
10.0939026503
 20
8.8745256873
 30
0.0
 10
10.0995980812
 20
8.8720705357
 30
0.0
 10
10.1051252721
 20
8.8692106876
 30
0.0
 10
10.112233587
 20
8.8648771011
 30
0.0
 10
10.1205452491
 20
8.8585320818
 30
0.0
 10
10.1279070915
 20
8.851094416
 30
0.0
 10
10.1331363433
 20
8.8445817304
 30
0.0
 10
10.1367070338
 20
8.8394423233
 30
0.0
 10
10.1399053929
 20
8.8340777621
 30
0.0
 10
10.1427140934
 20
8.8285172318
 30
0.0
 10
10.1451176085
 20
8.8227913159
 30
0.0
 10
10.1471027502
 20
8.8169314076
 30
0.0
 10
10.1486585071
 20
8.8109697321
 30
0.0
 10
10.149776396
 20
8.8049388334
 30
0.0
 10
10.1504500467
 20
8.798872353
 30
0.0
 10
10.1506009624
 20
8.794815061
 30
0.0
 10
10.1506009624
 20
8.7927923664
 30
0.0
  0
SPLINE
  5
32A
100
AcDbEntity
  8
0
100
AcDbSpline
 62
7
  6
CONTINUOUS
 70
0
 71
3
 72
37
 73
33
 74
0
 42
0.0000001
 43
0.0000001
 44
0.0000000001
 40
0.0
 40
0.0
 40
0.0
 40
0.0
 40
0.0299447773
 40
0.0599139305
 40
0.0899312459
 40
0.1200193412
 40
0.1501991262
 40
0.1804893155
 40
0.2109060063
 40
0.2414623368
 40
0.2721682234
 40
0.3030301797
 40
0.3340512199
 40
0.3652308433
 40
0.3965650964
 40
0.4280467089
 40
0.4596653
 40
0.4914076357
 40
0.5232579341
 40
0.5551982119
 40
0.6192294659
 40
0.6833674715
 40
0.7154389669
 40
0.7474692937
 40
0.7794368437
 40
0.8113212627
 40
0.8431038815
 40
0.8747680274
 40
0.9062997782
 40
0.9376869231
 40
0.968922956
 40
1.0
 40
1.0
 40
1.0
 40
1.0
 10
11.5499599809
 20
8.7833619069
 30
0.0
 10
11.5513618
 20
8.7847159756
 30
0.0
 10
11.5542756982
 20
8.7873148018
 30
0.0
 10
11.5589441873
 20
8.7908552691
 30
0.0
 10
11.5638864878
 20
8.7940202137
 30
0.0
 10
11.5690749776
 20
8.7967918894
 30
0.0
 10
11.574481135
 20
8.7991551489
 30
0.0
 10
11.5800751259
 20
8.8010969942
 30
0.0
 10
11.5858261217
 20
8.8026068026
 30
0.0
 10
11.5917024363
 20
8.8036763373
 30
0.0
 10
11.5976717158
 20
8.8042997915
 30
0.0
 10
11.6037011134
 20
8.8044738138
 30
0.0
 10
11.60975747
 20
8.8041975232
 30
0.0
 10
11.6158074941
 20
8.8034725095
 30
0.0
 10
11.6218179437
 20
8.8023028205
 30
0.0
 10
11.6277558029
 20
8.8006949587
 30
0.0
 10
11.6335884911
 20
8.7986578025
 30
0.0
 10
11.6392839221
 20
8.7962026509
 30
0.0
 10
11.6448111129
 20
8.7933428028
 30
0.0
 10
11.6519194279
 20
8.7890092163
 30
0.0
 10
11.6602310899
 20
8.7826641969
 30
0.0
 10
11.6675929324
 20
8.7752265312
 30
0.0
 10
11.6728221841
 20
8.7687138456
 30
0.0
 10
11.6763928747
 20
8.7635744385
 30
0.0
 10
11.6795912338
 20
8.7582098773
 30
0.0
 10
11.6823999343
 20
8.752649347
 30
0.0
 10
11.6848034493
 20
8.7469234311
 30
0.0
 10
11.686788591
 20
8.7410635227
 30
0.0
 10
11.6883443479
 20
8.7351018473
 30
0.0
 10
11.6894622368
 20
8.7290709486
 30
0.0
 10
11.6901358876
 20
8.7230044682
 30
0.0
 10
11.6902868032
 20
8.7189471762
 30
0.0
 10
11.6902868032
 20
8.7169244816
 30
0.0
  0
SPLINE
  5
32B
100
AcDbEntity
  8
0
100
AcDbSpline
 62
7
  6
CONTINUOUS
 70
0
 71
3
 72
37
 73
33
 74
0
 42
0.0000001
 43
0.0000001
 44
0.0000000001
 40
0.0
 40
0.0
 40
0.0
 40
0.0
 40
0.0299447773
 40
0.0599139305
 40
0.0899312459
 40
0.1200193412
 40
0.1501991262
 40
0.1804893155
 40
0.2109060063
 40
0.2414623368
 40
0.2721682234
 40
0.3030301797
 40
0.3340512199
 40
0.3652308433
 40
0.3965650964
 40
0.4280467089
 40
0.4596653
 40
0.4914076357
 40
0.5232579341
 40
0.5551982119
 40
0.6192294659
 40
0.6833674715
 40
0.7154389669
 40
0.7474692937
 40
0.7794368437
 40
0.8113212627
 40
0.8431038815
 40
0.8747680274
 40
0.9062997782
 40
0.9376869231
 40
0.968922956
 40
1.0
 40
1.0
 40
1.0
 40
1.0
 10
10.0102741401
 20
7.6827321282
 30
0.0
 10
10.0116759591
 20
7.684086197
 30
0.0
 10
10.0145898574
 20
7.6866850231
 30
0.0
 10
10.0192583464
 20
7.6902254904
 30
0.0
 10
10.024200647
 20
7.693390435
 30
0.0
 10
10.0293891368
 20
7.6961621108
 30
0.0
 10
10.0347952942
 20
7.6985253702
 30
0.0
 10
10.0403892851
 20
7.7004672155
 30
0.0
 10
10.0461402809
 20
7.7019770239
 30
0.0
 10
10.0520165955
 20
7.7030465587
 30
0.0
 10
10.057985875
 20
7.7036700128
 30
0.0
 10
10.0640152725
 20
7.7038440352
 30
0.0
 10
10.0700716292
 20
7.7035677445
 30
0.0
 10
10.0761216533
 20
7.7028427309
 30
0.0
 10
10.0821321029
 20
7.7016730418
 30
0.0
 10
10.0880699621
 20
7.7000651801
 30
0.0
 10
10.0939026503
 20
7.6980280238
 30
0.0
 10
10.0995980812
 20
7.6955728722
 30
0.0
 10
10.1051252721
 20
7.6927130241
 30
0.0
 10
10.112233587
 20
7.6883794376
 30
0.0
 10
10.1205452491
 20
7.6820344183
 30
0.0
 10
10.1279070915
 20
7.6745967525
 30
0.0
 10
10.1331363433
 20
7.6680840669
 30
0.0
 10
10.1367070338
 20
7.6629446598
 30
0.0
 10
10.1399053929
 20
7.6575800986
 30
0.0
 10
10.1427140934
 20
7.6520195683
 30
0.0
 10
10.1451176085
 20
7.6462936524
 30
0.0
 10
10.1471027502
 20
7.6404337441
 30
0.0
 10
10.1486585071
 20
7.6344720687
 30
0.0
 10
10.149776396
 20
7.6284411699
 30
0.0
 10
10.1504500467
 20
7.6223746895
 30
0.0
 10
10.1506009624
 20
7.6183173976
 30
0.0
 10
10.1506009624
 20
7.6162947029
 30
0.0
  0
SPLINE
  5
32C
100
AcDbEntity
  8
0
100
AcDbSpline
 62
7
  6
CONTINUOUS
 70
0
 71
3
 72
37
 73
33
 74
0
 42
0.0000001
 43
0.0000001
 44
0.0000000001
 40
0.0
 40
0.0
 40
0.0
 40
0.0
 40
0.0299447773
 40
0.0599139305
 40
0.0899312459
 40
0.1200193412
 40
0.1501991262
 40
0.1804893155
 40
0.2109060063
 40
0.2414623368
 40
0.2721682234
 40
0.3030301797
 40
0.3340512199
 40
0.3652308433
 40
0.3965650964
 40
0.4280467089
 40
0.4596653
 40
0.4914076357
 40
0.5232579341
 40
0.5551982119
 40
0.6192294659
 40
0.6833674715
 40
0.7154389669
 40
0.7474692937
 40
0.7794368437
 40
0.8113212627
 40
0.8431038815
 40
0.8747680274
 40
0.9062997782
 40
0.9376869231
 40
0.968922956
 40
1.0
 40
1.0
 40
1.0
 40
1.0
 10
11.5499599809
 20
7.5450448616
 30
0.0
 10
11.5513618
 20
7.5463989303
 30
0.0
 10
11.5542756982
 20
7.5489977565
 30
0.0
 10
11.5589441873
 20
7.5525382238
 30
0.0
 10
11.5638864878
 20
7.5557031684
 30
0.0
 10
11.5690749776
 20
7.5584748441
 30
0.0
 10
11.574481135
 20
7.5608381036
 30
0.0
 10
11.5800751259
 20
7.5627799489
 30
0.0
 10
11.5858261217
 20
7.5642897573
 30
0.0
 10
11.5917024363
 20
7.565359292
 30
0.0
 10
11.5976717158
 20
7.5659827462
 30
0.0
 10
11.6037011134
 20
7.5661567685
 30
0.0
 10
11.60975747
 20
7.5658804779
 30
0.0
 10
11.6158074941
 20
7.5651554642
 30
0.0
 10
11.6218179437
 20
7.5639857752
 30
0.0
 10
11.6277558029
 20
7.5623779134
 30
0.0
 10
11.6335884911
 20
7.5603407572
 30
0.0
 10
11.6392839221
 20
7.5578856056
 30
0.0
 10
11.6448111129
 20
7.5550257574
 30
0.0
 10
11.6519194279
 20
7.5506921709
 30
0.0
 10
11.6602310899
 20
7.5443471516
 30
0.0
 10
11.6675929324
 20
7.5369094859
 30
0.0
 10
11.6728221841
 20
7.5303968002
 30
0.0
 10
11.6763928747
 20
7.5252573932
 30
0.0
 10
11.6795912338
 20
7.5198928319
 30
0.0
 10
11.6823999343
 20
7.5143323016
 30
0.0
 10
11.6848034493
 20
7.5086063858
 30
0.0
 10
11.686788591
 20
7.5027464774
 30
0.0
 10
11.6883443479
 20
7.496784802
 30
0.0
 10
11.6894622368
 20
7.4907539033
 30
0.0
 10
11.6901358876
 20
7.4846874229
 30
0.0
 10
11.6902868032
 20
7.4806301309
 30
0.0
 10
11.6902868032
 20
7.4786074363
 30
0.0
  0
SPLINE
  5
32D
100
AcDbEntity
  8
0
100
AcDbSpline
 62
7
  6
CONTINUOUS
 70
0
 71
3
 72
36
 73
32
 74
0
 42
0.0000001
 43
0.0000001
 44
0.0000000001
 40
0.0
 40
0.0
 40
0.0
 40
0.0
 40
0.0473375366
 40
0.0938824445
 40
0.1395636369
 40
0.1843124287
 40
0.2280657874
 40
0.2707688056
 40
0.3123767442
 40
0.3528562798
 40
0.3921859367
 40
0.4303561586
 40
0.4673677039
 40
0.5032291024
 40
0.5379547344
 40
0.5715638636
 40
0.6040763296
 40
0.6355112307
 40
0.6951844075
 40
0.7507227942
 40
0.8021684068
 40
0.8263701297
 40
0.8495463094
 40
0.8716958088
 40
0.8928239635
 40
0.9129422346
 40
0.9320764868
 40
0.950268034
 40
0.9675836607
 40
0.9841174085
 40
1.0
 40
1.0
 40
1.0
 40
1.0
 10
11.0003924794
 20
7.736585397
 30
0.0
 10
10.998968547
 20
7.7348852923
 30
0.0
 10
10.9960278047
 20
7.731609218
 30
0.0
 10
10.9913270986
 20
7.7270574236
 30
0.0
 10
10.9864086782
 20
7.7229274538
 30
0.0
 10
10.9813132465
 20
7.7192368726
 30
0.0
 10
10.9760830218
 20
7.7159976774
 30
0.0
 10
10.9707611641
 20
7.7132163197
 30
0.0
 10
10.9653906467
 20
7.7108933401
 30
0.0
 10
10.960013254
 20
7.7090234482
 30
0.0
 10
10.9546686119
 20
7.7075958282
 30
0.0
 10
10.9493934132
 20
7.7065946053
 30
0.0
 10
10.9442208114
 20
7.7059997784
 30
0.0
 10
10.9391801587
 20
7.7057881011
 30
0.0
 10
10.9342968459
 20
7.7059338731
 30
0.0
 10
10.9295925473
 20
7.7064096663
 30
0.0
 10
10.9250850068
 20
7.7071875065
 30
0.0
 10
10.9194561596
 20
7.7085649603
 30
0.0
 10
10.9129591981
 20
7.7108675086
 30
0.0
 10
10.905994002
 20
7.7144427447
 30
0.0
 10
10.9009291497
 20
7.7179594759
 30
0.0
 10
10.8974173389
 20
7.7209809685
 30
0.0
 10
10.8950995591
 20
7.7232734091
 30
0.0
 10
10.893046698
 20
7.7256175215
 30
0.0
 10
10.8912609598
 20
7.727994297
 30
0.0
 10
10.8897441157
 20
7.7303856096
 30
0.0
 10
10.8884981675
 20
7.7327748102
 30
0.0
 10
10.8875247631
 20
7.7351464597
 30
0.0
 10
10.8868258472
 20
7.7374867481
 30
0.0
 10
10.8864032772
 20
7.7397826485
 30
0.0
 10
10.8863055287
 20
7.741302641
 30
0.0
 10
10.88630559
 20
7.7420466999
 30
0.0
  0
SPLINE
  5
32E
100
AcDbEntity
  8
0
100
AcDbSpline
 62
7
  6
CONTINUOUS
 70
0
 71
3
 72
41
 73
37
 74
0
 42
0.0000001
 43
0.0000001
 44
0.0000000001
 40
0.0
 40
0.0
 40
0.0
 40
0.0
 40
0.030362672
 40
0.0606141731
 40
0.0907839548
 40
0.1209039577
 40
0.1510074995
 40
0.1811281318
 40
0.2112985249
 40
0.2415494263
 40
0.2719087323
 40
0.3024006986
 40
0.3330453081
 40
0.3638578006
 40
0.3948483617
 40
0.4260219636
 40
0.457378344
 40
0.488912112
 40
0.5206129655
 40
0.5524660103
 40
0.5844521701
 40
0.6165486805
 40
0.6487296613
 40
0.6809667615
 40
0.7132298714
 40
0.7293647817
 40
0.7454945069
 40
0.777716191
 40
0.8098709842
 40
0.8419299251
 40
0.8738665405
 40
0.9056576356
 40
0.9372843513
 40
0.9530347074
 40
0.9687393836
 40
1.0
 40
1.0
 40
1.0
 40
1.0
 10
10.7647703502
 20
7.8079049625
 30
0.0
 10
10.7660557643
 20
7.8110703197
 30
0.0
 10
10.7689143292
 20
7.8172752907
 30
0.0
 10
10.7740360175
 20
7.8261296859
 30
0.0
 10
10.7799427223
 20
7.8344485658
 30
0.0
 10
10.7865867156
 20
7.842169043
 30
0.0
 10
10.7939154898
 20
7.8492347811
 30
0.0
 10
10.8018716397
 20
7.8555946543
 30
0.0
 10
10.8103936458
 20
7.8612034431
 30
0.0
 10
10.8194164103
 20
7.8660218852
 30
0.0
 10
10.8288718362
 20
7.870016809
 30
0.0
 10
10.8386893593
 20
7.8731611726
 30
0.0
 10
10.8487964499
 20
7.8754340727
 30
0.0
 10
10.8591190777
 20
7.8768207239
 30
0.0
 10
10.8695821453
 20
7.8773124215
 30
0.0
 10
10.8801098949
 20
7.8769065016
 30
0.0
 10
10.8906262967
 20
7.8756062966
 30
0.0
 10
10.9010554276
 20
7.8734210944
 30
0.0
 10
10.9113218495
 20
7.8703661017
 30
0.0
 10
10.9213509936
 20
7.8664624117
 30
0.0
 10
10.9310695717
 20
7.8617369549
 30
0.0
 10
10.9404059678
 20
7.8562224874
 30
0.0
 10
10.9492908194
 20
7.8499573804
 30
0.0
 10
10.9576570165
 20
7.8429860481
 30
0.0
 10
10.9641447805
 20
7.8366281125
 30
0.0
 10
10.9690142924
 20
7.8312401964
 30
0.0
 10
10.9736588645
 20
7.8256632835
 30
0.0
 10
10.9790282538
 20
7.8183541358
 30
0.0
 10
10.9847237208
 20
7.8091041879
 30
0.0
 10
10.9896250314
 20
7.7994454088
 30
0.0
 10
10.993692194
 20
7.7894507673
 30
0.0
 10
10.996891906
 20
7.7791966636
 30
0.0
 10
10.9988162682
 20
7.7704869475
 30
0.0
 10
10.9998970486
 20
7.7634697409
 30
0.0
 10
11.0006686418
 20
7.7564537483
 30
0.0
 10
11.0009028359
 20
7.7511654976
 30
0.0
 10
11.0009028359
 20
7.7476480632
 30
0.0
  0
SPLINE
  5
32F
100
AcDbEntity
  8
0
100
AcDbSpline
 62
7
  6
CONTINUOUS
 70
0
 71
3
 72
22
 73
18
 74
0
 42
0.0000001
 43
0.0000001
 44
0.0000000001
 40
0.0
 40
0.0
 40
0.0
 40
0.0
 40
0.1279527219
 40
0.1917098374
 40
0.2552844681
 40
0.318659655
 40
0.3818195633
 40
0.4447495792
 40
0.5074378499
 40
0.569875451
 40
0.6320565387
 40
0.6939794114
 40
0.755647272
 40
0.8170681658
 40
0.878253165
 40
0.9392256418
 40
1.0
 40
1.0
 40
1.0
 40
1.0
 10
11.0872709687
 20
8.093725717
 30
0.0
 10
11.0852986739
 20
8.0977837337
 30
0.0
 10
11.0826191052
 20
8.1040045837
 30
0.0
 10
11.0796667287
 20
8.1125113398
 30
0.0
 10
11.0777799936
 20
8.1189692297
 30
0.0
 10
11.0762319706
 20
8.1254948374
 30
0.0
 10
11.0750351753
 20
8.1320710474
 30
0.0
 10
11.0742014835
 20
8.138678832
 30
0.0
 10
11.0737417835
 20
8.145297786
 30
0.0
 10
11.0736657416
 20
8.1519060334
 30
0.0
 10
11.073981303
 20
8.1584803551
 30
0.0
 10
11.0746944746
 20
8.1649963797
 30
0.0
 10
11.0758090708
 20
8.1714288443
 30
0.0
 10
11.0773263771
 20
8.1777517764
 30
0.0
 10
11.0792447981
 20
8.1839393381
 30
0.0
 10
11.0815598414
 20
8.1899650758
 30
0.0
 10
11.0833656119
 20
8.1938641349
 30
0.0
 10
11.084331364
 20
8.195777245
 30
0.0
  0
SPLINE
  5
330
100
AcDbEntity
  8
0
100
AcDbSpline
 62
7
  6
CONTINUOUS
 70
0
 71
3
 72
15
 73
11
 74
0
 42
0.0000001
 43
0.0000001
 44
0.0000000001
 40
0.0
 40
0.0
 40
0.0
 40
0.0
 40
0.1233171388
 40
0.2468172051
 40
0.3706750009
 40
0.4950496043
 40
0.6200772562
 40
0.7458671573
 40
0.8724928759
 40
1.0
 40
1.0
 40
1.0
 40
1.0
 10
11.2620310047
 20
7.5548896145
 30
0.0
 10
11.2637813479
 20
7.5565803267
 30
0.0
 10
11.2674698712
 20
7.5597783169
 30
0.0
 10
11.2734899141
 20
7.5639572217
 30
0.0
 10
11.2799406019
 20
7.5674799807
 30
0.0
 10
11.2867558974
 20
7.5703103967
 30
0.0
 10
11.2938670576
 20
7.5724203747
 30
0.0
 10
11.3012024538
 20
7.5737887931
 30
0.0
 10
11.3086872007
 20
7.5744023478
 30
0.0
 10
11.3137113245
 20
7.5743043508
 30
0.0
 10
11.3162215401
 20
7.5741302667
 30
0.0
  0
SPLINE
  5
331
100
AcDbEntity
  8
0
100
AcDbSpline
 62
7
  6
CONTINUOUS
 70
0
 71
3
 72
61
 73
57
 74
0
 42
0.0000001
 43
0.0000001
 44
0.0000000001
 40
0.0
 40
0.0
 40
0.0
 40
0.0
 40
0.0075207324
 40
0.0156240055
 40
0.0243308433
 40
0.0336545768
 40
0.0436023655
 40
0.0541763112
 40
0.065374328
 40
0.0771908606
 40
0.0896173893
 40
0.1026427859
 40
0.1162536758
 40
0.1304347083
 40
0.145168727
 40
0.1604369411
 40
0.1762191128
 40
0.1924936716
 40
0.2092377896
 40
0.2264275197
 40
0.2440378952
 40
0.2620429852
 40
0.2804159755
 40
0.2991292715
 40
0.3374622021
 40
0.3768084315
 40
0.4169256179
 40
0.4575651873
 40
0.4984744046
 40
0.5393983996
 40
0.5800821848
 40
0.6202726688
 40
0.6597207048
 40
0.6981831032
 40
0.716971193
 40
0.7354254645
 40
0.7535181528
 40
0.77122227
 40
0.7885116657
 40
0.8053611304
 40
0.8217464875
 40
0.8376446498
 40
0.8530337228
 40
0.8678931552
 40
0.8822038278
 40
0.8959481785
 40
0.9091104066
 40
0.9216766781
 40
0.9336353289
 40
0.9449771747
 40
0.9556959343
 40
0.9657887051
 40
0.9752565188
 40
0.9841051808
 40
0.9923468454
 40
1.0
 40
1.0
 40
1.0
 40
1.0
 10
12.9321104226
 20
7.5620065415
 30
0.0
 10
12.9306584793
 20
7.5637917724
 30
0.0
 10
12.9277976426
 20
7.5676285808
 30
0.0
 10
12.9237717661
 20
7.5738962876
 30
0.0
 10
12.9198608112
 20
7.5808757197
 30
0.0
 10
12.9160709965
 20
7.5885554532
 30
0.0
 10
12.9124080649
 20
7.5969235528
 30
0.0
 10
12.9088779082
 20
7.6059666019
 30
0.0
 10
12.905486247
 20
7.6156700126
 30
0.0
 10
12.902238681
 20
7.6260180051
 30
0.0
 10
12.8991406189
 20
7.6369936637
 30
0.0
 10
12.8961972157
 20
7.6485789563
 30
0.0
 10
12.8934133927
 20
7.660754796
 30
0.0
 10
12.8907938274
 20
7.6735010869
 30
0.0
 10
12.8883429152
 20
7.686796751
 30
0.0
 10
12.886064757
 20
7.7006197697
 30
0.0
 10
12.8839631806
 20
7.7149472375
 30
0.0
 10
12.8820417264
 20
7.7297553984
 30
0.0
 10
12.8803036084
 20
7.7450196796
 30
0.0
 10
12.8787517414
 20
7.7607147422
 30
0.0
 10
12.8773887391
 20
7.7768145311
 30
0.0
 10
12.8762168979
 20
7.7932923022
 30
0.0
 10
12.8752381513
 20
7.8101207053
 30
0.0
 10
12.8741845016
 20
7.833173239
 30
0.0
 10
12.8733713532
 20
7.8626582812
 30
0.0
 10
12.8731902561
 20
7.8987029307
 30
0.0
 10
12.8737979436
 20
7.9354487394
 30
0.0
 10
12.8751905136
 20
7.9726516098
 30
0.0
 10
12.8773588614
 20
8.0100645694
 30
0.0
 10
12.8802886382
 20
8.0474391817
 30
0.0
 10
12.8839603364
 20
8.0845272704
 30
0.0
 10
12.8883494869
 20
8.1210826374
 30
0.0
 10
12.8934267559
 20
8.1568624669
 30
0.0
 10
12.8982395998
 20
8.1860583043
 30
0.0
 10
12.902417183
 20
8.208842442
 30
0.0
 10
12.9056756232
 20
8.2254573333
 30
0.0
 10
12.9090782061
 20
8.2417045984
 30
0.0
 10
12.9126192812
 20
8.2575572735
 30
0.0
 10
12.9162929456
 20
8.2729890231
 30
0.0
 10
12.9200930744
 20
8.2879742278
 30
0.0
 10
12.9240133171
 20
8.3024880214
 30
0.0
 10
12.9280471345
 20
8.3165063235
 30
0.0
 10
12.9321878076
 20
8.3300058841
 30
0.0
 10
12.9364284149
 20
8.3429643394
 30
0.0
 10
12.9407618761
 20
8.3553602403
 30
0.0
 10
12.9451809733
 20
8.3671730832
 30
0.0
 10
12.9496783418
 20
8.3783833653
 30
0.0
 10
12.9542464824
 20
8.3889726284
 30
0.0
 10
12.9588778087
 20
8.3989234772
 30
0.0
 10
12.963564673
 20
8.4082196199
 30
0.0
 10
12.9682993441
 20
8.4168459384
 30
0.0
 10
12.9730741208
 20
8.4247885078
 30
0.0
 10
12.9778813026
 20
8.4320345333
 30
0.0
 10
12.982713519
 20
8.438572773
 30
0.0
 10
12.9875630077
 20
8.4443923688
 30
0.0
 10
12.9909243876
 20
8.4479142825
 30
0.0
 10
12.9926086265
 20
8.4495411324
 30
0.0
  0
SPLINE
  5
332
100
AcDbEntity
  8
0
100
AcDbSpline
 62
7
  6
CONTINUOUS
 70
0
 71
3
 72
12
 73
8
 74
0
 42
0.0000001
 43
0.0000001
 44
0.0000000001
 40
0.0
 40
0.0
 40
0.0
 40
0.0
 40
0.2027436854
 40
0.4300897883
 40
0.5560416625
 40
0.6919395651
 40
1.0
 40
1.0
 40
1.0
 40
1.0
 10
12.9253621608
 20
7.5773788711
 30
0.0
 10
12.9250695426
 20
7.5773991642
 30
0.0
 10
12.9244506368
 20
7.5774756896
 30
0.0
 10
12.9236665005
 20
7.5776624363
 30
0.0
 10
12.92299204
 20
7.5778777169
 30
0.0
 10
12.922219815
 20
7.5781675338
 30
0.0
 10
12.9216369572
 20
7.5784406551
 30
0.0
 10
12.9212417561
 20
7.5786467003
 30
0.0
  0
SPLINE
  5
333
100
AcDbEntity
  8
0
100
AcDbSpline
 62
7
  6
CONTINUOUS
 70
0
 71
3
 72
12
 73
8
 74
0
 42
0.0000001
 43
0.0000001
 44
0.0000000001
 40
0.0
 40
0.0
 40
0.0
 40
0.0
 40
0.3080759606
 40
0.4439760257
 40
0.5699273889
 40
0.7972671441
 40
1.0
 40
1.0
 40
1.0
 40
1.0
 10
12.9806726081
 20
8.4356285331
 30
0.0
 10
12.9810925876
 20
8.4357781305
 30
0.0
 10
12.9817077383
 20
8.4359682818
 30
0.0
 10
12.9825128005
 20
8.4361488257
 30
0.0
 10
12.9832106911
 20
8.4362690058
 30
0.0
 10
12.9840132804
 20
8.4363457702
 30
0.0
 10
12.984636963
 20
8.4363361366
 30
0.0
 10
12.9849296418
 20
8.4363158392
 30
0.0
  0
SPLINE
  5
334
100
AcDbEntity
  8
0
100
AcDbSpline
 62
7
  6
CONTINUOUS
 70
0
 71
3
 72
15
 73
11
 74
0
 42
0.0000001
 43
0.0000001
 44
0.0000000001
 40
0.0
 40
0.0
 40
0.0
 40
0.0
 40
0.1273481239
 40
0.2538605621
 40
0.3795879444
 40
0.5046050907
 40
0.6290174474
 40
0.7529533717
 40
0.8765605757
 40
1.0
 40
1.0
 40
1.0
 40
1.0
 10
9.987359488
 20
8.8041132011
 30
0.0
 10
9.987359488
 20
8.8067156288
 30
0.0
 10
9.9876079671
 20
8.8119070043
 30
0.0
 10
9.9887316899
 20
8.819594223
 30
0.0
 10
9.9905950194
 20
8.827088292
 30
0.0
 10
9.9931811249
 20
8.8343191189
 30
0.0
 10
9.9964662615
 20
8.8412200289
 30
0.0
 10
10.0004204985
 20
8.847727295
 30
0.0
 10
10.0050066409
 20
8.8537799565
 30
0.0
 10
10.0084597935
 20
8.8574772474
 30
0.0
 10
10.0102741401
 20
8.8592297917
 30
0.0
  0
SPLINE
  5
335
100
AcDbEntity
  8
0
100
AcDbSpline
 62
7
  6
CONTINUOUS
 70
0
 71
3
 72
57
 73
53
 74
0
 42
0.0000001
 43
0.0000001
 44
0.0000000001
 40
0.0
 40
0.0
 40
0.0
 40
0.0
 40
0.00824904
 40
0.0160248542
 40
0.0233638155
 40
0.0303112868
 40
0.0369224769
 40
0.0432629559
 40
0.0494082114
 40
0.0554419148
 40
0.0614529034
 40
0.0675311018
 40
0.0737632458
 40
0.0802292367
 40
0.0869997827
 40
0.0941352835
 40
0.1016859759
 40
0.1096926205
 40
0.1181876035
 40
0.1271961612
 40
0.136737353
 40
0.146825169
 40
0.1574692295
 40
0.1686754959
 40
0.1804468676
 40
0.1927834986
 40
0.2056833138
 40
0.2191421692
 40
0.2331541514
 40
0.247711804
 40
0.2628061804
 40
0.2784271272
 40
0.2945632671
 40
0.3112021708
 40
0.3283304515
 40
0.345933754
 40
0.3639969479
 40
0.3825040637
 40
0.4207819375
 40
0.4606268705
 40
0.5018879974
 40
0.5444062116
 40
0.5880153133
 40
0.6325430986
 40
0.677812411
 40
0.7236421537
 40
0.7698482817
 40
0.8162447832
 40
0.8626446349
 40
0.9088609195
 40
0.9547071866
 40
1.0
 40
1.0
 40
1.0
 40
1.0
 10
11.4204485289
 20
10.2137645061
 30
0.0
 10
11.4189236204
 20
10.2151836007
 30
0.0
 10
11.4160448308
 20
10.2180325605
 30
0.0
 10
11.4121540117
 20
10.2224748742
 30
0.0
 10
11.4088269812
 20
10.2269519716
 30
0.0
 10
11.406068372
 20
10.2314599111
 30
0.0
 10
11.4038826795
 20
10.235994888
 30
0.0
 10
11.4022745004
 20
10.2405523862
 30
0.0
 10
11.4012480765
 20
10.2451268169
 30
0.0
 10
11.400806911
 20
10.2497113003
 30
0.0
 10
11.4009525626
 20
10.2542978623
 30
0.0
 10
11.4016845334
 20
10.2588783018
 30
0.0
 10
11.4030001968
 20
10.2634451023
 30
0.0
 10
11.4048955501
 20
10.2679920509
 30
0.0
 10
11.4073661776
 20
10.2725141156
 30
0.0
 10
11.4104074349
 20
10.2770072073
 30
0.0
 10
11.4140148978
 20
10.2814675481
 30
0.0
 10
11.4181840405
 20
10.2858914712
 30
0.0
 10
11.4229101475
 20
10.2902752223
 30
0.0
 10
11.4281882079
 20
10.2946148072
 30
0.0
 10
11.4340126606
 20
10.2989061973
 30
0.0
 10
11.4403774825
 20
10.3031451394
 30
0.0
 10
11.4472760303
 20
10.3073273743
 30
0.0
 10
11.4547010788
 20
10.311448606
 30
0.0
 10
11.4626448312
 20
10.3155044747
 30
0.0
 10
11.4710988661
 20
10.3194907413
 30
0.0
 10
11.4800542202
 20
10.3234031081
 30
0.0
 10
11.4895013415
 20
10.3272374005
 30
0.0
 10
11.4994301329
 20
10.3309894997
 30
0.0
 10
11.5098299671
 20
10.3346553229
 30
0.0
 10
11.5206896769
 20
10.3382309525
 30
0.0
 10
11.5319976017
 20
10.3417124783
 30
0.0
 10
11.5437415753
 20
10.3450961518
 30
0.0
 10
11.5559089554
 20
10.3483783088
 30
0.0
 10
11.5684866393
 20
10.3515553679
 30
0.0
 10
11.5814610631
 20
10.3546239155
 30
0.0
 10
11.5948182564
 20
10.3575806163
 30
0.0
 10
11.6133271138
 20
10.3614124712
 30
0.0
 10
11.6373176187
 20
10.3658861572
 30
0.0
 10
11.6670800955
 20
10.3707026958
 30
0.0
 10
11.6980026317
 20
10.3750046449
 30
0.0
 10
11.729951777
 20
10.3787732396
 30
0.0
 10
11.7627898013
 20
10.3819920075
 30
0.0
 10
11.7963750179
 20
10.3846469052
 30
0.0
 10
11.8305624942
 20
10.3867263489
 30
0.0
 10
11.8652046665
 20
10.3882212691
 30
0.0
 10
11.9001519901
 20
10.389125145
 30
0.0
 10
11.9352535885
 20
10.3894340322
 30
0.0
 10
11.9703579249
 20
10.3891465934
 30
0.0
 10
12.0053134052
 20
10.3882640694
 30
0.0
 10
12.0399690723
 20
10.3867903383
 30
0.0
 10
12.0629436349
 20
10.3854077216
 30
0.0
 10
12.0743536872
 20
10.3846164318
 30
0.0
  0
SPLINE
  5
336
100
AcDbEntity
  8
0
100
AcDbSpline
 62
7
  6
CONTINUOUS
 70
0
 71
3
 72
51
 73
47
 74
0
 42
0.0000001
 43
0.0000001
 44
0.0000000001
 40
0.0
 40
0.0
 40
0.0
 40
0.0
 40
0.0055942983
 40
0.011339274
 40
0.0172848709
 40
0.0234755736
 40
0.0299501082
 40
0.0367415299
 40
0.0438775507
 40
0.0513811123
 40
0.0592708267
 40
0.0675616702
 40
0.0762652889
 40
0.0853906641
 40
0.0949442382
 40
0.1049305067
 40
0.1153520111
 40
0.1262098384
 40
0.1375035532
 40
0.1492315875
 40
0.1613911764
 40
0.1739786273
 40
0.1869893021
 40
0.2004177632
 40
0.2142578262
 40
0.228502589
 40
0.2581747933
 40
0.2893682267
 40
0.3220075228
 40
0.3560100277
 40
0.3912866336
 40
0.4277424982
 40
0.4652776855
 40
0.5037877492
 40
0.5431642771
 40
0.5832954077
 40
0.6240663276
 40
0.6653597544
 40
0.7070564121
 40
0.7490354948
 40
0.7911751432
 40
0.8333528657
 40
0.8754461156
 40
0.9173324264
 40
0.9588906596
 40
1.0
 40
1.0
 40
1.0
 40
1.0
 10
11.4833669006
 20
10.1770637453
 30
0.0
 10
11.4835630667
 20
10.1781643233
 30
0.0
 10
11.4840794397
 20
10.1803755394
 30
0.0
 10
11.4852002312
 20
10.1836481985
 30
0.0
 10
11.486673595
 20
10.1869090671
 30
0.0
 10
11.4884973904
 20
10.1901551957
 30
0.0
 10
11.4906695591
 20
10.1933845006
 30
0.0
 10
11.4931879567
 20
10.1965948302
 30
0.0
 10
11.4960503366
 20
10.1997841545
 30
0.0
 10
11.4992543897
 20
10.2029503389
 30
0.0
 10
11.5027975577
 20
10.2060913098
 30
0.0
 10
11.5066771726
 20
10.2092048192
 30
0.0
 10
11.5108902372
 20
10.2122887302
 30
0.0
 10
11.5154336077
 20
10.2153407107
 30
0.0
 10
11.5203037915
 20
10.2183585894
 30
0.0
 10
11.5254971236
 20
10.2213400098
 30
0.0
 10
11.5310096045
 20
10.2242827949
 30
0.0
 10
11.5368370417
 20
10.2271846149
 30
0.0
 10
11.5429749367
 20
10.2300433074
 30
0.0
 10
11.5494185814
 20
10.2328566049
 30
0.0
 10
11.556162992
 20
10.2356223738
 30
0.0
 10
11.5632029647
 20
10.2383384316
 30
0.0
 10
11.5705330468
 20
10.2410026871
 30
0.0
 10
11.5781475588
 20
10.2436130507
 30
0.0
 10
11.5860406047
 20
10.2461675083
 30
0.0
 10
11.5970784123
 20
10.2495421786
 30
0.0
 10
11.6115328733
 20
10.253594985
 30
0.0
 10
11.6296588262
 20
10.2581412766
 30
0.0
 10
11.6487375187
 20
10.2624199439
 30
0.0
 10
11.6687096537
 20
10.2664175481
 30
0.0
 10
11.6895132891
 20
10.2701215082
 30
0.0
 10
11.7110837813
 20
10.2735201794
 30
0.0
 10
11.7333540755
 20
10.2766028788
 30
0.0
 10
11.7562549026
 20
10.2793599214
 30
0.0
 10
11.7797150083
 20
10.2817826489
 30
0.0
 10
11.8036613783
 20
10.2838634555
 30
0.0
 10
11.8280194706
 20
10.2855958108
 30
0.0
 10
11.8527134508
 20
10.2869742797
 30
0.0
 10
11.8776664302
 20
10.2879945378
 30
0.0
 10
11.9028007096
 20
10.2886533859
 30
0.0
 10
11.9280380163
 20
10.288948756
 30
0.0
 10
11.9532997704
 20
10.2888797255
 30
0.0
 10
11.978507272
 20
10.2884465039
 30
0.0
 10
12.0035820989
 20
10.2876504604
 30
0.0
 10
12.0284460244
 20
10.2864940791
 30
0.0
 10
12.0449352381
 20
10.2854788713
 30
0.0
 10
12.053130543
 20
10.284910525
 30
0.0
  0
SPLINE
  5
337
100
AcDbEntity
  8
0
100
AcDbSpline
 62
7
  6
CONTINUOUS
 70
0
 71
3
 72
41
 73
37
 74
0
 42
0.0000001
 43
0.0000001
 44
0.0000000001
 40
0.0
 40
0.0
 40
0.0
 40
0.0
 40
0.031144444
 40
0.0624425093
 40
0.0938872508
 40
0.1254695847
 40
0.1571771078
 40
0.1889951283
 40
0.2209066801
 40
0.2528929859
 40
0.2849338014
 40
0.3170078274
 40
0.3490931225
 40
0.3811675283
 40
0.4132090962
 40
0.4451965119
 40
0.4771095115
 40
0.5089292827
 40
0.5406388458
 40
0.5722234075
 40
0.6036706813
 40
0.6349711679
 40
0.6661183875
 40
0.6971090579
 40
0.7279432122
 40
0.7586242475
 40
0.7891589026
 40
0.8195571573
 40
0.8498320547
 40
0.8649308931
 40
0.8800050545
 40
0.9100832586
 40
0.9400926739
 40
0.9550812746
 40
0.9700610358
 40
1.0
 40
1.0
 40
1.0
 40
1.0
 10
9.4635757121
 20
6.7410324934
 30
0.0
 10
9.4602617604
 20
6.7412623167
 30
0.0
 10
9.4536318688
 20
6.7419656759
 30
0.0
 10
9.4437674218
 20
6.7437374088
 30
0.0
 10
9.4340086135
 20
6.7462191347
 30
0.0
 10
9.4244081949
 20
6.7493974225
 30
0.0
 10
9.4150171344
 20
6.7532552941
 30
0.0
 10
9.4058855368
 20
6.7577720843
 30
0.0
 10
9.3970620458
 20
6.7629236678
 30
0.0
 10
9.3885936779
 20
6.7686825335
 30
0.0
 10
9.3805255529
 20
6.7750179542
 30
0.0
 10
9.3729006608
 20
6.7818961397
 30
0.0
 10
9.3657596349
 20
6.7892804193
 30
0.0
 10
9.3591405371
 20
6.7971314342
 30
0.0
 10
9.3530786576
 20
6.8054073455
 30
0.0
 10
9.347606328
 20
6.8140640547
 30
0.0
 10
9.3427527506
 20
6.8230554366
 30
0.0
 10
9.3385438434
 20
6.8323335814
 30
0.0
 10
9.3350021026
 20
6.8418490477
 30
0.0
 10
9.3321464823
 20
6.8515511217
 30
0.0
 10
9.3299922932
 20
6.8613880846
 30
0.0
 10
9.3285511185
 20
6.871307484
 30
0.0
 10
9.3278307506
 20
6.8812564106
 30
0.0
 10
9.3278351446
 20
6.8911817744
 30
0.0
 10
9.3285643974
 20
6.9010305951
 30
0.0
 10
9.330014723
 20
6.9107502446
 30
0.0
 10
9.3321785373
 20
6.9202888692
 30
0.0
 10
9.3350442295
 20
6.9295951391
 30
0.0
 10
9.3380078295
 20
6.9371233668
 30
0.0
 10
9.3407122743
 20
6.9429777246
 30
0.0
 10
9.3436308797
 20
6.9487047943
 30
0.0
 10
9.3476832049
 20
6.9556319809
 30
0.0
 10
9.3522567311
 20
6.9622156418
 30
0.0
 10
9.3562089052
 20
6.9672480464
 30
0.0
 10
9.3603496465
 20
6.9721161653
 30
0.0
 10
9.3636670855
 20
6.9755818639
 30
0.0
 10
9.3659639059
 20
6.9778004201
 30
0.0
  0
SPLINE
  5
338
100
AcDbEntity
  8
0
100
AcDbSpline
 62
7
  6
CONTINUOUS
 70
0
 71
3
 72
15
 73
11
 74
0
 42
0.0000001
 43
0.0000001
 44
0.0000000001
 40
0.0
 40
0.0
 40
0.0
 40
0.0
 40
0.1273481239
 40
0.2538605621
 40
0.3795879444
 40
0.5046050907
 40
0.6290174474
 40
0.7529533717
 40
0.8765605757
 40
1.0
 40
1.0
 40
1.0
 40
1.0
 10
11.5270453289
 20
8.7282453163
 30
0.0
 10
11.5270453289
 20
8.7308477439
 30
0.0
 10
11.5272938079
 20
8.7360391195
 30
0.0
 10
11.5284175307
 20
8.7437263382
 30
0.0
 10
11.5302808602
 20
8.7512204072
 30
0.0
 10
11.5328669658
 20
8.7584512341
 30
0.0
 10
11.5361521024
 20
8.7653521441
 30
0.0
 10
11.5401063393
 20
8.7718594102
 30
0.0
 10
11.5446924817
 20
8.7779120717
 30
0.0
 10
11.5481456344
 20
8.7816093626
 30
0.0
 10
11.5499599809
 20
8.7833619069
 30
0.0
  0
SPLINE
  5
339
100
AcDbEntity
  8
0
100
AcDbSpline
 62
7
  6
CONTINUOUS
 70
0
 71
3
 72
38
 73
34
 74
0
 42
0.0000001
 43
0.0000001
 44
0.0000000001
 40
0.0
 40
0.0
 40
0.0
 40
0.0
 40
0.0064764542
 40
0.0130624963
 40
0.0197885314
 40
0.0266829207
 40
0.0410724929
 40
0.0564188898
 40
0.0728655331
 40
0.0905229499
 40
0.1094736021
 40
0.12977698
 40
0.1514738936
 40
0.1745897575
 40
0.1991375593
 40
0.225120021
 40
0.2525310614
 40
0.281357313
 40
0.3115791418
 40
0.3431712545
 40
0.3761035563
 40
0.4103416722
 40
0.4458471949
 40
0.4825782496
 40
0.5204897946
 40
0.5595337259
 40
0.5996592954
 40
0.6408133133
 40
0.6829402139
 40
0.725982345
 40
0.8145707545
 40
0.9060828528
 40
1.0
 40
1.0
 40
1.0
 40
1.0
 10
12.3884255805
 20
10.1769430976
 30
0.0
 10
12.3882903347
 20
10.1777192502
 30
0.0
 10
12.3879588786
 20
10.1792750536
 30
0.0
 10
12.3872881332
 20
10.1815889305
 30
0.0
 10
12.3864408254
 20
10.1838984519
 30
0.0
 10
12.3850569147
 20
10.1870144262
 30
0.0
 10
12.3828613999
 20
10.1909054676
 30
0.0
 10
12.3795679987
 20
10.1954688542
 30
0.0
 10
12.375585736
 20
10.1999886286
 30
0.0
 10
12.3709218274
 20
10.2044592801
 30
0.0
 10
12.3655835049
 20
10.2088758857
 30
0.0
 10
12.3595787305
 20
10.2132327858
 30
0.0
 10
12.3529163297
 20
10.2175240429
 30
0.0
 10
12.3456062032
 20
10.221743559
 30
0.0
 10
12.3376592806
 20
10.2258851051
 30
0.0
 10
12.3290875427
 20
10.2299424022
 30
0.0
 10
12.3199040421
 20
10.2339092733
 30
0.0
 10
12.3101228279
 20
10.23777959
 30
0.0
 10
12.2997589246
 20
10.2415473126
 30
0.0
 10
12.2888283282
 20
10.2452065946
 30
0.0
 10
12.2773479406
 20
10.248751715
 30
0.0
 10
12.2653355423
 20
10.2521771008
 30
0.0
 10
12.25280978
 20
10.2554774117
 30
0.0
 10
12.2397901109
 20
10.2586474745
 30
0.0
 10
12.2262967714
 20
10.261682298
 30
0.0
 10
12.2123507592
 20
10.2645771477
 30
0.0
 10
12.19797378
 20
10.2673274872
 30
0.0
 10
12.1831882215
 20
10.269928978
 30
0.0
 10
12.1680170962
 20
10.2723775932
 30
0.0
 10
12.1471056989
 20
10.2754629356
 30
0.0
 10
12.1201758191
 20
10.2788976353
 30
0.0
 10
12.087015164
 20
10.2823172037
 30
0.0
 10
12.0645280049
 20
10.2841201083
 30
0.0
 10
12.053130543
 20
10.284910525
 30
0.0
  0
SPLINE
  5
33A
100
AcDbEntity
  8
0
100
AcDbSpline
 62
7
  6
CONTINUOUS
 70
0
 71
3
 72
15
 73
11
 74
0
 42
0.0000001
 43
0.0000001
 44
0.0000000001
 40
0.0
 40
0.0
 40
0.0
 40
0.0
 40
0.1273481239
 40
0.2538605621
 40
0.3795879444
 40
0.5046050907
 40
0.6290174474
 40
0.7529533717
 40
0.8765605757
 40
1.0
 40
1.0
 40
1.0
 40
1.0
 10
9.987359488
 20
7.6276155376
 30
0.0
 10
9.987359488
 20
7.6302179653
 30
0.0
 10
9.9876079671
 20
7.6354093408
 30
0.0
 10
9.9887316899
 20
7.6430965596
 30
0.0
 10
9.9905950194
 20
7.6505906285
 30
0.0
 10
9.9931811249
 20
7.6578214554
 30
0.0
 10
9.9964662615
 20
7.6647223654
 30
0.0
 10
10.0004204985
 20
7.6712296315
 30
0.0
 10
10.0050066409
 20
7.677282293
 30
0.0
 10
10.0084597935
 20
7.6809795839
 30
0.0
 10
10.0102741401
 20
7.6827321282
 30
0.0
  0
SPLINE
  5
33B
100
AcDbEntity
  8
0
100
AcDbSpline
 62
7
  6
CONTINUOUS
 70
0
 71
3
 72
41
 73
37
 74
0
 42
0.0000001
 43
0.0000001
 44
0.0000000001
 40
0.0
 40
0.0
 40
0.0
 40
0.0
 40
0.031144444
 40
0.0624425093
 40
0.0938872508
 40
0.1254695847
 40
0.1571771078
 40
0.1889951283
 40
0.2209066801
 40
0.2528929859
 40
0.2849338014
 40
0.3170078274
 40
0.3490931225
 40
0.3811675283
 40
0.4132090962
 40
0.4451965119
 40
0.4771095115
 40
0.5089292827
 40
0.5406388458
 40
0.5722234075
 40
0.6036706813
 40
0.6349711679
 40
0.6661183875
 40
0.6971090579
 40
0.7279432122
 40
0.7586242475
 40
0.7891589026
 40
0.8195571573
 40
0.8498320547
 40
0.8649308931
 40
0.8800050545
 40
0.9100832586
 40
0.9400926739
 40
0.9550812746
 40
0.9700610358
 40
1.0
 40
1.0
 40
1.0
 40
1.0
 10
12.2029414846
 20
6.5510568318
 30
0.0
 10
12.1996275329
 20
6.5512866551
 30
0.0
 10
12.1929976413
 20
6.5519900144
 30
0.0
 10
12.1831331943
 20
6.5537617473
 30
0.0
 10
12.173374386
 20
6.5562434731
 30
0.0
 10
12.1637739674
 20
6.5594217609
 30
0.0
 10
12.1543829069
 20
6.5632796325
 30
0.0
 10
12.1452513093
 20
6.5677964227
 30
0.0
 10
12.1364278183
 20
6.5729480062
 30
0.0
 10
12.1279594504
 20
6.5787068719
 30
0.0
 10
12.1198913254
 20
6.5850422926
 30
0.0
 10
12.1122664333
 20
6.5919204781
 30
0.0
 10
12.1051254074
 20
6.5993047578
 30
0.0
 10
12.0985063096
 20
6.6071557726
 30
0.0
 10
12.0924444301
 20
6.6154316839
 30
0.0
 10
12.0869721005
 20
6.6240883932
 30
0.0
 10
12.0821185231
 20
6.633079775
 30
0.0
 10
12.0779096159
 20
6.6423579199
 30
0.0
 10
12.0743678751
 20
6.6518733861
 30
0.0
 10
12.0715122549
 20
6.6615754601
 30
0.0
 10
12.0693580657
 20
6.671412423
 30
0.0
 10
12.067916891
 20
6.6813318224
 30
0.0
 10
12.0671965231
 20
6.691280749
 30
0.0
 10
12.0672009171
 20
6.7012061128
 30
0.0
 10
12.0679301699
 20
6.7110549336
 30
0.0
 10
12.0693804955
 20
6.720774583
 30
0.0
 10
12.0715443098
 20
6.7303132076
 30
0.0
 10
12.074410002
 20
6.7396194775
 30
0.0
 10
12.077373602
 20
6.7471477052
 30
0.0
 10
12.0800780468
 20
6.753002063
 30
0.0
 10
12.0829966522
 20
6.7587291327
 30
0.0
 10
12.0870489775
 20
6.7656563193
 30
0.0
 10
12.0916225036
 20
6.7722399802
 30
0.0
 10
12.0955746777
 20
6.7772723848
 30
0.0
 10
12.099715419
 20
6.7821405037
 30
0.0
 10
12.103032858
 20
6.7856062023
 30
0.0
 10
12.1053296784
 20
6.7878247585
 30
0.0
  0
SPLINE
  5
33C
100
AcDbEntity
  8
0
100
AcDbSpline
 62
7
  6
CONTINUOUS
 70
0
 71
3
 72
15
 73
11
 74
0
 42
0.0000001
 43
0.0000001
 44
0.0000000001
 40
0.0
 40
0.0
 40
0.0
 40
0.0
 40
0.1273481239
 40
0.2538605621
 40
0.3795879444
 40
0.5046050907
 40
0.6290174474
 40
0.7529533717
 40
0.8765605757
 40
1.0
 40
1.0
 40
1.0
 40
1.0
 10
11.5270453289
 20
7.489928271
 30
0.0
 10
11.5270453289
 20
7.4925306986
 30
0.0
 10
11.5272938079
 20
7.4977220742
 30
0.0
 10
11.5284175307
 20
7.5054092929
 30
0.0
 10
11.5302808602
 20
7.5129033618
 30
0.0
 10
11.5328669658
 20
7.5201341888
 30
0.0
 10
11.5361521024
 20
7.5270350988
 30
0.0
 10
11.5401063393
 20
7.5335423649
 30
0.0
 10
11.5446924817
 20
7.5395950264
 30
0.0
 10
11.5481456344
 20
7.5432923172
 30
0.0
 10
11.5499599809
 20
7.5450448616
 30
0.0
  0
SPLINE
  5
33D
100
AcDbEntity
  8
0
100
AcDbSpline
 62
7
  6
CONTINUOUS
 70
0
 71
3
 72
11
 73
7
 74
0
 42
0.0000001
 43
0.0000001
 44
0.0000000001
 40
0.0
 40
0.0
 40
0.0
 40
0.0
 40
0.2523302137
 40
0.503034635
 40
0.7522106859
 40
1.0
 40
1.0
 40
1.0
 40
1.0
 10
10.7564112646
 20
7.7646036187
 30
0.0
 10
10.7564112646
 20
7.7683346127
 30
0.0
 10
10.7567608144
 20
7.7757774728
 30
0.0
 10
10.7583413973
 20
7.7868035949
 30
0.0
 10
10.7609612106
 20
7.7975610639
 30
0.0
 10
10.7633918321
 20
7.8045103351
 30
0.0
 10
10.7647703502
 20
7.8079049625
 30
0.0
  0
SPLINE
  5
33E
100
AcDbEntity
  8
0
100
AcDbSpline
 62
7
  6
CONTINUOUS
 70
0
 71
3
 72
35
 73
31
 74
0
 42
0.0000001
 43
0.0000001
 44
0.0000000001
 40
0.0
 40
0.0
 40
0.0
 40
0.0
 40
0.0301936609
 40
0.0602990873
 40
0.0903527024
 40
0.1203904288
 40
0.1504475158
 40
0.1805558458
 40
0.2107429899
 40
0.2410314786
 40
0.2714386818
 40
0.3019770404
 40
0.332654544
 40
0.3634753213
 40
0.3944402548
 40
0.4255475614
 40
0.488141967
 40
0.5512419174
 40
0.5829732764
 40
0.6148037991
 40
0.6786959233
 40
0.7428519337
 40
0.7750097572
 40
0.8071946897
 40
0.8393921931
 40
0.8715869
 40
0.9037625818
 40
0.9359021219
 40
0.9679875115
 40
1.0
 40
1.0
 40
1.0
 40
1.0
 10
11.3375399447
 20
8.0547191174
 30
0.0
 10
11.3361460572
 20
8.0519578909
 30
0.0
 10
11.3330912072
 20
8.0465755302
 30
0.0
 10
11.3277478856
 20
8.0390004197
 30
0.0
 10
11.3217024241
 20
8.0319932336
 30
0.0
 10
11.3150159587
 20
8.0256030978
 30
0.0
 10
11.3077546685
 20
8.0198665101
 30
0.0
 10
11.2999876369
 20
8.0148091887
 30
0.0
 10
11.2917843312
 20
8.0104464716
 30
0.0
 10
11.2832126732
 20
8.0067847731
 30
0.0
 10
11.2743376416
 20
8.0038230785
 30
0.0
 10
11.2652204073
 20
8.0015545166
 30
0.0
 10
11.2559178547
 20
7.9999678079
 30
0.0
 10
11.2464826538
 20
7.9990485097
 30
0.0
 10
11.2369627866
 20
7.9987801272
 30
0.0
 10
11.2241931512
 20
7.9992671571
 30
0.0
 10
11.2082303538
 20
8.0014219278
 30
0.0
 10
11.1925846268
 20
8.0054883293
 30
0.0
 10
11.1803463535
 20
8.0098176462
 30
0.0
 10
11.1682962238
 20
8.0148604186
 30
0.0
 10
11.1537355498
 20
8.0224361255
 30
0.0
 10
11.1400629033
 20
8.0315771729
 30
0.0
 10
11.1297549486
 20
8.0397733111
 30
0.0
 10
11.1223635587
 20
8.0463521818
 30
0.0
 10
11.1153513241
 20
8.0533389694
 30
0.0
 10
11.1087508719
 20
8.0607151272
 30
0.0
 10
11.1025966392
 20
8.0684601772
 30
0.0
 10
11.0969244183
 20
8.0765517584
 30
0.0
 10
11.0917718815
 20
8.0849641163
 30
0.0
 10
11.088704504
 20
8.0907762035
 30
0.0
 10
11.0872709687
 20
8.093725717
 30
0.0
  0
SPLINE
  5
33F
100
AcDbEntity
  8
0
100
AcDbSpline
 62
7
  6
CONTINUOUS
 70
0
 71
3
 72
27
 73
23
 74
0
 42
0.0000001
 43
0.0000001
 44
0.0000000001
 40
0.0
 40
0.0
 40
0.0
 40
0.0
 40
0.0341558373
 40
0.0524227947
 40
0.0715375886
 40
0.0915379419
 40
0.1124544668
 40
0.1343122662
 40
0.1571317567
 40
0.1809288074
 40
0.2057161902
 40
0.2582985751
 40
0.3149311144
 40
0.3756336808
 40
0.4403997098
 40
0.5091959736
 40
0.5819594743
 40
0.6585905703
 40
0.7389437663
 40
0.8228179295
 40
0.9099478058
 40
1.0
 40
1.0
 40
1.0
 40
1.0
 10
10.8934952236
 20
7.7557992053
 30
0.0
 10
10.8944305207
 20
7.7565569328
 30
0.0
 10
10.8959404367
 20
7.757629801
 30
0.0
 10
10.8980938958
 20
7.7589413478
 30
0.0
 10
10.8998650669
 20
7.7599186633
 30
0.0
 10
10.901754622
 20
7.7608710906
 30
0.0
 10
10.9037618172
 20
7.7618021984
 30
0.0
 10
10.9058855193
 20
7.762715864
 30
0.0
 10
10.9081245463
 20
7.76361645
 30
0.0
 10
10.910477812
 20
7.7645081706
 30
0.0
 10
10.913832629
 20
7.7657154735
 30
0.0
 10
10.9183086443
 20
7.7672225544
 30
0.0
 10
10.9240135578
 20
7.7690428576
 30
0.0
 10
10.930140279
 20
7.7709530273
 30
0.0
 10
10.9366732576
 20
7.7730003857
 30
0.0
 10
10.9435929848
 20
7.7752345961
 30
0.0
 10
10.9508744458
 20
7.7777073224
 30
0.0
 10
10.9584855155
 20
7.7804715997
 30
0.0
 10
10.9663851544
 20
7.7835808343
 30
0.0
 10
10.9745218227
 20
7.7870873986
 30
0.0
 10
10.9828318306
 20
7.7910405103
 30
0.0
 10
10.9883546259
 20
7.7939594839
 30
0.0
 10
10.991125187
 20
7.7955073143
 30
0.0
  0
SPLINE
  5
340
100
AcDbEntity
  8
0
100
AcDbSpline
 62
7
  6
CONTINUOUS
 70
0
 71
3
 72
55
 73
51
 74
0
 42
0.0000001
 43
0.0000001
 44
0.0000000001
 40
0.0
 40
0.0
 40
0.0
 40
0.0
 40
0.0528987923
 40
0.1050252447
 40
0.1562616162
 40
0.2064949455
 40
0.2556141677
 40
0.3035122725
 40
0.3500860349
 40
0.3952367117
 40
0.4388704592
 40
0.4808988931
 40
0.5212396918
 40
0.5598172953
 40
0.5965637214
 40
0.6314195591
 40
0.6481232272
 40
0.6643365125
 40
0.6800550856
 40
0.6952753162
 40
0.7099946017
 40
0.7242112683
 40
0.7379247876
 40
0.7511358803
 40
0.7638465891
 40
0.776060606
 40
0.7877832444
 40
0.7990219431
 40
0.8097862519
 40
0.8200884083
 40
0.8299434749
 40
0.8393698842
 40
0.8483897976
 40
0.8570295393
 40
0.8732865042
 40
0.8809916405
 40
0.8884709119
 40
0.8957755199
 40
0.9029607929
 40
0.9100851613
 40
0.9172086928
 40
0.9243914839
 40
0.931692015
 40
0.9391657507
 40
0.9468639634
 40
0.9631035924
 40
0.9717332373
 40
0.9807422332
 40
0.990157064
 40
1.0
 40
1.0
 40
1.0
 40
1.0
 10
12.0743536872
 20
10.3846164318
 30
0.0
 10
12.0828047351
 20
10.3840303496
 30
0.0
 10
12.099575812
 20
10.3827531766
 30
0.0
 10
12.124499472
 20
10.3805040772
 30
0.0
 10
12.1489636146
 20
10.3779397533
 30
0.0
 10
12.1729084753
 20
10.3750665414
 30
0.0
 10
12.1962758486
 20
10.3718914563
 30
0.0
 10
12.2190087904
 20
10.3684223077
 30
0.0
 10
12.2410519838
 20
10.3646676028
 30
0.0
 10
12.2623517908
 20
10.3606365638
 30
0.0
 10
12.2828564166
 20
10.3563390898
 30
0.0
 10
12.3025160416
 20
10.3517857375
 30
0.0
 10
12.3212829317
 20
10.3469876928
 30
0.0
 10
12.339111654
 20
10.3419567418
 30
0.0
 10
12.3559589045
 20
10.3367052298
 30
0.0
 10
12.3693299113
 20
10.33209282
 30
0.0
 10
12.3794967714
 20
10.328292871
 30
0.0
 10
12.38674311
 20
10.3254362812
 30
0.0
 10
12.3937148085
 20
10.3225343784
 30
0.0
 10
12.4004076428
 20
10.3195888487
 30
0.0
 10
12.4068175719
 20
10.3166015262
 30
0.0
 10
12.4129407197
 20
10.3135741961
 30
0.0
 10
12.4187733933
 20
10.3105086886
 30
0.0
 10
12.4243120911
 20
10.3074068681
 30
0.0
 10
12.4295534696
 20
10.3042705502
 30
0.0
 10
12.434494415
 20
10.3011016595
 30
0.0
 10
12.4391319386
 20
10.2979019944
 30
0.0
 10
12.443463312
 20
10.2946735001
 30
0.0
 10
12.4474859119
 20
10.2914179629
 30
0.0
 10
12.4511973634
 20
10.288137303
 30
0.0
 10
12.4545954307
 20
10.2848332646
 30
0.0
 10
12.4576779617
 20
10.281507825
 30
0.0
 10
12.4604433394
 20
10.2781622386
 30
0.0
 10
12.4636393226
 20
10.2737679856
 30
0.0
 10
12.4662884817
 20
10.2692431028
 30
0.0
 10
12.4682949301
 20
10.2646197628
 30
0.0
 10
12.4694476772
 20
10.2612029025
 30
0.0
 10
12.4702734507
 20
10.2577780554
 30
0.0
 10
12.4707712021
 20
10.2543475244
 30
0.0
 10
12.4709402473
 20
10.2509141037
 30
0.0
 10
12.4707803261
 20
10.2474806401
 30
0.0
 10
12.4702916434
 20
10.2440499977
 30
0.0
 10
12.4694749907
 20
10.2406249463
 30
0.0
 10
12.468331231
 20
10.2372078476
 30
0.0
 10
12.4663371854
 20
10.2325843304
 30
0.0
 10
12.4636999238
 20
10.2280587779
 30
0.0
 10
12.4605154079
 20
10.2236637872
 30
0.0
 10
12.4577588468
 20
10.2203176521
 30
0.0
 10
12.4546851453
 20
10.2169917013
 30
0.0
 10
12.4524759272
 20
10.2148377104
 30
0.0
 10
12.4513220135
 20
10.2137638769
 30
0.0
  0
SPLINE
  5
341
100
AcDbEntity
  8
0
100
AcDbSpline
 62
7
  6
CONTINUOUS
 70
0
 71
3
 72
37
 73
33
 74
0
 42
0.0000001
 43
0.0000001
 44
0.0000000001
 40
0.0
 40
0.0
 40
0.0
 40
0.0
 40
0.0311464763
 40
0.0624483004
 40
0.0938952738
 40
0.1254804953
 40
0.1571907415
 40
0.1890115257
 40
0.2209258547
 40
0.252914932
 40
0.2849585264
 40
0.317035338
 40
0.3491234252
 40
0.381200621
 40
0.4451976236
 40
0.5088978732
 40
0.5406101981
 40
0.5721975056
 40
0.6036475114
 40
0.634950721
 40
0.6661006564
 40
0.6970940303
 40
0.7279308694
 40
0.7586145731
 40
0.7891518852
 40
0.8195527902
 40
0.8498303302
 40
0.8800003491
 40
0.9100811696
 40
0.9400931924
 40
0.9700584311
 40
1.0
 40
1.0
 40
1.0
 40
1.0
 10
11.3162215401
 20
7.4234458289
 30
0.0
 10
11.3143818112
 20
7.4235734145
 30
0.0
 10
11.3107011516
 20
7.4239639151
 30
0.0
 10
11.3052248193
 20
7.4249474658
 30
0.0
 10
11.299807103
 20
7.4263252633
 30
0.0
 10
11.294477361
 20
7.4280896792
 30
0.0
 10
11.2892638239
 20
7.4302314064
 30
0.0
 10
11.2841943379
 20
7.4327389341
 30
0.0
 10
11.2792959008
 20
7.4355988808
 30
0.0
 10
11.2745946139
 20
7.4387959573
 30
0.0
 10
11.2701155099
 20
7.4423131215
 30
0.0
 10
11.2658825023
 20
7.4461315457
 30
0.0
 10
11.2619179801
 20
7.4502311511
 30
0.0
 10
11.2570234614
 20
7.4560364052
 30
0.0
 10
11.251678085
 20
7.463879592
 30
0.0
 10
11.2474674614
 20
7.4723627117
 30
0.0
 10
11.2448427563
 20
7.4794147707
 30
0.0
 10
11.2432573306
 20
7.4848011277
 30
0.0
 10
11.242061422
 20
7.4902621531
 30
0.0
 10
11.2412613092
 20
7.4957690016
 30
0.0
 10
11.2408613607
 20
7.5012922294
 30
0.0
 10
11.2408637748
 20
7.5068023835
 30
0.0
 10
11.2412686078
 20
7.5122700408
 30
0.0
 10
11.2420737504
 20
7.5176659997
 30
0.0
 10
11.2432749649
 20
7.522961426
 30
0.0
 10
11.2448658983
 20
7.5281280075
 30
0.0
 10
11.2468381117
 20
7.5331381006
 30
0.0
 10
11.2491811273
 20
7.5379648893
 30
0.0
 10
11.2518824205
 20
7.5425825113
 30
0.0
 10
11.2549276475
 20
7.5469663198
 30
0.0
 10
11.25830023
 20
7.5510925311
 30
0.0
 10
11.2607559093
 20
7.5536579593
 30
0.0
 10
11.2620310047
 20
7.5548896145
 30
0.0
  0
SPLINE
  5
342
100
AcDbEntity
  8
0
100
AcDbSpline
 62
7
  6
CONTINUOUS
 70
0
 71
3
 72
19
 73
15
 74
0
 42
0.0000001
 43
0.0000001
 44
0.0000000001
 40
0.0
 40
0.0
 40
0.0
 40
0.0
 40
0.0616584454
 40
0.1233399317
 40
0.185067215
 40
0.2468625626
 40
0.3087474945
 40
0.3707425066
 40
0.4328668994
 40
0.4951385746
 40
0.6201443393
 40
0.7459117862
 40
0.8725152911
 40
1.0
 40
1.0
 40
1.0
 40
1.0
 10
9.5611875182
 20
9.5150555412
 30
0.0
 10
9.5596108199
 20
9.5135325689
 30
0.0
 10
9.5563742295
 20
9.5105702578
 30
0.0
 10
9.5512865585
 20
9.5063932935
 30
0.0
 10
9.5459779478
 20
9.5024924381
 30
0.0
 10
9.5404619941
 20
9.4988776412
 30
0.0
 10
9.5347524989
 20
9.4955580056
 30
0.0
 10
9.5288639351
 20
9.492541901
 30
0.0
 10
9.522810933
 20
9.489836818
 30
0.0
 10
9.514532693
 20
9.4866503852
 30
0.0
 10
9.5038416856
 20
9.4834780114
 30
0.0
 10
9.4906292287
 20
9.4810134072
 30
0.0
 10
9.4771470458
 20
9.4799081937
 30
0.0
 10
9.4680972839
 20
9.4800847226
 30
0.0
 10
9.4635757121
 20
9.4803982947
 30
0.0
  0
SPLINE
  5
343
100
AcDbEntity
  8
0
100
AcDbSpline
 62
7
  6
CONTINUOUS
 70
0
 71
3
 72
19
 73
15
 74
0
 42
0.0000001
 43
0.0000001
 44
0.0000000001
 40
0.0
 40
0.0
 40
0.0
 40
0.0
 40
0.0616584454
 40
0.1233399317
 40
0.185067215
 40
0.2468625626
 40
0.3087474945
 40
0.3707425066
 40
0.4328668994
 40
0.4951385746
 40
0.6201443393
 40
0.7459117862
 40
0.8725152911
 40
1.0
 40
1.0
 40
1.0
 40
1.0
 10
12.3005532907
 20
9.3250798796
 30
0.0
 10
12.2989765924
 20
9.3235569074
 30
0.0
 10
12.295740002
 20
9.3205945963
 30
0.0
 10
12.290652331
 20
9.3164176319
 30
0.0
 10
12.2853437203
 20
9.3125167765
 30
0.0
 10
12.2798277666
 20
9.3089019797
 30
0.0
 10
12.2741182714
 20
9.3055823441
 30
0.0
 10
12.2682297076
 20
9.3025662394
 30
0.0
 10
12.2621767055
 20
9.2998611564
 30
0.0
 10
12.2538984655
 20
9.2966747237
 30
0.0
 10
12.2432074581
 20
9.2935023498
 30
0.0
 10
12.2299950012
 20
9.2910377457
 30
0.0
 10
12.2165128183
 20
9.2899325321
 30
0.0
 10
12.2074630564
 20
9.290109061
 30
0.0
 10
12.2029414846
 20
9.2904226331
 30
0.0
  0
SPLINE
  5
344
100
AcDbEntity
  8
0
100
AcDbSpline
 62
7
  6
CONTINUOUS
 70
0
 71
3
 72
19
 73
15
 74
0
 42
0.0000001
 43
0.0000001
 44
0.0000000001
 40
0.0
 40
0.0
 40
0.0
 40
0.0
 40
0.0616584454
 40
0.1233399317
 40
0.185067215
 40
0.2468625626
 40
0.3087474945
 40
0.3707425066
 40
0.4328668994
 40
0.4951385746
 40
0.6201443393
 40
0.7459117862
 40
0.8725152911
 40
1.0
 40
1.0
 40
1.0
 40
1.0
 10
9.5611875182
 20
6.7756897399
 30
0.0
 10
9.5596108199
 20
6.7741667676
 30
0.0
 10
9.5563742295
 20
6.7712044565
 30
0.0
 10
9.5512865585
 20
6.7670274922
 30
0.0
 10
9.5459779478
 20
6.7631266368
 30
0.0
 10
9.5404619941
 20
6.7595118399
 30
0.0
 10
9.5347524989
 20
6.7561922043
 30
0.0
 10
9.5288639351
 20
6.7531760997
 30
0.0
 10
9.522810933
 20
6.7504710167
 30
0.0
 10
9.514532693
 20
6.7472845839
 30
0.0
 10
9.5038416856
 20
6.7441122101
 30
0.0
 10
9.4906292287
 20
6.7416476059
 30
0.0
 10
9.4771470458
 20
6.7405423924
 30
0.0
 10
9.4680972839
 20
6.7407189213
 30
0.0
 10
9.4635757121
 20
6.7410324934
 30
0.0
  0
SPLINE
  5
345
100
AcDbEntity
  8
0
100
AcDbSpline
 62
7
  6
CONTINUOUS
 70
0
 71
3
 72
26
 73
22
 74
0
 42
0.0000001
 43
0.0000001
 44
0.0000000001
 40
0.0
 40
0.0
 40
0.0
 40
0.0
 40
0.061898891
 40
0.1242877691
 40
0.1871179353
 40
0.2503123873
 40
0.313775541
 40
0.3773972054
 40
0.4410587335
 40
0.5046393707
 40
0.5680226566
 40
0.6311026712
 40
0.6937898982
 40
0.7560164037
 40
0.8177400432
 40
0.8484222123
 40
0.8789761965
 40
0.9094050992
 40
0.9397138684
 40
0.9699093092
 40
1.0
 40
1.0
 40
1.0
 40
1.0
 10
11.3565972786
 20
7.4624457998
 30
0.0
 10
11.3535388981
 20
7.4626578992
 30
0.0
 10
11.3474176814
 20
7.4634571552
 30
0.0
 10
11.3384153938
 20
7.465742963
 30
0.0
 10
11.3296804721
 20
7.469086688
 30
0.0
 10
11.3213424766
 20
7.47343889
 30
0.0
 10
11.3135228688
 20
7.4787354163
 30
0.0
 10
11.3063360741
 20
7.4848985001
 30
0.0
 10
11.2998871961
 20
7.4918378963
 30
0.0
 10
11.294270632
 20
7.4994520454
 30
0.0
 10
11.2895686852
 20
7.5076296029
 30
0.0
 10
11.2858504962
 20
7.5162509604
 30
0.0
 10
11.2831709723
 20
7.5251902654
 30
0.0
 10
11.2815698229
 20
7.5343157184
 30
0.0
 10
11.2811536663
 20
7.5419833495
 30
0.0
 10
11.2813793776
 20
7.5480722501
 30
0.0
 10
11.2818251075
 20
7.5525933061
 30
0.0
 10
11.282546045
 20
7.5570598426
 30
0.0
 10
11.283539641
 20
7.5614556635
 30
0.0
 10
11.2848021197
 20
7.5657643087
 30
0.0
 10
11.2858218081
 20
7.5685731687
 30
0.0
 10
11.2863747354
 20
7.5699571329
 30
0.0
  0
SPLINE
  5
346
100
AcDbEntity
  8
0
100
AcDbSpline
 62
7
  6
CONTINUOUS
 70
0
 71
3
 72
19
 73
15
 74
0
 42
0.0000001
 43
0.0000001
 44
0.0000000001
 40
0.0
 40
0.0
 40
0.0
 40
0.0
 40
0.0616584454
 40
0.1233399317
 40
0.185067215
 40
0.2468625626
 40
0.3087474945
 40
0.3707425066
 40
0.4328668994
 40
0.4951385746
 40
0.6201443393
 40
0.7459117862
 40
0.8725152911
 40
1.0
 40
1.0
 40
1.0
 40
1.0
 10
12.3005532907
 20
6.5857140783
 30
0.0
 10
12.2989765924
 20
6.5841911061
 30
0.0
 10
12.295740002
 20
6.581228795
 30
0.0
 10
12.290652331
 20
6.5770518306
 30
0.0
 10
12.2853437203
 20
6.5731509752
 30
0.0
 10
12.2798277666
 20
6.5695361784
 30
0.0
 10
12.2741182714
 20
6.5662165428
 30
0.0
 10
12.2682297076
 20
6.5632004381
 30
0.0
 10
12.2621767055
 20
6.5604953551
 30
0.0
 10
12.2538984655
 20
6.5573089224
 30
0.0
 10
12.2432074581
 20
6.5541365485
 30
0.0
 10
12.2299950012
 20
6.5516719444
 30
0.0
 10
12.2165128183
 20
6.5505667308
 30
0.0
 10
12.2074630564
 20
6.5507432597
 30
0.0
 10
12.2029414846
 20
6.5510568318
 30
0.0
  0
SPLINE
  5
347
100
AcDbEntity
  8
0
100
AcDbSpline
 62
7
  6
CONTINUOUS
 70
0
 71
3
 72
39
 73
35
 74
0
 42
0.0000001
 43
0.0000001
 44
0.0000000001
 40
0.0
 40
0.0
 40
0.0
 40
0.0
 40
0.031116003
 40
0.0620232729
 40
0.0927351582
 40
0.1232711727
 40
0.1536587326
 40
0.1839312109
 40
0.2141268391
 40
0.2442870982
 40
0.2744549745
 40
0.3046731295
 40
0.3349820885
 40
0.3654185439
 40
0.3960138647
 40
0.4267928821
 40
0.4577729955
 40
0.4889636186
 40
0.5203659684
 40
0.551973179
 40
0.5837707185
 40
0.6157370633
 40
0.6478445893
 40
0.6800606395
 40
0.7123487309
 40
0.744669862
 40
0.7769838836
 40
0.8092508932
 40
0.8414326248
 40
0.873493804
 40
0.9054033897
 40
0.9371359556
 40
0.968671764
 40
1.0
 40
1.0
 40
1.0
 40
1.0
 10
9.9610274767
 20
8.8001784297
 30
0.0
 10
9.9610274767
 20
8.803516373
 30
0.0
 10
9.9613533425
 20
8.8101746977
 30
0.0
 10
9.9628271185
 20
8.8200290711
 30
0.0
 10
9.9652702774
 20
8.8296260192
 30
0.0
 10
9.9686597301
 20
8.8388716614
 30
0.0
 10
9.972963024
 20
8.8476768964
 30
0.0
 10
9.9781388747
 20
8.8559564118
 30
0.0
 10
9.9841374054
 20
8.8636300435
 30
0.0
 10
9.9909006752
 20
8.8706234649
 30
0.0
 10
9.9983632548
 20
8.8768689776
 30
0.0
 10
10.006452886
 20
8.8823061946
 30
0.0
 10
10.0150912232
 20
8.886882645
 30
0.0
 10
10.0241946287
 20
8.8905542981
 30
0.0
 10
10.0336750256
 20
8.8932859906
 30
0.0
 10
10.0434407984
 20
8.8950517106
 30
0.0
 10
10.0533976957
 20
8.8958348158
 30
0.0
 10
10.063449747
 20
8.895628152
 30
0.0
 10
10.0735001801
 20
8.8944340848
 30
0.0
 10
10.0834523455
 20
8.8922644754
 30
0.0
 10
10.0932106279
 20
8.8891405097
 30
0.0
 10
10.1026813395
 20
8.8850924783
 30
0.0
 10
10.1117735964
 20
8.8801594772
 30
0.0
 10
10.1204001637
 20
8.8743890267
 30
0.0
 10
10.1284782886
 20
8.8678366414
 30
0.0
 10
10.1359304747
 20
8.8605652881
 30
0.0
 10
10.1426852012
 20
8.8526447808
 30
0.0
 10
10.1486775969
 20
8.8441511235
 30
0.0
 10
10.1538500508
 20
8.8351658047
 30
0.0
 10
10.1581527589
 20
8.8257750009
 30
0.0
 10
10.1615442501
 20
8.8160689107
 30
0.0
 10
10.1639916484
 20
8.8061403874
 30
0.0
 10
10.1654712504
 20
8.7960860271
 30
0.0
 10
10.165803764
 20
8.7893378564
 30
0.0
 10
10.165803764
 20
8.785977146
 30
0.0
  0
SPLINE
  5
348
100
AcDbEntity
  8
0
100
AcDbSpline
 62
7
  6
CONTINUOUS
 70
0
 71
3
 72
11
 73
7
 74
0
 42
0.0000001
 43
0.0000001
 44
0.0000000001
 40
0.0
 40
0.0
 40
0.0
 40
0.0
 40
0.2525426425
 40
0.5033181644
 40
0.7524199924
 40
1.0
 40
1.0
 40
1.0
 40
1.0
 10
11.3565972786
 20
7.4624457998
 30
0.0
 10
11.3591394006
 20
7.4622695031
 30
0.0
 10
11.3642274508
 20
7.4621734622
 30
0.0
 10
11.3718060055
 20
7.4628095922
 30
0.0
 10
11.3792286198
 20
7.4642194613
 30
0.0
 10
11.3840371271
 20
7.4656707609
 30
0.0
 10
11.3863867685
 20
7.4665192629
 30
0.0
  0
SPLINE
  5
349
100
AcDbEntity
  8
0
100
AcDbSpline
 62
7
  6
CONTINUOUS
 70
0
 71
3
 72
23
 73
19
 74
0
 42
0.0000001
 43
0.0000001
 44
0.0000000001
 40
0.0
 40
0.0
 40
0.0
 40
0.0
 40
0.0782213955
 40
0.1526257162
 40
0.2234182786
 40
0.290859496
 40
0.3552638125
 40
0.4169995504
 40
0.4764910583
 40
0.5342192331
 40
0.5907160425
 40
0.6465519358
 40
0.7023195974
 40
0.7586140398
 40
0.816012299
 40
0.875056299
 40
0.9362394558
 40
1.0
 40
1.0
 40
1.0
 40
1.0
 10
12.9688061561
 20
7.5844106576
 30
0.0
 10
12.9678239345
 20
7.5834619043
 30
0.0
 10
12.9658603829
 20
7.5816584143
 30
0.0
 10
12.9628404456
 20
7.5791862981
 30
0.0
 10
12.9598233091
 20
7.577018748
 30
0.0
 10
12.9568110221
 20
7.5751576514
 30
0.0
 10
12.9538053181
 20
7.5736046513
 30
0.0
 10
12.9508080524
 20
7.5723613292
 30
0.0
 10
12.9478212466
 20
7.5714292685
 30
0.0
 10
12.944847189
 20
7.5708100232
 30
0.0
 10
12.941888526
 20
7.5705047201
 30
0.0
 10
12.938948194
 20
7.5705142767
 30
0.0
 10
12.936029337
 20
7.570838741
 30
0.0
 10
12.9331350958
 20
7.5714777903
 30
0.0
 10
12.9302683457
 20
7.5724301976
 30
0.0
 10
12.9274315881
 20
7.573694599
 30
0.0
 10
12.9246271422
 20
7.5752690288
 30
0.0
 10
12.9228206776
 20
7.5764966908
 30
0.0
 10
12.9219245738
 20
7.5771570686
 30
0.0
  0
SPLINE
  5
34A
100
AcDbEntity
  8
0
100
AcDbSpline
 62
7
  6
CONTINUOUS
 70
0
 71
3
 72
37
 73
33
 74
0
 42
0.0000001
 43
0.0000001
 44
0.0000000001
 40
0.0
 40
0.0
 40
0.0
 40
0.0
 40
0.0299447773
 40
0.0599139305
 40
0.0899312459
 40
0.1200193412
 40
0.1501991262
 40
0.1804893155
 40
0.2109060063
 40
0.2414623368
 40
0.2721682234
 40
0.3030301797
 40
0.3340512199
 40
0.3652308433
 40
0.3965650964
 40
0.4280467089
 40
0.4596653
 40
0.4914076357
 40
0.5232579341
 40
0.5551982119
 40
0.6192294659
 40
0.6833674715
 40
0.7154389669
 40
0.7474692937
 40
0.7794368437
 40
0.8113212627
 40
0.8431038815
 40
0.8747680274
 40
0.9062997782
 40
0.9376869231
 40
0.968922956
 40
1.0
 40
1.0
 40
1.0
 40
1.0
 10
10.1276863103
 20
8.7376757758
 30
0.0
 10
10.1262844913
 20
8.736321707
 30
0.0
 10
10.123370593
 20
8.7337228809
 30
0.0
 10
10.118702104
 20
8.7301824136
 30
0.0
 10
10.1137598034
 20
8.727017469
 30
0.0
 10
10.1085713136
 20
8.7242457932
 30
0.0
 10
10.1031651562
 20
8.7218825338
 30
0.0
 10
10.0975711653
 20
8.7199406884
 30
0.0
 10
10.0918201695
 20
8.7184308801
 30
0.0
 10
10.0859438549
 20
8.7173613453
 30
0.0
 10
10.0799745754
 20
8.7167378912
 30
0.0
 10
10.0739451778
 20
8.7165638688
 30
0.0
 10
10.0678888212
 20
8.7168401594
 30
0.0
 10
10.0618387971
 20
8.7175651731
 30
0.0
 10
10.0558283475
 20
8.7187348621
 30
0.0
 10
10.0498904883
 20
8.7203427239
 30
0.0
 10
10.0440578001
 20
8.7223798802
 30
0.0
 10
10.0383623692
 20
8.7248350318
 30
0.0
 10
10.0328351783
 20
8.7276948799
 30
0.0
 10
10.0257268634
 20
8.7320284664
 30
0.0
 10
10.0174152013
 20
8.7383734857
 30
0.0
 10
10.0100533588
 20
8.7458111515
 30
0.0
 10
10.0048241071
 20
8.7523238371
 30
0.0
 10
10.0012534166
 20
8.7574632441
 30
0.0
 10
9.9980550575
 20
8.7628278054
 30
0.0
 10
9.995246357
 20
8.7683883357
 30
0.0
 10
9.9928428419
 20
8.7741142516
 30
0.0
 10
9.9908577002
 20
8.7799741599
 30
0.0
 10
9.9893019433
 20
8.7859358353
 30
0.0
 10
9.9881840544
 20
8.791966734
 30
0.0
 10
9.9875104037
 20
8.7980332144
 30
0.0
 10
9.987359488
 20
8.8020905064
 30
0.0
 10
9.987359488
 20
8.8041132011
 30
0.0
  0
SPLINE
  5
34B
100
AcDbEntity
  8
0
100
AcDbSpline
 62
7
  6
CONTINUOUS
 70
0
 71
3
 72
18
 73
14
 74
0
 42
0.0000001
 43
0.0000001
 44
0.0000000001
 40
0.0
 40
0.0
 40
0.0
 40
0.0
 40
0.150467008
 40
0.2917141408
 40
0.4244426259
 40
0.4879099277
 40
0.549609295
 40
0.6682624161
 40
0.7817883561
 40
0.8371380822
 40
0.8918079419
 40
0.9460193459
 40
1.0
 40
1.0
 40
1.0
 40
1.0
 10
12.9551459013
 20
7.5910162623
 30
0.0
 10
12.9539288518
 20
7.5898406827
 30
0.0
 10
12.9514963853
 20
7.5876349445
 30
0.0
 10
12.9477299814
 20
7.5846955055
 30
0.0
 10
12.9445485926
 20
7.5826165841
 30
0.0
 10
12.9420117307
 20
7.5812087939
 30
0.0
 10
12.9395494999
 20
7.5800001717
 30
0.0
 10
12.9364709283
 20
7.5787788996
 30
0.0
 10
12.9333375966
 20
7.5779454682
 30
0.0
 10
12.9308558978
 20
7.5775349238
 30
0.0
 10
12.9290166212
 20
7.5773526871
 30
0.0
 10
12.9271847821
 20
7.5772938355
 30
0.0
 10
12.9259677545
 20
7.5773368887
 30
0.0
 10
12.9253621617
 20
7.5773788852
 30
0.0
  0
SPLINE
  5
34C
100
AcDbEntity
  8
0
100
AcDbSpline
 62
7
  6
CONTINUOUS
 70
0
 71
3
 72
27
 73
23
 74
0
 42
0.0000001
 43
0.0000001
 44
0.0000000001
 40
0.0
 40
0.0
 40
0.0
 40
0.0
 40
0.0275606134
 40
0.0558153227
 40
0.0847244679
 40
0.1142470327
 40
0.1749607776
 40
0.2376055704
 40
0.3018136854
 40
0.3672051602
 40
0.4333908627
 40
0.4999755909
 40
0.566561114
 40
0.6327491933
 40
0.6981446154
 40
0.7623582104
 40
0.8250099705
 40
0.8857321327
 40
0.9152594122
 40
0.9441736194
 40
0.9724337095
 40
1.0
 40
1.0
 40
1.0
 40
1.0
 10
12.8793989641
 20
7.7545967293
 30
0.0
 10
12.8805859689
 20
7.7591870673
 30
0.0
 10
12.8829193864
 20
7.76850171
 30
0.0
 10
12.8862599495
 20
7.7826895596
 30
0.0
 10
12.8894808133
 20
7.7972509577
 30
0.0
 10
12.8936475162
 20
7.8173203775
 30
0.0
 10
12.8985083246
 20
7.8431707004
 30
0.0
 10
12.9037347766
 20
7.8750148838
 30
0.0
 10
12.9083740179
 20
7.9077627938
 30
0.0
 10
12.9123962617
 20
7.9412056517
 30
0.0
 10
12.9157757074
 20
7.9751303955
 30
0.0
 10
12.9184907308
 20
8.0093207901
 30
0.0
 10
12.9205239728
 20
8.0435589035
 30
0.0
 10
12.921862519
 20
8.0776264935
 30
0.0
 10
12.9224979356
 20
8.1113064015
 30
0.0
 10
12.9224263367
 20
8.1443840311
 30
0.0
 10
12.9216483818
 20
8.1766484732
 30
0.0
 10
12.920404749
 20
8.2029258756
 30
0.0
 10
12.9190501061
 20
8.2233815907
 30
0.0
 10
12.9178714499
 20
8.2382509156
 30
0.0
 10
12.9165226584
 20
8.2527669772
 30
0.0
 10
12.9154982423
 20
8.2623165588
 30
0.0
 10
12.9149566866
 20
8.2670278392
 30
0.0
  0
SPLINE
  5
34D
100
AcDbEntity
  8
0
100
AcDbSpline
 62
7
  6
CONTINUOUS
 70
0
 71
3
 72
39
 73
35
 74
0
 42
0.0000001
 43
0.0000001
 44
0.0000000001
 40
0.0
 40
0.0
 40
0.0
 40
0.0
 40
0.031116003
 40
0.0620232729
 40
0.0927351582
 40
0.1232711727
 40
0.1536587326
 40
0.1839312109
 40
0.2141268391
 40
0.2442870982
 40
0.2744549745
 40
0.3046731295
 40
0.3349820885
 40
0.3654185439
 40
0.3960138647
 40
0.4267928821
 40
0.4577729955
 40
0.4889636186
 40
0.5203659684
 40
0.551973179
 40
0.5837707185
 40
0.6157370633
 40
0.6478445893
 40
0.6800606395
 40
0.7123487309
 40
0.744669862
 40
0.7769838836
 40
0.8092508932
 40
0.8414326248
 40
0.873493804
 40
0.9054033897
 40
0.9371359556
 40
0.968671764
 40
1.0
 40
1.0
 40
1.0
 40
1.0
 10
10.165803764
 20
8.785977146
 30
0.0
 10
10.165803764
 20
8.7826392027
 30
0.0
 10
10.1654778982
 20
8.7759808781
 30
0.0
 10
10.1640041221
 20
8.7661265046
 30
0.0
 10
10.1615609633
 20
8.7565295565
 30
0.0
 10
10.1581715105
 20
8.7472839143
 30
0.0
 10
10.1538682166
 20
8.7384786793
 30
0.0
 10
10.148692366
 20
8.7301991639
 30
0.0
 10
10.1426938353
 20
8.7225255322
 30
0.0
 10
10.1359305654
 20
8.7155321108
 30
0.0
 10
10.1284679858
 20
8.7092865981
 30
0.0
 10
10.1203783546
 20
8.7038493811
 30
0.0
 10
10.1117400174
 20
8.6992729307
 30
0.0
 10
10.1026366119
 20
8.6956012776
 30
0.0
 10
10.0931562151
 20
8.6928695851
 30
0.0
 10
10.0833904423
 20
8.6911038651
 30
0.0
 10
10.0734335449
 20
8.6903207599
 30
0.0
 10
10.0633814937
 20
8.6905274237
 30
0.0
 10
10.0533310606
 20
8.6917214909
 30
0.0
 10
10.0433788951
 20
8.6938911003
 30
0.0
 10
10.0336206127
 20
8.697015066
 30
0.0
 10
10.0241499011
 20
8.7010630974
 30
0.0
 10
10.0150576442
 20
8.7059960985
 30
0.0
 10
10.0064310769
 20
8.711766549
 30
0.0
 10
9.9983529521
 20
8.7183189343
 30
0.0
 10
9.9909007659
 20
8.7255902876
 30
0.0
 10
9.9841460394
 20
8.7335107949
 30
0.0
 10
9.9781536437
 20
8.7420044522
 30
0.0
 10
9.9729811899
 20
8.750989771
 30
0.0
 10
9.9686784818
 20
8.7603805748
 30
0.0
 10
9.9652869905
 20
8.770086665
 30
0.0
 10
9.9628395922
 20
8.7800151883
 30
0.0
 10
9.9613599902
 20
8.7900695486
 30
0.0
 10
9.9610274767
 20
8.7968177193
 30
0.0
 10
9.9610274767
 20
8.8001784297
 30
0.0
  0
SPLINE
  5
34E
100
AcDbEntity
  8
0
100
AcDbSpline
 62
7
  6
CONTINUOUS
 70
0
 71
3
 72
37
 73
33
 74
0
 42
0.0000001
 43
0.0000001
 44
0.0000000001
 40
0.0
 40
0.0
 40
0.0
 40
0.0
 40
0.0299447773
 40
0.0599139305
 40
0.0899312459
 40
0.1200193412
 40
0.1501991262
 40
0.1804893155
 40
0.2109060063
 40
0.2414623368
 40
0.2721682234
 40
0.3030301797
 40
0.3340512199
 40
0.3652308433
 40
0.3965650964
 40
0.4280467089
 40
0.4596653
 40
0.4914076357
 40
0.5232579341
 40
0.5551982119
 40
0.6192294659
 40
0.6833674715
 40
0.7154389669
 40
0.7474692937
 40
0.7794368437
 40
0.8113212627
 40
0.8431038815
 40
0.8747680274
 40
0.9062997782
 40
0.9376869231
 40
0.968922956
 40
1.0
 40
1.0
 40
1.0
 40
1.0
 10
11.6673721511
 20
8.661807891
 30
0.0
 10
11.6659703321
 20
8.6604538222
 30
0.0
 10
11.6630564339
 20
8.657854996
 30
0.0
 10
11.6583879448
 20
8.6543145288
 30
0.0
 10
11.6534456442
 20
8.6511495841
 30
0.0
 10
11.6482571545
 20
8.6483779084
 30
0.0
 10
11.6428509971
 20
8.6460146489
 30
0.0
 10
11.6372570062
 20
8.6440728036
 30
0.0
 10
11.6315060103
 20
8.6425629953
 30
0.0
 10
11.6256296957
 20
8.6414934605
 30
0.0
 10
11.6196604163
 20
8.6408700064
 30
0.0
 10
11.6136310187
 20
8.640695984
 30
0.0
 10
11.607574662
 20
8.6409722746
 30
0.0
 10
11.601524638
 20
8.6416972883
 30
0.0
 10
11.5955141884
 20
8.6428669773
 30
0.0
 10
11.5895763291
 20
8.6444748391
 30
0.0
 10
11.5837436409
 20
8.6465119954
 30
0.0
 10
11.57804821
 20
8.648967147
 30
0.0
 10
11.5725210191
 20
8.6518269951
 30
0.0
 10
11.5654127042
 20
8.6561605816
 30
0.0
 10
11.5571010421
 20
8.6625056009
 30
0.0
 10
11.5497391997
 20
8.6699432667
 30
0.0
 10
11.5445099479
 20
8.6764559523
 30
0.0
 10
11.5409392574
 20
8.6815953593
 30
0.0
 10
11.5377408983
 20
8.6869599206
 30
0.0
 10
11.5349321978
 20
8.6925204509
 30
0.0
 10
11.5325286827
 20
8.6982463667
 30
0.0
 10
11.530543541
 20
8.7041062751
 30
0.0
 10
11.5289877841
 20
8.7100679505
 30
0.0
 10
11.5278698952
 20
8.7160988492
 30
0.0
 10
11.5271962445
 20
8.7221653296
 30
0.0
 10
11.5270453289
 20
8.7262226216
 30
0.0
 10
11.5270453289
 20
8.7282453163
 30
0.0
  0
SPLINE
  5
34F
100
AcDbEntity
  8
0
100
AcDbSpline
 62
7
  6
CONTINUOUS
 70
0
 71
3
 72
39
 73
35
 74
0
 42
0.0000001
 43
0.0000001
 44
0.0000000001
 40
0.0
 40
0.0
 40
0.0
 40
0.0
 40
0.031116003
 40
0.0620232729
 40
0.0927351582
 40
0.1232711727
 40
0.1536587326
 40
0.1839312109
 40
0.2141268391
 40
0.2442870982
 40
0.2744549745
 40
0.3046731295
 40
0.3349820885
 40
0.3654185439
 40
0.3960138647
 40
0.4267928821
 40
0.4577729955
 40
0.4889636186
 40
0.5203659684
 40
0.551973179
 40
0.5837707185
 40
0.6157370633
 40
0.6478445893
 40
0.6800606395
 40
0.7123487309
 40
0.744669862
 40
0.7769838836
 40
0.8092508932
 40
0.8414326248
 40
0.873493804
 40
0.9054033897
 40
0.9371359556
 40
0.968671764
 40
1.0
 40
1.0
 40
1.0
 40
1.0
 10
11.5007133175
 20
8.7243105449
 30
0.0
 10
11.5007133175
 20
8.7276484882
 30
0.0
 10
11.5010391833
 20
8.7343068128
 30
0.0
 10
11.5025129593
 20
8.7441611862
 30
0.0
 10
11.5049561182
 20
8.7537581344
 30
0.0
 10
11.5083455709
 20
8.7630037765
 30
0.0
 10
11.5126488648
 20
8.7718090116
 30
0.0
 10
11.5178247155
 20
8.780088527
 30
0.0
 10
11.5238232462
 20
8.7877621587
 30
0.0
 10
11.5305865161
 20
8.7947555801
 30
0.0
 10
11.5380490957
 20
8.8010010928
 30
0.0
 10
11.5461387268
 20
8.8064383097
 30
0.0
 10
11.5547770641
 20
8.8110147602
 30
0.0
 10
11.5638804695
 20
8.8146864133
 30
0.0
 10
11.5733608664
 20
8.8174181058
 30
0.0
 10
11.5831266392
 20
8.8191838257
 30
0.0
 10
11.5930835365
 20
8.819966931
 30
0.0
 10
11.6031355878
 20
8.8197602672
 30
0.0
 10
11.6131860209
 20
8.8185662
 30
0.0
 10
11.6231381864
 20
8.8163965905
 30
0.0
 10
11.6328964687
 20
8.8132726249
 30
0.0
 10
11.6423671804
 20
8.8092245935
 30
0.0
 10
11.6514594372
 20
8.8042915924
 30
0.0
 10
11.6600860045
 20
8.7985211419
 30
0.0
 10
11.6681641294
 20
8.7919687565
 30
0.0
 10
11.6756163156
 20
8.7846974033
 30
0.0
 10
11.682371042
 20
8.776776896
 30
0.0
 10
11.6883634378
 20
8.7682832387
 30
0.0
 10
11.6935358916
 20
8.7592979199
 30
0.0
 10
11.6978385997
 20
8.7499071161
 30
0.0
 10
11.701230091
 20
8.7402010259
 30
0.0
 10
11.7036774892
 20
8.7302725026
 30
0.0
 10
11.7051570913
 20
8.7202181423
 30
0.0
 10
11.7054896048
 20
8.7134699715
 30
0.0
 10
11.7054896048
 20
8.7101092612
 30
0.0
  0
SPLINE
  5
350
100
AcDbEntity
  8
0
100
AcDbSpline
 62
7
  6
CONTINUOUS
 70
0
 71
3
 72
37
 73
33
 74
0
 42
0.0000001
 43
0.0000001
 44
0.0000000001
 40
0.0
 40
0.0
 40
0.0
 40
0.0
 40
0.0299447773
 40
0.0599139305
 40
0.0899312459
 40
0.1200193412
 40
0.1501991262
 40
0.1804893155
 40
0.2109060063
 40
0.2414623368
 40
0.2721682234
 40
0.3030301797
 40
0.3340512199
 40
0.3652308433
 40
0.3965650964
 40
0.4280467089
 40
0.4596653
 40
0.4914076357
 40
0.5232579341
 40
0.5551982119
 40
0.6192294659
 40
0.6833674715
 40
0.7154389669
 40
0.7474692937
 40
0.7794368437
 40
0.8113212627
 40
0.8431038815
 40
0.8747680274
 40
0.9062997782
 40
0.9376869231
 40
0.968922956
 40
1.0
 40
1.0
 40
1.0
 40
1.0
 10
10.1276863103
 20
7.5611781123
 30
0.0
 10
10.1262844913
 20
7.5598240435
 30
0.0
 10
10.123370593
 20
7.5572252174
 30
0.0
 10
10.118702104
 20
7.5536847501
 30
0.0
 10
10.1137598034
 20
7.5505198055
 30
0.0
 10
10.1085713136
 20
7.5477481297
 30
0.0
 10
10.1031651562
 20
7.5453848703
 30
0.0
 10
10.0975711653
 20
7.543443025
 30
0.0
 10
10.0918201695
 20
7.5419332166
 30
0.0
 10
10.0859438549
 20
7.5408636818
 30
0.0
 10
10.0799745754
 20
7.5402402277
 30
0.0
 10
10.0739451778
 20
7.5400662053
 30
0.0
 10
10.0678888212
 20
7.540342496
 30
0.0
 10
10.0618387971
 20
7.5410675096
 30
0.0
 10
10.0558283475
 20
7.5422371987
 30
0.0
 10
10.0498904883
 20
7.5438450604
 30
0.0
 10
10.0440578001
 20
7.5458822167
 30
0.0
 10
10.0383623692
 20
7.5483373683
 30
0.0
 10
10.0328351783
 20
7.5511972164
 30
0.0
 10
10.0257268634
 20
7.5555308029
 30
0.0
 10
10.0174152013
 20
7.5618758222
 30
0.0
 10
10.0100533588
 20
7.569313488
 30
0.0
 10
10.0048241071
 20
7.5758261736
 30
0.0
 10
10.0012534166
 20
7.5809655806
 30
0.0
 10
9.9980550575
 20
7.5863301419
 30
0.0
 10
9.995246357
 20
7.5918906722
 30
0.0
 10
9.9928428419
 20
7.5976165881
 30
0.0
 10
9.9908577002
 20
7.6034764964
 30
0.0
 10
9.9893019433
 20
7.6094381718
 30
0.0
 10
9.9881840544
 20
7.6154690705
 30
0.0
 10
9.9875104037
 20
7.621535551
 30
0.0
 10
9.987359488
 20
7.6255928429
 30
0.0
 10
9.987359488
 20
7.6276155376
 30
0.0
  0
SPLINE
  5
351
100
AcDbEntity
  8
0
100
AcDbSpline
 62
7
  6
CONTINUOUS
 70
0
 71
3
 72
37
 73
33
 74
0
 42
0.0000001
 43
0.0000001
 44
0.0000000001
 40
0.0
 40
0.0
 40
0.0
 40
0.0
 40
0.0299447773
 40
0.0599139305
 40
0.0899312459
 40
0.1200193412
 40
0.1501991262
 40
0.1804893155
 40
0.2109060063
 40
0.2414623368
 40
0.2721682234
 40
0.3030301797
 40
0.3340512199
 40
0.3652308433
 40
0.3965650964
 40
0.4280467089
 40
0.4596653
 40
0.4914076357
 40
0.5232579341
 40
0.5551982119
 40
0.6192294659
 40
0.6833674715
 40
0.7154389669
 40
0.7474692937
 40
0.7794368437
 40
0.8113212627
 40
0.8431038815
 40
0.8747680274
 40
0.9062997782
 40
0.9376869231
 40
0.968922956
 40
1.0
 40
1.0
 40
1.0
 40
1.0
 10
11.6673721511
 20
7.4234908457
 30
0.0
 10
11.6659703321
 20
7.4221367769
 30
0.0
 10
11.6630564339
 20
7.4195379507
 30
0.0
 10
11.6583879448
 20
7.4159974834
 30
0.0
 10
11.6534456442
 20
7.4128325388
 30
0.0
 10
11.6482571545
 20
7.4100608631
 30
0.0
 10
11.6428509971
 20
7.4076976036
 30
0.0
 10
11.6372570062
 20
7.4057557583
 30
0.0
 10
11.6315060103
 20
7.40424595
 30
0.0
 10
11.6256296957
 20
7.4031764152
 30
0.0
 10
11.6196604163
 20
7.4025529611
 30
0.0
 10
11.6136310187
 20
7.4023789387
 30
0.0
 10
11.607574662
 20
7.4026552293
 30
0.0
 10
11.601524638
 20
7.403380243
 30
0.0
 10
11.5955141884
 20
7.404549932
 30
0.0
 10
11.5895763291
 20
7.4061577938
 30
0.0
 10
11.5837436409
 20
7.40819495
 30
0.0
 10
11.57804821
 20
7.4106501016
 30
0.0
 10
11.5725210191
 20
7.4135099498
 30
0.0
 10
11.5654127042
 20
7.4178435363
 30
0.0
 10
11.5571010421
 20
7.4241885556
 30
0.0
 10
11.5497391997
 20
7.4316262214
 30
0.0
 10
11.5445099479
 20
7.438138907
 30
0.0
 10
11.5409392574
 20
7.443278314
 30
0.0
 10
11.5377408983
 20
7.4486428753
 30
0.0
 10
11.5349321978
 20
7.4542034056
 30
0.0
 10
11.5325286827
 20
7.4599293214
 30
0.0
 10
11.530543541
 20
7.4657892298
 30
0.0
 10
11.5289877841
 20
7.4717509052
 30
0.0
 10
11.5278698952
 20
7.4777818039
 30
0.0
 10
11.5271962445
 20
7.4838482843
 30
0.0
 10
11.5270453289
 20
7.4879055763
 30
0.0
 10
11.5270453289
 20
7.489928271
 30
0.0
  0
SPLINE
  5
352
100
AcDbEntity
  8
0
100
AcDbSpline
 62
7
  6
CONTINUOUS
 70
0
 71
3
 72
87
 73
83
 74
0
 42
0.0000001
 43
0.0000001
 44
0.0000000001
 40
0.0
 40
0.0
 40
0.0
 40
0.0
 40
0.0041267948
 40
0.0084375101
 40
0.0129362756
 40
0.0176265154
 40
0.0225110572
 40
0.0275920519
 40
0.0328708436
 40
0.0383482416
 40
0.0440245492
 40
0.0498996063
 40
0.0559729061
 40
0.0622434917
 40
0.0753707467
 40
0.08926832
 40
0.1039183851
 40
0.1192994964
 40
0.1353870345
 40
0.1521535536
 40
0.1695690986
 40
0.1876014578
 40
0.2062163787
 40
0.2253777514
 40
0.2450477765
 40
0.2651871405
 40
0.2857551672
 40
0.3067099585
 40
0.3280085264
 40
0.3496069247
 40
0.3714603903
 40
0.3935234708
 40
0.4380931696
 40
0.4829441757
 40
0.5277008225
 40
0.5719884375
 40
0.5938409605
 40
0.6154382328
 40
0.6367354917
 40
0.6576887972
 40
0.6782551687
 40
0.6983927115
 40
0.7180607517
 40
0.7372199783
 40
0.7558326035
 40
0.7738625287
 40
0.7912755063
 40
0.8080393297
 40
0.8241240491
 40
0.839502238
 40
0.854149292
 40
0.8680437764
 40
0.881167874
 40
0.8874368566
 40
0.8935085511
 40
0.8993820047
 40
0.9050566899
 40
0.9105324712
 40
0.9158096377
 40
0.920889049
 40
0.9257720613
 40
0.9304607258
 40
0.9349578046
 40
0.9392668541
 40
0.9433924305
 40
0.947340092
 40
0.9511166591
 40
0.9547303165
 40
0.9581907667
 40
0.9615094747
 40
0.9646997159
 40
0.9677767694
 40
0.9707579119
 40
0.9736623412
 40
0.9765110095
 40
0.97932622
 40
0.9821311605
 40
0.9849492888
 40
0.9878037172
 40
0.9907166069
 40
0.9937087134
 40
1.0
 40
1.0
 40
1.0
 40
1.0
 10
12.9688061561
 20
7.5844106576
 30
0.0
 10
12.9697158796
 20
7.585289383
 30
0.0
 10
12.9715342122
 20
7.5871295289
 30
0.0
 10
12.9742016004
 20
7.5900642543
 30
0.0
 10
12.9768658547
 20
7.593231042
 30
0.0
 10
12.9795253655
 20
7.5966279867
 30
0.0
 10
12.9821787801
 20
7.6002532303
 30
0.0
 10
12.9848246448
 20
7.6041048452
 30
0.0
 10
12.9874615799
 20
7.6081807011
 30
0.0
 10
12.9900880889
 20
7.6124785643
 30
0.0
 10
12.9927027155
 20
7.6169960557
 30
0.0
 10
12.995304041
 20
7.621730664
 30
0.0
 10
12.9978905973
 20
7.6266797955
 30
0.0
 10
13.0013710214
 20
7.6336680861
 30
0.0
 10
13.005665273
 20
7.6429277065
 30
0.0
 10
13.0106613584
 20
7.6546850005
 30
0.0
 10
13.0155649151
 20
7.6672257995
 30
0.0
 10
13.0203649468
 20
7.6805222317
 30
0.0
 10
13.0250506794
 20
7.6945448735
 30
0.0
 10
13.029611595
 20
7.7092625586
 30
0.0
 10
13.034037449
 20
7.7246425451
 30
0.0
 10
13.0383182995
 20
7.7406505805
 30
0.0
 10
13.0424445293
 20
7.7572509888
 30
0.0
 10
13.0464068703
 20
7.7744067483
 30
0.0
 10
13.0501964335
 20
7.792079576
 30
0.0
 10
13.0538047161
 20
7.8102300228
 30
0.0
 10
13.0572236238
 20
7.8288175669
 30
0.0
 10
13.0604454856
 20
7.8478007031
 30
0.0
 10
13.0634630774
 20
7.8671370367
 30
0.0
 10
13.0662696338
 20
7.8867833651
 30
0.0
 10
13.0688588944
 20
7.9066958307
 30
0.0
 10
13.0720242071
 20
7.9336310414
 30
0.0
 10
13.075393844
 20
7.9676365396
 30
0.0
 10
13.0784797495
 20
8.0086481248
 30
0.0
 10
13.0805936466
 20
8.0496347302
 30
0.0
 10
13.0815339477
 20
8.0836139338
 30
0.0
 10
13.0817793347
 20
8.1105038861
 30
0.0
 10
13.0817105165
 20
8.1303485394
 30
0.0
 10
13.0813899151
 20
8.1499150811
 30
0.0
 10
13.0808182434
 20
8.1691598364
 30
0.0
 10
13.0799968168
 20
8.1880398122
 30
0.0
 10
13.0789275013
 20
8.206512848
 30
0.0
 10
13.0776127224
 20
8.2245376933
 30
0.0
 10
13.0760554548
 20
8.2420741067
 30
0.0
 10
13.074259225
 20
8.2590829517
 30
0.0
 10
13.072228106
 20
8.2755262887
 30
0.0
 10
13.0699666979
 20
8.2913674601
 30
0.0
 10
13.0674801207
 20
8.3065711712
 30
0.0
 10
13.0647739995
 20
8.3211035849
 30
0.0
 10
13.0618544574
 20
8.334932391
 30
0.0
 10
13.0587281072
 20
8.3480269704
 30
0.0
 10
13.0554019904
 20
8.3603582041
 30
0.0
 10
13.0524263562
 20
8.3701192338
 30
0.0
 10
13.0499433706
 20
8.3775188206
 30
0.0
 10
13.0480643705
 20
8.3827759175
 30
0.0
 10
13.0461411476
 20
8.3878225633
 30
0.0
 10
13.0441747724
 20
8.3926559762
 30
0.0
 10
13.0421663493
 20
8.3972734867
 30
0.0
 10
13.0401169431
 20
8.4016725333
 30
0.0
 10
13.0380277389
 20
8.4058507149
 30
0.0
 10
13.0358998218
 20
8.4098057187
 30
0.0
 10
13.0337343699
 20
8.413535388
 30
0.0
 10
13.0315325539
 20
8.4170376938
 30
0.0
 10
13.0292954865
 20
8.4203106979
 30
0.0
 10
13.0270243956
 20
8.4233526529
 30
0.0
 10
13.0247203773
 20
8.4261618583
 30
0.0
 10
13.0223846056
 20
8.4287367756
 30
0.0
 10
13.0200182293
 20
8.43107597
 30
0.0
 10
13.017622323
 20
8.4331780234
 30
0.0
 10
13.0151980799
 20
8.4350417078
 30
0.0
 10
13.0127465905
 20
8.4366657154
 30
0.0
 10
13.0102690829
 20
8.4380488671
 30
0.0
 10
13.0077668621
 20
8.4391900311
 30
0.0
 10
13.0052413373
 20
8.440088037
 30
0.0
 10
13.0026941705
 20
8.4407420341
 30
0.0
 10
13.0001271379
 20
8.4411511799
 30
0.0
 10
12.9975422162
 20
8.4413150584
 30
0.0
 10
12.9949414017
 20
8.4412335753
 30
0.0
 10
12.9923267566
 20
8.440906897
 30
0.0
 10
12.989699895
 20
8.4403355398
 30
0.0
 10
12.9861253258
 20
8.4392306232
 30
0.0
 10
12.9835175105
 20
8.4380571438
 30
0.0
 10
12.9818160078
 20
8.4371500243
 30
0.0
  0
SPLINE
  5
353
100
AcDbEntity
  8
0
100
AcDbSpline
 62
7
  6
CONTINUOUS
 70
0
 71
3
 72
39
 73
35
 74
0
 42
0.0000001
 43
0.0000001
 44
0.0000000001
 40
0.0
 40
0.0
 40
0.0
 40
0.0
 40
0.031116003
 40
0.0620232729
 40
0.0927351582
 40
0.1232711727
 40
0.1536587326
 40
0.1839312109
 40
0.2141268391
 40
0.2442870982
 40
0.2744549745
 40
0.3046731295
 40
0.3349820885
 40
0.3654185439
 40
0.3960138647
 40
0.4267928821
 40
0.4577729955
 40
0.4889636186
 40
0.5203659684
 40
0.551973179
 40
0.5837707185
 40
0.6157370633
 40
0.6478445893
 40
0.6800606395
 40
0.7123487309
 40
0.744669862
 40
0.7769838836
 40
0.8092508932
 40
0.8414326248
 40
0.873493804
 40
0.9054033897
 40
0.9371359556
 40
0.968671764
 40
1.0
 40
1.0
 40
1.0
 40
1.0
 10
11.7054896048
 20
8.7101092612
 30
0.0
 10
11.7054896048
 20
8.7067713179
 30
0.0
 10
11.705163739
 20
8.7001129932
 30
0.0
 10
11.703689963
 20
8.6902586198
 30
0.0
 10
11.7012468041
 20
8.6806616717
 30
0.0
 10
11.6978573514
 20
8.6714160295
 30
0.0
 10
11.6935540575
 20
8.6626107945
 30
0.0
 10
11.6883782068
 20
8.6543312791
 30
0.0
 10
11.6823796761
 20
8.6466576473
 30
0.0
 10
11.6756164062
 20
8.6396642259
 30
0.0
 10
11.6681538266
 20
8.6334187133
 30
0.0
 10
11.6600641955
 20
8.6279814963
 30
0.0
 10
11.6514258582
 20
8.6234050459
 30
0.0
 10
11.6423224528
 20
8.6197333928
 30
0.0
 10
11.6328420559
 20
8.6170017003
 30
0.0
 10
11.6230762831
 20
8.6152359803
 30
0.0
 10
11.6131193858
 20
8.6144528751
 30
0.0
 10
11.6030673345
 20
8.6146595389
 30
0.0
 10
11.5930169014
 20
8.6158536061
 30
0.0
 10
11.5830647359
 20
8.6180232155
 30
0.0
 10
11.5733064536
 20
8.6211471812
 30
0.0
 10
11.5638357419
 20
8.6251952126
 30
0.0
 10
11.5547434851
 20
8.6301282137
 30
0.0
 10
11.5461169178
 20
8.6358986641
 30
0.0
 10
11.5380387929
 20
8.6424510495
 30
0.0
 10
11.5305866067
 20
8.6497224028
 30
0.0
 10
11.5238318803
 20
8.6576429101
 30
0.0
 10
11.5178394845
 20
8.6661365674
 30
0.0
 10
11.5126670307
 20
8.6751218862
 30
0.0
 10
11.5083643226
 20
8.68451269
 30
0.0
 10
11.5049728313
 20
8.6942187802
 30
0.0
 10
11.5025254331
 20
8.7041473035
 30
0.0
 10
11.501045831
 20
8.7142016638
 30
0.0
 10
11.5007133175
 20
8.7209498345
 30
0.0
 10
11.5007133175
 20
8.7243105449
 30
0.0
  0
SPLINE
  5
354
100
AcDbEntity
  8
0
100
AcDbSpline
 62
7
  6
CONTINUOUS
 70
0
 71
3
 72
80
 73
76
 74
0
 42
0.0000001
 43
0.0000001
 44
0.0000000001
 40
0.0
 40
0.0
 40
0.0
 40
0.0
 40
0.0039883799
 40
0.0081453752
 40
0.0124746386
 40
0.0169792156
 40
0.021661669
 40
0.0265240231
 40
0.0315676328
 40
0.0367933336
 40
0.042201574
 40
0.0477923628
 40
0.0595195651
 40
0.0719693889
 40
0.0851313116
 40
0.0989911574
 40
0.1135315518
 40
0.1287323373
 40
0.1445709047
 40
0.1610224436
 40
0.1780601318
 40
0.1956553356
 40
0.2137777909
 40
0.2323957448
 40
0.2514760677
 40
0.2709843863
 40
0.2908852167
 40
0.311142073
 40
0.3317175598
 40
0.3736702008
 40
0.4164307353
 40
0.4596780682
 40
0.5030864323
 40
0.5463285118
 40
0.5890785868
 40
0.6310156693
 40
0.6515815081
 40
0.6718274996
 40
0.6917162816
 40
0.711211397
 40
0.7302773921
 40
0.7488799298
 40
0.7669859313
 40
0.7845636874
 40
0.801582979
 40
0.818015225
 40
0.8338336755
 40
0.8490135854
 40
0.8635324141
 40
0.8773700842
 40
0.8905093296
 40
0.9029360806
 40
0.9146399417
 40
0.9202190025
 40
0.9256155028
 40
0.9308294768
 40
0.9358613995
 40
0.940712184
 40
0.9453831863
 40
0.9498763813
 40
0.9541943136
 40
0.9583402313
 40
0.9623182136
 40
0.9661331738
 40
0.9697910847
 40
0.9732990446
 40
0.9766653897
 40
0.9798999101
 40
0.9830138747
 40
0.9860201789
 40
0.9889333931
 40
0.9917696852
 40
0.9945467564
 40
0.9972835667
 40
1.0
 40
1.0
 40
1.0
 40
1.0
 10
12.9551459013
 20
7.5910162623
 30
0.0
 10
12.9559964406
 20
7.5918378202
 30
0.0
 10
12.9576965965
 20
7.5935541972
 30
0.0
 10
12.9601935238
 20
7.5962839528
 30
0.0
 10
12.9626878361
 20
7.5992199769
 30
0.0
 10
12.9651781408
 20
7.6023606779
 30
0.0
 10
12.9676632997
 20
7.6057044851
 30
0.0
 10
12.9701420892
 20
7.6092498041
 30
0.0
 10
12.9726133359
 20
7.6129948813
 30
0.0
 10
12.9750758112
 20
7.6169378516
 30
0.0
 10
12.9775282658
 20
7.6210767722
 30
0.0
 10
12.9808360489
 20
7.62694769
 30
0.0
 10
12.9849285418
 20
7.6347702217
 30
0.0
 10
12.9897052283
 20
7.6447596992
 30
0.0
 10
12.9944131989
 20
7.6554760253
 30
0.0
 10
12.9990429722
 20
7.6668978085
 30
0.0
 10
13.0035852344
 20
7.6790023818
 30
0.0
 10
13.0080308214
 20
7.6917655817
 30
0.0
 10
13.0123707529
 20
7.7051619044
 30
0.0
 10
13.01659625
 20
7.7191645372
 30
0.0
 10
13.0206987769
 20
7.7337454146
 30
0.0
 10
13.0246700483
 20
7.7488752835
 30
0.0
 10
13.0285020395
 20
7.7645237772
 30
0.0
 10
13.0321870025
 20
7.780659477
 30
0.0
 10
13.0357174964
 20
7.7972499672
 30
0.0
 10
13.0390864013
 20
7.8142619076
 30
0.0
 10
13.0422869096
 20
7.8316611003
 30
0.0
 10
13.0453125851
 20
7.8494125982
 30
0.0
 10
13.0491300451
 20
7.8736596809
 30
0.0
 10
13.0534131245
 20
7.9045852017
 30
0.0
 10
13.0577366236
 20
7.9422807833
 30
0.0
 10
13.061241436
 20
7.9804947518
 30
0.0
 10
13.0638993017
 20
8.0189199863
 30
0.0
 10
13.0656888918
 20
8.0572479268
 30
0.0
 10
13.0665958911
 20
8.0951705261
 30
0.0
 10
13.0666106723
 20
8.1263806597
 30
0.0
 10
13.0661670966
 20
8.1509117092
 30
0.0
 10
13.0656135924
 20
8.1689010519
 30
0.0
 10
13.0648383457
 20
8.1865644439
 30
0.0
 10
13.0638429176
 20
8.2038664065
 30
0.0
 10
13.0626293424
 20
8.2207721517
 30
0.0
 10
13.0612000818
 20
8.2372477034
 30
0.0
 10
13.059558053
 20
8.2532599603
 30
0.0
 10
13.0577066029
 20
8.2687767663
 30
0.0
 10
13.0556494995
 20
8.2837669679
 30
0.0
 10
13.0533909204
 20
8.2982004843
 30
0.0
 10
13.0509354683
 20
8.3120483812
 30
0.0
 10
13.0482881454
 20
8.3252829308
 30
0.0
 10
13.0454543368
 20
8.3378776718
 30
0.0
 10
13.0424397897
 20
8.3498074498
 30
0.0
 10
13.0392506213
 20
8.3610485796
 30
0.0
 10
13.0358932773
 20
8.3715786148
 30
0.0
 10
13.0329153593
 20
8.3798713034
 30
0.0
 10
13.0304462113
 20
8.3861263494
 30
0.0
 10
13.0285861528
 20
8.3905518559
 30
0.0
 10
13.0266891955
 20
8.3947845363
 30
0.0
 10
13.0247562717
 20
8.398822299
 30
0.0
 10
13.0227883655
 20
8.4026631504
 30
0.0
 10
13.0207863906
 20
8.406305169
 30
0.0
 10
13.0187513732
 20
8.4097465788
 30
0.0
 10
13.0166842739
 20
8.4129856772
 30
0.0
 10
13.0145860571
 20
8.4160208556
 30
0.0
 10
13.0124577596
 20
8.4188506515
 30
0.0
 10
13.0103003092
 20
8.4214736319
 30
0.0
 10
13.0081147111
 20
8.4238885057
 30
0.0
 10
13.0059019509
 20
8.4260940667
 30
0.0
 10
13.0036629431
 20
8.4280891133
 30
0.0
 10
13.0013987105
 20
8.4298726126
 30
0.0
 10
12.9991101997
 20
8.431443495
 30
0.0
 10
12.9967984194
 20
8.4328007408
 30
0.0
 10
12.9944644759
 20
8.4339434579
 30
0.0
 10
12.9921095152
 20
8.4348706575
 30
0.0
 10
12.9897347902
 20
8.435581581
 30
0.0
 10
12.9873419819
 20
8.4360755424
 30
0.0
 10
12.9857331161
 20
8.4362601059
 30
0.0
 10
12.9849296408
 20
8.4363158251
 30
0.0
  0
SPLINE
  5
355
100
AcDbEntity
  8
0
100
AcDbSpline
 62
7
  6
CONTINUOUS
 70
0
 71
3
 72
41
 73
37
 74
0
 42
0.0000001
 43
0.0000001
 44
0.0000000001
 40
0.0
 40
0.0
 40
0.0
 40
0.0
 40
0.030362672
 40
0.0606141732
 40
0.0907839549
 40
0.1209039578
 40
0.1510074996
 40
0.1811281319
 40
0.211298525
 40
0.2415494265
 40
0.2719087324
 40
0.3024006987
 40
0.3330453082
 40
0.3638578007
 40
0.3948483618
 40
0.4260219637
 40
0.457378344
 40
0.488912112
 40
0.5206129655
 40
0.5524660103
 40
0.58445217
 40
0.6165486804
 40
0.6487296612
 40
0.6809667614
 40
0.7132298713
 40
0.7293647817
 40
0.7454945068
 40
0.777716191
 40
0.8098709843
 40
0.8419299252
 40
0.8738665407
 40
0.9056576361
 40
0.9372843517
 40
0.9530347082
 40
0.9687393844
 40
1.0
 40
1.0
 40
1.0
 40
1.0
 10
10.9925437468
 20
7.7043467271
 30
0.0
 10
10.9912583327
 20
7.7011813701
 30
0.0
 10
10.988399768
 20
7.6949763992
 30
0.0
 10
10.9832780798
 20
7.6861220041
 30
0.0
 10
10.9773713751
 20
7.6778031244
 30
0.0
 10
10.9707273821
 20
7.6700826474
 30
0.0
 10
10.9633986081
 20
7.6630169093
 30
0.0
 10
10.9554424584
 20
7.6566570362
 30
0.0
 10
10.9469204526
 20
7.6510482474
 30
0.0
 10
10.9378976884
 20
7.6462298053
 30
0.0
 10
10.9284422628
 20
7.6422348814
 30
0.0
 10
10.9186247399
 20
7.6390905177
 30
0.0
 10
10.9085176497
 20
7.6368176174
 30
0.0
 10
10.8981950222
 20
7.635430966
 30
0.0
 10
10.8877319547
 20
7.6349392682
 30
0.0
 10
10.8772042054
 20
7.6353451878
 30
0.0
 10
10.8666878038
 20
7.6366453925
 30
0.0
 10
10.8562586731
 20
7.6388305943
 30
0.0
 10
10.8459922513
 20
7.6418855866
 30
0.0
 10
10.8359631074
 20
7.6457892762
 30
0.0
 10
10.8262445294
 20
7.6505147326
 30
0.0
 10
10.8169081333
 20
7.6560291996
 30
0.0
 10
10.8080232816
 20
7.6622943061
 30
0.0
 10
10.7996570845
 20
7.6692656379
 30
0.0
 10
10.7931693204
 20
7.6756235732
 30
0.0
 10
10.7882998084
 20
7.6810114889
 30
0.0
 10
10.7836552361
 20
7.6865884015
 30
0.0
 10
10.7782858466
 20
7.6938975488
 30
0.0
 10
10.7725903793
 20
7.7031474963
 30
0.0
 10
10.7676890683
 20
7.7128062749
 30
0.0
 10
10.7636219053
 20
7.722800916
 30
0.0
 10
10.7604221927
 20
7.7330550193
 30
0.0
 10
10.7584978305
 20
7.7417647352
 30
0.0
 10
10.7574170491
 20
7.7487819416
 30
0.0
 10
10.7566454549
 20
7.7557979339
 30
0.0
 10
10.7564112646
 20
7.7610861845
 30
0.0
 10
10.7564112646
 20
7.7646036187
 30
0.0
  0
SPLINE
  5
356
100
AcDbEntity
  8
0
100
AcDbSpline
 62
7
  6
CONTINUOUS
 70
0
 71
3
 72
23
 73
19
 74
0
 42
0.0000001
 43
0.0000001
 44
0.0000000001
 40
0.0
 40
0.0
 40
0.0
 40
0.0
 40
0.0560691797
 40
0.1146605343
 40
0.1754509777
 40
0.2380999572
 40
0.3022525372
 40
0.3675424396
 40
0.4335949268
 40
0.5000296225
 40
0.5664633553
 40
0.6325129592
 40
0.6977980815
 40
0.7619440202
 40
0.8245845427
 40
0.8853647804
 40
0.9439442649
 40
1.0
 40
1.0
 40
1.0
 40
1.0
 10
12.8783413392
 20
7.7664476422
 30
0.0
 10
12.8806070089
 20
7.7753717918
 30
0.0
 10
12.8849705338
 20
7.7936908253
 30
0.0
 10
12.8909100218
 20
7.8218861041
 30
0.0
 10
12.896362468
 20
7.8512791838
 30
0.0
 10
12.9012939432
 20
7.8816893574
 30
0.0
 10
12.9056738975
 20
7.9129299712
 30
0.0
 10
12.9094752019
 20
7.9448090661
 30
0.0
 10
12.9126743374
 20
7.9771307404
 30
0.0
 10
12.9152515633
 20
8.0096963246
 30
0.0
 10
12.9171910167
 20
8.0423056325
 30
0.0
 10
12.9184807931
 20
8.0747582068
 30
0.0
 10
12.9191130458
 20
8.1068545628
 30
0.0
 10
12.9190840466
 20
8.1383974418
 30
0.0
 10
12.9183941854
 20
8.1691929974
 30
0.0
 10
12.9170479771
 20
8.199052173
 30
0.0
 10
12.9150541044
 20
8.22779134
 30
0.0
 10
12.9132588652
 20
8.2465329511
 30
0.0
 10
12.9122456533
 20
8.2556820744
 30
0.0
  0
SPLINE
  5
357
100
AcDbEntity
  8
0
100
AcDbSpline
 62
7
  6
CONTINUOUS
 70
0
 71
3
 72
39
 73
35
 74
0
 42
0.0000001
 43
0.0000001
 44
0.0000000001
 40
0.0
 40
0.0
 40
0.0
 40
0.0
 40
0.031116003
 40
0.0620232729
 40
0.0927351582
 40
0.1232711727
 40
0.1536587326
 40
0.1839312109
 40
0.2141268391
 40
0.2442870982
 40
0.2744549745
 40
0.3046731295
 40
0.3349820885
 40
0.3654185439
 40
0.3960138647
 40
0.4267928821
 40
0.4577729955
 40
0.4889636186
 40
0.5203659684
 40
0.551973179
 40
0.5837707185
 40
0.6157370633
 40
0.6478445893
 40
0.6800606395
 40
0.7123487309
 40
0.744669862
 40
0.7769838836
 40
0.8092508932
 40
0.8414326248
 40
0.873493804
 40
0.9054033897
 40
0.9371359556
 40
0.968671764
 40
1.0
 40
1.0
 40
1.0
 40
1.0
 10
9.9610274767
 20
7.6236807662
 30
0.0
 10
9.9610274767
 20
7.6270187095
 30
0.0
 10
9.9613533425
 20
7.6336770342
 30
0.0
 10
9.9628271185
 20
7.6435314076
 30
0.0
 10
9.9652702774
 20
7.6531283557
 30
0.0
 10
9.9686597301
 20
7.6623739979
 30
0.0
 10
9.972963024
 20
7.6711792329
 30
0.0
 10
9.9781388747
 20
7.6794587483
 30
0.0
 10
9.9841374054
 20
7.6871323801
 30
0.0
 10
9.9909006752
 20
7.6941258015
 30
0.0
 10
9.9983632548
 20
7.7003713141
 30
0.0
 10
10.006452886
 20
7.7058085311
 30
0.0
 10
10.0150912232
 20
7.7103849815
 30
0.0
 10
10.0241946287
 20
7.7140566346
 30
0.0
 10
10.0336750256
 20
7.7167883271
 30
0.0
 10
10.0434407984
 20
7.7185540471
 30
0.0
 10
10.0533976957
 20
7.7193371523
 30
0.0
 10
10.063449747
 20
7.7191304885
 30
0.0
 10
10.0735001801
 20
7.7179364213
 30
0.0
 10
10.0834523455
 20
7.7157668119
 30
0.0
 10
10.0932106279
 20
7.7126428462
 30
0.0
 10
10.1026813395
 20
7.7085948148
 30
0.0
 10
10.1117735964
 20
7.7036618137
 30
0.0
 10
10.1204001637
 20
7.6978913633
 30
0.0
 10
10.1284782886
 20
7.6913389779
 30
0.0
 10
10.1359304747
 20
7.6840676246
 30
0.0
 10
10.1426852012
 20
7.6761471173
 30
0.0
 10
10.1486775969
 20
7.66765346
 30
0.0
 10
10.1538500508
 20
7.6586681412
 30
0.0
 10
10.1581527589
 20
7.6492773374
 30
0.0
 10
10.1615442501
 20
7.6395712472
 30
0.0
 10
10.1639916484
 20
7.6296427239
 30
0.0
 10
10.1654712504
 20
7.6195883636
 30
0.0
 10
10.165803764
 20
7.6128401929
 30
0.0
 10
10.165803764
 20
7.6094794825
 30
0.0
  0
SPLINE
  5
358
100
AcDbEntity
  8
0
100
AcDbSpline
 62
7
  6
CONTINUOUS
 70
0
 71
3
 72
23
 73
19
 74
0
 42
0.0000001
 43
0.0000001
 44
0.0000000001
 40
0.0
 40
0.0
 40
0.0
 40
0.0
 40
0.0595233715
 40
0.1202272431
 40
0.1819507017
 40
0.2445292263
 40
0.3077953016
 40
0.3715790257
 40
0.4357087147
 40
0.5000114987
 40
0.5643139166
 40
0.6284425084
 40
0.6922244087
 40
0.75548794
 40
0.8180632099
 40
0.8797827132
 40
0.9404819421
 40
1.0
 40
1.0
 40
1.0
 40
1.0
 10
12.8740361432
 20
7.842732031
 30
0.0
 10
12.8752625657
 20
7.8493541022
 30
0.0
 10
12.8776316622
 20
7.8627498126
 30
0.0
 10
12.8809059265
 20
7.883075039
 30
0.0
 10
12.8839293805
 20
7.9037884993
 30
0.0
 10
12.8866932824
 20
7.9248305639
 30
0.0
 10
12.8891896595
 20
7.9461407397
 30
0.0
 10
12.891411312
 20
7.9676577327
 30
0.0
 10
12.8933518366
 20
7.9893196574
 30
0.0
 10
12.8950056436
 20
8.0110642079
 30
0.0
 10
12.8963679736
 20
8.0328288396
 30
0.0
 10
12.8974349108
 20
8.0545509502
 30
0.0
 10
12.8982033944
 20
8.0761680595
 30
0.0
 10
12.8986712277
 20
8.0976179923
 30
0.0
 10
12.8988370849
 20
8.11883905
 30
0.0
 10
12.8987005145
 20
8.1397702211
 30
0.0
 10
12.8982619483
 20
8.1603512438
 30
0.0
 10
12.8977637727
 20
8.1739445824
 30
0.0
 10
12.897462752
 20
8.1806719316
 30
0.0
  0
SPLINE
  5
359
100
AcDbEntity
  8
0
100
AcDbSpline
 62
7
  6
CONTINUOUS
 70
0
 71
3
 72
39
 73
35
 74
0
 42
0.0000001
 43
0.0000001
 44
0.0000000001
 40
0.0
 40
0.0
 40
0.0
 40
0.0
 40
0.031116003
 40
0.0620232729
 40
0.0927351582
 40
0.1232711727
 40
0.1536587326
 40
0.1839312109
 40
0.2141268391
 40
0.2442870982
 40
0.2744549745
 40
0.3046731295
 40
0.3349820885
 40
0.3654185439
 40
0.3960138647
 40
0.4267928821
 40
0.4577729955
 40
0.4889636186
 40
0.5203659684
 40
0.551973179
 40
0.5837707185
 40
0.6157370633
 40
0.6478445893
 40
0.6800606395
 40
0.7123487309
 40
0.744669862
 40
0.7769838836
 40
0.8092508932
 40
0.8414326248
 40
0.873493804
 40
0.9054033897
 40
0.9371359556
 40
0.968671764
 40
1.0
 40
1.0
 40
1.0
 40
1.0
 10
10.165803764
 20
7.6094794825
 30
0.0
 10
10.165803764
 20
7.6061415392
 30
0.0
 10
10.1654778982
 20
7.5994832146
 30
0.0
 10
10.1640041221
 20
7.5896288412
 30
0.0
 10
10.1615609633
 20
7.580031893
 30
0.0
 10
10.1581715105
 20
7.5707862509
 30
0.0
 10
10.1538682166
 20
7.5619810158
 30
0.0
 10
10.148692366
 20
7.5537015004
 30
0.0
 10
10.1426938353
 20
7.5460278687
 30
0.0
 10
10.1359305654
 20
7.5390344473
 30
0.0
 10
10.1284679858
 20
7.5327889346
 30
0.0
 10
10.1203783546
 20
7.5273517177
 30
0.0
 10
10.1117400174
 20
7.5227752672
 30
0.0
 10
10.1026366119
 20
7.5191036141
 30
0.0
 10
10.0931562151
 20
7.5163719216
 30
0.0
 10
10.0833904423
 20
7.5146062017
 30
0.0
 10
10.0734335449
 20
7.5138230964
 30
0.0
 10
10.0633814937
 20
7.5140297602
 30
0.0
 10
10.0533310606
 20
7.5152238274
 30
0.0
 10
10.0433788951
 20
7.5173934369
 30
0.0
 10
10.0336206127
 20
7.5205174025
 30
0.0
 10
10.0241499011
 20
7.5245654339
 30
0.0
 10
10.0150576442
 20
7.529498435
 30
0.0
 10
10.0064310769
 20
7.5352688855
 30
0.0
 10
9.9983529521
 20
7.5418212709
 30
0.0
 10
9.9909007659
 20
7.5490926241
 30
0.0
 10
9.9841460394
 20
7.5570131314
 30
0.0
 10
9.9781536437
 20
7.5655067887
 30
0.0
 10
9.9729811899
 20
7.5744921075
 30
0.0
 10
9.9686784818
 20
7.5838829113
 30
0.0
 10
9.9652869905
 20
7.5935890015
 30
0.0
 10
9.9628395922
 20
7.6035175248
 30
0.0
 10
9.9613599902
 20
7.6135718851
 30
0.0
 10
9.9610274767
 20
7.6203200559
 30
0.0
 10
9.9610274767
 20
7.6236807662
 30
0.0
  0
SPLINE
  5
35A
100
AcDbEntity
  8
0
100
AcDbSpline
 62
7
  6
CONTINUOUS
 70
0
 71
3
 72
39
 73
35
 74
0
 42
0.0000001
 43
0.0000001
 44
0.0000000001
 40
0.0
 40
0.0
 40
0.0
 40
0.0
 40
0.031116003
 40
0.0620232729
 40
0.0927351582
 40
0.1232711727
 40
0.1536587326
 40
0.1839312109
 40
0.2141268391
 40
0.2442870982
 40
0.2744549745
 40
0.3046731295
 40
0.3349820885
 40
0.3654185439
 40
0.3960138647
 40
0.4267928821
 40
0.4577729955
 40
0.4889636186
 40
0.5203659684
 40
0.551973179
 40
0.5837707185
 40
0.6157370633
 40
0.6478445893
 40
0.6800606395
 40
0.7123487309
 40
0.744669862
 40
0.7769838836
 40
0.8092508932
 40
0.8414326248
 40
0.873493804
 40
0.9054033897
 40
0.9371359556
 40
0.968671764
 40
1.0
 40
1.0
 40
1.0
 40
1.0
 10
11.5007133175
 20
7.4859934996
 30
0.0
 10
11.5007133175
 20
7.4893314429
 30
0.0
 10
11.5010391833
 20
7.4959897675
 30
0.0
 10
11.5025129593
 20
7.5058441409
 30
0.0
 10
11.5049561182
 20
7.5154410891
 30
0.0
 10
11.5083455709
 20
7.5246867312
 30
0.0
 10
11.5126488648
 20
7.5334919663
 30
0.0
 10
11.5178247155
 20
7.5417714817
 30
0.0
 10
11.5238232462
 20
7.5494451134
 30
0.0
 10
11.5305865161
 20
7.5564385348
 30
0.0
 10
11.5380490957
 20
7.5626840474
 30
0.0
 10
11.5461387268
 20
7.5681212644
 30
0.0
 10
11.5547770641
 20
7.5726977149
 30
0.0
 10
11.5638804695
 20
7.576369368
 30
0.0
 10
11.5733608664
 20
7.5791010604
 30
0.0
 10
11.5831266392
 20
7.5808667804
 30
0.0
 10
11.5930835365
 20
7.5816498857
 30
0.0
 10
11.6031355878
 20
7.5814432219
 30
0.0
 10
11.6131860209
 20
7.5802491546
 30
0.0
 10
11.6231381864
 20
7.5780795452
 30
0.0
 10
11.6328964687
 20
7.5749555796
 30
0.0
 10
11.6423671804
 20
7.5709075482
 30
0.0
 10
11.6514594372
 20
7.5659745471
 30
0.0
 10
11.6600860045
 20
7.5602040966
 30
0.0
 10
11.6681641294
 20
7.5536517112
 30
0.0
 10
11.6756163156
 20
7.5463803579
 30
0.0
 10
11.682371042
 20
7.5384598507
 30
0.0
 10
11.6883634378
 20
7.5299661933
 30
0.0
 10
11.6935358916
 20
7.5209808746
 30
0.0
 10
11.6978385997
 20
7.5115900708
 30
0.0
 10
11.701230091
 20
7.5018839806
 30
0.0
 10
11.7036774892
 20
7.4919554573
 30
0.0
 10
11.7051570913
 20
7.481901097
 30
0.0
 10
11.7054896048
 20
7.4751529262
 30
0.0
 10
11.7054896048
 20
7.4717922158
 30
0.0
  0
SPLINE
  5
35B
100
AcDbEntity
  8
0
100
AcDbSpline
 62
7
  6
CONTINUOUS
 70
0
 71
3
 72
22
 73
18
 74
0
 42
0.0000001
 43
0.0000001
 44
0.0000000001
 40
0.0
 40
0.0
 40
0.0
 40
0.0
 40
0.1279527212
 40
0.1917098365
 40
0.2552844671
 40
0.3186596537
 40
0.381819562
 40
0.4447495778
 40
0.5074378485
 40
0.5698754498
 40
0.6320565376
 40
0.6939794105
 40
0.7556472713
 40
0.8170681655
 40
0.878253165
 40
0.9392256419
 40
1.0
 40
1.0
 40
1.0
 40
1.0
 10
11.3346003315
 20
8.1567706265
 30
0.0
 10
11.3365726259
 20
8.1527126106
 30
0.0
 10
11.3392521941
 20
8.1464917619
 30
0.0
 10
11.3422045702
 20
8.1379850075
 30
0.0
 10
11.3440913052
 20
8.131527119
 30
0.0
 10
11.3456393282
 20
8.1250015126
 30
0.0
 10
11.3468361237
 20
8.118425304
 30
0.0
 10
11.3476698157
 20
8.1118175208
 30
0.0
 10
11.3481295162
 20
8.1051985681
 30
0.0
 10
11.3482055588
 20
8.098590322
 30
0.0
 10
11.3478899982
 20
8.0920160015
 30
0.0
 10
11.3471768276
 20
8.0854999782
 30
0.0
 10
11.3460622325
 20
8.0790675146
 30
0.0
 10
11.3445449275
 20
8.0727445834
 30
0.0
 10
11.342626508
 20
8.0665570226
 30
0.0
 10
11.3403114663
 20
8.0605312856
 30
0.0
 10
11.3385056966
 20
8.0566322271
 30
0.0
 10
11.3375399447
 20
8.0547191174
 30
0.0
  0
SPLINE
  5
35C
100
AcDbEntity
  8
0
100
AcDbSpline
 62
7
  6
CONTINUOUS
 70
0
 71
3
 72
15
 73
11
 74
0
 42
0.0000001
 43
0.0000001
 44
0.0000000001
 40
0.0
 40
0.0
 40
0.0
 40
0.0
 40
0.1233171388
 40
0.2468172051
 40
0.3706750009
 40
0.4950496043
 40
0.6200772562
 40
0.7458671573
 40
0.8724928759
 40
1.0
 40
1.0
 40
1.0
 40
1.0
 10
11.3704120755
 20
7.4426864812
 30
0.0
 10
11.3686617322
 20
7.440995769
 30
0.0
 10
11.3649732089
 20
7.4377977787
 30
0.0
 10
11.3589531661
 20
7.433618874
 30
0.0
 10
11.3525024782
 20
7.4300961149
 30
0.0
 10
11.3456871827
 20
7.4272656989
 30
0.0
 10
11.3385760226
 20
7.4251557209
 30
0.0
 10
11.3312406263
 20
7.4237873026
 30
0.0
 10
11.3237558794
 20
7.4231737478
 30
0.0
 10
11.3187317557
 20
7.4232717449
 30
0.0
 10
11.3162215401
 20
7.4234458289
 30
0.0
  0
SPLINE
  5
35D
100
AcDbEntity
  8
0
100
AcDbSpline
 62
7
  6
CONTINUOUS
 70
0
 71
3
 72
39
 73
35
 74
0
 42
0.0000001
 43
0.0000001
 44
0.0000000001
 40
0.0
 40
0.0
 40
0.0
 40
0.0
 40
0.031116003
 40
0.0620232729
 40
0.0927351582
 40
0.1232711727
 40
0.1536587326
 40
0.1839312109
 40
0.2141268391
 40
0.2442870982
 40
0.2744549745
 40
0.3046731295
 40
0.3349820885
 40
0.3654185439
 40
0.3960138647
 40
0.4267928821
 40
0.4577729955
 40
0.4889636186
 40
0.5203659684
 40
0.551973179
 40
0.5837707185
 40
0.6157370633
 40
0.6478445893
 40
0.6800606395
 40
0.7123487309
 40
0.744669862
 40
0.7769838836
 40
0.8092508932
 40
0.8414326248
 40
0.873493804
 40
0.9054033897
 40
0.9371359556
 40
0.968671764
 40
1.0
 40
1.0
 40
1.0
 40
1.0
 10
11.7054896048
 20
7.4717922158
 30
0.0
 10
11.7054896048
 20
7.4684542726
 30
0.0
 10
11.705163739
 20
7.4617959479
 30
0.0
 10
11.703689963
 20
7.4519415745
 30
0.0
 10
11.7012468041
 20
7.4423446264
 30
0.0
 10
11.6978573514
 20
7.4330989842
 30
0.0
 10
11.6935540575
 20
7.4242937491
 30
0.0
 10
11.6883782068
 20
7.4160142338
 30
0.0
 10
11.6823796761
 20
7.408340602
 30
0.0
 10
11.6756164062
 20
7.4013471806
 30
0.0
 10
11.6681538266
 20
7.395101668
 30
0.0
 10
11.6600641955
 20
7.389664451
 30
0.0
 10
11.6514258582
 20
7.3850880006
 30
0.0
 10
11.6423224528
 20
7.3814163475
 30
0.0
 10
11.6328420559
 20
7.378684655
 30
0.0
 10
11.6230762831
 20
7.376918935
 30
0.0
 10
11.6131193858
 20
7.3761358298
 30
0.0
 10
11.6030673345
 20
7.3763424936
 30
0.0
 10
11.5930169014
 20
7.3775365608
 30
0.0
 10
11.5830647359
 20
7.3797061702
 30
0.0
 10
11.5733064536
 20
7.3828301358
 30
0.0
 10
11.5638357419
 20
7.3868781673
 30
0.0
 10
11.5547434851
 20
7.3918111684
 30
0.0
 10
11.5461169178
 20
7.3975816188
 30
0.0
 10
11.5380387929
 20
7.4041340042
 30
0.0
 10
11.5305866067
 20
7.4114053575
 30
0.0
 10
11.5238318803
 20
7.4193258648
 30
0.0
 10
11.5178394845
 20
7.4278195221
 30
0.0
 10
11.5126670307
 20
7.4368048409
 30
0.0
 10
11.5083643226
 20
7.4461956447
 30
0.0
 10
11.5049728313
 20
7.4559017349
 30
0.0
 10
11.5025254331
 20
7.4658302581
 30
0.0
 10
11.501045831
 20
7.4758846185
 30
0.0
 10
11.5007133175
 20
7.4826327892
 30
0.0
 10
11.5007133175
 20
7.4859934996
 30
0.0
  0
SPLINE
  5
35E
100
AcDbEntity
  8
0
100
AcDbSpline
 62
7
  6
CONTINUOUS
 70
0
 71
3
 72
23
 73
19
 74
0
 42
0.0000001
 43
0.0000001
 44
0.0000000001
 40
0.0
 40
0.0
 40
0.0
 40
0.0
 40
0.0755972399
 40
0.1466395047
 40
0.2134649845
 40
0.2765140689
 40
0.3363265565
 40
0.3935467574
 40
0.4489229844
 40
0.5032880879
 40
0.5575259989
 40
0.6125272937
 40
0.6691433527
 40
0.7281488082
 40
0.7902194195
 40
0.8559234935
 40
0.9257264946
 40
1.0
 40
1.0
 40
1.0
 40
1.0
 10
12.9926086265
 20
7.5589574803
 30
0.0
 10
12.9913273748
 20
7.5577198861
 30
0.0
 10
12.9887666027
 20
7.5553953153
 30
0.0
 10
12.9848035383
 20
7.5522898643
 30
0.0
 10
12.9808451471
 20
7.5496817052
 30
0.0
 10
12.9768950125
 20
7.5475748086
 30
0.0
 10
12.9729564853
 20
7.5459728893
 30
0.0
 10
12.9690335725
 20
7.5448800589
 30
0.0
 10
12.9651314706
 20
7.544299985
 30
0.0
 10
12.9612566488
 20
7.5442355592
 30
0.0
 10
12.9574165623
 20
7.5446876371
 30
0.0
 10
12.9536186543
 20
7.545654919
 30
0.0
 10
12.9498693827
 20
7.5471341474
 30
0.0
 10
12.946173692
 20
7.5491209548
 30
0.0
 10
12.9425353703
 20
7.5516108756
 30
0.0
 10
12.9389572936
 20
7.5545995026
 30
0.0
 10
12.9354424113
 20
7.5580824928
 30
0.0
 10
12.9332147268
 20
7.5606487488
 30
0.0
 10
12.9321104226
 20
7.5620065415
 30
0.0
  0
SPLINE
  5
35F
100
AcDbEntity
  8
0
100
AcDbSpline
 62
7
  6
CONTINUOUS
 70
0
 71
3
 72
41
 73
37
 74
0
 42
0.0000001
 43
0.0000001
 44
0.0000000001
 40
0.0
 40
0.0
 40
0.0
 40
0.0
 40
0.031144444
 40
0.0624425093
 40
0.0938872508
 40
0.1254695847
 40
0.1571771078
 40
0.1889951283
 40
0.2209066801
 40
0.2528929859
 40
0.2849338014
 40
0.3170078274
 40
0.3490931225
 40
0.3811675283
 40
0.4132090962
 40
0.4451965119
 40
0.4771095115
 40
0.5089292827
 40
0.5406388458
 40
0.5722234075
 40
0.6036706813
 40
0.6349711679
 40
0.6661183875
 40
0.6971090579
 40
0.7279432122
 40
0.7586242475
 40
0.7891589026
 40
0.8195571573
 40
0.8498320547
 40
0.8649308931
 40
0.8800050545
 40
0.9100832586
 40
0.9400926739
 40
0.9550812746
 40
0.9700610358
 40
1.0
 40
1.0
 40
1.0
 40
1.0
 10
9.4635757121
 20
9.4803982947
 30
0.0
 10
9.4602617604
 20
9.480628118
 30
0.0
 10
9.4536318688
 20
9.4813314772
 30
0.0
 10
9.4437674218
 20
9.4831032101
 30
0.0
 10
9.4340086135
 20
9.485584936
 30
0.0
 10
9.4244081949
 20
9.4887632238
 30
0.0
 10
9.4150171344
 20
9.4926210954
 30
0.0
 10
9.4058855368
 20
9.4971378856
 30
0.0
 10
9.3970620458
 20
9.5022894691
 30
0.0
 10
9.3885936779
 20
9.5080483348
 30
0.0
 10
9.3805255529
 20
9.5143837555
 30
0.0
 10
9.3729006608
 20
9.521261941
 30
0.0
 10
9.3657596349
 20
9.5286462206
 30
0.0
 10
9.3591405371
 20
9.5364972355
 30
0.0
 10
9.3530786576
 20
9.5447731468
 30
0.0
 10
9.347606328
 20
9.553429856
 30
0.0
 10
9.3427527506
 20
9.5624212379
 30
0.0
 10
9.3385438434
 20
9.5716993827
 30
0.0
 10
9.3350021026
 20
9.581214849
 30
0.0
 10
9.3321464823
 20
9.590916923
 30
0.0
 10
9.3299922932
 20
9.6007538859
 30
0.0
 10
9.3285511185
 20
9.6106732853
 30
0.0
 10
9.3278307506
 20
9.6206222119
 30
0.0
 10
9.3278351446
 20
9.6305475757
 30
0.0
 10
9.3285643974
 20
9.6403963964
 30
0.0
 10
9.330014723
 20
9.6501160459
 30
0.0
 10
9.3321785373
 20
9.6596546705
 30
0.0
 10
9.3350442295
 20
9.6689609404
 30
0.0
 10
9.3380078295
 20
9.6764891681
 30
0.0
 10
9.3407122743
 20
9.6823435259
 30
0.0
 10
9.3436308797
 20
9.6880705956
 30
0.0
 10
9.3476832049
 20
9.6949977822
 30
0.0
 10
9.3522567311
 20
9.7015814431
 30
0.0
 10
9.3562089052
 20
9.7066138477
 30
0.0
 10
9.3603496465
 20
9.7114819666
 30
0.0
 10
9.3636670855
 20
9.7149476652
 30
0.0
 10
9.3659639059
 20
9.7171662214
 30
0.0
  0
SPLINE
  5
360
100
AcDbEntity
  8
0
100
AcDbSpline
 62
7
  6
CONTINUOUS
 70
0
 71
3
 72
41
 73
37
 74
0
 42
0.0000001
 43
0.0000001
 44
0.0000000001
 40
0.0
 40
0.0
 40
0.0
 40
0.0
 40
0.031144444
 40
0.0624425093
 40
0.0938872508
 40
0.1254695847
 40
0.1571771078
 40
0.1889951283
 40
0.2209066801
 40
0.2528929859
 40
0.2849338014
 40
0.3170078274
 40
0.3490931225
 40
0.3811675283
 40
0.4132090962
 40
0.4451965119
 40
0.4771095115
 40
0.5089292827
 40
0.5406388458
 40
0.5722234075
 40
0.6036706813
 40
0.6349711679
 40
0.6661183875
 40
0.6971090579
 40
0.7279432122
 40
0.7586242475
 40
0.7891589026
 40
0.8195571573
 40
0.8498320547
 40
0.8649308931
 40
0.8800050545
 40
0.9100832586
 40
0.9400926739
 40
0.9550812746
 40
0.9700610358
 40
1.0
 40
1.0
 40
1.0
 40
1.0
 10
12.2029414846
 20
9.2904226331
 30
0.0
 10
12.1996275329
 20
9.2906524564
 30
0.0
 10
12.1929976413
 20
9.2913558157
 30
0.0
 10
12.1831331943
 20
9.2931275485
 30
0.0
 10
12.173374386
 20
9.2956092744
 30
0.0
 10
12.1637739674
 20
9.2987875622
 30
0.0
 10
12.1543829069
 20
9.3026454338
 30
0.0
 10
12.1452513093
 20
9.307162224
 30
0.0
 10
12.1364278183
 20
9.3123138075
 30
0.0
 10
12.1279594504
 20
9.3180726732
 30
0.0
 10
12.1198913254
 20
9.3244080939
 30
0.0
 10
12.1122664333
 20
9.3312862794
 30
0.0
 10
12.1051254074
 20
9.3386705591
 30
0.0
 10
12.0985063096
 20
9.3465215739
 30
0.0
 10
12.0924444301
 20
9.3547974852
 30
0.0
 10
12.0869721005
 20
9.3634541944
 30
0.0
 10
12.0821185231
 20
9.3724455763
 30
0.0
 10
12.0779096159
 20
9.3817237212
 30
0.0
 10
12.0743678751
 20
9.3912391874
 30
0.0
 10
12.0715122549
 20
9.4009412614
 30
0.0
 10
12.0693580657
 20
9.4107782243
 30
0.0
 10
12.067916891
 20
9.4206976237
 30
0.0
 10
12.0671965231
 20
9.4306465503
 30
0.0
 10
12.0672009171
 20
9.4405719141
 30
0.0
 10
12.0679301699
 20
9.4504207349
 30
0.0
 10
12.0693804955
 20
9.4601403843
 30
0.0
 10
12.0715443098
 20
9.4696790089
 30
0.0
 10
12.074410002
 20
9.4789852788
 30
0.0
 10
12.077373602
 20
9.4865135065
 30
0.0
 10
12.0800780468
 20
9.4923678643
 30
0.0
 10
12.0829966522
 20
9.498094934
 30
0.0
 10
12.0870489775
 20
9.5050221206
 30
0.0
 10
12.0916225036
 20
9.5116057815
 30
0.0
 10
12.0955746777
 20
9.5166381861
 30
0.0
 10
12.099715419
 20
9.521506305
 30
0.0
 10
12.103032858
 20
9.5249720036
 30
0.0
 10
12.1053296784
 20
9.5271905598
 30
0.0
  0
SPLINE
  5
361
100
AcDbEntity
  8
0
100
AcDbSpline
 62
7
  6
CONTINUOUS
 70
0
 71
3
 72
91
 73
87
 74
0
 42
0.0000001
 43
0.0000001
 44
0.0000000001
 40
0.0
 40
0.0
 40
0.0
 40
0.0
 40
0.0039488015
 40
0.0077209331
 40
0.0113256819
 40
0.0147746019
 40
0.0212567658
 40
0.0243283152
 40
0.0273114065
 40
0.0302282841
 40
0.0331028744
 40
0.0359602763
 40
0.0388260741
 40
0.0417256118
 40
0.0446832887
 40
0.0477219744
 40
0.0508625685
 40
0.0541238092
 40
0.0575221299
 40
0.0610717921
 40
0.0647849438
 40
0.0686718492
 40
0.0727410776
 40
0.0769996588
 40
0.0814533528
 40
0.0861066974
 40
0.0909632799
 40
0.096025756
 40
0.101296025
 40
0.1067753105
 40
0.1124641923
 40
0.1183627698
 40
0.1244705899
 40
0.1307868294
 40
0.1373102246
 40
0.150971258
 40
0.1654376565
 40
0.180688312
 40
0.1966982523
 40
0.2134391186
 40
0.2308795483
 40
0.2489854884
 40
0.2677204706
 40
0.2870458502
 40
0.3069210158
 40
0.3273035826
 40
0.3481495711
 40
0.3694135761
 40
0.3910489271
 40
0.4130078492
 40
0.4352416181
 40
0.4577007106
 40
0.4803349532
 40
0.5030936693
 40
0.5487793245
 40
0.5943486269
 40
0.6169622232
 40
0.63939388
 40
0.6615935013
 40
0.6835116605
 40
0.7050997529
 40
0.7263101462
 40
0.7470963337
 40
0.7674130922
 40
0.7872166448
 40
0.8064648314
 40
0.8251172911
 40
0.8431356621
 40
0.8604837921
 40
0.8771279774
 40
0.8930372383
 40
0.9081836444
 40
0.9225427094
 40
0.9360938851
 40
0.9425616161
 40
0.948821818
 40
0.9548733438
 40
0.9607154415
 40
0.9663478531
 40
0.9717707504
 40
0.9769849049
 40
0.9819916518
 40
0.986793165
 40
0.9913924601
 40
0.9957932483
 40
1.0
 40
1.0
 40
1.0
 40
1.0
 10
12.9937358827
 20
8.450610097
 30
0.0
 10
12.9946869753
 20
8.4514952349
 30
0.0
 10
12.9965883656
 20
8.4531819101
 30
0.0
 10
12.9995057376
 20
8.4555032011
 30
0.0
 10
13.0024204887
 20
8.4575550414
 30
0.0
 10
13.0062206936
 20
8.459880834
 30
0.0
 10
13.0100978984
 20
8.4617356455
 30
0.0
 10
13.0140161379
 20
8.4630386503
 30
0.0
 10
13.0168918109
 20
8.4637228062
 30
0.0
 10
13.0197542526
 20
8.464130106
 30
0.0
 10
13.0226014526
 20
8.4642598212
 30
0.0
 10
13.0254309998
 20
8.464111713
 30
0.0
 10
13.0282404866
 20
8.4636857682
 30
0.0
 10
13.0310275682
 20
8.4629825808
 30
0.0
 10
13.0337900893
 20
8.462003028
 30
0.0
 10
13.036526109
 20
8.460748238
 30
0.0
 10
13.0392339792
 20
8.4592195947
 30
0.0
 10
13.0419121375
 20
8.4574184032
 30
0.0
 10
13.0445592656
 20
8.4553461954
 30
0.0
 10
13.0471739828
 20
8.4530043813
 30
0.0
 10
13.0497550275
 20
8.4503945477
 30
0.0
 10
13.0523010859
 20
8.4475183036
 30
0.0
 10
13.054810817
 20
8.4443773653
 30
0.0
 10
13.0572829374
 20
8.4409736162
 30
0.0
 10
13.059716031
 20
8.4373090066
 30
0.0
 10
13.062108817
 20
8.4333857131
 30
0.0
 10
13.0644598786
 20
8.4292059948
 30
0.0
 10
13.0667679052
 20
8.4247723151
 30
0.0
 10
13.0690315471
 20
8.4200872683
 30
0.0
 10
13.0712494599
 20
8.4151536057
 30
0.0
 10
13.0734203802
 20
8.4099742483
 30
0.0
 10
13.0755429653
 20
8.4045522426
 30
0.0
 10
13.0776160085
 20
8.398890817
 30
0.0
 10
13.0796382484
 20
8.3929933113
 30
0.0
 10
13.0823063295
 20
8.3846917332
 30
0.0
 10
13.0854944751
 20
8.3737430458
 30
0.0
 10
13.0890428881
 20
8.3599166168
 30
0.0
 10
13.092361841
 20
8.3452400535
 30
0.0
 10
13.0954433133
 20
8.3297483289
 30
0.0
 10
13.0982798231
 20
8.3134782175
 30
0.0
 10
13.100864485
 20
8.2964684847
 30
0.0
 10
13.1031910249
 20
8.2787596952
 30
0.0
 10
13.1052537954
 20
8.2603941273
 30
0.0
 10
13.1070477883
 20
8.2414156556
 30
0.0
 10
13.108568647
 20
8.2218696407
 30
0.0
 10
13.1098126759
 20
8.2018028168
 30
0.0
 10
13.1107768491
 20
8.1812631766
 30
0.0
 10
13.1114588164
 20
8.1602998556
 30
0.0
 10
13.1118569123
 20
8.138963012
 30
0.0
 10
13.1119701558
 20
8.1173037051
 30
0.0
 10
13.1117982539
 20
8.0953737664
 30
0.0
 10
13.1113415927
 20
8.0732256914
 30
0.0
 10
13.110601273
 20
8.0509124498
 30
0.0
 10
13.1092365239
 20
8.0209759022
 30
0.0
 10
13.1068380924
 20
7.9835354962
 30
0.0
 10
13.1035315622
 20
7.9462122236
 30
0.0
 10
13.1003477838
 20
7.916567729
 30
0.0
 10
13.0977084994
 20
7.894599948
 30
0.0
 10
13.094818209
 20
7.8728946055
 30
0.0
 10
13.0916838183
 20
7.8515036127
 30
0.0
 10
13.0883128621
 20
7.8304781663
 30
0.0
 10
13.0847134355
 20
7.8098685704
 30
0.0
 10
13.0808941869
 20
7.7897241295
 30
0.0
 10
13.0768642952
 20
7.7700930262
 30
0.0
 10
13.0726334482
 20
7.7510222047
 30
0.0
 10
13.0682118202
 20
7.7325572556
 30
0.0
 10
13.0636100468
 20
7.7147423019
 30
0.0
 10
13.0588392037
 20
7.6976198859
 30
0.0
 10
13.0539107756
 20
7.6812308641
 30
0.0
 10
13.0488366269
 20
7.665614296
 30
0.0
 10
13.0436289717
 20
7.650807365
 30
0.0
 10
13.0383003349
 20
7.636845188
 30
0.0
 10
13.0328635235
 20
7.6237610157
 30
0.0
 10
13.0281836521
 20
7.613460589
 30
0.0
 10
13.0243872456
 20
7.6056916531
 30
0.0
 10
13.0215653413
 20
7.6001943038
 30
0.0
 10
13.0187261929
 20
7.5949386418
 30
0.0
 10
13.0158714332
 20
7.5899277879
 30
0.0
 10
13.013002806
 20
7.5851646886
 30
0.0
 10
13.0101219475
 20
7.5806521884
 30
0.0
 10
13.0072306291
 20
7.5763929294
 30
0.0
 10
13.0043304952
 20
7.5723894284
 30
0.0
 10
13.0014232207
 20
7.5686439973
 30
0.0
 10
12.9985104162
 20
7.565158791
 30
0.0
 10
12.9955939051
 20
7.5619360525
 30
0.0
 10
12.9936041612
 20
7.559919093
 30
0.0
 10
12.9926086265
 20
7.5589574803
 30
0.0
  0
SPLINE
  5
362
100
AcDbEntity
  8
0
100
AcDbSpline
 62
7
  6
CONTINUOUS
 70
0
 71
3
 72
15
 73
11
 74
0
 42
0.0000001
 43
0.0000001
 44
0.0000000001
 40
0.0
 40
0.0
 40
0.0
 40
0.0
 40
0.1216700348
 40
0.2411972233
 40
0.3600553825
 40
0.4798540606
 40
0.6022193244
 40
0.7287570228
 40
0.8609227765
 40
1.0
 40
1.0
 40
1.0
 40
1.0
 10
10.88630559
 20
7.7420466999
 30
0.0
 10
10.8863056438
 20
7.7426986791
 30
0.0
 10
10.8863787344
 20
7.743992569
 30
0.0
 10
10.8867183558
 20
7.745896503
 30
0.0
 10
10.8872869487
 20
7.7477348934
 30
0.0
 10
10.888083417
 20
7.7495031478
 30
0.0
 10
10.889106491
 20
7.7511985623
 30
0.0
 10
10.8903534887
 20
7.7528206153
 30
0.0
 10
10.8918220568
 20
7.7543700445
 30
0.0
 10
10.8929161527
 20
7.7553300732
 30
0.0
 10
10.8934952236
 20
7.7557992053
 30
0.0
  0
SPLINE
  5
363
100
AcDbEntity
  8
0
100
AcDbSpline
 62
4
  6
CONTINUOUS
 70
0
 71
3
 72
306
 73
302
 74
0
 42
0.0000001
 43
0.0000001
 44
0.0000000001
 40
0.0
 40
0.0
 40
0.0
 40
0.0
 40
0.015625
 40
0.0234375
 40
0.03125
 40
0.0390625
 40
0.046875
 40
0.05078125
 40
0.0546875
 40
0.056640625
 40
0.05859375
 40
0.060546875
 40
0.0615234375
 40
0.0625
 40
0.0634765625
 40
0.064453125
 40
0.06640625
 40
0.068359375
 40
0.0703125
 40
0.07421875
 40
0.078125
 40
0.0859375
 40
0.09375
 40
0.1015625
 40
0.109375
 40
0.11328125
 40
0.1171875
 40
0.119140625
 40
0.12109375
 40
0.123046875
 40
0.1240234375
 40
0.1245117188
 40
0.125
 40
0.1254882812
 40
0.1259765625
 40
0.126953125
 40
0.12890625
 40
0.130859375
 40
0.1328125
 40
0.13671875
 40
0.140625
 40
0.1484375
 40
0.15625
 40
0.1640625
 40
0.171875
 40
0.17578125
 40
0.1796875
 40
0.181640625
 40
0.18359375
 40
0.185546875
 40
0.1865234375
 40
0.1870117188
 40
0.1875
 40
0.1879882812
 40
0.1884765625
 40
0.189453125
 40
0.19140625
 40
0.193359375
 40
0.1953125
 40
0.19921875
 40
0.203125
 40
0.2109375
 40
0.21875
 40
0.2265625
 40
0.23046875
 40
0.234375
 40
0.23828125
 40
0.2421875
 40
0.244140625
 40
0.24609375
 40
0.248046875
 40
0.2490234375
 40
0.2495117188
 40
0.25
 40
0.2504882812
 40
0.2509765625
 40
0.251953125
 40
0.25390625
 40
0.255859375
 40
0.2578125
 40
0.26171875
 40
0.265625
 40
0.26953125
 40
0.2734375
 40
0.28125
 40
0.2890625
 40
0.29296875
 40
0.296875
 40
0.30078125
 40
0.3046875
 40
0.306640625
 40
0.30859375
 40
0.310546875
 40
0.3115234375
 40
0.3120117188
 40
0.3125
 40
0.3129882812
 40
0.3134765625
 40
0.314453125
 40
0.31640625
 40
0.318359375
 40
0.3203125
 40
0.32421875
 40
0.328125
 40
0.33203125
 40
0.3359375
 40
0.34375
 40
0.3515625
 40
0.35546875
 40
0.359375
 40
0.36328125
 40
0.3671875
 40
0.369140625
 40
0.37109375
 40
0.3720703125
 40
0.373046875
 40
0.3740234375
 40
0.3745117188
 40
0.375
 40
0.3754882812
 40
0.3759765625
 40
0.376953125
 40
0.3779296875
 40
0.37890625
 40
0.380859375
 40
0.3828125
 40
0.38671875
 40
0.390625
 40
0.39453125
 40
0.3984375
 40
0.40625
 40
0.4140625
 40
0.41796875
 40
0.421875
 40
0.42578125
 40
0.4296875
 40
0.431640625
 40
0.43359375
 40
0.4345703125
 40
0.435546875
 40
0.4365234375
 40
0.4370117188
 40
0.4375
 40
0.4379882812
 40
0.4384765625
 40
0.439453125
 40
0.4404296875
 40
0.44140625
 40
0.443359375
 40
0.4453125
 40
0.44921875
 40
0.453125
 40
0.45703125
 40
0.4609375
 40
0.46875
 40
0.4765625
 40
0.48046875
 40
0.484375
 40
0.48828125
 40
0.4921875
 40
0.494140625
 40
0.49609375
 40
0.498046875
 40
0.4990234375
 40
0.4995117188
 40
0.5
 40
0.5004882812
 40
0.5009765625
 40
0.501953125
 40
0.50390625
 40
0.505859375
 40
0.5078125
 40
0.51171875
 40
0.515625
 40
0.51953125
 40
0.5234375
 40
0.53125
 40
0.5390625
 40
0.546875
 40
0.55078125
 40
0.5546875
 40
0.556640625
 40
0.55859375
 40
0.560546875
 40
0.5615234375
 40
0.5620117188
 40
0.5625
 40
0.5629882812
 40
0.5634765625
 40
0.564453125
 40
0.56640625
 40
0.568359375
 40
0.5703125
 40
0.57421875
 40
0.578125
 40
0.5859375
 40
0.59375
 40
0.6015625
 40
0.609375
 40
0.61328125
 40
0.6171875
 40
0.619140625
 40
0.62109375
 40
0.623046875
 40
0.6240234375
 40
0.6245117188
 40
0.625
 40
0.6254882812
 40
0.6259765625
 40
0.626953125
 40
0.62890625
 40
0.630859375
 40
0.6328125
 40
0.63671875
 40
0.640625
 40
0.6484375
 40
0.65625
 40
0.6640625
 40
0.671875
 40
0.67578125
 40
0.6796875
 40
0.681640625
 40
0.68359375
 40
0.685546875
 40
0.6865234375
 40
0.6870117188
 40
0.6875
 40
0.6879882812
 40
0.6884765625
 40
0.689453125
 40
0.69140625
 40
0.693359375
 40
0.6953125
 40
0.69921875
 40
0.703125
 40
0.7109375
 40
0.71875
 40
0.7265625
 40
0.734375
 40
0.73828125
 40
0.7421875
 40
0.74609375
 40
0.748046875
 40
0.7490234375
 40
0.75
 40
0.7509765625
 40
0.751953125
 40
0.75390625
 40
0.7578125
 40
0.76171875
 40
0.765625
 40
0.7734375
 40
0.78125
 40
0.7890625
 40
0.796875
 40
0.80078125
 40
0.8046875
 40
0.80859375
 40
0.810546875
 40
0.8115234375
 40
0.8125
 40
0.8134765625
 40
0.814453125
 40
0.81640625
 40
0.8203125
 40
0.82421875
 40
0.828125
 40
0.8359375
 40
0.84375
 40
0.8515625
 40
0.859375
 40
0.86328125
 40
0.8671875
 40
0.87109375
 40
0.873046875
 40
0.8740234375
 40
0.875
 40
0.8759765625
 40
0.876953125
 40
0.87890625
 40
0.8828125
 40
0.88671875
 40
0.890625
 40
0.8984375
 40
0.90625
 40
0.9140625
 40
0.921875
 40
0.92578125
 40
0.9296875
 40
0.93359375
 40
0.935546875
 40
0.9375
 40
0.939453125
 40
0.94140625
 40
0.9453125
 40
0.94921875
 40
0.953125
 40
0.9609375
 40
0.96875
 40
0.984375
 40
1.0
 40
1.0
 40
1.0
 40
1.0
 10
12.6011710175
 20
8.6496446637
 30
0.0
 10
12.6012533346
 20
8.646590989
 30
0.0
 10
12.6013768103
 20
8.6420104772
 30
0.0
 10
12.6015414439
 20
8.6359031268
 30
0.0
 10
12.601664921
 20
8.6313226172
 30
0.0
 10
12.601788391
 20
8.6267420956
 30
0.0
 10
12.6018913046
 20
8.6229250317
 30
0.0
 10
12.6019735863
 20
8.6198712967
 30
0.0
 10
12.6020251244
 20
8.6179629033
 30
0.0
 10
12.6020660983
 20
8.6164357512
 30
0.0
 10
12.6020975312
 20
8.6152915846
 30
0.0
 10
12.6021214908
 20
8.6143343031
 30
0.0
 10
12.6021456699
 20
8.6135770217
 30
0.0
 10
12.6021501107
 20
8.6129857147
 30
0.0
 10
12.6022068198
 20
8.6124835195
 30
0.0
 10
12.6022641739
 20
8.611782798
 30
0.0
 10
12.6023421307
 20
8.6109175759
 30
0.0
 10
12.6024329977
 20
8.6098747381
 30
0.0
 10
12.6025550901
 20
8.6084858843
 30
0.0
 10
12.602707385
 20
8.6067492705
 30
0.0
 10
12.602951236
 20
8.6039709938
 30
0.0
 10
12.6032559885
 20
8.6004980434
 30
0.0
 10
12.6036217171
 20
8.5963305463
 30
0.0
 10
12.603987441
 20
8.592163043
 30
0.0
 10
12.6042922052
 20
8.588690108
 30
0.0
 10
12.6045360327
 20
8.5859118006
 30
0.0
 10
12.6046883874
 20
8.5841752648
 30
0.0
 10
12.6048103569
 20
8.5827862508
 30
0.0
 10
12.6049015995
 20
8.5817439027
 30
0.0
 10
12.6049783812
 20
8.5808771483
 30
0.0
 10
12.6050306638
 20
8.5802667524
 30
0.0
 10
12.6050628265
 20
8.5799236817
 30
0.0
 10
12.6050805062
 20
8.5796502459
 30
0.0
 10
12.6051228118
 20
8.5794384776
 30
0.0
 10
12.6051706295
 20
8.5791346096
 30
0.0
 10
12.6052583126
 20
8.5786128627
 30
0.0
 10
12.6053814819
 20
8.5778622702
 30
0.0
 10
12.6055301805
 20
8.576963802
 30
0.0
 10
12.6057281326
 20
8.5757650611
 30
0.0
 10
12.6059756799
 20
8.5742669032
 30
0.0
 10
12.6063716955
 20
8.5718697005
 30
0.0
 10
12.6068667358
 20
8.568873249
 30
0.0
 10
12.6074607747
 20
8.5652774833
 30
0.0
 10
12.6080548183
 20
8.5616817304
 30
0.0
 10
12.6085498469
 20
8.5586852469
 30
0.0
 10
12.6089458859
 20
8.5562881082
 30
0.0
 10
12.6091933739
 20
8.5547897876
 30
0.0
 10
12.6093914475
 20
8.5535913805
 30
0.0
 10
12.6095397749
 20
8.5526918925
 30
0.0
 10
12.6096641057
 20
8.5519444908
 30
0.0
 10
12.6097497153
 20
8.5514170479
 30
0.0
 10
12.6098008553
 20
8.5511223061
 30
0.0
 10
12.6098329557
 20
8.5508825051
 30
0.0
 10
12.6098889646
 20
8.5507143556
 30
0.0
 10
12.6099553035
 20
8.5504651633
 30
0.0
 10
12.6100752822
 20
8.5500407215
 30
0.0
 10
12.610244649
 20
8.549428288
 30
0.0
 10
12.6104487586
 20
8.5486959738
 30
0.0
 10
12.6107206011
 20
8.5477186446
 30
0.0
 10
12.6110605081
 20
8.5464972947
 30
0.0
 10
12.6116043013
 20
8.5445429608
 30
0.0
 10
12.6122840626
 20
8.542100103
 30
0.0
 10
12.6130997678
 20
8.5391686487
 30
0.0
 10
12.6137795238
 20
8.5367257739
 30
0.0
 10
12.6143233289
 20
8.5347714774
 30
0.0
 10
12.6147311805
 20
8.5333057428
 30
0.0
 10
12.6151390409
 20
8.5318400555
 30
0.0
 10
12.6154788973
 20
8.5306185019
 30
0.0
 10
12.6157508434
 20
8.5296415894
 30
0.0
 10
12.6159546364
 20
8.5289080023
 30
0.0
 10
12.6161249937
 20
8.5282995513
 30
0.0
 10
12.6162432042
 20
8.5278680001
 30
0.0
 10
12.6163123763
 20
8.5276301989
 30
0.0
 10
12.6163596825
 20
8.5274270596
 30
0.0
 10
12.6164244687
 20
8.5273186742
 30
0.0
 10
12.616504753
 20
8.5271411092
 30
0.0
 10
12.6166480914
 20
8.5268457696
 30
0.0
 10
12.6168513753
 20
8.526415805
 30
0.0
 10
12.6170959518
 20
8.5259032935
 30
0.0
 10
12.6174218316
 20
8.525218741
 30
0.0
 10
12.6178292576
 20
8.5243634636
 30
0.0
 10
12.6183181361
 20
8.5233369536
 30
0.0
 10
12.6188070234
 20
8.5223104909
 30
0.0
 10
12.61945887
 20
8.5209418575
 30
0.0
 10
12.6202736794
 20
8.5192310719
 30
0.0
 10
12.6210884881
 20
8.5175202821
 30
0.0
 10
12.6217403359
 20
8.5161516553
 30
0.0
 10
12.6222292198
 20
8.5151251725
 30
0.0
 10
12.622718111
 20
8.5140987382
 30
0.0
 10
12.6231254974
 20
8.5132432253
 30
0.0
 10
12.6234514581
 20
8.512559153
 30
0.0
 10
12.6236957875
 20
8.5120451753
 30
0.0
 10
12.6238998444
 20
8.5116197979
 30
0.0
 10
12.6240418029
 20
8.5113162694
 30
0.0
 10
12.6241242981
 20
8.511151825
 30
0.0
 10
12.6241822932
 20
8.5110031373
 30
0.0
 10
12.6242551056
 20
8.5109513669
 30
0.0
 10
12.6243470203
 20
8.5108485339
 30
0.0
 10
12.6245102792
 20
8.5106843268
 30
0.0
 10
12.6247422473
 20
8.5104415107
 30
0.0
 10
12.6250211478
 20
8.510153656
 30
0.0
 10
12.6253928269
 20
8.5097686186
 30
0.0
 10
12.6258574904
 20
8.5092877443
 30
0.0
 10
12.6264150589
 20
8.508710514
 30
0.0
 10
12.6269726348
 20
8.5081333321
 30
0.0
 10
12.6277160667
 20
8.5073637395
 30
0.0
 10
12.6286453575
 20
8.5064017543
 30
0.0
 10
12.6295746481
 20
8.5054397675
 30
0.0
 10
12.6303180805
 20
8.5046701773
 30
0.0
 10
12.6308756551
 20
8.5040929881
 30
0.0
 10
12.6314332284
 20
8.5035157853
 30
0.0
 10
12.631897877
 20
8.5030348256
 30
0.0
 10
12.6322695863
 20
8.5026499622
 30
0.0
 10
12.6325019266
 20
8.5024096405
 30
0.0
 10
12.6326877486
 20
8.502216884
 30
0.0
 10
12.6328272526
 20
8.5020736831
 30
0.0
 10
12.6329430683
 20
8.5019500022
 30
0.0
 10
12.6330367025
 20
8.5018608066
 30
0.0
 10
12.6331042459
 20
8.5017672708
 30
0.0
 10
12.6331820275
 20
8.5017754168
 30
0.0
 10
12.6332821599
 20
8.5017507594
 30
0.0
 10
12.6334085525
 20
8.5017321239
 30
0.0
 10
12.6335596984
 20
8.5017045452
 30
0.0
 10
12.6337614097
 20
8.5016695955
 30
0.0
 10
12.634013486
 20
8.5016252846
 30
0.0
 10
12.6344168432
 20
8.5015547358
 30
0.0
 10
12.6349210277
 20
8.5014664301
 30
0.0
 10
12.6355260542
 20
8.5013605145
 30
0.0
 10
12.6361310793
 20
8.5012545853
 30
0.0
 10
12.63693778
 20
8.5011133511
 30
0.0
 10
12.6379461557
 20
8.5009368065
 30
0.0
 10
12.6389545314
 20
8.5007602631
 30
0.0
 10
12.6397612319
 20
8.500619027
 30
0.0
 10
12.6403662576
 20
8.5005131036
 30
0.0
 10
12.6409712822
 20
8.500407166
 30
0.0
 10
12.6414754726
 20
8.5003189288
 30
0.0
 10
12.6418788177
 20
8.5002482403
 30
0.0
 10
12.6421309248
 20
8.5002042848
 30
0.0
 10
12.6423325728
 20
8.5001686056
 30
0.0
 10
12.6424839123
 20
8.5001432557
 30
0.0
 10
12.6426096991
 20
8.5001176467
 30
0.0
 10
12.6427110675
 20
8.5001072167
 30
0.0
 10
12.6427850745
 20
8.5000719132
 30
0.0
 10
12.642866789
 20
8.5001415046
 30
0.0
 10
12.6429730493
 20
8.5001976521
 30
0.0
 10
12.6431067985
 20
8.5002804077
 30
0.0
 10
12.643266902
 20
8.5003743336
 30
0.0
 10
12.6434805116
 20
8.5005014475
 30
0.0
 10
12.6437474762
 20
8.5006596963
 30
0.0
 10
12.6441746461
 20
8.5009132541
 30
0.0
 10
12.6447085993
 20
8.501230078
 30
0.0
 10
12.6453493471
 20
8.5016103195
 30
0.0
 10
12.6459900938
 20
8.5019905469
 30
0.0
 10
12.6468444231
 20
8.5024975216
 30
0.0
 10
12.6479123346
 20
8.5031312389
 30
0.0
 10
12.6489802463
 20
8.5037649546
 30
0.0
 10
12.6498345754
 20
8.5042719318
 30
0.0
 10
12.6504753226
 20
8.5046521518
 30
0.0
 10
12.6511160686
 20
8.5050324212
 30
0.0
 10
12.6516500274
 20
8.5053491584
 30
0.0
 10
12.652077186
 20
8.505602893
 30
0.0
 10
12.6523975778
 20
8.5057922518
 30
0.0
 10
12.6526644984
 20
8.5059530475
 30
0.0
 10
12.6528514852
 20
8.5060597236
 30
0.0
 10
12.6529581125
 20
8.506129864
 30
0.0
 10
12.6530387092
 20
8.5061566017
 30
0.0
 10
12.6531169122
 20
8.5062822183
 30
0.0
 10
12.6532220178
 20
8.5064152171
 30
0.0
 10
12.6534055636
 20
8.5066640346
 30
0.0
 10
12.6536679754
 20
8.5070110867
 30
0.0
 10
12.6539827824
 20
8.5074311454
 30
0.0
 10
12.6544025554
 20
8.5079899674
 30
0.0
 10
12.6549272613
 20
8.508688926
 30
0.0
 10
12.6555569129
 20
8.5095274916
 30
0.0
 10
12.6561865633
 20
8.5103661065
 30
0.0
 10
12.6570260975
 20
8.5114842428
 30
0.0
 10
12.6580755153
 20
8.512881917
 30
0.0
 10
12.6593348161
 20
8.5145591327
 30
0.0
 10
12.660384235
 20
8.5159567854
 30
0.0
 10
12.6612237667
 20
8.5170749691
 30
0.0
 10
12.6617484819
 20
8.5177736935
 30
0.0
 10
12.662168236
 20
8.5183329948
 30
0.0
 10
12.6624831009
 20
8.5187515894
 30
0.0
 10
12.6627453315
 20
8.5191032221
 30
0.0
 10
12.6629292006
 20
8.5193438625
 30
0.0
 10
12.6630337883
 20
8.519489963
 30
0.0
 10
12.6631135824
 20
8.5195753355
 30
0.0
 10
12.663188203
 20
8.5197532236
 30
0.0
 10
12.6632895017
 20
8.5199581372
 30
0.0
 10
12.6634659337
 20
8.5203317714
 30
0.0
 10
12.6637184189
 20
8.5208576739
 30
0.0
 10
12.6640212131
 20
8.5214921215
 30
0.0
 10
12.6644250043
 20
8.5223368765
 30
0.0
 10
12.6649297209
 20
8.5233932226
 30
0.0
 10
12.6657372799
 20
8.5250831514
 30
0.0
 10
12.6667467244
 20
8.52719564
 30
0.0
 10
12.6679580598
 20
8.5297305911
 30
0.0
 10
12.6691693938
 20
8.532265559
 30
0.0
 10
12.6701788419
 20
8.5343780057
 30
0.0
 10
12.6709863936
 20
8.5360680183
 30
0.0
 10
12.6714911288
 20
8.5371241514
 30
0.0
 10
12.6718948817
 20
8.5379693435
 30
0.0
 10
12.6721977931
 20
8.5386024554
 30
0.0
 10
12.6724499116
 20
8.539132537
 30
0.0
 10
12.6726269982
 20
8.5394987109
 30
0.0
 10
12.672727248
 20
8.5397155777
 30
0.0
 10
12.6728050906
 20
8.5398567494
 30
0.0
 10
12.6728727832
 20
8.5400800224
 30
0.0
 10
12.6729665805
 20
8.5403490818
 30
0.0
 10
12.6731290761
 20
8.5408332786
 30
0.0
 10
12.673362075
 20
8.5415180126
 30
0.0
 10
12.6736413047
 20
8.5423426793
 30
0.0
 10
12.6740137398
 20
8.5434411919
 30
0.0
 10
12.6744792395
 20
8.5448146898
 30
0.0
 10
12.6752240638
 20
8.5470120867
 30
0.0
 10
12.6761550856
 20
8.5497589019
 30
0.0
 10
12.6772723157
 20
8.5530550487
 30
0.0
 10
12.6783895436
 20
8.5563512107
 30
0.0
 10
12.6793205709
 20
8.5590979877
 30
0.0
 10
12.6800653841
 20
8.5612954609
 30
0.0
 10
12.6805309121
 20
8.5626687651
 30
0.0
 10
12.6809032892
 20
8.5637676753
 30
0.0
 10
12.681182696
 20
8.5645911275
 30
0.0
 10
12.6814151407
 20
8.565279661
 30
0.0
 10
12.6815786258
 20
8.5657570751
 30
0.0
 10
12.6816708376
 20
8.5660370023
 30
0.0
 10
12.6817434002
 20
8.5662268928
 30
0.0
 10
12.6818029518
 20
8.5664934434
 30
0.0
 10
12.6818868924
 20
8.5668221043
 30
0.0
 10
12.6820316739
 20
8.5674097196
 30
0.0
 10
12.6822396101
 20
8.5682426564
 30
0.0
 10
12.6824886603
 20
8.5692449686
 30
0.0
 10
12.6828208926
 20
8.5705804111
 30
0.0
 10
12.6832361264
 20
8.5722500477
 30
0.0
 10
12.6839005322
 20
8.5749212795
 30
0.0
 10
12.6847310273
 20
8.5782603859
 30
0.0
 10
12.6857276318
 20
8.5822672737
 30
0.0
 10
12.6867242142
 20
8.5862742142
 30
0.0
 10
12.6875547648
 20
8.5896131891
 30
0.0
 10
12.6882190597
 20
8.5922846838
 30
0.0
 10
12.6887176784
 20
8.5942874457
 30
0.0
 10
12.6891319293
 20
8.5959591466
 30
0.0
 10
12.6894243869
 20
8.5971239746
 30
0.0
 10
12.6895876302
 20
8.5977979639
 30
0.0
 10
12.6897209796
 20
8.5982798682
 30
0.0
 10
12.6898125989
 20
8.5988519364
 30
0.0
 10
12.6899493138
 20
8.5995832439
 30
0.0
 10
12.690181783
 20
8.6008776852
 30
0.0
 10
12.6905174276
 20
8.6027192262
 30
0.0
 10
12.6909186834
 20
8.6049323545
 30
0.0
 10
12.6914542214
 20
8.6078820465
 30
0.0
 10
12.6921234607
 20
8.6115695566
 30
0.0
 10
12.6929266319
 20
8.615994391
 30
0.0
 10
12.69372976
 20
8.6204193045
 30
0.0
 10
12.6943991072
 20
8.6241066165
 30
0.0
 10
12.6949344295
 20
8.6270567048
 30
0.0
 10
12.6953363432
 20
8.6292686244
 30
0.0
 10
12.6956699296
 20
8.6311139468
 30
0.0
 10
12.695906073
 20
8.6324016377
 30
0.0
 10
12.696036901
 20
8.633143761
 30
0.0
 10
12.6961466029
 20
8.6336826063
 30
0.0
 10
12.6962120369
 20
8.6342892905
 30
0.0
 10
12.6963147235
 20
8.6350745398
 30
0.0
 10
12.6964872306
 20
8.636459751
 30
0.0
 10
12.6967374307
 20
8.6384328602
 30
0.0
 10
12.6970360608
 20
8.6408030584
 30
0.0
 10
12.6974347968
 20
8.6439624607
 30
0.0
 10
12.6979330224
 20
8.6479120102
 30
0.0
 10
12.6985309826
 20
8.6526513389
 30
0.0
 10
12.699128896
 20
8.6573907161
 30
0.0
 10
12.6996272388
 20
8.6613401443
 30
0.0
 10
12.7000257404
 20
8.6644997893
 30
0.0
 10
12.7003250854
 20
8.6668692475
 30
0.0
 10
12.700573049
 20
8.6688446718
 30
0.0
 10
12.7007495486
 20
8.6702257501
 30
0.0
 10
12.7008458382
 20
8.6710176213
 30
0.0
 10
12.7009309215
 20
8.6716039649
 30
0.0
 10
12.7009668241
 20
8.672219206
 30
0.0
 10
12.701031849
 20
8.6730294478
 30
0.0
 10
12.7011376498
 20
8.6744520672
 30
0.0
 10
12.7012929725
 20
8.6764819252
 30
0.0
 10
12.7014775712
 20
8.6789188059
 30
0.0
 10
12.7017243271
 20
8.6821676131
 30
0.0
 10
12.7020325618
 20
8.6862287474
 30
0.0
 10
12.7024025152
 20
8.6911020574
 30
0.0
 10
12.7027725179
 20
8.6959753718
 30
0.0
 10
12.7030806296
 20
8.7000364949
 30
0.0
 10
12.7033276316
 20
8.7032853245
 30
0.0
 10
12.7035114795
 20
8.705722137
 30
0.0
 10
12.703669151
 20
8.7077522083
 30
0.0
 10
12.7037852742
 20
8.709377624
 30
0.0
 10
12.7038997299
 20
8.7105929732
 30
0.0
 10
12.7039097391
 20
8.7118224934
 30
0.0
 10
12.7039595692
 20
8.7134569035
 30
0.0
 10
12.7040093392
 20
8.7155016145
 30
0.0
 10
12.7040744212
 20
8.7179545408
 30
0.0
 10
12.7041593257
 20
8.7212253631
 30
0.0
 10
12.7042660972
 20
8.7253138039
 30
0.0
 10
12.7044365733
 20
8.731855358
 30
0.0
 10
12.7046497921
 20
8.7400322837
 30
0.0
 10
12.7048203295
 20
8.7465738294
 30
0.0
 10
12.7049056029
 20
8.7498446017
 30
0.0
  0
SPLINE
  5
364
100
AcDbEntity
  8
0
100
AcDbSpline
 62
4
  6
CONTINUOUS
 70
0
 71
3
 72
306
 73
302
 74
0
 42
0.0000001
 43
0.0000001
 44
0.0000000001
 40
0.0
 40
0.0
 40
0.0
 40
0.0
 40
0.015625
 40
0.0234375
 40
0.03125
 40
0.0390625
 40
0.046875
 40
0.05078125
 40
0.0546875
 40
0.056640625
 40
0.05859375
 40
0.060546875
 40
0.0615234375
 40
0.0625
 40
0.0634765625
 40
0.064453125
 40
0.06640625
 40
0.068359375
 40
0.0703125
 40
0.07421875
 40
0.078125
 40
0.0859375
 40
0.09375
 40
0.1015625
 40
0.109375
 40
0.11328125
 40
0.1171875
 40
0.119140625
 40
0.12109375
 40
0.123046875
 40
0.1240234375
 40
0.1245117188
 40
0.125
 40
0.1254882812
 40
0.1259765625
 40
0.126953125
 40
0.12890625
 40
0.130859375
 40
0.1328125
 40
0.13671875
 40
0.140625
 40
0.1484375
 40
0.15625
 40
0.1640625
 40
0.171875
 40
0.17578125
 40
0.1796875
 40
0.181640625
 40
0.18359375
 40
0.185546875
 40
0.1865234375
 40
0.1870117188
 40
0.1875
 40
0.1879882812
 40
0.1884765625
 40
0.189453125
 40
0.19140625
 40
0.193359375
 40
0.1953125
 40
0.19921875
 40
0.203125
 40
0.2109375
 40
0.21875
 40
0.2265625
 40
0.23046875
 40
0.234375
 40
0.23828125
 40
0.2421875
 40
0.244140625
 40
0.24609375
 40
0.248046875
 40
0.2490234375
 40
0.2495117188
 40
0.25
 40
0.2504882812
 40
0.2509765625
 40
0.251953125
 40
0.25390625
 40
0.255859375
 40
0.2578125
 40
0.26171875
 40
0.265625
 40
0.26953125
 40
0.2734375
 40
0.28125
 40
0.2890625
 40
0.29296875
 40
0.296875
 40
0.30078125
 40
0.3046875
 40
0.306640625
 40
0.30859375
 40
0.310546875
 40
0.3115234375
 40
0.3120117188
 40
0.3125
 40
0.3129882812
 40
0.3134765625
 40
0.314453125
 40
0.31640625
 40
0.318359375
 40
0.3203125
 40
0.32421875
 40
0.328125
 40
0.33203125
 40
0.3359375
 40
0.34375
 40
0.3515625
 40
0.35546875
 40
0.359375
 40
0.36328125
 40
0.3671875
 40
0.369140625
 40
0.37109375
 40
0.3720703125
 40
0.373046875
 40
0.3740234375
 40
0.3745117188
 40
0.375
 40
0.3754882812
 40
0.3759765625
 40
0.376953125
 40
0.3779296875
 40
0.37890625
 40
0.380859375
 40
0.3828125
 40
0.38671875
 40
0.390625
 40
0.39453125
 40
0.3984375
 40
0.40625
 40
0.4140625
 40
0.41796875
 40
0.421875
 40
0.42578125
 40
0.4296875
 40
0.431640625
 40
0.43359375
 40
0.4345703125
 40
0.435546875
 40
0.4365234375
 40
0.4370117188
 40
0.4375
 40
0.4379882812
 40
0.4384765625
 40
0.439453125
 40
0.4404296875
 40
0.44140625
 40
0.443359375
 40
0.4453125
 40
0.44921875
 40
0.453125
 40
0.45703125
 40
0.4609375
 40
0.46875
 40
0.4765625
 40
0.48046875
 40
0.484375
 40
0.48828125
 40
0.4921875
 40
0.494140625
 40
0.49609375
 40
0.498046875
 40
0.4990234375
 40
0.4995117188
 40
0.5
 40
0.5004882812
 40
0.5009765625
 40
0.501953125
 40
0.50390625
 40
0.505859375
 40
0.5078125
 40
0.51171875
 40
0.515625
 40
0.51953125
 40
0.5234375
 40
0.53125
 40
0.5390625
 40
0.546875
 40
0.55078125
 40
0.5546875
 40
0.556640625
 40
0.55859375
 40
0.560546875
 40
0.5615234375
 40
0.5620117188
 40
0.5625
 40
0.5629882812
 40
0.5634765625
 40
0.564453125
 40
0.56640625
 40
0.568359375
 40
0.5703125
 40
0.57421875
 40
0.578125
 40
0.5859375
 40
0.59375
 40
0.6015625
 40
0.609375
 40
0.61328125
 40
0.6171875
 40
0.619140625
 40
0.62109375
 40
0.623046875
 40
0.6240234375
 40
0.6245117188
 40
0.625
 40
0.6254882812
 40
0.6259765625
 40
0.626953125
 40
0.62890625
 40
0.630859375
 40
0.6328125
 40
0.63671875
 40
0.640625
 40
0.6484375
 40
0.65625
 40
0.6640625
 40
0.671875
 40
0.67578125
 40
0.6796875
 40
0.681640625
 40
0.68359375
 40
0.685546875
 40
0.6865234375
 40
0.6870117188
 40
0.6875
 40
0.6879882812
 40
0.6884765625
 40
0.689453125
 40
0.69140625
 40
0.693359375
 40
0.6953125
 40
0.69921875
 40
0.703125
 40
0.7109375
 40
0.71875
 40
0.7265625
 40
0.734375
 40
0.73828125
 40
0.7421875
 40
0.74609375
 40
0.748046875
 40
0.7490234375
 40
0.75
 40
0.7509765625
 40
0.751953125
 40
0.75390625
 40
0.7578125
 40
0.76171875
 40
0.765625
 40
0.7734375
 40
0.78125
 40
0.7890625
 40
0.796875
 40
0.80078125
 40
0.8046875
 40
0.80859375
 40
0.810546875
 40
0.8115234375
 40
0.8125
 40
0.8134765625
 40
0.814453125
 40
0.81640625
 40
0.8203125
 40
0.82421875
 40
0.828125
 40
0.8359375
 40
0.84375
 40
0.8515625
 40
0.859375
 40
0.86328125
 40
0.8671875
 40
0.87109375
 40
0.873046875
 40
0.8740234375
 40
0.875
 40
0.8759765625
 40
0.876953125
 40
0.87890625
 40
0.8828125
 40
0.88671875
 40
0.890625
 40
0.8984375
 40
0.90625
 40
0.9140625
 40
0.921875
 40
0.92578125
 40
0.9296875
 40
0.93359375
 40
0.935546875
 40
0.9375
 40
0.939453125
 40
0.94140625
 40
0.9453125
 40
0.94921875
 40
0.953125
 40
0.9609375
 40
0.96875
 40
0.984375
 40
1.0
 40
1.0
 40
1.0
 40
1.0
 10
12.7049056029
 20
8.7498445847
 30
0.0
 10
12.7048232859
 20
8.7528982595
 30
0.0
 10
12.7046998101
 20
8.7574787713
 30
0.0
 10
12.7045351765
 20
8.7635861217
 30
0.0
 10
12.7044116995
 20
8.7681666313
 30
0.0
 10
12.7042882295
 20
8.7727471529
 30
0.0
 10
12.7041853158
 20
8.7765642168
 30
0.0
 10
12.7041030341
 20
8.7796179518
 30
0.0
 10
12.704051496
 20
8.7815263452
 30
0.0
 10
12.7040105221
 20
8.7830534973
 30
0.0
 10
12.7039790893
 20
8.7841976638
 30
0.0
 10
12.7039551296
 20
8.7851549454
 30
0.0
 10
12.7039309506
 20
8.7859122268
 30
0.0
 10
12.7039265097
 20
8.7865035337
 30
0.0
 10
12.7038698007
 20
8.787005729
 30
0.0
 10
12.7038124466
 20
8.7877064505
 30
0.0
 10
12.7037344897
 20
8.7885716726
 30
0.0
 10
12.7036436228
 20
8.7896145104
 30
0.0
 10
12.7035215303
 20
8.7910033641
 30
0.0
 10
12.7033692354
 20
8.792739978
 30
0.0
 10
12.7031253844
 20
8.7955182547
 30
0.0
 10
12.702820632
 20
8.7989912051
 30
0.0
 10
12.7024549034
 20
8.8031587022
 30
0.0
 10
12.7020891795
 20
8.8073262054
 30
0.0
 10
12.7017844153
 20
8.8107991404
 30
0.0
 10
12.7015405878
 20
8.8135774479
 30
0.0
 10
12.701388233
 20
8.8153139836
 30
0.0
 10
12.7012662635
 20
8.8167029977
 30
0.0
 10
12.701175021
 20
8.8177453457
 30
0.0
 10
12.7010982392
 20
8.8186121002
 30
0.0
 10
12.7010459566
 20
8.819222496
 30
0.0
 10
12.7010137939
 20
8.8195655668
 30
0.0
 10
12.7009961143
 20
8.8198390026
 30
0.0
 10
12.7009538086
 20
8.8200507708
 30
0.0
 10
12.7009059909
 20
8.8203546388
 30
0.0
 10
12.7008183078
 20
8.8208763858
 30
0.0
 10
12.7006951386
 20
8.8216269782
 30
0.0
 10
12.7005464399
 20
8.8225254464
 30
0.0
 10
12.7003484878
 20
8.8237241873
 30
0.0
 10
12.7001009406
 20
8.8252223453
 30
0.0
 10
12.6997049249
 20
8.827619548
 30
0.0
 10
12.6992098846
 20
8.8306159994
 30
0.0
 10
12.6986158457
 20
8.8342117652
 30
0.0
 10
12.6980218022
 20
8.8378075181
 30
0.0
 10
12.6975267736
 20
8.8408040016
 30
0.0
 10
12.6971307346
 20
8.8432011402
 30
0.0
 10
12.6968832466
 20
8.8446994608
 30
0.0
 10
12.696685173
 20
8.8458978679
 30
0.0
 10
12.6965368455
 20
8.8467973559
 30
0.0
 10
12.6964125147
 20
8.8475447577
 30
0.0
 10
12.6963269052
 20
8.8480722005
 30
0.0
 10
12.6962757651
 20
8.8483669423
 30
0.0
 10
12.6962436647
 20
8.8486067433
 30
0.0
 10
12.6961876559
 20
8.8487748929
 30
0.0
 10
12.6961213169
 20
8.8490240852
 30
0.0
 10
12.6960013382
 20
8.849448527
 30
0.0
 10
12.6958319714
 20
8.8500609604
 30
0.0
 10
12.6956278618
 20
8.8507932747
 30
0.0
 10
12.6953560194
 20
8.8517706039
 30
0.0
 10
12.6950161123
 20
8.8529919537
 30
0.0
 10
12.6944723192
 20
8.8549462876
 30
0.0
 10
12.6937925578
 20
8.8573891454
 30
0.0
 10
12.6929768526
 20
8.8603205997
 30
0.0
 10
12.6922970967
 20
8.8627634745
 30
0.0
 10
12.6917532915
 20
8.864717771
 30
0.0
 10
12.6913454399
 20
8.8661835056
 30
0.0
 10
12.6909375795
 20
8.8676491929
 30
0.0
 10
12.6905977231
 20
8.8688707466
 30
0.0
 10
12.690325777
 20
8.869847659
 30
0.0
 10
12.690121984
 20
8.8705812462
 30
0.0
 10
12.6899516267
 20
8.8711896971
 30
0.0
 10
12.6898334163
 20
8.8716212484
 30
0.0
 10
12.6897642441
 20
8.8718590496
 30
0.0
 10
12.6897169379
 20
8.8720621889
 30
0.0
 10
12.6896521518
 20
8.8721705742
 30
0.0
 10
12.6895718674
 20
8.8723481393
 30
0.0
 10
12.689428529
 20
8.8726434789
 30
0.0
 10
12.6892252451
 20
8.8730734435
 30
0.0
 10
12.6889806687
 20
8.873585955
 30
0.0
 10
12.6886547889
 20
8.8742705074
 30
0.0
 10
12.6882473629
 20
8.8751257849
 30
0.0
 10
12.6877584843
 20
8.8761522949
 30
0.0
 10
12.6872695971
 20
8.8771787575
 30
0.0
 10
12.6866177504
 20
8.878547391
 30
0.0
 10
12.685802941
 20
8.8802581766
 30
0.0
 10
12.6849881323
 20
8.8819689664
 30
0.0
 10
12.6843362845
 20
8.8833375931
 30
0.0
 10
12.6838474007
 20
8.8843640759
 30
0.0
 10
12.6833585094
 20
8.8853905103
 30
0.0
 10
12.6829511231
 20
8.8862460232
 30
0.0
 10
12.6826251623
 20
8.8869300955
 30
0.0
 10
12.682380833
 20
8.8874440731
 30
0.0
 10
12.6821767761
 20
8.8878694506
 30
0.0
 10
12.6820348176
 20
8.8881729791
 30
0.0
 10
12.6819523223
 20
8.8883374235
 30
0.0
 10
12.6818943273
 20
8.8884861112
 30
0.0
 10
12.6818215149
 20
8.8885378816
 30
0.0
 10
12.6817296001
 20
8.8886407146
 30
0.0
 10
12.6815663412
 20
8.8888049216
 30
0.0
 10
12.6813343732
 20
8.8890477378
 30
0.0
 10
12.6810554727
 20
8.8893355924
 30
0.0
 10
12.6806837936
 20
8.8897206299
 30
0.0
 10
12.6802191301
 20
8.8902015042
 30
0.0
 10
12.6796615616
 20
8.8907787345
 30
0.0
 10
12.6791039857
 20
8.8913559163
 30
0.0
 10
12.6783605537
 20
8.892125509
 30
0.0
 10
12.6774312629
 20
8.8930874942
 30
0.0
 10
12.6765019724
 20
8.8940494809
 30
0.0
 10
12.67575854
 20
8.8948190712
 30
0.0
 10
12.6752009654
 20
8.8953962603
 30
0.0
 10
12.6746433921
 20
8.8959734632
 30
0.0
 10
12.6741787434
 20
8.8964544228
 30
0.0
 10
12.6738070341
 20
8.8968392862
 30
0.0
 10
12.6735746938
 20
8.897079608
 30
0.0
 10
12.6733888719
 20
8.8972723644
 30
0.0
 10
12.6732493678
 20
8.8974155653
 30
0.0
 10
12.6731335521
 20
8.8975392462
 30
0.0
 10
12.6730399179
 20
8.8976284419
 30
0.0
 10
12.6729723746
 20
8.8977219777
 30
0.0
 10
12.672894593
 20
8.8977138317
 30
0.0
 10
12.6727944605
 20
8.8977384891
 30
0.0
 10
12.6726680679
 20
8.8977571245
 30
0.0
 10
12.6725169221
 20
8.8977847032
 30
0.0
 10
12.6723152108
 20
8.8978196529
 30
0.0
 10
12.6720631344
 20
8.8978639639
 30
0.0
 10
12.6716597772
 20
8.8979345127
 30
0.0
 10
12.6711555928
 20
8.8980228184
 30
0.0
 10
12.6705505663
 20
8.8981287339
 30
0.0
 10
12.6699455411
 20
8.8982346632
 30
0.0
 10
12.6691388404
 20
8.8983758974
 30
0.0
 10
12.6681304648
 20
8.898552442
 30
0.0
 10
12.667122089
 20
8.8987289853
 30
0.0
 10
12.6663153885
 20
8.8988702215
 30
0.0
 10
12.6657103629
 20
8.8989761449
 30
0.0
 10
12.6651053383
 20
8.8990820824
 30
0.0
 10
12.6646011479
 20
8.8991703196
 30
0.0
 10
12.6641978028
 20
8.8992410081
 30
0.0
 10
12.6639456956
 20
8.8992849637
 30
0.0
 10
12.6637440477
 20
8.8993206429
 30
0.0
 10
12.6635927082
 20
8.8993459927
 30
0.0
 10
12.6634669214
 20
8.8993716017
 30
0.0
 10
12.663365553
 20
8.8993820318
 30
0.0
 10
12.6632915459
 20
8.8994173352
 30
0.0
 10
12.6632098314
 20
8.8993477438
 30
0.0
 10
12.6631035711
 20
8.8992915964
 30
0.0
 10
12.662969822
 20
8.8992088407
 30
0.0
 10
12.6628097184
 20
8.8991149149
 30
0.0
 10
12.6625961089
 20
8.898987801
 30
0.0
 10
12.6623291442
 20
8.8988295522
 30
0.0
 10
12.6619019744
 20
8.8985759943
 30
0.0
 10
12.6613680212
 20
8.8982591705
 30
0.0
 10
12.6607272734
 20
8.8978789289
 30
0.0
 10
12.6600865267
 20
8.8974987015
 30
0.0
 10
12.6592321973
 20
8.8969917268
 30
0.0
 10
12.6581642858
 20
8.8963580095
 30
0.0
 10
12.6570963742
 20
8.8957242938
 30
0.0
 10
12.656242045
 20
8.8952173166
 30
0.0
 10
12.6556012978
 20
8.8948370966
 30
0.0
 10
12.6549605518
 20
8.8944568272
 30
0.0
 10
12.6544265931
 20
8.8941400901
 30
0.0
 10
12.6539994344
 20
8.8938863555
 30
0.0
 10
12.6536790427
 20
8.8936969967
 30
0.0
 10
12.6534121221
 20
8.8935362009
 30
0.0
 10
12.6532251353
 20
8.8934295249
 30
0.0
 10
12.653118508
 20
8.8933593845
 30
0.0
 10
12.6530379113
 20
8.8933326468
 30
0.0
 10
12.6529597083
 20
8.8932070301
 30
0.0
 10
12.6528546026
 20
8.8930740313
 30
0.0
 10
12.6526710568
 20
8.8928252139
 30
0.0
 10
12.6524086451
 20
8.8924781617
 30
0.0
 10
12.6520938381
 20
8.8920581031
 30
0.0
 10
12.651674065
 20
8.891499281
 30
0.0
 10
12.6511493591
 20
8.8908003224
 30
0.0
 10
12.6505197075
 20
8.8899617569
 30
0.0
 10
12.6498900572
 20
8.8891231419
 30
0.0
 10
12.6490505229
 20
8.8880050057
 30
0.0
 10
12.6480011052
 20
8.8866073314
 30
0.0
 10
12.6467418043
 20
8.8849301157
 30
0.0
 10
12.6456923854
 20
8.8835324631
 30
0.0
 10
12.6448528537
 20
8.8824142793
 30
0.0
 10
12.6443281386
 20
8.881715555
 30
0.0
 10
12.6439083844
 20
8.8811562536
 30
0.0
 10
12.6435935195
 20
8.880737659
 30
0.0
 10
12.6433312889
 20
8.8803860263
 30
0.0
 10
12.6431474198
 20
8.8801453859
 30
0.0
 10
12.6430428322
 20
8.8799992854
 30
0.0
 10
12.642963038
 20
8.8799139129
 30
0.0
 10
12.6428884174
 20
8.8797360249
 30
0.0
 10
12.6427871187
 20
8.8795311113
 30
0.0
 10
12.6426106867
 20
8.8791574771
 30
0.0
 10
12.6423582015
 20
8.8786315746
 30
0.0
 10
12.6420554074
 20
8.8779971269
 30
0.0
 10
12.6416516161
 20
8.877152372
 30
0.0
 10
12.6411468996
 20
8.8760960259
 30
0.0
 10
12.6403393405
 20
8.8744060971
 30
0.0
 10
12.6393298961
 20
8.8722936085
 30
0.0
 10
12.6381185606
 20
8.8697586574
 30
0.0
 10
12.6369072267
 20
8.8672236895
 30
0.0
 10
12.6358977785
 20
8.8651112428
 30
0.0
 10
12.6350902268
 20
8.8634212302
 30
0.0
 10
12.6345854916
 20
8.8623650971
 30
0.0
 10
12.6341817387
 20
8.8615199049
 30
0.0
 10
12.6338788274
 20
8.860886793
 30
0.0
 10
12.6336267089
 20
8.8603567115
 30
0.0
 10
12.6334496222
 20
8.8599905375
 30
0.0
 10
12.6333493725
 20
8.8597736707
 30
0.0
 10
12.6332715298
 20
8.859632499
 30
0.0
 10
12.6332038372
 20
8.8594092261
 30
0.0
 10
12.63311004
 20
8.8591401667
 30
0.0
 10
12.6329475444
 20
8.8586559698
 30
0.0
 10
12.6327145454
 20
8.8579712358
 30
0.0
 10
12.6324353158
 20
8.8571465692
 30
0.0
 10
12.6320628807
 20
8.8560480566
 30
0.0
 10
12.6315973809
 20
8.8546745587
 30
0.0
 10
12.6308525567
 20
8.8524771617
 30
0.0
 10
12.6299215349
 20
8.8497303466
 30
0.0
 10
12.6288043048
 20
8.8464341998
 30
0.0
 10
12.6276870769
 20
8.8431380378
 30
0.0
 10
12.6267560495
 20
8.8403912607
 30
0.0
 10
12.6260112364
 20
8.8381937875
 30
0.0
 10
12.6255457084
 20
8.8368204833
 30
0.0
 10
12.6251733313
 20
8.8357215732
 30
0.0
 10
12.6248939245
 20
8.8348981209
 30
0.0
 10
12.6246614798
 20
8.8342095874
 30
0.0
 10
12.6244979947
 20
8.8337321734
 30
0.0
 10
12.6244057829
 20
8.8334522462
 30
0.0
 10
12.6243332203
 20
8.8332623557
 30
0.0
 10
12.6242736686
 20
8.8329958051
 30
0.0
 10
12.6241897281
 20
8.8326671441
 30
0.0
 10
12.6240449466
 20
8.8320795289
 30
0.0
 10
12.6238370104
 20
8.831246592
 30
0.0
 10
12.6235879601
 20
8.8302442798
 30
0.0
 10
12.6232557278
 20
8.8289088374
 30
0.0
 10
12.6228404941
 20
8.8272392008
 30
0.0
 10
12.6221760883
 20
8.824567969
 30
0.0
 10
12.6213455932
 20
8.8212288626
 30
0.0
 10
12.6203489886
 20
8.8172219747
 30
0.0
 10
12.6193524063
 20
8.8132150343
 30
0.0
 10
12.6185218557
 20
8.8098760594
 30
0.0
 10
12.6178575608
 20
8.8072045646
 30
0.0
 10
12.617358942
 20
8.8052018027
 30
0.0
 10
12.6169446911
 20
8.8035301018
 30
0.0
 10
12.6166522335
 20
8.8023652738
 30
0.0
 10
12.6164889902
 20
8.8016912846
 30
0.0
 10
12.6163556408
 20
8.8012093802
 30
0.0
 10
12.6162640216
 20
8.800637312
 30
0.0
 10
12.6161273067
 20
8.7999060045
 30
0.0
 10
12.6158948374
 20
8.7986115633
 30
0.0
 10
12.6155591929
 20
8.7967700223
 30
0.0
 10
12.6151579371
 20
8.794556894
 30
0.0
 10
12.6146223991
 20
8.7916072019
 30
0.0
 10
12.6139531598
 20
8.7879196918
 30
0.0
 10
12.6131499885
 20
8.7834948575
 30
0.0
 10
12.6123468604
 20
8.7790699439
 30
0.0
 10
12.6116775133
 20
8.7753826319
 30
0.0
 10
12.6111421909
 20
8.7724325436
 30
0.0
 10
12.6107402773
 20
8.770220624
 30
0.0
 10
12.6104066909
 20
8.7683753016
 30
0.0
 10
12.6101705475
 20
8.7670876108
 30
0.0
 10
12.6100397194
 20
8.7663454874
 30
0.0
 10
12.6099300176
 20
8.7658066421
 30
0.0
 10
12.6098645835
 20
8.765199958
 30
0.0
 10
12.609761897
 20
8.7644147087
 30
0.0
 10
12.6095893898
 20
8.7630294975
 30
0.0
 10
12.6093391897
 20
8.7610563883
 30
0.0
 10
12.6090405596
 20
8.7586861901
 30
0.0
 10
12.6086418236
 20
8.7555267877
 30
0.0
 10
12.608143598
 20
8.7515772382
 30
0.0
 10
12.6075456378
 20
8.7468379096
 30
0.0
 10
12.6069477245
 20
8.7420985324
 30
0.0
 10
12.6064493817
 20
8.7381491042
 30
0.0
 10
12.60605088
 20
8.7349894592
 30
0.0
 10
12.6057515351
 20
8.732620001
 30
0.0
 10
12.6055035715
 20
8.7306445767
 30
0.0
 10
12.6053270719
 20
8.7292634984
 30
0.0
 10
12.6052307822
 20
8.7284716271
 30
0.0
 10
12.6051456989
 20
8.7278852835
 30
0.0
 10
12.6051097963
 20
8.7272700424
 30
0.0
 10
12.6050447714
 20
8.7264598007
 30
0.0
 10
12.6049389706
 20
8.7250371813
 30
0.0
 10
12.6047836479
 20
8.7230073232
 30
0.0
 10
12.6045990492
 20
8.7205704426
 30
0.0
 10
12.6043522934
 20
8.7173216354
 30
0.0
 10
12.6040440586
 20
8.713260501
 30
0.0
 10
12.6036741052
 20
8.7083871911
 30
0.0
 10
12.6033041026
 20
8.7035138767
 30
0.0
 10
12.6029959909
 20
8.6994527535
 30
0.0
 10
12.6027489889
 20
8.696203924
 30
0.0
 10
12.602565141
 20
8.6937671115
 30
0.0
 10
12.6024074694
 20
8.6917370402
 30
0.0
 10
12.6022913463
 20
8.6901116245
 30
0.0
 10
12.6021768906
 20
8.6888962752
 30
0.0
 10
12.6021668814
 20
8.6876667551
 30
0.0
 10
12.6021170512
 20
8.6860323449
 30
0.0
 10
12.6020672812
 20
8.6839876339
 30
0.0
 10
12.6020021992
 20
8.6815347077
 30
0.0
 10
12.6019172947
 20
8.6782638854
 30
0.0
 10
12.6018105232
 20
8.6741754445
 30
0.0
 10
12.6016400472
 20
8.6676338905
 30
0.0
 10
12.6014268283
 20
8.6594569647
 30
0.0
 10
12.6012562909
 20
8.652915419
 30
0.0
 10
12.6011710175
 20
8.6496446468
 30
0.0
  0
ELLIPSE
  5
365
100
AcDbEntity
  8
0
100
AcDbEllipse
 62
7
  6
CONTINUOUS
 10
10.8786570485
 20
8.5404575821
 30
0.0
 11
0.1272560978
 21
-0.044554499
 31
0.0
 40
0.8848236639
 41
0.0
 42
6.2831853072
  0
ELLIPSE
  5
366
100
AcDbEntity
  8
0
100
AcDbEllipse
 62
7
  6
CONTINUOUS
 10
10.5463785621
 20
8.1713353623
 30
0.0
 11
0.0302812122
 21
0.1362241578
 31
0.0
 40
0.8827395543
 41
0.0
 42
6.2831853072
  0
ENDSEC
  0
SECTION
  2
OBJECTS
  0
DICTIONARY
  5
C
100
AcDbDictionary
280
0
281
1
  3
ACAD_GROUP
350
D
  3
ACAD_MLINESTYLE
350
17
  3
ACAD_LAYOUT
350
1A
  3
ACAD_PLOTSETTINGS
350
19
  3
ACAD_PLOTSTYLENAME
350
E
  3
ACAD_IMAGE_DICT
350
       368
  3
ACAD_IMAGE_VARS
350
       369
  3
ACAD_TABLESTYLE
350
       36A
  0
IMAGEDEF_REACTOR
  5
367
100
AcDbRasterImageDefReactor
 90
2
330
283
  0
DICTIONARY
  5
D
102
{ACAD_REACTORS
330
C
102
}
100
AcDbDictionary
280
0
281
1
  0
ACDBDICTIONARYWDFLT
  5
E
102
{ACAD_REACTORS
330
C
102
}
100
AcDbDictionary
281
1
  3
Normal
350
F
100
AcDbDictionaryWithDefault
340
F
  0
DICTIONARY
  5
368
330
C
100
AcDbDictionary
281
1
  3
ZFS_assy_2_img_1
350
       36D
  0
RASTERVARIABLES
  5
369
330
C
100
AcDbRasterVariables
 90
0
 70
0
 71
1
 72
5
  0
DICTIONARY
  5
17
102
{ACAD_REACTORS
330
C
102
}
100
AcDbDictionary
280
0
281
1
  3
Standard
350
18
  0
DICTIONARY
  5
36A
330
C
100
AcDbDictionary
281
1
  3
Standard
350
       36E
  3
Standard1
350
       36F
  0
DICTIONARY
  5
19
102
{ACAD_REACTORS
330
C
102
}
100
AcDbDictionary
281
1
  0
DICTIONARY
  5
1A
102
{ACAD_REACTORS
330
C
102
}
100
AcDbDictionary
281
1
  3
Model
350
36B
  3
Layout1
350
36C
  0
ACDBPLACEHOLDER
  5
F
102
{ACAD_REACTORS
330
E
102
}
  0
MLINESTYLE
  5
18
102
{ACAD_REACTORS
330
17
102
}
100
AcDbMlineStyle
  2
STANDARD
 70
0
  3

 62
256
 51
90.0
 52
90.0
 71
2
 49
0.5
 62
256
  6
BYLAYER
 49
-0.5
 62
256
  6
BYLAYER
  0
LAYOUT
  5
36B
102
{ACAD_REACTORS
330
1A
102
}
100
AcDbPlotSettings
  1

  2
none_device
  4
ANSI_C_(22.00_x_17.00_Inches)
  6

 40
0.0
 41
0.0
 42
0.0
 43
0.0
 44
558.8
 45
431.8
 46
0.0
 47
0.0
 48
0.0
 49
0.0
140
0.0
141
0.0
142
1.0
143
1.0
 70
1024
 72
0
 73
0
 74
0
  7

 75
0
147
1.0
148
0.0
149
0.0
100
AcDbLayout
  1
Model
 70
0
 71
0
 10
0.0
 20
0.0
 11
22.0
 21
17.0
 12
0.0
 22
0.0
 32
0.0
 14
0.0
 24
0.0
 34
0.0
 15
0.0
 25
0.0
 35
0.0
146
0.0
 13
0.0
 23
0.0
 33
0.0
 16
1.0
 26
0.0
 36
0.0
 17
0.0
 27
1.0
 37
0.0
 76
0
330
204
345
0
346
0
  0
LAYOUT
  5
36C
102
{ACAD_REACTORS
330
1A
102
}
100
AcDbPlotSettings
  1

  2
none_device
  4
ANSI_C_(22.00_x_17.00_Inches)
  6

 40
0.0
 41
0.0
 42
0.0
 43
0.0
 44
558.8
 45
431.8
 46
0.0
 47
0.0
 48
0.0
 49
0.0
140
0.0
141
0.0
142
1.0
143
1.0
 70
0
 72
0
 73
0
 74
0
  7

 75
0
147
1.0
148
0.0
149
0.0
100
AcDbLayout
  1
Layout1
 70
0
 71
1
 10
0.0
 20
0.0
 11
22.0
 21
17.0
 12
0.0
 22
0.0
 32
0.0
 14
0.0
 24
0.0
 34
0.0
 15
0.0
 25
0.0
 35
0.0
146
0.0
 13
0.0
 23
0.0
 33
0.0
 16
1.0
 26
0.0
 36
0.0
 17
0.0
 27
1.0
 37
0.0
 76
0
330
205
345
0
346
0
  0
IMAGEDEF
  5
36D
102
{ACAD_REACTORS
330
368
330
367
102
}
100
AcDbRasterImageDef
 90
0
  1
ZFS_assy_2_img_1.png
 10
369.0
 20
92.0
 11
0.0066666667
 21
0.0066666667
280
1
281
0
  0
TABLESTYLE
  5
36E
102
{ACAD_REACTORS
330
36A
330
286
330
287
102
}
330
36A
100
AcDbTableStyle
  3
Standard
 70
0
 71
0
 40
0.06
 41
0.06
280
1
281
1
  7
Standard
140
0.18
170
1
 62
0
 63
7
283
0
  7
Standard
140
0.18
170
1
 62
0
 63
7
283
0
  7
Standard
140
0.18
170
1
 62
0
 63
7
283
0
  0
TABLESTYLE
  5
36F
102
{ACAD_REACTORS
330
36A
330
285
102
}
330
36A
100
AcDbTableStyle
  3
Standard1
 70
1
 71
0
 40
0.06
 41
0.06
280
1
281
1
  7
Standard
140
0.18
170
1
 62
0
 63
7
283
0
  7
Standard
140
0.18
170
1
 62
0
 63
7
283
0
  7
Standard
140
0.18
170
1
 62
0
 63
7
283
0
  0
ENDSEC
  0
EOF
