999
DXF file: ZFR_assy_2.dxf
999
Pro/ENGINEER 2014200 by Parametric Technology Corporation
  0
SECTION
  2
HEADER
  9
$ACADVER
  1
AC1021
  9
$DWGCODEPAGE
  3
ANSI_1252
  9
$EXTMAX
 10
22.0
 20
17.0
 30
0.0
  9
$EXTMIN
 10
0.0
 20
0.0
 30
0.0
  9
$LIMMIN
 10
0.0
 20
0.0
  9
$LIMMAX
 10
22.0
 20
17.0
  9
$VIEWCTR
 10
11.0
 20
8.5
  9
$VIEWSIZE
 40
17.0
  9
$CLAYER
  8
0
  9
$LTSCALE
 40
1.21
  9
$CELTYPE
  6
BYLAYER
  9
$DIMSCALE
 40
1.0
  9
$DIMASZ
 40
0.1875
  9
$DIMEXO
 40
0.0625
  9
$DIMDLI
 40
0.836
  9
$DIMEXE
 40
0.125
  9
$DIMCEN
 40
0.198
  9
$DIMLFAC
 40
1.0
  9
$DIMBLK
  1
_FILLED
  9
$DIMTXT
 40
0.1
  9
$DIMTOL
 70
0
  9
$DIMLIM
 70
0
  9
$DIMTFAC
 40
1.0
  9
$DIMGAP
 40
0.09
  9
$DIMDSEP
 70
46
  9
$AUNITS
 70
0
  9
$PDMODE
 70
3
  9
$PDSIZE
 40
0.3125
  9
$HANDSEED
  5
31D
  9
$TILEMODE
 70
1
  9
$MEASUREMENT
 70
0
  9
$INSUNITS
 70
1
  0
ENDSEC
  0
SECTION
  2
CLASSES
  0
CLASS
  1
ACDBDICTIONARYWDFLT
  2
AcDbDictionaryWithDefault
  3
AutoCAD 2000
 90
0
 91
1
280
0
281
0
  0
CLASS
  1
ACDBPLACEHOLDER
  2
AcDbPlaceHolder
  3
AutoCAD 2000
 90
0
 91
1
280
0
281
0
  0
CLASS
  1
LAYOUT
  2
AcDbLayout
  3
AutoCAD 2000
 90
0
 91
0
280
0
281
0
  0
CLASS
  1
RASTERVARIABLES
  2
AcDbRasterVariables
  3
ISM
 90
0
 91
1
280
0
281
0
  0
CLASS
  1
IMAGEDEF
  2
AcDbRasterImageDef
  3
ISM
 90
0
 91
1
280
0
281
0
  0
CLASS
  1
IMAGEDEF_REACTOR
  2
AcDbRasterImageDefReactor
  3
ISM
 90
0
 91
1
280
0
281
0
  0
CLASS
  1
IMAGE
  2
AcDbRasterImage
  3
ISM
 90
127
 91
1
280
0
281
1
  0
CLASS
  1
TABLESTYLE
  2
AcDbTableStyle
  3
ObjectDBX Classes
 90
2047
 91
1
280
0
281
0
  0
CLASS
  1
ACAD_TABLE
  2
AcDbTable
  3
ObjectDBX Classes
 90
1025
 91
3
280
0
281
1
  0
ENDSEC
  0
SECTION
  2
TABLES
  0
TABLE
  2
VPORT
  5
8
100
AcDbSymbolTable
 70
2
  0
VPORT
  5
1F4
100
AcDbSymbolTableRecord
100
AcDbViewportTableRecord
  2
*ACTIVE
 70
0
 10
0.0
 20
0.0
 11
1.0
 21
1.0
 12
11.0
 22
8.5
 13
0.0
 23
0.0
 14
1.0
 24
1.0
 15
0.0
 25
0.0
 16
0.0
 26
0.0
 36
1.0
 17
0.0
 27
0.0
 37
0.0
 40
17.0
 41
1.2941176471
 42
50.0
 43
0.0
 44
0.0
 50
0.0
 51
0.0
 71
0
 72
100
 73
1
 74
1
 75
0
 76
0
 77
0
 78
0
  0
ENDTAB
  0
TABLE
  2
LTYPE
  5
5
100
AcDbSymbolTable
 70
6
  0
LTYPE
  5
14
100
AcDbSymbolTableRecord
100
AcDbLinetypeTableRecord
  2
BYBLOCK
 70
0
  3

 72
65
 73
0
 40
0.0
  0
LTYPE
  5
15
100
AcDbSymbolTableRecord
100
AcDbLinetypeTableRecord
  2
BYLAYER
 70
0
  3

 72
65
 73
0
 40
0.0
  0
LTYPE
  5
16
100
AcDbSymbolTableRecord
100
AcDbLinetypeTableRecord
  2
CONTINUOUS
 70
64
  3
Solid line
 72
65
 73
0
 40
0.0
  0
LTYPE
  5
1F5
100
AcDbSymbolTableRecord
100
AcDbLinetypeTableRecord
  2
CENTER
 70
64
  3
____ _ ____ _ ____ _ ____ _ ____ _ ____ _ ____
 72
65
 73
4
 40
0.6
 49
0.375
 74
0
 49
-0.075
 74
0
 49
0.075
 74
0
 49
-0.075
 74
0
  0
LTYPE
  5
1F6
100
AcDbSymbolTableRecord
100
AcDbLinetypeTableRecord
  2
HIDDEN
 70
64
  3
- - - - - - - - - - - - - - - - - - - -
 72
65
 73
2
 40
0.2
 49
0.1
 74
0
 49
-0.1
 74
0
  0
LTYPE
  5
1F7
100
AcDbSymbolTableRecord
100
AcDbLinetypeTableRecord
  2
PHANTOM
 70
64
  3
_____ _ _ _____ _ _ _____ _ _ _____
 72
65
 73
6
 40
0.8
 49
0.45
 74
0
 49
-0.05
 74
0
 49
0.1
 74
0
 49
-0.05
 74
0
 49
0.1
 74
0
 49
-0.05
 74
0
  0
LTYPE
  5
1F8
100
AcDbSymbolTableRecord
100
AcDbLinetypeTableRecord
  2
DOT
 70
64
  3
. . . . . . . . . . . . . . . . . . . .
 72
65
 73
2
 40
0.2
 49
0.1
 74
0
 49
-0.1
 74
0
  0
LTYPE
  5
1F9
100
AcDbSymbolTableRecord
100
AcDbLinetypeTableRecord
  2
DASHED
 70
64
  3
- - - - - - - - - - - - - - - - - - - -
 72
65
 73
2
 40
0.2
 49
0.1
 74
0
 49
-0.1
 74
0
  0
ENDTAB
  0
TABLE
  2
LAYER
  5
2
100
AcDbSymbolTable
 70
36
  0
LAYER
  5
10
100
AcDbSymbolTableRecord
100
AcDbLayerTableRecord
  2
0
 70
0
 62
7
  6
CONTINUOUS
370
-3
390
F
  0
LAYER
  5
1FA
100
AcDbSymbolTableRecord
100
AcDbLayerTableRecord
  2
DEFAULT_1
 70
0
 62
7
  6
CENTER
370
-3
390
F
  0
LAYER
  5
1FB
100
AcDbSymbolTableRecord
100
AcDbLayerTableRecord
  2
DEFAULT_2
 70
0
 62
8
  6
HIDDEN
370
-3
390
F
  0
LAYER
  5
1FC
100
AcDbSymbolTableRecord
100
AcDbLayerTableRecord
  2
DEFAULT_3
 70
0
 62
7
  6
PHANTOM
370
-3
390
F
  0
LAYER
  5
1FD
100
AcDbSymbolTableRecord
100
AcDbLayerTableRecord
  2
DATUM_PLANES
 70
0
 62
7
  6
CONTINUOUS
370
-3
390
F
  0
LAYER
  5
1FE
100
AcDbSymbolTableRecord
100
AcDbLayerTableRecord
  2
PORT_AREAS
 70
0
 62
7
  6
CONTINUOUS
370
-3
390
F
  0
LAYER
  5
1FF
100
AcDbSymbolTableRecord
100
AcDbLayerTableRecord
  2
SUNNBOMCOSMETIC
 70
0
 62
7
  6
CONTINUOUS
370
-3
390
F
  0
LAYER
  5
200
100
AcDbSymbolTableRecord
100
AcDbLayerTableRecord
  2
SUNNBOMSTAMPING
 70
0
 62
7
  6
CONTINUOUS
370
-3
390
F
  0
LAYER
  5
201
100
AcDbSymbolTableRecord
100
AcDbLayerTableRecord
  2
THREADS
 70
0
 62
7
  6
CONTINUOUS
370
-3
390
F
  0
ENDTAB
  0
TABLE
  2
STYLE
  5
3
100
AcDbSymbolTable
 70
1
  0
STYLE
  5
11
100
AcDbSymbolTableRecord
100
AcDbTextStyleTableRecord
  2
STANDARD
 70
0
 40
0.0
 41
0.8
 50
0.0
 71
0
 42
0.2
  3
txt
  4

  0
STYLE
  5
202
100
AcDbSymbolTableRecord
100
AcDbTextStyleTableRecord
  2
TEXTSTYLE_1
 70
0
 40
0.0
 41
0.8
 50
0.0
 71
0
 42
0.2
  3
gdt
  4

  0
ENDTAB
  0
TABLE
  2
VIEW
  5
6
100
AcDbSymbolTable
 70
0
  0
ENDTAB
  0
TABLE
  2
UCS
  5
7
100
AcDbSymbolTable
 70
0
  0
ENDTAB
  0
TABLE
  2
APPID
  5
9
100
AcDbSymbolTable
 70
1
  0
APPID
  5
203
100
AcDbSymbolTableRecord
100
AcDbRegAppTableRecord
  2
ACAD
 70
0
  0
ENDTAB
  0
TABLE
  2
BLOCK_RECORD
  5
1
100
AcDbSymbolTable
 70
0
  0
BLOCK_RECORD
  5
204
100
AcDbSymbolTableRecord
100
AcDbBlockTableRecord
  2
*Model_Space
  0
BLOCK_RECORD
  5
205
100
AcDbSymbolTableRecord
100
AcDbBlockTableRecord
  2
*Paper_Space
  0
BLOCK_RECORD
  5
206
100
AcDbSymbolTableRecord
100
AcDbBlockTableRecord
  2
SUN_FIRST_THIRD_ANGLE_BL0
  0
BLOCK_RECORD
  5
207
100
AcDbSymbolTableRecord
100
AcDbBlockTableRecord
  2
*T1
  0
BLOCK_RECORD
  5
208
100
AcDbSymbolTableRecord
100
AcDbBlockTableRecord
  2
*T2
  0
BLOCK_RECORD
  5
209
100
AcDbSymbolTableRecord
100
AcDbBlockTableRecord
  2
*T3
  0
ENDTAB
  0
TABLE
  2
DIMSTYLE
  5
A
100
AcDbSymbolTable
 70
1
100
AcDbDimStyleTable
 71
0
  0
DIMSTYLE
105
20A
100
AcDbSymbolTableRecord
100
AcDbDimStyleTableRecord
  2
STANDARD
 70
0
  3

  4

 40
1.0
 41
0.1875
 42
0.0625
 43
0.38
 44
0.125
 45
0.0
 46
0.0
 47
0.001
 48
0.001
140
0.1
141
0.09
142
0.0
143
25.4
144
1.0
145
0.0
146
1.0
147
0.09
 71
0.0
 72
0.0
 73
1
 74
1
 75
0
 76
0
 77
0
 78
4
170
0
171
2
172
0
173
0
174
0
175
0
176
0
177
0
178
0
270
2
271
3
272
3
273
2
274
2
275
0
280
0
281
0
282
0
283
1
284
4
285
0
286
0
287
3
288
0
340
11
278
46
  0
ENDTAB
  0
ENDSEC
  0
SECTION
  2
BLOCKS
  0
BLOCK
  5
20
100
AcDbEntity
  8
0
100
AcDbBlockBegin
  2
*Model_Space
 70
0
 10
0.0
 20
0.0
 30
0.0
  3
*Model_Space
  1

  0
ENDBLK
  5
21
100
AcDbEntity
  8
0
100
AcDbBlockEnd
  0
BLOCK
  5
1C
100
AcDbEntity
  8
0
100
AcDbBlockBegin
  2
*Paper_Space
 70
0
 10
0.0
 20
0.0
 30
0.0
  3
*Paper_Space
  1

  0
ENDBLK
  5
1D
100
AcDbEntity
  8
0
100
AcDbBlockEnd
  0
BLOCK
  5
20B
100
AcDbEntity
  8
0
100
AcDbBlockBegin
 62
2
  6
CONTINUOUS
  2
SUN_FIRST_THIRD_ANGLE_BL0
 70
64
 10
20.4816717061
 20
1.2289683772
  3
SUN_FIRST_THIRD_ANGLE_BL0
  1

  0
TEXT
  5
20C
100
AcDbEntity
  8
0
100
AcDbText
 62
2
  6
CONTINUOUS
 10
19.4750896608
 20
1.4136269581
  7
STANDARD
 40
0.08
  1
FIRST ANGLE
 41
0.8
 72
0
100
AcDbText
  0
TEXT
  5
20D
100
AcDbEntity
  8
0
100
AcDbText
 62
2
  6
CONTINUOUS
 10
20.7842537513
 20
1.4047600029
  7
STANDARD
 40
0.08
  1
THIRD ANGLE
 41
0.8
 72
0
100
AcDbText
  0
LINE
  5
20E
100
AcDbEntity
  8
0
100
AcDbLine
 62
7
  6
CONTINUOUS
 10
19.4767170086
 20
1.1727031207
 11
19.6334271527
 21
1.1717972817
  0
LINE
  5
20F
100
AcDbEntity
  8
0
100
AcDbLine
 62
7
  6
CONTINUOUS
 10
19.6596964832
 20
1.1717972817
 11
19.6950230232
 21
1.171593082
  0
LINE
  5
210
100
AcDbEntity
  8
0
100
AcDbLine
 62
7
  6
CONTINUOUS
 10
19.7194818561
 20
1.1708914427
 11
19.8852396156
 21
1.1699333054
  0
LINE
  5
211
100
AcDbEntity
  8
0
100
AcDbLine
 62
7
  6
CONTINUOUS
 10
19.4758111696
 20
1.2723454088
 11
19.88525039
 21
1.3511534004
  0
LINE
  5
212
100
AcDbEntity
  8
0
100
AcDbLine
 62
7
  6
CONTINUOUS
 10
19.88525039
 20
1.3511534004
 11
19.8831348489
 21
0.9851647912
  0
LINE
  5
213
100
AcDbEntity
  8
0
100
AcDbLine
 62
7
  6
CONTINUOUS
 10
19.8831348489
 20
0.9851647912
 11
19.4767170086
 21
1.0658141206
  0
LINE
  5
214
100
AcDbEntity
  8
0
100
AcDbLine
 62
7
  6
CONTINUOUS
 10
19.4767170086
 20
1.0658141206
 11
19.4779056764
 21
1.2714536432
  0
CIRCLE
  5
215
100
AcDbEntity
  8
0
100
AcDbCircle
 62
7
  6
CONTINUOUS
 10
20.2068232291
 20
1.1717972817
 40
0.175742101
  0
CIRCLE
  5
216
100
AcDbEntity
  8
0
100
AcDbCircle
 62
7
  6
CONTINUOUS
 10
20.2068232291
 20
1.1717972817
 40
0.1005522074
  0
LINE
  5
217
100
AcDbEntity
  8
0
100
AcDbLine
 62
7
  6
CONTINUOUS
 10
20.2077290681
 20
1.3756110529
 11
20.2071171714
 21
1.2379342989
  0
LINE
  5
218
100
AcDbEntity
  8
0
100
AcDbLine
 62
7
  6
CONTINUOUS
 10
20.2077290681
 20
1.2016899681
 11
20.2074674401
 21
1.1428236749
  0
LINE
  5
219
100
AcDbEntity
  8
0
100
AcDbLine
 62
7
  6
CONTINUOUS
 10
20.208634907
 20
1.101141841
 11
20.2080230104
 21
0.963465087
  0
LINE
  5
21A
100
AcDbEntity
  8
0
100
AcDbLine
 62
7
  6
CONTINUOUS
 10
20.0066328138
 20
1.1745147986
 11
20.1443095678
 21
1.1739029019
  0
LINE
  5
21B
100
AcDbEntity
  8
0
100
AcDbLine
 62
7
  6
CONTINUOUS
 10
20.1832714155
 20
1.1727031207
 11
20.238153505
 21
1.172335442
  0
LINE
  5
21C
100
AcDbEntity
  8
0
100
AcDbLine
 62
7
  6
CONTINUOUS
 10
20.2756669918
 20
1.1717972817
 11
20.407916871
 21
1.1712095044
  0
CIRCLE
  5
21D
100
AcDbEntity
  8
0
100
AcDbCircle
 62
7
  6
CONTINUOUS
 10
20.7509457401
 20
1.1693297793
 40
0.1722024983
  0
CIRCLE
  5
21E
100
AcDbEntity
  8
0
100
AcDbCircle
 62
7
  6
CONTINUOUS
 10
20.7509457401
 20
1.1693297793
 40
0.0985164967
  0
LINE
  5
21F
100
AcDbEntity
  8
0
100
AcDbLine
 62
7
  6
CONTINUOUS
 10
20.7169767782
 20
1.170462078
 11
20.7825395137
 21
1.1682766535
  0
LINE
  5
220
100
AcDbEntity
  8
0
100
AcDbLine
 62
7
  6
CONTINUOUS
 10
20.8177513651
 20
1.1693297793
 11
20.947965719
 21
1.1693297793
  0
LINE
  5
221
100
AcDbEntity
  8
0
100
AcDbLine
 62
7
  6
CONTINUOUS
 10
20.6875370113
 20
1.170462078
 11
20.5573226574
 21
1.170462078
  0
LINE
  5
222
100
AcDbEntity
  8
0
100
AcDbLine
 62
7
  6
CONTINUOUS
 10
20.7486811426
 20
1.1987695462
 11
20.7486811426
 21
1.1432869085
  0
LINE
  5
223
100
AcDbEntity
  8
0
100
AcDbLine
 62
7
  6
CONTINUOUS
 10
20.7498134414
 20
1.1059210505
 11
20.7498134414
 21
0.9757066966
  0
LINE
  5
224
100
AcDbEntity
  8
0
100
AcDbLine
 62
7
  6
CONTINUOUS
 10
20.7486811426
 20
1.2338708068
 11
20.7486811426
 21
1.3640851607
  0
LINE
  5
225
100
AcDbEntity
  8
0
100
AcDbLine
 62
7
  6
CONTINUOUS
 10
21.0702539817
 20
1.2701043662
 11
21.4790138229
 21
1.3448360823
  0
LINE
  5
226
100
AcDbEntity
  8
0
100
AcDbLine
 62
7
  6
CONTINUOUS
 10
21.4790138229
 20
1.3448360823
 11
21.4790138229
 21
0.9779712941
  0
LINE
  5
227
100
AcDbEntity
  8
0
100
AcDbLine
 62
7
  6
CONTINUOUS
 10
21.4790138229
 20
0.9779712941
 11
21.069121683
 21
1.0617614
  0
LINE
  5
228
100
AcDbEntity
  8
0
100
AcDbLine
 62
7
  6
CONTINUOUS
 10
21.0702539817
 20
1.2701043662
 11
21.069121683
 21
1.0617614
  0
LINE
  5
229
100
AcDbEntity
  8
0
100
AcDbLine
 62
7
  6
CONTINUOUS
 10
21.4790138229
 20
1.1693297793
 11
21.3159628059
 21
1.1693297793
  0
LINE
  5
22A
100
AcDbEntity
  8
0
100
AcDbLine
 62
7
  6
CONTINUOUS
 10
21.2876553377
 20
1.1693297793
 11
21.2502894796
 21
1.1693297793
  0
LINE
  5
22B
100
AcDbEntity
  8
0
100
AcDbLine
 62
7
  6
CONTINUOUS
 10
21.2208497126
 20
1.1659328831
 11
21.0713862804
 21
1.1659328831
  0
LINE
  5
22C
100
AcDbEntity
  8
0
100
AcDbLine
 62
7
  6
CONTINUOUS
 10
20.4796138713
 20
1.5284908897
 11
20.4766766948
 21
0.9294458646
  0
ENDBLK
  5
22D
100
AcDbEntity
  8
0
  6
BYBLOCK
 62
0
100
AcDbBlockEnd
  0
BLOCK
  5
22E
100
AcDbEntity
  8
0
100
AcDbBlockBegin
  2
*T1
 70
1
 10
0.0
 20
0.0
  3
*T1
  1

  0
LINE
  5
22F
100
AcDbEntity
  8
0
100
AcDbLine
 62
2
  6
CONTINUOUS
 10
9.275
 20
0.0
 11
-0.0
 21
0.0
  0
LINE
  5
230
100
AcDbEntity
  8
0
100
AcDbLine
 62
2
  6
CONTINUOUS
 10
9.275
 20
0.0
 11
9.275
 21
1.25
  0
LINE
  5
231
100
AcDbEntity
  8
0
100
AcDbLine
 62
2
  6
CONTINUOUS
 10
9.275
 20
0.625
 11
-0.0
 21
0.625
  0
LINE
  5
232
100
AcDbEntity
  8
0
100
AcDbLine
 62
2
  6
CONTINUOUS
 10
9.275
 20
1.25
 11
-0.0
 21
1.25
  0
LINE
  5
233
100
AcDbEntity
  8
0
100
AcDbLine
 62
2
  6
CONTINUOUS
 10
6.8
 20
0.0
 11
6.8
 21
1.25
  0
LINE
  5
234
100
AcDbEntity
  8
0
100
AcDbLine
 62
2
  6
CONTINUOUS
 10
6.4
 20
0.0
 11
6.4
 21
0.625
  0
LINE
  5
235
100
AcDbEntity
  8
0
100
AcDbLine
 62
2
  6
CONTINUOUS
 10
5.9
 20
0.0
 11
5.9
 21
0.625
  0
LINE
  5
236
100
AcDbEntity
  8
0
100
AcDbLine
 62
2
  6
CONTINUOUS
 10
5.2
 20
0.0
 11
5.2
 21
0.625
  0
LINE
  5
237
100
AcDbEntity
  8
0
100
AcDbLine
 62
2
  6
CONTINUOUS
 10
4.1
 20
0.0
 11
4.1
 21
1.25
  0
LINE
  5
238
100
AcDbEntity
  8
0
100
AcDbLine
 62
2
  6
CONTINUOUS
 10
-0.0
 20
0.0
 11
-0.0
 21
1.25
  0
MTEXT
  5
239
100
AcDbEntity
  8
0
100
AcDbMText
 62
2
  6
CONTINUOUS
  7
STANDARD
 71
2
 72
1
 10
6.6
 20
0.325
 30
0.0
 11
1.0
 21
0.0
 31
0.0
 44
0.9
  1
2
 40
0.125
 41
0.2
  0
MTEXT
  5
23A
100
AcDbEntity
  8
0
100
AcDbMText
 62
2
  6
CONTINUOUS
  7
STANDARD
 71
2
 72
1
 10
6.15
 20
0.325
 30
0.0
 11
1.0
 21
0.0
 31
0.0
 44
0.9
  1
C
 40
0.125
 41
0.2
  0
MTEXT
  5
23B
100
AcDbEntity
  8
0
100
AcDbMText
 62
2
  6
CONTINUOUS
  7
STANDARD
 71
2
 72
1
 10
5.55
 20
0.325
 30
0.0
 11
1.0
 21
0.0
 31
0.0
 44
0.9
  1
2.000
 40
0.125
 41
1.0
  0
MTEXT
  5
23C
100
AcDbEntity
  8
0
100
AcDbMText
 62
2
  6
CONTINUOUS
  7
STANDARD
 71
2
 72
1
 10
4.65
 20
0.325
 30
0.0
 11
1.0
 21
0.0
 31
0.0
 44
0.9
  1
Sep-12-23
 40
0.125
 41
1.8
  0
MTEXT
  5
23D
100
AcDbEntity
  8
0
100
AcDbMText
 62
2
  6
CONTINUOUS
  7
STANDARD
 71
2
 72
1
 10
2.05
 20
0.4625
 30
0.0
 11
1.0
 21
0.0
 31
0.0
 44
0.9
  1
T-10A Line mount\PNinety degree
 40
0.125
 41
3.2
  0
MTEXT
  5
23E
100
AcDbEntity
  8
0
100
AcDbMText
 62
2
  6
CONTINUOUS
  7
STANDARD
 71
1
 72
1
 10
6.45
 20
0.5625
 30
0.0
 11
1.0
 21
0.0
 31
0.0
 44
0.9
  1
SHEET
 40
0.06
 41
0.48
  0
MTEXT
  5
23F
100
AcDbEntity
  8
0
100
AcDbMText
 62
2
  6
CONTINUOUS
  7
STANDARD
 71
1
 72
1
 10
5.95
 20
0.5625
 30
0.0
 11
1.0
 21
0.0
 31
0.0
 44
0.9
  1
DWG SIZE
 40
0.06
 41
0.768
  0
MTEXT
  5
240
100
AcDbEntity
  8
0
100
AcDbMText
 62
2
  6
CONTINUOUS
  7
STANDARD
 71
1
 72
1
 10
5.25
 20
0.5625
 30
0.0
 11
1.0
 21
0.0
 31
0.0
 44
0.9
  1
SCALE
 40
0.06
 41
0.48
  0
MTEXT
  5
241
100
AcDbEntity
  8
0
100
AcDbMText
 62
2
  6
CONTINUOUS
  7
STANDARD
 71
1
 72
1
 10
4.15
 20
0.5625
 30
0.0
 11
1.0
 21
0.0
 31
0.0
 44
0.9
  1
DATE
 40
0.06
 41
0.384
  0
MTEXT
  5
242
100
AcDbEntity
  8
0
100
AcDbMText
 62
2
  6
CONTINUOUS
  7
STANDARD
 71
1
 72
1
 10
0.05
 20
0.5625
 30
0.0
 11
1.0
 21
0.0
 31
0.0
 44
0.9
  1
DESCRIPTION
 40
0.06
 41
1.056
  0
MTEXT
  5
243
100
AcDbEntity
  8
0
100
AcDbMText
 62
2
  6
CONTINUOUS
  7
STANDARD
 71
2
 72
1
 10
5.45
 20
1.0375
 30
0.0
 11
1.0
 21
0.0
 31
0.0
 44
0.9
  1
ALL DIMENSIONS IN INCH\PVIEWS ARE THIRD ANGLE
 40
0.12
 41
4.224
  0
MTEXT
  5
244
100
AcDbEntity
  8
0
100
AcDbMText
 62
2
  6
CONTINUOUS
  7
STANDARD
 71
2
 72
1
 10
2.05
 20
0.95
 30
0.0
 11
1.0
 21
0.0
 31
0.0
 44
0.9
  1
ZFR
 40
0.125
 41
0.6
  0
MTEXT
  5
245
100
AcDbEntity
  8
0
100
AcDbMText
 62
2
  6
CONTINUOUS
  7
STANDARD
 71
1
 72
1
 10
0.05
 20
1.1875
 30
0.0
 11
1.0
 21
0.0
 31
0.0
 44
0.9
  1
MODEL
 40
0.06
 41
0.48
  0
ENDBLK
  5
246
100
AcDbEntity
  8
0
  6
BYBLOCK
 62
0
100
AcDbBlockEnd
  0
BLOCK
  5
247
100
AcDbEntity
  8
0
100
AcDbBlockBegin
  2
*T2
 70
1
 10
0.0
 20
0.0
  3
*T2
  1

  0
LINE
  5
248
100
AcDbEntity
  8
0
100
AcDbLine
 62
2
  6
CONTINUOUS
 10
0.0
 20
0.0
 11
9.055
 21
0.0
  0
LINE
  5
249
100
AcDbEntity
  8
0
100
AcDbLine
 62
2
  6
CONTINUOUS
 10
0.0
 20
0.0
 11
0.0
 21
-2.594
  0
LINE
  5
24A
100
AcDbEntity
  8
0
100
AcDbLine
 62
2
  6
CONTINUOUS
 10
0.0
 20
-0.344
 11
9.055
 21
-0.344
  0
LINE
  5
24B
100
AcDbEntity
  8
0
100
AcDbLine
 62
2
  6
CONTINUOUS
 10
0.0
 20
-0.594
 11
9.055
 21
-0.594
  0
LINE
  5
24C
100
AcDbEntity
  8
0
100
AcDbLine
 62
2
  6
CONTINUOUS
 10
0.0
 20
-0.844
 11
9.055
 21
-0.844
  0
LINE
  5
24D
100
AcDbEntity
  8
0
100
AcDbLine
 62
2
  6
CONTINUOUS
 10
0.0
 20
-1.094
 11
9.055
 21
-1.094
  0
LINE
  5
24E
100
AcDbEntity
  8
0
100
AcDbLine
 62
2
  6
CONTINUOUS
 10
0.0
 20
-1.344
 11
9.055
 21
-1.344
  0
LINE
  5
24F
100
AcDbEntity
  8
0
100
AcDbLine
 62
2
  6
CONTINUOUS
 10
0.0
 20
-1.594
 11
9.055
 21
-1.594
  0
LINE
  5
250
100
AcDbEntity
  8
0
100
AcDbLine
 62
2
  6
CONTINUOUS
 10
0.0
 20
-1.844
 11
9.055
 21
-1.844
  0
LINE
  5
251
100
AcDbEntity
  8
0
100
AcDbLine
 62
2
  6
CONTINUOUS
 10
0.0
 20
-2.094
 11
9.055
 21
-2.094
  0
LINE
  5
252
100
AcDbEntity
  8
0
100
AcDbLine
 62
2
  6
CONTINUOUS
 10
0.0
 20
-2.344
 11
9.055
 21
-2.344
  0
LINE
  5
253
100
AcDbEntity
  8
0
100
AcDbLine
 62
2
  6
CONTINUOUS
 10
0.0
 20
-2.594
 11
9.055
 21
-2.594
  0
LINE
  5
254
100
AcDbEntity
  8
0
100
AcDbLine
 62
2
  6
CONTINUOUS
 10
3.055
 20
0.0
 11
3.055
 21
-2.594
  0
LINE
  5
255
100
AcDbEntity
  8
0
100
AcDbLine
 62
2
  6
CONTINUOUS
 10
9.055
 20
0.0
 11
9.055
 21
-2.594
  0
MTEXT
  5
256
100
AcDbEntity
  8
0
100
AcDbMText
 62
2
  6
CONTINUOUS
  7
STANDARD
 71
2
 72
1
 10
1.5275
 20
-0.0995
 30
0.0
 11
1.0
 21
0.0
 31
0.0
 44
0.9
  1
Technical Data
 40
0.145
 41
3.248
  0
MTEXT
  5
257
100
AcDbEntity
  8
0
100
AcDbMText
 62
2
  6
CONTINUOUS
  7
STANDARD
 71
2
 72
1
 10
4.555
 20
-0.0995
 30
0.0
 11
1.0
 21
0.0
 31
0.0
 44
0.9
  1
U.S. Units
 40
0.145
 41
2.32
  0
MTEXT
  5
258
100
AcDbEntity
  8
0
100
AcDbMText
 62
2
  6
CONTINUOUS
  7
STANDARD
 71
2
 72
1
 10
7.555
 20
-0.0995
 30
0.0
 11
1.0
 21
0.0
 31
0.0
 44
0.9
  1
Metric Units
 40
0.145
 41
2.784
  0
MTEXT
  5
259
100
AcDbEntity
  8
0
100
AcDbMText
 62
2
  6
CONTINUOUS
  7
STANDARD
 71
2
 72
1
 10
1.5275
 20
-0.4065
 30
0.0
 11
1.0
 21
0.0
 31
0.0
 44
0.9
  1
Cavity
 40
0.125
 41
1.2
  0
MTEXT
  5
25A
100
AcDbEntity
  8
0
100
AcDbMText
 62
2
  6
CONTINUOUS
  7
STANDARD
 71
2
 72
1
 10
6.055
 20
-0.4065
 30
0.0
 11
1.0
 21
0.0
 31
0.0
 44
0.9
  1
T-10A
 40
0.125
 41
1.0
  0
MTEXT
  5
25B
100
AcDbEntity
  8
0
100
AcDbMText
 62
2
  6
CONTINUOUS
  7
STANDARD
 71
2
 72
1
 10
1.5275
 20
-0.6565
 30
0.0
 11
1.0
 21
0.0
 31
0.0
 44
0.9
  1
Body Features
 40
0.125
 41
2.6
  0
MTEXT
  5
25C
100
AcDbEntity
  8
0
100
AcDbMText
 62
2
  6
CONTINUOUS
  7
STANDARD
 71
2
 72
1
 10
6.055
 20
-0.6565
 30
0.0
 11
1.0
 21
0.0
 31
0.0
 44
0.9
  1
Ninety degree
 40
0.125
 41
2.6
  0
MTEXT
  5
25D
100
AcDbEntity
  8
0
100
AcDbMText
 62
2
  6
CONTINUOUS
  7
STANDARD
 71
2
 72
1
 10
1.5275
 20
-0.9065
 30
0.0
 11
1.0
 21
0.0
 31
0.0
 44
0.9
  1
Body Type
 40
0.125
 41
1.8
  0
MTEXT
  5
25E
100
AcDbEntity
  8
0
100
AcDbMText
 62
2
  6
CONTINUOUS
  7
STANDARD
 71
2
 72
1
 10
6.055
 20
-0.9065
 30
0.0
 11
1.0
 21
0.0
 31
0.0
 44
0.9
  1
Line mount
 40
0.125
 41
2.0
  0
MTEXT
  5
25F
100
AcDbEntity
  8
0
100
AcDbMText
 62
2
  6
CONTINUOUS
  7
STANDARD
 71
2
 72
1
 10
1.5275
 20
-1.1565
 30
0.0
 11
1.0
 21
0.0
 31
0.0
 44
0.9
  1
Interface
 40
0.125
 41
1.8
  0
MTEXT
  5
260
100
AcDbEntity
  8
0
100
AcDbMText
 62
2
  6
CONTINUOUS
  7
STANDARD
 71
2
 72
1
 10
6.055
 20
-1.1565
 30
0.0
 11
1.0
 21
0.0
 31
0.0
 44
0.9
  1
None
 40
0.125
 41
0.8
  0
MTEXT
  5
261
100
AcDbEntity
  8
0
100
AcDbMText
 62
2
  6
CONTINUOUS
  7
STANDARD
 71
2
 72
1
 10
1.5275
 20
-1.4065
 30
0.0
 11
1.0
 21
0.0
 31
0.0
 44
0.9
  1
Open Cavity Quantity
 40
0.125
 41
4.0
  0
MTEXT
  5
262
100
AcDbEntity
  8
0
100
AcDbMText
 62
2
  6
CONTINUOUS
  7
STANDARD
 71
2
 72
1
 10
6.055
 20
-1.4065
 30
0.0
 11
1.0
 21
0.0
 31
0.0
 44
0.9
  1
1
 40
0.125
 41
0.2
  0
MTEXT
  5
263
100
AcDbEntity
  8
0
100
AcDbMText
 62
2
  6
CONTINUOUS
  7
STANDARD
 71
2
 72
1
 10
1.5275
 20
-1.6565
 30
0.0
 11
1.0
 21
0.0
 31
0.0
 44
0.9
  1
Weight
 40
0.125
 41
1.2
  0
MTEXT
  5
264
100
AcDbEntity
  8
0
100
AcDbMText
 62
2
  6
CONTINUOUS
  7
STANDARD
 71
2
 72
1
 10
4.555
 20
-1.6565
 30
0.0
 11
1.0
 21
0.0
 31
0.0
 44
0.9
  1
0.344 lb.
 40
0.125
 41
1.8
  0
MTEXT
  5
265
100
AcDbEntity
  8
0
100
AcDbMText
 62
2
  6
CONTINUOUS
  7
STANDARD
 71
2
 72
1
 10
7.555
 20
-1.6565
 30
0.0
 11
1.0
 21
0.0
 31
0.0
 44
0.9
  1
0,156 kg.
 40
0.125
 41
1.8
  0
MTEXT
  5
266
100
AcDbEntity
  8
0
100
AcDbMText
 62
2
  6
CONTINUOUS
  7
STANDARD
 71
2
 72
1
 10
1.5275
 20
-1.9065
 30
0.0
 11
1.0
 21
0.0
 31
0.0
 44
0.9
  1
Mounting Hole Diameter
 40
0.125
 41
4.4
  0
MTEXT
  5
267
100
AcDbEntity
  8
0
100
AcDbMText
 62
2
  6
CONTINUOUS
  7
STANDARD
 71
2
 72
1
 10
4.555
 20
-1.9065
 30
0.0
 11
1.0
 21
0.0
 31
0.0
 44
0.9
  1
.34 in.
 40
0.125
 41
1.4
  0
MTEXT
  5
268
100
AcDbEntity
  8
0
100
AcDbMText
 62
2
  6
CONTINUOUS
  7
STANDARD
 71
2
 72
1
 10
7.555
 20
-1.9065
 30
0.0
 11
1.0
 21
0.0
 31
0.0
 44
0.9
  1
8.6 mm
 40
0.125
 41
1.2
  0
MTEXT
  5
269
100
AcDbEntity
  8
0
100
AcDbMText
 62
2
  6
CONTINUOUS
  7
STANDARD
 71
2
 72
1
 10
1.5275
 20
-2.1565
 30
0.0
 11
1.0
 21
0.0
 31
0.0
 44
0.9
  1
Mounting Hole Depth
 40
0.125
 41
3.8
  0
MTEXT
  5
26A
100
AcDbEntity
  8
0
100
AcDbMText
 62
2
  6
CONTINUOUS
  7
STANDARD
 71
2
 72
1
 10
6.055
 20
-2.1565
 30
0.0
 11
1.0
 21
0.0
 31
0.0
 44
0.9
  1
Through
 40
0.125
 41
1.4
  0
MTEXT
  5
26B
100
AcDbEntity
  8
0
100
AcDbMText
 62
2
  6
CONTINUOUS
  7
STANDARD
 71
2
 72
1
 10
1.5275
 20
-2.4065
 30
0.0
 11
1.0
 21
0.0
 31
0.0
 44
0.9
  1
Mounting Hole Quantity
 40
0.125
 41
4.4
  0
MTEXT
  5
26C
100
AcDbEntity
  8
0
100
AcDbMText
 62
2
  6
CONTINUOUS
  7
STANDARD
 71
2
 72
1
 10
6.055
 20
-2.4065
 30
0.0
 11
1.0
 21
0.0
 31
0.0
 44
0.9
  1
1
 40
0.125
 41
0.2
  0
ENDBLK
  5
26D
100
AcDbEntity
  8
0
  6
BYBLOCK
 62
0
100
AcDbBlockEnd
  0
BLOCK
  5
26E
100
AcDbEntity
  8
0
100
AcDbBlockBegin
  2
*T3
 70
1
 10
0.0
 20
0.0
  3
*T3
  1

  0
LINE
  5
26F
100
AcDbEntity
  8
0
100
AcDbLine
 62
2
  6
CONTINUOUS
 10
0.0
 20
0.0
 11
4.6
 21
0.0
  0
LINE
  5
270
100
AcDbEntity
  8
0
100
AcDbLine
 62
2
  6
CONTINUOUS
 10
0.0
 20
0.0
 11
0.0
 21
-0.93775
  0
LINE
  5
271
100
AcDbEntity
  8
0
100
AcDbLine
 62
2
  6
CONTINUOUS
 10
0.0
 20
-0.34375
 11
4.6
 21
-0.34375
  0
LINE
  5
272
100
AcDbEntity
  8
0
100
AcDbLine
 62
2
  6
CONTINUOUS
 10
0.0
 20
-0.68775
 11
4.6
 21
-0.68775
  0
LINE
  5
273
100
AcDbEntity
  8
0
100
AcDbLine
 62
2
  6
CONTINUOUS
 10
0.0
 20
-0.93775
 11
4.6
 21
-0.93775
  0
LINE
  5
274
100
AcDbEntity
  8
0
100
AcDbLine
 62
2
  6
CONTINUOUS
 10
1.3
 20
-0.34375
 11
1.3
 21
-0.93775
  0
LINE
  5
275
100
AcDbEntity
  8
0
100
AcDbLine
 62
2
  6
CONTINUOUS
 10
3.3
 20
-0.34375
 11
3.3
 21
-0.93775
  0
LINE
  5
276
100
AcDbEntity
  8
0
100
AcDbLine
 62
2
  6
CONTINUOUS
 10
4.6
 20
0.0
 11
4.6
 21
-0.93775
  0
MTEXT
  5
277
100
AcDbEntity
  8
0
100
AcDbMText
 62
2
  6
CONTINUOUS
  7
STANDARD
 71
2
 72
1
 10
2.3
 20
-0.099375
 30
0.0
 11
1.0
 21
0.0
 31
0.0
 44
0.9
  1
Port Headings
 40
0.145
 41
3.016
  0
MTEXT
  5
278
100
AcDbEntity
  8
0
100
AcDbMText
 62
2
  6
CONTINUOUS
  7
STANDARD
 71
2
 72
1
 10
0.65
 20
-0.44325
 30
0.0
 11
1.0
 21
0.0
 31
0.0
 44
0.9
  1
Product
 40
0.145
 41
1.624
  0
MTEXT
  5
279
100
AcDbEntity
  8
0
100
AcDbMText
 62
2
  6
CONTINUOUS
  7
STANDARD
 71
2
 72
1
 10
2.3
 20
-0.44325
 30
0.0
 11
1.0
 21
0.0
 31
0.0
 44
0.9
  1
Port
 40
0.145
 41
0.928
  0
MTEXT
  5
27A
100
AcDbEntity
  8
0
100
AcDbMText
 62
2
  6
CONTINUOUS
  7
STANDARD
 71
2
 72
1
 10
3.95
 20
-0.44325
 30
0.0
 11
1.0
 21
0.0
 31
0.0
 44
0.9
  1
Size
 40
0.145
 41
0.928
  0
MTEXT
  5
27B
100
AcDbEntity
  8
0
100
AcDbMText
 62
2
  6
CONTINUOUS
  7
STANDARD
 71
2
 72
1
 10
0.65
 20
-0.75025
 30
0.0
 11
1.0
 21
0.0
 31
0.0
 44
0.9
  1
ZFR
 40
0.125
 41
0.6
  0
MTEXT
  5
27C
100
AcDbEntity
  8
0
100
AcDbMText
 62
2
  6
CONTINUOUS
  7
STANDARD
 71
2
 72
1
 10
2.3
 20
-0.75025
 30
0.0
 11
1.0
 21
0.0
 31
0.0
 44
0.9
  1
All Ports
 40
0.125
 41
1.8
  0
MTEXT
  5
27D
100
AcDbEntity
  8
0
100
AcDbMText
 62
2
  6
CONTINUOUS
  7
STANDARD
 71
2
 72
1
 10
3.95
 20
-0.75025
 30
0.0
 11
1.0
 21
0.0
 31
0.0
 44
0.9
  1
1/2" BSPP
 40
0.125
 41
1.8
  0
ENDBLK
  5
27E
100
AcDbEntity
  8
0
  6
BYBLOCK
 62
0
100
AcDbBlockEnd
  0
ENDSEC
  0
SECTION
  2
ENTITIES
  0
IMAGE
  5
27F
100
AcDbEntity
  8
0
100
AcDbRasterImage
 62
7
  6
CONTINUOUS
 10
19.2297077316
 20
0.3094318264
 30
0.0
 11
0.0066666667
 21
0.0
 31
0.0
 12
0.0
 22
0.0066666667
 32
0.0
 13
369.0
 23
92.0
340
       31A
 70
9
280
0
281
50
282
50
283
0
360
       314
 71
1
 91
2
 14
-0.5
 24
-0.5
 14
368.5
 24
91.5
  0
INSERT
  5
280
100
AcDbEntity
  8
0
100
AcDbBlockReference
 62
2
  6
CONTINUOUS
  2
SUN_FIRST_THIRD_ANGLE_BL0
 10
20.4816717061
 20
1.2289683772
  0
ACAD_TABLE
  5
281
100
AcDbEntity
  8
0
 62
2
  6
CONTINUOUS
100
AcDbBlockReference
  2
*T1
 10
12.42375
 20
0.30125
 30
0.0
100
AcDbTable
342
       31C
343
207
 11
1.0
 21
0.0
 31
0.0
 90
6
 91
4
 92
6
 93
20
 94
0
 95
0
 96
0
 70
1
 41
0.0
141
0.525
141
0.1
141
0.525
141
0.1
142
4.1
142
1.1
142
0.7
142
0.5
142
0.4
142
2.475
171
1
172
0
173
0
174
0
175
1
176
1
 91
33
178
0
145
0.0
301
CELL_VALUE
 90
4
  1
T-10A Line mount\PNinety degree
304
ACVALUE_END
170
2
140
0.125
171
1
172
0
173
0
174
0
175
1
176
1
 91
33
178
0
145
0.0
301
CELL_VALUE
 90
4
  1
Sep-12-23
304
ACVALUE_END
170
5
140
0.125
171
1
172
0
173
0
174
0
175
1
176
1
 91
33
178
0
145
0.0
301
CELL_VALUE
 90
4
  1
2.000
304
ACVALUE_END
170
5
140
0.125
171
1
172
0
173
0
174
0
175
1
176
1
 91
33
178
0
145
0.0
301
CELL_VALUE
 90
4
  1
C
304
ACVALUE_END
170
5
140
0.125
171
1
172
0
173
0
174
0
175
1
176
1
 91
33
178
0
145
0.0
301
CELL_VALUE
 90
4
  1
2
304
ACVALUE_END
170
5
140
0.125
171
1
172
0
173
0
174
0
175
1
176
1
 91
33
178
0
145
0.0
301
CELL_VALUE
 90
4
  1
 
304
ACVALUE_END
170
1
140
0.125
171
1
172
0
173
0
174
0
175
1
176
1
 91
33
178
0
145
0.0
301
CELL_VALUE
 90
4
  1
DESCRIPTION
304
ACVALUE_END
170
1
140
0.06
171
1
172
0
173
0
174
0
175
1
176
1
 91
33
178
0
145
0.0
301
CELL_VALUE
 90
4
  1
DATE
304
ACVALUE_END
170
1
140
0.06
171
1
172
0
173
0
174
0
175
1
176
1
 91
33
178
0
145
0.0
301
CELL_VALUE
 90
4
  1
SCALE
304
ACVALUE_END
170
1
140
0.06
171
1
172
0
173
0
174
0
175
1
176
1
 91
33
178
0
145
0.0
301
CELL_VALUE
 90
4
  1
DWG SIZE
304
ACVALUE_END
170
1
140
0.06
171
1
172
0
173
0
174
0
175
1
176
1
 91
33
178
0
145
0.0
301
CELL_VALUE
 90
4
  1
SHEET
304
ACVALUE_END
170
1
140
0.06
171
1
172
0
173
0
174
0
175
1
176
1
 91
33
178
0
145
0.0
301
CELL_VALUE
 90
4
  1
 
304
ACVALUE_END
170
1
140
0.125
171
1
172
0
173
0
174
0
175
1
176
1
 91
33
178
0
145
0.0
301
CELL_VALUE
 90
4
  1
ZFR
304
ACVALUE_END
170
5
140
0.125
171
1
172
0
173
0
174
0
175
4
176
1
 91
33
178
0
145
0.0
301
CELL_VALUE
 90
4
  1
ALL DIMENSIONS IN INCH\PVIEWS ARE THIRD ANGLE
304
ACVALUE_END
170
5
140
0.12
171
1
172
0
173
1
174
0
175
1
176
1
 91
1
178
0
145
0.0
170
1
171
1
172
0
173
1
174
0
175
1
176
1
 91
1
178
0
145
0.0
170
1
171
1
172
0
173
1
174
0
175
1
176
1
 91
1
178
0
145
0.0
170
5
171
1
172
0
173
0
174
0
175
1
176
1
 91
33
178
0
145
0.0
301
CELL_VALUE
 90
4
  1
 
304
ACVALUE_END
170
1
140
0.125
171
1
172
0
173
0
174
0
175
1
176
1
 91
33
178
0
145
0.0
301
CELL_VALUE
 90
4
  1
MODEL
304
ACVALUE_END
170
1
140
0.06
171
1
172
0
173
0
174
0
175
1
176
1
 91
33
178
0
145
0.0
301
CELL_VALUE
 90
4
  1
 
304
ACVALUE_END
170
1
140
0.125
171
1
172
0
173
0
174
0
175
1
176
1
 91
33
178
0
145
0.0
301
CELL_VALUE
 90
4
  1
 
304
ACVALUE_END
170
1
140
0.125
171
1
172
0
173
0
174
0
175
1
176
1
 91
33
178
0
145
0.0
301
CELL_VALUE
 90
4
  1
 
304
ACVALUE_END
170
1
140
0.125
171
1
172
0
173
0
174
0
175
1
176
1
 91
33
178
0
145
0.0
301
CELL_VALUE
 90
4
  1
 
304
ACVALUE_END
170
1
140
0.125
171
1
172
0
173
0
174
0
175
1
176
1
 91
33
178
0
145
0.0
301
CELL_VALUE
 90
4
  1
 
304
ACVALUE_END
170
1
140
0.125
  0
ACAD_TABLE
  5
282
100
AcDbEntity
  8
0
 62
2
  6
CONTINUOUS
100
AcDbBlockReference
  2
*T2
 10
12.4237499994
 20
16.47875
 30
0.0
100
AcDbTable
342
       31B
343
208
 11
1.0
 21
0.0
 31
0.0
 90
22
 91
10
 92
3
 93
16
 94
0
 95
0
 96
0
 41
0.028
141
0.344
141
0.25
141
0.25
141
0.25
141
0.25
141
0.25
141
0.25
141
0.25
141
0.25
141
0.25
142
3.055
142
3.0
142
3.0
171
1
172
0
173
0
174
0
175
1
176
1
 91
33
178
0
145
0.0
301
CELL_VALUE
 90
4
  1
Technical Data
304
ACVALUE_END
170
5
140
0.145
171
1
172
0
173
0
174
0
175
1
176
1
 91
33
178
0
145
0.0
301
CELL_VALUE
 90
4
  1
U.S. Units
304
ACVALUE_END
170
5
140
0.145
171
1
172
0
173
0
174
0
175
1
176
1
 91
33
178
0
145
0.0
301
CELL_VALUE
 90
4
  1
Metric Units
304
ACVALUE_END
170
5
140
0.145
171
1
172
0
173
0
174
0
175
1
176
1
 91
33
178
0
145
0.0
301
CELL_VALUE
 90
4
  1
Cavity
304
ACVALUE_END
170
5
140
0.125
171
1
172
0
173
0
174
0
175
2
176
1
 91
33
178
0
145
0.0
301
CELL_VALUE
 90
4
  1
T-10A
304
ACVALUE_END
170
5
140
0.125
171
1
172
0
173
1
174
0
175
1
176
1
 91
1
178
0
145
0.0
170
1
171
1
172
0
173
0
174
0
175
1
176
1
 91
33
178
0
145
0.0
301
CELL_VALUE
 90
4
  1
Body Features
304
ACVALUE_END
170
5
140
0.125
171
1
172
0
173
0
174
0
175
2
176
1
 91
33
178
0
145
0.0
301
CELL_VALUE
 90
4
  1
Ninety degree
304
ACVALUE_END
170
5
140
0.125
171
1
172
0
173
1
174
0
175
1
176
1
 91
1
178
0
145
0.0
170
1
171
1
172
0
173
0
174
0
175
1
176
1
 91
33
178
0
145
0.0
301
CELL_VALUE
 90
4
  1
Body Type
304
ACVALUE_END
170
5
140
0.125
171
1
172
0
173
0
174
0
175
2
176
1
 91
33
178
0
145
0.0
301
CELL_VALUE
 90
4
  1
Line mount
304
ACVALUE_END
170
5
140
0.125
171
1
172
0
173
1
174
0
175
1
176
1
 91
1
178
0
145
0.0
170
1
171
1
172
0
173
0
174
0
175
1
176
1
 91
33
178
0
145
0.0
301
CELL_VALUE
 90
4
  1
Interface
304
ACVALUE_END
170
5
140
0.125
171
1
172
0
173
0
174
0
175
2
176
1
 91
33
178
0
145
0.0
301
CELL_VALUE
 90
4
  1
None
304
ACVALUE_END
170
5
140
0.125
171
1
172
0
173
1
174
0
175
1
176
1
 91
1
178
0
145
0.0
170
1
171
1
172
0
173
0
174
0
175
1
176
1
 91
33
178
0
145
0.0
301
CELL_VALUE
 90
4
  1
Open Cavity Quantity
304
ACVALUE_END
170
5
140
0.125
171
1
172
0
173
0
174
0
175
2
176
1
 91
33
178
0
145
0.0
301
CELL_VALUE
 90
4
  1
1
304
ACVALUE_END
170
5
140
0.125
171
1
172
0
173
1
174
0
175
1
176
1
 91
1
178
0
145
0.0
170
1
171
1
172
0
173
0
174
0
175
1
176
1
 91
33
178
0
145
0.0
301
CELL_VALUE
 90
4
  1
Weight
304
ACVALUE_END
170
5
140
0.125
171
1
172
0
173
0
174
0
175
1
176
1
 91
33
178
0
145
0.0
301
CELL_VALUE
 90
4
  1
0.344 lb.
304
ACVALUE_END
170
5
140
0.125
171
1
172
0
173
0
174
0
175
1
176
1
 91
33
178
0
145
0.0
301
CELL_VALUE
 90
4
  1
0,156 kg.
304
ACVALUE_END
170
5
140
0.125
171
1
172
0
173
0
174
0
175
1
176
1
 91
33
178
0
145
0.0
301
CELL_VALUE
 90
4
  1
Mounting Hole Diameter
304
ACVALUE_END
170
5
140
0.125
171
1
172
0
173
0
174
0
175
1
176
1
 91
33
178
0
145
0.0
301
CELL_VALUE
 90
4
  1
.34 in.
304
ACVALUE_END
170
5
140
0.125
171
1
172
0
173
0
174
0
175
1
176
1
 91
33
178
0
145
0.0
301
CELL_VALUE
 90
4
  1
8.6 mm
304
ACVALUE_END
170
5
140
0.125
171
1
172
0
173
0
174
0
175
1
176
1
 91
33
178
0
145
0.0
301
CELL_VALUE
 90
4
  1
Mounting Hole Depth
304
ACVALUE_END
170
5
140
0.125
171
1
172
0
173
0
174
0
175
2
176
1
 91
33
178
0
145
0.0
301
CELL_VALUE
 90
4
  1
Through
304
ACVALUE_END
170
5
140
0.125
171
1
172
0
173
1
174
0
175
1
176
1
 91
1
178
0
145
0.0
170
1
171
1
172
0
173
0
174
0
175
1
176
1
 91
33
178
0
145
0.0
301
CELL_VALUE
 90
4
  1
Mounting Hole Quantity
304
ACVALUE_END
170
5
140
0.125
171
1
172
0
173
0
174
0
175
2
176
1
 91
33
178
0
145
0.0
301
CELL_VALUE
 90
4
  1
1
304
ACVALUE_END
170
5
140
0.125
171
1
172
0
173
1
174
0
175
1
176
1
 91
1
178
0
145
0.0
170
1
  0
ACAD_TABLE
  5
283
100
AcDbEntity
  8
0
 62
2
  6
CONTINUOUS
100
AcDbBlockReference
  2
*T3
 10
0.52125
 20
1.459
 30
0.0
100
AcDbTable
342
       31B
343
209
 11
1.0
 21
0.0
 31
0.0
 90
22
 91
3
 92
3
 93
16
 94
0
 95
0
 96
0
 41
0.05
141
0.34375
141
0.344
141
0.25
142
1.3
142
2.0
142
1.3
171
1
172
0
173
0
174
0
175
3
176
1
 91
33
178
0
145
0.0
301
CELL_VALUE
 90
4
  1
Port Headings
304
ACVALUE_END
170
5
140
0.145
171
1
172
0
173
1
174
0
175
1
176
1
 91
1
178
0
145
0.0
170
1
171
1
172
0
173
1
174
0
175
1
176
1
 91
1
178
0
145
0.0
170
1
171
1
172
0
173
0
174
0
175
1
176
1
 91
33
178
0
145
0.0
301
CELL_VALUE
 90
4
  1
Product
304
ACVALUE_END
170
5
140
0.145
171
1
172
0
173
0
174
0
175
1
176
1
 91
33
178
0
145
0.0
301
CELL_VALUE
 90
4
  1
Port
304
ACVALUE_END
170
5
140
0.145
171
1
172
0
173
0
174
0
175
1
176
1
 91
33
178
0
145
0.0
301
CELL_VALUE
 90
4
  1
Size
304
ACVALUE_END
170
5
140
0.145
171
1
172
0
173
0
174
0
175
1
176
1
 91
33
178
0
145
0.0
301
CELL_VALUE
 90
4
  1
ZFR
304
ACVALUE_END
170
5
140
0.125
171
1
172
0
173
0
174
0
175
1
176
1
 91
33
178
0
145
0.0
301
CELL_VALUE
 90
4
  1
All Ports
304
ACVALUE_END
170
5
140
0.125
171
1
172
0
173
0
174
0
175
1
176
1
 91
33
178
0
145
0.0
301
CELL_VALUE
 90
4
  1
1/2" BSPP
304
ACVALUE_END
170
5
140
0.125
  0
MTEXT
  5
284
100
AcDbEntity
  8
0
100
AcDbMText
 62
2
  6
CONTINUOUS
  7
STANDARD
 71
1
 72
1
 10
0.52125
 20
5.75995
 30
0.0
 11
1.0
 21
0.0
 31
0.0
 44
0.6
  3
Notes\P \P1. Important: Carefully consider\P   the maximum system pressure. The\P   pressure rating of the manifold is\P   dependent on the manifold material,\P   with the port type/size a secondary\P   consideration. Manifolds\P   constructed of alu
  3
minum are not\P   rated for pressures higher than\P   3000 psi (210 bar), regardless of\P   the port type/size specified.\P2. This drawing is for reference\P   only. It is generated by an\P   automated process and does not fall\P   under Sun's docume
  1
nt control\P   process.
 40
0.1
 41
3.04
  0
LINE
  5
285
100
AcDbEntity
  8
0
100
AcDbLine
 62
7
  6
CONTINUOUS
 10
0.30125
 20
0.30125
 11
0.30125
 21
16.69875
  0
LINE
  5
286
100
AcDbEntity
  8
0
100
AcDbLine
 62
7
  6
CONTINUOUS
 10
0.30125
 20
0.30125
 11
21.69875
 21
0.30125
  0
LINE
  5
287
100
AcDbEntity
  8
0
100
AcDbLine
 62
7
  6
CONTINUOUS
 10
0.30125
 20
16.69875
 11
21.69875
 21
16.69875
  0
LINE
  5
288
100
AcDbEntity
  8
0
100
AcDbLine
 62
7
  6
CONTINUOUS
 10
21.69875
 20
0.30125
 11
21.69875
 21
16.69875
  0
LINE
  5
289
100
AcDbEntity
  8
0
100
AcDbLine
 62
7
  6
CONTINUOUS
 10
8.2616617518
 20
6.7901682723
 11
8.2616617518
 21
9.9197681441
  0
LINE
  5
28A
100
AcDbEntity
  8
0
100
AcDbLine
 62
7
  6
CONTINUOUS
 10
8.2616617518
 20
9.9197681441
 11
8.9087088306
 21
10.5447676654
  0
LINE
  5
28B
100
AcDbEntity
  8
0
100
AcDbLine
 62
7
  6
CONTINUOUS
 10
13.0912911694
 20
6.4552323346
 11
8.2616617518
 21
6.7901682723
  0
LINE
  5
28C
100
AcDbEntity
  8
0
100
AcDbLine
 62
4
  6
CONTINUOUS
 10
10.0196469717
 20
6.8759256508
 11
10.0776025234
 21
6.8574175317
  0
LINE
  5
28D
100
AcDbEntity
  8
0
100
AcDbLine
 62
4
  6
CONTINUOUS
 10
9.8844173556
 20
6.8708149686
 11
9.8650988291
 21
6.8866436008
  0
LINE
  5
28E
100
AcDbEntity
  8
0
100
AcDbLine
 62
4
  6
CONTINUOUS
 10
9.9810099395
 20
6.9075829139
 11
10.0196469717
 21
6.8759256508
  0
LINE
  5
28F
100
AcDbEntity
  8
0
100
AcDbLine
 62
4
  6
CONTINUOUS
 10
9.9230543809
 20
6.9840465852
 11
9.9423729073
 21
6.9682179529
  0
LINE
  5
290
100
AcDbEntity
  8
0
100
AcDbLine
 62
4
  6
CONTINUOUS
 10
9.8650988291
 20
6.8866436008
 11
9.8457803165
 21
6.9169611201
  0
LINE
  5
291
100
AcDbEntity
  8
0
100
AcDbLine
 62
4
  6
CONTINUOUS
 10
9.8844173556
 20
6.986726072
 11
9.9230543809
 21
6.9840465852
  0
LINE
  5
292
100
AcDbEntity
  8
0
100
AcDbLine
 62
4
  6
CONTINUOUS
 10
9.9423729073
 20
6.9682179529
 11
9.9810099395
 21
6.9075829139
  0
LINE
  5
293
100
AcDbEntity
  8
0
100
AcDbLine
 62
4
  6
CONTINUOUS
 10
10.5605653546
 20
7.1001787002
 11
10.6764764606
 21
7.0921402377
  0
LINE
  5
294
100
AcDbEntity
  8
0
100
AcDbLine
 62
4
  6
CONTINUOUS
 10
9.8457803165
 20
6.9169611201
 11
9.8457803165
 21
6.945938896
  0
LINE
  5
295
100
AcDbEntity
  8
0
100
AcDbLine
 62
4
  6
CONTINUOUS
 10
10.6764764606
 20
7.2080513437
 11
10.7923875666
 21
7.2000128812
  0
LINE
  5
296
100
AcDbEntity
  8
0
100
AcDbLine
 62
4
  6
CONTINUOUS
 10
10.7923875666
 20
7.2579684343
 11
10.5605653546
 21
7.2740453593
  0
LINE
  5
297
100
AcDbEntity
  8
0
100
AcDbLine
 62
4
  6
CONTINUOUS
 10
11.9746808481
 20
7.2706368648
 11
11.742858636
 21
7.2867137898
  0
LINE
  5
298
100
AcDbEntity
  8
0
100
AcDbLine
 62
4
  6
CONTINUOUS
 10
10.5605653546
 20
7.3899564653
 11
10.7923875666
 21
7.3738795403
  0
LINE
  5
299
100
AcDbEntity
  8
0
100
AcDbLine
 62
4
  6
CONTINUOUS
 10
10.0776025234
 20
6.8574175317
 11
10.0776025234
 21
6.9733286351
  0
LINE
  5
29A
100
AcDbEntity
  8
0
100
AcDbLine
 62
4
  6
CONTINUOUS
 10
11.742858636
 20
7.5626925972
 11
11.9746808481
 21
7.6128506136
  0
LINE
  5
29B
100
AcDbEntity
  8
0
100
AcDbLine
 62
4
  6
CONTINUOUS
 10
10.5605653546
 20
7.4479120183
 11
10.7923875666
 21
7.4318350933
  0
LINE
  5
29C
100
AcDbEntity
  8
0
100
AcDbLine
 62
4
  6
CONTINUOUS
 10
11.7759760929
 20
7.4003281786
 11
11.9415633877
 21
7.3888446607
  0
LINE
  5
29D
100
AcDbEntity
  8
0
100
AcDbLine
 62
4
  6
CONTINUOUS
 10
10.5605653546
 20
7.5638231243
 11
10.7923875666
 21
7.5477461993
  0
LINE
  5
29E
100
AcDbEntity
  8
0
100
AcDbLine
 62
4
  6
CONTINUOUS
 10
10.7923875666
 20
7.7795684114
 11
10.5605653546
 21
7.7956453364
  0
LINE
  5
29F
100
AcDbEntity
  8
0
100
AcDbLine
 62
4
  6
CONTINUOUS
 10
11.9746808481
 20
7.7453204412
 11
11.742858636
 21
7.7613973662
  0
LINE
  5
2A0
100
AcDbEntity
  8
0
100
AcDbLine
 62
4
  6
CONTINUOUS
 10
10.5605653546
 20
7.2160898063
 11
10.5605653546
 21
7.1001787002
  0
LINE
  5
2A1
100
AcDbEntity
  8
0
100
AcDbLine
 62
4
  6
CONTINUOUS
 10
10.5605653546
 20
7.4479120183
 11
10.5605653546
 21
7.5638231243
  0
LINE
  5
2A2
100
AcDbEntity
  8
0
100
AcDbLine
 62
4
  6
CONTINUOUS
 10
10.7923875666
 20
7.8954795174
 11
10.6764764606
 21
7.9035179799
  0
LINE
  5
2A3
100
AcDbEntity
  8
0
100
AcDbLine
 62
4
  6
CONTINUOUS
 10
11.9746808481
 20
7.8777902687
 11
11.742858636
 21
7.8938671938
  0
LINE
  5
2A4
100
AcDbEntity
  8
0
100
AcDbLine
 62
4
  6
CONTINUOUS
 10
10.7923875666
 20
7.990140254
 11
10.6764764606
 21
7.9981787165
  0
LINE
  5
2A5
100
AcDbEntity
  8
0
100
AcDbLine
 62
4
  6
CONTINUOUS
 10
11.9746808481
 20
7.4803807584
 11
11.742858636
 21
7.5626925972
  0
LINE
  5
2A6
100
AcDbEntity
  8
0
100
AcDbLine
 62
4
  6
CONTINUOUS
 10
10.6185209076
 20
9.0309090137
 11
10.6185209076
 21
9.0598867902
  0
LINE
  5
2A7
100
AcDbEntity
  8
0
100
AcDbLine
 62
4
  6
CONTINUOUS
 10
10.6764764606
 20
8.6936453526
 11
10.6764764606
 21
8.6163712819
  0
LINE
  5
2A8
100
AcDbEntity
  8
0
100
AcDbLine
 62
4
  6
CONTINUOUS
 10
10.6764764606
 20
7.9035179799
 11
10.6764764606
 21
7.7876068739
  0
LINE
  5
2A9
100
AcDbEntity
  8
0
100
AcDbLine
 62
4
  6
CONTINUOUS
 10
10.6764764606
 20
7.0921402377
 11
10.6764764606
 21
7.2080513437
  0
LINE
  5
2AA
100
AcDbEntity
  8
0
100
AcDbLine
 62
4
  6
CONTINUOUS
 10
10.6764764606
 20
8.1913638932
 11
10.6764764606
 21
8.3072749992
  0
LINE
  5
2AB
100
AcDbEntity
  8
0
100
AcDbLine
 62
4
  6
CONTINUOUS
 10
10.6764764606
 20
8.3845490699
 11
10.6764764606
 21
8.5004601759
  0
LINE
  5
2AC
100
AcDbEntity
  8
0
100
AcDbLine
 62
4
  6
CONTINUOUS
 10
10.6764764606
 20
9.1186527414
 11
10.6764764606
 21
9.2345638474
  0
LINE
  5
2AD
100
AcDbEntity
  8
0
100
AcDbLine
 62
4
  6
CONTINUOUS
 10
10.6764764606
 20
9.3118379181
 11
10.6764764606
 21
9.4277490241
  0
LINE
  5
2AE
100
AcDbEntity
  8
0
100
AcDbLine
 62
4
  6
CONTINUOUS
 10
10.715113496
 20
8.5750547591
 11
10.715113496
 21
8.6909658651
  0
LINE
  5
2AF
100
AcDbEntity
  8
0
100
AcDbLine
 62
4
  6
CONTINUOUS
 10
10.7344320136
 20
9.3078186868
 11
10.7344320136
 21
9.4237297928
  0
LINE
  5
2B0
100
AcDbEntity
  8
0
100
AcDbLine
 62
4
  6
CONTINUOUS
 10
10.7923875666
 20
9.4197105616
 11
10.7923875666
 21
9.3037994556
  0
LINE
  5
2B1
100
AcDbEntity
  8
0
100
AcDbLine
 62
4
  6
CONTINUOUS
 10
10.7923875666
 20
8.6856068901
 11
10.7923875666
 21
8.5696957841
  0
LINE
  5
2B2
100
AcDbEntity
  8
0
100
AcDbLine
 62
4
  6
CONTINUOUS
 10
10.7923875666
 20
8.2992365367
 11
10.7923875666
 21
8.1833254307
  0
LINE
  5
2B3
100
AcDbEntity
  8
0
100
AcDbLine
 62
4
  6
CONTINUOUS
 10
10.7923875666
 20
8.10605136
 11
10.7923875666
 21
7.990140254
  0
LINE
  5
2B4
100
AcDbEntity
  8
0
100
AcDbLine
 62
4
  6
CONTINUOUS
 10
10.7923875666
 20
7.3738795403
 11
10.7923875666
 21
7.2579684343
  0
LINE
  5
2B5
100
AcDbEntity
  8
0
100
AcDbLine
 62
4
  6
CONTINUOUS
 10
10.7923875666
 20
7.2000128812
 11
10.7923875666
 21
7.0841017752
  0
LINE
  5
2B6
100
AcDbEntity
  8
0
100
AcDbLine
 62
4
  6
CONTINUOUS
 10
10.7923875666
 20
8.7628809608
 11
10.7923875666
 21
8.8787920668
  0
LINE
  5
2B7
100
AcDbEntity
  8
0
100
AcDbLine
 62
4
  6
CONTINUOUS
 10
10.7923875666
 20
9.1106142788
 11
10.7923875666
 21
9.2265253849
  0
LINE
  5
2B8
100
AcDbEntity
  8
0
100
AcDbLine
 62
4
  6
CONTINUOUS
 10
10.6764764606
 20
8.1140898225
 11
10.9082986727
 21
8.0980128975
  0
LINE
  5
2B9
100
AcDbEntity
  8
0
100
AcDbLine
 62
4
  6
CONTINUOUS
 10
11.4646719816
 20
8.0870261611
 11
11.2328497695
 21
8.1031030861
  0
LINE
  5
2BA
100
AcDbEntity
  8
0
100
AcDbLine
 62
4
  6
CONTINUOUS
 10
10.7923875666
 20
8.1833254307
 11
10.6764764606
 21
8.1913638932
  0
LINE
  5
2BB
100
AcDbEntity
  8
0
100
AcDbLine
 62
4
  6
CONTINUOUS
 10
11.4646719816
 20
8.2526134593
 11
11.2328497695
 21
8.2686903844
  0
LINE
  5
2BC
100
AcDbEntity
  8
0
100
AcDbLine
 62
4
  6
CONTINUOUS
 10
10.5605653546
 20
8.3153134617
 11
10.7923875666
 21
8.2992365367
  0
LINE
  5
2BD
100
AcDbEntity
  8
0
100
AcDbLine
 62
4
  6
CONTINUOUS
 10
11.9415633877
 20
8.2278203458
 11
11.7759760929
 21
8.2393038637
  0
LINE
  5
2BE
100
AcDbEntity
  8
0
100
AcDbLine
 62
4
  6
CONTINUOUS
 10
11.2328497695
 20
8.0368681723
 11
11.4646719816
 21
7.9048801413
  0
LINE
  5
2BF
100
AcDbEntity
  8
0
100
AcDbLine
 62
4
  6
CONTINUOUS
 10
10.9082986727
 20
8.0980128975
 11
10.9082986727
 21
8.0207388268
  0
LINE
  5
2C0
100
AcDbEntity
  8
0
100
AcDbLine
 62
4
  6
CONTINUOUS
 10
9.8457803165
 20
6.945938896
 11
9.8650988291
 21
6.9735769284
  0
LINE
  5
2C1
100
AcDbEntity
  8
0
100
AcDbLine
 62
4
  6
CONTINUOUS
 10
10.6764764606
 20
8.3845490699
 11
10.7923875666
 21
8.3765106074
  0
LINE
  5
2C2
100
AcDbEntity
  8
0
100
AcDbLine
 62
4
  6
CONTINUOUS
 10
11.2659672264
 20
8.3823047869
 11
11.3322021402
 21
8.3777113801
  0
LINE
  5
2C3
100
AcDbEntity
  8
0
100
AcDbLine
 62
4
  6
CONTINUOUS
 10
11.9415633877
 20
8.4210054488
 11
11.7759760929
 21
8.4324889667
  0
LINE
  5
2C4
100
AcDbEntity
  8
0
100
AcDbLine
 62
4
  6
CONTINUOUS
 10
11.9415633877
 20
7.3888446607
 11
11.9746808481
 21
7.3534305001
  0
LINE
  5
2C5
100
AcDbEntity
  8
0
100
AcDbLine
 62
4
  6
CONTINUOUS
 10
11.2328497695
 20
7.9209570663
 11
11.2328497695
 21
8.0368681723
  0
LINE
  5
2C6
100
AcDbEntity
  8
0
100
AcDbLine
 62
4
  6
CONTINUOUS
 10
11.2328497695
 20
8.1031030861
 11
11.2328497695
 21
8.2024554706
  0
LINE
  5
2C7
100
AcDbEntity
  8
0
100
AcDbLine
 62
4
  6
CONTINUOUS
 10
11.2328497695
 20
8.2686903844
 11
11.2328497695
 21
8.3514840197
  0
LINE
  5
2C8
100
AcDbEntity
  8
0
100
AcDbLine
 62
4
  6
CONTINUOUS
 10
12.7628763728
 20
8.409859738
 11
12.9946985796
 21
8.3937828133
  0
LINE
  5
2C9
100
AcDbEntity
  8
0
100
AcDbLine
 62
4
  6
CONTINUOUS
 10
10.7923875666
 20
8.5696957841
 11
10.715113496
 21
8.5750547591
  0
LINE
  5
2CA
100
AcDbEntity
  8
0
100
AcDbLine
 62
4
  6
CONTINUOUS
 10
11.7759760929
 20
8.5484000727
 11
11.9415633877
 21
8.5369165548
  0
LINE
  5
2CB
100
AcDbEntity
  8
0
100
AcDbLine
 62
4
  6
CONTINUOUS
 10
11.9746808481
 20
8.6008547373
 11
11.742858636
 21
8.6169316623
  0
LINE
  5
2CC
100
AcDbEntity
  8
0
100
AcDbLine
 62
4
  6
CONTINUOUS
 10
10.6764764606
 20
8.6936453526
 11
10.7923875666
 21
8.6856068901
  0
LINE
  5
2CD
100
AcDbEntity
  8
0
100
AcDbLine
 62
4
  6
CONTINUOUS
 10
10.6764764606
 20
8.7709194233
 11
10.7923875666
 21
8.7628809608
  0
LINE
  5
2CE
100
AcDbEntity
  8
0
100
AcDbLine
 62
4
  6
CONTINUOUS
 10
11.3322021402
 20
8.3777113801
 11
11.365319604
 21
8.3422972054
  0
LINE
  5
2CF
100
AcDbEntity
  8
0
100
AcDbLine
 62
4
  6
CONTINUOUS
 10
11.8311718544
 20
7.2364326312
 11
11.8753284705
 21
7.1450571342
  0
LINE
  5
2D0
100
AcDbEntity
  8
0
100
AcDbLine
 62
4
  6
CONTINUOUS
 10
11.3322021402
 20
8.1955653603
 11
11.3322021402
 21
8.0962129758
  0
LINE
  5
2D1
100
AcDbEntity
  8
0
100
AcDbLine
 62
4
  6
CONTINUOUS
 10
11.365319604
 20
8.3422972054
 11
11.365319604
 21
8.2595035701
  0
LINE
  5
2D2
100
AcDbEntity
  8
0
100
AcDbLine
 62
4
  6
CONTINUOUS
 10
11.4646719816
 20
7.9048801413
 11
11.4646719816
 21
8.0207912473
  0
LINE
  5
2D3
100
AcDbEntity
  8
0
100
AcDbLine
 62
4
  6
CONTINUOUS
 10
11.2328497695
 20
8.3514840197
 11
11.2659672264
 21
8.3823047869
  0
LINE
  5
2D4
100
AcDbEntity
  8
0
100
AcDbLine
 62
4
  6
CONTINUOUS
 10
11.742858636
 20
8.6997253252
 11
11.7759760929
 21
8.7305460649
  0
LINE
  5
2D5
100
AcDbEntity
  8
0
100
AcDbLine
 62
4
  6
CONTINUOUS
 10
11.365319604
 20
8.3091797624
 11
11.4646719816
 21
8.3685245654
  0
LINE
  5
2D6
100
AcDbEntity
  8
0
100
AcDbLine
 62
4
  6
CONTINUOUS
 10
11.7759760929
 20
8.7305460649
 11
11.9415633877
 21
8.719062547
  0
LINE
  5
2D7
100
AcDbEntity
  8
0
100
AcDbLine
 62
4
  6
CONTINUOUS
 10
10.7923875666
 20
8.8787920668
 11
10.6764764606
 21
8.8868305293
  0
LINE
  5
2D8
100
AcDbEntity
  8
0
100
AcDbLine
 62
4
  6
CONTINUOUS
 10
11.9746808481
 20
8.8105987276
 11
11.742858636
 21
8.8266756526
  0
LINE
  5
2D9
100
AcDbEntity
  8
0
100
AcDbLine
 62
4
  6
CONTINUOUS
 10
10.7923875666
 20
8.9560661375
 11
10.5605653546
 21
8.9721430625
  0
LINE
  5
2DA
100
AcDbEntity
  8
0
100
AcDbLine
 62
4
  6
CONTINUOUS
 10
11.7759760929
 20
8.2393038637
 11
11.742858636
 21
8.2747180102
  0
LINE
  5
2DB
100
AcDbEntity
  8
0
100
AcDbLine
 62
4
  6
CONTINUOUS
 10
11.8311718544
 20
8.9861383255
 11
11.8753284705
 21
9.0713892721
  0
LINE
  5
2DC
100
AcDbEntity
  8
0
100
AcDbLine
 62
7
  6
CONTINUOUS
 10
13.0912911694
 20
9.5848322064
 11
13.7383382482
 21
10.2098317277
  0
LINE
  5
2DD
100
AcDbEntity
  8
0
100
AcDbLine
 62
4
  6
CONTINUOUS
 10
11.742858636
 20
8.5175793331
 11
11.7759760929
 21
8.5484000727
  0
LINE
  5
2DE
100
AcDbEntity
  8
0
100
AcDbLine
 62
4
  6
CONTINUOUS
 10
11.9746808481
 20
8.4518261882
 11
11.9415633877
 21
8.4210054488
  0
LINE
  5
2DF
100
AcDbEntity
  8
0
100
AcDbLine
 62
4
  6
CONTINUOUS
 10
9.8650988291
 20
6.9735769284
 11
9.8844173556
 21
6.986726072
  0
LINE
  5
2E0
100
AcDbEntity
  8
0
100
AcDbLine
 62
4
  6
CONTINUOUS
 10
10.7923875666
 20
9.0333402082
 11
10.6764764606
 21
9.0413786707
  0
LINE
  5
2E1
100
AcDbEntity
  8
0
100
AcDbLine
 62
4
  6
CONTINUOUS
 10
10.6764764606
 20
9.1186527414
 11
10.7923875666
 21
9.1106142788
  0
LINE
  5
2E2
100
AcDbEntity
  8
0
100
AcDbLine
 62
4
  6
CONTINUOUS
 10
11.7759760929
 20
8.4324889667
 11
11.742858636
 21
8.4679031132
  0
LINE
  5
2E3
100
AcDbEntity
  8
0
100
AcDbLine
 62
4
  6
CONTINUOUS
 10
11.9415633877
 20
8.5369165548
 11
11.9746808481
 21
8.501502408
  0
LINE
  5
2E4
100
AcDbEntity
  8
0
100
AcDbLine
 62
4
  6
CONTINUOUS
 10
11.742858636
 20
7.2867137898
 11
11.742858636
 21
7.3695074251
  0
LINE
  5
2E5
100
AcDbEntity
  8
0
100
AcDbLine
 62
4
  6
CONTINUOUS
 10
11.742858636
 20
7.6951624248
 11
11.742858636
 21
7.8276322523
  0
LINE
  5
2E6
100
AcDbEntity
  8
0
100
AcDbLine
 62
4
  6
CONTINUOUS
 10
11.742858636
 20
7.8938671938
 11
11.742858636
 21
7.9932195782
  0
LINE
  5
2E7
100
AcDbEntity
  8
0
100
AcDbLine
 62
4
  6
CONTINUOUS
 10
11.742858636
 20
8.2747180102
 11
11.742858636
 21
8.3409528963
  0
LINE
  5
2E8
100
AcDbEntity
  8
0
100
AcDbLine
 62
4
  6
CONTINUOUS
 10
11.742858636
 20
8.4679031132
 11
11.742858636
 21
8.5175793331
  0
LINE
  5
2E9
100
AcDbEntity
  8
0
100
AcDbLine
 62
4
  6
CONTINUOUS
 10
11.742858636
 20
8.6169316623
 11
11.742858636
 21
8.6997253252
  0
LINE
  5
2EA
100
AcDbEntity
  8
0
100
AcDbLine
 62
4
  6
CONTINUOUS
 10
11.742858636
 20
8.8266756526
 11
11.742858636
 21
8.9260279818
  0
LINE
  5
2EB
100
AcDbEntity
  8
0
100
AcDbLine
 62
4
  6
CONTINUOUS
 10
11.8422110067
 20
8.8860204285
 11
11.8422110067
 21
8.8197855423
  0
LINE
  5
2EC
100
AcDbEntity
  8
0
100
AcDbLine
 62
4
  6
CONTINUOUS
 10
11.8422110067
 20
7.9532120249
 11
11.8422110067
 21
7.8869770835
  0
LINE
  5
2ED
100
AcDbEntity
  8
0
100
AcDbLine
 62
4
  6
CONTINUOUS
 10
11.9084459274
 20
7.5070524704
 11
11.9084459274
 21
7.5953656888
  0
LINE
  5
2EE
100
AcDbEntity
  8
0
100
AcDbLine
 62
7
  6
CONTINUOUS
 10
13.3859342706
 20
9.5053700594
 11
13.3839050791
 21
9.5034459357
  0
LINE
  5
2EF
100
AcDbEntity
  8
0
100
AcDbLine
 62
4
  6
CONTINUOUS
 10
11.9746808481
 20
8.2586410852
 11
11.9415633877
 21
8.2278203458
  0
LINE
  5
2F0
100
AcDbEntity
  8
0
100
AcDbLine
 62
4
  6
CONTINUOUS
 10
10.6764764606
 20
9.3118379181
 11
10.7344320136
 21
9.3078186868
  0
LINE
  5
2F1
100
AcDbEntity
  8
0
100
AcDbLine
 62
4
  6
CONTINUOUS
 10
10.7344320136
 20
9.4237297928
 11
10.7923875666
 21
9.4197105616
  0
LINE
  5
2F2
100
AcDbEntity
  8
0
100
AcDbLine
 62
4
  6
CONTINUOUS
 10
11.9415633877
 20
8.719062547
 11
11.9746808481
 21
8.6836484002
  0
LINE
  5
2F3
100
AcDbEntity
  8
0
100
AcDbLine
 62
4
  6
CONTINUOUS
 10
11.9746808481
 20
8.6836484002
 11
11.9746808481
 21
8.6008547373
  0
LINE
  5
2F4
100
AcDbEntity
  8
0
100
AcDbLine
 62
4
  6
CONTINUOUS
 10
11.9746808481
 20
8.501502408
 11
11.9746808481
 21
8.4518261882
  0
LINE
  5
2F5
100
AcDbEntity
  8
0
100
AcDbLine
 62
4
  6
CONTINUOUS
 10
11.9746808481
 20
8.3248759713
 11
11.9746808481
 21
8.2586410852
  0
LINE
  5
2F6
100
AcDbEntity
  8
0
100
AcDbLine
 62
4
  6
CONTINUOUS
 10
11.9746808481
 20
7.3534305001
 11
11.9746808481
 21
7.2706368648
  0
LINE
  5
2F7
100
AcDbEntity
  8
0
100
AcDbLine
 62
4
  6
CONTINUOUS
 10
11.9746808481
 20
7.8777902687
 11
11.9746808481
 21
7.9771426532
  0
LINE
  5
2F8
100
AcDbEntity
  8
0
100
AcDbLine
 62
4
  6
CONTINUOUS
 10
11.9746808481
 20
8.8105987276
 11
11.9746808481
 21
8.9099510568
  0
LINE
  5
2F9
100
AcDbEntity
  8
0
100
AcDbLine
 62
4
  6
CONTINUOUS
 10
11.8753284705
 20
9.0713892721
 11
11.9194850831
 21
8.9800137823
  0
LINE
  5
2FA
100
AcDbEntity
  8
0
100
AcDbLine
 62
4
  6
CONTINUOUS
 10
11.742858636
 20
7.3695074251
 11
11.7759760929
 21
7.4003281786
  0
LINE
  5
2FB
100
AcDbEntity
  8
0
100
AcDbLine
 62
7
  6
CONTINUOUS
 10
13.0912911694
 20
9.5848322064
 11
8.2616617518
 21
9.9197681441
  0
LINE
  5
2FC
100
AcDbEntity
  8
0
100
AcDbLine
 62
4
  6
CONTINUOUS
 10
11.8753284705
 20
7.1450571342
 11
11.9194850831
 21
7.230308088
  0
LINE
  5
2FD
100
AcDbEntity
  8
0
100
AcDbLine
 62
7
  6
CONTINUOUS
 10
13.7383382482
 20
10.2098317277
 11
8.9087088306
 21
10.5447676654
  0
LINE
  5
2FE
100
AcDbEntity
  8
0
100
AcDbLine
 62
7
  6
CONTINUOUS
 10
13.0912911694
 20
6.4552323346
 11
13.0912911694
 21
9.5848322064
  0
LINE
  5
2FF
100
AcDbEntity
  8
0
100
AcDbLine
 62
7
  6
CONTINUOUS
 10
13.7383382482
 20
10.2098317277
 11
13.7383382482
 21
7.0802318559
  0
LINE
  5
300
100
AcDbEntity
  8
0
100
AcDbLine
 62
7
  6
CONTINUOUS
 10
13.7383382482
 20
7.0802318559
 11
13.0912911694
 21
6.4552323346
  0
SPLINE
  5
301
100
AcDbEntity
  8
0
100
AcDbSpline
 62
7
  6
CONTINUOUS
 70
0
 71
3
 72
23
 73
19
 74
0
 42
0.0000001
 43
0.0000001
 44
0.0000000001
 40
0.0
 40
0.0
 40
0.0
 40
0.0
 40
0.0764225839
 40
0.1504664786
 40
0.2222018877
 40
0.2917108449
 40
0.3590899357
 40
0.42444746
 40
0.4879039455
 40
0.5495927973
 40
0.6096609867
 40
0.6682702178
 40
0.7255962258
 40
0.7818281342
 40
0.8371677597
 40
0.8918276488
 40
0.94602919
 40
1.0
 40
1.0
 40
1.0
 40
1.0
 10
13.4148147088
 20
9.8490356637
 30
0.0
 10
13.4165237161
 20
9.8506864381
 30
0.0
 10
13.4199410498
 20
9.853882865
 30
0.0
 10
13.4251484729
 20
9.8584249479
 30
0.0
 10
13.4303535337
 20
9.8626360843
 30
0.0
 10
13.4355546767
 20
9.8665148057
 30
0.0
 10
13.440750463
 20
9.8700600269
 30
0.0
 10
13.4459395796
 20
9.8732706733
 30
0.0
 10
13.4511206602
 20
9.8761457622
 30
0.0
 10
13.4562922849
 20
9.8786843888
 30
0.0
 10
13.4614530727
 20
9.8808855809
 30
0.0
 10
13.4666015565
 20
9.8827485657
 30
0.0
 10
13.4717362625
 20
9.8842726206
 30
0.0
 10
13.4768556972
 20
9.8854570121
 30
0.0
 10
13.481958237
 20
9.8863012664
 30
0.0
 10
13.4870423412
 20
9.8868048972
 30
0.0
 10
13.4921060159
 20
9.8869675894
 30
0.0
 10
13.4954701699
 20
9.886848582
 30
0.0
 10
13.4971441741
 20
9.8867324845
 30
0.0
  0
SPLINE
  5
302
100
AcDbEntity
  8
0
100
AcDbSpline
 62
7
  6
CONTINUOUS
 70
0
 71
3
 72
23
 73
19
 74
0
 42
0.0000001
 43
0.0000001
 44
0.0000000001
 40
0.0
 40
0.0
 40
0.0
 40
0.0
 40
0.063776909
 40
0.1273449468
 40
0.1907019575
 40
0.2538561145
 40
0.3168131979
 40
0.3795820804
 40
0.4421733815
 40
0.5045993354
 40
0.5668738682
 40
0.6290123838
 40
0.6910316538
 40
0.75294965
 40
0.8147853622
 40
0.8765586114
 40
0.9382898593
 40
1.0
 40
1.0
 40
1.0
 40
1.0
 10
12.8807193494
 20
7.0126858639
 30
0.0
 10
12.8807193494
 20
7.0073784152
 30
0.0
 10
12.8804653054
 20
6.9967791015
 30
0.0
 10
12.8793187291
 20
6.9809446166
 30
0.0
 10
12.8774096469
 20
6.9652356388
 30
0.0
 10
12.8747426469
 20
6.9496890673
 30
0.0
 10
12.8713236746
 20
6.9343404343
 30
0.0
 10
12.8671606376
 20
6.9192252211
 30
0.0
 10
12.862263112
 20
6.9043782484
 30
0.0
 10
12.8566423463
 20
6.8898337536
 30
0.0
 10
12.8503112516
 20
6.8756252906
 30
0.0
 10
12.8432843987
 20
6.8617856325
 30
0.0
 10
12.8355779918
 20
6.8483466952
 30
0.0
 10
12.8272097754
 20
6.8353394719
 30
0.0
 10
12.8181990433
 20
6.822794009
 30
0.0
 10
12.808566455
 20
6.8107391583
 30
0.0
 10
12.7983346191
 20
6.7992030959
 30
0.0
 10
12.7911282826
 20
6.7918746191
 30
0.0
 10
12.7874345911
 20
6.7883067717
 30
0.0
  0
SPLINE
  5
303
100
AcDbEntity
  8
0
100
AcDbSpline
 62
7
  6
CONTINUOUS
 70
0
 71
3
 72
48
 73
44
 74
0
 42
0.0000001
 43
0.0000001
 44
0.0000000001
 40
0.0
 40
0.0
 40
0.0
 40
0.0
 40
0.0149718897
 40
0.0299468369
 40
0.0449278839
 40
0.0599180336
 40
0.0749202322
 40
0.0899373568
 40
0.1049721887
 40
0.1200274064
 40
0.1351055645
 40
0.1502090774
 40
0.1653402142
 40
0.180501073
 40
0.1956935825
 40
0.2109194836
 40
0.2261803205
 40
0.2414774416
 40
0.2568119786
 40
0.2721848576
 40
0.3030428416
 40
0.3340598877
 40
0.365235493
 40
0.3965657058
 40
0.4280432614
 40
0.4596577825
 40
0.4913960356
 40
0.5232422374
 40
0.5551784039
 40
0.5871847345
 40
0.6192400218
 40
0.6513220815
 40
0.6834081967
 40
0.7154755701
 40
0.7475017768
 40
0.7794652126
 40
0.8113455287
 40
0.8431240501
 40
0.8747841728
 40
0.9063117021
 40
0.9376953081
 40
0.9689262526
 40
1.0
 40
1.0
 40
1.0
 40
1.0
 10
12.3094470998
 20
7.2831521411
 30
0.0
 10
12.3123007934
 20
7.2859086093
 30
0.0
 10
12.3181189983
 20
7.2913092886
 30
0.0
 10
12.3271623308
 20
7.2990579224
 30
0.0
 10
12.3365101243
 20
7.3064445161
 30
0.0
 10
12.3461494167
 20
7.3134586312
 30
0.0
 10
12.3560669135
 20
7.3200907651
 30
0.0
 10
12.3662490018
 20
7.3263317118
 30
0.0
 10
12.3766816557
 20
7.3321729093
 30
0.0
 10
12.387350496
 20
7.3376063659
 30
0.0
 10
12.3982408841
 20
7.3426245189
 30
0.0
 10
12.4093377803
 20
7.3472205841
 30
0.0
 10
12.4206259563
 20
7.3513881454
 30
0.0
 10
12.4320898553
 20
7.3551215316
 30
0.0
 10
12.4437137044
 20
7.3584156244
 30
0.0
 10
12.4554815237
 20
7.3612658288
 30
0.0
 10
12.4673771128
 20
7.3636683455
 30
0.0
 10
12.4793840724
 20
7.3656197611
 30
0.0
 10
12.4914860878
 20
7.3671174875
 30
0.0
 10
12.5077448347
 20
7.3685084225
 30
0.0
 10
12.5282280435
 20
7.3690998125
 30
0.0
 10
12.5528829705
 20
7.3679749975
 30
0.0
 10
12.5775128522
 20
7.365023512
 30
0.0
 10
12.6019814323
 20
7.3602617665
 30
0.0
 10
12.6261545763
 20
7.353716216
 30
0.0
 10
12.6498994968
 20
7.3454230389
 30
0.0
 10
12.6730858728
 20
7.335427974
 30
0.0
 10
12.6955864557
 20
7.3237860787
 30
0.0
 10
12.7172777877
 20
7.3105614178
 30
0.0
 10
12.7380408544
 20
7.2958266971
 30
0.0
 10
12.7577617323
 20
7.2796628712
 30
0.0
 10
12.7763322035
 20
7.2621587009
 30
0.0
 10
12.7936503435
 20
7.2434102747
 30
0.0
 10
12.8096210959
 20
7.2235205029
 30
0.0
 10
12.8241567682
 20
7.2025985353
 30
0.0
 10
12.8371775089
 20
7.1807591734
 30
0.0
 10
12.848611742
 20
7.1581222443
 30
0.0
 10
12.8583965553
 20
7.1348119663
 30
0.0
 10
12.8664780543
 20
7.110956232
 30
0.0
 10
12.8728117013
 20
7.0866861009
 30
0.0
 10
12.8773624184
 20
7.062134393
 30
0.0
 10
12.8801050669
 20
7.0374376642
 30
0.0
 10
12.8807193494
 20
7.0209204659
 30
0.0
 10
12.8807193494
 20
7.0126858639
 30
0.0
  0
SPLINE
  5
304
100
AcDbEntity
  8
0
100
AcDbSpline
 62
7
  6
CONTINUOUS
 70
0
 71
3
 72
107
 73
103
 74
0
 42
0.0000001
 43
0.0000001
 44
0.0000000001
 40
0.0
 40
0.0
 40
0.0
 40
0.0
 40
0.0013572613
 40
0.0027170799
 40
0.0040819965
 40
0.0054545207
 40
0.0068371185
 40
0.0082321972
 40
0.0110684596
 40
0.0139816373
 40
0.0169879132
 40
0.0201018439
 40
0.0233363266
 40
0.0267026445
 40
0.0302105612
 40
0.0338684351
 40
0.0376833621
 40
0.0416612922
 40
0.045807177
 40
0.050125058
 40
0.054618204
 40
0.0592891635
 40
0.064139889
 40
0.0691717572
 40
0.0743856823
 40
0.07978211
 40
0.0853611229
 40
0.0911224149
 40
0.0970653899
 40
0.1031891234
 40
0.1094924545
 40
0.1159739404
 40
0.1226319415
 40
0.1294645731
 40
0.1364697826
 40
0.1436453027
 40
0.1509887193
 40
0.1584974293
 40
0.166168698
 40
0.1739996243
 40
0.1819871868
 40
0.1901282171
 40
0.1984194352
 40
0.2068574317
 40
0.2154386921
 40
0.2330162325
 40
0.2511220174
 40
0.2697243295
 40
0.2887900845
 40
0.3082849562
 40
0.3281734938
 40
0.3484192347
 40
0.3689848126
 40
0.3898320624
 40
0.4109221241
 40
0.4322155433
 40
0.4536723719
 40
0.4752522673
 40
0.4969145913
 40
0.5186185079
 40
0.5403230817
 40
0.5619873759
 40
0.5835705499
 40
0.6050319574
 40
0.6263312449
 40
0.6474284501
 40
0.6682841015
 40
0.688859318
 40
0.709115911
 40
0.7290164868
 40
0.748524552
 40
0.7676046219
 40
0.7862223322
 40
0.8043445569
 40
0.8219395328
 40
0.8389769933
 40
0.8472777398
 40
0.8554285117
 40
0.8634260239
 40
0.8712670992
 40
0.8789487061
 40
0.886467938
 40
0.8938220446
 40
0.9010084211
 40
0.9080246317
 40
0.9148684108
 40
0.921537678
 40
0.9280305532
 40
0.9343453628
 40
0.9404806703
 40
0.9464352751
 40
0.9522082596
 40
0.9577989819
 40
0.9632071394
 40
0.9684327639
 40
0.9734763088
 40
0.9783386285
 40
0.9830210722
 40
0.98752553
 40
0.9918546169
 40
0.996011535
 40
1.0
 40
1.0
 40
1.0
 40
1.0
 10
13.3324852435
 20
7.51243524
 30
0.0
 10
13.3313755171
 20
7.5125122031
 30
0.0
 10
13.3291571113
 20
7.5127161822
 30
0.0
 10
13.3258416388
 20
7.5131716013
 30
0.0
 10
13.3225373754
 20
7.5137764946
 30
0.0
 10
13.3192448707
 20
7.5145307512
 30
0.0
 10
13.3159644881
 20
7.5154343089
 30
0.0
 10
13.3115838896
 20
7.5168454511
 30
0.0
 10
13.306128652
 20
7.5189932398
 30
0.0
 10
13.2996773048
 20
7.522151898
 30
0.0
 10
13.2932869873
 20
7.5259037281
 30
0.0
 10
13.2869610433
 20
7.5302460229
 30
0.0
 10
13.2807021666
 20
7.5351760305
 30
0.0
 10
13.2745130912
 20
7.5406908698
 30
0.0
 10
13.2683964886
 20
7.5467875372
 30
0.0
 10
13.2623550109
 20
7.5534628363
 30
0.0
 10
13.2563913661
 20
7.5607134015
 30
0.0
 10
13.2505082205
 20
7.5685355962
 30
0.0
 10
13.2447083325
 20
7.5769255797
 30
0.0
 10
13.2389943765
 20
7.5858791949
 30
0.0
 10
13.2333691315
 20
7.5953920619
 30
0.0
 10
13.2278352496
 20
7.605459468
 30
0.0
 10
13.2223954926
 20
7.616076469
 30
0.0
 10
13.2170524613
 20
7.6272377889
 30
0.0
 10
13.2118088683
 20
7.6389379166
 30
0.0
 10
13.2066672414
 20
7.6511710193
 30
0.0
 10
13.2016302196
 20
7.6639310272
 30
0.0
 10
13.1967002429
 20
7.6772115634
 30
0.0
 10
13.1918798585
 20
7.6910060132
 30
0.0
 10
13.1871714086
 20
7.7053074703
 30
0.0
 10
13.1825773347
 20
7.720108791
 30
0.0
 10
13.1780998746
 20
7.7354025563
 30
0.0
 10
13.173741353
 20
7.7511811106
 30
0.0
 10
13.1695038982
 20
7.7674365383
 30
0.0
 10
13.1653897093
 20
7.7841606906
 30
0.0
 10
13.1614008011
 20
7.8013451725
 30
0.0
 10
13.1575392402
 20
7.8189813601
 30
0.0
 10
13.1538069237
 20
7.8370603971
 30
0.0
 10
13.1502057801
 20
7.8555732038
 30
0.0
 10
13.1467375851
 20
7.8745104806
 30
0.0
 10
13.1434041247
 20
7.8938627119
 30
0.0
 10
13.1402070486
 20
7.9136201746
 30
0.0
 10
13.1371479999
 20
7.9337729342
 30
0.0
 10
13.1342284861
 20
7.9543108766
 30
0.0
 10
13.1304940526
 20
7.9824192543
 30
0.0
 10
13.1261956489
 20
8.0184443019
 30
0.0
 10
13.1216567176
 20
8.06270577
 30
0.0
 10
13.1177059409
 20
8.1082479693
 30
0.0
 10
13.1143513438
 20
8.1549792892
 30
0.0
 10
13.1115997656
 20
8.2028058445
 30
0.0
 10
13.1094568146
 20
8.2516314913
 30
0.0
 10
13.1079268672
 20
8.3013580728
 30
0.0
 10
13.107013057
 20
8.3518856061
 30
0.0
 10
13.1067172701
 20
8.403112489
 30
0.0
 10
13.1070401418
 20
8.4549357057
 30
0.0
 10
13.1079810561
 20
8.5072510351
 30
0.0
 10
13.1095381468
 20
8.559953262
 30
0.0
 10
13.1117083024
 20
8.6129363902
 30
0.0
 10
13.1144871723
 20
8.6660938559
 30
0.0
 10
13.1178691758
 20
8.7193187437
 30
0.0
 10
13.1218475135
 20
8.7725040018
 30
0.0
 10
13.126414181
 20
8.8255426588
 30
0.0
 10
13.1315599852
 20
8.8783280393
 30
0.0
 10
13.1372745627
 20
8.9307539791
 30
0.0
 10
13.1435464004
 20
8.9827150404
 30
0.0
 10
13.1503628585
 20
9.0341067241
 30
0.0
 10
13.157710196
 20
9.0848256814
 30
0.0
 10
13.1655735977
 20
9.1347699233
 30
0.0
 10
13.1739372037
 20
9.1838390268
 30
0.0
 10
13.182784141
 20
9.2319343394
 30
0.0
 10
13.1920965572
 20
9.2789591784
 30
0.0
 10
13.2018556552
 20
9.3248190327
 30
0.0
 10
13.2120417318
 20
9.3694217407
 30
0.0
 10
13.222634215
 20
9.4126777364
 30
0.0
 10
13.2336117108
 20
9.4545000331
 30
0.0
 10
13.2431426438
 20
9.4883743223
 30
0.0
 10
13.2509519513
 20
9.5146873858
 30
0.0
 10
13.2568405038
 20
9.5338410575
 30
0.0
 10
13.2628083747
 20
9.5525751519
 30
0.0
 10
13.2688526067
 20
9.570880266
 30
0.0
 10
13.2749701251
 20
9.5887472026
 30
0.0
 10
13.2811578722
 20
9.6061669858
 30
0.0
 10
13.2874127146
 20
9.6231308696
 30
0.0
 10
13.2937315152
 20
9.6396303357
 30
0.0
 10
13.3001110864
 20
9.6556571041
 30
0.0
 10
13.3065482184
 20
9.6712031341
 30
0.0
 10
13.313039677
 20
9.6862606283
 30
0.0
 10
13.3195821868
 20
9.700822042
 30
0.0
 10
13.3261724758
 20
9.7148800763
 30
0.0
 10
13.3328072099
 20
9.7284277006
 30
0.0
 10
13.3394830894
 20
9.7414581303
 30
0.0
 10
13.346196732
 20
9.753964866
 30
0.0
 10
13.3529448195
 20
9.7659416495
 30
0.0
 10
13.3597239297
 20
9.7773825298
 30
0.0
 10
13.3665307432
 20
9.7882817938
 30
0.0
 10
13.3733618242
 20
9.7986340542
 30
0.0
 10
13.3802138527
 20
9.8084341308
 30
0.0
 10
13.3870833659
 20
9.8176772086
 30
0.0
 10
13.3939671009
 20
9.8263587023
 30
0.0
 10
13.4008617713
 20
9.8344744618
 30
0.0
 10
13.4077638449
 20
9.8420201148
 30
0.0
 10
13.4124635454
 20
9.8467646141
 30
0.0
 10
13.4148147088
 20
9.8490356637
 30
0.0
  0
SPLINE
  5
305
100
AcDbEntity
  8
0
100
AcDbSpline
 62
7
  6
CONTINUOUS
 70
0
 71
3
 72
93
 73
89
 74
0
 42
0.0000001
 43
0.0000001
 44
0.0000000001
 40
0.0
 40
0.0
 40
0.0
 40
0.0
 40
0.0036898638
 40
0.007521948
 40
0.0114997523
 40
0.0156261472
 40
0.0199035085
 40
0.0243336985
 40
0.0289181642
 40
0.0336579819
 40
0.0385538443
 40
0.0436061737
 40
0.0488150751
 40
0.0541804029
 40
0.0597017945
 40
0.0653786301
 40
0.0712101319
 40
0.0771953083
 40
0.0833329986
 40
0.0896219057
 40
0.0960605422
 40
0.1026473191
 40
0.1093804928
 40
0.1162581924
 40
0.1304389697
 40
0.1451727162
 40
0.1604406533
 40
0.1762225383
 40
0.1924967907
 40
0.2092406004
 40
0.2264300205
 40
0.2440400698
 40
0.262044819
 40
0.2804174694
 40
0.2991304232
 40
0.318155354
 40
0.3374632839
 40
0.3570246521
 40
0.3768093795
 40
0.3967869309
 40
0.4169263812
 40
0.4371964833
 40
0.4575657312
 40
0.4780024211
 40
0.4984747144
 40
0.5189507028
 40
0.5393984719
 40
0.5597861622
 40
0.5800820319
 40
0.6002545222
 40
0.6202723213
 40
0.6401044266
 40
0.6597202066
 40
0.6790894665
 40
0.6981825196
 40
0.7169702499
 40
0.7354241777
 40
0.7535165272
 40
0.7712203023
 40
0.7885093676
 40
0.8053585194
 40
0.8217435675
 40
0.8376414234
 40
0.8530302068
 40
0.8678893588
 40
0.8821997556
 40
0.8891437254
 40
0.8959440691
 40
0.9025988542
 40
0.9091063051
 40
0.9154647343
 40
0.9216726205
 40
0.9277285816
 40
0.93363137
 40
0.9393799445
 40
0.9449734018
 40
0.9504110573
 40
0.9556924341
 40
0.9608172579
 40
0.9657855502
 40
0.9705975644
 40
0.9752538626
 40
0.9797553315
 40
0.9841032123
 40
0.9882992601
 40
0.9923456533
 40
0.9962449198
 40
1.0
 40
1.0
 40
1.0
 40
1.0
 10
13.2749819184
 20
7.9054987754
 30
0.0
 10
13.2736993379
 20
7.9070757695
 30
0.0
 10
13.2711512185
 20
7.9103450944
 30
0.0
 10
13.2674473413
 20
7.9154862495
 30
0.0
 10
13.2637920623
 20
7.9209537955
 30
0.0
 10
13.2601868529
 20
7.9267453545
 30
0.0
 10
13.2566331943
 20
7.9328586288
 30
0.0
 10
13.2531324783
 20
7.939291087
 30
0.0
 10
13.2496861255
 20
7.9460401029
 30
0.0
 10
13.2462955785
 20
7.9531029213
 30
0.0
 10
13.2429621643
 20
7.9604766207
 30
0.0
 10
13.2396873125
 20
7.968158188
 30
0.0
 10
13.2364723386
 20
7.976144447
 30
0.0
 10
13.2333185669
 20
7.9844321047
 30
0.0
 10
13.2302273425
 20
7.9930177484
 30
0.0
 10
13.2271998905
 20
8.0018978176
 30
0.0
 10
13.2242375174
 20
8.01106865
 30
0.0
 10
13.2213414301
 20
8.0205264443
 30
0.0
 10
13.2185128215
 20
8.0302672833
 30
0.0
 10
13.2157529092
 20
8.0402871363
 30
0.0
 10
13.213062789
 20
8.0505818438
 30
0.0
 10
13.2104436264
 20
8.061147139
 30
0.0
 10
13.207896481
 20
8.0719786468
 30
0.0
 10
13.2045637914
 20
8.0869219822
 30
0.0
 10
13.2005942051
 20
8.106237567
 30
0.0
 10
13.1961814906
 20
8.1301754781
 30
0.0
 10
13.1920798289
 20
8.1550629344
 30
0.0
 10
13.1882960907
 20
8.1808585931
 30
0.0
 10
13.1848366348
 20
8.2075197093
 30
0.0
 10
13.1817072737
 20
8.2350020413
 30
0.0
 10
13.1789132548
 20
8.263259971
 30
0.0
 10
13.176459267
 20
8.2922465753
 30
0.0
 10
13.1743494314
 20
8.321913715
 30
0.0
 10
13.1725872963
 20
8.3522121135
 30
0.0
 10
13.1711758272
 20
8.3830914351
 30
0.0
 10
13.1701173928
 20
8.41450037
 30
0.0
 10
13.1694137765
 20
8.4463867239
 30
0.0
 10
13.1690661704
 20
8.4786975089
 30
0.0
 10
13.1690751761
 20
8.5113790285
 30
0.0
 10
13.1694407954
 20
8.5443769656
 30
0.0
 10
13.1701624283
 20
8.5776364741
 30
0.0
 10
13.1712388849
 20
8.6111022725
 30
0.0
 10
13.1726683852
 20
8.6447187369
 30
0.0
 10
13.1744485645
 20
8.678429991
 30
0.0
 10
13.1765764658
 20
8.7121799999
 30
0.0
 10
13.1790485488
 20
8.7459126649
 30
0.0
 10
13.1818607034
 20
8.7795719164
 30
0.0
 10
13.1850082537
 20
8.8131018067
 30
0.0
 10
13.1884859685
 20
8.8464466027
 30
0.0
 10
13.192288056
 20
8.8795508816
 30
0.0
 10
13.1964081836
 20
8.9123596228
 30
0.0
 10
13.2008394907
 20
8.9448182983
 30
0.0
 10
13.2055745997
 20
8.9768729613
 30
0.0
 10
13.2106056281
 20
9.0084703392
 30
0.0
 10
13.2159241887
 20
9.0395579262
 30
0.0
 10
13.2215214165
 20
9.0700840695
 30
0.0
 10
13.2273879827
 20
9.0999980514
 30
0.0
 10
13.2335141107
 20
9.1292501737
 30
0.0
 10
13.2398895899
 20
9.1577918472
 30
0.0
 10
13.2465037819
 20
9.1855756774
 30
0.0
 10
13.2533456531
 20
9.2125555399
 30
0.0
 10
13.2604037889
 20
9.2386866568
 30
0.0
 10
13.2676664169
 20
9.2639256632
 30
0.0
 10
13.2751214188
 20
9.2882307352
 30
0.0
 10
13.2827563482
 20
9.3115615073
 30
0.0
 10
13.2893221344
 20
9.330343147
 30
0.0
 10
13.2946613774
 20
9.3448469678
 30
0.0
 10
13.298662691
 20
9.3553484345
 30
0.0
 10
13.3026993849
 20
9.3655782688
 30
0.0
 10
13.3067697476
 20
9.3755322468
 30
0.0
 10
13.3108721253
 20
9.3852062284
 30
0.0
 10
13.3150047936
 20
9.3945962088
 30
0.0
 10
13.3191660227
 20
9.4036983012
 30
0.0
 10
13.3233541249
 20
9.4125087226
 30
0.0
 10
13.3275673094
 20
9.4210238434
 30
0.0
 10
13.3318038716
 20
9.4292401274
 30
0.0
 10
13.3360620397
 20
9.4371541824
 30
0.0
 10
13.3403400294
 20
9.4447627484
 30
0.0
 10
13.3446361225
 20
9.4520626662
 30
0.0
 10
13.348948493
 20
9.4590509561
 30
0.0
 10
13.3532754111
 20
9.4657247218
 30
0.0
 10
13.3576150812
 20
9.4720812142
 30
0.0
 10
13.3619656828
 20
9.4781178323
 30
0.0
 10
13.3663255169
 20
9.4838320877
 30
0.0
 10
13.3706928072
 20
9.4892217135
 30
0.0
 10
13.3750658843
 20
9.4942845039
 30
0.0
 10
13.3794427628
 20
9.4990181784
 30
0.0
 10
13.3824172
 20
9.5020087548
 30
0.0
 10
13.3839050791
 20
9.5034459357
 30
0.0
  0
SPLINE
  5
306
100
AcDbEntity
  8
0
100
AcDbSpline
 62
7
  6
CONTINUOUS
 70
0
 71
3
 72
11
 73
7
 74
0
 42
0.0000001
 43
0.0000001
 44
0.0000000001
 40
0.0
 40
0.0
 40
0.0
 40
0.0
 40
0.247498635
 40
0.4960056396
 40
0.7465161307
 40
1.0
 40
1.0
 40
1.0
 40
1.0
 10
13.2547429588
 20
7.9588834948
 30
0.0
 10
13.2537131418
 20
7.958954916
 30
0.0
 10
13.25165341
 20
7.9591663945
 30
0.0
 10
13.2485815919
 20
7.9596879734
 30
0.0
 10
13.2455259299
 20
7.9604139212
 30
0.0
 10
13.2435143313
 20
7.9610296933
 30
0.0
 10
13.2425133861
 20
7.9613701276
 30
0.0
  0
SPLINE
  5
307
100
AcDbEntity
  8
0
100
AcDbSpline
 62
7
  6
CONTINUOUS
 70
0
 71
3
 72
11
 73
7
 74
0
 42
0.0000001
 43
0.0000001
 44
0.0000000001
 40
0.0
 40
0.0
 40
0.0
 40
0.0
 40
0.2475810533
 40
0.4961371518
 40
0.7466305642
 40
1.0
 40
1.0
 40
1.0
 40
1.0
 10
13.358519058
 20
9.45528936
 30
0.0
 10
13.3575067057
 20
9.4553595699
 30
0.0
 10
13.3554728292
 20
9.4554343039
 30
0.0
 10
13.3524117097
 20
9.4553484331
 30
0.0
 10
13.3493387535
 20
9.4550648327
 30
0.0
 10
13.3472966894
 20
9.4547461443
 30
0.0
 10
13.3462759306
 20
9.4545549553
 30
0.0
  0
SPLINE
  5
308
100
AcDbEntity
  8
0
100
AcDbSpline
 62
7
  6
CONTINUOUS
 70
0
 71
3
 72
48
 73
44
 74
0
 42
0.0000001
 43
0.0000001
 44
0.0000000001
 40
0.0
 40
0.0
 40
0.0
 40
0.0
 40
0.0149718897
 40
0.0299468369
 40
0.0449278839
 40
0.0599180336
 40
0.0749202322
 40
0.0899373568
 40
0.1049721887
 40
0.1200274064
 40
0.1351055645
 40
0.1502090774
 40
0.1653402142
 40
0.180501073
 40
0.1956935825
 40
0.2109194836
 40
0.2261803205
 40
0.2414774416
 40
0.2568119786
 40
0.2721848576
 40
0.3030428416
 40
0.3340598877
 40
0.365235493
 40
0.3965657058
 40
0.4280432614
 40
0.4596577825
 40
0.4913960356
 40
0.5232422374
 40
0.5551784039
 40
0.5871847345
 40
0.6192400218
 40
0.6513220815
 40
0.6834081967
 40
0.7154755701
 40
0.7475017768
 40
0.7794652126
 40
0.8113455287
 40
0.8431240501
 40
0.8747841728
 40
0.9063117021
 40
0.9376953081
 40
0.9689262526
 40
1.0
 40
1.0
 40
1.0
 40
1.0
 10
12.7874345911
 20
6.7883067717
 30
0.0
 10
12.7845808975
 20
6.7855503035
 30
0.0
 10
12.7787626926
 20
6.7801496243
 30
0.0
 10
12.7697193601
 20
6.7724009905
 30
0.0
 10
12.7603715667
 20
6.7650143967
 30
0.0
 10
12.7507322742
 20
6.7580002816
 30
0.0
 10
12.7408147774
 20
6.7513681477
 30
0.0
 10
12.7306326892
 20
6.745127201
 30
0.0
 10
12.7202000352
 20
6.7392860035
 30
0.0
 10
12.7095311949
 20
6.7338525469
 30
0.0
 10
12.6986408068
 20
6.728834394
 30
0.0
 10
12.6875439106
 20
6.7242383288
 30
0.0
 10
12.6762557346
 20
6.7200707675
 30
0.0
 10
12.6647918356
 20
6.7163373812
 30
0.0
 10
12.6531679865
 20
6.7130432884
 30
0.0
 10
12.6414001672
 20
6.7101930841
 30
0.0
 10
12.6295045781
 20
6.7077905674
 30
0.0
 10
12.6174976185
 20
6.7058391518
 30
0.0
 10
12.6053956031
 20
6.7043414253
 30
0.0
 10
12.5891368562
 20
6.7029504903
 30
0.0
 10
12.5686536475
 20
6.7023591003
 30
0.0
 10
12.5439987204
 20
6.7034839154
 30
0.0
 10
12.5193688388
 20
6.7064354008
 30
0.0
 10
12.4949002587
 20
6.7111971463
 30
0.0
 10
12.4707271146
 20
6.7177426968
 30
0.0
 10
12.4469821941
 20
6.726035874
 30
0.0
 10
12.4237958181
 20
6.7360309388
 30
0.0
 10
12.4012952352
 20
6.7476728342
 30
0.0
 10
12.3796039032
 20
6.7608974951
 30
0.0
 10
12.3588408365
 20
6.7756322157
 30
0.0
 10
12.3391199586
 20
6.7917960417
 30
0.0
 10
12.3205494874
 20
6.8093002119
 30
0.0
 10
12.3032313474
 20
6.8280486381
 30
0.0
 10
12.287260595
 20
6.84793841
 30
0.0
 10
12.2727249227
 20
6.8688603775
 30
0.0
 10
12.259704182
 20
6.8906997394
 30
0.0
 10
12.2482699489
 20
6.9133366686
 30
0.0
 10
12.2384851356
 20
6.9366469466
 30
0.0
 10
12.2304036366
 20
6.9605026809
 30
0.0
 10
12.2240699896
 20
6.984772812
 30
0.0
 10
12.2195192725
 20
7.0093245198
 30
0.0
 10
12.216776624
 20
7.0340212487
 30
0.0
 10
12.2161623415
 20
7.050538447
 30
0.0
 10
12.2161623415
 20
7.0587730489
 30
0.0
  0
SPLINE
  5
309
100
AcDbEntity
  8
0
100
AcDbSpline
 62
7
  6
CONTINUOUS
 70
0
 71
3
 72
23
 73
19
 74
0
 42
0.0000001
 43
0.0000001
 44
0.0000000001
 40
0.0
 40
0.0
 40
0.0
 40
0.0
 40
0.063776909
 40
0.1273449468
 40
0.1907019575
 40
0.2538561145
 40
0.3168131979
 40
0.3795820804
 40
0.4421733815
 40
0.5045993354
 40
0.5668738682
 40
0.6290123838
 40
0.6910316538
 40
0.75294965
 40
0.8147853622
 40
0.8765586114
 40
0.9382898593
 40
1.0
 40
1.0
 40
1.0
 40
1.0
 10
12.2161623415
 20
7.0587730489
 30
0.0
 10
12.2161623415
 20
7.0640804977
 30
0.0
 10
12.2164163855
 20
7.0746798113
 30
0.0
 10
12.2175629618
 20
7.0905142962
 30
0.0
 10
12.219472044
 20
7.106223274
 30
0.0
 10
12.2221390441
 20
7.1217698456
 30
0.0
 10
12.2255580163
 20
7.1371184785
 30
0.0
 10
12.2297210533
 20
7.1522336917
 30
0.0
 10
12.234618579
 20
7.1670806645
 30
0.0
 10
12.2402393446
 20
7.1816251592
 30
0.0
 10
12.2465704393
 20
7.1958336222
 30
0.0
 10
12.2535972922
 20
7.2096732803
 30
0.0
 10
12.2613036991
 20
7.2231122177
 30
0.0
 10
12.2696719156
 20
7.2361194409
 30
0.0
 10
12.2786826476
 20
7.2486649039
 30
0.0
 10
12.2883152359
 20
7.2607197546
 30
0.0
 10
12.2985470719
 20
7.2722558169
 30
0.0
 10
12.3057534083
 20
7.2795842937
 30
0.0
 10
12.3094470998
 20
7.2831521411
 30
0.0
  0
SPLINE
  5
30A
100
AcDbEntity
  8
0
100
AcDbSpline
 62
7
  6
CONTINUOUS
 70
0
 71
3
 72
104
 73
100
 74
0
 42
0.0000001
 43
0.0000001
 44
0.0000000001
 40
0.0
 40
0.0
 40
0.0
 40
0.0
 40
0.0039386662
 40
0.008040605
 40
0.012309363
 40
0.0167480021
 40
0.0213590548
 40
0.0261443798
 40
0.031105304
 40
0.0362426967
 40
0.0415570342
 40
0.0470484168
 40
0.0527165988
 40
0.0585610423
 40
0.064580913
 40
0.0707751449
 40
0.077142408
 40
0.083681186
 40
0.0903897268
 40
0.0972661244
 40
0.1043082624
 40
0.1115138911
 40
0.1188805765
 40
0.1264057621
 40
0.1340867331
 40
0.1419206571
 40
0.1499045685
 40
0.1580353853
 40
0.1663099157
 40
0.1747248515
 40
0.1919620756
 40
0.2097188303
 40
0.2279652813
 40
0.2466702849
 40
0.2658015054
 40
0.2853255242
 40
0.3052079445
 40
0.3254134914
 40
0.3459061098
 40
0.3666490588
 40
0.3876050059
 40
0.4087361187
 40
0.4300041565
 40
0.4513705612
 40
0.4727965471
 40
0.4942431913
 40
0.515671523
 40
0.5370426139
 40
0.5583176674
 40
0.5794581089
 40
0.6004256759
 40
0.621182509
 40
0.6416912429
 40
0.6619150985
 40
0.6818179766
 40
0.701364553
 40
0.7205203752
 40
0.7392519631
 40
0.7575269128
 40
0.7753140059
 40
0.7925833255
 40
0.801014941
 40
0.8093065532
 40
0.8174548439
 40
0.8254566107
 40
0.8333087495
 40
0.8410082936
 40
0.8485523766
 40
0.8559382907
 40
0.8631634353
 40
0.870225388
 40
0.8771218484
 40
0.8838507118
 40
0.8904100188
 40
0.8967980235
 40
0.9030131583
 40
0.909054088
 40
0.9149197
 40
0.9206091392
 40
0.9261218284
 40
0.9314574837
 40
0.9366161685
 40
0.9415982924
 40
0.9464046984
 40
0.9510366537
 40
0.9554959669
 40
0.9597849832
 40
0.9639067254
 40
0.967864909
 40
0.9716640988
 40
0.9753097567
 40
0.9788084036
 40
0.9821677021
 40
0.9853966056
 40
0.9885054564
 40
0.991506085
 40
0.9944118681
 40
0.9972377153
 40
1.0
 40
1.0
 40
1.0
 40
1.0
 10
13.3839050791
 20
7.552275651
 30
0.0
 10
13.3862118671
 20
7.5545038372
 30
0.0
 10
13.3908229764
 20
7.5591550401
 30
0.0
 10
13.3975976404
 20
7.5665452317
 30
0.0
 10
13.4043653175
 20
7.5744848169
 30
0.0
 10
13.4111226439
 20
7.5829696607
 30
0.0
 10
13.4178665165
 20
7.5919958475
 30
0.0
 10
13.4245938437
 20
7.601559075
 30
0.0
 10
13.4313013773
 20
7.6116548063
 30
0.0
 10
13.4379859345
 20
7.6222781872
 30
0.0
 10
13.4446443111
 20
7.6334241368
 30
0.0
 10
13.451273312
 20
7.6450873148
 30
0.0
 10
13.4578697645
 20
7.6572621152
 30
0.0
 10
13.4644304552
 20
7.6699426929
 30
0.0
 10
13.4709522604
 20
7.6831229303
 30
0.0
 10
13.477431974
 20
7.6967964919
 30
0.0
 10
13.4838665224
 20
7.7109567681
 30
0.0
 10
13.4902527228
 20
7.7255969417
 30
0.0
 10
13.4965875509
 20
7.7407099278
 30
0.0
 10
13.5028678673
 20
7.7562884399
 30
0.0
 10
13.5090906936
 20
7.7723249358
 30
0.0
 10
13.5152529511
 20
7.7888116732
 30
0.0
 10
13.5213517048
 20
7.8057406694
 30
0.0
 10
13.5273839518
 20
7.8231037418
 30
0.0
 10
13.5333468003
 20
7.8408924836
 30
0.0
 10
13.5392373336
 20
7.8590982891
 30
0.0
 10
13.5450527077
 20
7.8777123444
 30
0.0
 10
13.5507900952
 20
7.8967256358
 30
0.0
 10
13.5564467206
 20
7.9161289697
 30
0.0
 10
13.5639374233
 20
7.9427203298
 30
0.0
 10
13.5730694923
 20
7.9768694474
 30
0.0
 10
13.5835771887
 20
8.0189314422
 30
0.0
 10
13.5936993416
 20
8.0623160226
 30
0.0
 10
13.6034162651
 20
8.1069391246
 30
0.0
 10
13.612709059
 20
8.1527143993
 30
0.0
 10
13.6215596545
 20
8.1995532092
 30
0.0
 10
13.6299508462
 20
8.2473648525
 30
0.0
 10
13.637866326
 20
8.2960567274
 30
0.0
 10
13.6452907139
 20
8.3455345181
 30
0.0
 10
13.6522095876
 20
8.3957023777
 30
0.0
 10
13.6586095102
 20
8.4464631161
 30
0.0
 10
13.6644780554
 20
8.4977183892
 30
0.0
 10
13.6698038323
 20
8.5493688908
 30
0.0
 10
13.6745765064
 20
8.6013145458
 30
0.0
 10
13.6787868201
 20
8.6534547047
 30
0.0
 10
13.68242661
 20
8.7056883399
 30
0.0
 10
13.6854888234
 20
8.7579142417
 30
0.0
 10
13.6879675316
 20
8.8100312153
 30
0.0
 10
13.6898579414
 20
8.8619382779
 30
0.0
 10
13.6911564049
 20
8.9135348545
 30
0.0
 10
13.6918604269
 20
8.9647209743
 30
0.0
 10
13.6919686698
 20
9.0153974651
 30
0.0
 10
13.6914809562
 20
9.0654661465
 30
0.0
 10
13.6903982705
 20
9.1148300211
 30
0.0
 10
13.6887227566
 20
9.1633934645
 30
0.0
 10
13.6864577149
 20
9.2110624109
 30
0.0
 10
13.6836075968
 20
9.257744541
 30
0.0
 10
13.6801779948
 20
9.3033494508
 30
0.0
 10
13.6761756409
 20
9.3477888768
 30
0.0
 10
13.6716083625
 20
9.3909767009
 30
0.0
 10
13.6673055577
 20
9.426127812
 30
0.0
 10
13.6635793109
 20
9.4535557523
 30
0.0
 10
13.6606714164
 20
9.4735986815
 30
0.0
 10
13.6576295145
 20
9.4932676062
 30
0.0
 10
13.6544550943
 20
9.5125530158
 30
0.0
 10
13.6511496674
 20
9.5314455701
 30
0.0
 10
13.6477148833
 20
9.5499361231
 30
0.0
 10
13.6441523591
 20
9.5680157252
 30
0.0
 10
13.640463885
 20
9.585675627
 30
0.0
 10
13.6366511894
 20
9.6029072831
 30
0.0
 10
13.6327161905
 20
9.6197023596
 30
0.0
 10
13.6286607343
 20
9.6360527328
 30
0.0
 10
13.6244868527
 20
9.6519505015
 30
0.0
 10
13.6201965148
 20
9.6673879804
 30
0.0
 10
13.6157918517
 20
9.682357717
 30
0.0
 10
13.6112749603
 20
9.6968524822
 30
0.0
 10
13.6066480568
 20
9.7108652865
 30
0.0
 10
13.6019133669
 20
9.7243893747
 30
0.0
 10
13.5970731796
 20
9.7374182335
 30
0.0
 10
13.5921298461
 20
9.7499456
 30
0.0
 10
13.5870857167
 20
9.7619654486
 30
0.0
 10
13.5819432597
 20
9.7734720261
 30
0.0
 10
13.5767048759
 20
9.7844598054
 30
0.0
 10
13.5713731339
 20
9.7949235585
 30
0.0
 10
13.5659504752
 20
9.8048582652
 30
0.0
 10
13.5604395419
 20
9.814259233
 30
0.0
 10
13.554842805
 20
9.823121954
 30
0.0
 10
13.5491629416
 20
9.8314422693
 30
0.0
 10
13.5434024398
 20
9.8392161804
 30
0.0
 10
13.5375639646
 20
9.8464400379
 30
0.0
 10
13.5316500071
 20
9.8531103305
 30
0.0
 10
13.5256631808
 20
9.8592238583
 30
0.0
 10
13.5196059783
 20
9.8647775405
 30
0.0
 10
13.5134809673
 20
9.8697685201
 30
0.0
 10
13.507290686
 20
9.8741940576
 30
0.0
 10
13.5010378064
 20
9.8780515003
 30
0.0
 10
13.4947249365
 20
9.8813384222
 30
0.0
 10
13.4883556503
 20
9.8840521934
 30
0.0
 10
13.4840324505
 20
9.8854916448
 30
0.0
 10
13.481869968
 20
9.8861104731
 30
0.0
  0
SPLINE
  5
30B
100
AcDbEntity
  8
0
100
AcDbSpline
 62
7
  6
CONTINUOUS
 70
0
 71
3
 72
17
 73
13
 74
0
 42
0.0000001
 43
0.0000001
 44
0.0000000001
 40
0.0
 40
0.0
 40
0.0
 40
0.0
 40
0.1469416863
 40
0.2864962552
 40
0.4190851116
 40
0.545239975
 40
0.665595955
 40
0.7808996197
 40
0.8369393276
 40
0.8920508683
 40
0.9463602911
 40
1.0
 40
1.0
 40
1.0
 40
1.0
 10
13.3839050791
 20
7.552275651
 30
0.0
 10
13.3811482981
 20
7.5496128049
 30
0.0
 10
13.3756375624
 20
7.5445585974
 30
0.0
 10
13.3671555817
 20
7.537652122
 30
0.0
 10
13.3586819496
 20
7.5316268755
 30
0.0
 10
13.3502222557
 20
7.5264883632
 30
0.0
 10
13.3417823455
 20
7.5222415704
 30
0.0
 10
13.3347023299
 20
7.5194232085
 30
0.0
 10
13.3290701308
 20
7.5176364143
 30
0.0
 10
13.3248955186
 20
7.5165338875
 30
0.0
 10
13.3207318723
 20
7.5156567683
 30
0.0
 10
13.3179486436
 20
7.5152200101
 30
0.0
 10
13.3165611202
 20
7.5150400927
 30
0.0
  0
SPLINE
  5
30C
100
AcDbEntity
  8
0
100
AcDbSpline
 62
7
  6
CONTINUOUS
 70
0
 71
3
 72
38
 73
34
 74
0
 42
0.0000001
 43
0.0000001
 44
0.0000000001
 40
0.0
 40
0.0
 40
0.0
 40
0.0
 40
0.0383794579
 40
0.0755854151
 40
0.111651819
 40
0.1466175792
 40
0.1805288033
 40
0.2134376701
 40
0.245402114
 40
0.2764862488
 40
0.3067605516
 40
0.3363020772
 40
0.3651948839
 40
0.3935295844
 40
0.4214027338
 40
0.4489163508
 40
0.4761768773
 40
0.5032939596
 40
0.5303791956
 40
0.5575445937
 40
0.5849011061
 40
0.6125571887
 40
0.640617424
 40
0.6691816064
 40
0.6983438335
 40
0.7281917625
 40
0.7902428216
 40
0.8226078788
 40
0.8559430679
 40
0.8903035098
 40
0.9257381756
 40
0.9622907463
 40
1.0
 40
1.0
 40
1.0
 40
1.0
 10
13.3839050791
 20
7.9000089691
 30
0.0
 10
13.3827335799
 20
7.8988773877
 30
0.0
 10
13.3803910146
 20
7.8966850479
 30
0.0
 10
13.3768223077
 20
7.8935665412
 30
0.0
 10
13.3732551479
 20
7.890670807
 30
0.0
 10
13.3696905767
 20
7.887998868
 30
0.0
 10
13.3661295696
 20
7.8855514792
 30
0.0
 10
13.36257303
 20
7.8833293124
 30
0.0
 10
13.3590218184
 20
7.8813330522
 30
0.0
 10
13.3554768653
 20
7.8795632873
 30
0.0
 10
13.3519391168
 20
7.8780205846
 30
0.0
 10
13.3484095041
 20
7.8767055561
 30
0.0
 10
13.3448890152
 20
7.8756186775
 30
0.0
 10
13.3413786568
 20
7.8747603491
 30
0.0
 10
13.3378794451
 20
7.8741310084
 30
0.0
 10
13.3343924577
 20
7.8737309469
 30
0.0
 10
13.3309188
 20
7.8735603329
 30
0.0
 10
13.3274595963
 20
7.8736193439
 30
0.0
 10
13.3240159945
 20
7.8739079894
 30
0.0
 10
13.3205891252
 20
7.874426107
 30
0.0
 10
13.3171801104
 20
7.8751735348
 30
0.0
 10
13.313790047
 20
7.8761499683
 30
0.0
 10
13.3104199532
 20
7.8773549461
 30
0.0
 10
13.3070708635
 20
7.8787880083
 30
0.0
 10
13.3037436425
 20
7.8804487038
 30
0.0
 10
13.2992806607
 20
7.8829981116
 30
0.0
 10
13.2949195921
 20
7.8859824506
 30
0.0
 10
13.2906722936
 20
7.8893539595
 30
0.0
 10
13.2874678014
 20
7.892142562
 30
0.0
 10
13.2842905586
 20
7.8951543867
 30
0.0
 10
13.281141111
 20
7.8983886936
 30
0.0
 10
13.2780203732
 20
7.9018444922
 30
0.0
 10
13.2759916756
 20
7.9042572306
 30
0.0
 10
13.2749819184
 20
7.9054987754
 30
0.0
  0
SPLINE
  5
30D
100
AcDbEntity
  8
0
100
AcDbSpline
 62
7
  6
CONTINUOUS
 70
0
 71
3
 72
23
 73
19
 74
0
 42
0.0000001
 43
0.0000001
 44
0.0000000001
 40
0.0
 40
0.0
 40
0.0
 40
0.0
 40
0.0764208923
 40
0.1504644499
 40
0.2222009822
 40
0.2917111066
 40
0.3590904836
 40
0.4244477729
 40
0.4879037773
 40
0.5495923607
 40
0.6096608253
 40
0.6682702441
 40
0.7255962394
 40
0.7818282194
 40
0.8371678066
 40
0.8918276442
 40
0.9460292071
 40
1.0
 40
1.0
 40
1.0
 40
1.0
 10
13.3066310084
 20
7.9826420147
 30
0.0
 10
13.3055539318
 20
7.9816016386
 30
0.0
 10
13.3034001863
 20
7.979587123
 30
0.0
 10
13.3001182205
 20
7.9767244967
 30
0.0
 10
13.2968377175
 20
7.9740703929
 30
0.0
 10
13.2935596693
 20
7.9716257898
 30
0.0
 10
13.2902850043
 20
7.9693914114
 30
0.0
 10
13.2870145858
 20
7.9673678915
 30
0.0
 10
13.2837492296
 20
7.9655558791
 30
0.0
 10
13.2804898151
 20
7.9639559391
 30
0.0
 10
13.2772372465
 20
7.9625685994
 30
0.0
 10
13.2739924148
 20
7.9613944363
 30
0.0
 10
13.2707562606
 20
7.9604339205
 30
0.0
 10
13.2675297515
 20
7.9596874148
 30
0.0
 10
13.2643138806
 20
7.9591553143
 30
0.0
 10
13.2611096287
 20
7.9588379162
 30
0.0
 10
13.257918255
 20
7.9587353348
 30
0.0
 10
13.2557979982
 20
7.9588103243
 30
0.0
 10
13.2547429588
 20
7.9588834948
 30
0.0
  0
SPLINE
  5
30E
100
AcDbEntity
  8
0
100
AcDbSpline
 62
7
  6
CONTINUOUS
 70
0
 71
3
 72
107
 73
103
 74
0
 42
0.0000001
 43
0.0000001
 44
0.0000000001
 40
0.0
 40
0.0
 40
0.0
 40
0.0
 40
0.0013572613
 40
0.0027170799
 40
0.0040819965
 40
0.0054545207
 40
0.0068371185
 40
0.0082321972
 40
0.0110684596
 40
0.0139816373
 40
0.0169879132
 40
0.0201018439
 40
0.0233363266
 40
0.0267026445
 40
0.0302105612
 40
0.0338684351
 40
0.0376833621
 40
0.0416612922
 40
0.045807177
 40
0.050125058
 40
0.054618204
 40
0.0592891635
 40
0.064139889
 40
0.0691717572
 40
0.0743856823
 40
0.07978211
 40
0.0853611229
 40
0.0911224149
 40
0.0970653899
 40
0.1031891234
 40
0.1094924545
 40
0.1159739404
 40
0.1226319415
 40
0.1294645731
 40
0.1364697826
 40
0.1436453027
 40
0.1509887193
 40
0.1584974293
 40
0.166168698
 40
0.1739996243
 40
0.1819871868
 40
0.1901282171
 40
0.1984194352
 40
0.2068574317
 40
0.2154386921
 40
0.2330162325
 40
0.2511220174
 40
0.2697243295
 40
0.2887900845
 40
0.3082849562
 40
0.3281734938
 40
0.3484192347
 40
0.3689848126
 40
0.3898320624
 40
0.4109221241
 40
0.4322155433
 40
0.4536723719
 40
0.4752522673
 40
0.4969145913
 40
0.5186185079
 40
0.5403230817
 40
0.5619873759
 40
0.5835705499
 40
0.6050319574
 40
0.6263312449
 40
0.6474284501
 40
0.6682841015
 40
0.688859318
 40
0.709115911
 40
0.7290164868
 40
0.748524552
 40
0.7676046219
 40
0.7862223322
 40
0.8043445569
 40
0.8219395328
 40
0.8389769933
 40
0.8472777398
 40
0.8554285117
 40
0.8634260239
 40
0.8712670992
 40
0.8789487061
 40
0.886467938
 40
0.8938220446
 40
0.9010084211
 40
0.9080246317
 40
0.9148684108
 40
0.921537678
 40
0.9280305532
 40
0.9343453628
 40
0.9404806703
 40
0.9464352751
 40
0.9522082596
 40
0.9577989819
 40
0.9632071394
 40
0.9684327639
 40
0.9734763088
 40
0.9783386285
 40
0.9830210722
 40
0.98752553
 40
0.9918546169
 40
0.996011535
 40
1.0
 40
1.0
 40
1.0
 40
1.0
 10
13.4971441741
 20
9.8867324845
 30
0.0
 10
13.4982539005
 20
9.8866555215
 30
0.0
 10
13.5004723063
 20
9.8864515423
 30
0.0
 10
13.5037877788
 20
9.8859961232
 30
0.0
 10
13.5070920422
 20
9.8853912299
 30
0.0
 10
13.5103845469
 20
9.8846369734
 30
0.0
 10
13.5136649295
 20
9.8837334157
 30
0.0
 10
13.518045528
 20
9.8823222735
 30
0.0
 10
13.5235007656
 20
9.8801744848
 30
0.0
 10
13.5299521128
 20
9.8770158265
 30
0.0
 10
13.5363424303
 20
9.8732639964
 30
0.0
 10
13.5426683743
 20
9.8689217017
 30
0.0
 10
13.548927251
 20
9.863991694
 30
0.0
 10
13.5551163264
 20
9.8584768547
 30
0.0
 10
13.561232929
 20
9.8523801873
 30
0.0
 10
13.5672744068
 20
9.8457048883
 30
0.0
 10
13.5732380515
 20
9.838454323
 30
0.0
 10
13.5791211971
 20
9.8306321283
 30
0.0
 10
13.5849210851
 20
9.8222421449
 30
0.0
 10
13.5906350411
 20
9.8132885296
 30
0.0
 10
13.5962602861
 20
9.8037756626
 30
0.0
 10
13.6017941681
 20
9.7937082565
 30
0.0
 10
13.607233925
 20
9.7830912555
 30
0.0
 10
13.6125769563
 20
9.7719299356
 30
0.0
 10
13.6178205493
 20
9.7602298079
 30
0.0
 10
13.6229621762
 20
9.7479967053
 30
0.0
 10
13.627999198
 20
9.7352366973
 30
0.0
 10
13.6329291747
 20
9.7219561611
 30
0.0
 10
13.6377495592
 20
9.7081617114
 30
0.0
 10
13.642458009
 20
9.6938602543
 30
0.0
 10
13.6470520829
 20
9.6790589335
 30
0.0
 10
13.651529543
 20
9.6637651683
 30
0.0
 10
13.6558880646
 20
9.647986614
 30
0.0
 10
13.6601255194
 20
9.6317311862
 30
0.0
 10
13.6642397083
 20
9.615007034
 30
0.0
 10
13.6682286165
 20
9.5978225521
 30
0.0
 10
13.6720901774
 20
9.5801863644
 30
0.0
 10
13.6758224939
 20
9.5621073275
 30
0.0
 10
13.6794236375
 20
9.5435945208
 30
0.0
 10
13.6828918325
 20
9.524657244
 30
0.0
 10
13.6862252929
 20
9.5053050126
 30
0.0
 10
13.689422369
 20
9.48554755
 30
0.0
 10
13.6924814177
 20
9.4653947903
 30
0.0
 10
13.6954009315
 20
9.444856848
 30
0.0
 10
13.699135365
 20
9.4167484703
 30
0.0
 10
13.7034337687
 20
9.3807234227
 30
0.0
 10
13.7079727
 20
9.3364619545
 30
0.0
 10
13.7119234767
 20
9.2909197553
 30
0.0
 10
13.7152780738
 20
9.2441884354
 30
0.0
 10
13.718029652
 20
9.19636188
 30
0.0
 10
13.720172603
 20
9.1475362332
 30
0.0
 10
13.7217025504
 20
9.0978096517
 30
0.0
 10
13.7226163606
 20
9.0472821185
 30
0.0
 10
13.7229121475
 20
8.9960552355
 30
0.0
 10
13.7225892758
 20
8.9442320189
 30
0.0
 10
13.7216483616
 20
8.8919166895
 30
0.0
 10
13.7200912708
 20
8.8392144625
 30
0.0
 10
13.7179211152
 20
8.7862313344
 30
0.0
 10
13.7151422453
 20
8.7330738686
 30
0.0
 10
13.7117602418
 20
8.6798489809
 30
0.0
 10
13.7077819041
 20
8.6266637228
 30
0.0
 10
13.7032152366
 20
8.5736250657
 30
0.0
 10
13.6980694324
 20
8.5208396853
 30
0.0
 10
13.6923548549
 20
8.4684137454
 30
0.0
 10
13.6860830172
 20
8.4164526841
 30
0.0
 10
13.6792665591
 20
8.3650610005
 30
0.0
 10
13.6719192216
 20
8.3143420431
 30
0.0
 10
13.6640558199
 20
8.2643978012
 30
0.0
 10
13.6556922139
 20
8.2153286977
 30
0.0
 10
13.6468452766
 20
8.1672333852
 30
0.0
 10
13.6375328605
 20
8.1202085462
 30
0.0
 10
13.6277737624
 20
8.0743486918
 30
0.0
 10
13.6175876858
 20
8.0297459839
 30
0.0
 10
13.6069952026
 20
7.9864899881
 30
0.0
 10
13.5960177068
 20
7.9446676915
 30
0.0
 10
13.5864867738
 20
7.9107934023
 30
0.0
 10
13.5786774663
 20
7.8844803388
 30
0.0
 10
13.5727889138
 20
7.865326667
 30
0.0
 10
13.5668210429
 20
7.8465925726
 30
0.0
 10
13.5607768109
 20
7.8282874586
 30
0.0
 10
13.5546592925
 20
7.8104205219
 30
0.0
 10
13.5484715454
 20
7.7930007387
 30
0.0
 10
13.542216703
 20
7.776036855
 30
0.0
 10
13.5358979024
 20
7.7595373888
 30
0.0
 10
13.5295183312
 20
7.7435106205
 30
0.0
 10
13.5230811992
 20
7.7279645904
 30
0.0
 10
13.5165897406
 20
7.7129070963
 30
0.0
 10
13.5100472308
 20
7.6983456826
 30
0.0
 10
13.5034569419
 20
7.6842876483
 30
0.0
 10
13.4968222077
 20
7.670740024
 30
0.0
 10
13.4901463282
 20
7.6577095943
 30
0.0
 10
13.4834326857
 20
7.6452028586
 30
0.0
 10
13.4766845981
 20
7.633226075
 30
0.0
 10
13.4699054879
 20
7.6217851947
 30
0.0
 10
13.4630986744
 20
7.6108859308
 30
0.0
 10
13.4562675935
 20
7.6005336703
 30
0.0
 10
13.4494155649
 20
7.5907335937
 30
0.0
 10
13.4425460518
 20
7.5814905159
 30
0.0
 10
13.4356623167
 20
7.5728090223
 30
0.0
 10
13.4287676463
 20
7.5646932628
 30
0.0
 10
13.4218655727
 20
7.5571476098
 30
0.0
 10
13.4171658722
 20
7.5524031105
 30
0.0
 10
13.4148147088
 20
7.5501320609
 30
0.0
  0
SPLINE
  5
30F
100
AcDbEntity
  8
0
100
AcDbSpline
 62
7
  6
CONTINUOUS
 70
0
 71
3
 72
23
 73
19
 74
0
 42
0.0000001
 43
0.0000001
 44
0.0000000001
 40
0.0
 40
0.0
 40
0.0
 40
0.0
 40
0.0764225839
 40
0.1504664786
 40
0.2222018877
 40
0.2917108449
 40
0.3590899357
 40
0.42444746
 40
0.4879039455
 40
0.5495927973
 40
0.6096609867
 40
0.6682702178
 40
0.7255962258
 40
0.7818281342
 40
0.8371677597
 40
0.8918276488
 40
0.94602919
 40
1.0
 40
1.0
 40
1.0
 40
1.0
 10
13.4148147088
 20
7.5501320609
 30
0.0
 10
13.4131057015
 20
7.5484812865
 30
0.0
 10
13.4096883678
 20
7.5452848596
 30
0.0
 10
13.4044809447
 20
7.5407427767
 30
0.0
 10
13.3992758839
 20
7.5365316403
 30
0.0
 10
13.3940747409
 20
7.5326529189
 30
0.0
 10
13.3888789547
 20
7.5291076976
 30
0.0
 10
13.383689838
 20
7.5258970513
 30
0.0
 10
13.3785087574
 20
7.5230219623
 30
0.0
 10
13.3733371327
 20
7.5204833357
 30
0.0
 10
13.368176345
 20
7.5182821437
 30
0.0
 10
13.3630278611
 20
7.5164191589
 30
0.0
 10
13.3578931551
 20
7.5148951039
 30
0.0
 10
13.3527737205
 20
7.5137107125
 30
0.0
 10
13.3476711806
 20
7.5128664581
 30
0.0
 10
13.3425870764
 20
7.5123628273
 30
0.0
 10
13.3375234017
 20
7.5122001351
 30
0.0
 10
13.3341592477
 20
7.5123191425
 30
0.0
 10
13.3324852435
 20
7.51243524
 30
0.0
  0
SPLINE
  5
310
100
AcDbEntity
  8
0
100
AcDbSpline
 62
7
  6
CONTINUOUS
 70
0
 71
3
 72
107
 73
103
 74
0
 42
0.0000001
 43
0.0000001
 44
0.0000000001
 40
0.0
 40
0.0
 40
0.0
 40
0.0
 40
0.0042067685
 40
0.0086074933
 40
0.0132066832
 40
0.0180081279
 40
0.023014856
 40
0.0282289565
 40
0.0336518031
 40
0.0392841388
 40
0.0451261851
 40
0.0511776465
 40
0.0574377829
 40
0.0639054521
 40
0.0705791379
 40
0.0774570037
 40
0.0845368822
 40
0.09181635
 40
0.0992926865
 40
0.1069629639
 40
0.1148239836
 40
0.1228723759
 40
0.1311045245
 40
0.1395166671
 40
0.1481048191
 40
0.1568648655
 40
0.1748830537
 40
0.1935353222
 40
0.212783308
 40
0.2325866532
 40
0.2529032003
 40
0.2736891734
 40
0.2948993489
 40
0.3164872194
 40
0.3384051517
 40
0.3606045412
 40
0.3830359635
 40
0.4056493234
 40
0.4283940035
 40
0.451219011
 40
0.4740731241
 40
0.4969050383
 40
0.5196635122
 40
0.5422975137
 40
0.5647563663
 40
0.5869898962
 40
0.60894858
 40
0.6305836941
 40
0.6518474655
 40
0.6726932262
 40
0.6930755704
 40
0.7129505171
 40
0.7322756804
 40
0.751010449
 40
0.7601443763
 40
0.7691163941
 40
0.777921995
 40
0.7865568613
 40
0.7950167962
 40
0.8032978064
 40
0.8113960428
 40
0.8193078723
 40
0.827029837
 40
0.8345587079
 40
0.8418914698
 40
0.8490253529
 40
0.8559578485
 40
0.8626867165
 40
0.8692100355
 40
0.8755261874
 40
0.8816339435
 40
0.8875324316
 40
0.8932212562
 40
0.8987004589
 40
0.9039706694
 40
0.9090330741
 40
0.9138895938
 40
0.9185428786
 40
0.9229965092
 40
0.9272550375
 40
0.9313242088
 40
0.9352110619
 40
0.9389241658
 40
0.9424737756
 40
0.9458720563
 40
0.9491332486
 40
0.9522738059
 40
0.9553124518
 40
0.9582700927
 40
0.9611695978
 40
0.9640353625
 40
0.9668927338
 40
0.9697672994
 40
0.9726841483
 40
0.9756672155
 40
0.9787387272
 40
0.9819188723
 40
0.9852255554
 40
0.9886744539
 40
0.9922791378
 40
0.9960511915
 40
1.0
 40
1.0
 40
1.0
 40
1.0
 10
13.3839050791
 20
7.9000089691
 30
0.0
 10
13.3856975005
 20
7.9017403154
 30
0.0
 10
13.3892799313
 20
7.9053717306
 30
0.0
 10
13.3945309128
 20
7.9111740586
 30
0.0
 10
13.3997751743
 20
7.9174489196
 30
0.0
 10
13.4050095314
 20
7.9241922956
 30
0.0
 10
13.410231021
 20
7.9314003602
 30
0.0
 10
13.4154367024
 20
7.9390688745
 30
0.0
 10
13.4206234562
 20
7.9471933599
 30
0.0
 10
13.4257882633
 20
7.9557689923
 30
0.0
 10
13.4309280434
 20
7.9647907195
 30
0.0
 10
13.4360397703
 20
7.974253196
 30
0.0
 10
13.4411203935
 20
7.9841508147
 30
0.0
 10
13.4461668783
 20
7.9944776967
 30
0.0
 10
13.4511762281
 20
8.0052276971
 30
0.0
 10
13.4561454221
 20
8.0163944229
 30
0.0
 10
13.4610715232
 20
8.0279712128
 30
0.0
 10
13.4659515378
 20
8.0399511729
 30
0.0
 10
13.4707825944
 20
8.0523271457
 30
0.0
 10
13.4755617415
 20
8.0650917532
 30
0.0
 10
13.4802861759
 20
8.0782373626
 30
0.0
 10
13.4849530022
 20
8.0917561293
 30
0.0
 10
13.4895594877
 20
8.1056399665
 30
0.0
 10
13.4941028036
 20
8.1198805796
 30
0.0
 10
13.4985803031
 20
8.1344694587
 30
0.0
 10
13.504514505
 20
8.1545625645
 30
0.0
 10
13.5117385023
 20
8.1804895399
 30
0.0
 10
13.5200236949
 20
8.2125641465
 30
0.0
 10
13.5279845471
 20
8.2458091114
 30
0.0
 10
13.5356019116
 20
8.2801448839
 30
0.0
 10
13.5428574677
 20
8.315489416
 30
0.0
 10
13.5497337727
 20
8.3517581801
 30
0.0
 10
13.5562143003
 20
8.388864428
 30
0.0
 10
13.5622834809
 20
8.4267193881
 30
0.0
 10
13.5679267381
 20
8.4652324852
 30
0.0
 10
13.5731305227
 20
8.5043115585
 30
0.0
 10
13.5778823452
 20
8.5438630848
 30
0.0
 10
13.5821708048
 20
8.5837924038
 30
0.0
 10
13.5859856166
 20
8.6240039467
 30
0.0
 10
13.5893176363
 20
8.6644014657
 30
0.0
 10
13.5921588813
 20
8.7048882658
 30
0.0
 10
13.5945025505
 20
8.7453674373
 30
0.0
 10
13.5963430401
 20
8.7857420888
 30
0.0
 10
13.5976759575
 20
8.8259155801
 30
0.0
 10
13.5984981318
 20
8.8657917548
 30
0.0
 10
13.5988076222
 20
8.9052751715
 30
0.0
 10
13.5986037226
 20
8.9442713338
 30
0.0
 10
13.5978869642
 20
8.982686918
 30
0.0
 10
13.5966591148
 20
9.0204299978
 30
0.0
 10
13.5949231759
 20
9.0574102701
 30
0.0
 10
13.5926833741
 20
9.0935392616
 30
0.0
 10
13.5899451625
 20
9.1287305885
 30
0.0
 10
13.5867151689
 20
9.1629000098
 30
0.0
 10
13.5835945681
 20
9.1906842667
 30
0.0
 10
13.5808506077
 20
9.2123354982
 30
0.0
 10
13.5786922018
 20
9.2281311563
 30
0.0
 10
13.5764172771
 20
9.2436117032
 30
0.0
 10
13.5740272407
 20
9.2587678879
 30
0.0
 10
13.5715234801
 20
9.2735906449
 30
0.0
 10
13.5689075467
 20
9.2880711092
 30
0.0
 10
13.5661809698
 20
9.3022006243
 30
0.0
 10
13.5633454232
 20
9.3159707435
 30
0.0
 10
13.5604025821
 20
9.3293732387
 30
0.0
 10
13.5573542332
 20
9.3424001031
 30
0.0
 10
13.5542021973
 20
9.3550435584
 30
0.0
 10
13.5509483654
 20
9.3672960575
 30
0.0
 10
13.5475947016
 20
9.379150293
 30
0.0
 10
13.5441431932
 20
9.3905991961
 30
0.0
 10
13.5405959424
 20
9.4016359521
 30
0.0
 10
13.5369550256
 20
9.4122539876
 30
0.0
 10
13.5332226744
 20
9.422447002
 30
0.0
 10
13.5294010465
 20
9.4322089337
 30
0.0
 10
13.5254924895
 20
9.4415340167
 30
0.0
 10
13.5214992336
 20
9.4504167175
 30
0.0
 10
13.5174237217
 20
9.4588518225
 30
0.0
 10
13.5132682458
 20
9.4668343407
 30
0.0
 10
13.5090353125
 20
9.474359624
 30
0.0
 10
13.5047272593
 20
9.4814232337
 30
0.0
 10
13.5003466138
 20
9.4880210871
 30
0.0
 10
13.4958957324
 20
9.4941492954
 30
0.0
 10
13.4913771118
 20
9.4998043152
 30
0.0
 10
13.4867930941
 20
9.5049827733
 30
0.0
 10
13.4821460996
 20
9.5096815898
 30
0.0
 10
13.4774384445
 20
9.5138978177
 30
0.0
 10
13.4726724872
 20
9.517628694
 30
0.0
 10
13.4678506055
 20
9.5208715515
 30
0.0
 10
13.4629752797
 20
9.5236237746
 30
0.0
 10
13.45804924
 20
9.5258828929
 30
0.0
 10
13.4530754975
 20
9.5276464721
 30
0.0
 10
13.4480575418
 20
9.5289125182
 30
0.0
 10
13.4429992349
 20
9.5296793036
 30
0.0
 10
13.4379048157
 20
9.5299460163
 30
0.0
 10
13.4327786324
 20
9.5297123405
 30
0.0
 10
13.4276249263
 20
9.5289790567
 30
0.0
 10
13.4224476796
 20
9.5277472633
 30
0.0
 10
13.4172504273
 20
9.5260188376
 30
0.0
 10
13.412036456
 20
9.5237956308
 30
0.0
 10
13.4068086579
 20
9.5210799676
 30
0.0
 10
13.4015698636
 20
9.5178739902
 30
0.0
 10
13.3963226321
 20
9.5141800257
 30
0.0
 10
13.39106994
 20
9.5100006277
 30
0.0
 10
13.3876466648
 20
9.5069638665
 30
0.0
 10
13.385934271
 20
9.5053702054
 30
0.0
  0
SPLINE
  5
311
100
AcDbEntity
  8
0
100
AcDbSpline
 62
7
  6
CONTINUOUS
 70
0
 71
3
 72
97
 73
93
 74
0
 42
0.0000001
 43
0.0000001
 44
0.0000000001
 40
0.0
 40
0.0
 40
0.0
 40
0.0
 40
0.0039884135
 40
0.0081453664
 40
0.0124745322
 40
0.0169790264
 40
0.0216614537
 40
0.0265237904
 40
0.0315673514
 40
0.0367930124
 40
0.0422011842
 40
0.0477919286
 40
0.0535649369
 40
0.0595195619
 40
0.0656548998
 40
0.0719697294
 40
0.0784626341
 40
0.0851319277
 40
0.0919757319
 40
0.0989919753
 40
0.1061783747
 40
0.1135325167
 40
0.1287331656
 40
0.1445715943
 40
0.1610229825
 40
0.1780605144
 40
0.1956555637
 40
0.2137778621
 40
0.2323956461
 40
0.2514757907
 40
0.2709839333
 40
0.2908845903
 40
0.3111412659
 40
0.331716565
 40
0.3525722984
 40
0.3736695859
 40
0.3949689565
 40
0.4164304483
 40
0.4380137067
 40
0.4596780845
 40
0.4813827411
 40
0.50308674
 40
0.5247491459
 40
0.5463291225
 40
0.5677860302
 40
0.5890795265
 40
0.610169664
 40
0.631016989
 40
0.6515826412
 40
0.6718284545
 40
0.6917170602
 40
0.7112119963
 40
0.7302778137
 40
0.7488801872
 40
0.7669860327
 40
0.7845636312
 40
0.8015827635
 40
0.8180148618
 40
0.8338331735
 40
0.8490129447
 40
0.8563563835
 40
0.8635319229
 40
0.870537147
 40
0.8773698032
 40
0.8840278112
 40
0.8905093241
 40
0.8968126592
 40
0.902936415
 40
0.9088793979
 40
0.9146407042
 40
0.9202197302
 40
0.9256161657
 40
0.9308301038
 40
0.9358619795
 40
0.9407127123
 40
0.9453836841
 40
0.9498768304
 40
0.954194727
 40
0.9583406089
 40
0.9623185516
 40
0.9661334795
 40
0.9697913592
 40
0.9732992829
 40
0.9766656014
 40
0.9799000938
 40
0.983014025
 40
0.9860203088
 40
0.9889334913
 40
0.9917697601
 40
0.9945468078
 40
0.9972835907
 40
1.0
 40
1.0
 40
1.0
 40
1.0
 10
13.3066310084
 20
7.9826420147
 30
0.0
 10
13.30811281
 20
7.9840733253
 30
0.0
 10
13.3110747832
 20
7.9870635468
 30
0.0
 10
13.3154248382
 20
7.9918192165
 30
0.0
 10
13.3197702703
 20
7.9969342201
 30
0.0
 10
13.3241087645
 20
8.0024057808
 30
0.0
 10
13.3284383007
 20
8.0082312357
 30
0.0
 10
13.3327567659
 20
8.0144077625
 30
0.0
 10
13.3370621052
 20
8.0209322844
 30
0.0
 10
13.3413520952
 20
8.0278015892
 30
0.0
 10
13.3456246639
 20
8.0350122273
 30
0.0
 10
13.3498776514
 20
8.0425606282
 30
0.0
 10
13.3541089393
 20
8.0504430292
 30
0.0
 10
13.3583164378
 20
8.0586554878
 30
0.0
 10
13.3624979826
 20
8.067193917
 30
0.0
 10
13.3666515397
 20
8.0760540259
 30
0.0
 10
13.3707749639
 20
8.0852313967
 30
0.0
 10
13.3748662226
 20
8.0947214205
 30
0.0
 10
13.3789232463
 20
8.1045193452
 30
0.0
 10
13.3829439726
 20
8.1146202577
 30
0.0
 10
13.3869264365
 20
8.1250190917
 30
0.0
 10
13.3922411684
 20
8.1394334694
 30
0.0
 10
13.3987650195
 20
8.158163529
 30
0.0
 10
13.4063258692
 20
8.1815020004
 30
0.0
 10
13.4136873662
 20
8.2058968496
 30
0.0
 10
13.4208346292
 20
8.2312990672
 30
0.0
 10
13.4277532181
 20
8.2576577298
 30
0.0
 10
13.4344291541
 20
8.2849199194
 30
0.0
 10
13.4408489521
 20
8.3130308926
 30
0.0
 10
13.4469996466
 20
8.3419341795
 30
0.0
 10
13.4528688182
 20
8.3715717036
 30
0.0
 10
13.4584446175
 20
8.4018838982
 30
0.0
 10
13.4637157952
 20
8.4328098276
 30
0.0
 10
13.4686717185
 20
8.4642873134
 30
0.0
 10
13.4733023923
 20
8.4962530635
 30
0.0
 10
13.4775984791
 20
8.5286427996
 30
0.0
 10
13.4815513175
 20
8.5613913872
 30
0.0
 10
13.4851529387
 20
8.5944329661
 30
0.0
 10
13.4883960871
 20
8.6277010829
 30
0.0
 10
13.4912742335
 20
8.6611288266
 30
0.0
 10
13.4937815847
 20
8.6946489644
 30
0.0
 10
13.4959130962
 20
8.7281940779
 30
0.0
 10
13.4976644819
 20
8.7616966979
 30
0.0
 10
13.4990322223
 20
8.7950894401
 30
0.0
 10
13.5000135741
 20
8.8283051418
 30
0.0
 10
13.500606579
 20
8.8612769985
 30
0.0
 10
13.5008100623
 20
8.8939386991
 30
0.0
 10
13.5006236359
 20
8.9262245588
 30
0.0
 10
13.5000476999
 20
8.9580696515
 30
0.0
 10
13.4990834416
 20
8.9894099406
 30
0.0
 10
13.497732833
 20
9.0201824104
 30
0.0
 10
13.4959986344
 20
9.0503251964
 30
0.0
 10
13.4938843834
 20
9.0797777106
 30
0.0
 10
13.4913943876
 20
9.1084807646
 30
0.0
 10
13.4885337168
 20
9.1363766884
 30
0.0
 10
13.4853081944
 20
9.1634094538
 30
0.0
 10
13.4817243819
 20
9.1895247779
 30
0.0
 10
13.4777895792
 20
9.2146702963
 30
0.0
 10
13.4735117826
 20
9.2387954814
 30
0.0
 10
13.4696267934
 20
9.2582177464
 30
0.0
 10
13.4663455439
 20
9.2732037731
 30
0.0
 10
13.4638315132
 20
9.2840343274
 30
0.0
 10
13.4612385239
 20
9.2945747476
 30
0.0
 10
13.4585678721
 20
9.3048197576
 30
0.0
 10
13.4558208747
 20
9.3147642119
 30
0.0
 10
13.4529989691
 20
9.324403132
 30
0.0
 10
13.4501035121
 20
9.3337316804
 30
0.0
 10
13.4471360181
 20
9.3427451945
 30
0.0
 10
13.4440979417
 20
9.3514391609
 30
0.0
 10
13.4409908134
 20
9.3598092343
 30
0.0
 10
13.4378162177
 20
9.367851244
 30
0.0
 10
13.4345756841
 20
9.3755611663
 30
0.0
 10
13.4312709008
 20
9.3829351839
 30
0.0
 10
13.4279034363
 20
9.3899696129
 30
0.0
 10
13.4244750073
 20
9.3966609819
 30
0.0
 10
13.4209872771
 20
9.4030059762
 30
0.0
 10
13.4174419253
 20
9.4090014529
 30
0.0
 10
13.4138407181
 20
9.414644486
 30
0.0
 10
13.4101852907
 20
9.419932256
 30
0.0
 10
13.4064774464
 20
9.424862207
 30
0.0
 10
13.4027188264
 20
9.4294318623
 30
0.0
 10
13.3989111706
 20
9.4336389653
 30
0.0
 10
13.3950561738
 20
9.4374813926
 30
0.0
 10
13.3911554724
 20
9.4409570927
 30
0.0
 10
13.387210823
 20
9.4440642448
 30
0.0
 10
13.3832238473
 20
9.4468009398
 30
0.0
 10
13.379196386
 20
9.4491655279
 30
0.0
 10
13.3751302568
 20
9.4511562788
 30
0.0
 10
13.3710275477
 20
9.4527716239
 30
0.0
 10
13.3668904025
 20
9.4540102004
 30
0.0
 10
13.3627217332
 20
9.4548706857
 30
0.0
 10
13.3599188403
 20
9.4551922805
 30
0.0
 10
13.358519058
 20
9.45528936
 30
0.0
  0
SPLINE
  5
312
100
AcDbEntity
  8
0
100
AcDbSpline
 62
4
  6
CONTINUOUS
 70
0
 71
3
 72
403
 73
399
 74
0
 42
0.0000001
 43
0.0000001
 44
0.0000000001
 40
0.0
 40
0.0
 40
0.0
 40
0.0
 40
0.015625
 40
0.0234375
 40
0.03125
 40
0.0390625
 40
0.04296875
 40
0.046875
 40
0.05078125
 40
0.0546875
 40
0.056640625
 40
0.05859375
 40
0.0595703125
 40
0.060546875
 40
0.0615234375
 40
0.0620117188
 40
0.0622558594
 40
0.0625
 40
0.0627441406
 40
0.0629882812
 40
0.0634765625
 40
0.064453125
 40
0.0654296875
 40
0.06640625
 40
0.068359375
 40
0.0703125
 40
0.07421875
 40
0.078125
 40
0.08203125
 40
0.0859375
 40
0.09375
 40
0.1015625
 40
0.10546875
 40
0.109375
 40
0.11328125
 40
0.1171875
 40
0.119140625
 40
0.12109375
 40
0.1220703125
 40
0.123046875
 40
0.1240234375
 40
0.1245117188
 40
0.1247558594
 40
0.125
 40
0.1252441406
 40
0.1254882812
 40
0.1259765625
 40
0.126953125
 40
0.1279296875
 40
0.12890625
 40
0.130859375
 40
0.1328125
 40
0.13671875
 40
0.140625
 40
0.14453125
 40
0.1484375
 40
0.15625
 40
0.1640625
 40
0.16796875
 40
0.171875
 40
0.17578125
 40
0.1796875
 40
0.181640625
 40
0.18359375
 40
0.1845703125
 40
0.185546875
 40
0.1865234375
 40
0.1870117188
 40
0.1872558594
 40
0.1875
 40
0.1877441406
 40
0.1879882812
 40
0.1884765625
 40
0.189453125
 40
0.1904296875
 40
0.19140625
 40
0.193359375
 40
0.1953125
 40
0.19921875
 40
0.203125
 40
0.20703125
 40
0.2109375
 40
0.21875
 40
0.2265625
 40
0.23046875
 40
0.234375
 40
0.23828125
 40
0.2421875
 40
0.244140625
 40
0.24609375
 40
0.2470703125
 40
0.248046875
 40
0.2490234375
 40
0.2495117188
 40
0.2497558594
 40
0.25
 40
0.2502441406
 40
0.2504882812
 40
0.2509765625
 40
0.251953125
 40
0.2529296875
 40
0.25390625
 40
0.255859375
 40
0.2578125
 40
0.26171875
 40
0.265625
 40
0.26953125
 40
0.2734375
 40
0.28125
 40
0.2890625
 40
0.29296875
 40
0.296875
 40
0.30078125
 40
0.3046875
 40
0.306640625
 40
0.30859375
 40
0.3095703125
 40
0.310546875
 40
0.3115234375
 40
0.3120117188
 40
0.3122558594
 40
0.3125
 40
0.3127441406
 40
0.3129882812
 40
0.3134765625
 40
0.314453125
 40
0.3154296875
 40
0.31640625
 40
0.318359375
 40
0.3203125
 40
0.32421875
 40
0.328125
 40
0.33203125
 40
0.3359375
 40
0.34375
 40
0.3515625
 40
0.35546875
 40
0.359375
 40
0.36328125
 40
0.3671875
 40
0.369140625
 40
0.37109375
 40
0.3720703125
 40
0.373046875
 40
0.3740234375
 40
0.3745117188
 40
0.3747558594
 40
0.375
 40
0.3752441406
 40
0.3754882812
 40
0.3759765625
 40
0.376953125
 40
0.3779296875
 40
0.37890625
 40
0.380859375
 40
0.3828125
 40
0.38671875
 40
0.390625
 40
0.39453125
 40
0.3984375
 40
0.40625
 40
0.4140625
 40
0.41796875
 40
0.421875
 40
0.42578125
 40
0.4296875
 40
0.431640625
 40
0.43359375
 40
0.4345703125
 40
0.435546875
 40
0.4365234375
 40
0.4370117188
 40
0.4372558594
 40
0.4375
 40
0.4377441406
 40
0.4379882812
 40
0.4384765625
 40
0.439453125
 40
0.4404296875
 40
0.44140625
 40
0.443359375
 40
0.4453125
 40
0.44921875
 40
0.453125
 40
0.45703125
 40
0.4609375
 40
0.46875
 40
0.4765625
 40
0.48046875
 40
0.484375
 40
0.48828125
 40
0.4921875
 40
0.494140625
 40
0.49609375
 40
0.4970703125
 40
0.498046875
 40
0.4990234375
 40
0.4995117188
 40
0.4997558594
 40
0.5
 40
0.5002441406
 40
0.5004882812
 40
0.5009765625
 40
0.501953125
 40
0.5029296875
 40
0.50390625
 40
0.505859375
 40
0.5078125
 40
0.51171875
 40
0.515625
 40
0.51953125
 40
0.5234375
 40
0.53125
 40
0.5390625
 40
0.54296875
 40
0.546875
 40
0.55078125
 40
0.5546875
 40
0.556640625
 40
0.55859375
 40
0.5595703125
 40
0.560546875
 40
0.5615234375
 40
0.5620117188
 40
0.5622558594
 40
0.5625
 40
0.5627441406
 40
0.5629882812
 40
0.5634765625
 40
0.564453125
 40
0.5654296875
 40
0.56640625
 40
0.568359375
 40
0.5703125
 40
0.57421875
 40
0.578125
 40
0.58203125
 40
0.5859375
 40
0.59375
 40
0.6015625
 40
0.60546875
 40
0.609375
 40
0.61328125
 40
0.6171875
 40
0.619140625
 40
0.62109375
 40
0.6220703125
 40
0.623046875
 40
0.6240234375
 40
0.6245117188
 40
0.6247558594
 40
0.625
 40
0.6252441406
 40
0.6254882812
 40
0.6259765625
 40
0.626953125
 40
0.6279296875
 40
0.62890625
 40
0.630859375
 40
0.6328125
 40
0.63671875
 40
0.640625
 40
0.64453125
 40
0.6484375
 40
0.65625
 40
0.6640625
 40
0.66796875
 40
0.671875
 40
0.67578125
 40
0.6796875
 40
0.681640625
 40
0.68359375
 40
0.6845703125
 40
0.685546875
 40
0.6865234375
 40
0.6870117188
 40
0.6872558594
 40
0.6875
 40
0.6877441406
 40
0.6879882812
 40
0.6884765625
 40
0.689453125
 40
0.6904296875
 40
0.69140625
 40
0.693359375
 40
0.6953125
 40
0.69921875
 40
0.703125
 40
0.70703125
 40
0.7109375
 40
0.71875
 40
0.7265625
 40
0.73046875
 40
0.734375
 40
0.73828125
 40
0.7421875
 40
0.744140625
 40
0.74609375
 40
0.7470703125
 40
0.748046875
 40
0.7490234375
 40
0.7495117188
 40
0.7497558594
 40
0.75
 40
0.7502441406
 40
0.7504882812
 40
0.7509765625
 40
0.751953125
 40
0.7529296875
 40
0.75390625
 40
0.755859375
 40
0.7578125
 40
0.76171875
 40
0.765625
 40
0.76953125
 40
0.7734375
 40
0.78125
 40
0.7890625
 40
0.79296875
 40
0.796875
 40
0.80078125
 40
0.8046875
 40
0.806640625
 40
0.80859375
 40
0.8095703125
 40
0.810546875
 40
0.8115234375
 40
0.8120117188
 40
0.8122558594
 40
0.8125
 40
0.8127441406
 40
0.8129882812
 40
0.8134765625
 40
0.814453125
 40
0.8154296875
 40
0.81640625
 40
0.818359375
 40
0.8203125
 40
0.82421875
 40
0.828125
 40
0.83203125
 40
0.8359375
 40
0.84375
 40
0.8515625
 40
0.85546875
 40
0.859375
 40
0.86328125
 40
0.8671875
 40
0.869140625
 40
0.87109375
 40
0.8720703125
 40
0.873046875
 40
0.8740234375
 40
0.8745117188
 40
0.8747558594
 40
0.875
 40
0.8752441406
 40
0.8754882812
 40
0.8759765625
 40
0.876953125
 40
0.8779296875
 40
0.87890625
 40
0.880859375
 40
0.8828125
 40
0.88671875
 40
0.890625
 40
0.89453125
 40
0.8984375
 40
0.90625
 40
0.9140625
 40
0.91796875
 40
0.921875
 40
0.92578125
 40
0.9296875
 40
0.931640625
 40
0.93359375
 40
0.9345703125
 40
0.935546875
 40
0.9365234375
 40
0.9370117188
 40
0.9372558594
 40
0.9375
 40
0.9377441406
 40
0.9379882812
 40
0.9384765625
 40
0.939453125
 40
0.9404296875
 40
0.94140625
 40
0.943359375
 40
0.9453125
 40
0.94921875
 40
0.953125
 40
0.95703125
 40
0.9609375
 40
0.96875
 40
0.9765625
 40
0.984375
 40
1.0
 40
1.0
 40
1.0
 40
1.0
 10
10.6764764606
 20
7.6716957678
 30
0.0
 10
10.670847981
 20
7.671534227
 30
0.0
 10
10.6624052616
 20
7.6712919157
 30
0.0
 10
10.6511483023
 20
7.670968834
 30
0.0
 10
10.6427055829
 20
7.6707265226
 30
0.0
 10
10.6356699833
 20
7.6705245968
 30
0.0
 10
10.6300415038
 20
7.6703630553
 30
0.0
 10
10.6258201438
 20
7.6702419015
 30
0.0
 10
10.6215987854
 20
7.6701207391
 30
0.0
 10
10.6180809815
 20
7.6700197969
 30
0.0
 10
10.61526675
 20
7.669938984
 30
0.0
 10
10.613507829
 20
7.6698886107
 30
0.0
 10
10.6121007525
 20
7.6698480032
 30
0.0
 10
10.6110452799
 20
7.6698183935
 30
0.0
 10
10.610166245
 20
7.6697910278
 30
0.0
 10
10.6095498891
 20
7.6697771526
 30
0.0
 10
10.6091992963
 20
7.6697609784
 30
0.0
 10
10.6089318148
 20
7.6697720756
 30
0.0
 10
10.6086816758
 20
7.6696943838
 30
0.0
 10
10.6083421078
 20
7.6696217654
 30
0.0
 10
10.6077506824
 20
7.6694802533
 30
0.0
 10
10.6069043153
 20
7.6692856373
 30
0.0
 10
10.6058893056
 20
7.6690488689
 30
0.0
 10
10.6045357391
 20
7.6687343056
 30
0.0
 10
10.6028438563
 20
7.6683407154
 30
0.0
 10
10.6001368017
 20
7.6677111868
 30
0.0
 10
10.5967529979
 20
7.6669242019
 30
0.0
 10
10.5926924272
 20
7.6659798519
 30
0.0
 10
10.5886318581
 20
7.6650354934
 30
0.0
 10
10.5832177654
 20
7.6637763516
 30
0.0
 10
10.5764501498
 20
7.6622024234
 30
0.0
 10
10.5696825339
 20
7.6606284958
 30
0.0
 10
10.5642684415
 20
7.6593693529
 30
0.0
 10
10.5602078714
 20
7.6584249979
 30
0.0
 10
10.5561473046
 20
7.6574806347
 30
0.0
 10
10.5527634887
 20
7.6566936907
 30
0.0
 10
10.5500564587
 20
7.6560640789
 30
0.0
 10
10.5483645133
 20
7.6556707004
 30
0.0
 10
10.5470110753
 20
7.6553557023
 30
0.0
 10
10.5459956727
 20
7.6551202626
 30
0.0
 10
10.545150535
 20
7.6549214895
 30
0.0
 10
10.544556915
 20
7.6547873984
 30
0.0
 10
10.5442208633
 20
7.6547028897
 30
0.0
 10
10.5439599235
 20
7.6546617211
 30
0.0
 10
10.5437330082
 20
7.6545356431
 30
0.0
 10
10.5434185863
 20
7.6543971566
 30
0.0
 10
10.5428738776
 20
7.6541410057
 30
0.0
 10
10.5420928313
 20
7.6537822904
 30
0.0
 10
10.5411568133
 20
7.653348744
 30
0.0
 10
10.539908357
 20
7.6527717608
 30
0.0
 10
10.5383479346
 20
7.6520501624
 30
0.0
 10
10.5358511761
 20
7.6508958113
 30
0.0
 10
10.5327302563
 20
7.6494528017
 30
0.0
 10
10.5289851404
 20
7.6477212205
 30
0.0
 10
10.5252400277
 20
7.6459896312
 30
0.0
 10
10.5202465431
 20
7.6436808484
 30
0.0
 10
10.5140046877
 20
7.6407948687
 30
0.0
 10
10.507762832
 20
7.6379088897
 30
0.0
 10
10.5027693478
 20
7.6356001057
 30
0.0
 10
10.4990242336
 20
7.6338685198
 30
0.0
 10
10.4952791236
 20
7.632136926
 30
0.0
 10
10.4921581856
 20
7.6306939558
 30
0.0
 10
10.4896614643
 20
7.6295395243
 30
0.0
 10
10.4881009472
 20
7.6288181309
 30
0.0
 10
10.4868526853
 20
7.6282407268
 30
0.0
 10
10.4859160733
 20
7.6278084661
 30
0.0
 10
10.4851368852
 20
7.6274457282
 30
0.0
 10
10.4845888594
 20
7.6271967583
 30
0.0
 10
10.4842797522
 20
7.6270467661
 30
0.0
 10
10.4840365119
 20
7.6269560297
 30
0.0
 10
10.4838368862
 20
7.626782124
 30
0.0
 10
10.4835555052
 20
7.6265792601
 30
0.0
 10
10.4830701767
 20
7.6262107317
 30
0.0
 10
10.4823731445
 20
7.6256913292
 30
0.0
 10
10.4815382921
 20
7.6250650215
 30
0.0
 10
10.4804246015
 20
7.6242310011
 30
0.0
 10
10.4790326779
 20
7.6231881138
 30
0.0
 10
10.4768054942
 20
7.6215196963
 30
0.0
 10
10.4740215509
 20
7.619434105
 30
0.0
 10
10.4706808034
 20
7.6169314252
 30
0.0
 10
10.4673400601
 20
7.6144287375
 30
0.0
 10
10.4628857341
 20
7.6110918233
 30
0.0
 10
10.4573178273
 20
7.6069206795
 30
0.0
 10
10.45174992
 20
7.6027495363
 30
0.0
 10
10.4472955948
 20
7.5994126211
 30
0.0
 10
10.4439548492
 20
7.5969099363
 30
0.0
 10
10.4406141102
 20
7.5944072455
 30
0.0
 10
10.4378301403
 20
7.5923216887
 30
0.0
 10
10.435603011
 20
7.5906532009
 30
0.0
 10
10.4342109489
 20
7.5896104924
 30
0.0
 10
10.4330975426
 20
7.5887761049
 30
0.0
 10
10.4322618215
 20
7.5881509187
 30
0.0
 10
10.4315675071
 20
7.5876280073
 30
0.0
 10
10.431077327
 20
7.5872657429
 30
0.0
 10
10.4308037195
 20
7.5870528426
 30
0.0
 10
10.4305802162
 20
7.5869097654
 30
0.0
 10
10.4304266558
 20
7.5867032423
 30
0.0
 10
10.4301975117
 20
7.5864500088
 30
0.0
 10
10.4298078765
 20
7.5859965391
 30
0.0
 10
10.4292453119
 20
7.585354116
 30
0.0
 10
10.4285727782
 20
7.5845809009
 30
0.0
 10
10.4276751781
 20
7.5835507533
 30
0.0
 10
10.4265534822
 20
7.5822627929
 30
0.0
 10
10.4247585987
 20
7.5802022104
 30
0.0
 10
10.4225150526
 20
7.5776264294
 30
0.0
 10
10.4198227724
 20
7.5745355149
 30
0.0
 10
10.4171304988
 20
7.5714445944
 30
0.0
 10
10.4135407984
 20
7.5673233691
 30
0.0
 10
10.4090536737
 20
7.5621718367
 30
0.0
 10
10.4045665485
 20
7.5570203048
 30
0.0
 10
10.400976849
 20
7.5528990787
 30
0.0
 10
10.3982845726
 20
7.5498081605
 30
0.0
 10
10.3955923032
 20
7.5467172371
 30
0.0
 10
10.3933487233
 20
7.5441414839
 30
0.0
 10
10.3915539089
 20
7.5420808447
 30
0.0
 10
10.3904320371
 20
7.5407930286
 30
0.0
 10
10.3895347979
 20
7.5397625849
 30
0.0
 10
10.3888611616
 20
7.5389902744
 30
0.0
 10
10.3883020467
 20
7.538345021
 30
0.0
 10
10.3879062533
 20
7.5378966038
 30
0.0
 10
10.3876869761
 20
7.5376352749
 30
0.0
 10
10.3875031079
 20
7.5374536184
 30
0.0
 10
10.3873934356
 20
7.5372171465
 30
0.0
 10
10.3872213255
 20
7.5369209708
 30
0.0
 10
10.3869321911
 20
7.5363937549
 30
0.0
 10
10.3865128377
 20
7.5356452468
 30
0.0
 10
10.386012312
 20
7.5347450436
 30
0.0
 10
10.385344002
 20
7.5335454689
 30
0.0
 10
10.3845089372
 20
7.5320457621
 30
0.0
 10
10.383172653
 20
7.5296463645
 30
0.0
 10
10.3815023598
 20
7.5266470718
 30
0.0
 10
10.3794979813
 20
7.5230479401
 30
0.0
 10
10.37749361
 20
7.5194488032
 30
0.0
 10
10.3748211124
 20
7.5146499558
 30
0.0
 10
10.3714804913
 20
7.5086513959
 30
0.0
 10
10.3681398696
 20
7.5026528365
 30
0.0
 10
10.3654673731
 20
7.4978539884
 30
0.0
 10
10.3634629986
 20
7.4942548534
 30
0.0
 10
10.361458632
 20
7.4906557146
 30
0.0
 10
10.3597883019
 20
7.4876564442
 30
0.0
 10
10.3584520928
 20
7.4852570011
 30
0.0
 10
10.357616837
 20
7.48375741
 30
0.0
 10
10.3569489191
 20
7.4825575979
 30
0.0
 10
10.3564471953
 20
7.4816581201
 30
0.0
 10
10.3560315904
 20
7.4809073422
 30
0.0
 10
10.3557357643
 20
7.4803841784
 30
0.0
 10
10.3555743759
 20
7.4800815102
 30
0.0
 10
10.3554317701
 20
7.4798649811
 30
0.0
 10
10.3553715948
 20
7.4796084229
 30
0.0
 10
10.3552626084
 20
7.4792803078
 30
0.0
 10
10.3550852786
 20
7.478699601
 30
0.0
 10
10.3548249465
 20
7.477873421
 30
0.0
 10
10.3545155459
 20
7.4768805493
 30
0.0
 10
10.3541019646
 20
7.4755572287
 30
0.0
 10
10.3535853465
 20
7.4739029039
 30
0.0
 10
10.3527585571
 20
7.4712560815
 30
0.0
 10
10.3517251392
 20
7.4679475201
 30
0.0
 10
10.3504850082
 20
7.4639772608
 30
0.0
 10
10.3492448851
 20
7.4600069976
 30
0.0
 10
10.3475913849
 20
7.4547133147
 30
0.0
 10
10.3455245106
 20
7.4480962106
 30
0.0
 10
10.3434576357
 20
7.4414791069
 30
0.0
 10
10.3418041366
 20
7.4361854235
 30
0.0
 10
10.3405640101
 20
7.4322151618
 30
0.0
 10
10.3393238919
 20
7.428244897
 30
0.0
 10
10.3382904341
 20
7.4249363525
 30
0.0
 10
10.3374637262
 20
7.4222894957
 30
0.0
 10
10.3369469008
 20
7.4206352586
 30
0.0
 10
10.336533745
 20
7.4193117579
 30
0.0
 10
10.3362230444
 20
7.4183194364
 30
0.0
 10
10.3359667794
 20
7.4174915349
 30
0.0
 10
10.3357821891
 20
7.4169139012
 30
0.0
 10
10.3356848359
 20
7.4165808624
 30
0.0
 10
10.3355889273
 20
7.4163394284
 30
0.0
 10
10.3355805297
 20
7.4160660949
 30
0.0
 10
10.3355388082
 20
7.4157127771
 30
0.0
 10
10.3354800176
 20
7.4150892867
 30
0.0
 10
10.3353885955
 20
7.4142012966
 30
0.0
 10
10.3352820716
 20
7.4131345483
 30
0.0
 10
10.3351389281
 20
7.4117126225
 30
0.0
 10
10.3349603794
 20
7.4099350764
 30
0.0
 10
10.3346744887
 20
7.4070910802
 30
0.0
 10
10.3343171983
 20
7.4035360584
 30
0.0
 10
10.3338884186
 20
7.3992700437
 30
0.0
 10
10.3334596472
 20
7.3950040259
 30
0.0
 10
10.3328879492
 20
7.3893160032
 30
0.0
 10
10.3321733277
 20
7.3822059745
 30
0.0
 10
10.3314587054
 20
7.375095946
 30
0.0
 10
10.3308870085
 20
7.3694079231
 30
0.0
 10
10.3304582336
 20
7.3651419059
 30
0.0
 10
10.3300294673
 20
7.3608758889
 30
0.0
 10
10.329672135
 20
7.3573208742
 30
0.0
 10
10.3293863298
 20
7.3544768635
 30
0.0
 10
10.3292075635
 20
7.3526993543
 30
0.0
 10
10.3290648667
 20
7.3512773529
 30
0.0
 10
10.3289569782
 20
7.3502108354
 30
0.0
 10
10.3288698257
 20
7.349322123
 30
0.0
 10
10.3288034131
 20
7.348699922
 30
0.0
 10
10.3287739038
 20
7.3483445384
 30
0.0
 10
10.3287279942
 20
7.3480775505
 30
0.0
 10
10.3287729747
 20
7.3478122833
 30
0.0
 10
10.3288012453
 20
7.3474579935
 30
0.0
 10
10.32886549
 20
7.3468382659
 30
0.0
 10
10.3289495456
 20
7.3459527947
 30
0.0
 10
10.3290537178
 20
7.3448902918
 30
0.0
 10
10.3291914596
 20
7.3434735994
 30
0.0
 10
10.3293640321
 20
7.3417027413
 30
0.0
 10
10.3296399271
 20
7.3388693643
 30
0.0
 10
10.3299848718
 20
7.3353276444
 30
0.0
 10
10.3303987729
 20
7.3310775799
 30
0.0
 10
10.3308126826
 20
7.3268275157
 30
0.0
 10
10.3313645593
 20
7.3211607632
 30
0.0
 10
10.3320544062
 20
7.3140773227
 30
0.0
 10
10.3327442524
 20
7.3069938821
 30
0.0
 10
10.3332961302
 20
7.3013271297
 30
0.0
 10
10.3337100364
 20
7.2970770652
 30
0.0
 10
10.334123951
 20
7.2928270017
 30
0.0
 10
10.3344688537
 20
7.2892852788
 30
0.0
 10
10.3347448343
 20
7.286451908
 30
0.0
 10
10.3349171891
 20
7.2846810341
 30
0.0
 10
10.3350553777
 20
7.2832643742
 30
0.0
 10
10.3351581847
 20
7.2822017719
 30
0.0
 10
10.3352465117
 20
7.2813166115
 30
0.0
 10
10.3353031313
 20
7.280696329
 30
0.0
 10
10.3353436192
 20
7.2803429284
 30
0.0
 10
10.3353510718
 20
7.28007493
 30
0.0
 10
10.3354461108
 20
7.2798182
 30
0.0
 10
10.3355422784
 20
7.2794719628
 30
0.0
 10
10.335724806
 20
7.278867879
 30
0.0
 10
10.3359781178
 20
7.2780039448
 30
0.0
 10
10.3362852773
 20
7.2769676335
 30
0.0
 10
10.3366937107
 20
7.275585742
 30
0.0
 10
10.3372046335
 20
7.2738584266
 30
0.0
 10
10.338021897
 20
7.2710946946
 30
0.0
 10
10.3390435494
 20
7.2676400389
 30
0.0
 10
10.3402695009
 20
7.2634944482
 30
0.0
 10
10.3414954609
 20
7.2593488585
 30
0.0
 10
10.3431300712
 20
7.2538214052
 30
0.0
 10
10.3451733353
 20
7.2469120887
 30
0.0
 10
10.3472165986
 20
7.240002772
 30
0.0
 10
10.34885121
 20
7.234475319
 30
0.0
 10
10.3500771666
 20
7.2303297285
 30
0.0
 10
10.351303131
 20
7.2261841407
 30
0.0
 10
10.3523247434
 20
7.2227294758
 30
0.0
 10
10.3531420884
 20
7.2199657627
 30
0.0
 10
10.3536528037
 20
7.2182383991
 30
0.0
 10
10.3540616631
 20
7.2168566066
 30
0.0
 10
10.3543675212
 20
7.2158199927
 30
0.0
 10
10.3546249048
 20
7.2149570054
 30
0.0
 10
10.3548001635
 20
7.2143512311
 30
0.0
 10
10.3549079775
 20
7.2140077025
 30
0.0
 10
10.3549672423
 20
7.2137426526
 30
0.0
 10
10.3551090569
 20
7.2135059025
 30
0.0
 10
10.3552693488
 20
7.2131803643
 30
0.0
 10
10.3555632753
 20
7.2126152717
 30
0.0
 10
10.3559761563
 20
7.2118055921
 30
0.0
 10
10.3564746158
 20
7.2108350057
 30
0.0
 10
10.3571381798
 20
7.2095405311
 30
0.0
 10
10.3579679938
 20
7.2079225609
 30
0.0
 10
10.3592954957
 20
7.2053337398
 30
0.0
 10
10.3609549418
 20
7.2020977371
 30
0.0
 10
10.3629462476
 20
7.1982145237
 30
0.0
 10
10.3649375614
 20
7.1943313129
 30
0.0
 10
10.3675926436
 20
7.1891536977
 30
0.0
 10
10.3709114974
 20
7.182681679
 30
0.0
 10
10.3742303505
 20
7.17620966
 30
0.0
 10
10.3768854338
 20
7.1710320453
 30
0.0
 10
10.3788767443
 20
7.1671488332
 30
0.0
 10
10.3808680624
 20
7.1632656248
 30
0.0
 10
10.3825274703
 20
7.1600296064
 30
0.0
 10
10.3838550501
 20
7.1574408171
 30
0.0
 10
10.3846846657
 20
7.155822766
 30
0.0
 10
10.3853486371
 20
7.1545284575
 30
0.0
 10
10.3858458521
 20
7.1535573636
 30
0.0
 10
10.3862626268
 20
7.1527492721
 30
0.0
 10
10.3865496024
 20
7.1521813445
 30
0.0
 10
10.3867210313
 20
7.1518603487
 30
0.0
 10
10.3868286364
 20
7.1516096459
 30
0.0
 10
10.3870163863
 20
7.1513969996
 30
0.0
 10
10.387238764
 20
7.1511001968
 30
0.0
 10
10.38764095
 20
7.1505869766
 30
0.0
 10
10.3882086918
 20
7.1498505713
 30
0.0
 10
10.3888928968
 20
7.1489682691
 30
0.0
 10
10.3898041519
 20
7.1477913828
 30
0.0
 10
10.3909435695
 20
7.1463204403
 30
0.0
 10
10.3927664427
 20
7.1439668399
 30
0.0
 10
10.3950451011
 20
7.1410248712
 30
0.0
 10
10.3977794625
 20
7.137494495
 30
0.0
 10
10.4005138316
 20
7.1339641225
 30
0.0
 10
10.4041596543
 20
7.1292569579
 30
0.0
 10
10.4087169337
 20
7.1233730027
 30
0.0
 10
10.4132742126
 20
7.117489047
 30
0.0
 10
10.4169200363
 20
7.1127818831
 30
0.0
 10
10.4196544026
 20
7.1092515085
 30
0.0
 10
10.4223887745
 20
7.1057211403
 30
0.0
 10
10.4246674002
 20
7.1027791471
 30
0.0
 10
10.42649034
 20
7.1004255965
 30
0.0
 10
10.4276295883
 20
7.0989545273
 30
0.0
 10
10.4285411908
 20
7.0977779011
 30
0.0
 10
10.4292243345
 20
7.0968948039
 30
0.0
 10
10.4297953967
 20
7.0961608861
 30
0.0
 10
10.4301916552
 20
7.0956432254
 30
0.0
 10
10.4304235302
 20
7.0953535373
 30
0.0
 10
10.4305821075
 20
7.0951190367
 30
0.0
 10
10.43079928
 20
7.0949504153
 30
0.0
 10
10.4310684047
 20
7.0947026073
 30
0.0
 10
10.4315488957
 20
7.0942796499
 30
0.0
 10
10.4322303328
 20
7.0936698276
 30
0.0
 10
10.4330501883
 20
7.0929404367
 30
0.0
 10
10.4341425847
 20
7.0919670786
 30
0.0
 10
10.435508335
 20
7.0907506676
 30
0.0
 10
10.437693393
 20
7.0888042498
 30
0.0
 10
10.4404247644
 20
7.0863712825
 30
0.0
 10
10.4437023892
 20
7.0834516982
 30
0.0
 10
10.4469800196
 20
7.0805321202
 30
0.0
 10
10.4513501914
 20
7.0766393473
 30
0.0
 10
10.456812907
 20
7.0717733821
 30
0.0
 10
10.4622756221
 20
7.0669074162
 30
0.0
 10
10.4666457947
 20
7.0630146443
 30
0.0
 10
10.4699234229
 20
7.0600950635
 30
0.0
 10
10.4732010558
 20
7.0571754895
 30
0.0
 10
10.4759324018
 20
7.0547424901
 30
0.0
 10
10.4781175117
 20
7.0527961378
 30
0.0
 10
10.47948313
 20
7.0515795601
 30
0.0
 10
10.4805757974
 20
7.0506065442
 30
0.0
 10
10.4813948248
 20
7.0498761082
 30
0.0
 10
10.4820788529
 20
7.0492695557
 30
0.0
 10
10.4825547184
 20
7.048840761
 30
0.0
 10
10.4828312543
 20
7.0486023059
 30
0.0
 10
10.4830256621
 20
7.0484049555
 30
0.0
 10
10.4832697398
 20
7.0482783563
 30
0.0
 10
10.4835778513
 20
7.0480848787
 30
0.0
 10
10.4841251188
 20
7.0477577911
 30
0.0
 10
10.4849027091
 20
7.0472845117
 30
0.0
 10
10.4858376239
 20
7.0467191494
 30
0.0
 10
10.4870835461
 20
7.0459644344
 30
0.0
 10
10.4886411648
 20
7.0450213483
 30
0.0
 10
10.491133234
 20
7.0435122386
 30
0.0
 10
10.494248362
 20
7.0416259105
 30
0.0
 10
10.4979864978
 20
7.0393622915
 30
0.0
 10
10.5017246383
 20
7.0370986792
 30
0.0
 10
10.506708824
 20
7.0340805271
 30
0.0
 10
10.5129390568
 20
7.030307838
 30
0.0
 10
10.5191692892
 20
7.0265351482
 30
0.0
 10
10.5241534754
 20
7.0235169971
 30
0.0
 10
10.5278916143
 20
7.0212533818
 30
0.0
 10
10.5316297564
 20
7.0189897742
 30
0.0
 10
10.5347448646
 20
7.0171034106
 30
0.0
 10
10.5372369741
 20
7.0155943732
 30
0.0
 10
10.5387944904
 20
7.0146511032
 30
0.0
 10
10.5400406228
 20
7.0138967657
 30
0.0
 10
10.5409748952
 20
7.01333025
 30
0.0
 10
10.5417544955
 20
7.0128605796
 30
0.0
 10
10.5422981749
 20
7.0125270492
 30
0.0
 10
10.5426120353
 20
7.0123438945
 30
0.0
 10
10.5428384542
 20
7.0121855865
 30
0.0
 10
10.5430991856
 20
7.0121073294
 30
0.0
 10
10.5434348589
 20
7.011975064
 30
0.0
 10
10.5440278635
 20
7.0117566092
 30
0.0
 10
10.5448720976
 20
7.0114377293
 30
0.0
 10
10.5458864264
 20
7.0110579847
 30
0.0
 10
10.5472384289
 20
7.0105506417
 30
0.0
 10
10.5489285813
 20
7.0099168111
 30
0.0
 10
10.5516327418
 20
7.0089024876
 30
0.0
 10
10.5550129709
 20
7.00763465
 30
0.0
 10
10.5590692336
 20
7.0061132162
 30
0.0
 10
10.5631254996
 20
7.0045917901
 30
0.0
 10
10.5685338531
 20
7.0025632193
 30
0.0
 10
10.5752942954
 20
7.0000275068
 30
0.0
 10
10.5820547375
 20
6.9974917936
 30
0.0
 10
10.5874630914
 20
6.9954632239
 30
0.0
 10
10.5915193562
 20
6.9939417944
 30
0.0
 10
10.5955756234
 20
6.9924203732
 30
0.0
 10
10.5989558385
 20
6.9911524966
 30
0.0
 10
10.6016600277
 20
6.9901382526
 30
0.0
 10
10.6033501067
 20
6.9895042198
 30
0.0
 10
10.6047022598
 20
6.9889972919
 30
0.0
 10
10.6057161286
 20
6.9886162792
 30
0.0
 10
10.6065618021
 20
6.9883013666
 30
0.0
 10
10.6071522372
 20
6.9880758295
 30
0.0
 10
10.6074920275
 20
6.9879549117
 30
0.0
 10
10.6077401127
 20
6.9878417984
 30
0.0
 10
10.6080140287
 20
6.9878144047
 30
0.0
 10
10.6083702401
 20
6.9877479798
 30
0.0
 10
10.6089978079
 20
6.9876456672
 30
0.0
 10
10.6098921385
 20
6.987492223
 30
0.0
 10
10.6109662748
 20
6.9873112075
 30
0.0
 10
10.6123981283
 20
6.9870687647
 30
0.0
 10
10.6141880575
 20
6.986766084
 30
0.0
 10
10.6170518815
 20
6.9862815864
 30
0.0
 10
10.6206316831
 20
6.9856760359
 30
0.0
 10
10.6249274357
 20
6.9849493448
 30
0.0
 10
10.6292231908
 20
6.9842226618
 30
0.0
 10
10.6349508634
 20
6.9832537483
 30
0.0
 10
10.6421104544
 20
6.9820426074
 30
0.0
 10
10.6507019636
 20
6.9805892378
 30
0.0
 10
10.6621573091
 20
6.978651412
 30
0.0
 10
10.6707488183
 20
6.9771980425
 30
0.0
 10
10.676476491
 20
6.9762291296
 30
0.0
  0
SPLINE
  5
313
100
AcDbEntity
  8
0
100
AcDbSpline
 62
4
  6
CONTINUOUS
 70
0
 71
3
 72
403
 73
399
 74
0
 42
0.0000001
 43
0.0000001
 44
0.0000000001
 40
0.0
 40
0.0
 40
0.0
 40
0.0
 40
0.015625
 40
0.0234375
 40
0.03125
 40
0.0390625
 40
0.04296875
 40
0.046875
 40
0.05078125
 40
0.0546875
 40
0.056640625
 40
0.05859375
 40
0.0595703125
 40
0.060546875
 40
0.0615234375
 40
0.0620117188
 40
0.0622558594
 40
0.0625
 40
0.0627441406
 40
0.0629882812
 40
0.0634765625
 40
0.064453125
 40
0.0654296875
 40
0.06640625
 40
0.068359375
 40
0.0703125
 40
0.07421875
 40
0.078125
 40
0.08203125
 40
0.0859375
 40
0.09375
 40
0.1015625
 40
0.10546875
 40
0.109375
 40
0.11328125
 40
0.1171875
 40
0.119140625
 40
0.12109375
 40
0.1220703125
 40
0.123046875
 40
0.1240234375
 40
0.1245117188
 40
0.1247558594
 40
0.125
 40
0.1252441406
 40
0.1254882812
 40
0.1259765625
 40
0.126953125
 40
0.1279296875
 40
0.12890625
 40
0.130859375
 40
0.1328125
 40
0.13671875
 40
0.140625
 40
0.14453125
 40
0.1484375
 40
0.15625
 40
0.1640625
 40
0.16796875
 40
0.171875
 40
0.17578125
 40
0.1796875
 40
0.181640625
 40
0.18359375
 40
0.1845703125
 40
0.185546875
 40
0.1865234375
 40
0.1870117188
 40
0.1872558594
 40
0.1875
 40
0.1877441406
 40
0.1879882812
 40
0.1884765625
 40
0.189453125
 40
0.1904296875
 40
0.19140625
 40
0.193359375
 40
0.1953125
 40
0.19921875
 40
0.203125
 40
0.20703125
 40
0.2109375
 40
0.21875
 40
0.2265625
 40
0.23046875
 40
0.234375
 40
0.23828125
 40
0.2421875
 40
0.244140625
 40
0.24609375
 40
0.2470703125
 40
0.248046875
 40
0.2490234375
 40
0.2495117188
 40
0.2497558594
 40
0.25
 40
0.2502441406
 40
0.2504882812
 40
0.2509765625
 40
0.251953125
 40
0.2529296875
 40
0.25390625
 40
0.255859375
 40
0.2578125
 40
0.26171875
 40
0.265625
 40
0.26953125
 40
0.2734375
 40
0.28125
 40
0.2890625
 40
0.29296875
 40
0.296875
 40
0.30078125
 40
0.3046875
 40
0.306640625
 40
0.30859375
 40
0.3095703125
 40
0.310546875
 40
0.3115234375
 40
0.3120117188
 40
0.3122558594
 40
0.3125
 40
0.3127441406
 40
0.3129882812
 40
0.3134765625
 40
0.314453125
 40
0.3154296875
 40
0.31640625
 40
0.318359375
 40
0.3203125
 40
0.32421875
 40
0.328125
 40
0.33203125
 40
0.3359375
 40
0.34375
 40
0.3515625
 40
0.35546875
 40
0.359375
 40
0.36328125
 40
0.3671875
 40
0.369140625
 40
0.37109375
 40
0.3720703125
 40
0.373046875
 40
0.3740234375
 40
0.3745117188
 40
0.3747558594
 40
0.375
 40
0.3752441406
 40
0.3754882812
 40
0.3759765625
 40
0.376953125
 40
0.3779296875
 40
0.37890625
 40
0.380859375
 40
0.3828125
 40
0.38671875
 40
0.390625
 40
0.39453125
 40
0.3984375
 40
0.40625
 40
0.4140625
 40
0.41796875
 40
0.421875
 40
0.42578125
 40
0.4296875
 40
0.431640625
 40
0.43359375
 40
0.4345703125
 40
0.435546875
 40
0.4365234375
 40
0.4370117188
 40
0.4372558594
 40
0.4375
 40
0.4377441406
 40
0.4379882812
 40
0.4384765625
 40
0.439453125
 40
0.4404296875
 40
0.44140625
 40
0.443359375
 40
0.4453125
 40
0.44921875
 40
0.453125
 40
0.45703125
 40
0.4609375
 40
0.46875
 40
0.4765625
 40
0.48046875
 40
0.484375
 40
0.48828125
 40
0.4921875
 40
0.494140625
 40
0.49609375
 40
0.4970703125
 40
0.498046875
 40
0.4990234375
 40
0.4995117188
 40
0.4997558594
 40
0.5
 40
0.5002441406
 40
0.5004882812
 40
0.5009765625
 40
0.501953125
 40
0.5029296875
 40
0.50390625
 40
0.505859375
 40
0.5078125
 40
0.51171875
 40
0.515625
 40
0.51953125
 40
0.5234375
 40
0.53125
 40
0.5390625
 40
0.54296875
 40
0.546875
 40
0.55078125
 40
0.5546875
 40
0.556640625
 40
0.55859375
 40
0.5595703125
 40
0.560546875
 40
0.5615234375
 40
0.5620117188
 40
0.5622558594
 40
0.5625
 40
0.5627441406
 40
0.5629882812
 40
0.5634765625
 40
0.564453125
 40
0.5654296875
 40
0.56640625
 40
0.568359375
 40
0.5703125
 40
0.57421875
 40
0.578125
 40
0.58203125
 40
0.5859375
 40
0.59375
 40
0.6015625
 40
0.60546875
 40
0.609375
 40
0.61328125
 40
0.6171875
 40
0.619140625
 40
0.62109375
 40
0.6220703125
 40
0.623046875
 40
0.6240234375
 40
0.6245117188
 40
0.6247558594
 40
0.625
 40
0.6252441406
 40
0.6254882812
 40
0.6259765625
 40
0.626953125
 40
0.6279296875
 40
0.62890625
 40
0.630859375
 40
0.6328125
 40
0.63671875
 40
0.640625
 40
0.64453125
 40
0.6484375
 40
0.65625
 40
0.6640625
 40
0.66796875
 40
0.671875
 40
0.67578125
 40
0.6796875
 40
0.681640625
 40
0.68359375
 40
0.6845703125
 40
0.685546875
 40
0.6865234375
 40
0.6870117188
 40
0.6872558594
 40
0.6875
 40
0.6877441406
 40
0.6879882812
 40
0.6884765625
 40
0.689453125
 40
0.6904296875
 40
0.69140625
 40
0.693359375
 40
0.6953125
 40
0.69921875
 40
0.703125
 40
0.70703125
 40
0.7109375
 40
0.71875
 40
0.7265625
 40
0.73046875
 40
0.734375
 40
0.73828125
 40
0.7421875
 40
0.744140625
 40
0.74609375
 40
0.7470703125
 40
0.748046875
 40
0.7490234375
 40
0.7495117188
 40
0.7497558594
 40
0.75
 40
0.7502441406
 40
0.7504882812
 40
0.7509765625
 40
0.751953125
 40
0.7529296875
 40
0.75390625
 40
0.755859375
 40
0.7578125
 40
0.76171875
 40
0.765625
 40
0.76953125
 40
0.7734375
 40
0.78125
 40
0.7890625
 40
0.79296875
 40
0.796875
 40
0.80078125
 40
0.8046875
 40
0.806640625
 40
0.80859375
 40
0.8095703125
 40
0.810546875
 40
0.8115234375
 40
0.8120117188
 40
0.8122558594
 40
0.8125
 40
0.8127441406
 40
0.8129882812
 40
0.8134765625
 40
0.814453125
 40
0.8154296875
 40
0.81640625
 40
0.818359375
 40
0.8203125
 40
0.82421875
 40
0.828125
 40
0.83203125
 40
0.8359375
 40
0.84375
 40
0.8515625
 40
0.85546875
 40
0.859375
 40
0.86328125
 40
0.8671875
 40
0.869140625
 40
0.87109375
 40
0.8720703125
 40
0.873046875
 40
0.8740234375
 40
0.8745117188
 40
0.8747558594
 40
0.875
 40
0.8752441406
 40
0.8754882812
 40
0.8759765625
 40
0.876953125
 40
0.8779296875
 40
0.87890625
 40
0.880859375
 40
0.8828125
 40
0.88671875
 40
0.890625
 40
0.89453125
 40
0.8984375
 40
0.90625
 40
0.9140625
 40
0.91796875
 40
0.921875
 40
0.92578125
 40
0.9296875
 40
0.931640625
 40
0.93359375
 40
0.9345703125
 40
0.935546875
 40
0.9365234375
 40
0.9370117188
 40
0.9372558594
 40
0.9375
 40
0.9377441406
 40
0.9379882812
 40
0.9384765625
 40
0.939453125
 40
0.9404296875
 40
0.94140625
 40
0.943359375
 40
0.9453125
 40
0.94921875
 40
0.953125
 40
0.95703125
 40
0.9609375
 40
0.96875
 40
0.9765625
 40
0.984375
 40
1.0
 40
1.0
 40
1.0
 40
1.0
 10
10.6764764606
 20
6.9762291317
 30
0.0
 10
10.6821049402
 20
6.9763906726
 30
0.0
 10
10.6905476597
 20
6.9766329839
 30
0.0
 10
10.7018046189
 20
6.9769560656
 30
0.0
 10
10.7102473383
 20
6.977198377
 30
0.0
 10
10.7172829379
 20
6.9774003028
 30
0.0
 10
10.7229114174
 20
6.9775618442
 30
0.0
 10
10.7271327775
 20
6.9776829981
 30
0.0
 10
10.7313541359
 20
6.9778041604
 30
0.0
 10
10.7348719397
 20
6.9779051026
 30
0.0
 10
10.7376861712
 20
6.9779859156
 30
0.0
 10
10.7394450922
 20
6.9780362888
 30
0.0
 10
10.7408521687
 20
6.9780768963
 30
0.0
 10
10.7419076413
 20
6.9781065061
 30
0.0
 10
10.7427866762
 20
6.9781338718
 30
0.0
 10
10.7434030321
 20
6.9781477469
 30
0.0
 10
10.7437536249
 20
6.9781639212
 30
0.0
 10
10.7440211065
 20
6.9781528239
 30
0.0
 10
10.7442712455
 20
6.9782305157
 30
0.0
 10
10.7446108134
 20
6.9783031341
 30
0.0
 10
10.7452022389
 20
6.9784446462
 30
0.0
 10
10.7460486059
 20
6.9786392623
 30
0.0
 10
10.7470636156
 20
6.9788760306
 30
0.0
 10
10.7484171822
 20
6.9791905939
 30
0.0
 10
10.7501090649
 20
6.9795841842
 30
0.0
 10
10.7528161195
 20
6.9802137128
 30
0.0
 10
10.7561999233
 20
6.9810006976
 30
0.0
 10
10.7602604941
 20
6.9819450476
 30
0.0
 10
10.7643210632
 20
6.9828894062
 30
0.0
 10
10.7697351558
 20
6.9841485479
 30
0.0
 10
10.7765027715
 20
6.9857224762
 30
0.0
 10
10.7832703873
 20
6.9872964037
 30
0.0
 10
10.7886844797
 20
6.9885555466
 30
0.0
 10
10.7927450498
 20
6.9894999017
 30
0.0
 10
10.7968056167
 20
6.9904442648
 30
0.0
 10
10.8001894325
 20
6.9912312088
 30
0.0
 10
10.8028964625
 20
6.9918608207
 30
0.0
 10
10.8045884079
 20
6.9922541991
 30
0.0
 10
10.8059418459
 20
6.9925691973
 30
0.0
 10
10.8069572485
 20
6.992804637
 30
0.0
 10
10.8078023862
 20
6.99300341
 30
0.0
 10
10.8083960062
 20
6.9931375011
 30
0.0
 10
10.8087320579
 20
6.9932220099
 30
0.0
 10
10.8089929978
 20
6.9932631784
 30
0.0
 10
10.8092199131
 20
6.9933892564
 30
0.0
 10
10.809534335
 20
6.993527743
 30
0.0
 10
10.8100790437
 20
6.9937838938
 30
0.0
 10
10.8108600899
 20
6.9941426091
 30
0.0
 10
10.811796108
 20
6.9945761555
 30
0.0
 10
10.8130445643
 20
6.9951531388
 30
0.0
 10
10.8146049867
 20
6.9958747372
 30
0.0
 10
10.8171017452
 20
6.9970290882
 30
0.0
 10
10.820222665
 20
6.9984720978
 30
0.0
 10
10.8239677809
 20
7.000203679
 30
0.0
 10
10.8277128935
 20
7.0019352683
 30
0.0
 10
10.8327063782
 20
7.0042440512
 30
0.0
 10
10.8389482336
 20
7.0071300308
 30
0.0
 10
10.8451900893
 20
7.0100160098
 30
0.0
 10
10.8501835734
 20
7.0123247938
 30
0.0
 10
10.8539286876
 20
7.0140563797
 30
0.0
 10
10.8576737976
 20
7.0157879736
 30
0.0
 10
10.8607947357
 20
7.0172309437
 30
0.0
 10
10.863291457
 20
7.0183853753
 30
0.0
 10
10.8648519741
 20
7.0191067687
 30
0.0
 10
10.866100236
 20
7.0196841728
 30
0.0
 10
10.8670368479
 20
7.0201164335
 30
0.0
 10
10.8678160361
 20
7.0204791713
 30
0.0
 10
10.8683640618
 20
7.0207281412
 30
0.0
 10
10.868673169
 20
7.0208781335
 30
0.0
 10
10.8689164093
 20
7.0209688698
 30
0.0
 10
10.8691160351
 20
7.0211427756
 30
0.0
 10
10.869397416
 20
7.0213456395
 30
0.0
 10
10.8698827445
 20
7.0217141678
 30
0.0
 10
10.8705797767
 20
7.0222335703
 30
0.0
 10
10.8714146291
 20
7.022859878
 30
0.0
 10
10.8725283198
 20
7.0236938985
 30
0.0
 10
10.8739202433
 20
7.0247367858
 30
0.0
 10
10.876147427
 20
7.0264052033
 30
0.0
 10
10.8789313703
 20
7.0284907946
 30
0.0
 10
10.8822721178
 20
7.0309934743
 30
0.0
 10
10.8856128612
 20
7.0334961621
 30
0.0
 10
10.8900671871
 20
7.0368330763
 30
0.0
 10
10.895635094
 20
7.0410042201
 30
0.0
 10
10.9012030013
 20
7.0451753632
 30
0.0
 10
10.9056573264
 20
7.0485122784
 30
0.0
 10
10.9089980721
 20
7.0510149632
 30
0.0
 10
10.912338811
 20
7.0535176541
 30
0.0
 10
10.915122781
 20
7.0556032109
 30
0.0
 10
10.9173499103
 20
7.0572716987
 30
0.0
 10
10.9187419723
 20
7.0583144071
 30
0.0
 10
10.9198553786
 20
7.0591487947
 30
0.0
 10
10.9206910997
 20
7.0597739809
 30
0.0
 10
10.9213854142
 20
7.0602968922
 30
0.0
 10
10.9218755942
 20
7.0606591566
 30
0.0
 10
10.9221492018
 20
7.0608720569
 30
0.0
 10
10.922372705
 20
7.0610151342
 30
0.0
 10
10.9225262655
 20
7.0612216573
 30
0.0
 10
10.9227554095
 20
7.0614748908
 30
0.0
 10
10.9231450448
 20
7.0619283605
 30
0.0
 10
10.9237076093
 20
7.0625707836
 30
0.0
 10
10.924380143
 20
7.0633439987
 30
0.0
 10
10.9252777431
 20
7.0643741463
 30
0.0
 10
10.9263994391
 20
7.0656621067
 30
0.0
 10
10.9281943226
 20
7.0677226891
 30
0.0
 10
10.9304378686
 20
7.0702984701
 30
0.0
 10
10.9331301489
 20
7.0733893846
 30
0.0
 10
10.9358224224
 20
7.0764803052
 30
0.0
 10
10.9394121229
 20
7.0806015305
 30
0.0
 10
10.9438992475
 20
7.0857530629
 30
0.0
 10
10.9483863728
 20
7.0909045948
 30
0.0
 10
10.9519760722
 20
7.0950258209
 30
0.0
 10
10.9546683487
 20
7.098116739
 30
0.0
 10
10.9573606181
 20
7.1012076625
 30
0.0
 10
10.959604198
 20
7.1037834157
 30
0.0
 10
10.9613990124
 20
7.1058440548
 30
0.0
 10
10.9625208841
 20
7.107131871
 30
0.0
 10
10.9634181233
 20
7.1081623146
 30
0.0
 10
10.9640917596
 20
7.1089346252
 30
0.0
 10
10.9646508746
 20
7.1095798786
 30
0.0
 10
10.9650466679
 20
7.1100282957
 30
0.0
 10
10.9652659451
 20
7.1102896246
 30
0.0
 10
10.9654498134
 20
7.1104712812
 30
0.0
 10
10.9655594856
 20
7.1107077531
 30
0.0
 10
10.9657315957
 20
7.1110039287
 30
0.0
 10
10.9660207302
 20
7.1115311446
 30
0.0
 10
10.9664400835
 20
7.1122796527
 30
0.0
 10
10.9669406092
 20
7.113179856
 30
0.0
 10
10.9676089192
 20
7.1143794307
 30
0.0
 10
10.9684439841
 20
7.1158791374
 30
0.0
 10
10.9697802682
 20
7.118278535
 30
0.0
 10
10.9714505615
 20
7.1212778278
 30
0.0
 10
10.9734549399
 20
7.1248769594
 30
0.0
 10
10.9754593112
 20
7.1284760963
 30
0.0
 10
10.9781318088
 20
7.1332749437
 30
0.0
 10
10.9814724299
 20
7.1392735036
 30
0.0
 10
10.9848130516
 20
7.1452720631
 30
0.0
 10
10.9874855482
 20
7.1500709111
 30
0.0
 10
10.9894899227
 20
7.1536700461
 30
0.0
 10
10.9914942893
 20
7.1572691849
 30
0.0
 10
10.9931646193
 20
7.1602684554
 30
0.0
 10
10.9945008284
 20
7.1626678984
 30
0.0
 10
10.9953360843
 20
7.1641674895
 30
0.0
 10
10.9960040022
 20
7.1653673017
 30
0.0
 10
10.9965057259
 20
7.1662667794
 30
0.0
 10
10.9969213308
 20
7.1670175574
 30
0.0
 10
10.9972171569
 20
7.1675407212
 30
0.0
 10
10.9973785453
 20
7.1678433893
 30
0.0
 10
10.9975211511
 20
7.1680599184
 30
0.0
 10
10.9975813264
 20
7.1683164767
 30
0.0
 10
10.9976903128
 20
7.1686445917
 30
0.0
 10
10.9978676426
 20
7.1692252985
 30
0.0
 10
10.9981279747
 20
7.1700514785
 30
0.0
 10
10.9984373754
 20
7.1710443503
 30
0.0
 10
10.9988509567
 20
7.1723676709
 30
0.0
 10
10.9993675748
 20
7.1740219957
 30
0.0
 10
11.0001943641
 20
7.1766688181
 30
0.0
 10
11.001227782
 20
7.1799773794
 30
0.0
 10
11.002467913
 20
7.1839476388
 30
0.0
 10
11.0037080361
 20
7.1879179019
 30
0.0
 10
11.0053615363
 20
7.1932115848
 30
0.0
 10
11.0074284106
 20
7.1998286889
 30
0.0
 10
11.0094952855
 20
7.2064457927
 30
0.0
 10
11.0111487846
 20
7.2117394761
 30
0.0
 10
11.0123889112
 20
7.2157097378
 30
0.0
 10
11.0136290293
 20
7.2196800025
 30
0.0
 10
11.0146624872
 20
7.222988547
 30
0.0
 10
11.0154891951
 20
7.2256354039
 30
0.0
 10
11.0160060204
 20
7.2272896409
 30
0.0
 10
11.0164191763
 20
7.2286131416
 30
0.0
 10
11.0167298768
 20
7.2296054632
 30
0.0
 10
11.0169861418
 20
7.2304333646
 30
0.0
 10
11.0171707321
 20
7.2310109983
 30
0.0
 10
11.0172680854
 20
7.2313440372
 30
0.0
 10
11.0173639939
 20
7.2315854711
 30
0.0
 10
11.0173723915
 20
7.2318588047
 30
0.0
 10
11.017414113
 20
7.2322121224
 30
0.0
 10
11.0174729037
 20
7.2328356128
 30
0.0
 10
11.0175643258
 20
7.2337236029
 30
0.0
 10
11.0176708497
 20
7.2347903512
 30
0.0
 10
11.0178139931
 20
7.2362122771
 30
0.0
 10
11.0179925419
 20
7.2379898231
 30
0.0
 10
11.0182784326
 20
7.2408338193
 30
0.0
 10
11.0186357229
 20
7.2443888411
 30
0.0
 10
11.0190645026
 20
7.2486548558
 30
0.0
 10
11.019493274
 20
7.2529208736
 30
0.0
 10
11.0200649721
 20
7.2586088963
 30
0.0
 10
11.0207795936
 20
7.265718925
 30
0.0
 10
11.0214942158
 20
7.2728289536
 30
0.0
 10
11.0220659127
 20
7.2785169765
 30
0.0
 10
11.0224946877
 20
7.2827829936
 30
0.0
 10
11.0229234539
 20
7.2870490107
 30
0.0
 10
11.0232807862
 20
7.2906040254
 30
0.0
 10
11.0235665914
 20
7.293448036
 30
0.0
 10
11.0237453577
 20
7.2952255452
 30
0.0
 10
11.0238880545
 20
7.2966475467
 30
0.0
 10
11.023995943
 20
7.2977140641
 30
0.0
 10
11.0240830956
 20
7.2986027765
 30
0.0
 10
11.0241495081
 20
7.2992249775
 30
0.0
 10
11.0241790174
 20
7.2995803612
 30
0.0
 10
11.024224927
 20
7.299847349
 30
0.0
 10
11.0241799465
 20
7.3001126163
 30
0.0
 10
11.0241516759
 20
7.3004669061
 30
0.0
 10
11.0240874312
 20
7.3010866336
 30
0.0
 10
11.0240033756
 20
7.3019721048
 30
0.0
 10
11.0238992034
 20
7.3030346078
 30
0.0
 10
11.0237614617
 20
7.3044513002
 30
0.0
 10
11.0235888892
 20
7.3062221582
 30
0.0
 10
11.0233129941
 20
7.3090555353
 30
0.0
 10
11.0229680495
 20
7.3125972551
 30
0.0
 10
11.0225541484
 20
7.3168473196
 30
0.0
 10
11.0221402386
 20
7.3210973839
 30
0.0
 10
11.021588362
 20
7.3267641363
 30
0.0
 10
11.020898515
 20
7.3338475769
 30
0.0
 10
11.0202086688
 20
7.3409310174
 30
0.0
 10
11.019656791
 20
7.3465977698
 30
0.0
 10
11.0192428848
 20
7.3508478344
 30
0.0
 10
11.0188289703
 20
7.3550978978
 30
0.0
 10
11.0184840676
 20
7.3586396208
 30
0.0
 10
11.018208087
 20
7.3614729916
 30
0.0
 10
11.0180357322
 20
7.3632438655
 30
0.0
 10
11.0178975435
 20
7.3646605254
 30
0.0
 10
11.0177947365
 20
7.3657231276
 30
0.0
 10
11.0177064095
 20
7.366608288
 30
0.0
 10
11.01764979
 20
7.3672285705
 30
0.0
 10
11.017609302
 20
7.3675819712
 30
0.0
 10
11.0176018494
 20
7.3678499696
 30
0.0
 10
11.0175068104
 20
7.3681066995
 30
0.0
 10
11.0174106428
 20
7.3684529367
 30
0.0
 10
11.0172281153
 20
7.3690570205
 30
0.0
 10
11.0169748035
 20
7.3699209548
 30
0.0
 10
11.0166676439
 20
7.370957266
 30
0.0
 10
11.0162592105
 20
7.3723391576
 30
0.0
 10
11.0157482878
 20
7.374066473
 30
0.0
 10
11.0149310243
 20
7.376830205
 30
0.0
 10
11.0139093719
 20
7.3802848606
 30
0.0
 10
11.0126834203
 20
7.3844304514
 30
0.0
 10
11.0114574603
 20
7.3885760411
 30
0.0
 10
11.00982285
 20
7.3941034944
 30
0.0
 10
11.007779586
 20
7.4010128109
 30
0.0
 10
11.0057363227
 20
7.4079221275
 30
0.0
 10
11.0041017112
 20
7.4134495805
 30
0.0
 10
11.0028757547
 20
7.417595171
 30
0.0
 10
11.0016497902
 20
7.4217407588
 30
0.0
 10
11.0006281778
 20
7.4251954237
 30
0.0
 10
10.9998108328
 20
7.4279591368
 30
0.0
 10
10.9993001176
 20
7.4296865004
 30
0.0
 10
10.9988912582
 20
7.4310682929
 30
0.0
 10
10.9985854001
 20
7.4321049069
 30
0.0
 10
10.9983280165
 20
7.4329678941
 30
0.0
 10
10.9981527577
 20
7.4335736684
 30
0.0
 10
10.9980449437
 20
7.433917197
 30
0.0
 10
10.9979856789
 20
7.4341822469
 30
0.0
 10
10.9978438643
 20
7.4344189971
 30
0.0
 10
10.9976835725
 20
7.4347445352
 30
0.0
 10
10.997389646
 20
7.4353096278
 30
0.0
 10
10.9969767649
 20
7.4361193075
 30
0.0
 10
10.9964783055
 20
7.4370898938
 30
0.0
 10
10.9958147414
 20
7.4383843684
 30
0.0
 10
10.9949849274
 20
7.4400023386
 30
0.0
 10
10.9936574256
 20
7.4425911597
 30
0.0
 10
10.9919979794
 20
7.4458271625
 30
0.0
 10
10.9900066736
 20
7.4497103759
 30
0.0
 10
10.9880153599
 20
7.4535935866
 30
0.0
 10
10.9853602776
 20
7.4587712018
 30
0.0
 10
10.9820414238
 20
7.4652432205
 30
0.0
 10
10.9787225707
 20
7.4717152395
 30
0.0
 10
10.9760674874
 20
7.4768928543
 30
0.0
 10
10.9740761769
 20
7.4807760663
 30
0.0
 10
10.9720848588
 20
7.4846592748
 30
0.0
 10
10.9704254509
 20
7.4878952931
 30
0.0
 10
10.9690978711
 20
7.4904840824
 30
0.0
 10
10.9682682555
 20
7.4921021335
 30
0.0
 10
10.9676042841
 20
7.493396442
 30
0.0
 10
10.9671070692
 20
7.4943675359
 30
0.0
 10
10.9666902944
 20
7.4951756275
 30
0.0
 10
10.9664033188
 20
7.495743555
 30
0.0
 10
10.9662318899
 20
7.4960645509
 30
0.0
 10
10.9661242848
 20
7.4963152536
 30
0.0
 10
10.965936535
 20
7.4965278999
 30
0.0
 10
10.9657141572
 20
7.4968247028
 30
0.0
 10
10.9653119712
 20
7.497337923
 30
0.0
 10
10.9647442294
 20
7.4980743282
 30
0.0
 10
10.9640600245
 20
7.4989566304
 30
0.0
 10
10.9631487693
 20
7.5001335168
 30
0.0
 10
10.9620093518
 20
7.5016044592
 30
0.0
 10
10.9601864786
 20
7.5039580596
 30
0.0
 10
10.9579078202
 20
7.5069000284
 30
0.0
 10
10.9551734588
 20
7.5104304045
 30
0.0
 10
10.9524390897
 20
7.513960777
 30
0.0
 10
10.9487932669
 20
7.5186679416
 30
0.0
 10
10.9442359875
 20
7.5245518968
 30
0.0
 10
10.9396787086
 20
7.5304358525
 30
0.0
 10
10.936032885
 20
7.5351430164
 30
0.0
 10
10.9332985187
 20
7.538673391
 30
0.0
 10
10.9305641468
 20
7.5422037593
 30
0.0
 10
10.928285521
 20
7.5451457525
 30
0.0
 10
10.9264625813
 20
7.5474993031
 30
0.0
 10
10.925323333
 20
7.5489703723
 30
0.0
 10
10.9244117304
 20
7.5501469984
 30
0.0
 10
10.9237285868
 20
7.5510300957
 30
0.0
 10
10.9231575246
 20
7.5517640134
 30
0.0
 10
10.922761266
 20
7.5522816741
 30
0.0
 10
10.922529391
 20
7.5525713622
 30
0.0
 10
10.9223708138
 20
7.5528058628
 30
0.0
 10
10.9221536412
 20
7.5529744843
 30
0.0
 10
10.9218845165
 20
7.5532222922
 30
0.0
 10
10.9214040255
 20
7.5536452496
 30
0.0
 10
10.9207225884
 20
7.554255072
 30
0.0
 10
10.9199027329
 20
7.5549844629
 30
0.0
 10
10.9188103366
 20
7.5559578209
 30
0.0
 10
10.9174445863
 20
7.5571742319
 30
0.0
 10
10.9152595282
 20
7.5591206497
 30
0.0
 10
10.9125281568
 20
7.561553617
 30
0.0
 10
10.909250532
 20
7.5644732013
 30
0.0
 10
10.9059729017
 20
7.5673927793
 30
0.0
 10
10.9016027298
 20
7.5712855522
 30
0.0
 10
10.8961400143
 20
7.5761515175
 30
0.0
 10
10.8906772992
 20
7.5810174833
 30
0.0
 10
10.8863071266
 20
7.5849102553
 30
0.0
 10
10.8830294984
 20
7.587829836
 30
0.0
 10
10.8797518654
 20
7.59074941
 30
0.0
 10
10.8770205194
 20
7.5931824094
 30
0.0
 10
10.8748354095
 20
7.5951287617
 30
0.0
 10
10.8734697913
 20
7.5963453394
 30
0.0
 10
10.8723771238
 20
7.5973183554
 30
0.0
 10
10.8715580965
 20
7.5980487914
 30
0.0
 10
10.8708740683
 20
7.5986553438
 30
0.0
 10
10.8703982028
 20
7.5990841385
 30
0.0
 10
10.870121667
 20
7.5993225936
 30
0.0
 10
10.8699272591
 20
7.5995199441
 30
0.0
 10
10.8696831814
 20
7.5996465432
 30
0.0
 10
10.8693750699
 20
7.5998400209
 30
0.0
 10
10.8688278025
 20
7.6001671084
 30
0.0
 10
10.8680502121
 20
7.6006403879
 30
0.0
 10
10.8671152973
 20
7.6012057501
 30
0.0
 10
10.8658693752
 20
7.6019604652
 30
0.0
 10
10.8643117564
 20
7.6029035512
 30
0.0
 10
10.8618196872
 20
7.6044126609
 30
0.0
 10
10.8587045593
 20
7.606298989
 30
0.0
 10
10.8549664235
 20
7.6085626081
 30
0.0
 10
10.8512282829
 20
7.6108262203
 30
0.0
 10
10.8462440972
 20
7.6138443724
 30
0.0
 10
10.8400138645
 20
7.6176170616
 30
0.0
 10
10.8337836321
 20
7.6213897514
 30
0.0
 10
10.8287994458
 20
7.6244079024
 30
0.0
 10
10.825061307
 20
7.6266715177
 30
0.0
 10
10.8213231648
 20
7.6289351254
 30
0.0
 10
10.8182080566
 20
7.6308214889
 30
0.0
 10
10.8157159472
 20
7.6323305264
 30
0.0
 10
10.8141584309
 20
7.6332737964
 30
0.0
 10
10.8129122985
 20
7.6340281338
 30
0.0
 10
10.811978026
 20
7.6345946496
 30
0.0
 10
10.8111984258
 20
7.63506432
 30
0.0
 10
10.8106547464
 20
7.6353978503
 30
0.0
 10
10.8103408859
 20
7.635581005
 30
0.0
 10
10.810114467
 20
7.635739313
 30
0.0
 10
10.8098537356
 20
7.6358175701
 30
0.0
 10
10.8095180623
 20
7.6359498355
 30
0.0
 10
10.8089250577
 20
7.6361682904
 30
0.0
 10
10.8080808236
 20
7.6364871703
 30
0.0
 10
10.8070664948
 20
7.6368669149
 30
0.0
 10
10.8057144923
 20
7.6373742579
 30
0.0
 10
10.8040243399
 20
7.6380080885
 30
0.0
 10
10.8013201795
 20
7.639022412
 30
0.0
 10
10.7979399503
 20
7.6402902496
 30
0.0
 10
10.7938836876
 20
7.6418116833
 30
0.0
 10
10.7898274216
 20
7.6433331094
 30
0.0
 10
10.7844190681
 20
7.6453616802
 30
0.0
 10
10.7776586258
 20
7.6478973928
 30
0.0
 10
10.7708981838
 20
7.650433106
 30
0.0
 10
10.7654898298
 20
7.6524616757
 30
0.0
 10
10.7614335651
 20
7.6539831051
 30
0.0
 10
10.7573772978
 20
7.6555045263
 30
0.0
 10
10.7539970828
 20
7.6567724029
 30
0.0
 10
10.7512928935
 20
7.657786647
 30
0.0
 10
10.7496028145
 20
7.6584206797
 30
0.0
 10
10.7482506614
 20
7.6589276077
 30
0.0
 10
10.7472367927
 20
7.6593086203
 30
0.0
 10
10.7463911192
 20
7.6596235329
 30
0.0
 10
10.7458006841
 20
7.65984907
 30
0.0
 10
10.7454608937
 20
7.6599699878
 30
0.0
 10
10.7452128086
 20
7.6600831012
 30
0.0
 10
10.7449388925
 20
7.6601104949
 30
0.0
 10
10.7445826812
 20
7.6601769198
 30
0.0
 10
10.7439551134
 20
7.6602792324
 30
0.0
 10
10.7430607827
 20
7.6604326765
 30
0.0
 10
10.7419866465
 20
7.660613692
 30
0.0
 10
10.740554793
 20
7.6608561348
 30
0.0
 10
10.7387648637
 20
7.6611588156
 30
0.0
 10
10.7359010397
 20
7.6616433131
 30
0.0
 10
10.7323212382
 20
7.6622488636
 30
0.0
 10
10.7280254855
 20
7.6629755548
 30
0.0
 10
10.7237297304
 20
7.6637022378
 30
0.0
 10
10.7180020578
 20
7.6646711513
 30
0.0
 10
10.7108424668
 20
7.6658822922
 30
0.0
 10
10.7022509577
 20
7.6673356617
 30
0.0
 10
10.6907956121
 20
7.6692734876
 30
0.0
 10
10.682204103
 20
7.670726857
 30
0.0
 10
10.6764764302
 20
7.6716957699
 30
0.0
  0
ENDSEC
  0
SECTION
  2
OBJECTS
  0
DICTIONARY
  5
C
100
AcDbDictionary
280
0
281
1
  3
ACAD_GROUP
350
D
  3
ACAD_MLINESTYLE
350
17
  3
ACAD_LAYOUT
350
1A
  3
ACAD_PLOTSETTINGS
350
19
  3
ACAD_PLOTSTYLENAME
350
E
  3
ACAD_IMAGE_DICT
350
       315
  3
ACAD_IMAGE_VARS
350
       316
  3
ACAD_TABLESTYLE
350
       317
  0
IMAGEDEF_REACTOR
  5
314
100
AcDbRasterImageDefReactor
 90
2
330
27F
  0
DICTIONARY
  5
D
102
{ACAD_REACTORS
330
C
102
}
100
AcDbDictionary
280
0
281
1
  0
ACDBDICTIONARYWDFLT
  5
E
102
{ACAD_REACTORS
330
C
102
}
100
AcDbDictionary
281
1
  3
Normal
350
F
100
AcDbDictionaryWithDefault
340
F
  0
DICTIONARY
  5
315
330
C
100
AcDbDictionary
281
1
  3
ZFR_assy_2_img_1
350
       31A
  0
RASTERVARIABLES
  5
316
330
C
100
AcDbRasterVariables
 90
0
 70
0
 71
1
 72
5
  0
DICTIONARY
  5
17
102
{ACAD_REACTORS
330
C
102
}
100
AcDbDictionary
280
0
281
1
  3
Standard
350
18
  0
DICTIONARY
  5
317
330
C
100
AcDbDictionary
281
1
  3
Standard
350
       31B
  3
Standard1
350
       31C
  0
DICTIONARY
  5
19
102
{ACAD_REACTORS
330
C
102
}
100
AcDbDictionary
281
1
  0
DICTIONARY
  5
1A
102
{ACAD_REACTORS
330
C
102
}
100
AcDbDictionary
281
1
  3
Model
350
318
  3
Layout1
350
319
  0
ACDBPLACEHOLDER
  5
F
102
{ACAD_REACTORS
330
E
102
}
  0
MLINESTYLE
  5
18
102
{ACAD_REACTORS
330
17
102
}
100
AcDbMlineStyle
  2
STANDARD
 70
0
  3

 62
256
 51
90.0
 52
90.0
 71
2
 49
0.5
 62
256
  6
BYLAYER
 49
-0.5
 62
256
  6
BYLAYER
  0
LAYOUT
  5
318
102
{ACAD_REACTORS
330
1A
102
}
100
AcDbPlotSettings
  1

  2
none_device
  4
ANSI_C_(22.00_x_17.00_Inches)
  6

 40
0.0
 41
0.0
 42
0.0
 43
0.0
 44
558.8
 45
431.8
 46
0.0
 47
0.0
 48
0.0
 49
0.0
140
0.0
141
0.0
142
1.0
143
1.0
 70
1024
 72
0
 73
0
 74
0
  7

 75
0
147
1.0
148
0.0
149
0.0
100
AcDbLayout
  1
Model
 70
0
 71
0
 10
0.0
 20
0.0
 11
22.0
 21
17.0
 12
0.0
 22
0.0
 32
0.0
 14
0.0
 24
0.0
 34
0.0
 15
0.0
 25
0.0
 35
0.0
146
0.0
 13
0.0
 23
0.0
 33
0.0
 16
1.0
 26
0.0
 36
0.0
 17
0.0
 27
1.0
 37
0.0
 76
0
330
204
345
0
346
0
  0
LAYOUT
  5
319
102
{ACAD_REACTORS
330
1A
102
}
100
AcDbPlotSettings
  1

  2
none_device
  4
ANSI_C_(22.00_x_17.00_Inches)
  6

 40
0.0
 41
0.0
 42
0.0
 43
0.0
 44
558.8
 45
431.8
 46
0.0
 47
0.0
 48
0.0
 49
0.0
140
0.0
141
0.0
142
1.0
143
1.0
 70
0
 72
0
 73
0
 74
0
  7

 75
0
147
1.0
148
0.0
149
0.0
100
AcDbLayout
  1
Layout1
 70
0
 71
1
 10
0.0
 20
0.0
 11
22.0
 21
17.0
 12
0.0
 22
0.0
 32
0.0
 14
0.0
 24
0.0
 34
0.0
 15
0.0
 25
0.0
 35
0.0
146
0.0
 13
0.0
 23
0.0
 33
0.0
 16
1.0
 26
0.0
 36
0.0
 17
0.0
 27
1.0
 37
0.0
 76
0
330
205
345
0
346
0
  0
IMAGEDEF
  5
31A
102
{ACAD_REACTORS
330
315
330
314
102
}
100
AcDbRasterImageDef
 90
0
  1
ZFR_assy_2_img_1.png
 10
369.0
 20
92.0
 11
0.0066666667
 21
0.0066666667
280
1
281
0
  0
TABLESTYLE
  5
31B
102
{ACAD_REACTORS
330
317
330
282
330
283
102
}
330
317
100
AcDbTableStyle
  3
Standard
 70
0
 71
0
 40
0.06
 41
0.06
280
1
281
1
  7
Standard
140
0.18
170
1
 62
0
 63
7
283
0
  7
Standard
140
0.18
170
1
 62
0
 63
7
283
0
  7
Standard
140
0.18
170
1
 62
0
 63
7
283
0
  0
TABLESTYLE
  5
31C
102
{ACAD_REACTORS
330
317
330
281
102
}
330
317
100
AcDbTableStyle
  3
Standard1
 70
1
 71
0
 40
0.06
 41
0.06
280
1
281
1
  7
Standard
140
0.18
170
1
 62
0
 63
7
283
0
  7
Standard
140
0.18
170
1
 62
0
 63
7
283
0
  7
Standard
140
0.18
170
1
 62
0
 63
7
283
0
  0
ENDSEC
  0
EOF
