999
DXF file: ZFP_assy_2.dxf
999
Pro/ENGINEER 2014200 by Parametric Technology Corporation
  0
SECTION
  2
HEADER
  9
$ACADVER
  1
AC1021
  9
$DWGCODEPAGE
  3
ANSI_1252
  9
$EXTMAX
 10
22.0
 20
17.0
 30
0.0
  9
$EXTMIN
 10
0.0
 20
0.0
 30
0.0
  9
$LIMMIN
 10
0.0
 20
0.0
  9
$LIMMAX
 10
22.0
 20
17.0
  9
$VIEWCTR
 10
11.0
 20
8.5
  9
$VIEWSIZE
 40
17.0
  9
$CLAYER
  8
0
  9
$LTSCALE
 40
1.21
  9
$CELTYPE
  6
BYLAYER
  9
$DIMSCALE
 40
1.0
  9
$DIMASZ
 40
0.1875
  9
$DIMEXO
 40
0.0625
  9
$DIMDLI
 40
0.836
  9
$DIMEXE
 40
0.125
  9
$DIMCEN
 40
0.198
  9
$DIMLFAC
 40
1.0
  9
$DIMBLK
  1
_FILLED
  9
$DIMTXT
 40
0.1
  9
$DIMTOL
 70
0
  9
$DIMLIM
 70
0
  9
$DIMTFAC
 40
1.0
  9
$DIMGAP
 40
0.09
  9
$DIMDSEP
 70
46
  9
$AUNITS
 70
0
  9
$PDMODE
 70
3
  9
$PDSIZE
 40
0.3125
  9
$HANDSEED
  5
32E
  9
$TILEMODE
 70
1
  9
$MEASUREMENT
 70
0
  9
$INSUNITS
 70
1
  0
ENDSEC
  0
SECTION
  2
CLASSES
  0
CLASS
  1
ACDBDICTIONARYWDFLT
  2
AcDbDictionaryWithDefault
  3
AutoCAD 2000
 90
0
 91
1
280
0
281
0
  0
CLASS
  1
ACDBPLACEHOLDER
  2
AcDbPlaceHolder
  3
AutoCAD 2000
 90
0
 91
1
280
0
281
0
  0
CLASS
  1
LAYOUT
  2
AcDbLayout
  3
AutoCAD 2000
 90
0
 91
0
280
0
281
0
  0
CLASS
  1
RASTERVARIABLES
  2
AcDbRasterVariables
  3
ISM
 90
0
 91
1
280
0
281
0
  0
CLASS
  1
IMAGEDEF
  2
AcDbRasterImageDef
  3
ISM
 90
0
 91
1
280
0
281
0
  0
CLASS
  1
IMAGEDEF_REACTOR
  2
AcDbRasterImageDefReactor
  3
ISM
 90
0
 91
1
280
0
281
0
  0
CLASS
  1
IMAGE
  2
AcDbRasterImage
  3
ISM
 90
127
 91
1
280
0
281
1
  0
CLASS
  1
TABLESTYLE
  2
AcDbTableStyle
  3
ObjectDBX Classes
 90
2047
 91
1
280
0
281
0
  0
CLASS
  1
ACAD_TABLE
  2
AcDbTable
  3
ObjectDBX Classes
 90
1025
 91
3
280
0
281
1
  0
ENDSEC
  0
SECTION
  2
TABLES
  0
TABLE
  2
VPORT
  5
8
100
AcDbSymbolTable
 70
2
  0
VPORT
  5
1F4
100
AcDbSymbolTableRecord
100
AcDbViewportTableRecord
  2
*ACTIVE
 70
0
 10
0.0
 20
0.0
 11
1.0
 21
1.0
 12
11.0
 22
8.5
 13
0.0
 23
0.0
 14
1.0
 24
1.0
 15
0.0
 25
0.0
 16
0.0
 26
0.0
 36
1.0
 17
0.0
 27
0.0
 37
0.0
 40
17.0
 41
1.2941176471
 42
50.0
 43
0.0
 44
0.0
 50
0.0
 51
0.0
 71
0
 72
100
 73
1
 74
1
 75
0
 76
0
 77
0
 78
0
  0
ENDTAB
  0
TABLE
  2
LTYPE
  5
5
100
AcDbSymbolTable
 70
6
  0
LTYPE
  5
14
100
AcDbSymbolTableRecord
100
AcDbLinetypeTableRecord
  2
BYBLOCK
 70
0
  3

 72
65
 73
0
 40
0.0
  0
LTYPE
  5
15
100
AcDbSymbolTableRecord
100
AcDbLinetypeTableRecord
  2
BYLAYER
 70
0
  3

 72
65
 73
0
 40
0.0
  0
LTYPE
  5
16
100
AcDbSymbolTableRecord
100
AcDbLinetypeTableRecord
  2
CONTINUOUS
 70
64
  3
Solid line
 72
65
 73
0
 40
0.0
  0
LTYPE
  5
1F5
100
AcDbSymbolTableRecord
100
AcDbLinetypeTableRecord
  2
CENTER
 70
64
  3
____ _ ____ _ ____ _ ____ _ ____ _ ____ _ ____
 72
65
 73
4
 40
0.6
 49
0.375
 74
0
 49
-0.075
 74
0
 49
0.075
 74
0
 49
-0.075
 74
0
  0
LTYPE
  5
1F6
100
AcDbSymbolTableRecord
100
AcDbLinetypeTableRecord
  2
HIDDEN
 70
64
  3
- - - - - - - - - - - - - - - - - - - -
 72
65
 73
2
 40
0.2
 49
0.1
 74
0
 49
-0.1
 74
0
  0
LTYPE
  5
1F7
100
AcDbSymbolTableRecord
100
AcDbLinetypeTableRecord
  2
PHANTOM
 70
64
  3
_____ _ _ _____ _ _ _____ _ _ _____
 72
65
 73
6
 40
0.8
 49
0.45
 74
0
 49
-0.05
 74
0
 49
0.1
 74
0
 49
-0.05
 74
0
 49
0.1
 74
0
 49
-0.05
 74
0
  0
LTYPE
  5
1F8
100
AcDbSymbolTableRecord
100
AcDbLinetypeTableRecord
  2
DOT
 70
64
  3
. . . . . . . . . . . . . . . . . . . .
 72
65
 73
2
 40
0.2
 49
0.1
 74
0
 49
-0.1
 74
0
  0
LTYPE
  5
1F9
100
AcDbSymbolTableRecord
100
AcDbLinetypeTableRecord
  2
DASHED
 70
64
  3
- - - - - - - - - - - - - - - - - - - -
 72
65
 73
2
 40
0.2
 49
0.1
 74
0
 49
-0.1
 74
0
  0
ENDTAB
  0
TABLE
  2
LAYER
  5
2
100
AcDbSymbolTable
 70
36
  0
LAYER
  5
10
100
AcDbSymbolTableRecord
100
AcDbLayerTableRecord
  2
0
 70
0
 62
7
  6
CONTINUOUS
370
-3
390
F
  0
LAYER
  5
1FA
100
AcDbSymbolTableRecord
100
AcDbLayerTableRecord
  2
DEFAULT_1
 70
0
 62
7
  6
CENTER
370
-3
390
F
  0
LAYER
  5
1FB
100
AcDbSymbolTableRecord
100
AcDbLayerTableRecord
  2
DEFAULT_2
 70
0
 62
8
  6
HIDDEN
370
-3
390
F
  0
LAYER
  5
1FC
100
AcDbSymbolTableRecord
100
AcDbLayerTableRecord
  2
DEFAULT_3
 70
0
 62
7
  6
PHANTOM
370
-3
390
F
  0
LAYER
  5
1FD
100
AcDbSymbolTableRecord
100
AcDbLayerTableRecord
  2
DATUM_PLANES
 70
0
 62
7
  6
CONTINUOUS
370
-3
390
F
  0
LAYER
  5
1FE
100
AcDbSymbolTableRecord
100
AcDbLayerTableRecord
  2
PORT_AREAS
 70
0
 62
7
  6
CONTINUOUS
370
-3
390
F
  0
LAYER
  5
1FF
100
AcDbSymbolTableRecord
100
AcDbLayerTableRecord
  2
SUNNBOMCOSMETIC
 70
0
 62
7
  6
CONTINUOUS
370
-3
390
F
  0
LAYER
  5
200
100
AcDbSymbolTableRecord
100
AcDbLayerTableRecord
  2
SUNNBOMSTAMPING
 70
0
 62
7
  6
CONTINUOUS
370
-3
390
F
  0
LAYER
  5
201
100
AcDbSymbolTableRecord
100
AcDbLayerTableRecord
  2
THREADS
 70
0
 62
7
  6
CONTINUOUS
370
-3
390
F
  0
ENDTAB
  0
TABLE
  2
STYLE
  5
3
100
AcDbSymbolTable
 70
1
  0
STYLE
  5
11
100
AcDbSymbolTableRecord
100
AcDbTextStyleTableRecord
  2
STANDARD
 70
0
 40
0.0
 41
0.8
 50
0.0
 71
0
 42
0.2
  3
txt
  4

  0
STYLE
  5
202
100
AcDbSymbolTableRecord
100
AcDbTextStyleTableRecord
  2
TEXTSTYLE_1
 70
0
 40
0.0
 41
0.8
 50
0.0
 71
0
 42
0.2
  3
gdt
  4

  0
ENDTAB
  0
TABLE
  2
VIEW
  5
6
100
AcDbSymbolTable
 70
0
  0
ENDTAB
  0
TABLE
  2
UCS
  5
7
100
AcDbSymbolTable
 70
0
  0
ENDTAB
  0
TABLE
  2
APPID
  5
9
100
AcDbSymbolTable
 70
1
  0
APPID
  5
203
100
AcDbSymbolTableRecord
100
AcDbRegAppTableRecord
  2
ACAD
 70
0
  0
ENDTAB
  0
TABLE
  2
BLOCK_RECORD
  5
1
100
AcDbSymbolTable
 70
0
  0
BLOCK_RECORD
  5
204
100
AcDbSymbolTableRecord
100
AcDbBlockTableRecord
  2
*Model_Space
  0
BLOCK_RECORD
  5
205
100
AcDbSymbolTableRecord
100
AcDbBlockTableRecord
  2
*Paper_Space
  0
BLOCK_RECORD
  5
206
100
AcDbSymbolTableRecord
100
AcDbBlockTableRecord
  2
SUN_FIRST_THIRD_ANGLE_BL0
  0
BLOCK_RECORD
  5
207
100
AcDbSymbolTableRecord
100
AcDbBlockTableRecord
  2
*T1
  0
BLOCK_RECORD
  5
208
100
AcDbSymbolTableRecord
100
AcDbBlockTableRecord
  2
*T2
  0
BLOCK_RECORD
  5
209
100
AcDbSymbolTableRecord
100
AcDbBlockTableRecord
  2
*T3
  0
ENDTAB
  0
TABLE
  2
DIMSTYLE
  5
A
100
AcDbSymbolTable
 70
1
100
AcDbDimStyleTable
 71
0
  0
DIMSTYLE
105
20A
100
AcDbSymbolTableRecord
100
AcDbDimStyleTableRecord
  2
STANDARD
 70
0
  3

  4

 40
1.0
 41
0.1875
 42
0.0625
 43
0.38
 44
0.125
 45
0.0
 46
0.0
 47
0.001
 48
0.001
140
0.1
141
0.09
142
0.0
143
25.4
144
1.0
145
0.0
146
1.0
147
0.09
 71
0.0
 72
0.0
 73
1
 74
1
 75
0
 76
0
 77
0
 78
4
170
0
171
2
172
0
173
0
174
0
175
0
176
0
177
0
178
0
270
2
271
3
272
3
273
2
274
2
275
0
280
0
281
0
282
0
283
1
284
4
285
0
286
0
287
3
288
0
340
11
278
46
  0
ENDTAB
  0
ENDSEC
  0
SECTION
  2
BLOCKS
  0
BLOCK
  5
20
100
AcDbEntity
  8
0
100
AcDbBlockBegin
  2
*Model_Space
 70
0
 10
0.0
 20
0.0
 30
0.0
  3
*Model_Space
  1

  0
ENDBLK
  5
21
100
AcDbEntity
  8
0
100
AcDbBlockEnd
  0
BLOCK
  5
1C
100
AcDbEntity
  8
0
100
AcDbBlockBegin
  2
*Paper_Space
 70
0
 10
0.0
 20
0.0
 30
0.0
  3
*Paper_Space
  1

  0
ENDBLK
  5
1D
100
AcDbEntity
  8
0
100
AcDbBlockEnd
  0
BLOCK
  5
20B
100
AcDbEntity
  8
0
100
AcDbBlockBegin
 62
2
  6
CONTINUOUS
  2
SUN_FIRST_THIRD_ANGLE_BL0
 70
64
 10
20.4816717061
 20
1.2289683772
  3
SUN_FIRST_THIRD_ANGLE_BL0
  1

  0
TEXT
  5
20C
100
AcDbEntity
  8
0
100
AcDbText
 62
2
  6
CONTINUOUS
 10
19.4750896608
 20
1.4136269581
  7
STANDARD
 40
0.08
  1
FIRST ANGLE
 41
0.8
 72
0
100
AcDbText
  0
TEXT
  5
20D
100
AcDbEntity
  8
0
100
AcDbText
 62
2
  6
CONTINUOUS
 10
20.7842537513
 20
1.4047600029
  7
STANDARD
 40
0.08
  1
THIRD ANGLE
 41
0.8
 72
0
100
AcDbText
  0
LINE
  5
20E
100
AcDbEntity
  8
0
100
AcDbLine
 62
7
  6
CONTINUOUS
 10
19.4767170086
 20
1.1727031207
 11
19.6334271527
 21
1.1717972817
  0
LINE
  5
20F
100
AcDbEntity
  8
0
100
AcDbLine
 62
7
  6
CONTINUOUS
 10
19.6596964832
 20
1.1717972817
 11
19.6950230232
 21
1.171593082
  0
LINE
  5
210
100
AcDbEntity
  8
0
100
AcDbLine
 62
7
  6
CONTINUOUS
 10
19.7194818561
 20
1.1708914427
 11
19.8852396156
 21
1.1699333054
  0
LINE
  5
211
100
AcDbEntity
  8
0
100
AcDbLine
 62
7
  6
CONTINUOUS
 10
19.4758111696
 20
1.2723454088
 11
19.88525039
 21
1.3511534004
  0
LINE
  5
212
100
AcDbEntity
  8
0
100
AcDbLine
 62
7
  6
CONTINUOUS
 10
19.88525039
 20
1.3511534004
 11
19.8831348489
 21
0.9851647912
  0
LINE
  5
213
100
AcDbEntity
  8
0
100
AcDbLine
 62
7
  6
CONTINUOUS
 10
19.8831348489
 20
0.9851647912
 11
19.4767170086
 21
1.0658141206
  0
LINE
  5
214
100
AcDbEntity
  8
0
100
AcDbLine
 62
7
  6
CONTINUOUS
 10
19.4767170086
 20
1.0658141206
 11
19.4779056764
 21
1.2714536432
  0
CIRCLE
  5
215
100
AcDbEntity
  8
0
100
AcDbCircle
 62
7
  6
CONTINUOUS
 10
20.2068232291
 20
1.1717972817
 40
0.175742101
  0
CIRCLE
  5
216
100
AcDbEntity
  8
0
100
AcDbCircle
 62
7
  6
CONTINUOUS
 10
20.2068232291
 20
1.1717972817
 40
0.1005522074
  0
LINE
  5
217
100
AcDbEntity
  8
0
100
AcDbLine
 62
7
  6
CONTINUOUS
 10
20.2077290681
 20
1.3756110529
 11
20.2071171714
 21
1.2379342989
  0
LINE
  5
218
100
AcDbEntity
  8
0
100
AcDbLine
 62
7
  6
CONTINUOUS
 10
20.2077290681
 20
1.2016899681
 11
20.2074674401
 21
1.1428236749
  0
LINE
  5
219
100
AcDbEntity
  8
0
100
AcDbLine
 62
7
  6
CONTINUOUS
 10
20.208634907
 20
1.101141841
 11
20.2080230104
 21
0.963465087
  0
LINE
  5
21A
100
AcDbEntity
  8
0
100
AcDbLine
 62
7
  6
CONTINUOUS
 10
20.0066328138
 20
1.1745147986
 11
20.1443095678
 21
1.1739029019
  0
LINE
  5
21B
100
AcDbEntity
  8
0
100
AcDbLine
 62
7
  6
CONTINUOUS
 10
20.1832714155
 20
1.1727031207
 11
20.238153505
 21
1.172335442
  0
LINE
  5
21C
100
AcDbEntity
  8
0
100
AcDbLine
 62
7
  6
CONTINUOUS
 10
20.2756669918
 20
1.1717972817
 11
20.407916871
 21
1.1712095044
  0
CIRCLE
  5
21D
100
AcDbEntity
  8
0
100
AcDbCircle
 62
7
  6
CONTINUOUS
 10
20.7509457401
 20
1.1693297793
 40
0.1722024983
  0
CIRCLE
  5
21E
100
AcDbEntity
  8
0
100
AcDbCircle
 62
7
  6
CONTINUOUS
 10
20.7509457401
 20
1.1693297793
 40
0.0985164967
  0
LINE
  5
21F
100
AcDbEntity
  8
0
100
AcDbLine
 62
7
  6
CONTINUOUS
 10
20.7169767782
 20
1.170462078
 11
20.7825395137
 21
1.1682766535
  0
LINE
  5
220
100
AcDbEntity
  8
0
100
AcDbLine
 62
7
  6
CONTINUOUS
 10
20.8177513651
 20
1.1693297793
 11
20.947965719
 21
1.1693297793
  0
LINE
  5
221
100
AcDbEntity
  8
0
100
AcDbLine
 62
7
  6
CONTINUOUS
 10
20.6875370113
 20
1.170462078
 11
20.5573226574
 21
1.170462078
  0
LINE
  5
222
100
AcDbEntity
  8
0
100
AcDbLine
 62
7
  6
CONTINUOUS
 10
20.7486811426
 20
1.1987695462
 11
20.7486811426
 21
1.1432869085
  0
LINE
  5
223
100
AcDbEntity
  8
0
100
AcDbLine
 62
7
  6
CONTINUOUS
 10
20.7498134414
 20
1.1059210505
 11
20.7498134414
 21
0.9757066966
  0
LINE
  5
224
100
AcDbEntity
  8
0
100
AcDbLine
 62
7
  6
CONTINUOUS
 10
20.7486811426
 20
1.2338708068
 11
20.7486811426
 21
1.3640851607
  0
LINE
  5
225
100
AcDbEntity
  8
0
100
AcDbLine
 62
7
  6
CONTINUOUS
 10
21.0702539817
 20
1.2701043662
 11
21.4790138229
 21
1.3448360823
  0
LINE
  5
226
100
AcDbEntity
  8
0
100
AcDbLine
 62
7
  6
CONTINUOUS
 10
21.4790138229
 20
1.3448360823
 11
21.4790138229
 21
0.9779712941
  0
LINE
  5
227
100
AcDbEntity
  8
0
100
AcDbLine
 62
7
  6
CONTINUOUS
 10
21.4790138229
 20
0.9779712941
 11
21.069121683
 21
1.0617614
  0
LINE
  5
228
100
AcDbEntity
  8
0
100
AcDbLine
 62
7
  6
CONTINUOUS
 10
21.0702539817
 20
1.2701043662
 11
21.069121683
 21
1.0617614
  0
LINE
  5
229
100
AcDbEntity
  8
0
100
AcDbLine
 62
7
  6
CONTINUOUS
 10
21.4790138229
 20
1.1693297793
 11
21.3159628059
 21
1.1693297793
  0
LINE
  5
22A
100
AcDbEntity
  8
0
100
AcDbLine
 62
7
  6
CONTINUOUS
 10
21.2876553377
 20
1.1693297793
 11
21.2502894796
 21
1.1693297793
  0
LINE
  5
22B
100
AcDbEntity
  8
0
100
AcDbLine
 62
7
  6
CONTINUOUS
 10
21.2208497126
 20
1.1659328831
 11
21.0713862804
 21
1.1659328831
  0
LINE
  5
22C
100
AcDbEntity
  8
0
100
AcDbLine
 62
7
  6
CONTINUOUS
 10
20.4796138713
 20
1.5284908897
 11
20.4766766948
 21
0.9294458646
  0
ENDBLK
  5
22D
100
AcDbEntity
  8
0
  6
BYBLOCK
 62
0
100
AcDbBlockEnd
  0
BLOCK
  5
22E
100
AcDbEntity
  8
0
100
AcDbBlockBegin
  2
*T1
 70
1
 10
0.0
 20
0.0
  3
*T1
  1

  0
LINE
  5
22F
100
AcDbEntity
  8
0
100
AcDbLine
 62
2
  6
CONTINUOUS
 10
9.275
 20
0.0
 11
-0.0
 21
0.0
  0
LINE
  5
230
100
AcDbEntity
  8
0
100
AcDbLine
 62
2
  6
CONTINUOUS
 10
9.275
 20
0.0
 11
9.275
 21
1.25
  0
LINE
  5
231
100
AcDbEntity
  8
0
100
AcDbLine
 62
2
  6
CONTINUOUS
 10
9.275
 20
0.625
 11
-0.0
 21
0.625
  0
LINE
  5
232
100
AcDbEntity
  8
0
100
AcDbLine
 62
2
  6
CONTINUOUS
 10
9.275
 20
1.25
 11
-0.0
 21
1.25
  0
LINE
  5
233
100
AcDbEntity
  8
0
100
AcDbLine
 62
2
  6
CONTINUOUS
 10
6.8
 20
0.0
 11
6.8
 21
1.25
  0
LINE
  5
234
100
AcDbEntity
  8
0
100
AcDbLine
 62
2
  6
CONTINUOUS
 10
6.4
 20
0.0
 11
6.4
 21
0.625
  0
LINE
  5
235
100
AcDbEntity
  8
0
100
AcDbLine
 62
2
  6
CONTINUOUS
 10
5.9
 20
0.0
 11
5.9
 21
0.625
  0
LINE
  5
236
100
AcDbEntity
  8
0
100
AcDbLine
 62
2
  6
CONTINUOUS
 10
5.2
 20
0.0
 11
5.2
 21
0.625
  0
LINE
  5
237
100
AcDbEntity
  8
0
100
AcDbLine
 62
2
  6
CONTINUOUS
 10
4.1
 20
0.0
 11
4.1
 21
1.25
  0
LINE
  5
238
100
AcDbEntity
  8
0
100
AcDbLine
 62
2
  6
CONTINUOUS
 10
-0.0
 20
0.0
 11
-0.0
 21
1.25
  0
MTEXT
  5
239
100
AcDbEntity
  8
0
100
AcDbMText
 62
2
  6
CONTINUOUS
  7
STANDARD
 71
2
 72
1
 10
6.6
 20
0.325
 30
0.0
 11
1.0
 21
0.0
 31
0.0
 44
0.9
  1
2
 40
0.125
 41
0.2
  0
MTEXT
  5
23A
100
AcDbEntity
  8
0
100
AcDbMText
 62
2
  6
CONTINUOUS
  7
STANDARD
 71
2
 72
1
 10
6.15
 20
0.325
 30
0.0
 11
1.0
 21
0.0
 31
0.0
 44
0.9
  1
C
 40
0.125
 41
0.2
  0
MTEXT
  5
23B
100
AcDbEntity
  8
0
100
AcDbMText
 62
2
  6
CONTINUOUS
  7
STANDARD
 71
2
 72
1
 10
5.55
 20
0.325
 30
0.0
 11
1.0
 21
0.0
 31
0.0
 44
0.9
  1
2.000
 40
0.125
 41
1.0
  0
MTEXT
  5
23C
100
AcDbEntity
  8
0
100
AcDbMText
 62
2
  6
CONTINUOUS
  7
STANDARD
 71
2
 72
1
 10
4.65
 20
0.325
 30
0.0
 11
1.0
 21
0.0
 31
0.0
 44
0.9
  1
Nov-27-19
 40
0.125
 41
1.8
  0
MTEXT
  5
23D
100
AcDbEntity
  8
0
100
AcDbMText
 62
2
  6
CONTINUOUS
  7
STANDARD
 71
2
 72
1
 10
2.05
 20
0.4625
 30
0.0
 11
1.0
 21
0.0
 31
0.0
 44
0.9
  1
T-10A Line mount\PNinety degree
 40
0.125
 41
3.2
  0
MTEXT
  5
23E
100
AcDbEntity
  8
0
100
AcDbMText
 62
2
  6
CONTINUOUS
  7
STANDARD
 71
1
 72
1
 10
6.45
 20
0.5625
 30
0.0
 11
1.0
 21
0.0
 31
0.0
 44
0.9
  1
SHEET
 40
0.06
 41
0.48
  0
MTEXT
  5
23F
100
AcDbEntity
  8
0
100
AcDbMText
 62
2
  6
CONTINUOUS
  7
STANDARD
 71
1
 72
1
 10
5.95
 20
0.5625
 30
0.0
 11
1.0
 21
0.0
 31
0.0
 44
0.9
  1
DWG SIZE
 40
0.06
 41
0.768
  0
MTEXT
  5
240
100
AcDbEntity
  8
0
100
AcDbMText
 62
2
  6
CONTINUOUS
  7
STANDARD
 71
1
 72
1
 10
5.25
 20
0.5625
 30
0.0
 11
1.0
 21
0.0
 31
0.0
 44
0.9
  1
SCALE
 40
0.06
 41
0.48
  0
MTEXT
  5
241
100
AcDbEntity
  8
0
100
AcDbMText
 62
2
  6
CONTINUOUS
  7
STANDARD
 71
1
 72
1
 10
4.15
 20
0.5625
 30
0.0
 11
1.0
 21
0.0
 31
0.0
 44
0.9
  1
DATE
 40
0.06
 41
0.384
  0
MTEXT
  5
242
100
AcDbEntity
  8
0
100
AcDbMText
 62
2
  6
CONTINUOUS
  7
STANDARD
 71
1
 72
1
 10
0.05
 20
0.5625
 30
0.0
 11
1.0
 21
0.0
 31
0.0
 44
0.9
  1
DESCRIPTION
 40
0.06
 41
1.056
  0
MTEXT
  5
243
100
AcDbEntity
  8
0
100
AcDbMText
 62
2
  6
CONTINUOUS
  7
STANDARD
 71
2
 72
1
 10
5.45
 20
1.0375
 30
0.0
 11
1.0
 21
0.0
 31
0.0
 44
0.9
  1
ALL DIMENSIONS IN INCH\PVIEWS ARE THIRD ANGLE
 40
0.12
 41
4.224
  0
MTEXT
  5
244
100
AcDbEntity
  8
0
100
AcDbMText
 62
2
  6
CONTINUOUS
  7
STANDARD
 71
2
 72
1
 10
2.05
 20
0.95
 30
0.0
 11
1.0
 21
0.0
 31
0.0
 44
0.9
  1
ZFP
 40
0.125
 41
0.6
  0
MTEXT
  5
245
100
AcDbEntity
  8
0
100
AcDbMText
 62
2
  6
CONTINUOUS
  7
STANDARD
 71
1
 72
1
 10
0.05
 20
1.1875
 30
0.0
 11
1.0
 21
0.0
 31
0.0
 44
0.9
  1
MODEL
 40
0.06
 41
0.48
  0
ENDBLK
  5
246
100
AcDbEntity
  8
0
  6
BYBLOCK
 62
0
100
AcDbBlockEnd
  0
BLOCK
  5
247
100
AcDbEntity
  8
0
100
AcDbBlockBegin
  2
*T2
 70
1
 10
0.0
 20
0.0
  3
*T2
  1

  0
LINE
  5
248
100
AcDbEntity
  8
0
100
AcDbLine
 62
2
  6
CONTINUOUS
 10
0.0
 20
0.0
 11
9.055
 21
0.0
  0
LINE
  5
249
100
AcDbEntity
  8
0
100
AcDbLine
 62
2
  6
CONTINUOUS
 10
0.0
 20
0.0
 11
0.0
 21
-2.594
  0
LINE
  5
24A
100
AcDbEntity
  8
0
100
AcDbLine
 62
2
  6
CONTINUOUS
 10
0.0
 20
-0.344
 11
9.055
 21
-0.344
  0
LINE
  5
24B
100
AcDbEntity
  8
0
100
AcDbLine
 62
2
  6
CONTINUOUS
 10
0.0
 20
-0.594
 11
9.055
 21
-0.594
  0
LINE
  5
24C
100
AcDbEntity
  8
0
100
AcDbLine
 62
2
  6
CONTINUOUS
 10
0.0
 20
-0.844
 11
9.055
 21
-0.844
  0
LINE
  5
24D
100
AcDbEntity
  8
0
100
AcDbLine
 62
2
  6
CONTINUOUS
 10
0.0
 20
-1.094
 11
9.055
 21
-1.094
  0
LINE
  5
24E
100
AcDbEntity
  8
0
100
AcDbLine
 62
2
  6
CONTINUOUS
 10
0.0
 20
-1.344
 11
9.055
 21
-1.344
  0
LINE
  5
24F
100
AcDbEntity
  8
0
100
AcDbLine
 62
2
  6
CONTINUOUS
 10
0.0
 20
-1.594
 11
9.055
 21
-1.594
  0
LINE
  5
250
100
AcDbEntity
  8
0
100
AcDbLine
 62
2
  6
CONTINUOUS
 10
0.0
 20
-1.844
 11
9.055
 21
-1.844
  0
LINE
  5
251
100
AcDbEntity
  8
0
100
AcDbLine
 62
2
  6
CONTINUOUS
 10
0.0
 20
-2.094
 11
9.055
 21
-2.094
  0
LINE
  5
252
100
AcDbEntity
  8
0
100
AcDbLine
 62
2
  6
CONTINUOUS
 10
0.0
 20
-2.344
 11
9.055
 21
-2.344
  0
LINE
  5
253
100
AcDbEntity
  8
0
100
AcDbLine
 62
2
  6
CONTINUOUS
 10
0.0
 20
-2.594
 11
9.055
 21
-2.594
  0
LINE
  5
254
100
AcDbEntity
  8
0
100
AcDbLine
 62
2
  6
CONTINUOUS
 10
3.055
 20
0.0
 11
3.055
 21
-2.594
  0
LINE
  5
255
100
AcDbEntity
  8
0
100
AcDbLine
 62
2
  6
CONTINUOUS
 10
9.055
 20
0.0
 11
9.055
 21
-2.594
  0
MTEXT
  5
256
100
AcDbEntity
  8
0
100
AcDbMText
 62
2
  6
CONTINUOUS
  7
STANDARD
 71
2
 72
1
 10
1.5275
 20
-0.0995
 30
0.0
 11
1.0
 21
0.0
 31
0.0
 44
0.9
  1
Technical Data
 40
0.145
 41
3.248
  0
MTEXT
  5
257
100
AcDbEntity
  8
0
100
AcDbMText
 62
2
  6
CONTINUOUS
  7
STANDARD
 71
2
 72
1
 10
4.555
 20
-0.0995
 30
0.0
 11
1.0
 21
0.0
 31
0.0
 44
0.9
  1
U.S. Units
 40
0.145
 41
2.32
  0
MTEXT
  5
258
100
AcDbEntity
  8
0
100
AcDbMText
 62
2
  6
CONTINUOUS
  7
STANDARD
 71
2
 72
1
 10
7.555
 20
-0.0995
 30
0.0
 11
1.0
 21
0.0
 31
0.0
 44
0.9
  1
Metric Units
 40
0.145
 41
2.784
  0
MTEXT
  5
259
100
AcDbEntity
  8
0
100
AcDbMText
 62
2
  6
CONTINUOUS
  7
STANDARD
 71
2
 72
1
 10
1.5275
 20
-0.4065
 30
0.0
 11
1.0
 21
0.0
 31
0.0
 44
0.9
  1
Cavity
 40
0.125
 41
1.2
  0
MTEXT
  5
25A
100
AcDbEntity
  8
0
100
AcDbMText
 62
2
  6
CONTINUOUS
  7
STANDARD
 71
2
 72
1
 10
6.055
 20
-0.4065
 30
0.0
 11
1.0
 21
0.0
 31
0.0
 44
0.9
  1
T-10A
 40
0.125
 41
1.0
  0
MTEXT
  5
25B
100
AcDbEntity
  8
0
100
AcDbMText
 62
2
  6
CONTINUOUS
  7
STANDARD
 71
2
 72
1
 10
1.5275
 20
-0.6565
 30
0.0
 11
1.0
 21
0.0
 31
0.0
 44
0.9
  1
Body Features
 40
0.125
 41
2.6
  0
MTEXT
  5
25C
100
AcDbEntity
  8
0
100
AcDbMText
 62
2
  6
CONTINUOUS
  7
STANDARD
 71
2
 72
1
 10
6.055
 20
-0.6565
 30
0.0
 11
1.0
 21
0.0
 31
0.0
 44
0.9
  1
Ninety degree
 40
0.125
 41
2.6
  0
MTEXT
  5
25D
100
AcDbEntity
  8
0
100
AcDbMText
 62
2
  6
CONTINUOUS
  7
STANDARD
 71
2
 72
1
 10
1.5275
 20
-0.9065
 30
0.0
 11
1.0
 21
0.0
 31
0.0
 44
0.9
  1
Body Type
 40
0.125
 41
1.8
  0
MTEXT
  5
25E
100
AcDbEntity
  8
0
100
AcDbMText
 62
2
  6
CONTINUOUS
  7
STANDARD
 71
2
 72
1
 10
6.055
 20
-0.9065
 30
0.0
 11
1.0
 21
0.0
 31
0.0
 44
0.9
  1
Line mount
 40
0.125
 41
2.0
  0
MTEXT
  5
25F
100
AcDbEntity
  8
0
100
AcDbMText
 62
2
  6
CONTINUOUS
  7
STANDARD
 71
2
 72
1
 10
1.5275
 20
-1.1565
 30
0.0
 11
1.0
 21
0.0
 31
0.0
 44
0.9
  1
Interface
 40
0.125
 41
1.8
  0
MTEXT
  5
260
100
AcDbEntity
  8
0
100
AcDbMText
 62
2
  6
CONTINUOUS
  7
STANDARD
 71
2
 72
1
 10
6.055
 20
-1.1565
 30
0.0
 11
1.0
 21
0.0
 31
0.0
 44
0.9
  1
None
 40
0.125
 41
0.8
  0
MTEXT
  5
261
100
AcDbEntity
  8
0
100
AcDbMText
 62
2
  6
CONTINUOUS
  7
STANDARD
 71
2
 72
1
 10
1.5275
 20
-1.4065
 30
0.0
 11
1.0
 21
0.0
 31
0.0
 44
0.9
  1
Open Cavity Quantity
 40
0.125
 41
4.0
  0
MTEXT
  5
262
100
AcDbEntity
  8
0
100
AcDbMText
 62
2
  6
CONTINUOUS
  7
STANDARD
 71
2
 72
1
 10
6.055
 20
-1.4065
 30
0.0
 11
1.0
 21
0.0
 31
0.0
 44
0.9
  1
1
 40
0.125
 41
0.2
  0
MTEXT
  5
263
100
AcDbEntity
  8
0
100
AcDbMText
 62
2
  6
CONTINUOUS
  7
STANDARD
 71
2
 72
1
 10
1.5275
 20
-1.6565
 30
0.0
 11
1.0
 21
0.0
 31
0.0
 44
0.9
  1
Weight
 40
0.125
 41
1.2
  0
MTEXT
  5
264
100
AcDbEntity
  8
0
100
AcDbMText
 62
2
  6
CONTINUOUS
  7
STANDARD
 71
2
 72
1
 10
4.555
 20
-1.6565
 30
0.0
 11
1.0
 21
0.0
 31
0.0
 44
0.9
  1
0.354 lb.
 40
0.125
 41
1.8
  0
MTEXT
  5
265
100
AcDbEntity
  8
0
100
AcDbMText
 62
2
  6
CONTINUOUS
  7
STANDARD
 71
2
 72
1
 10
7.555
 20
-1.6565
 30
0.0
 11
1.0
 21
0.0
 31
0.0
 44
0.9
  1
0,161 kg.
 40
0.125
 41
1.8
  0
MTEXT
  5
266
100
AcDbEntity
  8
0
100
AcDbMText
 62
2
  6
CONTINUOUS
  7
STANDARD
 71
2
 72
1
 10
1.5275
 20
-1.9065
 30
0.0
 11
1.0
 21
0.0
 31
0.0
 44
0.9
  1
Mounting Hole Diameter
 40
0.125
 41
4.4
  0
MTEXT
  5
267
100
AcDbEntity
  8
0
100
AcDbMText
 62
2
  6
CONTINUOUS
  7
STANDARD
 71
2
 72
1
 10
4.555
 20
-1.9065
 30
0.0
 11
1.0
 21
0.0
 31
0.0
 44
0.9
  1
.34 in.
 40
0.125
 41
1.4
  0
MTEXT
  5
268
100
AcDbEntity
  8
0
100
AcDbMText
 62
2
  6
CONTINUOUS
  7
STANDARD
 71
2
 72
1
 10
7.555
 20
-1.9065
 30
0.0
 11
1.0
 21
0.0
 31
0.0
 44
0.9
  1
8.6 mm
 40
0.125
 41
1.2
  0
MTEXT
  5
269
100
AcDbEntity
  8
0
100
AcDbMText
 62
2
  6
CONTINUOUS
  7
STANDARD
 71
2
 72
1
 10
1.5275
 20
-2.1565
 30
0.0
 11
1.0
 21
0.0
 31
0.0
 44
0.9
  1
Mounting Hole Depth
 40
0.125
 41
3.8
  0
MTEXT
  5
26A
100
AcDbEntity
  8
0
100
AcDbMText
 62
2
  6
CONTINUOUS
  7
STANDARD
 71
2
 72
1
 10
6.055
 20
-2.1565
 30
0.0
 11
1.0
 21
0.0
 31
0.0
 44
0.9
  1
Through
 40
0.125
 41
1.4
  0
MTEXT
  5
26B
100
AcDbEntity
  8
0
100
AcDbMText
 62
2
  6
CONTINUOUS
  7
STANDARD
 71
2
 72
1
 10
1.5275
 20
-2.4065
 30
0.0
 11
1.0
 21
0.0
 31
0.0
 44
0.9
  1
Mounting Hole Quantity
 40
0.125
 41
4.4
  0
MTEXT
  5
26C
100
AcDbEntity
  8
0
100
AcDbMText
 62
2
  6
CONTINUOUS
  7
STANDARD
 71
2
 72
1
 10
6.055
 20
-2.4065
 30
0.0
 11
1.0
 21
0.0
 31
0.0
 44
0.9
  1
1
 40
0.125
 41
0.2
  0
ENDBLK
  5
26D
100
AcDbEntity
  8
0
  6
BYBLOCK
 62
0
100
AcDbBlockEnd
  0
BLOCK
  5
26E
100
AcDbEntity
  8
0
100
AcDbBlockBegin
  2
*T3
 70
1
 10
0.0
 20
0.0
  3
*T3
  1

  0
LINE
  5
26F
100
AcDbEntity
  8
0
100
AcDbLine
 62
2
  6
CONTINUOUS
 10
0.0
 20
0.0
 11
4.6
 21
0.0
  0
LINE
  5
270
100
AcDbEntity
  8
0
100
AcDbLine
 62
2
  6
CONTINUOUS
 10
0.0
 20
0.0
 11
0.0
 21
-0.93775
  0
LINE
  5
271
100
AcDbEntity
  8
0
100
AcDbLine
 62
2
  6
CONTINUOUS
 10
0.0
 20
-0.34375
 11
4.6
 21
-0.34375
  0
LINE
  5
272
100
AcDbEntity
  8
0
100
AcDbLine
 62
2
  6
CONTINUOUS
 10
0.0
 20
-0.68775
 11
4.6
 21
-0.68775
  0
LINE
  5
273
100
AcDbEntity
  8
0
100
AcDbLine
 62
2
  6
CONTINUOUS
 10
0.0
 20
-0.93775
 11
4.6
 21
-0.93775
  0
LINE
  5
274
100
AcDbEntity
  8
0
100
AcDbLine
 62
2
  6
CONTINUOUS
 10
1.3
 20
-0.34375
 11
1.3
 21
-0.93775
  0
LINE
  5
275
100
AcDbEntity
  8
0
100
AcDbLine
 62
2
  6
CONTINUOUS
 10
3.3
 20
-0.34375
 11
3.3
 21
-0.93775
  0
LINE
  5
276
100
AcDbEntity
  8
0
100
AcDbLine
 62
2
  6
CONTINUOUS
 10
4.6
 20
0.0
 11
4.6
 21
-0.93775
  0
MTEXT
  5
277
100
AcDbEntity
  8
0
100
AcDbMText
 62
2
  6
CONTINUOUS
  7
STANDARD
 71
2
 72
1
 10
2.3
 20
-0.099375
 30
0.0
 11
1.0
 21
0.0
 31
0.0
 44
0.9
  1
Port Headings
 40
0.145
 41
3.016
  0
MTEXT
  5
278
100
AcDbEntity
  8
0
100
AcDbMText
 62
2
  6
CONTINUOUS
  7
STANDARD
 71
2
 72
1
 10
0.65
 20
-0.44325
 30
0.0
 11
1.0
 21
0.0
 31
0.0
 44
0.9
  1
Product
 40
0.145
 41
1.624
  0
MTEXT
  5
279
100
AcDbEntity
  8
0
100
AcDbMText
 62
2
  6
CONTINUOUS
  7
STANDARD
 71
2
 72
1
 10
2.3
 20
-0.44325
 30
0.0
 11
1.0
 21
0.0
 31
0.0
 44
0.9
  1
Port
 40
0.145
 41
0.928
  0
MTEXT
  5
27A
100
AcDbEntity
  8
0
100
AcDbMText
 62
2
  6
CONTINUOUS
  7
STANDARD
 71
2
 72
1
 10
3.95
 20
-0.44325
 30
0.0
 11
1.0
 21
0.0
 31
0.0
 44
0.9
  1
Size
 40
0.145
 41
0.928
  0
MTEXT
  5
27B
100
AcDbEntity
  8
0
100
AcDbMText
 62
2
  6
CONTINUOUS
  7
STANDARD
 71
2
 72
1
 10
0.65
 20
-0.75025
 30
0.0
 11
1.0
 21
0.0
 31
0.0
 44
0.9
  1
ZFP
 40
0.125
 41
0.6
  0
MTEXT
  5
27C
100
AcDbEntity
  8
0
100
AcDbMText
 62
2
  6
CONTINUOUS
  7
STANDARD
 71
2
 72
1
 10
2.3
 20
-0.75025
 30
0.0
 11
1.0
 21
0.0
 31
0.0
 44
0.9
  1
Ports 1 &  2
 40
0.125
 41
2.4
  0
MTEXT
  5
27D
100
AcDbEntity
  8
0
100
AcDbMText
 62
2
  6
CONTINUOUS
  7
STANDARD
 71
2
 72
1
 10
3.95
 20
-0.75025
 30
0.0
 11
1.0
 21
0.0
 31
0.0
 44
0.9
  1
1/2" NPTF
 40
0.125
 41
1.8
  0
ENDBLK
  5
27E
100
AcDbEntity
  8
0
  6
BYBLOCK
 62
0
100
AcDbBlockEnd
  0
ENDSEC
  0
SECTION
  2
ENTITIES
  0
IMAGE
  5
27F
100
AcDbEntity
  8
0
100
AcDbRasterImage
 62
7
  6
CONTINUOUS
 10
19.2297077316
 20
0.3094318264
 30
0.0
 11
0.0066666667
 21
0.0
 31
0.0
 12
0.0
 22
0.0066666667
 32
0.0
 13
369.0
 23
92.0
340
       32B
 70
9
280
0
281
50
282
50
283
0
360
       325
 71
1
 91
2
 14
-0.5
 24
-0.5
 14
368.5
 24
91.5
  0
INSERT
  5
280
100
AcDbEntity
  8
0
100
AcDbBlockReference
 62
2
  6
CONTINUOUS
  2
SUN_FIRST_THIRD_ANGLE_BL0
 10
20.4816717061
 20
1.2289683772
  0
ACAD_TABLE
  5
281
100
AcDbEntity
  8
0
 62
2
  6
CONTINUOUS
100
AcDbBlockReference
  2
*T1
 10
12.42375
 20
0.30125
 30
0.0
100
AcDbTable
342
       32D
343
207
 11
1.0
 21
0.0
 31
0.0
 90
6
 91
4
 92
6
 93
20
 94
0
 95
0
 96
0
 70
1
 41
0.0
141
0.525
141
0.1
141
0.525
141
0.1
142
4.1
142
1.1
142
0.7
142
0.5
142
0.4
142
2.475
171
1
172
0
173
0
174
0
175
1
176
1
 91
33
178
0
145
0.0
301
CELL_VALUE
 90
4
  1
T-10A Line mount\PNinety degree
304
ACVALUE_END
170
2
140
0.125
171
1
172
0
173
0
174
0
175
1
176
1
 91
33
178
0
145
0.0
301
CELL_VALUE
 90
4
  1
Nov-27-19
304
ACVALUE_END
170
5
140
0.125
171
1
172
0
173
0
174
0
175
1
176
1
 91
33
178
0
145
0.0
301
CELL_VALUE
 90
4
  1
2.000
304
ACVALUE_END
170
5
140
0.125
171
1
172
0
173
0
174
0
175
1
176
1
 91
33
178
0
145
0.0
301
CELL_VALUE
 90
4
  1
C
304
ACVALUE_END
170
5
140
0.125
171
1
172
0
173
0
174
0
175
1
176
1
 91
33
178
0
145
0.0
301
CELL_VALUE
 90
4
  1
2
304
ACVALUE_END
170
5
140
0.125
171
1
172
0
173
0
174
0
175
1
176
1
 91
33
178
0
145
0.0
301
CELL_VALUE
 90
4
  1
 
304
ACVALUE_END
170
1
140
0.125
171
1
172
0
173
0
174
0
175
1
176
1
 91
33
178
0
145
0.0
301
CELL_VALUE
 90
4
  1
DESCRIPTION
304
ACVALUE_END
170
1
140
0.06
171
1
172
0
173
0
174
0
175
1
176
1
 91
33
178
0
145
0.0
301
CELL_VALUE
 90
4
  1
DATE
304
ACVALUE_END
170
1
140
0.06
171
1
172
0
173
0
174
0
175
1
176
1
 91
33
178
0
145
0.0
301
CELL_VALUE
 90
4
  1
SCALE
304
ACVALUE_END
170
1
140
0.06
171
1
172
0
173
0
174
0
175
1
176
1
 91
33
178
0
145
0.0
301
CELL_VALUE
 90
4
  1
DWG SIZE
304
ACVALUE_END
170
1
140
0.06
171
1
172
0
173
0
174
0
175
1
176
1
 91
33
178
0
145
0.0
301
CELL_VALUE
 90
4
  1
SHEET
304
ACVALUE_END
170
1
140
0.06
171
1
172
0
173
0
174
0
175
1
176
1
 91
33
178
0
145
0.0
301
CELL_VALUE
 90
4
  1
 
304
ACVALUE_END
170
1
140
0.125
171
1
172
0
173
0
174
0
175
1
176
1
 91
33
178
0
145
0.0
301
CELL_VALUE
 90
4
  1
ZFP
304
ACVALUE_END
170
5
140
0.125
171
1
172
0
173
0
174
0
175
4
176
1
 91
33
178
0
145
0.0
301
CELL_VALUE
 90
4
  1
ALL DIMENSIONS IN INCH\PVIEWS ARE THIRD ANGLE
304
ACVALUE_END
170
5
140
0.12
171
1
172
0
173
1
174
0
175
1
176
1
 91
1
178
0
145
0.0
170
1
171
1
172
0
173
1
174
0
175
1
176
1
 91
1
178
0
145
0.0
170
1
171
1
172
0
173
1
174
0
175
1
176
1
 91
1
178
0
145
0.0
170
5
171
1
172
0
173
0
174
0
175
1
176
1
 91
33
178
0
145
0.0
301
CELL_VALUE
 90
4
  1
 
304
ACVALUE_END
170
1
140
0.125
171
1
172
0
173
0
174
0
175
1
176
1
 91
33
178
0
145
0.0
301
CELL_VALUE
 90
4
  1
MODEL
304
ACVALUE_END
170
1
140
0.06
171
1
172
0
173
0
174
0
175
1
176
1
 91
33
178
0
145
0.0
301
CELL_VALUE
 90
4
  1
 
304
ACVALUE_END
170
1
140
0.125
171
1
172
0
173
0
174
0
175
1
176
1
 91
33
178
0
145
0.0
301
CELL_VALUE
 90
4
  1
 
304
ACVALUE_END
170
1
140
0.125
171
1
172
0
173
0
174
0
175
1
176
1
 91
33
178
0
145
0.0
301
CELL_VALUE
 90
4
  1
 
304
ACVALUE_END
170
1
140
0.125
171
1
172
0
173
0
174
0
175
1
176
1
 91
33
178
0
145
0.0
301
CELL_VALUE
 90
4
  1
 
304
ACVALUE_END
170
1
140
0.125
171
1
172
0
173
0
174
0
175
1
176
1
 91
33
178
0
145
0.0
301
CELL_VALUE
 90
4
  1
 
304
ACVALUE_END
170
1
140
0.125
  0
ACAD_TABLE
  5
282
100
AcDbEntity
  8
0
 62
2
  6
CONTINUOUS
100
AcDbBlockReference
  2
*T2
 10
12.4237499994
 20
16.47875
 30
0.0
100
AcDbTable
342
       32C
343
208
 11
1.0
 21
0.0
 31
0.0
 90
22
 91
10
 92
3
 93
16
 94
0
 95
0
 96
0
 41
0.028
141
0.344
141
0.25
141
0.25
141
0.25
141
0.25
141
0.25
141
0.25
141
0.25
141
0.25
141
0.25
142
3.055
142
3.0
142
3.0
171
1
172
0
173
0
174
0
175
1
176
1
 91
33
178
0
145
0.0
301
CELL_VALUE
 90
4
  1
Technical Data
304
ACVALUE_END
170
5
140
0.145
171
1
172
0
173
0
174
0
175
1
176
1
 91
33
178
0
145
0.0
301
CELL_VALUE
 90
4
  1
U.S. Units
304
ACVALUE_END
170
5
140
0.145
171
1
172
0
173
0
174
0
175
1
176
1
 91
33
178
0
145
0.0
301
CELL_VALUE
 90
4
  1
Metric Units
304
ACVALUE_END
170
5
140
0.145
171
1
172
0
173
0
174
0
175
1
176
1
 91
33
178
0
145
0.0
301
CELL_VALUE
 90
4
  1
Cavity
304
ACVALUE_END
170
5
140
0.125
171
1
172
0
173
0
174
0
175
2
176
1
 91
33
178
0
145
0.0
301
CELL_VALUE
 90
4
  1
T-10A
304
ACVALUE_END
170
5
140
0.125
171
1
172
0
173
1
174
0
175
1
176
1
 91
1
178
0
145
0.0
170
1
171
1
172
0
173
0
174
0
175
1
176
1
 91
33
178
0
145
0.0
301
CELL_VALUE
 90
4
  1
Body Features
304
ACVALUE_END
170
5
140
0.125
171
1
172
0
173
0
174
0
175
2
176
1
 91
33
178
0
145
0.0
301
CELL_VALUE
 90
4
  1
Ninety degree
304
ACVALUE_END
170
5
140
0.125
171
1
172
0
173
1
174
0
175
1
176
1
 91
1
178
0
145
0.0
170
1
171
1
172
0
173
0
174
0
175
1
176
1
 91
33
178
0
145
0.0
301
CELL_VALUE
 90
4
  1
Body Type
304
ACVALUE_END
170
5
140
0.125
171
1
172
0
173
0
174
0
175
2
176
1
 91
33
178
0
145
0.0
301
CELL_VALUE
 90
4
  1
Line mount
304
ACVALUE_END
170
5
140
0.125
171
1
172
0
173
1
174
0
175
1
176
1
 91
1
178
0
145
0.0
170
1
171
1
172
0
173
0
174
0
175
1
176
1
 91
33
178
0
145
0.0
301
CELL_VALUE
 90
4
  1
Interface
304
ACVALUE_END
170
5
140
0.125
171
1
172
0
173
0
174
0
175
2
176
1
 91
33
178
0
145
0.0
301
CELL_VALUE
 90
4
  1
None
304
ACVALUE_END
170
5
140
0.125
171
1
172
0
173
1
174
0
175
1
176
1
 91
1
178
0
145
0.0
170
1
171
1
172
0
173
0
174
0
175
1
176
1
 91
33
178
0
145
0.0
301
CELL_VALUE
 90
4
  1
Open Cavity Quantity
304
ACVALUE_END
170
5
140
0.125
171
1
172
0
173
0
174
0
175
2
176
1
 91
33
178
0
145
0.0
301
CELL_VALUE
 90
4
  1
1
304
ACVALUE_END
170
5
140
0.125
171
1
172
0
173
1
174
0
175
1
176
1
 91
1
178
0
145
0.0
170
1
171
1
172
0
173
0
174
0
175
1
176
1
 91
33
178
0
145
0.0
301
CELL_VALUE
 90
4
  1
Weight
304
ACVALUE_END
170
5
140
0.125
171
1
172
0
173
0
174
0
175
1
176
1
 91
33
178
0
145
0.0
301
CELL_VALUE
 90
4
  1
0.354 lb.
304
ACVALUE_END
170
5
140
0.125
171
1
172
0
173
0
174
0
175
1
176
1
 91
33
178
0
145
0.0
301
CELL_VALUE
 90
4
  1
0,161 kg.
304
ACVALUE_END
170
5
140
0.125
171
1
172
0
173
0
174
0
175
1
176
1
 91
33
178
0
145
0.0
301
CELL_VALUE
 90
4
  1
Mounting Hole Diameter
304
ACVALUE_END
170
5
140
0.125
171
1
172
0
173
0
174
0
175
1
176
1
 91
33
178
0
145
0.0
301
CELL_VALUE
 90
4
  1
.34 in.
304
ACVALUE_END
170
5
140
0.125
171
1
172
0
173
0
174
0
175
1
176
1
 91
33
178
0
145
0.0
301
CELL_VALUE
 90
4
  1
8.6 mm
304
ACVALUE_END
170
5
140
0.125
171
1
172
0
173
0
174
0
175
1
176
1
 91
33
178
0
145
0.0
301
CELL_VALUE
 90
4
  1
Mounting Hole Depth
304
ACVALUE_END
170
5
140
0.125
171
1
172
0
173
0
174
0
175
2
176
1
 91
33
178
0
145
0.0
301
CELL_VALUE
 90
4
  1
Through
304
ACVALUE_END
170
5
140
0.125
171
1
172
0
173
1
174
0
175
1
176
1
 91
1
178
0
145
0.0
170
1
171
1
172
0
173
0
174
0
175
1
176
1
 91
33
178
0
145
0.0
301
CELL_VALUE
 90
4
  1
Mounting Hole Quantity
304
ACVALUE_END
170
5
140
0.125
171
1
172
0
173
0
174
0
175
2
176
1
 91
33
178
0
145
0.0
301
CELL_VALUE
 90
4
  1
1
304
ACVALUE_END
170
5
140
0.125
171
1
172
0
173
1
174
0
175
1
176
1
 91
1
178
0
145
0.0
170
1
  0
ACAD_TABLE
  5
283
100
AcDbEntity
  8
0
 62
2
  6
CONTINUOUS
100
AcDbBlockReference
  2
*T3
 10
0.52125
 20
1.459
 30
0.0
100
AcDbTable
342
       32C
343
209
 11
1.0
 21
0.0
 31
0.0
 90
22
 91
3
 92
3
 93
16
 94
0
 95
0
 96
0
 41
0.05
141
0.34375
141
0.344
141
0.25
142
1.3
142
2.0
142
1.3
171
1
172
0
173
0
174
0
175
3
176
1
 91
33
178
0
145
0.0
301
CELL_VALUE
 90
4
  1
Port Headings
304
ACVALUE_END
170
5
140
0.145
171
1
172
0
173
1
174
0
175
1
176
1
 91
1
178
0
145
0.0
170
1
171
1
172
0
173
1
174
0
175
1
176
1
 91
1
178
0
145
0.0
170
1
171
1
172
0
173
0
174
0
175
1
176
1
 91
33
178
0
145
0.0
301
CELL_VALUE
 90
4
  1
Product
304
ACVALUE_END
170
5
140
0.145
171
1
172
0
173
0
174
0
175
1
176
1
 91
33
178
0
145
0.0
301
CELL_VALUE
 90
4
  1
Port
304
ACVALUE_END
170
5
140
0.145
171
1
172
0
173
0
174
0
175
1
176
1
 91
33
178
0
145
0.0
301
CELL_VALUE
 90
4
  1
Size
304
ACVALUE_END
170
5
140
0.145
171
1
172
0
173
0
174
0
175
1
176
1
 91
33
178
0
145
0.0
301
CELL_VALUE
 90
4
  1
ZFP
304
ACVALUE_END
170
5
140
0.125
171
1
172
0
173
0
174
0
175
1
176
1
 91
33
178
0
145
0.0
301
CELL_VALUE
 90
4
  1
Ports 1 &  2
304
ACVALUE_END
170
5
140
0.125
171
1
172
0
173
0
174
0
175
1
176
1
 91
33
178
0
145
0.0
301
CELL_VALUE
 90
4
  1
1/2" NPTF
304
ACVALUE_END
170
5
140
0.125
  0
MTEXT
  5
284
100
AcDbEntity
  8
0
100
AcDbMText
 62
2
  6
CONTINUOUS
  7
STANDARD
 71
1
 72
1
 10
0.52125
 20
5.75995
 30
0.0
 11
1.0
 21
0.0
 31
0.0
 44
0.6
  3
Notes\P \P1. Important: Carefully consider\P   the maximum system pressure. The\P   pressure rating of the manifold is\P   dependent on the manifold material,\P   with the port type/size a secondary\P   consideration. Manifolds\P   constructed of alu
  1
minum are not\P   rated for pressures higher than\P   3000 psi (210 bar), regardless of\P   the port type/size specified.
 40
0.1
 41
3.04
  0
LINE
  5
285
100
AcDbEntity
  8
0
100
AcDbLine
 62
7
  6
CONTINUOUS
 10
0.30125
 20
0.30125
 11
0.30125
 21
16.69875
  0
LINE
  5
286
100
AcDbEntity
  8
0
100
AcDbLine
 62
7
  6
CONTINUOUS
 10
0.30125
 20
0.30125
 11
21.69875
 21
0.30125
  0
LINE
  5
287
100
AcDbEntity
  8
0
100
AcDbLine
 62
7
  6
CONTINUOUS
 10
0.30125
 20
16.69875
 11
21.69875
 21
16.69875
  0
LINE
  5
288
100
AcDbEntity
  8
0
100
AcDbLine
 62
7
  6
CONTINUOUS
 10
21.69875
 20
0.30125
 11
21.69875
 21
16.69875
  0
LINE
  5
289
100
AcDbEntity
  8
0
100
AcDbLine
 62
7
  6
CONTINUOUS
 10
8.2616617518
 20
6.7901682723
 11
8.2616617518
 21
9.9197681441
  0
LINE
  5
28A
100
AcDbEntity
  8
0
100
AcDbLine
 62
7
  6
CONTINUOUS
 10
8.2616617518
 20
9.9197681441
 11
8.9087088306
 21
10.5447676654
  0
LINE
  5
28B
100
AcDbEntity
  8
0
100
AcDbLine
 62
7
  6
CONTINUOUS
 10
13.0912911694
 20
6.4552323346
 11
8.2616617518
 21
6.7901682723
  0
LINE
  5
28C
100
AcDbEntity
  8
0
100
AcDbLine
 62
4
  6
CONTINUOUS
 10
9.8844173556
 20
6.9674075655
 11
9.8650988291
 21
6.9832361978
  0
LINE
  5
28D
100
AcDbEntity
  8
0
100
AcDbLine
 62
4
  6
CONTINUOUS
 10
9.9810099395
 20
7.0041755109
 11
10.0196469717
 21
6.9725182477
  0
LINE
  5
28E
100
AcDbEntity
  8
0
100
AcDbLine
 62
4
  6
CONTINUOUS
 10
10.0196469717
 20
6.9725182477
 11
10.0776025234
 21
6.9540101287
  0
LINE
  5
28F
100
AcDbEntity
  8
0
100
AcDbLine
 62
4
  6
CONTINUOUS
 10
9.9230543809
 20
7.0806391822
 11
9.9423729073
 21
7.0648105499
  0
LINE
  5
290
100
AcDbEntity
  8
0
100
AcDbLine
 62
4
  6
CONTINUOUS
 10
9.8650988291
 20
6.9832361978
 11
9.8457803165
 21
7.0135537171
  0
LINE
  5
291
100
AcDbEntity
  8
0
100
AcDbLine
 62
4
  6
CONTINUOUS
 10
9.9423729073
 20
7.0648105499
 11
9.9810099395
 21
7.0041755109
  0
LINE
  5
292
100
AcDbEntity
  8
0
100
AcDbLine
 62
4
  6
CONTINUOUS
 10
9.8844173556
 20
7.083318669
 11
9.9230543809
 21
7.0806391822
  0
LINE
  5
293
100
AcDbEntity
  8
0
100
AcDbLine
 62
4
  6
CONTINUOUS
 10
10.6268002695
 20
7.1102121607
 11
10.5936828133
 21
7.1125088641
  0
LINE
  5
294
100
AcDbEntity
  8
0
100
AcDbLine
 62
4
  6
CONTINUOUS
 10
9.8457803165
 20
7.0135537171
 11
9.8457803165
 21
7.0425314929
  0
LINE
  5
295
100
AcDbEntity
  8
0
100
AcDbLine
 62
4
  6
CONTINUOUS
 10
10.7592701044
 20
7.2169364499
 11
10.7261526448
 21
7.2192331535
  0
LINE
  5
296
100
AcDbEntity
  8
0
100
AcDbLine
 62
4
  6
CONTINUOUS
 10
10.5605653572
 20
7.2969515832
 11
10.7592701044
 21
7.2831713622
  0
LINE
  5
297
100
AcDbEntity
  8
0
100
AcDbLine
 62
4
  6
CONTINUOUS
 10
11.9746808191
 20
7.2706368639
 11
11.7428586122
 21
7.2867137885
  0
LINE
  5
298
100
AcDbEntity
  8
0
100
AcDbLine
 62
4
  6
CONTINUOUS
 10
10.7592701044
 20
7.3990824657
 11
10.5605653572
 21
7.4128626867
  0
LINE
  5
299
100
AcDbEntity
  8
0
100
AcDbLine
 62
4
  6
CONTINUOUS
 10
10.5936828133
 20
7.1125088641
 11
10.5605653572
 21
7.1479230271
  0
LINE
  5
29A
100
AcDbEntity
  8
0
100
AcDbLine
 62
4
  6
CONTINUOUS
 10
10.0776025234
 20
6.9540101287
 11
10.0776025234
 21
7.0699212321
  0
LINE
  5
29B
100
AcDbEntity
  8
0
100
AcDbLine
 62
4
  6
CONTINUOUS
 10
11.7428586122
 20
7.5626925898
 11
11.9746808191
 21
7.612850605
  0
LINE
  5
29C
100
AcDbEntity
  8
0
100
AcDbLine
 62
4
  6
CONTINUOUS
 10
10.7923875641
 20
7.4630206743
 11
10.5605653572
 21
7.479097599
  0
LINE
  5
29D
100
AcDbEntity
  8
0
100
AcDbLine
 62
4
  6
CONTINUOUS
 10
11.7759760683
 20
7.4003281747
 11
11.9415633595
 21
7.3888446571
  0
LINE
  5
29E
100
AcDbEntity
  8
0
100
AcDbLine
 62
4
  6
CONTINUOUS
 10
10.7923875641
 20
7.5789317778
 11
10.5605653572
 21
7.5950087024
  0
LINE
  5
29F
100
AcDbEntity
  8
0
100
AcDbLine
 62
4
  6
CONTINUOUS
 10
10.7923875641
 20
7.1815222901
 11
10.7592701044
 21
7.2169364499
  0
LINE
  5
2A0
100
AcDbEntity
  8
0
100
AcDbLine
 62
4
  6
CONTINUOUS
 10
10.7923875641
 20
7.3636683197
 11
10.7592701044
 21
7.3990824657
  0
LINE
  5
2A1
100
AcDbEntity
  8
0
100
AcDbLine
 62
4
  6
CONTINUOUS
 10
10.7261526448
 20
9.2725154624
 11
10.7151134928
 21
9.2567223643
  0
LINE
  5
2A2
100
AcDbEntity
  8
0
100
AcDbLine
 62
4
  6
CONTINUOUS
 10
10.6268002695
 20
9.2628469072
 11
10.6433590045
 21
9.2782572209
  0
LINE
  5
2A3
100
AcDbEntity
  8
0
100
AcDbLine
 62
4
  6
CONTINUOUS
 10
10.7923875641
 20
7.8273127058
 11
10.5605653572
 21
7.8433896304
  0
LINE
  5
2A4
100
AcDbEntity
  8
0
100
AcDbLine
 62
4
  6
CONTINUOUS
 10
11.9746808191
 20
7.7453204296
 11
11.7428586122
 21
7.7613973543
  0
LINE
  5
2A5
100
AcDbEntity
  8
0
100
AcDbLine
 62
4
  6
CONTINUOUS
 10
10.5605653572
 20
7.1479230271
 11
10.5605653572
 21
7.2141579429
  0
LINE
  5
2A6
100
AcDbEntity
  8
0
100
AcDbLine
 62
4
  6
CONTINUOUS
 10
10.5605653572
 20
8.9473048907
 11
10.5605653572
 21
8.952824446
  0
LINE
  5
2A7
100
AcDbEntity
  8
0
100
AcDbLine
 62
4
  6
CONTINUOUS
 10
10.7040743407
 20
9.1912530475
 11
10.6930351887
 21
9.1754599494
  0
LINE
  5
2A8
100
AcDbEntity
  8
0
100
AcDbLine
 62
4
  6
CONTINUOUS
 10
10.7758288342
 20
9.1697181906
 11
10.7923875641
 21
9.1851285046
  0
LINE
  5
2A9
100
AcDbEntity
  8
0
100
AcDbLine
 62
4
  6
CONTINUOUS
 10
10.7923875641
 20
9.0360998483
 11
10.7758288342
 21
9.0206895343
  0
LINE
  5
2AA
100
AcDbEntity
  8
0
100
AcDbLine
 62
4
  6
CONTINUOUS
 10
10.6433590045
 20
7.9370002538
 11
10.7923875641
 21
7.9266650881
  0
LINE
  5
2AB
100
AcDbEntity
  8
0
100
AcDbLine
 62
4
  6
CONTINUOUS
 10
11.9746808191
 20
7.8777902542
 11
11.7428586122
 21
7.8938671789
  0
LINE
  5
2AC
100
AcDbEntity
  8
0
100
AcDbLine
 62
4
  6
CONTINUOUS
 10
11.9746808191
 20
7.4803807528
 11
11.7428586122
 21
7.5626925898
  0
LINE
  5
2AD
100
AcDbEntity
  8
0
100
AcDbLine
 62
4
  6
CONTINUOUS
 10
10.8475833278
 20
8.0221896311
 11
10.6268002695
 21
8.1037358729
  0
LINE
  5
2AE
100
AcDbEntity
  8
0
100
AcDbLine
 62
4
  6
CONTINUOUS
 10
10.6433590045
 20
8.1467441842
 11
10.6268002695
 21
8.1810099787
  0
LINE
  5
2AF
100
AcDbEntity
  8
0
100
AcDbLine
 62
4
  6
CONTINUOUS
 10
10.6268002695
 20
8.5453020654
 11
10.6268002695
 21
8.4625084043
  0
LINE
  5
2B0
100
AcDbEntity
  8
0
100
AcDbLine
 62
4
  6
CONTINUOUS
 10
10.6268002695
 20
7.8387962237
 11
10.6268002695
 21
7.9215898848
  0
LINE
  5
2B1
100
AcDbEntity
  8
0
100
AcDbLine
 62
4
  6
CONTINUOUS
 10
10.6268002695
 20
8.1810099787
 11
10.6268002695
 21
8.2472448633
  0
LINE
  5
2B2
100
AcDbEntity
  8
0
100
AcDbLine
 62
4
  6
CONTINUOUS
 10
10.6268002695
 20
8.3134798585
 11
10.6268002695
 21
8.3797147432
  0
LINE
  5
2B3
100
AcDbEntity
  8
0
100
AcDbLine
 62
4
  6
CONTINUOUS
 10
10.6268002695
 20
9.0475833662
 11
10.6268002695
 21
9.113818472
  0
LINE
  5
2B4
100
AcDbEntity
  8
0
100
AcDbLine
 62
4
  6
CONTINUOUS
 10
10.6268002695
 20
9.1966120225
 11
10.6268002695
 21
9.2628469072
  0
LINE
  5
2B5
100
AcDbEntity
  8
0
100
AcDbLine
 62
4
  6
CONTINUOUS
 10
10.7095939168
 20
8.4898840877
 11
10.7095939168
 21
8.5561189724
  0
LINE
  5
2B6
100
AcDbEntity
  8
0
100
AcDbLine
 62
4
  6
CONTINUOUS
 10
10.7923875641
 20
9.1023349541
 11
10.7923875641
 21
9.0360998483
  0
LINE
  5
2B7
100
AcDbEntity
  8
0
100
AcDbLine
 62
4
  6
CONTINUOUS
 10
10.7923875641
 20
8.831875639
 11
10.7923875641
 21
8.7987581967
  0
LINE
  5
2B8
100
AcDbEntity
  8
0
100
AcDbLine
 62
4
  6
CONTINUOUS
 10
10.7923875641
 20
8.5503772134
 11
10.7923875641
 21
8.4841423287
  0
LINE
  5
2B9
100
AcDbEntity
  8
0
100
AcDbLine
 62
4
  6
CONTINUOUS
 10
10.7923875641
 20
8.2357613454
 11
10.7923875641
 21
8.1695264608
  0
LINE
  5
2BA
100
AcDbEntity
  8
0
100
AcDbLine
 62
4
  6
CONTINUOUS
 10
10.7923875641
 20
7.1152873727
 11
10.7923875641
 21
7.1815222901
  0
LINE
  5
2BB
100
AcDbEntity
  8
0
100
AcDbLine
 62
4
  6
CONTINUOUS
 10
10.7923875641
 20
7.3139921147
 11
10.7923875641
 21
7.3636683197
  0
LINE
  5
2BC
100
AcDbEntity
  8
0
100
AcDbLine
 62
4
  6
CONTINUOUS
 10
10.7923875641
 20
8.6331708745
 11
10.7923875641
 21
8.7159645356
  0
LINE
  5
2BD
100
AcDbEntity
  8
0
100
AcDbLine
 62
4
  6
CONTINUOUS
 10
10.7923875641
 20
9.1851285046
 11
10.7923875641
 21
9.2513633893
  0
LINE
  5
2BE
100
AcDbEntity
  8
0
100
AcDbLine
 62
4
  6
CONTINUOUS
 10
10.7151134928
 20
9.2567223643
 11
10.7040743407
 21
9.1912530475
  0
LINE
  5
2BF
100
AcDbEntity
  8
0
100
AcDbLine
 62
4
  6
CONTINUOUS
 10
10.7923875641
 20
8.7987581967
 11
10.7758288342
 21
8.7833477721
  0
LINE
  5
2C0
100
AcDbEntity
  8
0
100
AcDbLine
 62
4
  6
CONTINUOUS
 10
10.7758288342
 20
8.6177604499
 11
10.7923875641
 21
8.6331708745
  0
LINE
  5
2C1
100
AcDbEntity
  8
0
100
AcDbLine
 62
4
  6
CONTINUOUS
 10
10.6268002695
 20
8.0043835459
 11
10.7923875641
 21
8.0425762468
  0
LINE
  5
2C2
100
AcDbEntity
  8
0
100
AcDbLine
 62
4
  6
CONTINUOUS
 10
11.464671964
 20
8.0870262014
 11
11.2328497571
 21
8.1031031261
  0
LINE
  5
2C3
100
AcDbEntity
  8
0
100
AcDbLine
 62
4
  6
CONTINUOUS
 10
10.7758288342
 20
8.1375573703
 11
10.6433590045
 21
8.1467441842
  0
LINE
  5
2C4
100
AcDbEntity
  8
0
100
AcDbLine
 62
4
  6
CONTINUOUS
 10
10.5605653572
 20
8.2518382701
 11
10.7923875641
 21
8.2357613454
  0
LINE
  5
2C5
100
AcDbEntity
  8
0
100
AcDbLine
 62
4
  6
CONTINUOUS
 10
11.464671964
 20
8.252613496
 11
11.2328497571
 21
8.2686904206
  0
LINE
  5
2C6
100
AcDbEntity
  8
0
100
AcDbLine
 62
4
  6
CONTINUOUS
 10
10.7923875641
 20
8.3019963407
 11
10.6268002695
 21
8.3134798585
  0
LINE
  5
2C7
100
AcDbEntity
  8
0
100
AcDbLine
 62
4
  6
CONTINUOUS
 10
11.9415633595
 20
8.2278203234
 11
11.7759760683
 21
8.2393038411
  0
LINE
  5
2C8
100
AcDbEntity
  8
0
100
AcDbLine
 62
4
  6
CONTINUOUS
 10
11.2328497571
 20
8.0368682138
 11
11.464671964
 21
7.9048801857
  0
LINE
  5
2C9
100
AcDbEntity
  8
0
100
AcDbLine
 62
4
  6
CONTINUOUS
 10
10.7261526448
 20
8.4556182937
 11
10.7095939168
 21
8.4898840877
  0
LINE
  5
2CA
100
AcDbEntity
  8
0
100
AcDbLine
 62
4
  6
CONTINUOUS
 10
10.8475833278
 20
7.9890721888
 11
10.8475833278
 21
8.0221896311
  0
LINE
  5
2CB
100
AcDbEntity
  8
0
100
AcDbLine
 62
4
  6
CONTINUOUS
 10
10.7923875641
 20
8.4841423287
 11
10.7758288342
 21
8.4521732382
  0
LINE
  5
2CC
100
AcDbEntity
  8
0
100
AcDbLine
 62
4
  6
CONTINUOUS
 10
10.7923875641
 20
8.1695264608
 11
10.7758288342
 21
8.1375573703
  0
LINE
  5
2CD
100
AcDbEntity
  8
0
100
AcDbLine
 62
4
  6
CONTINUOUS
 10
9.8457803165
 20
7.0425314929
 11
9.8650988291
 21
7.0701695254
  0
LINE
  5
2CE
100
AcDbEntity
  8
0
100
AcDbLine
 62
4
  6
CONTINUOUS
 10
10.6268002695
 20
8.3797147432
 11
10.6433590045
 21
8.3896055016
  0
LINE
  5
2CF
100
AcDbEntity
  8
0
100
AcDbLine
 62
4
  6
CONTINUOUS
 10
10.6599177256
 20
8.5595640279
 11
10.6268002695
 21
8.5453020654
  0
LINE
  5
2D0
100
AcDbEntity
  8
0
100
AcDbLine
 62
4
  6
CONTINUOUS
 10
10.6433590045
 20
8.3896055016
 11
10.6764764606
 21
8.3873087982
  0
LINE
  5
2D1
100
AcDbEntity
  8
0
100
AcDbLine
 62
4
  6
CONTINUOUS
 10
11.2659672132
 20
8.3823048207
 11
11.3322021255
 21
8.3777114139
  0
LINE
  5
2D2
100
AcDbEntity
  8
0
100
AcDbLine
 62
4
  6
CONTINUOUS
 10
10.7758288342
 20
8.4521732382
 11
10.7261526448
 21
8.4556182937
  0
LINE
  5
2D3
100
AcDbEntity
  8
0
100
AcDbLine
 62
4
  6
CONTINUOUS
 10
11.9415633595
 20
8.4210054221
 11
11.7759760683
 21
8.4324889398
  0
LINE
  5
2D4
100
AcDbEntity
  8
0
100
AcDbLine
 62
4
  6
CONTINUOUS
 10
11.9415633595
 20
7.3888446571
 11
11.9746808191
 21
7.3534304973
  0
LINE
  5
2D5
100
AcDbEntity
  8
0
100
AcDbLine
 62
4
  6
CONTINUOUS
 10
11.2328497571
 20
7.9209571103
 11
11.2328497571
 21
8.0368682138
  0
LINE
  5
2D6
100
AcDbEntity
  8
0
100
AcDbLine
 62
4
  6
CONTINUOUS
 10
11.2328497571
 20
8.1031031261
 11
11.2328497571
 21
8.2024555083
  0
LINE
  5
2D7
100
AcDbEntity
  8
0
100
AcDbLine
 62
4
  6
CONTINUOUS
 10
11.2328497571
 20
8.2686904206
 11
11.2328497571
 21
8.3514840541
  0
LINE
  5
2D8
100
AcDbEntity
  8
0
100
AcDbLine
 62
4
  6
CONTINUOUS
 10
10.6268002695
 20
7.9215898848
 11
10.6433590045
 21
7.9370002538
  0
LINE
  5
2D9
100
AcDbEntity
  8
0
100
AcDbLine
 62
4
  6
CONTINUOUS
 10
12.7628763728
 20
8.409859738
 11
12.9946985796
 21
8.3937828133
  0
LINE
  5
2DA
100
AcDbEntity
  8
0
100
AcDbLine
 62
4
  6
CONTINUOUS
 10
10.7923875641
 20
8.5503772134
 11
10.6599177256
 21
8.5595640279
  0
LINE
  5
2DB
100
AcDbEntity
  8
0
100
AcDbLine
 62
4
  6
CONTINUOUS
 10
10.6268002695
 20
8.628095616
 11
10.7758288342
 21
8.6177604499
  0
LINE
  5
2DC
100
AcDbEntity
  8
0
100
AcDbLine
 62
4
  6
CONTINUOUS
 10
11.7759760683
 20
8.5484000432
 11
11.9415633595
 21
8.5369165255
  0
LINE
  5
2DD
100
AcDbEntity
  8
0
100
AcDbLine
 62
4
  6
CONTINUOUS
 10
11.9746808191
 20
8.6008547066
 11
11.7428586122
 21
8.6169316312
  0
LINE
  5
2DE
100
AcDbEntity
  8
0
100
AcDbLine
 62
4
  6
CONTINUOUS
 10
10.7923875641
 20
8.7159645356
 11
10.6268002695
 21
8.7274480535
  0
LINE
  5
2DF
100
AcDbEntity
  8
0
100
AcDbLine
 62
4
  6
CONTINUOUS
 10
10.5605653572
 20
8.952824446
 11
10.5771240922
 21
8.9461565385
  0
LINE
  5
2E0
100
AcDbEntity
  8
0
100
AcDbLine
 62
4
  6
CONTINUOUS
 10
10.6433590045
 20
9.0298763481
 11
10.6268002695
 21
9.0475833662
  0
LINE
  5
2E1
100
AcDbEntity
  8
0
100
AcDbLine
 62
4
  6
CONTINUOUS
 10
11.3322021255
 20
8.3777114139
 11
11.3653195886
 21
8.3422972401
  0
LINE
  5
2E2
100
AcDbEntity
  8
0
100
AcDbLine
 62
4
  6
CONTINUOUS
 10
10.6433590045
 20
9.1789050045
 11
10.6268002695
 21
9.1966120225
  0
LINE
  5
2E3
100
AcDbEntity
  8
0
100
AcDbLine
 62
4
  6
CONTINUOUS
 10
11.8311718286
 20
7.236432631
 11
11.8753284437
 21
7.1450571361
  0
LINE
  5
2E4
100
AcDbEntity
  8
0
100
AcDbLine
 62
4
  6
CONTINUOUS
 10
11.3322021255
 20
8.1955653982
 11
11.3322021255
 21
8.0962130159
  0
LINE
  5
2E5
100
AcDbEntity
  8
0
100
AcDbLine
 62
4
  6
CONTINUOUS
 10
11.3653195886
 20
8.3422972401
 11
11.3653195886
 21
8.2595036066
  0
LINE
  5
2E6
100
AcDbEntity
  8
0
100
AcDbLine
 62
4
  6
CONTINUOUS
 10
11.464671964
 20
7.9048801857
 11
11.464671964
 21
8.0207912891
  0
LINE
  5
2E7
100
AcDbEntity
  8
0
100
AcDbLine
 62
4
  6
CONTINUOUS
 10
11.2328497571
 20
8.3514840541
 11
11.2659672132
 21
8.3823048207
  0
LINE
  5
2E8
100
AcDbEntity
  8
0
100
AcDbLine
 62
4
  6
CONTINUOUS
 10
11.7428586122
 20
8.6997252923
 11
11.7759760683
 21
8.7305460313
  0
LINE
  5
2E9
100
AcDbEntity
  8
0
100
AcDbLine
 62
4
  6
CONTINUOUS
 10
10.7758288342
 20
8.7833477721
 11
10.5605653572
 21
8.7982763449
  0
LINE
  5
2EA
100
AcDbEntity
  8
0
100
AcDbLine
 62
4
  6
CONTINUOUS
 10
11.7759760683
 20
8.7305460313
 11
11.9415633595
 21
8.7190625136
  0
LINE
  5
2EB
100
AcDbEntity
  8
0
100
AcDbLine
 62
4
  6
CONTINUOUS
 10
11.9746808191
 20
8.8105986923
 11
11.7428586122
 21
8.8266756169
  0
LINE
  5
2EC
100
AcDbEntity
  8
0
100
AcDbLine
 62
4
  6
CONTINUOUS
 10
10.7923875641
 20
8.931227966
 11
10.6268002695
 21
8.9427114839
  0
LINE
  5
2ED
100
AcDbEntity
  8
0
100
AcDbLine
 62
4
  6
CONTINUOUS
 10
10.5771240922
 20
8.9461565385
 11
10.5605653572
 21
8.9473048907
  0
LINE
  5
2EE
100
AcDbEntity
  8
0
100
AcDbLine
 62
4
  6
CONTINUOUS
 10
10.7923875641
 20
9.2513633893
 11
10.7758288342
 21
9.269070407
  0
LINE
  5
2EF
100
AcDbEntity
  8
0
100
AcDbLine
 62
4
  6
CONTINUOUS
 10
11.7759760683
 20
8.2393038411
 11
11.7428586122
 21
8.2747179868
  0
LINE
  5
2F0
100
AcDbEntity
  8
0
100
AcDbLine
 62
4
  6
CONTINUOUS
 10
11.8311718286
 20
8.9861382862
 11
11.8753284437
 21
9.0713892309
  0
LINE
  5
2F1
100
AcDbEntity
  8
0
100
AcDbLine
 62
4
  6
CONTINUOUS
 10
10.7261526448
 20
7.2192331535
 11
10.6268002695
 21
7.1102121607
  0
LINE
  5
2F2
100
AcDbEntity
  8
0
100
AcDbLine
 62
7
  6
CONTINUOUS
 10
13.0912911694
 20
9.5848322064
 11
13.7383382482
 21
10.2098317277
  0
LINE
  5
2F3
100
AcDbEntity
  8
0
100
AcDbLine
 62
4
  6
CONTINUOUS
 10
11.7428586122
 20
8.5175793042
 11
11.7759760683
 21
8.5484000432
  0
LINE
  5
2F4
100
AcDbEntity
  8
0
100
AcDbLine
 62
4
  6
CONTINUOUS
 10
10.5605653572
 20
7.2141579429
 11
10.5771240922
 21
7.2295683188
  0
LINE
  5
2F5
100
AcDbEntity
  8
0
100
AcDbLine
 62
4
  6
CONTINUOUS
 10
11.9746808191
 20
8.4518261608
 11
11.9415633595
 21
8.4210054221
  0
LINE
  5
2F6
100
AcDbEntity
  8
0
100
AcDbLine
 62
4
  6
CONTINUOUS
 10
9.8650988291
 20
7.0701695254
 11
9.8844173556
 21
7.083318669
  0
LINE
  5
2F7
100
AcDbEntity
  8
0
100
AcDbLine
 62
4
  6
CONTINUOUS
 10
10.7758288342
 20
9.0206895343
 11
10.6433590045
 21
9.0298763481
  0
LINE
  5
2F8
100
AcDbEntity
  8
0
100
AcDbLine
 62
4
  6
CONTINUOUS
 10
10.6930351887
 20
9.1754599494
 11
10.6433590045
 21
9.1789050045
  0
LINE
  5
2F9
100
AcDbEntity
  8
0
100
AcDbLine
 62
4
  6
CONTINUOUS
 10
11.7759760683
 20
8.4324889398
 11
11.7428586122
 21
8.4679030855
  0
LINE
  5
2FA
100
AcDbEntity
  8
0
100
AcDbLine
 62
4
  6
CONTINUOUS
 10
11.9415633595
 20
8.5369165255
 11
11.9746808191
 21
8.5015023796
  0
LINE
  5
2FB
100
AcDbEntity
  8
0
100
AcDbLine
 62
4
  6
CONTINUOUS
 10
11.7428586122
 20
7.2867137885
 11
11.7428586122
 21
7.369507422
  0
LINE
  5
2FC
100
AcDbEntity
  8
0
100
AcDbLine
 62
4
  6
CONTINUOUS
 10
11.7428586122
 20
7.6951624143
 11
11.7428586122
 21
7.8276322389
  0
LINE
  5
2FD
100
AcDbEntity
  8
0
100
AcDbLine
 62
4
  6
CONTINUOUS
 10
11.7428586122
 20
7.8938671789
 11
11.7428586122
 21
7.9932195611
  0
LINE
  5
2FE
100
AcDbEntity
  8
0
100
AcDbLine
 62
4
  6
CONTINUOUS
 10
11.7428586122
 20
8.2747179868
 11
11.7428586122
 21
8.3409528714
  0
LINE
  5
2FF
100
AcDbEntity
  8
0
100
AcDbLine
 62
4
  6
CONTINUOUS
 10
11.7428586122
 20
8.4679030855
 11
11.7428586122
 21
8.5175793042
  0
LINE
  5
300
100
AcDbEntity
  8
0
100
AcDbLine
 62
4
  6
CONTINUOUS
 10
11.7428586122
 20
8.6169316312
 11
11.7428586122
 21
8.6997252923
  0
LINE
  5
301
100
AcDbEntity
  8
0
100
AcDbLine
 62
4
  6
CONTINUOUS
 10
11.7428586122
 20
8.8266756169
 11
11.7428586122
 21
8.9260279439
  0
LINE
  5
302
100
AcDbEntity
  8
0
100
AcDbLine
 62
4
  6
CONTINUOUS
 10
11.8422109806
 20
8.8860203914
 11
11.8422109806
 21
8.8197855068
  0
LINE
  5
303
100
AcDbEntity
  8
0
100
AcDbLine
 62
4
  6
CONTINUOUS
 10
11.8422109806
 20
7.9532120087
 11
11.8422109806
 21
7.8869770687
  0
LINE
  5
304
100
AcDbEntity
  8
0
100
AcDbLine
 62
4
  6
CONTINUOUS
 10
11.9084458998
 20
7.5070524641
 11
11.9084458998
 21
7.5953656805
  0
LINE
  5
305
100
AcDbEntity
  8
0
100
AcDbLine
 62
7
  6
CONTINUOUS
 10
13.4148147088
 20
9.5302801221
 11
13.4169171935
 21
9.532273754
  0
LINE
  5
306
100
AcDbEntity
  8
0
100
AcDbLine
 62
4
  6
CONTINUOUS
 10
10.7592701044
 20
7.2831713622
 11
10.7923875641
 21
7.3139921147
  0
LINE
  5
307
100
AcDbEntity
  8
0
100
AcDbLine
 62
4
  6
CONTINUOUS
 10
11.9746808191
 20
8.2586410621
 11
11.9415633595
 21
8.2278203234
  0
LINE
  5
308
100
AcDbEntity
  8
0
100
AcDbLine
 62
4
  6
CONTINUOUS
 10
10.7758288342
 20
7.0998769947
 11
10.7923875641
 21
7.1152873727
  0
LINE
  5
309
100
AcDbEntity
  8
0
100
AcDbLine
 62
4
  6
CONTINUOUS
 10
10.5605653572
 20
7.479097599
 11
10.7923875641
 21
7.5789317778
  0
LINE
  5
30A
100
AcDbEntity
  8
0
100
AcDbLine
 62
4
  6
CONTINUOUS
 10
10.7758288342
 20
9.269070407
 11
10.7261526448
 21
9.2725154624
  0
LINE
  5
30B
100
AcDbEntity
  8
0
100
AcDbLine
 62
4
  6
CONTINUOUS
 10
11.9415633595
 20
8.7190625136
 11
11.9746808191
 21
8.6836483677
  0
LINE
  5
30C
100
AcDbEntity
  8
0
100
AcDbLine
 62
4
  6
CONTINUOUS
 10
11.9746808191
 20
8.6836483677
 11
11.9746808191
 21
8.6008547066
  0
LINE
  5
30D
100
AcDbEntity
  8
0
100
AcDbLine
 62
4
  6
CONTINUOUS
 10
11.9746808191
 20
8.5015023796
 11
11.9746808191
 21
8.4518261608
  0
LINE
  5
30E
100
AcDbEntity
  8
0
100
AcDbLine
 62
4
  6
CONTINUOUS
 10
11.9746808191
 20
8.3248759468
 11
11.9746808191
 21
8.2586410621
  0
LINE
  5
30F
100
AcDbEntity
  8
0
100
AcDbLine
 62
4
  6
CONTINUOUS
 10
11.9746808191
 20
7.3534304973
 11
11.9746808191
 21
7.2706368639
  0
LINE
  5
310
100
AcDbEntity
  8
0
100
AcDbLine
 62
4
  6
CONTINUOUS
 10
11.9746808191
 20
7.8777902542
 11
11.9746808191
 21
7.9771426365
  0
LINE
  5
311
100
AcDbEntity
  8
0
100
AcDbLine
 62
4
  6
CONTINUOUS
 10
11.9746808191
 20
8.8105986923
 11
11.9746808191
 21
8.9099510192
  0
LINE
  5
312
100
AcDbEntity
  8
0
100
AcDbLine
 62
4
  6
CONTINUOUS
 10
11.8753284437
 20
9.0713892309
 11
11.9194850554
 21
8.9800137431
  0
LINE
  5
313
100
AcDbEntity
  8
0
100
AcDbLine
 62
4
  6
CONTINUOUS
 10
11.7428586122
 20
7.369507422
 11
11.7759760683
 21
7.4003281747
  0
LINE
  5
314
100
AcDbEntity
  8
0
100
AcDbLine
 62
7
  6
CONTINUOUS
 10
13.0912911694
 20
9.5848322064
 11
8.2616617518
 21
9.9197681441
  0
LINE
  5
315
100
AcDbEntity
  8
0
100
AcDbLine
 62
4
  6
CONTINUOUS
 10
11.8753284437
 20
7.1450571361
 11
11.9194850554
 21
7.230308088
  0
LINE
  5
316
100
AcDbEntity
  8
0
100
AcDbLine
 62
7
  6
CONTINUOUS
 10
13.7383382482
 20
10.2098317277
 11
8.9087088306
 21
10.5447676654
  0
LINE
  5
317
100
AcDbEntity
  8
0
100
AcDbLine
 62
7
  6
CONTINUOUS
 10
13.0912911694
 20
6.4552323346
 11
13.0912911694
 21
9.5848322064
  0
LINE
  5
318
100
AcDbEntity
  8
0
100
AcDbLine
 62
7
  6
CONTINUOUS
 10
13.7383382482
 20
10.2098317277
 11
13.7383382482
 21
7.0802318559
  0
LINE
  5
319
100
AcDbEntity
  8
0
100
AcDbLine
 62
7
  6
CONTINUOUS
 10
13.7383382482
 20
7.0802318559
 11
13.0912911694
 21
6.4552323346
  0
SPLINE
  5
31A
100
AcDbEntity
  8
0
100
AcDbSpline
 62
7
  6
CONTINUOUS
 70
0
 71
3
 72
23
 73
19
 74
0
 42
0.0000001
 43
0.0000001
 44
0.0000000001
 40
0.0
 40
0.0
 40
0.0
 40
0.0
 40
0.063776909
 40
0.1273449468
 40
0.1907019575
 40
0.2538561145
 40
0.3168131979
 40
0.3795820804
 40
0.4421733815
 40
0.5045993354
 40
0.5668738682
 40
0.6290123838
 40
0.6910316538
 40
0.75294965
 40
0.8147853622
 40
0.8765586114
 40
0.9382898593
 40
1.0
 40
1.0
 40
1.0
 40
1.0
 10
12.8807193494
 20
7.0126858639
 30
0.0
 10
12.8807193494
 20
7.0073784152
 30
0.0
 10
12.8804653054
 20
6.9967791015
 30
0.0
 10
12.8793187291
 20
6.9809446166
 30
0.0
 10
12.8774096469
 20
6.9652356388
 30
0.0
 10
12.8747426469
 20
6.9496890673
 30
0.0
 10
12.8713236746
 20
6.9343404343
 30
0.0
 10
12.8671606376
 20
6.9192252211
 30
0.0
 10
12.862263112
 20
6.9043782484
 30
0.0
 10
12.8566423463
 20
6.8898337536
 30
0.0
 10
12.8503112516
 20
6.8756252906
 30
0.0
 10
12.8432843987
 20
6.8617856325
 30
0.0
 10
12.8355779918
 20
6.8483466952
 30
0.0
 10
12.8272097754
 20
6.8353394719
 30
0.0
 10
12.8181990433
 20
6.822794009
 30
0.0
 10
12.808566455
 20
6.8107391583
 30
0.0
 10
12.7983346191
 20
6.7992030959
 30
0.0
 10
12.7911282826
 20
6.7918746191
 30
0.0
 10
12.7874345911
 20
6.7883067717
 30
0.0
  0
SPLINE
  5
31B
100
AcDbEntity
  8
0
100
AcDbSpline
 62
7
  6
CONTINUOUS
 70
0
 71
3
 72
48
 73
44
 74
0
 42
0.0000001
 43
0.0000001
 44
0.0000000001
 40
0.0
 40
0.0
 40
0.0
 40
0.0
 40
0.0149718897
 40
0.0299468369
 40
0.0449278839
 40
0.0599180336
 40
0.0749202322
 40
0.0899373568
 40
0.1049721887
 40
0.1200274064
 40
0.1351055645
 40
0.1502090774
 40
0.1653402142
 40
0.180501073
 40
0.1956935825
 40
0.2109194836
 40
0.2261803205
 40
0.2414774416
 40
0.2568119786
 40
0.2721848576
 40
0.3030428416
 40
0.3340598877
 40
0.365235493
 40
0.3965657058
 40
0.4280432614
 40
0.4596577825
 40
0.4913960356
 40
0.5232422374
 40
0.5551784039
 40
0.5871847345
 40
0.6192400218
 40
0.6513220815
 40
0.6834081967
 40
0.7154755701
 40
0.7475017768
 40
0.7794652126
 40
0.8113455287
 40
0.8431240501
 40
0.8747841728
 40
0.9063117021
 40
0.9376953081
 40
0.9689262526
 40
1.0
 40
1.0
 40
1.0
 40
1.0
 10
12.3094470998
 20
7.2831521411
 30
0.0
 10
12.3123007934
 20
7.2859086093
 30
0.0
 10
12.3181189983
 20
7.2913092886
 30
0.0
 10
12.3271623308
 20
7.2990579224
 30
0.0
 10
12.3365101243
 20
7.3064445161
 30
0.0
 10
12.3461494167
 20
7.3134586312
 30
0.0
 10
12.3560669135
 20
7.3200907651
 30
0.0
 10
12.3662490018
 20
7.3263317118
 30
0.0
 10
12.3766816557
 20
7.3321729093
 30
0.0
 10
12.387350496
 20
7.3376063659
 30
0.0
 10
12.3982408841
 20
7.3426245189
 30
0.0
 10
12.4093377803
 20
7.3472205841
 30
0.0
 10
12.4206259563
 20
7.3513881454
 30
0.0
 10
12.4320898553
 20
7.3551215316
 30
0.0
 10
12.4437137044
 20
7.3584156244
 30
0.0
 10
12.4554815237
 20
7.3612658288
 30
0.0
 10
12.4673771128
 20
7.3636683455
 30
0.0
 10
12.4793840724
 20
7.3656197611
 30
0.0
 10
12.4914860878
 20
7.3671174875
 30
0.0
 10
12.5077448347
 20
7.3685084225
 30
0.0
 10
12.5282280435
 20
7.3690998125
 30
0.0
 10
12.5528829705
 20
7.3679749975
 30
0.0
 10
12.5775128522
 20
7.365023512
 30
0.0
 10
12.6019814323
 20
7.3602617665
 30
0.0
 10
12.6261545763
 20
7.353716216
 30
0.0
 10
12.6498994968
 20
7.3454230389
 30
0.0
 10
12.6730858728
 20
7.335427974
 30
0.0
 10
12.6955864557
 20
7.3237860787
 30
0.0
 10
12.7172777877
 20
7.3105614178
 30
0.0
 10
12.7380408544
 20
7.2958266971
 30
0.0
 10
12.7577617323
 20
7.2796628712
 30
0.0
 10
12.7763322035
 20
7.2621587009
 30
0.0
 10
12.7936503435
 20
7.2434102747
 30
0.0
 10
12.8096210959
 20
7.2235205029
 30
0.0
 10
12.8241567682
 20
7.2025985353
 30
0.0
 10
12.8371775089
 20
7.1807591734
 30
0.0
 10
12.848611742
 20
7.1581222443
 30
0.0
 10
12.8583965553
 20
7.1348119663
 30
0.0
 10
12.8664780543
 20
7.110956232
 30
0.0
 10
12.8728117013
 20
7.0866861009
 30
0.0
 10
12.8773624184
 20
7.062134393
 30
0.0
 10
12.8801050669
 20
7.0374376642
 30
0.0
 10
12.8807193494
 20
7.0209204659
 30
0.0
 10
12.8807193494
 20
7.0126858639
 30
0.0
  0
SPLINE
  5
31C
100
AcDbEntity
  8
0
100
AcDbSpline
 62
7
  6
CONTINUOUS
 70
0
 71
3
 72
92
 73
88
 74
0
 42
0.0000001
 43
0.0000001
 44
0.0000000001
 40
0.0
 40
0.0
 40
0.0
 40
0.0
 40
0.0036898706
 40
0.0075219725
 40
0.011499783
 40
0.0156261917
 40
0.0199035661
 40
0.0243337621
 40
0.0289182474
 40
0.0336580702
 40
0.0385539466
 40
0.0436062894
 40
0.0488151954
 40
0.0541805434
 40
0.0597019389
 40
0.0653787877
 40
0.0712103028
 40
0.0771954822
 40
0.0833331924
 40
0.0896221022
 40
0.0960607506
 40
0.1026475402
 40
0.1162582073
 40
0.1304389966
 40
0.145172755
 40
0.1604407102
 40
0.1762226146
 40
0.1924968814
 40
0.2092406981
 40
0.2264301257
 40
0.2440401876
 40
0.2620449499
 40
0.2804176084
 40
0.2991305651
 40
0.3181554994
 40
0.3374634363
 40
0.357024811
 40
0.3768095408
 40
0.3967870919
 40
0.4169265425
 40
0.4371966462
 40
0.4575658943
 40
0.4780025824
 40
0.4984748732
 40
0.5189508595
 40
0.5393986254
 40
0.5597863108
 40
0.5800821757
 40
0.6002546624
 40
0.6202724577
 40
0.6401045564
 40
0.6597203278
 40
0.6790895815
 40
0.6981826306
 40
0.7169703562
 40
0.7354242753
 40
0.7535166145
 40
0.7712203834
 40
0.7885094448
 40
0.8053585917
 40
0.8217436307
 40
0.8376414766
 40
0.8530302549
 40
0.8678894036
 40
0.8821997959
 40
0.889143759
 40
0.8959441016
 40
0.9025988849
 40
0.9091063299
 40
0.915464761
 40
0.9216726417
 40
0.9277286017
 40
0.9336313888
 40
0.9393799586
 40
0.9449734172
 40
0.9504110687
 40
0.9556924447
 40
0.9608172679
 40
0.9657855563
 40
0.97059757
 40
0.9752538665
 40
0.9797553374
 40
0.9841032193
 40
0.9882992614
 40
0.9923456468
 40
0.9962449121
 40
1.0
 40
1.0
 40
1.0
 40
1.0
 10
13.3019542433
 20
7.8745762358
 30
0.0
 10
13.3006253054
 20
7.8762102342
 30
0.0
 10
13.2979850805
 20
7.8795977389
 30
0.0
 10
13.2941473563
 20
7.8849247563
 30
0.0
 10
13.2903599464
 20
7.8905899375
 30
0.0
 10
13.2866244437
 20
7.8965908578
 30
0.0
 10
13.2829423508
 20
7.9029251172
 30
0.0
 10
13.2793150924
 20
7.909590089
 30
0.0
 10
13.2757442029
 20
7.9165830757
 30
0.0
 10
13.2722310932
 20
7.9239011901
 30
0.0
 10
13.2687772095
 20
7.9315414315
 30
0.0
 10
13.2653840018
 20
7.9395006656
 30
0.0
 10
13.2620528131
 20
7.9477755988
 30
0.0
 10
13.2587850802
 20
7.9563628344
 30
0.0
 10
13.2555821125
 20
7.9652588153
 30
0.0
 10
13.2524452491
 20
7.9744598689
 30
0.0
 10
13.2493758154
 20
7.9839621934
 30
0.0
 10
13.2463750391
 20
7.9937618482
 30
0.0
 10
13.2434442214
 20
8.0038547844
 30
0.0
 10
13.2405845441
 20
8.0142368104
 30
0.0
 10
13.2377971949
 20
8.0249036362
 30
0.0
 10
13.2341388127
 20
8.0396612357
 30
0.0
 10
13.2297647857
 20
8.0587927118
 30
0.0
 10
13.2248779727
 20
8.0825709965
 30
0.0
 10
13.2203057824
 20
8.1073742289
 30
0.0
 10
13.2160558812
 20
8.1331612257
 30
0.0
 10
13.2121354002
 20
8.1598892824
 30
0.0
 10
13.2085509188
 20
8.1875140622
 30
0.0
 10
13.2053084551
 20
8.2159897341
 30
0.0
 10
13.2024134555
 20
8.2452690354
 30
0.0
 10
13.1998707845
 20
8.2753033527
 30
0.0
 10
13.1976847068
 20
8.306042803
 30
0.0
 10
13.195858893
 20
8.3374363222
 30
0.0
 10
13.194396412
 20
8.3694317555
 30
0.0
 10
13.1932997273
 20
8.4019759437
 30
0.0
 10
13.1925706924
 20
8.4350148091
 30
0.0
 10
13.1922105376
 20
8.4684934454
 30
0.0
 10
13.1922198786
 20
8.5023562118
 30
0.0
 10
13.1925987164
 20
8.5365468288
 30
0.0
 10
13.1933464366
 20
8.5710084708
 30
0.0
 10
13.1944618122
 20
8.6056838591
 30
0.0
 10
13.1959429941
 20
8.6405153574
 30
0.0
 10
13.1977875237
 20
8.6754450693
 30
0.0
 10
13.1999923382
 20
8.7104149359
 30
0.0
 10
13.2025537758
 20
8.7453668308
 30
0.0
 10
13.2054675826
 20
8.7802426568
 30
0.0
 10
13.2087289099
 20
8.814984444
 30
0.0
 10
13.2123323281
 20
8.8495344472
 30
0.0
 10
13.2162718397
 20
8.883835241
 30
0.0
 10
13.2205408874
 20
8.9178298142
 30
0.0
 10
13.2251323674
 20
8.9514616651
 30
0.0
 10
13.2300386318
 20
8.9846748991
 30
0.0
 10
13.2352515043
 20
9.0174143224
 30
0.0
 10
13.2407622993
 20
9.0496255315
 30
0.0
 10
13.2465618343
 20
9.0812550025
 30
0.0
 10
13.2526404474
 20
9.1122501815
 30
0.0
 10
13.2589880054
 20
9.1425595773
 30
0.0
 10
13.2655939205
 20
9.1721328499
 30
0.0
 10
13.2724471754
 20
9.2009208911
 30
0.0
 10
13.2795363391
 20
9.2288759042
 30
0.0
 10
13.286849588
 20
9.25595149
 30
0.0
 10
13.2943747213
 20
9.2821027201
 30
0.0
 10
13.3020991755
 20
9.3072862647
 30
0.0
 10
13.310010062
 20
9.3314602973
 30
0.0
 10
13.3168131576
 20
9.3509207741
 30
0.0
 10
13.32234539
 20
9.3659488112
 30
0.0
 10
13.3264913242
 20
9.3768298385
 30
0.0
 10
13.3306739177
 20
9.387429416
 30
0.0
 10
13.3348914076
 20
9.3977431641
 30
0.0
 10
13.3391420517
 20
9.4077668008
 30
0.0
 10
13.3434240987
 20
9.4174961668
 30
0.0
 10
13.3477357285
 20
9.4269272418
 30
0.0
 10
13.3520752028
 20
9.4360561043
 30
0.0
 10
13.3564406751
 20
9.4448789897
 30
0.0
 10
13.3608303554
 20
9.4533922429
 30
0.0
 10
13.3652424364
 20
9.4615923386
 30
0.0
 10
13.3696750482
 20
9.4694759062
 30
0.0
 10
13.3741264167
 20
9.4770396706
 30
0.0
 10
13.3785946573
 20
9.4842805397
 30
0.0
 10
13.3830779611
 20
9.4911955224
 30
0.0
 10
13.3875744883
 20
9.4977817615
 30
0.0
 10
13.3920823398
 20
9.504036567
 30
0.0
 10
13.3965997544
 20
9.5099573579
 30
0.0
 10
13.4011248934
 20
9.5155417795
 30
0.0
 10
13.405656023
 20
9.5207875554
 30
0.0
 10
13.4101910999
 20
9.5256923228
 30
0.0
 10
13.4132730486
 20
9.5287909926
 30
0.0
 10
13.4148147088
 20
9.5302801221
 30
0.0
  0
SPLINE
  5
31D
100
AcDbEntity
  8
0
100
AcDbSpline
 62
7
  6
CONTINUOUS
 70
0
 71
3
 72
38
 73
34
 74
0
 42
0.0000001
 43
0.0000001
 44
0.0000000001
 40
0.0
 40
0.0
 40
0.0
 40
0.0
 40
0.0383795296
 40
0.0755854781
 40
0.1116517858
 40
0.1466174271
 40
0.1805285861
 40
0.2134374209
 40
0.2454018514
 40
0.2764859704
 40
0.3067602261
 40
0.3363016873
 40
0.365194456
 40
0.3935291172
 40
0.4214022252
 40
0.448915817
 40
0.4761763154
 40
0.50329337
 40
0.5303785864
 40
0.5575439701
 40
0.5849004859
 40
0.6125565624
 40
0.6406167984
 40
0.6691810206
 40
0.6983432585
 40
0.7281912017
 40
0.7902423727
 40
0.8226074553
 40
0.855942757
 40
0.8903032537
 40
0.9257379536
 40
0.9622906653
 40
1.0
 40
1.0
 40
1.0
 40
1.0
 10
13.4148147088
 20
7.8688876024
 30
0.0
 10
13.4136008593
 20
7.8677151138
 30
0.0
 10
13.4111736117
 20
7.8654435217
 30
0.0
 10
13.4074759023
 20
7.8622122859
 30
0.0
 10
13.4037798003
 20
7.8592118835
 30
0.0
 10
13.4000863818
 20
7.8564433685
 30
0.0
 10
13.3963966566
 20
7.8539075162
 30
0.0
 10
13.3927115549
 20
7.8516050271
 30
0.0
 10
13.3890319714
 20
7.8495366111
 30
0.0
 10
13.3853588764
 20
7.8477028728
 30
0.0
 10
13.3816932457
 20
7.8461044111
 30
0.0
 10
13.3780360438
 20
7.8447418612
 30
0.0
 10
13.3743882998
 20
7.8436156965
 30
0.0
 10
13.3707510498
 20
7.8427263488
 30
0.0
 10
13.3671253479
 20
7.8420742773
 30
0.0
 10
13.3635123149
 20
7.841659756
 30
0.0
 10
13.359913092
 20
7.8414829822
 30
0.0
 10
13.3563288466
 20
7.8415441516
 30
0.0
 10
13.3527607667
 20
7.8418432339
 30
0.0
 10
13.3492100227
 20
7.8423800882
 30
0.0
 10
13.345677784
 20
7.8431545638
 30
0.0
 10
13.3421651762
 20
7.8441662981
 30
0.0
 10
13.3386732585
 20
7.8454148414
 30
0.0
 10
13.3352031152
 20
7.8468997392
 30
0.0
 10
13.3317556201
 20
7.8486204724
 30
0.0
 10
13.3271313082
 20
7.8512620521
 30
0.0
 10
13.3226126106
 20
7.8543543078
 30
0.0
 10
13.3182117706
 20
7.8578477004
 30
0.0
 10
13.3148914581
 20
7.8607371406
 30
0.0
 10
13.3115993635
 20
7.8638578521
 30
0.0
 10
13.3083360634
 20
7.867209085
 30
0.0
 10
13.3051025334
 20
7.8707898378
 30
0.0
 10
13.3030005019
 20
7.8732898063
 30
0.0
 10
13.3019542433
 20
7.8745762358
 30
0.0
  0
SPLINE
  5
31E
100
AcDbEntity
  8
0
100
AcDbSpline
 62
7
  6
CONTINUOUS
 70
0
 71
3
 72
12
 73
8
 74
0
 42
0.0000001
 43
0.0000001
 44
0.0000000001
 40
0.0
 40
0.0
 40
0.0
 40
0.0
 40
0.2719523286
 40
0.5285187785
 40
0.6513682273
 40
0.7707873718
 40
1.0
 40
1.0
 40
1.0
 40
1.0
 10
13.2631643451
 20
8.0310549546
 30
0.0
 10
13.2613304529
 20
8.0292835507
 30
0.0
 10
13.2576650363
 20
8.0259435835
 30
0.0
 10
13.2528801491
 20
8.0221399332
 30
0.0
 10
13.2490565435
 20
8.0194446273
 30
0.0
 10
13.2453436811
 20
8.0170444448
 30
0.0
 10
13.2424877162
 20
8.0154429076
 30
0.0
 10
13.240564629
 20
8.0144837686
 30
0.0
  0
SPLINE
  5
31F
100
AcDbEntity
  8
0
100
AcDbSpline
 62
7
  6
CONTINUOUS
 70
0
 71
3
 72
93
 73
89
 74
0
 42
0.0000001
 43
0.0000001
 44
0.0000000001
 40
0.0
 40
0.0
 40
0.0
 40
0.0
 40
0.0038532674
 40
0.0078610825
 40
0.0120266881
 40
0.0163528408
 40
0.0208418907
 40
0.025495709
 40
0.0303155819
 40
0.0353023885
 40
0.0404566458
 40
0.0457785153
 40
0.051267903
 40
0.056924384
 40
0.062747299
 40
0.0687357676
 40
0.0748886542
 40
0.081204674
 40
0.0876823167
 40
0.0943199104
 40
0.1011156429
 40
0.1080675056
 40
0.1224308052
 40
0.1373914748
 40
0.1529289804
 40
0.1690210396
 40
0.1856437768
 40
0.2027718514
 40
0.2203785957
 40
0.238436131
 40
0.2569154694
 40
0.2757866034
 40
0.2950185956
 40
0.3145796775
 40
0.3344373331
 40
0.3545583797
 40
0.3749090429
 40
0.3954550405
 40
0.4161616659
 40
0.4369938631
 40
0.4579163029
 40
0.4788934586
 40
0.4998896877
 40
0.5208693074
 40
0.5417966695
 40
0.5626362368
 40
0.5833526646
 40
0.6039108756
 40
0.6242761359
 40
0.6444141308
 40
0.6642910495
 40
0.6838736665
 40
0.7031294163
 40
0.722026475
 40
0.7405338449
 40
0.7586214538
 40
0.7762602399
 40
0.7934222434
 40
0.810080708
 40
0.8262101992
 40
0.841786738
 40
0.8567879259
 40
0.8711931007
 40
0.8781663648
 40
0.8849837841
 40
0.8916433321
 40
0.898143169
 40
0.9044816072
 40
0.9106571059
 40
0.9166683551
 40
0.9225141943
 40
0.9281937058
 40
0.9337062056
 40
0.9390512273
 40
0.9442286314
 40
0.9492385361
 40
0.9540814122
 40
0.9587581135
 40
0.9632698626
 40
0.9676183921
 40
0.971805909
 40
0.9758352044
 40
0.9797097384
 40
0.9834336548
 40
0.9870119593
 40
0.9904505437
 40
0.993756316
 40
1.0
 40
1.0
 40
1.0
 40
1.0
 10
13.2631643451
 20
8.0310549546
 30
0.0
 10
13.2644813577
 20
8.0323270912
 30
0.0
 10
13.2671141002
 20
8.0349788935
 30
0.0
 10
13.2709848553
 20
8.0391852232
 30
0.0
 10
13.2748519427
 20
8.0436952973
 30
0.0
 10
13.2787134457
 20
8.0485069053
 30
0.0
 10
13.282567762
 20
8.0536178979
 30
0.0
 10
13.2864131787
 20
8.0590260693
 30
0.0
 10
13.290248061
 20
8.064728992
 30
0.0
 10
13.2940706602
 20
8.0707241213
 30
0.0
 10
13.2978792378
 20
8.0770087698
 30
0.0
 10
13.3016721348
 20
8.0835800949
 30
0.0
 10
13.3054475909
 20
8.0904351732
 30
0.0
 10
13.3092039481
 20
8.097570904
 30
0.0
 10
13.3129394999
 20
8.1049840789
 30
0.0
 10
13.31665253
 20
8.112671365
 30
0.0
 10
13.3203414082
 20
8.1206292791
 30
0.0
 10
13.324004414
 20
8.1288542455
 30
0.0
 10
13.3276399194
 20
8.1373425404
 30
0.0
 10
13.331246275
 20
8.146090327
 30
0.0
 10
13.3348218291
 20
8.1550936668
 30
0.0
 10
13.339598016
 20
8.1675692904
 30
0.0
 10
13.3454716272
 20
8.1837778698
 30
0.0
 10
13.352297344
 20
8.2039754272
 30
0.0
 10
13.3589624434
 20
8.22508959
 30
0.0
 10
13.3654547954
 20
8.2470821402
 30
0.0
 10
13.3717625751
 20
8.2699133706
 30
0.0
 10
13.3778743091
 20
8.2935419851
 30
0.0
 10
13.3837788778
 20
8.3179252344
 30
0.0
 10
13.3894655386
 20
8.3430189896
 30
0.0
 10
13.3949239435
 20
8.3687778264
 30
0.0
 10
13.4001441632
 20
8.395155101
 30
0.0
 10
13.4051167134
 20
8.4221030364
 30
0.0
 10
13.4098325562
 20
8.4495728164
 30
0.0
 10
13.4142831206
 20
8.4775146785
 30
0.0
 10
13.4184603141
 20
8.5058780002
 30
0.0
 10
13.4223565505
 20
8.5346113881
 30
0.0
 10
13.4259647586
 20
8.5636627736
 30
0.0
 10
13.4292783872
 20
8.592979512
 30
0.0
 10
13.4322914192
 20
8.6225084773
 30
0.0
 10
13.4349983807
 20
8.6521961566
 30
0.0
 10
13.4373943665
 20
8.6819887464
 30
0.0
 10
13.4394750345
 20
8.7118322533
 30
0.0
 10
13.4412366139
 20
8.741672592
 30
0.0
 10
13.4426759101
 20
8.7714556825
 30
0.0
 10
13.4437903161
 20
8.8011275484
 30
0.0
 10
13.444577826
 20
8.8306344161
 30
0.0
 10
13.4450370239
 20
8.8599228134
 30
0.0
 10
13.4451670895
 20
8.8889396634
 30
0.0
 10
13.4449677964
 20
8.9176323826
 30
0.0
 10
13.4444395255
 20
8.9459489785
 30
0.0
 10
13.4435832621
 20
8.9738381459
 30
0.0
 10
13.4424005839
 20
9.0012493574
 30
0.0
 10
13.4408936621
 20
9.0281329526
 30
0.0
 10
13.4390652547
 20
9.0544402333
 30
0.0
 10
13.4369187195
 20
9.0801235567
 30
0.0
 10
13.4344579938
 20
9.1051364231
 30
0.0
 10
13.4316875862
 20
9.1294335538
 30
0.0
 10
13.4286125685
 20
9.1529709799
 30
0.0
 10
13.4252385681
 20
9.1757061188
 30
0.0
 10
13.4215717788
 20
9.1975979069
 30
0.0
 10
13.4176189013
 20
9.2186067077
 30
0.0
 10
13.4140550622
 20
9.2355247162
 30
0.0
 10
13.4110594028
 20
9.2485845565
 30
0.0
 10
13.4087700327
 20
9.2580293035
 30
0.0
 10
13.4064147394
 20
9.2672257774
 30
0.0
 10
13.4039945984
 20
9.2761698318
 30
0.0
 10
13.4015107245
 20
9.2848574246
 30
0.0
 10
13.3989642009
 20
9.2932846247
 30
0.0
 10
13.3963562372
 20
9.3014476366
 30
0.0
 10
13.393687972
 20
9.3093427706
 30
0.0
 10
13.3909606251
 20
9.316966469
 30
0.0
 10
13.3881754554
 20
9.3243153048
 30
0.0
 10
13.3853336646
 20
9.3313859568
 30
0.0
 10
13.3824365926
 20
9.3381752639
 30
0.0
 10
13.3794855021
 20
9.34468017
 30
0.0
 10
13.3764817134
 20
9.3508977585
 30
0.0
 10
13.3734266062
 20
9.3568252651
 30
0.0
 10
13.3703214681
 20
9.3624600163
 30
0.0
 10
13.3671677288
 20
9.3677995281
 30
0.0
 10
13.3639667353
 20
9.3728414134
 30
0.0
 10
13.3607198524
 20
9.3775834222
 30
0.0
 10
13.3574285321
 20
9.3820234726
 30
0.0
 10
13.3540940505
 20
9.3861595678
 30
0.0
 10
13.3507179704
 20
9.3899897892
 30
0.0
 10
13.3473012192
 20
9.393512749
 30
0.0
 10
13.3427806681
 20
9.3977168764
 30
0.0
 10
13.3392044492
 20
9.4005335641
 30
0.0
 10
13.3367561686
 20
9.4022095928
 30
0.0
  0
SPLINE
  5
320
100
AcDbEntity
  8
0
100
AcDbSpline
 62
7
  6
CONTINUOUS
 70
0
 71
3
 72
48
 73
44
 74
0
 42
0.0000001
 43
0.0000001
 44
0.0000000001
 40
0.0
 40
0.0
 40
0.0
 40
0.0
 40
0.0149718897
 40
0.0299468369
 40
0.0449278839
 40
0.0599180336
 40
0.0749202322
 40
0.0899373568
 40
0.1049721887
 40
0.1200274064
 40
0.1351055645
 40
0.1502090774
 40
0.1653402142
 40
0.180501073
 40
0.1956935825
 40
0.2109194836
 40
0.2261803205
 40
0.2414774416
 40
0.2568119786
 40
0.2721848576
 40
0.3030428416
 40
0.3340598877
 40
0.365235493
 40
0.3965657058
 40
0.4280432614
 40
0.4596577825
 40
0.4913960356
 40
0.5232422374
 40
0.5551784039
 40
0.5871847345
 40
0.6192400218
 40
0.6513220815
 40
0.6834081967
 40
0.7154755701
 40
0.7475017768
 40
0.7794652126
 40
0.8113455287
 40
0.8431240501
 40
0.8747841728
 40
0.9063117021
 40
0.9376953081
 40
0.9689262526
 40
1.0
 40
1.0
 40
1.0
 40
1.0
 10
12.7874345911
 20
6.7883067717
 30
0.0
 10
12.7845808975
 20
6.7855503035
 30
0.0
 10
12.7787626926
 20
6.7801496243
 30
0.0
 10
12.7697193601
 20
6.7724009905
 30
0.0
 10
12.7603715667
 20
6.7650143967
 30
0.0
 10
12.7507322742
 20
6.7580002816
 30
0.0
 10
12.7408147774
 20
6.7513681477
 30
0.0
 10
12.7306326892
 20
6.745127201
 30
0.0
 10
12.7202000352
 20
6.7392860035
 30
0.0
 10
12.7095311949
 20
6.7338525469
 30
0.0
 10
12.6986408068
 20
6.728834394
 30
0.0
 10
12.6875439106
 20
6.7242383288
 30
0.0
 10
12.6762557346
 20
6.7200707675
 30
0.0
 10
12.6647918356
 20
6.7163373812
 30
0.0
 10
12.6531679865
 20
6.7130432884
 30
0.0
 10
12.6414001672
 20
6.7101930841
 30
0.0
 10
12.6295045781
 20
6.7077905674
 30
0.0
 10
12.6174976185
 20
6.7058391518
 30
0.0
 10
12.6053956031
 20
6.7043414253
 30
0.0
 10
12.5891368562
 20
6.7029504903
 30
0.0
 10
12.5686536475
 20
6.7023591003
 30
0.0
 10
12.5439987204
 20
6.7034839154
 30
0.0
 10
12.5193688388
 20
6.7064354008
 30
0.0
 10
12.4949002587
 20
6.7111971463
 30
0.0
 10
12.4707271146
 20
6.7177426968
 30
0.0
 10
12.4469821941
 20
6.726035874
 30
0.0
 10
12.4237958181
 20
6.7360309388
 30
0.0
 10
12.4012952352
 20
6.7476728342
 30
0.0
 10
12.3796039032
 20
6.7608974951
 30
0.0
 10
12.3588408365
 20
6.7756322157
 30
0.0
 10
12.3391199586
 20
6.7917960417
 30
0.0
 10
12.3205494874
 20
6.8093002119
 30
0.0
 10
12.3032313474
 20
6.8280486381
 30
0.0
 10
12.287260595
 20
6.84793841
 30
0.0
 10
12.2727249227
 20
6.8688603775
 30
0.0
 10
12.259704182
 20
6.8906997394
 30
0.0
 10
12.2482699489
 20
6.9133366686
 30
0.0
 10
12.2384851356
 20
6.9366469466
 30
0.0
 10
12.2304036366
 20
6.9605026809
 30
0.0
 10
12.2240699896
 20
6.984772812
 30
0.0
 10
12.2195192725
 20
7.0093245198
 30
0.0
 10
12.216776624
 20
7.0340212487
 30
0.0
 10
12.2161623415
 20
7.050538447
 30
0.0
 10
12.2161623415
 20
7.0587730489
 30
0.0
  0
SPLINE
  5
321
100
AcDbEntity
  8
0
100
AcDbSpline
 62
7
  6
CONTINUOUS
 70
0
 71
3
 72
23
 73
19
 74
0
 42
0.0000001
 43
0.0000001
 44
0.0000000001
 40
0.0
 40
0.0
 40
0.0
 40
0.0
 40
0.063776909
 40
0.1273449468
 40
0.1907019575
 40
0.2538561145
 40
0.3168131979
 40
0.3795820804
 40
0.4421733815
 40
0.5045993354
 40
0.5668738682
 40
0.6290123838
 40
0.6910316538
 40
0.75294965
 40
0.8147853622
 40
0.8765586114
 40
0.9382898593
 40
1.0
 40
1.0
 40
1.0
 40
1.0
 10
12.2161623415
 20
7.0587730489
 30
0.0
 10
12.2161623415
 20
7.0640804977
 30
0.0
 10
12.2164163855
 20
7.0746798113
 30
0.0
 10
12.2175629618
 20
7.0905142962
 30
0.0
 10
12.219472044
 20
7.106223274
 30
0.0
 10
12.2221390441
 20
7.1217698456
 30
0.0
 10
12.2255580163
 20
7.1371184785
 30
0.0
 10
12.2297210533
 20
7.1522336917
 30
0.0
 10
12.234618579
 20
7.1670806645
 30
0.0
 10
12.2402393446
 20
7.1816251592
 30
0.0
 10
12.2465704393
 20
7.1958336222
 30
0.0
 10
12.2535972922
 20
7.2096732803
 30
0.0
 10
12.2613036991
 20
7.2231122177
 30
0.0
 10
12.2696719156
 20
7.2361194409
 30
0.0
 10
12.2786826476
 20
7.2486649039
 30
0.0
 10
12.2883152359
 20
7.2607197546
 30
0.0
 10
12.2985470719
 20
7.2722558169
 30
0.0
 10
12.3057534083
 20
7.2795842937
 30
0.0
 10
12.3094470998
 20
7.2831521411
 30
0.0
  0
SPLINE
  5
322
100
AcDbEntity
  8
0
100
AcDbSpline
 62
7
  6
CONTINUOUS
 70
0
 71
3
 72
106
 73
102
 74
0
 42
0.0000001
 43
0.0000001
 44
0.0000000001
 40
0.0
 40
0.0
 40
0.0
 40
0.0
 40
0.0039488156
 40
0.0077208642
 40
0.0113255466
 40
0.014774449
 40
0.0180811375
 40
0.0212612834
 40
0.0243327965
 40
0.0273158649
 40
0.0302327157
 40
0.0331072823
 40
0.0359646543
 40
0.0388304194
 40
0.0417299252
 40
0.0446875655
 40
0.0477262125
 40
0.0508667678
 40
0.0541279623
 40
0.0575262394
 40
0.0610758525
 40
0.0647889515
 40
0.0686758091
 40
0.0727449745
 40
0.077003508
 40
0.0814571322
 40
0.0861104225
 40
0.090966936
 40
0.0960293458
 40
0.1012995509
 40
0.1067787576
 40
0.1124675783
 40
0.1183660687
 40
0.1244738232
 40
0.1307899754
 40
0.1373132952
 40
0.1440421612
 40
0.1509746603
 40
0.1581085392
 40
0.1654413071
 40
0.172970172
 40
0.1806921447
 40
0.188603967
 40
0.1967022127
 40
0.204983215
 40
0.21344316
 40
0.2220780184
 40
0.2308836293
 40
0.2489893614
 40
0.267724132
 40
0.2870492975
 40
0.3069242466
 40
0.3273065936
 40
0.3481523576
 40
0.3694161329
 40
0.3910512513
 40
0.4130099399
 40
0.4352434751
 40
0.4577023334
 40
0.4803363409
 40
0.503094821
 40
0.5259267415
 40
0.5487808608
 40
0.5716058744
 40
0.5943505605
 40
0.6169639263
 40
0.6393953542
 40
0.6615947493
 40
0.6835126873
 40
0.7051005635
 40
0.7263107448
 40
0.7470967239
 40
0.7674132772
 40
0.7872166286
 40
0.8064646206
 40
0.8251168952
 40
0.8431350894
 40
0.851895138
 40
0.8604832935
 40
0.8688954368
 40
0.8771275902
 40
0.8851759819
 40
0.8930370073
 40
0.9007072834
 40
0.908183626
 40
0.9154630921
 40
0.9225429765
 40
0.9294208407
 40
0.936094532
 40
0.9425621999
 40
0.9488223409
 40
0.9548738017
 40
0.9607158522
 40
0.9663481874
 40
0.9717710355
 40
0.9769851372
 40
0.9819918705
 40
0.9867933161
 40
0.9913924996
 40
0.9957932223
 40
1.0
 40
1.0
 40
1.0
 40
1.0
 10
13.4169171939
 20
9.5322738966
 30
0.0
 10
13.4186914833
 20
9.5339251638
 30
0.0
 10
13.4222384885
 20
9.5370716913
 30
0.0
 10
13.427681037
 20
9.5414021502
 30
0.0
 10
13.4331179211
 20
9.5452296358
 30
0.0
 10
13.4385460727
 20
9.548551493
 30
0.0
 10
13.4439628258
 20
9.5513653272
 30
0.0
 10
13.4493652585
 20
9.5536688893
 30
0.0
 10
13.454750361
 20
9.5554597984
 30
0.0
 10
13.4601147389
 20
9.5567361148
 30
0.0
 10
13.4654547237
 20
9.5574959118
 30
0.0
 10
13.470766192
 20
9.5577380387
 30
0.0
 10
13.476044747
 20
9.5574616874
 30
0.0
 10
13.4812858865
 20
9.5566671989
 30
0.0
 10
13.4864852117
 20
9.5553553864
 30
0.0
 10
13.4916387347
 20
9.5535280821
 30
0.0
 10
13.4967428162
 20
9.5511872968
 30
0.0
 10
13.5017943716
 20
9.548335619
 30
0.0
 10
13.5067905238
 20
9.5449755341
 30
0.0
 10
13.511728764
 20
9.5411098315
 30
0.0
 10
13.516606555
 20
9.5367411934
 30
0.0
 10
13.5214215376
 20
9.5318725638
 30
0.0
 10
13.5261712184
 20
9.5265069176
 30
0.0
 10
13.53085319
 20
9.5206475204
 30
0.0
 10
13.5354649207
 20
9.5142977986
 30
0.0
 10
13.5400039305
 20
9.5074614857
 30
0.0
 10
13.5444676715
 20
9.5001425563
 30
0.0
 10
13.548853628
 20
9.4923452882
 30
0.0
 10
13.5531592803
 20
9.4840742402
 30
0.0
 10
13.5573821209
 20
9.4753342615
 30
0.0
 10
13.5615196955
 20
9.4661304975
 30
0.0
 10
13.5655695401
 20
9.4564683698
 30
0.0
 10
13.5695292906
 20
9.4463535978
 30
0.0
 10
13.5733965528
 20
9.4357921654
 30
0.0
 10
13.5771690685
 20
9.4247903478
 30
0.0
 10
13.5808445319
 20
9.4133546754
 30
0.0
 10
13.584420801
 20
9.4014919594
 30
0.0
 10
13.5878956728
 20
9.3892092591
 30
0.0
 10
13.5912671275
 20
9.3765139015
 30
0.0
 10
13.594533077
 20
9.3634134552
 30
0.0
 10
13.5976916275
 20
9.3499157424
 30
0.0
 10
13.6007408158
 20
9.3360288211
 30
0.0
 10
13.6036788766
 20
9.321760988
 30
0.0
 10
13.6065039803
 20
9.3071207694
 30
0.0
 10
13.6092144932
 20
9.2921169147
 30
0.0
 10
13.6118087231
 20
9.2767583995
 30
0.0
 10
13.6142851833
 20
9.2610543923
 30
0.0
 10
13.617457381
 20
9.2394675182
 30
0.0
 10
13.6211071349
 20
9.2116865414
 30
0.0
 10
13.6249552846
 20
9.1774254765
 30
0.0
 10
13.6283020083
 20
9.1420209377
 30
0.0
 10
13.6311391995
 20
9.1055576598
 30
0.0
 10
13.6334599593
 20
9.0681227965
 30
0.0
 10
13.635258646
 20
9.0298058904
 30
0.0
 10
13.636530878
 20
8.9906986023
 30
0.0
 10
13.6372735457
 20
8.9508945022
 30
0.0
 10
13.6374848173
 20
8.9104888383
 30
0.0
 10
13.6371641424
 20
8.8695783077
 30
0.0
 10
13.6363122523
 20
8.8282608223
 30
0.0
 10
13.6349311583
 20
8.7866352734
 30
0.0
 10
13.6330241456
 20
8.7448012932
 30
0.0
 10
13.6305957659
 20
8.702859015
 30
0.0
 10
13.6276518253
 20
8.6609088326
 30
0.0
 10
13.624199371
 20
8.6190511585
 30
0.0
 10
13.6202466741
 20
8.5773861827
 30
0.0
 10
13.6158032096
 20
8.5360136319
 30
0.0
 10
13.6108796342
 20
8.4950325292
 30
0.0
 10
13.6054877607
 20
8.4545409562
 30
0.0
 10
13.5996405303
 20
8.4146358161
 30
0.0
 10
13.5933519818
 20
8.3754126008
 30
0.0
 10
13.5866372186
 20
8.3369651592
 30
0.0
 10
13.5795123729
 20
8.2993854715
 30
0.0
 10
13.5719945681
 20
8.2627634213
 30
0.0
 10
13.5641018774
 20
8.2271865917
 30
0.0
 10
13.555853284
 20
8.1927399962
 30
0.0
 10
13.5472686261
 20
8.1595060613
 30
0.0
 10
13.5397835219
 20
8.1326419618
 30
0.0
 10
13.5336348279
 20
8.1118225966
 30
0.0
 10
13.5289954946
 20
8.0967064063
 30
0.0
 10
13.5242879563
 20
8.0819510713
 30
0.0
 10
13.5195149786
 20
8.0675654058
 30
0.0
 10
13.5146794624
 20
8.0535580086
 30
0.0
 10
13.5097842753
 20
8.0399372534
 30
0.0
 10
13.5048323765
 20
8.0267112747
 30
0.0
 10
13.4998267148
 20
8.0138879737
 30
0.0
 10
13.4947703018
 20
8.0014750037
 30
0.0
 10
13.4896661604
 20
7.9894797714
 30
0.0
 10
13.484517345
 20
7.9779094302
 30
0.0
 10
13.4793269451
 20
7.9667708713
 30
0.0
 10
13.4740980465
 20
7.95607073
 30
0.0
 10
13.4688337955
 20
7.9458153619
 30
0.0
 10
13.4635372985
 20
7.9360108695
 30
0.0
 10
13.4582117495
 20
7.9266630522
 30
0.0
 10
13.4528602569
 20
7.917777459
 30
0.0
 10
13.4474860351
 20
7.9093593147
 30
0.0
 10
13.442092192
 20
7.9014136244
 30
0.0
 10
13.4366819724
 20
7.8939450248
 30
0.0
 10
13.4312584222
 20
7.8869579141
 30
0.0
 10
13.4258246146
 20
7.8804562546
 30
0.0
 10
13.4203838402
 20
7.8744442036
 30
0.0
 10
13.4166719204
 20
7.8706815312
 30
0.0
 10
13.4148147088
 20
7.8688876024
 30
0.0
  0
SPLINE
  5
323
100
AcDbEntity
  8
0
100
AcDbSpline
 62
4
  6
CONTINUOUS
 70
0
 71
3
 72
411
 73
407
 74
0
 42
0.0000001
 43
0.0000001
 44
0.0000000001
 40
0.0
 40
0.0
 40
0.0
 40
0.0
 40
0.015625
 40
0.0234375
 40
0.03125
 40
0.0390625
 40
0.04296875
 40
0.046875
 40
0.05078125
 40
0.0546875
 40
0.056640625
 40
0.05859375
 40
0.0595703125
 40
0.060546875
 40
0.0615234375
 40
0.0620117188
 40
0.0622558594
 40
0.0625
 40
0.0627441406
 40
0.0629882812
 40
0.0634765625
 40
0.064453125
 40
0.0654296875
 40
0.06640625
 40
0.068359375
 40
0.0703125
 40
0.07421875
 40
0.078125
 40
0.08203125
 40
0.0859375
 40
0.09375
 40
0.1015625
 40
0.10546875
 40
0.109375
 40
0.11328125
 40
0.1171875
 40
0.119140625
 40
0.12109375
 40
0.1220703125
 40
0.123046875
 40
0.1240234375
 40
0.1245117188
 40
0.1247558594
 40
0.125
 40
0.1252441406
 40
0.1254882812
 40
0.1259765625
 40
0.126953125
 40
0.1279296875
 40
0.12890625
 40
0.130859375
 40
0.1328125
 40
0.13671875
 40
0.140625
 40
0.14453125
 40
0.1484375
 40
0.15625
 40
0.1640625
 40
0.16796875
 40
0.171875
 40
0.17578125
 40
0.177734375
 40
0.1796875
 40
0.181640625
 40
0.18359375
 40
0.1845703125
 40
0.185546875
 40
0.1865234375
 40
0.1870117188
 40
0.1872558594
 40
0.1875
 40
0.1877441406
 40
0.1879882812
 40
0.1884765625
 40
0.189453125
 40
0.1904296875
 40
0.19140625
 40
0.193359375
 40
0.1953125
 40
0.197265625
 40
0.19921875
 40
0.203125
 40
0.20703125
 40
0.2109375
 40
0.21875
 40
0.2265625
 40
0.23046875
 40
0.234375
 40
0.23828125
 40
0.240234375
 40
0.2421875
 40
0.244140625
 40
0.24609375
 40
0.2470703125
 40
0.248046875
 40
0.2490234375
 40
0.2495117188
 40
0.2497558594
 40
0.25
 40
0.2502441406
 40
0.2504882812
 40
0.2509765625
 40
0.251953125
 40
0.2529296875
 40
0.25390625
 40
0.255859375
 40
0.2578125
 40
0.259765625
 40
0.26171875
 40
0.265625
 40
0.26953125
 40
0.2734375
 40
0.28125
 40
0.2890625
 40
0.29296875
 40
0.296875
 40
0.30078125
 40
0.302734375
 40
0.3046875
 40
0.306640625
 40
0.30859375
 40
0.3095703125
 40
0.310546875
 40
0.3115234375
 40
0.3120117188
 40
0.3122558594
 40
0.3125
 40
0.3127441406
 40
0.3129882812
 40
0.3134765625
 40
0.314453125
 40
0.3154296875
 40
0.31640625
 40
0.318359375
 40
0.3203125
 40
0.322265625
 40
0.32421875
 40
0.328125
 40
0.33203125
 40
0.3359375
 40
0.34375
 40
0.3515625
 40
0.35546875
 40
0.359375
 40
0.36328125
 40
0.3671875
 40
0.369140625
 40
0.37109375
 40
0.3720703125
 40
0.373046875
 40
0.3740234375
 40
0.3745117188
 40
0.3747558594
 40
0.375
 40
0.3752441406
 40
0.3754882812
 40
0.3759765625
 40
0.376953125
 40
0.3779296875
 40
0.37890625
 40
0.380859375
 40
0.3828125
 40
0.38671875
 40
0.390625
 40
0.39453125
 40
0.3984375
 40
0.40625
 40
0.4140625
 40
0.41796875
 40
0.421875
 40
0.42578125
 40
0.427734375
 40
0.4296875
 40
0.431640625
 40
0.43359375
 40
0.4345703125
 40
0.435546875
 40
0.4365234375
 40
0.4370117188
 40
0.4372558594
 40
0.4375
 40
0.4377441406
 40
0.4379882812
 40
0.4384765625
 40
0.439453125
 40
0.4404296875
 40
0.44140625
 40
0.443359375
 40
0.4453125
 40
0.447265625
 40
0.44921875
 40
0.453125
 40
0.45703125
 40
0.4609375
 40
0.46875
 40
0.4765625
 40
0.48046875
 40
0.484375
 40
0.48828125
 40
0.4921875
 40
0.494140625
 40
0.49609375
 40
0.4970703125
 40
0.498046875
 40
0.4990234375
 40
0.4995117188
 40
0.4997558594
 40
0.5
 40
0.5002441406
 40
0.5004882812
 40
0.5009765625
 40
0.501953125
 40
0.5029296875
 40
0.50390625
 40
0.505859375
 40
0.5078125
 40
0.51171875
 40
0.515625
 40
0.51953125
 40
0.5234375
 40
0.53125
 40
0.5390625
 40
0.54296875
 40
0.546875
 40
0.55078125
 40
0.5546875
 40
0.556640625
 40
0.55859375
 40
0.5595703125
 40
0.560546875
 40
0.5615234375
 40
0.5620117188
 40
0.5622558594
 40
0.5625
 40
0.5627441406
 40
0.5629882812
 40
0.5634765625
 40
0.564453125
 40
0.5654296875
 40
0.56640625
 40
0.568359375
 40
0.5703125
 40
0.57421875
 40
0.578125
 40
0.58203125
 40
0.5859375
 40
0.59375
 40
0.6015625
 40
0.60546875
 40
0.609375
 40
0.61328125
 40
0.6171875
 40
0.619140625
 40
0.62109375
 40
0.6220703125
 40
0.623046875
 40
0.6240234375
 40
0.6245117188
 40
0.6247558594
 40
0.625
 40
0.6252441406
 40
0.6254882812
 40
0.6259765625
 40
0.626953125
 40
0.6279296875
 40
0.62890625
 40
0.630859375
 40
0.6328125
 40
0.63671875
 40
0.640625
 40
0.64453125
 40
0.6484375
 40
0.65625
 40
0.6640625
 40
0.66796875
 40
0.671875
 40
0.67578125
 40
0.6796875
 40
0.681640625
 40
0.68359375
 40
0.6845703125
 40
0.685546875
 40
0.6865234375
 40
0.6870117188
 40
0.6872558594
 40
0.6875
 40
0.6877441406
 40
0.6879882812
 40
0.6884765625
 40
0.689453125
 40
0.6904296875
 40
0.69140625
 40
0.693359375
 40
0.6953125
 40
0.69921875
 40
0.703125
 40
0.70703125
 40
0.7109375
 40
0.71875
 40
0.7265625
 40
0.73046875
 40
0.734375
 40
0.73828125
 40
0.7421875
 40
0.744140625
 40
0.74609375
 40
0.7470703125
 40
0.748046875
 40
0.7490234375
 40
0.7495117188
 40
0.7497558594
 40
0.75
 40
0.7502441406
 40
0.7504882812
 40
0.7509765625
 40
0.751953125
 40
0.7529296875
 40
0.75390625
 40
0.755859375
 40
0.7578125
 40
0.76171875
 40
0.765625
 40
0.76953125
 40
0.7734375
 40
0.78125
 40
0.7890625
 40
0.79296875
 40
0.796875
 40
0.80078125
 40
0.8046875
 40
0.806640625
 40
0.80859375
 40
0.8095703125
 40
0.810546875
 40
0.8115234375
 40
0.8120117188
 40
0.8122558594
 40
0.8125
 40
0.8127441406
 40
0.8129882812
 40
0.8134765625
 40
0.814453125
 40
0.8154296875
 40
0.81640625
 40
0.818359375
 40
0.8203125
 40
0.82421875
 40
0.828125
 40
0.83203125
 40
0.8359375
 40
0.84375
 40
0.8515625
 40
0.85546875
 40
0.859375
 40
0.86328125
 40
0.8671875
 40
0.869140625
 40
0.87109375
 40
0.8720703125
 40
0.873046875
 40
0.8740234375
 40
0.8745117188
 40
0.8747558594
 40
0.875
 40
0.8752441406
 40
0.8754882812
 40
0.8759765625
 40
0.876953125
 40
0.8779296875
 40
0.87890625
 40
0.880859375
 40
0.8828125
 40
0.88671875
 40
0.890625
 40
0.89453125
 40
0.8984375
 40
0.90625
 40
0.9140625
 40
0.91796875
 40
0.921875
 40
0.92578125
 40
0.9296875
 40
0.931640625
 40
0.93359375
 40
0.9345703125
 40
0.935546875
 40
0.9365234375
 40
0.9370117188
 40
0.9372558594
 40
0.9375
 40
0.9377441406
 40
0.9379882812
 40
0.9384765625
 40
0.939453125
 40
0.9404296875
 40
0.94140625
 40
0.943359375
 40
0.9453125
 40
0.94921875
 40
0.953125
 40
0.95703125
 40
0.9609375
 40
0.96875
 40
0.9765625
 40
0.984375
 40
1.0
 40
1.0
 40
1.0
 40
1.0
 10
10.6764764606
 20
7.7277194794
 30
0.0
 10
10.6702100868
 20
7.7275396306
 30
0.0
 10
10.660810526
 20
7.7272698574
 30
0.0
 10
10.6482777784
 20
7.7269101598
 30
0.0
 10
10.6388782176
 20
7.7266403864
 30
0.0
 10
10.6310452503
 20
7.7264155757
 30
0.0
 10
10.6247788766
 20
7.7262357262
 30
0.0
 10
10.6200790958
 20
7.7261008416
 30
0.0
 10
10.6153793169
 20
7.7259659475
 30
0.0
 10
10.6114628287
 20
7.7258535652
 30
0.0
 10
10.608329651
 20
7.7257635934
 30
0.0
 10
10.6063713856
 20
7.7257075113
 30
0.0
 10
10.6048048405
 20
7.7256623015
 30
0.0
 10
10.6036297477
 20
7.725629336
 30
0.0
 10
10.6026510889
 20
7.7255988689
 30
0.0
 10
10.6019648794
 20
7.7255834212
 30
0.0
 10
10.6015745527
 20
7.7255654139
 30
0.0
 10
10.6012767566
 20
7.7255777689
 30
0.0
 10
10.6009982685
 20
7.725491272
 30
0.0
 10
10.6006202162
 20
7.7254104234
 30
0.0
 10
10.5999617625
 20
7.7252528733
 30
0.0
 10
10.599019474
 20
7.7250362008
 30
0.0
 10
10.5978894298
 20
7.7247725987
 30
0.0
 10
10.5963824591
 20
7.7244223849
 30
0.0
 10
10.5944988296
 20
7.7239841878
 30
0.0
 10
10.5914849756
 20
7.7232833126
 30
0.0
 10
10.5877176741
 20
7.7224071362
 30
0.0
 10
10.5831969055
 20
7.7213557598
 30
0.0
 10
10.5786761387
 20
7.720304374
 30
0.0
 10
10.5726484489
 20
7.7189025296
 30
0.0
 10
10.565113837
 20
7.7171502228
 30
0.0
 10
10.5575792249
 20
7.7153979169
 30
0.0
 10
10.5515515355
 20
7.7139960711
 30
0.0
 10
10.5470307675
 20
7.7129446892
 30
0.0
 10
10.5425100032
 20
7.7118932983
 30
0.0
 10
10.5387426883
 20
7.7110171673
 30
0.0
 10
10.5357288617
 20
7.7103161994
 30
0.0
 10
10.5338451624
 20
7.7098782382
 30
0.0
 10
10.5323383349
 20
7.7095275402
 30
0.0
 10
10.5312078533
 20
7.7092654173
 30
0.0
 10
10.5302669334
 20
7.7090441166
 30
0.0
 10
10.5296060365
 20
7.7088948286
 30
0.0
 10
10.5292318989
 20
7.7088007422
 30
0.0
 10
10.5289413859
 20
7.7087549078
 30
0.0
 10
10.5286887535
 20
7.7086145411
 30
0.0
 10
10.5283386972
 20
7.7084603593
 30
0.0
 10
10.5277322548
 20
7.7081751781
 30
0.0
 10
10.52686269
 20
7.7077758084
 30
0.0
 10
10.5258205899
 20
7.7072931267
 30
0.0
 10
10.524430642
 20
7.706650752
 30
0.0
 10
10.5226933717
 20
7.7058473725
 30
0.0
 10
10.5199136473
 20
7.7045621951
 30
0.0
 10
10.5164390234
 20
7.7029556444
 30
0.0
 10
10.5122694611
 20
7.7010278174
 30
0.0
 10
10.5080999024
 20
7.6990999814
 30
0.0
 10
10.5025404897
 20
7.6965295365
 30
0.0
 10
10.4955912241
 20
7.6933164793
 30
0.0
 10
10.4886419584
 20
7.6901034224
 30
0.0
 10
10.4830825458
 20
7.687532977
 30
0.0
 10
10.4789129866
 20
7.6856051424
 30
0.0
 10
10.475438353
 20
7.6839986155
 30
0.0
 10
10.4726586484
 20
7.6827133896
 30
0.0
 10
10.4705738636
 20
7.6817494822
 30
0.0
 10
10.468489103
 20
7.6807855286
 30
0.0
 10
10.466751727
 20
7.6799823781
 30
0.0
 10
10.4653619954
 20
7.6793395348
 30
0.0
 10
10.4643192342
 20
7.6788582846
 30
0.0
 10
10.463451738
 20
7.6784544364
 30
0.0
 10
10.4628416028
 20
7.6781772499
 30
0.0
 10
10.4624974634
 20
7.6780102586
 30
0.0
 10
10.4622266558
 20
7.6779092388
 30
0.0
 10
10.4620044058
 20
7.6777156237
 30
0.0
 10
10.4616911351
 20
7.6774897686
 30
0.0
 10
10.4611508027
 20
7.6770794737
 30
0.0
 10
10.4603747735
 20
7.6765012056
 30
0.0
 10
10.4594453045
 20
7.6758039164
 30
0.0
 10
10.4582053956
 20
7.6748753737
 30
0.0
 10
10.4566557212
 20
7.6737142918
 30
0.0
 10
10.4547960211
 20
7.6723211664
 30
0.0
 10
10.4529363453
 20
7.6709279948
 30
0.0
 10
10.4504567691
 20
7.6690704488
 30
0.0
 10
10.4473573017
 20
7.6667485108
 30
0.0
 10
10.4436379396
 20
7.6639621875
 30
0.0
 10
10.4386787906
 20
7.660247089
 30
0.0
 10
10.4324798542
 20
7.6556032162
 30
0.0
 10
10.4262809179
 20
7.6509593432
 30
0.0
 10
10.4213217686
 20
7.647244245
 30
0.0
 10
10.4176024072
 20
7.6444579208
 30
0.0
 10
10.4145029377
 20
7.6421359855
 30
0.0
 10
10.4120233659
 20
7.6402784339
 30
0.0
 10
10.4101636768
 20
7.6388852795
 30
0.0
 10
10.4083040266
 20
7.6374920897
 30
0.0
 10
10.4067541968
 20
7.6363312082
 30
0.0
 10
10.4055146046
 20
7.6354022567
 30
0.0
 10
10.4045841685
 20
7.6347062161
 30
0.0
 10
10.4038111651
 20
7.6341240415
 30
0.0
 10
10.4032654313
 20
7.6337207204
 30
0.0
 10
10.4029608149
 20
7.6334836915
 30
0.0
 10
10.4027119813
 20
7.6333243988
 30
0.0
 10
10.4025410174
 20
7.6330944698
 30
0.0
 10
10.4022859036
 20
7.6328125365
 30
0.0
 10
10.4018521097
 20
7.6323076736
 30
0.0
 10
10.4012257879
 20
7.6315924425
 30
0.0
 10
10.4004770337
 20
7.6307315964
 30
0.0
 10
10.3994777055
 20
7.6295846988
 30
0.0
 10
10.3982288848
 20
7.628150769
 30
0.0
 10
10.3967301543
 20
7.6264301852
 30
0.0
 10
10.3952314628
 20
7.624709566
 30
0.0
 10
10.3932331939
 20
7.6224154195
 30
0.0
 10
10.3907353623
 20
7.6195477322
 30
0.0
 10
10.3877379625
 20
7.6161065092
 30
0.0
 10
10.3837414301
 20
7.6115182112
 30
0.0
 10
10.3787457644
 20
7.6057828389
 30
0.0
 10
10.3737500988
 20
7.6000474665
 30
0.0
 10
10.3697535661
 20
7.5954591688
 30
0.0
 10
10.3667561672
 20
7.5920179451
 30
0.0
 10
10.3642583329
 20
7.5891502599
 30
0.0
 10
10.3622600695
 20
7.5868561089
 30
0.0
 10
10.3607613611
 20
7.5851355036
 30
0.0
 10
10.359262694
 20
7.5834148678
 30
0.0
 10
10.3580136762
 20
7.5819810997
 30
0.0
 10
10.3570147499
 20
7.5808338724
 30
0.0
 10
10.3562647682
 20
7.5799740334
 30
0.0
 10
10.3556422869
 20
7.5792556513
 30
0.0
 10
10.355201637
 20
7.5787564135
 30
0.0
 10
10.3549575084
 20
7.5784654673
 30
0.0
 10
10.3547528017
 20
7.578263223
 30
0.0
 10
10.3546307
 20
7.577999951
 30
0.0
 10
10.3544390841
 20
7.5776702088
 30
0.0
 10
10.3541171811
 20
7.5770832418
 30
0.0
 10
10.353650301
 20
7.5762499028
 30
0.0
 10
10.3530930491
 20
7.5752476765
 30
0.0
 10
10.3523489972
 20
7.5739121501
 30
0.0
 10
10.3514192924
 20
7.5722424761
 30
0.0
 10
10.3503034923
 20
7.5702389813
 30
0.0
 10
10.3491877334
 20
7.568235456
 30
0.0
 10
10.3477000406
 20
7.5655640996
 30
0.0
 10
10.3458404294
 20
7.5622249004
 30
0.0
 10
10.3436088939
 20
7.5582178629
 30
0.0
 10
10.340633514
 20
7.5528751458
 30
0.0
 10
10.336914289
 20
7.5461967495
 30
0.0
 10
10.3331950636
 20
7.5395183534
 30
0.0
 10
10.3302196842
 20
7.534175636
 30
0.0
 10
10.3279881473
 20
7.5301685992
 30
0.0
 10
10.3257566192
 20
7.526161558
 30
0.0
 10
10.3238969851
 20
7.5228223704
 30
0.0
 10
10.3224093391
 20
7.5201509905
 30
0.0
 10
10.3214794209
 20
7.5184814458
 30
0.0
 10
10.3207358056
 20
7.5171456549
 30
0.0
 10
10.3201772199
 20
7.5161442364
 30
0.0
 10
10.3197145131
 20
7.5153083703
 30
0.0
 10
10.3193851601
 20
7.5147259146
 30
0.0
 10
10.319205481
 20
7.5143889441
 30
0.0
 10
10.3190467132
 20
7.514147875
 30
0.0
 10
10.318979718
 20
7.5138622401
 30
0.0
 10
10.3188583798
 20
7.5134969387
 30
0.0
 10
10.3186609527
 20
7.5128504185
 30
0.0
 10
10.3183711163
 20
7.5119306048
 30
0.0
 10
10.3180266502
 20
7.5108252076
 30
0.0
 10
10.3175661964
 20
7.5093519107
 30
0.0
 10
10.3169910282
 20
7.5075100958
 30
0.0
 10
10.3160705361
 20
7.5045633003
 30
0.0
 10
10.3149199975
 20
7.5008797687
 30
0.0
 10
10.3135393184
 20
7.4964595468
 30
0.0
 10
10.312158648
 20
7.4920393205
 30
0.0
 10
10.3103177512
 20
7.4861456871
 30
0.0
 10
10.3080166311
 20
7.4787786447
 30
0.0
 10
10.3057155108
 20
7.4714116025
 30
0.0
 10
10.3038746144
 20
7.4655179688
 30
0.0
 10
10.3024939427
 20
7.4610977433
 30
0.0
 10
10.3013433809
 20
7.4574142228
 30
0.0
 10
10.3004229361
 20
7.4544674047
 30
0.0
 10
10.2997325898
 20
7.4522572957
 30
0.0
 10
10.2990422921
 20
7.450047169
 30
0.0
 10
10.2984668924
 20
7.4482054521
 30
0.0
 10
10.2980069124
 20
7.4467319547
 30
0.0
 10
10.297660999
 20
7.44562717
 30
0.0
 10
10.2973756907
 20
7.4447054398
 30
0.0
 10
10.2971701802
 20
7.4440623409
 30
0.0
 10
10.2970617935
 20
7.4436915577
 30
0.0
 10
10.2969550153
 20
7.4434227613
 30
0.0
 10
10.2969456661
 20
7.4431184499
 30
0.0
 10
10.2968992161
 20
7.4427250895
 30
0.0
 10
10.2968337625
 20
7.4420309369
 30
0.0
 10
10.2967319792
 20
7.4410423079
 30
0.0
 10
10.2966133827
 20
7.4398546615
 30
0.0
 10
10.2964540161
 20
7.4382715841
 30
0.0
 10
10.2962552327
 20
7.4362925826
 30
0.0
 10
10.2960165106
 20
7.4339178471
 30
0.0
 10
10.2957778371
 20
7.4315430938
 30
0.0
 10
10.2954595888
 20
7.4283767624
 30
0.0
 10
10.2950617843
 20
7.424418846
 30
0.0
 10
10.2945844164
 20
7.4196693472
 30
0.0
 10
10.2939479267
 20
7.4133366818
 30
0.0
 10
10.2931523144
 20
7.4054208501
 30
0.0
 10
10.2923567018
 20
7.3975050185
 30
0.0
 10
10.2917202126
 20
7.3911723531
 30
0.0
 10
10.2912428431
 20
7.3864228541
 30
0.0
 10
10.2907654834
 20
7.3816733553
 30
0.0
 10
10.2903676534
 20
7.377715439
 30
0.0
 10
10.290049457
 20
7.3745491072
 30
0.0
 10
10.2898504305
 20
7.372570147
 30
0.0
 10
10.2896915614
 20
7.3709869854
 30
0.0
 10
10.2895714455
 20
7.369799596
 30
0.0
 10
10.2894744157
 20
7.3688101629
 30
0.0
 10
10.2894004764
 20
7.3681174458
 30
0.0
 10
10.2893676227
 20
7.3677217854
 30
0.0
 10
10.28931651
 20
7.3674245389
 30
0.0
 10
10.2893665883
 20
7.367129208
 30
0.0
 10
10.2893980629
 20
7.3667347654
 30
0.0
 10
10.2894695887
 20
7.3660448021
 30
0.0
 10
10.2895631705
 20
7.3650589774
 30
0.0
 10
10.289679149
 20
7.3638760576
 30
0.0
 10
10.2898325014
 20
7.3622988067
 30
0.0
 10
10.2900246321
 20
7.3603272515
 30
0.0
 10
10.2903317953
 20
7.3571727584
 30
0.0
 10
10.2907158337
 20
7.3532296437
 30
0.0
 10
10.2911766435
 20
7.3484979054
 30
0.0
 10
10.2916374631
 20
7.3437661673
 30
0.0
 10
10.2922518857
 20
7.337457183
 30
0.0
 10
10.2930199153
 20
7.3295709527
 30
0.0
 10
10.293787944
 20
7.3216847224
 30
0.0
 10
10.294402368
 20
7.3153757382
 30
0.0
 10
10.2948631835
 20
7.3106439998
 30
0.0
 10
10.2953240084
 20
7.3059122626
 30
0.0
 10
10.2957080001
 20
7.3019691445
 30
0.0
 10
10.2960152585
 20
7.2988146584
 30
0.0
 10
10.2962071468
 20
7.2968430855
 30
0.0
 10
10.2963609968
 20
7.2952658708
 30
0.0
 10
10.2964754553
 20
7.2940828403
 30
0.0
 10
10.2965737926
 20
7.2930973618
 30
0.0
 10
10.2966368291
 20
7.2924067807
 30
0.0
 10
10.2966819057
 20
7.2920133279
 30
0.0
 10
10.2966902029
 20
7.2917149564
 30
0.0
 10
10.296796013
 20
7.2914291303
 30
0.0
 10
10.2969030796
 20
7.2910436529
 30
0.0
 10
10.2971062936
 20
7.2903711063
 30
0.0
 10
10.2973883141
 20
7.2894092596
 30
0.0
 10
10.297730285
 20
7.2882554997
 30
0.0
 10
10.2981850075
 20
7.2867169938
 30
0.0
 10
10.2987538348
 20
7.2847939161
 30
0.0
 10
10.2996637215
 20
7.2817169612
 30
0.0
 10
10.3008011612
 20
7.277870778
 30
0.0
 10
10.3021660539
 20
7.2732553537
 30
0.0
 10
10.3035309559
 20
7.2686399306
 30
0.0
 10
10.3053508221
 20
7.2624860327
 30
0.0
 10
10.307625656
 20
7.2547936606
 30
0.0
 10
10.309900489
 20
7.2471012882
 30
0.0
 10
10.3117203565
 20
7.2409473906
 30
0.0
 10
10.3130852547
 20
7.2363319666
 30
0.0
 10
10.3144501617
 20
7.2317165457
 30
0.0
 10
10.3155875569
 20
7.2278703521
 30
0.0
 10
10.3164975343
 20
7.2247934184
 30
0.0
 10
10.3170661306
 20
7.2228702869
 30
0.0
 10
10.3175213274
 20
7.2213318913
 30
0.0
 10
10.3178618494
 20
7.2201777945
 30
0.0
 10
10.3181484031
 20
7.219217002
 30
0.0
 10
10.3183435245
 20
7.2185425733
 30
0.0
 10
10.3184635575
 20
7.2181601115
 30
0.0
 10
10.3185295389
 20
7.2178650226
 30
0.0
 10
10.3186874258
 20
7.2176014407
 30
0.0
 10
10.3188658841
 20
7.2172390082
 30
0.0
 10
10.3191931222
 20
7.2166098719
 30
0.0
 10
10.3196527965
 20
7.2157084285
 30
0.0
 10
10.320207748
 20
7.2146278424
 30
0.0
 10
10.3209465159
 20
7.2131866607
 30
0.0
 10
10.3218703755
 20
7.2113853206
 30
0.0
 10
10.3233483275
 20
7.2085030999
 30
0.0
 10
10.3251958442
 20
7.2049003502
 30
0.0
 10
10.3274128313
 20
7.2005770394
 30
0.0
 10
10.3296298272
 20
7.1962537315
 30
0.0
 10
10.3325858187
 20
7.19048932
 30
0.0
 10
10.3362808092
 20
7.1832838061
 30
0.0
 10
10.3399757989
 20
7.1760782918
 30
0.0
 10
10.3429317916
 20
7.1703138808
 30
0.0
 10
10.3451487839
 20
7.1659905714
 30
0.0
 10
10.3473657847
 20
7.1616672662
 30
0.0
 10
10.3492132588
 20
7.1580644991
 30
0.0
 10
10.3506912976
 20
7.1551823138
 30
0.0
 10
10.3516149363
 20
7.1533808836
 30
0.0
 10
10.3523541577
 20
7.1519398869
 30
0.0
 10
10.3529077237
 20
7.1508587356
 30
0.0
 10
10.3533717329
 20
7.1499590604
 30
0.0
 10
10.3536912324
 20
7.1493267677
 30
0.0
 10
10.3538820899
 20
7.1489693924
 30
0.0
 10
10.3540018902
 20
7.1486902766
 30
0.0
 10
10.3542109184
 20
7.1484535305
 30
0.0
 10
10.354458499
 20
7.1481230899
 30
0.0
 10
10.354906266
 20
7.1475517048
 30
0.0
 10
10.3555383519
 20
7.1467318403
 30
0.0
 10
10.3563001
 20
7.1457495439
 30
0.0
 10
10.3573146307
 20
7.1444392771
 30
0.0
 10
10.3585831822
 20
7.1428016279
 30
0.0
 10
10.3606126477
 20
7.1401812862
 30
0.0
 10
10.363149554
 20
7.1369058943
 30
0.0
 10
10.3661938096
 20
7.132975409
 30
0.0
 10
10.3692380738
 20
7.1290449277
 30
0.0
 10
10.3732970897
 20
7.1238042846
 30
0.0
 10
10.3783708607
 20
7.1172534812
 30
0.0
 10
10.383444631
 20
7.1107026774
 30
0.0
 10
10.387503648
 20
7.105462035
 30
0.0
 10
10.390547909
 20
7.1015315514
 30
0.0
 10
10.3935921764
 20
7.0976010748
 30
0.0
 10
10.3961290463
 20
7.0943256558
 30
0.0
 10
10.3981585859
 20
7.0917053695
 30
0.0
 10
10.3994269489
 20
7.0900675792
 30
0.0
 10
10.4004418664
 20
7.0887576021
 30
0.0
 10
10.401202433
 20
7.0877744205
 30
0.0
 10
10.4018382156
 20
7.0869573254
 30
0.0
 10
10.4022793834
 20
7.0863809965
 30
0.0
 10
10.4025375376
 20
7.0860584771
 30
0.0
 10
10.4027140869
 20
7.0857973998
 30
0.0
 10
10.4029558723
 20
7.085609668
 30
0.0
 10
10.4032554978
 20
7.0853337751
 30
0.0
 10
10.4037904445
 20
7.0848628825
 30
0.0
 10
10.4045491111
 20
7.084183947
 30
0.0
 10
10.4054618835
 20
7.0833718918
 30
0.0
 10
10.4066780847
 20
7.0822882199
 30
0.0
 10
10.40819862
 20
7.080933949
 30
0.0
 10
10.4106313179
 20
7.0787669372
 30
0.0
 10
10.4136722447
 20
7.0760582337
 30
0.0
 10
10.4173213336
 20
7.0728077632
 30
0.0
 10
10.4209704286
 20
7.0695572998
 30
0.0
 10
10.4258358865
 20
7.0652233461
 30
0.0
 10
10.4319177097
 20
7.0598059049
 30
0.0
 10
10.4379995324
 20
7.054388463
 30
0.0
 10
10.4428649911
 20
7.0500545104
 30
0.0
 10
10.4465140837
 20
7.0468040439
 30
0.0
 10
10.4501631816
 20
7.0435535849
 30
0.0
 10
10.4532040801
 20
7.0408448456
 30
0.0
 10
10.4556368358
 20
7.0386779068
 30
0.0
 10
10.4571572241
 20
7.0373234503
 30
0.0
 10
10.4583737271
 20
7.0362401592
 30
0.0
 10
10.4592855775
 20
7.0354269405
 30
0.0
 10
10.4600471289
 20
7.0347516454
 30
0.0
 10
10.4605769258
 20
7.034274254
 30
0.0
 10
10.4608848024
 20
7.034008774
 30
0.0
 10
10.4611012431
 20
7.0337890572
 30
0.0
 10
10.4613729829
 20
7.0336481102
 30
0.0
 10
10.4617160138
 20
7.033432705
 30
0.0
 10
10.4623253048
 20
7.0330685475
 30
0.0
 10
10.463191022
 20
7.0325416298
 30
0.0
 10
10.4642318939
 20
7.0319121932
 30
0.0
 10
10.4656190205
 20
7.0310719438
 30
0.0
 10
10.4673531693
 20
7.0300219746
 30
0.0
 10
10.470127673
 20
7.0283418325
 30
0.0
 10
10.4735958487
 20
7.0262417206
 30
0.0
 10
10.4777576397
 20
7.0237215582
 30
0.0
 10
10.4819194361
 20
7.0212014032
 30
0.0
 10
10.4874684961
 20
7.017841194
 30
0.0
 10
10.4944048217
 20
7.0136409335
 30
0.0
 10
10.501341147
 20
7.0094406723
 30
0.0
 10
10.5068902076
 20
7.0060804642
 30
0.0
 10
10.511052002
 20
7.0035603058
 30
0.0
 10
10.5152138002
 20
7.0010401561
 30
0.0
 10
10.5186819539
 20
6.9989400047
 30
0.0
 10
10.5214565024
 20
6.9972599431
 30
0.0
 10
10.5231905372
 20
6.9962097691
 30
0.0
 10
10.5245778979
 20
6.9953699401
 30
0.0
 10
10.5256180545
 20
6.9947392192
 30
0.0
 10
10.5264860094
 20
6.9942163196
 30
0.0
 10
10.5270913058
 20
6.9938449891
 30
0.0
 10
10.5274407371
 20
6.9936410769
 30
0.0
 10
10.5276928168
 20
6.9934648273
 30
0.0
 10
10.5279830978
 20
6.9933777011
 30
0.0
 10
10.528356814
 20
6.9932304456
 30
0.0
 10
10.5290170258
 20
6.9929872326
 30
0.0
 10
10.5299569398
 20
6.9926322129
 30
0.0
 10
10.5310862258
 20
6.9922094306
 30
0.0
 10
10.5325914552
 20
6.9916445887
 30
0.0
 10
10.5344731582
 20
6.9909389241
 30
0.0
 10
10.5374837901
 20
6.9898096439
 30
0.0
 10
10.5412471118
 20
6.9883981181
 30
0.0
 10
10.5457630841
 20
6.9867042552
 30
0.0
 10
10.5502790602
 20
6.9850104008
 30
0.0
 10
10.5563003603
 20
6.9827519254
 30
0.0
 10
10.5638269859
 20
6.9799288322
 30
0.0
 10
10.5713536112
 20
6.9771057382
 30
0.0
 10
10.5773749118
 20
6.974847264
 30
0.0
 10
10.5818908865
 20
6.9731534059
 30
0.0
 10
10.5864068639
 20
6.971459557
 30
0.0
 10
10.5901701699
 20
6.9700479878
 30
0.0
 10
10.5931808338
 20
6.9689187961
 30
0.0
 10
10.5950624551
 20
6.9682129063
 30
0.0
 10
10.5965678522
 20
6.9676485265
 30
0.0
 10
10.597696626
 20
6.9672243325
 30
0.0
 10
10.5986381425
 20
6.9668737298
 30
0.0
 10
10.5992954936
 20
6.9666226318
 30
0.0
 10
10.5996737935
 20
6.96648801
 30
0.0
 10
10.5999499949
 20
6.9663620771
 30
0.0
 10
10.6002549548
 20
6.9663315788
 30
0.0
 10
10.6006515368
 20
6.9662576258
 30
0.0
 10
10.6013502289
 20
6.9661437177
 30
0.0
 10
10.602345917
 20
6.9659728833
 30
0.0
 10
10.6035417887
 20
6.9657713527
 30
0.0
 10
10.6051359189
 20
6.965501433
 30
0.0
 10
10.6071287067
 20
6.9651644484
 30
0.0
 10
10.6103170974
 20
6.9646250412
 30
0.0
 10
10.6143026097
 20
6.9639508617
 30
0.0
 10
10.6190852142
 20
6.9631418122
 30
0.0
 10
10.6238678214
 20
6.9623327718
 30
0.0
 10
10.6302446301
 20
6.9612540481
 30
0.0
 10
10.6382156413
 20
6.9599056446
 30
0.0
 10
10.6477808545
 20
6.9582875599
 30
0.0
 10
10.6605344723
 20
6.9561301138
 30
0.0
 10
10.6700996856
 20
6.9545120292
 30
0.0
 10
10.6764764945
 20
6.9534333062
 30
0.0
  0
SPLINE
  5
324
100
AcDbEntity
  8
0
100
AcDbSpline
 62
4
  6
CONTINUOUS
 70
0
 71
3
 72
411
 73
407
 74
0
 42
0.0000001
 43
0.0000001
 44
0.0000000001
 40
0.0
 40
0.0
 40
0.0
 40
0.0
 40
0.015625
 40
0.0234375
 40
0.03125
 40
0.0390625
 40
0.04296875
 40
0.046875
 40
0.05078125
 40
0.0546875
 40
0.056640625
 40
0.05859375
 40
0.0595703125
 40
0.060546875
 40
0.0615234375
 40
0.0620117188
 40
0.0622558594
 40
0.0625
 40
0.0627441406
 40
0.0629882812
 40
0.0634765625
 40
0.064453125
 40
0.0654296875
 40
0.06640625
 40
0.068359375
 40
0.0703125
 40
0.07421875
 40
0.078125
 40
0.08203125
 40
0.0859375
 40
0.09375
 40
0.1015625
 40
0.10546875
 40
0.109375
 40
0.11328125
 40
0.1171875
 40
0.119140625
 40
0.12109375
 40
0.1220703125
 40
0.123046875
 40
0.1240234375
 40
0.1245117188
 40
0.1247558594
 40
0.125
 40
0.1252441406
 40
0.1254882812
 40
0.1259765625
 40
0.126953125
 40
0.1279296875
 40
0.12890625
 40
0.130859375
 40
0.1328125
 40
0.13671875
 40
0.140625
 40
0.14453125
 40
0.1484375
 40
0.15625
 40
0.1640625
 40
0.16796875
 40
0.171875
 40
0.17578125
 40
0.177734375
 40
0.1796875
 40
0.181640625
 40
0.18359375
 40
0.1845703125
 40
0.185546875
 40
0.1865234375
 40
0.1870117188
 40
0.1872558594
 40
0.1875
 40
0.1877441406
 40
0.1879882812
 40
0.1884765625
 40
0.189453125
 40
0.1904296875
 40
0.19140625
 40
0.193359375
 40
0.1953125
 40
0.197265625
 40
0.19921875
 40
0.203125
 40
0.20703125
 40
0.2109375
 40
0.21875
 40
0.2265625
 40
0.23046875
 40
0.234375
 40
0.23828125
 40
0.240234375
 40
0.2421875
 40
0.244140625
 40
0.24609375
 40
0.2470703125
 40
0.248046875
 40
0.2490234375
 40
0.2495117188
 40
0.2497558594
 40
0.25
 40
0.2502441406
 40
0.2504882812
 40
0.2509765625
 40
0.251953125
 40
0.2529296875
 40
0.25390625
 40
0.255859375
 40
0.2578125
 40
0.259765625
 40
0.26171875
 40
0.265625
 40
0.26953125
 40
0.2734375
 40
0.28125
 40
0.2890625
 40
0.29296875
 40
0.296875
 40
0.30078125
 40
0.302734375
 40
0.3046875
 40
0.306640625
 40
0.30859375
 40
0.3095703125
 40
0.310546875
 40
0.3115234375
 40
0.3120117188
 40
0.3122558594
 40
0.3125
 40
0.3127441406
 40
0.3129882812
 40
0.3134765625
 40
0.314453125
 40
0.3154296875
 40
0.31640625
 40
0.318359375
 40
0.3203125
 40
0.322265625
 40
0.32421875
 40
0.328125
 40
0.33203125
 40
0.3359375
 40
0.34375
 40
0.3515625
 40
0.35546875
 40
0.359375
 40
0.36328125
 40
0.3671875
 40
0.369140625
 40
0.37109375
 40
0.3720703125
 40
0.373046875
 40
0.3740234375
 40
0.3745117188
 40
0.3747558594
 40
0.375
 40
0.3752441406
 40
0.3754882812
 40
0.3759765625
 40
0.376953125
 40
0.3779296875
 40
0.37890625
 40
0.380859375
 40
0.3828125
 40
0.38671875
 40
0.390625
 40
0.39453125
 40
0.3984375
 40
0.40625
 40
0.4140625
 40
0.41796875
 40
0.421875
 40
0.42578125
 40
0.427734375
 40
0.4296875
 40
0.431640625
 40
0.43359375
 40
0.4345703125
 40
0.435546875
 40
0.4365234375
 40
0.4370117188
 40
0.4372558594
 40
0.4375
 40
0.4377441406
 40
0.4379882812
 40
0.4384765625
 40
0.439453125
 40
0.4404296875
 40
0.44140625
 40
0.443359375
 40
0.4453125
 40
0.447265625
 40
0.44921875
 40
0.453125
 40
0.45703125
 40
0.4609375
 40
0.46875
 40
0.4765625
 40
0.48046875
 40
0.484375
 40
0.48828125
 40
0.4921875
 40
0.494140625
 40
0.49609375
 40
0.4970703125
 40
0.498046875
 40
0.4990234375
 40
0.4995117188
 40
0.4997558594
 40
0.5
 40
0.5002441406
 40
0.5004882812
 40
0.5009765625
 40
0.501953125
 40
0.5029296875
 40
0.50390625
 40
0.505859375
 40
0.5078125
 40
0.51171875
 40
0.515625
 40
0.51953125
 40
0.5234375
 40
0.53125
 40
0.5390625
 40
0.54296875
 40
0.546875
 40
0.55078125
 40
0.5546875
 40
0.556640625
 40
0.55859375
 40
0.5595703125
 40
0.560546875
 40
0.5615234375
 40
0.5620117188
 40
0.5622558594
 40
0.5625
 40
0.5627441406
 40
0.5629882812
 40
0.5634765625
 40
0.564453125
 40
0.5654296875
 40
0.56640625
 40
0.568359375
 40
0.5703125
 40
0.57421875
 40
0.578125
 40
0.58203125
 40
0.5859375
 40
0.59375
 40
0.6015625
 40
0.60546875
 40
0.609375
 40
0.61328125
 40
0.6171875
 40
0.619140625
 40
0.62109375
 40
0.6220703125
 40
0.623046875
 40
0.6240234375
 40
0.6245117188
 40
0.6247558594
 40
0.625
 40
0.6252441406
 40
0.6254882812
 40
0.6259765625
 40
0.626953125
 40
0.6279296875
 40
0.62890625
 40
0.630859375
 40
0.6328125
 40
0.63671875
 40
0.640625
 40
0.64453125
 40
0.6484375
 40
0.65625
 40
0.6640625
 40
0.66796875
 40
0.671875
 40
0.67578125
 40
0.6796875
 40
0.681640625
 40
0.68359375
 40
0.6845703125
 40
0.685546875
 40
0.6865234375
 40
0.6870117188
 40
0.6872558594
 40
0.6875
 40
0.6877441406
 40
0.6879882812
 40
0.6884765625
 40
0.689453125
 40
0.6904296875
 40
0.69140625
 40
0.693359375
 40
0.6953125
 40
0.69921875
 40
0.703125
 40
0.70703125
 40
0.7109375
 40
0.71875
 40
0.7265625
 40
0.73046875
 40
0.734375
 40
0.73828125
 40
0.7421875
 40
0.744140625
 40
0.74609375
 40
0.7470703125
 40
0.748046875
 40
0.7490234375
 40
0.7495117188
 40
0.7497558594
 40
0.75
 40
0.7502441406
 40
0.7504882812
 40
0.7509765625
 40
0.751953125
 40
0.7529296875
 40
0.75390625
 40
0.755859375
 40
0.7578125
 40
0.76171875
 40
0.765625
 40
0.76953125
 40
0.7734375
 40
0.78125
 40
0.7890625
 40
0.79296875
 40
0.796875
 40
0.80078125
 40
0.8046875
 40
0.806640625
 40
0.80859375
 40
0.8095703125
 40
0.810546875
 40
0.8115234375
 40
0.8120117188
 40
0.8122558594
 40
0.8125
 40
0.8127441406
 40
0.8129882812
 40
0.8134765625
 40
0.814453125
 40
0.8154296875
 40
0.81640625
 40
0.818359375
 40
0.8203125
 40
0.82421875
 40
0.828125
 40
0.83203125
 40
0.8359375
 40
0.84375
 40
0.8515625
 40
0.85546875
 40
0.859375
 40
0.86328125
 40
0.8671875
 40
0.869140625
 40
0.87109375
 40
0.8720703125
 40
0.873046875
 40
0.8740234375
 40
0.8745117188
 40
0.8747558594
 40
0.875
 40
0.8752441406
 40
0.8754882812
 40
0.8759765625
 40
0.876953125
 40
0.8779296875
 40
0.87890625
 40
0.880859375
 40
0.8828125
 40
0.88671875
 40
0.890625
 40
0.89453125
 40
0.8984375
 40
0.90625
 40
0.9140625
 40
0.91796875
 40
0.921875
 40
0.92578125
 40
0.9296875
 40
0.931640625
 40
0.93359375
 40
0.9345703125
 40
0.935546875
 40
0.9365234375
 40
0.9370117188
 40
0.9372558594
 40
0.9375
 40
0.9377441406
 40
0.9379882812
 40
0.9384765625
 40
0.939453125
 40
0.9404296875
 40
0.94140625
 40
0.943359375
 40
0.9453125
 40
0.94921875
 40
0.953125
 40
0.95703125
 40
0.9609375
 40
0.96875
 40
0.9765625
 40
0.984375
 40
1.0
 40
1.0
 40
1.0
 40
1.0
 10
10.6764764606
 20
6.9534333085
 30
0.0
 10
10.6827428345
 20
6.9536131573
 30
0.0
 10
10.6921423952
 20
6.9538829306
 30
0.0
 10
10.7046751429
 20
6.9542426282
 30
0.0
 10
10.7140747036
 20
6.9545124016
 30
0.0
 10
10.721907671
 20
6.9547372123
 30
0.0
 10
10.7281740447
 20
6.9549170617
 30
0.0
 10
10.7328738255
 20
6.9550519464
 30
0.0
 10
10.7375736044
 20
6.9551868405
 30
0.0
 10
10.7414900926
 20
6.9552992227
 30
0.0
 10
10.7446232702
 20
6.9553891945
 30
0.0
 10
10.7465815356
 20
6.9554452767
 30
0.0
 10
10.7481480807
 20
6.9554904864
 30
0.0
 10
10.7493231735
 20
6.9555234519
 30
0.0
 10
10.7503018323
 20
6.9555539191
 30
0.0
 10
10.7509880419
 20
6.9555693668
 30
0.0
 10
10.7513783685
 20
6.9555873741
 30
0.0
 10
10.7516761647
 20
6.9555750191
 30
0.0
 10
10.7519546527
 20
6.955661516
 30
0.0
 10
10.7523327051
 20
6.9557423645
 30
0.0
 10
10.7529911587
 20
6.9558999146
 30
0.0
 10
10.7539334473
 20
6.9561165872
 30
0.0
 10
10.7550634914
 20
6.9563801892
 30
0.0
 10
10.7565704621
 20
6.956730403
 30
0.0
 10
10.7584540916
 20
6.9571686002
 30
0.0
 10
10.7614679456
 20
6.9578694754
 30
0.0
 10
10.7652352471
 20
6.9587456518
 30
0.0
 10
10.7697560158
 20
6.9597970281
 30
0.0
 10
10.7742767826
 20
6.9608484139
 30
0.0
 10
10.7803044723
 20
6.9622502584
 30
0.0
 10
10.7878390842
 20
6.9640025651
 30
0.0
 10
10.7953736964
 20
6.9657548711
 30
0.0
 10
10.8014013857
 20
6.9671567168
 30
0.0
 10
10.8059221537
 20
6.9682080987
 30
0.0
 10
10.810442918
 20
6.9692594897
 30
0.0
 10
10.8142102329
 20
6.9701356207
 30
0.0
 10
10.8172240596
 20
6.9708365885
 30
0.0
 10
10.8191077588
 20
6.9712745498
 30
0.0
 10
10.8206145863
 20
6.9716252478
 30
0.0
 10
10.8217450679
 20
6.9718873706
 30
0.0
 10
10.8226859878
 20
6.9721086713
 30
0.0
 10
10.8233468848
 20
6.9722579594
 30
0.0
 10
10.8237210223
 20
6.9723520458
 30
0.0
 10
10.8240115353
 20
6.9723978801
 30
0.0
 10
10.8242641677
 20
6.9725382469
 30
0.0
 10
10.8246142241
 20
6.9726924287
 30
0.0
 10
10.8252206664
 20
6.9729776099
 30
0.0
 10
10.8260902312
 20
6.9733769796
 30
0.0
 10
10.8271323313
 20
6.9738596612
 30
0.0
 10
10.8285222793
 20
6.9745020359
 30
0.0
 10
10.8302595495
 20
6.9753054155
 30
0.0
 10
10.8330392739
 20
6.9765905929
 30
0.0
 10
10.8365138979
 20
6.9781971436
 30
0.0
 10
10.8406834601
 20
6.9801249706
 30
0.0
 10
10.8448530188
 20
6.9820528066
 30
0.0
 10
10.8504124316
 20
6.9846232515
 30
0.0
 10
10.8573616972
 20
6.9878363087
 30
0.0
 10
10.8643109628
 20
6.9910493656
 30
0.0
 10
10.8698703755
 20
6.9936198109
 30
0.0
 10
10.8740399346
 20
6.9955476456
 30
0.0
 10
10.8775145683
 20
6.9971541725
 30
0.0
 10
10.8802942729
 20
6.9984393984
 30
0.0
 10
10.8823790577
 20
6.9994033057
 30
0.0
 10
10.8844638182
 20
7.0003672594
 30
0.0
 10
10.8862011943
 20
7.0011704099
 30
0.0
 10
10.8875909258
 20
7.0018132532
 30
0.0
 10
10.8886336871
 20
7.0022945034
 30
0.0
 10
10.8895011832
 20
7.0026983516
 30
0.0
 10
10.8901113185
 20
7.002975538
 30
0.0
 10
10.8904554578
 20
7.0031425294
 30
0.0
 10
10.8907262654
 20
7.0032435492
 30
0.0
 10
10.8909485154
 20
7.0034371642
 30
0.0
 10
10.8912617862
 20
7.0036630194
 30
0.0
 10
10.8918021185
 20
7.0040733143
 30
0.0
 10
10.8925781477
 20
7.0046515824
 30
0.0
 10
10.8935076167
 20
7.0053488716
 30
0.0
 10
10.8947475256
 20
7.0062774142
 30
0.0
 10
10.8962972001
 20
7.0074384962
 30
0.0
 10
10.8981569002
 20
7.0088316215
 30
0.0
 10
10.900016576
 20
7.0102247931
 30
0.0
 10
10.9024961522
 20
7.0120823391
 30
0.0
 10
10.9055956195
 20
7.0144042772
 30
0.0
 10
10.9093149816
 20
7.0171906004
 30
0.0
 10
10.9142741306
 20
7.0209056989
 30
0.0
 10
10.9204730671
 20
7.0255495718
 30
0.0
 10
10.9266720034
 20
7.0301934448
 30
0.0
 10
10.9316311526
 20
7.033908543
 30
0.0
 10
10.935350514
 20
7.0366948671
 30
0.0
 10
10.9384499835
 20
7.0390168024
 30
0.0
 10
10.9409295554
 20
7.040874354
 30
0.0
 10
10.9427892445
 20
7.0422675085
 30
0.0
 10
10.9446488947
 20
7.0436606982
 30
0.0
 10
10.9461987244
 20
7.0448215797
 30
0.0
 10
10.9474383166
 20
7.0457505312
 30
0.0
 10
10.9483687527
 20
7.0464465719
 30
0.0
 10
10.9491417562
 20
7.0470287465
 30
0.0
 10
10.94968749
 20
7.0474320675
 30
0.0
 10
10.9499921063
 20
7.0476690965
 30
0.0
 10
10.9502409399
 20
7.0478283892
 30
0.0
 10
10.9504119039
 20
7.0480583182
 30
0.0
 10
10.9506670176
 20
7.0483402515
 30
0.0
 10
10.9511008115
 20
7.0488451144
 30
0.0
 10
10.9517271333
 20
7.0495603454
 30
0.0
 10
10.9524758875
 20
7.0504211916
 30
0.0
 10
10.9534752157
 20
7.0515680891
 30
0.0
 10
10.9547240365
 20
7.053002019
 30
0.0
 10
10.9562227669
 20
7.0547226028
 30
0.0
 10
10.9577214584
 20
7.0564432219
 30
0.0
 10
10.9597197274
 20
7.0587373684
 30
0.0
 10
10.9622175589
 20
7.0616050558
 30
0.0
 10
10.9652149587
 20
7.0650462788
 30
0.0
 10
10.9692114911
 20
7.0696345768
 30
0.0
 10
10.9742071569
 20
7.075369949
 30
0.0
 10
10.9792028224
 20
7.0811053214
 30
0.0
 10
10.9831993551
 20
7.0856936192
 30
0.0
 10
10.9861967541
 20
7.0891348429
 30
0.0
 10
10.9886945883
 20
7.092002528
 30
0.0
 10
10.9906928517
 20
7.0942966791
 30
0.0
 10
10.9921915601
 20
7.0960172843
 30
0.0
 10
10.9936902272
 20
7.0977379201
 30
0.0
 10
10.9949392451
 20
7.0991716883
 30
0.0
 10
10.9959381713
 20
7.1003189156
 30
0.0
 10
10.996688153
 20
7.1011787546
 30
0.0
 10
10.9973106343
 20
7.1018971367
 30
0.0
 10
10.9977512842
 20
7.1023963745
 30
0.0
 10
10.9979954129
 20
7.1026873207
 30
0.0
 10
10.9982001195
 20
7.1028895649
 30
0.0
 10
10.9983222213
 20
7.103152837
 30
0.0
 10
10.9985138371
 20
7.1034825792
 30
0.0
 10
10.9988357402
 20
7.1040695462
 30
0.0
 10
10.9993026202
 20
7.1049028852
 30
0.0
 10
10.9998598721
 20
7.1059051115
 30
0.0
 10
11.000603924
 20
7.1072406379
 30
0.0
 10
11.0015336289
 20
7.1089103119
 30
0.0
 10
11.002649429
 20
7.1109138067
 30
0.0
 10
11.0037651878
 20
7.112917332
 30
0.0
 10
11.0052528807
 20
7.1155886884
 30
0.0
 10
11.0071124918
 20
7.1189278876
 30
0.0
 10
11.0093440273
 20
7.122934925
 30
0.0
 10
11.0123194072
 20
7.1282776422
 30
0.0
 10
11.0160386323
 20
7.1349560384
 30
0.0
 10
11.0197578576
 20
7.1416344346
 30
0.0
 10
11.022733237
 20
7.1469771519
 30
0.0
 10
11.0249647739
 20
7.1509841888
 30
0.0
 10
11.027196302
 20
7.1549912299
 30
0.0
 10
11.0290559361
 20
7.1583304176
 30
0.0
 10
11.0305435822
 20
7.1610017975
 30
0.0
 10
11.0314735004
 20
7.1626713422
 30
0.0
 10
11.0322171156
 20
7.164007133
 30
0.0
 10
11.0327757014
 20
7.1650085516
 30
0.0
 10
11.0332384081
 20
7.1658444177
 30
0.0
 10
11.0335677612
 20
7.1664268734
 30
0.0
 10
11.0337474402
 20
7.1667638439
 30
0.0
 10
11.033906208
 20
7.167004913
 30
0.0
 10
11.0339732032
 20
7.1672905478
 30
0.0
 10
11.0340945414
 20
7.1676558492
 30
0.0
 10
11.0342919686
 20
7.1683023694
 30
0.0
 10
11.034581805
 20
7.1692221831
 30
0.0
 10
11.034926271
 20
7.1703275804
 30
0.0
 10
11.0353867249
 20
7.1718008772
 30
0.0
 10
11.035961893
 20
7.1736426921
 30
0.0
 10
11.0368823851
 20
7.1765894877
 30
0.0
 10
11.0380329237
 20
7.1802730192
 30
0.0
 10
11.0394136029
 20
7.1846932412
 30
0.0
 10
11.0407942732
 20
7.1891134674
 30
0.0
 10
11.0426351701
 20
7.1950071009
 30
0.0
 10
11.0449362901
 20
7.2023741433
 30
0.0
 10
11.0472374105
 20
7.2097411855
 30
0.0
 10
11.0490783069
 20
7.2156348192
 30
0.0
 10
11.0504589785
 20
7.2200550447
 30
0.0
 10
11.0516095404
 20
7.2237385652
 30
0.0
 10
11.0525299851
 20
7.2266853833
 30
0.0
 10
11.0532203315
 20
7.2288954922
 30
0.0
 10
11.0539106291
 20
7.2311056189
 30
0.0
 10
11.0544860289
 20
7.2329473359
 30
0.0
 10
11.0549460089
 20
7.2344208333
 30
0.0
 10
11.0552919222
 20
7.2355256179
 30
0.0
 10
11.0555772305
 20
7.2364473482
 30
0.0
 10
11.0557827411
 20
7.237090447
 30
0.0
 10
11.0558911277
 20
7.2374612303
 30
0.0
 10
11.0559979059
 20
7.2377300267
 30
0.0
 10
11.0560072552
 20
7.238034338
 30
0.0
 10
11.0560537052
 20
7.2384276985
 30
0.0
 10
11.0561191587
 20
7.2391218511
 30
0.0
 10
11.056220942
 20
7.2401104801
 30
0.0
 10
11.0563395386
 20
7.2412981265
 30
0.0
 10
11.0564989051
 20
7.2428812039
 30
0.0
 10
11.0566976885
 20
7.2448602054
 30
0.0
 10
11.0569364107
 20
7.2472349409
 30
0.0
 10
11.0571750841
 20
7.2496096941
 30
0.0
 10
11.0574933324
 20
7.2527760256
 30
0.0
 10
11.0578911369
 20
7.256733942
 30
0.0
 10
11.0583685048
 20
7.2614834408
 30
0.0
 10
11.0590049945
 20
7.2678161062
 30
0.0
 10
11.0598006069
 20
7.2757319378
 30
0.0
 10
11.0605962195
 20
7.2836477695
 30
0.0
 10
11.0612327087
 20
7.2899804348
 30
0.0
 10
11.0617100781
 20
7.2947299339
 30
0.0
 10
11.0621874379
 20
7.2994794327
 30
0.0
 10
11.0625852678
 20
7.303437349
 30
0.0
 10
11.0629034642
 20
7.3066036807
 30
0.0
 10
11.0631024907
 20
7.308582641
 30
0.0
 10
11.0632613599
 20
7.3101658025
 30
0.0
 10
11.0633814757
 20
7.3113531919
 30
0.0
 10
11.0634785055
 20
7.312342625
 30
0.0
 10
11.0635524448
 20
7.3130353422
 30
0.0
 10
11.0635852985
 20
7.3134310026
 30
0.0
 10
11.0636364113
 20
7.3137282491
 30
0.0
 10
11.0635863329
 20
7.3140235799
 30
0.0
 10
11.0635548584
 20
7.3144180226
 30
0.0
 10
11.0634833326
 20
7.3151079859
 30
0.0
 10
11.0633897507
 20
7.3160938105
 30
0.0
 10
11.0632737723
 20
7.3172767304
 30
0.0
 10
11.0631204198
 20
7.3188539813
 30
0.0
 10
11.0629282891
 20
7.3208255365
 30
0.0
 10
11.0626211259
 20
7.3239800295
 30
0.0
 10
11.0622370876
 20
7.3279231442
 30
0.0
 10
11.0617762777
 20
7.3326548826
 30
0.0
 10
11.0613154582
 20
7.3373866207
 30
0.0
 10
11.0607010355
 20
7.343695605
 30
0.0
 10
11.059933006
 20
7.3515818352
 30
0.0
 10
11.0591649772
 20
7.3594680656
 30
0.0
 10
11.0585505532
 20
7.3657770497
 30
0.0
 10
11.0580897377
 20
7.3705087882
 30
0.0
 10
11.0576289128
 20
7.3752405254
 30
0.0
 10
11.0572449212
 20
7.3791836435
 30
0.0
 10
11.0569376628
 20
7.3823381296
 30
0.0
 10
11.0567457744
 20
7.3843097025
 30
0.0
 10
11.0565919244
 20
7.3858869171
 30
0.0
 10
11.056477466
 20
7.3870699476
 30
0.0
 10
11.0563791286
 20
7.3880554262
 30
0.0
 10
11.0563160921
 20
7.3887460073
 30
0.0
 10
11.0562710156
 20
7.38913946
 30
0.0
 10
11.0562627183
 20
7.3894378316
 30
0.0
 10
11.0561569082
 20
7.3897236576
 30
0.0
 10
11.0560498417
 20
7.390109135
 30
0.0
 10
11.0558466276
 20
7.3907816816
 30
0.0
 10
11.0555646072
 20
7.3917435284
 30
0.0
 10
11.0552226363
 20
7.3928972883
 30
0.0
 10
11.0547679137
 20
7.3944357941
 30
0.0
 10
11.0541990864
 20
7.3963588719
 30
0.0
 10
11.0532891997
 20
7.3994358268
 30
0.0
 10
11.0521517601
 20
7.40328201
 30
0.0
 10
11.0507868674
 20
7.4078974343
 30
0.0
 10
11.0494219653
 20
7.4125128574
 30
0.0
 10
11.0476020992
 20
7.4186667552
 30
0.0
 10
11.0453272653
 20
7.4263591274
 30
0.0
 10
11.0430524322
 20
7.4340514998
 30
0.0
 10
11.0412325648
 20
7.4402053973
 30
0.0
 10
11.0398676665
 20
7.4448208213
 30
0.0
 10
11.0385027595
 20
7.4494362423
 30
0.0
 10
11.0373653644
 20
7.4532824358
 30
0.0
 10
11.0364553869
 20
7.4563593696
 30
0.0
 10
11.0358867907
 20
7.4582825011
 30
0.0
 10
11.0354315939
 20
7.4598208967
 30
0.0
 10
11.0350910718
 20
7.4609749935
 30
0.0
 10
11.0348045181
 20
7.461935786
 30
0.0
 10
11.0346093967
 20
7.4626102147
 30
0.0
 10
11.0344893638
 20
7.4629926765
 30
0.0
 10
11.0344233823
 20
7.4632877654
 30
0.0
 10
11.0342654954
 20
7.4635513472
 30
0.0
 10
11.0340870372
 20
7.4639137797
 30
0.0
 10
11.033759799
 20
7.4645429161
 30
0.0
 10
11.0333001248
 20
7.4654443594
 30
0.0
 10
11.0327451732
 20
7.4665249455
 30
0.0
 10
11.0320064053
 20
7.4679661272
 30
0.0
 10
11.0310825457
 20
7.4697674673
 30
0.0
 10
11.0296045937
 20
7.4726496881
 30
0.0
 10
11.0277570771
 20
7.4762524377
 30
0.0
 10
11.0255400899
 20
7.4805757486
 30
0.0
 10
11.023323094
 20
7.4848990564
 30
0.0
 10
11.0203671025
 20
7.4906634679
 30
0.0
 10
11.0166721121
 20
7.4978689819
 30
0.0
 10
11.0129771223
 20
7.5050744962
 30
0.0
 10
11.0100211296
 20
7.5108389072
 30
0.0
 10
11.0078041374
 20
7.5151622165
 30
0.0
 10
11.0055871366
 20
7.5194855218
 30
0.0
 10
11.0037396625
 20
7.5230882888
 30
0.0
 10
11.0022616237
 20
7.5259704742
 30
0.0
 10
11.001337985
 20
7.5277719044
 30
0.0
 10
11.0005987636
 20
7.5292129011
 30
0.0
 10
11.0000451976
 20
7.5302940523
 30
0.0
 10
10.9995811884
 20
7.5311937276
 30
0.0
 10
10.9992616889
 20
7.5318260202
 30
0.0
 10
10.9990708314
 20
7.5321833956
 30
0.0
 10
10.998951031
 20
7.5324625113
 30
0.0
 10
10.9987420028
 20
7.5326992575
 30
0.0
 10
10.9984944223
 20
7.533029698
 30
0.0
 10
10.9980466552
 20
7.5336010832
 30
0.0
 10
10.9974145693
 20
7.5344209476
 30
0.0
 10
10.9966528212
 20
7.5354032441
 30
0.0
 10
10.9956382905
 20
7.5367135109
 30
0.0
 10
10.994369739
 20
7.5383511601
 30
0.0
 10
10.9923402735
 20
7.5409715018
 30
0.0
 10
10.9898033672
 20
7.5442468936
 30
0.0
 10
10.9867591116
 20
7.548177379
 30
0.0
 10
10.9837148474
 20
7.5521078602
 30
0.0
 10
10.9796558315
 20
7.5573485034
 30
0.0
 10
10.9745820605
 20
7.5638993067
 30
0.0
 10
10.9695082902
 20
7.5704501106
 30
0.0
 10
10.9654492733
 20
7.5756907529
 30
0.0
 10
10.9624050122
 20
7.5796212366
 30
0.0
 10
10.9593607449
 20
7.5835517131
 30
0.0
 10
10.9568238749
 20
7.5868271322
 30
0.0
 10
10.9547943354
 20
7.5894474184
 30
0.0
 10
10.9535259723
 20
7.5910852088
 30
0.0
 10
10.9525110548
 20
7.5923951859
 30
0.0
 10
10.9517504882
 20
7.5933783674
 30
0.0
 10
10.9511147057
 20
7.5941954625
 30
0.0
 10
10.9506735378
 20
7.5947717914
 30
0.0
 10
10.9504153837
 20
7.5950943108
 30
0.0
 10
10.9502388343
 20
7.5953553882
 30
0.0
 10
10.9499970489
 20
7.59554312
 30
0.0
 10
10.9496974234
 20
7.5958190129
 30
0.0
 10
10.9491624768
 20
7.5962899054
 30
0.0
 10
10.9484038102
 20
7.596968841
 30
0.0
 10
10.9474910377
 20
7.5977808961
 30
0.0
 10
10.9462748365
 20
7.5988645681
 30
0.0
 10
10.9447543012
 20
7.600218839
 30
0.0
 10
10.9423216033
 20
7.6023858508
 30
0.0
 10
10.9392806765
 20
7.6050945543
 30
0.0
 10
10.9356315877
 20
7.6083450247
 30
0.0
 10
10.9319824926
 20
7.6115954882
 30
0.0
 10
10.9271170347
 20
7.6159294419
 30
0.0
 10
10.9210352115
 20
7.6213468831
 30
0.0
 10
10.9149533889
 20
7.6267643249
 30
0.0
 10
10.9100879302
 20
7.6310982776
 30
0.0
 10
10.9064388375
 20
7.6343487441
 30
0.0
 10
10.9027897396
 20
7.6375992031
 30
0.0
 10
10.8997488411
 20
7.6403079423
 30
0.0
 10
10.8973160855
 20
7.6424748812
 30
0.0
 10
10.8957956972
 20
7.6438293376
 30
0.0
 10
10.8945791941
 20
7.6449126287
 30
0.0
 10
10.8936673437
 20
7.6457258475
 30
0.0
 10
10.8929057924
 20
7.6464011425
 30
0.0
 10
10.8923759955
 20
7.646878534
 30
0.0
 10
10.8920681189
 20
7.647144014
 30
0.0
 10
10.8918516782
 20
7.6473637308
 30
0.0
 10
10.8915799383
 20
7.6475046778
 30
0.0
 10
10.8912369075
 20
7.6477200829
 30
0.0
 10
10.8906276164
 20
7.6480842404
 30
0.0
 10
10.8897618992
 20
7.6486111582
 30
0.0
 10
10.8887210274
 20
7.6492405948
 30
0.0
 10
10.8873339008
 20
7.6500808442
 30
0.0
 10
10.8855997519
 20
7.6511308133
 30
0.0
 10
10.8828252483
 20
7.6528109554
 30
0.0
 10
10.8793570726
 20
7.6549110673
 30
0.0
 10
10.8751952815
 20
7.6574312298
 30
0.0
 10
10.8710334851
 20
7.6599513847
 30
0.0
 10
10.8654844252
 20
7.663311594
 30
0.0
 10
10.8585480995
 20
7.6675118545
 30
0.0
 10
10.8516117743
 20
7.6717121157
 30
0.0
 10
10.8460627137
 20
7.6750723238
 30
0.0
 10
10.8419009192
 20
7.6775924821
 30
0.0
 10
10.837739121
 20
7.6801126319
 30
0.0
 10
10.8342709673
 20
7.6822127833
 30
0.0
 10
10.8314964188
 20
7.6838928449
 30
0.0
 10
10.8297623841
 20
7.6849430188
 30
0.0
 10
10.8283750233
 20
7.6857828479
 30
0.0
 10
10.8273348667
 20
7.6864135687
 30
0.0
 10
10.8264669118
 20
7.6869364684
 30
0.0
 10
10.8258616154
 20
7.6873077989
 30
0.0
 10
10.8255121841
 20
7.6875117111
 30
0.0
 10
10.8252601044
 20
7.6876879607
 30
0.0
 10
10.8249698235
 20
7.6877750869
 30
0.0
 10
10.8245961072
 20
7.6879223424
 30
0.0
 10
10.8239358954
 20
7.6881655554
 30
0.0
 10
10.8229959815
 20
7.688520575
 30
0.0
 10
10.8218666955
 20
7.6889433574
 30
0.0
 10
10.820361466
 20
7.6895081992
 30
0.0
 10
10.818479763
 20
7.6902138639
 30
0.0
 10
10.8154691312
 20
7.6913431441
 30
0.0
 10
10.8117058095
 20
7.6927546699
 30
0.0
 10
10.8071898371
 20
7.6944485328
 30
0.0
 10
10.8026738611
 20
7.6961423871
 30
0.0
 10
10.7966525609
 20
7.6984008626
 30
0.0
 10
10.7891259353
 20
7.7012239558
 30
0.0
 10
10.78159931
 20
7.7040470497
 30
0.0
 10
10.7755780095
 20
7.706305524
 30
0.0
 10
10.7710620348
 20
7.707999382
 30
0.0
 10
10.7665460573
 20
7.709693231
 30
0.0
 10
10.7627827514
 20
7.7111048002
 30
0.0
 10
10.7597720874
 20
7.7122339919
 30
0.0
 10
10.7578904661
 20
7.7129398817
 30
0.0
 10
10.756385069
 20
7.7135042615
 30
0.0
 10
10.7552562952
 20
7.7139284555
 30
0.0
 10
10.7543147787
 20
7.7142790582
 30
0.0
 10
10.7536574277
 20
7.7145301562
 30
0.0
 10
10.7532791278
 20
7.714664778
 30
0.0
 10
10.7530029263
 20
7.7147907109
 30
0.0
 10
10.7526979664
 20
7.7148212092
 30
0.0
 10
10.7523013845
 20
7.7148951622
 30
0.0
 10
10.7516026924
 20
7.7150090702
 30
0.0
 10
10.7506070042
 20
7.7151799047
 30
0.0
 10
10.7494111326
 20
7.7153814353
 30
0.0
 10
10.7478170024
 20
7.715651355
 30
0.0
 10
10.7458242145
 20
7.7159883395
 30
0.0
 10
10.7426358239
 20
7.7165277468
 30
0.0
 10
10.7386503116
 20
7.7172019263
 30
0.0
 10
10.7338677071
 20
7.7180109758
 30
0.0
 10
10.7290850998
 20
7.7188200162
 30
0.0
 10
10.7227082912
 20
7.7198987399
 30
0.0
 10
10.71473728
 20
7.7212471434
 30
0.0
 10
10.7051720667
 20
7.7228652281
 30
0.0
 10
10.6924184489
 20
7.7250226741
 30
0.0
 10
10.6828532356
 20
7.7266407587
 30
0.0
 10
10.6764764268
 20
7.7277194818
 30
0.0
  0
ENDSEC
  0
SECTION
  2
OBJECTS
  0
DICTIONARY
  5
C
100
AcDbDictionary
280
0
281
1
  3
ACAD_GROUP
350
D
  3
ACAD_MLINESTYLE
350
17
  3
ACAD_LAYOUT
350
1A
  3
ACAD_PLOTSETTINGS
350
19
  3
ACAD_PLOTSTYLENAME
350
E
  3
ACAD_IMAGE_DICT
350
       326
  3
ACAD_IMAGE_VARS
350
       327
  3
ACAD_TABLESTYLE
350
       328
  0
IMAGEDEF_REACTOR
  5
325
100
AcDbRasterImageDefReactor
 90
2
330
27F
  0
DICTIONARY
  5
D
102
{ACAD_REACTORS
330
C
102
}
100
AcDbDictionary
280
0
281
1
  0
ACDBDICTIONARYWDFLT
  5
E
102
{ACAD_REACTORS
330
C
102
}
100
AcDbDictionary
281
1
  3
Normal
350
F
100
AcDbDictionaryWithDefault
340
F
  0
DICTIONARY
  5
326
330
C
100
AcDbDictionary
281
1
  3
ZFP_assy_2_img_1
350
       32B
  0
RASTERVARIABLES
  5
327
330
C
100
AcDbRasterVariables
 90
0
 70
0
 71
1
 72
5
  0
DICTIONARY
  5
17
102
{ACAD_REACTORS
330
C
102
}
100
AcDbDictionary
280
0
281
1
  3
Standard
350
18
  0
DICTIONARY
  5
328
330
C
100
AcDbDictionary
281
1
  3
Standard
350
       32C
  3
Standard1
350
       32D
  0
DICTIONARY
  5
19
102
{ACAD_REACTORS
330
C
102
}
100
AcDbDictionary
281
1
  0
DICTIONARY
  5
1A
102
{ACAD_REACTORS
330
C
102
}
100
AcDbDictionary
281
1
  3
Model
350
329
  3
Layout1
350
32A
  0
ACDBPLACEHOLDER
  5
F
102
{ACAD_REACTORS
330
E
102
}
  0
MLINESTYLE
  5
18
102
{ACAD_REACTORS
330
17
102
}
100
AcDbMlineStyle
  2
STANDARD
 70
0
  3

 62
256
 51
90.0
 52
90.0
 71
2
 49
0.5
 62
256
  6
BYLAYER
 49
-0.5
 62
256
  6
BYLAYER
  0
LAYOUT
  5
329
102
{ACAD_REACTORS
330
1A
102
}
100
AcDbPlotSettings
  1

  2
none_device
  4
ANSI_C_(22.00_x_17.00_Inches)
  6

 40
0.0
 41
0.0
 42
0.0
 43
0.0
 44
558.8
 45
431.8
 46
0.0
 47
0.0
 48
0.0
 49
0.0
140
0.0
141
0.0
142
1.0
143
1.0
 70
1024
 72
0
 73
0
 74
0
  7

 75
0
147
1.0
148
0.0
149
0.0
100
AcDbLayout
  1
Model
 70
0
 71
0
 10
0.0
 20
0.0
 11
22.0
 21
17.0
 12
0.0
 22
0.0
 32
0.0
 14
0.0
 24
0.0
 34
0.0
 15
0.0
 25
0.0
 35
0.0
146
0.0
 13
0.0
 23
0.0
 33
0.0
 16
1.0
 26
0.0
 36
0.0
 17
0.0
 27
1.0
 37
0.0
 76
0
330
204
345
0
346
0
  0
LAYOUT
  5
32A
102
{ACAD_REACTORS
330
1A
102
}
100
AcDbPlotSettings
  1

  2
none_device
  4
ANSI_C_(22.00_x_17.00_Inches)
  6

 40
0.0
 41
0.0
 42
0.0
 43
0.0
 44
558.8
 45
431.8
 46
0.0
 47
0.0
 48
0.0
 49
0.0
140
0.0
141
0.0
142
1.0
143
1.0
 70
0
 72
0
 73
0
 74
0
  7

 75
0
147
1.0
148
0.0
149
0.0
100
AcDbLayout
  1
Layout1
 70
0
 71
1
 10
0.0
 20
0.0
 11
22.0
 21
17.0
 12
0.0
 22
0.0
 32
0.0
 14
0.0
 24
0.0
 34
0.0
 15
0.0
 25
0.0
 35
0.0
146
0.0
 13
0.0
 23
0.0
 33
0.0
 16
1.0
 26
0.0
 36
0.0
 17
0.0
 27
1.0
 37
0.0
 76
0
330
205
345
0
346
0
  0
IMAGEDEF
  5
32B
102
{ACAD_REACTORS
330
326
330
325
102
}
100
AcDbRasterImageDef
 90
0
  1
ZFP_assy_2_img_1.png
 10
369.0
 20
92.0
 11
0.0066666667
 21
0.0066666667
280
1
281
0
  0
TABLESTYLE
  5
32C
102
{ACAD_REACTORS
330
328
330
282
330
283
102
}
330
328
100
AcDbTableStyle
  3
Standard
 70
0
 71
0
 40
0.06
 41
0.06
280
1
281
1
  7
Standard
140
0.18
170
1
 62
0
 63
7
283
0
  7
Standard
140
0.18
170
1
 62
0
 63
7
283
0
  7
Standard
140
0.18
170
1
 62
0
 63
7
283
0
  0
TABLESTYLE
  5
32D
102
{ACAD_REACTORS
330
328
330
281
102
}
330
328
100
AcDbTableStyle
  3
Standard1
 70
1
 71
0
 40
0.06
 41
0.06
280
1
281
1
  7
Standard
140
0.18
170
1
 62
0
 63
7
283
0
  7
Standard
140
0.18
170
1
 62
0
 63
7
283
0
  7
Standard
140
0.18
170
1
 62
0
 63
7
283
0
  0
ENDSEC
  0
EOF
