999
DXF file: Z9P_assy_2.dxf
999
Pro/ENGINEER 2014200 by Parametric Technology Corporation
  0
SECTION
  2
HEADER
  9
$ACADVER
  1
AC1021
  9
$DWGCODEPAGE
  3
ANSI_1252
  9
$EXTMAX
 10
22.0
 20
17.0
 30
0.0
  9
$EXTMIN
 10
0.0
 20
0.0
 30
0.0
  9
$LIMMIN
 10
0.0
 20
0.0
  9
$LIMMAX
 10
22.0
 20
17.0
  9
$VIEWCTR
 10
11.0
 20
8.5
  9
$VIEWSIZE
 40
17.0
  9
$CLAYER
  8
0
  9
$LTSCALE
 40
1.21
  9
$CELTYPE
  6
BYLAYER
  9
$DIMSCALE
 40
1.0
  9
$DIMASZ
 40
0.1875
  9
$DIMEXO
 40
0.0625
  9
$DIMDLI
 40
0.836
  9
$DIMEXE
 40
0.125
  9
$DIMCEN
 40
0.198
  9
$DIMLFAC
 40
1.0
  9
$DIMBLK
  1
_FILLED
  9
$DIMTXT
 40
0.1
  9
$DIMTOL
 70
0
  9
$DIMLIM
 70
0
  9
$DIMTFAC
 40
1.0
  9
$DIMGAP
 40
0.09
  9
$DIMDSEP
 70
46
  9
$AUNITS
 70
0
  9
$PDMODE
 70
3
  9
$PDSIZE
 40
0.3125
  9
$HANDSEED
  5
356
  9
$TILEMODE
 70
1
  9
$MEASUREMENT
 70
0
  9
$INSUNITS
 70
1
  0
ENDSEC
  0
SECTION
  2
CLASSES
  0
CLASS
  1
ACDBDICTIONARYWDFLT
  2
AcDbDictionaryWithDefault
  3
AutoCAD 2000
 90
0
 91
1
280
0
281
0
  0
CLASS
  1
ACDBPLACEHOLDER
  2
AcDbPlaceHolder
  3
AutoCAD 2000
 90
0
 91
1
280
0
281
0
  0
CLASS
  1
LAYOUT
  2
AcDbLayout
  3
AutoCAD 2000
 90
0
 91
0
280
0
281
0
  0
CLASS
  1
RASTERVARIABLES
  2
AcDbRasterVariables
  3
ISM
 90
0
 91
1
280
0
281
0
  0
CLASS
  1
IMAGEDEF
  2
AcDbRasterImageDef
  3
ISM
 90
0
 91
1
280
0
281
0
  0
CLASS
  1
IMAGEDEF_REACTOR
  2
AcDbRasterImageDefReactor
  3
ISM
 90
0
 91
1
280
0
281
0
  0
CLASS
  1
IMAGE
  2
AcDbRasterImage
  3
ISM
 90
127
 91
1
280
0
281
1
  0
CLASS
  1
TABLESTYLE
  2
AcDbTableStyle
  3
ObjectDBX Classes
 90
2047
 91
1
280
0
281
0
  0
CLASS
  1
ACAD_TABLE
  2
AcDbTable
  3
ObjectDBX Classes
 90
1025
 91
2
280
0
281
1
  0
ENDSEC
  0
SECTION
  2
TABLES
  0
TABLE
  2
VPORT
  5
8
100
AcDbSymbolTable
 70
2
  0
VPORT
  5
1F4
100
AcDbSymbolTableRecord
100
AcDbViewportTableRecord
  2
*ACTIVE
 70
0
 10
0.0
 20
0.0
 11
1.0
 21
1.0
 12
11.0
 22
8.5
 13
0.0
 23
0.0
 14
1.0
 24
1.0
 15
0.0
 25
0.0
 16
0.0
 26
0.0
 36
1.0
 17
0.0
 27
0.0
 37
0.0
 40
17.0
 41
1.2941176471
 42
50.0
 43
0.0
 44
0.0
 50
0.0
 51
0.0
 71
0
 72
100
 73
1
 74
1
 75
0
 76
0
 77
0
 78
0
  0
ENDTAB
  0
TABLE
  2
LTYPE
  5
5
100
AcDbSymbolTable
 70
6
  0
LTYPE
  5
14
100
AcDbSymbolTableRecord
100
AcDbLinetypeTableRecord
  2
BYBLOCK
 70
0
  3

 72
65
 73
0
 40
0.0
  0
LTYPE
  5
15
100
AcDbSymbolTableRecord
100
AcDbLinetypeTableRecord
  2
BYLAYER
 70
0
  3

 72
65
 73
0
 40
0.0
  0
LTYPE
  5
16
100
AcDbSymbolTableRecord
100
AcDbLinetypeTableRecord
  2
CONTINUOUS
 70
64
  3
Solid line
 72
65
 73
0
 40
0.0
  0
LTYPE
  5
1F5
100
AcDbSymbolTableRecord
100
AcDbLinetypeTableRecord
  2
CENTER
 70
64
  3
____ _ ____ _ ____ _ ____ _ ____ _ ____ _ ____
 72
65
 73
4
 40
0.6
 49
0.375
 74
0
 49
-0.075
 74
0
 49
0.075
 74
0
 49
-0.075
 74
0
  0
LTYPE
  5
1F6
100
AcDbSymbolTableRecord
100
AcDbLinetypeTableRecord
  2
HIDDEN
 70
64
  3
- - - - - - - - - - - - - - - - - - - -
 72
65
 73
2
 40
0.2
 49
0.1
 74
0
 49
-0.1
 74
0
  0
LTYPE
  5
1F7
100
AcDbSymbolTableRecord
100
AcDbLinetypeTableRecord
  2
PHANTOM
 70
64
  3
_____ _ _ _____ _ _ _____ _ _ _____
 72
65
 73
6
 40
0.8
 49
0.45
 74
0
 49
-0.05
 74
0
 49
0.1
 74
0
 49
-0.05
 74
0
 49
0.1
 74
0
 49
-0.05
 74
0
  0
LTYPE
  5
1F8
100
AcDbSymbolTableRecord
100
AcDbLinetypeTableRecord
  2
DOT
 70
64
  3
. . . . . . . . . . . . . . . . . . . .
 72
65
 73
2
 40
0.2
 49
0.1
 74
0
 49
-0.1
 74
0
  0
LTYPE
  5
1F9
100
AcDbSymbolTableRecord
100
AcDbLinetypeTableRecord
  2
DASHED
 70
64
  3
- - - - - - - - - - - - - - - - - - - -
 72
65
 73
2
 40
0.2
 49
0.1
 74
0
 49
-0.1
 74
0
  0
ENDTAB
  0
TABLE
  2
LAYER
  5
2
100
AcDbSymbolTable
 70
36
  0
LAYER
  5
10
100
AcDbSymbolTableRecord
100
AcDbLayerTableRecord
  2
0
 70
0
 62
7
  6
CONTINUOUS
370
-3
390
F
  0
LAYER
  5
1FA
100
AcDbSymbolTableRecord
100
AcDbLayerTableRecord
  2
DEFAULT_1
 70
0
 62
7
  6
CENTER
370
-3
390
F
  0
LAYER
  5
1FB
100
AcDbSymbolTableRecord
100
AcDbLayerTableRecord
  2
DEFAULT_2
 70
0
 62
8
  6
HIDDEN
370
-3
390
F
  0
LAYER
  5
1FC
100
AcDbSymbolTableRecord
100
AcDbLayerTableRecord
  2
DEFAULT_3
 70
0
 62
7
  6
PHANTOM
370
-3
390
F
  0
LAYER
  5
1FD
100
AcDbSymbolTableRecord
100
AcDbLayerTableRecord
  2
01___PRT_ALL_DTM_PLN
 70
0
 62
7
  6
CONTINUOUS
370
-3
390
F
  0
LAYER
  5
1FE
100
AcDbSymbolTableRecord
100
AcDbLayerTableRecord
  2
01___PRT_DEF_DTM_PLN
 70
0
 62
7
  6
CONTINUOUS
370
-3
390
F
  0
LAYER
  5
1FF
100
AcDbSymbolTableRecord
100
AcDbLayerTableRecord
  2
02___PRT_ALL_AXES
 70
0
 62
7
  6
CONTINUOUS
370
-3
390
F
  0
LAYER
  5
200
100
AcDbSymbolTableRecord
100
AcDbLayerTableRecord
  2
03___PRT_ALL_CURVES
 70
0
 62
7
  6
CONTINUOUS
370
-3
390
F
  0
LAYER
  5
201
100
AcDbSymbolTableRecord
100
AcDbLayerTableRecord
  2
04___PRT_ALL_DTM_PNT
 70
0
 62
7
  6
CONTINUOUS
370
-3
390
F
  0
LAYER
  5
202
100
AcDbSymbolTableRecord
100
AcDbLayerTableRecord
  2
05___PRT_ALL_DTM_CSYS
 70
0
 62
7
  6
CONTINUOUS
370
-3
390
F
  0
LAYER
  5
203
100
AcDbSymbolTableRecord
100
AcDbLayerTableRecord
  2
05___PRT_DEF_DTM_CSYS
 70
0
 62
7
  6
CONTINUOUS
370
-3
390
F
  0
LAYER
  5
204
100
AcDbSymbolTableRecord
100
AcDbLayerTableRecord
  2
06___PRT_ALL_SURFS
 70
0
 62
7
  6
CONTINUOUS
370
-3
390
F
  0
LAYER
  5
205
100
AcDbSymbolTableRecord
100
AcDbLayerTableRecord
  2
DATUM_PLANES
 70
0
 62
7
  6
CONTINUOUS
370
-3
390
F
  0
LAYER
  5
206
100
AcDbSymbolTableRecord
100
AcDbLayerTableRecord
  2
DIMENSIONS
 70
0
 62
7
  6
CONTINUOUS
370
-3
390
F
  0
LAYER
  5
207
100
AcDbSymbolTableRecord
100
AcDbLayerTableRecord
  2
DTM_500001
 70
0
 62
7
  6
CONTINUOUS
370
-3
390
F
  0
LAYER
  5
208
100
AcDbSymbolTableRecord
100
AcDbLayerTableRecord
  2
PARAMETERDIMENSIONS
 70
0
 62
7
  6
CONTINUOUS
370
-3
390
F
  0
LAYER
  5
209
100
AcDbSymbolTableRecord
100
AcDbLayerTableRecord
  2
PORT_AREAS
 70
0
 62
7
  6
CONTINUOUS
370
-3
390
F
  0
LAYER
  5
20A
100
AcDbSymbolTableRecord
100
AcDbLayerTableRecord
  2
SUNNBOMCOSMETIC
 70
0
 62
7
  6
CONTINUOUS
370
-3
390
F
  0
LAYER
  5
20B
100
AcDbSymbolTableRecord
100
AcDbLayerTableRecord
  2
SUNNBOMSTAMPING
 70
0
 62
7
  6
CONTINUOUS
370
-3
390
F
  0
LAYER
  5
20C
100
AcDbSymbolTableRecord
100
AcDbLayerTableRecord
  2
THREADS
 70
0
 62
7
  6
CONTINUOUS
370
-3
390
F
  0
ENDTAB
  0
TABLE
  2
STYLE
  5
3
100
AcDbSymbolTable
 70
1
  0
STYLE
  5
11
100
AcDbSymbolTableRecord
100
AcDbTextStyleTableRecord
  2
STANDARD
 70
0
 40
0.0
 41
0.8
 50
0.0
 71
0
 42
0.2
  3
txt
  4

  0
STYLE
  5
20D
100
AcDbSymbolTableRecord
100
AcDbTextStyleTableRecord
  2
TEXTSTYLE_1
 70
0
 40
0.0
 41
0.8
 50
0.0
 71
0
 42
0.2
  3
gdt
  4

  0
ENDTAB
  0
TABLE
  2
VIEW
  5
6
100
AcDbSymbolTable
 70
0
  0
ENDTAB
  0
TABLE
  2
UCS
  5
7
100
AcDbSymbolTable
 70
0
  0
ENDTAB
  0
TABLE
  2
APPID
  5
9
100
AcDbSymbolTable
 70
1
  0
APPID
  5
20E
100
AcDbSymbolTableRecord
100
AcDbRegAppTableRecord
  2
ACAD
 70
0
  0
ENDTAB
  0
TABLE
  2
BLOCK_RECORD
  5
1
100
AcDbSymbolTable
 70
0
  0
BLOCK_RECORD
  5
20F
100
AcDbSymbolTableRecord
100
AcDbBlockTableRecord
  2
*Model_Space
  0
BLOCK_RECORD
  5
210
100
AcDbSymbolTableRecord
100
AcDbBlockTableRecord
  2
*Paper_Space
  0
BLOCK_RECORD
  5
211
100
AcDbSymbolTableRecord
100
AcDbBlockTableRecord
  2
SUN_FIRST_THIRD_ANGLE_BL0
  0
BLOCK_RECORD
  5
212
100
AcDbSymbolTableRecord
100
AcDbBlockTableRecord
  2
*T1
  0
BLOCK_RECORD
  5
213
100
AcDbSymbolTableRecord
100
AcDbBlockTableRecord
  2
*T2
  0
ENDTAB
  0
TABLE
  2
DIMSTYLE
  5
A
100
AcDbSymbolTable
 70
1
100
AcDbDimStyleTable
 71
0
  0
DIMSTYLE
105
214
100
AcDbSymbolTableRecord
100
AcDbDimStyleTableRecord
  2
STANDARD
 70
0
  3

  4

 40
1.0
 41
0.1875
 42
0.0625
 43
0.38
 44
0.125
 45
0.0
 46
0.0
 47
0.001
 48
0.001
140
0.1
141
0.09
142
0.0
143
25.4
144
1.0
145
0.0
146
1.0
147
0.09
 71
0.0
 72
0.0
 73
1
 74
1
 75
0
 76
0
 77
0
 78
4
170
0
171
2
172
0
173
0
174
0
175
0
176
0
177
0
178
0
270
2
271
3
272
3
273
2
274
2
275
0
280
0
281
0
282
0
283
1
284
4
285
0
286
0
287
3
288
0
340
11
278
46
  0
ENDTAB
  0
ENDSEC
  0
SECTION
  2
BLOCKS
  0
BLOCK
  5
20
100
AcDbEntity
  8
0
100
AcDbBlockBegin
  2
*Model_Space
 70
0
 10
0.0
 20
0.0
 30
0.0
  3
*Model_Space
  1

  0
ENDBLK
  5
21
100
AcDbEntity
  8
0
100
AcDbBlockEnd
  0
BLOCK
  5
1C
100
AcDbEntity
  8
0
100
AcDbBlockBegin
  2
*Paper_Space
 70
0
 10
0.0
 20
0.0
 30
0.0
  3
*Paper_Space
  1

  0
ENDBLK
  5
1D
100
AcDbEntity
  8
0
100
AcDbBlockEnd
  0
BLOCK
  5
215
100
AcDbEntity
  8
0
100
AcDbBlockBegin
 62
2
  6
CONTINUOUS
  2
SUN_FIRST_THIRD_ANGLE_BL0
 70
64
 10
20.4816717061
 20
1.2289683772
  3
SUN_FIRST_THIRD_ANGLE_BL0
  1

  0
TEXT
  5
216
100
AcDbEntity
  8
0
100
AcDbText
 62
2
  6
CONTINUOUS
 10
19.4750896608
 20
1.4136269581
  7
STANDARD
 40
0.08
  1
FIRST ANGLE
 41
0.8
 72
0
100
AcDbText
  0
TEXT
  5
217
100
AcDbEntity
  8
0
100
AcDbText
 62
2
  6
CONTINUOUS
 10
20.7842537513
 20
1.4047600029
  7
STANDARD
 40
0.08
  1
THIRD ANGLE
 41
0.8
 72
0
100
AcDbText
  0
LINE
  5
218
100
AcDbEntity
  8
0
100
AcDbLine
 62
7
  6
CONTINUOUS
 10
19.4767170086
 20
1.1727031207
 11
19.6334271527
 21
1.1717972817
  0
LINE
  5
219
100
AcDbEntity
  8
0
100
AcDbLine
 62
7
  6
CONTINUOUS
 10
19.6596964832
 20
1.1717972817
 11
19.6950230232
 21
1.171593082
  0
LINE
  5
21A
100
AcDbEntity
  8
0
100
AcDbLine
 62
7
  6
CONTINUOUS
 10
19.7194818561
 20
1.1708914427
 11
19.8852396156
 21
1.1699333054
  0
LINE
  5
21B
100
AcDbEntity
  8
0
100
AcDbLine
 62
7
  6
CONTINUOUS
 10
19.4758111696
 20
1.2723454088
 11
19.88525039
 21
1.3511534004
  0
LINE
  5
21C
100
AcDbEntity
  8
0
100
AcDbLine
 62
7
  6
CONTINUOUS
 10
19.88525039
 20
1.3511534004
 11
19.8831348489
 21
0.9851647912
  0
LINE
  5
21D
100
AcDbEntity
  8
0
100
AcDbLine
 62
7
  6
CONTINUOUS
 10
19.8831348489
 20
0.9851647912
 11
19.4767170086
 21
1.0658141206
  0
LINE
  5
21E
100
AcDbEntity
  8
0
100
AcDbLine
 62
7
  6
CONTINUOUS
 10
19.4767170086
 20
1.0658141206
 11
19.4779056764
 21
1.2714536432
  0
CIRCLE
  5
21F
100
AcDbEntity
  8
0
100
AcDbCircle
 62
7
  6
CONTINUOUS
 10
20.2068232291
 20
1.1717972817
 40
0.175742101
  0
CIRCLE
  5
220
100
AcDbEntity
  8
0
100
AcDbCircle
 62
7
  6
CONTINUOUS
 10
20.2068232291
 20
1.1717972817
 40
0.1005522074
  0
LINE
  5
221
100
AcDbEntity
  8
0
100
AcDbLine
 62
7
  6
CONTINUOUS
 10
20.2077290681
 20
1.3756110529
 11
20.2071171714
 21
1.2379342989
  0
LINE
  5
222
100
AcDbEntity
  8
0
100
AcDbLine
 62
7
  6
CONTINUOUS
 10
20.2077290681
 20
1.2016899681
 11
20.2074674401
 21
1.1428236749
  0
LINE
  5
223
100
AcDbEntity
  8
0
100
AcDbLine
 62
7
  6
CONTINUOUS
 10
20.208634907
 20
1.101141841
 11
20.2080230104
 21
0.963465087
  0
LINE
  5
224
100
AcDbEntity
  8
0
100
AcDbLine
 62
7
  6
CONTINUOUS
 10
20.0066328138
 20
1.1745147986
 11
20.1443095678
 21
1.1739029019
  0
LINE
  5
225
100
AcDbEntity
  8
0
100
AcDbLine
 62
7
  6
CONTINUOUS
 10
20.1832714155
 20
1.1727031207
 11
20.238153505
 21
1.172335442
  0
LINE
  5
226
100
AcDbEntity
  8
0
100
AcDbLine
 62
7
  6
CONTINUOUS
 10
20.2756669918
 20
1.1717972817
 11
20.407916871
 21
1.1712095044
  0
CIRCLE
  5
227
100
AcDbEntity
  8
0
100
AcDbCircle
 62
7
  6
CONTINUOUS
 10
20.7509457401
 20
1.1693297793
 40
0.1722024983
  0
CIRCLE
  5
228
100
AcDbEntity
  8
0
100
AcDbCircle
 62
7
  6
CONTINUOUS
 10
20.7509457401
 20
1.1693297793
 40
0.0985164967
  0
LINE
  5
229
100
AcDbEntity
  8
0
100
AcDbLine
 62
7
  6
CONTINUOUS
 10
20.7169767782
 20
1.170462078
 11
20.7825395137
 21
1.1682766535
  0
LINE
  5
22A
100
AcDbEntity
  8
0
100
AcDbLine
 62
7
  6
CONTINUOUS
 10
20.8177513651
 20
1.1693297793
 11
20.947965719
 21
1.1693297793
  0
LINE
  5
22B
100
AcDbEntity
  8
0
100
AcDbLine
 62
7
  6
CONTINUOUS
 10
20.6875370113
 20
1.170462078
 11
20.5573226574
 21
1.170462078
  0
LINE
  5
22C
100
AcDbEntity
  8
0
100
AcDbLine
 62
7
  6
CONTINUOUS
 10
20.7486811426
 20
1.1987695462
 11
20.7486811426
 21
1.1432869085
  0
LINE
  5
22D
100
AcDbEntity
  8
0
100
AcDbLine
 62
7
  6
CONTINUOUS
 10
20.7498134414
 20
1.1059210505
 11
20.7498134414
 21
0.9757066966
  0
LINE
  5
22E
100
AcDbEntity
  8
0
100
AcDbLine
 62
7
  6
CONTINUOUS
 10
20.7486811426
 20
1.2338708068
 11
20.7486811426
 21
1.3640851607
  0
LINE
  5
22F
100
AcDbEntity
  8
0
100
AcDbLine
 62
7
  6
CONTINUOUS
 10
21.0702539817
 20
1.2701043662
 11
21.4790138229
 21
1.3448360823
  0
LINE
  5
230
100
AcDbEntity
  8
0
100
AcDbLine
 62
7
  6
CONTINUOUS
 10
21.4790138229
 20
1.3448360823
 11
21.4790138229
 21
0.9779712941
  0
LINE
  5
231
100
AcDbEntity
  8
0
100
AcDbLine
 62
7
  6
CONTINUOUS
 10
21.4790138229
 20
0.9779712941
 11
21.069121683
 21
1.0617614
  0
LINE
  5
232
100
AcDbEntity
  8
0
100
AcDbLine
 62
7
  6
CONTINUOUS
 10
21.0702539817
 20
1.2701043662
 11
21.069121683
 21
1.0617614
  0
LINE
  5
233
100
AcDbEntity
  8
0
100
AcDbLine
 62
7
  6
CONTINUOUS
 10
21.4790138229
 20
1.1693297793
 11
21.3159628059
 21
1.1693297793
  0
LINE
  5
234
100
AcDbEntity
  8
0
100
AcDbLine
 62
7
  6
CONTINUOUS
 10
21.2876553377
 20
1.1693297793
 11
21.2502894796
 21
1.1693297793
  0
LINE
  5
235
100
AcDbEntity
  8
0
100
AcDbLine
 62
7
  6
CONTINUOUS
 10
21.2208497126
 20
1.1659328831
 11
21.0713862804
 21
1.1659328831
  0
LINE
  5
236
100
AcDbEntity
  8
0
100
AcDbLine
 62
7
  6
CONTINUOUS
 10
20.4796138713
 20
1.5284908897
 11
20.4766766948
 21
0.9294458646
  0
ENDBLK
  5
237
100
AcDbEntity
  8
0
  6
BYBLOCK
 62
0
100
AcDbBlockEnd
  0
BLOCK
  5
238
100
AcDbEntity
  8
0
100
AcDbBlockBegin
  2
*T1
 70
1
 10
0.0
 20
0.0
  3
*T1
  1

  0
LINE
  5
239
100
AcDbEntity
  8
0
100
AcDbLine
 62
2
  6
CONTINUOUS
 10
9.275
 20
0.0
 11
-0.0
 21
0.0
  0
LINE
  5
23A
100
AcDbEntity
  8
0
100
AcDbLine
 62
2
  6
CONTINUOUS
 10
9.275
 20
0.0
 11
9.275
 21
1.25
  0
LINE
  5
23B
100
AcDbEntity
  8
0
100
AcDbLine
 62
2
  6
CONTINUOUS
 10
9.275
 20
0.625
 11
-0.0
 21
0.625
  0
LINE
  5
23C
100
AcDbEntity
  8
0
100
AcDbLine
 62
2
  6
CONTINUOUS
 10
9.275
 20
1.25
 11
-0.0
 21
1.25
  0
LINE
  5
23D
100
AcDbEntity
  8
0
100
AcDbLine
 62
2
  6
CONTINUOUS
 10
6.8
 20
0.0
 11
6.8
 21
1.25
  0
LINE
  5
23E
100
AcDbEntity
  8
0
100
AcDbLine
 62
2
  6
CONTINUOUS
 10
6.4
 20
0.0
 11
6.4
 21
0.625
  0
LINE
  5
23F
100
AcDbEntity
  8
0
100
AcDbLine
 62
2
  6
CONTINUOUS
 10
5.9
 20
0.0
 11
5.9
 21
0.625
  0
LINE
  5
240
100
AcDbEntity
  8
0
100
AcDbLine
 62
2
  6
CONTINUOUS
 10
5.2
 20
0.0
 11
5.2
 21
0.625
  0
LINE
  5
241
100
AcDbEntity
  8
0
100
AcDbLine
 62
2
  6
CONTINUOUS
 10
4.1
 20
0.0
 11
4.1
 21
1.25
  0
LINE
  5
242
100
AcDbEntity
  8
0
100
AcDbLine
 62
2
  6
CONTINUOUS
 10
-0.0
 20
0.0
 11
-0.0
 21
1.25
  0
MTEXT
  5
243
100
AcDbEntity
  8
0
100
AcDbMText
 62
2
  6
CONTINUOUS
  7
STANDARD
 71
2
 72
1
 10
6.6
 20
0.325
 30
0.0
 11
1.0
 21
0.0
 31
0.0
 44
0.9
  1
2
 40
0.125
 41
0.2
  0
MTEXT
  5
244
100
AcDbEntity
  8
0
100
AcDbMText
 62
2
  6
CONTINUOUS
  7
STANDARD
 71
2
 72
1
 10
6.15
 20
0.325
 30
0.0
 11
1.0
 21
0.0
 31
0.0
 44
0.9
  1
C
 40
0.125
 41
0.2
  0
MTEXT
  5
245
100
AcDbEntity
  8
0
100
AcDbMText
 62
2
  6
CONTINUOUS
  7
STANDARD
 71
2
 72
1
 10
5.55
 20
0.325
 30
0.0
 11
1.0
 21
0.0
 31
0.0
 44
0.9
  1
2.000
 40
0.125
 41
1.0
  0
MTEXT
  5
246
100
AcDbEntity
  8
0
100
AcDbMText
 62
2
  6
CONTINUOUS
  7
STANDARD
 71
2
 72
1
 10
4.65
 20
0.325
 30
0.0
 11
1.0
 21
0.0
 31
0.0
 44
0.9
  1
Oct-31-19
 40
0.125
 41
1.8
  0
MTEXT
  5
247
100
AcDbEntity
  8
0
100
AcDbMText
 62
2
  6
CONTINUOUS
  7
STANDARD
 71
2
 72
1
 10
2.05
 20
0.4625
 30
0.0
 11
1.0
 21
0.0
 31
0.0
 44
0.9
  1
T-163A Sandwich Wandfluh NG4 Mini\PBypass compensator with shuttle
 40
0.125
 41
6.6
  0
MTEXT
  5
248
100
AcDbEntity
  8
0
100
AcDbMText
 62
2
  6
CONTINUOUS
  7
STANDARD
 71
1
 72
1
 10
6.45
 20
0.5625
 30
0.0
 11
1.0
 21
0.0
 31
0.0
 44
0.9
  1
SHEET
 40
0.06
 41
0.48
  0
MTEXT
  5
249
100
AcDbEntity
  8
0
100
AcDbMText
 62
2
  6
CONTINUOUS
  7
STANDARD
 71
1
 72
1
 10
5.95
 20
0.5625
 30
0.0
 11
1.0
 21
0.0
 31
0.0
 44
0.9
  1
DWG SIZE
 40
0.06
 41
0.768
  0
MTEXT
  5
24A
100
AcDbEntity
  8
0
100
AcDbMText
 62
2
  6
CONTINUOUS
  7
STANDARD
 71
1
 72
1
 10
5.25
 20
0.5625
 30
0.0
 11
1.0
 21
0.0
 31
0.0
 44
0.9
  1
SCALE
 40
0.06
 41
0.48
  0
MTEXT
  5
24B
100
AcDbEntity
  8
0
100
AcDbMText
 62
2
  6
CONTINUOUS
  7
STANDARD
 71
1
 72
1
 10
4.15
 20
0.5625
 30
0.0
 11
1.0
 21
0.0
 31
0.0
 44
0.9
  1
DATE
 40
0.06
 41
0.384
  0
MTEXT
  5
24C
100
AcDbEntity
  8
0
100
AcDbMText
 62
2
  6
CONTINUOUS
  7
STANDARD
 71
1
 72
1
 10
0.05
 20
0.5625
 30
0.0
 11
1.0
 21
0.0
 31
0.0
 44
0.9
  1
DESCRIPTION
 40
0.06
 41
1.056
  0
MTEXT
  5
24D
100
AcDbEntity
  8
0
100
AcDbMText
 62
2
  6
CONTINUOUS
  7
STANDARD
 71
2
 72
1
 10
5.45
 20
1.0375
 30
0.0
 11
1.0
 21
0.0
 31
0.0
 44
0.9
  1
ALL DIMENSIONS IN INCH\PVIEWS ARE THIRD ANGLE
 40
0.12
 41
4.224
  0
MTEXT
  5
24E
100
AcDbEntity
  8
0
100
AcDbMText
 62
2
  6
CONTINUOUS
  7
STANDARD
 71
2
 72
1
 10
2.05
 20
0.95
 30
0.0
 11
1.0
 21
0.0
 31
0.0
 44
0.9
  1
Z9P
 40
0.125
 41
0.6
  0
MTEXT
  5
24F
100
AcDbEntity
  8
0
100
AcDbMText
 62
2
  6
CONTINUOUS
  7
STANDARD
 71
1
 72
1
 10
0.05
 20
1.1875
 30
0.0
 11
1.0
 21
0.0
 31
0.0
 44
0.9
  1
MODEL
 40
0.06
 41
0.48
  0
ENDBLK
  5
250
100
AcDbEntity
  8
0
  6
BYBLOCK
 62
0
100
AcDbBlockEnd
  0
BLOCK
  5
251
100
AcDbEntity
  8
0
100
AcDbBlockBegin
  2
*T2
 70
1
 10
0.0
 20
0.0
  3
*T2
  1

  0
LINE
  5
252
100
AcDbEntity
  8
0
100
AcDbLine
 62
2
  6
CONTINUOUS
 10
0.0
 20
0.0
 11
9.055
 21
0.0
  0
LINE
  5
253
100
AcDbEntity
  8
0
100
AcDbLine
 62
2
  6
CONTINUOUS
 10
0.0
 20
0.0
 11
0.0
 21
-1.844
  0
LINE
  5
254
100
AcDbEntity
  8
0
100
AcDbLine
 62
2
  6
CONTINUOUS
 10
0.0
 20
-0.344
 11
9.055
 21
-0.344
  0
LINE
  5
255
100
AcDbEntity
  8
0
100
AcDbLine
 62
2
  6
CONTINUOUS
 10
0.0
 20
-0.594
 11
9.055
 21
-0.594
  0
LINE
  5
256
100
AcDbEntity
  8
0
100
AcDbLine
 62
2
  6
CONTINUOUS
 10
0.0
 20
-0.844
 11
9.055
 21
-0.844
  0
LINE
  5
257
100
AcDbEntity
  8
0
100
AcDbLine
 62
2
  6
CONTINUOUS
 10
0.0
 20
-1.094
 11
9.055
 21
-1.094
  0
LINE
  5
258
100
AcDbEntity
  8
0
100
AcDbLine
 62
2
  6
CONTINUOUS
 10
0.0
 20
-1.344
 11
9.055
 21
-1.344
  0
LINE
  5
259
100
AcDbEntity
  8
0
100
AcDbLine
 62
2
  6
CONTINUOUS
 10
0.0
 20
-1.594
 11
9.055
 21
-1.594
  0
LINE
  5
25A
100
AcDbEntity
  8
0
100
AcDbLine
 62
2
  6
CONTINUOUS
 10
0.0
 20
-1.844
 11
9.055
 21
-1.844
  0
LINE
  5
25B
100
AcDbEntity
  8
0
100
AcDbLine
 62
2
  6
CONTINUOUS
 10
3.055
 20
0.0
 11
3.055
 21
-1.844
  0
LINE
  5
25C
100
AcDbEntity
  8
0
100
AcDbLine
 62
2
  6
CONTINUOUS
 10
9.055
 20
0.0
 11
9.055
 21
-1.844
  0
MTEXT
  5
25D
100
AcDbEntity
  8
0
100
AcDbMText
 62
2
  6
CONTINUOUS
  7
STANDARD
 71
2
 72
1
 10
1.5275
 20
-0.0995
 30
0.0
 11
1.0
 21
0.0
 31
0.0
 44
0.9
  1
Technical Data
 40
0.145
 41
3.248
  0
MTEXT
  5
25E
100
AcDbEntity
  8
0
100
AcDbMText
 62
2
  6
CONTINUOUS
  7
STANDARD
 71
2
 72
1
 10
4.555
 20
-0.0995
 30
0.0
 11
1.0
 21
0.0
 31
0.0
 44
0.9
  1
U.S. Units
 40
0.145
 41
2.32
  0
MTEXT
  5
25F
100
AcDbEntity
  8
0
100
AcDbMText
 62
2
  6
CONTINUOUS
  7
STANDARD
 71
2
 72
1
 10
7.555
 20
-0.0995
 30
0.0
 11
1.0
 21
0.0
 31
0.0
 44
0.9
  1
Metric Units
 40
0.145
 41
2.784
  0
MTEXT
  5
260
100
AcDbEntity
  8
0
100
AcDbMText
 62
2
  6
CONTINUOUS
  7
STANDARD
 71
2
 72
1
 10
1.5275
 20
-0.4065
 30
0.0
 11
1.0
 21
0.0
 31
0.0
 44
0.9
  1
Cavity
 40
0.125
 41
1.2
  0
MTEXT
  5
261
100
AcDbEntity
  8
0
100
AcDbMText
 62
2
  6
CONTINUOUS
  7
STANDARD
 71
2
 72
1
 10
6.055
 20
-0.4065
 30
0.0
 11
1.0
 21
0.0
 31
0.0
 44
0.9
  1
T-163A
 40
0.125
 41
1.2
  0
MTEXT
  5
262
100
AcDbEntity
  8
0
100
AcDbMText
 62
2
  6
CONTINUOUS
  7
STANDARD
 71
2
 72
1
 10
1.5275
 20
-0.6565
 30
0.0
 11
1.0
 21
0.0
 31
0.0
 44
0.9
  1
Body Features
 40
0.125
 41
2.6
  0
MTEXT
  5
263
100
AcDbEntity
  8
0
100
AcDbMText
 62
2
  6
CONTINUOUS
  7
STANDARD
 71
2
 72
1
 10
6.055
 20
-0.6565
 30
0.0
 11
1.0
 21
0.0
 31
0.0
 44
0.9
  1
Bypass compensator with shuttle
 40
0.125
 41
6.2
  0
MTEXT
  5
264
100
AcDbEntity
  8
0
100
AcDbMText
 62
2
  6
CONTINUOUS
  7
STANDARD
 71
2
 72
1
 10
1.5275
 20
-0.9065
 30
0.0
 11
1.0
 21
0.0
 31
0.0
 44
0.9
  1
Body Type
 40
0.125
 41
1.8
  0
MTEXT
  5
265
100
AcDbEntity
  8
0
100
AcDbMText
 62
2
  6
CONTINUOUS
  7
STANDARD
 71
2
 72
1
 10
6.055
 20
-0.9065
 30
0.0
 11
1.0
 21
0.0
 31
0.0
 44
0.9
  1
Sandwich
 40
0.125
 41
1.6
  0
MTEXT
  5
266
100
AcDbEntity
  8
0
100
AcDbMText
 62
2
  6
CONTINUOUS
  7
STANDARD
 71
2
 72
1
 10
1.5275
 20
-1.1565
 30
0.0
 11
1.0
 21
0.0
 31
0.0
 44
0.9
  1
Interface
 40
0.125
 41
1.8
  0
MTEXT
  5
267
100
AcDbEntity
  8
0
100
AcDbMText
 62
2
  6
CONTINUOUS
  7
STANDARD
 71
2
 72
1
 10
6.055
 20
-1.1565
 30
0.0
 11
1.0
 21
0.0
 31
0.0
 44
0.9
  1
Wandfluh NG4 Mini
 40
0.125
 41
3.4
  0
MTEXT
  5
268
100
AcDbEntity
  8
0
100
AcDbMText
 62
2
  6
CONTINUOUS
  7
STANDARD
 71
2
 72
1
 10
1.5275
 20
-1.4065
 30
0.0
 11
1.0
 21
0.0
 31
0.0
 44
0.9
  1
Open Cavity Quantity
 40
0.125
 41
4.0
  0
MTEXT
  5
269
100
AcDbEntity
  8
0
100
AcDbMText
 62
2
  6
CONTINUOUS
  7
STANDARD
 71
2
 72
1
 10
6.055
 20
-1.4065
 30
0.0
 11
1.0
 21
0.0
 31
0.0
 44
0.9
  1
1
 40
0.125
 41
0.2
  0
MTEXT
  5
26A
100
AcDbEntity
  8
0
100
AcDbMText
 62
2
  6
CONTINUOUS
  7
STANDARD
 71
2
 72
1
 10
1.5275
 20
-1.6565
 30
0.0
 11
1.0
 21
0.0
 31
0.0
 44
0.9
  1
Weight
 40
0.125
 41
1.2
  0
MTEXT
  5
26B
100
AcDbEntity
  8
0
100
AcDbMText
 62
2
  6
CONTINUOUS
  7
STANDARD
 71
2
 72
1
 10
4.555
 20
-1.6565
 30
0.0
 11
1.0
 21
0.0
 31
0.0
 44
0.9
  1
1.236 lb.
 40
0.125
 41
1.8
  0
MTEXT
  5
26C
100
AcDbEntity
  8
0
100
AcDbMText
 62
2
  6
CONTINUOUS
  7
STANDARD
 71
2
 72
1
 10
7.555
 20
-1.6565
 30
0.0
 11
1.0
 21
0.0
 31
0.0
 44
0.9
  1
0,561 kg.
 40
0.125
 41
1.8
  0
ENDBLK
  5
26D
100
AcDbEntity
  8
0
  6
BYBLOCK
 62
0
100
AcDbBlockEnd
  0
ENDSEC
  0
SECTION
  2
ENTITIES
  0
IMAGE
  5
26E
100
AcDbEntity
  8
0
100
AcDbRasterImage
 62
7
  6
CONTINUOUS
 10
19.2297077316
 20
0.3094318264
 30
0.0
 11
0.0066666667
 21
0.0
 31
0.0
 12
0.0
 22
0.0066666667
 32
0.0
 13
369.0
 23
92.0
340
       353
 70
9
280
0
281
50
282
50
283
0
360
       34D
 71
1
 91
2
 14
-0.5
 24
-0.5
 14
368.5
 24
91.5
  0
INSERT
  5
26F
100
AcDbEntity
  8
0
100
AcDbBlockReference
 62
2
  6
CONTINUOUS
  2
SUN_FIRST_THIRD_ANGLE_BL0
 10
20.4816717061
 20
1.2289683772
  0
ACAD_TABLE
  5
270
100
AcDbEntity
  8
0
 62
2
  6
CONTINUOUS
100
AcDbBlockReference
  2
*T1
 10
12.42375
 20
0.30125
 30
0.0
100
AcDbTable
342
       355
343
212
 11
1.0
 21
0.0
 31
0.0
 90
6
 91
4
 92
6
 93
20
 94
0
 95
0
 96
0
 70
1
 41
0.0
141
0.525
141
0.1
141
0.525
141
0.1
142
4.1
142
1.1
142
0.7
142
0.5
142
0.4
142
2.475
171
1
172
0
173
0
174
0
175
1
176
1
 91
33
178
0
145
0.0
301
CELL_VALUE
 90
4
  1
T-163A Sandwich Wandfluh NG4 Mini\PBypass compensator with shuttle
304
ACVALUE_END
170
2
140
0.125
171
1
172
0
173
0
174
0
175
1
176
1
 91
33
178
0
145
0.0
301
CELL_VALUE
 90
4
  1
Oct-31-19
304
ACVALUE_END
170
5
140
0.125
171
1
172
0
173
0
174
0
175
1
176
1
 91
33
178
0
145
0.0
301
CELL_VALUE
 90
4
  1
2.000
304
ACVALUE_END
170
5
140
0.125
171
1
172
0
173
0
174
0
175
1
176
1
 91
33
178
0
145
0.0
301
CELL_VALUE
 90
4
  1
C
304
ACVALUE_END
170
5
140
0.125
171
1
172
0
173
0
174
0
175
1
176
1
 91
33
178
0
145
0.0
301
CELL_VALUE
 90
4
  1
2
304
ACVALUE_END
170
5
140
0.125
171
1
172
0
173
0
174
0
175
1
176
1
 91
33
178
0
145
0.0
301
CELL_VALUE
 90
4
  1
 
304
ACVALUE_END
170
1
140
0.125
171
1
172
0
173
0
174
0
175
1
176
1
 91
33
178
0
145
0.0
301
CELL_VALUE
 90
4
  1
DESCRIPTION
304
ACVALUE_END
170
1
140
0.06
171
1
172
0
173
0
174
0
175
1
176
1
 91
33
178
0
145
0.0
301
CELL_VALUE
 90
4
  1
DATE
304
ACVALUE_END
170
1
140
0.06
171
1
172
0
173
0
174
0
175
1
176
1
 91
33
178
0
145
0.0
301
CELL_VALUE
 90
4
  1
SCALE
304
ACVALUE_END
170
1
140
0.06
171
1
172
0
173
0
174
0
175
1
176
1
 91
33
178
0
145
0.0
301
CELL_VALUE
 90
4
  1
DWG SIZE
304
ACVALUE_END
170
1
140
0.06
171
1
172
0
173
0
174
0
175
1
176
1
 91
33
178
0
145
0.0
301
CELL_VALUE
 90
4
  1
SHEET
304
ACVALUE_END
170
1
140
0.06
171
1
172
0
173
0
174
0
175
1
176
1
 91
33
178
0
145
0.0
301
CELL_VALUE
 90
4
  1
 
304
ACVALUE_END
170
1
140
0.125
171
1
172
0
173
0
174
0
175
1
176
1
 91
33
178
0
145
0.0
301
CELL_VALUE
 90
4
  1
Z9P
304
ACVALUE_END
170
5
140
0.125
171
1
172
0
173
0
174
0
175
4
176
1
 91
33
178
0
145
0.0
301
CELL_VALUE
 90
4
  1
ALL DIMENSIONS IN INCH\PVIEWS ARE THIRD ANGLE
304
ACVALUE_END
170
5
140
0.12
171
1
172
0
173
1
174
0
175
1
176
1
 91
1
178
0
145
0.0
170
1
171
1
172
0
173
1
174
0
175
1
176
1
 91
1
178
0
145
0.0
170
1
171
1
172
0
173
1
174
0
175
1
176
1
 91
1
178
0
145
0.0
170
5
171
1
172
0
173
0
174
0
175
1
176
1
 91
33
178
0
145
0.0
301
CELL_VALUE
 90
4
  1
 
304
ACVALUE_END
170
1
140
0.125
171
1
172
0
173
0
174
0
175
1
176
1
 91
33
178
0
145
0.0
301
CELL_VALUE
 90
4
  1
MODEL
304
ACVALUE_END
170
1
140
0.06
171
1
172
0
173
0
174
0
175
1
176
1
 91
33
178
0
145
0.0
301
CELL_VALUE
 90
4
  1
 
304
ACVALUE_END
170
1
140
0.125
171
1
172
0
173
0
174
0
175
1
176
1
 91
33
178
0
145
0.0
301
CELL_VALUE
 90
4
  1
 
304
ACVALUE_END
170
1
140
0.125
171
1
172
0
173
0
174
0
175
1
176
1
 91
33
178
0
145
0.0
301
CELL_VALUE
 90
4
  1
 
304
ACVALUE_END
170
1
140
0.125
171
1
172
0
173
0
174
0
175
1
176
1
 91
33
178
0
145
0.0
301
CELL_VALUE
 90
4
  1
 
304
ACVALUE_END
170
1
140
0.125
171
1
172
0
173
0
174
0
175
1
176
1
 91
33
178
0
145
0.0
301
CELL_VALUE
 90
4
  1
 
304
ACVALUE_END
170
1
140
0.125
  0
ACAD_TABLE
  5
271
100
AcDbEntity
  8
0
 62
2
  6
CONTINUOUS
100
AcDbBlockReference
  2
*T2
 10
12.4237499994
 20
16.47875
 30
0.0
100
AcDbTable
342
       354
343
213
 11
1.0
 21
0.0
 31
0.0
 90
22
 91
7
 92
3
 93
16
 94
0
 95
0
 96
0
 41
0.028
141
0.344
141
0.25
141
0.25
141
0.25
141
0.25
141
0.25
141
0.25
142
3.055
142
3.0
142
3.0
171
1
172
0
173
0
174
0
175
1
176
1
 91
33
178
0
145
0.0
301
CELL_VALUE
 90
4
  1
Technical Data
304
ACVALUE_END
170
5
140
0.145
171
1
172
0
173
0
174
0
175
1
176
1
 91
33
178
0
145
0.0
301
CELL_VALUE
 90
4
  1
U.S. Units
304
ACVALUE_END
170
5
140
0.145
171
1
172
0
173
0
174
0
175
1
176
1
 91
33
178
0
145
0.0
301
CELL_VALUE
 90
4
  1
Metric Units
304
ACVALUE_END
170
5
140
0.145
171
1
172
0
173
0
174
0
175
1
176
1
 91
33
178
0
145
0.0
301
CELL_VALUE
 90
4
  1
Cavity
304
ACVALUE_END
170
5
140
0.125
171
1
172
0
173
0
174
0
175
2
176
1
 91
33
178
0
145
0.0
301
CELL_VALUE
 90
4
  1
T-163A
304
ACVALUE_END
170
5
140
0.125
171
1
172
0
173
1
174
0
175
1
176
1
 91
1
178
0
145
0.0
170
1
171
1
172
0
173
0
174
0
175
1
176
1
 91
33
178
0
145
0.0
301
CELL_VALUE
 90
4
  1
Body Features
304
ACVALUE_END
170
5
140
0.125
171
1
172
0
173
0
174
0
175
2
176
1
 91
33
178
0
145
0.0
301
CELL_VALUE
 90
4
  1
Bypass compensator with shuttle
304
ACVALUE_END
170
5
140
0.125
171
1
172
0
173
1
174
0
175
1
176
1
 91
1
178
0
145
0.0
170
1
171
1
172
0
173
0
174
0
175
1
176
1
 91
33
178
0
145
0.0
301
CELL_VALUE
 90
4
  1
Body Type
304
ACVALUE_END
170
5
140
0.125
171
1
172
0
173
0
174
0
175
2
176
1
 91
33
178
0
145
0.0
301
CELL_VALUE
 90
4
  1
Sandwich
304
ACVALUE_END
170
5
140
0.125
171
1
172
0
173
1
174
0
175
1
176
1
 91
1
178
0
145
0.0
170
1
171
1
172
0
173
0
174
0
175
1
176
1
 91
33
178
0
145
0.0
301
CELL_VALUE
 90
4
  1
Interface
304
ACVALUE_END
170
5
140
0.125
171
1
172
0
173
0
174
0
175
2
176
1
 91
33
178
0
145
0.0
301
CELL_VALUE
 90
4
  1
Wandfluh NG4 Mini
304
ACVALUE_END
170
5
140
0.125
171
1
172
0
173
1
174
0
175
1
176
1
 91
1
178
0
145
0.0
170
1
171
1
172
0
173
0
174
0
175
1
176
1
 91
33
178
0
145
0.0
301
CELL_VALUE
 90
4
  1
Open Cavity Quantity
304
ACVALUE_END
170
5
140
0.125
171
1
172
0
173
0
174
0
175
2
176
1
 91
33
178
0
145
0.0
301
CELL_VALUE
 90
4
  1
1
304
ACVALUE_END
170
5
140
0.125
171
1
172
0
173
1
174
0
175
1
176
1
 91
1
178
0
145
0.0
170
1
171
1
172
0
173
0
174
0
175
1
176
1
 91
33
178
0
145
0.0
301
CELL_VALUE
 90
4
  1
Weight
304
ACVALUE_END
170
5
140
0.125
171
1
172
0
173
0
174
0
175
1
176
1
 91
33
178
0
145
0.0
301
CELL_VALUE
 90
4
  1
1.236 lb.
304
ACVALUE_END
170
5
140
0.125
171
1
172
0
173
0
174
0
175
1
176
1
 91
33
178
0
145
0.0
301
CELL_VALUE
 90
4
  1
0,561 kg.
304
ACVALUE_END
170
5
140
0.125
  0
MTEXT
  5
272
100
AcDbEntity
  8
0
100
AcDbMText
 62
2
  6
CONTINUOUS
  7
STANDARD
 71
1
 72
1
 10
0.52125
 20
5.75995
 30
0.0
 11
1.0
 21
0.0
 31
0.0
 44
0.6
  3
Notes\P \P1. Important: Carefully consider\P   the maximum system pressure. The\P   pressure rating of the manifold is\P   dependent on the manifold material,\P   with the port type/size a secondary\P   consideration. Manifolds\P   constructed of alu
  1
minum are not\P   rated for pressures higher than\P   3000 psi (210 bar), regardless of\P   the port type/size specified.
 40
0.1
 41
3.04
  0
LINE
  5
273
100
AcDbEntity
  8
0
100
AcDbLine
 62
7
  6
CONTINUOUS
 10
0.30125
 20
0.30125
 11
0.30125
 21
16.69875
  0
LINE
  5
274
100
AcDbEntity
  8
0
100
AcDbLine
 62
7
  6
CONTINUOUS
 10
0.30125
 20
0.30125
 11
21.69875
 21
0.30125
  0
LINE
  5
275
100
AcDbEntity
  8
0
100
AcDbLine
 62
7
  6
CONTINUOUS
 10
0.30125
 20
16.69875
 11
21.69875
 21
16.69875
  0
LINE
  5
276
100
AcDbEntity
  8
0
100
AcDbLine
 62
7
  6
CONTINUOUS
 10
21.69875
 20
0.30125
 11
21.69875
 21
16.69875
  0
LINE
  5
277
100
AcDbEntity
  8
0
100
AcDbLine
 62
7
  6
CONTINUOUS
 10
10.6684230766
 20
5.28865405
 11
9.4610157222
 21
5.3723880345
  0
LINE
  5
278
100
AcDbEntity
  8
0
100
AcDbLine
 62
7
  6
CONTINUOUS
 10
10.652376309
 20
5.3330414667
 11
9.4449689546
 21
5.4167754511
  0
LINE
  5
279
100
AcDbEntity
  8
0
100
AcDbLine
 62
7
  6
CONTINUOUS
 10
8.7804119468
 20
6.127419644
 11
8.7365713095
 21
6.1470728378
  0
LINE
  5
27A
100
AcDbEntity
  8
0
100
AcDbLine
 62
7
  6
CONTINUOUS
 10
10.4285282682
 20
11.7130576797
 11
9.3280306341
 21
10.6500585302
  0
LINE
  5
27B
100
AcDbEntity
  8
0
100
AcDbLine
 62
4
  6
CONTINUOUS
 10
11.1507941519
 20
5.8577471519
 11
10.918971945
 21
5.8013796369
  0
LINE
  5
27C
100
AcDbEntity
  8
0
100
AcDbLine
 62
7
  6
CONTINUOUS
 10
11.3169333169
 20
5.9515112895
 11
11.3928674892
 21
5.962858072
  0
LINE
  5
27D
100
AcDbEntity
  8
0
100
AcDbLine
 62
7
  6
CONTINUOUS
 10
11.6572567788
 20
5.9254922968
 11
12.2258082847
 21
5.886063116
  0
LINE
  5
27E
100
AcDbEntity
  8
0
100
AcDbLine
 62
4
  6
CONTINUOUS
 10
10.9962460163
 20
6.0278428687
 11
10.9769274967
 21
6.0291826126
  0
LINE
  5
27F
100
AcDbEntity
  8
0
100
AcDbLine
 62
4
  6
CONTINUOUS
 10
11.1121571128
 20
6.0342932948
 11
11.0928386001
 21
6.0356330382
  0
LINE
  5
280
100
AcDbEntity
  8
0
100
AcDbLine
 62
4
  6
CONTINUOUS
 10
10.918971945
 20
5.9462685162
 11
11.1507941519
 21
5.8577471519
  0
LINE
  5
281
100
AcDbEntity
  8
0
100
AcDbLine
 62
7
  6
CONTINUOUS
 10
9.4449689546
 20
5.4167754511
 11
9.4610157222
 21
5.3723880345
  0
LINE
  5
282
100
AcDbEntity
  8
0
100
AcDbLine
 62
7
  6
CONTINUOUS
 10
8.7365713095
 20
6.1470728378
 11
8.7365713095
 21
8.2588060625
  0
LINE
  5
283
100
AcDbEntity
  8
0
100
AcDbLine
 62
7
  6
CONTINUOUS
 10
8.7365713095
 20
8.5664822577
 11
8.7365713095
 21
9.1993986297
  0
LINE
  5
284
100
AcDbEntity
  8
0
100
AcDbLine
 62
7
  6
CONTINUOUS
 10
8.7804119468
 20
6.127419644
 11
8.7804119468
 21
8.169141802
  0
LINE
  5
285
100
AcDbEntity
  8
0
100
AcDbLine
 62
7
  6
CONTINUOUS
 10
8.7804119468
 20
8.6420676285
 11
8.7804119468
 21
9.1797454359
  0
LINE
  5
286
100
AcDbEntity
  8
0
100
AcDbLine
 62
7
  6
CONTINUOUS
 10
9.6511898974
 20
10.3755986305
 11
8.9399557633
 21
9.6885991711
  0
LINE
  5
287
100
AcDbEntity
  8
0
100
AcDbLine
 62
4
  6
CONTINUOUS
 10
10.9962460163
 20
6.390065067
 11
11.0735200875
 21
6.3847060919
  0
LINE
  5
288
100
AcDbEntity
  8
0
100
AcDbLine
 62
7
  6
CONTINUOUS
 10
9.4610157222
 20
9.8736026517
 11
10.1722498563
 21
10.5606021111
  0
LINE
  5
289
100
AcDbEntity
  8
0
100
AcDbLine
 62
4
  6
CONTINUOUS
 10
11.1507941519
 20
6.5532137725
 11
10.918971945
 21
6.5692906972
  0
LINE
  5
28A
100
AcDbEntity
  8
0
100
AcDbLine
 62
4
  6
CONTINUOUS
 10
10.9962460163
 20
6.2741539635
 11
10.9576089806
 21
6.291322339
  0
LINE
  5
28B
100
AcDbEntity
  8
0
100
AcDbLine
 62
4
  6
CONTINUOUS
 10
10.9962460163
 20
6.390065067
 11
11.0348830484
 21
6.3728966917
  0
LINE
  5
28C
100
AcDbEntity
  8
0
100
AcDbLine
 62
4
  6
CONTINUOUS
 10
11.0735200875
 20
6.3847060919
 11
11.1121571128
 21
6.3675377172
  0
LINE
  5
28D
100
AcDbEntity
  8
0
100
AcDbLine
 62
4
  6
CONTINUOUS
 10
10.9769274967
 20
6.0291826126
 11
10.9382904628
 21
6.0608398759
  0
LINE
  5
28E
100
AcDbEntity
  8
0
100
AcDbLine
 62
4
  6
CONTINUOUS
 10
11.0928386001
 20
6.0356330382
 11
11.0735200875
 21
6.0514616696
  0
LINE
  5
28F
100
AcDbEntity
  8
0
100
AcDbLine
 62
7
  6
CONTINUOUS
 10
9.3280306341
 20
10.6500585302
 11
9.3280306341
 21
10.0634507337
  0
LINE
  5
290
100
AcDbEntity
  8
0
100
AcDbLine
 62
7
  6
CONTINUOUS
 10
9.4449689546
 20
9.7982152588
 11
9.4610157222
 21
9.8736026517
  0
LINE
  5
291
100
AcDbEntity
  8
0
100
AcDbLine
 62
7
  6
CONTINUOUS
 10
9.3051719973
 20
9.3327178987
 11
9.0565745084
 21
9.0925911496
  0
LINE
  5
292
100
AcDbEntity
  8
0
100
AcDbLine
 62
7
  6
CONTINUOUS
 10
9.3591084408
 20
9.3601176138
 11
9.1105109519
 21
9.1199908647
  0
LINE
  5
293
100
AcDbEntity
  8
0
100
AcDbLine
 62
4
  6
CONTINUOUS
 10
10.9576089806
 20
6.291322339
 11
10.9382904628
 21
6.3071509707
  0
LINE
  5
294
100
AcDbEntity
  8
0
100
AcDbLine
 62
4
  6
CONTINUOUS
 10
11.1121571128
 20
6.3675377172
 11
11.1314756392
 21
6.3517090849
  0
LINE
  5
295
100
AcDbEntity
  8
0
100
AcDbLine
 62
4
  6
CONTINUOUS
 10
11.1507941519
 20
7.0168581862
 11
10.918971945
 21
7.0329351109
  0
LINE
  5
296
100
AcDbEntity
  8
0
100
AcDbLine
 62
4
  6
CONTINUOUS
 10
10.9382904628
 20
6.0608398759
 11
10.918971945
 21
6.0911573955
  0
LINE
  5
297
100
AcDbEntity
  8
0
100
AcDbLine
 62
7
  6
CONTINUOUS
 10
10.652376309
 20
5.3330414667
 11
10.6684230766
 21
5.28865405
  0
LINE
  5
298
100
AcDbEntity
  8
0
100
AcDbLine
 62
7
  6
CONTINUOUS
 10
10.1236849979
 20
9.3070940495
 11
9.875087509
 21
9.0669673004
  0
LINE
  5
299
100
AcDbEntity
  8
0
100
AcDbLine
 62
7
  6
CONTINUOUS
 10
10.6684230766
 20
9.7898686672
 11
11.3796572108
 21
10.4768681267
  0
LINE
  5
29A
100
AcDbEntity
  8
0
100
AcDbLine
 62
7
  6
CONTINUOUS
 10
10.1776214414
 20
9.2722133242
 11
9.9290239526
 21
9.0320865751
  0
LINE
  5
29B
100
AcDbEntity
  8
0
100
AcDbLine
 62
4
  6
CONTINUOUS
 10
11.0735200875
 20
6.0514616696
 11
11.0542015611
 21
6.0817791898
  0
LINE
  5
29C
100
AcDbEntity
  8
0
100
AcDbLine
 62
4
  6
CONTINUOUS
 10
10.9382904628
 20
6.3071509707
 11
10.918971945
 21
6.3374684903
  0
LINE
  5
29D
100
AcDbEntity
  8
0
100
AcDbLine
 62
4
  6
CONTINUOUS
 10
11.1314756392
 20
6.134375766
 11
11.1507941519
 21
6.1040582467
  0
LINE
  5
29E
100
AcDbEntity
  8
0
100
AcDbLine
 62
4
  6
CONTINUOUS
 10
11.1314756392
 20
6.3517090849
 11
11.1507941519
 21
6.3213915656
  0
LINE
  5
29F
100
AcDbEntity
  8
0
100
AcDbLine
 62
4
  6
CONTINUOUS
 10
11.0348830484
 20
6.3728966917
 11
11.0542015611
 21
6.3280902846
  0
LINE
  5
2A0
100
AcDbEntity
  8
0
100
AcDbLine
 62
7
  6
CONTINUOUS
 10
10.652376309
 20
9.7144812743
 11
10.6684230766
 21
9.7898686672
  0
LINE
  5
2A1
100
AcDbEntity
  8
0
100
AcDbLine
 62
7
  6
CONTINUOUS
 10
13.3263059188
 20
11.5120961171
 11
12.2258082847
 21
10.4490969676
  0
LINE
  5
2A2
100
AcDbEntity
  8
0
100
AcDbLine
 62
4
  6
CONTINUOUS
 10
10.918971945
 20
8.9821736393
 11
10.9382904628
 21
9.0098116714
  0
LINE
  5
2A3
100
AcDbEntity
  8
0
100
AcDbLine
 62
7
  6
CONTINUOUS
 10
10.55990972
 20
8.5835588205
 11
10.3113122311
 21
8.3434320714
  0
LINE
  5
2A4
100
AcDbEntity
  8
0
100
AcDbLine
 62
7
  6
CONTINUOUS
 10
10.55990972
 20
8.5212783801
 11
10.3113122311
 21
8.281151631
  0
LINE
  5
2A5
100
AcDbEntity
  8
0
100
AcDbLine
 62
4
  6
CONTINUOUS
 10
10.9382904628
 20
9.0098116714
 11
10.9769274967
 21
9.0361099599
  0
LINE
  5
2A6
100
AcDbEntity
  8
0
100
AcDbLine
 62
4
  6
CONTINUOUS
 10
11.1314756392
 20
8.9094809064
 11
11.1121571128
 21
8.8963317628
  0
LINE
  5
2A7
100
AcDbEntity
  8
0
100
AcDbLine
 62
4
  6
CONTINUOUS
 10
10.9382904628
 20
8.7779894646
 11
10.9769274967
 21
8.804287753
  0
LINE
  5
2A8
100
AcDbEntity
  8
0
100
AcDbLine
 62
7
  6
CONTINUOUS
 10
8.7804119468
 20
9.1797454359
 11
8.7365713095
 21
9.1993986297
  0
LINE
  5
2A9
100
AcDbEntity
  8
0
100
AcDbLine
 62
4
  6
CONTINUOUS
 10
10.918971945
 20
6.0911573955
 11
10.918971945
 21
6.1201351714
  0
LINE
  5
2AA
100
AcDbEntity
  8
0
100
AcDbLine
 62
4
  6
CONTINUOUS
 10
10.918971945
 20
8.7213736566
 11
10.918971945
 21
8.7503514325
  0
LINE
  5
2AB
100
AcDbEntity
  8
0
100
AcDbLine
 62
4
  6
CONTINUOUS
 10
10.918971945
 20
8.9531958635
 11
10.918971945
 21
8.9821736393
  0
LINE
  5
2AC
100
AcDbEntity
  8
0
100
AcDbLine
 62
4
  6
CONTINUOUS
 10
10.9962460163
 20
8.5421480264
 11
10.9962460163
 21
8.4552146988
  0
LINE
  5
2AD
100
AcDbEntity
  8
0
100
AcDbLine
 62
4
  6
CONTINUOUS
 10
10.9962460163
 20
5.9119317653
 11
10.9962460163
 21
5.8249984377
  0
LINE
  5
2AE
100
AcDbEntity
  8
0
100
AcDbLine
 62
4
  6
CONTINUOUS
 10
11.0348830484
 20
6.8365411055
 11
11.0348830484
 21
6.7496077779
  0
LINE
  5
2AF
100
AcDbEntity
  8
0
100
AcDbLine
 62
4
  6
CONTINUOUS
 10
10.918971945
 20
8.7503514325
 11
10.9382904628
 21
8.7779894646
  0
LINE
  5
2B0
100
AcDbEntity
  8
0
100
AcDbLine
 62
4
  6
CONTINUOUS
 10
11.1507941519
 20
8.9371189388
 11
11.1314756392
 21
8.9094809064
  0
LINE
  5
2B1
100
AcDbEntity
  8
0
100
AcDbLine
 62
4
  6
CONTINUOUS
 10
11.0735200875
 20
8.7686112582
 11
11.0155645289
 21
8.6856971623
  0
LINE
  5
2B2
100
AcDbEntity
  8
0
100
AcDbLine
 62
4
  6
CONTINUOUS
 10
11.1314756392
 20
8.6776586995
 11
11.1507941519
 21
8.705296732
  0
LINE
  5
2B3
100
AcDbEntity
  8
0
100
AcDbLine
 62
7
  6
CONTINUOUS
 10
10.1776214414
 20
7.8856474407
 11
9.9290239526
 21
7.6455206916
  0
LINE
  5
2B4
100
AcDbEntity
  8
0
100
AcDbLine
 62
7
  6
CONTINUOUS
 10
11.3928674892
 20
9.0151838639
 11
12.1041016234
 21
9.7021833234
  0
LINE
  5
2B5
100
AcDbEntity
  8
0
100
AcDbLine
 62
4
  6
CONTINUOUS
 10
11.0928386001
 20
8.7817604028
 11
11.0735200875
 21
8.7686112582
  0
LINE
  5
2B6
100
AcDbEntity
  8
0
100
AcDbLine
 62
4
  6
CONTINUOUS
 10
11.0155645289
 20
8.6856971623
 11
10.9962460163
 21
8.6725480178
  0
LINE
  5
2B7
100
AcDbEntity
  8
0
100
AcDbLine
 62
4
  6
CONTINUOUS
 10
11.1121571128
 20
8.6645095559
 11
11.1314756392
 21
8.6776586995
  0
LINE
  5
2B8
100
AcDbEntity
  8
0
100
AcDbLine
 62
4
  6
CONTINUOUS
 10
11.1507941519
 20
8.487963413
 11
10.918971945
 21
8.431595898
  0
LINE
  5
2B9
100
AcDbEntity
  8
0
100
AcDbLine
 62
4
  6
CONTINUOUS
 10
10.918971945
 20
8.3301736825
 11
11.1507941519
 21
8.1981856544
  0
LINE
  5
2BA
100
AcDbEntity
  8
0
100
AcDbLine
 62
4
  6
CONTINUOUS
 10
11.0542015611
 20
6.1107569656
 11
11.0542015611
 21
6.0817791898
  0
LINE
  5
2BB
100
AcDbEntity
  8
0
100
AcDbLine
 62
4
  6
CONTINUOUS
 10
11.1507941519
 20
8.9660967147
 11
11.1507941519
 21
8.9371189388
  0
LINE
  5
2BC
100
AcDbEntity
  8
0
100
AcDbLine
 62
4
  6
CONTINUOUS
 10
11.1507941519
 20
7.0893026259
 11
11.1507941519
 21
6.9444137466
  0
LINE
  5
2BD
100
AcDbEntity
  8
0
100
AcDbLine
 62
4
  6
CONTINUOUS
 10
11.1507941519
 20
6.1040582467
 11
11.1507941519
 21
6.0750804708
  0
LINE
  5
2BE
100
AcDbEntity
  8
0
100
AcDbLine
 62
4
  6
CONTINUOUS
 10
11.1507941519
 20
8.705296732
 11
11.1507941519
 21
8.7342745078
  0
LINE
  5
2BF
100
AcDbEntity
  8
0
100
AcDbLine
 62
4
  6
CONTINUOUS
 10
11.1507941519
 20
8.3140967579
 11
10.918971945
 21
8.2142625791
  0
LINE
  5
2C0
100
AcDbEntity
  8
0
100
AcDbLine
 62
4
  6
CONTINUOUS
 10
10.9962460163
 20
8.6725480178
 11
10.9576089806
 21
8.6752275053
  0
LINE
  5
2C1
100
AcDbEntity
  8
0
100
AcDbLine
 62
4
  6
CONTINUOUS
 10
11.1121571128
 20
8.7804206594
 11
11.0928386001
 21
8.7817604028
  0
LINE
  5
2C2
100
AcDbEntity
  8
0
100
AcDbLine
 62
4
  6
CONTINUOUS
 10
10.918971945
 20
8.5764847773
 11
11.1507941519
 21
8.487963413
  0
LINE
  5
2C3
100
AcDbEntity
  8
0
100
AcDbLine
 62
4
  6
CONTINUOUS
 10
10.9576089806
 20
8.6752275053
 11
10.9382904628
 21
8.691056137
  0
LINE
  5
2C4
100
AcDbEntity
  8
0
100
AcDbLine
 62
4
  6
CONTINUOUS
 10
11.1314756392
 20
8.7645920271
 11
11.1121571128
 21
8.7804206594
  0
LINE
  5
2C5
100
AcDbEntity
  8
0
100
AcDbLine
 62
4
  6
CONTINUOUS
 10
10.9576089806
 20
8.9070497122
 11
10.9382904628
 21
8.9228783439
  0
LINE
  5
2C6
100
AcDbEntity
  8
0
100
AcDbLine
 62
4
  6
CONTINUOUS
 10
10.9382904628
 20
8.691056137
 11
10.918971945
 21
8.7213736566
  0
LINE
  5
2C7
100
AcDbEntity
  8
0
100
AcDbLine
 62
4
  6
CONTINUOUS
 10
10.9382904628
 20
8.9228783439
 11
10.918971945
 21
8.9531958635
  0
LINE
  5
2C8
100
AcDbEntity
  8
0
100
AcDbLine
 62
4
  6
CONTINUOUS
 10
11.1507941519
 20
8.7342745078
 11
11.1314756392
 21
8.7645920271
  0
LINE
  5
2C9
100
AcDbEntity
  8
0
100
AcDbLine
 62
7
  6
CONTINUOUS
 10
11.3169333169
 20
9.0038370815
 11
11.3169333169
 21
5.9515112895
  0
LINE
  5
2CA
100
AcDbEntity
  8
0
100
AcDbLine
 62
7
  6
CONTINUOUS
 10
11.3928674892
 20
9.0151838639
 11
11.3928674892
 21
5.962858072
  0
LINE
  5
2CB
100
AcDbEntity
  8
0
100
AcDbLine
 62
4
  6
CONTINUOUS
 10
10.9769274967
 20
9.0361099599
 11
11.0348830484
 21
9.0465796167
  0
LINE
  5
2CC
100
AcDbEntity
  8
0
100
AcDbLine
 62
7
  6
CONTINUOUS
 10
11.3169333169
 20
9.0038370815
 11
11.3928674892
 21
9.0151838639
  0
LINE
  5
2CD
100
AcDbEntity
  8
0
100
AcDbLine
 62
4
  6
CONTINUOUS
 10
11.0348830484
 20
9.0465796167
 11
11.0928386001
 21
9.0280714976
  0
LINE
  5
2CE
100
AcDbEntity
  8
0
100
AcDbLine
 62
4
  6
CONTINUOUS
 10
11.0928386001
 20
9.0280714976
 11
11.1314756392
 21
8.9964142339
  0
LINE
  5
2CF
100
AcDbEntity
  8
0
100
AcDbLine
 62
4
  6
CONTINUOUS
 10
11.1314756392
 20
8.9964142339
 11
11.1507941519
 21
8.9660967147
  0
LINE
  5
2D0
100
AcDbEntity
  8
0
100
AcDbLine
 62
4
  6
CONTINUOUS
 10
11.0542015611
 20
6.3280902846
 11
11.0348830484
 21
6.2859633642
  0
LINE
  5
2D1
100
AcDbEntity
  8
0
100
AcDbLine
 62
7
  6
CONTINUOUS
 10
12.1041016234
 20
9.7021833234
 11
12.1041016234
 21
6.6498575315
  0
LINE
  5
2D2
100
AcDbEntity
  8
0
100
AcDbLine
 62
7
  6
CONTINUOUS
 10
12.2258082847
 20
5.886063116
 11
12.2258082847
 21
10.4490969676
  0
LINE
  5
2D3
100
AcDbEntity
  8
0
100
AcDbLine
 62
4
  6
CONTINUOUS
 10
10.918971945
 20
6.3374684903
 11
10.9382904628
 21
6.3651065224
  0
LINE
  5
2D4
100
AcDbEntity
  8
0
100
AcDbLine
 62
4
  6
CONTINUOUS
 10
10.918971945
 20
6.1201351714
 11
10.9382904628
 21
6.1477732035
  0
LINE
  5
2D5
100
AcDbEntity
  8
0
100
AcDbLine
 62
7
  6
CONTINUOUS
 10
9.4449689546
 20
9.7982152588
 11
10.652376309
 21
9.7144812743
  0
LINE
  5
2D6
100
AcDbEntity
  8
0
100
AcDbLine
 62
7
  6
CONTINUOUS
 10
9.4610157222
 20
9.8736026517
 11
10.6684230766
 21
9.7898686672
  0
LINE
  5
2D7
100
AcDbEntity
  8
0
100
AcDbLine
 62
4
  6
CONTINUOUS
 10
11.1507941519
 20
6.3213915656
 11
11.1314756392
 21
6.2937535332
  0
LINE
  5
2D8
100
AcDbEntity
  8
0
100
AcDbLine
 62
4
  6
CONTINUOUS
 10
11.0542015611
 20
6.0817791898
 11
11.0348830484
 21
6.0541411573
  0
LINE
  5
2D9
100
AcDbEntity
  8
0
100
AcDbLine
 62
4
  6
CONTINUOUS
 10
11.1507941519
 20
6.0750804708
 11
11.1314756392
 21
6.0474424384
  0
LINE
  5
2DA
100
AcDbEntity
  8
0
100
AcDbLine
 62
4
  6
CONTINUOUS
 10
10.9382904628
 20
6.3651065224
 11
10.9576089806
 21
6.3782556666
  0
LINE
  5
2DB
100
AcDbEntity
  8
0
100
AcDbLine
 62
7
  6
CONTINUOUS
 10
11.3928674892
 20
5.962858072
 11
12.1041016234
 21
6.6498575315
  0
LINE
  5
2DC
100
AcDbEntity
  8
0
100
AcDbLine
 62
4
  6
CONTINUOUS
 10
11.1314756392
 20
6.2937535332
 11
11.1121571128
 21
6.2806043896
  0
LINE
  5
2DD
100
AcDbEntity
  8
0
100
AcDbLine
 62
4
  6
CONTINUOUS
 10
10.9382904628
 20
6.1477732035
 11
10.9576089806
 21
6.1609223476
  0
LINE
  5
2DE
100
AcDbEntity
  8
0
100
AcDbLine
 62
4
  6
CONTINUOUS
 10
11.0348830484
 20
6.0541411573
 11
10.9962460163
 21
6.0278428687
  0
LINE
  5
2DF
100
AcDbEntity
  8
0
100
AcDbLine
 62
4
  6
CONTINUOUS
 10
11.1314756392
 20
6.0474424384
 11
11.1121571128
 21
6.0342932948
  0
LINE
  5
2E0
100
AcDbEntity
  8
0
100
AcDbLine
 62
4
  6
CONTINUOUS
 10
10.9576089806
 20
6.3782556666
 11
10.9962460163
 21
6.390065067
  0
LINE
  5
2E1
100
AcDbEntity
  8
0
100
AcDbLine
 62
4
  6
CONTINUOUS
 10
11.0348830484
 20
6.2859633642
 11
10.9962460163
 21
6.2741539635
  0
LINE
  5
2E2
100
AcDbEntity
  8
0
100
AcDbLine
 62
7
  6
CONTINUOUS
 10
10.1722498563
 20
10.5606021111
 11
11.3796572108
 21
10.4768681267
  0
LINE
  5
2E3
100
AcDbEntity
  8
0
100
AcDbLine
 62
7
  6
CONTINUOUS
 10
12.2258082847
 20
10.4490969676
 11
9.3280306341
 21
10.6500585302
  0
LINE
  5
2E4
100
AcDbEntity
  8
0
100
AcDbLine
 62
7
  6
CONTINUOUS
 10
13.3263059188
 20
6.9490622654
 11
13.3263059188
 21
11.5120961171
  0
LINE
  5
2E5
100
AcDbEntity
  8
0
100
AcDbLine
 62
7
  6
CONTINUOUS
 10
11.9007171697
 20
6.16065699
 11
11.1894830355
 21
5.4736575306
  0
LINE
  5
2E6
100
AcDbEntity
  8
0
100
AcDbLine
 62
7
  6
CONTINUOUS
 10
13.3263059188
 20
6.9490622654
 11
12.2258082847
 21
5.886063116
  0
LINE
  5
2E7
100
AcDbEntity
  8
0
100
AcDbLine
 62
7
  6
CONTINUOUS
 10
13.3263059188
 20
11.5120961171
 11
10.4285282682
 21
11.7130576797
  0
ARC
  5
2E8
100
AcDbEntity
  8
0
100
AcDbCircle
 62
7
  6
CONTINUOUS
 10
11.5134298301
 20
11.9394669552
 40
0.987044304
100
AcDbArc
 50
256.6821195005
 51
257.9551537087
  0
ARC
  5
2E9
100
AcDbEntity
  8
0
100
AcDbCircle
 62
7
  6
CONTINUOUS
 10
9.5714452713
 20
8.4430338911
 40
0.8990403861
100
AcDbArc
 50
235.0620310751
 51
239.1564303198
  0
ARC
  5
2EA
100
AcDbEntity
  8
0
100
AcDbCircle
 62
7
  6
CONTINUOUS
 10
9.4141531897
 20
8.2950779501
 40
0.8990403861
100
AcDbArc
 50
55.0620310751
 51
59.1564303198
  0
ARC
  5
2EB
100
AcDbEntity
  8
0
100
AcDbCircle
 62
7
  6
CONTINUOUS
 10
9.663319209
 20
8.5360838239
 40
0.8979941133
100
AcDbArc
 50
55.0596448203
 51
59.1588165746
  0
ARC
  5
2EC
100
AcDbEntity
  8
0
100
AcDbCircle
 62
7
  6
CONTINUOUS
 10
9.7376120956
 20
8.5523467013
 40
0.8228897736
100
AcDbArc
 50
0.0021468494
 51
2.1737440875
  0
ARC
  5
2ED
100
AcDbEntity
  8
0
100
AcDbCircle
 62
7
  6
CONTINUOUS
 10
9.4955019462
 20
8.425871343
 40
0.821807865
100
AcDbArc
 50
180.000717226
 51
182.1751737109
  0
ARC
  5
2EE
100
AcDbEntity
  8
0
100
AcDbCircle
 62
7
  6
CONTINUOUS
 10
9.4900965147
 20
8.3122404982
 40
0.821807865
100
AcDbArc
 50
0.000717226
 51
2.1751737109
  0
ARC
  5
2EF
100
AcDbEntity
  8
0
100
AcDbCircle
 62
7
  6
CONTINUOUS
 10
9.7451689353
 20
8.5523468019
 40
0.8153329338
100
AcDbArc
 50
357.816204354
 51
0.002159678
  0
ARC
  5
2F0
100
AcDbEntity
  8
0
100
AcDbCircle
 62
7
  6
CONTINUOUS
 10
9.4890270145
 20
8.4258917884
 40
0.8153329338
100
AcDbArc
 50
177.816204354
 51
180.002159678
  0
ARC
  5
2F1
100
AcDbEntity
  8
0
100
AcDbCircle
 62
7
  6
CONTINUOUS
 10
9.4965714464
 20
8.3122200528
 40
0.8153329338
100
AcDbArc
 50
357.816204354
 51
0.002159678
  0
ARC
  5
2F2
100
AcDbEntity
  8
0
100
AcDbCircle
 62
7
  6
CONTINUOUS
 10
9.6718935471
 20
8.6776120366
 40
0.7507652001
100
AcDbArc
 50
114.6214869613
 51
119.2396551685
  0
ARC
  5
2F3
100
AcDbEntity
  8
0
100
AcDbCircle
 62
7
  6
CONTINUOUS
 10
9.5623024027
 20
8.3006265537
 40
0.7507652001
100
AcDbArc
 50
294.6214869613
 51
299.2396551685
  0
ARC
  5
2F4
100
AcDbEntity
  8
0
100
AcDbCircle
 62
7
  6
CONTINUOUS
 10
9.4232960582
 20
8.4374852875
 40
0.7507652001
100
AcDbArc
 50
114.6214869613
 51
119.2396551685
  0
ARC
  5
2F5
100
AcDbEntity
  8
0
100
AcDbCircle
 62
7
  6
CONTINUOUS
 10
9.8226488639
 20
8.6249265215
 40
0.7408543507
100
AcDbArc
 50
355.0501713113
 51
356.7735766084
  0
ARC
  5
2F6
100
AcDbEntity
  8
0
100
AcDbCircle
 62
7
  6
CONTINUOUS
 10
10.6856529911
 20
7.3305441438
 40
0.5530272859
100
AcDbArc
 50
210.7694054585
 51
237.2285980627
  0
SPLINE
  5
2F7
100
AcDbEntity
  8
0
100
AcDbSpline
 62
7
  6
CONTINUOUS
 70
0
 71
3
 72
20
 73
16
 74
0
 42
0.0000001
 43
0.0000001
 44
0.0000000001
 40
0.0
 40
0.0
 40
0.0
 40
0.0
 40
0.1158330542
 40
0.1749272944
 40
0.2348331642
 40
0.295550035
 40
0.3570575387
 40
0.4193136266
 40
0.4822557163
 40
0.5458041092
 40
0.6098673802
 40
0.6743488778
 40
0.7391532655
 40
0.8693867841
 40
1.0
 40
1.0
 40
1.0
 40
1.0
 10
10.1236849979
 20
9.3070940495
 30
0.0
 10
10.0943904943
 20
9.3114857344
 30
0.0
 10
10.0500947236
 20
9.3177532538
 30
0.0
 10
9.9905217899
 20
9.3253418807
 30
0.0
 10
9.9448757947
 20
9.3307021711
 30
0.0
 10
9.8985636435
 20
9.3356603402
 30
0.0
 10
9.8516033693
 20
9.3401865283
 30
0.0
 10
9.804030126
 20
9.3442559226
 30
0.0
 10
9.7558952846
 20
9.3478507555
 30
0.0
 10
9.7072636756
 20
9.3509617544
 30
0.0
 10
9.658209347
 20
9.3535888753
 30
0.0
 10
9.6088104419
 20
9.3557411625
 30
0.0
 10
9.5424815851
 20
9.3580043832
 30
0.0
 10
9.4592172065
 20
9.3597402909
 30
0.0
 10
9.3925100179
 20
9.3601297791
 30
0.0
 10
9.3591084408
 20
9.3601176138
 30
0.0
  0
SPLINE
  5
2F8
100
AcDbEntity
  8
0
100
AcDbSpline
 62
7
  6
CONTINUOUS
 70
0
 71
3
 72
15
 73
11
 74
0
 42
0.0000001
 43
0.0000001
 44
0.0000000001
 40
0.0
 40
0.0
 40
0.0
 40
0.0
 40
0.1341418731
 40
0.2671234915
 40
0.3982059886
 40
0.5265152325
 40
0.6512223536
 40
0.7717616603
 40
0.8879584613
 40
1.0
 40
1.0
 40
1.0
 40
1.0
 10
9.0565745084
 20
9.0925911496
 30
0.0
 10
9.0387932371
 20
9.0645895451
 30
0.0
 10
9.0035014829
 20
9.0087540922
 30
0.0
 10
8.9513199824
 20
8.9252496746
 30
0.0
 10
8.9004079191
 20
8.8426546193
 30
0.0
 10
8.8511393426
 20
8.7614526588
 30
0.0
 10
8.8038304616
 20
8.6821141986
 30
0.0
 10
8.7586635905
 20
8.6049889408
 30
0.0
 10
8.7156524794
 20
8.5302337948
 30
0.0
 10
8.6878544604
 20
8.4811156946
 30
0.0
 10
8.6742862299
 20
8.4569602102
 30
0.0
  0
SPLINE
  5
2F9
100
AcDbEntity
  8
0
100
AcDbSpline
 62
7
  6
CONTINUOUS
 70
0
 71
3
 72
21
 73
17
 74
0
 42
0.0000001
 43
0.0000001
 44
0.0000000001
 40
0.0
 40
0.0
 40
0.0
 40
0.0
 40
0.1260820853
 40
0.1893886579
 40
0.2528248983
 40
0.3163389073
 40
0.3798662745
 40
0.4433316837
 40
0.5066530659
 40
0.5697469326
 40
0.6325342409
 40
0.6949458358
 40
0.7569265905
 40
0.818437812
 40
0.8794568579
 40
1.0
 40
1.0
 40
1.0
 40
1.0
 10
8.6742862299
 20
8.3946797698
 30
0.0
 10
8.687660589
 20
8.3643406906
 30
0.0
 10
8.7081392653
 20
8.3189374354
 30
0.0
 10
8.7363903035
 20
8.2587509486
 30
0.0
 10
8.7581432518
 20
8.2136936011
 30
0.0
 10
8.7804467415
 20
8.1688412803
 30
0.0
 10
8.8033062122
 20
8.1242609687
 30
0.0
 10
8.8267154351
 20
8.0800240565
 30
0.0
 10
8.8506560016
 20
8.036202216
 30
0.0
 10
8.8750980154
 20
7.9928626637
 30
0.0
 10
8.9000019763
 20
7.9500635161
 30
0.0
 10
8.9253215622
 20
7.907849982
 30
0.0
 10
8.9510068463
 20
7.8662519945
 30
0.0
 10
8.9770075172
 20
7.8252835393
 30
0.0
 10
9.0118886174
 20
7.7717164365
 30
0.0
 10
9.0385962309
 20
7.7321336221
 30
0.0
 10
9.0565745084
 20
7.7060252661
 30
0.0
  0
SPLINE
  5
2FA
100
AcDbEntity
  8
0
100
AcDbSpline
 62
7
  6
CONTINUOUS
 70
0
 71
3
 72
20
 73
16
 74
0
 42
0.0000001
 43
0.0000001
 44
0.0000000001
 40
0.0
 40
0.0
 40
0.0
 40
0.0
 40
0.1158330542
 40
0.1749272944
 40
0.2348331642
 40
0.295550035
 40
0.3570575387
 40
0.4193136266
 40
0.4822557163
 40
0.5458041092
 40
0.6098673802
 40
0.6743488778
 40
0.7391532655
 40
0.8693867841
 40
1.0
 40
1.0
 40
1.0
 40
1.0
 10
9.1105109519
 20
7.6711445408
 30
0.0
 10
9.1398054555
 20
7.6667528559
 30
0.0
 10
9.1841012262
 20
7.6604853365
 30
0.0
 10
9.2436741599
 20
7.6528967096
 30
0.0
 10
9.2893201552
 20
7.6475364192
 30
0.0
 10
9.3356323064
 20
7.6425782501
 30
0.0
 10
9.3825925805
 20
7.638052062
 30
0.0
 10
9.4301658238
 20
7.6339826677
 30
0.0
 10
9.4783006652
 20
7.6303878348
 30
0.0
 10
9.5269322742
 20
7.6272768359
 30
0.0
 10
9.5759866028
 20
7.624649715
 30
0.0
 10
9.6253855079
 20
7.6224974278
 30
0.0
 10
9.6917143648
 20
7.6202342071
 30
0.0
 10
9.7749787433
 20
7.6184982994
 30
0.0
 10
9.841685932
 20
7.6181088113
 30
0.0
 10
9.875087509
 20
7.6181209765
 30
0.0
  0
SPLINE
  5
2FB
100
AcDbEntity
  8
0
100
AcDbSpline
 62
7
  6
CONTINUOUS
 70
0
 71
3
 72
15
 73
11
 74
0
 42
0.0000001
 43
0.0000001
 44
0.0000000001
 40
0.0
 40
0.0
 40
0.0
 40
0.0
 40
0.1341418731
 40
0.2671234915
 40
0.3982059886
 40
0.5265152325
 40
0.6512223536
 40
0.7717616603
 40
0.8879584613
 40
1.0
 40
1.0
 40
1.0
 40
1.0
 10
10.1776214414
 20
7.8856474407
 30
0.0
 10
10.1954027127
 20
7.9136490452
 30
0.0
 10
10.2306944669
 20
7.9694844981
 30
0.0
 10
10.2828759674
 20
8.0529889157
 30
0.0
 10
10.3337880307
 20
8.135583971
 30
0.0
 10
10.3830566072
 20
8.2167859315
 30
0.0
 10
10.4303654883
 20
8.2961243917
 30
0.0
 10
10.4755323593
 20
8.3732496495
 30
0.0
 10
10.5185434704
 20
8.4480047955
 30
0.0
 10
10.5463414894
 20
8.4971228957
 30
0.0
 10
10.55990972
 20
8.5212783801
 30
0.0
  0
SPLINE
  5
2FC
100
AcDbEntity
  8
0
100
AcDbSpline
 62
7
  6
CONTINUOUS
 70
0
 71
3
 72
21
 73
17
 74
0
 42
0.0000001
 43
0.0000001
 44
0.0000000001
 40
0.0
 40
0.0
 40
0.0
 40
0.0
 40
0.1260820853
 40
0.1893886579
 40
0.2528248983
 40
0.3163389073
 40
0.3798662745
 40
0.4433316837
 40
0.5066530659
 40
0.5697469326
 40
0.6325342409
 40
0.6949458358
 40
0.7569265905
 40
0.818437812
 40
0.8794568579
 40
1.0
 40
1.0
 40
1.0
 40
1.0
 10
10.55990972
 20
8.5835588205
 30
0.0
 10
10.5465353608
 20
8.6138978997
 30
0.0
 10
10.5260566846
 20
8.6593011549
 30
0.0
 10
10.4978056463
 20
8.7194876417
 30
0.0
 10
10.476052698
 20
8.7645449892
 30
0.0
 10
10.4537492083
 20
8.80939731
 30
0.0
 10
10.4308897376
 20
8.8539776216
 30
0.0
 10
10.4074805148
 20
8.8982145338
 30
0.0
 10
10.3835399483
 20
8.9420363743
 30
0.0
 10
10.3590979345
 20
8.9853759266
 30
0.0
 10
10.3341939735
 20
9.0281750742
 30
0.0
 10
10.3088743877
 20
9.0703886083
 30
0.0
 10
10.2831891035
 20
9.1119865958
 30
0.0
 10
10.2571884326
 20
9.152955051
 30
0.0
 10
10.2223073324
 20
9.2065221538
 30
0.0
 10
10.1955997189
 20
9.2461049682
 30
0.0
 10
10.1776214414
 20
9.2722133242
 30
0.0
  0
SPLINE
  5
2FD
100
AcDbEntity
  8
0
100
AcDbSpline
 62
7
  6
CONTINUOUS
 70
0
 71
3
 72
20
 73
16
 74
0
 42
0.0000001
 43
0.0000001
 44
0.0000000001
 40
0.0
 40
0.0
 40
0.0
 40
0.0
 40
0.1306132159
 40
0.2608467346
 40
0.3256511223
 40
0.3901326199
 40
0.4541958909
 40
0.5177442838
 40
0.5806863735
 40
0.6429424614
 40
0.7044499651
 40
0.7651668359
 40
0.8250727057
 40
0.8841669459
 40
1.0
 40
1.0
 40
1.0
 40
1.0
 10
9.875087509
 20
9.0669673004
 30
0.0
 10
9.841685932
 20
9.0669551352
 30
0.0
 10
9.7749787433
 20
9.0673446233
 30
0.0
 10
9.6917143647
 20
9.0690805311
 30
0.0
 10
9.6253855079
 20
9.0713437517
 30
0.0
 10
9.5759866028
 20
9.0734960389
 30
0.0
 10
9.5269322741
 20
9.0761231598
 30
0.0
 10
9.4783006651
 20
9.0792341588
 30
0.0
 10
9.4301658237
 20
9.0828289916
 30
0.0
 10
9.3825925805
 20
9.0868983859
 30
0.0
 10
9.3356323063
 20
9.091424574
 30
0.0
 10
9.2893201551
 20
9.0963827432
 30
0.0
 10
9.2436741599
 20
9.1017430335
 30
0.0
 10
9.1841012262
 20
9.1093316605
 30
0.0
 10
9.1398054555
 20
9.1155991798
 30
0.0
 10
9.1105109519
 20
9.1199908647
 30
0.0
  0
SPLINE
  5
2FE
100
AcDbEntity
  8
0
100
AcDbSpline
 62
7
  6
CONTINUOUS
 70
0
 71
3
 72
15
 73
11
 74
0
 42
0.0000001
 43
0.0000001
 44
0.0000000001
 40
0.0
 40
0.0
 40
0.0
 40
0.0
 40
0.1120415388
 40
0.2282383398
 40
0.3487776464
 40
0.4734847676
 40
0.6017940114
 40
0.7328765086
 40
0.8658581269
 40
1.0
 40
1.0
 40
1.0
 40
1.0
 10
9.9290239526
 20
7.6455206916
 30
0.0
 10
9.9425921831
 20
7.669676176
 30
0.0
 10
9.9703902021
 20
7.7187942763
 30
0.0
 10
10.0134013132
 20
7.7935494223
 30
0.0
 10
10.0585681843
 20
7.8706746801
 30
0.0
 10
10.1058770654
 20
7.9500131402
 30
0.0
 10
10.1551456419
 20
8.0312151008
 30
0.0
 10
10.2060577051
 20
8.1138101561
 30
0.0
 10
10.2582392056
 20
8.1973145737
 30
0.0
 10
10.2935309598
 20
8.2531500265
 30
0.0
 10
10.3113122311
 20
8.281151631
 30
0.0
  0
SPLINE
  5
2FF
100
AcDbEntity
  8
0
100
AcDbSpline
 62
7
  6
CONTINUOUS
 70
0
 71
3
 72
21
 73
17
 74
0
 42
0.0000001
 43
0.0000001
 44
0.0000000001
 40
0.0
 40
0.0
 40
0.0
 40
0.0
 40
0.1205431421
 40
0.181562188
 40
0.2430734096
 40
0.3050541643
 40
0.3674657592
 40
0.4302530675
 40
0.4933469341
 40
0.5566683164
 40
0.6201337256
 40
0.6836610928
 40
0.7471751018
 40
0.8106113422
 40
0.8739179148
 40
1.0
 40
1.0
 40
1.0
 40
1.0
 10
10.3113122311
 20
8.3434320714
 30
0.0
 10
10.2933339536
 20
8.3695404274
 30
0.0
 10
10.2666263401
 20
8.4091232418
 30
0.0
 10
10.2317452399
 20
8.4626903447
 30
0.0
 10
10.205744569
 20
8.5036587999
 30
0.0
 10
10.1800592848
 20
8.5452567874
 30
0.0
 10
10.154739699
 20
8.5874703215
 30
0.0
 10
10.129835738
 20
8.6302694691
 30
0.0
 10
10.1053937242
 20
8.6736090214
 30
0.0
 10
10.0814531577
 20
8.7174308619
 30
0.0
 10
10.0580439349
 20
8.7616677741
 30
0.0
 10
10.0351844642
 20
8.8062480857
 30
0.0
 10
10.0128809745
 20
8.8511004065
 30
0.0
 10
9.9911280262
 20
8.896157754
 30
0.0
 10
9.962876988
 20
8.9563442408
 30
0.0
 10
9.9423983117
 20
9.0017474959
 30
0.0
 10
9.9290239526
 20
9.0320865751
 30
0.0
  0
SPLINE
  5
300
100
AcDbEntity
  8
0
100
AcDbSpline
 62
7
  6
CONTINUOUS
 70
0
 71
3
 72
71
 73
67
 74
0
 42
0.0000001
 43
0.0000001
 44
0.0000000001
 40
0.0
 40
0.0
 40
0.0
 40
0.0
 40
0.0156360716
 40
0.0313280435
 40
0.0470706194
 40
0.0628635388
 40
0.0787060274
 40
0.0945955154
 40
0.110529237
 40
0.1265042861
 40
0.1425172971
 40
0.1585645028
 40
0.1746418723
 40
0.1907451275
 40
0.2068697199
 40
0.2230109371
 40
0.2391639166
 40
0.2553237113
 40
0.2714852752
 40
0.287643582
 40
0.3037936166
 40
0.3199304523
 40
0.3360492516
 40
0.3521453577
 40
0.3682142999
 40
0.3842518582
 40
0.4002540858
 40
0.4162173396
 40
0.4321383458
 40
0.4480142012
 40
0.4638424308
 40
0.4796209571
 40
0.4953482155
 40
0.5110230904
 40
0.5266449779
 40
0.5422137527
 40
0.5577298401
 40
0.5731941657
 40
0.5886081481
 40
0.6039737274
 40
0.6192933201
 40
0.6345698284
 40
0.6498065584
 40
0.6650072641
 40
0.6801760492
 40
0.6953173714
 40
0.7104359634
 40
0.7255367979
 40
0.7406250471
 40
0.7557060093
 40
0.770785074
 40
0.7858676195
 40
0.8009590209
 40
0.8160645491
 40
0.8311893155
 40
0.8463382255
 40
0.8615159432
 40
0.8767268402
 40
0.8919748714
 40
0.9072636933
 40
0.9225966091
 40
0.937976218
 40
0.9534044176
 40
0.9688839328
 40
0.9844170575
 40
1.0
 40
1.0
 40
1.0
 40
1.0
 10
8.7594262412
 20
8.403671968
 30
0.0
 10
8.7594262412
 20
8.3919111764
 30
0.0
 10
8.7600061999
 20
8.3683435603
 30
0.0
 10
8.7626006592
 20
8.3330209518
 30
0.0
 10
8.7669173589
 20
8.2977476075
 30
0.0
 10
8.7729444102
 20
8.2626114612
 30
0.0
 10
8.7806674667
 20
8.2276956306
 30
0.0
 10
8.7900679136
 20
8.1930839575
 30
0.0
 10
8.8011230558
 20
8.1588600634
 30
0.0
 10
8.8138064929
 20
8.1251064722
 30
0.0
 10
8.8280869362
 20
8.0919040612
 30
0.0
 10
8.8439309482
 20
8.0593331959
 30
0.0
 10
8.8612992514
 20
8.027471738
 30
0.0
 10
8.8801511334
 20
7.9963969843
 30
0.0
 10
8.9004401077
 20
7.966183071
 30
0.0
 10
8.9221182404
 20
7.9369033371
 30
0.0
 10
8.9451326413
 20
7.9086277472
 30
0.0
 10
8.9694283286
 20
7.8814246824
 30
0.0
 10
8.9949466649
 20
7.8553595126
 30
0.0
 10
9.0216261052
 20
7.8304948458
 30
0.0
 10
9.0494027943
 20
7.80689094
 30
0.0
 10
9.0782093315
 20
7.7846039605
 30
0.0
 10
9.1079770564
 20
7.7636884539
 30
0.0
 10
9.1386336012
 20
7.7441937608
 30
0.0
 10
9.1701058868
 20
7.7261679269
 30
0.0
 10
9.2023175548
 20
7.7096533231
 30
0.0
 10
9.235191561
 20
7.6946906598
 30
0.0
 10
9.2686484445
 20
7.6813153148
 30
0.0
 10
9.3026078539
 20
7.6695599345
 30
0.0
 10
9.3369880135
 20
7.6594528283
 30
0.0
 10
9.3717060802
 20
7.6510180831
 30
0.0
 10
9.4066786113
 20
7.6442767322
 30
0.0
 10
9.4418212277
 20
7.6392441329
 30
0.0
 10
9.4770494779
 20
7.6359336661
 30
0.0
 10
9.5122783858
 20
7.6343520675
 30
0.0
 10
9.5474231626
 20
7.6345045582
 30
0.0
 10
9.5823991365
 20
7.6363896529
 30
0.0
 10
9.6171220074
 20
7.6400038733
 30
0.0
 10
9.651508144
 20
7.6453379202
 30
0.0
 10
9.6854746381
 20
7.6523793488
 30
0.0
 10
9.7189395815
 20
7.6611113345
 30
0.0
 10
9.7518224253
 20
7.6715124739
 30
0.0
 10
9.7840436173
 20
7.6835585329
 30
0.0
 10
9.8155258378
 20
7.6972195189
 30
0.0
 10
9.846192639
 20
7.7124637384
 30
0.0
 10
9.8759706565
 20
7.7292532533
 30
0.0
 10
9.9047874032
 20
7.747548787
 30
0.0
 10
9.9325739749
 20
7.767305244
 30
0.0
 10
9.9592628222
 20
7.7884757584
 30
0.0
 10
9.9847899029
 20
7.811008822
 30
0.0
 10
10.0090935265
 20
7.834850249
 30
0.0
 10
10.0321149152
 20
7.8599426528
 30
0.0
 10
10.0537989882
 20
7.886225133
 30
0.0
 10
10.0740927472
 20
7.9136348534
 30
0.0
 10
10.092948234
 20
7.9421049873
 30
0.0
 10
10.1103188874
 20
7.9715675808
 30
0.0
 10
10.1261640434
 20
8.0019508743
 30
0.0
 10
10.1404444006
 20
8.0331821622
 30
0.0
 10
10.1531266225
 20
8.0651856236
 30
0.0
 10
10.1641794668
 20
8.0978844701
 30
0.0
 10
10.173576654
 20
8.1311997025
 30
0.0
 10
10.1812956121
 20
8.1650507008
 30
0.0
 10
10.1873178743
 20
8.1993560822
 30
0.0
 10
10.1916292497
 20
8.2340346508
 30
0.0
 10
10.1942180129
 20
8.2689998498
 30
0.0
 10
10.1947921041
 20
8.2924081772
 30
0.0
 10
10.1947921041
 20
8.3041290073
 30
0.0
  0
SPLINE
  5
301
100
AcDbEntity
  8
0
100
AcDbSpline
 62
7
  6
CONTINUOUS
 70
0
 71
3
 72
71
 73
67
 74
0
 42
0.0000001
 43
0.0000001
 44
0.0000000001
 40
0.0
 40
0.0
 40
0.0
 40
0.0
 40
0.0156360716
 40
0.0313280435
 40
0.0470706194
 40
0.0628635388
 40
0.0787060274
 40
0.0945955154
 40
0.110529237
 40
0.1265042861
 40
0.1425172971
 40
0.1585645028
 40
0.1746418723
 40
0.1907451275
 40
0.2068697199
 40
0.2230109371
 40
0.2391639166
 40
0.2553237113
 40
0.2714852752
 40
0.287643582
 40
0.3037936166
 40
0.3199304523
 40
0.3360492516
 40
0.3521453577
 40
0.3682142999
 40
0.3842518582
 40
0.4002540858
 40
0.4162173396
 40
0.4321383458
 40
0.4480142012
 40
0.4638424308
 40
0.4796209571
 40
0.4953482155
 40
0.5110230904
 40
0.5266449779
 40
0.5422137527
 40
0.5577298401
 40
0.5731941657
 40
0.5886081481
 40
0.6039737274
 40
0.6192933201
 40
0.6345698284
 40
0.6498065584
 40
0.6650072641
 40
0.6801760492
 40
0.6953173714
 40
0.7104359634
 40
0.7255367979
 40
0.7406250471
 40
0.7557060093
 40
0.770785074
 40
0.7858676195
 40
0.8009590209
 40
0.8160645491
 40
0.8311893155
 40
0.8463382255
 40
0.8615159432
 40
0.8767268402
 40
0.8919748714
 40
0.9072636933
 40
0.9225966091
 40
0.937976218
 40
0.9534044176
 40
0.9688839328
 40
0.9844170575
 40
1.0
 40
1.0
 40
1.0
 40
1.0
 10
10.1947921041
 20
8.3041290073
 30
0.0
 10
10.1947921041
 20
8.3158897989
 30
0.0
 10
10.1942121454
 20
8.339457415
 30
0.0
 10
10.1916176861
 20
8.3747800235
 30
0.0
 10
10.1873009865
 20
8.4100533678
 30
0.0
 10
10.1812739351
 20
8.4451895141
 30
0.0
 10
10.1735508787
 20
8.4801053447
 30
0.0
 10
10.1641504317
 20
8.5147170177
 30
0.0
 10
10.1530952895
 20
8.5489409119
 30
0.0
 10
10.1404118524
 20
8.5826945031
 30
0.0
 10
10.1261314091
 20
8.6158969141
 30
0.0
 10
10.1102873971
 20
8.6484677794
 30
0.0
 10
10.0929190939
 20
8.6803292373
 30
0.0
 10
10.0740672119
 20
8.711403991
 30
0.0
 10
10.0537782376
 20
8.7416179043
 30
0.0
 10
10.0321001049
 20
8.7708976382
 30
0.0
 10
10.009085704
 20
8.7991732281
 30
0.0
 10
9.9847900168
 20
8.8263762929
 30
0.0
 10
9.9592716804
 20
8.8524414627
 30
0.0
 10
9.9325922401
 20
8.8773061295
 30
0.0
 10
9.9048155511
 20
8.9009100353
 30
0.0
 10
9.8760090139
 20
8.9231970148
 30
0.0
 10
9.8462412889
 20
8.9441125214
 30
0.0
 10
9.8155847441
 20
8.9636072145
 30
0.0
 10
9.7841124585
 20
8.9816330484
 30
0.0
 10
9.7519007905
 20
8.9981476521
 30
0.0
 10
9.7190267843
 20
9.0131103155
 30
0.0
 10
9.6855699008
 20
9.0264856605
 30
0.0
 10
9.6516104914
 20
9.0382410408
 30
0.0
 10
9.6172303318
 20
9.048348147
 30
0.0
 10
9.5825122651
 20
9.0567828922
 30
0.0
 10
9.5475397341
 20
9.0635242431
 30
0.0
 10
9.5123971177
 20
9.0685568424
 30
0.0
 10
9.4771688674
 20
9.0718673091
 30
0.0
 10
9.4419399595
 20
9.0734489078
 30
0.0
 10
9.4067951827
 20
9.0732964171
 30
0.0
 10
9.3718192088
 20
9.0714113224
 30
0.0
 10
9.3370963379
 20
9.067797102
 30
0.0
 10
9.3027102013
 20
9.062463055
 30
0.0
 10
9.2687437073
 20
9.0554216265
 30
0.0
 10
9.2352787638
 20
9.0466896408
 30
0.0
 10
9.20239592
 20
9.0362885013
 30
0.0
 10
9.170174728
 20
9.0242424424
 30
0.0
 10
9.1386925075
 20
9.0105814564
 30
0.0
 10
9.1080257064
 20
8.9953372369
 30
0.0
 10
9.0782476888
 20
8.978547722
 30
0.0
 10
9.0494309421
 20
8.9602521883
 30
0.0
 10
9.0216443704
 20
8.9404957313
 30
0.0
 10
8.9949555231
 20
8.9193252169
 30
0.0
 10
8.9694284424
 20
8.8967921533
 30
0.0
 10
8.9451248188
 20
8.8729507263
 30
0.0
 10
8.9221034301
 20
8.8478583225
 30
0.0
 10
8.9004193571
 20
8.8215758423
 30
0.0
 10
8.8801255981
 20
8.7941661219
 30
0.0
 10
8.8612701113
 20
8.765695988
 30
0.0
 10
8.8438994579
 20
8.7362333945
 30
0.0
 10
8.8280543019
 20
8.705850101
 30
0.0
 10
8.8137739447
 20
8.6746188131
 30
0.0
 10
8.8010917228
 20
8.6426153517
 30
0.0
 10
8.7900388785
 20
8.6099165052
 30
0.0
 10
8.7806416913
 20
8.5766012728
 30
0.0
 10
8.7729227332
 20
8.5427502745
 30
0.0
 10
8.766900471
 20
8.5084448931
 30
0.0
 10
8.7625890956
 20
8.4737663244
 30
0.0
 10
8.7600003324
 20
8.4388011255
 30
0.0
 10
8.7594262412
 20
8.4153927981
 30
0.0
 10
8.7594262412
 20
8.403671968
 30
0.0
  0
SPLINE
  5
302
100
AcDbEntity
  8
0
100
AcDbSpline
 62
7
  6
CONTINUOUS
 70
0
 71
3
 72
63
 73
59
 74
0
 42
0.0000001
 43
0.0000001
 44
0.0000000001
 40
0.0
 40
0.0
 40
0.0
 40
0.0
 40
0.0081222224
 40
0.0169167531
 40
0.0264085441
 40
0.0366140849
 40
0.0475412003
 40
0.0591907523
 40
0.0715580634
 40
0.0846341233
 40
0.098405825
 40
0.112856795
 40
0.1279677757
 40
0.1437167936
 40
0.1600797469
 40
0.1770302752
 40
0.1945402694
 40
0.2125798695
 40
0.2311176245
 40
0.2501207812
 40
0.2893845909
 40
0.3300863899
 40
0.3719252363
 40
0.4145887042
 40
0.4577561951
 40
0.5011021789
 40
0.5442993887
 40
0.5870220033
 40
0.6289488413
 40
0.6697666035
 40
0.7091731665
 40
0.7282572796
 40
0.7468821043
 40
0.7650146264
 40
0.7826231568
 40
0.7996775115
 40
0.8161492832
 40
0.8320117465
 40
0.8472403979
 40
0.8618128522
 40
0.8757093176
 40
0.888912903
 40
0.9014098364
 40
0.9131903299
 40
0.9242488314
 40
0.9345852492
 40
0.9442059138
 40
0.9531250932
 40
0.9613672653
 40
0.9689694188
 40
0.9759847395
 40
0.9824860571
 40
0.9855749857
 40
0.9885735159
 40
0.9914975122
 40
0.9943641908
 40
0.9971919345
 40
1.0
 40
1.0
 40
1.0
 40
1.0
 10
12.5616215906
 20
10.9954676956
 30
0.0
 10
12.5607486132
 20
10.9946244641
 30
0.0
 10
12.5588480435
 20
10.9929523907
 30
0.0
 10
12.5556932775
 20
10.9905766692
 30
0.0
 10
12.5521305278
 20
10.9882407053
 30
0.0
 10
12.5481670435
 20
10.9859489876
 30
0.0
 10
12.5438102598
 20
10.9837056324
 30
0.0
 10
12.5390686227
 20
10.9815151214
 30
0.0
 10
12.5339514772
 20
10.9793817079
 30
0.0
 10
12.5284689333
 20
10.9773097379
 30
0.0
 10
12.5226319144
 20
10.9753033491
 30
0.0
 10
12.5164520909
 20
10.9733666205
 30
0.0
 10
12.5099418561
 20
10.9715035163
 30
0.0
 10
12.503114304
 20
10.9697177733
 30
0.0
 10
12.4959831767
 20
10.9680130927
 30
0.0
 10
12.4885628565
 20
10.966392893
 30
0.0
 10
12.480868315
 20
10.9648605024
 30
0.0
 10
12.4729150926
 20
10.9634190503
 30
0.0
 10
12.4647192443
 20
10.9620714192
 30
0.0
 10
12.4533662835
 20
10.9603851179
 30
0.0
 10
12.4386904755
 20
10.9585398288
 30
0.0
 10
12.4205740443
 20
10.9567607104
 30
0.0
 10
12.4019114504
 20
10.9554082007
 30
0.0
 10
12.3828535364
 20
10.9544934026
 30
0.0
 10
12.3635542292
 20
10.9540238537
 30
0.0
 10
12.3441694873
 20
10.9540034136
 30
0.0
 10
12.3248559534
 20
10.9544322506
 30
0.0
 10
12.3057697032
 20
10.9553068409
 30
0.0
 10
12.2870648972
 20
10.9566199791
 30
0.0
 10
12.2688927228
 20
10.9583608837
 30
0.0
 10
12.254161895
 20
10.9601748706
 30
0.0
 10
12.2427584097
 20
10.9618367769
 30
0.0
 10
12.2345202283
 20
10.9631670436
 30
0.0
 10
12.2265216981
 20
10.9645916536
 30
0.0
 10
12.2187789662
 20
10.9661077386
 30
0.0
 10
12.2113076732
 20
10.9677122238
 30
0.0
 10
12.2041228947
 20
10.9694017964
 30
0.0
 10
12.1972391237
 20
10.9711730757
 30
0.0
 10
12.19067022
 20
10.9730223952
 30
0.0
 10
12.1844293977
 20
10.9749460279
 30
0.0
 10
12.1785291816
 20
10.9769400592
 30
0.0
 10
12.1729813707
 20
10.9790004092
 30
0.0
 10
12.1677970366
 20
10.9811229795
 30
0.0
 10
12.1629864326
 20
10.9833034288
 30
0.0
 10
12.1585590372
 20
10.985537494
 30
0.0
 10
12.1545234563
 20
10.9878207806
 30
0.0
 10
12.1508874335
 20
10.9901489484
 30
0.0
 10
12.1476578869
 20
10.992517864
 30
0.0
 10
12.1448408509
 20
10.9949234277
 30
0.0
 10
12.1424417481
 20
10.9973623073
 30
0.0
 10
12.1404657858
 20
10.9998308079
 30
0.0
 10
12.13915412
 20
11.0019463802
 30
0.0
 10
12.1383367586
 20
11.0036423282
 30
0.0
 10
12.1378429649
 20
11.0048965626
 30
0.0
 10
12.1374584045
 20
11.0061538522
 30
0.0
 10
12.1371834154
 20
11.0074135784
 30
0.0
 10
12.1370183451
 20
11.0086748538
 30
0.0
 10
12.1369816123
 20
11.0095174813
 30
0.0
 10
12.1369816147
 20
11.009937098
 30
0.0
  0
SPLINE
  5
303
100
AcDbEntity
  8
0
100
AcDbSpline
 62
7
  6
CONTINUOUS
 70
0
 71
3
 72
63
 73
59
 74
0
 42
0.0000001
 43
0.0000001
 44
0.0000000001
 40
0.0
 40
0.0
 40
0.0
 40
0.0
 40
0.0081222224
 40
0.0169167531
 40
0.0264085441
 40
0.0366140849
 40
0.0475412003
 40
0.0591907523
 40
0.0715580634
 40
0.0846341233
 40
0.098405825
 40
0.112856795
 40
0.1279677757
 40
0.1437167936
 40
0.1600797469
 40
0.1770302752
 40
0.1945402694
 40
0.2125798695
 40
0.2311176245
 40
0.2501207812
 40
0.2893845909
 40
0.3300863899
 40
0.3719252363
 40
0.4145887042
 40
0.4577561951
 40
0.5011021789
 40
0.5442993887
 40
0.5870220033
 40
0.6289488413
 40
0.6697666035
 40
0.7091731665
 40
0.7282572796
 40
0.7468821043
 40
0.7650146264
 40
0.7826231568
 40
0.7996775115
 40
0.8161492832
 40
0.8320117465
 40
0.8472403979
 40
0.8618128522
 40
0.8757093176
 40
0.888912903
 40
0.9014098364
 40
0.9131903299
 40
0.9242488314
 40
0.9345852492
 40
0.9442059138
 40
0.9531250932
 40
0.9613672653
 40
0.9689694188
 40
0.9759847395
 40
0.9824860571
 40
0.9855749857
 40
0.9885735159
 40
0.9914975122
 40
0.9943641908
 40
0.9971919345
 40
1.0
 40
1.0
 40
1.0
 40
1.0
 10
10.7952132937
 20
11.4132482434
 30
0.0
 10
10.7943403164
 20
11.412405012
 30
0.0
 10
10.7924397466
 20
11.4107329385
 30
0.0
 10
10.7892849807
 20
11.4083572171
 30
0.0
 10
10.785722231
 20
11.4060212532
 30
0.0
 10
10.7817587466
 20
11.4037295355
 30
0.0
 10
10.7774019629
 20
11.4014861803
 30
0.0
 10
10.7726603258
 20
11.3992956692
 30
0.0
 10
10.7675431803
 20
11.3971622558
 30
0.0
 10
10.7620606364
 20
11.3950902858
 30
0.0
 10
10.7562236175
 20
11.393083897
 30
0.0
 10
10.7500437941
 20
11.3911471684
 30
0.0
 10
10.7435335593
 20
11.3892840642
 30
0.0
 10
10.7367060071
 20
11.3874983211
 30
0.0
 10
10.7295748799
 20
11.3857936405
 30
0.0
 10
10.7221545597
 20
11.3841734409
 30
0.0
 10
10.7144600181
 20
11.3826410503
 30
0.0
 10
10.7065067958
 20
11.3811995981
 30
0.0
 10
10.6983109474
 20
11.3798519671
 30
0.0
 10
10.6869579866
 20
11.3781656658
 30
0.0
 10
10.6722821786
 20
11.3763203767
 30
0.0
 10
10.6541657475
 20
11.3745412583
 30
0.0
 10
10.6355031535
 20
11.3731887486
 30
0.0
 10
10.6164452396
 20
11.3722739505
 30
0.0
 10
10.5971459324
 20
11.3718044016
 30
0.0
 10
10.5777611904
 20
11.3717839615
 30
0.0
 10
10.5584476565
 20
11.3722127985
 30
0.0
 10
10.5393614064
 20
11.3730873888
 30
0.0
 10
10.5206566004
 20
11.374400527
 30
0.0
 10
10.502484426
 20
11.3761414316
 30
0.0
 10
10.4877535982
 20
11.3779554184
 30
0.0
 10
10.4763501128
 20
11.3796173248
 30
0.0
 10
10.4681119315
 20
11.3809475915
 30
0.0
 10
10.4601134012
 20
11.3823722015
 30
0.0
 10
10.4523706694
 20
11.3838882864
 30
0.0
 10
10.4448993764
 20
11.3854927717
 30
0.0
 10
10.4377145978
 20
11.3871823443
 30
0.0
 10
10.4308308268
 20
11.3889536236
 30
0.0
 10
10.4242619231
 20
11.390802943
 30
0.0
 10
10.4180211008
 20
11.3927265758
 30
0.0
 10
10.4121208847
 20
11.3947206071
 30
0.0
 10
10.4065730739
 20
11.3967809571
 30
0.0
 10
10.4013887398
 20
11.3989035274
 30
0.0
 10
10.3965781358
 20
11.4010839766
 30
0.0
 10
10.3921507403
 20
11.4033180419
 30
0.0
 10
10.3881151594
 20
11.4056013284
 30
0.0
 10
10.3844791367
 20
11.4079294963
 30
0.0
 10
10.3812495901
 20
11.4102984119
 30
0.0
 10
10.378432554
 20
11.4127039756
 30
0.0
 10
10.3760334513
 20
11.4151428552
 30
0.0
 10
10.374057489
 20
11.4176113558
 30
0.0
 10
10.3727458232
 20
11.4197269281
 30
0.0
 10
10.3719284617
 20
11.4214228761
 30
0.0
 10
10.3714346681
 20
11.4226771105
 30
0.0
 10
10.3710501077
 20
11.4239344001
 30
0.0
 10
10.3707751185
 20
11.4251941263
 30
0.0
 10
10.3706100482
 20
11.4264554017
 30
0.0
 10
10.3705733154
 20
11.4272980292
 30
0.0
 10
10.3705733179
 20
11.4277176459
 30
0.0
  0
SPLINE
  5
304
100
AcDbEntity
  8
0
100
AcDbSpline
 62
7
  6
CONTINUOUS
 70
0
 71
3
 72
63
 73
59
 74
0
 42
0.0000001
 43
0.0000001
 44
0.0000000001
 40
0.0
 40
0.0
 40
0.0
 40
0.0
 40
0.0081222224
 40
0.0169167531
 40
0.0264085441
 40
0.0366140849
 40
0.0475412003
 40
0.0591907523
 40
0.0715580634
 40
0.0846341233
 40
0.098405825
 40
0.112856795
 40
0.1279677757
 40
0.1437167936
 40
0.1600797469
 40
0.1770302752
 40
0.1945402694
 40
0.2125798695
 40
0.2311176245
 40
0.2501207812
 40
0.2893845909
 40
0.3300863899
 40
0.3719252363
 40
0.4145887042
 40
0.4577561951
 40
0.5011021789
 40
0.5442993887
 40
0.5870220033
 40
0.6289488413
 40
0.6697666035
 40
0.7091731665
 40
0.7282572796
 40
0.7468821043
 40
0.7650146264
 40
0.7826231568
 40
0.7996775115
 40
0.8161492832
 40
0.8320117465
 40
0.8472403979
 40
0.8618128522
 40
0.8757093176
 40
0.888912903
 40
0.9014098364
 40
0.9131903299
 40
0.9242488314
 40
0.9345852492
 40
0.9442059138
 40
0.9531250932
 40
0.9613672653
 40
0.9689694188
 40
0.9759847395
 40
0.9824860571
 40
0.9855749857
 40
0.9885735159
 40
0.9914975122
 40
0.9943641908
 40
0.9971919345
 40
1.0
 40
1.0
 40
1.0
 40
1.0
 10
10.224776621
 20
10.8622486963
 30
0.0
 10
10.2239036436
 20
10.8614054648
 30
0.0
 10
10.2220030738
 20
10.8597333914
 30
0.0
 10
10.2188483079
 20
10.8573576699
 30
0.0
 10
10.2152855582
 20
10.855021706
 30
0.0
 10
10.2113220738
 20
10.8527299883
 30
0.0
 10
10.2069652901
 20
10.8504866331
 30
0.0
 10
10.202223653
 20
10.8482961221
 30
0.0
 10
10.1971065075
 20
10.8461627086
 30
0.0
 10
10.1916239636
 20
10.8440907386
 30
0.0
 10
10.1857869447
 20
10.8420843498
 30
0.0
 10
10.1796071213
 20
10.8401476212
 30
0.0
 10
10.1730968865
 20
10.8382845171
 30
0.0
 10
10.1662693343
 20
10.836498774
 30
0.0
 10
10.1591382071
 20
10.8347940934
 30
0.0
 10
10.1517178869
 20
10.8331738937
 30
0.0
 10
10.1440233453
 20
10.8316415031
 30
0.0
 10
10.136070123
 20
10.830200051
 30
0.0
 10
10.1278742746
 20
10.8288524199
 30
0.0
 10
10.1165213138
 20
10.8271661187
 30
0.0
 10
10.1018455058
 20
10.8253208295
 30
0.0
 10
10.0837290747
 20
10.8235417111
 30
0.0
 10
10.0650664807
 20
10.8221892014
 30
0.0
 10
10.0460085668
 20
10.8212744034
 30
0.0
 10
10.0267092596
 20
10.8208048545
 30
0.0
 10
10.0073245176
 20
10.8207844143
 30
0.0
 10
9.9880109837
 20
10.8212132513
 30
0.0
 10
9.9689247336
 20
10.8220878416
 30
0.0
 10
9.9502199276
 20
10.8234009798
 30
0.0
 10
9.9320477532
 20
10.8251418844
 30
0.0
 10
9.9173169254
 20
10.8269558713
 30
0.0
 10
9.90591344
 20
10.8286177776
 30
0.0
 10
9.8976752587
 20
10.8299480444
 30
0.0
 10
9.8896767285
 20
10.8313726544
 30
0.0
 10
9.8819339966
 20
10.8328887393
 30
0.0
 10
9.8744627036
 20
10.8344932245
 30
0.0
 10
9.867277925
 20
10.8361827972
 30
0.0
 10
9.860394154
 20
10.8379540764
 30
0.0
 10
9.8538252503
 20
10.8398033959
 30
0.0
 10
9.847584428
 20
10.8417270286
 30
0.0
 10
9.8416842119
 20
10.84372106
 30
0.0
 10
9.8361364011
 20
10.8457814099
 30
0.0
 10
9.830952067
 20
10.8479039802
 30
0.0
 10
9.826141463
 20
10.8500844295
 30
0.0
 10
9.8217140675
 20
10.8523184947
 30
0.0
 10
9.8176784866
 20
10.8546017813
 30
0.0
 10
9.8140424639
 20
10.8569299491
 30
0.0
 10
9.8108129173
 20
10.8592988647
 30
0.0
 10
9.8079958812
 20
10.8617044284
 30
0.0
 10
9.8055967785
 20
10.8641433081
 30
0.0
 10
9.8036208162
 20
10.8666118086
 30
0.0
 10
9.8023091504
 20
10.868727381
 30
0.0
 10
9.8014917889
 20
10.8704233289
 30
0.0
 10
9.8009979953
 20
10.8716775633
 30
0.0
 10
9.8006134349
 20
10.8729348529
 30
0.0
 10
9.8003384457
 20
10.8741945791
 30
0.0
 10
9.8001733754
 20
10.8754558545
 30
0.0
 10
9.8001366426
 20
10.876298482
 30
0.0
 10
9.8001366451
 20
10.8767180987
 30
0.0
  0
SPLINE
  5
305
100
AcDbEntity
  8
0
100
AcDbSpline
 62
7
  6
CONTINUOUS
 70
0
 71
3
 72
61
 73
57
 74
0
 42
0.0000001
 43
0.0000001
 44
0.0000000001
 40
0.0
 40
0.0
 40
0.0
 40
0.0
 40
0.0081221813
 40
0.0169168458
 40
0.0264087724
 40
0.0366143218
 40
0.0475415222
 40
0.0591911565
 40
0.0715585562
 40
0.0846347195
 40
0.098406487
 40
0.1128576092
 40
0.1279686506
 40
0.143717826
 40
0.1600808693
 40
0.177031526
 40
0.194541661
 40
0.2125813585
 40
0.2311192896
 40
0.2501225392
 40
0.2893866413
 40
0.3300887384
 40
0.3719278752
 40
0.4145916271
 40
0.4577594003
 40
0.5011056626
 40
0.5443031414
 40
0.5870260107
 40
0.6289530889
 40
0.6697710731
 40
0.7091778324
 40
0.7468858191
 40
0.7650184429
 40
0.7826270093
 40
0.7996814673
 40
0.8161532566
 40
0.8320157976
 40
0.8472444866
 40
0.861816959
 40
0.8757134965
 40
0.8889170416
 40
0.9014140571
 40
0.9131945002
 40
0.9242530412
 40
0.9345894451
 40
0.9442100818
 40
0.9531292894
 40
0.9613713956
 40
0.9689735849
 40
0.9759888554
 40
0.9824901833
 40
0.9885734769
 40
0.9914974841
 40
0.9943641593
 40
0.9971919144
 40
1.0
 40
1.0
 40
1.0
 40
1.0
 10
11.6361755044
 20
11.2075554033
 30
0.0
 10
11.6354803625
 20
11.2068839478
 30
0.0
 10
11.6339669383
 20
11.2055524882
 30
0.0
 10
11.6314548093
 20
11.2036606901
 30
0.0
 10
11.6286177854
 20
11.2018005684
 30
0.0
 10
11.625461672
 20
11.199975671
 30
0.0
 10
11.621992371
 20
11.198189309
 30
0.0
 10
11.6182166176
 20
11.196444999
 30
0.0
 10
11.6141418413
 20
11.1947461669
 30
0.0
 10
11.6097760992
 20
11.1930962737
 30
0.0
 10
11.6051280937
 20
11.1914985719
 30
0.0
 10
11.600207106
 20
11.189956386
 30
0.0
 10
11.5950230185
 20
11.1884727749
 30
0.0
 10
11.5895862471
 20
11.1870508161
 30
0.0
 10
11.5839077427
 20
11.18569337
 30
0.0
 10
11.5779989536
 20
11.1844032126
 30
0.0
 10
11.5718718021
 20
11.1831829852
 30
0.0
 10
11.5655386643
 20
11.1820351424
 30
0.0
 10
11.5590123234
 20
11.180962054
 30
0.0
 10
11.5499719823
 20
11.1796192314
 30
0.0
 10
11.538285661
 20
11.1781498544
 30
0.0
 10
11.5238595762
 20
11.1767331522
 30
0.0
 10
11.5089985864
 20
11.1756561613
 30
0.0
 10
11.4938228085
 20
11.1749277149
 30
0.0
 10
11.4784548125
 20
11.1745538206
 30
0.0
 10
11.4630187866
 20
11.174537552
 30
0.0
 10
11.4476394692
 20
11.1748790446
 30
0.0
 10
11.4324411325
 20
11.1755754883
 30
0.0
 10
11.4175465739
 20
11.176621155
 30
0.0
 10
11.4030760419
 20
11.1780074177
 30
0.0
 10
11.3891464506
 20
11.1797228828
 30
0.0
 10
11.3779410461
 20
11.1814364696
 30
0.0
 10
11.3693362265
 20
11.1829689965
 30
0.0
 10
11.3631707174
 20
11.1841762896
 30
0.0
 10
11.3572213626
 20
11.1854539172
 30
0.0
 10
11.3515001603
 20
11.1867993479
 30
0.0
 10
11.3460186481
 20
11.1882098035
 30
0.0
 10
11.340787867
 20
11.1896824209
 30
0.0
 10
11.3358183386
 20
11.1912142207
 30
0.0
 10
11.3311200302
 20
11.1928020433
 30
0.0
 10
11.3267023542
 20
11.1944427356
 30
0.0
 10
11.3225740981
 20
11.1961328979
 30
0.0
 10
11.3187434635
 20
11.1978692245
 30
0.0
 10
11.3152179608
 20
11.199648186
 30
0.0
 10
11.3120044689
 20
11.2014663706
 30
0.0
 10
11.3091091523
 20
11.2033203052
 30
0.0
 10
11.3065374871
 20
11.2052066306
 30
0.0
 10
11.3042943432
 20
11.2071222491
 30
0.0
 10
11.3023839706
 20
11.209064186
 30
0.0
 10
11.3008104848
 20
11.2110302058
 30
0.0
 10
11.2995780215
 20
11.213017516
 30
0.0
 10
11.2988294698
 20
11.2147125246
 30
0.0
 10
11.298415871
 20
11.2160649494
 30
0.0
 10
11.2981969243
 20
11.2170680975
 30
0.0
 10
11.2980655034
 20
11.2180724398
 30
0.0
 10
11.2980362544
 20
11.2187434233
 30
0.0
 10
11.2980362602
 20
11.2190775633
 30
0.0
  0
SPLINE
  5
306
100
AcDbEntity
  8
0
100
AcDbSpline
 62
7
  6
CONTINUOUS
 70
0
 71
3
 72
61
 73
57
 74
0
 42
0.0000001
 43
0.0000001
 44
0.0000000001
 40
0.0
 40
0.0
 40
0.0
 40
0.0
 40
0.0081221813
 40
0.0169168458
 40
0.0264087724
 40
0.0366143218
 40
0.0475415222
 40
0.0591911565
 40
0.0715585562
 40
0.0846347195
 40
0.098406487
 40
0.1128576092
 40
0.1279686506
 40
0.143717826
 40
0.1600808693
 40
0.177031526
 40
0.194541661
 40
0.2125813585
 40
0.2311192896
 40
0.2501225392
 40
0.2893866413
 40
0.3300887384
 40
0.3719278752
 40
0.4145916271
 40
0.4577594003
 40
0.5011056626
 40
0.5443031414
 40
0.5870260107
 40
0.6289530889
 40
0.6697710731
 40
0.7091778324
 40
0.7468858191
 40
0.7650184429
 40
0.7826270093
 40
0.7996814673
 40
0.8161532566
 40
0.8320157976
 40
0.8472444866
 40
0.861816959
 40
0.8757134965
 40
0.8889170416
 40
0.9014140571
 40
0.9131945002
 40
0.9242530412
 40
0.9345894451
 40
0.9442100818
 40
0.9531292894
 40
0.9613713956
 40
0.9689735849
 40
0.9759888554
 40
0.9824901833
 40
0.9885734769
 40
0.9914974841
 40
0.9943641593
 40
0.9971919144
 40
1.0
 40
1.0
 40
1.0
 40
1.0
 10
10.9601164541
 20
11.106532454
 30
0.0
 10
10.9594213122
 20
11.1058609984
 30
0.0
 10
10.957907888
 20
11.1045295389
 30
0.0
 10
10.955395759
 20
11.1026377408
 30
0.0
 10
10.9525587351
 20
11.100777619
 30
0.0
 10
10.9494026216
 20
11.0989527217
 30
0.0
 10
10.9459333207
 20
11.0971663596
 30
0.0
 10
10.9421575673
 20
11.0954220496
 30
0.0
 10
10.9380827909
 20
11.0937232175
 30
0.0
 10
10.9337170488
 20
11.0920733244
 30
0.0
 10
10.9290690433
 20
11.0904756225
 30
0.0
 10
10.9241480557
 20
11.0889334366
 30
0.0
 10
10.9189639682
 20
11.0874498255
 30
0.0
 10
10.9135271968
 20
11.0860278668
 30
0.0
 10
10.9078486923
 20
11.0846704207
 30
0.0
 10
10.9019399033
 20
11.0833802633
 30
0.0
 10
10.8958127517
 20
11.0821600358
 30
0.0
 10
10.889479614
 20
11.081012193
 30
0.0
 10
10.8829532731
 20
11.0799391047
 30
0.0
 10
10.873912932
 20
11.0785962821
 30
0.0
 10
10.8622266106
 20
11.0771269051
 30
0.0
 10
10.8478005259
 20
11.0757102029
 30
0.0
 10
10.8329395361
 20
11.074633212
 30
0.0
 10
10.8177637582
 20
11.0739047656
 30
0.0
 10
10.8023957621
 20
11.0735308713
 30
0.0
 10
10.7869597363
 20
11.0735146027
 30
0.0
 10
10.7715804188
 20
11.0738560952
 30
0.0
 10
10.7563820821
 20
11.074552539
 30
0.0
 10
10.7414875235
 20
11.0755982056
 30
0.0
 10
10.7270169915
 20
11.0769844683
 30
0.0
 10
10.7130874003
 20
11.0786999335
 30
0.0
 10
10.7018819958
 20
11.0804135203
 30
0.0
 10
10.6932771761
 20
11.0819460471
 30
0.0
 10
10.687111667
 20
11.0831533403
 30
0.0
 10
10.6811623123
 20
11.0844309678
 30
0.0
 10
10.6754411099
 20
11.0857763985
 30
0.0
 10
10.6699595978
 20
11.0871868542
 30
0.0
 10
10.6647288166
 20
11.0886594716
 30
0.0
 10
10.6597592883
 20
11.0901912714
 30
0.0
 10
10.6550609798
 20
11.091779094
 30
0.0
 10
10.6506433039
 20
11.0934197863
 30
0.0
 10
10.6465150478
 20
11.0951099486
 30
0.0
 10
10.6426844131
 20
11.0968462752
 30
0.0
 10
10.6391589105
 20
11.0986252367
 30
0.0
 10
10.6359454186
 20
11.1004434213
 30
0.0
 10
10.633050102
 20
11.1022973559
 30
0.0
 10
10.6304784368
 20
11.1041836813
 30
0.0
 10
10.6282352929
 20
11.1060992998
 30
0.0
 10
10.6263249202
 20
11.1080412367
 30
0.0
 10
10.6247514345
 20
11.1100072565
 30
0.0
 10
10.6235189711
 20
11.1119945667
 30
0.0
 10
10.6227704195
 20
11.1136895753
 30
0.0
 10
10.6223568206
 20
11.115042
 30
0.0
 10
10.622137874
 20
11.1160451482
 30
0.0
 10
10.6220064531
 20
11.1170494905
 30
0.0
 10
10.6219772041
 20
11.117720474
 30
0.0
 10
10.6219772099
 20
11.118054614
 30
0.0
  0
SPLINE
  5
307
100
AcDbEntity
  8
0
100
AcDbSpline
 62
7
  6
CONTINUOUS
 70
0
 71
3
 72
61
 73
57
 74
0
 42
0.0000001
 43
0.0000001
 44
0.0000000001
 40
0.0
 40
0.0
 40
0.0
 40
0.0
 40
0.0081221813
 40
0.0169168458
 40
0.0264087724
 40
0.0366143218
 40
0.0475415222
 40
0.0591911565
 40
0.0715585562
 40
0.0846347195
 40
0.098406487
 40
0.1128576092
 40
0.1279686506
 40
0.143717826
 40
0.1600808693
 40
0.177031526
 40
0.194541661
 40
0.2125813585
 40
0.2311192896
 40
0.2501225392
 40
0.2893866413
 40
0.3300887384
 40
0.3719278752
 40
0.4145916271
 40
0.4577594003
 40
0.5011056626
 40
0.5443031414
 40
0.5870260107
 40
0.6289530889
 40
0.6697710731
 40
0.7091778324
 40
0.7468858191
 40
0.7650184429
 40
0.7826270093
 40
0.7996814673
 40
0.8161532566
 40
0.8320157976
 40
0.8472444866
 40
0.861816959
 40
0.8757134965
 40
0.8889170416
 40
0.9014140571
 40
0.9131945002
 40
0.9242530412
 40
0.9345894451
 40
0.9442100818
 40
0.9531292894
 40
0.9613713956
 40
0.9689735849
 40
0.9759888554
 40
0.9824901833
 40
0.9885734769
 40
0.9914974841
 40
0.9943641593
 40
0.9971919144
 40
1.0
 40
1.0
 40
1.0
 40
1.0
 10
11.7412803085
 20
10.7570788083
 30
0.0
 10
11.7405851666
 20
10.7564073528
 30
0.0
 10
11.7390717424
 20
10.7550758932
 30
0.0
 10
11.7365596134
 20
10.7531840951
 30
0.0
 10
11.7337225895
 20
10.7513239734
 30
0.0
 10
11.7305664761
 20
10.749499076
 30
0.0
 10
11.7270971751
 20
10.7477127139
 30
0.0
 10
11.7233214217
 20
10.745968404
 30
0.0
 10
11.7192466454
 20
10.7442695719
 30
0.0
 10
11.7148809033
 20
10.7426196787
 30
0.0
 10
11.7102328978
 20
10.7410219769
 30
0.0
 10
11.7053119101
 20
10.739479791
 30
0.0
 10
11.7001278226
 20
10.7379961799
 30
0.0
 10
11.6946910512
 20
10.7365742211
 30
0.0
 10
11.6890125468
 20
10.735216775
 30
0.0
 10
11.6831037577
 20
10.7339266176
 30
0.0
 10
11.6769766062
 20
10.7327063902
 30
0.0
 10
11.6706434684
 20
10.7315585474
 30
0.0
 10
11.6641171275
 20
10.730485459
 30
0.0
 10
11.6550767864
 20
10.7291426364
 30
0.0
 10
11.6433904651
 20
10.7276732594
 30
0.0
 10
11.6289643803
 20
10.7262565572
 30
0.0
 10
11.6141033905
 20
10.7251795663
 30
0.0
 10
11.5989276126
 20
10.7244511199
 30
0.0
 10
11.5835596166
 20
10.7240772256
 30
0.0
 10
11.5681235908
 20
10.724060957
 30
0.0
 10
11.5527442733
 20
10.7244024496
 30
0.0
 10
11.5375459366
 20
10.7250988933
 30
0.0
 10
11.522651378
 20
10.72614456
 30
0.0
 10
11.508180846
 20
10.7275308226
 30
0.0
 10
11.4942512547
 20
10.7292462878
 30
0.0
 10
11.4830458502
 20
10.7309598746
 30
0.0
 10
11.4744410306
 20
10.7324924015
 30
0.0
 10
11.4682755215
 20
10.7336996946
 30
0.0
 10
11.4623261667
 20
10.7349773222
 30
0.0
 10
11.4566049644
 20
10.7363227529
 30
0.0
 10
11.4511234523
 20
10.7377332085
 30
0.0
 10
11.4458926711
 20
10.7392058259
 30
0.0
 10
11.4409231428
 20
10.7407376257
 30
0.0
 10
11.4362248343
 20
10.7423254483
 30
0.0
 10
11.4318071584
 20
10.7439661406
 30
0.0
 10
11.4276789023
 20
10.7456563029
 30
0.0
 10
11.4238482676
 20
10.7473926295
 30
0.0
 10
11.4203227649
 20
10.749171591
 30
0.0
 10
11.4171092731
 20
10.7509897756
 30
0.0
 10
11.4142139564
 20
10.7528437102
 30
0.0
 10
11.4116422912
 20
10.7547300356
 30
0.0
 10
11.4093991473
 20
10.7566456541
 30
0.0
 10
11.4074887747
 20
10.758587591
 30
0.0
 10
11.4059152889
 20
10.7605536108
 30
0.0
 10
11.4046828256
 20
10.762540921
 30
0.0
 10
11.4039342739
 20
10.7642359296
 30
0.0
 10
11.4035206751
 20
10.7655883544
 30
0.0
 10
11.4033017284
 20
10.7665915025
 30
0.0
 10
11.4031703076
 20
10.7675958448
 30
0.0
 10
11.4031410585
 20
10.7682668283
 30
0.0
 10
11.4031410643
 20
10.7686009683
 30
0.0
  0
SPLINE
  5
308
100
AcDbEntity
  8
0
100
AcDbSpline
 62
7
  6
CONTINUOUS
 70
0
 71
3
 72
45
 73
41
 74
0
 42
0.0000001
 43
0.0000001
 44
0.0000000001
 40
0.0
 40
0.0
 40
0.0
 40
0.0
 40
0.007040146
 40
0.0144725299
 40
0.0223090315
 40
0.0305588662
 40
0.0392290696
 40
0.0483245254
 40
0.0578475446
 40
0.0677987135
 40
0.0781771359
 40
0.0889804058
 40
0.10020517
 40
0.1118467529
 40
0.1363561331
 40
0.1624550187
 40
0.1900766259
 40
0.2191439692
 40
0.2495711604
 40
0.2812645881
 40
0.3141238823
 40
0.3480427186
 40
0.3829095134
 40
0.418608102
 40
0.4550184448
 40
0.4920172403
 40
0.5294785104
 40
0.5672741743
 40
0.6052746683
 40
0.6433495329
 40
0.6813679746
 40
0.7191994359
 40
0.7567141958
 40
0.7937839735
 40
0.8302824344
 40
0.8660858566
 40
0.9010738675
 40
0.9351289748
 40
0.968141227
 40
1.0
 40
1.0
 40
1.0
 40
1.0
 10
11.3504395216
 20
10.9315556217
 30
0.0
 10
11.3499768429
 20
10.9311087083
 30
0.0
 10
11.3489969593
 20
10.9302194119
 30
0.0
 10
11.347414826
 20
10.9289327726
 30
0.0
 10
11.3456828894
 20
10.9276592732
 30
0.0
 10
11.3438028486
 20
10.9264001767
 30
0.0
 10
11.3417763897
 20
10.9251564916
 30
0.0
 10
11.3396052705
 20
10.9239293463
 30
0.0
 10
11.3372914535
 20
10.9227197724
 30
0.0
 10
11.3348370239
 20
10.9215288936
 30
0.0
 10
11.3322442061
 20
10.9203578226
 30
0.0
 10
11.3295153751
 20
10.9192075793
 30
0.0
 10
11.3266529944
 20
10.9180792543
 30
0.0
 10
11.3225919173
 20
10.9165796089
 30
0.0
 10
11.3171965779
 20
10.9147740392
 30
0.0
 10
11.3103409682
 20
10.9127459524
 30
0.0
 10
11.3030223337
 20
10.910828472
 30
0.0
 10
11.2952674739
 20
10.9090287285
 30
0.0
 10
11.2871047178
 20
10.9073534217
 30
0.0
 10
11.2785639881
 20
10.9058087849
 30
0.0
 10
11.269676614
 20
10.9044005683
 30
0.0
 10
11.2604752262
 20
10.9031340155
 30
0.0
 10
11.2509936332
 20
10.9020138391
 30
0.0
 10
11.2412666928
 20
10.9010441941
 30
0.0
 10
11.2313301745
 20
10.9002286812
 30
0.0
 10
11.2212206228
 20
10.8995703297
 30
0.0
 10
11.210975226
 20
10.8990715908
 30
0.0
 10
11.2006316788
 20
10.8987343116
 30
0.0
 10
11.19022804
 20
10.8985597388
 30
0.0
 10
11.1798025895
 20
10.8985485199
 30
0.0
 10
11.1693936883
 20
10.8987007004
 30
0.0
 10
11.1590396377
 20
10.899015721
 30
0.0
 10
11.148778533
 20
10.8994924052
 30
0.0
 10
11.1386481263
 20
10.9001289832
 30
0.0
 10
11.1286856852
 20
10.9009230917
 30
0.0
 10
11.1189278408
 20
10.9018717879
 30
0.0
 10
11.1094105408
 20
10.9029715554
 30
0.0
 10
11.1001685968
 20
10.9042182823
 30
0.0
 10
11.0912362265
 20
10.9056073686
 30
0.0
 10
11.0853996157
 20
10.9066443632
 30
0.0
 10
11.0825397291
 20
10.9071875486
 30
0.0
  0
SPLINE
  5
309
100
AcDbEntity
  8
0
100
AcDbSpline
 62
7
  6
CONTINUOUS
 70
0
 71
3
 72
39
 73
35
 74
0
 42
0.0000001
 43
0.0000001
 44
0.0000000001
 40
0.0
 40
0.0
 40
0.0
 40
0.0
 40
0.030673164
 40
0.0614497342
 40
0.0923258322
 40
0.123299507
 40
0.1543662998
 40
0.1855214634
 40
0.2167593041
 40
0.2480733934
 40
0.2794566285
 40
0.3109012834
 40
0.3423990894
 40
0.3739413063
 40
0.4055188043
 40
0.4371221464
 40
0.4687416707
 40
0.5003675737
 40
0.5319899947
 40
0.5635991035
 40
0.5951851873
 40
0.6267387347
 40
0.6582505182
 40
0.6897116749
 40
0.7211137879
 40
0.7524489655
 40
0.7837099101
 40
0.8148899957
 40
0.8459833158
 40
0.8769847405
 40
0.907890123
 40
0.9386956389
 40
0.9693999951
 40
1.0
 40
1.0
 40
1.0
 40
1.0
 10
9.4610157222
 20
5.3723880345
 30
0.0
 10
9.4491433192
 20
5.3732113884
 30
0.0
 10
9.425394858
 20
5.375443316
 30
0.0
 10
9.3899218136
 20
5.3805228788
 30
0.0
 10
9.3546195289
 20
5.3873281168
 30
0.0
 10
9.3195744455
 20
5.3958420749
 30
0.0
 10
9.2848703635
 20
5.4060444949
 30
0.0
 10
9.2505910246
 20
5.4179106387
 30
0.0
 10
9.2168188918
 20
5.4314119122
 30
0.0
 10
9.183635259
 20
5.4465157307
 30
0.0
 10
9.1511199896
 20
5.4631856821
 30
0.0
 10
9.1193513418
 20
5.4813816038
 30
0.0
 10
9.0884057853
 20
5.5010596779
 30
0.0
 10
9.0583578053
 20
5.5221725149
 30
0.0
 10
9.0292797046
 20
5.5446692469
 30
0.0
 10
9.0012414616
 20
5.5684956999
 30
0.0
 10
8.9743105594
 20
5.5935945125
 30
0.0
 10
8.948551828
 20
5.6199052741
 30
0.0
 10
8.9240272908
 20
5.6473646664
 30
0.0
 10
8.9007959683
 20
5.6759065763
 30
0.0
 10
8.8789137794
 20
5.7054622986
 30
0.0
 10
8.8584334095
 20
5.7359606989
 30
0.0
 10
8.8394041845
 20
5.76732838
 30
0.0
 10
8.8218719625
 20
5.7994898605
 30
0.0
 10
8.8058789725
 20
5.8323677274
 30
0.0
 10
8.7914637344
 20
5.8658828399
 30
0.0
 10
8.7786609884
 20
5.8999545302
 30
0.0
 10
8.7675016133
 20
5.9345007923
 30
0.0
 10
8.7580125608
 20
5.9694384617
 30
0.0
 10
8.7502167113
 20
6.0046834859
 30
0.0
 10
8.7441329995
 20
6.0401508065
 30
0.0
 10
8.7397758763
 20
6.0757556194
 30
0.0
 10
8.7371563054
 20
6.1114107076
 30
0.0
 10
8.7365713095
 20
6.1352003042
 30
0.0
 10
8.7365713095
 20
6.1470728378
 30
0.0
  0
SPLINE
  5
30A
100
AcDbEntity
  8
0
100
AcDbSpline
 62
7
  6
CONTINUOUS
 70
0
 71
3
 72
26
 73
22
 74
0
 42
0.0000001
 43
0.0000001
 44
0.0000000001
 40
0.0
 40
0.0
 40
0.0
 40
0.0
 40
0.0637762166
 40
0.1273429375
 40
0.1906991235
 40
0.2538523393
 40
0.2853569189
 40
0.3168132585
 40
0.3795812214
 40
0.4421715787
 40
0.5045965934
 40
0.5668701917
 40
0.6290077786
 40
0.6910261214
 40
0.7219986725
 40
0.7529482414
 40
0.8147830237
 40
0.8765553495
 40
0.9074270139
 40
0.9382907776
 40
1.0
 40
1.0
 40
1.0
 40
1.0
 10
8.7365713095
 20
9.1993986297
 30
0.0
 10
8.7365713095
 20
9.2109702088
 30
0.0
 10
8.7371251669
 20
9.2340792575
 30
0.0
 10
8.7396250423
 20
9.268602382
 30
0.0
 10
8.7437872506
 20
9.3028514149
 30
0.0
 10
8.7486369445
 20
9.3311210663
 30
0.0
 10
8.7533377397
 20
9.3535172678
 30
0.0
 10
8.7585743249
 20
9.3757224453
 30
0.0
 10
8.766132798
 20
9.4031658304
 30
0.0
 10
8.7768105974
 20
9.435535518
 30
0.0
 10
8.7890653271
 20
9.467246088
 30
0.0
 10
8.802868752
 20
9.4982240304
 30
0.0
 10
8.8181888518
 20
9.5283975561
 30
0.0
 10
8.832197183
 20
9.55282585
 30
0.0
 10
8.8441234773
 20
9.5718930847
 30
0.0
 10
8.8565146585
 20
9.590621653
 30
0.0
 10
8.872881501
 20
9.6134088785
 30
0.0
 10
8.8903865975
 20
9.6353157351
 30
0.0
 10
8.9050414212
 20
9.6522719656
 30
0.0
 10
8.9201190031
 20
9.6688372338
 30
0.0
 10
8.931902624
 20
9.6808203845
 30
0.0
 10
8.9399557754
 20
9.6885991586
 30
0.0
  0
SPLINE
  5
30B
100
AcDbEntity
  8
0
100
AcDbSpline
 62
7
  6
CONTINUOUS
 70
0
 71
3
 72
27
 73
23
 74
0
 42
0.0000001
 43
0.0000001
 44
0.0000000001
 40
0.0
 40
0.0
 40
0.0
 40
0.0
 40
0.0963032532
 40
0.1882076203
 40
0.275544326
 40
0.3581986914
 40
0.4360774072
 40
0.5091104485
 40
0.577267381
 40
0.6405601931
 40
0.6990557104
 40
0.752888391
 40
0.8022803711
 40
0.8254193375
 40
0.8475854877
 40
0.8892446021
 40
0.9089238295
 40
0.9279563232
 40
0.9464533257
 40
0.9645372901
 40
0.9823399228
 40
1.0
 40
1.0
 40
1.0
 40
1.0
 10
11.0611442381
 20
10.9120012704
 30
0.0
 10
11.0592538356
 20
10.9125031211
 30
0.0
 10
11.0555706513
 20
10.913527151
 30
0.0
 10
11.0502192971
 20
10.9151666604
 30
0.0
 10
11.0451798446
 20
10.9168708815
 30
0.0
 10
11.0404641656
 20
10.918635695
 30
0.0
 10
11.0360828586
 20
10.9204569909
 30
0.0
 10
11.0320459014
 20
10.9223306707
 30
0.0
 10
11.0283623765
 20
10.9242523751
 30
0.0
 10
11.0250404991
 20
10.9262179125
 30
0.0
 10
11.0220874107
 20
10.9282231127
 30
0.0
 10
11.019509705
 20
10.9302638578
 30
0.0
 10
11.0176398818
 20
10.9320280134
 30
0.0
 10
11.0163491544
 20
10.9334551662
 30
0.0
 10
11.0152400295
 20
10.9348304392
 30
0.0
 10
11.0142955678
 20
10.9362463916
 30
0.0
 10
11.0135442627
 20
10.9376970162
 30
0.0
 10
11.0130911179
 20
10.9387682908
 30
0.0
 10
11.0127381552
 20
10.9398426286
 30
0.0
 10
11.0124856804
 20
10.9409194159
 30
0.0
 10
11.0123340388
 20
10.9419977741
 30
0.0
 10
11.0123002913
 20
10.9427184548
 30
0.0
 10
11.0123002868
 20
10.9430771243
 30
0.0
  0
SPLINE
  5
30C
100
AcDbEntity
  8
0
100
AcDbSpline
 62
7
  6
CONTINUOUS
 70
0
 71
3
 72
27
 73
23
 74
0
 42
0.0000001
 43
0.0000001
 44
0.0000000001
 40
0.0
 40
0.0
 40
0.0
 40
0.0
 40
0.061528854
 40
0.09230539
 40
0.1230906854
 40
0.184698335
 40
0.2463842403
 40
0.2772667366
 40
0.308177802
 40
0.3700915631
 40
0.4321528694
 40
0.4943819671
 40
0.5567971933
 40
0.6194148223
 40
0.6822489223
 40
0.7137534936
 40
0.7453163631
 40
0.8086161842
 40
0.8721597894
 40
0.9040270702
 40
0.935957846
 40
1.0
 40
1.0
 40
1.0
 40
1.0
 10
9.3454064188
 20
7.0161469378
 30
0.0
 10
9.3532568258
 20
7.023729849
 30
0.0
 10
9.3653435147
 20
7.0347916973
 30
0.0
 10
9.3820339367
 20
7.0488730456
 30
0.0
 10
9.3991081479
 20
7.0625097783
 30
0.0
 10
9.4211460075
 20
7.0787005059
 30
0.0
 10
9.4440346542
 20
7.0936958164
 30
0.0
 10
9.4628252831
 20
7.1049564545
 30
0.0
 10
9.4819450296
 20
7.1157312348
 30
0.0
 10
9.5064140769
 20
7.1282586495
 30
0.0
 10
9.5365870743
 20
7.1417355477
 30
0.0
 10
9.5675132998
 20
7.1536315042
 30
0.0
 10
9.5991158238
 20
7.1639158035
 30
0.0
 10
9.6313158338
 20
7.1725619323
 30
0.0
 10
9.6585579704
 20
7.1783781702
 30
0.0
 10
9.6805655989
 20
7.1821932951
 30
0.0
 10
9.7027459204
 20
7.1854528572
 30
0.0
 10
9.7306967599
 20
7.1884665365
 30
0.0
 10
9.758818455
 20
7.190055874
 30
0.0
 10
9.7814059668
 20
7.1904750258
 30
0.0
 10
9.8040848407
 20
7.19032429
 30
0.0
 10
9.8211021593
 20
7.1895690525
 30
0.0
 10
9.8324354175
 20
7.1887830884
 30
0.0
  0
SPLINE
  5
30D
100
AcDbEntity
  8
0
100
AcDbSpline
 62
7
  6
CONTINUOUS
 70
0
 71
3
 72
53
 73
49
 74
0
 42
0.0000001
 43
0.0000001
 44
0.0000000001
 40
0.0
 40
0.0
 40
0.0
 40
0.0
 40
0.031132129
 40
0.0624358948
 40
0.0939043259
 40
0.1255263383
 40
0.1572880878
 40
0.1891729618
 40
0.2211619788
 40
0.2532341864
 40
0.2853670659
 40
0.3175369715
 40
0.3497195709
 40
0.3818902978
 40
0.4140248053
 40
0.4460994159
 40
0.4780915687
 40
0.5099802485
 40
0.5417464059
 40
0.5733733403
 40
0.5891325837
 40
0.6048520249
 40
0.6205303973
 40
0.6361666359
 40
0.6517598972
 40
0.6673095583
 40
0.6828152172
 40
0.6982767141
 40
0.7136941203
 40
0.7290677404
 40
0.744398126
 40
0.7596860605
 40
0.7749325662
 40
0.7901389021
 40
0.8053065472
 40
0.8204372106
 40
0.8355328162
 40
0.8505954865
 40
0.8656275445
 40
0.8806314962
 40
0.8956100152
 40
0.910565918
 40
0.9255021793
 40
0.940421931
 40
0.955328206
 40
0.970224319
 40
0.985114358
 40
1.0
 40
1.0
 40
1.0
 40
1.0
 10
9.8324354175
 20
7.1887830884
 30
0.0
 10
9.8490477213
 20
7.1876310212
 30
0.0
 10
9.8822918646
 20
7.1841035131
 30
0.0
 10
9.9317690695
 20
7.1752157694
 30
0.0
 10
9.9807435261
 20
7.1627611431
 30
0.0
 10
10.0289480685
 20
7.1468041565
 30
0.0
 10
10.0761235714
 20
7.1274285224
 30
0.0
 10
10.1220151755
 20
7.1047367576
 30
0.0
 10
10.1663751035
 20
7.0788495508
 30
0.0
 10
10.2089636757
 20
7.0499051425
 30
0.0
 10
10.2495508856
 20
7.0180586955
 30
0.0
 10
10.2879176045
 20
6.9834813072
 30
0.0
 10
10.3238567949
 20
6.94635904
 30
0.0
 10
10.3571747438
 20
6.9068919602
 30
0.0
 10
10.3876921789
 20
6.8652930343
 30
0.0
 10
10.4152451828
 20
6.8217867905
 30
0.0
 10
10.4396860638
 20
6.776608272
 30
0.0
 10
10.4608844761
 20
6.7300010542
 30
0.0
 10
10.4787274242
 20
6.6822184567
 30
0.0
 10
10.4907375783
 20
6.6415802397
 30
0.0
 10
10.4985764194
 20
6.6087426562
 30
0.0
 10
10.503560489
 20
6.5840105493
 30
0.0
 10
10.5076493251
 20
6.5591817338
 30
0.0
 10
10.5108378163
 20
6.5342892404
 30
0.0
 10
10.5131221399
 20
6.5093666679
 30
0.0
 10
10.5144996502
 20
6.48444747
 30
0.0
 10
10.5149688243
 20
6.4595650899
 30
0.0
 10
10.5145295898
 20
6.4347528746
 30
0.0
 10
10.5131829204
 20
6.4100440249
 30
0.0
 10
10.5109310171
 20
6.3854715634
 30
0.0
 10
10.5077774502
 20
6.3610682621
 30
0.0
 10
10.5037267746
 20
6.336866634
 30
0.0
 10
10.4987848486
 20
6.3128988614
 30
0.0
 10
10.4929587625
 20
6.2891967415
 30
0.0
 10
10.4862565646
 20
6.2657917133
 30
0.0
 10
10.4786876387
 20
6.2427147223
 30
0.0
 10
10.4702624333
 20
6.2199962355
 30
0.0
 10
10.4609923698
 20
6.1976662533
 30
0.0
 10
10.4508901662
 20
6.1757541348
 30
0.0
 10
10.4399694473
 20
6.1542887039
 30
0.0
 10
10.4282448555
 20
6.133298192
 30
0.0
 10
10.4157322177
 20
6.1128100749
 30
0.0
 10
10.4024481427
 20
6.0928512395
 30
0.0
 10
10.3884102992
 20
6.0734478979
 30
0.0
 10
10.3736374792
 20
6.0546254191
 30
0.0
 10
10.3581487964
 20
6.0364081784
 30
0.0
 10
10.3419652587
 20
6.0188208361
 30
0.0
 10
10.3307259559
 20
6.0075296636
 30
0.0
 10
10.3249991416
 20
6.0019979855
 30
0.0
  0
SPLINE
  5
30E
100
AcDbEntity
  8
0
100
AcDbSpline
 62
7
  6
CONTINUOUS
 70
0
 71
3
 72
15
 73
11
 74
0
 42
0.0000001
 43
0.0000001
 44
0.0000000001
 40
0.0
 40
0.0
 40
0.0
 40
0.0
 40
0.1236267023
 40
0.2476191756
 40
0.3719944273
 40
0.4967667631
 40
0.6219473692
 40
0.7475424345
 40
0.8735624667
 40
1.0
 40
1.0
 40
1.0
 40
1.0
 10
9.6041942431
 20
9.3558179062
 30
0.0
 10
9.6133270217
 20
9.3584468755
 30
0.0
 10
9.6317400369
 20
9.3633039493
 30
0.0
 10
9.6596963113
 20
9.3693636554
 30
0.0
 10
9.6879803851
 20
9.3741968882
 30
0.0
 10
9.7165399309
 20
9.3777938811
 30
0.0
 10
9.7453227418
 20
9.3801473091
 30
0.0
 10
9.7742764978
 20
9.3812523203
 30
0.0
 10
9.8033469663
 20
9.3811059388
 30
0.0
 10
9.8227389906
 20
9.3801754481
 30
0.0
 10
9.8324354175
 20
9.3795029986
 30
0.0
  0
SPLINE
  5
30F
100
AcDbEntity
  8
0
100
AcDbSpline
 62
7
  6
CONTINUOUS
 70
0
 71
3
 72
15
 73
11
 74
0
 42
0.0000001
 43
0.0000001
 44
0.0000000001
 40
0.0
 40
0.0
 40
0.0
 40
0.0
 40
0.1235190818
 40
0.2474924064
 40
0.3719050722
 40
0.4967471172
 40
0.6219998001
 40
0.7476428003
 40
0.8736519121
 40
1.0
 40
1.0
 40
1.0
 40
1.0
 10
9.8324354175
 20
9.3795029986
 30
0.0
 10
9.843290813
 20
9.3787501744
 30
0.0
 10
9.8650090297
 20
9.3767228773
 30
0.0
 10
9.8974614618
 20
9.3721383478
 30
0.0
 10
9.9297780785
 20
9.3660137724
 30
0.0
 10
9.9618832631
 20
9.3583627517
 30
0.0
 10
9.9937033793
 20
9.3492019134
 30
0.0
 10
10.0251650441
 20
9.3385516223
 30
0.0
 10
10.0561948065
 20
9.3264360966
 30
0.0
 10
10.0765218714
 20
9.3174109033
 30
0.0
 10
10.0865899449
 20
9.3126647284
 30
0.0
  0
SPLINE
  5
310
100
AcDbEntity
  8
0
100
AcDbSpline
 62
7
  6
CONTINUOUS
 70
0
 71
3
 72
23
 73
19
 74
0
 42
0.0000001
 43
0.0000001
 44
0.0000000001
 40
0.0
 40
0.0
 40
0.0
 40
0.0
 40
0.0629610217
 40
0.1260046338
 40
0.1890988702
 40
0.2522111252
 40
0.3153085672
 40
0.3783585517
 40
0.4413290303
 40
0.504188961
 40
0.56690871
 40
0.6294604329
 40
0.6918184641
 40
0.7539596618
 40
0.8158637556
 40
0.877513652
 40
0.9388957103
 40
1.0
 40
1.0
 40
1.0
 40
1.0
 10
10.1912735571
 20
9.2524540459
 30
0.0
 10
10.2029489748
 20
9.244417308
 30
0.0
 10
10.2258652036
 20
9.2276682433
 30
0.0
 10
10.2587812655
 20
9.2006380834
 30
0.0
 10
10.2901515216
 20
9.1717759834
 30
0.0
 10
10.3198591397
 20
9.141188877
 30
0.0
 10
10.3477953629
 20
9.1089888565
 30
0.0
 10
10.3738575725
 20
9.0752943977
 30
0.0
 10
10.3979503121
 20
9.0402294599
 30
0.0
 10
10.4199854818
 20
9.003923125
 30
0.0
 10
10.4398827174
 20
8.9665090673
 30
0.0
 10
10.4575696818
 20
8.9281250361
 30
0.0
 10
10.4729823368
 20
8.8889123337
 30
0.0
 10
10.4860651807
 20
8.8490151978
 30
0.0
 10
10.496771435
 20
8.8085804639
 30
0.0
 10
10.5050632427
 20
8.7677561345
 30
0.0
 10
10.5109116508
 20
8.7266939514
 30
0.0
 10
10.5131738834
 20
8.6991927731
 30
0.0
 10
10.5138897214
 20
8.6854553276
 30
0.0
  0
SPLINE
  5
311
100
AcDbEntity
  8
0
100
AcDbSpline
 62
7
  6
CONTINUOUS
 70
0
 71
3
 72
25
 73
21
 74
0
 42
0.0000001
 43
0.0000001
 44
0.0000000001
 40
0.0
 40
0.0
 40
0.0
 40
0.0
 40
0.0616475733
 40
0.1233181728
 40
0.1850345693
 40
0.2468190226
 40
0.3086930342
 40
0.3706771126
 40
0.4327905535
 40
0.495051239
 40
0.5574754456
 40
0.6200776917
 40
0.6828705853
 40
0.7143444965
 40
0.7458698715
 40
0.8090738384
 40
0.8724931154
 40
0.9042877735
 40
0.9361389908
 40
1.0
 40
1.0
 40
1.0
 40
1.0
 10
11.1894830234
 20
5.4736575431
 30
0.0
 10
11.1810664923
 20
5.4655277699
 30
0.0
 10
11.1637892529
 20
5.449714754
 30
0.0
 10
11.1366308632
 20
5.4274177397
 30
0.0
 10
11.1082931351
 20
5.406594534
 30
0.0
 10
11.0788484574
 20
5.3872984949
 30
0.0
 10
11.0483707665
 20
5.3695779778
 30
0.0
 10
11.0169369555
 20
5.3534776347
 30
0.0
 10
10.9846262165
 20
5.3390379324
 30
0.0
 10
10.9515200126
 20
5.3262951824
 30
0.0
 10
10.9177015941
 20
5.3152813766
 30
0.0
 10
10.883256729
 20
5.3060242713
 30
0.0
 10
10.8541237672
 20
5.2997978568
 30
0.0
 10
10.8305957156
 20
5.2957145114
 30
0.0
 10
10.8068930844
 20
5.2922267601
 30
0.0
 10
10.7770334261
 20
5.2890022709
 30
0.0
 10
10.7469974946
 20
5.28730076
 30
0.0
 10
10.7228802215
 20
5.2868509252
 30
0.0
 10
10.6986759278
 20
5.2870101267
 30
0.0
 10
10.6805159403
 20
5.2878154071
 30
0.0
 10
10.6684230766
 20
5.28865405
 30
0.0
  0
SPLINE
  5
312
100
AcDbEntity
  8
0
100
AcDbSpline
 62
7
  6
CONTINUOUS
 70
0
 71
3
 72
16
 73
12
 74
0
 42
0.0000001
 43
0.0000001
 44
0.0000000001
 40
0.0
 40
0.0
 40
0.0
 40
0.0
 40
0.1098865818
 40
0.2213936261
 40
0.3360632379
 40
0.4553032155
 40
0.5170506603
 40
0.5803897044
 40
0.7123060493
 40
0.8519521627
 40
1.0
 40
1.0
 40
1.0
 40
1.0
 10
10.2321366152
 20
10.8767177589
 30
0.0
 10
10.2321366116
 20
10.8761068293
 30
0.0
 10
10.2320581661
 20
10.8748745797
 30
0.0
 10
10.2317063127
 20
10.8730350478
 30
0.0
 10
10.2311214341
 20
10.871201369
 30
0.0
 10
10.2304488629
 20
10.8696978581
 30
0.0
 10
10.229801678
 20
10.8685030793
 30
0.0
 10
10.22906062
 20
10.8672808356
 30
0.0
 10
10.2279845344
 20
10.8657581095
 30
0.0
 10
10.2264843523
 20
10.8639687181
 30
0.0
 10
10.2253686339
 20
10.8628205369
 30
0.0
 10
10.224776621
 20
10.8622486963
 30
0.0
  0
SPLINE
  5
313
100
AcDbEntity
  8
0
100
AcDbSpline
 62
7
  6
CONTINUOUS
 70
0
 71
3
 72
16
 73
12
 74
0
 42
0.0000001
 43
0.0000001
 44
0.0000000001
 40
0.0
 40
0.0
 40
0.0
 40
0.0
 40
0.1098865818
 40
0.2213936261
 40
0.3360632379
 40
0.4553032155
 40
0.5170506603
 40
0.5803897044
 40
0.7123060493
 40
0.8519521627
 40
1.0
 40
1.0
 40
1.0
 40
1.0
 10
10.802573288
 20
11.427717306
 30
0.0
 10
10.8025732844
 20
11.4271063764
 30
0.0
 10
10.8024948389
 20
11.4258741268
 30
0.0
 10
10.8021429855
 20
11.424034595
 30
0.0
 10
10.8015581069
 20
11.4222009162
 30
0.0
 10
10.8008855357
 20
11.4206974052
 30
0.0
 10
10.8002383508
 20
11.4195026265
 30
0.0
 10
10.7994972928
 20
11.4182803827
 30
0.0
 10
10.7984212072
 20
11.4167576567
 30
0.0
 10
10.7969210251
 20
11.4149682653
 30
0.0
 10
10.7958053067
 20
11.4138200841
 30
0.0
 10
10.7952132937
 20
11.4132482434
 30
0.0
  0
SPLINE
  5
314
100
AcDbEntity
  8
0
100
AcDbSpline
 62
7
  6
CONTINUOUS
 70
0
 71
3
 72
16
 73
12
 74
0
 42
0.0000001
 43
0.0000001
 44
0.0000000001
 40
0.0
 40
0.0
 40
0.0
 40
0.0
 40
0.1098865818
 40
0.2213936261
 40
0.3360632379
 40
0.4553032155
 40
0.5170506603
 40
0.5803897044
 40
0.7123060493
 40
0.8519521627
 40
1.0
 40
1.0
 40
1.0
 40
1.0
 10
12.5689815848
 20
11.0099367582
 30
0.0
 10
12.5689815813
 20
11.0093258286
 30
0.0
 10
12.5689031357
 20
11.0080935789
 30
0.0
 10
12.5685512823
 20
11.0062540471
 30
0.0
 10
12.5679664038
 20
11.0044203683
 30
0.0
 10
12.5672938326
 20
11.0029168574
 30
0.0
 10
12.5666466476
 20
11.0017220786
 30
0.0
 10
12.5659055896
 20
11.0004998348
 30
0.0
 10
12.564829504
 20
10.9989771088
 30
0.0
 10
12.563329322
 20
10.9971877174
 30
0.0
 10
12.5622136035
 20
10.9960395362
 30
0.0
 10
12.5616215906
 20
10.9954676956
 30
0.0
  0
SPLINE
  5
315
100
AcDbEntity
  8
0
100
AcDbSpline
 62
7
  6
CONTINUOUS
 70
0
 71
3
 72
16
 73
12
 74
0
 42
0.0000001
 43
0.0000001
 44
0.0000000001
 40
0.0
 40
0.0
 40
0.0
 40
0.0
 40
0.1098867442
 40
0.2213937922
 40
0.336062747
 40
0.4553025398
 40
0.5170502154
 40
0.5803898679
 40
0.7123087269
 40
0.8519550591
 40
1.0
 40
1.0
 40
1.0
 40
1.0
 10
11.7471410488
 20
10.7686002409
 30
0.0
 10
11.7471410403
 20
10.7681137676
 30
0.0
 10
11.7470785334
 20
10.7671325502
 30
0.0
 10
11.7467983446
 20
10.7656677705
 30
0.0
 10
11.7463326161
 20
10.7642076469
 30
0.0
 10
11.745797037
 20
10.7630104404
 30
0.0
 10
11.7452816911
 20
10.762059058
 30
0.0
 10
11.7446915877
 20
10.7610857963
 30
0.0
 10
11.7438346938
 20
10.7598732763
 30
0.0
 10
11.7426401258
 20
10.7584484163
 30
0.0
 10
11.7417517089
 20
10.7575341461
 30
0.0
 10
11.7412803085
 20
10.7570788083
 30
0.0
  0
SPLINE
  5
316
100
AcDbEntity
  8
0
100
AcDbSpline
 62
7
  6
CONTINUOUS
 70
0
 71
3
 72
16
 73
12
 74
0
 42
0.0000001
 43
0.0000001
 44
0.0000000001
 40
0.0
 40
0.0
 40
0.0
 40
0.0
 40
0.1098866836
 40
0.221393764
 40
0.3360628982
 40
0.4553027328
 40
0.5170503443
 40
0.5803898327
 40
0.7123080507
 40
0.8519543413
 40
1.0
 40
1.0
 40
1.0
 40
1.0
 10
11.3563002603
 20
10.9430770946
 30
0.0
 10
11.356300253
 20
10.9425906201
 30
0.0
 10
11.3562377568
 20
10.9416093992
 30
0.0
 10
11.3559575662
 20
10.9401446138
 30
0.0
 10
11.3554918364
 20
10.938684485
 30
0.0
 10
11.3549562599
 20
10.937487272
 30
0.0
 10
11.3544409129
 20
10.9365358874
 30
0.0
 10
11.3538508104
 20
10.9355626255
 30
0.0
 10
11.3529939201
 20
10.9343501019
 30
0.0
 10
11.3517993479
 20
10.9329252376
 30
0.0
 10
11.3509109257
 20
10.9320109631
 30
0.0
 10
11.3504395216
 20
10.9315556217
 30
0.0
  0
SPLINE
  5
317
100
AcDbEntity
  8
0
100
AcDbSpline
 62
7
  6
CONTINUOUS
 70
0
 71
3
 72
16
 73
12
 74
0
 42
0.0000001
 43
0.0000001
 44
0.0000000001
 40
0.0
 40
0.0
 40
0.0
 40
0.0
 40
0.1098867442
 40
0.2213937922
 40
0.336062747
 40
0.4553025398
 40
0.5170502154
 40
0.5803898679
 40
0.7123087269
 40
0.8519550591
 40
1.0
 40
1.0
 40
1.0
 40
1.0
 10
10.9659771943
 20
11.1180538865
 30
0.0
 10
10.9659771859
 20
11.1175674132
 30
0.0
 10
10.9659146789
 20
11.1165861959
 30
0.0
 10
10.9656344902
 20
11.1151214161
 30
0.0
 10
10.9651687617
 20
11.1136612926
 30
0.0
 10
10.9646331826
 20
11.1124640861
 30
0.0
 10
10.9641178366
 20
11.1115127037
 30
0.0
 10
10.9635277332
 20
11.110539442
 30
0.0
 10
10.9626708393
 20
11.1093269219
 30
0.0
 10
10.9614762713
 20
11.1079020619
 30
0.0
 10
10.9605878544
 20
11.1069877918
 30
0.0
 10
10.9601164541
 20
11.106532454
 30
0.0
  0
SPLINE
  5
318
100
AcDbEntity
  8
0
100
AcDbSpline
 62
7
  6
CONTINUOUS
 70
0
 71
3
 72
16
 73
12
 74
0
 42
0.0000001
 43
0.0000001
 44
0.0000000001
 40
0.0
 40
0.0
 40
0.0
 40
0.0
 40
0.1098867442
 40
0.2213937922
 40
0.336062747
 40
0.4553025398
 40
0.5170502154
 40
0.5803898679
 40
0.7123087269
 40
0.8519550591
 40
1.0
 40
1.0
 40
1.0
 40
1.0
 10
11.6420362447
 20
11.2190768359
 30
0.0
 10
11.6420362362
 20
11.2185903626
 30
0.0
 10
11.6419737293
 20
11.2176091452
 30
0.0
 10
11.6416935405
 20
11.2161443655
 30
0.0
 10
11.641227812
 20
11.2146842419
 30
0.0
 10
11.6406922329
 20
11.2134870354
 30
0.0
 10
11.640176887
 20
11.212535653
 30
0.0
 10
11.6395867835
 20
11.2115623913
 30
0.0
 10
11.6387298896
 20
11.2103498713
 30
0.0
 10
11.6375353217
 20
11.2089250113
 30
0.0
 10
11.6366469047
 20
11.2080107411
 30
0.0
 10
11.6361755044
 20
11.2075554033
 30
0.0
  0
SPLINE
  5
319
100
AcDbEntity
  8
0
100
AcDbSpline
 62
7
  6
CONTINUOUS
 70
0
 71
3
 72
43
 73
39
 74
0
 42
0.0000001
 43
0.0000001
 44
0.0000000001
 40
0.0
 40
0.0
 40
0.0
 40
0.0
 40
0.0309621901
 40
0.0620586747
 40
0.0932851919
 40
0.1246350351
 40
0.156099766
 40
0.1876690796
 40
0.2193310868
 40
0.2510724758
 40
0.2828787354
 40
0.3147343779
 40
0.3466231773
 40
0.3785284129
 40
0.4104331197
 40
0.4423203405
 40
0.4741733783
 40
0.5059760458
 40
0.5377129093
 40
0.5693695254
 40
0.6009326661
 40
0.6323905307
 40
0.6637329405
 40
0.694951514
 40
0.7260398196
 40
0.756993501
 40
0.7878103741
 40
0.8184904911
 40
0.8337819317
 40
0.8490402436
 40
0.8642660674
 40
0.8794601843
 40
0.909752917
 40
0.9399314699
 40
0.9549833894
 40
0.9700110037
 40
0.9850159602
 40
1.0
 40
1.0
 40
1.0
 40
1.0
 10
10.2376660632
 20
6.3433807067
 30
0.0
 10
10.225782035
 20
6.3442048668
 30
0.0
 10
10.2020085125
 20
6.3466198775
 30
0.0
 10
10.1665799495
 20
6.3525027429
 30
0.0
 10
10.1314435948
 20
6.3606298869
 30
0.0
 10
10.0967458245
 20
6.3709676126
 30
0.0
 10
10.0626288086
 20
6.3834732061
 30
0.0
 10
10.0292329239
 20
6.3980950943
 30
0.0
 10
9.9966954019
 20
6.4147730063
 30
0.0
 10
9.9651499801
 20
6.4334382586
 30
0.0
 10
9.9347262998
 20
6.4540140192
 30
0.0
 10
9.9055493949
 20
6.4764156302
 30
0.0
 10
9.8777391781
 20
6.5005509514
 30
0.0
 10
9.8514099535
 20
6.5263207377
 30
0.0
 10
9.8266699503
 20
6.553619044
 30
0.0
 10
9.8036208816
 20
6.5823336579
 30
0.0
 10
9.7823575292
 20
6.6123465571
 30
0.0
 10
9.7629673563
 20
6.6435343909
 30
0.0
 10
9.7455301503
 20
6.6757689821
 30
0.0
 10
9.7301176961
 20
6.70891785
 30
0.0
 10
9.7167934815
 20
6.7428447486
 30
0.0
 10
9.7056124366
 20
6.7774102233
 30
0.0
 10
9.6966207059
 20
6.8124721701
 30
0.0
 10
9.6898554602
 20
6.847886445
 30
0.0
 10
9.6853447258
 20
6.8835073336
 30
0.0
 10
9.6831073193
 20
6.9191885776
 30
0.0
 10
9.683152562
 20
6.9547823647
 30
0.0
 10
9.6850950919
 20
6.9842850881
 30
0.0
 10
9.6877890019
 20
7.0076919576
 30
0.0
 10
9.6903733522
 20
7.0251165629
 30
0.0
 10
9.6935212605
 20
7.0424101829
 30
0.0
 10
9.6984597639
 20
7.065244728
 30
0.0
 10
9.7060218666
 20
7.093380916
 30
0.0
 10
9.715425025
 20
7.1208991229
 30
0.0
 10
9.724019019
 20
7.1424354299
 30
0.0
 10
9.7309884116
 20
7.1583236103
 30
0.0
 10
9.7384792985
 20
7.1739433069
 30
0.0
 10
9.743819638
 20
7.1841741507
 30
0.0
 10
9.7465738638
 20
7.1892387331
 30
0.0
  0
SPLINE
  5
31A
100
AcDbEntity
  8
0
100
AcDbSpline
 62
7
  6
CONTINUOUS
 70
0
 71
3
 72
23
 73
19
 74
0
 42
0.0000001
 43
0.0000001
 44
0.0000000001
 40
0.0
 40
0.0
 40
0.0
 40
0.0
 40
0.0619526322
 40
0.1241151204
 40
0.1864638997
 40
0.2489725007
 40
0.3116119936
 40
0.3743514433
 40
0.4371583925
 40
0.4999993597
 40
0.5628403487
 40
0.6256473626
 40
0.6883869193
 40
0.7510265596
 40
0.8135353466
 40
0.8758843467
 40
0.9380470898
 40
1.0
 40
1.0
 40
1.0
 40
1.0
 10
10.4636603126
 20
6.7210098708
 30
0.0
 10
10.4520492084
 20
6.7247815133
 30
0.0
 10
10.4290174708
 20
6.7330667316
 30
0.0
 10
10.3952579714
 20
6.7476295351
 30
0.0
 10
10.3623589443
 20
6.7642907048
 30
0.0
 10
10.3304597864
 20
6.7829798378
 30
0.0
 10
10.2996934276
 20
6.8036187938
 30
0.0
 10
10.2701886718
 20
6.8261211103
 30
0.0
 10
10.2420688851
 20
6.8503926068
 30
0.0
 10
10.2154516937
 20
6.8763317108
 30
0.0
 10
10.1904484399
 20
6.903829897
 30
0.0
 10
10.1671637344
 20
6.9327721371
 30
0.0
 10
10.1456950214
 20
6.9630373628
 30
0.0
 10
10.1261321598
 20
6.9944990252
 30
0.0
 10
10.1085571068
 20
7.0270254074
 30
0.0
 10
10.09304336
 20
7.0604809572
 30
0.0
 10
10.0796564583
 20
7.0947239247
 30
0.0
 10
10.0721724883
 20
7.118028454
 30
0.0
 10
10.0688045302
 20
7.1297630705
 30
0.0
  0
SPLINE
  5
31B
100
AcDbEntity
  8
0
100
AcDbSpline
 62
7
  6
CONTINUOUS
 70
0
 71
3
 72
19
 73
15
 74
0
 42
0.0000001
 43
0.0000001
 44
0.0000000001
 40
0.0
 40
0.0
 40
0.0
 40
0.0
 40
0.0623239708
 40
0.1247193444
 40
0.1871765441
 40
0.2496857193
 40
0.3748014825
 40
0.5000016093
 40
0.6252015288
 40
0.7503166756
 40
0.812825393
 40
0.8752820422
 40
0.9376767616
 40
1.0
 40
1.0
 40
1.0
 40
1.0
 10
10.3987231518
 20
6.8468570693
 30
0.0
 10
10.3933356108
 20
6.8500271883
 30
0.0
 10
10.3826617546
 20
6.8565556538
 30
0.0
 10
10.3669860609
 20
6.866892358
 30
0.0
 10
10.3516548828
 20
6.8777663667
 30
0.0
 10
10.3316960309
 20
6.8929648775
 30
0.0
 10
10.3077107276
 20
6.9132329368
 30
0.0
 10
10.2806289596
 20
6.9394485144
 30
0.0
 10
10.2553768545
 20
6.9674307467
 30
0.0
 10
10.2359603776
 20
6.9921103176
 30
0.0
 10
10.2214694277
 20
7.01258847
 30
0.0
 10
10.2111385489
 20
7.0282905647
 30
0.0
 10
10.2013566662
 20
7.0443181126
 30
0.0
 10
10.1952056999
 20
7.0552137172
 30
0.0
 10
10.1922260276
 20
7.0607087956
 30
0.0
  0
SPLINE
  5
31C
100
AcDbEntity
  8
0
100
AcDbSpline
 62
7
  6
CONTINUOUS
 70
0
 71
3
 72
63
 73
59
 74
0
 42
0.0000001
 43
0.0000001
 44
0.0000000001
 40
0.0
 40
0.0
 40
0.0
 40
0.0
 40
0.0081222224
 40
0.0169167531
 40
0.0264085441
 40
0.0366140849
 40
0.0475412003
 40
0.0591907523
 40
0.0715580634
 40
0.0846341233
 40
0.098405825
 40
0.112856795
 40
0.1279677757
 40
0.1437167936
 40
0.1600797469
 40
0.1770302752
 40
0.1945402694
 40
0.2125798695
 40
0.2311176245
 40
0.2501207812
 40
0.2893845909
 40
0.3300863899
 40
0.3719252363
 40
0.4145887042
 40
0.4577561951
 40
0.5011021789
 40
0.5442993887
 40
0.5870220033
 40
0.6289488413
 40
0.6697666035
 40
0.7091731665
 40
0.7282572796
 40
0.7468821043
 40
0.7650146264
 40
0.7826231568
 40
0.7996775115
 40
0.8161492832
 40
0.8320117465
 40
0.8472403979
 40
0.8618128522
 40
0.8757093176
 40
0.888912903
 40
0.9014098364
 40
0.9131903299
 40
0.9242488314
 40
0.9345852492
 40
0.9442059138
 40
0.9531250932
 40
0.9613672653
 40
0.9689694188
 40
0.9759847395
 40
0.9824860571
 40
0.9855749857
 40
0.9885735159
 40
0.9914975122
 40
0.9943641908
 40
0.9971919345
 40
1.0
 40
1.0
 40
1.0
 40
1.0
 10
12.1443416089
 20
11.0244061606
 30
0.0
 10
12.1452145863
 20
11.025249392
 30
0.0
 10
12.1471151561
 20
11.0269214655
 30
0.0
 10
12.150269922
 20
11.029297187
 30
0.0
 10
12.1538326717
 20
11.0316331508
 30
0.0
 10
12.1577961561
 20
11.0339248685
 30
0.0
 10
12.1621529398
 20
11.0361682238
 30
0.0
 10
12.1668945768
 20
11.0383587348
 30
0.0
 10
12.1720117223
 20
11.0404921482
 30
0.0
 10
12.1774942662
 20
11.0425641182
 30
0.0
 10
12.1833312851
 20
11.044570507
 30
0.0
 10
12.1895111086
 20
11.0465072356
 30
0.0
 10
12.1960213434
 20
11.0483703398
 30
0.0
 10
12.2028488956
 20
11.0501560829
 30
0.0
 10
12.2099800228
 20
11.0518607635
 30
0.0
 10
12.217400343
 20
11.0534809631
 30
0.0
 10
12.2250948845
 20
11.0550133537
 30
0.0
 10
12.2330481069
 20
11.0564548059
 30
0.0
 10
12.2412439552
 20
11.0578024369
 30
0.0
 10
12.2525969161
 20
11.0594887382
 30
0.0
 10
12.267272724
 20
11.0613340274
 30
0.0
 10
12.2853891552
 20
11.0631131457
 30
0.0
 10
12.3040517491
 20
11.0644656554
 30
0.0
 10
12.3231096631
 20
11.0653804535
 30
0.0
 10
12.3424089703
 20
11.0658500024
 30
0.0
 10
12.3617937123
 20
11.0658704426
 30
0.0
 10
12.3811072461
 20
11.0654416055
 30
0.0
 10
12.4001934963
 20
11.0645670152
 30
0.0
 10
12.4188983023
 20
11.0632538771
 30
0.0
 10
12.4370704767
 20
11.0615129724
 30
0.0
 10
12.4518013045
 20
11.0596989856
 30
0.0
 10
12.4632047898
 20
11.0580370792
 30
0.0
 10
12.4714429712
 20
11.0567068125
 30
0.0
 10
12.4794415014
 20
11.0552822025
 30
0.0
 10
12.4871842333
 20
11.0537661176
 30
0.0
 10
12.4946555263
 20
11.0521616323
 30
0.0
 10
12.5018403049
 20
11.0504720597
 30
0.0
 10
12.5087240758
 20
11.0487007804
 30
0.0
 10
12.5152929795
 20
11.046851461
 30
0.0
 10
12.5215338018
 20
11.0449278283
 30
0.0
 10
12.5274340179
 20
11.0429337969
 30
0.0
 10
12.5329818288
 20
11.0408734469
 30
0.0
 10
12.5381661629
 20
11.0387508766
 30
0.0
 10
12.5429767669
 20
11.0365704274
 30
0.0
 10
12.5474041623
 20
11.0343363621
 30
0.0
 10
12.5514397432
 20
11.0320530756
 30
0.0
 10
12.555075766
 20
11.0297249077
 30
0.0
 10
12.5583053126
 20
11.0273559921
 30
0.0
 10
12.5611223486
 20
11.0249504284
 30
0.0
 10
12.5635214514
 20
11.0225115488
 30
0.0
 10
12.5654974137
 20
11.0200430483
 30
0.0
 10
12.5668090795
 20
11.0179274759
 30
0.0
 10
12.567626441
 20
11.0162315279
 30
0.0
 10
12.5681202346
 20
11.0149772935
 30
0.0
 10
12.568504795
 20
11.0137200039
 30
0.0
 10
12.5687797842
 20
11.0124602777
 30
0.0
 10
12.5689448544
 20
11.0111990023
 30
0.0
 10
12.5689815872
 20
11.0103563748
 30
0.0
 10
12.5689815848
 20
11.0099367582
 30
0.0
  0
SPLINE
  5
31D
100
AcDbEntity
  8
0
100
AcDbSpline
 62
7
  6
CONTINUOUS
 70
0
 71
3
 72
76
 73
72
 74
0
 42
0.0000001
 43
0.0000001
 44
0.0000000001
 40
0.0
 40
0.0
 40
0.0
 40
0.0
 40
0.015674694
 40
0.0235325603
 40
0.0314031573
 40
0.0471815268
 40
0.0630096849
 40
0.078885443
 40
0.0948063616
 40
0.1107695265
 40
0.1267716591
 40
0.1347867587
 40
0.1428102102
 40
0.1588790638
 40
0.1749750777
 40
0.1910937863
 40
0.2072305249
 40
0.2233804707
 40
0.2395386859
 40
0.2557001603
 40
0.2637810747
 40
0.2718609151
 40
0.2880138077
 40
0.3041549342
 40
0.3202794334
 40
0.33638259
 40
0.3524598754
 40
0.3685069892
 40
0.3845198979
 40
0.4004948724
 40
0.4164285238
 40
0.4323178367
 40
0.4481601993
 40
0.4639534306
 40
0.4796958049
 40
0.4953860714
 40
0.5110234713
 40
0.5266077496
 40
0.5421391631
 40
0.557618483
 40
0.5730469929
 40
0.5884264804
 40
0.6037592249
 40
0.6190479785
 40
0.6342959424
 40
0.6495067379
 40
0.6646843722
 40
0.6798331992
 40
0.694957876
 40
0.7100633149
 40
0.7251546327
 40
0.7402370967
 40
0.7553160686
 40
0.7703969473
 40
0.7854851115
 40
0.8005858618
 40
0.815704365
 40
0.8308455989
 40
0.8460143008
 40
0.8612149184
 40
0.8764515652
 40
0.8917279798
 40
0.9070474893
 40
0.9224129843
 40
0.9301143578
 40
0.9378280918
 40
0.9532923515
 40
0.9688082782
 40
0.976586544
 40
0.9843783005
 40
1.0
 40
1.0
 40
1.0
 40
1.0
 10
9.8120207406
 20
5.7351899397
 30
0.0
 10
9.799705031
 20
5.736044037
 30
0.0
 10
9.7812426539
 20
5.7377791904
 30
0.0
 10
9.7567169574
 20
5.7409873406
 30
0.0
 10
9.7321948341
 20
5.7448001432
 30
0.0
 10
9.7016522235
 20
5.750687787
 30
0.0
 10
9.665299026
 20
5.7595196043
 30
0.0
 10
9.6292992833
 20
5.7701029238
 30
0.0
 10
9.5937401195
 20
5.7824120919
 30
0.0
 10
9.5587074288
 20
5.7964172569
 30
0.0
 10
9.5300368356
 20
5.8094669353
 30
0.0
 10
9.5074464486
 20
5.8207177335
 30
0.0
 10
9.4850772165
 20
5.8325151609
 30
0.0
 10
9.457600647
 20
5.8482527389
 30
0.0
 10
9.4255000768
 20
5.8686653168
 30
0.0
 10
9.3943302158
 20
5.8905664005
 30
0.0
 10
9.3641665577
 20
5.9139029737
 30
0.0
 10
9.3350814858
 20
5.9386190104
 30
0.0
 10
9.3071453813
 20
5.9646546259
 30
0.0
 10
9.2848771114
 20
5.9874001576
 30
0.0
 10
9.2677022475
 20
6.0061929663
 30
0.0
 10
9.2509666181
 20
6.0253689964
 30
0.0
 10
9.2308859064
 20
6.0500400417
 30
0.0
 10
9.208186984
 20
6.080698945
 30
0.0
 10
9.1869419702
 20
6.1123360258
 30
0.0
 10
9.1672023474
 20
6.1448747593
 30
0.0
 10
9.1490155742
 20
6.1782369357
 30
0.0
 10
9.1324254894
 20
6.2123422338
 30
0.0
 10
9.1174720685
 20
6.2471085769
 30
0.0
 10
9.1041913643
 20
6.2824522849
 30
0.0
 10
9.0926153965
 20
6.3182882823
 30
0.0
 10
9.0827720901
 20
6.3545303046
 30
0.0
 10
9.074685207
 20
6.3910911048
 30
0.0
 10
9.0683742887
 20
6.4278826621
 30
0.0
 10
9.0638546086
 20
6.4648163914
 30
0.0
 10
9.0611371341
 20
6.5018033552
 30
0.0
 10
9.0602284988
 20
6.5387544764
 30
0.0
 10
9.0611309855
 20
6.5755807509
 30
0.0
 10
9.0638425034
 20
6.6121934631
 30
0.0
 10
9.0683566067
 20
6.6485043991
 30
0.0
 10
9.0746625074
 20
6.6844260589
 30
0.0
 10
9.0827450997
 20
6.7198718662
 30
0.0
 10
9.0925849935
 20
6.754756377
 30
0.0
 10
9.1041585589
 20
6.7889954857
 30
0.0
 10
9.117437981
 20
6.8225066287
 30
0.0
 10
9.1323913243
 20
6.8552089842
 30
0.0
 10
9.1489825945
 20
6.8870236763
 30
0.0
 10
9.1671718382
 20
6.9178739624
 30
0.0
 10
9.186915238
 20
6.94768542
 30
0.0
 10
9.2081652173
 20
6.9763861282
 30
0.0
 10
9.2308705546
 20
7.0039068438
 30
0.0
 10
9.2549765074
 20
7.0301811705
 30
0.0
 10
9.2804249448
 20
7.0551457213
 30
0.0
 10
9.3071544889
 20
7.0787402736
 30
0.0
 10
9.3351006549
 20
7.1009079281
 30
0.0
 10
9.3641960206
 20
7.1215952375
 30
0.0
 10
9.3943703906
 20
7.1407523358
 30
0.0
 10
9.4255509696
 20
7.158333059
 30
0.0
 10
9.4576625354
 20
7.1742950558
 30
0.0
 10
9.4906276398
 20
7.1885998906
 30
0.0
 10
9.524366733
 20
7.2012131275
 30
0.0
 10
9.5587985992
 20
7.2121044419
 30
0.0
 10
9.5938396424
 20
7.2212475917
 30
0.0
 10
9.623456865
 20
7.2273873174
 30
0.0
 10
9.6473661551
 20
7.2314067955
 30
0.0
 10
9.6714461296
 20
7.2348341142
 30
0.0
 10
9.7017709367
 20
7.2379904813
 30
0.0
 10
9.7322658541
 20
7.2396342277
 30
0.0
 10
9.7567477875
 20
7.2400441169
 30
0.0
 10
9.7813151999
 20
7.2398491939
 30
0.0
 10
9.7997466691
 20
7.2390219292
 30
0.0
 10
9.8120207406
 20
7.2381707194
 30
0.0
  0
SPLINE
  5
31E
100
AcDbEntity
  8
0
100
AcDbSpline
 62
7
  6
CONTINUOUS
 70
0
 71
3
 72
63
 73
59
 74
0
 42
0.0000001
 43
0.0000001
 44
0.0000000001
 40
0.0
 40
0.0
 40
0.0
 40
0.0
 40
0.0081222224
 40
0.0169167531
 40
0.0264085441
 40
0.0366140849
 40
0.0475412003
 40
0.0591907523
 40
0.0715580634
 40
0.0846341233
 40
0.098405825
 40
0.112856795
 40
0.1279677757
 40
0.1437167936
 40
0.1600797469
 40
0.1770302752
 40
0.1945402694
 40
0.2125798695
 40
0.2311176245
 40
0.2501207812
 40
0.2893845909
 40
0.3300863899
 40
0.3719252363
 40
0.4145887042
 40
0.4577561951
 40
0.5011021789
 40
0.5442993887
 40
0.5870220033
 40
0.6289488413
 40
0.6697666035
 40
0.7091731665
 40
0.7282572796
 40
0.7468821043
 40
0.7650146264
 40
0.7826231568
 40
0.7996775115
 40
0.8161492832
 40
0.8320117465
 40
0.8472403979
 40
0.8618128522
 40
0.8757093176
 40
0.888912903
 40
0.9014098364
 40
0.9131903299
 40
0.9242488314
 40
0.9345852492
 40
0.9442059138
 40
0.9531250932
 40
0.9613672653
 40
0.9689694188
 40
0.9759847395
 40
0.9824860571
 40
0.9855749857
 40
0.9885735159
 40
0.9914975122
 40
0.9943641908
 40
0.9971919345
 40
1.0
 40
1.0
 40
1.0
 40
1.0
 10
10.3779333121
 20
11.4421867085
 30
0.0
 10
10.3788062895
 20
11.4430299399
 30
0.0
 10
10.3807068592
 20
11.4447020133
 30
0.0
 10
10.3838616251
 20
11.4470777348
 30
0.0
 10
10.3874243748
 20
11.4494136987
 30
0.0
 10
10.3913878592
 20
11.4517054164
 30
0.0
 10
10.3957446429
 20
11.4539487716
 30
0.0
 10
10.40048628
 20
11.4561392827
 30
0.0
 10
10.4056034255
 20
11.4582726961
 30
0.0
 10
10.4110859694
 20
11.4603446661
 30
0.0
 10
10.4169229883
 20
11.4623510549
 30
0.0
 10
10.4231028117
 20
11.4642877835
 30
0.0
 10
10.4296130465
 20
11.4661508877
 30
0.0
 10
10.4364405987
 20
11.4679366308
 30
0.0
 10
10.443571726
 20
11.4696413114
 30
0.0
 10
10.4509920461
 20
11.471261511
 30
0.0
 10
10.4586865877
 20
11.4727939016
 30
0.0
 10
10.46663981
 20
11.4742353538
 30
0.0
 10
10.4748356584
 20
11.4755829848
 30
0.0
 10
10.4861886192
 20
11.4772692861
 30
0.0
 10
10.5008644272
 20
11.4791145752
 30
0.0
 10
10.5189808583
 20
11.4808936936
 30
0.0
 10
10.5376434523
 20
11.4822462033
 30
0.0
 10
10.5567013662
 20
11.4831610014
 30
0.0
 10
10.5760006734
 20
11.4836305503
 30
0.0
 10
10.5953854154
 20
11.4836509904
 30
0.0
 10
10.6146989493
 20
11.4832221534
 30
0.0
 10
10.6337851994
 20
11.4823475631
 30
0.0
 10
10.6524900055
 20
11.4810344249
 30
0.0
 10
10.6706621798
 20
11.4792935203
 30
0.0
 10
10.6853930077
 20
11.4774795334
 30
0.0
 10
10.696796493
 20
11.4758176271
 30
0.0
 10
10.7050346744
 20
11.4744873604
 30
0.0
 10
10.7130332046
 20
11.4730627504
 30
0.0
 10
10.7207759364
 20
11.4715466654
 30
0.0
 10
10.7282472295
 20
11.4699421802
 30
0.0
 10
10.735432008
 20
11.4682526076
 30
0.0
 10
10.742315779
 20
11.4664813283
 30
0.0
 10
10.7488846827
 20
11.4646320089
 30
0.0
 10
10.755125505
 20
11.4627083761
 30
0.0
 10
10.7610257211
 20
11.4607143448
 30
0.0
 10
10.7665735319
 20
11.4586539948
 30
0.0
 10
10.7717578661
 20
11.4565314245
 30
0.0
 10
10.77656847
 20
11.4543509752
 30
0.0
 10
10.7809958655
 20
11.45211691
 30
0.0
 10
10.7850314464
 20
11.4498336234
 30
0.0
 10
10.7886674691
 20
11.4475054556
 30
0.0
 10
10.7918970157
 20
11.44513654
 30
0.0
 10
10.7947140518
 20
11.4427309763
 30
0.0
 10
10.7971131545
 20
11.4402920967
 30
0.0
 10
10.7990891168
 20
11.4378235961
 30
0.0
 10
10.8004007826
 20
11.4357080238
 30
0.0
 10
10.8012181441
 20
11.4340120758
 30
0.0
 10
10.8017119377
 20
11.4327578414
 30
0.0
 10
10.8020964981
 20
11.4315005518
 30
0.0
 10
10.8023714873
 20
11.4302408256
 30
0.0
 10
10.8025365576
 20
11.4289795502
 30
0.0
 10
10.8025732904
 20
11.4281369227
 30
0.0
 10
10.802573288
 20
11.427717306
 30
0.0
  0
SPLINE
  5
31F
100
AcDbEntity
  8
0
100
AcDbSpline
 62
7
  6
CONTINUOUS
 70
0
 71
3
 72
63
 73
59
 74
0
 42
0.0000001
 43
0.0000001
 44
0.0000000001
 40
0.0
 40
0.0
 40
0.0
 40
0.0
 40
0.0081222224
 40
0.0169167531
 40
0.0264085441
 40
0.0366140849
 40
0.0475412003
 40
0.0591907523
 40
0.0715580634
 40
0.0846341233
 40
0.098405825
 40
0.112856795
 40
0.1279677757
 40
0.1437167936
 40
0.1600797469
 40
0.1770302752
 40
0.1945402694
 40
0.2125798695
 40
0.2311176245
 40
0.2501207812
 40
0.2893845909
 40
0.3300863899
 40
0.3719252363
 40
0.4145887042
 40
0.4577561951
 40
0.5011021789
 40
0.5442993887
 40
0.5870220033
 40
0.6289488413
 40
0.6697666035
 40
0.7091731665
 40
0.7282572796
 40
0.7468821043
 40
0.7650146264
 40
0.7826231568
 40
0.7996775115
 40
0.8161492832
 40
0.8320117465
 40
0.8472403979
 40
0.8618128522
 40
0.8757093176
 40
0.888912903
 40
0.9014098364
 40
0.9131903299
 40
0.9242488314
 40
0.9345852492
 40
0.9442059138
 40
0.9531250932
 40
0.9613672653
 40
0.9689694188
 40
0.9759847395
 40
0.9824860571
 40
0.9855749857
 40
0.9885735159
 40
0.9914975122
 40
0.9943641908
 40
0.9971919345
 40
1.0
 40
1.0
 40
1.0
 40
1.0
 10
9.8074966393
 20
10.8911871613
 30
0.0
 10
9.8083696167
 20
10.8920303928
 30
0.0
 10
9.8102701864
 20
10.8937024662
 30
0.0
 10
9.8134249523
 20
10.8960781877
 30
0.0
 10
9.816987702
 20
10.8984141515
 30
0.0
 10
9.8209511864
 20
10.9007058692
 30
0.0
 10
9.8253079701
 20
10.9029492245
 30
0.0
 10
9.8300496072
 20
10.9051397355
 30
0.0
 10
9.8351667527
 20
10.907273149
 30
0.0
 10
9.8406492966
 20
10.9093451189
 30
0.0
 10
9.8464863155
 20
10.9113515077
 30
0.0
 10
9.8526661389
 20
10.9132882363
 30
0.0
 10
9.8591763737
 20
10.9151513405
 30
0.0
 10
9.8660039259
 20
10.9169370836
 30
0.0
 10
9.8731350532
 20
10.9186417642
 30
0.0
 10
9.8805553733
 20
10.9202619638
 30
0.0
 10
9.8882499149
 20
10.9217943544
 30
0.0
 10
9.8962031373
 20
10.9232358066
 30
0.0
 10
9.9043989856
 20
10.9245834376
 30
0.0
 10
9.9157519464
 20
10.9262697389
 30
0.0
 10
9.9304277544
 20
10.9281150281
 30
0.0
 10
9.9485441856
 20
10.9298941464
 30
0.0
 10
9.9672067795
 20
10.9312466561
 30
0.0
 10
9.9862646934
 20
10.9321614542
 30
0.0
 10
10.0055640006
 20
10.9326310031
 30
0.0
 10
10.0249487426
 20
10.9326514433
 30
0.0
 10
10.0442622765
 20
10.9322226062
 30
0.0
 10
10.0633485266
 20
10.9313480159
 30
0.0
 10
10.0820533327
 20
10.9300348778
 30
0.0
 10
10.100225507
 20
10.9282939731
 30
0.0
 10
10.1149563349
 20
10.9264799863
 30
0.0
 10
10.1263598202
 20
10.9248180799
 30
0.0
 10
10.1345980016
 20
10.9234878132
 30
0.0
 10
10.1425965318
 20
10.9220632032
 30
0.0
 10
10.1503392636
 20
10.9205471183
 30
0.0
 10
10.1578105567
 20
10.918942633
 30
0.0
 10
10.1649953352
 20
10.9172530604
 30
0.0
 10
10.1718791062
 20
10.9154817812
 30
0.0
 10
10.1784480099
 20
10.9136324617
 30
0.0
 10
10.1846888322
 20
10.911708829
 30
0.0
 10
10.1905890483
 20
10.9097147976
 30
0.0
 10
10.1961368591
 20
10.9076544476
 30
0.0
 10
10.2013211933
 20
10.9055318773
 30
0.0
 10
10.2061317972
 20
10.9033514281
 30
0.0
 10
10.2105591927
 20
10.9011173628
 30
0.0
 10
10.2145947736
 20
10.8988340763
 30
0.0
 10
10.2182307963
 20
10.8965059084
 30
0.0
 10
10.2214603429
 20
10.8941369929
 30
0.0
 10
10.224277379
 20
10.8917314291
 30
0.0
 10
10.2266764817
 20
10.8892925495
 30
0.0
 10
10.228652444
 20
10.886824049
 30
0.0
 10
10.2299641098
 20
10.8847084766
 30
0.0
 10
10.2307814713
 20
10.8830125286
 30
0.0
 10
10.2312752649
 20
10.8817582942
 30
0.0
 10
10.2316598253
 20
10.8805010047
 30
0.0
 10
10.2319348145
 20
10.8792412785
 30
0.0
 10
10.2320998848
 20
10.877980003
 30
0.0
 10
10.2321366176
 20
10.8771373755
 30
0.0
 10
10.2321366152
 20
10.8767177589
 30
0.0
  0
SPLINE
  5
320
100
AcDbEntity
  8
0
100
AcDbSpline
 62
7
  6
CONTINUOUS
 70
0
 71
3
 72
76
 73
72
 74
0
 42
0.0000001
 43
0.0000001
 44
0.0000000001
 40
0.0
 40
0.0
 40
0.0
 40
0.0
 40
0.015674694
 40
0.0235325603
 40
0.0314031573
 40
0.0471815268
 40
0.0630096849
 40
0.078885443
 40
0.0948063616
 40
0.1107695265
 40
0.1267716591
 40
0.1347867587
 40
0.1428102102
 40
0.1588790638
 40
0.1749750777
 40
0.1910937863
 40
0.2072305249
 40
0.2233804707
 40
0.2395386859
 40
0.2557001603
 40
0.2637810747
 40
0.2718609151
 40
0.2880138077
 40
0.3041549342
 40
0.3202794334
 40
0.33638259
 40
0.3524598754
 40
0.3685069892
 40
0.3845198979
 40
0.4004948724
 40
0.4164285238
 40
0.4323178367
 40
0.4481601993
 40
0.4639534306
 40
0.4796958049
 40
0.4953860714
 40
0.5110234713
 40
0.5266077496
 40
0.5421391631
 40
0.557618483
 40
0.5730469929
 40
0.5884264804
 40
0.6037592249
 40
0.6190479785
 40
0.6342959424
 40
0.6495067379
 40
0.6646843722
 40
0.6798331992
 40
0.694957876
 40
0.7100633149
 40
0.7251546327
 40
0.7402370967
 40
0.7553160686
 40
0.7703969473
 40
0.7854851115
 40
0.8005858618
 40
0.815704365
 40
0.8308455989
 40
0.8460143008
 40
0.8612149184
 40
0.8764515652
 40
0.8917279798
 40
0.9070474893
 40
0.9224129843
 40
0.9301143578
 40
0.9378280918
 40
0.9532923515
 40
0.9688082782
 40
0.976586544
 40
0.9843783005
 40
1.0
 40
1.0
 40
1.0
 40
1.0
 10
9.8120207406
 20
7.2381707194
 30
0.0
 10
9.8243364503
 20
7.2373166221
 30
0.0
 10
9.8427988274
 20
7.2355814687
 30
0.0
 10
9.8673245239
 20
7.2323733186
 30
0.0
 10
9.8918466472
 20
7.2285605159
 30
0.0
 10
9.9223892578
 20
7.2226728721
 30
0.0
 10
9.9587424552
 20
7.2138410548
 30
0.0
 10
9.9947421979
 20
7.2032577353
 30
0.0
 10
10.0303013617
 20
7.1909485672
 30
0.0
 10
10.0653340524
 20
7.1769434022
 30
0.0
 10
10.0940046457
 20
7.1638937238
 30
0.0
 10
10.1165950326
 20
7.1526429256
 30
0.0
 10
10.1389642647
 20
7.1408454982
 30
0.0
 10
10.1664408343
 20
7.1251079202
 30
0.0
 10
10.1985414045
 20
7.1046953423
 30
0.0
 10
10.2297112654
 20
7.0827942587
 30
0.0
 10
10.2598749236
 20
7.0594576854
 30
0.0
 10
10.2889599955
 20
7.0347416487
 30
0.0
 10
10.3168960999
 20
7.0087060332
 30
0.0
 10
10.3391643699
 20
6.9859605015
 30
0.0
 10
10.3563392337
 20
6.9671676928
 30
0.0
 10
10.3730748632
 20
6.9479916627
 30
0.0
 10
10.3931555749
 20
6.9233206174
 30
0.0
 10
10.4158544973
 20
6.8926617141
 30
0.0
 10
10.437099511
 20
6.8610246333
 30
0.0
 10
10.4568391338
 20
6.8284858998
 30
0.0
 10
10.4750259071
 20
6.7951237234
 30
0.0
 10
10.4916159918
 20
6.7610184253
 30
0.0
 10
10.5065694127
 20
6.7262520822
 30
0.0
 10
10.519850117
 20
6.6909083742
 30
0.0
 10
10.5314260847
 20
6.6550723768
 30
0.0
 10
10.5412693911
 20
6.6188303545
 30
0.0
 10
10.5493562742
 20
6.5822695543
 30
0.0
 10
10.5556671925
 20
6.545477997
 30
0.0
 10
10.5601868726
 20
6.5085442677
 30
0.0
 10
10.5629043472
 20
6.4715573039
 30
0.0
 10
10.5638129824
 20
6.4346061828
 30
0.0
 10
10.5629104958
 20
6.3977799082
 30
0.0
 10
10.5601989778
 20
6.361167196
 30
0.0
 10
10.5556848746
 20
6.32485626
 30
0.0
 10
10.5493789738
 20
6.2889346002
 30
0.0
 10
10.5412963816
 20
6.2534887929
 30
0.0
 10
10.5314564878
 20
6.2186042821
 30
0.0
 10
10.5198829223
 20
6.1843651734
 30
0.0
 10
10.5066035002
 20
6.1508540305
 30
0.0
 10
10.491650157
 20
6.118151675
 30
0.0
 10
10.4750588868
 20
6.0863369828
 30
0.0
 10
10.456869643
 20
6.0554866967
 30
0.0
 10
10.4371262432
 20
6.0256752391
 30
0.0
 10
10.4158762639
 20
5.9969745309
 30
0.0
 10
10.3931709266
 20
5.9694538153
 30
0.0
 10
10.3690649738
 20
5.9431794887
 30
0.0
 10
10.3436165364
 20
5.9182149378
 30
0.0
 10
10.3168869923
 20
5.8946203855
 30
0.0
 10
10.2889408264
 20
5.872452731
 30
0.0
 10
10.2598454607
 20
5.8517654216
 30
0.0
 10
10.2296710906
 20
5.8326083233
 30
0.0
 10
10.1984905116
 20
5.8150276001
 30
0.0
 10
10.1663789459
 20
5.7990656034
 30
0.0
 10
10.1334138414
 20
5.7847607685
 30
0.0
 10
10.0996747482
 20
5.7721475316
 30
0.0
 10
10.065242882
 20
5.7612562172
 30
0.0
 10
10.0302018389
 20
5.7521130674
 30
0.0
 10
10.0005846162
 20
5.7459733417
 30
0.0
 10
9.9766753261
 20
5.7419538636
 30
0.0
 10
9.9525953517
 20
5.7385265449
 30
0.0
 10
9.9222705445
 20
5.7353701778
 30
0.0
 10
9.8917756271
 20
5.7337264315
 30
0.0
 10
9.8672936937
 20
5.7333165422
 30
0.0
 10
9.8427262813
 20
5.7335114652
 30
0.0
 10
9.8242948121
 20
5.7343387299
 30
0.0
 10
9.8120207406
 20
5.7351899397
 30
0.0
  0
SPLINE
  5
321
100
AcDbEntity
  8
0
100
AcDbSpline
 62
7
  6
CONTINUOUS
 70
0
 71
3
 72
61
 73
57
 74
0
 42
0.0000001
 43
0.0000001
 44
0.0000000001
 40
0.0
 40
0.0
 40
0.0
 40
0.0
 40
0.0081221813
 40
0.0169168458
 40
0.0264087724
 40
0.0366143218
 40
0.0475415222
 40
0.0591911565
 40
0.0715585562
 40
0.0846347195
 40
0.098406487
 40
0.1128576092
 40
0.1279686506
 40
0.143717826
 40
0.1600808693
 40
0.177031526
 40
0.194541661
 40
0.2125813585
 40
0.2311192896
 40
0.2501225392
 40
0.2893866413
 40
0.3300887384
 40
0.3719278752
 40
0.4145916271
 40
0.4577594003
 40
0.5011056626
 40
0.5443031414
 40
0.5870260107
 40
0.6289530889
 40
0.6697710731
 40
0.7091778324
 40
0.7468858191
 40
0.7650184429
 40
0.7826270093
 40
0.7996814673
 40
0.8161532566
 40
0.8320157976
 40
0.8472444866
 40
0.861816959
 40
0.8757134965
 40
0.8889170416
 40
0.9014140571
 40
0.9131945002
 40
0.9242530412
 40
0.9345894451
 40
0.9442100818
 40
0.9531292894
 40
0.9613713956
 40
0.9689735849
 40
0.9759888554
 40
0.9824901833
 40
0.9885734769
 40
0.9914974841
 40
0.9943641593
 40
0.9971919144
 40
1.0
 40
1.0
 40
1.0
 40
1.0
 10
11.3038970005
 20
11.2305989959
 30
0.0
 10
11.3045921424
 20
11.2312704514
 30
0.0
 10
11.3061055666
 20
11.232601911
 30
0.0
 10
11.3086176956
 20
11.2344937091
 30
0.0
 10
11.3114547195
 20
11.2363538308
 30
0.0
 10
11.3146108329
 20
11.2381787282
 30
0.0
 10
11.3180801338
 20
11.2399650902
 30
0.0
 10
11.3218558873
 20
11.2417094002
 30
0.0
 10
11.3259306636
 20
11.2434082323
 30
0.0
 10
11.3302964057
 20
11.2450581255
 30
0.0
 10
11.3349444112
 20
11.2466558273
 30
0.0
 10
11.3398653989
 20
11.2481980132
 30
0.0
 10
11.3450494864
 20
11.2496816243
 30
0.0
 10
11.3504862578
 20
11.251103583
 30
0.0
 10
11.3561647622
 20
11.2524610292
 30
0.0
 10
11.3620735512
 20
11.2537511866
 30
0.0
 10
11.3682007028
 20
11.254971414
 30
0.0
 10
11.3745338406
 20
11.2561192568
 30
0.0
 10
11.3810601815
 20
11.2571923452
 30
0.0
 10
11.3901005226
 20
11.2585351678
 30
0.0
 10
11.4017868439
 20
11.2600045447
 30
0.0
 10
11.4162129287
 20
11.261421247
 30
0.0
 10
11.4310739184
 20
11.2624982379
 30
0.0
 10
11.4462496964
 20
11.2632266843
 30
0.0
 10
11.4616176924
 20
11.2636005786
 30
0.0
 10
11.4770537182
 20
11.2636168472
 30
0.0
 10
11.4924330357
 20
11.2632753546
 30
0.0
 10
11.5076313724
 20
11.2625789109
 30
0.0
 10
11.522525931
 20
11.2615332442
 30
0.0
 10
11.536996463
 20
11.2601469815
 30
0.0
 10
11.5509260543
 20
11.2584315164
 30
0.0
 10
11.5621314588
 20
11.2567179296
 30
0.0
 10
11.5707362784
 20
11.2551854027
 30
0.0
 10
11.5769017875
 20
11.2539781096
 30
0.0
 10
11.5828511423
 20
11.252700482
 30
0.0
 10
11.5885723446
 20
11.2513550513
 30
0.0
 10
11.5940538567
 20
11.2499445957
 30
0.0
 10
11.5992846379
 20
11.2484719783
 30
0.0
 10
11.6042541662
 20
11.2469401785
 30
0.0
 10
11.6089524747
 20
11.2453523559
 30
0.0
 10
11.6133701506
 20
11.2437116636
 30
0.0
 10
11.6174984067
 20
11.2420215013
 30
0.0
 10
11.6213290414
 20
11.2402851747
 30
0.0
 10
11.6248545441
 20
11.2385062132
 30
0.0
 10
11.6280680359
 20
11.2366880286
 30
0.0
 10
11.6309633526
 20
11.234834094
 30
0.0
 10
11.6335350178
 20
11.2329477686
 30
0.0
 10
11.6357781617
 20
11.2310321501
 30
0.0
 10
11.6376885343
 20
11.2290902131
 30
0.0
 10
11.6392620201
 20
11.2271241934
 30
0.0
 10
11.6404944834
 20
11.2251368832
 30
0.0
 10
11.641243035
 20
11.2234418746
 30
0.0
 10
11.6416566339
 20
11.2220894498
 30
0.0
 10
11.6418755806
 20
11.2210863017
 30
0.0
 10
11.6420070014
 20
11.2200819593
 30
0.0
 10
11.6420362505
 20
11.2194109759
 30
0.0
 10
11.6420362447
 20
11.2190768359
 30
0.0
  0
SPLINE
  5
322
100
AcDbEntity
  8
0
100
AcDbSpline
 62
7
  6
CONTINUOUS
 70
0
 71
3
 72
61
 73
57
 74
0
 42
0.0000001
 43
0.0000001
 44
0.0000000001
 40
0.0
 40
0.0
 40
0.0
 40
0.0
 40
0.0081221813
 40
0.0169168458
 40
0.0264087724
 40
0.0366143218
 40
0.0475415222
 40
0.0591911565
 40
0.0715585562
 40
0.0846347195
 40
0.098406487
 40
0.1128576092
 40
0.1279686506
 40
0.143717826
 40
0.1600808693
 40
0.177031526
 40
0.194541661
 40
0.2125813585
 40
0.2311192896
 40
0.2501225392
 40
0.2893866413
 40
0.3300887384
 40
0.3719278752
 40
0.4145916271
 40
0.4577594003
 40
0.5011056626
 40
0.5443031414
 40
0.5870260107
 40
0.6289530889
 40
0.6697710731
 40
0.7091778324
 40
0.7468858191
 40
0.7650184429
 40
0.7826270093
 40
0.7996814673
 40
0.8161532566
 40
0.8320157976
 40
0.8472444866
 40
0.861816959
 40
0.8757134965
 40
0.8889170416
 40
0.9014140571
 40
0.9131945002
 40
0.9242530412
 40
0.9345894451
 40
0.9442100818
 40
0.9531292894
 40
0.9613713956
 40
0.9689735849
 40
0.9759888554
 40
0.9824901833
 40
0.9885734769
 40
0.9914974841
 40
0.9943641593
 40
0.9971919144
 40
1.0
 40
1.0
 40
1.0
 40
1.0
 10
10.6278379501
 20
11.1295760465
 30
0.0
 10
10.6285330921
 20
11.1302475021
 30
0.0
 10
10.6300465162
 20
11.1315789617
 30
0.0
 10
10.6325586452
 20
11.1334707597
 30
0.0
 10
10.6353956691
 20
11.1353308815
 30
0.0
 10
10.6385517826
 20
11.1371557789
 30
0.0
 10
10.6420210835
 20
11.1389421409
 30
0.0
 10
10.645796837
 20
11.1406864509
 30
0.0
 10
10.6498716133
 20
11.142385283
 30
0.0
 10
10.6542373554
 20
11.1440351762
 30
0.0
 10
10.6588853609
 20
11.145632878
 30
0.0
 10
10.6638063485
 20
11.1471750639
 30
0.0
 10
10.6689904361
 20
11.148658675
 30
0.0
 10
10.6744272074
 20
11.1500806337
 30
0.0
 10
10.6801057119
 20
11.1514380798
 30
0.0
 10
10.6860145009
 20
11.1527282372
 30
0.0
 10
10.6921416525
 20
11.1539484647
 30
0.0
 10
10.6984747902
 20
11.1550963075
 30
0.0
 10
10.7050011311
 20
11.1561693959
 30
0.0
 10
10.7140414722
 20
11.1575122184
 30
0.0
 10
10.7257277936
 20
11.1589815954
 30
0.0
 10
10.7401538784
 20
11.1603982977
 30
0.0
 10
10.7550148681
 20
11.1614752886
 30
0.0
 10
10.770190646
 20
11.162203735
 30
0.0
 10
10.7855586421
 20
11.1625776292
 30
0.0
 10
10.8009946679
 20
11.1625938978
 30
0.0
 10
10.8163739854
 20
11.1622524053
 30
0.0
 10
10.8315723221
 20
11.1615559615
 30
0.0
 10
10.8464668807
 20
11.1605102949
 30
0.0
 10
10.8609374127
 20
11.1591240322
 30
0.0
 10
10.8748670039
 20
11.1574085671
 30
0.0
 10
10.8860724084
 20
11.1556949803
 30
0.0
 10
10.8946772281
 20
11.1541624534
 30
0.0
 10
10.9008427372
 20
11.1529551602
 30
0.0
 10
10.9067920919
 20
11.1516775327
 30
0.0
 10
10.9125132943
 20
11.150332102
 30
0.0
 10
10.9179948064
 20
11.1489216463
 30
0.0
 10
10.9232255876
 20
11.147449029
 30
0.0
 10
10.9281951159
 20
11.1459172291
 30
0.0
 10
10.9328934244
 20
11.1443294065
 30
0.0
 10
10.9373111003
 20
11.1426887143
 30
0.0
 10
10.9414393564
 20
11.1409985519
 30
0.0
 10
10.9452699911
 20
11.1392622253
 30
0.0
 10
10.9487954937
 20
11.1374832639
 30
0.0
 10
10.9520089856
 20
11.1356650793
 30
0.0
 10
10.9549043022
 20
11.1338111446
 30
0.0
 10
10.9574759674
 20
11.1319248192
 30
0.0
 10
10.9597191113
 20
11.1300092008
 30
0.0
 10
10.961629484
 20
11.1280672638
 30
0.0
 10
10.9632029697
 20
11.126101244
 30
0.0
 10
10.9644354331
 20
11.1241139339
 30
0.0
 10
10.9651839847
 20
11.1224189252
 30
0.0
 10
10.9655975836
 20
11.1210665005
 30
0.0
 10
10.9658165302
 20
11.1200633523
 30
0.0
 10
10.9659479511
 20
11.11905901
 30
0.0
 10
10.9659772002
 20
11.1183880266
 30
0.0
 10
10.9659771943
 20
11.1180538865
 30
0.0
  0
SPLINE
  5
323
100
AcDbEntity
  8
0
100
AcDbSpline
 62
7
  6
CONTINUOUS
 70
0
 71
3
 72
15
 73
11
 74
0
 42
0.0000001
 43
0.0000001
 44
0.0000000001
 40
0.0
 40
0.0
 40
0.0
 40
0.0
 40
0.1234012288
 40
0.2471785807
 40
0.3713821004
 40
0.4960545385
 40
0.6212305754
 40
0.7469368682
 40
0.8731899028
 40
1.0
 40
1.0
 40
1.0
 40
1.0
 10
9.4470311346
 20
9.3596144732
 30
0.0
 10
9.4609287929
 20
9.3663725286
 30
0.0
 10
9.4892304385
 20
9.378977689
 30
0.0
 10
9.5329136436
 20
9.3950358069
 30
0.0
 10
9.5777190976
 20
9.4082103271
 30
0.0
 10
9.623464094
 20
9.4184473447
 30
0.0
 10
9.6699651717
 20
9.4257063892
 30
0.0
 10
9.717035758
 20
9.4299583893
 30
0.0
 10
9.7644843794
 20
9.4311869173
 30
0.0
 10
9.7961782155
 20
9.4299893126
 30
0.0
 10
9.8120207406
 20
9.4288906297
 30
0.0
  0
SPLINE
  5
324
100
AcDbEntity
  8
0
100
AcDbSpline
 62
7
  6
CONTINUOUS
 70
0
 71
3
 72
61
 73
57
 74
0
 42
0.0000001
 43
0.0000001
 44
0.0000000001
 40
0.0
 40
0.0
 40
0.0
 40
0.0
 40
0.0081221813
 40
0.0169168458
 40
0.0264087724
 40
0.0366143218
 40
0.0475415222
 40
0.0591911565
 40
0.0715585562
 40
0.0846347195
 40
0.098406487
 40
0.1128576092
 40
0.1279686506
 40
0.143717826
 40
0.1600808693
 40
0.177031526
 40
0.194541661
 40
0.2125813585
 40
0.2311192896
 40
0.2501225392
 40
0.2893866413
 40
0.3300887384
 40
0.3719278752
 40
0.4145916271
 40
0.4577594003
 40
0.5011056626
 40
0.5443031414
 40
0.5870260107
 40
0.6289530889
 40
0.6697710731
 40
0.7091778324
 40
0.7468858191
 40
0.7650184429
 40
0.7826270093
 40
0.7996814673
 40
0.8161532566
 40
0.8320157976
 40
0.8472444866
 40
0.861816959
 40
0.8757134965
 40
0.8889170416
 40
0.9014140571
 40
0.9131945002
 40
0.9242530412
 40
0.9345894451
 40
0.9442100818
 40
0.9531292894
 40
0.9613713956
 40
0.9689735849
 40
0.9759888554
 40
0.9824901833
 40
0.9885734769
 40
0.9914974841
 40
0.9943641593
 40
0.9971919144
 40
1.0
 40
1.0
 40
1.0
 40
1.0
 10
11.4090018046
 20
10.7801224008
 30
0.0
 10
11.4096969465
 20
10.7807938564
 30
0.0
 10
11.4112103707
 20
10.782125316
 30
0.0
 10
11.4137224997
 20
10.7840171141
 30
0.0
 10
11.4165595236
 20
10.7858772358
 30
0.0
 10
11.419715637
 20
10.7877021332
 30
0.0
 10
11.4231849379
 20
10.7894884952
 30
0.0
 10
11.4269606914
 20
10.7912328052
 30
0.0
 10
11.4310354677
 20
10.7929316373
 30
0.0
 10
11.4354012098
 20
10.7945815305
 30
0.0
 10
11.4400492153
 20
10.7961792323
 30
0.0
 10
11.444970203
 20
10.7977214182
 30
0.0
 10
11.4501542905
 20
10.7992050293
 30
0.0
 10
11.4555910619
 20
10.800626988
 30
0.0
 10
11.4612695663
 20
10.8019844342
 30
0.0
 10
11.4671783554
 20
10.8032745916
 30
0.0
 10
11.4733055069
 20
10.804494819
 30
0.0
 10
11.4796386447
 20
10.8056426618
 30
0.0
 10
11.4861649856
 20
10.8067157502
 30
0.0
 10
11.4952053267
 20
10.8080585728
 30
0.0
 10
11.506891648
 20
10.8095279497
 30
0.0
 10
11.5213177328
 20
10.810944652
 30
0.0
 10
11.5361787226
 20
10.8120216429
 30
0.0
 10
11.5513545005
 20
10.8127500893
 30
0.0
 10
11.5667224965
 20
10.8131239836
 30
0.0
 10
11.5821585223
 20
10.8131402522
 30
0.0
 10
11.5975378398
 20
10.8127987596
 30
0.0
 10
11.6127361765
 20
10.8121023159
 30
0.0
 10
11.6276307351
 20
10.8110566492
 30
0.0
 10
11.6421012671
 20
10.8096703865
 30
0.0
 10
11.6560308584
 20
10.8079549214
 30
0.0
 10
11.6672362629
 20
10.8062413346
 30
0.0
 10
11.6758410825
 20
10.8047088077
 30
0.0
 10
11.6820065916
 20
10.8035015146
 30
0.0
 10
11.6879559464
 20
10.802223887
 30
0.0
 10
11.6936771487
 20
10.8008784563
 30
0.0
 10
11.6991586608
 20
10.7994680007
 30
0.0
 10
11.704389442
 20
10.7979953833
 30
0.0
 10
11.7093589703
 20
10.7964635835
 30
0.0
 10
11.7140572788
 20
10.7948757609
 30
0.0
 10
11.7184749547
 20
10.7932350686
 30
0.0
 10
11.7226032108
 20
10.7915449062
 30
0.0
 10
11.7264338455
 20
10.7898085797
 30
0.0
 10
11.7299593482
 20
10.7880296182
 30
0.0
 10
11.73317284
 20
10.7862114336
 30
0.0
 10
11.7360681567
 20
10.784357499
 30
0.0
 10
11.7386398219
 20
10.7824711736
 30
0.0
 10
11.7408829658
 20
10.7805555551
 30
0.0
 10
11.7427933384
 20
10.7786136181
 30
0.0
 10
11.7443668242
 20
10.7766475984
 30
0.0
 10
11.7455992875
 20
10.7746602882
 30
0.0
 10
11.7463478392
 20
10.7729652795
 30
0.0
 10
11.746761438
 20
10.7716128548
 30
0.0
 10
11.7469803847
 20
10.7706097067
 30
0.0
 10
11.7471118055
 20
10.7696053643
 30
0.0
 10
11.7471410546
 20
10.7689343809
 30
0.0
 10
11.7471410488
 20
10.7686002409
 30
0.0
  0
SPLINE
  5
325
100
AcDbEntity
  8
0
100
AcDbSpline
 62
7
  6
CONTINUOUS
 70
0
 71
3
 72
73
 73
69
 74
0
 42
0.0000001
 43
0.0000001
 44
0.0000000001
 40
0.0
 40
0.0
 40
0.0
 40
0.0
 40
0.0156217113
 40
0.023413539
 40
0.0311918459
 40
0.046707795
 40
0.0621721141
 40
0.0698858746
 40
0.0775872714
 40
0.092952817
 40
0.1082723775
 40
0.1235488417
 40
0.1387855382
 40
0.1539862055
 40
0.1691549575
 40
0.1842962418
 40
0.1994147954
 40
0.2145155958
 40
0.2296038094
 40
0.2446847372
 40
0.2597637581
 40
0.2748462716
 40
0.2899376395
 40
0.3050431287
 40
0.3201678558
 40
0.3353167328
 40
0.3504944167
 40
0.3657052618
 40
0.3809532755
 40
0.3962420795
 40
0.4115748749
 40
0.4269544135
 40
0.4423829742
 40
0.457862345
 40
0.4733938094
 40
0.488978139
 40
0.5046155905
 40
0.5203059088
 40
0.5360483347
 40
0.5518416178
 40
0.5676840325
 40
0.5835733981
 40
0.5995071025
 40
0.6154821297
 40
0.6314950907
 40
0.6475422569
 40
0.663619595
 40
0.6797228047
 40
0.6958473577
 40
0.7119885379
 40
0.7281414836
 40
0.7443012314
 40
0.7604627584
 40
0.7766210267
 40
0.7927710262
 40
0.8089078186
 40
0.8250265805
 40
0.8411226472
 40
0.8571915531
 40
0.8732290726
 40
0.8892312579
 40
0.9051944763
 40
0.9211154472
 40
0.9369912562
 40
0.9528194747
 40
0.9685978674
 40
0.9843252939
 40
1.0
 40
1.0
 40
1.0
 40
1.0
 10
9.8278822782
 20
5.8097071257
 30
0.0
 10
9.8391894725
 20
5.8089229691
 30
0.0
 10
9.8561690695
 20
5.8081608829
 30
0.0
 10
9.8788012822
 20
5.8079812933
 30
0.0
 10
9.9013547575
 20
5.8083589033
 30
0.0
 10
9.9294475359
 20
5.8098731817
 30
0.0
 10
9.9573835979
 20
5.8127808914
 30
0.0
 10
9.9795667558
 20
5.8159382578
 30
0.0
 10
10.0015926763
 20
5.8196410856
 30
0.0
 10
10.0288769
 20
5.8252971837
 30
0.0
 10
10.061157702
 20
5.833720117
 30
0.0
 10
10.0928773085
 20
5.8437535217
 30
0.0
 10
10.1239587161
 20
5.8553731963
 30
0.0
 10
10.1543271077
 20
5.86855121
 30
0.0
 10
10.1839091995
 20
5.8832558421
 30
0.0
 10
10.2126336414
 20
5.8994516915
 30
0.0
 10
10.2404311301
 20
5.9170997523
 30
0.0
 10
10.2672345976
 20
5.9361575025
 30
0.0
 10
10.292979387
 20
5.9565789889
 30
0.0
 10
10.3176033946
 20
5.9783149659
 30
0.0
 10
10.3410472227
 20
6.0013130112
 30
0.0
 10
10.3632543236
 20
6.0255176539
 30
0.0
 10
10.3841711378
 20
6.0508705081
 30
0.0
 10
10.4037472201
 20
6.0773104178
 30
0.0
 10
10.4219353891
 20
6.104773587
 30
0.0
 10
10.4386918249
 20
6.1331937531
 30
0.0
 10
10.4539761676
 20
6.1625023527
 30
0.0
 10
10.467751615
 20
6.1926286878
 30
0.0
 10
10.4799850102
 20
6.223500097
 30
0.0
 10
10.490646916
 20
6.2550421328
 30
0.0
 10
10.4997117008
 20
6.2871787362
 30
0.0
 10
10.5071576073
 20
6.3198324218
 30
0.0
 10
10.5129667771
 20
6.3529244752
 30
0.0
 10
10.5171252968
 20
6.3863751396
 30
0.0
 10
10.5196232276
 20
6.4201038084
 30
0.0
 10
10.5204546274
 20
6.4540292175
 30
0.0
 10
10.5196175633
 20
6.4880696389
 30
0.0
 10
10.5171141452
 20
6.5221430792
 30
0.0
 10
10.5129504879
 20
6.5561674784
 30
0.0
 10
10.5071366958
 20
6.5900609055
 30
0.0
 10
10.4996868364
 20
6.6237417536
 30
0.0
 10
10.4906189076
 20
6.6571289348
 30
0.0
 10
10.4799547888
 20
6.6901420707
 30
0.0
 10
10.4677202127
 20
6.7227016923
 30
0.0
 10
10.4539446941
 20
6.7547294315
 30
0.0
 10
10.4386614424
 20
6.7861482028
 30
0.0
 10
10.421907286
 20
6.8168823879
 30
0.0
 10
10.4037225831
 20
6.8468580155
 30
0.0
 10
10.3841511245
 20
6.876002936
 30
0.0
 10
10.3632400354
 20
6.9042469983
 30
0.0
 10
10.3410396778
 20
6.9315222312
 30
0.0
 10
10.317603504
 20
6.9577629903
 30
0.0
 10
10.2929879329
 20
6.9829061167
 30
0.0
 10
10.267252214
 20
7.006891086
 30
0.0
 10
10.2404582874
 20
7.0296601541
 30
0.0
 10
10.2126706341
 20
7.0511584914
 30
0.0
 10
10.1839561392
 20
7.0713343386
 30
0.0
 10
10.1543839163
 20
7.0901391163
 30
0.0
 10
10.1240251391
 20
7.1075275353
 30
0.0
 10
10.0929528718
 20
7.1234577046
 30
0.0
 10
10.0612418971
 20
7.1378912335
 30
0.0
 10
10.028968533
 20
7.1507933221
 30
0.0
 10
9.9962104728
 20
7.1621328413
 30
0.0
 10
9.9630465309
 20
7.1718824925
 30
0.0
 10
9.9295567009
 20
7.18001863
 30
0.0
 10
9.8958211287
 20
7.1865218349
 30
0.0
 10
9.861922342
 20
7.191375995
 30
0.0
 10
9.8392278308
 20
7.193508856
 30
0.0
 10
9.8278822782
 20
7.1942956728
 30
0.0
  0
SPLINE
  5
326
100
AcDbEntity
  8
0
100
AcDbSpline
 62
7
  6
CONTINUOUS
 70
0
 71
3
 72
43
 73
39
 74
0
 42
0.0000001
 43
0.0000001
 44
0.0000000001
 40
0.0
 40
0.0
 40
0.0
 40
0.0
 40
0.0307007013
 40
0.046092598
 40
0.0615103319
 40
0.0924210528
 40
0.1234322994
 40
0.1389753629
 40
0.1545417949
 40
0.1857395523
 40
0.2170216381
 40
0.2483809872
 40
0.2798097822
 40
0.3112995445
 40
0.3428412158
 40
0.3744252474
 40
0.4060416922
 40
0.4376802991
 40
0.4693306104
 40
0.5009820587
 40
0.5326240664
 40
0.5642461437
 40
0.5958379874
 40
0.6273895772
 40
0.6588912711
 40
0.6903338978
 40
0.7217088463
 40
0.7530081516
 40
0.7842245752
 40
0.8153516807
 40
0.8463839031
 40
0.8618641385
 40
0.8773189959
 40
0.9081485457
 40
0.9388723286
 40
0.9541952604
 40
0.9694912661
 40
1.0
 40
1.0
 40
1.0
 40
1.0
 10
9.8120207406
 20
9.4288906297
 30
0.0
 10
9.824776993
 20
9.4280059806
 30
0.0
 10
9.8438994911
 20
9.4261919087
 30
0.0
 10
9.8692968473
 20
9.4228138078
 30
0.0
 10
9.8946886626
 20
9.41878725
 30
0.0
 10
9.926305814
 20
9.4125515843
 30
0.0
 10
9.957625607
 20
9.4047441785
 30
0.0
 10
9.9824848549
 20
9.3975631033
 30
0.0
 10
10.0072343409
 20
9.3897504451
 30
0.0
 10
10.0378657643
 20
9.3788281713
 30
0.0
 10
10.0740109578
 20
9.3639194499
 30
0.0
 10
10.1094793395
 20
9.3472371075
 30
0.0
 10
10.1441787716
 20
9.3288244347
 30
0.0
 10
10.1780198288
 20
9.3087289789
 30
0.0
 10
10.2109151075
 20
9.2870026761
 30
0.0
 10
10.2427796991
 20
9.2637016519
 30
0.0
 10
10.2735313434
 20
9.2388860969
 30
0.0
 10
10.3030906546
 20
9.2126201016
 30
0.0
 10
10.331381321
 20
9.1849714943
 30
0.0
 10
10.3583303018
 20
9.1560116659
 30
0.0
 10
10.3838680145
 20
9.125815387
 30
0.0
 10
10.4079285135
 20
9.0944606154
 30
0.0
 10
10.4304496598
 20
9.0620282964
 30
0.0
 10
10.4513732804
 20
9.0286021548
 30
0.0
 10
10.4706453184
 20
8.9942684796
 30
0.0
 10
10.4882159706
 20
8.9591159066
 30
0.0
 10
10.5040398238
 20
8.9232351746
 30
0.0
 10
10.5180759592
 20
8.8867189608
 30
0.0
 10
10.5302880959
 20
8.8496613823
 30
0.0
 10
10.5406445355
 20
8.812158719
 30
0.0
 10
10.5477121471
 20
8.7805888774
 30
0.0
 10
10.5524115565
 20
8.7552085082
 30
0.0
 10
10.5564659948
 20
8.7298026039
 30
0.0
 10
10.5603364691
 20
8.6979486727
 30
0.0
 10
10.5626006051
 20
8.6659953499
 30
0.0
 10
10.5634389539
 20
8.6404572514
 30
0.0
 10
10.5636292353
 20
8.6149962744
 30
0.0
 10
10.5630441576
 20
8.5959165797
 30
0.0
 10
10.5623288971
 20
8.5832297902
 30
0.0
  0
SPLINE
  5
327
100
AcDbEntity
  8
0
100
AcDbSpline
 62
7
  6
CONTINUOUS
 70
0
 71
3
 72
26
 73
22
 74
0
 42
0.0000001
 43
0.0000001
 44
0.0000000001
 40
0.0
 40
0.0
 40
0.0
 40
0.0
 40
0.0634677723
 40
0.1267486395
 40
0.1898506746
 40
0.2527835062
 40
0.284192112
 40
0.315562709
 40
0.3781918778
 40
0.4406892899
 40
0.5030699447
 40
0.5653498955
 40
0.6275461085
 40
0.6896763152
 40
0.7207246831
 40
0.7517634663
 40
0.8138171119
 40
0.8758609067
 40
0.9068873996
 40
0.9379186
 40
1.0
 40
1.0
 40
1.0
 40
1.0
 10
10.5547908339
 20
8.5117382888
 30
0.0
 10
10.5530605091
 20
8.5005990921
 30
0.0
 10
10.5490876474
 20
8.4784302527
 30
0.0
 10
10.5415907137
 20
8.4455418277
 30
0.0
 10
10.5325801731
 20
8.4131335863
 30
0.0
 10
10.523819515
 20
8.3865650865
 30
0.0
 10
10.5160742042
 20
8.3656212716
 30
0.0
 10
10.5078517975
 20
8.3449181679
 30
0.0
 10
10.4966683084
 20
8.3194584454
 30
0.0
 10
10.4818205678
 20
8.2896333462
 30
0.0
 10
10.465582902
 20
8.2606121704
 30
0.0
 10
10.447989062
 20
8.2324555279
 30
0.0
 10
10.4290758117
 20
8.2052221582
 30
0.0
 10
10.4122432737
 20
8.1833383017
 30
0.0
 10
10.3981607066
 20
8.1663521092
 30
0.0
 10
10.3836771482
 20
8.1497244894
 30
0.0
 10
10.3648231455
 20
8.1296144503
 30
0.0
 10
10.3450117131
 20
8.1104501143
 30
0.0
 10
10.3286170435
 20
8.095713701
 30
0.0
 10
10.3118630833
 20
8.0813775009
 30
0.0
 10
10.2989055468
 20
8.0710868342
 30
0.0
 10
10.2901063928
 20
8.0644415625
 30
0.0
  0
SPLINE
  5
328
100
AcDbEntity
  8
0
100
AcDbSpline
 62
7
  6
CONTINUOUS
 70
0
 71
3
 72
28
 73
24
 74
0
 42
0.0000001
 43
0.0000001
 44
0.0000000001
 40
0.0
 40
0.0
 40
0.0
 40
0.0
 40
0.0638601409
 40
0.0957106215
 40
0.1275046743
 40
0.1909230322
 40
0.2541259175
 40
0.2856507632
 40
0.3171241616
 40
0.3799160181
 40
0.4425172259
 40
0.5049404031
 40
0.5672000591
 40
0.6293124715
 40
0.6603217285
 40
0.6913010014
 40
0.7222527488
 40
0.7531794952
 40
0.8149629248
 40
0.8766783014
 40
0.9075201823
 40
0.9383534454
 40
1.0
 40
1.0
 40
1.0
 40
1.0
 10
9.8352027802
 20
5.8280947137
 30
0.0
 10
9.8465701057
 20
5.827306387
 30
0.0
 10
9.86364049
 20
5.826549407
 30
0.0
 10
9.8863925086
 20
5.8263997829
 30
0.0
 10
9.9090627171
 20
5.8268226176
 30
0.0
 10
9.9372964977
 20
5.8284220235
 30
0.0
 10
9.9653645877
 20
5.831453078
 30
0.0
 10
9.9876450606
 20
5.8347315279
 30
0.0
 10
10.0097614216
 20
5.8385699161
 30
0.0
 10
10.0371464165
 20
5.8444227286
 30
0.0
 10
10.0695245698
 20
5.8531243822
 30
0.0
 10
10.1013139786
 20
5.863477398
 30
0.0
 10
10.1324334717
 20
5.875455403
 30
0.0
 10
10.1577585094
 20
5.8867733121
 30
0.0
 10
10.1776010781
 20
5.8966069275
 30
0.0
 10
10.1922606229
 20
5.904364184
 30
0.0
 10
10.206695525
 20
5.9125019184
 30
0.0
 10
10.2256224768
 20
5.9238481325
 30
0.0
 10
10.2486807127
 20
5.938958767
 30
0.0
 10
10.270883902
 20
5.9552742292
 30
0.0
 10
10.2880881067
 20
5.9690167547
 30
0.0
 10
10.304907309
 20
5.9832079895
 30
0.0
 10
10.3170875699
 20
5.9943560316
 30
0.0
 10
10.3249991355
 20
6.0019979918
 30
0.0
  0
SPLINE
  5
329
100
AcDbEntity
  8
0
100
AcDbSpline
 62
7
  6
CONTINUOUS
 70
0
 71
3
 72
39
 73
35
 74
0
 42
0.0000001
 43
0.0000001
 44
0.0000000001
 40
0.0
 40
0.0
 40
0.0
 40
0.0
 40
0.0306732595
 40
0.0614496854
 40
0.0923258453
 40
0.1232995075
 40
0.1543662978
 40
0.1855214639
 40
0.2167593025
 40
0.2480733938
 40
0.2794566297
 40
0.3109012843
 40
0.3423990887
 40
0.3739413048
 40
0.4055188038
 40
0.4371221475
 40
0.4687416721
 40
0.5003675737
 40
0.5319899933
 40
0.5635991025
 40
0.5951851879
 40
0.6267387362
 40
0.6582505188
 40
0.689711674
 40
0.7211137868
 40
0.7524489651
 40
0.7837099117
 40
0.8148899952
 40
0.8459833178
 40
0.87698474
 40
0.9078901099
 40
0.9386956876
 40
0.9693998999
 40
1.0
 40
1.0
 40
1.0
 40
1.0
 10
11.3796572108
 20
10.4768681267
 30
0.0
 10
11.3915296507
 20
10.4760447702
 30
0.0
 10
11.4152780948
 20
10.4738128591
 30
0.0
 10
11.4507511408
 20
10.4687332718
 30
0.0
 10
11.4860533927
 20
10.4619280582
 30
0.0
 10
11.5210984901
 20
10.4534140785
 30
0.0
 10
11.5558025651
 20
10.4432116537
 30
0.0
 10
11.5900819092
 20
10.4313455273
 30
0.0
 10
11.6238540481
 20
10.4178442659
 30
0.0
 10
11.6570376801
 20
10.402740444
 30
0.0
 10
11.6895529432
 20
10.3860704778
 30
0.0
 10
11.7213215817
 20
10.3678745408
 30
0.0
 10
11.7522671383
 20
10.3481964694
 30
0.0
 10
11.7823151341
 20
10.3270836561
 30
0.0
 10
11.8113932458
 20
10.3045869362
 30
0.0
 10
11.839431482
 20
10.2807604728
 30
0.0
 10
11.8663623674
 20
10.2556616417
 30
0.0
 10
11.8921210854
 20
10.2293508688
 30
0.0
 10
11.9166456348
 20
10.2018914891
 30
0.0
 10
11.9398769769
 20
10.1733495947
 30
0.0
 10
11.9617591767
 20
10.1437938785
 30
0.0
 10
11.9822395336
 20
10.1132954681
 30
0.0
 10
12.001268734
 20
10.0819277727
 30
0.0
 10
12.0188009532
 20
10.0497662923
 30
0.0
 10
12.0347939591
 20
10.0168884336
 30
0.0
 10
12.0492092125
 20
9.9833733264
 30
0.0
 10
12.0620119619
 20
9.9493016367
 30
0.0
 10
12.0731713246
 20
9.9147553693
 30
0.0
 10
12.0826603592
 20
9.879817696
 30
0.0
 10
12.0904562141
 20
9.8445726784
 30
0.0
 10
12.0965399465
 20
9.8091053425
 30
0.0
 10
12.1008970476
 20
9.7735005639
 30
0.0
 10
12.1035166428
 20
9.7378454724
 30
0.0
 10
12.1041016234
 20
9.7140558939
 30
0.0
 10
12.1041016234
 20
9.7021833234
 30
0.0
  0
SPLINE
  5
32A
100
AcDbEntity
  8
0
100
AcDbSpline
 62
7
  6
CONTINUOUS
 70
0
 71
3
 72
27
 73
23
 74
0
 42
0.0000001
 43
0.0000001
 44
0.0000000001
 40
0.0
 40
0.0
 40
0.0
 40
0.0
 40
0.0637761271
 40
0.0955883976
 40
0.1273469085
 40
0.1907029206
 40
0.2538558223
 40
0.2853602401
 40
0.3168164357
 40
0.3795841196
 40
0.4421741829
 40
0.5045989092
 40
0.5668722156
 40
0.6290095116
 40
0.6910275677
 40
0.7219999748
 40
0.7529494013
 40
0.8147838969
 40
0.8765559321
 40
0.907427452
 40
0.9382910693
 40
1.0
 40
1.0
 40
1.0
 40
1.0
 10
12.1041016234
 20
6.6498575315
 30
0.0
 10
12.1041016234
 20
6.6382859614
 30
0.0
 10
12.1036858139
 20
6.620938502
 30
0.0
 10
12.1022947856
 20
6.597872909
 30
0.0
 10
12.1003514343
 20
6.5749233276
 30
0.0
 10
12.0968857455
 20
6.5464049786
 30
0.0
 10
12.0920360665
 20
6.5181356524
 30
0.0
 10
12.0873353482
 20
6.4957395056
 30
0.0
 10
12.0820987684
 20
6.4735344285
 30
0.0
 10
12.0745403983
 20
6.4460911292
 30
0.0
 10
12.0638626762
 20
6.4137215585
 30
0.0
 10
12.0516080335
 20
6.3820111026
 30
0.0
 10
12.0378047033
 20
6.3510332676
 30
0.0
 10
12.0224847131
 20
6.3208598422
 30
0.0
 10
12.0084765584
 20
6.2964315759
 30
0.0
 10
11.9965502825
 20
6.2773644361
 30
0.0
 10
11.9841592799
 20
6.2586358586
 30
0.0
 10
11.967792522
 20
6.2358487067
 30
0.0
 10
11.9502875053
 20
6.2139419376
 30
0.0
 10
11.9356328808
 20
6.1969856546
 30
0.0
 10
11.9205553155
 20
6.180420496
 30
0.0
 10
11.9087718689
 20
6.1684372718
 30
0.0
 10
11.9007187504
 20
6.1606585299
 30
0.0
  0
SPLINE
  5
32B
100
AcDbEntity
  8
0
100
AcDbSpline
 62
7
  6
CONTINUOUS
 70
0
 71
3
 72
24
 73
20
 74
0
 42
0.0000001
 43
0.0000001
 44
0.0000000001
 40
0.0
 40
0.0
 40
0.0
 40
0.0
 40
0.0612159438
 40
0.1226866867
 40
0.184403889
 40
0.2463555915
 40
0.3085264301
 40
0.3708978932
 40
0.4334486155
 40
0.464787144
 40
0.4961613351
 40
0.558996727
 40
0.6219335591
 40
0.6849425678
 40
0.7479934954
 40
0.8110555088
 40
0.8740976229
 40
0.9370891256
 40
1.0
 40
1.0
 40
1.0
 40
1.0
 10
10.5195943749
 20
8.6731360608
 30
0.0
 10
10.5190100389
 20
8.6874166405
 30
0.0
 10
10.516959243
 20
8.716008802
 30
0.0
 10
10.5112730187
 20
8.7587109584
 30
0.0
 10
10.5029917209
 20
8.8011630009
 30
0.0
 10
10.4921471231
 20
8.843201651
 30
0.0
 10
10.4787804302
 20
8.8846682065
 30
0.0
 10
10.4629429567
 20
8.9254043949
 30
0.0
 10
10.4477443226
 20
8.9585959765
 30
0.0
 10
10.4344166005
 20
8.9846328217
 30
0.0
 10
10.4203055994
 20
9.0103294994
 30
0.0
 10
10.4012503678
 20
9.0417094418
 30
0.0
 10
10.3762206882
 20
9.0780182303
 30
0.0
 10
10.3491091358
 20
9.1128646688
 30
0.0
 10
10.320019008
 20
9.1461157984
 30
0.0
 10
10.289060664
 20
9.1776456423
 30
0.0
 10
10.2563511346
 20
9.2073348242
 30
0.0
 10
10.2220160922
 20
9.2350696457
 30
0.0
 10
10.1981062053
 20
9.252202712
 30
0.0
 10
10.1859240926
 20
9.2604088707
 30
0.0
  0
SPLINE
  5
32C
100
AcDbEntity
  8
0
100
AcDbSpline
 62
7
  6
CONTINUOUS
 70
0
 71
3
 72
15
 73
11
 74
0
 42
0.0000001
 43
0.0000001
 44
0.0000000001
 40
0.0
 40
0.0
 40
0.0
 40
0.0
 40
0.1262505506
 40
0.2521908815
 40
0.3777932023
 40
0.5030327937
 40
0.6278889767
 40
0.7523430961
 40
0.8763846274
 40
1.0
 40
1.0
 40
1.0
 40
1.0
 10
10.0995377072
 20
9.3106508848
 30
0.0
 10
10.0888522721
 20
9.3159504817
 30
0.0
 10
10.0672512401
 20
9.3260286216
 30
0.0
 10
10.0342070544
 20
9.3395536334
 30
0.0
 10
10.0006377552
 20
9.3514365012
 30
0.0
 10
9.9666294494
 20
9.3616465641
 30
0.0
 10
9.9322683508
 20
9.3701578562
 30
0.0
 10
9.8976412722
 20
9.3769488759
 30
0.0
 10
9.8628374538
 20
9.3820019588
 30
0.0
 10
9.8395327962
 20
9.3842076169
 30
0.0
 10
9.8278822782
 20
9.385015583
 30
0.0
  0
SPLINE
  5
32D
100
AcDbEntity
  8
0
100
AcDbSpline
 62
7
  6
CONTINUOUS
 70
0
 71
3
 72
39
 73
35
 74
0
 42
0.0000001
 43
0.0000001
 44
0.0000000001
 40
0.0
 40
0.0
 40
0.0
 40
0.0
 40
0.030673164
 40
0.0614497342
 40
0.0923258322
 40
0.123299507
 40
0.1543662998
 40
0.1855214634
 40
0.2167593041
 40
0.2480733934
 40
0.2794566285
 40
0.3109012834
 40
0.3423990894
 40
0.3739413063
 40
0.4055188043
 40
0.4371221464
 40
0.4687416707
 40
0.5003675737
 40
0.5319899947
 40
0.5635991035
 40
0.5951851873
 40
0.6267387347
 40
0.6582505182
 40
0.6897116749
 40
0.7211137879
 40
0.7524489655
 40
0.7837099101
 40
0.8148899957
 40
0.8459833158
 40
0.8769847405
 40
0.907890123
 40
0.9386956389
 40
0.9693999951
 40
1.0
 40
1.0
 40
1.0
 40
1.0
 10
9.4449689546
 20
5.4167754511
 30
0.0
 10
9.4340780036
 20
5.4175307411
 30
0.0
 10
9.4122927485
 20
5.4195781627
 30
0.0
 10
9.3797521425
 20
5.424237815
 30
0.0
 10
9.34736818
 20
5.4304804867
 30
0.0
 10
9.3152201568
 20
5.4382906242
 30
0.0
 10
9.2833849456
 20
5.4476496441
 30
0.0
 10
9.2519393654
 20
5.4585348534
 30
0.0
 10
9.2209590623
 20
5.4709200216
 30
0.0
 10
9.1905186097
 20
5.4847752578
 30
0.0
 10
9.1606912692
 20
5.5000671599
 30
0.0
 10
9.1315488297
 20
5.5167588854
 30
0.0
 10
9.1031614392
 20
5.5348102387
 30
0.0
 10
9.0755974256
 20
5.5541777478
 30
0.0
 10
9.0489231145
 20
5.57481475
 30
0.0
 10
9.0232026996
 20
5.5966715496
 30
0.0
 10
8.9984980853
 20
5.619695527
 30
0.0
 10
8.9748687423
 20
5.6438312656
 30
0.0
 10
8.9523715669
 20
5.6690206815
 30
0.0
 10
8.9310607004
 20
5.6952031268
 30
0.0
 10
8.9109874391
 20
5.7223155761
 30
0.0
 10
8.8922001131
 20
5.7502927753
 30
0.0
 10
8.8747439708
 20
5.7790673948
 30
0.0
 10
8.8586610791
 20
5.8085701929
 30
0.0
 10
8.8439901763
 20
5.8387301561
 30
0.0
 10
8.8307665978
 20
5.869474686
 30
0.0
 10
8.8190222121
 20
5.9007297832
 30
0.0
 10
8.8087853454
 20
5.932420221
 30
0.0
 10
8.8000807213
 20
5.9644697097
 30
0.0
 10
8.7929293286
 20
5.9968011452
 30
0.0
 10
8.7873485371
 20
6.0293365006
 30
0.0
 10
8.7833516027
 20
6.0619979823
 30
0.0
 10
8.780948583
 20
6.0947055832
 30
0.0
 10
8.7804119468
 20
6.1165285732
 30
0.0
 10
8.7804119468
 20
6.127419644
 30
0.0
  0
SPLINE
  5
32E
100
AcDbEntity
  8
0
100
AcDbSpline
 62
7
  6
CONTINUOUS
 70
0
 71
3
 72
21
 73
17
 74
0
 42
0.0000001
 43
0.0000001
 44
0.0000000001
 40
0.0
 40
0.0
 40
0.0
 40
0.0
 40
0.1268547565
 40
0.2531306814
 40
0.3160638092
 40
0.3788570592
 40
0.4415130018
 40
0.5040352323
 40
0.5664278047
 40
0.6286952588
 40
0.6908427872
 40
0.7528761221
 40
0.8148015183
 40
0.8766257373
 40
0.9383560027
 40
1.0
 40
1.0
 40
1.0
 40
1.0
 10
10.1272620915
 20
6.1295208797
 30
0.0
 10
10.1417538213
 20
6.1285158748
 30
0.0
 10
10.1707453501
 20
6.1274558499
 30
0.0
 10
10.206950732
 20
6.1285287234
 30
0.0
 10
10.2357211988
 20
6.1308278064
 30
0.0
 10
10.2571594014
 20
6.1332665286
 30
0.0
 10
10.2784566213
 20
6.1364187974
 30
0.0
 10
10.2995899848
 20
6.1402813234
 30
0.0
 10
10.3205365553
 20
6.1448497353
 30
0.0
 10
10.3412735745
 20
6.1501193181
 30
0.0
 10
10.3617785888
 20
6.1560841402
 30
0.0
 10
10.3820293067
 20
6.1627379343
 30
0.0
 10
10.402003777
 20
6.1700733398
 30
0.0
 10
10.4216803822
 20
6.178082525
 30
0.0
 10
10.4410374704
 20
6.1867566431
 30
0.0
 10
10.4537242601
 20
6.1929808512
 30
0.0
 10
10.4600064267
 20
6.1962002515
 30
0.0
  0
SPLINE
  5
32F
100
AcDbEntity
  8
0
100
AcDbSpline
 62
7
  6
CONTINUOUS
 70
0
 71
3
 72
26
 73
22
 74
0
 42
0.0000001
 43
0.0000001
 44
0.0000000001
 40
0.0
 40
0.0
 40
0.0
 40
0.0
 40
0.09630676
 40
0.1882123919
 40
0.2755507928
 40
0.3582074105
 40
0.4360878271
 40
0.5091221953
 40
0.5772801909
 40
0.6405742667
 40
0.6990703627
 40
0.7529037704
 40
0.8022962534
 40
0.8475834048
 40
0.8892430926
 40
0.9089223578
 40
0.927955019
 40
0.9464523734
 40
0.9645365874
 40
0.9823394924
 40
1.0
 40
1.0
 40
1.0
 40
1.0
 10
11.3074563011
 20
10.9741535655
 30
0.0
 10
11.3093467573
 20
10.9736517005
 30
0.0
 10
11.3130300066
 20
10.972627657
 30
0.0
 10
11.3183814398
 20
10.9709881101
 30
0.0
 10
11.3234209509
 20
10.9692838652
 30
0.0
 10
11.3281366958
 20
10.9675190151
 30
0.0
 10
11.3325180609
 20
10.9656976801
 30
0.0
 10
11.3365550572
 20
10.9638239677
 30
0.0
 10
11.3402385942
 20
10.9619022084
 30
0.0
 10
11.3435605082
 20
10.9599366486
 30
0.0
 10
11.3465135405
 20
10.9579314074
 30
0.0
 10
11.3490913687
 20
10.955890551
 30
0.0
 10
11.3512884527
 20
10.9538174173
 30
0.0
 10
11.3530995352
 20
10.951715563
 30
0.0
 10
11.3543052721
 20
10.9499080153
 30
0.0
 10
11.3550565212
 20
10.9484572886
 30
0.0
 10
11.3555096048
 20
10.9473859997
 30
0.0
 10
11.3558625615
 20
10.9463116503
 30
0.0
 10
11.3561149841
 20
10.9452348401
 30
0.0
 10
11.356266531
 20
10.9441564586
 30
0.0
 10
11.3563002658
 20
10.9434357699
 30
0.0
 10
11.3563002603
 20
10.9430770946
 30
0.0
  0
SPLINE
  5
330
100
AcDbEntity
  8
0
100
AcDbSpline
 62
7
  6
CONTINUOUS
 70
0
 71
3
 72
43
 73
39
 74
0
 42
0.0000001
 43
0.0000001
 44
0.0000000001
 40
0.0
 40
0.0
 40
0.0
 40
0.0
 40
0.0318706928
 40
0.0477674214
 40
0.0636366534
 40
0.0952927935
 40
0.1268453853
 40
0.142585024
 40
0.1583001307
 40
0.1896567873
 40
0.2209234787
 40
0.2521067484
 40
0.2832140082
 40
0.3142534518
 40
0.3452339831
 40
0.3761651246
 40
0.4070569222
 40
0.4379198407
 40
0.4687646527
 40
0.4996023236
 40
0.5304438941
 40
0.5613003634
 40
0.5921825721
 40
0.6231010871
 40
0.6540660892
 40
0.6850872662
 40
0.7161737125
 40
0.7473338402
 40
0.7785752935
 40
0.8099048844
 40
0.8413285132
 40
0.857078414
 40
0.872853608
 40
0.9044792537
 40
0.9362104081
 40
0.9521176438
 40
0.9680525904
 40
1.0
 40
1.0
 40
1.0
 40
1.0
 10
8.7804119468
 20
9.1797454359
 30
0.0
 10
8.7804119468
 20
9.1905995081
 30
0.0
 10
8.7808107718
 20
9.2068712479
 30
0.0
 10
8.7821450222
 20
9.2285042046
 30
0.0
 10
8.7840089603
 20
9.2500250637
 30
0.0
 10
8.7873328592
 20
9.2767623285
 30
0.0
 10
8.7919837992
 20
9.3032563836
 30
0.0
 10
8.796491413
 20
9.3242378081
 30
0.0
 10
8.8015122967
 20
9.3450336548
 30
0.0
 10
8.8087585187
 20
9.3707231595
 30
0.0
 10
8.818993186
 20
9.4010011274
 30
0.0
 10
8.8307364582
 20
9.4306357345
 30
0.0
 10
8.8439599627
 20
9.4595550207
 30
0.0
 10
8.8586319139
 20
9.4876893651
 30
0.0
 10
8.8747169932
 20
9.5149708553
 30
0.0
 10
8.8921764634
 20
9.5413336779
 30
0.0
 10
8.910968228
 20
9.5667142427
 30
0.0
 10
8.9310469848
 20
9.5910513234
 30
0.0
 10
8.9523643241
 20
9.6142862062
 30
0.0
 10
8.9748688474
 20
9.6363628316
 30
0.0
 10
8.9985062889
 20
9.6572279292
 30
0.0
 10
9.0232196101
 20
9.6768311948
 30
0.0
 10
9.0489491834
 20
9.695125372
 30
0.0
 10
9.0756329358
 20
9.7120663633
 30
0.0
 10
9.1032064986
 20
9.7276133386
 30
0.0
 10
9.1316033629
 20
9.7417288215
 30
0.0
 10
9.160755031
 20
9.7543788333
 30
0.0
 10
9.1905911451
 20
9.7655329422
 30
0.0
 10
9.2210398831
 20
9.7751643501
 30
0.0
 10
9.2520273277
 20
9.7832498174
 30
0.0
 10
9.278218381
 20
9.7886793358
 30
0.0
 10
9.2993618243
 20
9.7922337613
 30
0.0
 10
9.3206561977
 20
9.7952646662
 30
0.0
 10
9.3474729707
 20
9.7980558407
 30
0.0
 10
9.3744401884
 20
9.7995094605
 30
0.0
 10
9.3960900721
 20
9.7998719508
 30
0.0
 10
9.4178155258
 20
9.7996995313
 30
0.0
 10
9.4341148252
 20
9.7989679952
 30
0.0
 10
9.4449689546
 20
9.7982152588
 30
0.0
  0
SPLINE
  5
331
100
AcDbEntity
  8
0
100
AcDbSpline
 62
7
  6
CONTINUOUS
 70
0
 71
3
 72
39
 73
35
 74
0
 42
0.0000001
 43
0.0000001
 44
0.0000000001
 40
0.0
 40
0.0
 40
0.0
 40
0.0
 40
0.030673164
 40
0.0614497342
 40
0.0923258322
 40
0.123299507
 40
0.1543662998
 40
0.1855214634
 40
0.2167593041
 40
0.2480733934
 40
0.2794566285
 40
0.3109012834
 40
0.3423990894
 40
0.3739413063
 40
0.4055188043
 40
0.4371221464
 40
0.4687416707
 40
0.5003675737
 40
0.5319899947
 40
0.5635991035
 40
0.5951851873
 40
0.6267387347
 40
0.6582505182
 40
0.6897116749
 40
0.7211137879
 40
0.7524489655
 40
0.7837099101
 40
0.8148899957
 40
0.8459833158
 40
0.8769847405
 40
0.907890123
 40
0.9386956389
 40
0.9693999951
 40
1.0
 40
1.0
 40
1.0
 40
1.0
 10
10.652376309
 20
9.7144812743
 30
0.0
 10
10.66326726
 20
9.7137259843
 30
0.0
 10
10.6850525151
 20
9.7116785627
 30
0.0
 10
10.7175931211
 20
9.7070189104
 30
0.0
 10
10.7499770836
 20
9.7007762388
 30
0.0
 10
10.7821251069
 20
9.6929661012
 30
0.0
 10
10.813960318
 20
9.6836070813
 30
0.0
 10
10.8454058983
 20
9.672721872
 30
0.0
 10
10.8763862014
 20
9.6603367039
 30
0.0
 10
10.9068266539
 20
9.6464814677
 30
0.0
 10
10.9366539944
 20
9.6311895656
 30
0.0
 10
10.965796434
 20
9.61449784
 30
0.0
 10
10.9941838245
 20
9.5964464867
 30
0.0
 10
11.0217478381
 20
9.5770789777
 30
0.0
 10
11.0484221491
 20
9.5564419755
 30
0.0
 10
11.0741425641
 20
9.5345851759
 30
0.0
 10
11.0988471784
 20
9.5115611985
 30
0.0
 10
11.1224765213
 20
9.4874254599
 30
0.0
 10
11.1449736968
 20
9.462236044
 30
0.0
 10
11.1662845632
 20
9.4360535987
 30
0.0
 10
11.1863578246
 20
9.4089411494
 30
0.0
 10
11.2051451505
 20
9.3809639502
 30
0.0
 10
11.2226012929
 20
9.3521893307
 30
0.0
 10
11.2386841845
 20
9.3226865326
 30
0.0
 10
11.2533550874
 20
9.2925265693
 30
0.0
 10
11.2665786659
 20
9.2617820395
 30
0.0
 10
11.2783230515
 20
9.2305269422
 30
0.0
 10
11.2885599182
 20
9.1988365044
 30
0.0
 10
11.2972645424
 20
9.1667870158
 30
0.0
 10
11.304415935
 20
9.1344555802
 30
0.0
 10
11.3099967266
 20
9.1019202248
 30
0.0
 10
11.313993661
 20
9.0692587431
 30
0.0
 10
11.3163966807
 20
9.0365511422
 30
0.0
 10
11.3169333169
 20
9.0147281522
 30
0.0
 10
11.3169333169
 20
9.0038370815
 30
0.0
  0
SPLINE
  5
332
100
AcDbEntity
  8
0
100
AcDbSpline
 62
7
  6
CONTINUOUS
 70
0
 71
3
 72
19
 73
15
 74
0
 42
0.0000001
 43
0.0000001
 44
0.0000000001
 40
0.0
 40
0.0
 40
0.0
 40
0.0
 40
0.1269582587
 40
0.253298728
 40
0.3162517495
 40
0.3790561688
 40
0.4417154569
 40
0.504233954
 40
0.6288480495
 40
0.7529664403
 40
0.8148680661
 40
0.8766683236
 40
0.9383759101
 40
1.0
 40
1.0
 40
1.0
 40
1.0
 10
10.1393658504
 20
6.1672922125
 30
0.0
 10
10.1542109396
 20
6.1662627021
 30
0.0
 10
10.1839105743
 20
6.1652413336
 30
0.0
 10
10.2209864534
 20
6.1665858887
 30
0.0
 10
10.2504211874
 20
6.1692353376
 30
0.0
 10
10.2723363681
 20
6.1720021178
 30
0.0
 10
10.2940876409
 20
6.1755473387
 30
0.0
 10
10.3228005151
 20
6.1812994239
 30
0.0
 10
10.3581621581
 20
6.1904083919
 30
0.0
 10
10.3926943873
 20
6.2020582938
 30
0.0
 10
10.4196662071
 20
6.2128549206
 30
0.0
 10
10.4395337747
 20
6.2216741775
 30
0.0
 10
10.4590305008
 20
6.2312104113
 30
0.0
 10
10.4717740614
 20
6.2380429209
 30
0.0
 10
10.4780749252
 20
6.2415742141
 30
0.0
  0
SPLINE
  5
333
100
AcDbEntity
  8
0
100
AcDbSpline
 62
7
  6
CONTINUOUS
 70
0
 71
3
 72
39
 73
35
 74
0
 42
0.0000001
 43
0.0000001
 44
0.0000000001
 40
0.0
 40
0.0
 40
0.0
 40
0.0
 40
0.030673164
 40
0.0614497342
 40
0.0923258322
 40
0.123299507
 40
0.1543662998
 40
0.1855214634
 40
0.2167593041
 40
0.2480733934
 40
0.2794566285
 40
0.3109012834
 40
0.3423990894
 40
0.3739413063
 40
0.4055188043
 40
0.4371221464
 40
0.4687416707
 40
0.5003675737
 40
0.5319899947
 40
0.5635991035
 40
0.5951851873
 40
0.6267387347
 40
0.6582505182
 40
0.6897116749
 40
0.7211137879
 40
0.7524489655
 40
0.7837099101
 40
0.8148899957
 40
0.8459833158
 40
0.8769847405
 40
0.907890123
 40
0.9386956389
 40
0.9693999951
 40
1.0
 40
1.0
 40
1.0
 40
1.0
 10
10.6684230766
 20
9.7898686672
 30
0.0
 10
10.6802954796
 20
9.7890453133
 30
0.0
 10
10.7040439408
 20
9.7868133857
 30
0.0
 10
10.7395169851
 20
9.7817338229
 30
0.0
 10
10.7748192698
 20
9.7749285849
 30
0.0
 10
10.8098643533
 20
9.7664146268
 30
0.0
 10
10.8445684352
 20
9.7562122068
 30
0.0
 10
10.8788477742
 20
9.744346063
 30
0.0
 10
10.9126199069
 20
9.7308447896
 30
0.0
 10
10.9458035398
 20
9.715740971
 30
0.0
 10
10.9783188092
 20
9.6990710196
 30
0.0
 10
11.010087457
 20
9.6808750979
 30
0.0
 10
11.0410330135
 20
9.6611970238
 30
0.0
 10
11.0710809935
 20
9.6400841869
 30
0.0
 10
11.1001590941
 20
9.6175874548
 30
0.0
 10
11.1281973372
 20
9.5937610018
 30
0.0
 10
11.1551282394
 20
9.5686621892
 30
0.0
 10
11.1808869708
 20
9.5423514276
 30
0.0
 10
11.205411508
 20
9.5148920353
 30
0.0
 10
11.2286428304
 20
9.4863501254
 30
0.0
 10
11.2505250194
 20
9.4567944031
 30
0.0
 10
11.2710053892
 20
9.4262960028
 30
0.0
 10
11.2900346142
 20
9.3949283217
 30
0.0
 10
11.3075668362
 20
9.3627668412
 30
0.0
 10
11.3235598262
 20
9.3298889743
 30
0.0
 10
11.3379750644
 20
9.2963738618
 30
0.0
 10
11.3507778104
 20
9.2623021715
 30
0.0
 10
11.3619371855
 20
9.2277559094
 30
0.0
 10
11.3714262379
 20
9.19281824
 30
0.0
 10
11.3792220875
 20
9.1575732158
 30
0.0
 10
11.3853057992
 20
9.1221058953
 30
0.0
 10
11.3896629224
 20
9.0865010823
 30
0.0
 10
11.3922824933
 20
9.0508459941
 30
0.0
 10
11.3928674892
 20
9.0270563975
 30
0.0
 10
11.3928674892
 20
9.0151838639
 30
0.0
  0
SPLINE
  5
334
100
AcDbEntity
  8
0
100
AcDbSpline
 62
7
  6
CONTINUOUS
 70
0
 71
3
 72
15
 73
11
 74
0
 42
0.0000001
 43
0.0000001
 44
0.0000000001
 40
0.0
 40
0.0
 40
0.0
 40
0.0
 40
0.1266482517
 40
0.2527986367
 40
0.3784558186
 40
0.5036328164
 40
0.6283479058
 40
0.7526260468
 40
0.8764979594
 40
1.0
 40
1.0
 40
1.0
 40
1.0
 10
10.2116370305
 20
6.2371008161
 30
0.0
 10
10.2236583911
 20
6.2362671319
 30
0.0
 10
10.2477065495
 20
6.2352805215
 30
0.0
 10
10.2837296981
 20
6.2358582717
 30
0.0
 10
10.3195219484
 20
6.238494577
 30
0.0
 10
10.3549660418
 20
6.2431811175
 30
0.0
 10
10.3899476886
 20
6.2499028796
 30
0.0
 10
10.4243540134
 20
6.2586384345
 30
0.0
 10
10.4580721901
 20
6.2693590265
 30
0.0
 10
10.4800536591
 20
6.2778197573
 30
0.0
 10
10.4908887216
 20
6.2823677916
 30
0.0
  0
SPLINE
  5
335
100
AcDbEntity
  8
0
100
AcDbSpline
 62
7
  6
CONTINUOUS
 70
0
 71
3
 72
28
 73
24
 74
0
 42
0.0000001
 43
0.0000001
 44
0.0000000001
 40
0.0
 40
0.0
 40
0.0
 40
0.0
 40
0.0616465572
 40
0.0924798212
 40
0.1233217026
 40
0.1850370795
 40
0.2468205085
 40
0.2777472544
 40
0.3086990012
 40
0.3396782733
 40
0.3706875295
 40
0.43279994
 40
0.4950595942
 40
0.5574827697
 40
0.6200839761
 40
0.6828758318
 40
0.71434923
 40
0.7458740756
 40
0.8090769614
 40
0.8724953205
 40
0.9042893743
 40
0.9361398561
 40
1.0
 40
1.0
 40
1.0
 40
1.0
 10
9.6511883167
 20
10.3755970907
 30
0.0
 10
9.6596048813
 20
10.3837268958
 30
0.0
 10
9.6725626176
 20
10.395586604
 30
0.0
 10
9.6904554089
 20
10.410683777
 30
0.0
 10
9.7087577816
 20
10.4253035968
 30
0.0
 10
9.7323782379
 20
10.4426606061
 30
0.0
 10
9.7569083289
 20
10.4587358759
 30
0.0
 10
9.7770434319
 20
10.4708064127
 30
0.0
 10
9.7923997496
 20
10.4794636465
 30
0.0
 10
9.8079950516
 20
10.4877161139
 30
0.0
 10
9.829104226
 20
10.4981774923
 30
0.0
 10
9.8560458353
 20
10.5102179207
 30
0.0
 10
9.8891517841
 20
10.5229605865
 30
0.0
 10
9.9229704173
 20
10.5339745279
 30
0.0
 10
9.9574153818
 20
10.5432316877
 30
0.0
 10
9.9865484607
 20
10.5494581406
 30
0.0
 10
10.0100765912
 20
10.5535415708
 30
0.0
 10
10.0337793109
 20
10.5570293172
 30
0.0
 10
10.063639095
 20
10.5602538768
 30
0.0
 10
10.0936751479
 20
10.561955394
 30
0.0
 10
10.1177924849
 20
10.5624052283
 30
0.0
 10
10.1419968549
 20
10.5622460592
 30
0.0
 10
10.1601569094
 20
10.5614407598
 30
0.0
 10
10.1722498563
 20
10.5606021111
 30
0.0
  0
SPLINE
  5
336
100
AcDbEntity
  8
0
100
AcDbSpline
 62
7
  6
CONTINUOUS
 70
0
 71
3
 72
25
 73
21
 74
0
 42
0.0000001
 43
0.0000001
 44
0.0000000001
 40
0.0
 40
0.0
 40
0.0
 40
0.0
 40
0.0616475733
 40
0.1233181728
 40
0.1850345693
 40
0.2468190226
 40
0.3086930342
 40
0.3706771126
 40
0.4327905535
 40
0.495051239
 40
0.5574754456
 40
0.6200776917
 40
0.6828705853
 40
0.7143444965
 40
0.7458698715
 40
0.8090738384
 40
0.8724931154
 40
0.9042877735
 40
0.9361389908
 40
1.0
 40
1.0
 40
1.0
 40
1.0
 10
8.9399557754
 20
9.6885991586
 30
0.0
 10
8.9483723065
 20
9.6967289318
 30
0.0
 10
8.9656495458
 20
9.7125419477
 30
0.0
 10
8.9928079356
 20
9.734838962
 30
0.0
 10
9.0211456637
 20
9.7556621677
 30
0.0
 10
9.0505903414
 20
9.7749582068
 30
0.0
 10
9.0810680323
 20
9.7926787239
 30
0.0
 10
9.1125018432
 20
9.808779067
 30
0.0
 10
9.1448125823
 20
9.8232187693
 30
0.0
 10
9.1779187862
 20
9.8359615193
 30
0.0
 10
9.2117372047
 20
9.8469753251
 30
0.0
 10
9.2461820698
 20
9.8562324304
 30
0.0
 10
9.2753150316
 20
9.8624588449
 30
0.0
 10
9.2988430832
 20
9.8665421903
 30
0.0
 10
9.3225457144
 20
9.8700299416
 30
0.0
 10
9.3524053726
 20
9.8732544308
 30
0.0
 10
9.3824413042
 20
9.8749559418
 30
0.0
 10
9.4065585773
 20
9.8754057765
 30
0.0
 10
9.430762871
 20
9.875246575
 30
0.0
 10
9.4489228585
 20
9.8744412946
 30
0.0
 10
9.4610157222
 20
9.8736026517
 30
0.0
  0
SPLINE
  5
337
100
AcDbEntity
  8
0
100
AcDbSpline
 62
7
  6
CONTINUOUS
 70
0
 71
3
 72
43
 73
39
 74
0
 42
0.0000001
 43
0.0000001
 44
0.0000000001
 40
0.0
 40
0.0
 40
0.0
 40
0.0
 40
0.0318706928
 40
0.0477674214
 40
0.0636366534
 40
0.0952927935
 40
0.1268453853
 40
0.142585024
 40
0.1583001307
 40
0.1896567873
 40
0.2209234787
 40
0.2521067484
 40
0.2832140082
 40
0.3142534518
 40
0.3452339831
 40
0.3761651246
 40
0.4070569222
 40
0.4379198407
 40
0.4687646527
 40
0.4996023236
 40
0.5304438941
 40
0.5613003634
 40
0.5921825721
 40
0.6231010871
 40
0.6540660892
 40
0.6850872662
 40
0.7161737125
 40
0.7473338402
 40
0.7785752935
 40
0.8099048844
 40
0.8413285132
 40
0.857078414
 40
0.872853608
 40
0.9044792537
 40
0.9362104081
 40
0.9521176438
 40
0.9680525904
 40
1.0
 40
1.0
 40
1.0
 40
1.0
 10
11.3169333169
 20
5.9515112895
 30
0.0
 10
11.3169333169
 20
5.9406572174
 30
0.0
 10
11.3165344919
 20
5.9243854775
 30
0.0
 10
11.3152002414
 20
5.9027525209
 30
0.0
 10
11.3133363034
 20
5.8812316617
 30
0.0
 10
11.3100124045
 20
5.854494397
 30
0.0
 10
11.3053614645
 20
5.8280003418
 30
0.0
 10
11.3008538506
 20
5.8070189174
 30
0.0
 10
11.2958329669
 20
5.7862230707
 30
0.0
 10
11.2885867449
 20
5.760533566
 30
0.0
 10
11.2783520777
 20
5.730255598
 30
0.0
 10
11.2666088055
 20
5.700620991
 30
0.0
 10
11.253385301
 20
5.6717017048
 30
0.0
 10
11.2387133497
 20
5.6435673603
 30
0.0
 10
11.2226282705
 20
5.6162858702
 30
0.0
 10
11.2051688003
 20
5.5899230475
 30
0.0
 10
11.1863770357
 20
5.5645424827
 30
0.0
 10
11.1662982789
 20
5.5402054021
 30
0.0
 10
11.1449809396
 20
5.5169705192
 30
0.0
 10
11.1224764163
 20
5.4948938938
 30
0.0
 10
11.0988389748
 20
5.4740287963
 30
0.0
 10
11.0741256535
 20
5.4544255307
 30
0.0
 10
11.0483960802
 20
5.4361313535
 30
0.0
 10
11.0217123279
 20
5.4191903621
 30
0.0
 10
10.994138765
 20
5.4036433869
 30
0.0
 10
10.9657419008
 20
5.389527904
 30
0.0
 10
10.9365902326
 20
5.3768778921
 30
0.0
 10
10.9067541185
 20
5.3657237833
 30
0.0
 10
10.8763053805
 20
5.3560923754
 30
0.0
 10
10.845317936
 20
5.3480069081
 30
0.0
 10
10.8191268827
 20
5.3425773896
 30
0.0
 10
10.7979834394
 20
5.3390229642
 30
0.0
 10
10.7766890659
 20
5.3359920593
 30
0.0
 10
10.749872293
 20
5.3332008847
 30
0.0
 10
10.7229050753
 20
5.331747265
 30
0.0
 10
10.7012551916
 20
5.3313847746
 30
0.0
 10
10.6795297378
 20
5.3315571942
 30
0.0
 10
10.6632304384
 20
5.3322887303
 30
0.0
 10
10.652376309
 20
5.3330414667
 30
0.0
  0
SPLINE
  5
338
100
AcDbEntity
  8
0
100
AcDbSpline
 62
7
  6
CONTINUOUS
 70
0
 71
3
 72
26
 73
22
 74
0
 42
0.0000001
 43
0.0000001
 44
0.0000000001
 40
0.0
 40
0.0
 40
0.0
 40
0.0
 40
0.0637762166
 40
0.1273429375
 40
0.1906991235
 40
0.2538523393
 40
0.2853569189
 40
0.3168132585
 40
0.3795812214
 40
0.4421715787
 40
0.5045965934
 40
0.5668701917
 40
0.6290077786
 40
0.6910261214
 40
0.7219986725
 40
0.7529482414
 40
0.8147830237
 40
0.8765553495
 40
0.9074270139
 40
0.9382907776
 40
1.0
 40
1.0
 40
1.0
 40
1.0
 10
11.3928674892
 20
5.962858072
 30
0.0
 10
11.3928674892
 20
5.9512864929
 30
0.0
 10
11.3923136319
 20
5.9281774442
 30
0.0
 10
11.3898137565
 20
5.8936543197
 30
0.0
 10
11.3856515482
 20
5.8594052869
 30
0.0
 10
11.3808018543
 20
5.8311356354
 30
0.0
 10
11.3761010591
 20
5.8087394339
 30
0.0
 10
11.3708644739
 20
5.7865342564
 30
0.0
 10
11.3633060008
 20
5.7590908713
 30
0.0
 10
11.3526282013
 20
5.7267211837
 30
0.0
 10
11.3403734717
 20
5.6950106137
 30
0.0
 10
11.3265700468
 20
5.6640326713
 30
0.0
 10
11.3112499469
 20
5.6338591456
 30
0.0
 10
11.2972416158
 20
5.6094308517
 30
0.0
 10
11.2853153214
 20
5.590363617
 30
0.0
 10
11.2729241402
 20
5.5716350487
 30
0.0
 10
11.2565572978
 20
5.5488478232
 30
0.0
 10
11.2390522013
 20
5.5269409666
 30
0.0
 10
11.2243973776
 20
5.5099847361
 30
0.0
 10
11.2093197957
 20
5.4934194679
 30
0.0
 10
11.1975361748
 20
5.4814363172
 30
0.0
 10
11.1894830234
 20
5.4736575431
 30
0.0
  0
SPLINE
  5
339
100
AcDbEntity
  8
0
100
AcDbSpline
 62
7
  6
CONTINUOUS
 70
0
 71
3
 72
17
 73
13
 74
0
 42
0.0000001
 43
0.0000001
 44
0.0000000001
 40
0.0
 40
0.0
 40
0.0
 40
0.0
 40
0.1268347885
 40
0.2531020365
 40
0.3788119981
 40
0.5039826477
 40
0.6286422299
 40
0.7528275462
 40
0.8147650933
 40
0.8766017098
 40
0.9383442596
 40
1.0
 40
1.0
 40
1.0
 40
1.0
 10
10.2303455612
 20
6.3249931186
 30
0.0
 10
10.2425043987
 20
6.3241499004
 30
0.0
 10
10.2668291349
 20
6.323245654
 30
0.0
 10
10.3032411895
 20
6.3242563224
 30
0.0
 10
10.3393517009
 20
6.3276325042
 30
0.0
 10
10.3750081901
 20
6.3333606906
 30
0.0
 10
10.4100611077
 20
6.3414167252
 30
0.0
 10
10.4386757491
 20
6.3500512238
 30
0.0
 10
10.4611120055
 20
6.3580846726
 30
0.0
 10
10.4776854436
 20
6.3646613948
 30
0.0
 10
10.4940002847
 20
6.3717873124
 30
0.0
 10
10.5047009173
 20
6.3769029068
 30
0.0
 10
10.5100016876
 20
6.3795494777
 30
0.0
  0
SPLINE
  5
33A
100
AcDbEntity
  8
0
100
AcDbSpline
 62
7
  6
CONTINUOUS
 70
0
 71
3
 72
16
 73
12
 74
0
 42
0.0000001
 43
0.0000001
 44
0.0000000001
 40
0.0
 40
0.0
 40
0.0
 40
0.0
 40
0.1098865818
 40
0.2213936261
 40
0.3360632379
 40
0.4553032155
 40
0.5170506603
 40
0.5803897044
 40
0.7123060493
 40
0.8519521627
 40
1.0
 40
1.0
 40
1.0
 40
1.0
 10
9.8001366451
 20
10.8767180987
 30
0.0
 10
9.8001366486
 20
10.8773290283
 30
0.0
 10
9.8002150941
 20
10.8785612779
 30
0.0
 10
9.8005669476
 20
10.8804008097
 30
0.0
 10
9.8011518261
 20
10.8822344885
 30
0.0
 10
9.8018243973
 20
10.8837379995
 30
0.0
 10
9.8024715823
 20
10.8849327782
 30
0.0
 10
9.8032126402
 20
10.886155022
 30
0.0
 10
9.8042887258
 20
10.8876777481
 30
0.0
 10
9.8057889079
 20
10.8894671395
 30
0.0
 10
9.8069046263
 20
10.8906153207
 30
0.0
 10
9.8074966393
 20
10.8911871613
 30
0.0
  0
SPLINE
  5
33B
100
AcDbEntity
  8
0
100
AcDbSpline
 62
7
  6
CONTINUOUS
 70
0
 71
3
 72
17
 73
13
 74
0
 42
0.0000001
 43
0.0000001
 44
0.0000000001
 40
0.0
 40
0.0
 40
0.0
 40
0.0
 40
0.1268358295
 40
0.2531037219
 40
0.3788139667
 40
0.5039845722
 40
0.628643846
 40
0.7528286664
 40
0.8147659364
 40
0.8766022647
 40
0.9383445287
 40
1.0
 40
1.0
 40
1.0
 40
1.0
 10
10.2376660632
 20
6.3433807067
 30
0.0
 10
10.2495898182
 20
6.3425537915
 30
0.0
 10
10.2734442621
 20
6.34166755
 30
0.0
 10
10.3091521751
 20
6.3426610558
 30
0.0
 10
10.3445639719
 20
6.3459759183
 30
0.0
 10
10.3795299199
 20
6.3515988561
 30
0.0
 10
10.4139031648
 20
6.3595061238
 30
0.0
 10
10.4419621219
 20
6.3679806981
 30
0.0
 10
10.4639620389
 20
6.3758650951
 30
0.0
 10
10.4802128143
 20
6.382319678
 30
0.0
 10
10.4962096584
 20
6.3893131368
 30
0.0
 10
10.5067014538
 20
6.3943335641
 30
0.0
 10
10.5118987003
 20
6.3969308783
 30
0.0
  0
SPLINE
  5
33C
100
AcDbEntity
  8
0
100
AcDbSpline
 62
7
  6
CONTINUOUS
 70
0
 71
3
 72
16
 73
12
 74
0
 42
0.0000001
 43
0.0000001
 44
0.0000000001
 40
0.0
 40
0.0
 40
0.0
 40
0.0
 40
0.1098865818
 40
0.2213936261
 40
0.3360632379
 40
0.4553032155
 40
0.5170506603
 40
0.5803897044
 40
0.7123060493
 40
0.8519521627
 40
1.0
 40
1.0
 40
1.0
 40
1.0
 10
10.3705733179
 20
11.4277176459
 30
0.0
 10
10.3705733214
 20
11.4283285755
 30
0.0
 10
10.3706517669
 20
11.4295608251
 30
0.0
 10
10.3710036204
 20
11.4314003569
 30
0.0
 10
10.3715884989
 20
11.4332340357
 30
0.0
 10
10.3722610701
 20
11.4347375467
 30
0.0
 10
10.3729082551
 20
11.4359323254
 30
0.0
 10
10.373649313
 20
11.4371545692
 30
0.0
 10
10.3747253986
 20
11.4386772952
 30
0.0
 10
10.3762255807
 20
11.4404666866
 30
0.0
 10
10.3773412991
 20
11.4416148678
 30
0.0
 10
10.3779333121
 20
11.4421867085
 30
0.0
  0
SPLINE
  5
33D
100
AcDbEntity
  8
0
100
AcDbSpline
 62
7
  6
CONTINUOUS
 70
0
 71
3
 72
73
 73
69
 74
0
 42
0.0000001
 43
0.0000001
 44
0.0000000001
 40
0.0
 40
0.0
 40
0.0
 40
0.0
 40
0.0156747061
 40
0.0314021326
 40
0.0471805253
 40
0.0630087438
 40
0.0788845528
 40
0.0948055237
 40
0.1107687421
 40
0.1267709274
 40
0.1428084469
 40
0.1588773528
 40
0.1749734195
 40
0.1910921814
 40
0.2072289738
 40
0.2233789733
 40
0.2395372416
 40
0.2556987686
 40
0.2718585164
 40
0.2880114621
 40
0.3041526423
 40
0.3202771953
 40
0.336380405
 40
0.3524577431
 40
0.3685049093
 40
0.3845178703
 40
0.4004928975
 40
0.4164266019
 40
0.4323159675
 40
0.4481583822
 40
0.4639516653
 40
0.4796940912
 40
0.4953844095
 40
0.511021861
 40
0.5266061906
 40
0.542137655
 40
0.5576170258
 40
0.5730455865
 40
0.5884251251
 40
0.6037579205
 40
0.6190467245
 40
0.6342947382
 40
0.6495055833
 40
0.6646832672
 40
0.6798321442
 40
0.6949568713
 40
0.7100623605
 40
0.7251537284
 40
0.7402362419
 40
0.7553152628
 40
0.7703961906
 40
0.7854844042
 40
0.8005852046
 40
0.8157037582
 40
0.8308450425
 40
0.8460137945
 40
0.8612144618
 40
0.8764511583
 40
0.8917276225
 40
0.907047183
 40
0.9224127286
 40
0.9301141254
 40
0.9378278859
 40
0.953292205
 40
0.9688081541
 40
0.976586461
 40
0.9843782887
 40
1.0
 40
1.0
 40
1.0
 40
1.0
 10
9.8278822782
 20
5.8097071257
 30
0.0
 10
9.8165367255
 20
5.8104939424
 30
0.0
 10
9.7938422143
 20
5.8126268035
 30
0.0
 10
9.7599434276
 20
5.8174809636
 30
0.0
 10
9.7262078554
 20
5.8239841684
 30
0.0
 10
9.6927180254
 20
5.832120306
 30
0.0
 10
9.6595540835
 20
5.8418699571
 30
0.0
 10
9.6267960234
 20
5.8532094763
 30
0.0
 10
9.5945226592
 20
5.8661115649
 30
0.0
 10
9.5628116845
 20
5.8805450939
 30
0.0
 10
9.5317394172
 20
5.8964752632
 30
0.0
 10
9.50138064
 20
5.9138636822
 30
0.0
 10
9.4718084172
 20
5.9326684599
 30
0.0
 10
9.4430939222
 20
5.9528443071
 30
0.0
 10
9.4153062689
 20
5.9743426443
 30
0.0
 10
9.3885123424
 20
5.9971117125
 30
0.0
 10
9.3627766234
 20
6.0210966818
 30
0.0
 10
9.3381610523
 20
6.0462398082
 30
0.0
 10
9.3147248786
 20
6.0724805673
 30
0.0
 10
9.2925245209
 20
6.0997558002
 30
0.0
 10
9.2716134318
 20
6.1279998624
 30
0.0
 10
9.2520419733
 20
6.157144783
 30
0.0
 10
9.2338572704
 20
6.1871204105
 30
0.0
 10
9.2171031139
 20
6.2178545956
 30
0.0
 10
9.2018198622
 20
6.2492733669
 30
0.0
 10
9.1880443436
 20
6.2813011062
 30
0.0
 10
9.1758097675
 20
6.3138607278
 30
0.0
 10
9.1651456487
 20
6.3468738636
 30
0.0
 10
9.1560777199
 20
6.3802610448
 30
0.0
 10
9.1486278605
 20
6.413941893
 30
0.0
 10
9.1428140684
 20
6.44783532
 30
0.0
 10
9.1386504111
 20
6.4818597192
 30
0.0
 10
9.136146993
 20
6.5159331595
 30
0.0
 10
9.1353099289
 20
6.549973581
 30
0.0
 10
9.1361413287
 20
6.58389899
 30
0.0
 10
9.1386392595
 20
6.6176276589
 30
0.0
 10
9.1427977792
 20
6.6510783233
 30
0.0
 10
9.1486069491
 20
6.6841703766
 30
0.0
 10
9.1560528555
 20
6.7168240623
 30
0.0
 10
9.1651176404
 20
6.7489606656
 30
0.0
 10
9.1757795462
 20
6.7805027015
 30
0.0
 10
9.1880129414
 20
6.8113741107
 30
0.0
 10
9.2017883888
 20
6.8415004458
 30
0.0
 10
9.2170727314
 20
6.8708090454
 30
0.0
 10
9.2338291672
 20
6.8992292115
 30
0.0
 10
9.2520173362
 20
6.9266923807
 30
0.0
 10
9.2715934186
 20
6.9531322903
 30
0.0
 10
9.2925102327
 20
6.9784851446
 30
0.0
 10
9.3147173336
 20
7.0026897873
 30
0.0
 10
9.3381611617
 20
7.0256878326
 30
0.0
 10
9.3627851693
 20
7.0474238096
 30
0.0
 10
9.3885299587
 20
7.0678452959
 30
0.0
 10
9.4153334263
 20
7.0869030462
 30
0.0
 10
9.4431309149
 20
7.104551107
 30
0.0
 10
9.4718553568
 20
7.1207469564
 30
0.0
 10
9.5014374487
 20
7.1354515885
 30
0.0
 10
9.5318058403
 20
7.1486296022
 30
0.0
 10
9.5628872478
 20
7.1602492768
 30
0.0
 10
9.5946068544
 20
7.1702826814
 30
0.0
 10
9.6268876563
 20
7.1787056148
 30
0.0
 10
9.65417188
 20
7.1843617128
 30
0.0
 10
9.6761978005
 20
7.1880645407
 30
0.0
 10
9.6983809584
 20
7.191221907
 30
0.0
 10
9.7263170204
 20
7.1941296167
 30
0.0
 10
9.7544097988
 20
7.1956438951
 30
0.0
 10
9.7769632741
 20
7.1960215052
 30
0.0
 10
9.7995954868
 20
7.1958419155
 30
0.0
 10
9.8165750839
 20
7.1950798293
 30
0.0
 10
9.8278822782
 20
7.1942956728
 30
0.0
  0
SPLINE
  5
33E
100
AcDbEntity
  8
0
100
AcDbSpline
 62
7
  6
CONTINUOUS
 70
0
 71
3
 72
16
 73
12
 74
0
 42
0.0000001
 43
0.0000001
 44
0.0000000001
 40
0.0
 40
0.0
 40
0.0
 40
0.0
 40
0.1098865818
 40
0.2213936261
 40
0.3360632379
 40
0.4553032155
 40
0.5170506603
 40
0.5803897044
 40
0.7123060493
 40
0.8519521627
 40
1.0
 40
1.0
 40
1.0
 40
1.0
 10
12.1369816147
 20
11.009937098
 30
0.0
 10
12.1369816183
 20
11.0105480276
 30
0.0
 10
12.1370600638
 20
11.0117802772
 30
0.0
 10
12.1374119172
 20
11.013619809
 30
0.0
 10
12.1379967957
 20
11.0154534878
 30
0.0
 10
12.138669367
 20
11.0169569988
 30
0.0
 10
12.1393165519
 20
11.0181517775
 30
0.0
 10
12.1400576099
 20
11.0193740213
 30
0.0
 10
12.1411336955
 20
11.0208967473
 30
0.0
 10
12.1426338775
 20
11.0226861387
 30
0.0
 10
12.143749596
 20
11.02383432
 30
0.0
 10
12.1443416089
 20
11.0244061606
 30
0.0
  0
SPLINE
  5
33F
100
AcDbEntity
  8
0
100
AcDbSpline
 62
7
  6
CONTINUOUS
 70
0
 71
3
 72
16
 73
12
 74
0
 42
0.0000001
 43
0.0000001
 44
0.0000000001
 40
0.0
 40
0.0
 40
0.0
 40
0.0
 40
0.1098867442
 40
0.2213937922
 40
0.336062747
 40
0.4553025398
 40
0.5170502154
 40
0.5803898679
 40
0.7123087269
 40
0.8519550591
 40
1.0
 40
1.0
 40
1.0
 40
1.0
 10
11.4031410643
 20
10.7686009683
 30
0.0
 10
11.4031410728
 20
10.7690874416
 30
0.0
 10
11.4032035797
 20
10.770068659
 30
0.0
 10
11.4034837685
 20
10.7715334387
 30
0.0
 10
11.403949497
 20
10.7729935622
 30
0.0
 10
11.4044850761
 20
10.7741907688
 30
0.0
 10
11.405000422
 20
10.7751421511
 30
0.0
 10
11.4055905254
 20
10.7761154129
 30
0.0
 10
11.4064474193
 20
10.7773279329
 30
0.0
 10
11.4076419873
 20
10.7787527929
 30
0.0
 10
11.4085304042
 20
10.7796670631
 30
0.0
 10
11.4090018046
 20
10.7801224008
 30
0.0
  0
SPLINE
  5
340
100
AcDbEntity
  8
0
100
AcDbSpline
 62
7
  6
CONTINUOUS
 70
0
 71
3
 72
55
 73
51
 74
0
 42
0.0000001
 43
0.0000001
 44
0.0000000001
 40
0.0
 40
0.0
 40
0.0
 40
0.0
 40
0.0311423847
 40
0.0624377818
 40
0.0938803182
 40
0.1254602716
 40
0.157165456
 40
0.1889811147
 40
0.2208903026
 40
0.2528742381
 40
0.2849126804
 40
0.3169843308
 40
0.3490672498
 40
0.3811392802
 40
0.4131784749
 40
0.4451635214
 40
0.4770741574
 40
0.5088915714
 40
0.5247623417
 40
0.5406036152
 40
0.5564136173
 40
0.572190725
 40
0.5879334859
 40
0.6036406213
 40
0.6193110311
 40
0.63494381
 40
0.6505382433
 40
0.6660938173
 40
0.6816102262
 40
0.6970873659
 40
0.7125253468
 40
0.7279244894
 40
0.7432853209
 40
0.7586085837
 40
0.7738952227
 40
0.7891463861
 40
0.8043634238
 40
0.8195478727
 40
0.8347014573
 40
0.8498260786
 40
0.8649237997
 40
0.8799968431
 40
0.8950475725
 40
0.9100784798
 40
0.9250921767
 40
0.9400913725
 40
0.9550788627
 40
0.970057514
 40
0.9850302422
 40
1.0
 40
1.0
 40
1.0
 40
1.0
 10
9.8352027802
 20
5.8280947137
 30
0.0
 10
9.8185739279
 20
5.8292479286
 30
0.0
 10
9.7853065572
 20
5.8327771883
 30
0.0
 10
9.7358088289
 20
5.8416675136
 30
0.0
 10
9.6868412687
 20
5.8541201436
 30
0.0
 10
9.6386683222
 20
5.8700681691
 30
0.0
 10
9.5915459455
 20
5.8894261419
 30
0.0
 10
9.5457254868
 20
5.9120904601
 30
0.0
 10
9.5014510292
 20
5.9379400013
 30
0.0
 10
9.4589585046
 20
5.9668367693
 30
0.0
 10
9.4184743348
 20
5.9986265965
 30
0.0
 10
9.3802142056
 20
6.0331398954
 30
0.0
 10
9.3443820009
 20
6.0701926477
 30
0.0
 10
9.3111687193
 20
6.1095874123
 30
0.0
 10
9.2807515013
 20
6.1511141501
 30
0.0
 10
9.2532923852
 20
6.1945519704
 30
0.0
 10
9.2289384749
 20
6.2396678771
 30
0.0
 10
9.2113224623
 20
6.2785012257
 30
0.0
 10
9.1989082091
 20
6.3101639689
 30
0.0
 10
9.1904537275
 20
6.3341594653
 30
0.0
 10
9.1828601792
 20
6.3583883259
 30
0.0
 10
9.1761376651
 20
6.3828186027
 30
0.0
 10
9.1702950872
 20
6.4074175524
 30
0.0
 10
9.1653403046
 20
6.432152382
 30
0.0
 10
9.1612800003
 20
6.4569900716
 30
0.0
 10
9.1581194845
 20
6.4818974458
 30
0.0
 10
9.1558631205
 20
6.5068412702
 30
0.0
 10
9.1545138861
 20
6.5317882331
 30
0.0
 10
9.1540735416
 20
6.5567050267
 30
0.0
 10
9.1545428312
 20
6.5815583821
 30
0.0
 10
9.1559210162
 20
6.6063151113
 30
0.0
 10
9.1582063155
 20
6.6309421565
 30
0.0
 10
9.161395768
 20
6.6554066175
 30
0.0
 10
9.1654849967
 20
6.6796758381
 30
0.0
 10
9.1704686777
 20
6.7037173852
 30
0.0
 10
9.1763401419
 20
6.7274991464
 30
0.0
 10
9.1830914886
 20
6.7509893752
 30
0.0
 10
9.1907138569
 20
6.7741566489
 30
0.0
 10
9.1991969652
 20
6.7969700496
 30
0.0
 10
9.2085295166
 20
6.8193990943
 30
0.0
 10
9.2186991432
 20
6.8414137737
 30
0.0
 10
9.2296921401
 20
6.8629847313
 30
0.0
 10
9.2414939304
 20
6.8840830952
 30
0.0
 10
9.2540887477
 20
6.9046806699
 30
0.0
 10
9.2674596897
 20
6.924749981
 30
0.0
 10
9.2815890281
 20
6.9442641318
 30
0.0
 10
9.2964577763
 20
6.963197077
 30
0.0
 10
9.3120461619
 20
6.981523614
 30
0.0
 10
9.3283331054
 20
6.999218826
 30
0.0
 10
9.3396434015
 20
7.0105802968
 30
0.0
 10
9.3454064249
 20
7.0161469315
 30
0.0
  0
SPLINE
  5
341
100
AcDbEntity
  8
0
100
AcDbSpline
 62
7
  6
CONTINUOUS
 70
0
 71
3
 72
15
 73
11
 74
0
 42
0.0000001
 43
0.0000001
 44
0.0000000001
 40
0.0
 40
0.0
 40
0.0
 40
0.0
 40
0.1267522793
 40
0.2529689491
 40
0.3786584241
 40
0.5038355414
 40
0.6285238581
 40
0.7527541922
 40
0.8765646577
 40
1.0
 40
1.0
 40
1.0
 40
1.0
 10
10.1272620915
 20
6.110202362
 30
0.0
 10
10.1410806156
 20
6.1092440441
 30
0.0
 10
10.1687247787
 20
6.1081668485
 30
0.0
 10
10.2101198032
 20
6.1090900082
 30
0.0
 10
10.2512093086
 20
6.1125517545
 30
0.0
 10
10.2918384267
 20
6.1185396737
 30
0.0
 10
10.3318561884
 20
6.1270315619
 30
0.0
 10
10.3711139353
 20
6.1379963137
 30
0.0
 10
10.4094633887
 20
6.1513923706
 30
0.0
 10
10.434368237
 20
6.1619276358
 30
0.0
 10
10.4466155238
 20
6.1675812524
 30
0.0
  0
SPLINE
  5
342
100
AcDbEntity
  8
0
100
AcDbSpline
 62
7
  6
CONTINUOUS
 70
0
 71
3
 72
50
 73
46
 74
0
 42
0.0000001
 43
0.0000001
 44
0.0000000001
 40
0.0
 40
0.0
 40
0.0
 40
0.0
 40
0.005344693
 40
0.0107764818
 40
0.0163780422
 40
0.0222240192
 40
0.0252603493
 40
0.0283811642
 40
0.0348996975
 40
0.0418257208
 40
0.0491942047
 40
0.0570322851
 40
0.0653606304
 40
0.0741940695
 40
0.0835431553
 40
0.0934142457
 40
0.1038106244
 40
0.1147327897
 40
0.1261786819
 40
0.1381444883
 40
0.1506242138
 40
0.1636105769
 40
0.1770946816
 40
0.2055131453
 40
0.2357865272
 40
0.2678044631
 40
0.3014431751
 40
0.3365673228
 40
0.3730315419
 40
0.4106818622
 40
0.4493569662
 40
0.4888893504
 40
0.5291064346
 40
0.5698316345
 40
0.6108854217
 40
0.6520863951
 40
0.6932523238
 40
0.7342011723
 40
0.7747521438
 40
0.8147267154
 40
0.8539496542
 40
0.8922504669
 40
0.9294630326
 40
0.9654308379
 40
1.0
 40
1.0
 40
1.0
 40
1.0
 10
11.0123002868
 20
10.9430771243
 30
0.0
 10
11.0123002802
 20
10.943589141
 30
0.0
 10
11.0123695472
 20
10.9446227961
 30
0.0
 10
11.0126801003
 20
10.9461649911
 30
0.0
 10
11.0131963211
 20
10.9477015662
 30
0.0
 10
11.0137889907
 20
10.948959498
 30
0.0
 10
11.014358949
 20
10.9499586383
 30
0.0
 10
11.0150127894
 20
10.9509824438
 30
0.0
 10
11.0159620288
 20
10.9522570962
 30
0.0
 10
11.0172838002
 20
10.9537525196
 30
0.0
 10
11.0188027383
 20
10.9552343195
 30
0.0
 10
11.0205169483
 20
10.9567009974
 30
0.0
 10
11.0224245252
 20
10.9581510482
 30
0.0
 10
11.0245232331
 20
10.9595830366
 30
0.0
 10
11.0268107443
 20
10.9609952978
 30
0.0
 10
11.0292843995
 20
10.9623863276
 30
0.0
 10
11.031941372
 20
10.9637544998
 30
0.0
 10
11.0347785874
 20
10.9650982161
 30
0.0
 10
11.0377927303
 20
10.9664159635
 30
0.0
 10
11.0409803036
 20
10.9677061095
 30
0.0
 10
11.0443375495
 20
10.9689672116
 30
0.0
 10
11.0478605447
 20
10.9701977323
 30
0.0
 10
11.052861325
 20
10.9718242605
 30
0.0
 10
11.0595005346
 20
10.9737619738
 30
0.0
 10
11.0679236703
 20
10.9759046605
 30
0.0
 10
11.0768973095
 20
10.9778933163
 30
0.0
 10
11.0863791
 20
10.9797184006
 30
0.0
 10
11.0963243726
 20
10.9813711242
 30
0.0
 10
11.1066861423
 20
10.982843552
 30
0.0
 10
11.1174154214
 20
10.9841286153
 30
0.0
 10
11.1284614482
 20
10.9852201495
 30
0.0
 10
11.1397719415
 20
10.9861129202
 30
0.0
 10
11.1512933502
 20
10.9868026466
 30
0.0
 10
11.1629711102
 20
10.9872860208
 30
0.0
 10
11.1747499074
 20
10.9875607319
 30
0.0
 10
11.1865739451
 20
10.9876254673
 30
0.0
 10
11.198387212
 20
10.9874799176
 30
0.0
 10
11.2101337485
 20
10.9871247791
 30
0.0
 10
11.2217579129
 20
10.9865617502
 30
0.0
 10
11.2332046416
 20
10.9857935209
 30
0.0
 10
11.2444197519
 20
10.9848237833
 30
0.0
 10
11.255350077
 20
10.9836571701
 30
0.0
 10
11.2659440698
 20
10.9822993078
 30
0.0
 10
11.2761513386
 20
10.980756669
 30
0.0
 10
11.2828072803
 20
10.9795852383
 30
0.0
 10
11.2860608101
 20
10.9789672873
 30
0.0
  0
SPLINE
  5
343
100
AcDbEntity
  8
0
100
AcDbSpline
 62
7
  6
CONTINUOUS
 70
0
 71
3
 72
45
 73
41
 74
0
 42
0.0000001
 43
0.0000001
 44
0.0000000001
 40
0.0
 40
0.0
 40
0.0
 40
0.0
 40
0.0309424936
 40
0.0620172522
 40
0.0932203202
 40
0.1245451746
 40
0.1559837375
 40
0.1875261044
 40
0.219160848
 40
0.2508751623
 40
0.282655072
 40
0.3144856419
 40
0.3463512002
 40
0.3782355679
 40
0.410122294
 40
0.4419948937
 40
0.4738370863
 40
0.5056330312
 40
0.53736756
 40
0.5690264007
 40
0.6005963932
 40
0.6320656925
 40
0.6634239571
 40
0.6946625198
 40
0.7257745376
 40
0.7567551192
 40
0.787601425
 40
0.8183127388
 40
0.8336201034
 40
0.8488944429
 40
0.8641362803
 40
0.8793462646
 40
0.8945251849
 40
0.9096739516
 40
0.9247936089
 40
0.939885318
 40
0.9549503624
 40
0.9699901378
 40
0.9850061475
 40
1.0
 40
1.0
 40
1.0
 40
1.0
 10
10.1272620915
 20
6.110202362
 30
0.0
 10
10.1128753332
 20
6.1112000871
 30
0.0
 10
10.0840954119
 20
6.1141103109
 30
0.0
 10
10.0411993997
 20
6.1211732817
 30
0.0
 10
9.998647098
 20
6.1309152733
 30
0.0
 10
9.9566107105
 20
6.1432970851
 30
0.0
 10
9.9152576095
 20
6.1582689871
 30
0.0
 10
9.8747531069
 20
6.1757710005
 30
0.0
 10
9.8352589215
 20
6.1957330294
 30
0.0
 10
9.7969327758
 20
6.218075201
 30
0.0
 10
9.7599277065
 20
6.2427081595
 30
0.0
 10
9.7243914781
 20
6.2695334314
 30
0.0
 10
9.6904659927
 20
6.2984438135
 30
0.0
 10
9.6582867302
 20
6.3293238001
 30
0.0
 10
9.6279822084
 20
6.3620500388
 30
0.0
 10
9.5996734737
 20
6.39649182
 30
0.0
 10
9.5734736234
 20
6.4325115981
 30
0.0
 10
9.5494873562
 20
6.4699655357
 30
0.0
 10
9.5278105569
 20
6.5087040729
 30
0.0
 10
9.508529915
 20
6.54857252
 30
0.0
 10
9.4917225799
 20
6.5894116684
 30
0.0
 10
9.4774558525
 20
6.6310584228
 30
0.0
 10
9.4657869151
 20
6.6733464363
 30
0.0
 10
9.4567626052
 20
6.7161068047
 30
0.0
 10
9.4504192087
 20
6.7591685972
 30
0.0
 10
9.4467823697
 20
6.8023600416
 30
0.0
 10
9.445866756
 20
6.8455073162
 30
0.0
 10
9.4473768202
 20
6.8813262598
 30
0.0
 10
9.4499478458
 20
6.9097810928
 30
0.0
 10
9.45255161
 20
6.9309825559
 30
0.0
 10
9.4558301452
 20
6.9520440778
 30
0.0
 10
9.4597803419
 20
6.9729448434
 30
0.0
 10
9.4643980606
 20
6.9936639073
 30
0.0
 10
9.4696789107
 20
7.0141805146
 30
0.0
 10
9.4756173938
 20
7.0344741894
 30
0.0
 10
9.4822077907
 20
7.0545245754
 30
0.0
 10
9.4894433251
 20
7.074311649
 30
0.0
 10
9.4973169447
 20
7.0938156368
 30
0.0
 10
9.5058205415
 20
7.1130167865
 30
0.0
 10
9.5119085844
 20
7.1256123369
 30
0.0
 10
9.515054452
 20
7.1318523586
 30
0.0
  0
SPLINE
  5
344
100
AcDbEntity
  8
0
100
AcDbSpline
 62
7
  6
CONTINUOUS
 70
0
 71
3
 72
16
 73
12
 74
0
 42
0.0000001
 43
0.0000001
 44
0.0000000001
 40
0.0
 40
0.0
 40
0.0
 40
0.0
 40
0.1098867442
 40
0.2213937922
 40
0.336062747
 40
0.4553025398
 40
0.5170502154
 40
0.5803898679
 40
0.7123087269
 40
0.8519550591
 40
1.0
 40
1.0
 40
1.0
 40
1.0
 10
10.6219772099
 20
11.118054614
 30
0.0
 10
10.6219772183
 20
11.1185410873
 30
0.0
 10
10.6220397253
 20
11.1195223046
 30
0.0
 10
10.622319914
 20
11.1209870844
 30
0.0
 10
10.6227856425
 20
11.1224472079
 30
0.0
 10
10.6233212216
 20
11.1236444145
 30
0.0
 10
10.6238365676
 20
11.1245957968
 30
0.0
 10
10.624426671
 20
11.1255690586
 30
0.0
 10
10.6252835649
 20
11.1267815786
 30
0.0
 10
10.6264781329
 20
11.1282064386
 30
0.0
 10
10.6273665498
 20
11.1291207087
 30
0.0
 10
10.6278379501
 20
11.1295760465
 30
0.0
  0
SPLINE
  5
345
100
AcDbEntity
  8
0
100
AcDbSpline
 62
7
  6
CONTINUOUS
 70
0
 71
3
 72
45
 73
41
 74
0
 42
0.0000001
 43
0.0000001
 44
0.0000000001
 40
0.0
 40
0.0
 40
0.0
 40
0.0
 40
0.0309683894
 40
0.0620716346
 40
0.0933055625
 40
0.1246632933
 40
0.1561363015
 40
0.1877141408
 40
0.2193847681
 40
0.2511347029
 40
0.2829492547
 40
0.314812752
 40
0.3467087839
 40
0.3786204501
 40
0.4105306153
 40
0.442422167
 40
0.4742782721
 40
0.5060826313
 40
0.5378197274
 40
0.5694750654
 40
0.6010354009
 40
0.6324889548
 40
0.6638256106
 40
0.6950370903
 40
0.7261171076
 40
0.7570614934
 40
0.7878682908
 40
0.818537817
 40
0.8338238857
 40
0.8490768085
 40
0.8642972734
 40
0.8794860994
 40
0.8946442514
 40
0.9097728197
 40
0.9248730315
 40
0.9399462336
 40
0.9549938959
 40
0.9700176012
 40
0.9850190384
 40
1.0
 40
1.0
 40
1.0
 40
1.0
 10
10.1272620915
 20
6.1295208797
 30
0.0
 10
10.1130127344
 20
6.130509076
 30
0.0
 10
10.0845074444
 20
6.1334091194
 30
0.0
 10
10.0420295322
 20
6.1404821086
 30
0.0
 10
9.9999053164
 20
6.150258404
 30
0.0
 10
9.9583119139
 20
6.1626971313
 30
0.0
 10
9.9174213843
 20
6.1777463799
 30
0.0
 10
9.8774035586
 20
6.1953435096
 30
0.0
 10
9.8384244359
 20
6.2154152963
 30
0.0
 10
9.8006457451
 20
6.2378782988
 30
0.0
 10
9.7642242132
 20
6.262639179
 30
0.0
 10
9.7293109406
 20
6.2895950975
 30
0.0
 10
9.6960507745
 20
6.3186341348
 30
0.0
 10
9.6645817155
 20
6.3496357543
 30
0.0
 10
9.6350343457
 20
6.3824712959
 30
0.0
 10
9.6075312922
 20
6.4170045077
 30
0.0
 10
9.5821867234
 20
6.4530921085
 30
0.0
 10
9.5591058782
 20
6.4905843776
 30
0.0
 10
9.5383846321
 20
6.5293257699
 30
0.0
 10
9.5201091011
 20
6.5691555557
 30
0.0
 10
9.5043552847
 20
6.6099084802
 30
0.0
 10
9.4911887515
 20
6.6514154449
 30
0.0
 10
9.4806643635
 20
6.6935041916
 30
0.0
 10
9.4728260519
 20
6.7360000477
 30
0.0
 10
9.467706609
 20
6.7787265018
 30
0.0
 10
9.4653276248
 20
6.8215064544
 30
0.0
 10
9.4656990888
 20
6.8641609997
 30
0.0
 10
9.4683031499
 20
6.8994977564
 30
0.0
 10
9.4717583489
 20
6.9275209838
 30
0.0
 10
9.4750283589
 20
6.9483758463
 30
0.0
 10
9.4789761173
 20
6.9690672323
 30
0.0
 10
9.4835977193
 20
6.9895738883
 30
0.0
 10
9.4888881544
 20
7.0098744695
 30
0.0
 10
9.4948421659
 20
7.0299478351
 30
0.0
 10
9.5014533426
 20
7.0497731774
 30
0.0
 10
9.5087150343
 20
7.0693298255
 30
0.0
 10
9.5166195147
 20
7.0885974894
 30
0.0
 10
9.5251587456
 20
7.1075561612
 30
0.0
 10
9.5343236192
 20
7.1261858869
 30
0.0
 10
9.54084889
 20
7.1383819843
 30
0.0
 10
9.5442122241
 20
7.1444178537
 30
0.0
  0
SPLINE
  5
346
100
AcDbEntity
  8
0
100
AcDbSpline
 62
7
  6
CONTINUOUS
 70
0
 71
3
 72
41
 73
37
 74
0
 42
0.0000001
 43
0.0000001
 44
0.0000000001
 40
0.0
 40
0.0
 40
0.0
 40
0.0
 40
0.0309920313
 40
0.0621212134
 40
0.0933832076
 40
0.124770788
 40
0.1562750184
 40
0.1878849538
 40
0.219587984
 40
0.2513700093
 40
0.2832156847
 40
0.3151086663
 40
0.3470318719
 40
0.3789677491
 40
0.4108985493
 40
0.4428066024
 40
0.4746745921
 40
0.5064858259
 40
0.5382244999
 40
0.5698759517
 40
0.6014269021
 40
0.6328656792
 40
0.6641824231
 40
0.6953692666
 40
0.726420489
 40
0.7573326386
 40
0.7881046217
 40
0.8187377527
 40
0.8492357641
 40
0.8796047738
 40
0.9098532066
 40
0.9399916706
 40
0.9550257753
 40
0.9700372768
 40
0.9850280347
 40
1.0
 40
1.0
 40
1.0
 40
1.0
 10
10.1393658504
 20
6.1672922125
 30
0.0
 10
10.125445891
 20
6.168257565
 30
0.0
 10
10.0975993524
 20
6.1711059362
 30
0.0
 10
10.0561108537
 20
6.1780829917
 30
0.0
 10
10.014979661
 20
6.1877443023
 30
0.0
 10
9.974384607
 20
6.2000481028
 30
0.0
 10
9.9344993502
 20
6.214941287
 30
0.0
 10
9.8954951923
 20
6.2323597491
 30
0.0
 10
9.8575394416
 20
6.2522285378
 30
0.0
 10
9.8207949489
 20
6.274462241
 30
0.0
 10
9.7854193474
 20
6.2989653265
 30
0.0
 10
9.7515644037
 20
6.3256325604
 30
0.0
 10
9.7193753628
 20
6.3543494475
 30
0.0
 10
9.6889903316
 20
6.3849927228
 30
0.0
 10
9.6605396951
 20
6.4174308807
 30
0.0
 10
9.6341455604
 20
6.4515247338
 30
0.0
 10
9.6099212371
 20
6.4871280055
 30
0.0
 10
9.5879707547
 20
6.5240879517
 30
0.0
 10
9.5683884183
 20
6.56224601
 30
0.0
 10
9.5512584059
 20
6.6014384731
 30
0.0
 10
9.5366544082
 20
6.6414971837
 30
0.0
 10
9.5246393099
 20
6.6822502483
 30
0.0
 10
9.5152649109
 20
6.7235227649
 30
0.0
 10
9.5085717092
 20
6.7651375694
 30
0.0
 10
9.5045887209
 20
6.8069159867
 30
0.0
 10
9.5033333498
 20
6.848678592
 30
0.0
 10
9.5048112996
 20
6.8902459647
 30
0.0
 10
9.5090165552
 20
6.9314394896
 30
0.0
 10
9.5159313306
 20
6.9720819843
 30
0.0
 10
9.5255263763
 20
7.0119989658
 30
0.0
 10
9.5377601788
 20
7.0510175213
 30
0.0
 10
9.5501226603
 20
7.0826749514
 30
0.0
 10
9.5612730398
 20
7.1073755972
 30
0.0
 10
9.5702512132
 20
7.1255608459
 30
0.0
 10
9.5798408758
 20
7.14339889
 30
0.0
 10
9.5866392499
 20
7.1550543071
 30
0.0
 10
9.5901364676
 20
7.1608168809
 30
0.0
  0
SPLINE
  5
347
100
AcDbEntity
  8
0
100
AcDbSpline
 62
7
  6
CONTINUOUS
 70
0
 71
3
 72
16
 73
12
 74
0
 42
0.0000001
 43
0.0000001
 44
0.0000000001
 40
0.0
 40
0.0
 40
0.0
 40
0.0
 40
0.1098867442
 40
0.2213937922
 40
0.336062747
 40
0.4553025398
 40
0.5170502154
 40
0.5803898679
 40
0.7123087269
 40
0.8519550591
 40
1.0
 40
1.0
 40
1.0
 40
1.0
 10
11.2980362602
 20
11.2190775633
 30
0.0
 10
11.2980362687
 20
11.2195640366
 30
0.0
 10
11.2980987756
 20
11.220545254
 30
0.0
 10
11.2983789644
 20
11.2220100337
 30
0.0
 10
11.2988446928
 20
11.2234701572
 30
0.0
 10
11.2993802719
 20
11.2246673638
 30
0.0
 10
11.2998956179
 20
11.2256187462
 30
0.0
 10
11.3004857213
 20
11.2265920079
 30
0.0
 10
11.3013426152
 20
11.2278045279
 30
0.0
 10
11.3025371832
 20
11.2292293879
 30
0.0
 10
11.3034256001
 20
11.2301436581
 30
0.0
 10
11.3038970005
 20
11.2305989959
 30
0.0
  0
SPLINE
  5
348
100
AcDbEntity
  8
0
100
AcDbSpline
 62
7
  6
CONTINUOUS
 70
0
 71
3
 72
15
 73
11
 74
0
 42
0.0000001
 43
0.0000001
 44
0.0000000001
 40
0.0
 40
0.0
 40
0.0
 40
0.0
 40
0.1237271768
 40
0.2477888437
 40
0.3722034582
 40
0.4969865103
 40
0.6221506324
 40
0.7477030398
 40
0.8736546484
 40
1.0
 40
1.0
 40
1.0
 40
1.0
 10
9.5815176917
 20
9.3567811214
 30
0.0
 10
9.5913376617
 20
9.3598395166
 30
0.0
 10
9.6111529279
 20
9.365497945
 30
0.0
 10
9.6412827456
 20
9.3725822131
 30
0.0
 10
9.6717988141
 20
9.3782604185
 30
0.0
 10
9.7026371602
 20
9.3825205955
 30
0.0
 10
9.7337340448
 20
9.3853539896
 30
0.0
 10
9.7650255974
 20
9.3867549905
 30
0.0
 10
9.7964459087
 20
9.3867205008
 30
0.0
 10
9.8174045877
 20
9.3857422133
 30
0.0
 10
9.8278822782
 20
9.385015583
 30
0.0
  0
SPLINE
  5
349
100
AcDbEntity
  8
0
100
AcDbSpline
 62
7
  6
CONTINUOUS
 70
0
 71
3
 72
43
 73
39
 74
0
 42
0.0000001
 43
0.0000001
 44
0.0000000001
 40
0.0
 40
0.0
 40
0.0
 40
0.0
 40
0.0309208999
 40
0.0619719382
 40
0.0931492336
 40
0.1244466138
 40
0.1558563492
 40
0.1873689818
 40
0.2189735887
 40
0.2506579172
 40
0.2824085804
 40
0.3142112515
 40
0.3460508712
 40
0.3779118618
 40
0.4097783469
 40
0.441634373
 40
0.4734641329
 40
0.5052521871
 40
0.5369836818
 40
0.5686445612
 40
0.6002217712
 40
0.6317034535
 40
0.6630791258
 40
0.694339848
 40
0.7254783687
 40
0.7564892527
 40
0.7873689835
 40
0.8181160413
 40
0.8334417892
 40
0.8487347374
 40
0.8639952784
 40
0.8792239244
 40
0.9095843587
 40
0.9398265142
 40
0.9549078207
 40
0.9699629192
 40
0.9849931622
 40
1.0
 40
1.0
 40
1.0
 40
1.0
 10
10.2116370305
 20
6.2371008161
 30
0.0
 10
10.198428841
 20
6.2380168072
 30
0.0
 10
10.1720067362
 20
6.2406748552
 30
0.0
 10
10.1326182558
 20
6.2470986047
 30
0.0
 10
10.0935351236
 20
6.2559428684
 30
0.0
 10
10.0549104135
 20
6.2671731817
 30
0.0
 10
10.0168929314
 20
6.2807459175
 30
0.0
 10
9.9796297507
 20
6.2966084543
 30
0.0
 10
9.9432648438
 20
6.3146993169
 30
0.0
 10
9.9079387466
 20
6.3349484572
 30
0.0
 10
9.8737879606
 20
6.3572775047
 30
0.0
 10
9.840944448
 20
6.3816000771
 30
0.0
 10
9.8095351204
 20
6.4078221096
 30
0.0
 10
9.7796813544
 20
6.4358422178
 30
0.0
 10
9.751498526
 20
6.4655520867
 30
0.0
 10
9.7250955674
 20
6.4968368868
 30
0.0
 10
9.7005745497
 20
6.5295757147
 30
0.0
 10
9.6780302905
 20
6.5636420566
 30
0.0
 10
9.6575499893
 20
6.5989042736
 30
0.0
 10
9.6392128926
 20
6.635226106
 30
0.0
 10
9.6230899884
 20
6.672467195
 30
0.0
 10
9.6092437318
 20
6.710483622
 30
0.0
 10
9.5977278032
 20
6.7491284514
 30
0.0
 10
9.5885869011
 20
6.7882523247
 30
0.0
 10
9.5818565565
 20
6.827703912
 30
0.0
 10
9.577563033
 20
6.8673309401
 30
0.0
 10
9.5757230714
 20
6.9069791101
 30
0.0
 10
9.5762413887
 20
6.9399484252
 30
0.0
 10
9.5778890388
 20
6.9661762787
 30
0.0
 10
9.5797368759
 20
6.9857374312
 30
0.0
 10
9.5821962681
 20
7.0051892493
 30
0.0
 10
9.5862831463
 20
7.0309254141
 30
0.0
 10
9.5929041908
 20
7.0627371277
 30
0.0
 10
9.6015368132
 20
7.0939978975
 30
0.0
 10
9.6096213926
 20
7.118558589
 30
0.0
 10
9.6162626047
 20
7.1367261301
 30
0.0
 10
9.6234798422
 20
7.1546378408
 30
0.0
 10
9.6286750377
 20
7.1664063414
 30
0.0
 10
9.6313660951
 20
7.1722414222
 30
0.0
  0
SPLINE
  5
34A
100
AcDbEntity
  8
0
100
AcDbSpline
 62
7
  6
CONTINUOUS
 70
0
 71
3
 72
43
 73
39
 74
0
 42
0.0000001
 43
0.0000001
 44
0.0000000001
 40
0.0
 40
0.0
 40
0.0
 40
0.0
 40
0.0309619525
 40
0.0620581762
 40
0.0932844104
 40
0.1246339522
 40
0.1560983675
 40
0.1876673563
 40
0.2193290349
 40
0.251070098
 40
0.2828760409
 40
0.3147313828
 40
0.3466199043
 40
0.3785248914
 40
0.4104293855
 40
0.4423164351
 40
0.4741693481
 40
0.5059719414
 40
0.5377087846
 40
0.5693654362
 40
0.6009286688
 40
0.6323866809
 40
0.6637292916
 40
0.6949481159
 40
0.7260367168
 40
0.7569907311
 40
0.7878079664
 40
0.8184884654
 40
0.8337801001
 40
0.8490386069
 40
0.8642646248
 40
0.8794589335
 40
0.9097520376
 40
0.9399309326
 40
0.9549830068
 40
0.9700107635
 40
0.985015848
 40
1.0
 40
1.0
 40
1.0
 40
1.0
 10
10.2303455612
 20
6.3249931186
 30
0.0
 10
10.2182210933
 20
6.3258339533
 30
0.0
 10
10.1939665824
 20
6.3282976876
 30
0.0
 10
10.1578211564
 20
6.3342989721
 30
0.0
 10
10.1219737467
 20
6.3425895533
 30
0.0
 10
10.0865736397
 20
6.3531350685
 30
0.0
 10
10.0517658325
 20
6.3658919603
 30
0.0
 10
10.0176934943
 20
6.3808076378
 30
0.0
 10
9.9844965877
 20
6.3978206407
 30
0.0
 10
9.9523115126
 20
6.4168609295
 30
0.0
 10
9.9212704931
 20
6.4378501561
 30
0.0
 10
9.8915010559
 20
6.4607019915
 30
0.0
 10
9.8631255061
 20
6.4853224762
 30
0.0
 10
9.8362604307
 20
6.5116104054
 30
0.0
 10
9.8110162232
 20
6.5394577416
 30
0.0
 10
9.7874966334
 20
6.5687500553
 30
0.0
 10
9.765798344
 20
6.5993669917
 30
0.0
 10
9.7460105763
 20
6.6311827613
 30
0.0
 10
9.7282147251
 20
6.6640666519
 30
0.0
 10
9.712484026
 20
6.6978835613
 30
0.0
 10
9.6988832551
 20
6.7324945462
 30
0.0
 10
9.6874684628
 20
6.7677573898
 30
0.0
 10
9.6782867414
 20
6.8035271717
 30
0.0
 10
9.6713760338
 20
6.8396568891
 30
0.0
 10
9.6667649585
 20
6.8759979361
 30
0.0
 10
9.6644727429
 20
6.9124011495
 30
0.0
 10
9.6645089336
 20
6.948715779
 30
0.0
 10
9.6664821259
 20
6.9788165658
 30
0.0
 10
9.6692234615
 20
7.0026983096
 30
0.0
 10
9.6718547152
 20
7.0204766196
 30
0.0
 10
9.6750608596
 20
7.038121489
 30
0.0
 10
9.6800919265
 20
7.0614201053
 30
0.0
 10
9.6877976884
 20
7.090128652
 30
0.0
 10
9.6973815933
 20
7.118207447
 30
0.0
 10
9.7061418157
 20
7.140182994
 30
0.0
 10
9.7132464586
 20
7.1563954793
 30
0.0
 10
9.7208831403
 20
7.1723342739
 30
0.0
 10
9.726327681
 20
7.1827743233
 30
0.0
 10
9.7291357109
 20
7.1879425183
 30
0.0
  0
ELLIPSE
  5
34B
100
AcDbEntity
  8
0
100
AcDbEllipse
 62
7
  6
CONTINUOUS
 10
11.1843002696
 20
10.9430774179
 30
0.0
 11
0.1631326389
 21
0.0044606814
 31
0.0
 40
0.2609534473
 41
3.8497139719
 42
4.0316912343
  0
ELLIPSE
  5
34C
100
AcDbEntity
  8
0
100
AcDbEllipse
 62
7
  6
CONTINUOUS
 10
11.1843002696
 20
10.9430774179
 30
0.0
 11
0.1631326389
 21
0.0044606814
 31
0.0
 40
0.2609534473
 41
0.7081213183
 42
0.8900985808
  0
ENDSEC
  0
SECTION
  2
OBJECTS
  0
DICTIONARY
  5
C
100
AcDbDictionary
280
0
281
1
  3
ACAD_GROUP
350
D
  3
ACAD_MLINESTYLE
350
17
  3
ACAD_LAYOUT
350
1A
  3
ACAD_PLOTSETTINGS
350
19
  3
ACAD_PLOTSTYLENAME
350
E
  3
ACAD_IMAGE_DICT
350
       34E
  3
ACAD_IMAGE_VARS
350
       34F
  3
ACAD_TABLESTYLE
350
       350
  0
IMAGEDEF_REACTOR
  5
34D
100
AcDbRasterImageDefReactor
 90
2
330
26E
  0
DICTIONARY
  5
D
102
{ACAD_REACTORS
330
C
102
}
100
AcDbDictionary
280
0
281
1
  0
ACDBDICTIONARYWDFLT
  5
E
102
{ACAD_REACTORS
330
C
102
}
100
AcDbDictionary
281
1
  3
Normal
350
F
100
AcDbDictionaryWithDefault
340
F
  0
DICTIONARY
  5
34E
330
C
100
AcDbDictionary
281
1
  3
Z9P_assy_2_img_1
350
       353
  0
RASTERVARIABLES
  5
34F
330
C
100
AcDbRasterVariables
 90
0
 70
0
 71
1
 72
5
  0
DICTIONARY
  5
17
102
{ACAD_REACTORS
330
C
102
}
100
AcDbDictionary
280
0
281
1
  3
Standard
350
18
  0
DICTIONARY
  5
350
330
C
100
AcDbDictionary
281
1
  3
Standard
350
       354
  3
Standard1
350
       355
  0
DICTIONARY
  5
19
102
{ACAD_REACTORS
330
C
102
}
100
AcDbDictionary
281
1
  0
DICTIONARY
  5
1A
102
{ACAD_REACTORS
330
C
102
}
100
AcDbDictionary
281
1
  3
Model
350
351
  3
Layout1
350
352
  0
ACDBPLACEHOLDER
  5
F
102
{ACAD_REACTORS
330
E
102
}
  0
MLINESTYLE
  5
18
102
{ACAD_REACTORS
330
17
102
}
100
AcDbMlineStyle
  2
STANDARD
 70
0
  3

 62
256
 51
90.0
 52
90.0
 71
2
 49
0.5
 62
256
  6
BYLAYER
 49
-0.5
 62
256
  6
BYLAYER
  0
LAYOUT
  5
351
102
{ACAD_REACTORS
330
1A
102
}
100
AcDbPlotSettings
  1

  2
none_device
  4
ANSI_C_(22.00_x_17.00_Inches)
  6

 40
0.0
 41
0.0
 42
0.0
 43
0.0
 44
558.8
 45
431.8
 46
0.0
 47
0.0
 48
0.0
 49
0.0
140
0.0
141
0.0
142
1.0
143
1.0
 70
1024
 72
0
 73
0
 74
0
  7

 75
0
147
1.0
148
0.0
149
0.0
100
AcDbLayout
  1
Model
 70
0
 71
0
 10
0.0
 20
0.0
 11
22.0
 21
17.0
 12
0.0
 22
0.0
 32
0.0
 14
0.0
 24
0.0
 34
0.0
 15
0.0
 25
0.0
 35
0.0
146
0.0
 13
0.0
 23
0.0
 33
0.0
 16
1.0
 26
0.0
 36
0.0
 17
0.0
 27
1.0
 37
0.0
 76
0
330
20F
345
0
346
0
  0
LAYOUT
  5
352
102
{ACAD_REACTORS
330
1A
102
}
100
AcDbPlotSettings
  1

  2
none_device
  4
ANSI_C_(22.00_x_17.00_Inches)
  6

 40
0.0
 41
0.0
 42
0.0
 43
0.0
 44
558.8
 45
431.8
 46
0.0
 47
0.0
 48
0.0
 49
0.0
140
0.0
141
0.0
142
1.0
143
1.0
 70
0
 72
0
 73
0
 74
0
  7

 75
0
147
1.0
148
0.0
149
0.0
100
AcDbLayout
  1
Layout1
 70
0
 71
1
 10
0.0
 20
0.0
 11
22.0
 21
17.0
 12
0.0
 22
0.0
 32
0.0
 14
0.0
 24
0.0
 34
0.0
 15
0.0
 25
0.0
 35
0.0
146
0.0
 13
0.0
 23
0.0
 33
0.0
 16
1.0
 26
0.0
 36
0.0
 17
0.0
 27
1.0
 37
0.0
 76
0
330
210
345
0
346
0
  0
IMAGEDEF
  5
353
102
{ACAD_REACTORS
330
34E
330
34D
102
}
100
AcDbRasterImageDef
 90
0
  1
Z9P_assy_2_img_1.png
 10
369.0
 20
92.0
 11
0.0066666667
 21
0.0066666667
280
1
281
0
  0
TABLESTYLE
  5
354
102
{ACAD_REACTORS
330
350
330
271
102
}
330
350
100
AcDbTableStyle
  3
Standard
 70
0
 71
0
 40
0.06
 41
0.06
280
1
281
1
  7
Standard
140
0.18
170
1
 62
0
 63
7
283
0
  7
Standard
140
0.18
170
1
 62
0
 63
7
283
0
  7
Standard
140
0.18
170
1
 62
0
 63
7
283
0
  0
TABLESTYLE
  5
355
102
{ACAD_REACTORS
330
350
330
270
102
}
330
350
100
AcDbTableStyle
  3
Standard1
 70
1
 71
0
 40
0.06
 41
0.06
280
1
281
1
  7
Standard
140
0.18
170
1
 62
0
 63
7
283
0
  7
Standard
140
0.18
170
1
 62
0
 63
7
283
0
  7
Standard
140
0.18
170
1
 62
0
 63
7
283
0
  0
ENDSEC
  0
EOF
