999
DXF file: Z8Q_assy_2.dxf
999
Pro/ENGINEER 2014200 by Parametric Technology Corporation
  0
SECTION
  2
HEADER
  9
$ACADVER
  1
AC1021
  9
$DWGCODEPAGE
  3
ANSI_1252
  9
$EXTMAX
 10
22.0
 20
17.0
 30
0.0
  9
$EXTMIN
 10
0.0
 20
0.0
 30
0.0
  9
$LIMMIN
 10
0.0
 20
0.0
  9
$LIMMAX
 10
22.0
 20
17.0
  9
$VIEWCTR
 10
11.0
 20
8.5
  9
$VIEWSIZE
 40
17.0
  9
$CLAYER
  8
0
  9
$LTSCALE
 40
1.21
  9
$CELTYPE
  6
BYLAYER
  9
$DIMSCALE
 40
1.0
  9
$DIMASZ
 40
0.1875
  9
$DIMEXO
 40
0.0625
  9
$DIMDLI
 40
0.836
  9
$DIMEXE
 40
0.125
  9
$DIMCEN
 40
0.198
  9
$DIMLFAC
 40
1.0
  9
$DIMBLK
  1
_FILLED
  9
$DIMTXT
 40
0.1
  9
$DIMTOL
 70
0
  9
$DIMLIM
 70
0
  9
$DIMTFAC
 40
1.0
  9
$DIMGAP
 40
0.09
  9
$DIMDSEP
 70
46
  9
$AUNITS
 70
0
  9
$PDMODE
 70
3
  9
$PDSIZE
 40
0.3125
  9
$HANDSEED
  5
435
  9
$TILEMODE
 70
1
  9
$MEASUREMENT
 70
0
  9
$INSUNITS
 70
1
  0
ENDSEC
  0
SECTION
  2
CLASSES
  0
CLASS
  1
ACDBDICTIONARYWDFLT
  2
AcDbDictionaryWithDefault
  3
AutoCAD 2000
 90
0
 91
1
280
0
281
0
  0
CLASS
  1
ACDBPLACEHOLDER
  2
AcDbPlaceHolder
  3
AutoCAD 2000
 90
0
 91
1
280
0
281
0
  0
CLASS
  1
LAYOUT
  2
AcDbLayout
  3
AutoCAD 2000
 90
0
 91
0
280
0
281
0
  0
CLASS
  1
RASTERVARIABLES
  2
AcDbRasterVariables
  3
ISM
 90
0
 91
1
280
0
281
0
  0
CLASS
  1
IMAGEDEF
  2
AcDbRasterImageDef
  3
ISM
 90
0
 91
1
280
0
281
0
  0
CLASS
  1
IMAGEDEF_REACTOR
  2
AcDbRasterImageDefReactor
  3
ISM
 90
0
 91
1
280
0
281
0
  0
CLASS
  1
IMAGE
  2
AcDbRasterImage
  3
ISM
 90
127
 91
1
280
0
281
1
  0
CLASS
  1
TABLESTYLE
  2
AcDbTableStyle
  3
ObjectDBX Classes
 90
2047
 91
1
280
0
281
0
  0
CLASS
  1
ACAD_TABLE
  2
AcDbTable
  3
ObjectDBX Classes
 90
1025
 91
2
280
0
281
1
  0
ENDSEC
  0
SECTION
  2
TABLES
  0
TABLE
  2
VPORT
  5
8
100
AcDbSymbolTable
 70
2
  0
VPORT
  5
1F4
100
AcDbSymbolTableRecord
100
AcDbViewportTableRecord
  2
*ACTIVE
 70
0
 10
0.0
 20
0.0
 11
1.0
 21
1.0
 12
11.0
 22
8.5
 13
0.0
 23
0.0
 14
1.0
 24
1.0
 15
0.0
 25
0.0
 16
0.0
 26
0.0
 36
1.0
 17
0.0
 27
0.0
 37
0.0
 40
17.0
 41
1.2941176471
 42
50.0
 43
0.0
 44
0.0
 50
0.0
 51
0.0
 71
0
 72
100
 73
1
 74
1
 75
0
 76
0
 77
0
 78
0
  0
ENDTAB
  0
TABLE
  2
LTYPE
  5
5
100
AcDbSymbolTable
 70
6
  0
LTYPE
  5
14
100
AcDbSymbolTableRecord
100
AcDbLinetypeTableRecord
  2
BYBLOCK
 70
0
  3

 72
65
 73
0
 40
0.0
  0
LTYPE
  5
15
100
AcDbSymbolTableRecord
100
AcDbLinetypeTableRecord
  2
BYLAYER
 70
0
  3

 72
65
 73
0
 40
0.0
  0
LTYPE
  5
16
100
AcDbSymbolTableRecord
100
AcDbLinetypeTableRecord
  2
CONTINUOUS
 70
64
  3
Solid line
 72
65
 73
0
 40
0.0
  0
LTYPE
  5
1F5
100
AcDbSymbolTableRecord
100
AcDbLinetypeTableRecord
  2
CENTER
 70
64
  3
____ _ ____ _ ____ _ ____ _ ____ _ ____ _ ____
 72
65
 73
4
 40
0.6
 49
0.375
 74
0
 49
-0.075
 74
0
 49
0.075
 74
0
 49
-0.075
 74
0
  0
LTYPE
  5
1F6
100
AcDbSymbolTableRecord
100
AcDbLinetypeTableRecord
  2
HIDDEN
 70
64
  3
- - - - - - - - - - - - - - - - - - - -
 72
65
 73
2
 40
0.2
 49
0.1
 74
0
 49
-0.1
 74
0
  0
LTYPE
  5
1F7
100
AcDbSymbolTableRecord
100
AcDbLinetypeTableRecord
  2
PHANTOM
 70
64
  3
_____ _ _ _____ _ _ _____ _ _ _____
 72
65
 73
6
 40
0.8
 49
0.45
 74
0
 49
-0.05
 74
0
 49
0.1
 74
0
 49
-0.05
 74
0
 49
0.1
 74
0
 49
-0.05
 74
0
  0
LTYPE
  5
1F8
100
AcDbSymbolTableRecord
100
AcDbLinetypeTableRecord
  2
DOT
 70
64
  3
. . . . . . . . . . . . . . . . . . . .
 72
65
 73
2
 40
0.2
 49
0.1
 74
0
 49
-0.1
 74
0
  0
LTYPE
  5
1F9
100
AcDbSymbolTableRecord
100
AcDbLinetypeTableRecord
  2
DASHED
 70
64
  3
- - - - - - - - - - - - - - - - - - - -
 72
65
 73
2
 40
0.2
 49
0.1
 74
0
 49
-0.1
 74
0
  0
ENDTAB
  0
TABLE
  2
LAYER
  5
2
100
AcDbSymbolTable
 70
36
  0
LAYER
  5
10
100
AcDbSymbolTableRecord
100
AcDbLayerTableRecord
  2
0
 70
0
 62
7
  6
CONTINUOUS
370
-3
390
F
  0
LAYER
  5
1FA
100
AcDbSymbolTableRecord
100
AcDbLayerTableRecord
  2
DEFAULT_1
 70
0
 62
7
  6
CENTER
370
-3
390
F
  0
LAYER
  5
1FB
100
AcDbSymbolTableRecord
100
AcDbLayerTableRecord
  2
DEFAULT_2
 70
0
 62
8
  6
HIDDEN
370
-3
390
F
  0
LAYER
  5
1FC
100
AcDbSymbolTableRecord
100
AcDbLayerTableRecord
  2
DEFAULT_3
 70
0
 62
7
  6
PHANTOM
370
-3
390
F
  0
LAYER
  5
1FD
100
AcDbSymbolTableRecord
100
AcDbLayerTableRecord
  2
DATUM_PLANES
 70
0
 62
7
  6
CONTINUOUS
370
-3
390
F
  0
LAYER
  5
1FE
100
AcDbSymbolTableRecord
100
AcDbLayerTableRecord
  2
PORT_AREAS
 70
0
 62
7
  6
CONTINUOUS
370
-3
390
F
  0
LAYER
  5
1FF
100
AcDbSymbolTableRecord
100
AcDbLayerTableRecord
  2
SUNNBOMCOSMETIC
 70
0
 62
7
  6
CONTINUOUS
370
-3
390
F
  0
LAYER
  5
200
100
AcDbSymbolTableRecord
100
AcDbLayerTableRecord
  2
SUNNBOMSTAMPING
 70
0
 62
7
  6
CONTINUOUS
370
-3
390
F
  0
LAYER
  5
201
100
AcDbSymbolTableRecord
100
AcDbLayerTableRecord
  2
THREADS
 70
0
 62
7
  6
CONTINUOUS
370
-3
390
F
  0
ENDTAB
  0
TABLE
  2
STYLE
  5
3
100
AcDbSymbolTable
 70
1
  0
STYLE
  5
11
100
AcDbSymbolTableRecord
100
AcDbTextStyleTableRecord
  2
STANDARD
 70
0
 40
0.0
 41
0.8
 50
0.0
 71
0
 42
0.2
  3
txt
  4

  0
STYLE
  5
202
100
AcDbSymbolTableRecord
100
AcDbTextStyleTableRecord
  2
TEXTSTYLE_1
 70
0
 40
0.0
 41
0.8
 50
0.0
 71
0
 42
0.2
  3
gdt
  4

  0
ENDTAB
  0
TABLE
  2
VIEW
  5
6
100
AcDbSymbolTable
 70
0
  0
ENDTAB
  0
TABLE
  2
UCS
  5
7
100
AcDbSymbolTable
 70
0
  0
ENDTAB
  0
TABLE
  2
APPID
  5
9
100
AcDbSymbolTable
 70
1
  0
APPID
  5
203
100
AcDbSymbolTableRecord
100
AcDbRegAppTableRecord
  2
ACAD
 70
0
  0
ENDTAB
  0
TABLE
  2
BLOCK_RECORD
  5
1
100
AcDbSymbolTable
 70
0
  0
BLOCK_RECORD
  5
204
100
AcDbSymbolTableRecord
100
AcDbBlockTableRecord
  2
*Model_Space
  0
BLOCK_RECORD
  5
205
100
AcDbSymbolTableRecord
100
AcDbBlockTableRecord
  2
*Paper_Space
  0
BLOCK_RECORD
  5
206
100
AcDbSymbolTableRecord
100
AcDbBlockTableRecord
  2
SUN_FIRST_THIRD_ANGLE_BL0
  0
BLOCK_RECORD
  5
207
100
AcDbSymbolTableRecord
100
AcDbBlockTableRecord
  2
*T1
  0
BLOCK_RECORD
  5
208
100
AcDbSymbolTableRecord
100
AcDbBlockTableRecord
  2
*T2
  0
ENDTAB
  0
TABLE
  2
DIMSTYLE
  5
A
100
AcDbSymbolTable
 70
1
100
AcDbDimStyleTable
 71
0
  0
DIMSTYLE
105
209
100
AcDbSymbolTableRecord
100
AcDbDimStyleTableRecord
  2
STANDARD
 70
0
  3

  4

 40
1.0
 41
0.1875
 42
0.0625
 43
0.38
 44
0.125
 45
0.0
 46
0.0
 47
0.001
 48
0.001
140
0.1
141
0.09
142
0.0
143
25.4
144
1.0
145
0.0
146
1.0
147
0.09
 71
0.0
 72
0.0
 73
1
 74
1
 75
0
 76
0
 77
0
 78
4
170
0
171
2
172
0
173
0
174
0
175
0
176
0
177
0
178
0
270
2
271
3
272
3
273
2
274
2
275
0
280
0
281
0
282
0
283
1
284
4
285
0
286
0
287
3
288
0
340
11
278
46
  0
ENDTAB
  0
ENDSEC
  0
SECTION
  2
BLOCKS
  0
BLOCK
  5
20
100
AcDbEntity
  8
0
100
AcDbBlockBegin
  2
*Model_Space
 70
0
 10
0.0
 20
0.0
 30
0.0
  3
*Model_Space
  1

  0
ENDBLK
  5
21
100
AcDbEntity
  8
0
100
AcDbBlockEnd
  0
BLOCK
  5
1C
100
AcDbEntity
  8
0
100
AcDbBlockBegin
  2
*Paper_Space
 70
0
 10
0.0
 20
0.0
 30
0.0
  3
*Paper_Space
  1

  0
ENDBLK
  5
1D
100
AcDbEntity
  8
0
100
AcDbBlockEnd
  0
BLOCK
  5
20A
100
AcDbEntity
  8
0
100
AcDbBlockBegin
 62
2
  6
CONTINUOUS
  2
SUN_FIRST_THIRD_ANGLE_BL0
 70
64
 10
20.4816717061
 20
1.2289683772
  3
SUN_FIRST_THIRD_ANGLE_BL0
  1

  0
TEXT
  5
20B
100
AcDbEntity
  8
0
100
AcDbText
 62
2
  6
CONTINUOUS
 10
19.4750896608
 20
1.4136269581
  7
STANDARD
 40
0.08
  1
FIRST ANGLE
 41
0.8
 72
0
100
AcDbText
  0
TEXT
  5
20C
100
AcDbEntity
  8
0
100
AcDbText
 62
2
  6
CONTINUOUS
 10
20.7842537513
 20
1.4047600029
  7
STANDARD
 40
0.08
  1
THIRD ANGLE
 41
0.8
 72
0
100
AcDbText
  0
LINE
  5
20D
100
AcDbEntity
  8
0
100
AcDbLine
 62
7
  6
CONTINUOUS
 10
19.4767170086
 20
1.1727031207
 11
19.6334271527
 21
1.1717972817
  0
LINE
  5
20E
100
AcDbEntity
  8
0
100
AcDbLine
 62
7
  6
CONTINUOUS
 10
19.6596964832
 20
1.1717972817
 11
19.6950230232
 21
1.171593082
  0
LINE
  5
20F
100
AcDbEntity
  8
0
100
AcDbLine
 62
7
  6
CONTINUOUS
 10
19.7194818561
 20
1.1708914427
 11
19.8852396156
 21
1.1699333054
  0
LINE
  5
210
100
AcDbEntity
  8
0
100
AcDbLine
 62
7
  6
CONTINUOUS
 10
19.4758111696
 20
1.2723454088
 11
19.88525039
 21
1.3511534004
  0
LINE
  5
211
100
AcDbEntity
  8
0
100
AcDbLine
 62
7
  6
CONTINUOUS
 10
19.88525039
 20
1.3511534004
 11
19.8831348489
 21
0.9851647912
  0
LINE
  5
212
100
AcDbEntity
  8
0
100
AcDbLine
 62
7
  6
CONTINUOUS
 10
19.8831348489
 20
0.9851647912
 11
19.4767170086
 21
1.0658141206
  0
LINE
  5
213
100
AcDbEntity
  8
0
100
AcDbLine
 62
7
  6
CONTINUOUS
 10
19.4767170086
 20
1.0658141206
 11
19.4779056764
 21
1.2714536432
  0
CIRCLE
  5
214
100
AcDbEntity
  8
0
100
AcDbCircle
 62
7
  6
CONTINUOUS
 10
20.2068232291
 20
1.1717972817
 40
0.175742101
  0
CIRCLE
  5
215
100
AcDbEntity
  8
0
100
AcDbCircle
 62
7
  6
CONTINUOUS
 10
20.2068232291
 20
1.1717972817
 40
0.1005522074
  0
LINE
  5
216
100
AcDbEntity
  8
0
100
AcDbLine
 62
7
  6
CONTINUOUS
 10
20.2077290681
 20
1.3756110529
 11
20.2071171714
 21
1.2379342989
  0
LINE
  5
217
100
AcDbEntity
  8
0
100
AcDbLine
 62
7
  6
CONTINUOUS
 10
20.2077290681
 20
1.2016899681
 11
20.2074674401
 21
1.1428236749
  0
LINE
  5
218
100
AcDbEntity
  8
0
100
AcDbLine
 62
7
  6
CONTINUOUS
 10
20.208634907
 20
1.101141841
 11
20.2080230104
 21
0.963465087
  0
LINE
  5
219
100
AcDbEntity
  8
0
100
AcDbLine
 62
7
  6
CONTINUOUS
 10
20.0066328138
 20
1.1745147986
 11
20.1443095678
 21
1.1739029019
  0
LINE
  5
21A
100
AcDbEntity
  8
0
100
AcDbLine
 62
7
  6
CONTINUOUS
 10
20.1832714155
 20
1.1727031207
 11
20.238153505
 21
1.172335442
  0
LINE
  5
21B
100
AcDbEntity
  8
0
100
AcDbLine
 62
7
  6
CONTINUOUS
 10
20.2756669918
 20
1.1717972817
 11
20.407916871
 21
1.1712095044
  0
CIRCLE
  5
21C
100
AcDbEntity
  8
0
100
AcDbCircle
 62
7
  6
CONTINUOUS
 10
20.7509457401
 20
1.1693297793
 40
0.1722024983
  0
CIRCLE
  5
21D
100
AcDbEntity
  8
0
100
AcDbCircle
 62
7
  6
CONTINUOUS
 10
20.7509457401
 20
1.1693297793
 40
0.0985164967
  0
LINE
  5
21E
100
AcDbEntity
  8
0
100
AcDbLine
 62
7
  6
CONTINUOUS
 10
20.7169767782
 20
1.170462078
 11
20.7825395137
 21
1.1682766535
  0
LINE
  5
21F
100
AcDbEntity
  8
0
100
AcDbLine
 62
7
  6
CONTINUOUS
 10
20.8177513651
 20
1.1693297793
 11
20.947965719
 21
1.1693297793
  0
LINE
  5
220
100
AcDbEntity
  8
0
100
AcDbLine
 62
7
  6
CONTINUOUS
 10
20.6875370113
 20
1.170462078
 11
20.5573226574
 21
1.170462078
  0
LINE
  5
221
100
AcDbEntity
  8
0
100
AcDbLine
 62
7
  6
CONTINUOUS
 10
20.7486811426
 20
1.1987695462
 11
20.7486811426
 21
1.1432869085
  0
LINE
  5
222
100
AcDbEntity
  8
0
100
AcDbLine
 62
7
  6
CONTINUOUS
 10
20.7498134414
 20
1.1059210505
 11
20.7498134414
 21
0.9757066966
  0
LINE
  5
223
100
AcDbEntity
  8
0
100
AcDbLine
 62
7
  6
CONTINUOUS
 10
20.7486811426
 20
1.2338708068
 11
20.7486811426
 21
1.3640851607
  0
LINE
  5
224
100
AcDbEntity
  8
0
100
AcDbLine
 62
7
  6
CONTINUOUS
 10
21.0702539817
 20
1.2701043662
 11
21.4790138229
 21
1.3448360823
  0
LINE
  5
225
100
AcDbEntity
  8
0
100
AcDbLine
 62
7
  6
CONTINUOUS
 10
21.4790138229
 20
1.3448360823
 11
21.4790138229
 21
0.9779712941
  0
LINE
  5
226
100
AcDbEntity
  8
0
100
AcDbLine
 62
7
  6
CONTINUOUS
 10
21.4790138229
 20
0.9779712941
 11
21.069121683
 21
1.0617614
  0
LINE
  5
227
100
AcDbEntity
  8
0
100
AcDbLine
 62
7
  6
CONTINUOUS
 10
21.0702539817
 20
1.2701043662
 11
21.069121683
 21
1.0617614
  0
LINE
  5
228
100
AcDbEntity
  8
0
100
AcDbLine
 62
7
  6
CONTINUOUS
 10
21.4790138229
 20
1.1693297793
 11
21.3159628059
 21
1.1693297793
  0
LINE
  5
229
100
AcDbEntity
  8
0
100
AcDbLine
 62
7
  6
CONTINUOUS
 10
21.2876553377
 20
1.1693297793
 11
21.2502894796
 21
1.1693297793
  0
LINE
  5
22A
100
AcDbEntity
  8
0
100
AcDbLine
 62
7
  6
CONTINUOUS
 10
21.2208497126
 20
1.1659328831
 11
21.0713862804
 21
1.1659328831
  0
LINE
  5
22B
100
AcDbEntity
  8
0
100
AcDbLine
 62
7
  6
CONTINUOUS
 10
20.4796138713
 20
1.5284908897
 11
20.4766766948
 21
0.9294458646
  0
ENDBLK
  5
22C
100
AcDbEntity
  8
0
  6
BYBLOCK
 62
0
100
AcDbBlockEnd
  0
BLOCK
  5
22D
100
AcDbEntity
  8
0
100
AcDbBlockBegin
  2
*T1
 70
1
 10
0.0
 20
0.0
  3
*T1
  1

  0
LINE
  5
22E
100
AcDbEntity
  8
0
100
AcDbLine
 62
2
  6
CONTINUOUS
 10
9.275
 20
0.0
 11
-0.0
 21
0.0
  0
LINE
  5
22F
100
AcDbEntity
  8
0
100
AcDbLine
 62
2
  6
CONTINUOUS
 10
9.275
 20
0.0
 11
9.275
 21
1.25
  0
LINE
  5
230
100
AcDbEntity
  8
0
100
AcDbLine
 62
2
  6
CONTINUOUS
 10
9.275
 20
0.625
 11
-0.0
 21
0.625
  0
LINE
  5
231
100
AcDbEntity
  8
0
100
AcDbLine
 62
2
  6
CONTINUOUS
 10
9.275
 20
1.25
 11
-0.0
 21
1.25
  0
LINE
  5
232
100
AcDbEntity
  8
0
100
AcDbLine
 62
2
  6
CONTINUOUS
 10
6.8
 20
0.0
 11
6.8
 21
1.25
  0
LINE
  5
233
100
AcDbEntity
  8
0
100
AcDbLine
 62
2
  6
CONTINUOUS
 10
6.4
 20
0.0
 11
6.4
 21
0.625
  0
LINE
  5
234
100
AcDbEntity
  8
0
100
AcDbLine
 62
2
  6
CONTINUOUS
 10
5.9
 20
0.0
 11
5.9
 21
0.625
  0
LINE
  5
235
100
AcDbEntity
  8
0
100
AcDbLine
 62
2
  6
CONTINUOUS
 10
5.2
 20
0.0
 11
5.2
 21
0.625
  0
LINE
  5
236
100
AcDbEntity
  8
0
100
AcDbLine
 62
2
  6
CONTINUOUS
 10
4.1
 20
0.0
 11
4.1
 21
1.25
  0
LINE
  5
237
100
AcDbEntity
  8
0
100
AcDbLine
 62
2
  6
CONTINUOUS
 10
-0.0
 20
0.0
 11
-0.0
 21
1.25
  0
MTEXT
  5
238
100
AcDbEntity
  8
0
100
AcDbMText
 62
2
  6
CONTINUOUS
  7
STANDARD
 71
2
 72
1
 10
6.6
 20
0.325
 30
0.0
 11
1.0
 21
0.0
 31
0.0
 44
0.9
  1
2
 40
0.125
 41
0.2
  0
MTEXT
  5
239
100
AcDbEntity
  8
0
100
AcDbMText
 62
2
  6
CONTINUOUS
  7
STANDARD
 71
2
 72
1
 10
6.15
 20
0.325
 30
0.0
 11
1.0
 21
0.0
 31
0.0
 44
0.9
  1
C
 40
0.125
 41
0.2
  0
MTEXT
  5
23A
100
AcDbEntity
  8
0
100
AcDbMText
 62
2
  6
CONTINUOUS
  7
STANDARD
 71
2
 72
1
 10
5.55
 20
0.325
 30
0.0
 11
1.0
 21
0.0
 31
0.0
 44
0.9
  1
1.000
 40
0.125
 41
1.0
  0
MTEXT
  5
23B
100
AcDbEntity
  8
0
100
AcDbMText
 62
2
  6
CONTINUOUS
  7
STANDARD
 71
2
 72
1
 10
4.65
 20
0.325
 30
0.0
 11
1.0
 21
0.0
 31
0.0
 44
0.9
  1
Feb-02-21
 40
0.125
 41
1.8
  0
MTEXT
  5
23C
100
AcDbEntity
  8
0
100
AcDbMText
 62
2
  6
CONTINUOUS
  7
STANDARD
 71
2
 72
1
 10
2.05
 20
0.4625
 30
0.0
 11
1.0
 21
0.0
 31
0.0
 44
0.9
  1
T-10A Motor mount Staffa 4", 5 piston\PCross port with make up checks
 40
0.125
 41
7.4
  0
MTEXT
  5
23D
100
AcDbEntity
  8
0
100
AcDbMText
 62
2
  6
CONTINUOUS
  7
STANDARD
 71
1
 72
1
 10
6.45
 20
0.5625
 30
0.0
 11
1.0
 21
0.0
 31
0.0
 44
0.9
  1
SHEET
 40
0.06
 41
0.48
  0
MTEXT
  5
23E
100
AcDbEntity
  8
0
100
AcDbMText
 62
2
  6
CONTINUOUS
  7
STANDARD
 71
1
 72
1
 10
5.95
 20
0.5625
 30
0.0
 11
1.0
 21
0.0
 31
0.0
 44
0.9
  1
DWG SIZE
 40
0.06
 41
0.768
  0
MTEXT
  5
23F
100
AcDbEntity
  8
0
100
AcDbMText
 62
2
  6
CONTINUOUS
  7
STANDARD
 71
1
 72
1
 10
5.25
 20
0.5625
 30
0.0
 11
1.0
 21
0.0
 31
0.0
 44
0.9
  1
SCALE
 40
0.06
 41
0.48
  0
MTEXT
  5
240
100
AcDbEntity
  8
0
100
AcDbMText
 62
2
  6
CONTINUOUS
  7
STANDARD
 71
1
 72
1
 10
4.15
 20
0.5625
 30
0.0
 11
1.0
 21
0.0
 31
0.0
 44
0.9
  1
DATE
 40
0.06
 41
0.384
  0
MTEXT
  5
241
100
AcDbEntity
  8
0
100
AcDbMText
 62
2
  6
CONTINUOUS
  7
STANDARD
 71
1
 72
1
 10
0.05
 20
0.5625
 30
0.0
 11
1.0
 21
0.0
 31
0.0
 44
0.9
  1
DESCRIPTION
 40
0.06
 41
1.056
  0
MTEXT
  5
242
100
AcDbEntity
  8
0
100
AcDbMText
 62
2
  6
CONTINUOUS
  7
STANDARD
 71
2
 72
1
 10
5.45
 20
1.0375
 30
0.0
 11
1.0
 21
0.0
 31
0.0
 44
0.9
  1
ALL DIMENSIONS IN INCH\PVIEWS ARE THIRD ANGLE
 40
0.12
 41
4.224
  0
MTEXT
  5
243
100
AcDbEntity
  8
0
100
AcDbMText
 62
2
  6
CONTINUOUS
  7
STANDARD
 71
2
 72
1
 10
2.05
 20
0.95
 30
0.0
 11
1.0
 21
0.0
 31
0.0
 44
0.9
  1
Z8Q
 40
0.125
 41
0.6
  0
MTEXT
  5
244
100
AcDbEntity
  8
0
100
AcDbMText
 62
2
  6
CONTINUOUS
  7
STANDARD
 71
1
 72
1
 10
0.05
 20
1.1875
 30
0.0
 11
1.0
 21
0.0
 31
0.0
 44
0.9
  1
MODEL
 40
0.06
 41
0.48
  0
ENDBLK
  5
245
100
AcDbEntity
  8
0
  6
BYBLOCK
 62
0
100
AcDbBlockEnd
  0
BLOCK
  5
246
100
AcDbEntity
  8
0
100
AcDbBlockBegin
  2
*T2
 70
1
 10
0.0
 20
0.0
  3
*T2
  1

  0
LINE
  5
247
100
AcDbEntity
  8
0
100
AcDbLine
 62
2
  6
CONTINUOUS
 10
0.0
 20
0.0
 11
9.055
 21
0.0
  0
LINE
  5
248
100
AcDbEntity
  8
0
100
AcDbLine
 62
2
  6
CONTINUOUS
 10
0.0
 20
0.0
 11
0.0
 21
-2.094
  0
LINE
  5
249
100
AcDbEntity
  8
0
100
AcDbLine
 62
2
  6
CONTINUOUS
 10
0.0
 20
-0.344
 11
9.055
 21
-0.344
  0
LINE
  5
24A
100
AcDbEntity
  8
0
100
AcDbLine
 62
2
  6
CONTINUOUS
 10
0.0
 20
-0.594
 11
9.055
 21
-0.594
  0
LINE
  5
24B
100
AcDbEntity
  8
0
100
AcDbLine
 62
2
  6
CONTINUOUS
 10
0.0
 20
-0.844
 11
9.055
 21
-0.844
  0
LINE
  5
24C
100
AcDbEntity
  8
0
100
AcDbLine
 62
2
  6
CONTINUOUS
 10
0.0
 20
-1.094
 11
9.055
 21
-1.094
  0
LINE
  5
24D
100
AcDbEntity
  8
0
100
AcDbLine
 62
2
  6
CONTINUOUS
 10
0.0
 20
-1.344
 11
9.055
 21
-1.344
  0
LINE
  5
24E
100
AcDbEntity
  8
0
100
AcDbLine
 62
2
  6
CONTINUOUS
 10
0.0
 20
-1.594
 11
9.055
 21
-1.594
  0
LINE
  5
24F
100
AcDbEntity
  8
0
100
AcDbLine
 62
2
  6
CONTINUOUS
 10
0.0
 20
-1.844
 11
9.055
 21
-1.844
  0
LINE
  5
250
100
AcDbEntity
  8
0
100
AcDbLine
 62
2
  6
CONTINUOUS
 10
0.0
 20
-2.094
 11
9.055
 21
-2.094
  0
LINE
  5
251
100
AcDbEntity
  8
0
100
AcDbLine
 62
2
  6
CONTINUOUS
 10
3.055
 20
0.0
 11
3.055
 21
-2.094
  0
LINE
  5
252
100
AcDbEntity
  8
0
100
AcDbLine
 62
2
  6
CONTINUOUS
 10
9.055
 20
0.0
 11
9.055
 21
-2.094
  0
MTEXT
  5
253
100
AcDbEntity
  8
0
100
AcDbMText
 62
2
  6
CONTINUOUS
  7
STANDARD
 71
2
 72
1
 10
1.5275
 20
-0.0995
 30
0.0
 11
1.0
 21
0.0
 31
0.0
 44
0.9
  1
Technical Data
 40
0.145
 41
3.248
  0
MTEXT
  5
254
100
AcDbEntity
  8
0
100
AcDbMText
 62
2
  6
CONTINUOUS
  7
STANDARD
 71
2
 72
1
 10
4.555
 20
-0.0995
 30
0.0
 11
1.0
 21
0.0
 31
0.0
 44
0.9
  1
U.S. Units
 40
0.145
 41
2.32
  0
MTEXT
  5
255
100
AcDbEntity
  8
0
100
AcDbMText
 62
2
  6
CONTINUOUS
  7
STANDARD
 71
2
 72
1
 10
7.555
 20
-0.0995
 30
0.0
 11
1.0
 21
0.0
 31
0.0
 44
0.9
  1
Metric Units
 40
0.145
 41
2.784
  0
MTEXT
  5
256
100
AcDbEntity
  8
0
100
AcDbMText
 62
2
  6
CONTINUOUS
  7
STANDARD
 71
2
 72
1
 10
1.5275
 20
-0.4065
 30
0.0
 11
1.0
 21
0.0
 31
0.0
 44
0.9
  1
Cavity
 40
0.125
 41
1.2
  0
MTEXT
  5
257
100
AcDbEntity
  8
0
100
AcDbMText
 62
2
  6
CONTINUOUS
  7
STANDARD
 71
2
 72
1
 10
6.055
 20
-0.4065
 30
0.0
 11
1.0
 21
0.0
 31
0.0
 44
0.9
  1
T-10A
 40
0.125
 41
1.0
  0
MTEXT
  5
258
100
AcDbEntity
  8
0
100
AcDbMText
 62
2
  6
CONTINUOUS
  7
STANDARD
 71
2
 72
1
 10
1.5275
 20
-0.6565
 30
0.0
 11
1.0
 21
0.0
 31
0.0
 44
0.9
  1
Body Features
 40
0.125
 41
2.6
  0
MTEXT
  5
259
100
AcDbEntity
  8
0
100
AcDbMText
 62
2
  6
CONTINUOUS
  7
STANDARD
 71
2
 72
1
 10
6.055
 20
-0.6565
 30
0.0
 11
1.0
 21
0.0
 31
0.0
 44
0.9
  1
Cross port with make up checks
 40
0.125
 41
6.0
  0
MTEXT
  5
25A
100
AcDbEntity
  8
0
100
AcDbMText
 62
2
  6
CONTINUOUS
  7
STANDARD
 71
2
 72
1
 10
1.5275
 20
-0.9065
 30
0.0
 11
1.0
 21
0.0
 31
0.0
 44
0.9
  1
Body Type
 40
0.125
 41
1.8
  0
MTEXT
  5
25B
100
AcDbEntity
  8
0
100
AcDbMText
 62
2
  6
CONTINUOUS
  7
STANDARD
 71
2
 72
1
 10
6.055
 20
-0.9065
 30
0.0
 11
1.0
 21
0.0
 31
0.0
 44
0.9
  1
Motor mount
 40
0.125
 41
2.2
  0
MTEXT
  5
25C
100
AcDbEntity
  8
0
100
AcDbMText
 62
2
  6
CONTINUOUS
  7
STANDARD
 71
2
 72
1
 10
1.5275
 20
-1.1565
 30
0.0
 11
1.0
 21
0.0
 31
0.0
 44
0.9
  1
Interface
 40
0.125
 41
1.8
  0
MTEXT
  5
25D
100
AcDbEntity
  8
0
100
AcDbMText
 62
2
  6
CONTINUOUS
  7
STANDARD
 71
2
 72
1
 10
6.055
 20
-1.1565
 30
0.0
 11
1.0
 21
0.0
 31
0.0
 44
0.9
  1
Staffa 4", 5 piston
 40
0.125
 41
3.8
  0
MTEXT
  5
25E
100
AcDbEntity
  8
0
100
AcDbMText
 62
2
  6
CONTINUOUS
  7
STANDARD
 71
2
 72
1
 10
1.5275
 20
-1.4065
 30
0.0
 11
1.0
 21
0.0
 31
0.0
 44
0.9
  1
Open Cavity Quantity
 40
0.125
 41
4.0
  0
MTEXT
  5
25F
100
AcDbEntity
  8
0
100
AcDbMText
 62
2
  6
CONTINUOUS
  7
STANDARD
 71
2
 72
1
 10
6.055
 20
-1.4065
 30
0.0
 11
1.0
 21
0.0
 31
0.0
 44
0.9
  1
2
 40
0.125
 41
0.2
  0
MTEXT
  5
260
100
AcDbEntity
  8
0
100
AcDbMText
 62
2
  6
CONTINUOUS
  7
STANDARD
 71
2
 72
1
 10
1.5275
 20
-1.6565
 30
0.0
 11
1.0
 21
0.0
 31
0.0
 44
0.9
  1
Weight
 40
0.125
 41
1.2
  0
MTEXT
  5
261
100
AcDbEntity
  8
0
100
AcDbMText
 62
2
  6
CONTINUOUS
  7
STANDARD
 71
2
 72
1
 10
4.555
 20
-1.6565
 30
0.0
 11
1.0
 21
0.0
 31
0.0
 44
0.9
  1
4.168 lb.
 40
0.125
 41
1.8
  0
MTEXT
  5
262
100
AcDbEntity
  8
0
100
AcDbMText
 62
2
  6
CONTINUOUS
  7
STANDARD
 71
2
 72
1
 10
7.555
 20
-1.6565
 30
0.0
 11
1.0
 21
0.0
 31
0.0
 44
0.9
  1
1,891 kg.
 40
0.125
 41
1.8
  0
MTEXT
  5
263
100
AcDbEntity
  8
0
100
AcDbMText
 62
2
  6
CONTINUOUS
  7
STANDARD
 71
2
 72
1
 10
1.5275
 20
-1.9065
 30
0.0
 11
1.0
 21
0.0
 31
0.0
 44
0.9
  1
Includes integral cartridges
 40
0.125
 41
5.6
  0
MTEXT
  5
264
100
AcDbEntity
  8
0
100
AcDbMText
 62
2
  6
CONTINUOUS
  7
STANDARD
 71
2
 72
1
 10
6.055
 20
-1.9065
 30
0.0
 11
1.0
 21
0.0
 31
0.0
 44
0.9
  1
Yes (see Included Components)
 40
0.125
 41
5.8
  0
ENDBLK
  5
265
100
AcDbEntity
  8
0
  6
BYBLOCK
 62
0
100
AcDbBlockEnd
  0
ENDSEC
  0
SECTION
  2
ENTITIES
  0
IMAGE
  5
266
100
AcDbEntity
  8
0
100
AcDbRasterImage
 62
7
  6
CONTINUOUS
 10
19.2297077316
 20
0.3094318264
 30
0.0
 11
0.0066666667
 21
0.0
 31
0.0
 12
0.0
 22
0.0066666667
 32
0.0
 13
369.0
 23
92.0
340
       432
 70
9
280
0
281
50
282
50
283
0
360
       42C
 71
1
 91
2
 14
-0.5
 24
-0.5
 14
368.5
 24
91.5
  0
INSERT
  5
267
100
AcDbEntity
  8
0
100
AcDbBlockReference
 62
2
  6
CONTINUOUS
  2
SUN_FIRST_THIRD_ANGLE_BL0
 10
20.4816717061
 20
1.2289683772
  0
ACAD_TABLE
  5
268
100
AcDbEntity
  8
0
 62
2
  6
CONTINUOUS
100
AcDbBlockReference
  2
*T1
 10
12.42375
 20
0.30125
 30
0.0
100
AcDbTable
342
       434
343
207
 11
1.0
 21
0.0
 31
0.0
 90
6
 91
4
 92
6
 93
20
 94
0
 95
0
 96
0
 70
1
 41
0.0
141
0.525
141
0.1
141
0.525
141
0.1
142
4.1
142
1.1
142
0.7
142
0.5
142
0.4
142
2.475
171
1
172
0
173
0
174
0
175
1
176
1
 91
33
178
0
145
0.0
301
CELL_VALUE
 90
4
  1
T-10A Motor mount Staffa 4", 5 piston\PCross port with make up checks
304
ACVALUE_END
170
2
140
0.125
171
1
172
0
173
0
174
0
175
1
176
1
 91
33
178
0
145
0.0
301
CELL_VALUE
 90
4
  1
Feb-02-21
304
ACVALUE_END
170
5
140
0.125
171
1
172
0
173
0
174
0
175
1
176
1
 91
33
178
0
145
0.0
301
CELL_VALUE
 90
4
  1
1.000
304
ACVALUE_END
170
5
140
0.125
171
1
172
0
173
0
174
0
175
1
176
1
 91
33
178
0
145
0.0
301
CELL_VALUE
 90
4
  1
C
304
ACVALUE_END
170
5
140
0.125
171
1
172
0
173
0
174
0
175
1
176
1
 91
33
178
0
145
0.0
301
CELL_VALUE
 90
4
  1
2
304
ACVALUE_END
170
5
140
0.125
171
1
172
0
173
0
174
0
175
1
176
1
 91
33
178
0
145
0.0
301
CELL_VALUE
 90
4
  1
 
304
ACVALUE_END
170
1
140
0.125
171
1
172
0
173
0
174
0
175
1
176
1
 91
33
178
0
145
0.0
301
CELL_VALUE
 90
4
  1
DESCRIPTION
304
ACVALUE_END
170
1
140
0.06
171
1
172
0
173
0
174
0
175
1
176
1
 91
33
178
0
145
0.0
301
CELL_VALUE
 90
4
  1
DATE
304
ACVALUE_END
170
1
140
0.06
171
1
172
0
173
0
174
0
175
1
176
1
 91
33
178
0
145
0.0
301
CELL_VALUE
 90
4
  1
SCALE
304
ACVALUE_END
170
1
140
0.06
171
1
172
0
173
0
174
0
175
1
176
1
 91
33
178
0
145
0.0
301
CELL_VALUE
 90
4
  1
DWG SIZE
304
ACVALUE_END
170
1
140
0.06
171
1
172
0
173
0
174
0
175
1
176
1
 91
33
178
0
145
0.0
301
CELL_VALUE
 90
4
  1
SHEET
304
ACVALUE_END
170
1
140
0.06
171
1
172
0
173
0
174
0
175
1
176
1
 91
33
178
0
145
0.0
301
CELL_VALUE
 90
4
  1
 
304
ACVALUE_END
170
1
140
0.125
171
1
172
0
173
0
174
0
175
1
176
1
 91
33
178
0
145
0.0
301
CELL_VALUE
 90
4
  1
Z8Q
304
ACVALUE_END
170
5
140
0.125
171
1
172
0
173
0
174
0
175
4
176
1
 91
33
178
0
145
0.0
301
CELL_VALUE
 90
4
  1
ALL DIMENSIONS IN INCH\PVIEWS ARE THIRD ANGLE
304
ACVALUE_END
170
5
140
0.12
171
1
172
0
173
1
174
0
175
1
176
1
 91
1
178
0
145
0.0
170
1
171
1
172
0
173
1
174
0
175
1
176
1
 91
1
178
0
145
0.0
170
1
171
1
172
0
173
1
174
0
175
1
176
1
 91
1
178
0
145
0.0
170
5
171
1
172
0
173
0
174
0
175
1
176
1
 91
33
178
0
145
0.0
301
CELL_VALUE
 90
4
  1
 
304
ACVALUE_END
170
1
140
0.125
171
1
172
0
173
0
174
0
175
1
176
1
 91
33
178
0
145
0.0
301
CELL_VALUE
 90
4
  1
MODEL
304
ACVALUE_END
170
1
140
0.06
171
1
172
0
173
0
174
0
175
1
176
1
 91
33
178
0
145
0.0
301
CELL_VALUE
 90
4
  1
 
304
ACVALUE_END
170
1
140
0.125
171
1
172
0
173
0
174
0
175
1
176
1
 91
33
178
0
145
0.0
301
CELL_VALUE
 90
4
  1
 
304
ACVALUE_END
170
1
140
0.125
171
1
172
0
173
0
174
0
175
1
176
1
 91
33
178
0
145
0.0
301
CELL_VALUE
 90
4
  1
 
304
ACVALUE_END
170
1
140
0.125
171
1
172
0
173
0
174
0
175
1
176
1
 91
33
178
0
145
0.0
301
CELL_VALUE
 90
4
  1
 
304
ACVALUE_END
170
1
140
0.125
171
1
172
0
173
0
174
0
175
1
176
1
 91
33
178
0
145
0.0
301
CELL_VALUE
 90
4
  1
 
304
ACVALUE_END
170
1
140
0.125
  0
ACAD_TABLE
  5
269
100
AcDbEntity
  8
0
 62
2
  6
CONTINUOUS
100
AcDbBlockReference
  2
*T2
 10
12.4237499994
 20
16.47875
 30
0.0
100
AcDbTable
342
       433
343
208
 11
1.0
 21
0.0
 31
0.0
 90
22
 91
8
 92
3
 93
16
 94
0
 95
0
 96
0
 41
0.028
141
0.344
141
0.25
141
0.25
141
0.25
141
0.25
141
0.25
141
0.25
141
0.25
142
3.055
142
3.0
142
3.0
171
1
172
0
173
0
174
0
175
1
176
1
 91
33
178
0
145
0.0
301
CELL_VALUE
 90
4
  1
Technical Data
304
ACVALUE_END
170
5
140
0.145
171
1
172
0
173
0
174
0
175
1
176
1
 91
33
178
0
145
0.0
301
CELL_VALUE
 90
4
  1
U.S. Units
304
ACVALUE_END
170
5
140
0.145
171
1
172
0
173
0
174
0
175
1
176
1
 91
33
178
0
145
0.0
301
CELL_VALUE
 90
4
  1
Metric Units
304
ACVALUE_END
170
5
140
0.145
171
1
172
0
173
0
174
0
175
1
176
1
 91
33
178
0
145
0.0
301
CELL_VALUE
 90
4
  1
Cavity
304
ACVALUE_END
170
5
140
0.125
171
1
172
0
173
0
174
0
175
2
176
1
 91
33
178
0
145
0.0
301
CELL_VALUE
 90
4
  1
T-10A
304
ACVALUE_END
170
5
140
0.125
171
1
172
0
173
1
174
0
175
1
176
1
 91
1
178
0
145
0.0
170
1
171
1
172
0
173
0
174
0
175
1
176
1
 91
33
178
0
145
0.0
301
CELL_VALUE
 90
4
  1
Body Features
304
ACVALUE_END
170
5
140
0.125
171
1
172
0
173
0
174
0
175
2
176
1
 91
33
178
0
145
0.0
301
CELL_VALUE
 90
4
  1
Cross port with make up checks
304
ACVALUE_END
170
5
140
0.125
171
1
172
0
173
1
174
0
175
1
176
1
 91
1
178
0
145
0.0
170
1
171
1
172
0
173
0
174
0
175
1
176
1
 91
33
178
0
145
0.0
301
CELL_VALUE
 90
4
  1
Body Type
304
ACVALUE_END
170
5
140
0.125
171
1
172
0
173
0
174
0
175
2
176
1
 91
33
178
0
145
0.0
301
CELL_VALUE
 90
4
  1
Motor mount
304
ACVALUE_END
170
5
140
0.125
171
1
172
0
173
1
174
0
175
1
176
1
 91
1
178
0
145
0.0
170
1
171
1
172
0
173
0
174
0
175
1
176
1
 91
33
178
0
145
0.0
301
CELL_VALUE
 90
4
  1
Interface
304
ACVALUE_END
170
5
140
0.125
171
1
172
0
173
0
174
0
175
2
176
1
 91
33
178
0
145
0.0
301
CELL_VALUE
 90
4
  1
Staffa 4", 5 piston
304
ACVALUE_END
170
5
140
0.125
171
1
172
0
173
1
174
0
175
1
176
1
 91
1
178
0
145
0.0
170
1
171
1
172
0
173
0
174
0
175
1
176
1
 91
33
178
0
145
0.0
301
CELL_VALUE
 90
4
  1
Open Cavity Quantity
304
ACVALUE_END
170
5
140
0.125
171
1
172
0
173
0
174
0
175
2
176
1
 91
33
178
0
145
0.0
301
CELL_VALUE
 90
4
  1
2
304
ACVALUE_END
170
5
140
0.125
171
1
172
0
173
1
174
0
175
1
176
1
 91
1
178
0
145
0.0
170
1
171
1
172
0
173
0
174
0
175
1
176
1
 91
33
178
0
145
0.0
301
CELL_VALUE
 90
4
  1
Weight
304
ACVALUE_END
170
5
140
0.125
171
1
172
0
173
0
174
0
175
1
176
1
 91
33
178
0
145
0.0
301
CELL_VALUE
 90
4
  1
4.168 lb.
304
ACVALUE_END
170
5
140
0.125
171
1
172
0
173
0
174
0
175
1
176
1
 91
33
178
0
145
0.0
301
CELL_VALUE
 90
4
  1
1,891 kg.
304
ACVALUE_END
170
5
140
0.125
171
1
172
0
173
0
174
0
175
1
176
1
 91
33
178
0
145
0.0
301
CELL_VALUE
 90
4
  1
Includes integral cartridges
304
ACVALUE_END
170
5
140
0.125
171
1
172
0
173
0
174
0
175
2
176
1
 91
33
178
0
145
0.0
301
CELL_VALUE
 90
4
  1
Yes (see Included Components)
304
ACVALUE_END
170
5
140
0.125
171
1
172
0
173
1
174
0
175
1
176
1
 91
1
178
0
145
0.0
170
1
  0
MTEXT
  5
26A
100
AcDbEntity
  8
0
100
AcDbMText
 62
2
  6
CONTINUOUS
  7
STANDARD
 71
1
 72
1
 10
0.52125
 20
5.75995
 30
0.0
 11
1.0
 21
0.0
 31
0.0
 44
0.6
  3
Notes\P \P1. Important: Carefully consider\P   the maximum system pressure. The\P   pressure rating of the manifold is\P   dependent on the manifold material,\P   with the port type/size a secondary\P   consideration. Manifolds\P   constructed of alu
  1
minum are not\P   rated for pressures higher than\P   3000 psi (210 bar), regardless of\P   the port type/size specified.
 40
0.1
 41
3.04
  0
LINE
  5
26B
100
AcDbEntity
  8
0
100
AcDbLine
 62
7
  6
CONTINUOUS
 10
0.30125
 20
0.30125
 11
0.30125
 21
16.69875
  0
LINE
  5
26C
100
AcDbEntity
  8
0
100
AcDbLine
 62
7
  6
CONTINUOUS
 10
0.30125
 20
0.30125
 11
21.69875
 21
0.30125
  0
LINE
  5
26D
100
AcDbEntity
  8
0
100
AcDbLine
 62
7
  6
CONTINUOUS
 10
0.30125
 20
16.69875
 11
21.69875
 21
16.69875
  0
LINE
  5
26E
100
AcDbEntity
  8
0
100
AcDbLine
 62
7
  6
CONTINUOUS
 10
21.69875
 20
0.30125
 11
21.69875
 21
16.69875
  0
LINE
  5
26F
100
AcDbEntity
  8
0
100
AcDbLine
 62
7
  6
CONTINUOUS
 10
8.1963117521
 20
9.6157337773
 11
8.1963117521
 21
6.7179561267
  0
LINE
  5
270
100
AcDbEntity
  8
0
100
AcDbLine
 62
4
  6
CONTINUOUS
 10
8.4039858196
 20
8.6267123085
 11
8.4112302636
 21
8.6551876805
  0
LINE
  5
271
100
AcDbEntity
  8
0
100
AcDbLine
 62
7
  6
CONTINUOUS
 10
9.2155403012
 20
10.6002330141
 11
8.1963117521
 21
9.6157337773
  0
LINE
  5
272
100
AcDbEntity
  8
0
100
AcDbLine
 62
4
  6
CONTINUOUS
 10
8.6358080265
 20
8.6106353839
 11
8.6430524704
 21
8.6391107558
  0
LINE
  5
273
100
AcDbEntity
  8
0
100
AcDbLine
 62
4
  6
CONTINUOUS
 10
8.4112302636
 20
8.5972321288
 11
8.4039858196
 21
8.6267123085
  0
LINE
  5
274
100
AcDbEntity
  8
0
100
AcDbLine
 62
4
  6
CONTINUOUS
 10
8.7662080178
 20
8.543636562
 11
8.7662080178
 21
8.6595476655
  0
LINE
  5
275
100
AcDbEntity
  8
0
100
AcDbLine
 62
4
  6
CONTINUOUS
 10
8.8314080135
 20
8.5970704787
 11
8.8241635695
 21
8.5685951067
  0
LINE
  5
276
100
AcDbEntity
  8
0
100
AcDbLine
 62
4
  6
CONTINUOUS
 10
8.534385811
 20
8.5597134867
 11
8.5923413627
 21
8.6716053589
  0
LINE
  5
277
100
AcDbEntity
  8
0
100
AcDbLine
 62
4
  6
CONTINUOUS
 10
8.4112302636
 20
8.6551876805
 11
8.4257191515
 21
8.6735013922
  0
LINE
  5
278
100
AcDbEntity
  8
0
100
AcDbLine
 62
4
  6
CONTINUOUS
 10
8.534385811
 20
8.6756245901
 11
8.5923413627
 21
8.5556942555
  0
LINE
  5
279
100
AcDbEntity
  8
0
100
AcDbLine
 62
4
  6
CONTINUOUS
 10
8.6430524704
 20
8.5811552041
 11
8.6358080265
 21
8.6106353839
  0
LINE
  5
27A
100
AcDbEntity
  8
0
100
AcDbLine
 62
4
  6
CONTINUOUS
 10
8.8241635695
 20
8.6265506584
 11
8.8314080135
 21
8.5970704787
  0
LINE
  5
27B
100
AcDbEntity
  8
0
100
AcDbLine
 62
4
  6
CONTINUOUS
 10
8.4764302592
 20
8.5830512357
 11
8.4691858153
 21
8.5738943806
  0
LINE
  5
27C
100
AcDbEntity
  8
0
100
AcDbLine
 62
4
  6
CONTINUOUS
 10
8.6430524704
 20
8.6391107558
 11
8.6575413584
 21
8.6574244676
  0
LINE
  5
27D
100
AcDbEntity
  8
0
100
AcDbLine
 62
4
  6
CONTINUOUS
 10
8.7082524661
 20
8.566974311
 11
8.7010080221
 21
8.557817456
  0
LINE
  5
27E
100
AcDbEntity
  8
0
100
AcDbLine
 62
7
  6
CONTINUOUS
 10
9.0902101747
 20
9.2297331471
 11
8.9775110515
 21
9.120874147
  0
LINE
  5
27F
100
AcDbEntity
  8
0
100
AcDbLine
 62
7
  6
CONTINUOUS
 10
8.1963117521
 20
6.7179561267
 11
12.7844596988
 21
6.3997669859
  0
LINE
  5
280
100
AcDbEntity
  8
0
100
AcDbLine
 62
4
  6
CONTINUOUS
 10
9.6403709849
 20
7.0998073647
 11
9.625882097
 21
7.1104714314
  0
LINE
  5
281
100
AcDbEntity
  8
0
100
AcDbLine
 62
4
  6
CONTINUOUS
 10
9.6403709849
 20
7.2157184681
 11
9.6548598729
 21
7.205054404
  0
LINE
  5
282
100
AcDbEntity
  8
0
100
AcDbLine
 62
4
  6
CONTINUOUS
 10
8.4257191515
 20
8.576908804
 11
8.4112302636
 21
8.5972321288
  0
LINE
  5
283
100
AcDbEntity
  8
0
100
AcDbLine
 62
4
  6
CONTINUOUS
 10
8.4691858153
 20
8.6704869688
 11
8.4764302592
 21
8.6603253017
  0
LINE
  5
284
100
AcDbEntity
  8
0
100
AcDbLine
 62
4
  6
CONTINUOUS
 10
9.625882097
 20
7.1104714314
 11
9.6186376531
 21
7.1206330942
  0
LINE
  5
285
100
AcDbEntity
  8
0
100
AcDbLine
 62
4
  6
CONTINUOUS
 10
8.6575413584
 20
8.5608318794
 11
8.6430524704
 21
8.5811552041
  0
LINE
  5
286
100
AcDbEntity
  8
0
100
AcDbLine
 62
4
  6
CONTINUOUS
 10
9.6548598729
 20
7.205054404
 11
9.6621043168
 21
7.1948927369
  0
LINE
  5
287
100
AcDbEntity
  8
0
100
AcDbLine
 62
4
  6
CONTINUOUS
 10
9.2926376747
 20
7.2398338551
 11
9.2926376747
 21
7.1239227517
  0
LINE
  5
288
100
AcDbEntity
  8
0
100
AcDbLine
 62
4
  6
CONTINUOUS
 10
8.8241635695
 20
8.5685951067
 11
8.8096746816
 21
8.5502813976
  0
LINE
  5
289
100
AcDbEntity
  8
0
100
AcDbLine
 62
7
  6
CONTINUOUS
 10
9.4556087909
 20
9.4153556565
 11
9.3429096677
 21
9.3064966564
  0
LINE
  5
28A
100
AcDbEntity
  8
0
100
AcDbLine
 62
7
  6
CONTINUOUS
 10
9.5128182363
 20
9.411388168
 11
9.4001191132
 21
9.3025291678
  0
LINE
  5
28B
100
AcDbEntity
  8
0
100
AcDbLine
 62
4
  6
CONTINUOUS
 10
8.7010080221
 20
8.6544100442
 11
8.7082524661
 21
8.6442483771
  0
LINE
  5
28C
100
AcDbEntity
  8
0
100
AcDbLine
 62
4
  6
CONTINUOUS
 10
8.8096746816
 20
8.6468739858
 11
8.8241635695
 21
8.6265506584
  0
LINE
  5
28D
100
AcDbEntity
  8
0
100
AcDbLine
 62
4
  6
CONTINUOUS
 10
9.6186376531
 20
7.1206330942
 11
9.6113932091
 21
7.1404540159
  0
LINE
  5
28E
100
AcDbEntity
  8
0
100
AcDbLine
 62
4
  6
CONTINUOUS
 10
9.6621043168
 20
7.1948927369
 11
9.6693487608
 21
7.1750718204
  0
LINE
  5
28F
100
AcDbEntity
  8
0
100
AcDbLine
 62
4
  6
CONTINUOUS
 10
9.5244598815
 20
7.2237569304
 11
9.5244598815
 21
7.107845827
  0
LINE
  5
290
100
AcDbEntity
  8
0
100
AcDbLine
 62
4
  6
CONTINUOUS
 10
9.6113932091
 20
7.1404540159
 11
9.6113932091
 21
7.1790910515
  0
LINE
  5
291
100
AcDbEntity
  8
0
100
AcDbLine
 62
4
  6
CONTINUOUS
 10
8.4257191515
 20
8.6735013922
 11
8.4402080394
 21
8.6821558407
  0
LINE
  5
292
100
AcDbEntity
  8
0
100
AcDbLine
 62
4
  6
CONTINUOUS
 10
9.7345487565
 20
7.1319131497
 11
9.7780154203
 21
7.1288987263
  0
LINE
  5
293
100
AcDbEntity
  8
0
100
AcDbLine
 62
4
  6
CONTINUOUS
 10
11.6664005235
 20
6.9979387746
 11
11.7098671873
 21
6.9949243512
  0
LINE
  5
294
100
AcDbEntity
  8
0
100
AcDbLine
 62
4
  6
CONTINUOUS
 10
9.3868154462
 20
7.1753470527
 11
9.43028211
 21
7.1723326294
  0
LINE
  5
295
100
AcDbEntity
  8
0
100
AcDbLine
 62
4
  6
CONTINUOUS
 10
11.3186672132
 20
7.0413726777
 11
11.362133877
 21
7.0383582543
  0
LINE
  5
296
100
AcDbEntity
  8
0
100
AcDbLine
 62
4
  6
CONTINUOUS
 10
9.2564154548
 20
7.2423458746
 11
9.3288598945
 21
7.2373218356
  0
LINE
  5
297
100
AcDbEntity
  8
0
100
AcDbLine
 62
4
  6
CONTINUOUS
 10
11.1882672219
 20
7.1083714995
 11
11.2607116615
 21
7.1033474605
  0
LINE
  5
298
100
AcDbEntity
  8
0
100
AcDbLine
 62
4
  6
CONTINUOUS
 10
8.4402080394
 20
8.5662447373
 11
8.4257191515
 21
8.576908804
  0
LINE
  5
299
100
AcDbEntity
  8
0
100
AcDbLine
 62
4
  6
CONTINUOUS
 10
9.7562820884
 20
7.2076800058
 11
9.7925043082
 21
7.0892568829
  0
LINE
  5
29A
100
AcDbEntity
  8
0
100
AcDbLine
 62
4
  6
CONTINUOUS
 10
9.6693487608
 20
7.1750718204
 11
9.6693487608
 21
7.1364347847
  0
LINE
  5
29B
100
AcDbEntity
  8
0
100
AcDbLine
 62
7
  6
CONTINUOUS
 10
9.8782168526
 20
9.1750846984
 11
9.7655177294
 21
9.0662256983
  0
LINE
  5
29C
100
AcDbEntity
  8
0
100
AcDbLine
 62
7
  6
CONTINUOUS
 10
9.9068215753
 20
9.1235561211
 11
9.7941224521
 21
9.0146971209
  0
LINE
  5
29D
100
AcDbEntity
  8
0
100
AcDbLine
 62
4
  6
CONTINUOUS
 10
8.4691858153
 20
8.5738943806
 11
8.4546969274
 21
8.5652399295
  0
LINE
  5
29E
100
AcDbEntity
  8
0
100
AcDbLine
 62
4
  6
CONTINUOUS
 10
8.6575413584
 20
8.6574244676
 11
8.6720302463
 21
8.6660789161
  0
LINE
  5
29F
100
AcDbEntity
  8
0
100
AcDbLine
 62
4
  6
CONTINUOUS
 10
8.7010080221
 20
8.557817456
 11
8.6865191342
 21
8.5491630049
  0
LINE
  5
2A0
100
AcDbEntity
  8
0
100
AcDbLine
 62
4
  6
CONTINUOUS
 10
8.8096746816
 20
8.5502813976
 11
8.7951857937
 21
8.5416269464
  0
LINE
  5
2A1
100
AcDbEntity
  8
0
100
AcDbLine
 62
4
  6
CONTINUOUS
 10
8.4546969274
 20
8.681151033
 11
8.4691858153
 21
8.6704869688
  0
LINE
  5
2A2
100
AcDbEntity
  8
0
100
AcDbLine
 62
4
  6
CONTINUOUS
 10
8.6720302463
 20
8.5501678127
 11
8.6575413584
 21
8.5608318794
  0
LINE
  5
2A3
100
AcDbEntity
  8
0
100
AcDbLine
 62
4
  6
CONTINUOUS
 10
8.6865191342
 20
8.6650741083
 11
8.7010080221
 21
8.6544100442
  0
LINE
  5
2A4
100
AcDbEntity
  8
0
100
AcDbLine
 62
4
  6
CONTINUOUS
 10
8.7951857937
 20
8.6575380499
 11
8.8096746816
 21
8.6468739858
  0
LINE
  5
2A5
100
AcDbEntity
  8
0
100
AcDbLine
 62
7
  6
CONTINUOUS
 10
9.9068215753
 20
8.7016301422
 11
9.7941224521
 21
8.592771142
  0
LINE
  5
2A6
100
AcDbEntity
  8
0
100
AcDbLine
 62
4
  6
CONTINUOUS
 10
9.7200598686
 20
7.0942809218
 11
9.7562820884
 21
7.2076800058
  0
LINE
  5
2A7
100
AcDbEntity
  8
0
100
AcDbLine
 62
4
  6
CONTINUOUS
 10
9.6113932091
 20
7.1790910515
 11
9.6186376531
 21
7.1979071603
  0
LINE
  5
2A8
100
AcDbEntity
  8
0
100
AcDbLine
 62
4
  6
CONTINUOUS
 10
9.6693487608
 20
7.1364347847
 11
9.6621043168
 21
7.1176186708
  0
LINE
  5
2A9
100
AcDbEntity
  8
0
100
AcDbLine
 62
7
  6
CONTINUOUS
 10
9.8782168526
 20
8.6540690533
 11
9.7655177294
 21
8.5452100532
  0
LINE
  5
2AA
100
AcDbEntity
  8
0
100
AcDbLine
 62
4
  6
CONTINUOUS
 10
11.572222752
 20
6.9658329896
 11
11.5577338641
 21
6.9764970563
  0
LINE
  5
2AB
100
AcDbEntity
  8
0
100
AcDbLine
 62
4
  6
CONTINUOUS
 10
11.572222752
 20
7.081744093
 11
11.5867116399
 21
7.0710800289
  0
LINE
  5
2AC
100
AcDbEntity
  8
0
100
AcDbLine
 62
4
  6
CONTINUOUS
 10
9.6186376531
 20
7.1979071603
 11
9.625882097
 21
7.2070640196
  0
LINE
  5
2AD
100
AcDbEntity
  8
0
100
AcDbLine
 62
7
  6
CONTINUOUS
 10
11.0220619417
 20
9.0957587721
 11
10.9093628185
 21
8.9868997719
  0
LINE
  5
2AE
100
AcDbEntity
  8
0
100
AcDbLine
 62
7
  6
CONTINUOUS
 10
11.387460558
 20
9.2813812814
 11
11.2747614348
 21
9.1725222813
  0
LINE
  5
2AF
100
AcDbEntity
  8
0
100
AcDbLine
 62
7
  6
CONTINUOUS
 10
11.4446700034
 20
9.2774137929
 11
11.3319708802
 21
9.1685547928
  0
LINE
  5
2B0
100
AcDbEntity
  8
0
100
AcDbLine
 62
4
  6
CONTINUOUS
 10
11.5577338641
 20
6.9764970563
 11
11.5504894201
 21
6.9866587191
  0
LINE
  5
2B1
100
AcDbEntity
  8
0
100
AcDbLine
 62
4
  6
CONTINUOUS
 10
11.5867116399
 20
7.0710800289
 11
11.5939560839
 21
7.0609183618
  0
LINE
  5
2B2
100
AcDbEntity
  8
0
100
AcDbLine
 62
4
  6
CONTINUOUS
 10
9.6621043168
 20
7.1176186708
 11
9.6548598729
 21
7.1084618158
  0
LINE
  5
2B3
100
AcDbEntity
  8
0
100
AcDbLine
 62
4
  6
CONTINUOUS
 10
12.4657041482
 20
8.287075634
 11
12.4367263723
 21
8.2890852496
  0
LINE
  5
2B4
100
AcDbEntity
  8
0
100
AcDbLine
 62
4
  6
CONTINUOUS
 10
12.3570374887
 20
8.2946116924
 11
12.3425486008
 21
8.2956165002
  0
LINE
  5
2B5
100
AcDbEntity
  8
0
100
AcDbLine
 62
4
  6
CONTINUOUS
 10
12.1252152819
 20
8.3106886171
 11
12.1107263939
 21
8.3116934249
  0
LINE
  5
2B6
100
AcDbEntity
  8
0
100
AcDbLine
 62
4
  6
CONTINUOUS
 10
8.7951857937
 20
8.5416269464
 11
8.7662080178
 21
8.543636562
  0
LINE
  5
2B7
100
AcDbEntity
  8
0
100
AcDbLine
 62
4
  6
CONTINUOUS
 10
8.6865191342
 20
8.5491630049
 11
8.6720302463
 21
8.5501678127
  0
LINE
  5
2B8
100
AcDbEntity
  8
0
100
AcDbLine
 62
4
  6
CONTINUOUS
 10
8.4546969274
 20
8.5652399295
 11
8.4402080394
 21
8.5662447373
  0
LINE
  5
2B9
100
AcDbEntity
  8
0
100
AcDbLine
 62
4
  6
CONTINUOUS
 10
8.4402080394
 20
8.6821558407
 11
8.4546969274
 21
8.681151033
  0
LINE
  5
2BA
100
AcDbEntity
  8
0
100
AcDbLine
 62
4
  6
CONTINUOUS
 10
8.6720302463
 20
8.6660789161
 11
8.6865191342
 21
8.6650741083
  0
LINE
  5
2BB
100
AcDbEntity
  8
0
100
AcDbLine
 62
4
  6
CONTINUOUS
 10
8.7662080178
 20
8.6595476655
 11
8.7951857937
 21
8.6575380499
  0
LINE
  5
2BC
100
AcDbEntity
  8
0
100
AcDbLine
 62
4
  6
CONTINUOUS
 10
12.1107263939
 20
8.4276045283
 11
12.1252152819
 21
8.4265997205
  0
LINE
  5
2BD
100
AcDbEntity
  8
0
100
AcDbLine
 62
4
  6
CONTINUOUS
 10
12.3425486008
 20
8.4115276036
 11
12.3570374887
 21
8.4105227958
  0
LINE
  5
2BE
100
AcDbEntity
  8
0
100
AcDbLine
 62
4
  6
CONTINUOUS
 10
12.4367263723
 20
8.404996353
 11
12.4657041482
 21
8.4029867374
  0
LINE
  5
2BF
100
AcDbEntity
  8
0
100
AcDbLine
 62
4
  6
CONTINUOUS
 10
11.5504894201
 20
6.9866587191
 11
11.5432449761
 21
7.0064796408
  0
LINE
  5
2C0
100
AcDbEntity
  8
0
100
AcDbLine
 62
4
  6
CONTINUOUS
 10
11.2244894417
 20
7.10585948
 11
11.2244894417
 21
6.9899483766
  0
LINE
  5
2C1
100
AcDbEntity
  8
0
100
AcDbLine
 62
7
  6
CONTINUOUS
 10
11.8100686197
 20
9.0411103233
 11
11.6973694965
 21
8.9322513232
  0
LINE
  5
2C2
100
AcDbEntity
  8
0
100
AcDbLine
 62
7
  6
CONTINUOUS
 10
11.8386733424
 20
8.989581746
 11
11.7259742192
 21
8.8807227459
  0
LINE
  5
2C3
100
AcDbEntity
  8
0
100
AcDbLine
 62
4
  6
CONTINUOUS
 10
13.5376224729
 20
8.5071605477
 11
13.5065642138
 21
8.5102780275
  0
LINE
  5
2C4
100
AcDbEntity
  8
0
100
AcDbLine
 62
4
  6
CONTINUOUS
 10
11.5939560839
 20
7.0609183618
 11
11.6012005279
 21
7.0410974453
  0
LINE
  5
2C5
100
AcDbEntity
  8
0
100
AcDbLine
 62
4
  6
CONTINUOUS
 10
11.6881338554
 20
7.0737056307
 11
11.7243560752
 21
6.9552825078
  0
LINE
  5
2C6
100
AcDbEntity
  8
0
100
AcDbLine
 62
4
  6
CONTINUOUS
 10
11.4563116486
 20
7.0897825554
 11
11.4563116486
 21
6.9738714519
  0
LINE
  5
2C7
100
AcDbEntity
  8
0
100
AcDbLine
 62
4
  6
CONTINUOUS
 10
9.625882097
 20
7.2070640196
 11
9.6403709849
 21
7.2157184681
  0
LINE
  5
2C8
100
AcDbEntity
  8
0
100
AcDbLine
 62
4
  6
CONTINUOUS
 10
13.3866201752
 20
8.5931257207
 11
13.3570408802
 21
8.5976717565
  0
LINE
  5
2C9
100
AcDbEntity
  8
0
100
AcDbLine
 62
4
  6
CONTINUOUS
 10
11.5432449761
 20
7.0064796408
 11
11.5432449761
 21
7.0451166764
  0
LINE
  5
2CA
100
AcDbEntity
  8
0
100
AcDbLine
 62
4
  6
CONTINUOUS
 10
11.6012005279
 20
7.0410974453
 11
11.6012005279
 21
7.0024604096
  0
LINE
  5
2CB
100
AcDbEntity
  8
0
100
AcDbLine
 62
7
  6
CONTINUOUS
 10
11.8386733424
 20
8.5676557671
 11
11.7259742192
 21
8.4587967669
  0
LINE
  5
2CC
100
AcDbEntity
  8
0
100
AcDbLine
 62
7
  6
CONTINUOUS
 10
11.8100686197
 20
8.5200946783
 11
11.6973694965
 21
8.4112356781
  0
LINE
  5
2CD
100
AcDbEntity
  8
0
100
AcDbLine
 62
7
  6
CONTINUOUS
 10
13.8036882479
 20
10.2820438733
 11
12.7844596988
 21
9.2975446365
  0
LINE
  5
2CE
100
AcDbEntity
  8
0
100
AcDbLine
 62
4
  6
CONTINUOUS
 10
9.6548598729
 20
7.1084618158
 11
9.6403709849
 21
7.0998073647
  0
LINE
  5
2CF
100
AcDbEntity
  8
0
100
AcDbLine
 62
4
  6
CONTINUOUS
 10
12.096237506
 20
8.4189500798
 11
12.1107263939
 21
8.4276045283
  0
LINE
  5
2D0
100
AcDbEntity
  8
0
100
AcDbLine
 62
4
  6
CONTINUOUS
 10
12.1107263939
 20
8.3116934249
 11
12.096237506
 21
8.3223574916
  0
LINE
  5
2D1
100
AcDbEntity
  8
0
100
AcDbLine
 62
4
  6
CONTINUOUS
 10
12.1252152819
 20
8.4265997205
 11
12.1397041698
 21
8.4159356564
  0
LINE
  5
2D2
100
AcDbEntity
  8
0
100
AcDbLine
 62
4
  6
CONTINUOUS
 10
12.3425486008
 20
8.2956165002
 11
12.3280597129
 21
8.3062805669
  0
LINE
  5
2D3
100
AcDbEntity
  8
0
100
AcDbLine
 62
4
  6
CONTINUOUS
 10
12.0817486181
 20
8.400636368
 11
12.096237506
 21
8.4189500798
  0
LINE
  5
2D4
100
AcDbEntity
  8
0
100
AcDbLine
 62
4
  6
CONTINUOUS
 10
12.1397041698
 20
8.3193430682
 11
12.1252152819
 21
8.3106886171
  0
LINE
  5
2D5
100
AcDbEntity
  8
0
100
AcDbLine
 62
4
  6
CONTINUOUS
 10
12.3280597129
 20
8.4028731551
 11
12.3425486008
 21
8.4115276036
  0
LINE
  5
2D6
100
AcDbEntity
  8
0
100
AcDbLine
 62
4
  6
CONTINUOUS
 10
12.3715263767
 20
8.3032661435
 11
12.3570374887
 21
8.2946116924
  0
LINE
  5
2D7
100
AcDbEntity
  8
0
100
AcDbLine
 62
4
  6
CONTINUOUS
 10
12.4801930361
 20
8.2957300851
 11
12.4657041482
 21
8.287075634
  0
LINE
  5
2D8
100
AcDbEntity
  8
0
100
AcDbLine
 62
7
  6
CONTINUOUS
 10
12.7844596988
 20
9.2975446365
 11
8.1963117521
 21
9.6157337773
  0
LINE
  5
2D9
100
AcDbEntity
  8
0
100
AcDbLine
 62
4
  6
CONTINUOUS
 10
12.3570374887
 20
8.4105227958
 11
12.3715263767
 21
8.3998587317
  0
LINE
  5
2DA
100
AcDbEntity
  8
0
100
AcDbLine
 62
4
  6
CONTINUOUS
 10
12.4657041482
 20
8.4029867374
 11
12.4801930361
 21
8.3923226733
  0
LINE
  5
2DB
100
AcDbEntity
  8
0
100
AcDbLine
 62
4
  6
CONTINUOUS
 10
12.096237506
 20
8.3223574916
 11
12.0817486181
 21
8.3426808163
  0
LINE
  5
2DC
100
AcDbEntity
  8
0
100
AcDbLine
 62
4
  6
CONTINUOUS
 10
12.1397041698
 20
8.4159356564
 11
12.1469486138
 21
8.4057739893
  0
LINE
  5
2DD
100
AcDbEntity
  8
0
100
AcDbLine
 62
4
  6
CONTINUOUS
 10
12.0745041741
 20
8.372160996
 11
12.0817486181
 21
8.400636368
  0
LINE
  5
2DE
100
AcDbEntity
  8
0
100
AcDbLine
 62
4
  6
CONTINUOUS
 10
11.6519116356
 20
6.9603065467
 11
11.6881338554
 21
7.0737056307
  0
LINE
  5
2DF
100
AcDbEntity
  8
0
100
AcDbLine
 62
4
  6
CONTINUOUS
 10
11.5432449761
 20
7.0451166764
 11
11.5504894201
 21
7.0639327852
  0
LINE
  5
2E0
100
AcDbEntity
  8
0
100
AcDbLine
 62
4
  6
CONTINUOUS
 10
11.6012005279
 20
7.0024604096
 11
11.5939560839
 21
6.9836442957
  0
LINE
  5
2E1
100
AcDbEntity
  8
0
100
AcDbLine
 62
4
  6
CONTINUOUS
 10
12.2049041655
 20
8.3051621742
 11
12.2628597172
 21
8.4170540465
  0
LINE
  5
2E2
100
AcDbEntity
  8
0
100
AcDbLine
 62
4
  6
CONTINUOUS
 10
12.1469486138
 20
8.3284999232
 11
12.1397041698
 21
8.3193430682
  0
LINE
  5
2E3
100
AcDbEntity
  8
0
100
AcDbLine
 62
4
  6
CONTINUOUS
 10
12.3135708249
 20
8.3845594434
 11
12.3280597129
 21
8.4028731551
  0
LINE
  5
2E4
100
AcDbEntity
  8
0
100
AcDbLine
 62
4
  6
CONTINUOUS
 10
12.3787708206
 20
8.3124229985
 11
12.3715263767
 21
8.3032661435
  0
LINE
  5
2E5
100
AcDbEntity
  8
0
100
AcDbLine
 62
4
  6
CONTINUOUS
 10
13.3770069044
 20
9.2047923061
 11
13.3703515628
 21
9.1983637394
  0
LINE
  5
2E6
100
AcDbEntity
  8
0
100
AcDbLine
 62
4
  6
CONTINUOUS
 10
13.365914669
 20
9.1444019206
 11
13.3592593281
 21
9.1379733546
  0
LINE
  5
2E7
100
AcDbEntity
  8
0
100
AcDbLine
 62
7
  6
CONTINUOUS
 10
12.9874479422
 20
8.80931997
 11
12.9887317874
 21
8.8105372714
  0
LINE
  5
2E8
100
AcDbEntity
  8
0
100
AcDbLine
 62
4
  6
CONTINUOUS
 10
13.3481670925
 20
9.0113479184
 11
13.3503855403
 21
9.0107309969
  0
LINE
  5
2E9
100
AcDbEntity
  8
0
100
AcDbLine
 62
4
  6
CONTINUOUS
 10
12.3280597129
 20
8.3062805669
 11
12.3135708249
 21
8.3266038916
  0
LINE
  5
2EA
100
AcDbEntity
  8
0
100
AcDbLine
 62
4
  6
CONTINUOUS
 10
12.3715263767
 20
8.3998587317
 11
12.3787708206
 21
8.3896970646
  0
LINE
  5
2EB
100
AcDbEntity
  8
0
100
AcDbLine
 62
4
  6
CONTINUOUS
 10
12.4801930361
 20
8.3923226733
 11
12.494681924
 21
8.371999346
  0
LINE
  5
2EC
100
AcDbEntity
  8
0
100
AcDbLine
 62
4
  6
CONTINUOUS
 10
12.2049041655
 20
8.4210732776
 11
12.2628597172
 21
8.3011429431
  0
LINE
  5
2ED
100
AcDbEntity
  8
0
100
AcDbLine
 62
4
  6
CONTINUOUS
 10
12.0817486181
 20
8.3426808163
 11
12.0745041741
 21
8.372160996
  0
LINE
  5
2EE
100
AcDbEntity
  8
0
100
AcDbLine
 62
4
  6
CONTINUOUS
 10
12.306326381
 20
8.3560840714
 11
12.3135708249
 21
8.3845594434
  0
LINE
  5
2EF
100
AcDbEntity
  8
0
100
AcDbLine
 62
4
  6
CONTINUOUS
 10
12.494681924
 20
8.3140437943
 11
12.4801930361
 21
8.2957300851
  0
LINE
  5
2F0
100
AcDbEntity
  8
0
100
AcDbLine
 62
4
  6
CONTINUOUS
 10
11.5504894201
 20
7.0639327852
 11
11.5577338641
 21
7.0730896445
  0
LINE
  5
2F1
100
AcDbEntity
  8
0
100
AcDbLine
 62
4
  6
CONTINUOUS
 10
11.5939560839
 20
6.9836442957
 11
11.5867116399
 21
6.9744874407
  0
LINE
  5
2F2
100
AcDbEntity
  8
0
100
AcDbLine
 62
4
  6
CONTINUOUS
 10
13.3770069044
 20
9.0806018697
 11
13.3592593281
 21
9.0634590264
  0
LINE
  5
2F3
100
AcDbEntity
  8
0
100
AcDbLine
 62
4
  6
CONTINUOUS
 10
13.3792253516
 20
9.0385881171
 11
13.3570408802
 21
9.017159562
  0
LINE
  5
2F4
100
AcDbEntity
  8
0
100
AcDbLine
 62
4
  6
CONTINUOUS
 10
13.3503855403
 20
9.0107309969
 11
13.3481670925
 21
9.0085881407
  0
LINE
  5
2F5
100
AcDbEntity
  8
0
100
AcDbLine
 62
4
  6
CONTINUOUS
 10
13.5376224729
 20
9.1722695174
 11
13.5065642138
 21
9.1422695411
  0
LINE
  5
2F6
100
AcDbEntity
  8
0
100
AcDbLine
 62
4
  6
CONTINUOUS
 10
13.5110011077
 20
9.0996388106
 11
13.5331855785
 21
9.1210673652
  0
LINE
  5
2F7
100
AcDbEntity
  8
0
100
AcDbLine
 62
4
  6
CONTINUOUS
 10
13.3770069044
 20
8.9619309886
 11
13.3481670925
 21
8.9340738678
  0
LINE
  5
2F8
100
AcDbEntity
  8
0
100
AcDbLine
 62
4
  6
CONTINUOUS
 10
13.3792253516
 20
8.9309564018
 11
13.3570408802
 21
8.9095278468
  0
LINE
  5
2F9
100
AcDbEntity
  8
0
100
AcDbLine
 62
4
  6
CONTINUOUS
 10
13.5376224729
 20
9.0673975246
 11
13.5065642138
 21
9.0373975482
  0
LINE
  5
2FA
100
AcDbEntity
  8
0
100
AcDbLine
 62
4
  6
CONTINUOUS
 10
13.3570408802
 20
8.859851628
 11
13.3770069044
 21
8.8791373275
  0
LINE
  5
2FB
100
AcDbEntity
  8
0
100
AcDbLine
 62
4
  6
CONTINUOUS
 10
13.5110011077
 20
9.0085658165
 11
13.5331855785
 21
9.0299943711
  0
LINE
  5
2FC
100
AcDbEntity
  8
0
100
AcDbLine
 62
4
  6
CONTINUOUS
 10
13.3792253516
 20
8.8481627407
 11
13.3614777741
 21
8.8310198964
  0
LINE
  5
2FD
100
AcDbEntity
  8
0
100
AcDbLine
 62
4
  6
CONTINUOUS
 10
13.5331855785
 20
8.9720388194
 11
13.5110011077
 21
8.9506102648
  0
LINE
  5
2FE
100
AcDbEntity
  8
0
100
AcDbLine
 62
4
  6
CONTINUOUS
 10
12.3135708249
 20
8.3266038916
 11
12.306326381
 21
8.3560840714
  0
LINE
  5
2FF
100
AcDbEntity
  8
0
100
AcDbLine
 62
4
  6
CONTINUOUS
 10
12.494681924
 20
8.371999346
 11
12.501926368
 21
8.3425191662
  0
LINE
  5
300
100
AcDbEntity
  8
0
100
AcDbLine
 62
4
  6
CONTINUOUS
 10
12.4367263723
 20
8.2890852496
 11
12.4367263723
 21
8.404996353
  0
LINE
  5
301
100
AcDbEntity
  8
0
100
AcDbLine
 62
4
  6
CONTINUOUS
 10
12.501926368
 20
8.3425191662
 11
12.494681924
 21
8.3140437943
  0
LINE
  5
302
100
AcDbEntity
  8
0
100
AcDbLine
 62
4
  6
CONTINUOUS
 10
13.3770069044
 20
8.7963437217
 11
13.3703515628
 21
8.7899151551
  0
LINE
  5
303
100
AcDbEntity
  8
0
100
AcDbLine
 62
4
  6
CONTINUOUS
 10
13.4426729377
 20
8.8418335617
 11
13.4648574085
 21
8.8632621163
  0
LINE
  5
304
100
AcDbEntity
  8
0
100
AcDbLine
 62
4
  6
CONTINUOUS
 10
13.3592593281
 20
8.7433236032
 11
13.363696222
 21
8.7476093138
  0
LINE
  5
305
100
AcDbEntity
  8
0
100
AcDbLine
 62
4
  6
CONTINUOUS
 10
13.5331855785
 20
8.8754462701
 11
13.5110011077
 21
8.8540177155
  0
LINE
  5
306
100
AcDbEntity
  8
0
100
AcDbLine
 62
4
  6
CONTINUOUS
 10
13.3792253516
 20
8.7239723044
 11
13.3570408802
 21
8.7025437493
  0
LINE
  5
307
100
AcDbEntity
  8
0
100
AcDbLine
 62
4
  6
CONTINUOUS
 10
13.4648574085
 20
8.8053065646
 11
13.4426729377
 21
8.78387801
  0
LINE
  5
308
100
AcDbEntity
  8
0
100
AcDbLine
 62
4
  6
CONTINUOUS
 10
13.3481670925
 20
8.6608548304
 11
13.3792253516
 21
8.6908548068
  0
LINE
  5
309
100
AcDbEntity
  8
0
100
AcDbLine
 62
4
  6
CONTINUOUS
 10
13.4559836203
 20
8.7636176867
 11
13.4648574085
 21
8.7721891084
  0
LINE
  5
30A
100
AcDbEntity
  8
0
100
AcDbLine
 62
4
  6
CONTINUOUS
 10
13.4426729377
 20
8.7452409847
 11
13.4493282795
 21
8.7516695516
  0
LINE
  5
30B
100
AcDbEntity
  8
0
100
AcDbLine
 62
4
  6
CONTINUOUS
 10
13.3770069044
 20
8.6390357877
 11
13.3592593281
 21
8.6218929444
  0
LINE
  5
30C
100
AcDbEntity
  8
0
100
AcDbLine
 62
4
  6
CONTINUOUS
 10
13.4493282795
 20
8.704753145
 11
13.4426729377
 21
8.6983245782
  0
LINE
  5
30D
100
AcDbEntity
  8
0
100
AcDbLine
 62
4
  6
CONTINUOUS
 10
13.4648574085
 20
8.7142335567
 11
13.4559836203
 21
8.705662135
  0
LINE
  5
30E
100
AcDbEntity
  8
0
100
AcDbLine
 62
4
  6
CONTINUOUS
 10
13.5376224729
 20
8.7058652984
 11
13.5065642138
 21
8.675865322
  0
LINE
  5
30F
100
AcDbEntity
  8
0
100
AcDbLine
 62
4
  6
CONTINUOUS
 10
13.3592593281
 20
8.5170209792
 11
13.3792253516
 21
8.5363066781
  0
LINE
  5
310
100
AcDbEntity
  8
0
100
AcDbLine
 62
4
  6
CONTINUOUS
 10
13.5376224729
 20
8.6396303861
 11
13.5065642138
 21
8.6096304097
  0
LINE
  5
311
100
AcDbEntity
  8
0
100
AcDbLine
 62
4
  6
CONTINUOUS
 10
13.3792253516
 20
8.4866304869
 11
13.3481670925
 21
8.4566305106
  0
LINE
  5
312
100
AcDbEntity
  8
0
100
AcDbLine
 62
4
  6
CONTINUOUS
 10
11.5577338641
 20
7.0730896445
 11
11.572222752
 21
7.081744093
  0
LINE
  5
313
100
AcDbEntity
  8
0
100
AcDbLine
 62
4
  6
CONTINUOUS
 10
11.5867116399
 20
6.9744874407
 11
11.572222752
 21
6.9658329896
  0
LINE
  5
314
100
AcDbEntity
  8
0
100
AcDbLine
 62
7
  6
CONTINUOUS
 10
12.7844596988
 20
6.3997669859
 11
12.7844596988
 21
9.2975446365
  0
LINE
  5
315
100
AcDbEntity
  8
0
100
AcDbLine
 62
4
  6
CONTINUOUS
 10
13.3792253516
 20
8.3624400229
 11
13.3481670925
 21
8.3324400466
  0
LINE
  5
316
100
AcDbEntity
  8
0
100
AcDbLine
 62
4
  6
CONTINUOUS
 10
13.5110011077
 20
8.4345298823
 11
13.5331855785
 21
8.4559584369
  0
LINE
  5
317
100
AcDbEntity
  8
0
100
AcDbLine
 62
4
  6
CONTINUOUS
 10
13.3792253516
 20
8.3044844712
 11
13.3481670925
 21
8.2744844949
  0
LINE
  5
318
100
AcDbEntity
  8
0
100
AcDbLine
 62
4
  6
CONTINUOUS
 10
13.3747884572
 20
8.267081304
 11
13.3481670925
 21
8.2413670387
  0
LINE
  5
319
100
AcDbEntity
  8
0
100
AcDbLine
 62
4
  6
CONTINUOUS
 10
13.5376224729
 20
8.4022886032
 11
13.5065642138
 21
8.3722886269
  0
LINE
  5
31A
100
AcDbEntity
  8
0
100
AcDbLine
 62
4
  6
CONTINUOUS
 10
13.3481670925
 20
8.183411487
 11
13.3747884572
 21
8.2091257522
  0
LINE
  5
31B
100
AcDbEntity
  8
0
100
AcDbLine
 62
4
  6
CONTINUOUS
 10
13.3747884572
 20
8.1760082961
 11
13.3703515628
 21
8.171722585
  0
LINE
  5
31C
100
AcDbEntity
  8
0
100
AcDbLine
 62
4
  6
CONTINUOUS
 10
13.4382360438
 20
8.6554018353
 11
13.4692943029
 21
8.62744626
  0
LINE
  5
31D
100
AcDbEntity
  8
0
100
AcDbLine
 62
4
  6
CONTINUOUS
 10
12.9884089368
 20
7.4347075649
 11
12.9884089368
 21
7.5071520045
  0
LINE
  5
31E
100
AcDbEntity
  8
0
100
AcDbLine
 62
4
  6
CONTINUOUS
 10
13.3614777741
 20
8.8310198964
 11
13.3570408802
 21
8.8184548528
  0
LINE
  5
31F
100
AcDbEntity
  8
0
100
AcDbLine
 62
4
  6
CONTINUOUS
 10
13.3570408802
 20
8.547995593
 11
13.3792253516
 21
8.5942622574
  0
LINE
  5
320
100
AcDbEntity
  8
0
100
AcDbLine
 62
4
  6
CONTINUOUS
 10
13.3570408802
 20
8.1009099004
 11
13.3526039864
 21
8.0966241898
  0
LINE
  5
321
100
AcDbEntity
  8
0
100
AcDbLine
 62
4
  6
CONTINUOUS
 10
12.9884089368
 20
7.4709297847
 11
13.0194671959
 21
7.500929761
  0
LINE
  5
322
100
AcDbEntity
  8
0
100
AcDbLine
 62
7
  6
CONTINUOUS
 10
13.8036882479
 20
10.2820438733
 11
9.2155403012
 21
10.6002330141
  0
LINE
  5
323
100
AcDbEntity
  8
0
100
AcDbLine
 62
4
  6
CONTINUOUS
 10
13.3526039864
 20
8.0966241898
 11
13.3481670925
 21
8.1088972089
  0
LINE
  5
324
100
AcDbEntity
  8
0
100
AcDbLine
 62
4
  6
CONTINUOUS
 10
13.3792253516
 20
8.1637352791
 11
13.3747884572
 21
8.1760082961
  0
LINE
  5
325
100
AcDbEntity
  8
0
100
AcDbLine
 62
4
  6
CONTINUOUS
 10
13.3481670925
 20
8.1088972089
 11
13.3481670925
 21
8.1420146668
  0
LINE
  5
326
100
AcDbEntity
  8
0
100
AcDbLine
 62
4
  6
CONTINUOUS
 10
13.3481670925
 20
9.0085881407
 11
13.3481670925
 21
9.0113479184
  0
LINE
  5
327
100
AcDbEntity
  8
0
100
AcDbLine
 62
4
  6
CONTINUOUS
 10
13.3570408802
 20
8.8184548528
 11
13.3570408802
 21
8.7770580222
  0
LINE
  5
328
100
AcDbEntity
  8
0
100
AcDbLine
 62
4
  6
CONTINUOUS
 10
13.3570408802
 20
8.4652019319
 11
13.3570408802
 21
8.5065987624
  0
LINE
  5
329
100
AcDbEntity
  8
0
100
AcDbLine
 62
4
  6
CONTINUOUS
 10
13.3570408802
 20
8.6363088094
 11
13.3570408802
 21
8.6694262517
  0
LINE
  5
32A
100
AcDbEntity
  8
0
100
AcDbLine
 62
4
  6
CONTINUOUS
 10
13.3570408802
 20
8.7025437493
 11
13.3570408802
 21
8.7356611917
  0
LINE
  5
32B
100
AcDbEntity
  8
0
100
AcDbLine
 62
4
  6
CONTINUOUS
 10
13.3570408802
 20
9.0695955032
 11
13.3570408802
 21
9.102713056
  0
LINE
  5
32C
100
AcDbEntity
  8
0
100
AcDbLine
 62
4
  6
CONTINUOUS
 10
13.3570408802
 20
9.1441098313
 11
13.3570408802
 21
9.1772272736
  0
LINE
  5
32D
100
AcDbEntity
  8
0
100
AcDbLine
 62
4
  6
CONTINUOUS
 10
13.3688725982
 20
9.1886558363
 11
13.3673936336
 21
9.1541098237
  0
LINE
  5
32E
100
AcDbEntity
  8
0
100
AcDbLine
 62
4
  6
CONTINUOUS
 10
13.3792253516
 20
8.8150452984
 11
13.3770069044
 21
8.7963437217
  0
LINE
  5
32F
100
AcDbEntity
  8
0
100
AcDbLine
 62
4
  6
CONTINUOUS
 10
13.3792253516
 20
8.6577373644
 11
13.3770069044
 21
8.6390357877
  0
LINE
  5
330
100
AcDbEntity
  8
0
100
AcDbLine
 62
4
  6
CONTINUOUS
 10
13.3703515628
 20
9.1983637394
 11
13.3688725982
 21
9.1886558363
  0
LINE
  5
331
100
AcDbEntity
  8
0
100
AcDbLine
 62
4
  6
CONTINUOUS
 10
13.3673936336
 20
9.1541098237
 11
13.365914669
 21
9.1444019206
  0
LINE
  5
332
100
AcDbEntity
  8
0
100
AcDbLine
 62
4
  6
CONTINUOUS
 10
13.4604205142
 20
8.8258589491
 11
13.4692943029
 21
8.875827188
  0
LINE
  5
333
100
AcDbEntity
  8
0
100
AcDbLine
 62
4
  6
CONTINUOUS
 10
13.3570408802
 20
9.1772272736
 11
13.3592593281
 21
9.1876494628
  0
LINE
  5
334
100
AcDbEntity
  8
0
100
AcDbLine
 62
4
  6
CONTINUOUS
 10
13.3770069044
 20
9.1551161979
 11
13.3792253516
 21
9.1655383864
  0
LINE
  5
335
100
AcDbEntity
  8
0
100
AcDbLine
 62
4
  6
CONTINUOUS
 10
13.3792253516
 20
9.0910240582
 11
13.3770069044
 21
9.0806018697
  0
LINE
  5
336
100
AcDbEntity
  8
0
100
AcDbLine
 62
4
  6
CONTINUOUS
 10
13.3792253516
 20
8.9723532324
 11
13.3770069044
 21
8.9619309886
  0
LINE
  5
337
100
AcDbEntity
  8
0
100
AcDbLine
 62
4
  6
CONTINUOUS
 10
13.3770069044
 20
8.8791373275
 11
13.3792253516
 21
8.8895595713
  0
LINE
  5
338
100
AcDbEntity
  8
0
100
AcDbLine
 62
4
  6
CONTINUOUS
 10
13.3570408802
 20
8.5065987624
 11
13.3592593281
 21
8.5170209792
  0
LINE
  5
339
100
AcDbEntity
  8
0
100
AcDbLine
 62
4
  6
CONTINUOUS
 10
13.4382360438
 20
8.8209891299
 11
13.4426729377
 21
8.8418335617
  0
LINE
  5
33A
100
AcDbEntity
  8
0
100
AcDbLine
 62
4
  6
CONTINUOUS
 10
13.5065642138
 20
9.0787943788
 11
13.5110011077
 21
9.0996388106
  0
LINE
  5
33B
100
AcDbEntity
  8
0
100
AcDbLine
 62
4
  6
CONTINUOUS
 10
13.4692943029
 20
8.8261510107
 11
13.4648574085
 21
8.8053065646
  0
LINE
  5
33C
100
AcDbEntity
  8
0
100
AcDbLine
 62
4
  6
CONTINUOUS
 10
13.4515467255
 20
8.742773254
 11
13.4559836203
 21
8.7636176867
  0
LINE
  5
33D
100
AcDbEntity
  8
0
100
AcDbLine
 62
4
  6
CONTINUOUS
 10
13.5065642138
 20
8.9877213847
 11
13.5110011077
 21
9.0085658165
  0
LINE
  5
33E
100
AcDbEntity
  8
0
100
AcDbLine
 62
4
  6
CONTINUOUS
 10
13.4692943029
 20
8.7350779959
 11
13.4648574085
 21
8.7142335567
  0
LINE
  5
33F
100
AcDbEntity
  8
0
100
AcDbLine
 62
4
  6
CONTINUOUS
 10
13.3570408802
 20
8.7356611917
 11
13.3592593281
 21
8.7433236032
  0
LINE
  5
340
100
AcDbEntity
  8
0
100
AcDbLine
 62
4
  6
CONTINUOUS
 10
13.4382360438
 20
8.729916122
 11
13.4426729377
 21
8.7452409847
  0
LINE
  5
341
100
AcDbEntity
  8
0
100
AcDbLine
 62
4
  6
CONTINUOUS
 10
13.3481670925
 20
8.2744844949
 11
13.3792253516
 21
8.3624400229
  0
LINE
  5
342
100
AcDbEntity
  8
0
100
AcDbLine
 62
4
  6
CONTINUOUS
 10
13.5065642138
 20
8.5102780275
 11
13.5376224729
 21
8.5733954738
  0
LINE
  5
343
100
AcDbEntity
  8
0
100
AcDbLine
 62
4
  6
CONTINUOUS
 10
13.4426729377
 20
8.6983245782
 11
13.4382360438
 21
8.7050780196
  0
LINE
  5
344
100
AcDbEntity
  8
0
100
AcDbLine
 62
4
  6
CONTINUOUS
 10
13.3792253516
 20
8.2548082939
 11
13.3747884572
 21
8.267081304
  0
LINE
  5
345
100
AcDbEntity
  8
0
100
AcDbLine
 62
4
  6
CONTINUOUS
 10
13.3592593281
 20
8.6218929444
 11
13.3570408802
 21
8.6363088094
  0
LINE
  5
346
100
AcDbEntity
  8
0
100
AcDbLine
 62
4
  6
CONTINUOUS
 10
13.3681331159
 20
8.8043310209
 11
13.3681331159
 21
8.8374484632
  0
LINE
  5
347
100
AcDbEntity
  8
0
100
AcDbLine
 62
4
  6
CONTINUOUS
 10
13.3792253516
 20
9.1241416111
 11
13.3792253516
 21
9.0910240582
  0
LINE
  5
348
100
AcDbEntity
  8
0
100
AcDbLine
 62
4
  6
CONTINUOUS
 10
13.3792253516
 20
8.9889119536
 11
13.3792253516
 21
8.9723532324
  0
LINE
  5
349
100
AcDbEntity
  8
0
100
AcDbLine
 62
4
  6
CONTINUOUS
 10
13.3792253516
 20
8.8481627407
 11
13.3792253516
 21
8.8150452984
  0
LINE
  5
34A
100
AcDbEntity
  8
0
100
AcDbLine
 62
4
  6
CONTINUOUS
 10
13.3792253516
 20
8.6908548068
 11
13.3792253516
 21
8.6577373644
  0
LINE
  5
34B
100
AcDbEntity
  8
0
100
AcDbLine
 62
4
  6
CONTINUOUS
 10
13.3792253516
 20
8.1306178204
 11
13.3792253516
 21
8.1637352791
  0
LINE
  5
34C
100
AcDbEntity
  8
0
100
AcDbLine
 62
4
  6
CONTINUOUS
 10
13.3792253516
 20
8.2299701914
 11
13.3792253516
 21
8.2548082939
  0
LINE
  5
34D
100
AcDbEntity
  8
0
100
AcDbLine
 62
4
  6
CONTINUOUS
 10
13.3792253516
 20
8.8895595713
 11
13.3792253516
 21
8.9309564018
  0
LINE
  5
34E
100
AcDbEntity
  8
0
100
AcDbLine
 62
4
  6
CONTINUOUS
 10
13.3792253516
 20
9.1655383864
 11
13.3792253516
 21
9.1986558287
  0
LINE
  5
34F
100
AcDbEntity
  8
0
100
AcDbLine
 62
4
  6
CONTINUOUS
 10
13.3866201752
 20
8.5765669996
 11
13.3866201752
 21
8.5931257207
  0
LINE
  5
350
100
AcDbEntity
  8
0
100
AcDbLine
 62
4
  6
CONTINUOUS
 10
13.4382360438
 20
8.5974462836
 11
13.4382360438
 21
8.6554018353
  0
LINE
  5
351
100
AcDbEntity
  8
0
100
AcDbLine
 62
4
  6
CONTINUOUS
 10
13.4382360438
 20
8.7050780196
 11
13.4382360438
 21
8.729916122
  0
LINE
  5
352
100
AcDbEntity
  8
0
100
AcDbLine
 62
4
  6
CONTINUOUS
 10
13.4382360438
 20
8.7961510343
 11
13.4382360438
 21
8.8209891299
  0
LINE
  5
353
100
AcDbEntity
  8
0
100
AcDbLine
 62
4
  6
CONTINUOUS
 10
13.4515467255
 20
8.7179351515
 11
13.4515467255
 21
8.742773254
  0
LINE
  5
354
100
AcDbEntity
  8
0
100
AcDbLine
 62
4
  6
CONTINUOUS
 10
13.4692943029
 20
8.8509891062
 11
13.4692943029
 21
8.8261510107
  0
LINE
  5
355
100
AcDbEntity
  8
0
100
AcDbLine
 62
4
  6
CONTINUOUS
 10
13.4692943029
 20
8.7599160984
 11
13.4692943029
 21
8.7350779959
  0
LINE
  5
356
100
AcDbEntity
  8
0
100
AcDbLine
 62
4
  6
CONTINUOUS
 10
13.4692943029
 20
8.62744626
 11
13.4692943029
 21
8.6854018117
  0
LINE
  5
357
100
AcDbEntity
  8
0
100
AcDbLine
 62
4
  6
CONTINUOUS
 10
13.5065642138
 20
8.3722886269
 11
13.5065642138
 21
8.4136854436
  0
LINE
  5
358
100
AcDbEntity
  8
0
100
AcDbLine
 62
4
  6
CONTINUOUS
 10
13.5065642138
 20
8.5765129398
 11
13.5065642138
 21
8.6427478521
  0
LINE
  5
359
100
AcDbEntity
  8
0
100
AcDbLine
 62
4
  6
CONTINUOUS
 10
13.5065642138
 20
8.675865322
 11
13.5065642138
 21
8.7255415132
  0
LINE
  5
35A
100
AcDbEntity
  8
0
100
AcDbLine
 62
4
  6
CONTINUOUS
 10
13.5065642138
 20
8.866290726
 11
13.5065642138
 21
8.8994081683
  0
LINE
  5
35B
100
AcDbEntity
  8
0
100
AcDbLine
 62
4
  6
CONTINUOUS
 10
13.5065642138
 20
8.9628832753
 11
13.5065642138
 21
8.9877213847
  0
LINE
  5
35C
100
AcDbEntity
  8
0
100
AcDbLine
 62
4
  6
CONTINUOUS
 10
13.5065642138
 20
9.0373975482
 11
13.5065642138
 21
9.0787943788
  0
LINE
  5
35D
100
AcDbEntity
  8
0
100
AcDbLine
 62
4
  6
CONTINUOUS
 10
13.5065642138
 20
9.1422695411
 11
13.5065642138
 21
9.1919457046
  0
LINE
  5
35E
100
AcDbEntity
  8
0
100
AcDbLine
 62
4
  6
CONTINUOUS
 10
13.5198748955
 20
9.1882441153
 11
13.5198748955
 21
9.155126673
  0
LINE
  5
35F
100
AcDbEntity
  8
0
100
AcDbLine
 62
4
  6
CONTINUOUS
 10
13.5198748955
 20
8.721839924
 11
13.5198748955
 21
8.688722454
  0
LINE
  5
360
100
AcDbEntity
  8
0
100
AcDbLine
 62
4
  6
CONTINUOUS
 10
13.5287486842
 20
8.5096282775
 11
13.5287486842
 21
8.5537848857
  0
LINE
  5
361
100
AcDbEntity
  8
0
100
AcDbLine
 62
4
  6
CONTINUOUS
 10
13.5376224729
 20
9.1087943551
 11
13.5376224729
 21
9.0673975246
  0
LINE
  5
362
100
AcDbEntity
  8
0
100
AcDbLine
 62
4
  6
CONTINUOUS
 10
13.5376224729
 20
9.0177213611
 11
13.5376224729
 21
8.9928832517
  0
LINE
  5
363
100
AcDbEntity
  8
0
100
AcDbLine
 62
4
  6
CONTINUOUS
 10
13.5376224729
 20
8.9294081447
 11
13.5376224729
 21
8.8962907023
  0
LINE
  5
364
100
AcDbEntity
  8
0
100
AcDbLine
 62
4
  6
CONTINUOUS
 10
13.5376224729
 20
8.4436854199
 11
13.5376224729
 21
8.4022886032
  0
LINE
  5
365
100
AcDbEntity
  8
0
100
AcDbLine
 62
4
  6
CONTINUOUS
 10
13.5376224729
 20
8.7058652984
 11
13.5376224729
 21
8.7555414895
  0
LINE
  5
366
100
AcDbEntity
  8
0
100
AcDbLine
 62
4
  6
CONTINUOUS
 10
13.5376224729
 20
9.1722695174
 11
13.5376224729
 21
9.2219456809
  0
LINE
  5
367
100
AcDbEntity
  8
0
100
AcDbLine
 62
4
  6
CONTINUOUS
 10
13.5183959308
 20
9.2364917086
 11
13.5243117903
 21
9.2863625986
  0
LINE
  5
368
100
AcDbEntity
  8
0
100
AcDbLine
 62
4
  6
CONTINUOUS
 10
13.5243117903
 20
8.3231965511
 11
13.5302276493
 21
8.3730674441
  0
LINE
  5
369
100
AcDbEntity
  8
0
100
AcDbLine
 62
4
  6
CONTINUOUS
 10
13.4515467255
 20
8.7179351515
 11
13.4493282795
 21
8.704753145
  0
LINE
  5
36A
100
AcDbEntity
  8
0
100
AcDbLine
 62
4
  6
CONTINUOUS
 10
13.3703515628
 20
8.171722585
 11
13.3570408802
 21
8.1009099004
  0
LINE
  5
36B
100
AcDbEntity
  8
0
100
AcDbLine
 62
4
  6
CONTINUOUS
 10
13.3481670925
 20
8.1420146668
 11
13.3503855403
 21
8.1524368871
  0
LINE
  5
36C
100
AcDbEntity
  8
0
100
AcDbLine
 62
4
  6
CONTINUOUS
 10
13.5376224729
 20
8.9928832517
 11
13.5331855785
 21
8.9720388194
  0
LINE
  5
36D
100
AcDbEntity
  8
0
100
AcDbLine
 62
4
  6
CONTINUOUS
 10
13.3747884572
 20
8.2091257522
 11
13.3792253516
 21
8.2299701914
  0
LINE
  5
36E
100
AcDbEntity
  8
0
100
AcDbLine
 62
4
  6
CONTINUOUS
 10
13.5376224729
 20
8.8962907023
 11
13.5331855785
 21
8.8754462701
  0
LINE
  5
36F
100
AcDbEntity
  8
0
100
AcDbLine
 62
4
  6
CONTINUOUS
 10
13.3770069044
 20
8.1201955999
 11
13.3792253516
 21
8.1306178204
  0
LINE
  5
370
100
AcDbEntity
  8
0
100
AcDbLine
 62
4
  6
CONTINUOUS
 10
13.5065642138
 20
8.4136854436
 11
13.5110011077
 21
8.4345298823
  0
LINE
  5
371
100
AcDbEntity
  8
0
100
AcDbLine
 62
4
  6
CONTINUOUS
 10
13.5331855785
 20
8.4559584369
 11
13.5376224729
 21
8.4436854199
  0
LINE
  5
372
100
AcDbEntity
  8
0
100
AcDbLine
 62
4
  6
CONTINUOUS
 10
13.4559836203
 20
8.705662135
 11
13.4515467255
 21
8.7179351515
  0
LINE
  5
373
100
AcDbEntity
  8
0
100
AcDbLine
 62
4
  6
CONTINUOUS
 10
13.4426729377
 20
8.78387801
 11
13.4382360438
 21
8.7961510343
  0
LINE
  5
374
100
AcDbEntity
  8
0
100
AcDbLine
 62
4
  6
CONTINUOUS
 10
13.3592593281
 20
9.0634590264
 11
13.3570408802
 21
9.0695955032
  0
LINE
  5
375
100
AcDbEntity
  8
0
100
AcDbLine
 62
4
  6
CONTINUOUS
 10
13.4648574085
 20
8.7721891084
 11
13.4692943029
 21
8.7599160984
  0
LINE
  5
376
100
AcDbEntity
  8
0
100
AcDbLine
 62
4
  6
CONTINUOUS
 10
13.3592593281
 20
9.1379733546
 11
13.3570408802
 21
9.1441098313
  0
LINE
  5
377
100
AcDbEntity
  8
0
100
AcDbLine
 62
4
  6
CONTINUOUS
 10
13.4648574085
 20
8.8632621163
 11
13.4692943029
 21
8.8509891062
  0
LINE
  5
378
100
AcDbEntity
  8
0
100
AcDbLine
 62
4
  6
CONTINUOUS
 10
13.3792253516
 20
9.1986558287
 11
13.3770069044
 21
9.2047923061
  0
LINE
  5
379
100
AcDbEntity
  8
0
100
AcDbLine
 62
4
  6
CONTINUOUS
 10
13.5110011077
 20
8.8540177155
 11
13.5065642138
 21
8.866290726
  0
LINE
  5
37A
100
AcDbEntity
  8
0
100
AcDbLine
 62
4
  6
CONTINUOUS
 10
13.5110011077
 20
8.9506102648
 11
13.5065642138
 21
8.9628832753
  0
LINE
  5
37B
100
AcDbEntity
  8
0
100
AcDbLine
 62
4
  6
CONTINUOUS
 10
13.5331855785
 20
9.0299943711
 11
13.5376224729
 21
9.0177213611
  0
LINE
  5
37C
100
AcDbEntity
  8
0
100
AcDbLine
 62
4
  6
CONTINUOUS
 10
13.5331855785
 20
9.1210673652
 11
13.5376224729
 21
9.1087943551
  0
LINE
  5
37D
100
AcDbEntity
  8
0
100
AcDbLine
 62
4
  6
CONTINUOUS
 10
13.4493282795
 20
8.7516695516
 11
13.4515467255
 21
8.742773254
  0
LINE
  5
37E
100
AcDbEntity
  8
0
100
AcDbLine
 62
4
  6
CONTINUOUS
 10
13.3703515628
 20
8.7899151551
 11
13.3681331159
 21
8.8043310209
  0
LINE
  5
37F
100
AcDbEntity
  8
0
100
AcDbLine
 62
4
  6
CONTINUOUS
 10
13.5183959308
 20
8.361638881
 11
13.5243117903
 21
8.3231965511
  0
LINE
  5
380
100
AcDbEntity
  8
0
100
AcDbLine
 62
7
  6
CONTINUOUS
 10
13.8036882479
 20
7.3842662227
 11
13.8036882479
 21
10.2820438733
  0
LINE
  5
381
100
AcDbEntity
  8
0
100
AcDbLine
 62
7
  6
CONTINUOUS
 10
13.8036882479
 20
7.3842662227
 11
12.7844596988
 21
6.3997669859
  0
LINE
  5
382
100
AcDbEntity
  8
0
100
AcDbLine
 62
4
  6
CONTINUOUS
 10
13.5243117903
 20
9.2863625986
 11
13.5302276493
 21
9.2479202717
  0
ARC
  5
383
100
AcDbEntity
  8
0
100
AcDbCircle
 62
7
  6
CONTINUOUS
 10
9.5711918066
 20
7.770987762
 40
0.3747834775
100
AcDbArc
 50
312.3016802349
 51
313.0377144567
  0
ARC
  5
384
100
AcDbEntity
  8
0
100
AcDbCircle
 62
7
  6
CONTINUOUS
 10
9.4937632782
 20
7.8511473368
 40
0.3747681348
100
AcDbArc
 50
134.6474941263
 51
135.7120434725
  0
ARC
  5
385
100
AcDbEntity
  8
0
100
AcDbCircle
 62
7
  6
CONTINUOUS
 10
9.8541701025
 20
8.1523096395
 40
0.3485170737
100
AcDbArc
 50
170.526888694
 51
180.0268318236
  0
ARC
  5
386
100
AcDbEntity
  8
0
100
AcDbCircle
 62
7
  6
CONTINUOUS
 10
9.8588587476
 20
8.1553419538
 40
0.3328233466
100
AcDbArc
 50
170.7165021001
 51
180.0257890835
  0
ARC
  5
387
100
AcDbEntity
  8
0
100
AcDbCircle
 62
7
  6
CONTINUOUS
 10
9.8628938957
 20
8.1584678127
 40
0.327539974
100
AcDbArc
 50
171.2035777603
 51
180.0231839978
  0
ARC
  5
388
100
AcDbEntity
  8
0
100
AcDbCircle
 62
7
  6
CONTINUOUS
 10
9.9889587267
 20
8.2163086248
 40
0.2440684702
100
AcDbArc
 50
234.7318291923
 51
240.4091543143
  0
ARC
  5
389
100
AcDbEntity
  8
0
100
AcDbCircle
 62
7
  6
CONTINUOUS
 10
9.4418060408
 20
8.8991189485
 40
0.5163443539
100
AcDbArc
 50
25.7640228377
 51
32.3073428428
  0
ARC
  5
38A
100
AcDbEntity
  8
0
100
AcDbCircle
 62
7
  6
CONTINUOUS
 10
9.4139218633
 20
8.8758242518
 40
0.5163443539
100
AcDbArc
 50
205.7640228377
 51
212.3073428428
  0
ARC
  5
38B
100
AcDbEntity
  8
0
100
AcDbCircle
 62
7
  6
CONTINUOUS
 10
9.3291069176
 20
8.7902599484
 40
0.5163443539
100
AcDbArc
 50
25.7640228377
 51
32.3073428428
  0
ARC
  5
38C
100
AcDbEntity
  8
0
100
AcDbCircle
 62
7
  6
CONTINUOUS
 10
9.4510138929
 20
8.9361635229
 40
0.4792267106
100
AcDbArc
 50
82.590107291
 51
86.0275106487
  0
ARC
  5
38D
100
AcDbEntity
  8
0
100
AcDbCircle
 62
7
  6
CONTINUOUS
 10
9.4047140112
 20
8.8387796774
 40
0.4792267106
100
AcDbArc
 50
262.590107291
 51
266.0275106487
  0
ARC
  5
38E
100
AcDbEntity
  8
0
100
AcDbCircle
 62
7
  6
CONTINUOUS
 10
9.3383147697
 20
8.8273045227
 40
0.4792267106
100
AcDbArc
 50
82.590107291
 51
86.0275106487
  0
ARC
  5
38F
100
AcDbEntity
  8
0
100
AcDbCircle
 62
7
  6
CONTINUOUS
 10
9.4042716171
 20
8.8328327942
 40
0.4732634682
100
AcDbArc
 50
266.0310634489
 51
269.4972694561
  0
ARC
  5
390
100
AcDbEntity
  8
0
100
AcDbCircle
 62
7
  6
CONTINUOUS
 10
9.3387571638
 20
8.833251406
 40
0.4732634681
100
AcDbArc
 50
86.0310634489
 51
89.4972694561
  0
ARC
  5
391
100
AcDbEntity
  8
0
100
AcDbCircle
 62
7
  6
CONTINUOUS
 10
9.4514950269
 20
8.9431026561
 40
0.4722709174
100
AcDbArc
 50
86.0274199487
 51
89.5009129563
  0
ARC
  5
392
100
AcDbEntity
  8
0
100
AcDbCircle
 62
7
  6
CONTINUOUS
 10
9.5236766869
 20
8.8996830014
 40
0.4313060869
100
AcDbArc
 50
325.2870362755
 51
332.6649360488
  0
ARC
  5
393
100
AcDbEntity
  8
0
100
AcDbCircle
 62
7
  6
CONTINUOUS
 10
9.3320512172
 20
8.875260199
 40
0.4313060869
100
AcDbArc
 50
145.2870362755
 51
152.6649360488
  0
ARC
  5
394
100
AcDbEntity
  8
0
100
AcDbCircle
 62
7
  6
CONTINUOUS
 10
9.4109775637
 20
8.7908240012
 40
0.4313060869
100
AcDbArc
 50
325.2870362755
 51
332.6649360488
  0
ARC
  5
395
100
AcDbEntity
  8
0
100
AcDbCircle
 62
7
  6
CONTINUOUS
 10
9.5003166276
 20
9.0325279964
 40
0.3735098238
100
AcDbArc
 50
125.72368488
 51
127.3112076297
  0
ARC
  5
396
100
AcDbEntity
  8
0
100
AcDbCircle
 62
7
  6
CONTINUOUS
 10
9.5049810324
 20
9.0381871322
 40
0.3726751537
100
AcDbArc
 50
128.8885395426
 51
129.1365371717
  0
ARC
  5
397
100
AcDbEntity
  8
0
100
AcDbCircle
 62
7
  6
CONTINUOUS
 10
11.5030435737
 20
7.6370133869
 40
0.3747834775
100
AcDbArc
 50
312.301680235
 51
313.0377144568
  0
ARC
  5
398
100
AcDbEntity
  8
0
100
AcDbCircle
 62
7
  6
CONTINUOUS
 10
11.4256150453
 20
7.7171729617
 40
0.3747681348
100
AcDbArc
 50
134.6474941263
 51
135.7120434725
  0
ARC
  5
399
100
AcDbEntity
  8
0
100
AcDbCircle
 62
7
  6
CONTINUOUS
 10
11.7860218696
 20
8.0183352644
 40
0.3485170737
100
AcDbArc
 50
170.526888694
 51
180.0268318237
  0
ARC
  5
39A
100
AcDbEntity
  8
0
100
AcDbCircle
 62
7
  6
CONTINUOUS
 10
11.7907105146
 20
8.0213675787
 40
0.3328233466
100
AcDbArc
 50
170.7165021002
 51
180.0257890834
  0
ARC
  5
39B
100
AcDbEntity
  8
0
100
AcDbCircle
 62
7
  6
CONTINUOUS
 10
11.7947456627
 20
8.0244934376
 40
0.327539974
100
AcDbArc
 50
171.2035777603
 51
180.0231839978
  0
ARC
  5
39C
100
AcDbEntity
  8
0
100
AcDbCircle
 62
7
  6
CONTINUOUS
 10
11.9208104937
 20
8.0823342497
 40
0.2440684702
100
AcDbArc
 50
234.7318291923
 51
240.4091543143
  0
ARC
  5
39D
100
AcDbEntity
  8
0
100
AcDbCircle
 62
7
  6
CONTINUOUS
 10
11.3736578078
 20
8.7651445735
 40
0.5163443539
100
AcDbArc
 50
25.7640228377
 51
32.3073428428
  0
ARC
  5
39E
100
AcDbEntity
  8
0
100
AcDbCircle
 62
7
  6
CONTINUOUS
 10
11.3457736303
 20
8.7418498767
 40
0.5163443539
100
AcDbArc
 50
205.7640228377
 51
212.3073428428
  0
ARC
  5
39F
100
AcDbEntity
  8
0
100
AcDbCircle
 62
7
  6
CONTINUOUS
 10
11.2609586846
 20
8.6562855733
 40
0.5163443539
100
AcDbArc
 50
25.7640228377
 51
32.3073428428
  0
ARC
  5
3A0
100
AcDbEntity
  8
0
100
AcDbCircle
 62
7
  6
CONTINUOUS
 10
11.3828656599
 20
8.8021891478
 40
0.4792267106
100
AcDbArc
 50
82.590107291
 51
86.0275106487
  0
ARC
  5
3A1
100
AcDbEntity
  8
0
100
AcDbCircle
 62
7
  6
CONTINUOUS
 10
11.3365657782
 20
8.7048053024
 40
0.4792267106
100
AcDbArc
 50
262.590107291
 51
266.0275106487
  0
ARC
  5
3A2
100
AcDbEntity
  8
0
100
AcDbCircle
 62
7
  6
CONTINUOUS
 10
11.2701665367
 20
8.6933301477
 40
0.4792267106
100
AcDbArc
 50
82.590107291
 51
86.0275106487
  0
ARC
  5
3A3
100
AcDbEntity
  8
0
100
AcDbCircle
 62
7
  6
CONTINUOUS
 10
11.3361233841
 20
8.6988584191
 40
0.4732634681
100
AcDbArc
 50
266.0310634489
 51
269.4972694561
  0
ARC
  5
3A4
100
AcDbEntity
  8
0
100
AcDbCircle
 62
7
  6
CONTINUOUS
 10
11.2706089309
 20
8.6992770309
 40
0.4732634681
100
AcDbArc
 50
86.0310634489
 51
89.4972694561
  0
ARC
  5
3A5
100
AcDbEntity
  8
0
100
AcDbCircle
 62
7
  6
CONTINUOUS
 10
11.383346794
 20
8.809128281
 40
0.4722709174
100
AcDbArc
 50
86.0274199487
 51
89.5009129563
  0
ARC
  5
3A6
100
AcDbEntity
  8
0
100
AcDbCircle
 62
7
  6
CONTINUOUS
 10
11.4555284539
 20
8.7657086263
 40
0.4313060869
100
AcDbArc
 50
325.2870362755
 51
332.6649360488
  0
ARC
  5
3A7
100
AcDbEntity
  8
0
100
AcDbCircle
 62
7
  6
CONTINUOUS
 10
11.2639029843
 20
8.7412858239
 40
0.4313060869
100
AcDbArc
 50
145.2870362755
 51
152.6649360488
  0
ARC
  5
3A8
100
AcDbEntity
  8
0
100
AcDbCircle
 62
7
  6
CONTINUOUS
 10
11.3428293307
 20
8.6568496262
 40
0.4313060869
100
AcDbArc
 50
325.2870362755
 51
332.6649360488
  0
ARC
  5
3A9
100
AcDbEntity
  8
0
100
AcDbCircle
 62
7
  6
CONTINUOUS
 10
11.4321683946
 20
8.8985536213
 40
0.3735098238
100
AcDbArc
 50
125.72368488
 51
127.3112076297
  0
ARC
  5
3AA
100
AcDbEntity
  8
0
100
AcDbCircle
 62
7
  6
CONTINUOUS
 10
11.4368327994
 20
8.9042127571
 40
0.3726751537
100
AcDbArc
 50
128.8885395426
 51
129.1365371718
  0
SPLINE
  5
3AB
100
AcDbEntity
  8
0
100
AcDbSpline
 62
7
  6
CONTINUOUS
 70
0
 71
3
 72
15
 73
11
 74
0
 42
0.0000001
 43
0.0000001
 44
0.0000000001
 40
0.0
 40
0.0
 40
0.0
 40
0.0
 40
0.1307127497
 40
0.2609289548
 40
0.3901052665
 40
0.5175755854
 40
0.6426742535
 40
0.7648942407
 40
0.8839930104
 40
1.0
 40
1.0
 40
1.0
 40
1.0
 10
8.9489063288
 20
9.0733130582
 30
0.0
 10
8.9477170545
 20
9.0549520843
 30
0.0
 10
8.945559777
 20
9.0182853038
 30
0.0
 10
8.9431084655
 20
8.9634257948
 30
0.0
 10
8.9415703652
 20
8.9089889674
 30
0.0
 10
8.9410389572
 20
8.8552529077
 30
0.0
 10
8.941551116
 20
8.8024956983
 30
0.0
 10
8.9430740219
 20
8.7509370373
 30
0.0
 10
8.9455162455
 20
8.700695582
 30
0.0
 10
8.9477006639
 20
8.6676719392
 30
0.0
 10
8.9489063288
 20
8.6513870793
 30
0.0
  0
SPLINE
  5
3AC
100
AcDbEntity
  8
0
100
AcDbSpline
 62
7
  6
CONTINUOUS
 70
0
 71
3
 72
19
 73
15
 74
0
 42
0.0000001
 43
0.0000001
 44
0.0000000001
 40
0.0
 40
0.0
 40
0.0
 40
0.0
 40
0.1211309729
 40
0.2440504747
 40
0.3061433785
 40
0.3686103884
 40
0.4313995925
 40
0.494447987
 40
0.5576846701
 40
0.6210353746
 40
0.6844274546
 40
0.747793941
 40
0.8742258059
 40
1.0
 40
1.0
 40
1.0
 40
1.0
 10
8.9775110515
 20
8.5998585019
 30
0.0
 10
8.9913417817
 20
8.5889803981
 30
0.0
 10
9.0194116373
 20
8.5673214624
 30
0.0
 10
9.0551930122
 20
8.5409054906
 30
0.0
 10
9.0844894913
 20
8.5200684912
 30
0.0
 10
9.106860261
 20
8.5045682049
 30
0.0
 10
9.1295403075
 20
8.4892743989
 30
0.0
 10
9.1525081461
 20
8.4742113986
 30
0.0
 10
9.1757362678
 20
8.4594006958
 30
0.0
 10
9.1991926156
 20
8.4448592497
 30
0.0
 10
9.2228428287
 20
8.4305987725
 30
0.0
 10
9.2545637112
 20
8.4119819548
 30
0.0
 10
9.2944900876
 20
8.389450129
 30
0.0
 10
9.3267498948
 20
8.3720800518
 30
0.0
 10
9.3429096677
 20
8.3635550324
 30
0.0
  0
SPLINE
  5
3AD
100
AcDbEntity
  8
0
100
AcDbSpline
 62
7
  6
CONTINUOUS
 70
0
 71
3
 72
15
 73
11
 74
0
 42
0.0000001
 43
0.0000001
 44
0.0000000001
 40
0.0
 40
0.0
 40
0.0
 40
0.0
 40
0.1128128137
 40
0.2295619377
 40
0.3503742146
 40
0.4750618339
 40
0.6031113457
 40
0.7337873942
 40
0.8663091291
 40
1.0
 40
1.0
 40
1.0
 40
1.0
 10
9.4001191132
 20
8.3595875438
 30
0.0
 10
9.4140784782
 20
8.3661246777
 30
0.0
 10
9.4424373644
 20
8.3795275455
 30
0.0
 10
9.4855614806
 20
8.4003176695
 30
0.0
 10
9.5299678403
 20
8.4221806217
 30
0.0
 10
9.5755669514
 20
8.4451124385
 30
0.0
 10
9.6221747409
 20
8.469034217
 30
0.0
 10
9.6695479827
 20
8.4938052478
 30
0.0
 10
9.7174347731
 20
8.5192547424
 30
0.0
 10
9.7494569326
 20
8.5365077425
 30
0.0
 10
9.7655177294
 20
8.5452100532
 30
0.0
  0
SPLINE
  5
3AE
100
AcDbEntity
  8
0
100
AcDbSpline
 62
7
  6
CONTINUOUS
 70
0
 71
3
 72
19
 73
15
 74
0
 42
0.0000001
 43
0.0000001
 44
0.0000000001
 40
0.0
 40
0.0
 40
0.0
 40
0.0
 40
0.1328015629
 40
0.2663305367
 40
0.3994308556
 40
0.4652784426
 40
0.530309522
 40
0.5942642601
 40
0.6569145156
 40
0.7180856282
 40
0.7776680806
 40
0.8356180425
 40
0.8919479122
 40
1.0
 40
1.0
 40
1.0
 40
1.0
 10
9.9068215753
 20
8.7016301422
 30
0.0
 10
9.9088189446
 20
8.7202493123
 30
0.0
 10
9.9124885641
 20
8.7576270831
 30
0.0
 10
9.9167502407
 20
8.8137934848
 30
0.0
 10
9.919042826
 20
8.8606265934
 30
0.0
 10
9.9199855138
 20
8.8978390683
 30
0.0
 10
9.9202253103
 20
8.9253123259
 30
0.0
 10
9.9199933467
 20
8.9523348107
 30
0.0
 10
9.9192960162
 20
8.978804852
 30
0.0
 10
9.918152148
 20
9.0046422164
 30
0.0
 10
9.9165905273
 20
9.029793576
 30
0.0
 10
9.9146463282
 20
9.0542335029
 30
0.0
 10
9.9116367523
 20
9.0854401812
 30
0.0
 10
9.9088646798
 20
9.1084575891
 30
0.0
 10
9.9068215753
 20
9.1235561211
 30
0.0
  0
SPLINE
  5
3AF
100
AcDbEntity
  8
0
100
AcDbSpline
 62
7
  6
CONTINUOUS
 70
0
 71
3
 72
20
 73
16
 74
0
 42
0.0000001
 43
0.0000001
 44
0.0000000001
 40
0.0
 40
0.0
 40
0.0
 40
0.0
 40
0.1168044981
 40
0.176753794
 40
0.2377411636
 40
0.2997231994
 40
0.3626075767
 40
0.4262490679
 40
0.4904552156
 40
0.5550012545
 40
0.6196521964
 40
0.6841864603
 40
0.7484148953
 40
0.875411599
 40
1.0
 40
1.0
 40
1.0
 40
1.0
 10
9.8782168526
 20
9.1750846984
 30
0.0
 10
9.8656008178
 20
9.1865057645
 30
0.0
 10
9.8462326301
 20
9.2034874978
 30
0.0
 10
9.8195756896
 20
9.2256071931
 30
0.0
 10
9.7987361776
 20
9.2422220514
 30
0.0
 10
9.77721653
 20
9.2586606167
 30
0.0
 10
9.7550323082
 20
9.27485591
 30
0.0
 10
9.7322244007
 20
9.2907348123
 30
0.0
 10
9.7088588832
 20
9.3062238625
 30
0.0
 10
9.6850228608
 20
9.3212560786
 30
0.0
 10
9.6608166918
 20
9.3357775555
 30
0.0
 10
9.6363441503
 20
9.3497521343
 30
0.0
 10
9.6036130822
 20
9.367566566
 30
0.0
 10
9.5625771111
 20
9.3884028725
 30
0.0
 10
9.5293656754
 20
9.4039267817
 30
0.0
 10
9.5128182363
 20
9.411388168
 30
0.0
  0
SPLINE
  5
3B0
100
AcDbEntity
  8
0
100
AcDbSpline
 62
7
  6
CONTINUOUS
 70
0
 71
3
 72
15
 73
11
 74
0
 42
0.0000001
 43
0.0000001
 44
0.0000000001
 40
0.0
 40
0.0
 40
0.0
 40
0.0
 40
0.1024590394
 40
0.2125892926
 40
0.3308757892
 40
0.4568382862
 40
0.5888686932
 40
0.7247066359
 40
0.8622407571
 40
1.0
 40
1.0
 40
1.0
 40
1.0
 10
9.4556087909
 20
9.4153556565
 30
0.0
 10
9.4427653015
 20
9.4097742281
 30
0.0
 10
9.4161978561
 20
9.3980057106
 30
0.0
 10
9.3751246019
 20
9.3790772963
 30
0.0
 10
9.3314546958
 20
9.3581214632
 30
0.0
 10
9.2854370261
 20
9.3351538752
 30
0.0
 10
9.2376275933
 20
9.3104178009
 30
0.0
 10
9.1887438398
 20
9.2843271773
 30
0.0
 10
9.1394566451
 20
9.2573373254
 30
0.0
 10
9.1066130085
 20
9.2389777446
 30
0.0
 10
9.0902101747
 20
9.2297331471
 30
0.0
  0
SPLINE
  5
3B1
100
AcDbEntity
  8
0
100
AcDbSpline
 62
7
  6
CONTINUOUS
 70
0
 71
3
 72
15
 73
11
 74
0
 42
0.0000001
 43
0.0000001
 44
0.0000000001
 40
0.0
 40
0.0
 40
0.0
 40
0.0
 40
0.1160069896
 40
0.2351057593
 40
0.3573257466
 40
0.4824244147
 40
0.6098947336
 40
0.7390710453
 40
0.8692872503
 40
1.0
 40
1.0
 40
1.0
 40
1.0
 10
9.7941224521
 20
8.592771142
 30
0.0
 10
9.7929167872
 20
8.609056002
 30
0.0
 10
9.7907323689
 20
8.6420796448
 30
0.0
 10
9.7882901453
 20
8.6923211001
 30
0.0
 10
9.7867672394
 20
8.7438797611
 30
0.0
 10
9.7862550806
 20
8.7966369705
 30
0.0
 10
9.7867864886
 20
8.8503730302
 30
0.0
 10
9.7883245889
 20
8.9048098576
 30
0.0
 10
9.7907759004
 20
8.9596693666
 30
0.0
 10
9.7929331779
 20
8.9963361471
 30
0.0
 10
9.7941224521
 20
9.0146971209
 30
0.0
  0
SPLINE
  5
3B2
100
AcDbEntity
  8
0
100
AcDbSpline
 62
7
  6
CONTINUOUS
 70
0
 71
3
 72
19
 73
15
 74
0
 42
0.0000001
 43
0.0000001
 44
0.0000000001
 40
0.0
 40
0.0
 40
0.0
 40
0.0
 40
0.1257741941
 40
0.252206059
 40
0.3155725455
 40
0.3789646255
 40
0.4423153299
 40
0.505552013
 40
0.5686004075
 40
0.6313896116
 40
0.6938566216
 40
0.7559495253
 40
0.8788690271
 40
1.0
 40
1.0
 40
1.0
 40
1.0
 10
9.7655177294
 20
9.0662256983
 30
0.0
 10
9.7493579565
 20
9.0747507177
 30
0.0
 10
9.7170981492
 20
9.0921207949
 30
0.0
 10
9.6771717728
 20
9.1146526207
 30
0.0
 10
9.6454508903
 20
9.1332694384
 30
0.0
 10
9.6218006773
 20
9.1475299156
 30
0.0
 10
9.5983443295
 20
9.1620713617
 30
0.0
 10
9.5751162078
 20
9.1768820645
 30
0.0
 10
9.5521483692
 20
9.1919450649
 30
0.0
 10
9.5294683227
 20
9.2072388708
 30
0.0
 10
9.507097553
 20
9.2227391571
 30
0.0
 10
9.4778010739
 20
9.2435761566
 30
0.0
 10
9.442019699
 20
9.2699921283
 30
0.0
 10
9.4139498434
 20
9.291651064
 30
0.0
 10
9.4001191132
 20
9.3025291678
 30
0.0
  0
SPLINE
  5
3B3
100
AcDbEntity
  8
0
100
AcDbSpline
 62
7
  6
CONTINUOUS
 70
0
 71
3
 72
15
 73
11
 74
0
 42
0.0000001
 43
0.0000001
 44
0.0000000001
 40
0.0
 40
0.0
 40
0.0
 40
0.0
 40
0.1336908709
 40
0.2662126058
 40
0.3968886543
 40
0.5249381662
 40
0.6496257854
 40
0.7704380623
 40
0.8871871863
 40
1.0
 40
1.0
 40
1.0
 40
1.0
 10
9.3429096677
 20
9.3064966564
 30
0.0
 10
9.3268488709
 20
9.2977943457
 30
0.0
 10
9.2948267114
 20
9.2805413455
 30
0.0
 10
9.246939921
 20
9.255091851
 30
0.0
 10
9.1995666792
 20
9.2303208202
 30
0.0
 10
9.1529588897
 20
9.2063990417
 30
0.0
 10
9.1073597786
 20
9.1834672248
 30
0.0
 10
9.0629534189
 20
9.1616042726
 30
0.0
 10
9.0198293027
 20
9.1408141487
 30
0.0
 10
8.9914704165
 20
9.1274112809
 30
0.0
 10
8.9775110515
 20
9.120874147
 30
0.0
  0
SPLINE
  5
3B4
100
AcDbEntity
  8
0
100
AcDbSpline
 62
7
  6
CONTINUOUS
 70
0
 71
3
 72
52
 73
48
 74
0
 42
0.0000001
 43
0.0000001
 44
0.0000000001
 40
0.0
 40
0.0
 40
0.0
 40
0.0
 40
0.0311866657
 40
0.0621624584
 40
0.0775790405
 40
0.0929473314
 40
0.1082695143
 40
0.1235485687
 40
0.138787887
 40
0.1539911669
 40
0.1691625276
 40
0.1843064036
 40
0.199427552
 40
0.2145309418
 40
0.2296217493
 40
0.2447052657
 40
0.2597868728
 40
0.2748719733
 40
0.2899659279
 40
0.3050740159
 40
0.3202013364
 40
0.3353528147
 40
0.3505330972
 40
0.3657465569
 40
0.3809971862
 40
0.3962886177
 40
0.4116240404
 40
0.4270062155
 40
0.4424374262
 40
0.4579194555
 40
0.4890310876
 40
0.5203549231
 40
0.5518869253
 40
0.5836151897
 40
0.6155205913
 40
0.6475775326
 40
0.6797550132
 40
0.7120177639
 40
0.7443275126
 40
0.7766443786
 40
0.8089282028
 40
0.8411399968
 40
0.8732432951
 40
0.9052053839
 40
0.9369988315
 40
0.9686016369
 40
1.0
 40
1.0
 40
1.0
 40
1.0
 10
9.3626980722
 20
8.4091780602
 30
0.0
 10
9.3762388046
 20
8.4082390073
 30
0.0
 10
9.4033379779
 20
8.4076811595
 30
0.0
 10
9.4370567574
 20
8.4103341318
 30
0.0
 10
9.4636285016
 20
8.4144564233
 30
0.0
 10
9.4832864915
 20
8.4185314104
 30
0.0
 10
9.5026537662
 20
8.4235849333
 30
0.0
 10
9.5216841845
 20
8.4296045421
 30
0.0
 10
9.5403317645
 20
8.4365758357
 30
0.0
 10
9.558551529
 20
8.4444821598
 30
0.0
 10
9.5762996167
 20
8.4533042446
 30
0.0
 10
9.5935330233
 20
8.4630212205
 30
0.0
 10
9.6102104673
 20
8.4736091792
 30
0.0
 10
9.626291329
 20
8.4850432094
 30
0.0
 10
9.6417372914
 20
8.4972950791
 30
0.0
 10
9.6565105293
 20
8.5103359481
 30
0.0
 10
9.6705760251
 20
8.5241336617
 30
0.0
 10
9.6838991992
 20
8.5386556085
 30
0.0
 10
9.6964485817
 20
8.5538661507
 30
0.0
 10
9.7081932835
 20
8.5697291173
 30
0.0
 10
9.7191055658
 20
8.586205805
 30
0.0
 10
9.7291586474
 20
8.6032567885
 30
0.0
 10
9.738328681
 20
8.6208407112
 30
0.0
 10
9.7465933585
 20
8.6389152852
 30
0.0
 10
9.753932866
 20
8.6574368746
 30
0.0
 10
9.7603296325
 20
8.6763607722
 30
0.0
 10
9.7657680355
 20
8.6956414639
 30
0.0
 10
9.7702354176
 20
8.7152321951
 30
0.0
 10
9.7737205175
 20
8.7350864851
 30
0.0
 10
9.7770524308
 20
8.7618842718
 30
0.0
 10
9.7787140883
 20
8.7958158265
 30
0.0
 10
9.7766972196
 20
8.8367264277
 30
0.0
 10
9.7706952973
 20
8.877516703
 30
0.0
 10
9.7607670223
 20
8.9177918795
 30
0.0
 10
9.7470091084
 20
8.9571658737
 30
0.0
 10
9.7295546661
 20
8.9952605539
 30
0.0
 10
9.7085720754
 20
9.0317104469
 30
0.0
 10
9.6842633255
 20
9.0661658563
 30
0.0
 10
9.6568620862
 20
9.0982962227
 30
0.0
 10
9.6266315162
 20
9.1277932103
 30
0.0
 10
9.5938617448
 20
9.1543736168
 30
0.0
 10
9.5588672012
 20
9.1777820536
 30
0.0
 10
9.5219834804
 20
9.1977933042
 30
0.0
 10
9.4835647901
 20
9.2142146404
 30
0.0
 10
9.4439784817
 20
9.2268872988
 30
0.0
 10
9.4036097126
 20
9.2356884114
 30
0.0
 10
9.37633072
 20
9.2389288927
 30
0.0
 10
9.3626980722
 20
9.2398743201
 30
0.0
  0
SPLINE
  5
3B5
100
AcDbEntity
  8
0
100
AcDbSpline
 62
7
  6
CONTINUOUS
 70
0
 71
3
 72
52
 73
48
 74
0
 42
0.0000001
 43
0.0000001
 44
0.0000000001
 40
0.0
 40
0.0
 40
0.0
 40
0.0
 40
0.0311866657
 40
0.0621624584
 40
0.0775790405
 40
0.0929473314
 40
0.1082695143
 40
0.1235485687
 40
0.138787887
 40
0.1539911669
 40
0.1691625276
 40
0.1843064036
 40
0.199427552
 40
0.2145309418
 40
0.2296217493
 40
0.2447052657
 40
0.2597868728
 40
0.2748719733
 40
0.2899659279
 40
0.3050740159
 40
0.3202013364
 40
0.3353528147
 40
0.3505330972
 40
0.3657465569
 40
0.3809971862
 40
0.3962886177
 40
0.4116240404
 40
0.4270062155
 40
0.4424374262
 40
0.4579194555
 40
0.4890310876
 40
0.5203549231
 40
0.5518869253
 40
0.5836151897
 40
0.6155205913
 40
0.6475775326
 40
0.6797550132
 40
0.7120177639
 40
0.7443275126
 40
0.7766443786
 40
0.8089282028
 40
0.8411399968
 40
0.8732432951
 40
0.9052053839
 40
0.9369988315
 40
0.9686016369
 40
1.0
 40
1.0
 40
1.0
 40
1.0
 10
9.3626980722
 20
9.2398743201
 30
0.0
 10
9.3491573399
 20
9.240813373
 30
0.0
 10
9.3220581666
 20
9.2413712208
 30
0.0
 10
9.2883393871
 20
9.2387182485
 30
0.0
 10
9.2617676428
 20
9.234595957
 30
0.0
 10
9.242109653
 20
9.2305209699
 30
0.0
 10
9.2227423782
 20
9.225467447
 30
0.0
 10
9.20371196
 20
9.2194478382
 30
0.0
 10
9.18506438
 20
9.2124765446
 30
0.0
 10
9.1668446155
 20
9.2045702205
 30
0.0
 10
9.1490965278
 20
9.1957481357
 30
0.0
 10
9.1318631212
 20
9.1860311598
 30
0.0
 10
9.1151856772
 20
9.1754432011
 30
0.0
 10
9.0991048155
 20
9.1640091709
 30
0.0
 10
9.0836588531
 20
9.1517573012
 30
0.0
 10
9.0688856152
 20
9.1387164322
 30
0.0
 10
9.0548201194
 20
9.1249187186
 30
0.0
 10
9.0414969453
 20
9.1103967719
 30
0.0
 10
9.0289475628
 20
9.0951862296
 30
0.0
 10
9.017202861
 20
9.079323263
 30
0.0
 10
9.0062905787
 20
9.0628465753
 30
0.0
 10
8.9962374971
 20
9.0457955918
 30
0.0
 10
8.9870674634
 20
9.0282116691
 30
0.0
 10
8.978802786
 20
9.0101370951
 30
0.0
 10
8.9714632785
 20
8.9916155057
 30
0.0
 10
8.965066512
 20
8.9726916081
 30
0.0
 10
8.959628109
 20
8.9534109164
 30
0.0
 10
8.9551607269
 20
8.9338201852
 30
0.0
 10
8.951675627
 20
8.9139658952
 30
0.0
 10
8.9483437137
 20
8.8871681085
 30
0.0
 10
8.9466820562
 20
8.8532365538
 30
0.0
 10
8.9486989248
 20
8.8123259526
 30
0.0
 10
8.9547008472
 20
8.7715356773
 30
0.0
 10
8.9646291222
 20
8.7312605008
 30
0.0
 10
8.9783870361
 20
8.6918865066
 30
0.0
 10
8.9958414784
 20
8.6537918264
 30
0.0
 10
9.0168240691
 20
8.6173419334
 30
0.0
 10
9.0411328189
 20
8.582886524
 30
0.0
 10
9.0685340583
 20
8.5507561576
 30
0.0
 10
9.0987646282
 20
8.52125917
 30
0.0
 10
9.1315343997
 20
8.4946787635
 30
0.0
 10
9.1665289432
 20
8.4712703267
 30
0.0
 10
9.2034126641
 20
8.4512590761
 30
0.0
 10
9.2418313544
 20
8.4348377399
 30
0.0
 10
9.2814176628
 20
8.4221650815
 30
0.0
 10
9.3217864319
 20
8.4133639689
 30
0.0
 10
9.3490654244
 20
8.4101234876
 30
0.0
 10
9.3626980722
 20
8.4091780602
 30
0.0
  0
SPLINE
  5
3B6
100
AcDbEntity
  8
0
100
AcDbSpline
 62
7
  6
CONTINUOUS
 70
0
 71
3
 72
15
 73
11
 74
0
 42
0.0000001
 43
0.0000001
 44
0.0000000001
 40
0.0
 40
0.0
 40
0.0
 40
0.0
 40
0.1307127497
 40
0.2609289548
 40
0.3901052665
 40
0.5175755854
 40
0.6426742535
 40
0.7648942407
 40
0.8839930104
 40
1.0
 40
1.0
 40
1.0
 40
1.0
 10
10.8807580958
 20
8.9393386831
 30
0.0
 10
10.8795688216
 20
8.9209777092
 30
0.0
 10
10.877411544
 20
8.8843109287
 30
0.0
 10
10.8749602325
 20
8.8294514197
 30
0.0
 10
10.8734221323
 20
8.7750145923
 30
0.0
 10
10.8728907243
 20
8.7212785326
 30
0.0
 10
10.8734028831
 20
8.6685213232
 30
0.0
 10
10.8749257889
 20
8.6169626623
 30
0.0
 10
10.8773680125
 20
8.566721207
 30
0.0
 10
10.8795524309
 20
8.5336975641
 30
0.0
 10
10.8807580958
 20
8.5174127042
 30
0.0
  0
SPLINE
  5
3B7
100
AcDbEntity
  8
0
100
AcDbSpline
 62
7
  6
CONTINUOUS
 70
0
 71
3
 72
19
 73
15
 74
0
 42
0.0000001
 43
0.0000001
 44
0.0000000001
 40
0.0
 40
0.0
 40
0.0
 40
0.0
 40
0.1211309729
 40
0.2440504747
 40
0.3061433785
 40
0.3686103884
 40
0.4313995925
 40
0.494447987
 40
0.5576846701
 40
0.6210353746
 40
0.6844274546
 40
0.747793941
 40
0.8742258059
 40
1.0
 40
1.0
 40
1.0
 40
1.0
 10
10.9093628185
 20
8.4658841268
 30
0.0
 10
10.9231935488
 20
8.455006023
 30
0.0
 10
10.9512634044
 20
8.4333470873
 30
0.0
 10
10.9870447793
 20
8.4069311156
 30
0.0
 10
11.0163412584
 20
8.3860941161
 30
0.0
 10
11.0387120281
 20
8.3705938298
 30
0.0
 10
11.0613920746
 20
8.3553000239
 30
0.0
 10
11.0843599132
 20
8.3402370235
 30
0.0
 10
11.1075880348
 20
8.3254263207
 30
0.0
 10
11.1310443827
 20
8.3108848746
 30
0.0
 10
11.1546945957
 20
8.2966243974
 30
0.0
 10
11.1864154782
 20
8.2780075797
 30
0.0
 10
11.2263418546
 20
8.2554757539
 30
0.0
 10
11.2586016619
 20
8.2381056767
 30
0.0
 10
11.2747614348
 20
8.2295806573
 30
0.0
  0
SPLINE
  5
3B8
100
AcDbEntity
  8
0
100
AcDbSpline
 62
7
  6
CONTINUOUS
 70
0
 71
3
 72
15
 73
11
 74
0
 42
0.0000001
 43
0.0000001
 44
0.0000000001
 40
0.0
 40
0.0
 40
0.0
 40
0.0
 40
0.1128128137
 40
0.2295619377
 40
0.3503742146
 40
0.4750618338
 40
0.6031113457
 40
0.7337873942
 40
0.8663091291
 40
1.0
 40
1.0
 40
1.0
 40
1.0
 10
11.3319708802
 20
8.2256131688
 30
0.0
 10
11.3459302452
 20
8.2321503026
 30
0.0
 10
11.3742891314
 20
8.2455531704
 30
0.0
 10
11.4174132476
 20
8.2663432944
 30
0.0
 10
11.4618196074
 20
8.2882062466
 30
0.0
 10
11.5074187184
 20
8.3111380635
 30
0.0
 10
11.5540265079
 20
8.335059842
 30
0.0
 10
11.6013997497
 20
8.3598308728
 30
0.0
 10
11.6492865401
 20
8.3852803673
 30
0.0
 10
11.6813086996
 20
8.4025333674
 30
0.0
 10
11.6973694965
 20
8.4112356781
 30
0.0
  0
SPLINE
  5
3B9
100
AcDbEntity
  8
0
100
AcDbSpline
 62
7
  6
CONTINUOUS
 70
0
 71
3
 72
19
 73
15
 74
0
 42
0.0000001
 43
0.0000001
 44
0.0000000001
 40
0.0
 40
0.0
 40
0.0
 40
0.0
 40
0.1328015629
 40
0.2663305367
 40
0.3994308556
 40
0.4652784426
 40
0.530309522
 40
0.5942642601
 40
0.6569145156
 40
0.7180856282
 40
0.7776680806
 40
0.8356180425
 40
0.8919479122
 40
1.0
 40
1.0
 40
1.0
 40
1.0
 10
11.8386733424
 20
8.5676557671
 30
0.0
 10
11.8406707116
 20
8.5862749372
 30
0.0
 10
11.8443403311
 20
8.623652708
 30
0.0
 10
11.8486020078
 20
8.6798191097
 30
0.0
 10
11.850894593
 20
8.7266522183
 30
0.0
 10
11.8518372808
 20
8.7638646932
 30
0.0
 10
11.8520770774
 20
8.7913379509
 30
0.0
 10
11.8518451137
 20
8.8183604356
 30
0.0
 10
11.8511477832
 20
8.844830477
 30
0.0
 10
11.8500039151
 20
8.8706678413
 30
0.0
 10
11.8484422943
 20
8.895819201
 30
0.0
 10
11.8464980952
 20
8.9202591278
 30
0.0
 10
11.8434885194
 20
8.9514658062
 30
0.0
 10
11.8407164468
 20
8.9744832141
 30
0.0
 10
11.8386733424
 20
8.989581746
 30
0.0
  0
SPLINE
  5
3BA
100
AcDbEntity
  8
0
100
AcDbSpline
 62
7
  6
CONTINUOUS
 70
0
 71
3
 72
20
 73
16
 74
0
 42
0.0000001
 43
0.0000001
 44
0.0000000001
 40
0.0
 40
0.0
 40
0.0
 40
0.0
 40
0.1168044981
 40
0.176753794
 40
0.2377411636
 40
0.2997231994
 40
0.3626075767
 40
0.4262490679
 40
0.4904552156
 40
0.5550012545
 40
0.6196521964
 40
0.6841864603
 40
0.7484148953
 40
0.875411599
 40
1.0
 40
1.0
 40
1.0
 40
1.0
 10
11.8100686197
 20
9.0411103233
 30
0.0
 10
11.7974525849
 20
9.0525313894
 30
0.0
 10
11.7780843971
 20
9.0695131227
 30
0.0
 10
11.7514274567
 20
9.091632818
 30
0.0
 10
11.7305879446
 20
9.1082476763
 30
0.0
 10
11.709068297
 20
9.1246862416
 30
0.0
 10
11.6868840752
 20
9.1408815349
 30
0.0
 10
11.6640761678
 20
9.1567604372
 30
0.0
 10
11.6407106503
 20
9.1722494874
 30
0.0
 10
11.6168746278
 20
9.1872817035
 30
0.0
 10
11.5926684589
 20
9.2018031804
 30
0.0
 10
11.5681959174
 20
9.2157777593
 30
0.0
 10
11.5354648493
 20
9.2335921909
 30
0.0
 10
11.4944288781
 20
9.2544284974
 30
0.0
 10
11.4612174424
 20
9.2699524066
 30
0.0
 10
11.4446700034
 20
9.2774137929
 30
0.0
  0
SPLINE
  5
3BB
100
AcDbEntity
  8
0
100
AcDbSpline
 62
7
  6
CONTINUOUS
 70
0
 71
3
 72
15
 73
11
 74
0
 42
0.0000001
 43
0.0000001
 44
0.0000000001
 40
0.0
 40
0.0
 40
0.0
 40
0.0
 40
0.1024590394
 40
0.2125892926
 40
0.3308757892
 40
0.4568382862
 40
0.5888686932
 40
0.7247066359
 40
0.8622407571
 40
1.0
 40
1.0
 40
1.0
 40
1.0
 10
11.387460558
 20
9.2813812814
 30
0.0
 10
11.3746170686
 20
9.275799853
 30
0.0
 10
11.3480496232
 20
9.2640313356
 30
0.0
 10
11.3069763689
 20
9.2451029212
 30
0.0
 10
11.2633064629
 20
9.2241470882
 30
0.0
 10
11.2172887931
 20
9.2011795001
 30
0.0
 10
11.1694793604
 20
9.1764434259
 30
0.0
 10
11.1205956069
 20
9.1503528022
 30
0.0
 10
11.0713084121
 20
9.1233629504
 30
0.0
 10
11.0384647755
 20
9.1050033695
 30
0.0
 10
11.0220619417
 20
9.0957587721
 30
0.0
  0
SPLINE
  5
3BC
100
AcDbEntity
  8
0
100
AcDbSpline
 62
7
  6
CONTINUOUS
 70
0
 71
3
 72
15
 73
11
 74
0
 42
0.0000001
 43
0.0000001
 44
0.0000000001
 40
0.0
 40
0.0
 40
0.0
 40
0.0
 40
0.1160069896
 40
0.2351057593
 40
0.3573257466
 40
0.4824244147
 40
0.6098947336
 40
0.7390710453
 40
0.8692872503
 40
1.0
 40
1.0
 40
1.0
 40
1.0
 10
11.7259742192
 20
8.4587967669
 30
0.0
 10
11.7247685543
 20
8.4750816269
 30
0.0
 10
11.7225841359
 20
8.5081052697
 30
0.0
 10
11.7201419123
 20
8.558346725
 30
0.0
 10
11.7186190064
 20
8.609905386
 30
0.0
 10
11.7181068477
 20
8.6626625954
 30
0.0
 10
11.7186382557
 20
8.7163986551
 30
0.0
 10
11.7201763559
 20
8.7708354825
 30
0.0
 10
11.7226276674
 20
8.8256949915
 30
0.0
 10
11.7247849449
 20
8.862361772
 30
0.0
 10
11.7259742192
 20
8.8807227459
 30
0.0
  0
SPLINE
  5
3BD
100
AcDbEntity
  8
0
100
AcDbSpline
 62
7
  6
CONTINUOUS
 70
0
 71
3
 72
19
 73
15
 74
0
 42
0.0000001
 43
0.0000001
 44
0.0000000001
 40
0.0
 40
0.0
 40
0.0
 40
0.0
 40
0.1257741941
 40
0.252206059
 40
0.3155725455
 40
0.3789646255
 40
0.4423153299
 40
0.505552013
 40
0.5686004075
 40
0.6313896116
 40
0.6938566216
 40
0.7559495253
 40
0.8788690271
 40
1.0
 40
1.0
 40
1.0
 40
1.0
 10
11.6973694965
 20
8.9322513232
 30
0.0
 10
11.6812097236
 20
8.9407763426
 30
0.0
 10
11.6489499163
 20
8.9581464198
 30
0.0
 10
11.6090235399
 20
8.9806782456
 30
0.0
 10
11.5773026574
 20
8.9992950633
 30
0.0
 10
11.5536524443
 20
9.0135555405
 30
0.0
 10
11.5301960965
 20
9.0280969866
 30
0.0
 10
11.5069679749
 20
9.0429076894
 30
0.0
 10
11.4840001362
 20
9.0579706898
 30
0.0
 10
11.4613200897
 20
9.0732644957
 30
0.0
 10
11.4389493201
 20
9.088764782
 30
0.0
 10
11.409652841
 20
9.1096017815
 30
0.0
 10
11.373871466
 20
9.1360177532
 30
0.0
 10
11.3458016104
 20
9.1576766889
 30
0.0
 10
11.3319708802
 20
9.1685547928
 30
0.0
  0
SPLINE
  5
3BE
100
AcDbEntity
  8
0
100
AcDbSpline
 62
7
  6
CONTINUOUS
 70
0
 71
3
 72
15
 73
11
 74
0
 42
0.0000001
 43
0.0000001
 44
0.0000000001
 40
0.0
 40
0.0
 40
0.0
 40
0.0
 40
0.1336908709
 40
0.2662126058
 40
0.3968886543
 40
0.5249381662
 40
0.6496257854
 40
0.7704380623
 40
0.8871871863
 40
1.0
 40
1.0
 40
1.0
 40
1.0
 10
11.2747614348
 20
9.1725222813
 30
0.0
 10
11.2587006379
 20
9.1638199706
 30
0.0
 10
11.2266784784
 20
9.1465669704
 30
0.0
 10
11.178791688
 20
9.1211174759
 30
0.0
 10
11.1314184462
 20
9.0963464451
 30
0.0
 10
11.0848106567
 20
9.0724246666
 30
0.0
 10
11.0392115457
 20
9.0494928498
 30
0.0
 10
10.9948051859
 20
9.0276298976
 30
0.0
 10
10.9516810697
 20
9.0068397736
 30
0.0
 10
10.9233221835
 20
8.9934369058
 30
0.0
 10
10.9093628185
 20
8.9868997719
 30
0.0
  0
SPLINE
  5
3BF
100
AcDbEntity
  8
0
100
AcDbSpline
 62
7
  6
CONTINUOUS
 70
0
 71
3
 72
52
 73
48
 74
0
 42
0.0000001
 43
0.0000001
 44
0.0000000001
 40
0.0
 40
0.0
 40
0.0
 40
0.0
 40
0.0311866657
 40
0.0621624584
 40
0.0775790405
 40
0.0929473314
 40
0.1082695143
 40
0.1235485687
 40
0.138787887
 40
0.1539911669
 40
0.1691625276
 40
0.1843064036
 40
0.199427552
 40
0.2145309418
 40
0.2296217493
 40
0.2447052657
 40
0.2597868728
 40
0.2748719733
 40
0.2899659279
 40
0.3050740159
 40
0.3202013364
 40
0.3353528147
 40
0.3505330972
 40
0.3657465569
 40
0.3809971862
 40
0.3962886177
 40
0.4116240404
 40
0.4270062155
 40
0.4424374262
 40
0.4579194555
 40
0.4890310876
 40
0.5203549231
 40
0.5518869253
 40
0.5836151897
 40
0.6155205913
 40
0.6475775326
 40
0.6797550132
 40
0.7120177639
 40
0.7443275126
 40
0.7766443786
 40
0.8089282028
 40
0.8411399968
 40
0.8732432951
 40
0.9052053839
 40
0.9369988315
 40
0.9686016369
 40
1.0
 40
1.0
 40
1.0
 40
1.0
 10
11.2945498393
 20
8.2752036852
 30
0.0
 10
11.3080905716
 20
8.2742646322
 30
0.0
 10
11.335189745
 20
8.2737067844
 30
0.0
 10
11.3689085244
 20
8.2763597567
 30
0.0
 10
11.3954802687
 20
8.2804820482
 30
0.0
 10
11.4151382585
 20
8.2845570353
 30
0.0
 10
11.4345055333
 20
8.2896105582
 30
0.0
 10
11.4535359516
 20
8.295630167
 30
0.0
 10
11.4721835315
 20
8.3026014606
 30
0.0
 10
11.4904032961
 20
8.3105077847
 30
0.0
 10
11.5081513837
 20
8.3193298695
 30
0.0
 10
11.5253847903
 20
8.3290468454
 30
0.0
 10
11.5420622343
 20
8.3396348041
 30
0.0
 10
11.5581430961
 20
8.3510688343
 30
0.0
 10
11.5735890584
 20
8.363320704
 30
0.0
 10
11.5883622963
 20
8.376361573
 30
0.0
 10
11.6024277921
 20
8.3901592866
 30
0.0
 10
11.6157509662
 20
8.4046812334
 30
0.0
 10
11.6283003488
 20
8.4198917757
 30
0.0
 10
11.6400450506
 20
8.4357547422
 30
0.0
 10
11.6509573328
 20
8.4522314299
 30
0.0
 10
11.6610104144
 20
8.4692824135
 30
0.0
 10
11.6701804481
 20
8.4868663361
 30
0.0
 10
11.6784451256
 20
8.5049409101
 30
0.0
 10
11.685784633
 20
8.5234624995
 30
0.0
 10
11.6921813995
 20
8.5423863971
 30
0.0
 10
11.6976198026
 20
8.5616670889
 30
0.0
 10
11.7020871847
 20
8.58125782
 30
0.0
 10
11.7055722845
 20
8.60111211
 30
0.0
 10
11.7089041978
 20
8.6279098967
 30
0.0
 10
11.7105658554
 20
8.6618414515
 30
0.0
 10
11.7085489867
 20
8.7027520526
 30
0.0
 10
11.7025470643
 20
8.7435423279
 30
0.0
 10
11.6926187893
 20
8.7838175045
 30
0.0
 10
11.6788608754
 20
8.8231914987
 30
0.0
 10
11.6614064331
 20
8.8612861788
 30
0.0
 10
11.6404238424
 20
8.8977360718
 30
0.0
 10
11.6161150926
 20
8.9321914812
 30
0.0
 10
11.5887138533
 20
8.9643218477
 30
0.0
 10
11.5584832833
 20
8.9938188352
 30
0.0
 10
11.5257135119
 20
9.0203992417
 30
0.0
 10
11.4907189683
 20
9.0438076785
 30
0.0
 10
11.4538352475
 20
9.0638189291
 30
0.0
 10
11.4154165571
 20
9.0802402654
 30
0.0
 10
11.3758302487
 20
9.0929129237
 30
0.0
 10
11.3354614796
 20
9.1017140363
 30
0.0
 10
11.3081824871
 20
9.1049545176
 30
0.0
 10
11.2945498393
 20
9.105899945
 30
0.0
  0
SPLINE
  5
3C0
100
AcDbEntity
  8
0
100
AcDbSpline
 62
7
  6
CONTINUOUS
 70
0
 71
3
 72
52
 73
48
 74
0
 42
0.0000001
 43
0.0000001
 44
0.0000000001
 40
0.0
 40
0.0
 40
0.0
 40
0.0
 40
0.0311866657
 40
0.0621624584
 40
0.0775790405
 40
0.0929473314
 40
0.1082695143
 40
0.1235485687
 40
0.138787887
 40
0.1539911669
 40
0.1691625276
 40
0.1843064036
 40
0.199427552
 40
0.2145309418
 40
0.2296217493
 40
0.2447052657
 40
0.2597868728
 40
0.2748719733
 40
0.2899659279
 40
0.3050740159
 40
0.3202013364
 40
0.3353528147
 40
0.3505330972
 40
0.3657465569
 40
0.3809971862
 40
0.3962886177
 40
0.4116240404
 40
0.4270062155
 40
0.4424374262
 40
0.4579194555
 40
0.4890310876
 40
0.5203549231
 40
0.5518869253
 40
0.5836151897
 40
0.6155205913
 40
0.6475775326
 40
0.6797550132
 40
0.7120177639
 40
0.7443275126
 40
0.7766443786
 40
0.8089282028
 40
0.8411399968
 40
0.8732432951
 40
0.9052053839
 40
0.9369988315
 40
0.9686016369
 40
1.0
 40
1.0
 40
1.0
 40
1.0
 10
11.2945498393
 20
9.105899945
 30
0.0
 10
11.281009107
 20
9.106838998
 30
0.0
 10
11.2539099336
 20
9.1073968457
 30
0.0
 10
11.2201911542
 20
9.1047438734
 30
0.0
 10
11.1936194099
 20
9.1006215819
 30
0.0
 10
11.17396142
 20
9.0965465948
 30
0.0
 10
11.1545941453
 20
9.0914930719
 30
0.0
 10
11.135563727
 20
9.0854734632
 30
0.0
 10
11.1169161471
 20
9.0785021695
 30
0.0
 10
11.0986963825
 20
9.0705958454
 30
0.0
 10
11.0809482948
 20
9.0617737606
 30
0.0
 10
11.0637148883
 20
9.0520567847
 30
0.0
 10
11.0470374443
 20
9.041468826
 30
0.0
 10
11.0309565825
 20
9.0300347958
 30
0.0
 10
11.0155106201
 20
9.0177829261
 30
0.0
 10
11.0007373822
 20
9.0047420571
 30
0.0
 10
10.9866718865
 20
8.9909443435
 30
0.0
 10
10.9733487124
 20
8.9764223968
 30
0.0
 10
10.9607993298
 20
8.9612118545
 30
0.0
 10
10.949054628
 20
8.9453488879
 30
0.0
 10
10.9381423457
 20
8.9288722003
 30
0.0
 10
10.9280892641
 20
8.9118212167
 30
0.0
 10
10.9189192305
 20
8.894237294
 30
0.0
 10
10.910654553
 20
8.8761627201
 30
0.0
 10
10.9033150456
 20
8.8576411306
 30
0.0
 10
10.896918279
 20
8.838717233
 30
0.0
 10
10.891479876
 20
8.8194365413
 30
0.0
 10
10.8870124939
 20
8.7998458101
 30
0.0
 10
10.883527394
 20
8.7799915202
 30
0.0
 10
10.8801954807
 20
8.7531937335
 30
0.0
 10
10.8785338232
 20
8.7192621787
 30
0.0
 10
10.8805506919
 20
8.6783515775
 30
0.0
 10
10.8865526143
 20
8.6375613022
 30
0.0
 10
10.8964808893
 20
8.5972861257
 30
0.0
 10
10.9102388032
 20
8.5579121315
 30
0.0
 10
10.9276932454
 20
8.5198174513
 30
0.0
 10
10.9486758362
 20
8.4833675584
 30
0.0
 10
10.972984586
 20
8.4489121489
 30
0.0
 10
11.0003858253
 20
8.4167817825
 30
0.0
 10
11.0306163953
 20
8.3872847949
 30
0.0
 10
11.0633861667
 20
8.3607043884
 30
0.0
 10
11.0983807103
 20
8.3372959517
 30
0.0
 10
11.1352644311
 20
8.317284701
 30
0.0
 10
11.1736831214
 20
8.3008633648
 30
0.0
 10
11.2132694298
 20
8.2881907064
 30
0.0
 10
11.2536381989
 20
8.2793895938
 30
0.0
 10
11.2809171915
 20
8.2761491125
 30
0.0
 10
11.2945498393
 20
8.2752036852
 30
0.0
  0
SPLINE
  5
3C1
100
AcDbEntity
  8
0
100
AcDbSpline
 62
7
  6
CONTINUOUS
 70
0
 71
3
 72
13
 73
9
 74
0
 42
0.0000001
 43
0.0000001
 44
0.0000000001
 40
0.0
 40
0.0
 40
0.0
 40
0.0
 40
0.2520869329
 40
0.5027116691
 40
0.6275252111
 40
0.7520009308
 40
0.8761536342
 40
1.0
 40
1.0
 40
1.0
 40
1.0
 10
9.9402909348
 20
8.9519380862
 30
0.0
 10
9.9402909348
 20
8.9402549153
 30
0.0
 10
9.9393081038
 20
8.9169447334
 30
0.0
 10
9.935598542
 20
8.8880612811
 30
0.0
 10
9.9311598665
 20
8.8653151949
 30
0.0
 10
9.9271080276
 20
8.8484827615
 30
0.0
 10
9.9223365397
 20
8.8318872367
 30
0.0
 10
9.9186766892
 20
8.82098712
 30
0.0
 10
9.9167298761
 20
8.8155876058
 30
0.0
  0
SPLINE
  5
3C2
100
AcDbEntity
  8
0
100
AcDbSpline
 62
7
  6
CONTINUOUS
 70
0
 71
3
 72
13
 73
9
 74
0
 42
0.0000001
 43
0.0000001
 44
0.0000000001
 40
0.0
 40
0.0
 40
0.0
 40
0.0
 40
0.2520869329
 40
0.5027116691
 40
0.6275252111
 40
0.7520009308
 40
0.8761536342
 40
1.0
 40
1.0
 40
1.0
 40
1.0
 10
11.8721427018
 20
8.8179637111
 30
0.0
 10
11.8721427018
 20
8.8062805403
 30
0.0
 10
11.8711598708
 20
8.7829703583
 30
0.0
 10
11.867450309
 20
8.754086906
 30
0.0
 10
11.8630116335
 20
8.7313408198
 30
0.0
 10
11.8589597946
 20
8.7145083864
 30
0.0
 10
11.8541883067
 20
8.6979128616
 30
0.0
 10
11.8505284562
 20
8.6870127449
 30
0.0
 10
11.8485816432
 20
8.6816132307
 30
0.0
  0
SPLINE
  5
3C3
100
AcDbEntity
  8
0
100
AcDbSpline
 62
7
  6
CONTINUOUS
 70
0
 71
3
 72
23
 73
19
 74
0
 42
0.0000001
 43
0.0000001
 44
0.0000000001
 40
0.0
 40
0.0
 40
0.0
 40
0.0
 40
0.0637771735
 40
0.1273448473
 40
0.1907019822
 40
0.253856143
 40
0.3168131975
 40
0.3795820985
 40
0.4421733906
 40
0.5045993374
 40
0.5668738654
 40
0.62901238
 40
0.6910316489
 40
0.7529496402
 40
0.814785347
 40
0.8765585971
 40
0.938289852
 40
1.0
 40
1.0
 40
1.0
 40
1.0
 10
9.9402909348
 20
7.7744743941
 30
0.0
 10
9.9402909348
 20
7.7678322801
 30
0.0
 10
9.9399730158
 20
7.7545676196
 30
0.0
 10
9.9385380853
 20
7.7347513149
 30
0.0
 10
9.9361489217
 20
7.7150921049
 30
0.0
 10
9.9328112235
 20
7.6956361106
 30
0.0
 10
9.9285324716
 20
7.6764278402
 30
0.0
 10
9.9233225349
 20
7.6575116924
 30
0.0
 10
9.9171933847
 20
7.638931247
 30
0.0
 10
9.9101591164
 20
7.6207293524
 30
0.0
 10
9.902235913
 20
7.6029479862
 30
0.0
 10
9.8934419938
 20
7.5856281681
 30
0.0
 10
9.8837976023
 20
7.5688098612
 30
0.0
 10
9.873324965
 20
7.5525318464
 30
0.0
 10
9.8620482537
 20
7.5368317081
 30
0.0
 10
9.8499933279
 20
7.521745547
 30
0.0
 10
9.8371884598
 20
7.5073086371
 30
0.0
 10
9.8281698687
 20
7.498137415
 30
0.0
 10
9.8235473252
 20
7.493672396
 30
0.0
  0
SPLINE
  5
3C4
100
AcDbEntity
  8
0
100
AcDbSpline
 62
7
  6
CONTINUOUS
 70
0
 71
3
 72
23
 73
19
 74
0
 42
0.0000001
 43
0.0000001
 44
0.0000000001
 40
0.0
 40
0.0
 40
0.0
 40
0.0
 40
0.0637771735
 40
0.1273448473
 40
0.1907019822
 40
0.253856143
 40
0.3168131975
 40
0.3795820985
 40
0.4421733906
 40
0.5045993374
 40
0.5668738654
 40
0.62901238
 40
0.6910316489
 40
0.7529496402
 40
0.814785347
 40
0.8765585971
 40
0.938289852
 40
1.0
 40
1.0
 40
1.0
 40
1.0
 10
11.8721427018
 20
7.6405000191
 30
0.0
 10
11.8721427018
 20
7.633857905
 30
0.0
 10
11.8718247829
 20
7.6205932445
 30
0.0
 10
11.8703898523
 20
7.6007769398
 30
0.0
 10
11.8680006888
 20
7.5811177298
 30
0.0
 10
11.8646629905
 20
7.5616617355
 30
0.0
 10
11.8603842386
 20
7.5424534651
 30
0.0
 10
11.8551743019
 20
7.5235373173
 30
0.0
 10
11.8490451517
 20
7.5049568719
 30
0.0
 10
11.8420108834
 20
7.4867549773
 30
0.0
 10
11.8340876801
 20
7.4689736112
 30
0.0
 10
11.8252937608
 20
7.4516537931
 30
0.0
 10
11.8156493694
 20
7.4348354861
 30
0.0
 10
11.805176732
 20
7.4185574713
 30
0.0
 10
11.7939000207
 20
7.402857333
 30
0.0
 10
11.781845095
 20
7.3877711719
 30
0.0
 10
11.7690402269
 20
7.373334262
 30
0.0
 10
11.7600216357
 20
7.3641630399
 30
0.0
 10
11.7553990923
 20
7.3596980209
 30
0.0
  0
SPLINE
  5
3C5
100
AcDbEntity
  8
0
100
AcDbSpline
 62
7
  6
CONTINUOUS
 70
0
 71
3
 72
19
 73
15
 74
0
 42
0.0000001
 43
0.0000001
 44
0.0000000001
 40
0.0
 40
0.0
 40
0.0
 40
0.0
 40
0.12732766
 40
0.2538196711
 40
0.3795264658
 40
0.5045235362
 40
0.5668075958
 40
0.6289556124
 40
0.6909843715
 40
0.7529118454
 40
0.8147570127
 40
0.8765397119
 40
0.9382804145
 40
1.0
 40
1.0
 40
1.0
 40
1.0
 10
8.7546169128
 20
9.2147929766
 30
0.0
 10
8.7546169128
 20
9.2085409807
 30
0.0
 10
8.7540199848
 20
9.1960694204
 30
0.0
 10
8.7513203046
 20
9.1776017035
 30
0.0
 10
8.7468442581
 20
9.1595988842
 30
0.0
 10
8.7416591225
 20
9.1451019409
 30
0.0
 10
8.7366724414
 20
9.1339110117
 30
0.0
 10
8.7325256696
 20
9.1257438031
 30
0.0
 10
8.7279779707
 20
9.1178132765
 30
0.0
 10
8.7230396952
 20
9.110137461
 30
0.0
 10
8.7177222366
 20
9.1027341775
 30
0.0
 10
8.7120378492
 20
9.0956203804
 30
0.0
 10
8.7059998221
 20
9.0888127398
 30
0.0
 10
8.7017471783
 20
9.0844881045
 30
0.0
 10
8.6995674535
 20
9.0823826528
 30
0.0
  0
SPLINE
  5
3C6
100
AcDbEntity
  8
0
100
AcDbSpline
 62
7
  6
CONTINUOUS
 70
0
 71
3
 72
19
 73
15
 74
0
 42
0.0000001
 43
0.0000001
 44
0.0000000001
 40
0.0
 40
0.0
 40
0.0
 40
0.0
 40
0.12732766
 40
0.2538196711
 40
0.3795264658
 40
0.5045235362
 40
0.5668075958
 40
0.6289556124
 40
0.6909843715
 40
0.7529118454
 40
0.8147570127
 40
0.8765397119
 40
0.9382804145
 40
1.0
 40
1.0
 40
1.0
 40
1.0
 10
10.6864686798
 20
9.0808186015
 30
0.0
 10
10.6864686798
 20
9.0745666056
 30
0.0
 10
10.6858717518
 20
9.0620950454
 30
0.0
 10
10.6831720716
 20
9.0436273284
 30
0.0
 10
10.6786960251
 20
9.0256245092
 30
0.0
 10
10.6735108895
 20
9.0111275659
 30
0.0
 10
10.6685242085
 20
8.9999366366
 30
0.0
 10
10.6643774367
 20
8.9917694281
 30
0.0
 10
10.6598297377
 20
8.9838389014
 30
0.0
 10
10.6548914623
 20
8.9761630859
 30
0.0
 10
10.6495740037
 20
8.9687598024
 30
0.0
 10
10.6438896162
 20
8.9616460053
 30
0.0
 10
10.6378515892
 20
8.9548383647
 30
0.0
 10
10.6335989453
 20
8.9505137294
 30
0.0
 10
10.6314192206
 20
8.9484082778
 30
0.0
  0
SPLINE
  5
3C7
100
AcDbEntity
  8
0
100
AcDbSpline
 62
7
  6
CONTINUOUS
 70
0
 71
3
 72
19
 73
15
 74
0
 42
0.0000001
 43
0.0000001
 44
0.0000000001
 40
0.0
 40
0.0
 40
0.0
 40
0.0
 40
0.12732766
 40
0.2538196711
 40
0.3795264658
 40
0.5045235362
 40
0.5668075958
 40
0.6289556124
 40
0.6909843715
 40
0.7529118454
 40
0.8147570127
 40
0.8765397119
 40
0.9382804145
 40
1.0
 40
1.0
 40
1.0
 40
1.0
 10
12.6183204469
 20
8.9468442264
 30
0.0
 10
12.6183204469
 20
8.9405922305
 30
0.0
 10
12.6177235189
 20
8.9281206703
 30
0.0
 10
12.6150238387
 20
8.9096529533
 30
0.0
 10
12.6105477922
 20
8.8916501341
 30
0.0
 10
12.6053626566
 20
8.8771531908
 30
0.0
 10
12.6003759755
 20
8.8659622616
 30
0.0
 10
12.5962292037
 20
8.857795053
 30
0.0
 10
12.5916815048
 20
8.8498645263
 30
0.0
 10
12.5867432293
 20
8.8421887109
 30
0.0
 10
12.5814257707
 20
8.8347854273
 30
0.0
 10
12.5757413833
 20
8.8276716302
 30
0.0
 10
12.5697033562
 20
8.8208639896
 30
0.0
 10
12.5654507124
 20
8.8165393543
 30
0.0
 10
12.5632709876
 20
8.8144339027
 30
0.0
  0
SPLINE
  5
3C8
100
AcDbEntity
  8
0
100
AcDbSpline
 62
7
  6
CONTINUOUS
 70
0
 71
3
 72
19
 73
15
 74
0
 42
0.0000001
 43
0.0000001
 44
0.0000000001
 40
0.0
 40
0.0
 40
0.0
 40
0.0
 40
0.12732766
 40
0.2538196711
 40
0.3795264658
 40
0.5045235362
 40
0.5668075958
 40
0.6289556124
 40
0.6909843715
 40
0.7529118454
 40
0.8147570127
 40
0.8765397119
 40
0.9382804145
 40
1.0
 40
1.0
 40
1.0
 40
1.0
 10
8.7546169128
 20
7.5244226804
 30
0.0
 10
8.7546169128
 20
7.5181706845
 30
0.0
 10
8.7540199848
 20
7.5056991243
 30
0.0
 10
8.7513203046
 20
7.4872314073
 30
0.0
 10
8.7468442581
 20
7.4692285881
 30
0.0
 10
8.7416591225
 20
7.4547316448
 30
0.0
 10
8.7366724414
 20
7.4435407156
 30
0.0
 10
8.7325256696
 20
7.435373507
 30
0.0
 10
8.7279779707
 20
7.4274429803
 30
0.0
 10
8.7230396952
 20
7.4197671649
 30
0.0
 10
8.7177222366
 20
7.4123638813
 30
0.0
 10
8.7120378492
 20
7.4052500842
 30
0.0
 10
8.7059998221
 20
7.3984424436
 30
0.0
 10
8.7017471783
 20
7.3941178083
 30
0.0
 10
8.6995674535
 20
7.3920123567
 30
0.0
  0
SPLINE
  5
3C9
100
AcDbEntity
  8
0
100
AcDbSpline
 62
7
  6
CONTINUOUS
 70
0
 71
3
 72
19
 73
15
 74
0
 42
0.0000001
 43
0.0000001
 44
0.0000000001
 40
0.0
 40
0.0
 40
0.0
 40
0.0
 40
0.12732766
 40
0.2538196711
 40
0.3795264658
 40
0.5045235362
 40
0.5668075958
 40
0.6289556124
 40
0.6909843715
 40
0.7529118454
 40
0.8147570127
 40
0.8765397119
 40
0.9382804145
 40
1.0
 40
1.0
 40
1.0
 40
1.0
 10
10.6864686798
 20
7.3904483053
 30
0.0
 10
10.6864686798
 20
7.3841963094
 30
0.0
 10
10.6858717518
 20
7.3717247492
 30
0.0
 10
10.6831720716
 20
7.3532570322
 30
0.0
 10
10.6786960251
 20
7.335254213
 30
0.0
 10
10.6735108895
 20
7.3207572697
 30
0.0
 10
10.6685242085
 20
7.3095663405
 30
0.0
 10
10.6643774367
 20
7.3013991319
 30
0.0
 10
10.6598297377
 20
7.2934686052
 30
0.0
 10
10.6548914623
 20
7.2857927898
 30
0.0
 10
10.6495740037
 20
7.2783895062
 30
0.0
 10
10.6438896162
 20
7.2712757091
 30
0.0
 10
10.6378515892
 20
7.2644680685
 30
0.0
 10
10.6335989453
 20
7.2601434332
 30
0.0
 10
10.6314192206
 20
7.2580379816
 30
0.0
  0
SPLINE
  5
3CA
100
AcDbEntity
  8
0
100
AcDbSpline
 62
7
  6
CONTINUOUS
 70
0
 71
3
 72
19
 73
15
 74
0
 42
0.0000001
 43
0.0000001
 44
0.0000000001
 40
0.0
 40
0.0
 40
0.0
 40
0.0
 40
0.12732766
 40
0.2538196711
 40
0.3795264658
 40
0.5045235362
 40
0.5668075958
 40
0.6289556124
 40
0.6909843715
 40
0.7529118454
 40
0.8147570127
 40
0.8765397119
 40
0.9382804145
 40
1.0
 40
1.0
 40
1.0
 40
1.0
 10
12.6183204469
 20
7.2564739303
 30
0.0
 10
12.6183204469
 20
7.2502219343
 30
0.0
 10
12.6177235189
 20
7.2377503741
 30
0.0
 10
12.6150238387
 20
7.2192826572
 30
0.0
 10
12.6105477922
 20
7.2012798379
 30
0.0
 10
12.6053626566
 20
7.1867828946
 30
0.0
 10
12.6003759755
 20
7.1755919654
 30
0.0
 10
12.5962292037
 20
7.1674247568
 30
0.0
 10
12.5916815048
 20
7.1594942301
 30
0.0
 10
12.5867432293
 20
7.1518184147
 30
0.0
 10
12.5814257707
 20
7.1444151311
 30
0.0
 10
12.5757413833
 20
7.137301334
 30
0.0
 10
12.5697033562
 20
7.1304936935
 30
0.0
 10
12.5654507124
 20
7.1261690581
 30
0.0
 10
12.5632709876
 20
7.1240636065
 30
0.0
  0
SPLINE
  5
3CB
100
AcDbEntity
  8
0
100
AcDbSpline
 62
7
  6
CONTINUOUS
 70
0
 71
3
 72
19
 73
15
 74
0
 42
0.0000001
 43
0.0000001
 44
0.0000000001
 40
0.0
 40
0.0
 40
0.0
 40
0.0
 40
0.150460937
 40
0.2916987357
 40
0.424419542
 40
0.4878837275
 40
0.5495802504
 40
0.6682271673
 40
0.7255606103
 40
0.7817998831
 40
0.8371466721
 40
0.8918135967
 40
0.94602219
 40
1.0
 40
1.0
 40
1.0
 40
1.0
 10
13.0029027571
 20
8.9724555752
 30
0.0
 10
13.0048675896
 20
8.9743534578
 30
0.0
 10
13.0087945522
 20
8.9779144255
 30
0.0
 10
13.0148750748
 20
8.9826598234
 30
0.0
 10
13.020011033
 20
8.9860160328
 30
0.0
 10
13.0241066313
 20
8.9882887612
 30
0.0
 10
13.0280814028
 20
8.9902399469
 30
0.0
 10
13.0321027121
 20
8.991834866
 30
0.0
 10
13.0361466457
 20
8.99303505
 30
0.0
 10
13.0391366196
 20
8.9937268431
 30
0.0
 10
13.0421166403
 20
8.9942199221
 30
0.0
 10
13.0450859204
 20
8.9945140429
 30
0.0
 10
13.0480432596
 20
8.9946090916
 30
0.0
 10
13.0500080318
 20
8.9945396052
 30
0.0
 10
13.0509857024
 20
8.9944718035
 30
0.0
  0
SPLINE
  5
3CC
100
AcDbEntity
  8
0
100
AcDbSpline
 62
7
  6
CONTINUOUS
 70
0
 71
3
 72
9
 73
5
 74
0
 42
0.0000001
 43
0.0000001
 44
0.0000000001
 40
0.0
 40
0.0
 40
0.0
 40
0.0
 40
0.4828737533
 40
1.0
 40
1.0
 40
1.0
 40
1.0
 10
9.362908083
 20
8.1453605669
 30
0.0
 10
9.3638541985
 20
8.1473950747
 30
0.0
 10
9.3659535937
 20
8.1515442399
 30
0.0
 10
9.368299078
 20
8.1555588862
 30
0.0
 10
9.3695683268
 20
8.157599209
 30
0.0
  0
SPLINE
  5
3CD
100
AcDbEntity
  8
0
100
AcDbSpline
 62
7
  6
CONTINUOUS
 70
0
 71
3
 72
11
 73
7
 74
0
 42
0.0000001
 43
0.0000001
 44
0.0000000001
 40
0.0
 40
0.0
 40
0.0
 40
0.0
 40
0.2482941251
 40
0.4976577828
 40
0.7482060727
 40
1.0
 40
1.0
 40
1.0
 40
1.0
 10
9.8290141128
 20
8.0492162237
 30
0.0
 10
9.8248414957
 20
8.0532084013
 30
0.0
 10
9.8167390321
 20
8.061487246
 30
0.0
 10
9.8053762999
 20
8.0746814508
 30
0.0
 10
9.7948008685
 20
8.0886164676
 30
0.0
 10
9.7883045019
 20
8.0983368809
 30
0.0
 10
9.7851937326
 20
8.1032985407
 30
0.0
  0
SPLINE
  5
3CE
100
AcDbEntity
  8
0
100
AcDbSpline
 62
7
  6
CONTINUOUS
 70
0
 71
3
 72
10
 73
6
 74
0
 42
0.0000001
 43
0.0000001
 44
0.0000000001
 40
0.0
 40
0.0
 40
0.0
 40
0.0
 40
0.2554989706
 40
0.5069223528
 40
1.0
 40
1.0
 40
1.0
 40
1.0
 10
9.8480325789
 20
8.0170368531
 30
0.0
 10
9.8461199981
 20
8.0195881002
 30
0.0
 10
9.8424759485
 20
8.0247649398
 30
0.0
 10
9.8358767404
 20
8.0353621087
 30
0.0
 10
9.831589872
 20
8.043627803
 30
0.0
 10
9.8290141128
 20
8.0492162237
 30
0.0
  0
SPLINE
  5
3CF
100
AcDbEntity
  8
0
100
AcDbSpline
 62
7
  6
CONTINUOUS
 70
0
 71
3
 72
11
 73
7
 74
0
 42
0.0000001
 43
0.0000001
 44
0.0000000001
 40
0.0
 40
0.0
 40
0.0
 40
0.0
 40
0.2482941251
 40
0.4976577828
 40
0.7482060727
 40
1.0
 40
1.0
 40
1.0
 40
1.0
 10
11.7608658798
 20
7.9152418486
 30
0.0
 10
11.7566932627
 20
7.9192340262
 30
0.0
 10
11.7485907992
 20
7.9275128709
 30
0.0
 10
11.737228067
 20
7.9407070757
 30
0.0
 10
11.7266526355
 20
7.9546420925
 30
0.0
 10
11.7201562689
 20
7.9643625059
 30
0.0
 10
11.7170454997
 20
7.9693241656
 30
0.0
  0
SPLINE
  5
3D0
100
AcDbEntity
  8
0
100
AcDbSpline
 62
7
  6
CONTINUOUS
 70
0
 71
3
 72
10
 73
6
 74
0
 42
0.0000001
 43
0.0000001
 44
0.0000000001
 40
0.0
 40
0.0
 40
0.0
 40
0.0
 40
0.2554989706
 40
0.5069223528
 40
1.0
 40
1.0
 40
1.0
 40
1.0
 10
11.7798843459
 20
7.883062478
 30
0.0
 10
11.7779717652
 20
7.8856137251
 30
0.0
 10
11.7743277155
 20
7.8907905647
 30
0.0
 10
11.7677285074
 20
7.9013877336
 30
0.0
 10
11.763441639
 20
7.909653428
 30
0.0
 10
11.7608658798
 20
7.9152418486
 30
0.0
  0
SPLINE
  5
3D1
100
AcDbEntity
  8
0
100
AcDbSpline
 62
7
  6
CONTINUOUS
 70
0
 71
3
 72
61
 73
57
 74
0
 42
0.0000001
 43
0.0000001
 44
0.0000000001
 40
0.0
 40
0.0
 40
0.0
 40
0.0
 40
0.0076531203
 40
0.0158948147
 40
0.0247434625
 40
0.0342112633
 40
0.0443040262
 40
0.0550227668
 40
0.0663646073
 40
0.0783232442
 40
0.0908894899
 40
0.1040517065
 40
0.1177960474
 40
0.1321066901
 40
0.1469661009
 40
0.1623551674
 40
0.1782533012
 40
0.1946386284
 40
0.2114880833
 40
0.2287774568
 40
0.2464815406
 40
0.2645742125
 40
0.2830284672
 40
0.3018165257
 40
0.3402788865
 40
0.3797268736
 40
0.4199173213
 40
0.4606010696
 40
0.5015250324
 40
0.5424342234
 40
0.5830737736
 40
0.6231909466
 40
0.6625371704
 40
0.7008701043
 40
0.7195834037
 40
0.7379564047
 40
0.7559615044
 40
0.7735718857
 40
0.7907616351
 40
0.8075057747
 40
0.8237803416
 40
0.8395625378
 40
0.8548307866
 40
0.8695648213
 40
0.8837458776
 40
0.8973568134
 40
0.91038224
 40
0.9228087895
 40
0.9346253729
 40
0.9458234357
 40
0.9563974046
 40
0.9663452397
 40
0.9756690311
 40
0.9843758993
 40
0.9924792096
 40
1.0
 40
1.0
 40
1.0
 40
1.0
 10
12.9874479422
 20
8.80931997
 30
0.0
 10
12.9855298924
 20
8.8074672761
 30
0.0
 10
12.9817018647
 20
8.8034564191
 30
0.0
 10
12.9761791273
 20
8.796828913
 30
0.0
 10
12.9706760601
 20
8.7893829843
 30
0.0
 10
12.9652015222
 20
8.7811310125
 30
0.0
 10
12.959763872
 20
8.7720858096
 30
0.0
 10
12.9543718933
 20
8.762261931
 30
0.0
 10
12.9490343736
 20
8.7516752324
 30
0.0
 10
12.9437600927
 20
8.7403429437
 30
0.0
 10
12.9385577608
 20
8.7282836166
 30
0.0
 10
12.9334360385
 20
8.7155170488
 30
0.0
 10
12.9284034569
 20
8.7020642686
 30
0.0
 10
12.9234683827
 20
8.6879474954
 30
0.0
 10
12.9186390594
 20
8.6731900656
 30
0.0
 10
12.9139235595
 20
8.6578164049
 30
0.0
 10
12.9093297296
 20
8.641851996
 30
0.0
 10
12.9048652398
 20
8.6253233087
 30
0.0
 10
12.9005375586
 20
8.6082577578
 30
0.0
 10
12.8963538871
 20
8.5906836734
 30
0.0
 10
12.8923211992
 20
8.5726302322
 30
0.0
 10
12.8884462476
 20
8.5541274151
 30
0.0
 10
12.8847354509
 20
8.5352059341
 30
0.0
 10
12.8799778825
 20
8.5092587552
 30
0.0
 10
12.8744968954
 20
8.4760097586
 30
0.0
 10
12.8687147315
 20
8.4352627357
 30
0.0
 10
12.8637162485
 20
8.393632504
 30
0.0
 10
12.8595347958
 20
8.3513955908
 30
0.0
 10
12.8561982677
 20
8.3088323719
 30
0.0
 10
12.8537288804
 20
8.2662254754
 30
0.0
 10
12.8521429586
 20
8.2238578279
 30
0.0
 10
12.8514508877
 20
8.1820106872
 30
0.0
 10
12.8516571035
 20
8.140962038
 30
0.0
 10
12.8525831168
 20
8.1073836466
 30
0.0
 10
12.8537830281
 20
8.08113077
 30
0.0
 10
12.8548976344
 20
8.0619661048
 30
0.0
 10
12.8562321456
 20
8.0432007482
 30
0.0
 10
12.8577843633
 20
8.0248658456
 30
0.0
 10
12.8595516536
 20
8.0069918514
 30
0.0
 10
12.8615310509
 20
7.9896084416
 30
0.0
 10
12.8637192531
 20
7.9727444746
 30
0.0
 10
12.8661125693
 20
7.9564279274
 30
0.0
 10
12.8687069741
 20
7.9406858564
 30
0.0
 10
12.8714981359
 20
7.9255443549
 30
0.0
 10
12.8744813599
 20
7.9110284901
 30
0.0
 10
12.8776516264
 20
7.8971622613
 30
0.0
 10
12.8810036432
 20
7.8839685679
 30
0.0
 10
12.8845318026
 20
7.8714691443
 30
0.0
 10
12.8882301935
 20
7.8596845096
 30
0.0
 10
12.8920926895
 20
7.8486339416
 30
0.0
 10
12.8961129346
 20
7.8383354228
 30
0.0
 10
12.900284365
 20
7.828805541
 30
0.0
 10
12.9046002804
 20
7.8200595778
 30
0.0
 10
12.9090541844
 20
7.8121111539
 30
0.0
 10
12.9136389667
 20
7.8049732655
 30
0.0
 10
12.9168969292
 20
7.8006037301
 30
0.0
 10
12.9185504485
 20
7.7985706379
 30
0.0
  0
SPLINE
  5
3D2
100
AcDbEntity
  8
0
100
AcDbSpline
 62
7
  6
CONTINUOUS
 70
0
 71
3
 72
11
 73
7
 74
0
 42
0.0000001
 43
0.0000001
 44
0.0000000001
 40
0.0
 40
0.0
 40
0.0
 40
0.0
 40
0.2489635149
 40
0.49850288
 40
0.7487953764
 40
1.0
 40
1.0
 40
1.0
 40
1.0
 10
9.2691101903
 20
9.3266797731
 30
0.0
 10
9.2772885103
 20
9.332475671
 30
0.0
 10
9.2941355521
 20
9.3434312123
 30
0.0
 10
9.3206629847
 20
9.3578204297
 30
0.0
 10
9.3483268626
 20
9.3701048294
 30
0.0
 10
9.3673901043
 20
9.3768329486
 30
0.0
 10
9.3770512866
 20
9.3798256052
 30
0.0
  0
SPLINE
  5
3D3
100
AcDbEntity
  8
0
100
AcDbSpline
 62
7
  6
CONTINUOUS
 70
0
 71
3
 72
23
 73
19
 74
0
 42
0.0000001
 43
0.0000001
 44
0.0000000001
 40
0.0
 40
0.0
 40
0.0
 40
0.0
 40
0.0613598602
 40
0.1229588809
 40
0.1847864025
 40
0.246828661
 40
0.3090690052
 40
0.3714881468
 40
0.4340644381
 40
0.4967741735
 40
0.559591912
 40
0.6224908158
 40
0.6854430018
 40
0.7484199031
 40
0.8113926358
 40
0.8743323696
 40
0.9372106971
 40
1.0
 40
1.0
 40
1.0
 40
1.0
 10
9.5501492456
 20
9.3940313125
 30
0.0
 10
9.5584057135
 20
9.3929476732
 30
0.0
 10
9.5748908727
 20
9.3902881934
 30
0.0
 10
9.5993867052
 20
9.3848549315
 30
0.0
 10
9.6236170989
 20
9.3779885413
 30
0.0
 10
9.6474950541
 20
9.3697136042
 30
0.0
 10
9.6709362696
 20
9.360059498
 30
0.0
 10
9.6938576134
 20
9.3490605238
 30
0.0
 10
9.7161779057
 20
9.3367557222
 30
0.0
 10
9.737818072
 20
9.3231887509
 30
0.0
 10
9.7587014563
 20
9.3084077267
 30
0.0
 10
9.7787540816
 20
9.2924650546
 30
0.0
 10
9.7979049087
 20
9.2754172502
 30
0.0
 10
9.8160861013
 20
9.2573247122
 30
0.0
 10
9.8332332038
 20
9.2382516155
 30
0.0
 10
9.8492855961
 20
9.2182652906
 30
0.0
 10
9.8641858572
 20
9.1974374577
 30
0.0
 10
9.8733251333
 20
9.1830259153
 30
0.0
 10
9.8776853062
 20
9.1757046501
 30
0.0
  0
SPLINE
  5
3D4
100
AcDbEntity
  8
0
100
AcDbSpline
 62
7
  6
CONTINUOUS
 70
0
 71
3
 72
15
 73
11
 74
0
 42
0.0000001
 43
0.0000001
 44
0.0000000001
 40
0.0
 40
0.0
 40
0.0
 40
0.0
 40
0.1262879032
 40
0.2522480357
 40
0.37785601
 40
0.5030906181
 40
0.6279347216
 40
0.7523725912
 40
0.876398598
 40
1.0
 40
1.0
 40
1.0
 40
1.0
 10
9.9081418136
 20
9.1144911539
 30
0.0
 10
9.91078235
 20
9.1079887622
 30
0.0
 10
9.9157517766
 20
9.0948746212
 30
0.0
 10
9.9222570431
 20
9.0749015443
 30
0.0
 10
9.9277891996
 20
9.0546974687
 30
0.0
 10
9.93233447
 20
9.0343123385
 30
0.0
 10
9.9358816992
 20
9.0137959752
 30
0.0
 10
9.9384223036
 20
8.9931982618
 30
0.0
 10
9.9399498042
 20
8.972570432
 30
0.0
 10
9.9402909348
 20
8.9588068777
 30
0.0
 10
9.9402909348
 20
8.9519380862
 30
0.0
  0
SPLINE
  5
3D5
100
AcDbEntity
  8
0
100
AcDbSpline
 62
7
  6
CONTINUOUS
 70
0
 71
3
 72
11
 73
7
 74
0
 42
0.0000001
 43
0.0000001
 44
0.0000000001
 40
0.0
 40
0.0
 40
0.0
 40
0.0
 40
0.2489635149
 40
0.49850288
 40
0.7487953764
 40
1.0
 40
1.0
 40
1.0
 40
1.0
 10
11.2009619573
 20
9.192705398
 30
0.0
 10
11.2091402773
 20
9.1985012959
 30
0.0
 10
11.2259873192
 20
9.2094568372
 30
0.0
 10
11.2525147518
 20
9.2238460546
 30
0.0
 10
11.2801786296
 20
9.2361304543
 30
0.0
 10
11.2992418713
 20
9.2428585735
 30
0.0
 10
11.3089030537
 20
9.2458512301
 30
0.0
  0
SPLINE
  5
3D6
100
AcDbEntity
  8
0
100
AcDbSpline
 62
7
  6
CONTINUOUS
 70
0
 71
3
 72
23
 73
19
 74
0
 42
0.0000001
 43
0.0000001
 44
0.0000000001
 40
0.0
 40
0.0
 40
0.0
 40
0.0
 40
0.0613598602
 40
0.1229588809
 40
0.1847864025
 40
0.246828661
 40
0.3090690052
 40
0.3714881468
 40
0.4340644381
 40
0.4967741735
 40
0.559591912
 40
0.6224908158
 40
0.6854430018
 40
0.7484199031
 40
0.8113926358
 40
0.8743323696
 40
0.9372106971
 40
1.0
 40
1.0
 40
1.0
 40
1.0
 10
11.4820010127
 20
9.2600569375
 30
0.0
 10
11.4902574806
 20
9.2589732982
 30
0.0
 10
11.5067426397
 20
9.2563138183
 30
0.0
 10
11.5312384723
 20
9.2508805564
 30
0.0
 10
11.5554688659
 20
9.2440141662
 30
0.0
 10
11.5793468211
 20
9.2357392291
 30
0.0
 10
11.6027880367
 20
9.2260851229
 30
0.0
 10
11.6257093805
 20
9.2150861487
 30
0.0
 10
11.6480296727
 20
9.2027813471
 30
0.0
 10
11.6696698391
 20
9.1892143758
 30
0.0
 10
11.6905532233
 20
9.1744333516
 30
0.0
 10
11.7106058487
 20
9.1584906795
 30
0.0
 10
11.7297566758
 20
9.1414428751
 30
0.0
 10
11.7479378684
 20
9.1233503371
 30
0.0
 10
11.7650849708
 20
9.1042772404
 30
0.0
 10
11.7811373631
 20
9.0842909155
 30
0.0
 10
11.7960376243
 20
9.0634630826
 30
0.0
 10
11.8051769003
 20
9.0490515402
 30
0.0
 10
11.8095370732
 20
9.041730275
 30
0.0
  0
SPLINE
  5
3D7
100
AcDbEntity
  8
0
100
AcDbSpline
 62
7
  6
CONTINUOUS
 70
0
 71
3
 72
15
 73
11
 74
0
 42
0.0000001
 43
0.0000001
 44
0.0000000001
 40
0.0
 40
0.0
 40
0.0
 40
0.0
 40
0.1262879032
 40
0.2522480357
 40
0.37785601
 40
0.5030906181
 40
0.6279347216
 40
0.7523725912
 40
0.876398598
 40
1.0
 40
1.0
 40
1.0
 40
1.0
 10
11.8399935806
 20
8.9805167788
 30
0.0
 10
11.8426341171
 20
8.9740143871
 30
0.0
 10
11.8476035437
 20
8.9609002462
 30
0.0
 10
11.8541088101
 20
8.9409271692
 30
0.0
 10
11.8596409667
 20
8.9207230936
 30
0.0
 10
11.864186237
 20
8.9003379634
 30
0.0
 10
11.8677334662
 20
8.8798216002
 30
0.0
 10
11.8702740707
 20
8.8592238867
 30
0.0
 10
11.8718015713
 20
8.8385960569
 30
0.0
 10
11.8721427018
 20
8.8248325026
 30
0.0
 10
11.8721427018
 20
8.8179637111
 30
0.0
  0
SPLINE
  5
3D8
100
AcDbEntity
  8
0
100
AcDbSpline
 62
7
  6
CONTINUOUS
 70
0
 71
3
 72
39
 73
35
 74
0
 42
0.0000001
 43
0.0000001
 44
0.0000000001
 40
0.0
 40
0.0
 40
0.0
 40
0.0
 40
0.0299424698
 40
0.0599093171
 40
0.0899243244
 40
0.1200101049
 40
0.1501875654
 40
0.1804754197
 40
0.2108897678
 40
0.2414437479
 40
0.2721472748
 40
0.3030068601
 40
0.3340255156
 40
0.3652027379
 40
0.3965345747
 40
0.4280137612
 40
0.4596299196
 40
0.491369815
 40
0.5232176628
 40
0.555155479
 40
0.5871634623
 40
0.619220404
 40
0.6513041182
 40
0.6833918873
 40
0.7154609133
 40
0.74748877
 40
0.7794538516
 40
0.811335809
 40
0.8431159677
 40
0.8747777197
 40
0.9063068786
 40
0.9376920899
 40
0.9689246486
 40
1.0
 40
1.0
 40
1.0
 40
1.0
 10
9.2253723586
 20
8.1129523608
 30
0.0
 10
9.2325142126
 20
8.1198508387
 30
0.0
 10
9.2473595295
 20
8.1330910243
 30
0.0
 10
9.2711440121
 20
8.1511284371
 30
0.0
 10
9.2963234554
 20
8.1672526882
 30
0.0
 10
9.3227571498
 20
8.18137335
 30
0.0
 10
9.3502997702
 20
8.1934132765
 30
0.0
 10
9.3787993208
 20
8.203306266
 30
0.0
 10
9.4080987529
 20
8.2109981799
 30
0.0
 10
9.4380366396
 20
8.21644705
 30
0.0
 10
9.4684481502
 20
8.2196232821
 30
0.0
 10
9.4991659394
 20
8.2205097914
 30
0.0
 10
9.5300210667
 20
8.2191020733
 30
0.0
 10
9.5608439223
 20
8.2154082746
 30
0.0
 10
9.5914651561
 20
8.2094490672
 30
0.0
 10
9.6217165925
 20
8.2012575203
 30
0.0
 10
9.6514321338
 20
8.1908789002
 30
0.0
 10
9.680448673
 20
8.1783704651
 30
0.0
 10
9.7086069812
 20
8.1638011326
 30
0.0
 10
9.7357525527
 20
8.1472510634
 30
0.0
 10
9.7617364395
 20
8.12881123
 30
0.0
 10
9.7864160604
 20
8.1085829313
 30
0.0
 10
9.8096560092
 20
8.0866772769
 30
0.0
 10
9.8313287494
 20
8.0632145275
 30
0.0
 10
9.8513153103
 20
8.0383234528
 30
0.0
 10
9.8695059217
 20
8.0121406278
 30
0.0
 10
9.8858006646
 20
7.9848097314
 30
0.0
 10
9.9001099835
 20
7.956480731
 30
0.0
 10
9.9123551613
 20
7.9273090833
 30
0.0
 10
9.9224687374
 20
7.8974548265
 30
0.0
 10
9.9303949435
 20
7.8670819726
 30
0.0
 10
9.9360899183
 20
7.8363567433
 30
0.0
 10
9.9395221911
 20
7.8054500299
 30
0.0
 10
9.9402909348
 20
7.7847795851
 30
0.0
 10
9.9402909348
 20
7.7744743941
 30
0.0
  0
SPLINE
  5
3D9
100
AcDbEntity
  8
0
100
AcDbSpline
 62
7
  6
CONTINUOUS
 70
0
 71
3
 72
39
 73
35
 74
0
 42
0.0000001
 43
0.0000001
 44
0.0000000001
 40
0.0
 40
0.0
 40
0.0
 40
0.0
 40
0.029942471
 40
0.0599093183
 40
0.0899243244
 40
0.1200101034
 40
0.1501875624
 40
0.1804754148
 40
0.2108897596
 40
0.2414437361
 40
0.2721472598
 40
0.3030068424
 40
0.3340254951
 40
0.3652027149
 40
0.3965345496
 40
0.4280137343
 40
0.459629891
 40
0.4913697854
 40
0.5232176334
 40
0.5551554501
 40
0.5871634341
 40
0.6192203766
 40
0.6513040925
 40
0.6833918636
 40
0.7154608915
 40
0.7474887505
 40
0.7794538351
 40
0.8113357956
 40
0.8431159562
 40
0.8747777121
 40
0.9063068677
 40
0.9376920929
 40
0.9689246489
 40
1.0
 40
1.0
 40
1.0
 40
1.0
 10
9.2544283774
 20
8.1083456089
 30
0.0
 10
9.2611803858
 20
8.1148675208
 30
0.0
 10
9.2752152862
 20
8.1273850396
 30
0.0
 10
9.2977014104
 20
8.1444379189
 30
0.0
 10
9.3215063342
 20
8.1596820982
 30
0.0
 10
9.3464970618
 20
8.1730320464
 30
0.0
 10
9.3725361999
 20
8.1844148168
 30
0.0
 10
9.3994800372
 20
8.1937678431
 30
0.0
 10
9.4271800924
 20
8.2010399633
 30
0.0
 10
9.4554837582
 20
8.2061914777
 30
0.0
 10
9.4842352016
 20
8.2091944014
 30
0.0
 10
9.5132762109
 20
8.2100325798
 30
0.0
 10
9.542447066
 20
8.2087017675
 30
0.0
 10
9.5715874157
 20
8.2052096598
 30
0.0
 10
9.6005371527
 20
8.1995757961
 30
0.0
 10
9.6291372806
 20
8.1918314433
 30
0.0
 10
9.6572307743
 20
8.1820194146
 30
0.0
 10
9.6846634252
 20
8.1701938232
 30
0.0
 10
9.7112846872
 20
8.1564198102
 30
0.0
 10
9.7369484918
 20
8.1407731728
 30
0.0
 10
9.7615140295
 20
8.1233399321
 30
0.0
 10
9.7848465136
 20
8.1042158683
 30
0.0
 10
9.8068179082
 20
8.0835059977
 30
0.0
 10
9.827307623
 20
8.0613240058
 30
0.0
 10
9.8462031938
 20
8.0377916493
 30
0.0
 10
9.8634008687
 20
8.0130380673
 30
0.0
 10
9.878806173
 20
7.9871990853
 30
0.0
 10
9.8923344228
 20
7.9604164749
 30
0.0
 10
9.9039111846
 20
7.9328372029
 30
0.0
 10
9.9134726943
 20
7.9046125835
 30
0.0
 10
9.9209662576
 20
7.8758976774
 30
0.0
 10
9.926350373
 20
7.8468496288
 30
0.0
 10
9.929595298
 20
7.8176300012
 30
0.0
 10
9.9303220775
 20
7.7980878837
 30
0.0
 10
9.9303220775
 20
7.7883452169
 30
0.0
  0
SPLINE
  5
3DA
100
AcDbEntity
  8
0
100
AcDbSpline
 62
7
  6
CONTINUOUS
 70
0
 71
3
 72
15
 73
11
 74
0
 42
0.0000001
 43
0.0000001
 44
0.0000000001
 40
0.0
 40
0.0
 40
0.0
 40
0.0
 40
0.1241449632
 40
0.2483766022
 40
0.3727797825
 40
0.497435798
 40
0.6224207061
 40
0.7478038011
 40
0.8736462614
 40
1.0
 40
1.0
 40
1.0
 40
1.0
 10
9.3282397101
 20
8.1240287641
 30
0.0
 10
9.3338760139
 20
8.1294730208
 30
0.0
 10
9.3455581554
 20
8.1399542339
 30
0.0
 10
9.3641964459
 20
8.1543506952
 30
0.0
 10
9.3838682528
 20
8.1673599898
 30
0.0
 10
9.4044794303
 20
8.1789196027
 30
0.0
 10
9.4259327939
 20
8.1889753559
 30
0.0
 10
9.4481273087
 20
8.1974799184
 30
0.0
 10
9.4709566425
 20
8.2043930626
 30
0.0
 10
9.4864981641
 20
8.207912463
 30
0.0
 10
9.4943342449
 20
8.2093984823
 30
0.0
  0
SPLINE
  5
3DB
100
AcDbEntity
  8
0
100
AcDbSpline
 62
7
  6
CONTINUOUS
 70
0
 71
3
 72
23
 73
19
 74
0
 42
0.0000001
 43
0.0000001
 44
0.0000000001
 40
0.0
 40
0.0
 40
0.0
 40
0.0
 40
0.0617101439
 40
0.1234413935
 40
0.1852146431
 40
0.2470503547
 40
0.3089683495
 40
0.3709876176
 40
0.4331261309
 40
0.4954006615
 40
0.5578266134
 40
0.6204179128
 40
0.6831867943
 40
0.7461438773
 40
0.8092980348
 40
0.872655047
 40
0.9362230873
 40
1.0
 40
1.0
 40
1.0
 40
1.0
 10
9.8199521084
 20
7.5228723955
 30
0.0
 10
9.8243223013
 20
7.52709366
 30
0.0
 10
9.8328484824
 20
7.53576428
 30
0.0
 10
9.8449542868
 20
7.5494130749
 30
0.0
 10
9.8563510921
 20
7.5636756775
 30
0.0
 10
9.8670121489
 20
7.578518751
 30
0.0
 10
9.8769130136
 20
7.5939081592
 30
0.0
 10
9.8860308585
 20
7.6098083528
 30
0.0
 10
9.8943446888
 20
7.6261826617
 30
0.0
 10
9.9018353325
 20
7.6429933246
 30
0.0
 10
9.9084855498
 20
7.6602015657
 30
0.0
 10
9.9142800649
 20
7.6777676856
 30
0.0
 10
9.9192055689
 20
7.695651176
 30
0.0
 10
9.9232507316
 20
7.7138108383
 30
0.0
 10
9.9264061973
 20
7.732204693
 30
0.0
 10
9.9286649312
 20
7.7507906996
 30
0.0
 10
9.930021505
 20
7.7695252005
 30
0.0
 10
9.9303220775
 20
7.782065732
 30
0.0
 10
9.9303220775
 20
7.7883452169
 30
0.0
  0
SPLINE
  5
3DC
100
AcDbEntity
  8
0
100
AcDbSpline
 62
7
  6
CONTINUOUS
 70
0
 71
3
 72
15
 73
11
 74
0
 42
0.0000001
 43
0.0000001
 44
0.0000000001
 40
0.0
 40
0.0
 40
0.0
 40
0.0
 40
0.1241431481
 40
0.2483731691
 40
0.3727751174
 40
0.4974304594
 40
0.6224154035
 40
0.7477993562
 40
0.8736436112
 40
1.0
 40
1.0
 40
1.0
 40
1.0
 10
9.8381837231
 20
7.5960959054
 30
0.0
 10
9.8438265045
 20
7.601546419
 30
0.0
 10
9.8547183246
 20
7.6128718166
 30
0.0
 10
9.8697670691
 20
7.6310228334
 30
0.0
 10
9.8834620339
 20
7.6502570992
 30
0.0
 10
9.8957372666
 20
7.6704823636
 30
0.0
 10
9.9065350832
 20
7.6916030294
 30
0.0
 10
9.9158045439
 20
7.7135193992
 30
0.0
 10
9.9235016495
 20
7.7361262101
 30
0.0
 10
9.9275528627
 20
7.7515571605
 30
0.0
 10
9.9293065629
 20
7.7593473973
 30
0.0
  0
SPLINE
  5
3DD
100
AcDbEntity
  8
0
100
AcDbSpline
 62
7
  6
CONTINUOUS
 70
0
 71
3
 72
39
 73
35
 74
0
 42
0.0000001
 43
0.0000001
 44
0.0000000001
 40
0.0
 40
0.0
 40
0.0
 40
0.0
 40
0.0299424698
 40
0.0599093171
 40
0.0899243244
 40
0.1200101049
 40
0.1501875654
 40
0.1804754197
 40
0.2108897678
 40
0.2414437479
 40
0.2721472748
 40
0.3030068601
 40
0.3340255156
 40
0.3652027379
 40
0.3965345747
 40
0.4280137612
 40
0.4596299196
 40
0.491369815
 40
0.5232176628
 40
0.555155479
 40
0.5871634623
 40
0.619220404
 40
0.6513041182
 40
0.6833918873
 40
0.7154609133
 40
0.74748877
 40
0.7794538516
 40
0.811335809
 40
0.8431159677
 40
0.8747777197
 40
0.9063068786
 40
0.9376920899
 40
0.9689246486
 40
1.0
 40
1.0
 40
1.0
 40
1.0
 10
11.1572241257
 20
7.9789779857
 30
0.0
 10
11.1643659797
 20
7.9858764637
 30
0.0
 10
11.1792112965
 20
7.9991166492
 30
0.0
 10
11.2029957792
 20
8.017154062
 30
0.0
 10
11.2281752224
 20
8.0332783131
 30
0.0
 10
11.2546089168
 20
8.047398975
 30
0.0
 10
11.2821515372
 20
8.0594389014
 30
0.0
 10
11.3106510879
 20
8.0693318909
 30
0.0
 10
11.33995052
 20
8.0770238048
 30
0.0
 10
11.3698884067
 20
8.0824726749
 30
0.0
 10
11.4002999172
 20
8.085648907
 30
0.0
 10
11.4310177065
 20
8.0865354163
 30
0.0
 10
11.4618728337
 20
8.0851276982
 30
0.0
 10
11.4926956894
 20
8.0814338995
 30
0.0
 10
11.5233169232
 20
8.0754746921
 30
0.0
 10
11.5535683596
 20
8.0672831452
 30
0.0
 10
11.5832839008
 20
8.0569045251
 30
0.0
 10
11.61230044
 20
8.04439609
 30
0.0
 10
11.6404587482
 20
8.0298267575
 30
0.0
 10
11.6676043198
 20
8.0132766884
 30
0.0
 10
11.6935882065
 20
7.9948368549
 30
0.0
 10
11.7182678275
 20
7.9746085563
 30
0.0
 10
11.7415077762
 20
7.9527029018
 30
0.0
 10
11.7631805164
 20
7.9292401524
 30
0.0
 10
11.7831670773
 20
7.9043490777
 30
0.0
 10
11.8013576888
 20
7.8781662527
 30
0.0
 10
11.8176524316
 20
7.8508353564
 30
0.0
 10
11.8319617505
 20
7.8225063559
 30
0.0
 10
11.8442069284
 20
7.7933347082
 30
0.0
 10
11.8543205045
 20
7.7634804514
 30
0.0
 10
11.8622467106
 20
7.7331075975
 30
0.0
 10
11.8679416854
 20
7.7023823682
 30
0.0
 10
11.8713739581
 20
7.6714756548
 30
0.0
 10
11.8721427018
 20
7.65080521
 30
0.0
 10
11.8721427018
 20
7.6405000191
 30
0.0
  0
SPLINE
  5
3DE
100
AcDbEntity
  8
0
100
AcDbSpline
 62
7
  6
CONTINUOUS
 70
0
 71
3
 72
39
 73
35
 74
0
 42
0.0000001
 43
0.0000001
 44
0.0000000001
 40
0.0
 40
0.0
 40
0.0
 40
0.0
 40
0.029942471
 40
0.0599093183
 40
0.0899243244
 40
0.1200101034
 40
0.1501875624
 40
0.1804754148
 40
0.2108897596
 40
0.2414437361
 40
0.2721472598
 40
0.3030068424
 40
0.3340254951
 40
0.3652027149
 40
0.3965345496
 40
0.4280137343
 40
0.459629891
 40
0.4913697854
 40
0.5232176334
 40
0.5551554501
 40
0.5871634341
 40
0.6192203766
 40
0.6513040925
 40
0.6833918636
 40
0.7154608915
 40
0.7474887505
 40
0.7794538351
 40
0.8113357956
 40
0.8431159562
 40
0.8747777121
 40
0.9063068677
 40
0.9376920929
 40
0.9689246489
 40
1.0
 40
1.0
 40
1.0
 40
1.0
 10
11.1862801445
 20
7.9743712338
 30
0.0
 10
11.1930321528
 20
7.9808931457
 30
0.0
 10
11.2070670533
 20
7.9934106645
 30
0.0
 10
11.2295531774
 20
8.0104635438
 30
0.0
 10
11.2533581013
 20
8.0257077231
 30
0.0
 10
11.2783488288
 20
8.0390576713
 30
0.0
 10
11.304387967
 20
8.0504404417
 30
0.0
 10
11.3313318043
 20
8.059793468
 30
0.0
 10
11.3590318595
 20
8.0670655882
 30
0.0
 10
11.3873355253
 20
8.0722171026
 30
0.0
 10
11.4160869687
 20
8.0752200263
 30
0.0
 10
11.4451279779
 20
8.0760582047
 30
0.0
 10
11.474298833
 20
8.0747273924
 30
0.0
 10
11.5034391827
 20
8.0712352847
 30
0.0
 10
11.5323889198
 20
8.065601421
 30
0.0
 10
11.5609890477
 20
8.0578570682
 30
0.0
 10
11.5890825413
 20
8.0480450395
 30
0.0
 10
11.6165151923
 20
8.0362194481
 30
0.0
 10
11.6431364543
 20
8.0224454351
 30
0.0
 10
11.6688002588
 20
8.0067987977
 30
0.0
 10
11.6933657965
 20
7.9893655571
 30
0.0
 10
11.7166982807
 20
7.9702414933
 30
0.0
 10
11.7386696752
 20
7.9495316226
 30
0.0
 10
11.75915939
 20
7.9273496307
 30
0.0
 10
11.7780549608
 20
7.9038172742
 30
0.0
 10
11.7952526358
 20
7.8790636923
 30
0.0
 10
11.8106579401
 20
7.8532247103
 30
0.0
 10
11.8241861899
 20
7.8264420998
 30
0.0
 10
11.8357629517
 20
7.7988628278
 30
0.0
 10
11.8453244613
 20
7.7706382084
 30
0.0
 10
11.8528180246
 20
7.7419233024
 30
0.0
 10
11.85820214
 20
7.7128752537
 30
0.0
 10
11.8614470651
 20
7.6836556261
 30
0.0
 10
11.8621738446
 20
7.6641135086
 30
0.0
 10
11.8621738446
 20
7.6543708418
 30
0.0
  0
SPLINE
  5
3DF
100
AcDbEntity
  8
0
100
AcDbSpline
 62
7
  6
CONTINUOUS
 70
0
 71
3
 72
15
 73
11
 74
0
 42
0.0000001
 43
0.0000001
 44
0.0000000001
 40
0.0
 40
0.0
 40
0.0
 40
0.0
 40
0.1241449632
 40
0.2483766022
 40
0.3727797825
 40
0.497435798
 40
0.6224207061
 40
0.7478038011
 40
0.8736462614
 40
1.0
 40
1.0
 40
1.0
 40
1.0
 10
11.2600914771
 20
7.9900543891
 30
0.0
 10
11.2657277809
 20
7.9954986457
 30
0.0
 10
11.2774099225
 20
8.0059798588
 30
0.0
 10
11.296048213
 20
8.0203763201
 30
0.0
 10
11.3157200199
 20
8.0333856147
 30
0.0
 10
11.3363311973
 20
8.0449452277
 30
0.0
 10
11.3577845609
 20
8.0550009808
 30
0.0
 10
11.3799790757
 20
8.0635055433
 30
0.0
 10
11.4028084096
 20
8.0704186876
 30
0.0
 10
11.4183499311
 20
8.0739380879
 30
0.0
 10
11.4261860119
 20
8.0754241072
 30
0.0
  0
SPLINE
  5
3E0
100
AcDbEntity
  8
0
100
AcDbSpline
 62
7
  6
CONTINUOUS
 70
0
 71
3
 72
23
 73
19
 74
0
 42
0.0000001
 43
0.0000001
 44
0.0000000001
 40
0.0
 40
0.0
 40
0.0
 40
0.0
 40
0.0617101439
 40
0.1234413935
 40
0.1852146431
 40
0.2470503547
 40
0.3089683495
 40
0.3709876176
 40
0.4331261309
 40
0.4954006615
 40
0.5578266134
 40
0.6204179128
 40
0.6831867943
 40
0.7461438773
 40
0.8092980348
 40
0.872655047
 40
0.9362230873
 40
1.0
 40
1.0
 40
1.0
 40
1.0
 10
11.7518038755
 20
7.3888980204
 30
0.0
 10
11.7561740684
 20
7.3931192849
 30
0.0
 10
11.7647002495
 20
7.4017899049
 30
0.0
 10
11.7768060538
 20
7.4154386998
 30
0.0
 10
11.7882028592
 20
7.4297013024
 30
0.0
 10
11.7988639159
 20
7.4445443759
 30
0.0
 10
11.8087647806
 20
7.4599337841
 30
0.0
 10
11.8178826255
 20
7.4758339777
 30
0.0
 10
11.8261964559
 20
7.4922082867
 30
0.0
 10
11.8336870996
 20
7.5090189495
 30
0.0
 10
11.8403373169
 20
7.5262271906
 30
0.0
 10
11.846131832
 20
7.5437933105
 30
0.0
 10
11.8510573359
 20
7.5616768009
 30
0.0
 10
11.8551024987
 20
7.5798364632
 30
0.0
 10
11.8582579644
 20
7.5982303179
 30
0.0
 10
11.8605166982
 20
7.6168163245
 30
0.0
 10
11.861873272
 20
7.6355508254
 30
0.0
 10
11.8621738446
 20
7.648091357
 30
0.0
 10
11.8621738446
 20
7.6543708418
 30
0.0
  0
SPLINE
  5
3E1
100
AcDbEntity
  8
0
100
AcDbSpline
 62
7
  6
CONTINUOUS
 70
0
 71
3
 72
15
 73
11
 74
0
 42
0.0000001
 43
0.0000001
 44
0.0000000001
 40
0.0
 40
0.0
 40
0.0
 40
0.0
 40
0.1241431481
 40
0.2483731691
 40
0.3727751174
 40
0.4974304594
 40
0.6224154035
 40
0.7477993562
 40
0.8736436112
 40
1.0
 40
1.0
 40
1.0
 40
1.0
 10
11.7700354901
 20
7.4621215303
 30
0.0
 10
11.7756782716
 20
7.4675720439
 30
0.0
 10
11.7865700917
 20
7.4788974415
 30
0.0
 10
11.8016188362
 20
7.4970484583
 30
0.0
 10
11.8153138009
 20
7.5162827241
 30
0.0
 10
11.8275890336
 20
7.5365079885
 30
0.0
 10
11.8383868502
 20
7.5576286543
 30
0.0
 10
11.8476563109
 20
7.5795450242
 30
0.0
 10
11.8553534165
 20
7.602151835
 30
0.0
 10
11.8594046298
 20
7.6175827854
 30
0.0
 10
11.86115833
 20
7.6253730222
 30
0.0
  0
SPLINE
  5
3E2
100
AcDbEntity
  8
0
100
AcDbSpline
 62
7
  6
CONTINUOUS
 70
0
 71
3
 72
42
 73
38
 74
0
 42
0.0000001
 43
0.0000001
 44
0.0000000001
 40
0.0
 40
0.0
 40
0.0
 40
0.0
 40
0.0299419644
 40
0.0449235317
 40
0.0599142035
 40
0.0899287023
 40
0.1200139727
 40
0.1350926544
 40
0.1501966973
 40
0.1804840373
 40
0.210897868
 40
0.2414513286
 40
0.2721543342
 40
0.3030133956
 40
0.3340315238
 40
0.3652082165
 40
0.3965395222
 40
0.4280181758
 40
0.459633799
 40
0.4913731572
 40
0.5232204671
 40
0.5551577446
 40
0.5871651885
 40
0.6192215901
 40
0.6513047644
 40
0.683391994
 40
0.715460481
 40
0.7474877999
 40
0.7794523452
 40
0.8113337678
 40
0.8431133918
 40
0.8747746145
 40
0.906303246
 40
0.9376878974
 40
0.9533257627
 40
0.9689252947
 40
1.0
 40
1.0
 40
1.0
 40
1.0
 10
8.4175004633
 20
9.3744000985
 30
0.0
 10
8.4208681657
 20
9.3776530479
 30
0.0
 10
8.4261182216
 20
9.3823353686
 30
0.0
 10
8.4334707795
 20
9.3881451574
 30
0.0
 10
8.4410575441
 20
9.3936657645
 30
0.0
 10
8.4509569701
 20
9.4000052922
 30
0.0
 10
8.4613377557
 20
9.4055504903
 30
0.0
 10
8.4698991754
 20
9.40949544
 30
0.0
 10
8.4786375045
 20
9.4131146155
 30
0.0
 10
8.4898483431
 20
9.417006354
 30
0.0
 10
8.5036640271
 20
9.4206333323
 30
0.0
 10
8.5177811716
 20
9.4232027935
 30
0.0
 10
8.5321215478
 20
9.4247005463
 30
0.0
 10
8.5466063788
 20
9.4251186019
 30
0.0
 10
8.5611559653
 20
9.4244548312
 30
0.0
 10
8.5756903389
 20
9.4227130689
 30
0.0
 10
8.5901296393
 20
9.4199030562
 30
0.0
 10
8.6043945639
 20
9.4160403882
 30
0.0
 10
8.6184067927
 20
9.4111464216
 30
0.0
 10
8.6320894138
 20
9.4052481536
 30
0.0
 10
8.6453673394
 20
9.3983780724
 30
0.0
 10
8.6581677116
 20
9.3905739776
 30
0.0
 10
8.6704202977
 20
9.3818787728
 30
0.0
 10
8.6820578697
 20
9.3723402316
 30
0.0
 10
8.6930165697
 20
9.3620107368
 30
0.0
 10
8.7032362557
 20
9.3509469955
 30
0.0
 10
8.7126608288
 20
9.3392097308
 30
0.0
 10
8.7212385374
 20
9.3268633512
 30
0.0
 10
8.7289222592
 20
9.3139756048
 30
0.0
 10
8.7356697588
 20
9.3006171969
 30
0.0
 10
8.7414439138
 20
9.2868614623
 30
0.0
 10
8.7462129367
 20
9.2727837632
 30
0.0
 10
8.7499504742
 20
9.25846184
 30
0.0
 10
8.7521912169
 20
9.2463725873
 30
0.0
 10
8.7534482029
 20
9.2366590099
 30
0.0
 10
8.7543452835
 20
9.2269547298
 30
0.0
 10
8.7546169128
 20
9.2196523213
 30
0.0
 10
8.7546169128
 20
9.2147929766
 30
0.0
  0
SPLINE
  5
3E3
100
AcDbEntity
  8
0
100
AcDbSpline
 62
7
  6
CONTINUOUS
 70
0
 71
3
 72
42
 73
38
 74
0
 42
0.0000001
 43
0.0000001
 44
0.0000000001
 40
0.0
 40
0.0
 40
0.0
 40
0.0
 40
0.0299419644
 40
0.0449235317
 40
0.0599142035
 40
0.0899287023
 40
0.1200139727
 40
0.1350926544
 40
0.1501966973
 40
0.1804840373
 40
0.210897868
 40
0.2414513286
 40
0.2721543342
 40
0.3030133956
 40
0.3340315238
 40
0.3652082165
 40
0.3965395222
 40
0.4280181758
 40
0.459633799
 40
0.4913731572
 40
0.5232204671
 40
0.5551577446
 40
0.5871651885
 40
0.6192215901
 40
0.6513047644
 40
0.683391994
 40
0.715460481
 40
0.7474877999
 40
0.7794523452
 40
0.8113337678
 40
0.8431133918
 40
0.8747746145
 40
0.906303246
 40
0.9376878974
 40
0.9533257627
 40
0.9689252947
 40
1.0
 40
1.0
 40
1.0
 40
1.0
 10
10.3493522303
 20
9.2404257234
 30
0.0
 10
10.3527199327
 20
9.2436786728
 30
0.0
 10
10.3579699886
 20
9.2483609935
 30
0.0
 10
10.3653225465
 20
9.2541707823
 30
0.0
 10
10.3729093111
 20
9.2596913894
 30
0.0
 10
10.3828087371
 20
9.2660309171
 30
0.0
 10
10.3931895227
 20
9.2715761152
 30
0.0
 10
10.4017509424
 20
9.2755210649
 30
0.0
 10
10.4104892716
 20
9.2791402404
 30
0.0
 10
10.4217001101
 20
9.2830319789
 30
0.0
 10
10.4355157942
 20
9.2866589572
 30
0.0
 10
10.4496329386
 20
9.2892284184
 30
0.0
 10
10.4639733148
 20
9.2907261712
 30
0.0
 10
10.4784581459
 20
9.2911442268
 30
0.0
 10
10.4930077323
 20
9.2904804562
 30
0.0
 10
10.5075421059
 20
9.2887386938
 30
0.0
 10
10.5219814064
 20
9.2859286811
 30
0.0
 10
10.5362463309
 20
9.2820660132
 30
0.0
 10
10.5502585597
 20
9.2771720465
 30
0.0
 10
10.5639411809
 20
9.2712737785
 30
0.0
 10
10.5772191064
 20
9.2644036973
 30
0.0
 10
10.5900194787
 20
9.2565996025
 30
0.0
 10
10.6022720647
 20
9.2479043977
 30
0.0
 10
10.6139096367
 20
9.2383658565
 30
0.0
 10
10.6248683367
 20
9.2280363617
 30
0.0
 10
10.6350880228
 20
9.2169726204
 30
0.0
 10
10.6445125958
 20
9.2052353557
 30
0.0
 10
10.6530903044
 20
9.1928889761
 30
0.0
 10
10.6607740263
 20
9.1800012297
 30
0.0
 10
10.6675215258
 20
9.1666428218
 30
0.0
 10
10.6732956808
 20
9.1528870873
 30
0.0
 10
10.6780647037
 20
9.1388093881
 30
0.0
 10
10.6818022413
 20
9.1244874649
 30
0.0
 10
10.6840429839
 20
9.1123982123
 30
0.0
 10
10.68529997
 20
9.1026846348
 30
0.0
 10
10.6861970506
 20
9.0929803547
 30
0.0
 10
10.6864686798
 20
9.0856779462
 30
0.0
 10
10.6864686798
 20
9.0808186015
 30
0.0
  0
SPLINE
  5
3E4
100
AcDbEntity
  8
0
100
AcDbSpline
 62
7
  6
CONTINUOUS
 70
0
 71
3
 72
42
 73
38
 74
0
 42
0.0000001
 43
0.0000001
 44
0.0000000001
 40
0.0
 40
0.0
 40
0.0
 40
0.0
 40
0.0299419644
 40
0.0449235317
 40
0.0599142035
 40
0.0899287023
 40
0.1200139727
 40
0.1350926544
 40
0.1501966973
 40
0.1804840373
 40
0.210897868
 40
0.2414513286
 40
0.2721543342
 40
0.3030133956
 40
0.3340315238
 40
0.3652082165
 40
0.3965395222
 40
0.4280181758
 40
0.459633799
 40
0.4913731572
 40
0.5232204671
 40
0.5551577446
 40
0.5871651885
 40
0.6192215901
 40
0.6513047644
 40
0.683391994
 40
0.715460481
 40
0.7474877999
 40
0.7794523452
 40
0.8113337678
 40
0.8431133918
 40
0.8747746145
 40
0.906303246
 40
0.9376878974
 40
0.9533257627
 40
0.9689252947
 40
1.0
 40
1.0
 40
1.0
 40
1.0
 10
12.2812039974
 20
9.1064513483
 30
0.0
 10
12.2845716998
 20
9.1097042977
 30
0.0
 10
12.2898217557
 20
9.1143866184
 30
0.0
 10
12.2971743135
 20
9.1201964072
 30
0.0
 10
12.3047610782
 20
9.1257170143
 30
0.0
 10
12.3146605041
 20
9.132056542
 30
0.0
 10
12.3250412898
 20
9.1376017402
 30
0.0
 10
12.3336027095
 20
9.1415466898
 30
0.0
 10
12.3423410386
 20
9.1451658654
 30
0.0
 10
12.3535518772
 20
9.1490576038
 30
0.0
 10
12.3673675612
 20
9.1526845821
 30
0.0
 10
12.3814847057
 20
9.1552540433
 30
0.0
 10
12.3958250818
 20
9.1567517961
 30
0.0
 10
12.4103099129
 20
9.1571698517
 30
0.0
 10
12.4248594994
 20
9.1565060811
 30
0.0
 10
12.4393938729
 20
9.1547643187
 30
0.0
 10
12.4538331734
 20
9.151954306
 30
0.0
 10
12.468098098
 20
9.1480916381
 30
0.0
 10
12.4821103267
 20
9.1431976714
 30
0.0
 10
12.4957929479
 20
9.1372994034
 30
0.0
 10
12.5090708734
 20
9.1304293223
 30
0.0
 10
12.5218712457
 20
9.1226252274
 30
0.0
 10
12.5341238317
 20
9.1139300226
 30
0.0
 10
12.5457614038
 20
9.1043914814
 30
0.0
 10
12.5567201038
 20
9.0940619866
 30
0.0
 10
12.5669397898
 20
9.0829982453
 30
0.0
 10
12.5763643629
 20
9.0712609806
 30
0.0
 10
12.5849420715
 20
9.058914601
 30
0.0
 10
12.5926257933
 20
9.0460268546
 30
0.0
 10
12.5993732929
 20
9.0326684467
 30
0.0
 10
12.6051474479
 20
9.0189127122
 30
0.0
 10
12.6099164708
 20
9.0048350131
 30
0.0
 10
12.6136540083
 20
8.9905130898
 30
0.0
 10
12.615894751
 20
8.9784238372
 30
0.0
 10
12.617151737
 20
8.9687102598
 30
0.0
 10
12.6180488176
 20
8.9590059796
 30
0.0
 10
12.6183204469
 20
8.9517035711
 30
0.0
 10
12.6183204469
 20
8.9468442264
 30
0.0
  0
SPLINE
  5
3E5
100
AcDbEntity
  8
0
100
AcDbSpline
 62
7
  6
CONTINUOUS
 70
0
 71
3
 72
42
 73
38
 74
0
 42
0.0000001
 43
0.0000001
 44
0.0000000001
 40
0.0
 40
0.0
 40
0.0
 40
0.0
 40
0.0299419644
 40
0.0449235317
 40
0.0599142035
 40
0.0899287023
 40
0.1200139727
 40
0.1350926544
 40
0.1501966973
 40
0.1804840373
 40
0.210897868
 40
0.2414513286
 40
0.2721543342
 40
0.3030133956
 40
0.3340315238
 40
0.3652082165
 40
0.3965395222
 40
0.4280181758
 40
0.459633799
 40
0.4913731572
 40
0.5232204671
 40
0.5551577446
 40
0.5871651885
 40
0.6192215901
 40
0.6513047644
 40
0.683391994
 40
0.715460481
 40
0.7474877999
 40
0.7794523452
 40
0.8113337678
 40
0.8431133918
 40
0.8747746145
 40
0.906303246
 40
0.9376878974
 40
0.9533257627
 40
0.9689252947
 40
1.0
 40
1.0
 40
1.0
 40
1.0
 10
8.4175004633
 20
7.6840298023
 30
0.0
 10
8.4208681657
 20
7.6872827517
 30
0.0
 10
8.4261182216
 20
7.6919650725
 30
0.0
 10
8.4334707795
 20
7.6977748612
 30
0.0
 10
8.4410575441
 20
7.7032954683
 30
0.0
 10
8.4509569701
 20
7.709634996
 30
0.0
 10
8.4613377557
 20
7.7151801942
 30
0.0
 10
8.4698991754
 20
7.7191251438
 30
0.0
 10
8.4786375045
 20
7.7227443194
 30
0.0
 10
8.4898483431
 20
7.7266360578
 30
0.0
 10
8.5036640271
 20
7.7302630361
 30
0.0
 10
8.5177811716
 20
7.7328324973
 30
0.0
 10
8.5321215478
 20
7.7343302501
 30
0.0
 10
8.5466063788
 20
7.7347483057
 30
0.0
 10
8.5611559653
 20
7.7340845351
 30
0.0
 10
8.5756903389
 20
7.7323427727
 30
0.0
 10
8.5901296393
 20
7.72953276
 30
0.0
 10
8.6043945639
 20
7.7256700921
 30
0.0
 10
8.6184067927
 20
7.7207761254
 30
0.0
 10
8.6320894138
 20
7.7148778574
 30
0.0
 10
8.6453673394
 20
7.7080077763
 30
0.0
 10
8.6581677116
 20
7.7002036814
 30
0.0
 10
8.6704202977
 20
7.6915084767
 30
0.0
 10
8.6820578697
 20
7.6819699354
 30
0.0
 10
8.6930165697
 20
7.6716404406
 30
0.0
 10
8.7032362557
 20
7.6605766993
 30
0.0
 10
8.7126608288
 20
7.6488394346
 30
0.0
 10
8.7212385374
 20
7.636493055
 30
0.0
 10
8.7289222592
 20
7.6236053086
 30
0.0
 10
8.7356697588
 20
7.6102469007
 30
0.0
 10
8.7414439138
 20
7.5964911662
 30
0.0
 10
8.7462129367
 20
7.5824134671
 30
0.0
 10
8.7499504742
 20
7.5680915438
 30
0.0
 10
8.7521912169
 20
7.5560022912
 30
0.0
 10
8.7534482029
 20
7.5462887138
 30
0.0
 10
8.7543452835
 20
7.5365844336
 30
0.0
 10
8.7546169128
 20
7.5292820251
 30
0.0
 10
8.7546169128
 20
7.5244226804
 30
0.0
  0
SPLINE
  5
3E6
100
AcDbEntity
  8
0
100
AcDbSpline
 62
7
  6
CONTINUOUS
 70
0
 71
3
 72
42
 73
38
 74
0
 42
0.0000001
 43
0.0000001
 44
0.0000000001
 40
0.0
 40
0.0
 40
0.0
 40
0.0
 40
0.0299419644
 40
0.0449235317
 40
0.0599142035
 40
0.0899287023
 40
0.1200139727
 40
0.1350926544
 40
0.1501966973
 40
0.1804840373
 40
0.210897868
 40
0.2414513286
 40
0.2721543342
 40
0.3030133956
 40
0.3340315238
 40
0.3652082165
 40
0.3965395222
 40
0.4280181758
 40
0.459633799
 40
0.4913731572
 40
0.5232204671
 40
0.5551577446
 40
0.5871651885
 40
0.6192215901
 40
0.6513047644
 40
0.683391994
 40
0.715460481
 40
0.7474877999
 40
0.7794523452
 40
0.8113337678
 40
0.8431133918
 40
0.8747746145
 40
0.906303246
 40
0.9376878974
 40
0.9533257627
 40
0.9689252947
 40
1.0
 40
1.0
 40
1.0
 40
1.0
 10
10.3493522303
 20
7.5500554272
 30
0.0
 10
10.3527199327
 20
7.5533083767
 30
0.0
 10
10.3579699886
 20
7.5579906974
 30
0.0
 10
10.3653225465
 20
7.5638004862
 30
0.0
 10
10.3729093111
 20
7.5693210933
 30
0.0
 10
10.3828087371
 20
7.5756606209
 30
0.0
 10
10.3931895227
 20
7.5812058191
 30
0.0
 10
10.4017509424
 20
7.5851507687
 30
0.0
 10
10.4104892716
 20
7.5887699443
 30
0.0
 10
10.4217001101
 20
7.5926616827
 30
0.0
 10
10.4355157942
 20
7.5962886611
 30
0.0
 10
10.4496329386
 20
7.5988581222
 30
0.0
 10
10.4639733148
 20
7.6003558751
 30
0.0
 10
10.4784581459
 20
7.6007739306
 30
0.0
 10
10.4930077323
 20
7.60011016
 30
0.0
 10
10.5075421059
 20
7.5983683977
 30
0.0
 10
10.5219814064
 20
7.5955583849
 30
0.0
 10
10.5362463309
 20
7.591695717
 30
0.0
 10
10.5502585597
 20
7.5868017503
 30
0.0
 10
10.5639411809
 20
7.5809034823
 30
0.0
 10
10.5772191064
 20
7.5740334012
 30
0.0
 10
10.5900194787
 20
7.5662293063
 30
0.0
 10
10.6022720647
 20
7.5575341016
 30
0.0
 10
10.6139096367
 20
7.5479955604
 30
0.0
 10
10.6248683367
 20
7.5376660656
 30
0.0
 10
10.6350880228
 20
7.5266023242
 30
0.0
 10
10.6445125958
 20
7.5148650595
 30
0.0
 10
10.6530903044
 20
7.5025186799
 30
0.0
 10
10.6607740263
 20
7.4896309335
 30
0.0
 10
10.6675215258
 20
7.4762725256
 30
0.0
 10
10.6732956808
 20
7.4625167911
 30
0.0
 10
10.6780647037
 20
7.448439092
 30
0.0
 10
10.6818022413
 20
7.4341171687
 30
0.0
 10
10.6840429839
 20
7.4220279161
 30
0.0
 10
10.68529997
 20
7.4123143387
 30
0.0
 10
10.6861970506
 20
7.4026100586
 30
0.0
 10
10.6864686798
 20
7.39530765
 30
0.0
 10
10.6864686798
 20
7.3904483053
 30
0.0
  0
SPLINE
  5
3E7
100
AcDbEntity
  8
0
100
AcDbSpline
 62
7
  6
CONTINUOUS
 70
0
 71
3
 72
42
 73
38
 74
0
 42
0.0000001
 43
0.0000001
 44
0.0000000001
 40
0.0
 40
0.0
 40
0.0
 40
0.0
 40
0.0299419644
 40
0.0449235317
 40
0.0599142035
 40
0.0899287023
 40
0.1200139727
 40
0.1350926544
 40
0.1501966973
 40
0.1804840373
 40
0.210897868
 40
0.2414513286
 40
0.2721543342
 40
0.3030133956
 40
0.3340315238
 40
0.3652082165
 40
0.3965395222
 40
0.4280181758
 40
0.459633799
 40
0.4913731572
 40
0.5232204671
 40
0.5551577446
 40
0.5871651885
 40
0.6192215901
 40
0.6513047644
 40
0.683391994
 40
0.715460481
 40
0.7474877999
 40
0.7794523452
 40
0.8113337678
 40
0.8431133918
 40
0.8747746145
 40
0.906303246
 40
0.9376878974
 40
0.9533257627
 40
0.9689252947
 40
1.0
 40
1.0
 40
1.0
 40
1.0
 10
12.2812039974
 20
7.4160810521
 30
0.0
 10
12.2845716998
 20
7.4193340016
 30
0.0
 10
12.2898217557
 20
7.4240163223
 30
0.0
 10
12.2971743135
 20
7.4298261111
 30
0.0
 10
12.3047610782
 20
7.4353467182
 30
0.0
 10
12.3146605041
 20
7.4416862458
 30
0.0
 10
12.3250412898
 20
7.447231444
 30
0.0
 10
12.3336027095
 20
7.4511763936
 30
0.0
 10
12.3423410386
 20
7.4547955692
 30
0.0
 10
12.3535518772
 20
7.4586873077
 30
0.0
 10
12.3673675612
 20
7.462314286
 30
0.0
 10
12.3814847057
 20
7.4648837471
 30
0.0
 10
12.3958250818
 20
7.4663815
 30
0.0
 10
12.4103099129
 20
7.4667995555
 30
0.0
 10
12.4248594994
 20
7.4661357849
 30
0.0
 10
12.4393938729
 20
7.4643940226
 30
0.0
 10
12.4538331734
 20
7.4615840098
 30
0.0
 10
12.468098098
 20
7.4577213419
 30
0.0
 10
12.4821103267
 20
7.4528273752
 30
0.0
 10
12.4957929479
 20
7.4469291073
 30
0.0
 10
12.5090708734
 20
7.4400590261
 30
0.0
 10
12.5218712457
 20
7.4322549313
 30
0.0
 10
12.5341238317
 20
7.4235597265
 30
0.0
 10
12.5457614038
 20
7.4140211853
 30
0.0
 10
12.5567201038
 20
7.4036916905
 30
0.0
 10
12.5669397898
 20
7.3926279491
 30
0.0
 10
12.5763643629
 20
7.3808906845
 30
0.0
 10
12.5849420715
 20
7.3685443049
 30
0.0
 10
12.5926257933
 20
7.3556565584
 30
0.0
 10
12.5993732929
 20
7.3422981506
 30
0.0
 10
12.6051474479
 20
7.328542416
 30
0.0
 10
12.6099164708
 20
7.3144647169
 30
0.0
 10
12.6136540083
 20
7.3001427937
 30
0.0
 10
12.615894751
 20
7.288053541
 30
0.0
 10
12.617151737
 20
7.2783399636
 30
0.0
 10
12.6180488176
 20
7.2686356835
 30
0.0
 10
12.6183204469
 20
7.261333275
 30
0.0
 10
12.6183204469
 20
7.2564739303
 30
0.0
  0
SPLINE
  5
3E8
100
AcDbEntity
  8
0
100
AcDbSpline
 62
7
  6
CONTINUOUS
 70
0
 71
3
 72
28
 73
24
 74
0
 42
0.0000001
 43
0.0000001
 44
0.0000000001
 40
0.0
 40
0.0
 40
0.0
 40
0.0
 40
0.0196467233
 40
0.0387974431
 40
0.0575995627
 40
0.0762097377
 40
0.0947930722
 40
0.1135173751
 40
0.1325465646
 40
0.1520403305
 40
0.172150876
 40
0.1930169876
 40
0.2374751285
 40
0.2863303992
 40
0.3402709823
 40
0.3998353492
 40
0.4654480734
 40
0.537438606
 40
0.6160640627
 40
0.7015209765
 40
0.7939466065
 40
0.8934272579
 40
1.0
 40
1.0
 40
1.0
 40
1.0
 10
11.3008612821
 20
7.9650860509
 30
0.0
 10
11.3004174632
 20
7.965117054
 30
0.0
 10
11.2995431552
 20
7.9652177989
 30
0.0
 10
11.2982659095
 20
7.9654922514
 30
0.0
 10
11.2970451241
 20
7.9658874804
 30
0.0
 10
11.2958840436
 20
7.9664030087
 30
0.0
 10
11.2947858645
 20
7.9670382454
 30
0.0
 10
11.2937538892
 20
7.9677923423
 30
0.0
 10
11.2927914106
 20
7.968664252
 30
0.0
 10
11.2919017418
 20
7.9696528222
 30
0.0
 10
11.2910881151
 20
7.9707568729
 30
0.0
 10
11.2900880745
 20
7.9724158053
 30
0.0
 10
11.2890545771
 20
7.9747999028
 30
0.0
 10
11.2882040805
 20
7.9780350639
 30
0.0
 10
11.2877419861
 20
7.9816919361
 30
0.0
 10
11.2876963044
 20
7.9857554919
 30
0.0
 10
11.2880957857
 20
7.9902091742
 30
0.0
 10
11.2889698962
 20
7.9950330275
 30
0.0
 10
11.2903476339
 20
8.00020385
 30
0.0
 10
11.2922570829
 20
8.0056948679
 30
0.0
 10
11.2947245082
 20
8.011475866
 30
0.0
 10
11.2977735154
 20
8.0175128594
 30
0.0
 10
11.300127335
 20
8.0215454446
 30
0.0
 10
11.3014015296
 20
8.0235949927
 30
0.0
  0
SPLINE
  5
3E9
100
AcDbEntity
  8
0
100
AcDbSpline
 62
7
  6
CONTINUOUS
 70
0
 71
3
 72
11
 73
7
 74
0
 42
0.0000001
 43
0.0000001
 44
0.0000000001
 40
0.0
 40
0.0
 40
0.0
 40
0.0
 40
0.2560157798
 40
0.5069139951
 40
0.7543360408
 40
1.0
 40
1.0
 40
1.0
 40
1.0
 10
12.9665858658
 20
8.7829625657
 30
0.0
 10
12.9674670477
 20
8.7832051896
 30
0.0
 10
12.9692313766
 20
8.7836179646
 30
0.0
 10
12.9718982146
 20
8.7840137814
 30
0.0
 10
12.974552308
 20
8.784178471
 30
0.0
 10
12.9763147117
 20
8.784133841
 30
0.0
 10
12.977189628
 20
8.7840731647
 30
0.0
  0
SPLINE
  5
3EA
100
AcDbEntity
  8
0
100
AcDbSpline
 62
7
  6
CONTINUOUS
 70
0
 71
3
 72
85
 73
81
 74
0
 42
0.0000001
 43
0.0000001
 44
0.0000000001
 40
0.0
 40
0.0
 40
0.0
 40
0.0
 40
0.0027164321
 40
0.0054532385
 40
0.0082303085
 40
0.011066603
 40
0.0139798079
 40
0.0169861193
 40
0.0233311764
 40
0.0266975277
 40
0.0302054756
 40
0.033863392
 40
0.0376783486
 40
0.0416563264
 40
0.0458022472
 40
0.050120174
 40
0.0546133665
 40
0.0592843698
 40
0.0641351496
 40
0.0691670674
 40
0.0743810463
 40
0.0797775355
 40
0.0853565984
 40
0.0911179629
 40
0.0970609898
 40
0.1094877374
 40
0.1226269862
 40
0.1364646504
 40
0.1509834607
 40
0.1661633573
 40
0.1819818055
 40
0.1984140483
 40
0.2154333259
 40
0.233011069
 40
0.2511170619
 40
0.2697195894
 40
0.2887855696
 40
0.3082806737
 40
0.3281694478
 40
0.3484154285
 40
0.36898125
 40
0.3898287485
 40
0.4109190644
 40
0.4322127408
 40
0.4536698284
 40
0.4969118802
 40
0.5403202169
 40
0.5835675225
 40
0.6050291933
 40
0.6263287434
 40
0.6474262089
 40
0.6682821161
 40
0.6888575847
 40
0.7091144272
 40
0.7290152501
 40
0.748523559
 40
0.7676038654
 40
0.7862218038
 40
0.8043442504
 40
0.821939444
 40
0.838977118
 40
0.8554286471
 40
0.8712672105
 40
0.8864679851
 40
0.9010083612
 40
0.9148681946
 40
0.9280301198
 40
0.9404799413
 40
0.9464346146
 40
0.9522076736
 40
0.9577984609
 40
0.9632066809
 40
0.9684323855
 40
0.9734759888
 40
0.9783383641
 40
0.9830208263
 40
0.9875253632
 40
0.991854574
 40
0.996011563
 40
1.0
 40
1.0
 40
1.0
 40
1.0
 10
12.9548198118
 20
7.6078023687
 30
0.0
 10
12.9535226799
 20
7.6078923252
 30
0.0
 10
12.950925332
 20
7.6081903436
 30
0.0
 10
12.9470623703
 20
7.6089877351
 30
0.0
 10
12.9432286023
 20
7.6101354708
 30
0.0
 10
12.9394267964
 20
7.6116323629
 30
0.0
 10
12.9356587308
 20
7.6134771747
 30
0.0
 10
12.9305923009
 20
7.6164517589
 30
0.0
 10
12.9256879352
 20
7.6200933663
 30
0.0
 10
12.920962309
 20
7.6243042759
 30
0.0
 10
12.9173897193
 20
7.627865124
 30
0.0
 10
12.9138613892
 20
7.6317636613
 30
0.0
 10
12.910378366
 20
7.6359982173
 30
0.0
 10
12.9069424402
 20
7.6405666385
 30
0.0
 10
12.9035550855
 20
7.6454666462
 30
0.0
 10
12.9002179484
 20
7.6506958482
 30
0.0
 10
12.8969326131
 20
7.6562516681
 30
0.0
 10
12.8937006271
 20
7.6621313538
 30
0.0
 10
12.8905236323
 20
7.6683320302
 30
0.0
 10
12.8874031118
 20
7.6748506009
 30
0.0
 10
12.8843406713
 20
7.6816838563
 30
0.0
 10
12.881337795
 20
7.6888283904
 30
0.0
 10
12.8783959841
 20
7.6962806456
 30
0.0
 10
12.8755167137
 20
7.7040369266
 30
0.0
 10
12.8717062144
 20
7.7149415365
 30
0.0
 10
12.8671239348
 20
7.7293141435
 30
0.0
 10
12.861975334
 20
7.747461667
 30
0.0
 10
12.8571086494
 20
7.7667211799
 30
0.0
 10
12.8525337336
 20
7.7870541296
 30
0.0
 10
12.8482598877
 20
7.8084200118
 30
0.0
 10
12.8442958078
 20
7.830776087
 30
0.0
 10
12.8406495605
 20
7.854077589
 30
0.0
 10
12.837328564
 20
7.8782777976
 30
0.0
 10
12.8343395778
 20
7.903328156
 30
0.0
 10
12.8316886866
 20
7.9291783741
 30
0.0
 10
12.8293812883
 20
7.9557765352
 30
0.0
 10
12.8274220852
 20
7.9830692009
 30
0.0
 10
12.8258150664
 20
8.0110015201
 30
0.0
 10
12.8245635056
 20
8.0395173436
 30
0.0
 10
12.8236699576
 20
8.0685593426
 30
0.0
 10
12.8231362536
 20
8.0980691242
 30
0.0
 10
12.8229634949
 20
8.1279873547
 30
0.0
 10
12.8231520635
 20
8.1582538559
 30
0.0
 10
12.8237015684
 20
8.1888078093
 30
0.0
 10
12.8249172612
 20
8.2299519193
 30
0.0
 10
12.8273310901
 20
8.2816471697
 30
0.0
 10
12.8316219422
 20
8.3436806797
 30
0.0
 10
12.8363488487
 20
8.3952206544
 30
0.0
 10
12.8408099265
 20
8.4361478284
 30
0.0
 10
12.8444729078
 20
8.4664948827
 30
0.0
 10
12.8484539401
 20
8.4965093641
 30
0.0
 10
12.8527450346
 20
8.526130959
 30
0.0
 10
12.8573375259
 20
8.5553000911
 30
0.0
 10
12.8622221528
 20
8.5839581151
 30
0.0
 10
12.86738906
 20
8.6120474143
 30
0.0
 10
12.8728278219
 20
8.6395115221
 30
0.0
 10
12.8785274636
 20
8.666295236
 30
0.0
 10
12.8844764778
 20
8.6923447353
 30
0.0
 10
12.890662847
 20
8.717607693
 30
0.0
 10
12.8970740739
 20
8.742033381
 30
0.0
 10
12.9036972045
 20
8.7655727737
 30
0.0
 10
12.910518855
 20
8.7881786512
 30
0.0
 10
12.9175252422
 20
8.8098057021
 30
0.0
 10
12.924702207
 20
8.8304106371
 30
0.0
 10
12.9320352479
 20
8.8499522572
 30
0.0
 10
12.9395095709
 20
8.868391656
 30
0.0
 10
12.9471101036
 20
8.8856919352
 30
0.0
 10
12.9536294543
 20
8.8993263137
 30
0.0
 10
12.9589065278
 20
8.9096266337
 30
0.0
 10
12.9628275367
 20
8.916930998
 30
0.0
 10
12.9667686396
 20
8.923925845
 30
0.0
 10
12.9707278825
 20
8.9306077056
 30
0.0
 10
12.9747032773
 20
8.93697326
 30
0.0
 10
12.9786928907
 20
8.943019316
 30
0.0
 10
12.9826946636
 20
8.9487428971
 30
0.0
 10
12.9867067025
 20
8.9541411494
 30
0.0
 10
12.9907270411
 20
8.9592114673
 30
0.0
 10
12.9947538157
 20
8.9639513734
 30
0.0
 10
12.9987848662
 20
8.9683582943
 30
0.0
 10
13.0015296244
 20
8.9711292307
 30
0.0
 10
13.0029027571
 20
8.9724555752
 30
0.0
  0
SPLINE
  5
3EB
100
AcDbEntity
  8
0
100
AcDbSpline
 62
7
  6
CONTINUOUS
 70
0
 71
3
 72
11
 73
7
 74
0
 42
0.0000001
 43
0.0000001
 44
0.0000000001
 40
0.0
 40
0.0
 40
0.0
 40
0.0
 40
0.2560725715
 40
0.5069799007
 40
0.754377611
 40
1.0
 40
1.0
 40
1.0
 40
1.0
 10
12.9003733441
 20
7.8289590027
 30
0.0
 10
12.9012165377
 20
7.8285938093
 30
0.0
 10
12.9029150088
 20
7.8279355964
 30
0.0
 10
12.9055143549
 20
7.827168745
 30
0.0
 10
12.9081332033
 20
7.826634885
 30
0.0
 10
12.9098936571
 20
7.8264344226
 30
0.0
 10
12.9107729268
 20
7.8263734445
 30
0.0
  0
SPLINE
  5
3EC
100
AcDbEntity
  8
0
100
AcDbSpline
 62
7
  6
CONTINUOUS
 70
0
 71
3
 72
39
 73
35
 74
0
 42
0.0000001
 43
0.0000001
 44
0.0000000001
 40
0.0
 40
0.0
 40
0.0
 40
0.0
 40
0.0306969779
 40
0.0615112908
 40
0.0924392194
 40
0.1234784032
 40
0.1546236037
 40
0.1858689524
 40
0.2172072432
 40
0.2486302463
 40
0.2801287673
 40
0.3116927612
 40
0.3433114529
 40
0.3749734583
 40
0.4066669129
 40
0.4383796038
 40
0.4700991067
 40
0.5018129237
 40
0.53350862
 40
0.5651739602
 40
0.5967970429
 40
0.6283664333
 40
0.6598712935
 40
0.6913015085
 40
0.7226478037
 40
0.7539018555
 40
0.7850563933
 40
0.8161052926
 40
0.8470436587
 40
0.8778678983
 40
0.908575776
 40
0.939166455
 40
0.9696405228
 40
1.0
 40
1.0
 40
1.0
 40
1.0
 10
9.5260354347
 20
8.1551921486
 30
0.0
 10
9.5260354347
 20
8.1489554527
 30
0.0
 10
9.5263810981
 20
8.1364555451
 30
0.0
 10
9.5279278688
 20
8.1177296154
 30
0.0
 10
9.5304993389
 20
8.0990460279
 30
0.0
 10
9.534087391
 20
8.0804625602
 30
0.0
 10
9.5386812062
 20
8.0620354147
 30
0.0
 10
9.5442666744
 20
8.0438207651
 30
0.0
 10
9.5508267947
 20
8.025873993
 30
0.0
 10
9.5583415509
 20
8.0082496964
 30
0.0
 10
9.5667880361
 20
7.9910014757
 30
0.0
 10
9.5761405198
 20
7.9741817881
 30
0.0
 10
9.586370525
 20
7.9578417865
 30
0.0
 10
9.597446915
 20
7.9420311666
 30
0.0
 10
9.6093359879
 20
7.926798019
 30
0.0
 10
9.6220015723
 20
7.9121886792
 30
0.0
 10
9.6354051272
 20
7.898247577
 30
0.0
 10
9.6495058772
 20
7.8850171158
 30
0.0
 10
9.6642609325
 20
7.8725375433
 30
0.0
 10
9.679625419
 20
7.860846831
 30
0.0
 10
9.6955526119
 20
7.8499805593
 30
0.0
 10
9.7119940776
 20
7.8399718127
 30
0.0
 10
9.7288998083
 20
7.8308510575
 30
0.0
 10
9.7462183848
 20
7.822646065
 30
0.0
 10
9.7638971334
 20
7.8153818308
 30
0.0
 10
9.7818822829
 20
7.8090804992
 30
0.0
 10
9.8001191258
 20
7.8037612943
 30
0.0
 10
9.8185521848
 20
7.7994404662
 30
0.0
 10
9.83712537
 20
7.7961312228
 30
0.0
 10
9.8557821749
 20
7.7938436905
 30
0.0
 10
9.8744657611
 20
7.7925848881
 30
0.0
 10
9.8931194626
 20
7.7923587446
 30
0.0
 10
9.9116857122
 20
7.7931659217
 30
0.0
 10
9.9239918422
 20
7.7943938557
 30
0.0
 10
9.930109735
 20
7.7951794545
 30
0.0
  0
SPLINE
  5
3ED
100
AcDbEntity
  8
0
100
AcDbSpline
 62
7
  6
CONTINUOUS
 70
0
 71
3
 72
23
 73
19
 74
0
 42
0.0000001
 43
0.0000001
 44
0.0000000001
 40
0.0
 40
0.0
 40
0.0
 40
0.0
 40
0.0637771735
 40
0.1273448473
 40
0.1907019822
 40
0.253856143
 40
0.3168131975
 40
0.3795820985
 40
0.4421733906
 40
0.5045993374
 40
0.5668738654
 40
0.62901238
 40
0.6910316489
 40
0.7529496402
 40
0.814785347
 40
0.8765585971
 40
0.938289852
 40
1.0
 40
1.0
 40
1.0
 40
1.0
 10
9.1086287491
 20
7.8321503626
 30
0.0
 10
9.1086287491
 20
7.8387924767
 30
0.0
 10
9.108946668
 20
7.8520571372
 30
0.0
 10
9.1103815986
 20
7.8718734418
 30
0.0
 10
9.1127707621
 20
7.8915326519
 30
0.0
 10
9.1161084604
 20
7.9109886462
 30
0.0
 10
9.1203872123
 20
7.9301969166
 30
0.0
 10
9.125597149
 20
7.9491130644
 30
0.0
 10
9.1317262992
 20
7.9676935098
 30
0.0
 10
9.1387605675
 20
7.9858954043
 30
0.0
 10
9.1466837708
 20
8.0036767705
 30
0.0
 10
9.1554776901
 20
8.0209965886
 30
0.0
 10
9.1651220815
 20
8.0378148956
 30
0.0
 10
9.1755947189
 20
8.0540929104
 30
0.0
 10
9.1868714302
 20
8.0697930487
 30
0.0
 10
9.198926356
 20
8.0848792097
 30
0.0
 10
9.211731224
 20
8.0993161197
 30
0.0
 10
9.2207498152
 20
8.1084873418
 30
0.0
 10
9.2253723586
 20
8.1129523608
 30
0.0
  0
SPLINE
  5
3EE
100
AcDbEntity
  8
0
100
AcDbSpline
 62
7
  6
CONTINUOUS
 70
0
 71
3
 72
25
 73
21
 74
0
 42
0.0000001
 43
0.0000001
 44
0.0000000001
 40
0.0
 40
0.0
 40
0.0
 40
0.0
 40
0.0307187314
 40
0.0615301394
 40
0.0924318539
 40
0.1234203452
 40
0.1856273123
 40
0.2481275861
 40
0.3108738051
 40
0.3738111951
 40
0.4368792754
 40
0.5000137002
 40
0.5631481694
 40
0.6262163782
 40
0.6891539757
 40
0.7519004815
 40
0.8144011077
 40
0.8766084786
 40
0.9384841663
 40
1.0
 40
1.0
 40
1.0
 40
1.0
 10
9.6050621633
 20
8.1979587103
 30
0.0
 10
9.6054632974
 20
8.1929301055
 30
0.0
 10
9.6064922337
 20
8.1828742649
 30
0.0
 10
9.6087067159
 20
8.1678529662
 30
0.0
 10
9.6115902087
 20
8.1528999401
 30
0.0
 10
9.616324127
 20
8.1330728678
 30
0.0
 10
9.6238881627
 20
8.1086124536
 30
0.0
 10
9.6355002765
 20
8.0800633916
 30
0.0
 10
9.649566268
 20
8.0525044693
 30
0.0
 10
9.6659710985
 20
8.0261612504
 30
0.0
 10
9.6845811266
 20
8.0012473553
 30
0.0
 10
9.7052449525
 20
7.977965453
 30
0.0
 10
9.7277944721
 20
7.9565047614
 30
0.0
 10
9.7520463519
 20
7.9370398021
 30
0.0
 10
9.7778035276
 20
7.9197290679
 30
0.0
 10
9.8048566754
 20
7.9047134654
 30
0.0
 10
9.8329857373
 20
7.8921155375
 30
0.0
 10
9.8619629214
 20
7.8820381364
 30
0.0
 10
9.8915493895
 20
7.8745641071
 30
0.0
 10
9.9115875654
 20
7.8713474768
 30
0.0
 10
9.9216235883
 20
7.8701945646
 30
0.0
  0
SPLINE
  5
3EF
100
AcDbEntity
  8
0
100
AcDbSpline
 62
7
  6
CONTINUOUS
 70
0
 71
3
 72
19
 73
15
 74
0
 42
0.0000001
 43
0.0000001
 44
0.0000000001
 40
0.0
 40
0.0
 40
0.0
 40
0.0
 40
0.12732766
 40
0.2538196711
 40
0.3795264658
 40
0.5045235362
 40
0.5668075958
 40
0.6289556124
 40
0.6909843715
 40
0.7529118454
 40
0.8147570127
 40
0.8765397119
 40
0.9382804145
 40
1.0
 40
1.0
 40
1.0
 40
1.0
 10
8.3624510041
 20
7.5516194786
 30
0.0
 10
8.3624510041
 20
7.5578714745
 30
0.0
 10
8.363047932
 20
7.5703430347
 30
0.0
 10
8.3657476122
 20
7.5888107516
 30
0.0
 10
8.3702236587
 20
7.6068135709
 30
0.0
 10
8.3754087943
 20
7.6213105142
 30
0.0
 10
8.3803954754
 20
7.6325014434
 30
0.0
 10
8.3845422472
 20
7.640668652
 30
0.0
 10
8.3890899461
 20
7.6485991787
 30
0.0
 10
8.3940282216
 20
7.6562749941
 30
0.0
 10
8.3993456802
 20
7.6636782777
 30
0.0
 10
8.4050300676
 20
7.6707920748
 30
0.0
 10
8.4110680947
 20
7.6775997154
 30
0.0
 10
8.4153207385
 20
7.6819243507
 30
0.0
 10
8.4175004633
 20
7.6840298023
 30
0.0
  0
SPLINE
  5
3F0
100
AcDbEntity
  8
0
100
AcDbSpline
 62
7
  6
CONTINUOUS
 70
0
 71
3
 72
19
 73
15
 74
0
 42
0.0000001
 43
0.0000001
 44
0.0000000001
 40
0.0
 40
0.0
 40
0.0
 40
0.0
 40
0.12732766
 40
0.2538196711
 40
0.3795264658
 40
0.5045235362
 40
0.5668075958
 40
0.6289556124
 40
0.6909843715
 40
0.7529118454
 40
0.8147570127
 40
0.8765397119
 40
0.9382804145
 40
1.0
 40
1.0
 40
1.0
 40
1.0
 10
12.2261545381
 20
8.9740410246
 30
0.0
 10
12.2261545381
 20
8.9802930205
 30
0.0
 10
12.2267514661
 20
8.9927645807
 30
0.0
 10
12.2294511463
 20
9.0112322976
 30
0.0
 10
12.2339271928
 20
9.0292351169
 30
0.0
 10
12.2391123284
 20
9.0437320602
 30
0.0
 10
12.2440990095
 20
9.0549229894
 30
0.0
 10
12.2482457813
 20
9.063090198
 30
0.0
 10
12.2527934802
 20
9.0710207247
 30
0.0
 10
12.2577317557
 20
9.0786965401
 30
0.0
 10
12.2630492143
 20
9.0860998237
 30
0.0
 10
12.2687336017
 20
9.0932136208
 30
0.0
 10
12.2747716288
 20
9.1000212613
 30
0.0
 10
12.2790242726
 20
9.1043458967
 30
0.0
 10
12.2812039974
 20
9.1064513483
 30
0.0
  0
SPLINE
  5
3F1
100
AcDbEntity
  8
0
100
AcDbSpline
 62
7
  6
CONTINUOUS
 70
0
 71
3
 72
39
 73
35
 74
0
 42
0.0000001
 43
0.0000001
 44
0.0000000001
 40
0.0
 40
0.0
 40
0.0
 40
0.0
 40
0.0310589964
 40
0.0622733271
 40
0.0936386203
 40
0.1251464394
 40
0.1567858343
 40
0.1885430821
 40
0.2204021131
 40
0.252344835
 40
0.2843515082
 40
0.3164011426
 40
0.3484719117
 40
0.3805415785
 40
0.4125879274
 40
0.4445891959
 40
0.4765244994
 40
0.5083742433
 40
0.5401205188
 40
0.5717474743
 40
0.603241654
 40
0.6345922989
 40
0.6657916025
 40
0.6968349155
 40
0.7277208919
 40
0.758451567
 40
0.7890323639
 40
0.8194720236
 40
0.8497824576
 40
0.8799785203
 40
0.9100777024
 40
0.9400997508
 40
0.9700662253
 40
1.0
 40
1.0
 40
1.0
 40
1.0
 10
11.0485038998
 20
7.7059259815
 30
0.0
 10
11.0485038998
 20
7.6957416098
 30
0.0
 10
11.0492546854
 20
7.675314274
 30
0.0
 10
11.0526071738
 20
7.6447678604
 30
0.0
 10
11.0581703019
 20
7.6143948123
 30
0.0
 10
11.0659140531
 20
7.5843601393
 30
0.0
 10
11.0757965422
 20
7.5548243943
 30
0.0
 10
11.0877645727
 20
7.5259460787
 30
0.0
 10
11.1017537465
 20
7.4978799538
 30
0.0
 10
11.1176888817
 20
7.4707764572
 30
0.0
 10
11.1354844148
 20
7.444780849
 30
0.0
 10
11.1550448551
 20
7.4200324601
 30
0.0
 10
11.1762652961
 20
7.3966639557
 30
0.0
 10
11.1990319514
 20
7.3748006154
 30
0.0
 10
11.2232227616
 20
7.3545596626
 30
0.0
 10
11.2487080629
 20
7.3360496632
 30
0.0
 10
11.2753512678
 20
7.3193699455
 30
0.0
 10
11.3030095898
 20
7.3046100759
 30
0.0
 10
11.3315347913
 20
7.2918493721
 30
0.0
 10
11.3607739599
 20
7.2811564519
 30
0.0
 10
11.3905703361
 20
7.2725889001
 30
0.0
 10
11.4207641364
 20
7.266192953
 30
0.0
 10
11.4511933973
 20
7.2620032453
 30
0.0
 10
11.4816948299
 20
7.2600426176
 30
0.0
 10
11.5121046837
 20
7.260321939
 30
0.0
 10
11.5422596256
 20
7.2628400712
 30
0.0
 10
11.571997606
 20
7.2675838597
 30
0.0
 10
11.6011587308
 20
7.2745281845
 30
0.0
 10
11.6295861045
 20
7.2836360674
 30
0.0
 10
11.65712675
 20
7.2948588611
 30
0.0
 10
11.6836322396
 20
7.3081363266
 30
0.0
 10
11.7089602713
 20
7.3233976522
 30
0.0
 10
11.7329726033
 20
7.3405592436
 30
0.0
 10
11.7480260852
 20
7.353213167
 30
0.0
 10
11.7552856729
 20
7.3598192701
 30
0.0
  0
SPLINE
  5
3F2
100
AcDbEntity
  8
0
100
AcDbSpline
 62
7
  6
CONTINUOUS
 70
0
 71
3
 72
23
 73
19
 74
0
 42
0.0000001
 43
0.0000001
 44
0.0000000001
 40
0.0
 40
0.0
 40
0.0
 40
0.0
 40
0.0637492644
 40
0.1272977347
 40
0.1906427853
 40
0.2537920744
 40
0.3167507142
 40
0.3795265697
 40
0.4421291709
 40
0.5045694472
 40
0.5668598756
 40
0.6290142932
 40
0.6910477961
 40
0.7529766026
 40
0.8148179011
 40
0.8765897052
 40
0.9383106877
 40
1.0
 40
1.0
 40
1.0
 40
1.0
 10
11.0485038998
 20
7.7059259815
 30
0.0
 10
11.0485038998
 20
7.7123188274
 30
0.0
 10
11.0487984297
 20
7.7250863881
 30
0.0
 10
11.0501275974
 20
7.744164612
 30
0.0
 10
11.0523409077
 20
7.7631004898
 30
0.0
 10
11.0554334213
 20
7.7818527955
 30
0.0
 10
11.0593987579
 20
7.8003818523
 30
0.0
 10
11.0642284116
 20
7.8186479873
 30
0.0
 10
11.0699120901
 20
7.8366122244
 30
0.0
 10
11.0764377158
 20
7.8542361945
 30
0.0
 10
11.0837914112
 20
7.871482237
 30
0.0
 10
11.0919574698
 20
7.8883135242
 30
0.0
 10
11.1009184647
 20
7.9046941025
 30
0.0
 10
11.1106552978
 20
7.9205889775
 30
0.0
 10
11.1211471896
 20
7.9359641345
 30
0.0
 10
11.1323718236
 20
7.9507868537
 30
0.0
 10
11.1443048071
 20
7.9650250427
 30
0.0
 10
11.152717691
 20
7.9741096374
 30
0.0
 10
11.1570321069
 20
7.9785431205
 30
0.0
  0
LINE
  5
3F3
100
AcDbEntity
  8
0
100
AcDbLine
 62
7
  6
CONTINUOUS
 10
11.1570321069
 20
7.9785431205
 11
11.1573412022
 21
7.9788603706
  0
SPLINE
  5
3F4
100
AcDbEntity
  8
0
100
AcDbSpline
 62
7
  6
CONTINUOUS
 70
0
 71
3
 72
71
 73
67
 74
0
 42
0.0000001
 43
0.0000001
 44
0.0000000001
 40
0.0
 40
0.0
 40
0.0
 40
0.0
 40
0.0155841267
 40
0.0311159948
 40
0.046595237
 40
0.0620238811
 40
0.0774034528
 40
0.0927362808
 40
0.108025123
 40
0.1232731726
 40
0.1384840554
 40
0.1536617766
 40
0.1688106897
 40
0.1839354524
 40
0.1990409778
 40
0.2141323823
 40
0.2292149324
 40
0.2442939895
 40
0.2593749535
 40
0.2744632036
 40
0.2895640407
 40
0.3046826304
 40
0.3198239505
 40
0.3349927386
 40
0.3501934431
 40
0.3654301773
 40
0.3807066784
 40
0.3960262749
 40
0.4113918546
 40
0.4268058385
 40
0.4422701591
 40
0.4577862482
 40
0.4733550284
 40
0.4889769089
 40
0.5046517849
 40
0.520379043
 40
0.5361575757
 40
0.5519857956
 40
0.567861654
 40
0.5837826618
 40
0.599745918
 40
0.6157481409
 40
0.631785699
 40
0.6478546447
 40
0.6639507505
 40
0.6800695507
 40
0.6962063813
 40
0.7123564198
 40
0.7285147273
 40
0.7446762932
 40
0.7608360797
 40
0.7769890647
 40
0.7931302839
 40
0.8092548751
 40
0.8253581231
 40
0.8414355003
 40
0.8574827061
 40
0.8734957059
 40
0.8894707697
 40
0.9054045141
 40
0.921293915
 40
0.9371363644
 40
0.9529297309
 40
0.9686720281
 40
0.9843627508
 40
1.0
 40
1.0
 40
1.0
 40
1.0
 10
11.0610609363
 20
7.705055148
 30
0.0
 10
11.0610609363
 20
7.7116417144
 30
0.0
 10
11.0613832959
 20
7.7247950948
 30
0.0
 10
11.0628383094
 20
7.7444422621
 30
0.0
 10
11.065260794
 20
7.7639280847
 30
0.0
 10
11.0686446878
 20
7.7832047379
 30
0.0
 10
11.0729820808
 20
7.8022261273
 30
0.0
 10
11.0782625032
 20
7.8209462746
 30
0.0
 10
11.0844732592
 20
7.8393200845
 30
0.0
 10
11.0915994224
 20
7.8573032495
 30
0.0
 10
11.0996238545
 20
7.8748523985
 30
0.0
 10
11.1085272717
 20
7.8919251897
 30
0.0
 10
11.1182882154
 20
7.9084804468
 30
0.0
 10
11.1288831604
 20
7.9244782403
 30
0.0
 10
11.1402865771
 20
7.9398799762
 30
0.0
 10
11.1524709942
 20
7.9546484847
 30
0.0
 10
11.1654070428
 20
7.9687481252
 30
0.0
 10
11.1790635035
 20
7.9821449034
 30
0.0
 10
11.1934074346
 20
7.9948065099
 30
0.0
 10
11.2084042393
 20
8.0067024058
 30
0.0
 10
11.2240177557
 20
8.0178038837
 30
0.0
 10
11.2402103056
 20
8.0280841923
 30
0.0
 10
11.2569428136
 20
8.0375185749
 30
0.0
 10
11.2741749157
 20
8.0460843063
 30
0.0
 10
11.291865052
 20
8.0537607478
 30
0.0
 10
11.3099705605
 20
8.060529405
 30
0.0
 10
11.3284477643
 20
8.0663740245
 30
0.0
 10
11.3472521075
 20
8.071280567
 30
0.0
 10
11.3663382561
 20
8.0752372485
 30
0.0
 10
11.3856602065
 20
8.0782345536
 30
0.0
 10
11.4051713856
 20
8.080265312
 30
0.0
 10
11.4248247726
 20
8.0813247033
 30
0.0
 10
11.4445730161
 20
8.0814102258
 30
0.0
 10
11.4643685438
 20
8.080521711
 30
0.0
 10
11.4841636717
 20
8.0786613207
 30
0.0
 10
11.5039107265
 20
8.0758336075
 30
0.0
 10
11.5235621586
 20
8.0720454354
 30
0.0
 10
11.5430706534
 20
8.0673059659
 30
0.0
 10
11.5623892386
 20
8.0616266271
 30
0.0
 10
11.5814714045
 20
8.0550211254
 30
0.0
 10
11.6002712254
 20
8.0475054217
 30
0.0
 10
11.6187434525
 20
8.039097641
 30
0.0
 10
11.6368436239
 20
8.0298180424
 30
0.0
 10
11.6545281626
 20
8.019688963
 30
0.0
 10
11.6717545143
 20
8.0087348235
 30
0.0
 10
11.6884812283
 20
7.99698202
 30
0.0
 10
11.7046680492
 20
7.9844588542
 30
0.0
 10
11.720276008
 20
7.9711954646
 30
0.0
 10
11.7352675287
 20
7.9572237758
 30
0.0
 10
11.7496065455
 20
7.942577443
 30
0.0
 10
11.7632585474
 20
7.9272917243
 30
0.0
 10
11.7761906678
 20
7.9114034082
 30
0.0
 10
11.7883717501
 20
7.8949507195
 30
0.0
 10
11.7997724736
 20
7.8779732662
 30
0.0
 10
11.8103653994
 20
7.8605119191
 30
0.0
 10
11.8201250151
 20
7.8426087022
 30
0.0
 10
11.8290277965
 20
7.8243066971
 30
0.0
 10
11.8370522705
 20
7.8056499469
 30
0.0
 10
11.8441791218
 20
7.7866833685
 30
0.0
 10
11.8503911669
 20
7.7674526156
 30
0.0
 10
11.8556734202
 20
7.7480039827
 30
0.0
 10
11.8600131158
 20
7.7283842517
 30
0.0
 10
11.8633997031
 20
7.7086407853
 30
0.0
 10
11.8658251792
 20
7.6888207496
 30
0.0
 10
11.8672833906
 20
7.6689727515
 30
0.0
 10
11.867609049
 20
7.6557298648
 30
0.0
 10
11.867609049
 20
7.6491208464
 30
0.0
  0
SPLINE
  5
3F5
100
AcDbEntity
  8
0
100
AcDbSpline
 62
7
  6
CONTINUOUS
 70
0
 71
3
 72
23
 73
19
 74
0
 42
0.0000001
 43
0.0000001
 44
0.0000000001
 40
0.0
 40
0.0
 40
0.0
 40
0.0
 40
0.0637769127
 40
0.127344953
 40
0.1907019652
 40
0.2538561227
 40
0.3168132057
 40
0.3795820872
 40
0.4421733866
 40
0.5045993385
 40
0.5668738691
 40
0.6290123824
 40
0.6910316505
 40
0.7529496453
 40
0.8147853569
 40
0.8765586065
 40
0.9382898561
 40
1.0
 40
1.0
 40
1.0
 40
1.0
 10
11.0759101754
 20
7.7088984124
 30
0.0
 10
11.0759101754
 20
7.7151778973
 30
0.0
 10
11.0762107479
 20
7.7277184288
 30
0.0
 10
11.0775673217
 20
7.7464529298
 30
0.0
 10
11.0798260556
 20
7.7650389363
 30
0.0
 10
11.0829815213
 20
7.783432791
 30
0.0
 10
11.087026684
 20
7.8015924534
 30
0.0
 10
11.091952188
 20
7.8194759437
 30
0.0
 10
11.0977467031
 20
7.8370420636
 30
0.0
 10
11.1043969204
 20
7.8542503047
 30
0.0
 10
11.111887564
 20
7.8710609676
 30
0.0
 10
11.1202013944
 20
7.8874352765
 30
0.0
 10
11.1293192393
 20
7.9033354701
 30
0.0
 10
11.139220104
 20
7.9187248784
 30
0.0
 10
11.1498811608
 20
7.9335679519
 30
0.0
 10
11.1612779661
 20
7.9478305545
 30
0.0
 10
11.1733837704
 20
7.9614793493
 30
0.0
 10
11.1819099516
 20
7.9701499694
 30
0.0
 10
11.1862801445
 20
7.9743712338
 30
0.0
  0
SPLINE
  5
3F6
100
AcDbEntity
  8
0
100
AcDbSpline
 62
7
  6
CONTINUOUS
 70
0
 71
3
 72
21
 73
17
 74
0
 42
0.0000001
 43
0.0000001
 44
0.0000000001
 40
0.0
 40
0.0
 40
0.0
 40
0.0
 40
0.1272074726
 40
0.2536500371
 40
0.3166117841
 40
0.379397922
 40
0.4420167787
 40
0.5044777347
 40
0.5667915347
 40
0.6289701522
 40
0.6910266516
 40
0.7529751329
 40
0.8148306086
 40
0.8766088636
 40
0.9383263384
 40
1.0
 40
1.0
 40
1.0
 40
1.0
 10
11.1115788957
 20
7.7433517527
 30
0.0
 10
11.1115788957
 20
7.7548123788
 30
0.0
 10
11.1125792155
 20
7.7776769978
 30
0.0
 10
11.1163554421
 20
7.8059907908
 30
0.0
 10
11.1208725829
 20
7.8282648037
 30
0.0
 10
11.1249949274
 20
7.8447334363
 30
0.0
 10
11.1298482448
 20
7.8609543263
 30
0.0
 10
11.1354232798
 20
7.8768965877
 30
0.0
 10
11.1417092521
 20
7.8925294329
 30
0.0
 10
11.1486940961
 20
7.9078227703
 30
0.0
 10
11.156364427
 20
7.9227471019
 30
0.0
 10
11.1647054381
 20
7.9372737075
 30
0.0
 10
11.1737010498
 20
7.9513745777
 30
0.0
 10
11.1833340829
 20
7.9650226051
 30
0.0
 10
11.1935856472
 20
7.9781911375
 30
0.0
 10
11.2008218669
 20
7.9866367217
 30
0.0
 10
11.2045353056
 20
7.9907700293
 30
0.0
  0
SPLINE
  5
3F7
100
AcDbEntity
  8
0
100
AcDbSpline
 62
7
  6
CONTINUOUS
 70
0
 71
3
 72
23
 73
19
 74
0
 42
0.0000001
 43
0.0000001
 44
0.0000000001
 40
0.0
 40
0.0
 40
0.0
 40
0.0
 40
0.063776763
 40
0.1273450105
 40
0.1907019658
 40
0.2538561083
 40
0.3168132129
 40
0.3795820829
 40
0.4421733857
 40
0.5045993396
 40
0.5668738671
 40
0.6290123792
 40
0.6910316488
 40
0.752949646
 40
0.8147853557
 40
0.8765586025
 40
0.9382898529
 40
1.0
 40
1.0
 40
1.0
 40
1.0
 10
11.1605686843
 20
7.7506722575
 30
0.0
 10
11.1605686843
 20
7.7563345807
 30
0.0
 10
11.1608397221
 20
7.7676426324
 30
0.0
 10
11.1620629636
 20
7.7845359053
 30
0.0
 10
11.1640997108
 20
7.8012952893
 30
0.0
 10
11.1669450569
 20
7.8178813896
 30
0.0
 10
11.1705926657
 20
7.834256317
 30
0.0
 10
11.1750340897
 20
7.8503822175
 30
0.0
 10
11.1802591112
 20
7.8662219394
 30
0.0
 10
11.1862557447
 20
7.8817389534
 30
0.0
 10
11.193010221
 20
7.8968974562
 30
0.0
 10
11.2005069617
 20
7.9116624986
 30
0.0
 10
11.208728694
 20
7.9260000255
 30
0.0
 10
11.2176565
 20
7.9398769624
 30
0.0
 10
11.2272698045
 20
7.9532612445
 30
0.0
 10
11.2375465267
 20
7.9661221187
 30
0.0
 10
11.2484625526
 20
7.9784295266
 30
0.0
 10
11.2561507968
 20
7.9862479805
 30
0.0
 10
11.2600914771
 20
7.9900543891
 30
0.0
  0
SPLINE
  5
3F8
100
AcDbEntity
  8
0
100
AcDbSpline
 62
7
  6
CONTINUOUS
 70
0
 71
3
 72
17
 73
13
 74
0
 42
0.0000001
 43
0.0000001
 44
0.0000000001
 40
0.0
 40
0.0
 40
0.0
 40
0.0
 40
0.1661658368
 40
0.3194212717
 40
0.4601153468
 40
0.5887470654
 40
0.648759554
 40
0.7060234771
 40
0.8127564563
 40
0.8625765045
 40
0.9102556534
 40
1.0
 40
1.0
 40
1.0
 40
1.0
 10
11.3283587808
 20
7.9797026801
 30
0.0
 10
11.3270858751
 20
7.9784731475
 30
0.0
 10
11.324581007
 20
7.9761682755
 30
0.0
 10
11.3207840016
 20
7.9730651784
 30
0.0
 10
11.3171081787
 20
7.9704612489
 30
0.0
 10
11.3140869103
 20
7.968669251
 30
0.0
 10
11.3117407979
 20
7.9675024815
 30
0.0
 10
11.3095509856
 20
7.9665537804
 30
0.0
 10
11.3073861282
 20
7.9658245824
 30
0.0
 10
11.3052616252
 20
7.965348958
 30
0.0
 10
11.3032875509
 20
7.9650589659
 30
0.0
 10
11.3018147847
 20
7.9650194436
 30
0.0
 10
11.3008612821
 20
7.9650860509
 30
0.0
  0
SPLINE
  5
3F9
100
AcDbEntity
  8
0
100
AcDbSpline
 62
7
  6
CONTINUOUS
 70
0
 71
3
 72
71
 73
67
 74
0
 42
0.0000001
 43
0.0000001
 44
0.0000000001
 40
0.0
 40
0.0
 40
0.0
 40
0.0
 40
0.0156372492
 40
0.0313279719
 40
0.0470702691
 40
0.0628636356
 40
0.078706085
 40
0.0945954859
 40
0.1105292303
 40
0.1265042941
 40
0.1425172939
 40
0.1585644997
 40
0.1746418769
 40
0.1907451249
 40
0.2068697161
 40
0.2230109353
 40
0.2391639203
 40
0.2553237068
 40
0.2714852727
 40
0.2876435802
 40
0.3037936187
 40
0.3199304493
 40
0.3360492495
 40
0.3521453553
 40
0.368214301
 40
0.3842518591
 40
0.400254082
 40
0.4162173382
 40
0.432138346
 40
0.4480142044
 40
0.4638424243
 40
0.479620957
 40
0.4953482151
 40
0.5110230911
 40
0.5266449716
 40
0.5422137518
 40
0.5577298409
 40
0.5731941615
 40
0.5886081454
 40
0.6039737251
 40
0.6192933216
 40
0.6345698227
 40
0.6498065569
 40
0.6650072614
 40
0.6801760495
 40
0.6953173696
 40
0.7104359593
 40
0.7255367964
 40
0.7406250465
 40
0.7557060105
 40
0.7707850676
 40
0.7858676177
 40
0.8009590222
 40
0.8160645476
 40
0.8311893103
 40
0.8463382234
 40
0.8615159446
 40
0.8767268274
 40
0.891974877
 40
0.9072637192
 40
0.9225965472
 40
0.9379761189
 40
0.953404763
 40
0.9688840052
 40
0.9844158733
 40
1.0
 40
1.0
 40
1.0
 40
1.0
 10
11.0610609363
 20
7.705055148
 30
0.0
 10
11.0610609363
 20
7.6984461297
 30
0.0
 10
11.0613865946
 20
7.685203243
 30
0.0
 10
11.0628448061
 20
7.6653552448
 30
0.0
 10
11.0652702821
 20
7.6455352092
 30
0.0
 10
11.0686568694
 20
7.6257917428
 30
0.0
 10
11.072996565
 20
7.6061720118
 30
0.0
 10
11.0782788183
 20
7.5867233788
 30
0.0
 10
11.0844908634
 20
7.5674926259
 30
0.0
 10
11.0916177147
 20
7.5485260475
 30
0.0
 10
11.0996421888
 20
7.5298692973
 30
0.0
 10
11.1085449702
 20
7.5115672922
 30
0.0
 10
11.1183045859
 20
7.4936640754
 30
0.0
 10
11.1288975117
 20
7.4762027283
 30
0.0
 10
11.1402982352
 20
7.459225275
 30
0.0
 10
11.1524793175
 20
7.4427725863
 30
0.0
 10
11.1654114378
 20
7.4268842701
 30
0.0
 10
11.1790634397
 20
7.4115985515
 30
0.0
 10
11.1934024565
 20
7.3969522187
 30
0.0
 10
11.2083939772
 20
7.3829805298
 30
0.0
 10
11.224001936
 20
7.3697171403
 30
0.0
 10
11.2401887569
 20
7.3571939744
 30
0.0
 10
11.2569154709
 20
7.3454411709
 30
0.0
 10
11.2741418227
 20
7.3344870314
 30
0.0
 10
11.2918263613
 20
7.3243579521
 30
0.0
 10
11.3099265328
 20
7.3150783534
 30
0.0
 10
11.3283987599
 20
7.3066705728
 30
0.0
 10
11.3471985807
 20
7.2991548691
 30
0.0
 10
11.3662807466
 20
7.2925493674
 30
0.0
 10
11.3855993319
 20
7.2868700285
 30
0.0
 10
11.4051078267
 20
7.2821305591
 30
0.0
 10
11.4247592587
 20
7.278342387
 30
0.0
 10
11.4445063135
 20
7.2755146737
 30
0.0
 10
11.4643014414
 20
7.2736542835
 30
0.0
 10
11.4840969691
 20
7.2727657686
 30
0.0
 10
11.5038452127
 20
7.2728512911
 30
0.0
 10
11.5234985996
 20
7.2739106824
 30
0.0
 10
11.5430097788
 20
7.2759414409
 30
0.0
 10
11.5623317292
 20
7.2789387459
 30
0.0
 10
11.5814178777
 20
7.2828954274
 30
0.0
 10
11.6002222209
 20
7.28780197
 30
0.0
 10
11.6186994248
 20
7.2936465895
 30
0.0
 10
11.6368049333
 20
7.3004152466
 30
0.0
 10
11.6544950696
 20
7.3080916882
 30
0.0
 10
11.6717271716
 20
7.3166574195
 30
0.0
 10
11.6884596796
 20
7.3260918022
 30
0.0
 10
11.7046522295
 20
7.3363721108
 30
0.0
 10
11.720265746
 20
7.3474735887
 30
0.0
 10
11.7352625507
 20
7.3593694846
 30
0.0
 10
11.7496064818
 20
7.372031091
 30
0.0
 10
11.7632629425
 20
7.3854278692
 30
0.0
 10
11.776198991
 20
7.3995275098
 30
0.0
 10
11.7883834082
 20
7.4142960182
 30
0.0
 10
11.7997868249
 20
7.4296977541
 30
0.0
 10
11.8103817698
 20
7.4456955477
 30
0.0
 10
11.8201427136
 20
7.4622508048
 30
0.0
 10
11.8290461308
 20
7.4793235959
 30
0.0
 10
11.8370705628
 20
7.496872745
 30
0.0
 10
11.844196726
 20
7.5148559099
 30
0.0
 10
11.850407482
 20
7.5332297198
 30
0.0
 10
11.8556879045
 20
7.5519498672
 30
0.0
 10
11.8600252974
 20
7.5709712565
 30
0.0
 10
11.8634091913
 20
7.5902479097
 30
0.0
 10
11.8658316759
 20
7.6097337323
 30
0.0
 10
11.8672866894
 20
7.6293808997
 30
0.0
 10
11.867609049
 20
7.6425342801
 30
0.0
 10
11.867609049
 20
7.6491208464
 30
0.0
  0
SPLINE
  5
3FA
100
AcDbEntity
  8
0
100
AcDbSpline
 62
7
  6
CONTINUOUS
 70
0
 71
3
 72
39
 73
35
 74
0
 42
0.0000001
 43
0.0000001
 44
0.0000000001
 40
0.0
 40
0.0
 40
0.0
 40
0.0
 40
0.0310753511
 40
0.0623079071
 40
0.0936931323
 40
0.1252222879
 40
0.1568840438
 40
0.1886642044
 40
0.2205461649
 40
0.2525112495
 40
0.2845391085
 40
0.3166081364
 40
0.3486959075
 40
0.3807796234
 40
0.4128365659
 40
0.4448445499
 40
0.4767823666
 40
0.5086302146
 40
0.540370109
 40
0.5719862657
 40
0.6034654504
 40
0.6347972851
 40
0.6659745049
 40
0.6969931576
 40
0.7278527402
 40
0.7585562639
 40
0.7891102404
 40
0.8195245852
 40
0.8498124376
 40
0.8799898966
 40
0.9100756756
 40
0.9400906817
 40
0.970057529
 40
1.0
 40
1.0
 40
1.0
 40
1.0
 10
11.0759101754
 20
7.7088984124
 30
0.0
 10
11.0759101754
 20
7.6991557456
 30
0.0
 10
11.0766369549
 20
7.6796136282
 30
0.0
 10
11.0798818799
 20
7.6503940005
 30
0.0
 10
11.0852659953
 20
7.6213459519
 30
0.0
 10
11.0927595586
 20
7.5926310459
 30
0.0
 10
11.1023210683
 20
7.5644064264
 30
0.0
 10
11.11389783
 20
7.5368271544
 30
0.0
 10
11.1274260798
 20
7.510044544
 30
0.0
 10
11.1428313842
 20
7.484205562
 30
0.0
 10
11.1600290591
 20
7.45945198
 30
0.0
 10
11.1789246299
 20
7.4359196235
 30
0.0
 10
11.1994143447
 20
7.4137376316
 30
0.0
 10
11.2213857393
 20
7.393027761
 30
0.0
 10
11.2447182234
 20
7.3739036972
 30
0.0
 10
11.2692837611
 20
7.3564704565
 30
0.0
 10
11.2949475657
 20
7.3408238192
 30
0.0
 10
11.3215688277
 20
7.3270498061
 30
0.0
 10
11.3490014786
 20
7.3152242147
 30
0.0
 10
11.3770949723
 20
7.305412186
 30
0.0
 10
11.4056951002
 20
7.2976678332
 30
0.0
 10
11.4346448372
 20
7.2920339695
 30
0.0
 10
11.4637851869
 20
7.2885418619
 30
0.0
 10
11.492956042
 20
7.2872110495
 30
0.0
 10
11.5219970513
 20
7.2880492279
 30
0.0
 10
11.5507484947
 20
7.2910521516
 30
0.0
 10
11.5790521605
 20
7.296203666
 30
0.0
 10
11.6067522157
 20
7.3034757862
 30
0.0
 10
11.633696053
 20
7.3128288126
 30
0.0
 10
11.6597351911
 20
7.324211583
 30
0.0
 10
11.6847259187
 20
7.3375615311
 30
0.0
 10
11.7085308425
 20
7.3528057105
 30
0.0
 10
11.7310169667
 20
7.3698585897
 30
0.0
 10
11.7450518671
 20
7.3823761085
 30
0.0
 10
11.7518038755
 20
7.3888980204
 30
0.0
  0
SPLINE
  5
3FB
100
AcDbEntity
  8
0
100
AcDbSpline
 62
7
  6
CONTINUOUS
 70
0
 71
3
 72
39
 73
35
 74
0
 42
0.0000001
 43
0.0000001
 44
0.0000000001
 40
0.0
 40
0.0
 40
0.0
 40
0.0
 40
0.0310367843
 40
0.0622264293
 40
0.0935647663
 40
0.1250437296
 40
0.1566528844
 40
0.1883791092
 40
0.2202070345
 40
0.252119327
 40
0.284097043
 40
0.3161199988
 40
0.3481671574
 40
0.3802170266
 40
0.4122480631
 40
0.4442390773
 40
0.4761696338
 40
0.5080204426
 40
0.5397737333
 40
0.5714136089
 40
0.6029263721
 40
0.6343008179
 40
0.6655284877
 40
0.6966038766
 40
0.7275245886
 40
0.7582914308
 40
0.7889084448
 40
0.8193828686
 40
0.8497250259
 40
0.8799481426
 40
0.9100680897
 40
0.9401030567
 40
0.9700731604
 40
1.0
 40
1.0
 40
1.0
 40
1.0
 10
11.1115788957
 20
7.7433517527
 30
0.0
 10
11.1115788957
 20
7.733875075
 30
0.0
 10
11.1122664553
 20
7.714868139
 30
0.0
 10
11.1153370872
 20
7.6864418642
 30
0.0
 10
11.1204331517
 20
7.6581696318
 30
0.0
 10
11.1275280167
 20
7.6302002565
 30
0.0
 10
11.1365844907
 20
7.6026785955
 30
0.0
 10
11.147555338
 20
7.5757477365
 30
0.0
 10
11.1603833754
 20
7.5495475174
 30
0.0
 10
11.1750018221
 20
7.5242140118
 30
0.0
 10
11.1913346184
 20
7.4998787651
 30
0.0
 10
11.2092968419
 20
7.4766681448
 30
0.0
 10
11.2287951416
 20
7.4547026861
 30
0.0
 10
11.2497282194
 20
7.4340964751
 30
0.0
 10
11.27198735
 20
7.4149565615
 30
0.0
 10
11.2954569419
 20
7.3973824113
 30
0.0
 10
11.3200151216
 20
7.3814653824
 30
0.0
 10
11.345534363
 20
7.3672882528
 30
0.0
 10
11.3718821495
 20
7.3549248036
 30
0.0
 10
11.3989216509
 20
7.3444394354
 30
0.0
 10
11.4265124243
 20
7.3358868341
 30
0.0
 10
11.4545111333
 20
7.3293116839
 30
0.0
 10
11.4827722816
 20
7.3247484338
 30
0.0
 10
11.5111489569
 20
7.3222210913
 30
0.0
 10
11.5394935897
 20
7.3217431004
 30
0.0
 10
11.5676587133
 20
7.3233172664
 30
0.0
 10
11.5954977226
 20
7.326935724
 30
0.0
 10
11.622865638
 20
7.3325799654
 30
0.0
 10
11.649619846
 20
7.340220907
 30
0.0
 10
11.6756208988
 20
7.3498190655
 30
0.0
 10
11.7007330679
 20
7.3613245659
 30
0.0
 10
11.7248257709
 20
7.3746780128
 30
0.0
 10
11.7477716312
 20
7.3898085393
 30
0.0
 10
11.7622353386
 20
7.4010364955
 30
0.0
 10
11.7692315276
 20
7.4069146065
 30
0.0
  0
SPLINE
  5
3FC
100
AcDbEntity
  8
0
100
AcDbSpline
 62
7
  6
CONTINUOUS
 70
0
 71
3
 72
39
 73
35
 74
0
 42
0.0000001
 43
0.0000001
 44
0.0000000001
 40
0.0
 40
0.0
 40
0.0
 40
0.0
 40
0.0310753465
 40
0.0623079051
 40
0.0936931343
 40
0.1252222873
 40
0.1568840442
 40
0.1886642041
 40
0.2205461646
 40
0.2525112494
 40
0.2845391086
 40
0.3166081364
 40
0.3486959073
 40
0.3807796231
 40
0.4128365661
 40
0.4448445503
 40
0.4767823667
 40
0.5086302139
 40
0.540370108
 40
0.5719862655
 40
0.6034654513
 40
0.6347972861
 40
0.6659745048
 40
0.6969931564
 40
0.7278527389
 40
0.7585562636
 40
0.7891102411
 40
0.8195245859
 40
0.8498124376
 40
0.8799898959
 40
0.9100756748
 40
0.9400906811
 40
0.9700575287
 40
1.0
 40
1.0
 40
1.0
 40
1.0
 10
11.1605686843
 20
7.7506722575
 30
0.0
 10
11.1605686843
 20
7.7418871022
 30
0.0
 10
11.1612240353
 20
7.7242655866
 30
0.0
 10
11.1641500485
 20
7.6979176662
 30
0.0
 10
11.1690050136
 20
7.6717244617
 30
0.0
 10
11.1757621136
 20
7.64583166
 30
0.0
 10
11.1843839183
 20
7.6203809602
 30
0.0
 10
11.1948229084
 20
7.5955121792
 30
0.0
 10
11.2070215934
 20
7.5713617628
 30
0.0
 10
11.2209128653
 20
7.5480622396
 30
0.0
 10
11.2364203573
 20
7.5257414463
 30
0.0
 10
11.2534588758
 20
7.5045218573
 30
0.0
 10
11.2719348608
 20
7.4845199156
 30
0.0
 10
11.2917468945
 20
7.4658454028
 30
0.0
 10
11.3127862528
 20
7.4486008445
 30
0.0
 10
11.3349374901
 20
7.4328809482
 30
0.0
 10
11.3580790595
 20
7.4187720743
 30
0.0
 10
11.3820839863
 20
7.4063517837
 30
0.0
 10
11.4068205526
 20
7.3956884114
 30
0.0
 10
11.4321530095
 20
7.3868406937
 30
0.0
 10
11.4579423114
 20
7.3798574436
 30
0.0
 10
11.4840468669
 20
7.3747772819
 30
0.0
 10
11.5103233016
 20
7.3716283949
 30
0.0
 10
11.5366272418
 20
7.3704283886
 30
0.0
 10
11.5628140974
 20
7.3711841842
 30
0.0
 10
11.5887398483
 20
7.3738919645
 30
0.0
 10
11.61426183
 20
7.3785371758
 30
0.0
 10
11.6392395204
 20
7.3850945958
 30
0.0
 10
11.6635353084
 20
7.3935284231
 30
0.0
 10
11.6870153127
 20
7.4037925026
 30
0.0
 10
11.7095499519
 20
7.4158304096
 30
0.0
 10
11.7310153343
 20
7.429576377
 30
0.0
 10
11.7512915178
 20
7.444953299
 30
0.0
 10
11.7639470849
 20
7.4562405769
 30
0.0
 10
11.7700354901
 20
7.4621215303
 30
0.0
  0
SPLINE
  5
3FD
100
AcDbEntity
  8
0
100
AcDbSpline
 62
7
  6
CONTINUOUS
 70
0
 71
3
 72
39
 73
35
 74
0
 42
0.0000001
 43
0.0000001
 44
0.0000000001
 40
0.0
 40
0.0
 40
0.0
 40
0.0
 40
0.0306986927
 40
0.0615147631
 40
0.0924447744
 40
0.1234861556
 40
0.1546337127
 40
0.185881534
 40
0.2172223778
 40
0.2486479794
 40
0.2801491001
 40
0.3117156492
 40
0.3433368034
 40
0.3750011301
 40
0.4066967172
 40
0.4384113062
 40
0.4701324281
 40
0.501847541
 40
0.5335441699
 40
0.5652100448
 40
0.5968332365
 40
0.6284022899
 40
0.6599063533
 40
0.6913353033
 40
0.7226798641
 40
0.7539317205
 40
0.7850836212
 40
0.8161294719
 40
0.8470644175
 40
0.8778849116
 40
0.9085887733
 40
0.9391752284
 40
0.9696449366
 40
1.0
 40
1.0
 40
1.0
 40
1.0
 10
11.4375048341
 20
8.0181720526
 30
0.0
 10
11.4375048341
 20
8.0116281617
 30
0.0
 10
11.4378681257
 20
7.9985125405
 30
0.0
 10
11.4394937975
 20
7.9788643551
 30
0.0
 10
11.4421963908
 20
7.9592608859
 30
0.0
 10
11.4459673864
 20
7.9397629262
 30
0.0
 10
11.4507953483
 20
7.9204296677
 30
0.0
 10
11.4566654055
 20
7.9013202324
 30
0.0
 10
11.4635596219
 20
7.882492916
 30
0.0
 10
11.4714569009
 20
7.8640051888
 30
0.0
 10
11.480333096
 20
7.845913468
 30
0.0
 10
11.4901610741
 20
7.8282729599
 30
0.0
 10
11.5009108083
 20
7.8111374924
 30
0.0
 10
11.512549467
 20
7.7945593527
 30
0.0
 10
11.5250415137
 20
7.7785891292
 30
0.0
 10
11.5383488146
 20
7.7632755584
 30
0.0
 10
11.5524307551
 20
7.7486653793
 30
0.0
 10
11.5672443558
 20
7.7348031838
 30
0.0
 10
11.5827444033
 20
7.7217312797
 30
0.0
 10
11.5988835964
 20
7.7094895703
 30
0.0
 10
11.6156126865
 20
7.6981154318
 30
0.0
 10
11.6328806275
 20
7.6876436009
 30
0.0
 10
11.6506347297
 20
7.6781060688
 30
0.0
 10
11.6688208189
 20
7.6695319855
 30
0.0
 10
11.6873833989
 20
7.6619475665
 30
0.0
 10
11.7062658167
 20
7.6553760029
 30
0.0
 10
11.7254104406
 20
7.649837404
 30
0.0
 10
11.7447588349
 20
7.6453487345
 30
0.0
 10
11.7642519298
 20
7.6419237615
 30
0.0
 10
11.783830225
 20
7.6395730155
 30
0.0
 10
11.8034338743
 20
7.6383037429
 30
0.0
 10
11.8230032199
 20
7.6381199331
 30
0.0
 10
11.8424776647
 20
7.6390221035
 30
0.0
 10
11.8553835255
 20
7.6403484805
 30
0.0
 10
11.8617989539
 20
7.6411919696
 30
0.0
  0
SPLINE
  5
3FE
100
AcDbEntity
  8
0
100
AcDbSpline
 62
7
  6
CONTINUOUS
 70
0
 71
3
 72
39
 73
35
 74
0
 42
0.0000001
 43
0.0000001
 44
0.0000000001
 40
0.0
 40
0.0
 40
0.0
 40
0.0
 40
0.0299424698
 40
0.0599093171
 40
0.0899243244
 40
0.1200101049
 40
0.1501875654
 40
0.1804754197
 40
0.2108897678
 40
0.2414437479
 40
0.2721472748
 40
0.3030068601
 40
0.3340255156
 40
0.3652027379
 40
0.3965345747
 40
0.4280137612
 40
0.4596299196
 40
0.491369815
 40
0.5232176628
 40
0.555155479
 40
0.5871634623
 40
0.619220404
 40
0.6513041182
 40
0.6833918873
 40
0.7154609133
 40
0.74748877
 40
0.7794538516
 40
0.811335809
 40
0.8431159677
 40
0.8747777197
 40
0.9063068786
 40
0.9376920899
 40
0.9689246486
 40
1.0
 40
1.0
 40
1.0
 40
1.0
 10
9.8235473252
 20
7.493672396
 30
0.0
 10
9.8164054712
 20
7.486773918
 30
0.0
 10
9.8015601544
 20
7.4735337324
 30
0.0
 10
9.7777756717
 20
7.4554963196
 30
0.0
 10
9.7525962285
 20
7.4393720686
 30
0.0
 10
9.7261625341
 20
7.4252514067
 30
0.0
 10
9.6986199137
 20
7.4132114802
 30
0.0
 10
9.670120363
 20
7.4033184908
 30
0.0
 10
9.6408209309
 20
7.3956265769
 30
0.0
 10
9.6108830442
 20
7.3901777067
 30
0.0
 10
9.5804715337
 20
7.3870014747
 30
0.0
 10
9.5497537444
 20
7.3861149654
 30
0.0
 10
9.5188986172
 20
7.3875226835
 30
0.0
 10
9.4880757616
 20
7.3912164821
 30
0.0
 10
9.4574545277
 20
7.3971756896
 30
0.0
 10
9.4272030913
 20
7.4053672365
 30
0.0
 10
9.3974875501
 20
7.4157458566
 30
0.0
 10
9.3684710109
 20
7.4282542916
 30
0.0
 10
9.3403127027
 20
7.4428236242
 30
0.0
 10
9.3131671311
 20
7.4593736933
 30
0.0
 10
9.2871832444
 20
7.4778135268
 30
0.0
 10
9.2625036235
 20
7.4980418254
 30
0.0
 10
9.2392636747
 20
7.5199474798
 30
0.0
 10
9.2175909345
 20
7.5434102292
 30
0.0
 10
9.1976043736
 20
7.568301304
 30
0.0
 10
9.1794137621
 20
7.594484129
 30
0.0
 10
9.1631190193
 20
7.6218150253
 30
0.0
 10
9.1488097004
 20
7.6501440258
 30
0.0
 10
9.1365645225
 20
7.6793156735
 30
0.0
 10
9.1264509465
 20
7.7091699303
 30
0.0
 10
9.1185247403
 20
7.7395427841
 30
0.0
 10
9.1128297655
 20
7.7702680135
 30
0.0
 10
9.1093974928
 20
7.8011747268
 30
0.0
 10
9.1086287491
 20
7.8218451717
 30
0.0
 10
9.1086287491
 20
7.8321503626
 30
0.0
  0
SPLINE
  5
3FF
100
AcDbEntity
  8
0
100
AcDbSpline
 62
7
  6
CONTINUOUS
 70
0
 71
3
 72
37
 73
33
 74
0
 42
0.0000001
 43
0.0000001
 44
0.0000000001
 40
0.0
 40
0.0
 40
0.0
 40
0.0
 40
0.0306934267
 40
0.061503641
 40
0.0924269019
 40
0.1234609328
 40
0.1546005536
 40
0.1858399823
 40
0.2171721143
 40
0.2485888316
 40
0.2800810646
 40
0.3116389001
 40
0.3432517007
 40
0.3749082224
 40
0.4065967407
 40
0.4383051803
 40
0.5017117568
 40
0.565050191
 40
0.5966742315
 40
0.6282458831
 40
0.6597543542
 40
0.6911895527
 40
0.7225422028
 40
0.7538039537
 40
0.7849674807
 40
0.8160265784
 40
0.8469762451
 40
0.8778127534
 40
0.9085337061
 40
0.9391380788
 40
0.9696262476
 40
1.0
 40
1.0
 40
1.0
 40
1.0
 10
11.4672057155
 20
8.0243609028
 30
0.0
 10
11.4672057155
 20
8.0182585789
 30
0.0
 10
11.4675422683
 20
8.0060281179
 30
0.0
 10
11.4690483126
 20
7.9877054434
 30
0.0
 10
11.4715521377
 20
7.9694234481
 30
0.0
 10
11.4750459087
 20
7.9512381226
 30
0.0
 10
11.4795191996
 20
7.9332039224
 30
0.0
 10
11.484958404
 20
7.9153752891
 30
0.0
 10
11.4913471291
 20
7.8978059017
 30
0.0
 10
11.4986660681
 20
7.8805486877
 30
0.0
 10
11.5068931313
 20
7.8636556169
 30
0.0
 10
11.5160034936
 20
7.8471775726
 30
0.0
 10
11.5259697175
 20
7.831164151
 30
0.0
 10
11.5367616511
 20
7.815663689
 30
0.0
 10
11.5483472096
 20
7.8007224676
 30
0.0
 10
11.5648023093
 20
7.7816106104
 30
0.0
 10
11.5871703061
 20
7.7593437212
 30
0.0
 10
11.6116872377
 20
7.7394937247
 30
0.0
 10
11.6324094434
 20
7.7252133104
 30
0.0
 10
11.6484510773
 20
7.715338428
 30
0.0
 10
11.6649492288
 20
7.7063256605
 30
0.0
 10
11.6818546565
 20
7.6982018032
 30
0.0
 10
11.6991163269
 20
7.6909914646
 30
0.0
 10
11.716682283
 20
7.6847163831
 30
0.0
 10
11.7344996067
 20
7.6793955252
 30
0.0
 10
11.7525146279
 20
7.6750449811
 30
0.0
 10
11.7706730619
 20
7.6716779055
 30
0.0
 10
11.7889202071
 20
7.6693045022
 30
0.0
 10
11.8072010175
 20
7.6679319791
 30
0.0
 10
11.8254605915
 20
7.6675645711
 30
0.0
 10
11.8436431321
 20
7.6682033568
 30
0.0
 10
11.8557010078
 20
7.6693010641
 30
0.0
 10
11.8616971619
 20
7.6700172004
 30
0.0
  0
SPLINE
  5
400
100
AcDbEntity
  8
0
100
AcDbSpline
 62
7
  6
CONTINUOUS
 70
0
 71
3
 72
23
 73
19
 74
0
 42
0.0000001
 43
0.0000001
 44
0.0000000001
 40
0.0
 40
0.0
 40
0.0
 40
0.0
 40
0.0615588417
 40
0.1234645896
 40
0.1856884017
 40
0.2481925051
 40
0.3109310285
 40
0.3738513825
 40
0.4368958282
 40
0.5000031402
 40
0.5631103326
 40
0.6261544212
 40
0.6890741879
 40
0.7518119152
 40
0.8143150378
 40
0.876537695
 40
0.9384421508
 40
1.0
 40
1.0
 40
1.0
 40
1.0
 10
11.5496631605
 20
8.0606016693
 30
0.0
 10
11.5505984322
 20
8.0510755596
 30
0.0
 10
11.5533081337
 20
8.0320414305
 30
0.0
 10
11.5598213175
 20
8.003878363
 30
0.0
 10
11.5687450923
 20
7.976227617
 30
0.0
 10
11.5800096364
 20
7.9493057477
 30
0.0
 10
11.5935276504
 20
7.9233199759
 30
0.0
 10
11.6091943225
 20
7.8984711976
 30
0.0
 10
11.6268883627
 20
7.8749512358
 30
0.0
 10
11.6464730039
 20
7.8529418176
 30
0.0
 10
11.667796843
 20
7.8326129428
 30
0.0
 10
11.6906951349
 20
7.8141216963
 30
0.0
 10
11.714991063
 20
7.7976111377
 30
0.0
 10
11.740497013
 20
7.7832089868
 30
0.0
 10
11.767015798
 20
7.7710268447
 30
0.0
 10
11.7943433807
 20
7.7611592234
 30
0.0
 10
11.8222657353
 20
7.7536831872
 30
0.0
 10
11.8411952862
 20
7.750321769
 30
0.0
 10
11.8506835295
 20
7.7490601099
 30
0.0
  0
SPLINE
  5
401
100
AcDbEntity
  8
0
100
AcDbSpline
 62
7
  6
CONTINUOUS
 70
0
 71
3
 72
39
 73
35
 74
0
 42
0.0000001
 43
0.0000001
 44
0.0000000001
 40
0.0
 40
0.0
 40
0.0
 40
0.0
 40
0.0306969779
 40
0.0615112908
 40
0.0924392194
 40
0.1234784032
 40
0.1546236037
 40
0.1858689524
 40
0.2172072432
 40
0.2486302463
 40
0.2801287673
 40
0.3116927612
 40
0.3433114529
 40
0.3749734583
 40
0.4066669129
 40
0.4383796038
 40
0.4700991067
 40
0.5018129237
 40
0.53350862
 40
0.5651739602
 40
0.5967970429
 40
0.6283664333
 40
0.6598712935
 40
0.6913015085
 40
0.7226478037
 40
0.7539018555
 40
0.7850563933
 40
0.8161052926
 40
0.8470436587
 40
0.8778678983
 40
0.908575776
 40
0.939166455
 40
0.9696405228
 40
1.0
 40
1.0
 40
1.0
 40
1.0
 10
11.4578872017
 20
8.0212177735
 30
0.0
 10
11.4578872017
 20
8.0149810776
 30
0.0
 10
11.4582328652
 20
8.00248117
 30
0.0
 10
11.4597796358
 20
7.9837552403
 30
0.0
 10
11.4623511059
 20
7.9650716528
 30
0.0
 10
11.465939158
 20
7.9464881851
 30
0.0
 10
11.4705329732
 20
7.9280610396
 30
0.0
 10
11.4761184415
 20
7.90984639
 30
0.0
 10
11.4826785618
 20
7.8918996179
 30
0.0
 10
11.490193318
 20
7.8742753213
 30
0.0
 10
11.4986398032
 20
7.8570271007
 30
0.0
 10
11.5079922869
 20
7.8402074131
 30
0.0
 10
11.5182222921
 20
7.8238674114
 30
0.0
 10
11.5292986821
 20
7.8080567916
 30
0.0
 10
11.541187755
 20
7.7928236439
 30
0.0
 10
11.5538533394
 20
7.7782143041
 30
0.0
 10
11.5672568942
 20
7.7642732019
 30
0.0
 10
11.5813576442
 20
7.7510427407
 30
0.0
 10
11.5961126996
 20
7.7385631682
 30
0.0
 10
11.6114771861
 20
7.7268724559
 30
0.0
 10
11.6274043789
 20
7.7160061842
 30
0.0
 10
11.6438458446
 20
7.7059974376
 30
0.0
 10
11.6607515753
 20
7.6968766824
 30
0.0
 10
11.6780701519
 20
7.6886716899
 30
0.0
 10
11.6957489004
 20
7.6814074558
 30
0.0
 10
11.7137340499
 20
7.6751061241
 30
0.0
 10
11.7319708928
 20
7.6697869193
 30
0.0
 10
11.7504039519
 20
7.6654660911
 30
0.0
 10
11.768977137
 20
7.6621568477
 30
0.0
 10
11.787633942
 20
7.6598693155
 30
0.0
 10
11.8063175282
 20
7.6586105131
 30
0.0
 10
11.8249712296
 20
7.6583843695
 30
0.0
 10
11.8435374792
 20
7.6591915466
 30
0.0
 10
11.8558436092
 20
7.6604194806
 30
0.0
 10
11.861961502
 20
7.6612050794
 30
0.0
  0
SPLINE
  5
402
100
AcDbEntity
  8
0
100
AcDbSpline
 62
7
  6
CONTINUOUS
 70
0
 71
3
 72
23
 73
19
 74
0
 42
0.0000001
 43
0.0000001
 44
0.0000000001
 40
0.0
 40
0.0
 40
0.0
 40
0.0
 40
0.0637771735
 40
0.1273448473
 40
0.1907019822
 40
0.253856143
 40
0.3168131975
 40
0.3795820985
 40
0.4421733906
 40
0.5045993374
 40
0.5668738654
 40
0.62901238
 40
0.6910316489
 40
0.7529496402
 40
0.814785347
 40
0.8765585971
 40
0.938289852
 40
1.0
 40
1.0
 40
1.0
 40
1.0
 10
11.0404805161
 20
7.6981759875
 30
0.0
 10
11.0404805161
 20
7.7048181016
 30
0.0
 10
11.0407984351
 20
7.7180827621
 30
0.0
 10
11.0422333657
 20
7.7378990668
 30
0.0
 10
11.0446225292
 20
7.7575582768
 30
0.0
 10
11.0479602274
 20
7.7770142711
 30
0.0
 10
11.0522389794
 20
7.7962225415
 30
0.0
 10
11.057448916
 20
7.8151386893
 30
0.0
 10
11.0635780662
 20
7.8337191347
 30
0.0
 10
11.0706123345
 20
7.8519210293
 30
0.0
 10
11.0785355379
 20
7.8697023954
 30
0.0
 10
11.0873294571
 20
7.8870222135
 30
0.0
 10
11.0969738486
 20
7.9038405205
 30
0.0
 10
11.1074464859
 20
7.9201185353
 30
0.0
 10
11.1187231972
 20
7.9358186736
 30
0.0
 10
11.130778123
 20
7.9509048346
 30
0.0
 10
11.1435829911
 20
7.9653417446
 30
0.0
 10
11.1526015822
 20
7.9745129667
 30
0.0
 10
11.1572241257
 20
7.9789779857
 30
0.0
  0
SPLINE
  5
403
100
AcDbEntity
  8
0
100
AcDbSpline
 62
7
  6
CONTINUOUS
 70
0
 71
3
 72
25
 73
21
 74
0
 42
0.0000001
 43
0.0000001
 44
0.0000000001
 40
0.0
 40
0.0
 40
0.0
 40
0.0
 40
0.0307187314
 40
0.0615301394
 40
0.0924318539
 40
0.1234203452
 40
0.1856273123
 40
0.2481275861
 40
0.3108738051
 40
0.3738111951
 40
0.4368792754
 40
0.5000137002
 40
0.5631481694
 40
0.6262163782
 40
0.6891539757
 40
0.7519004815
 40
0.8144011077
 40
0.8766084786
 40
0.9384841663
 40
1.0
 40
1.0
 40
1.0
 40
1.0
 10
11.5369139304
 20
8.0639843352
 30
0.0
 10
11.5373150644
 20
8.0589557304
 30
0.0
 10
11.5383440007
 20
8.0488998899
 30
0.0
 10
11.5405584829
 20
8.0338785912
 30
0.0
 10
11.5434419758
 20
8.018925565
 30
0.0
 10
11.5481758941
 20
7.9990984927
 30
0.0
 10
11.5557399298
 20
7.9746380785
 30
0.0
 10
11.5673520435
 20
7.9460890165
 30
0.0
 10
11.581418035
 20
7.9185300942
 30
0.0
 10
11.5978228656
 20
7.8921868753
 30
0.0
 10
11.6164328937
 20
7.8672729803
 30
0.0
 10
11.6370967196
 20
7.8439910779
 30
0.0
 10
11.6596462391
 20
7.8225303863
 30
0.0
 10
11.6838981189
 20
7.803065427
 30
0.0
 10
11.7096552946
 20
7.7857546929
 30
0.0
 10
11.7367084425
 20
7.7707390903
 30
0.0
 10
11.7648375044
 20
7.7581411624
 30
0.0
 10
11.7938146885
 20
7.7480637613
 30
0.0
 10
11.8234011566
 20
7.740589732
 30
0.0
 10
11.8434393325
 20
7.7373731018
 30
0.0
 10
11.8534753553
 20
7.7362201896
 30
0.0
  0
SPLINE
  5
404
100
AcDbEntity
  8
0
100
AcDbSpline
 62
7
  6
CONTINUOUS
 70
0
 71
3
 72
19
 73
15
 74
0
 42
0.0000001
 43
0.0000001
 44
0.0000000001
 40
0.0
 40
0.0
 40
0.0
 40
0.0
 40
0.150460937
 40
0.2916987357
 40
0.424419542
 40
0.4878837275
 40
0.5495802504
 40
0.6682271673
 40
0.7255606103
 40
0.7817998831
 40
0.8371466721
 40
0.8918135967
 40
0.94602219
 40
1.0
 40
1.0
 40
1.0
 40
1.0
 10
13.0029027571
 20
7.6298185971
 30
0.0
 10
13.0009379245
 20
7.6279207144
 30
0.0
 10
12.9970109619
 20
7.6243597468
 30
0.0
 10
12.9909304393
 20
7.6196143488
 30
0.0
 10
12.9857944811
 20
7.6162581394
 30
0.0
 10
12.9816988828
 20
7.613985411
 30
0.0
 10
12.9777241114
 20
7.6120342253
 30
0.0
 10
12.973702802
 20
7.6104393062
 30
0.0
 10
12.9696588685
 20
7.6092391222
 30
0.0
 10
12.9666688945
 20
7.6085473291
 30
0.0
 10
12.9636888739
 20
7.6080542501
 30
0.0
 10
12.9607195937
 20
7.6077601293
 30
0.0
 10
12.9577622545
 20
7.6076650806
 30
0.0
 10
12.9557974824
 20
7.607734567
 30
0.0
 10
12.9548198118
 20
7.6078023687
 30
0.0
  0
SPLINE
  5
405
100
AcDbEntity
  8
0
100
AcDbSpline
 62
7
  6
CONTINUOUS
 70
0
 71
3
 72
23
 73
19
 74
0
 42
0.0000001
 43
0.0000001
 44
0.0000000001
 40
0.0
 40
0.0
 40
0.0
 40
0.0
 40
0.0618063263
 40
0.1238749099
 40
0.1861789662
 40
0.2486869199
 40
0.3113630902
 40
0.3741684377
 40
0.4370613619
 40
0.4999985347
 40
0.5629357582
 40
0.6258288333
 40
0.6886344298
 40
0.7513109428
 40
0.8138193279
 40
0.8761238913
 40
0.9381930635
 40
1.0
 40
1.0
 40
1.0
 40
1.0
 10
9.8941127463
 20
7.9552571161
 30
0.0
 10
9.8879030477
 20
7.956802642
 30
0.0
 10
9.8755642241
 20
7.9603489829
 30
0.0
 10
9.8574487652
 20
7.9669813677
 30
0.0
 10
9.8397784825
 20
7.9749034935
 30
0.0
 10
9.8226506212
 20
7.9840718625
 30
0.0
 10
9.8061578619
 20
7.9944366428
 30
0.0
 10
9.790389865
 20
8.0059414213
 30
0.0
 10
9.7754322386
 20
8.0185236453
 30
0.0
 10
9.7613662281
 20
8.0321149258
 30
0.0
 10
9.7482682401
 20
8.0466414146
 30
0.0
 10
9.7362094419
 20
8.0620242021
 30
0.0
 10
9.725255378
 20
8.0781797315
 30
0.0
 10
9.7154656093
 20
8.0950202874
 30
0.0
 10
9.7068934237
 20
8.1124543173
 30
0.0
 10
9.6995854288
 20
8.1303874784
 30
0.0
 10
9.6935817363
 20
8.1487210785
 30
0.0
 10
9.6904630479
 20
8.1611749951
 30
0.0
 10
9.6891325742
 20
8.1674343606
 30
0.0
  0
SPLINE
  5
406
100
AcDbEntity
  8
0
100
AcDbSpline
 62
7
  6
CONTINUOUS
 70
0
 71
3
 72
19
 73
15
 74
0
 42
0.0000001
 43
0.0000001
 44
0.0000000001
 40
0.0
 40
0.0
 40
0.0
 40
0.0
 40
0.12732766
 40
0.2538196711
 40
0.3795264658
 40
0.5045235362
 40
0.5668075958
 40
0.6289556124
 40
0.6909843715
 40
0.7529118454
 40
0.8147570127
 40
0.8765397119
 40
0.9382804145
 40
1.0
 40
1.0
 40
1.0
 40
1.0
 10
8.3624510041
 20
9.2419897747
 30
0.0
 10
8.3624510041
 20
9.2482417706
 30
0.0
 10
8.363047932
 20
9.2607133309
 30
0.0
 10
8.3657476122
 20
9.2791810478
 30
0.0
 10
8.3702236587
 20
9.2971838671
 30
0.0
 10
8.3754087943
 20
9.3116808104
 30
0.0
 10
8.3803954754
 20
9.3228717396
 30
0.0
 10
8.3845422472
 20
9.3310389482
 30
0.0
 10
8.3890899461
 20
9.3389694748
 30
0.0
 10
8.3940282216
 20
9.3466452903
 30
0.0
 10
8.3993456802
 20
9.3540485739
 30
0.0
 10
8.4050300676
 20
9.3611623709
 30
0.0
 10
8.4110680947
 20
9.3679700115
 30
0.0
 10
8.4153207385
 20
9.3722946468
 30
0.0
 10
8.4175004633
 20
9.3744000985
 30
0.0
  0
SPLINE
  5
407
100
AcDbEntity
  8
0
100
AcDbSpline
 62
7
  6
CONTINUOUS
 70
0
 71
3
 72
20
 73
16
 74
0
 42
0.0000001
 43
0.0000001
 44
0.0000000001
 40
0.0
 40
0.0
 40
0.0
 40
0.0
 40
0.1611070539
 40
0.3121608644
 40
0.4529466727
 40
0.5194417232
 40
0.5833200948
 40
0.6445733354
 40
0.7031971847
 40
0.7591908143
 40
0.8125575478
 40
0.8633059766
 40
0.911450248
 40
0.9570086678
 40
1.0
 40
1.0
 40
1.0
 40
1.0
 10
11.3881903012
 20
8.0656797925
 30
0.0
 10
11.3852811013
 20
8.0608493449
 30
0.0
 10
11.379642913
 20
8.0514906442
 30
0.0
 10
11.3713730148
 20
8.0379648923
 30
0.0
 10
11.3646891927
 20
8.0273514679
 30
0.0
 10
11.3595056895
 20
8.0194010309
 30
0.0
 10
11.3557730865
 20
8.0138283272
 30
0.0
 10
11.3521168954
 20
8.0085367683
 30
0.0
 10
11.348533137
 20
8.0035315664
 30
0.0
 10
11.3450189539
 20
7.9988172765
 30
0.0
 10
11.3415721834
 20
7.9943980807
 30
0.0
 10
11.3381912724
 20
7.9902778785
 30
0.0
 10
11.3348758057
 20
7.9864598505
 30
0.0
 10
11.3316258909
 20
7.9829475541
 30
0.0
 10
11.3294410612
 20
7.9807480827
 30
0.0
 10
11.3283587808
 20
7.9797026801
 30
0.0
  0
SPLINE
  5
408
100
AcDbEntity
  8
0
100
AcDbSpline
 62
7
  6
CONTINUOUS
 70
0
 71
3
 72
39
 73
35
 74
0
 42
0.0000001
 43
0.0000001
 44
0.0000000001
 40
0.0
 40
0.0
 40
0.0
 40
0.0
 40
0.0299424698
 40
0.0599093171
 40
0.0899243244
 40
0.1200101049
 40
0.1501875654
 40
0.1804754197
 40
0.2108897678
 40
0.2414437479
 40
0.2721472748
 40
0.3030068601
 40
0.3340255156
 40
0.3652027379
 40
0.3965345747
 40
0.4280137612
 40
0.4596299196
 40
0.491369815
 40
0.5232176628
 40
0.555155479
 40
0.5871634623
 40
0.619220404
 40
0.6513041182
 40
0.6833918873
 40
0.7154609133
 40
0.74748877
 40
0.7794538516
 40
0.811335809
 40
0.8431159677
 40
0.8747777197
 40
0.9063068786
 40
0.9376920899
 40
0.9689246486
 40
1.0
 40
1.0
 40
1.0
 40
1.0
 10
11.7553990923
 20
7.3596980209
 30
0.0
 10
11.7482572383
 20
7.3527995429
 30
0.0
 10
11.7334119214
 20
7.3395593574
 30
0.0
 10
11.7096274388
 20
7.3215219446
 30
0.0
 10
11.6844479956
 20
7.3053976935
 30
0.0
 10
11.6580143012
 20
7.2912770316
 30
0.0
 10
11.6304716807
 20
7.2792371052
 30
0.0
 10
11.6019721301
 20
7.2693441157
 30
0.0
 10
11.572672698
 20
7.2616522018
 30
0.0
 10
11.5427348113
 20
7.2562033316
 30
0.0
 10
11.5123233007
 20
7.2530270996
 30
0.0
 10
11.4816055115
 20
7.2521405903
 30
0.0
 10
11.4507503842
 20
7.2535483084
 30
0.0
 10
11.4199275286
 20
7.257242107
 30
0.0
 10
11.3893062948
 20
7.2632013145
 30
0.0
 10
11.3590548584
 20
7.2713928614
 30
0.0
 10
11.3293393172
 20
7.2817714815
 30
0.0
 10
11.3003227779
 20
7.2942799166
 30
0.0
 10
11.2721644697
 20
7.3088492491
 30
0.0
 10
11.2450188982
 20
7.3253993182
 30
0.0
 10
11.2190350115
 20
7.3438391517
 30
0.0
 10
11.1943553905
 20
7.3640674503
 30
0.0
 10
11.1711154417
 20
7.3859731047
 30
0.0
 10
11.1494427015
 20
7.4094358542
 30
0.0
 10
11.1294561406
 20
7.4343269289
 30
0.0
 10
11.1112655292
 20
7.4605097539
 30
0.0
 10
11.0949707863
 20
7.4878406502
 30
0.0
 10
11.0806614674
 20
7.5161696507
 30
0.0
 10
11.0684162896
 20
7.5453412984
 30
0.0
 10
11.0583027135
 20
7.5751955552
 30
0.0
 10
11.0503765074
 20
7.6055684091
 30
0.0
 10
11.0446815326
 20
7.6362936384
 30
0.0
 10
11.0412492598
 20
7.6672003518
 30
0.0
 10
11.0404805161
 20
7.6878707966
 30
0.0
 10
11.0404805161
 20
7.6981759875
 30
0.0
  0
SPLINE
  5
409
100
AcDbEntity
  8
0
100
AcDbSpline
 62
7
  6
CONTINUOUS
 70
0
 71
3
 72
23
 73
19
 74
0
 42
0.0000001
 43
0.0000001
 44
0.0000000001
 40
0.0
 40
0.0
 40
0.0
 40
0.0
 40
0.0618063263
 40
0.1238749099
 40
0.1861789662
 40
0.2486869199
 40
0.3113630902
 40
0.3741684377
 40
0.4370613619
 40
0.4999985347
 40
0.5629357582
 40
0.6258288333
 40
0.6886344298
 40
0.7513109428
 40
0.8138193279
 40
0.8761238913
 40
0.9381930635
 40
1.0
 40
1.0
 40
1.0
 40
1.0
 10
11.8259645134
 20
7.821282741
 30
0.0
 10
11.8197548147
 20
7.8228282669
 30
0.0
 10
11.8074159911
 20
7.8263746078
 30
0.0
 10
11.7893005322
 20
7.8330069926
 30
0.0
 10
11.7716302495
 20
7.8409291184
 30
0.0
 10
11.7545023883
 20
7.8500974874
 30
0.0
 10
11.738009629
 20
7.8604622678
 30
0.0
 10
11.7222416321
 20
7.8719670462
 30
0.0
 10
11.7072840057
 20
7.8845492703
 30
0.0
 10
11.6932179951
 20
7.8981405507
 30
0.0
 10
11.6801200071
 20
7.9126670395
 30
0.0
 10
11.6680612089
 20
7.928049827
 30
0.0
 10
11.6571071451
 20
7.9442053564
 30
0.0
 10
11.6473173763
 20
7.9610459123
 30
0.0
 10
11.6387451907
 20
7.9784799422
 30
0.0
 10
11.6314371958
 20
7.9964131034
 30
0.0
 10
11.6254335034
 20
8.0147467034
 30
0.0
 10
11.6223148149
 20
8.02720062
 30
0.0
 10
11.6209843412
 20
8.0334599855
 30
0.0
  0
SPLINE
  5
40A
100
AcDbEntity
  8
0
100
AcDbSpline
 62
7
  6
CONTINUOUS
 70
0
 71
3
 72
42
 73
38
 74
0
 42
0.0000001
 43
0.0000001
 44
0.0000000001
 40
0.0
 40
0.0
 40
0.0
 40
0.0
 40
0.0299419644
 40
0.0449235317
 40
0.0599142035
 40
0.0899287023
 40
0.1200139727
 40
0.1350926544
 40
0.1501966973
 40
0.1804840373
 40
0.210897868
 40
0.2414513286
 40
0.2721543342
 40
0.3030133956
 40
0.3340315238
 40
0.3652082165
 40
0.3965395222
 40
0.4280181758
 40
0.459633799
 40
0.4913731572
 40
0.5232204671
 40
0.5551577446
 40
0.5871651885
 40
0.6192215901
 40
0.6513047644
 40
0.683391994
 40
0.715460481
 40
0.7474877999
 40
0.7794523452
 40
0.8113337678
 40
0.8431133918
 40
0.8747746145
 40
0.906303246
 40
0.9376878974
 40
0.9533257627
 40
0.9689252947
 40
1.0
 40
1.0
 40
1.0
 40
1.0
 10
8.6995674535
 20
9.0823826528
 30
0.0
 10
8.6961997512
 20
9.0791297034
 30
0.0
 10
8.6909496953
 20
9.0744473827
 30
0.0
 10
8.6835971374
 20
9.0686375939
 30
0.0
 10
8.6760103727
 20
9.0631169868
 30
0.0
 10
8.6661109468
 20
9.0567774591
 30
0.0
 10
8.6557301611
 20
9.051232261
 30
0.0
 10
8.6471687414
 20
9.0472873113
 30
0.0
 10
8.6384304123
 20
9.0436681358
 30
0.0
 10
8.6272195737
 20
9.0397763973
 30
0.0
 10
8.6134038897
 20
9.036149419
 30
0.0
 10
8.5992867452
 20
9.0335799578
 30
0.0
 10
8.5849463691
 20
9.032082205
 30
0.0
 10
8.570461538
 20
9.0316641494
 30
0.0
 10
8.5559119516
 20
9.0323279201
 30
0.0
 10
8.541377578
 20
9.0340696824
 30
0.0
 10
8.5269382775
 20
9.0368796951
 30
0.0
 10
8.5126733529
 20
9.0407423631
 30
0.0
 10
8.4986611242
 20
9.0456363297
 30
0.0
 10
8.484978503
 20
9.0515345977
 30
0.0
 10
8.4717005775
 20
9.0584046789
 30
0.0
 10
8.4589002052
 20
9.0662087737
 30
0.0
 10
8.4466476192
 20
9.0749039785
 30
0.0
 10
8.4350100471
 20
9.0844425197
 30
0.0
 10
8.4240513471
 20
9.0947720145
 30
0.0
 10
8.4138316611
 20
9.1058357558
 30
0.0
 10
8.404407088
 20
9.1175730205
 30
0.0
 10
8.3958293794
 20
9.1299194001
 30
0.0
 10
8.3881456576
 20
9.1428071465
 30
0.0
 10
8.381398158
 20
9.1561655544
 30
0.0
 10
8.3756240031
 20
9.169921289
 30
0.0
 10
8.3708549801
 20
9.1839989881
 30
0.0
 10
8.3671174426
 20
9.1983209113
 30
0.0
 10
8.3648766999
 20
9.210410164
 30
0.0
 10
8.3636197139
 20
9.2201237414
 30
0.0
 10
8.3627226333
 20
9.2298280215
 30
0.0
 10
8.3624510041
 20
9.23713043
 30
0.0
 10
8.3624510041
 20
9.2419897747
 30
0.0
  0
SPLINE
  5
40B
100
AcDbEntity
  8
0
100
AcDbSpline
 62
7
  6
CONTINUOUS
 70
0
 71
3
 72
42
 73
38
 74
0
 42
0.0000001
 43
0.0000001
 44
0.0000000001
 40
0.0
 40
0.0
 40
0.0
 40
0.0
 40
0.0299419644
 40
0.0449235317
 40
0.0599142035
 40
0.0899287023
 40
0.1200139727
 40
0.1350926544
 40
0.1501966973
 40
0.1804840373
 40
0.210897868
 40
0.2414513286
 40
0.2721543342
 40
0.3030133956
 40
0.3340315238
 40
0.3652082165
 40
0.3965395222
 40
0.4280181758
 40
0.459633799
 40
0.4913731572
 40
0.5232204671
 40
0.5551577446
 40
0.5871651885
 40
0.6192215901
 40
0.6513047644
 40
0.683391994
 40
0.715460481
 40
0.7474877999
 40
0.7794523452
 40
0.8113337678
 40
0.8431133918
 40
0.8747746145
 40
0.906303246
 40
0.9376878974
 40
0.9533257627
 40
0.9689252947
 40
1.0
 40
1.0
 40
1.0
 40
1.0
 10
10.6314192206
 20
8.9484082778
 30
0.0
 10
10.6280515182
 20
8.9451553283
 30
0.0
 10
10.6228014623
 20
8.9404730076
 30
0.0
 10
10.6154489044
 20
8.9346632188
 30
0.0
 10
10.6078621398
 20
8.9291426117
 30
0.0
 10
10.5979627138
 20
8.9228030841
 30
0.0
 10
10.5875819282
 20
8.9172578859
 30
0.0
 10
10.5790205085
 20
8.9133129362
 30
0.0
 10
10.5702821793
 20
8.9096937607
 30
0.0
 10
10.5590713408
 20
8.9058020222
 30
0.0
 10
10.5452556567
 20
8.9021750439
 30
0.0
 10
10.5311385123
 20
8.8996055828
 30
0.0
 10
10.5167981361
 20
8.8981078299
 30
0.0
 10
10.5023133051
 20
8.8976897743
 30
0.0
 10
10.4877637186
 20
8.898353545
 30
0.0
 10
10.473229345
 20
8.9000953073
 30
0.0
 10
10.4587900445
 20
8.90290532
 30
0.0
 10
10.44452512
 20
8.906767988
 30
0.0
 10
10.4305128912
 20
8.9116619547
 30
0.0
 10
10.4168302701
 20
8.9175602226
 30
0.0
 10
10.4035523445
 20
8.9244303038
 30
0.0
 10
10.3907519722
 20
8.9322343986
 30
0.0
 10
10.3784993862
 20
8.9409296034
 30
0.0
 10
10.3668618142
 20
8.9504681446
 30
0.0
 10
10.3559031142
 20
8.9607976394
 30
0.0
 10
10.3456834281
 20
8.9718613807
 30
0.0
 10
10.3362588551
 20
8.9835986454
 30
0.0
 10
10.3276811465
 20
8.995945025
 30
0.0
 10
10.3199974246
 20
9.0088327714
 30
0.0
 10
10.3132499251
 20
9.0221911793
 30
0.0
 10
10.3074757701
 20
9.0359469139
 30
0.0
 10
10.3027067472
 20
9.050024613
 30
0.0
 10
10.2989692096
 20
9.0643465362
 30
0.0
 10
10.296728467
 20
9.0764357889
 30
0.0
 10
10.295471481
 20
9.0861493663
 30
0.0
 10
10.2945744003
 20
9.0958536464
 30
0.0
 10
10.2943027711
 20
9.1031560549
 30
0.0
 10
10.2943027711
 20
9.1080153996
 30
0.0
  0
SPLINE
  5
40C
100
AcDbEntity
  8
0
100
AcDbSpline
 62
7
  6
CONTINUOUS
 70
0
 71
3
 72
42
 73
38
 74
0
 42
0.0000001
 43
0.0000001
 44
0.0000000001
 40
0.0
 40
0.0
 40
0.0
 40
0.0
 40
0.0299419644
 40
0.0449235317
 40
0.0599142035
 40
0.0899287023
 40
0.1200139727
 40
0.1350926544
 40
0.1501966973
 40
0.1804840373
 40
0.210897868
 40
0.2414513286
 40
0.2721543342
 40
0.3030133956
 40
0.3340315238
 40
0.3652082165
 40
0.3965395222
 40
0.4280181758
 40
0.459633799
 40
0.4913731572
 40
0.5232204671
 40
0.5551577446
 40
0.5871651885
 40
0.6192215901
 40
0.6513047644
 40
0.683391994
 40
0.715460481
 40
0.7474877999
 40
0.7794523452
 40
0.8113337678
 40
0.8431133918
 40
0.8747746145
 40
0.906303246
 40
0.9376878974
 40
0.9533257627
 40
0.9689252947
 40
1.0
 40
1.0
 40
1.0
 40
1.0
 10
12.5632709876
 20
8.8144339027
 30
0.0
 10
12.5599032852
 20
8.8111809532
 30
0.0
 10
12.5546532294
 20
8.8064986325
 30
0.0
 10
12.5473006715
 20
8.8006888437
 30
0.0
 10
12.5397139068
 20
8.7951682366
 30
0.0
 10
12.5298144809
 20
8.788828709
 30
0.0
 10
12.5194336952
 20
8.7832835108
 30
0.0
 10
12.5108722755
 20
8.7793385612
 30
0.0
 10
12.5021339464
 20
8.7757193856
 30
0.0
 10
12.4909231078
 20
8.7718276472
 30
0.0
 10
12.4771074238
 20
8.7682006688
 30
0.0
 10
12.4629902793
 20
8.7656312077
 30
0.0
 10
12.4486499032
 20
8.7641334548
 30
0.0
 10
12.4341650721
 20
8.7637153993
 30
0.0
 10
12.4196154857
 20
8.7643791699
 30
0.0
 10
12.4050811121
 20
8.7661209322
 30
0.0
 10
12.3906418116
 20
8.768930945
 30
0.0
 10
12.376376887
 20
8.7727936129
 30
0.0
 10
12.3623646583
 20
8.7776875796
 30
0.0
 10
12.3486820371
 20
8.7835858475
 30
0.0
 10
12.3354041116
 20
8.7904559287
 30
0.0
 10
12.3226037393
 20
8.7982600236
 30
0.0
 10
12.3103511533
 20
8.8069552283
 30
0.0
 10
12.2987135812
 20
8.8164937695
 30
0.0
 10
12.2877548812
 20
8.8268232643
 30
0.0
 10
12.2775351952
 20
8.8378870057
 30
0.0
 10
12.2681106221
 20
8.8496242703
 30
0.0
 10
12.2595329135
 20
8.8619706499
 30
0.0
 10
12.2518491917
 20
8.8748583964
 30
0.0
 10
12.2451016921
 20
8.8882168042
 30
0.0
 10
12.2393275371
 20
8.9019725388
 30
0.0
 10
12.2345585142
 20
8.9160502379
 30
0.0
 10
12.2308209767
 20
8.9303721611
 30
0.0
 10
12.228580234
 20
8.9424614138
 30
0.0
 10
12.227323248
 20
8.9521749912
 30
0.0
 10
12.2264261674
 20
8.9618792713
 30
0.0
 10
12.2261545381
 20
8.9691816799
 30
0.0
 10
12.2261545381
 20
8.9740410246
 30
0.0
  0
SPLINE
  5
40D
100
AcDbEntity
  8
0
100
AcDbSpline
 62
7
  6
CONTINUOUS
 70
0
 71
3
 72
42
 73
38
 74
0
 42
0.0000001
 43
0.0000001
 44
0.0000000001
 40
0.0
 40
0.0
 40
0.0
 40
0.0
 40
0.0299419644
 40
0.0449235317
 40
0.0599142035
 40
0.0899287023
 40
0.1200139727
 40
0.1350926544
 40
0.1501966973
 40
0.1804840373
 40
0.210897868
 40
0.2414513286
 40
0.2721543342
 40
0.3030133956
 40
0.3340315238
 40
0.3652082165
 40
0.3965395222
 40
0.4280181758
 40
0.459633799
 40
0.4913731572
 40
0.5232204671
 40
0.5551577446
 40
0.5871651885
 40
0.6192215901
 40
0.6513047644
 40
0.683391994
 40
0.715460481
 40
0.7474877999
 40
0.7794523452
 40
0.8113337678
 40
0.8431133918
 40
0.8747746145
 40
0.906303246
 40
0.9376878974
 40
0.9533257627
 40
0.9689252947
 40
1.0
 40
1.0
 40
1.0
 40
1.0
 10
8.6995674535
 20
7.3920123567
 30
0.0
 10
8.6961997512
 20
7.3887594072
 30
0.0
 10
8.6909496953
 20
7.3840770865
 30
0.0
 10
8.6835971374
 20
7.3782672977
 30
0.0
 10
8.6760103727
 20
7.3727466906
 30
0.0
 10
8.6661109468
 20
7.366407163
 30
0.0
 10
8.6557301611
 20
7.3608619648
 30
0.0
 10
8.6471687414
 20
7.3569170152
 30
0.0
 10
8.6384304123
 20
7.3532978396
 30
0.0
 10
8.6272195737
 20
7.3494061012
 30
0.0
 10
8.6134038897
 20
7.3457791228
 30
0.0
 10
8.5992867452
 20
7.3432096617
 30
0.0
 10
8.5849463691
 20
7.3417119088
 30
0.0
 10
8.570461538
 20
7.3412938533
 30
0.0
 10
8.5559119516
 20
7.3419576239
 30
0.0
 10
8.541377578
 20
7.3436993862
 30
0.0
 10
8.5269382775
 20
7.346509399
 30
0.0
 10
8.5126733529
 20
7.3503720669
 30
0.0
 10
8.4986611242
 20
7.3552660336
 30
0.0
 10
8.484978503
 20
7.3611643015
 30
0.0
 10
8.4717005775
 20
7.3680343827
 30
0.0
 10
8.4589002052
 20
7.3758384776
 30
0.0
 10
8.4466476192
 20
7.3845336823
 30
0.0
 10
8.4350100471
 20
7.3940722235
 30
0.0
 10
8.4240513471
 20
7.4044017183
 30
0.0
 10
8.4138316611
 20
7.4154654597
 30
0.0
 10
8.404407088
 20
7.4272027243
 30
0.0
 10
8.3958293794
 20
7.439549104
 30
0.0
 10
8.3881456576
 20
7.4524368504
 30
0.0
 10
8.381398158
 20
7.4657952583
 30
0.0
 10
8.3756240031
 20
7.4795509928
 30
0.0
 10
8.3708549801
 20
7.4936286919
 30
0.0
 10
8.3671174426
 20
7.5079506151
 30
0.0
 10
8.3648766999
 20
7.5200398678
 30
0.0
 10
8.3636197139
 20
7.5297534452
 30
0.0
 10
8.3627226333
 20
7.5394577253
 30
0.0
 10
8.3624510041
 20
7.5467601339
 30
0.0
 10
8.3624510041
 20
7.5516194786
 30
0.0
  0
SPLINE
  5
40E
100
AcDbEntity
  8
0
100
AcDbSpline
 62
7
  6
CONTINUOUS
 70
0
 71
3
 72
42
 73
38
 74
0
 42
0.0000001
 43
0.0000001
 44
0.0000000001
 40
0.0
 40
0.0
 40
0.0
 40
0.0
 40
0.0299419644
 40
0.0449235317
 40
0.0599142035
 40
0.0899287023
 40
0.1200139727
 40
0.1350926544
 40
0.1501966973
 40
0.1804840373
 40
0.210897868
 40
0.2414513286
 40
0.2721543342
 40
0.3030133956
 40
0.3340315238
 40
0.3652082165
 40
0.3965395222
 40
0.4280181758
 40
0.459633799
 40
0.4913731572
 40
0.5232204671
 40
0.5551577446
 40
0.5871651885
 40
0.6192215901
 40
0.6513047644
 40
0.683391994
 40
0.715460481
 40
0.7474877999
 40
0.7794523452
 40
0.8113337678
 40
0.8431133918
 40
0.8747746145
 40
0.906303246
 40
0.9376878974
 40
0.9533257627
 40
0.9689252947
 40
1.0
 40
1.0
 40
1.0
 40
1.0
 10
10.6314192206
 20
7.2580379816
 30
0.0
 10
10.6280515182
 20
7.2547850321
 30
0.0
 10
10.6228014623
 20
7.2501027114
 30
0.0
 10
10.6154489044
 20
7.2442929227
 30
0.0
 10
10.6078621398
 20
7.2387723155
 30
0.0
 10
10.5979627138
 20
7.2324327879
 30
0.0
 10
10.5875819282
 20
7.2268875897
 30
0.0
 10
10.5790205085
 20
7.2229426401
 30
0.0
 10
10.5702821793
 20
7.2193234645
 30
0.0
 10
10.5590713408
 20
7.2154317261
 30
0.0
 10
10.5452556567
 20
7.2118047478
 30
0.0
 10
10.5311385123
 20
7.2092352866
 30
0.0
 10
10.5167981361
 20
7.2077375337
 30
0.0
 10
10.5023133051
 20
7.2073194782
 30
0.0
 10
10.4877637186
 20
7.2079832488
 30
0.0
 10
10.473229345
 20
7.2097250112
 30
0.0
 10
10.4587900445
 20
7.2125350239
 30
0.0
 10
10.44452512
 20
7.2163976918
 30
0.0
 10
10.4305128912
 20
7.2212916585
 30
0.0
 10
10.4168302701
 20
7.2271899265
 30
0.0
 10
10.4035523445
 20
7.2340600076
 30
0.0
 10
10.3907519722
 20
7.2418641025
 30
0.0
 10
10.3784993862
 20
7.2505593072
 30
0.0
 10
10.3668618142
 20
7.2600978485
 30
0.0
 10
10.3559031142
 20
7.2704273432
 30
0.0
 10
10.3456834281
 20
7.2814910846
 30
0.0
 10
10.3362588551
 20
7.2932283493
 30
0.0
 10
10.3276811465
 20
7.3055747289
 30
0.0
 10
10.3199974246
 20
7.3184624753
 30
0.0
 10
10.3132499251
 20
7.3318208832
 30
0.0
 10
10.3074757701
 20
7.3455766177
 30
0.0
 10
10.3027067472
 20
7.3596543168
 30
0.0
 10
10.2989692096
 20
7.3739762401
 30
0.0
 10
10.296728467
 20
7.3860654927
 30
0.0
 10
10.295471481
 20
7.3957790701
 30
0.0
 10
10.2945744003
 20
7.4054833502
 30
0.0
 10
10.2943027711
 20
7.4127857588
 30
0.0
 10
10.2943027711
 20
7.4176451035
 30
0.0
  0
SPLINE
  5
40F
100
AcDbEntity
  8
0
100
AcDbSpline
 62
7
  6
CONTINUOUS
 70
0
 71
3
 72
42
 73
38
 74
0
 42
0.0000001
 43
0.0000001
 44
0.0000000001
 40
0.0
 40
0.0
 40
0.0
 40
0.0
 40
0.0299419644
 40
0.0449235317
 40
0.0599142035
 40
0.0899287023
 40
0.1200139727
 40
0.1350926544
 40
0.1501966973
 40
0.1804840373
 40
0.210897868
 40
0.2414513286
 40
0.2721543342
 40
0.3030133956
 40
0.3340315238
 40
0.3652082165
 40
0.3965395222
 40
0.4280181758
 40
0.459633799
 40
0.4913731572
 40
0.5232204671
 40
0.5551577446
 40
0.5871651885
 40
0.6192215901
 40
0.6513047644
 40
0.683391994
 40
0.715460481
 40
0.7474877999
 40
0.7794523452
 40
0.8113337678
 40
0.8431133918
 40
0.8747746145
 40
0.906303246
 40
0.9376878974
 40
0.9533257627
 40
0.9689252947
 40
1.0
 40
1.0
 40
1.0
 40
1.0
 10
12.5632709876
 20
7.1240636065
 30
0.0
 10
12.5599032852
 20
7.1208106571
 30
0.0
 10
12.5546532294
 20
7.1161283364
 30
0.0
 10
12.5473006715
 20
7.1103185476
 30
0.0
 10
12.5397139068
 20
7.1047979405
 30
0.0
 10
12.5298144809
 20
7.0984584128
 30
0.0
 10
12.5194336952
 20
7.0929132147
 30
0.0
 10
12.5108722755
 20
7.088968265
 30
0.0
 10
12.5021339464
 20
7.0853490895
 30
0.0
 10
12.4909231078
 20
7.081457351
 30
0.0
 10
12.4771074238
 20
7.0778303727
 30
0.0
 10
12.4629902793
 20
7.0752609115
 30
0.0
 10
12.4486499032
 20
7.0737631587
 30
0.0
 10
12.4341650721
 20
7.0733451031
 30
0.0
 10
12.4196154857
 20
7.0740088737
 30
0.0
 10
12.4050811121
 20
7.0757506361
 30
0.0
 10
12.3906418116
 20
7.0785606488
 30
0.0
 10
12.376376887
 20
7.0824233167
 30
0.0
 10
12.3623646583
 20
7.0873172834
 30
0.0
 10
12.3486820371
 20
7.0932155514
 30
0.0
 10
12.3354041116
 20
7.1000856326
 30
0.0
 10
12.3226037393
 20
7.1078897274
 30
0.0
 10
12.3103511533
 20
7.1165849322
 30
0.0
 10
12.2987135812
 20
7.1261234734
 30
0.0
 10
12.2877548812
 20
7.1364529682
 30
0.0
 10
12.2775351952
 20
7.1475167095
 30
0.0
 10
12.2681106221
 20
7.1592539742
 30
0.0
 10
12.2595329135
 20
7.1716003538
 30
0.0
 10
12.2518491917
 20
7.1844881002
 30
0.0
 10
12.2451016921
 20
7.1978465081
 30
0.0
 10
12.2393275371
 20
7.2116022426
 30
0.0
 10
12.2345585142
 20
7.2256799417
 30
0.0
 10
12.2308209767
 20
7.240001865
 30
0.0
 10
12.228580234
 20
7.2520911176
 30
0.0
 10
12.227323248
 20
7.261804695
 30
0.0
 10
12.2264261674
 20
7.2715089752
 30
0.0
 10
12.2261545381
 20
7.2788113837
 30
0.0
 10
12.2261545381
 20
7.2836707284
 30
0.0
  0
SPLINE
  5
410
100
AcDbEntity
  8
0
100
AcDbSpline
 62
7
  6
CONTINUOUS
 70
0
 71
3
 72
19
 73
15
 74
0
 42
0.0000001
 43
0.0000001
 44
0.0000000001
 40
0.0
 40
0.0
 40
0.0
 40
0.0
 40
0.12732766
 40
0.2538196711
 40
0.3795264658
 40
0.5045235362
 40
0.5668075958
 40
0.6289556124
 40
0.6909843715
 40
0.7529118454
 40
0.8147570127
 40
0.8765397119
 40
0.9382804145
 40
1.0
 40
1.0
 40
1.0
 40
1.0
 10
10.2943027711
 20
7.4176451035
 30
0.0
 10
10.2943027711
 20
7.4238970994
 30
0.0
 10
10.2948996991
 20
7.4363686596
 30
0.0
 10
10.2975993793
 20
7.4548363766
 30
0.0
 10
10.3020754258
 20
7.4728391958
 30
0.0
 10
10.3072605614
 20
7.4873361391
 30
0.0
 10
10.3122472425
 20
7.4985270683
 30
0.0
 10
10.3163940142
 20
7.5066942769
 30
0.0
 10
10.3209417132
 20
7.5146248036
 30
0.0
 10
10.3258799886
 20
7.522300619
 30
0.0
 10
10.3311974473
 20
7.5297039026
 30
0.0
 10
10.3368818347
 20
7.5368176997
 30
0.0
 10
10.3429198618
 20
7.5436253403
 30
0.0
 10
10.3471725056
 20
7.5479499756
 30
0.0
 10
10.3493522303
 20
7.5500554272
 30
0.0
  0
SPLINE
  5
411
100
AcDbEntity
  8
0
100
AcDbSpline
 62
7
  6
CONTINUOUS
 70
0
 71
3
 72
39
 73
35
 74
0
 42
0.0000001
 43
0.0000001
 44
0.0000000001
 40
0.0
 40
0.0
 40
0.0
 40
0.0
 40
0.0310589964
 40
0.0622733271
 40
0.0936386203
 40
0.1251464394
 40
0.1567858343
 40
0.1885430821
 40
0.2204021131
 40
0.252344835
 40
0.2843515082
 40
0.3164011426
 40
0.3484719117
 40
0.3805415785
 40
0.4125879274
 40
0.4445891959
 40
0.4765244994
 40
0.5083742433
 40
0.5401205188
 40
0.5717474743
 40
0.603241654
 40
0.6345922989
 40
0.6657916025
 40
0.6968349155
 40
0.7277208919
 40
0.758451567
 40
0.7890323639
 40
0.8194720236
 40
0.8497824576
 40
0.8799785203
 40
0.9100777024
 40
0.9400997508
 40
0.9700662253
 40
1.0
 40
1.0
 40
1.0
 40
1.0
 10
9.1166521327
 20
7.8399003565
 30
0.0
 10
9.1166521327
 20
7.8297159849
 30
0.0
 10
9.1174029183
 20
7.809288649
 30
0.0
 10
9.1207554068
 20
7.7787422355
 30
0.0
 10
9.1263185348
 20
7.7483691874
 30
0.0
 10
9.134062286
 20
7.7183345143
 30
0.0
 10
9.1439447752
 20
7.6887987694
 30
0.0
 10
9.1559128057
 20
7.6599204538
 30
0.0
 10
9.1699019795
 20
7.6318543289
 30
0.0
 10
9.1858371146
 20
7.6047508323
 30
0.0
 10
9.2036326478
 20
7.5787552241
 30
0.0
 10
9.2231930881
 20
7.5540068352
 30
0.0
 10
9.244413529
 20
7.5306383307
 30
0.0
 10
9.2671801844
 20
7.5087749905
 30
0.0
 10
9.2913709946
 20
7.4885340376
 30
0.0
 10
9.3168562959
 20
7.4700240383
 30
0.0
 10
9.3434995008
 20
7.4533443206
 30
0.0
 10
9.3711578228
 20
7.438584451
 30
0.0
 10
9.3996830243
 20
7.4258237472
 30
0.0
 10
9.4289221929
 20
7.415130827
 30
0.0
 10
9.4587185691
 20
7.4065632752
 30
0.0
 10
9.4889123694
 20
7.4001673281
 30
0.0
 10
9.5193416303
 20
7.3959776204
 30
0.0
 10
9.5498430628
 20
7.3940169927
 30
0.0
 10
9.5802529167
 20
7.394296314
 30
0.0
 10
9.6104078586
 20
7.3968144463
 30
0.0
 10
9.640145839
 20
7.4015582348
 30
0.0
 10
9.6693069638
 20
7.4085025596
 30
0.0
 10
9.6977343374
 20
7.4176104424
 30
0.0
 10
9.725274983
 20
7.4288332362
 30
0.0
 10
9.7517804726
 20
7.4421107017
 30
0.0
 10
9.7771085042
 20
7.4573720272
 30
0.0
 10
9.8011208362
 20
7.4745336187
 30
0.0
 10
9.8161743182
 20
7.4871875421
 30
0.0
 10
9.8234339059
 20
7.4937936452
 30
0.0
  0
SPLINE
  5
412
100
AcDbEntity
  8
0
100
AcDbSpline
 62
7
  6
CONTINUOUS
 70
0
 71
3
 72
23
 73
19
 74
0
 42
0.0000001
 43
0.0000001
 44
0.0000000001
 40
0.0
 40
0.0
 40
0.0
 40
0.0
 40
0.0637492644
 40
0.1272977347
 40
0.1906427853
 40
0.2537920744
 40
0.3167507142
 40
0.3795265697
 40
0.4421291709
 40
0.5045694472
 40
0.5668598756
 40
0.6290142932
 40
0.6910477961
 40
0.7529766026
 40
0.8148179011
 40
0.8765897052
 40
0.9383106877
 40
1.0
 40
1.0
 40
1.0
 40
1.0
 10
9.1166521327
 20
7.8399003565
 30
0.0
 10
9.1166521327
 20
7.8462932025
 30
0.0
 10
9.1169466626
 20
7.8590607631
 30
0.0
 10
9.1182758303
 20
7.8781389871
 30
0.0
 10
9.1204891407
 20
7.8970748649
 30
0.0
 10
9.1235816542
 20
7.9158271706
 30
0.0
 10
9.1275469909
 20
7.9343562273
 30
0.0
 10
9.1323766445
 20
7.9526223624
 30
0.0
 10
9.1380603231
 20
7.9705865995
 30
0.0
 10
9.1445859487
 20
7.9882105696
 30
0.0
 10
9.1519396441
 20
8.005456612
 30
0.0
 10
9.1601057028
 20
8.0222878993
 30
0.0
 10
9.1690666977
 20
8.0386684776
 30
0.0
 10
9.1788035308
 20
8.0545633526
 30
0.0
 10
9.1892954225
 20
8.0699385096
 30
0.0
 10
9.2005200566
 20
8.0847612288
 30
0.0
 10
9.2124530401
 20
8.0989994178
 30
0.0
 10
9.220865924
 20
8.1080840125
 30
0.0
 10
9.2251803399
 20
8.1125174956
 30
0.0
  0
LINE
  5
413
100
AcDbEntity
  8
0
100
AcDbLine
 62
7
  6
CONTINUOUS
 10
9.2251803399
 20
8.1125174956
 11
9.2254894352
 21
8.1128347457
  0
SPLINE
  5
414
100
AcDbEntity
  8
0
100
AcDbSpline
 62
7
  6
CONTINUOUS
 70
0
 71
3
 72
71
 73
67
 74
0
 42
0.0000001
 43
0.0000001
 44
0.0000000001
 40
0.0
 40
0.0
 40
0.0
 40
0.0
 40
0.0155841267
 40
0.0311159948
 40
0.046595237
 40
0.0620238811
 40
0.0774034528
 40
0.0927362808
 40
0.108025123
 40
0.1232731726
 40
0.1384840554
 40
0.1536617766
 40
0.1688106897
 40
0.1839354524
 40
0.1990409778
 40
0.2141323823
 40
0.2292149324
 40
0.2442939895
 40
0.2593749535
 40
0.2744632036
 40
0.2895640407
 40
0.3046826304
 40
0.3198239505
 40
0.3349927386
 40
0.3501934431
 40
0.3654301773
 40
0.3807066784
 40
0.3960262749
 40
0.4113918546
 40
0.4268058385
 40
0.4422701591
 40
0.4577862482
 40
0.4733550284
 40
0.4889769089
 40
0.5046517849
 40
0.520379043
 40
0.5361575757
 40
0.5519857956
 40
0.567861654
 40
0.5837826618
 40
0.599745918
 40
0.6157481409
 40
0.631785699
 40
0.6478546447
 40
0.6639507505
 40
0.6800695507
 40
0.6962063813
 40
0.7123564198
 40
0.7285147273
 40
0.7446762932
 40
0.7608360797
 40
0.7769890647
 40
0.7931302839
 40
0.8092548751
 40
0.8253581231
 40
0.8414355003
 40
0.8574827061
 40
0.8734957059
 40
0.8894707697
 40
0.9054045141
 40
0.921293915
 40
0.9371363644
 40
0.9529297309
 40
0.9686720281
 40
0.9843627508
 40
1.0
 40
1.0
 40
1.0
 40
1.0
 10
9.1292091692
 20
7.8390295231
 30
0.0
 10
9.1292091692
 20
7.8456160894
 30
0.0
 10
9.1295315288
 20
7.8587694699
 30
0.0
 10
9.1309865423
 20
7.8784166372
 30
0.0
 10
9.1334090269
 20
7.8979024598
 30
0.0
 10
9.1367929208
 20
7.917179113
 30
0.0
 10
9.1411303137
 20
7.9362005024
 30
0.0
 10
9.1464107362
 20
7.9549206497
 30
0.0
 10
9.1526214922
 20
7.9732944596
 30
0.0
 10
9.1597476554
 20
7.9912776246
 30
0.0
 10
9.1677720874
 20
8.0088267736
 30
0.0
 10
9.1766755046
 20
8.0258995648
 30
0.0
 10
9.1864364484
 20
8.0424548219
 30
0.0
 10
9.1970313933
 20
8.0584526154
 30
0.0
 10
9.20843481
 20
8.0738543513
 30
0.0
 10
9.2206192272
 20
8.0886228597
 30
0.0
 10
9.2335552757
 20
8.1027225003
 30
0.0
 10
9.2472117364
 20
8.1161192785
 30
0.0
 10
9.2615556675
 20
8.128780885
 30
0.0
 10
9.2765524722
 20
8.1406767808
 30
0.0
 10
9.2921659887
 20
8.1517782588
 30
0.0
 10
9.3083585386
 20
8.1620585674
 30
0.0
 10
9.3250910466
 20
8.17149295
 30
0.0
 10
9.3423231486
 20
8.1800586814
 30
0.0
 10
9.3600132849
 20
8.1877351229
 30
0.0
 10
9.3781187934
 20
8.1945037801
 30
0.0
 10
9.3965959973
 20
8.2003483996
 30
0.0
 10
9.4154003405
 20
8.2052549421
 30
0.0
 10
9.434486489
 20
8.2092116236
 30
0.0
 10
9.4538084394
 20
8.2122089287
 30
0.0
 10
9.4733196186
 20
8.2142396871
 30
0.0
 10
9.4929730056
 20
8.2152990784
 30
0.0
 10
9.5127212491
 20
8.2153846009
 30
0.0
 10
9.5325167768
 20
8.2144960861
 30
0.0
 10
9.5523119047
 20
8.2126356958
 30
0.0
 10
9.5720589595
 20
8.2098079826
 30
0.0
 10
9.5917103915
 20
8.2060198105
 30
0.0
 10
9.6112188863
 20
8.201280341
 30
0.0
 10
9.6305374716
 20
8.1956010022
 30
0.0
 10
9.6496196375
 20
8.1889955005
 30
0.0
 10
9.6684194583
 20
8.1814797968
 30
0.0
 10
9.6868916854
 20
8.1730720161
 30
0.0
 10
9.7049918569
 20
8.1637924175
 30
0.0
 10
9.7226763955
 20
8.1536633381
 30
0.0
 10
9.7399027473
 20
8.1427091986
 30
0.0
 10
9.7566294613
 20
8.1309563951
 30
0.0
 10
9.7728162822
 20
8.1184332292
 30
0.0
 10
9.788424241
 20
8.1051698397
 30
0.0
 10
9.8034157617
 20
8.0911981509
 30
0.0
 10
9.8177547785
 20
8.0765518181
 30
0.0
 10
9.8314067804
 20
8.0612660994
 30
0.0
 10
9.8443389007
 20
8.0453777833
 30
0.0
 10
9.856519983
 20
8.0289250945
 30
0.0
 10
9.8679207065
 20
8.0119476412
 30
0.0
 10
9.8785136323
 20
7.9944862942
 30
0.0
 10
9.888273248
 20
7.9765830773
 30
0.0
 10
9.8971760294
 20
7.9582810722
 30
0.0
 10
9.9052005035
 20
7.939624322
 30
0.0
 10
9.9123273548
 20
7.9206577436
 30
0.0
 10
9.9185393999
 20
7.9014269907
 30
0.0
 10
9.9238216532
 20
7.8819783577
 30
0.0
 10
9.9281613488
 20
7.8623586267
 30
0.0
 10
9.9315479361
 20
7.8426151604
 30
0.0
 10
9.9339734121
 20
7.8227951247
 30
0.0
 10
9.9354316236
 20
7.8029471266
 30
0.0
 10
9.935757282
 20
7.7897042399
 30
0.0
 10
9.935757282
 20
7.7830952215
 30
0.0
  0
SPLINE
  5
415
100
AcDbEntity
  8
0
100
AcDbSpline
 62
7
  6
CONTINUOUS
 70
0
 71
3
 72
23
 73
19
 74
0
 42
0.0000001
 43
0.0000001
 44
0.0000000001
 40
0.0
 40
0.0
 40
0.0
 40
0.0
 40
0.0637769127
 40
0.127344953
 40
0.1907019652
 40
0.2538561227
 40
0.3168132057
 40
0.3795820872
 40
0.4421733866
 40
0.5045993385
 40
0.5668738691
 40
0.6290123824
 40
0.6910316505
 40
0.7529496453
 40
0.8147853569
 40
0.8765586065
 40
0.9382898561
 40
1.0
 40
1.0
 40
1.0
 40
1.0
 10
9.1440584083
 20
7.8428727875
 30
0.0
 10
9.1440584083
 20
7.8491522723
 30
0.0
 10
9.1443589809
 20
7.8616928039
 30
0.0
 10
9.1457155547
 20
7.8804273048
 30
0.0
 10
9.1479742885
 20
7.8990133114
 30
0.0
 10
9.1511297542
 20
7.9174071661
 30
0.0
 10
9.1551749169
 20
7.9355668284
 30
0.0
 10
9.1601004209
 20
7.9534503188
 30
0.0
 10
9.165894936
 20
7.9710164387
 30
0.0
 10
9.1725451533
 20
7.9882246798
 30
0.0
 10
9.180035797
 20
8.0050353427
 30
0.0
 10
9.1883496274
 20
8.0214096516
 30
0.0
 10
9.1974674722
 20
8.0373098452
 30
0.0
 10
9.207368337
 20
8.0526992534
 30
0.0
 10
9.2180293937
 20
8.0675423269
 30
0.0
 10
9.2294261991
 20
8.0818049295
 30
0.0
 10
9.2415320034
 20
8.0954537244
 30
0.0
 10
9.2500581845
 20
8.1041243444
 30
0.0
 10
9.2544283774
 20
8.1083456089
 30
0.0
  0
SPLINE
  5
416
100
AcDbEntity
  8
0
100
AcDbSpline
 62
7
  6
CONTINUOUS
 70
0
 71
3
 72
21
 73
17
 74
0
 42
0.0000001
 43
0.0000001
 44
0.0000000001
 40
0.0
 40
0.0
 40
0.0
 40
0.0
 40
0.1272074726
 40
0.2536500371
 40
0.3166117841
 40
0.379397922
 40
0.4420167787
 40
0.5044777347
 40
0.5667915347
 40
0.6289701522
 40
0.6910266516
 40
0.7529751329
 40
0.8148306086
 40
0.8766088636
 40
0.9383263384
 40
1.0
 40
1.0
 40
1.0
 40
1.0
 10
9.1797271287
 20
7.8773261278
 30
0.0
 10
9.1797271287
 20
7.8887867539
 30
0.0
 10
9.1807274484
 20
7.9116513729
 30
0.0
 10
9.1845036751
 20
7.9399651659
 30
0.0
 10
9.1890208159
 20
7.9622391788
 30
0.0
 10
9.1931431604
 20
7.9787078114
 30
0.0
 10
9.1979964777
 20
7.9949287014
 30
0.0
 10
9.2035715128
 20
8.0108709628
 30
0.0
 10
9.2098574851
 20
8.026503808
 30
0.0
 10
9.2168423291
 20
8.0417971453
 30
0.0
 10
9.2245126599
 20
8.0567214769
 30
0.0
 10
9.2328536711
 20
8.0712480826
 30
0.0
 10
9.2418492828
 20
8.0853489528
 30
0.0
 10
9.2514823158
 20
8.0989969802
 30
0.0
 10
9.2617338802
 20
8.1121655126
 30
0.0
 10
9.2689700998
 20
8.1206110968
 30
0.0
 10
9.2726835385
 20
8.1247444044
 30
0.0
  0
SPLINE
  5
417
100
AcDbEntity
  8
0
100
AcDbSpline
 62
7
  6
CONTINUOUS
 70
0
 71
3
 72
23
 73
19
 74
0
 42
0.0000001
 43
0.0000001
 44
0.0000000001
 40
0.0
 40
0.0
 40
0.0
 40
0.0
 40
0.063776763
 40
0.1273450105
 40
0.1907019658
 40
0.2538561083
 40
0.3168132129
 40
0.3795820829
 40
0.4421733857
 40
0.5045993396
 40
0.5668738671
 40
0.6290123792
 40
0.6910316488
 40
0.752949646
 40
0.8147853557
 40
0.8765586025
 40
0.9382898529
 40
1.0
 40
1.0
 40
1.0
 40
1.0
 10
9.2287169173
 20
7.8846466326
 30
0.0
 10
9.2287169173
 20
7.8903089557
 30
0.0
 10
9.2289879551
 20
7.9016170075
 30
0.0
 10
9.2302111966
 20
7.9185102804
 30
0.0
 10
9.2322479437
 20
7.9352696644
 30
0.0
 10
9.2350932899
 20
7.9518557647
 30
0.0
 10
9.2387408986
 20
7.9682306921
 30
0.0
 10
9.2431823227
 20
7.9843565926
 30
0.0
 10
9.2484073441
 20
8.0001963145
 30
0.0
 10
9.2544039777
 20
8.0157133285
 30
0.0
 10
9.2611584539
 20
8.0308718313
 30
0.0
 10
9.2686551946
 20
8.0456368737
 30
0.0
 10
9.276876927
 20
8.0599744006
 30
0.0
 10
9.2858047329
 20
8.0738513375
 30
0.0
 10
9.2954180375
 20
8.0872356195
 30
0.0
 10
9.3056947597
 20
8.1000964938
 30
0.0
 10
9.3166107856
 20
8.1124039017
 30
0.0
 10
9.3242990297
 20
8.1202223556
 30
0.0
 10
9.3282397101
 20
8.1240287641
 30
0.0
  0
SPLINE
  5
418
100
AcDbEntity
  8
0
100
AcDbSpline
 62
7
  6
CONTINUOUS
 70
0
 71
3
 72
19
 73
15
 74
0
 42
0.0000001
 43
0.0000001
 44
0.0000000001
 40
0.0
 40
0.0
 40
0.0
 40
0.0
 40
0.12732766
 40
0.2538196711
 40
0.3795264658
 40
0.5045235362
 40
0.5668075958
 40
0.6289556124
 40
0.6909843715
 40
0.7529118454
 40
0.8147570127
 40
0.8765397119
 40
0.9382804145
 40
1.0
 40
1.0
 40
1.0
 40
1.0
 10
10.2943027711
 20
9.1080153996
 30
0.0
 10
10.2943027711
 20
9.1142673956
 30
0.0
 10
10.2948996991
 20
9.1267389558
 30
0.0
 10
10.2975993793
 20
9.1452066727
 30
0.0
 10
10.3020754258
 20
9.163209492
 30
0.0
 10
10.3072605614
 20
9.1777064353
 30
0.0
 10
10.3122472425
 20
9.1888973645
 30
0.0
 10
10.3163940142
 20
9.1970645731
 30
0.0
 10
10.3209417132
 20
9.2049950998
 30
0.0
 10
10.3258799886
 20
9.2126709152
 30
0.0
 10
10.3311974473
 20
9.2200741988
 30
0.0
 10
10.3368818347
 20
9.2271879959
 30
0.0
 10
10.3429198618
 20
9.2339956364
 30
0.0
 10
10.3471725056
 20
9.2383202718
 30
0.0
 10
10.3493522303
 20
9.2404257234
 30
0.0
  0
SPLINE
  5
419
100
AcDbEntity
  8
0
100
AcDbSpline
 62
7
  6
CONTINUOUS
 70
0
 71
3
 72
19
 73
15
 74
0
 42
0.0000001
 43
0.0000001
 44
0.0000000001
 40
0.0
 40
0.0
 40
0.0
 40
0.0
 40
0.12732766
 40
0.2538196711
 40
0.3795264658
 40
0.5045235362
 40
0.5668075958
 40
0.6289556124
 40
0.6909843715
 40
0.7529118454
 40
0.8147570127
 40
0.8765397119
 40
0.9382804145
 40
1.0
 40
1.0
 40
1.0
 40
1.0
 10
12.2261545381
 20
7.2836707284
 30
0.0
 10
12.2261545381
 20
7.2899227243
 30
0.0
 10
12.2267514661
 20
7.3023942845
 30
0.0
 10
12.2294511463
 20
7.3208620015
 30
0.0
 10
12.2339271928
 20
7.3388648207
 30
0.0
 10
12.2391123284
 20
7.353361764
 30
0.0
 10
12.2440990095
 20
7.3645526933
 30
0.0
 10
12.2482457813
 20
7.3727199018
 30
0.0
 10
12.2527934802
 20
7.3806504285
 30
0.0
 10
12.2577317557
 20
7.388326244
 30
0.0
 10
12.2630492143
 20
7.3957295275
 30
0.0
 10
12.2687336017
 20
7.4028433246
 30
0.0
 10
12.2747716288
 20
7.4096509652
 30
0.0
 10
12.2790242726
 20
7.4139756005
 30
0.0
 10
12.2812039974
 20
7.4160810521
 30
0.0
  0
SPLINE
  5
41A
100
AcDbEntity
  8
0
100
AcDbSpline
 62
7
  6
CONTINUOUS
 70
0
 71
3
 72
27
 73
23
 74
0
 42
0.0000001
 43
0.0000001
 44
0.0000000001
 40
0.0
 40
0.0
 40
0.0
 40
0.0
 40
0.116309757
 40
0.2237110821
 40
0.3223237229
 40
0.412354864
 40
0.4940836921
 40
0.5678559698
 40
0.6340959313
 40
0.6932994976
 40
0.7460415093
 40
0.7929811324
 40
0.8348645537
 40
0.8725313053
 40
0.8900877097
 40
0.9069412004
 40
0.9232135501
 40
0.9390273958
 40
0.9545025801
 40
0.9697529767
 40
0.9848861333
 40
1.0
 40
1.0
 40
1.0
 40
1.0
 10
9.4114628768
 20
8.1630516462
 30
0.0
 10
9.4098535764
 20
8.1614971814
 30
0.0
 10
9.4067088119
 20
8.1585577029
 30
0.0
 10
9.4020147924
 20
8.154503683
 30
0.0
 10
9.3975386632
 20
8.1509790098
 30
0.0
 10
9.3932880365
 20
8.1479769688
 30
0.0
 10
9.389271306
 20
8.1454857654
 30
0.0
 10
9.3854967168
 20
8.1434904941
 30
0.0
 10
9.3819733448
 20
8.1419713288
 30
0.0
 10
9.3787094747
 20
8.140906114
 30
0.0
 10
9.3757133183
 20
8.1402694197
 30
0.0
 10
9.3729921381
 20
8.1400339916
 30
0.0
 10
9.3705536524
 20
8.1401710973
 30
0.0
 10
9.3687203004
 20
8.1405809546
 30
0.0
 10
9.3674214888
 20
8.1410716096
 30
0.0
 10
9.3665453271
 20
8.1415029461
 30
0.0
 10
9.3657451068
 20
8.142001967
 30
0.0
 10
9.3650212453
 20
8.1425642403
 30
0.0
 10
9.3643740892
 20
8.1431852401
 30
0.0
 10
9.3638038919
 20
8.1438605146
 30
0.0
 10
9.3633107587
 20
8.1445853914
 30
0.0
 10
9.3630335389
 20
8.1450982805
 30
0.0
 10
9.362908083
 20
8.1453605669
 30
0.0
  0
SPLINE
  5
41B
100
AcDbEntity
  8
0
100
AcDbSpline
 62
7
  6
CONTINUOUS
 70
0
 71
3
 72
12
 73
8
 74
0
 42
0.0000001
 43
0.0000001
 44
0.0000000001
 40
0.0
 40
0.0
 40
0.0
 40
0.0
 40
0.2787910765
 40
0.538682344
 40
0.7791819972
 40
0.8920637864
 40
1.0
 40
1.0
 40
1.0
 40
1.0
 10
9.4393004521
 20
8.1939939018
 30
0.0
 10
9.436850459
 20
8.190998217
 30
0.0
 10
9.4320678435
 20
8.1852493578
 30
0.0
 10
9.424963185
 20
8.1770926289
 30
0.0
 10
9.4191898199
 20
8.1708342376
 30
0.0
 10
9.4147217506
 20
8.1662465166
 30
0.0
 10
9.4125405261
 20
8.1640925756
 30
0.0
 10
9.4114628768
 20
8.1630516462
 30
0.0
  0
SPLINE
  5
41C
100
AcDbEntity
  8
0
100
AcDbSpline
 62
7
  6
CONTINUOUS
 70
0
 71
3
 72
85
 73
81
 74
0
 42
0.0000001
 43
0.0000001
 44
0.0000000001
 40
0.0
 40
0.0
 40
0.0
 40
0.0
 40
0.0027164321
 40
0.0054532385
 40
0.0082303085
 40
0.011066603
 40
0.0139798079
 40
0.0169861193
 40
0.0233311764
 40
0.0266975277
 40
0.0302054756
 40
0.033863392
 40
0.0376783486
 40
0.0416563264
 40
0.0458022472
 40
0.050120174
 40
0.0546133665
 40
0.0592843698
 40
0.0641351496
 40
0.0691670674
 40
0.0743810463
 40
0.0797775355
 40
0.0853565984
 40
0.0911179629
 40
0.0970609898
 40
0.1094877374
 40
0.1226269862
 40
0.1364646504
 40
0.1509834607
 40
0.1661633573
 40
0.1819818055
 40
0.1984140483
 40
0.2154333259
 40
0.233011069
 40
0.2511170619
 40
0.2697195894
 40
0.2887855696
 40
0.3082806737
 40
0.3281694478
 40
0.3484154285
 40
0.36898125
 40
0.3898287485
 40
0.4109190644
 40
0.4322127408
 40
0.4536698284
 40
0.4969118802
 40
0.5403202169
 40
0.5835675225
 40
0.6050291933
 40
0.6263287434
 40
0.6474262089
 40
0.6682821161
 40
0.6888575847
 40
0.7091144272
 40
0.7290152501
 40
0.748523559
 40
0.7676038654
 40
0.7862218038
 40
0.8043442504
 40
0.821939444
 40
0.838977118
 40
0.8554286471
 40
0.8712672105
 40
0.8864679851
 40
0.9010083612
 40
0.9148681946
 40
0.9280301198
 40
0.9404799413
 40
0.9464346146
 40
0.9522076736
 40
0.9577984609
 40
0.9632066809
 40
0.9684323855
 40
0.9734759888
 40
0.9783383641
 40
0.9830208263
 40
0.9875253632
 40
0.991854574
 40
0.996011563
 40
1.0
 40
1.0
 40
1.0
 40
1.0
 10
13.0509857024
 20
8.9944718035
 30
0.0
 10
13.0522828343
 20
8.9943818471
 30
0.0
 10
13.0548801821
 20
8.9940838286
 30
0.0
 10
13.0587431438
 20
8.9932864371
 30
0.0
 10
13.0625769118
 20
8.9921387015
 30
0.0
 10
13.0663787178
 20
8.9906418093
 30
0.0
 10
13.0701467833
 20
8.9887969975
 30
0.0
 10
13.0752132133
 20
8.9858224134
 30
0.0
 10
13.080117579
 20
8.982180806
 30
0.0
 10
13.0848432051
 20
8.9779698963
 30
0.0
 10
13.0884157948
 20
8.9744090483
 30
0.0
 10
13.0919441249
 20
8.9705105109
 30
0.0
 10
13.0954271481
 20
8.9662759549
 30
0.0
 10
13.098863074
 20
8.9617075337
 30
0.0
 10
13.1022504286
 20
8.956807526
 30
0.0
 10
13.1055875657
 20
8.951578324
 30
0.0
 10
13.1088729011
 20
8.9460225041
 30
0.0
 10
13.1121048871
 20
8.9401428184
 30
0.0
 10
13.1152818818
 20
8.933942142
 30
0.0
 10
13.1184024023
 20
8.9274235714
 30
0.0
 10
13.1214648428
 20
8.9205903159
 30
0.0
 10
13.1244677191
 20
8.9134457818
 30
0.0
 10
13.12740953
 20
8.9059935266
 30
0.0
 10
13.1302888004
 20
8.8982372456
 30
0.0
 10
13.1340992998
 20
8.8873326358
 30
0.0
 10
13.1386815793
 20
8.8729600288
 30
0.0
 10
13.1438301802
 20
8.8548125053
 30
0.0
 10
13.1486968647
 20
8.8355529924
 30
0.0
 10
13.1532717806
 20
8.8152200426
 30
0.0
 10
13.1575456265
 20
8.7938541604
 30
0.0
 10
13.1615097064
 20
8.7714980852
 30
0.0
 10
13.1651559537
 20
8.7481965833
 30
0.0
 10
13.1684769501
 20
8.7239963746
 30
0.0
 10
13.1714659363
 20
8.6989460162
 30
0.0
 10
13.1741168276
 20
8.6730957981
 30
0.0
 10
13.1764242259
 20
8.646497637
 30
0.0
 10
13.1783834289
 20
8.6192049714
 30
0.0
 10
13.1799904477
 20
8.5912726522
 30
0.0
 10
13.1812420085
 20
8.5627568286
 30
0.0
 10
13.1821355565
 20
8.5337148296
 30
0.0
 10
13.1826692606
 20
8.504205048
 30
0.0
 10
13.1828420192
 20
8.4742868176
 30
0.0
 10
13.1826534507
 20
8.4440203164
 30
0.0
 10
13.1821039458
 20
8.4134663629
 30
0.0
 10
13.1808882529
 20
8.3723222529
 30
0.0
 10
13.1784744241
 20
8.3206270025
 30
0.0
 10
13.1741835719
 20
8.2585934925
 30
0.0
 10
13.1694566654
 20
8.2070535178
 30
0.0
 10
13.1649955877
 20
8.1661263438
 30
0.0
 10
13.1613326063
 20
8.1357792895
 30
0.0
 10
13.157351574
 20
8.1057648081
 30
0.0
 10
13.1530604795
 20
8.0761432132
 30
0.0
 10
13.1484679882
 20
8.0469740812
 30
0.0
 10
13.1435833614
 20
8.0183160572
 30
0.0
 10
13.1384164542
 20
7.9902267579
 30
0.0
 10
13.1329776922
 20
7.9627626501
 30
0.0
 10
13.1272780505
 20
7.9359789363
 30
0.0
 10
13.1213290363
 20
7.9099294369
 30
0.0
 10
13.1151426671
 20
7.8846664792
 30
0.0
 10
13.1087314403
 20
7.8602407912
 30
0.0
 10
13.1021083096
 20
7.8367013986
 30
0.0
 10
13.0952866591
 20
7.814095521
 30
0.0
 10
13.0882802719
 20
7.7924684701
 30
0.0
 10
13.0811033071
 20
7.7718635351
 30
0.0
 10
13.0737702662
 20
7.752321915
 30
0.0
 10
13.0662959432
 20
7.7338825162
 30
0.0
 10
13.0586954105
 20
7.716582237
 30
0.0
 10
13.0521760598
 20
7.7029478585
 30
0.0
 10
13.0468989863
 20
7.6926475385
 30
0.0
 10
13.0429779774
 20
7.6853431743
 30
0.0
 10
13.0390368745
 20
7.6783483273
 30
0.0
 10
13.0350776317
 20
7.6716664667
 30
0.0
 10
13.0311022369
 20
7.6653009123
 30
0.0
 10
13.0271126235
 20
7.6592548562
 30
0.0
 10
13.0231108505
 20
7.6535312751
 30
0.0
 10
13.0190988117
 20
7.6481330228
 30
0.0
 10
13.0150784731
 20
7.643062705
 30
0.0
 10
13.0110516984
 20
7.6383227988
 30
0.0
 10
13.0070206479
 20
7.6339158779
 30
0.0
 10
13.0042758898
 20
7.6311449415
 30
0.0
 10
13.0029027571
 20
7.6298185971
 30
0.0
  0
SPLINE
  5
41D
100
AcDbEntity
  8
0
100
AcDbSpline
 62
7
  6
CONTINUOUS
 70
0
 71
3
 72
84
 73
80
 74
0
 42
0.0000001
 43
0.0000001
 44
0.0000000001
 40
0.0
 40
0.0
 40
0.0
 40
0.0
 40
0.002744265
 40
0.0055439273
 40
0.0084161736
 40
0.0113768123
 40
0.0144401023
 40
0.0176187341
 40
0.0209238751
 40
0.0243651938
 40
0.0279510471
 40
0.0316885269
 40
0.0355836259
 40
0.0396413705
 40
0.0438658643
 40
0.0482604861
 40
0.0528278863
 40
0.0575701173
 40
0.0624887115
 40
0.0675846693
 40
0.0728586143
 40
0.0783107379
 40
0.0839408944
 40
0.0897486405
 40
0.1018931117
 40
0.1147355953
 40
0.1282633691
 40
0.142460577
 40
0.1573086203
 40
0.1727864817
 40
0.1888709808
 40
0.2055369862
 40
0.2227575884
 40
0.2405042602
 40
0.2587470091
 40
0.2774545053
 40
0.2965942007
 40
0.3161324336
 40
0.3360345361
 40
0.3562649442
 40
0.3767872965
 40
0.3975645292
 40
0.4185589679
 40
0.4610456034
 40
0.5039379064
 40
0.5469220797
 40
0.5896834735
 40
0.6108831286
 40
0.6319102003
 40
0.6527264253
 40
0.673294039
 40
0.6935758673
 40
0.7135354199
 40
0.7331369902
 40
0.75234576
 40
0.7711278961
 40
0.7894506527
 40
0.8072824817
 40
0.8245931548
 40
0.8413538998
 40
0.8575375311
 40
0.8731186031
 40
0.8880735868
 40
0.9023810821
 40
0.9160220777
 40
0.9289802395
 40
0.9412422852
 40
0.947109307
 40
0.9527989845
 40
0.9583107258
 40
0.9636443104
 40
0.9687998137
 40
0.9737776882
 40
0.9785788067
 40
0.9832044793
 40
0.9876566719
 40
0.9919379046
 40
0.9960511676
 40
1.0
 40
1.0
 40
1.0
 40
1.0
 10
13.0428005217
 20
8.9944192062
 30
0.0
 10
13.044070967
 20
8.9941129412
 30
0.0
 10
13.0466118323
 20
8.9933823066
 30
0.0
 10
13.0503617872
 20
8.9919559777
 30
0.0
 10
13.0540794836
 20
8.9901917592
 30
0.0
 10
13.0577626515
 20
8.9880909953
 30
0.0
 10
13.061409741
 20
8.9856551784
 30
0.0
 10
13.0650191497
 20
8.9828858404
 30
0.0
 10
13.0685893048
 20
8.979784509
 30
0.0
 10
13.0721187819
 20
8.9763529256
 30
0.0
 10
13.07560601
 20
8.9725927699
 30
0.0
 10
13.0790495303
 20
8.9685059447
 30
0.0
 10
13.0824478371
 20
8.9640944326
 30
0.0
 10
13.0857993581
 20
8.959360324
 30
0.0
 10
13.0891026479
 20
8.95430593
 30
0.0
 10
13.0923561064
 20
8.9489336253
 30
0.0
 10
13.0955582581
 20
8.9432460049
 30
0.0
 10
13.0987075934
 20
8.9372457915
 30
0.0
 10
13.101802568
 20
8.9309358497
 30
0.0
 10
13.1048417698
 20
8.9243192401
 30
0.0
 10
13.1078236694
 20
8.9173991291
 30
0.0
 10
13.1107468597
 20
8.9101788766
 30
0.0
 10
13.1136099536
 20
8.9026619611
 30
0.0
 10
13.117401886
 20
8.8920907819
 30
0.0
 10
13.1219677318
 20
8.8781515773
 30
0.0
 10
13.1271071043
 20
8.8605424645
 30
0.0
 10
13.1319752347
 20
8.8418447528
 30
0.0
 10
13.1365625521
 20
8.8220947676
 30
0.0
 10
13.1408600195
 20
8.8013306948
 30
0.0
 10
13.1448591558
 20
8.7795928521
 30
0.0
 10
13.1485520626
 20
8.7569234825
 30
0.0
 10
13.1519314395
 20
8.7333666953
 30
0.0
 10
13.15499061
 20
8.7089683689
 30
0.0
 10
13.1577235366
 20
8.683776055
 30
0.0
 10
13.1601248208
 20
8.6578388737
 30
0.0
 10
13.162189717
 20
8.6312074105
 30
0.0
 10
13.1639141389
 20
8.6039336186
 30
0.0
 10
13.1652946748
 20
8.5760707189
 30
0.0
 10
13.1663285964
 20
8.5476730943
 30
0.0
 10
13.1670138552
 20
8.5187961736
 30
0.0
 10
13.1673490765
 20
8.4894963383
 30
0.0
 10
13.1673336069
 20
8.4598307418
 30
0.0
 10
13.1668433269
 20
8.4197085488
 30
0.0
 10
13.165350174
 20
8.3690700326
 30
0.0
 10
13.1621863931
 20
8.3080195925
 30
0.0
 10
13.1576677906
 20
8.2469232775
 30
0.0
 10
13.1527891046
 20
8.1962247356
 30
0.0
 10
13.1482302038
 20
8.1560096117
 30
0.0
 10
13.1445072046
 20
8.1262191254
 30
0.0
 10
13.1404780985
 20
8.0967722688
 30
0.0
 10
13.1361507391
 20
8.0677264867
 30
0.0
 10
13.1315336063
 20
8.0391384931
 30
0.0
 10
13.1266357353
 20
8.0110640923
 30
0.0
 10
13.1214667159
 20
7.9835580824
 30
0.0
 10
13.1160366797
 20
7.9566741398
 30
0.0
 10
13.1103562686
 20
7.9304647165
 30
0.0
 10
13.1044366161
 20
7.9049809408
 30
0.0
 10
13.0982893251
 20
7.8802725152
 30
0.0
 10
13.091926446
 20
7.8563876104
 30
0.0
 10
13.0853604646
 20
7.8333727626
 30
0.0
 10
13.0786042629
 20
7.8112727821
 30
0.0
 10
13.0716710953
 20
7.7901306674
 30
0.0
 10
13.0645745587
 20
7.769987505
 30
0.0
 10
13.0573285624
 20
7.7508824012
 30
0.0
 10
13.0499473002
 20
7.7328522775
 30
0.0
 10
13.042445221
 20
7.7159321544
 30
0.0
 10
13.0360138607
 20
7.7025946428
 30
0.0
 10
13.0308097645
 20
7.6925156296
 30
0.0
 10
13.0269431467
 20
7.6853654998
 30
0.0
 10
13.0230572851
 20
7.678516379
 30
0.0
 10
13.019154087
 20
7.6719715471
 30
0.0
 10
13.0152354113
 20
7.6657341821
 30
0.0
 10
13.0113031488
 20
7.6598073065
 30
0.0
 10
13.0073592518
 20
7.6541937606
 30
0.0
 10
13.0034055229
 20
7.6488962616
 30
0.0
 10
12.9994438537
 20
7.6439172777
 30
0.0
 10
12.9954760158
 20
7.6392591906
 30
0.0
 10
12.9915041063
 20
7.6349244568
 30
0.0
 10
12.9888004742
 20
7.6321968378
 30
0.0
 10
12.9874479422
 20
7.6308903921
 30
0.0
  0
SPLINE
  5
41E
100
AcDbEntity
  8
0
100
AcDbSpline
 62
7
  6
CONTINUOUS
 70
0
 71
3
 72
91
 73
87
 74
0
 42
0.0000001
 43
0.0000001
 44
0.0000000001
 40
0.0
 40
0.0
 40
0.0
 40
0.0
 40
0.0039487787
 40
0.0077209219
 40
0.011325686
 40
0.0147746025
 40
0.0212567422
 40
0.0243282937
 40
0.027311383
 40
0.0302282587
 40
0.0331028473
 40
0.0359602483
 40
0.0388260453
 40
0.0417255864
 40
0.0446832624
 40
0.0477219513
 40
0.0508625511
 40
0.0541237877
 40
0.0575221219
 40
0.0610717762
 40
0.0647849412
 40
0.0686718477
 40
0.0727410768
 40
0.0769996739
 40
0.0814533555
 40
0.086106722
 40
0.0909632949
 40
0.0960257825
 40
0.1012960589
 40
0.1067753372
 40
0.1124642414
 40
0.1183628029
 40
0.124470644
 40
0.1307868785
 40
0.1373102773
 40
0.1509713113
 40
0.1654377201
 40
0.1806883899
 40
0.1966983416
 40
0.2134392127
 40
0.2308796405
 40
0.2489855796
 40
0.267720567
 40
0.2870459531
 40
0.3069211232
 40
0.3273036914
 40
0.3481496792
 40
0.3694136836
 40
0.3910490352
 40
0.4130079573
 40
0.435241725
 40
0.4577008156
 40
0.4803350563
 40
0.5030937708
 40
0.5487794195
 40
0.5943487159
 40
0.6169623093
 40
0.6393939606
 40
0.6615935746
 40
0.6835117283
 40
0.7050998185
 40
0.7263102116
 40
0.7470963968
 40
0.7674131468
 40
0.7872166885
 40
0.8064648673
 40
0.8251173264
 40
0.8431357006
 40
0.8604838296
 40
0.8771280068
 40
0.8930372574
 40
0.9081836561
 40
0.9225427195
 40
0.9360938996
 40
0.9425616231
 40
0.9488218314
 40
0.9548733455
 40
0.9607154496
 40
0.9663478606
 40
0.9717707569
 40
0.9769849061
 40
0.9819916398
 40
0.9867931655
 40
0.9913924834
 40
0.995793275
 40
1.0
 40
1.0
 40
1.0
 40
1.0
 10
12.9887317878
 20
8.8105374242
 30
0.0
 10
12.989814915
 20
8.8115454366
 30
0.0
 10
12.991980275
 20
8.813466261
 30
0.0
 10
12.9953026635
 20
8.8161098133
 30
0.0
 10
12.9986220752
 20
8.8184465086
 30
0.0
 10
13.0029498588
 20
8.8210951767
 30
0.0
 10
13.0073653334
 20
8.8232074559
 30
0.0
 10
13.0118275236
 20
8.8246913649
 30
0.0
 10
13.0151024267
 20
8.8254704812
 30
0.0
 10
13.0183622553
 20
8.8259343149
 30
0.0
 10
13.0216047271
 20
8.8260820453
 30
0.0
 10
13.0248270916
 20
8.8259133326
 30
0.0
 10
13.0280266214
 20
8.8254282894
 30
0.0
 10
13.0312006186
 20
8.8246274305
 30
0.0
 10
13.0343466638
 20
8.8235119069
 30
0.0
 10
13.0374625181
 20
8.8220828985
 30
0.0
 10
13.0405463053
 20
8.8203420131
 30
0.0
 10
13.0435962912
 20
8.8182907872
 30
0.0
 10
13.0466108818
 20
8.815930853
 30
0.0
 10
13.04958863
 20
8.8132639564
 30
0.0
 10
13.0525279689
 20
8.8102917704
 30
0.0
 10
13.0554275018
 20
8.8070162235
 30
0.0
 10
13.0582856627
 20
8.8034392298
 30
0.0
 10
13.0611009546
 20
8.7995629208
 30
0.0
 10
13.0638718694
 20
8.7953895729
 30
0.0
 10
13.0665967993
 20
8.7909215879
 30
0.0
 10
13.0692742867
 20
8.7861616134
 30
0.0
 10
13.071902715
 20
8.7811123984
 30
0.0
 10
13.0744806098
 20
8.7757769268
 30
0.0
 10
13.0770064525
 20
8.7701583307
 30
0.0
 10
13.0794787221
 20
8.764259916
 30
0.0
 10
13.0818960194
 20
8.7580851847
 30
0.0
 10
13.0842568258
 20
8.7516377791
 30
0.0
 10
13.0865598283
 20
8.7449215301
 30
0.0
 10
13.0895983033
 20
8.7354674525
 30
0.0
 10
13.0932290619
 20
8.7229987718
 30
0.0
 10
13.097270088
 20
8.7072528282
 30
0.0
 10
13.1010497995
 20
8.6905387241
 30
0.0
 10
13.1045590616
 20
8.6728962934
 30
0.0
 10
13.1077893563
 20
8.6543674205
 30
0.0
 10
13.1107328435
 20
8.6349962512
 30
0.0
 10
13.1133823737
 20
8.6148289758
 30
0.0
 10
13.1157315108
 20
8.5939137388
 30
0.0
 10
13.1177745557
 20
8.5723005074
 30
0.0
 10
13.1195065481
 20
8.5500409433
 30
0.0
 10
13.1209232806
 20
8.5271882698
 30
0.0
 10
13.1220213071
 20
8.5037971418
 30
0.0
 10
13.1227979494
 20
8.4799235142
 30
0.0
 10
13.1232513087
 20
8.4556245082
 30
0.0
 10
13.1233802703
 20
8.430958272
 30
0.0
 10
13.1231845013
 20
8.4059838337
 30
0.0
 10
13.1226644411
 20
8.3807609762
 30
0.0
 10
13.1218213424
 20
8.3553500225
 30
0.0
 10
13.1202671215
 20
8.3212574323
 30
0.0
 10
13.1175357146
 20
8.2786192359
 30
0.0
 10
13.1137701461
 20
8.2361144343
 30
0.0
 10
13.110144368
 20
8.202354444
 30
0.0
 10
13.107138671
 20
8.177336915
 30
0.0
 10
13.1038471212
 20
8.1526182597
 30
0.0
 10
13.100277587
 20
8.1282575928
 30
0.0
 10
13.0964386479
 20
8.1043132175
 30
0.0
 10
13.092339521
 20
8.0808424233
 30
0.0
 10
13.0879900528
 20
8.0579013636
 30
0.0
 10
13.0834006935
 20
8.0355449124
 30
0.0
 10
13.0785824807
 20
8.0138265282
 30
0.0
 10
13.073547003
 20
7.9927981255
 30
0.0
 10
13.0683063746
 20
7.9725099496
 30
0.0
 10
13.0628732066
 20
7.9530104522
 30
0.0
 10
13.0572605735
 20
7.9343461687
 30
0.0
 10
13.0514819862
 20
7.9165615839
 30
0.0
 10
13.0455513579
 20
7.8996990397
 30
0.0
 10
13.0394829545
 20
7.883798522
 30
0.0
 10
13.0332913569
 20
7.8688978963
 30
0.0
 10
13.0279617985
 20
7.8571674726
 30
0.0
 10
13.0236383279
 20
7.8483199927
 30
0.0
 10
13.0204246792
 20
7.8420594515
 30
0.0
 10
13.0171913611
 20
7.8360741613
 30
0.0
 10
13.013940291
 20
7.830367654
 30
0.0
 10
13.0106734086
 20
7.8249433032
 30
0.0
 10
13.0073926053
 20
7.8198043421
 30
0.0
 10
13.0040999009
 20
7.8149537774
 30
0.0
 10
13.0007971411
 20
7.8103944825
 30
0.0
 10
12.9974862535
 20
7.8061290687
 30
0.0
 10
12.9941690524
 20
7.8021600109
 30
0.0
 10
12.9908476474
 20
7.7984898641
 30
0.0
 10
12.9885816783
 20
7.7961928973
 30
0.0
 10
12.9874479422
 20
7.7950977923
 30
0.0
  0
SPLINE
  5
41F
100
AcDbEntity
  8
0
100
AcDbSpline
 62
7
  6
CONTINUOUS
 70
0
 71
3
 72
78
 73
74
 74
0
 42
0.0000001
 43
0.0000001
 44
0.0000000001
 40
0.0
 40
0.0
 40
0.0
 40
0.0
 40
0.0027164369
 40
0.0054532501
 40
0.0082303267
 40
0.011066621
 40
0.0139798386
 40
0.0169861505
 40
0.0201001133
 40
0.0233346418
 40
0.0267009936
 40
0.0302089507
 40
0.0338668746
 40
0.0376818349
 40
0.0416598208
 40
0.0458057531
 40
0.0501236788
 40
0.0546168868
 40
0.0592878993
 40
0.064138678
 40
0.0691706199
 40
0.074384594
 40
0.0853595185
 40
0.0970633876
 40
0.1094901456
 40
0.1226294158
 40
0.1364671142
 40
0.1509859537
 40
0.1661658741
 40
0.1819843535
 40
0.1984166306
 40
0.2154359363
 40
0.233013707
 40
0.2511197402
 40
0.2697223102
 40
0.288788323
 40
0.3082834575
 40
0.3281722723
 40
0.3484182956
 40
0.3689841559
 40
0.4109212942
 40
0.4536714247
 40
0.4969135622
 40
0.5403219822
 40
0.5835693732
 40
0.6263299628
 40
0.6682826601
 40
0.6888581693
 40
0.7091150559
 40
0.7290159179
 40
0.7485242577
 40
0.7676046002
 40
0.7862225833
 40
0.8043450682
 40
0.82194029
 40
0.8389779953
 40
0.855429561
 40
0.8712681541
 40
0.8864689547
 40
0.901009364
 40
0.9148692325
 40
0.9280311759
 40
0.9404810125
 40
0.9522082268
 40
0.9632066197
 40
0.9684323262
 40
0.9734759427
 40
0.9783382952
 40
0.9830207554
 40
0.9875253486
 40
0.9918546287
 40
0.9960116292
 40
1.0
 40
1.0
 40
1.0
 40
1.0
 10
12.977189628
 20
8.7840731647
 30
0.0
 10
12.9780854888
 20
8.784011036
 30
0.0
 10
12.9798793449
 20
8.7838052483
 30
0.0
 10
12.9825472889
 20
8.7832545067
 30
0.0
 10
12.9851950602
 20
8.7824618203
 30
0.0
 10
12.9878208042
 20
8.781428021
 30
0.0
 10
12.9904231129
 20
8.7801539129
 30
0.0
 10
12.9930006971
 20
8.7786405923
 30
0.0
 10
12.995552361
 20
8.7768891058
 30
0.0
 10
12.9980769324
 20
8.774900523
 30
0.0
 10
13.0005733828
 20
8.7726760777
 30
0.0
 10
13.0030405873
 20
8.7702169292
 30
0.0
 10
13.0054774733
 20
8.7675243725
 30
0.0
 10
13.0078830034
 20
8.7645998037
 30
0.0
 10
13.0102560212
 20
8.7614446313
 30
0.0
 10
13.0125954797
 20
8.758060451
 30
0.0
 10
13.0149002807
 20
8.7544489249
 30
0.0
 10
13.0171692772
 20
8.7506118057
 30
0.0
 10
13.0194014404
 20
8.7465510162
 30
0.0
 10
13.0215956351
 20
8.7422685425
 30
0.0
 10
13.0237508108
 20
8.7377664953
 30
0.0
 10
13.0266200755
 20
8.7313641348
 30
0.0
 10
13.0300898233
 20
8.7228173622
 30
0.0
 10
13.0340131956
 20
8.7118924287
 30
0.0
 10
13.0377565807
 20
8.7001514666
 30
0.0
 10
13.0413124433
 20
8.6876178453
 30
0.0
 10
13.044673603
 20
8.6743163321
 30
0.0
 10
13.0478332564
 20
8.6602734234
 30
0.0
 10
13.050784982
 20
8.6455171346
 30
0.0
 10
13.0535227629
 20
8.6300769673
 30
0.0
 10
13.0560410318
 20
8.6139838438
 30
0.0
 10
13.0583346724
 20
8.5972700336
 30
0.0
 10
13.0603990139
 20
8.579969069
 30
0.0
 10
13.0622298415
 20
8.5621156785
 30
0.0
 10
13.0638234351
 20
8.5437457222
 30
0.0
 10
13.0651765564
 20
8.5248961134
 30
0.0
 10
13.0662864482
 20
8.5056047293
 30
0.0
 10
13.0671508288
 20
8.4859103529
 30
0.0
 10
13.0677679693
 20
8.4658525471
 30
0.0
 10
13.0682625584
 20
8.4385008544
 30
0.0
 10
13.0682460737
 20
8.403702101
 30
0.0
 10
13.0672347855
 20
8.3614190634
 30
0.0
 10
13.0652394247
 20
8.3186840778
 30
0.0
 10
13.0622759495
 20
8.2758406105
 30
0.0
 10
13.0583681461
 20
8.2332327018
 30
0.0
 10
13.0535475177
 20
8.191202785
 30
0.0
 10
13.0487719637
 20
8.156721369
 30
0.0
 10
13.0445155538
 20
8.1296862956
 30
0.0
 10
13.0411419833
 20
8.1098936825
 30
0.0
 10
13.037573477
 20
8.0904938834
 30
0.0
 10
13.0338172021
 20
8.0715258686
 30
0.0
 10
13.0298807589
 20
8.0530277639
 30
0.0
 10
13.0257720934
 20
8.0350367372
 30
0.0
 10
13.0214994939
 20
8.0175889365
 30
0.0
 10
13.0170715914
 20
8.000719399
 30
0.0
 10
13.0124973421
 20
7.9844619776
 30
0.0
 10
13.0077859901
 20
7.9688492832
 30
0.0
 10
13.0029470452
 20
7.9539126143
 30
0.0
 10
12.9979902895
 20
7.9396818704
 30
0.0
 10
12.9929257442
 20
7.9261854886
 30
0.0
 10
12.9877636291
 20
7.9134503834
 30
0.0
 10
12.982514332
 20
7.9015019103
 30
0.0
 10
12.977188386
 20
7.8903636609
 30
0.0
 10
12.9717964784
 20
7.8800577919
 30
0.0
 10
12.9671816908
 20
7.8720485942
 30
0.0
 10
12.9634571756
 20
7.8660846602
 30
0.0
 10
12.9607017644
 20
7.8619089621
 30
0.0
 10
12.9579379618
 20
7.8579559969
 30
0.0
 10
12.9551670517
 20
7.854227709
 30
0.0
 10
12.9523904019
 20
7.8507258759
 30
0.0
 10
12.9496092793
 20
7.8474522575
 30
0.0
 10
12.9468252507
 20
7.8444086277
 30
0.0
 10
12.9449296105
 20
7.8424949
 30
0.0
 10
12.9439812774
 20
7.8415788805
 30
0.0
  0
SPLINE
  5
420
100
AcDbEntity
  8
0
100
AcDbSpline
 62
7
  6
CONTINUOUS
 70
0
 71
3
 72
15
 73
11
 74
0
 42
0.0000001
 43
0.0000001
 44
0.0000000001
 40
0.0
 40
0.0
 40
0.0
 40
0.0
 40
0.107854739
 40
0.2188512337
 40
0.3340190784
 40
0.4542663637
 40
0.5803780585
 40
0.7130213983
 40
0.852750674
 40
1.0
 40
1.0
 40
1.0
 40
1.0
 10
12.9474600059
 20
7.6090632257
 30
0.0
 10
12.9491157988
 20
7.6092536037
 30
0.0
 10
12.9524567812
 20
7.6098253452
 30
0.0
 10
12.9574347314
 20
7.6112209203
 30
0.0
 10
12.9624322311
 20
7.6131615369
 30
0.0
 10
12.9674447249
 20
7.6156439176
 30
0.0
 10
12.9724689741
 20
7.6186651582
 30
0.0
 10
12.9775018266
 20
7.6222221445
 30
0.0
 10
12.9825396624
 20
7.6263115021
 30
0.0
 10
12.985811297
 20
7.6293095141
 30
0.0
 10
12.9874479422
 20
7.6308903921
 30
0.0
  0
SPLINE
  5
421
100
AcDbEntity
  8
0
100
AcDbSpline
 62
7
  6
CONTINUOUS
 70
0
 71
3
 72
23
 73
19
 74
0
 42
0.0000001
 43
0.0000001
 44
0.0000000001
 40
0.0
 40
0.0
 40
0.0
 40
0.0
 40
0.0742737376
 40
0.1440770883
 40
0.2097814406
 40
0.2718521618
 40
0.3308578319
 40
0.3874738865
 40
0.4424752183
 40
0.4967130704
 40
0.5510780507
 40
0.6064541465
 40
0.6636742696
 40
0.7234865014
 40
0.7865352926
 40
0.8533608035
 40
0.9244033106
 40
1.0
 40
1.0
 40
1.0
 40
1.0
 10
12.9185504485
 20
7.7985706379
 30
0.0
 10
12.9198080702
 20
7.7970243233
 30
0.0
 10
12.9223450372
 20
7.7941017508
 30
0.0
 10
12.9263478983
 20
7.79013514
 30
0.0
 10
12.9304227285
 20
7.7867315242
 30
0.0
 10
12.9345661927
 20
7.7838958934
 30
0.0
 10
12.9387749519
 20
7.7816331615
 30
0.0
 10
12.943044773
 20
7.779948568
 30
0.0
 10
12.9473699521
 20
7.7788469127
 30
0.0
 10
12.9517431849
 20
7.7783320707
 30
0.0
 10
12.9561559682
 20
7.7784053953
 30
0.0
 10
12.9605998251
 20
7.7790659808
 30
0.0
 10
12.9650673739
 20
7.7803105298
 30
0.0
 10
12.9695527142
 20
7.7821348175
 30
0.0
 10
12.9740512649
 20
7.7845342227
 30
0.0
 10
12.9785592369
 20
7.7875044802
 30
0.0
 10
12.9830725124
 20
7.7910410871
 30
0.0
 10
12.9859888152
 20
7.7936883838
 30
0.0
 10
12.9874479422
 20
7.7950977923
 30
0.0
  0
SPLINE
  5
422
100
AcDbEntity
  8
0
100
AcDbSpline
 62
7
  6
CONTINUOUS
 70
0
 71
3
 72
71
 73
67
 74
0
 42
0.0000001
 43
0.0000001
 44
0.0000000001
 40
0.0
 40
0.0
 40
0.0
 40
0.0
 40
0.0156372492
 40
0.0313279719
 40
0.0470702691
 40
0.0628636356
 40
0.078706085
 40
0.0945954859
 40
0.1105292303
 40
0.1265042941
 40
0.1425172939
 40
0.1585644997
 40
0.1746418769
 40
0.1907451249
 40
0.2068697161
 40
0.2230109353
 40
0.2391639203
 40
0.2553237068
 40
0.2714852727
 40
0.2876435802
 40
0.3037936187
 40
0.3199304493
 40
0.3360492495
 40
0.3521453553
 40
0.368214301
 40
0.3842518591
 40
0.400254082
 40
0.4162173382
 40
0.432138346
 40
0.4480142044
 40
0.4638424243
 40
0.479620957
 40
0.4953482151
 40
0.5110230911
 40
0.5266449716
 40
0.5422137518
 40
0.5577298409
 40
0.5731941615
 40
0.5886081454
 40
0.6039737251
 40
0.6192933216
 40
0.6345698227
 40
0.6498065569
 40
0.6650072614
 40
0.6801760495
 40
0.6953173696
 40
0.7104359593
 40
0.7255367964
 40
0.7406250465
 40
0.7557060105
 40
0.7707850676
 40
0.7858676177
 40
0.8009590222
 40
0.8160645476
 40
0.8311893103
 40
0.8463382234
 40
0.8615159446
 40
0.8767268274
 40
0.891974877
 40
0.9072637192
 40
0.9225965472
 40
0.9379761189
 40
0.953404763
 40
0.9688840052
 40
0.9844158733
 40
1.0
 40
1.0
 40
1.0
 40
1.0
 10
9.1292091692
 20
7.8390295231
 30
0.0
 10
9.1292091692
 20
7.8324205048
 30
0.0
 10
9.1295348276
 20
7.819177618
 30
0.0
 10
9.130993039
 20
7.7993296199
 30
0.0
 10
9.1334185151
 20
7.7795095842
 30
0.0
 10
9.1368051024
 20
7.7597661179
 30
0.0
 10
9.141144798
 20
7.7401463869
 30
0.0
 10
9.1464270513
 20
7.7206977539
 30
0.0
 10
9.1526390964
 20
7.701467001
 30
0.0
 10
9.1597659477
 20
7.6825004226
 30
0.0
 10
9.1677904217
 20
7.6638436724
 30
0.0
 10
9.1766932031
 20
7.6455416673
 30
0.0
 10
9.1864528188
 20
7.6276384504
 30
0.0
 10
9.1970457446
 20
7.6101771034
 30
0.0
 10
9.2084464681
 20
7.5931996501
 30
0.0
 10
9.2206275504
 20
7.5767469614
 30
0.0
 10
9.2335596708
 20
7.5608586452
 30
0.0
 10
9.2472116727
 20
7.5455729266
 30
0.0
 10
9.2615506895
 20
7.5309265938
 30
0.0
 10
9.2765422102
 20
7.5169549049
 30
0.0
 10
9.292150169
 20
7.5036915154
 30
0.0
 10
9.3083369899
 20
7.4911683495
 30
0.0
 10
9.3250637039
 20
7.479415546
 30
0.0
 10
9.3422900556
 20
7.4684614065
 30
0.0
 10
9.3599745943
 20
7.4583323271
 30
0.0
 10
9.3780747657
 20
7.4490527285
 30
0.0
 10
9.3965469928
 20
7.4406449479
 30
0.0
 10
9.4153468137
 20
7.4331292441
 30
0.0
 10
9.4344289796
 20
7.4265237424
 30
0.0
 10
9.4537475648
 20
7.4208444036
 30
0.0
 10
9.4732560597
 20
7.4161049341
 30
0.0
 10
9.4929074917
 20
7.4123167621
 30
0.0
 10
9.5126545465
 20
7.4094890488
 30
0.0
 10
9.5324496744
 20
7.4076286586
 30
0.0
 10
9.5522452021
 20
7.4067401437
 30
0.0
 10
9.5719934456
 20
7.4068256662
 30
0.0
 10
9.5916468326
 20
7.4078850575
 30
0.0
 10
9.6111580117
 20
7.409915816
 30
0.0
 10
9.6304799621
 20
7.412913121
 30
0.0
 10
9.6495661107
 20
7.4168698025
 30
0.0
 10
9.6683704539
 20
7.421776345
 30
0.0
 10
9.6868476577
 20
7.4276209646
 30
0.0
 10
9.7049531662
 20
7.4343896217
 30
0.0
 10
9.7226433025
 20
7.4420660633
 30
0.0
 10
9.7398754046
 20
7.4506317946
 30
0.0
 10
9.7566079126
 20
7.4600661773
 30
0.0
 10
9.7728004625
 20
7.4703464858
 30
0.0
 10
9.788413979
 20
7.4814479638
 30
0.0
 10
9.8034107836
 20
7.4933438597
 30
0.0
 10
9.8177547147
 20
7.5060054661
 30
0.0
 10
9.8314111754
 20
7.5194022443
 30
0.0
 10
9.844347224
 20
7.5335018849
 30
0.0
 10
9.8565316411
 20
7.5482703933
 30
0.0
 10
9.8679350578
 20
7.5636721292
 30
0.0
 10
9.8785300028
 20
7.5796699228
 30
0.0
 10
9.8882909465
 20
7.5962251799
 30
0.0
 10
9.8971943637
 20
7.613297971
 30
0.0
 10
9.9052187958
 20
7.63084712
 30
0.0
 10
9.912344959
 20
7.648830285
 30
0.0
 10
9.918555715
 20
7.6672040949
 30
0.0
 10
9.9238361374
 20
7.6859242422
 30
0.0
 10
9.9281735304
 20
7.7049456316
 30
0.0
 10
9.9315574242
 20
7.7242222848
 30
0.0
 10
9.9339799088
 20
7.7437081074
 30
0.0
 10
9.9354349223
 20
7.7633552748
 30
0.0
 10
9.935757282
 20
7.7765086552
 30
0.0
 10
9.935757282
 20
7.7830952215
 30
0.0
  0
SPLINE
  5
423
100
AcDbEntity
  8
0
100
AcDbSpline
 62
7
  6
CONTINUOUS
 70
0
 71
3
 72
18
 73
14
 74
0
 42
0.0000001
 43
0.0000001
 44
0.0000000001
 40
0.0
 40
0.0
 40
0.0
 40
0.0
 40
0.053980644
 40
0.1081920485
 40
0.1628619155
 40
0.2182116307
 40
0.3317376658
 40
0.4503906774
 40
0.5120899542
 40
0.575557219
 40
0.7082859207
 40
0.8495334632
 40
1.0
 40
1.0
 40
1.0
 40
1.0
 10
12.9107729268
 20
7.8263734445
 30
0.0
 10
12.9114481519
 20
7.826326617
 30
0.0
 10
12.9128051164
 20
7.8262786076
 30
0.0
 10
12.9148475849
 20
7.826344234
 30
0.0
 10
12.9168983457
 20
7.8265474276
 30
0.0
 10
12.9196653994
 20
7.827005168
 30
0.0
 10
12.9231590058
 20
7.8279344431
 30
0.0
 10
12.9265915619
 20
7.8292961289
 30
0.0
 10
12.9293369033
 20
7.8306437216
 30
0.0
 10
12.9321654601
 20
7.8322133851
 30
0.0
 10
12.935712661
 20
7.834531348
 30
0.0
 10
12.939912133
 20
7.8378087777
 30
0.0
 10
12.9426242927
 20
7.8402681339
 30
0.0
 10
12.9439812774
 20
7.8415788805
 30
0.0
  0
SPLINE
  5
424
100
AcDbEntity
  8
0
100
AcDbSpline
 62
7
  6
CONTINUOUS
 70
0
 71
3
 72
39
 73
35
 74
0
 42
0.0000001
 43
0.0000001
 44
0.0000000001
 40
0.0
 40
0.0
 40
0.0
 40
0.0
 40
0.0310753511
 40
0.0623079071
 40
0.0936931323
 40
0.1252222879
 40
0.1568840438
 40
0.1886642044
 40
0.2205461649
 40
0.2525112495
 40
0.2845391085
 40
0.3166081364
 40
0.3486959075
 40
0.3807796234
 40
0.4128365659
 40
0.4448445499
 40
0.4767823666
 40
0.5086302146
 40
0.540370109
 40
0.5719862657
 40
0.6034654504
 40
0.6347972851
 40
0.6659745049
 40
0.6969931576
 40
0.7278527402
 40
0.7585562639
 40
0.7891102404
 40
0.8195245852
 40
0.8498124376
 40
0.8799898966
 40
0.9100756756
 40
0.9400906817
 40
0.970057529
 40
1.0
 40
1.0
 40
1.0
 40
1.0
 10
9.1440584083
 20
7.8428727875
 30
0.0
 10
9.1440584083
 20
7.8331301207
 30
0.0
 10
9.1447851878
 20
7.8135880032
 30
0.0
 10
9.1480301129
 20
7.7843683756
 30
0.0
 10
9.1534142283
 20
7.755320327
 30
0.0
 10
9.1609077916
 20
7.7266054209
 30
0.0
 10
9.1704693012
 20
7.6983808015
 30
0.0
 10
9.182046063
 20
7.6708015295
 30
0.0
 10
9.1955743128
 20
7.6440189191
 30
0.0
 10
9.2109796171
 20
7.6181799371
 30
0.0
 10
9.2281772921
 20
7.5934263551
 30
0.0
 10
9.2470728628
 20
7.5698939986
 30
0.0
 10
9.2675625777
 20
7.5477120067
 30
0.0
 10
9.2895339722
 20
7.5270021361
 30
0.0
 10
9.3128664564
 20
7.5078780723
 30
0.0
 10
9.3374319941
 20
7.4904448316
 30
0.0
 10
9.3630957986
 20
7.4747981942
 30
0.0
 10
9.3897170606
 20
7.4610241812
 30
0.0
 10
9.4171497116
 20
7.4491985898
 30
0.0
 10
9.4452432052
 20
7.4393865611
 30
0.0
 10
9.4738433331
 20
7.4316422083
 30
0.0
 10
9.5027930701
 20
7.4260083446
 30
0.0
 10
9.5319334199
 20
7.4225162369
 30
0.0
 10
9.561104275
 20
7.4211854246
 30
0.0
 10
9.5901452842
 20
7.422023603
 30
0.0
 10
9.6188967276
 20
7.4250265267
 30
0.0
 10
9.6472003934
 20
7.4301780411
 30
0.0
 10
9.6749004486
 20
7.4374501613
 30
0.0
 10
9.7018442859
 20
7.4468031876
 30
0.0
 10
9.7278834241
 20
7.458185958
 30
0.0
 10
9.7528741516
 20
7.4715359062
 30
0.0
 10
9.7766790755
 20
7.4867800855
 30
0.0
 10
9.7991651996
 20
7.5038329648
 30
0.0
 10
9.8132001
 20
7.5163504836
 30
0.0
 10
9.8199521084
 20
7.5228723955
 30
0.0
  0
SPLINE
  5
425
100
AcDbEntity
  8
0
100
AcDbSpline
 62
7
  6
CONTINUOUS
 70
0
 71
3
 72
39
 73
35
 74
0
 42
0.0000001
 43
0.0000001
 44
0.0000000001
 40
0.0
 40
0.0
 40
0.0
 40
0.0
 40
0.0310367843
 40
0.0622264293
 40
0.0935647663
 40
0.1250437296
 40
0.1566528844
 40
0.1883791092
 40
0.2202070345
 40
0.252119327
 40
0.284097043
 40
0.3161199988
 40
0.3481671574
 40
0.3802170266
 40
0.4122480631
 40
0.4442390773
 40
0.4761696338
 40
0.5080204426
 40
0.5397737333
 40
0.5714136089
 40
0.6029263721
 40
0.6343008179
 40
0.6655284877
 40
0.6966038766
 40
0.7275245886
 40
0.7582914308
 40
0.7889084448
 40
0.8193828686
 40
0.8497250259
 40
0.8799481426
 40
0.9100680897
 40
0.9401030567
 40
0.9700731604
 40
1.0
 40
1.0
 40
1.0
 40
1.0
 10
9.1797271287
 20
7.8773261278
 30
0.0
 10
9.1797271287
 20
7.8678494501
 30
0.0
 10
9.1804146882
 20
7.8488425141
 30
0.0
 10
9.1834853202
 20
7.8204162392
 30
0.0
 10
9.1885813847
 20
7.7921440068
 30
0.0
 10
9.1956762497
 20
7.7641746316
 30
0.0
 10
9.2047327236
 20
7.7366529706
 30
0.0
 10
9.2157035709
 20
7.7097221116
 30
0.0
 10
9.2285316084
 20
7.6835218925
 30
0.0
 10
9.2431500551
 20
7.6581883869
 30
0.0
 10
9.2594828513
 20
7.6338531402
 30
0.0
 10
9.2774450748
 20
7.6106425199
 30
0.0
 10
9.2969433745
 20
7.5886770612
 30
0.0
 10
9.3178764523
 20
7.5680708501
 30
0.0
 10
9.340135583
 20
7.5489309366
 30
0.0
 10
9.3636051749
 20
7.5313567863
 30
0.0
 10
9.3881633545
 20
7.5154397575
 30
0.0
 10
9.413682596
 20
7.5012626279
 30
0.0
 10
9.4400303825
 20
7.4888991787
 30
0.0
 10
9.4670698838
 20
7.4784138105
 30
0.0
 10
9.4946606573
 20
7.4698612092
 30
0.0
 10
9.5226593663
 20
7.463286059
 30
0.0
 10
9.5509205146
 20
7.4587228089
 30
0.0
 10
9.5792971899
 20
7.4561954664
 30
0.0
 10
9.6076418227
 20
7.4557174755
 30
0.0
 10
9.6358069462
 20
7.4572916415
 30
0.0
 10
9.6636459556
 20
7.4609100991
 30
0.0
 10
9.6910138709
 20
7.4665543405
 30
0.0
 10
9.7177680789
 20
7.4741952821
 30
0.0
 10
9.7437691317
 20
7.4837934406
 30
0.0
 10
9.7688813009
 20
7.495298941
 30
0.0
 10
9.7929740039
 20
7.5086523879
 30
0.0
 10
9.8159198642
 20
7.5237829143
 30
0.0
 10
9.8303835716
 20
7.5350108706
 30
0.0
 10
9.8373797606
 20
7.5408889816
 30
0.0
  0
SPLINE
  5
426
100
AcDbEntity
  8
0
100
AcDbSpline
 62
7
  6
CONTINUOUS
 70
0
 71
3
 72
39
 73
35
 74
0
 42
0.0000001
 43
0.0000001
 44
0.0000000001
 40
0.0
 40
0.0
 40
0.0
 40
0.0
 40
0.0310753465
 40
0.0623079051
 40
0.0936931343
 40
0.1252222873
 40
0.1568840442
 40
0.1886642041
 40
0.2205461646
 40
0.2525112494
 40
0.2845391086
 40
0.3166081364
 40
0.3486959073
 40
0.3807796231
 40
0.4128365661
 40
0.4448445503
 40
0.4767823667
 40
0.5086302139
 40
0.540370108
 40
0.5719862655
 40
0.6034654513
 40
0.6347972861
 40
0.6659745048
 40
0.6969931564
 40
0.7278527389
 40
0.7585562636
 40
0.7891102411
 40
0.8195245859
 40
0.8498124376
 40
0.8799898959
 40
0.9100756748
 40
0.9400906811
 40
0.9700575287
 40
1.0
 40
1.0
 40
1.0
 40
1.0
 10
9.2287169173
 20
7.8846466326
 30
0.0
 10
9.2287169173
 20
7.8758614773
 30
0.0
 10
9.2293722682
 20
7.8582399617
 30
0.0
 10
9.2322982815
 20
7.8318920413
 30
0.0
 10
9.2371532465
 20
7.8056988367
 30
0.0
 10
9.2439103466
 20
7.7798060351
 30
0.0
 10
9.2525321512
 20
7.7543553353
 30
0.0
 10
9.2629711413
 20
7.7294865543
 30
0.0
 10
9.2751698264
 20
7.7053361379
 30
0.0
 10
9.2890610982
 20
7.6820366147
 30
0.0
 10
9.3045685902
 20
7.6597158213
 30
0.0
 10
9.3216071088
 20
7.6384962324
 30
0.0
 10
9.3400830938
 20
7.6184942907
 30
0.0
 10
9.3598951275
 20
7.5998197779
 30
0.0
 10
9.3809344858
 20
7.5825752196
 30
0.0
 10
9.403085723
 20
7.5668553233
 30
0.0
 10
9.4262272925
 20
7.5527464494
 30
0.0
 10
9.4502322193
 20
7.5403261588
 30
0.0
 10
9.4749687855
 20
7.5296627865
 30
0.0
 10
9.5003012425
 20
7.5208150688
 30
0.0
 10
9.5260905444
 20
7.5138318187
 30
0.0
 10
9.5521950998
 20
7.508751657
 30
0.0
 10
9.5784715345
 20
7.50560277
 30
0.0
 10
9.6047754748
 20
7.5044027637
 30
0.0
 10
9.6309623304
 20
7.5051585593
 30
0.0
 10
9.6568880812
 20
7.5078663396
 30
0.0
 10
9.682410063
 20
7.5125115509
 30
0.0
 10
9.7073877534
 20
7.5190689709
 30
0.0
 10
9.7316835414
 20
7.5275027982
 30
0.0
 10
9.7551635456
 20
7.5377668777
 30
0.0
 10
9.7776981849
 20
7.5498047847
 30
0.0
 10
9.7991635673
 20
7.5635507521
 30
0.0
 10
9.8194397508
 20
7.5789276741
 30
0.0
 10
9.8320953178
 20
7.5902149519
 30
0.0
 10
9.8381837231
 20
7.5960959054
 30
0.0
  0
SPLINE
  5
427
100
AcDbEntity
  8
0
100
AcDbSpline
 62
7
  6
CONTINUOUS
 70
0
 71
3
 72
39
 73
35
 74
0
 42
0.0000001
 43
0.0000001
 44
0.0000000001
 40
0.0
 40
0.0
 40
0.0
 40
0.0
 40
0.0306986927
 40
0.0615147631
 40
0.0924447744
 40
0.1234861556
 40
0.1546337127
 40
0.185881534
 40
0.2172223778
 40
0.2486479794
 40
0.2801491001
 40
0.3117156492
 40
0.3433368034
 40
0.3750011301
 40
0.4066967172
 40
0.4384113062
 40
0.4701324281
 40
0.501847541
 40
0.5335441699
 40
0.5652100448
 40
0.5968332365
 40
0.6284022899
 40
0.6599063533
 40
0.6913353033
 40
0.7226798641
 40
0.7539317205
 40
0.7850836212
 40
0.8161294719
 40
0.8470644175
 40
0.8778849116
 40
0.9085887733
 40
0.9391752284
 40
0.9696449366
 40
1.0
 40
1.0
 40
1.0
 40
1.0
 10
9.505653067
 20
8.1521464277
 30
0.0
 10
9.505653067
 20
8.1456025368
 30
0.0
 10
9.5060163586
 20
8.1324869156
 30
0.0
 10
9.5076420305
 20
8.1128387302
 30
0.0
 10
9.5103446237
 20
8.093235261
 30
0.0
 10
9.5141156194
 20
8.0737373013
 30
0.0
 10
9.5189435813
 20
8.0544040428
 30
0.0
 10
9.5248136385
 20
8.0352946075
 30
0.0
 10
9.5317078548
 20
8.016467291
 30
0.0
 10
9.5396051339
 20
7.9979795639
 30
0.0
 10
9.548481329
 20
7.9798878431
 30
0.0
 10
9.5583093071
 20
7.9622473349
 30
0.0
 10
9.5690590413
 20
7.9451118675
 30
0.0
 10
9.5806976999
 20
7.9285337277
 30
0.0
 10
9.5931897467
 20
7.9125635042
 30
0.0
 10
9.6064970476
 20
7.8972499335
 30
0.0
 10
9.6205789881
 20
7.8826397544
 30
0.0
 10
9.6353925887
 20
7.8687775589
 30
0.0
 10
9.6508926363
 20
7.8557056548
 30
0.0
 10
9.6670318293
 20
7.8434639454
 30
0.0
 10
9.6837609194
 20
7.8320898069
 30
0.0
 10
9.7010288605
 20
7.821617976
 30
0.0
 10
9.7187829626
 20
7.8120804439
 30
0.0
 10
9.7369690519
 20
7.8035063606
 30
0.0
 10
9.7555316319
 20
7.7959219416
 30
0.0
 10
9.7744140496
 20
7.7893503779
 30
0.0
 10
9.7935586735
 20
7.783811779
 30
0.0
 10
9.8129070679
 20
7.7793231095
 30
0.0
 10
9.8324001628
 20
7.7758981366
 30
0.0
 10
9.8519784579
 20
7.7735473906
 30
0.0
 10
9.8715821072
 20
7.772278118
 30
0.0
 10
9.8911514528
 20
7.7720943082
 30
0.0
 10
9.9106258976
 20
7.7729964786
 30
0.0
 10
9.9235317584
 20
7.7743228556
 30
0.0
 10
9.9299471869
 20
7.7751663447
 30
0.0
  0
SPLINE
  5
428
100
AcDbEntity
  8
0
100
AcDbSpline
 62
7
  6
CONTINUOUS
 70
0
 71
3
 72
37
 73
33
 74
0
 42
0.0000001
 43
0.0000001
 44
0.0000000001
 40
0.0
 40
0.0
 40
0.0
 40
0.0
 40
0.0306934267
 40
0.061503641
 40
0.0924269019
 40
0.1234609328
 40
0.1546005536
 40
0.1858399823
 40
0.2171721143
 40
0.2485888316
 40
0.2800810646
 40
0.3116389001
 40
0.3432517007
 40
0.3749082224
 40
0.4065967407
 40
0.4383051803
 40
0.5017117568
 40
0.565050191
 40
0.5966742315
 40
0.6282458831
 40
0.6597543542
 40
0.6911895527
 40
0.7225422028
 40
0.7538039537
 40
0.7849674807
 40
0.8160265784
 40
0.8469762451
 40
0.8778127534
 40
0.9085337061
 40
0.9391380788
 40
0.9696262476
 40
1.0
 40
1.0
 40
1.0
 40
1.0
 10
9.5353539485
 20
8.1583352779
 30
0.0
 10
9.5353539485
 20
8.152232954
 30
0.0
 10
9.5356905013
 20
8.1400024929
 30
0.0
 10
9.5371965456
 20
8.1216798185
 30
0.0
 10
9.5397003707
 20
8.1033978232
 30
0.0
 10
9.5431941417
 20
8.0852124977
 30
0.0
 10
9.5476674325
 20
8.0671782974
 30
0.0
 10
9.553106637
 20
8.0493496642
 30
0.0
 10
9.559495362
 20
8.0317802768
 30
0.0
 10
9.5668143011
 20
8.0145230628
 30
0.0
 10
9.5750413642
 20
7.997629992
 30
0.0
 10
9.5841517266
 20
7.9811519477
 30
0.0
 10
9.5941179504
 20
7.9651385261
 30
0.0
 10
9.604909884
 20
7.9496380641
 30
0.0
 10
9.6164954426
 20
7.9346968427
 30
0.0
 10
9.6329505422
 20
7.9155849854
 30
0.0
 10
9.6553185391
 20
7.8933180963
 30
0.0
 10
9.6798354707
 20
7.8734680998
 30
0.0
 10
9.7005576764
 20
7.8591876855
 30
0.0
 10
9.7165993103
 20
7.849312803
 30
0.0
 10
9.7330974617
 20
7.8403000355
 30
0.0
 10
9.7500028895
 20
7.8321761783
 30
0.0
 10
9.7672645599
 20
7.8249658397
 30
0.0
 10
9.784830516
 20
7.8186907581
 30
0.0
 10
9.8026478396
 20
7.8133699002
 30
0.0
 10
9.8206628608
 20
7.8090193562
 30
0.0
 10
9.8388212949
 20
7.8056522806
 30
0.0
 10
9.85706844
 20
7.8032788773
 30
0.0
 10
9.8753492505
 20
7.8019063542
 30
0.0
 10
9.8936088245
 20
7.8015389461
 30
0.0
 10
9.9117913651
 20
7.8021777319
 30
0.0
 10
9.9238492407
 20
7.8032754392
 30
0.0
 10
9.9298453949
 20
7.8039915754
 30
0.0
  0
SPLINE
  5
429
100
AcDbEntity
  8
0
100
AcDbSpline
 62
7
  6
CONTINUOUS
 70
0
 71
3
 72
23
 73
19
 74
0
 42
0.0000001
 43
0.0000001
 44
0.0000000001
 40
0.0
 40
0.0
 40
0.0
 40
0.0
 40
0.0615588417
 40
0.1234645896
 40
0.1856884017
 40
0.2481925051
 40
0.3109310285
 40
0.3738513825
 40
0.4368958282
 40
0.5000031402
 40
0.5631103326
 40
0.6261544212
 40
0.6890741879
 40
0.7518119152
 40
0.8143150378
 40
0.876537695
 40
0.9384421508
 40
1.0
 40
1.0
 40
1.0
 40
1.0
 10
9.6178113935
 20
8.1945760444
 30
0.0
 10
9.6187466652
 20
8.1850499347
 30
0.0
 10
9.6214563667
 20
8.1660158056
 30
0.0
 10
9.6279695504
 20
8.137852738
 30
0.0
 10
9.6368933253
 20
8.1102019921
 30
0.0
 10
9.6481578694
 20
8.0832801228
 30
0.0
 10
9.6616758834
 20
8.0572943509
 30
0.0
 10
9.6773425554
 20
8.0324455726
 30
0.0
 10
9.6950365956
 20
8.0089256108
 30
0.0
 10
9.7146212369
 20
7.9869161927
 30
0.0
 10
9.7359450759
 20
7.9665873179
 30
0.0
 10
9.7588433679
 20
7.9480960714
 30
0.0
 10
9.783139296
 20
7.9315855127
 30
0.0
 10
9.808645246
 20
7.9171833619
 30
0.0
 10
9.8351640309
 20
7.9050012198
 30
0.0
 10
9.8624916136
 20
7.8951335985
 30
0.0
 10
9.8904139682
 20
7.8876575623
 30
0.0
 10
9.9093435191
 20
7.8842961441
 30
0.0
 10
9.9188317624
 20
7.8830344849
 30
0.0
  0
SPLINE
  5
42A
100
AcDbEntity
  8
0
100
AcDbSpline
 62
4
  6
CONTINUOUS
 70
0
 71
3
 72
283
 73
279
 74
0
 42
0.0000001
 43
0.0000001
 44
0.0000000001
 40
0.0
 40
0.0
 40
0.0
 40
0.0
 40
0.015625
 40
0.03125
 40
0.0390625
 40
0.046875
 40
0.05078125
 40
0.0546875
 40
0.05859375
 40
0.060546875
 40
0.0615234375
 40
0.0625
 40
0.0634765625
 40
0.064453125
 40
0.06640625
 40
0.0703125
 40
0.07421875
 40
0.078125
 40
0.0859375
 40
0.09375
 40
0.1015625
 40
0.109375
 40
0.11328125
 40
0.1171875
 40
0.119140625
 40
0.12109375
 40
0.123046875
 40
0.1240234375
 40
0.1245117188
 40
0.125
 40
0.1254882812
 40
0.1259765625
 40
0.126953125
 40
0.12890625
 40
0.130859375
 40
0.1328125
 40
0.13671875
 40
0.140625
 40
0.1484375
 40
0.15625
 40
0.1640625
 40
0.171875
 40
0.17578125
 40
0.1796875
 40
0.181640625
 40
0.18359375
 40
0.185546875
 40
0.1865234375
 40
0.1870117188
 40
0.1875
 40
0.1879882812
 40
0.1884765625
 40
0.189453125
 40
0.19140625
 40
0.193359375
 40
0.1953125
 40
0.19921875
 40
0.203125
 40
0.2109375
 40
0.21875
 40
0.2265625
 40
0.234375
 40
0.23828125
 40
0.2421875
 40
0.244140625
 40
0.24609375
 40
0.248046875
 40
0.2490234375
 40
0.2495117188
 40
0.25
 40
0.2504882812
 40
0.2509765625
 40
0.251953125
 40
0.25390625
 40
0.255859375
 40
0.2578125
 40
0.26171875
 40
0.265625
 40
0.2734375
 40
0.28125
 40
0.2890625
 40
0.296875
 40
0.30078125
 40
0.3046875
 40
0.306640625
 40
0.30859375
 40
0.310546875
 40
0.3115234375
 40
0.3120117188
 40
0.3125
 40
0.3129882812
 40
0.3134765625
 40
0.314453125
 40
0.31640625
 40
0.318359375
 40
0.3203125
 40
0.32421875
 40
0.328125
 40
0.3359375
 40
0.34375
 40
0.3515625
 40
0.359375
 40
0.36328125
 40
0.3671875
 40
0.369140625
 40
0.37109375
 40
0.373046875
 40
0.3740234375
 40
0.3745117188
 40
0.375
 40
0.3754882812
 40
0.3759765625
 40
0.376953125
 40
0.37890625
 40
0.380859375
 40
0.3828125
 40
0.38671875
 40
0.390625
 40
0.3984375
 40
0.40625
 40
0.4140625
 40
0.421875
 40
0.42578125
 40
0.4296875
 40
0.431640625
 40
0.43359375
 40
0.435546875
 40
0.4365234375
 40
0.4370117188
 40
0.4375
 40
0.4379882812
 40
0.4384765625
 40
0.439453125
 40
0.44140625
 40
0.443359375
 40
0.4453125
 40
0.44921875
 40
0.453125
 40
0.4609375
 40
0.46875
 40
0.4765625
 40
0.484375
 40
0.48828125
 40
0.4921875
 40
0.494140625
 40
0.49609375
 40
0.498046875
 40
0.4990234375
 40
0.4995117188
 40
0.5
 40
0.5004882812
 40
0.5009765625
 40
0.501953125
 40
0.50390625
 40
0.505859375
 40
0.5078125
 40
0.51171875
 40
0.515625
 40
0.5234375
 40
0.53125
 40
0.5390625
 40
0.546875
 40
0.55078125
 40
0.5546875
 40
0.556640625
 40
0.55859375
 40
0.560546875
 40
0.5615234375
 40
0.5620117188
 40
0.5625
 40
0.5629882812
 40
0.5634765625
 40
0.564453125
 40
0.56640625
 40
0.568359375
 40
0.5703125
 40
0.57421875
 40
0.578125
 40
0.5859375
 40
0.59375
 40
0.6015625
 40
0.609375
 40
0.61328125
 40
0.6171875
 40
0.619140625
 40
0.62109375
 40
0.623046875
 40
0.6240234375
 40
0.6245117188
 40
0.625
 40
0.6254882812
 40
0.6259765625
 40
0.626953125
 40
0.62890625
 40
0.630859375
 40
0.6328125
 40
0.63671875
 40
0.640625
 40
0.6484375
 40
0.65625
 40
0.6640625
 40
0.671875
 40
0.67578125
 40
0.6796875
 40
0.681640625
 40
0.68359375
 40
0.685546875
 40
0.6865234375
 40
0.6870117188
 40
0.6875
 40
0.6879882812
 40
0.6884765625
 40
0.689453125
 40
0.69140625
 40
0.693359375
 40
0.6953125
 40
0.69921875
 40
0.703125
 40
0.7109375
 40
0.71875
 40
0.7265625
 40
0.734375
 40
0.73828125
 40
0.7421875
 40
0.74609375
 40
0.748046875
 40
0.7490234375
 40
0.75
 40
0.7509765625
 40
0.751953125
 40
0.75390625
 40
0.7578125
 40
0.76171875
 40
0.765625
 40
0.7734375
 40
0.78125
 40
0.7890625
 40
0.796875
 40
0.80078125
 40
0.8046875
 40
0.80859375
 40
0.810546875
 40
0.8115234375
 40
0.8125
 40
0.8134765625
 40
0.814453125
 40
0.81640625
 40
0.8203125
 40
0.82421875
 40
0.828125
 40
0.8359375
 40
0.84375
 40
0.8515625
 40
0.859375
 40
0.8671875
 40
0.87109375
 40
0.873046875
 40
0.875
 40
0.876953125
 40
0.87890625
 40
0.8828125
 40
0.890625
 40
0.8984375
 40
0.90625
 40
0.9140625
 40
0.921875
 40
0.9296875
 40
0.93359375
 40
0.935546875
 40
0.9375
 40
0.939453125
 40
0.94140625
 40
0.9453125
 40
0.953125
 40
0.9609375
 40
0.96875
 40
0.984375
 40
1.0
 40
1.0
 40
1.0
 40
1.0
 10
13.4155635147
 20
8.2743430434
 30
0.0
 10
13.4154811976
 20
8.2773967182
 30
0.0
 10
13.4153165602
 20
8.283504062
 30
0.0
 10
13.4151107801
 20
8.2911382702
 30
0.0
 10
13.414946121
 20
8.297245577
 30
0.0
 10
13.4148432884
 20
8.3010627791
 30
0.0
 10
13.4147608405
 20
8.3041162308
 30
0.0
 10
13.4146995025
 20
8.3064071684
 30
0.0
 10
13.4146468037
 20
8.3083135829
 30
0.0
 10
13.4146130226
 20
8.3096533719
 30
0.0
 10
13.4145888661
 20
8.3104106919
 30
0.0
 10
13.4145844196
 20
8.3110019892
 30
0.0
 10
13.4145277162
 20
8.3115041941
 30
0.0
 10
13.4144703395
 20
8.312204877
 30
0.0
 10
13.4143614375
 20
8.3134165931
 30
0.0
 10
13.4142103033
 20
8.3151551858
 30
0.0
 10
13.4140270418
 20
8.317238257
 30
0.0
 10
13.413783357
 20
8.3200168171
 30
0.0
 10
13.4134785231
 20
8.3234896285
 30
0.0
 10
13.4131128207
 20
8.3276571703
 30
0.0
 10
13.4127470897
 20
8.3318246615
 30
0.0
 10
13.4124423272
 20
8.3352975994
 30
0.0
 10
13.4121984995
 20
8.3380759065
 30
0.0
 10
13.4120461448
 20
8.3398124423
 30
0.0
 10
13.4119241753
 20
8.3412014564
 30
0.0
 10
13.4118329328
 20
8.3422438044
 30
0.0
 10
13.411756151
 20
8.3431105589
 30
0.0
 10
13.4117038684
 20
8.3437209547
 30
0.0
 10
13.4116717057
 20
8.3440640254
 30
0.0
 10
13.4116540261
 20
8.3443374612
 30
0.0
 10
13.4116117204
 20
8.3445492295
 30
0.0
 10
13.4115639027
 20
8.3448530975
 30
0.0
 10
13.4114762196
 20
8.3453748445
 30
0.0
 10
13.4113530504
 20
8.3461254369
 30
0.0
 10
13.4112043517
 20
8.3470239051
 30
0.0
 10
13.4110063996
 20
8.348222646
 30
0.0
 10
13.4107588524
 20
8.349720804
 30
0.0
 10
13.4103628367
 20
8.3521180066
 30
0.0
 10
13.4098677964
 20
8.3551144581
 30
0.0
 10
13.4092737575
 20
8.3587102238
 30
0.0
 10
13.408679714
 20
8.3623059768
 30
0.0
 10
13.4081846853
 20
8.3653024602
 30
0.0
 10
13.4077886464
 20
8.3676995989
 30
0.0
 10
13.4075411584
 20
8.3691979195
 30
0.0
 10
13.4073430847
 20
8.3703963266
 30
0.0
 10
13.4071947573
 20
8.3712958146
 30
0.0
 10
13.4070704265
 20
8.3720432164
 30
0.0
 10
13.406984817
 20
8.3725706592
 30
0.0
 10
13.4069336769
 20
8.372865401
 30
0.0
 10
13.4069015765
 20
8.373105202
 30
0.0
 10
13.4068455676
 20
8.3732733516
 30
0.0
 10
13.4067792287
 20
8.3735225438
 30
0.0
 10
13.40665925
 20
8.3739469857
 30
0.0
 10
13.4064898832
 20
8.3745594191
 30
0.0
 10
13.4062857736
 20
8.3752917334
 30
0.0
 10
13.4060139312
 20
8.3762690626
 30
0.0
 10
13.4056740241
 20
8.3774904124
 30
0.0
 10
13.405130231
 20
8.3794447464
 30
0.0
 10
13.4044504695
 20
8.3818876036
 30
0.0
 10
13.4036347647
 20
8.3848190603
 30
0.0
 10
13.402819056
 20
8.3877505011
 30
0.0
 10
13.4021393045
 20
8.3901933982
 30
0.0
 10
13.4015954915
 20
8.3921476523
 30
0.0
 10
13.4012556349
 20
8.3933692052
 30
0.0
 10
13.4009836888
 20
8.3943461177
 30
0.0
 10
13.4007798958
 20
8.3950797049
 30
0.0
 10
13.4006095385
 20
8.3956881558
 30
0.0
 10
13.4004913281
 20
8.3961197071
 30
0.0
 10
13.4004221559
 20
8.3963575082
 30
0.0
 10
13.4003748497
 20
8.3965606476
 30
0.0
 10
13.4003100636
 20
8.3966690329
 30
0.0
 10
13.4002297792
 20
8.3968465979
 30
0.0
 10
13.4000864408
 20
8.3971419376
 30
0.0
 10
13.3998831569
 20
8.3975719022
 30
0.0
 10
13.3996385805
 20
8.3980844137
 30
0.0
 10
13.3993127006
 20
8.398768966
 30
0.0
 10
13.3989052748
 20
8.3996242443
 30
0.0
 10
13.3982534359
 20
8.4009929199
 30
0.0
 10
13.3974386227
 20
8.4027036848
 30
0.0
 10
13.3964608535
 20
8.4047566392
 30
0.0
 10
13.3954830811
 20
8.4068095751
 30
0.0
 10
13.3946682756
 20
8.4085203861
 30
0.0
 10
13.3940164213
 20
8.4098889697
 30
0.0
 10
13.3936090348
 20
8.4107444818
 30
0.0
 10
13.3932830741
 20
8.4114285542
 30
0.0
 10
13.3930387448
 20
8.4119425318
 30
0.0
 10
13.3928346879
 20
8.4123679093
 30
0.0
 10
13.3926927293
 20
8.4126714378
 30
0.0
 10
13.3926102341
 20
8.4128358822
 30
0.0
 10
13.3925522391
 20
8.4129845699
 30
0.0
 10
13.3924794267
 20
8.4130363402
 30
0.0
 10
13.3923875119
 20
8.4131391733
 30
0.0
 10
13.392224253
 20
8.4133033803
 30
0.0
 10
13.391992285
 20
8.4135461965
 30
0.0
 10
13.3917133845
 20
8.4138340511
 30
0.0
 10
13.3913417053
 20
8.4142190885
 30
0.0
 10
13.390877042
 20
8.4146999636
 30
0.0
 10
13.3901336166
 20
8.4154695995
 30
0.0
 10
13.3892043225
 20
8.4164315629
 30
0.0
 10
13.3880891751
 20
8.4175859564
 30
0.0
 10
13.3869740254
 20
8.4187403307
 30
0.0
 10
13.3860447373
 20
8.4197023418
 30
0.0
 10
13.3853012999
 20
8.4204718824
 30
0.0
 10
13.3848366671
 20
8.4209529998
 30
0.0
 10
13.3844649252
 20
8.4213375399
 30
0.0
 10
13.3841862164
 20
8.4216269136
 30
0.0
 10
13.3839536488
 20
8.4218649773
 30
0.0
 10
13.3837914602
 20
8.4220376682
 30
0.0
 10
13.3836978305
 20
8.4221269079
 30
0.0
 10
13.383630286
 20
8.4222204327
 30
0.0
 10
13.3835525055
 20
8.4222122977
 30
0.0
 10
13.3834523686
 20
8.4222369111
 30
0.0
 10
13.3832754656
 20
8.422263463
 30
0.0
 10
13.3830236166
 20
8.422310032
 30
0.0
 10
13.3827210256
 20
8.4223622175
 30
0.0
 10
13.3823177009
 20
8.4224330896
 30
0.0
 10
13.3818135006
 20
8.4225212376
 30
0.0
 10
13.3810068049
 20
8.4226625216
 30
0.0
 10
13.3799984268
 20
8.4228390411
 30
0.0
 10
13.3787883768
 20
8.4230509037
 30
0.0
 10
13.3775783252
 20
8.4232627465
 30
0.0
 10
13.3765699513
 20
8.4234393156
 30
0.0
 10
13.3757632471
 20
8.4235805004
 30
0.0
 10
13.3752590686
 20
8.4236689003
 30
0.0
 10
13.374855699
 20
8.4237392553
 30
0.0
 10
13.3745532453
 20
8.4237930207
 30
0.0
 10
13.3743009669
 20
8.4238346469
 30
0.0
 10
13.3741248304
 20
8.4238700225
 30
0.0
 10
13.3740234653
 20
8.4238804981
 30
0.0
 10
13.3739494574
 20
8.4239157901
 30
0.0
 10
13.3738677438
 20
8.4238462101
 30
0.0
 10
13.3737614801
 20
8.4237900172
 30
0.0
 10
13.3735742664
 20
8.4236746362
 30
0.0
 10
13.3733074729
 20
8.4235187167
 30
0.0
 10
13.3729870405
 20
8.4233277994
 30
0.0
 10
13.3725598951
 20
8.423074575
 30
0.0
 10
13.37202593
 20
8.4227575885
 30
0.0
 10
13.3711716044
 20
8.422250665
 30
0.0
 10
13.370103691
 20
8.4216169226
 30
0.0
 10
13.3688221977
 20
8.4208564718
 30
0.0
 10
13.3675407038
 20
8.4200960015
 30
0.0
 10
13.3664727917
 20
8.4194623079
 30
0.0
 10
13.3656184636
 20
8.4189552867
 30
0.0
 10
13.3650845049
 20
8.4186385487
 30
0.0
 10
13.3646573462
 20
8.4183848142
 30
0.0
 10
13.3643369544
 20
8.4181954553
 30
0.0
 10
13.3640700338
 20
8.4180346596
 30
0.0
 10
13.363883047
 20
8.4179279835
 30
0.0
 10
13.3637764197
 20
8.4178578432
 30
0.0
 10
13.3636958231
 20
8.4178311055
 30
0.0
 10
13.36361762
 20
8.4177054888
 30
0.0
 10
13.3635125144
 20
8.41757249
 30
0.0
 10
13.3633289686
 20
8.4173236726
 30
0.0
 10
13.3630665569
 20
8.4169766204
 30
0.0
 10
13.3627517499
 20
8.4165565618
 30
0.0
 10
13.3623319768
 20
8.4159977396
 30
0.0
 10
13.3618072709
 20
8.4152987818
 30
0.0
 10
13.3609677356
 20
8.4141806899
 30
0.0
 10
13.3599183184
 20
8.4127829919
 30
0.0
 10
13.3586590169
 20
8.4111057921
 30
0.0
 10
13.3573997161
 20
8.4094285739
 30
0.0
 10
13.3563502972
 20
8.4080309218
 30
0.0
 10
13.3555107655
 20
8.406912738
 30
0.0
 10
13.3549860503
 20
8.4062140137
 30
0.0
 10
13.3545662962
 20
8.4056547123
 30
0.0
 10
13.3542514313
 20
8.4052361177
 30
0.0
 10
13.3539892007
 20
8.404884485
 30
0.0
 10
13.3538053316
 20
8.4046438446
 30
0.0
 10
13.353700744
 20
8.4044977441
 30
0.0
 10
13.3536209498
 20
8.4044123716
 30
0.0
 10
13.3535463292
 20
8.4042344836
 30
0.0
 10
13.3534450305
 20
8.40402957
 30
0.0
 10
13.3532685985
 20
8.4036559357
 30
0.0
 10
13.3530161133
 20
8.4031300332
 30
0.0
 10
13.3527133191
 20
8.4024955856
 30
0.0
 10
13.3523095279
 20
8.4016508307
 30
0.0
 10
13.3518048114
 20
8.4005944846
 30
0.0
 10
13.3509972523
 20
8.3989045558
 30
0.0
 10
13.3499878079
 20
8.3967920672
 30
0.0
 10
13.3487764724
 20
8.394257116
 30
0.0
 10
13.3475651384
 20
8.3917221482
 30
0.0
 10
13.3465556903
 20
8.3896097015
 30
0.0
 10
13.3457481386
 20
8.3879196889
 30
0.0
 10
13.3452434034
 20
8.3868635558
 30
0.0
 10
13.3448396505
 20
8.3860183636
 30
0.0
 10
13.3445367392
 20
8.3853852517
 30
0.0
 10
13.3442846207
 20
8.3848551702
 30
0.0
 10
13.344107534
 20
8.3844889962
 30
0.0
 10
13.3440072843
 20
8.3842721294
 30
0.0
 10
13.3439294416
 20
8.3841309577
 30
0.0
 10
13.343861749
 20
8.3839076848
 30
0.0
 10
13.3437679518
 20
8.3836386254
 30
0.0
 10
13.3436054562
 20
8.3831544285
 30
0.0
 10
13.3433724572
 20
8.3824696945
 30
0.0
 10
13.3430932276
 20
8.3816450279
 30
0.0
 10
13.3427207925
 20
8.3805465152
 30
0.0
 10
13.3422552927
 20
8.3791730174
 30
0.0
 10
13.3415104685
 20
8.3769756204
 30
0.0
 10
13.3405794467
 20
8.3742288053
 30
0.0
 10
13.3394622165
 20
8.3709326585
 30
0.0
 10
13.3383449886
 20
8.3676364964
 30
0.0
 10
13.3374139613
 20
8.3648897194
 30
0.0
 10
13.3366691481
 20
8.3626922462
 30
0.0
 10
13.3362036202
 20
8.361318942
 30
0.0
 10
13.335831243
 20
8.3602200319
 30
0.0
 10
13.3355518362
 20
8.3593965796
 30
0.0
 10
13.3353193916
 20
8.3587080461
 30
0.0
 10
13.3351559065
 20
8.3582306321
 30
0.0
 10
13.3350636947
 20
8.3579507049
 30
0.0
 10
13.3349911321
 20
8.3577608144
 30
0.0
 10
13.3349315804
 20
8.3574942637
 30
0.0
 10
13.3348476398
 20
8.3571656028
 30
0.0
 10
13.3347028583
 20
8.3565779876
 30
0.0
 10
13.3344949221
 20
8.3557450507
 30
0.0
 10
13.3342458719
 20
8.3547427385
 30
0.0
 10
13.3339136396
 20
8.353407296
 30
0.0
 10
13.3334984059
 20
8.3517376595
 30
0.0
 10
13.3328340001
 20
8.3490664277
 30
0.0
 10
13.3320035049
 20
8.3457273213
 30
0.0
 10
13.3310069004
 20
8.3417204334
 30
0.0
 10
13.330010318
 20
8.337713493
 30
0.0
 10
13.3291797675
 20
8.334374518
 30
0.0
 10
13.3285154726
 20
8.3317030233
 30
0.0
 10
13.3280168538
 20
8.3297002614
 30
0.0
 10
13.3276026029
 20
8.3280285605
 30
0.0
 10
13.3273101453
 20
8.3268637325
 30
0.0
 10
13.327146902
 20
8.3261897432
 30
0.0
 10
13.3270135526
 20
8.3257078389
 30
0.0
 10
13.3269219334
 20
8.3251357707
 30
0.0
 10
13.3267852184
 20
8.3244044632
 30
0.0
 10
13.3265527492
 20
8.3231100219
 30
0.0
 10
13.3262171046
 20
8.321268481
 30
0.0
 10
13.3258158489
 20
8.3190553527
 30
0.0
 10
13.3252803108
 20
8.3161056606
 30
0.0
 10
13.3246110715
 20
8.3124181505
 30
0.0
 10
13.3238079003
 20
8.3079933162
 30
0.0
 10
13.3230047722
 20
8.3035684026
 30
0.0
 10
13.322335425
 20
8.2998810906
 30
0.0
 10
13.3218001027
 20
8.2969310023
 30
0.0
 10
13.321398189
 20
8.2947190827
 30
0.0
 10
13.3210646026
 20
8.2928737603
 30
0.0
 10
13.3208284593
 20
8.2915860695
 30
0.0
 10
13.3206976312
 20
8.2908439461
 30
0.0
 10
13.3205879294
 20
8.2903051008
 30
0.0
 10
13.3205224953
 20
8.2896984166
 30
0.0
 10
13.3204198087
 20
8.2889131674
 30
0.0
 10
13.3202473016
 20
8.2875279561
 30
0.0
 10
13.3199971015
 20
8.285554847
 30
0.0
 10
13.3196984717
 20
8.2831846486
 30
0.0
 10
13.3192997341
 20
8.2800252472
 30
0.0
 10
13.3188015204
 20
8.2760756906
 30
0.0
 10
13.3182035108
 20
8.271336391
 30
0.0
 10
13.317605781
 20
8.266596906
 30
0.0
 10
13.3170070849
 20
8.2618579944
 30
0.0
 10
13.3165111592
 20
8.2579071446
 30
0.0
 10
13.3161581598
 20
8.2551449881
 30
0.0
 10
13.3159655806
 20
8.2535612457
 30
0.0
 10
13.3157954139
 20
8.2523885585
 30
0.0
 10
13.3157236088
 20
8.2511580762
 30
0.0
 10
13.3155935589
 20
8.2495375928
 30
0.0
 10
13.3153819579
 20
8.2466923539
 30
0.0
 10
13.3150713075
 20
8.2426326389
 30
0.0
 10
13.3147021307
 20
8.2377588726
 30
0.0
 10
13.3143319204
 20
8.2328856804
 30
0.0
 10
13.3139622405
 20
8.2280123
 30
0.0
 10
13.3135914722
 20
8.2231390984
 30
0.0
 10
13.3132856848
 20
8.2190776577
 30
0.0
 10
13.3130654188
 20
8.2162354938
 30
0.0
 10
13.3129492506
 20
8.2146100842
 30
0.0
 10
13.3128348061
 20
8.2133947334
 30
0.0
 10
13.3128247856
 20
8.2121652148
 30
0.0
 10
13.3127750007
 20
8.2105307985
 30
0.0
 10
13.3127048478
 20
8.2076682675
 30
0.0
 10
13.3125957569
 20
8.2035801413
 30
0.0
 10
13.3124686457
 20
8.1986738746
 30
0.0
 10
13.312297837
 20
8.1921323657
 30
0.0
 10
13.3120847844
 20
8.1839554174
 30
0.0
 10
13.3119142027
 20
8.1774138777
 30
0.0
 10
13.3118289293
 20
8.1741431055
 30
0.0
  0
SPLINE
  5
42B
100
AcDbEntity
  8
0
100
AcDbSpline
 62
4
  6
CONTINUOUS
 70
0
 71
3
 72
283
 73
279
 74
0
 42
0.0000001
 43
0.0000001
 44
0.0000000001
 40
0.0
 40
0.0
 40
0.0
 40
0.0
 40
0.015625
 40
0.03125
 40
0.0390625
 40
0.046875
 40
0.05078125
 40
0.0546875
 40
0.05859375
 40
0.060546875
 40
0.0615234375
 40
0.0625
 40
0.0634765625
 40
0.064453125
 40
0.06640625
 40
0.0703125
 40
0.07421875
 40
0.078125
 40
0.0859375
 40
0.09375
 40
0.1015625
 40
0.109375
 40
0.11328125
 40
0.1171875
 40
0.119140625
 40
0.12109375
 40
0.123046875
 40
0.1240234375
 40
0.1245117188
 40
0.125
 40
0.1254882812
 40
0.1259765625
 40
0.126953125
 40
0.12890625
 40
0.130859375
 40
0.1328125
 40
0.13671875
 40
0.140625
 40
0.1484375
 40
0.15625
 40
0.1640625
 40
0.171875
 40
0.17578125
 40
0.1796875
 40
0.181640625
 40
0.18359375
 40
0.185546875
 40
0.1865234375
 40
0.1870117188
 40
0.1875
 40
0.1879882812
 40
0.1884765625
 40
0.189453125
 40
0.19140625
 40
0.193359375
 40
0.1953125
 40
0.19921875
 40
0.203125
 40
0.2109375
 40
0.21875
 40
0.2265625
 40
0.234375
 40
0.23828125
 40
0.2421875
 40
0.244140625
 40
0.24609375
 40
0.248046875
 40
0.2490234375
 40
0.2495117188
 40
0.25
 40
0.2504882812
 40
0.2509765625
 40
0.251953125
 40
0.25390625
 40
0.255859375
 40
0.2578125
 40
0.26171875
 40
0.265625
 40
0.2734375
 40
0.28125
 40
0.2890625
 40
0.296875
 40
0.30078125
 40
0.3046875
 40
0.306640625
 40
0.30859375
 40
0.310546875
 40
0.3115234375
 40
0.3120117188
 40
0.3125
 40
0.3129882812
 40
0.3134765625
 40
0.314453125
 40
0.31640625
 40
0.318359375
 40
0.3203125
 40
0.32421875
 40
0.328125
 40
0.3359375
 40
0.34375
 40
0.3515625
 40
0.359375
 40
0.36328125
 40
0.3671875
 40
0.369140625
 40
0.37109375
 40
0.373046875
 40
0.3740234375
 40
0.3745117188
 40
0.375
 40
0.3754882812
 40
0.3759765625
 40
0.376953125
 40
0.37890625
 40
0.380859375
 40
0.3828125
 40
0.38671875
 40
0.390625
 40
0.3984375
 40
0.40625
 40
0.4140625
 40
0.421875
 40
0.42578125
 40
0.4296875
 40
0.431640625
 40
0.43359375
 40
0.435546875
 40
0.4365234375
 40
0.4370117188
 40
0.4375
 40
0.4379882812
 40
0.4384765625
 40
0.439453125
 40
0.44140625
 40
0.443359375
 40
0.4453125
 40
0.44921875
 40
0.453125
 40
0.4609375
 40
0.46875
 40
0.4765625
 40
0.484375
 40
0.48828125
 40
0.4921875
 40
0.494140625
 40
0.49609375
 40
0.498046875
 40
0.4990234375
 40
0.4995117188
 40
0.5
 40
0.5004882812
 40
0.5009765625
 40
0.501953125
 40
0.50390625
 40
0.505859375
 40
0.5078125
 40
0.51171875
 40
0.515625
 40
0.5234375
 40
0.53125
 40
0.5390625
 40
0.546875
 40
0.55078125
 40
0.5546875
 40
0.556640625
 40
0.55859375
 40
0.560546875
 40
0.5615234375
 40
0.5620117188
 40
0.5625
 40
0.5629882812
 40
0.5634765625
 40
0.564453125
 40
0.56640625
 40
0.568359375
 40
0.5703125
 40
0.57421875
 40
0.578125
 40
0.5859375
 40
0.59375
 40
0.6015625
 40
0.609375
 40
0.61328125
 40
0.6171875
 40
0.619140625
 40
0.62109375
 40
0.623046875
 40
0.6240234375
 40
0.6245117188
 40
0.625
 40
0.6254882812
 40
0.6259765625
 40
0.626953125
 40
0.62890625
 40
0.630859375
 40
0.6328125
 40
0.63671875
 40
0.640625
 40
0.6484375
 40
0.65625
 40
0.6640625
 40
0.671875
 40
0.67578125
 40
0.6796875
 40
0.681640625
 40
0.68359375
 40
0.685546875
 40
0.6865234375
 40
0.6870117188
 40
0.6875
 40
0.6879882812
 40
0.6884765625
 40
0.689453125
 40
0.69140625
 40
0.693359375
 40
0.6953125
 40
0.69921875
 40
0.703125
 40
0.7109375
 40
0.71875
 40
0.7265625
 40
0.734375
 40
0.73828125
 40
0.7421875
 40
0.74609375
 40
0.748046875
 40
0.7490234375
 40
0.75
 40
0.7509765625
 40
0.751953125
 40
0.75390625
 40
0.7578125
 40
0.76171875
 40
0.765625
 40
0.7734375
 40
0.78125
 40
0.7890625
 40
0.796875
 40
0.80078125
 40
0.8046875
 40
0.80859375
 40
0.810546875
 40
0.8115234375
 40
0.8125
 40
0.8134765625
 40
0.814453125
 40
0.81640625
 40
0.8203125
 40
0.82421875
 40
0.828125
 40
0.8359375
 40
0.84375
 40
0.8515625
 40
0.859375
 40
0.8671875
 40
0.87109375
 40
0.873046875
 40
0.875
 40
0.876953125
 40
0.87890625
 40
0.8828125
 40
0.890625
 40
0.8984375
 40
0.90625
 40
0.9140625
 40
0.921875
 40
0.9296875
 40
0.93359375
 40
0.935546875
 40
0.9375
 40
0.939453125
 40
0.94140625
 40
0.9453125
 40
0.953125
 40
0.9609375
 40
0.96875
 40
0.984375
 40
1.0
 40
1.0
 40
1.0
 40
1.0
 10
13.3118289293
 20
8.1741431224
 30
0.0
 10
13.3119112464
 20
8.1710894477
 30
0.0
 10
13.3120758838
 20
8.1649821038
 30
0.0
 10
13.3122816639
 20
8.1573478956
 30
0.0
 10
13.3124463231
 20
8.1512405888
 30
0.0
 10
13.3125491556
 20
8.1474233867
 30
0.0
 10
13.3126316035
 20
8.144369935
 30
0.0
 10
13.3126929416
 20
8.1420789975
 30
0.0
 10
13.3127456403
 20
8.1401725829
 30
0.0
 10
13.3127794215
 20
8.1388327939
 30
0.0
 10
13.3128035779
 20
8.1380754739
 30
0.0
 10
13.3128080244
 20
8.1374841766
 30
0.0
 10
13.3128647278
 20
8.1369819717
 30
0.0
 10
13.3129221045
 20
8.1362812888
 30
0.0
 10
13.3130310065
 20
8.1350695727
 30
0.0
 10
13.3131821407
 20
8.13333098
 30
0.0
 10
13.3133654022
 20
8.1312479088
 30
0.0
 10
13.313609087
 20
8.1284693487
 30
0.0
 10
13.3139139209
 20
8.1249965373
 30
0.0
 10
13.3142796233
 20
8.1208289955
 30
0.0
 10
13.3146453543
 20
8.1166615043
 30
0.0
 10
13.3149501168
 20
8.1131885664
 30
0.0
 10
13.3151939445
 20
8.1104102593
 30
0.0
 10
13.3153462992
 20
8.1086737235
 30
0.0
 10
13.3154682687
 20
8.1072847094
 30
0.0
 10
13.3155595112
 20
8.1062423614
 30
0.0
 10
13.315636293
 20
8.105375607
 30
0.0
 10
13.3156885756
 20
8.1047652111
 30
0.0
 10
13.3157207383
 20
8.1044221404
 30
0.0
 10
13.315738418
 20
8.1041487046
 30
0.0
 10
13.3157807236
 20
8.1039369363
 30
0.0
 10
13.3158285413
 20
8.1036330683
 30
0.0
 10
13.3159162244
 20
8.1031113214
 30
0.0
 10
13.3160393936
 20
8.1023607289
 30
0.0
 10
13.3161880923
 20
8.1014622607
 30
0.0
 10
13.3163860444
 20
8.1002635198
 30
0.0
 10
13.3166335916
 20
8.0987653619
 30
0.0
 10
13.3170296073
 20
8.0963681592
 30
0.0
 10
13.3175246476
 20
8.0933717077
 30
0.0
 10
13.3181186865
 20
8.089775942
 30
0.0
 10
13.31871273
 20
8.0861801891
 30
0.0
 10
13.3192077587
 20
8.0831837056
 30
0.0
 10
13.3196037976
 20
8.0807865669
 30
0.0
 10
13.3198512857
 20
8.0792882463
 30
0.0
 10
13.3200493593
 20
8.0780898392
 30
0.0
 10
13.3201976867
 20
8.0771903512
 30
0.0
 10
13.3203220175
 20
8.0764429494
 30
0.0
 10
13.320407627
 20
8.0759155066
 30
0.0
 10
13.3204587671
 20
8.0756207648
 30
0.0
 10
13.3204908675
 20
8.0753809638
 30
0.0
 10
13.3205468764
 20
8.0752128142
 30
0.0
 10
13.3206132153
 20
8.074963622
 30
0.0
 10
13.320733194
 20
8.0745391801
 30
0.0
 10
13.3209025608
 20
8.0739267467
 30
0.0
 10
13.3211066704
 20
8.0731944325
 30
0.0
 10
13.3213785128
 20
8.0722171033
 30
0.0
 10
13.3217184199
 20
8.0709957534
 30
0.0
 10
13.322262213
 20
8.0690414194
 30
0.0
 10
13.3229419745
 20
8.0665985622
 30
0.0
 10
13.3237576793
 20
8.0636671055
 30
0.0
 10
13.324573388
 20
8.0607356647
 30
0.0
 10
13.3252531396
 20
8.0582927676
 30
0.0
 10
13.3257969526
 20
8.0563385135
 30
0.0
 10
13.3261368091
 20
8.0551169606
 30
0.0
 10
13.3264087552
 20
8.0541400481
 30
0.0
 10
13.3266125482
 20
8.0534064609
 30
0.0
 10
13.3267829055
 20
8.05279801
 30
0.0
 10
13.326901116
 20
8.0523664588
 30
0.0
 10
13.3269702881
 20
8.0521286576
 30
0.0
 10
13.3270175943
 20
8.0519255183
 30
0.0
 10
13.3270823805
 20
8.0518171329
 30
0.0
 10
13.3271626648
 20
8.0516395679
 30
0.0
 10
13.3273060032
 20
8.0513442283
 30
0.0
 10
13.3275092871
 20
8.0509142636
 30
0.0
 10
13.3277538635
 20
8.0504017521
 30
0.0
 10
13.3280797434
 20
8.0497171998
 30
0.0
 10
13.3284871692
 20
8.0488619216
 30
0.0
 10
13.3291390081
 20
8.0474932459
 30
0.0
 10
13.3299538213
 20
8.045782481
 30
0.0
 10
13.3309315906
 20
8.0437295266
 30
0.0
 10
13.3319093629
 20
8.0416765907
 30
0.0
 10
13.3327241684
 20
8.0399657798
 30
0.0
 10
13.3333760227
 20
8.0385971961
 30
0.0
 10
13.3337834092
 20
8.0377416841
 30
0.0
 10
13.3341093699
 20
8.0370576116
 30
0.0
 10
13.3343536993
 20
8.036543634
 30
0.0
 10
13.3345577561
 20
8.0361182565
 30
0.0
 10
13.3346997147
 20
8.0358147281
 30
0.0
 10
13.3347822099
 20
8.0356502836
 30
0.0
 10
13.3348402049
 20
8.035501596
 30
0.0
 10
13.3349130174
 20
8.0354498256
 30
0.0
 10
13.3350049321
 20
8.0353469925
 30
0.0
 10
13.335168191
 20
8.0351827855
 30
0.0
 10
13.335400159
 20
8.0349399694
 30
0.0
 10
13.3356790596
 20
8.0346521147
 30
0.0
 10
13.3360507387
 20
8.0342670774
 30
0.0
 10
13.336515402
 20
8.0337862022
 30
0.0
 10
13.3372588274
 20
8.0330165663
 30
0.0
 10
13.3381881215
 20
8.0320546029
 30
0.0
 10
13.3393032689
 20
8.0309002095
 30
0.0
 10
13.3404184186
 20
8.0297458351
 30
0.0
 10
13.3413477067
 20
8.028783824
 30
0.0
 10
13.3420911441
 20
8.0280142834
 30
0.0
 10
13.3425557769
 20
8.027533166
 30
0.0
 10
13.3429275188
 20
8.0271486259
 30
0.0
 10
13.3432062276
 20
8.0268592523
 30
0.0
 10
13.3434387953
 20
8.0266211886
 30
0.0
 10
13.3436009838
 20
8.0264484976
 30
0.0
 10
13.3436946135
 20
8.0263592579
 30
0.0
 10
13.343762158
 20
8.0262657331
 30
0.0
 10
13.3438399385
 20
8.0262738681
 30
0.0
 10
13.3439400754
 20
8.0262492547
 30
0.0
 10
13.3441169785
 20
8.0262227028
 30
0.0
 10
13.3443688274
 20
8.0261761339
 30
0.0
 10
13.3446714184
 20
8.0261239483
 30
0.0
 10
13.3450747431
 20
8.0260530762
 30
0.0
 10
13.3455789434
 20
8.0259649282
 30
0.0
 10
13.3463856391
 20
8.0258236442
 30
0.0
 10
13.3473940172
 20
8.0256471247
 30
0.0
 10
13.3486040672
 20
8.0254352621
 30
0.0
 10
13.3498141188
 20
8.0252234194
 30
0.0
 10
13.3508224927
 20
8.0250468502
 30
0.0
 10
13.3516291969
 20
8.0249056654
 30
0.0
 10
13.3521333754
 20
8.0248172655
 30
0.0
 10
13.352536745
 20
8.0247469105
 30
0.0
 10
13.3528391988
 20
8.0246931451
 30
0.0
 10
13.3530914771
 20
8.024651519
 30
0.0
 10
13.3532676136
 20
8.0246161433
 30
0.0
 10
13.3533689787
 20
8.0246056678
 30
0.0
 10
13.3534429866
 20
8.0245703757
 30
0.0
 10
13.3535247002
 20
8.0246399558
 30
0.0
 10
13.3536309639
 20
8.0246961486
 30
0.0
 10
13.3538181776
 20
8.0248115296
 30
0.0
 10
13.3540849711
 20
8.0249674491
 30
0.0
 10
13.3544054035
 20
8.0251583665
 30
0.0
 10
13.3548325489
 20
8.0254115908
 30
0.0
 10
13.3553665141
 20
8.0257285774
 30
0.0
 10
13.3562208396
 20
8.0262355008
 30
0.0
 10
13.357288753
 20
8.0268692432
 30
0.0
 10
13.3585702464
 20
8.027629694
 30
0.0
 10
13.3598517402
 20
8.0283901644
 30
0.0
 10
13.3609196523
 20
8.0290238579
 30
0.0
 10
13.3617739804
 20
8.0295308791
 30
0.0
 10
13.3623079392
 20
8.0298476172
 30
0.0
 10
13.3627350978
 20
8.0301013516
 30
0.0
 10
13.3630554896
 20
8.0302907105
 30
0.0
 10
13.3633224102
 20
8.0304515062
 30
0.0
 10
13.363509397
 20
8.0305581823
 30
0.0
 10
13.3636160243
 20
8.0306283226
 30
0.0
 10
13.363696621
 20
8.0306550604
 30
0.0
 10
13.363774824
 20
8.030780677
 30
0.0
 10
13.3638799296
 20
8.0309136758
 30
0.0
 10
13.3640634754
 20
8.0311624933
 30
0.0
 10
13.3643258871
 20
8.0315095454
 30
0.0
 10
13.3646406941
 20
8.0319296041
 30
0.0
 10
13.3650604672
 20
8.0324884262
 30
0.0
 10
13.3655851731
 20
8.033187384
 30
0.0
 10
13.3664247085
 20
8.034305476
 30
0.0
 10
13.3674741256
 20
8.035703174
 30
0.0
 10
13.3687334271
 20
8.0373803738
 30
0.0
 10
13.3699927279
 20
8.0390575919
 30
0.0
 10
13.3710421468
 20
8.040455244
 30
0.0
 10
13.3718816785
 20
8.0415734278
 30
0.0
 10
13.3724063937
 20
8.0422721521
 30
0.0
 10
13.3728261478
 20
8.0428314535
 30
0.0
 10
13.3731410127
 20
8.0432500481
 30
0.0
 10
13.3734032433
 20
8.0436016808
 30
0.0
 10
13.3735871124
 20
8.0438423212
 30
0.0
 10
13.3736917
 20
8.0439884217
 30
0.0
 10
13.3737714942
 20
8.0440737942
 30
0.0
 10
13.3738461148
 20
8.0442516823
 30
0.0
 10
13.3739474135
 20
8.0444565959
 30
0.0
 10
13.3741238455
 20
8.0448302301
 30
0.0
 10
13.3743763307
 20
8.0453561326
 30
0.0
 10
13.3746791249
 20
8.0459905802
 30
0.0
 10
13.3750829161
 20
8.0468353351
 30
0.0
 10
13.3755876327
 20
8.0478916812
 30
0.0
 10
13.3763951917
 20
8.04958161
 30
0.0
 10
13.3774046361
 20
8.0516940987
 30
0.0
 10
13.3786159716
 20
8.0542290498
 30
0.0
 10
13.3798273056
 20
8.0567640176
 30
0.0
 10
13.3808367537
 20
8.0588764644
 30
0.0
 10
13.3816443054
 20
8.060566477
 30
0.0
 10
13.3821490406
 20
8.06162261
 30
0.0
 10
13.3825527935
 20
8.0624678022
 30
0.0
 10
13.3828557048
 20
8.0631009141
 30
0.0
 10
13.3831078234
 20
8.0636309956
 30
0.0
 10
13.38328491
 20
8.0639971696
 30
0.0
 10
13.3833851598
 20
8.0642140364
 30
0.0
 10
13.3834630024
 20
8.0643552081
 30
0.0
 10
13.383530695
 20
8.064578481
 30
0.0
 10
13.3836244922
 20
8.0648475405
 30
0.0
 10
13.3837869878
 20
8.0653317373
 30
0.0
 10
13.3840199868
 20
8.0660164713
 30
0.0
 10
13.3842992164
 20
8.0668411379
 30
0.0
 10
13.3846716516
 20
8.0679396506
 30
0.0
 10
13.3851371513
 20
8.0693131485
 30
0.0
 10
13.3858819756
 20
8.0715105454
 30
0.0
 10
13.3868129974
 20
8.0742573606
 30
0.0
 10
13.3879302275
 20
8.0775535074
 30
0.0
 10
13.3890474554
 20
8.0808496694
 30
0.0
 10
13.3899784827
 20
8.0835964464
 30
0.0
 10
13.3907232959
 20
8.0857939196
 30
0.0
 10
13.3911888239
 20
8.0871672238
 30
0.0
 10
13.391561201
 20
8.0882661339
 30
0.0
 10
13.3918406078
 20
8.0890895862
 30
0.0
 10
13.3920730525
 20
8.0897781197
 30
0.0
 10
13.3922365376
 20
8.0902555337
 30
0.0
 10
13.3923287493
 20
8.090535461
 30
0.0
 10
13.3924013119
 20
8.0907253514
 30
0.0
 10
13.3924608636
 20
8.0909919021
 30
0.0
 10
13.3925448042
 20
8.091320563
 30
0.0
 10
13.3926895857
 20
8.0919081782
 30
0.0
 10
13.3928975219
 20
8.0927411151
 30
0.0
 10
13.3931465721
 20
8.0937434273
 30
0.0
 10
13.3934788044
 20
8.0950788698
 30
0.0
 10
13.3938940382
 20
8.0967485064
 30
0.0
 10
13.3945584439
 20
8.0994197382
 30
0.0
 10
13.3953889391
 20
8.1027588445
 30
0.0
 10
13.3963855436
 20
8.1067657324
 30
0.0
 10
13.397382126
 20
8.1107726729
 30
0.0
 10
13.3982126766
 20
8.1141116478
 30
0.0
 10
13.3988769714
 20
8.1167831425
 30
0.0
 10
13.3993755902
 20
8.1187859044
 30
0.0
 10
13.3997898411
 20
8.1204576053
 30
0.0
 10
13.4000822987
 20
8.1216224333
 30
0.0
 10
13.400245542
 20
8.1222964226
 30
0.0
 10
13.4003788914
 20
8.1227783269
 30
0.0
 10
13.4004705106
 20
8.1233503951
 30
0.0
 10
13.4006072256
 20
8.1240817026
 30
0.0
 10
13.4008396948
 20
8.1253761439
 30
0.0
 10
13.4011753394
 20
8.1272176848
 30
0.0
 10
13.4015765951
 20
8.1294308132
 30
0.0
 10
13.4021121332
 20
8.1323805052
 30
0.0
 10
13.4027813725
 20
8.1360680153
 30
0.0
 10
13.4035845437
 20
8.1404928496
 30
0.0
 10
13.4043876718
 20
8.1449177632
 30
0.0
 10
13.405057019
 20
8.1486050752
 30
0.0
 10
13.4055923413
 20
8.1515551635
 30
0.0
 10
13.405994255
 20
8.1537670831
 30
0.0
 10
13.4063278414
 20
8.1556124055
 30
0.0
 10
13.4065639847
 20
8.1569000964
 30
0.0
 10
13.4066948128
 20
8.1576422197
 30
0.0
 10
13.4068045146
 20
8.158181065
 30
0.0
 10
13.4068699487
 20
8.1587877492
 30
0.0
 10
13.4069726353
 20
8.1595729984
 30
0.0
 10
13.4071451424
 20
8.1609582097
 30
0.0
 10
13.4073953426
 20
8.1629313188
 30
0.0
 10
13.4076939723
 20
8.1653015172
 30
0.0
 10
13.4080927099
 20
8.1684609186
 30
0.0
 10
13.4085909236
 20
8.1724104752
 30
0.0
 10
13.4091889333
 20
8.1771497748
 30
0.0
 10
13.409786663
 20
8.1818892598
 30
0.0
 10
13.4103853591
 20
8.1866281714
 30
0.0
 10
13.4108812848
 20
8.1905790212
 30
0.0
 10
13.4112342842
 20
8.1933411777
 30
0.0
 10
13.4114268635
 20
8.1949249202
 30
0.0
 10
13.4115970301
 20
8.1960976073
 30
0.0
 10
13.4116688352
 20
8.1973280896
 30
0.0
 10
13.4117988851
 20
8.198948573
 30
0.0
 10
13.4120104861
 20
8.201793812
 30
0.0
 10
13.4123211365
 20
8.2058535269
 30
0.0
 10
13.4126903133
 20
8.2107272932
 30
0.0
 10
13.4130605236
 20
8.2156004854
 30
0.0
 10
13.4134302035
 20
8.2204738658
 30
0.0
 10
13.4138009718
 20
8.2253470674
 30
0.0
 10
13.4141067593
 20
8.2294085081
 30
0.0
 10
13.4143270252
 20
8.232250672
 30
0.0
 10
13.4144431935
 20
8.2338760817
 30
0.0
 10
13.4145576379
 20
8.2350914324
 30
0.0
 10
13.4145676584
 20
8.236320951
 30
0.0
 10
13.4146174433
 20
8.2379553673
 30
0.0
 10
13.4146875962
 20
8.2408178983
 30
0.0
 10
13.4147966871
 20
8.2449060245
 30
0.0
 10
13.4149237983
 20
8.2498122912
 30
0.0
 10
13.415094607
 20
8.2563538001
 30
0.0
 10
13.4153076596
 20
8.2645307484
 30
0.0
 10
13.4154782413
 20
8.2710722881
 30
0.0
 10
13.4155635147
 20
8.2743430603
 30
0.0
  0
ENDSEC
  0
SECTION
  2
OBJECTS
  0
DICTIONARY
  5
C
100
AcDbDictionary
280
0
281
1
  3
ACAD_GROUP
350
D
  3
ACAD_MLINESTYLE
350
17
  3
ACAD_LAYOUT
350
1A
  3
ACAD_PLOTSETTINGS
350
19
  3
ACAD_PLOTSTYLENAME
350
E
  3
ACAD_IMAGE_DICT
350
       42D
  3
ACAD_IMAGE_VARS
350
       42E
  3
ACAD_TABLESTYLE
350
       42F
  0
IMAGEDEF_REACTOR
  5
42C
100
AcDbRasterImageDefReactor
 90
2
330
266
  0
DICTIONARY
  5
D
102
{ACAD_REACTORS
330
C
102
}
100
AcDbDictionary
280
0
281
1
  0
ACDBDICTIONARYWDFLT
  5
E
102
{ACAD_REACTORS
330
C
102
}
100
AcDbDictionary
281
1
  3
Normal
350
F
100
AcDbDictionaryWithDefault
340
F
  0
DICTIONARY
  5
42D
330
C
100
AcDbDictionary
281
1
  3
Z8Q_assy_2_img_1
350
       432
  0
RASTERVARIABLES
  5
42E
330
C
100
AcDbRasterVariables
 90
0
 70
0
 71
1
 72
5
  0
DICTIONARY
  5
17
102
{ACAD_REACTORS
330
C
102
}
100
AcDbDictionary
280
0
281
1
  3
Standard
350
18
  0
DICTIONARY
  5
42F
330
C
100
AcDbDictionary
281
1
  3
Standard
350
       433
  3
Standard1
350
       434
  0
DICTIONARY
  5
19
102
{ACAD_REACTORS
330
C
102
}
100
AcDbDictionary
281
1
  0
DICTIONARY
  5
1A
102
{ACAD_REACTORS
330
C
102
}
100
AcDbDictionary
281
1
  3
Model
350
430
  3
Layout1
350
431
  0
ACDBPLACEHOLDER
  5
F
102
{ACAD_REACTORS
330
E
102
}
  0
MLINESTYLE
  5
18
102
{ACAD_REACTORS
330
17
102
}
100
AcDbMlineStyle
  2
STANDARD
 70
0
  3

 62
256
 51
90.0
 52
90.0
 71
2
 49
0.5
 62
256
  6
BYLAYER
 49
-0.5
 62
256
  6
BYLAYER
  0
LAYOUT
  5
430
102
{ACAD_REACTORS
330
1A
102
}
100
AcDbPlotSettings
  1

  2
none_device
  4
ANSI_C_(22.00_x_17.00_Inches)
  6

 40
0.0
 41
0.0
 42
0.0
 43
0.0
 44
558.8
 45
431.8
 46
0.0
 47
0.0
 48
0.0
 49
0.0
140
0.0
141
0.0
142
1.0
143
1.0
 70
1024
 72
0
 73
0
 74
0
  7

 75
0
147
1.0
148
0.0
149
0.0
100
AcDbLayout
  1
Model
 70
0
 71
0
 10
0.0
 20
0.0
 11
22.0
 21
17.0
 12
0.0
 22
0.0
 32
0.0
 14
0.0
 24
0.0
 34
0.0
 15
0.0
 25
0.0
 35
0.0
146
0.0
 13
0.0
 23
0.0
 33
0.0
 16
1.0
 26
0.0
 36
0.0
 17
0.0
 27
1.0
 37
0.0
 76
0
330
204
345
0
346
0
  0
LAYOUT
  5
431
102
{ACAD_REACTORS
330
1A
102
}
100
AcDbPlotSettings
  1

  2
none_device
  4
ANSI_C_(22.00_x_17.00_Inches)
  6

 40
0.0
 41
0.0
 42
0.0
 43
0.0
 44
558.8
 45
431.8
 46
0.0
 47
0.0
 48
0.0
 49
0.0
140
0.0
141
0.0
142
1.0
143
1.0
 70
0
 72
0
 73
0
 74
0
  7

 75
0
147
1.0
148
0.0
149
0.0
100
AcDbLayout
  1
Layout1
 70
0
 71
1
 10
0.0
 20
0.0
 11
22.0
 21
17.0
 12
0.0
 22
0.0
 32
0.0
 14
0.0
 24
0.0
 34
0.0
 15
0.0
 25
0.0
 35
0.0
146
0.0
 13
0.0
 23
0.0
 33
0.0
 16
1.0
 26
0.0
 36
0.0
 17
0.0
 27
1.0
 37
0.0
 76
0
330
205
345
0
346
0
  0
IMAGEDEF
  5
432
102
{ACAD_REACTORS
330
42D
330
42C
102
}
100
AcDbRasterImageDef
 90
0
  1
Z8Q_assy_2_img_1.png
 10
369.0
 20
92.0
 11
0.0066666667
 21
0.0066666667
280
1
281
0
  0
TABLESTYLE
  5
433
102
{ACAD_REACTORS
330
42F
330
269
102
}
330
42F
100
AcDbTableStyle
  3
Standard
 70
0
 71
0
 40
0.06
 41
0.06
280
1
281
1
  7
Standard
140
0.18
170
1
 62
0
 63
7
283
0
  7
Standard
140
0.18
170
1
 62
0
 63
7
283
0
  7
Standard
140
0.18
170
1
 62
0
 63
7
283
0
  0
TABLESTYLE
  5
434
102
{ACAD_REACTORS
330
42F
330
268
102
}
330
42F
100
AcDbTableStyle
  3
Standard1
 70
1
 71
0
 40
0.06
 41
0.06
280
1
281
1
  7
Standard
140
0.18
170
1
 62
0
 63
7
283
0
  7
Standard
140
0.18
170
1
 62
0
 63
7
283
0
  7
Standard
140
0.18
170
1
 62
0
 63
7
283
0
  0
ENDSEC
  0
EOF
