999
DXF file: Z8L_assy_2.dxf
999
Pro/ENGINEER 2014200 by Parametric Technology Corporation
  0
SECTION
  2
HEADER
  9
$ACADVER
  1
AC1021
  9
$DWGCODEPAGE
  3
ANSI_1252
  9
$EXTMAX
 10
22.0
 20
17.0
 30
0.0
  9
$EXTMIN
 10
0.0
 20
0.0
 30
0.0
  9
$LIMMIN
 10
0.0
 20
0.0
  9
$LIMMAX
 10
22.0
 20
17.0
  9
$VIEWCTR
 10
11.0
 20
8.5
  9
$VIEWSIZE
 40
17.0
  9
$CLAYER
  8
0
  9
$LTSCALE
 40
1.21
  9
$CELTYPE
  6
BYLAYER
  9
$DIMSCALE
 40
1.0
  9
$DIMASZ
 40
0.1875
  9
$DIMEXO
 40
0.0625
  9
$DIMDLI
 40
0.836
  9
$DIMEXE
 40
0.125
  9
$DIMCEN
 40
0.198
  9
$DIMLFAC
 40
1.0
  9
$DIMBLK
  1
_FILLED
  9
$DIMTXT
 40
0.1
  9
$DIMTOL
 70
0
  9
$DIMLIM
 70
0
  9
$DIMTFAC
 40
1.0
  9
$DIMGAP
 40
0.09
  9
$DIMDSEP
 70
46
  9
$AUNITS
 70
0
  9
$PDMODE
 70
3
  9
$PDSIZE
 40
0.3125
  9
$HANDSEED
  5
42D
  9
$TILEMODE
 70
1
  9
$MEASUREMENT
 70
0
  9
$INSUNITS
 70
1
  0
ENDSEC
  0
SECTION
  2
CLASSES
  0
CLASS
  1
ACDBDICTIONARYWDFLT
  2
AcDbDictionaryWithDefault
  3
AutoCAD 2000
 90
0
 91
1
280
0
281
0
  0
CLASS
  1
ACDBPLACEHOLDER
  2
AcDbPlaceHolder
  3
AutoCAD 2000
 90
0
 91
1
280
0
281
0
  0
CLASS
  1
LAYOUT
  2
AcDbLayout
  3
AutoCAD 2000
 90
0
 91
0
280
0
281
0
  0
CLASS
  1
RASTERVARIABLES
  2
AcDbRasterVariables
  3
ISM
 90
0
 91
1
280
0
281
0
  0
CLASS
  1
IMAGEDEF
  2
AcDbRasterImageDef
  3
ISM
 90
0
 91
1
280
0
281
0
  0
CLASS
  1
IMAGEDEF_REACTOR
  2
AcDbRasterImageDefReactor
  3
ISM
 90
0
 91
1
280
0
281
0
  0
CLASS
  1
IMAGE
  2
AcDbRasterImage
  3
ISM
 90
127
 91
1
280
0
281
1
  0
CLASS
  1
TABLESTYLE
  2
AcDbTableStyle
  3
ObjectDBX Classes
 90
2047
 91
1
280
0
281
0
  0
CLASS
  1
ACAD_TABLE
  2
AcDbTable
  3
ObjectDBX Classes
 90
1025
 91
3
280
0
281
1
  0
ENDSEC
  0
SECTION
  2
TABLES
  0
TABLE
  2
VPORT
  5
8
100
AcDbSymbolTable
 70
2
  0
VPORT
  5
1F4
100
AcDbSymbolTableRecord
100
AcDbViewportTableRecord
  2
*ACTIVE
 70
0
 10
0.0
 20
0.0
 11
1.0
 21
1.0
 12
11.0
 22
8.5
 13
0.0
 23
0.0
 14
1.0
 24
1.0
 15
0.0
 25
0.0
 16
0.0
 26
0.0
 36
1.0
 17
0.0
 27
0.0
 37
0.0
 40
17.0
 41
1.2941176471
 42
50.0
 43
0.0
 44
0.0
 50
0.0
 51
0.0
 71
0
 72
100
 73
1
 74
1
 75
0
 76
0
 77
0
 78
0
  0
ENDTAB
  0
TABLE
  2
LTYPE
  5
5
100
AcDbSymbolTable
 70
6
  0
LTYPE
  5
14
100
AcDbSymbolTableRecord
100
AcDbLinetypeTableRecord
  2
BYBLOCK
 70
0
  3

 72
65
 73
0
 40
0.0
  0
LTYPE
  5
15
100
AcDbSymbolTableRecord
100
AcDbLinetypeTableRecord
  2
BYLAYER
 70
0
  3

 72
65
 73
0
 40
0.0
  0
LTYPE
  5
16
100
AcDbSymbolTableRecord
100
AcDbLinetypeTableRecord
  2
CONTINUOUS
 70
64
  3
Solid line
 72
65
 73
0
 40
0.0
  0
LTYPE
  5
1F5
100
AcDbSymbolTableRecord
100
AcDbLinetypeTableRecord
  2
CENTER
 70
64
  3
____ _ ____ _ ____ _ ____ _ ____ _ ____ _ ____
 72
65
 73
4
 40
0.6
 49
0.375
 74
0
 49
-0.075
 74
0
 49
0.075
 74
0
 49
-0.075
 74
0
  0
LTYPE
  5
1F6
100
AcDbSymbolTableRecord
100
AcDbLinetypeTableRecord
  2
HIDDEN
 70
64
  3
- - - - - - - - - - - - - - - - - - - -
 72
65
 73
2
 40
0.2
 49
0.1
 74
0
 49
-0.1
 74
0
  0
LTYPE
  5
1F7
100
AcDbSymbolTableRecord
100
AcDbLinetypeTableRecord
  2
PHANTOM
 70
64
  3
_____ _ _ _____ _ _ _____ _ _ _____
 72
65
 73
6
 40
0.8
 49
0.45
 74
0
 49
-0.05
 74
0
 49
0.1
 74
0
 49
-0.05
 74
0
 49
0.1
 74
0
 49
-0.05
 74
0
  0
LTYPE
  5
1F8
100
AcDbSymbolTableRecord
100
AcDbLinetypeTableRecord
  2
DOT
 70
64
  3
. . . . . . . . . . . . . . . . . . . .
 72
65
 73
2
 40
0.2
 49
0.1
 74
0
 49
-0.1
 74
0
  0
LTYPE
  5
1F9
100
AcDbSymbolTableRecord
100
AcDbLinetypeTableRecord
  2
DASHED
 70
64
  3
- - - - - - - - - - - - - - - - - - - -
 72
65
 73
2
 40
0.2
 49
0.1
 74
0
 49
-0.1
 74
0
  0
ENDTAB
  0
TABLE
  2
LAYER
  5
2
100
AcDbSymbolTable
 70
36
  0
LAYER
  5
10
100
AcDbSymbolTableRecord
100
AcDbLayerTableRecord
  2
0
 70
0
 62
7
  6
CONTINUOUS
370
-3
390
F
  0
LAYER
  5
1FA
100
AcDbSymbolTableRecord
100
AcDbLayerTableRecord
  2
DEFAULT_1
 70
0
 62
7
  6
CENTER
370
-3
390
F
  0
LAYER
  5
1FB
100
AcDbSymbolTableRecord
100
AcDbLayerTableRecord
  2
DEFAULT_2
 70
0
 62
8
  6
HIDDEN
370
-3
390
F
  0
LAYER
  5
1FC
100
AcDbSymbolTableRecord
100
AcDbLayerTableRecord
  2
DEFAULT_3
 70
0
 62
7
  6
PHANTOM
370
-3
390
F
  0
LAYER
  5
1FD
100
AcDbSymbolTableRecord
100
AcDbLayerTableRecord
  2
DATUM_PLANES
 70
0
 62
7
  6
CONTINUOUS
370
-3
390
F
  0
LAYER
  5
1FE
100
AcDbSymbolTableRecord
100
AcDbLayerTableRecord
  2
PORT_AREAS
 70
0
 62
7
  6
CONTINUOUS
370
-3
390
F
  0
LAYER
  5
1FF
100
AcDbSymbolTableRecord
100
AcDbLayerTableRecord
  2
SUNNBOMCOSMETIC
 70
0
 62
7
  6
CONTINUOUS
370
-3
390
F
  0
LAYER
  5
200
100
AcDbSymbolTableRecord
100
AcDbLayerTableRecord
  2
SUNNBOMSTAMPING
 70
0
 62
7
  6
CONTINUOUS
370
-3
390
F
  0
LAYER
  5
201
100
AcDbSymbolTableRecord
100
AcDbLayerTableRecord
  2
THREADS
 70
0
 62
7
  6
CONTINUOUS
370
-3
390
F
  0
ENDTAB
  0
TABLE
  2
STYLE
  5
3
100
AcDbSymbolTable
 70
1
  0
STYLE
  5
11
100
AcDbSymbolTableRecord
100
AcDbTextStyleTableRecord
  2
STANDARD
 70
0
 40
0.0
 41
0.8
 50
0.0
 71
0
 42
0.2
  3
txt
  4

  0
STYLE
  5
202
100
AcDbSymbolTableRecord
100
AcDbTextStyleTableRecord
  2
TEXTSTYLE_1
 70
0
 40
0.0
 41
0.8
 50
0.0
 71
0
 42
0.2
  3
gdt
  4

  0
ENDTAB
  0
TABLE
  2
VIEW
  5
6
100
AcDbSymbolTable
 70
0
  0
ENDTAB
  0
TABLE
  2
UCS
  5
7
100
AcDbSymbolTable
 70
0
  0
ENDTAB
  0
TABLE
  2
APPID
  5
9
100
AcDbSymbolTable
 70
1
  0
APPID
  5
203
100
AcDbSymbolTableRecord
100
AcDbRegAppTableRecord
  2
ACAD
 70
0
  0
ENDTAB
  0
TABLE
  2
BLOCK_RECORD
  5
1
100
AcDbSymbolTable
 70
0
  0
BLOCK_RECORD
  5
204
100
AcDbSymbolTableRecord
100
AcDbBlockTableRecord
  2
*Model_Space
  0
BLOCK_RECORD
  5
205
100
AcDbSymbolTableRecord
100
AcDbBlockTableRecord
  2
*Paper_Space
  0
BLOCK_RECORD
  5
206
100
AcDbSymbolTableRecord
100
AcDbBlockTableRecord
  2
SUN_FIRST_THIRD_ANGLE_BL0
  0
BLOCK_RECORD
  5
207
100
AcDbSymbolTableRecord
100
AcDbBlockTableRecord
  2
*T1
  0
BLOCK_RECORD
  5
208
100
AcDbSymbolTableRecord
100
AcDbBlockTableRecord
  2
*T2
  0
BLOCK_RECORD
  5
209
100
AcDbSymbolTableRecord
100
AcDbBlockTableRecord
  2
*T3
  0
ENDTAB
  0
TABLE
  2
DIMSTYLE
  5
A
100
AcDbSymbolTable
 70
1
100
AcDbDimStyleTable
 71
0
  0
DIMSTYLE
105
20A
100
AcDbSymbolTableRecord
100
AcDbDimStyleTableRecord
  2
STANDARD
 70
0
  3

  4

 40
1.0
 41
0.1875
 42
0.0625
 43
0.38
 44
0.125
 45
0.0
 46
0.0
 47
0.001
 48
0.001
140
0.1
141
0.09
142
0.0
143
25.4
144
1.0
145
0.0
146
1.0
147
0.09
 71
0.0
 72
0.0
 73
1
 74
1
 75
0
 76
0
 77
0
 78
4
170
0
171
2
172
0
173
0
174
0
175
0
176
0
177
0
178
0
270
2
271
3
272
3
273
2
274
2
275
0
280
0
281
0
282
0
283
1
284
4
285
0
286
0
287
3
288
0
340
11
278
46
  0
ENDTAB
  0
ENDSEC
  0
SECTION
  2
BLOCKS
  0
BLOCK
  5
20
100
AcDbEntity
  8
0
100
AcDbBlockBegin
  2
*Model_Space
 70
0
 10
0.0
 20
0.0
 30
0.0
  3
*Model_Space
  1

  0
ENDBLK
  5
21
100
AcDbEntity
  8
0
100
AcDbBlockEnd
  0
BLOCK
  5
1C
100
AcDbEntity
  8
0
100
AcDbBlockBegin
  2
*Paper_Space
 70
0
 10
0.0
 20
0.0
 30
0.0
  3
*Paper_Space
  1

  0
ENDBLK
  5
1D
100
AcDbEntity
  8
0
100
AcDbBlockEnd
  0
BLOCK
  5
20B
100
AcDbEntity
  8
0
100
AcDbBlockBegin
 62
2
  6
CONTINUOUS
  2
SUN_FIRST_THIRD_ANGLE_BL0
 70
64
 10
20.4816717061
 20
1.2289683772
  3
SUN_FIRST_THIRD_ANGLE_BL0
  1

  0
TEXT
  5
20C
100
AcDbEntity
  8
0
100
AcDbText
 62
2
  6
CONTINUOUS
 10
19.4750896608
 20
1.4136269581
  7
STANDARD
 40
0.08
  1
FIRST ANGLE
 41
0.8
 72
0
100
AcDbText
  0
TEXT
  5
20D
100
AcDbEntity
  8
0
100
AcDbText
 62
2
  6
CONTINUOUS
 10
20.7842537513
 20
1.4047600029
  7
STANDARD
 40
0.08
  1
THIRD ANGLE
 41
0.8
 72
0
100
AcDbText
  0
LINE
  5
20E
100
AcDbEntity
  8
0
100
AcDbLine
 62
7
  6
CONTINUOUS
 10
19.4767170086
 20
1.1727031207
 11
19.6334271527
 21
1.1717972817
  0
LINE
  5
20F
100
AcDbEntity
  8
0
100
AcDbLine
 62
7
  6
CONTINUOUS
 10
19.6596964832
 20
1.1717972817
 11
19.6950230232
 21
1.171593082
  0
LINE
  5
210
100
AcDbEntity
  8
0
100
AcDbLine
 62
7
  6
CONTINUOUS
 10
19.7194818561
 20
1.1708914427
 11
19.8852396156
 21
1.1699333054
  0
LINE
  5
211
100
AcDbEntity
  8
0
100
AcDbLine
 62
7
  6
CONTINUOUS
 10
19.4758111696
 20
1.2723454088
 11
19.88525039
 21
1.3511534004
  0
LINE
  5
212
100
AcDbEntity
  8
0
100
AcDbLine
 62
7
  6
CONTINUOUS
 10
19.88525039
 20
1.3511534004
 11
19.8831348489
 21
0.9851647912
  0
LINE
  5
213
100
AcDbEntity
  8
0
100
AcDbLine
 62
7
  6
CONTINUOUS
 10
19.8831348489
 20
0.9851647912
 11
19.4767170086
 21
1.0658141206
  0
LINE
  5
214
100
AcDbEntity
  8
0
100
AcDbLine
 62
7
  6
CONTINUOUS
 10
19.4767170086
 20
1.0658141206
 11
19.4779056764
 21
1.2714536432
  0
CIRCLE
  5
215
100
AcDbEntity
  8
0
100
AcDbCircle
 62
7
  6
CONTINUOUS
 10
20.2068232291
 20
1.1717972817
 40
0.175742101
  0
CIRCLE
  5
216
100
AcDbEntity
  8
0
100
AcDbCircle
 62
7
  6
CONTINUOUS
 10
20.2068232291
 20
1.1717972817
 40
0.1005522074
  0
LINE
  5
217
100
AcDbEntity
  8
0
100
AcDbLine
 62
7
  6
CONTINUOUS
 10
20.2077290681
 20
1.3756110529
 11
20.2071171714
 21
1.2379342989
  0
LINE
  5
218
100
AcDbEntity
  8
0
100
AcDbLine
 62
7
  6
CONTINUOUS
 10
20.2077290681
 20
1.2016899681
 11
20.2074674401
 21
1.1428236749
  0
LINE
  5
219
100
AcDbEntity
  8
0
100
AcDbLine
 62
7
  6
CONTINUOUS
 10
20.208634907
 20
1.101141841
 11
20.2080230104
 21
0.963465087
  0
LINE
  5
21A
100
AcDbEntity
  8
0
100
AcDbLine
 62
7
  6
CONTINUOUS
 10
20.0066328138
 20
1.1745147986
 11
20.1443095678
 21
1.1739029019
  0
LINE
  5
21B
100
AcDbEntity
  8
0
100
AcDbLine
 62
7
  6
CONTINUOUS
 10
20.1832714155
 20
1.1727031207
 11
20.238153505
 21
1.172335442
  0
LINE
  5
21C
100
AcDbEntity
  8
0
100
AcDbLine
 62
7
  6
CONTINUOUS
 10
20.2756669918
 20
1.1717972817
 11
20.407916871
 21
1.1712095044
  0
CIRCLE
  5
21D
100
AcDbEntity
  8
0
100
AcDbCircle
 62
7
  6
CONTINUOUS
 10
20.7509457401
 20
1.1693297793
 40
0.1722024983
  0
CIRCLE
  5
21E
100
AcDbEntity
  8
0
100
AcDbCircle
 62
7
  6
CONTINUOUS
 10
20.7509457401
 20
1.1693297793
 40
0.0985164967
  0
LINE
  5
21F
100
AcDbEntity
  8
0
100
AcDbLine
 62
7
  6
CONTINUOUS
 10
20.7169767782
 20
1.170462078
 11
20.7825395137
 21
1.1682766535
  0
LINE
  5
220
100
AcDbEntity
  8
0
100
AcDbLine
 62
7
  6
CONTINUOUS
 10
20.8177513651
 20
1.1693297793
 11
20.947965719
 21
1.1693297793
  0
LINE
  5
221
100
AcDbEntity
  8
0
100
AcDbLine
 62
7
  6
CONTINUOUS
 10
20.6875370113
 20
1.170462078
 11
20.5573226574
 21
1.170462078
  0
LINE
  5
222
100
AcDbEntity
  8
0
100
AcDbLine
 62
7
  6
CONTINUOUS
 10
20.7486811426
 20
1.1987695462
 11
20.7486811426
 21
1.1432869085
  0
LINE
  5
223
100
AcDbEntity
  8
0
100
AcDbLine
 62
7
  6
CONTINUOUS
 10
20.7498134414
 20
1.1059210505
 11
20.7498134414
 21
0.9757066966
  0
LINE
  5
224
100
AcDbEntity
  8
0
100
AcDbLine
 62
7
  6
CONTINUOUS
 10
20.7486811426
 20
1.2338708068
 11
20.7486811426
 21
1.3640851607
  0
LINE
  5
225
100
AcDbEntity
  8
0
100
AcDbLine
 62
7
  6
CONTINUOUS
 10
21.0702539817
 20
1.2701043662
 11
21.4790138229
 21
1.3448360823
  0
LINE
  5
226
100
AcDbEntity
  8
0
100
AcDbLine
 62
7
  6
CONTINUOUS
 10
21.4790138229
 20
1.3448360823
 11
21.4790138229
 21
0.9779712941
  0
LINE
  5
227
100
AcDbEntity
  8
0
100
AcDbLine
 62
7
  6
CONTINUOUS
 10
21.4790138229
 20
0.9779712941
 11
21.069121683
 21
1.0617614
  0
LINE
  5
228
100
AcDbEntity
  8
0
100
AcDbLine
 62
7
  6
CONTINUOUS
 10
21.0702539817
 20
1.2701043662
 11
21.069121683
 21
1.0617614
  0
LINE
  5
229
100
AcDbEntity
  8
0
100
AcDbLine
 62
7
  6
CONTINUOUS
 10
21.4790138229
 20
1.1693297793
 11
21.3159628059
 21
1.1693297793
  0
LINE
  5
22A
100
AcDbEntity
  8
0
100
AcDbLine
 62
7
  6
CONTINUOUS
 10
21.2876553377
 20
1.1693297793
 11
21.2502894796
 21
1.1693297793
  0
LINE
  5
22B
100
AcDbEntity
  8
0
100
AcDbLine
 62
7
  6
CONTINUOUS
 10
21.2208497126
 20
1.1659328831
 11
21.0713862804
 21
1.1659328831
  0
LINE
  5
22C
100
AcDbEntity
  8
0
100
AcDbLine
 62
7
  6
CONTINUOUS
 10
20.4796138713
 20
1.5284908897
 11
20.4766766948
 21
0.9294458646
  0
ENDBLK
  5
22D
100
AcDbEntity
  8
0
  6
BYBLOCK
 62
0
100
AcDbBlockEnd
  0
BLOCK
  5
22E
100
AcDbEntity
  8
0
100
AcDbBlockBegin
  2
*T1
 70
1
 10
0.0
 20
0.0
  3
*T1
  1

  0
LINE
  5
22F
100
AcDbEntity
  8
0
100
AcDbLine
 62
2
  6
CONTINUOUS
 10
9.275
 20
0.0
 11
-0.0
 21
0.0
  0
LINE
  5
230
100
AcDbEntity
  8
0
100
AcDbLine
 62
2
  6
CONTINUOUS
 10
9.275
 20
0.0
 11
9.275
 21
1.25
  0
LINE
  5
231
100
AcDbEntity
  8
0
100
AcDbLine
 62
2
  6
CONTINUOUS
 10
9.275
 20
0.625
 11
-0.0
 21
0.625
  0
LINE
  5
232
100
AcDbEntity
  8
0
100
AcDbLine
 62
2
  6
CONTINUOUS
 10
9.275
 20
1.25
 11
-0.0
 21
1.25
  0
LINE
  5
233
100
AcDbEntity
  8
0
100
AcDbLine
 62
2
  6
CONTINUOUS
 10
6.8
 20
0.0
 11
6.8
 21
1.25
  0
LINE
  5
234
100
AcDbEntity
  8
0
100
AcDbLine
 62
2
  6
CONTINUOUS
 10
6.4
 20
0.0
 11
6.4
 21
0.625
  0
LINE
  5
235
100
AcDbEntity
  8
0
100
AcDbLine
 62
2
  6
CONTINUOUS
 10
5.9
 20
0.0
 11
5.9
 21
0.625
  0
LINE
  5
236
100
AcDbEntity
  8
0
100
AcDbLine
 62
2
  6
CONTINUOUS
 10
5.2
 20
0.0
 11
5.2
 21
0.625
  0
LINE
  5
237
100
AcDbEntity
  8
0
100
AcDbLine
 62
2
  6
CONTINUOUS
 10
4.1
 20
0.0
 11
4.1
 21
1.25
  0
LINE
  5
238
100
AcDbEntity
  8
0
100
AcDbLine
 62
2
  6
CONTINUOUS
 10
-0.0
 20
0.0
 11
-0.0
 21
1.25
  0
MTEXT
  5
239
100
AcDbEntity
  8
0
100
AcDbMText
 62
2
  6
CONTINUOUS
  7
STANDARD
 71
2
 72
1
 10
6.6
 20
0.325
 30
0.0
 11
1.0
 21
0.0
 31
0.0
 44
0.9
  1
2
 40
0.125
 41
0.2
  0
MTEXT
  5
23A
100
AcDbEntity
  8
0
100
AcDbMText
 62
2
  6
CONTINUOUS
  7
STANDARD
 71
2
 72
1
 10
6.15
 20
0.325
 30
0.0
 11
1.0
 21
0.0
 31
0.0
 44
0.9
  1
C
 40
0.125
 41
0.2
  0
MTEXT
  5
23B
100
AcDbEntity
  8
0
100
AcDbMText
 62
2
  6
CONTINUOUS
  7
STANDARD
 71
2
 72
1
 10
5.55
 20
0.325
 30
0.0
 11
1.0
 21
0.0
 31
0.0
 44
0.9
  1
1.000
 40
0.125
 41
1.0
  0
MTEXT
  5
23C
100
AcDbEntity
  8
0
100
AcDbMText
 62
2
  6
CONTINUOUS
  7
STANDARD
 71
2
 72
1
 10
4.65
 20
0.325
 30
0.0
 11
1.0
 21
0.0
 31
0.0
 44
0.9
  1
Aug-31-22
 40
0.125
 41
1.8
  0
MTEXT
  5
23D
100
AcDbEntity
  8
0
100
AcDbMText
 62
2
  6
CONTINUOUS
  7
STANDARD
 71
2
 72
1
 10
2.05
 20
0.4625
 30
0.0
 11
1.0
 21
0.0
 31
0.0
 44
0.9
  1
T-10A Motor mount Staffa 4", 5 piston\PCross port with make up checks
 40
0.125
 41
7.4
  0
MTEXT
  5
23E
100
AcDbEntity
  8
0
100
AcDbMText
 62
2
  6
CONTINUOUS
  7
STANDARD
 71
1
 72
1
 10
6.45
 20
0.5625
 30
0.0
 11
1.0
 21
0.0
 31
0.0
 44
0.9
  1
SHEET
 40
0.06
 41
0.48
  0
MTEXT
  5
23F
100
AcDbEntity
  8
0
100
AcDbMText
 62
2
  6
CONTINUOUS
  7
STANDARD
 71
1
 72
1
 10
5.95
 20
0.5625
 30
0.0
 11
1.0
 21
0.0
 31
0.0
 44
0.9
  1
DWG SIZE
 40
0.06
 41
0.768
  0
MTEXT
  5
240
100
AcDbEntity
  8
0
100
AcDbMText
 62
2
  6
CONTINUOUS
  7
STANDARD
 71
1
 72
1
 10
5.25
 20
0.5625
 30
0.0
 11
1.0
 21
0.0
 31
0.0
 44
0.9
  1
SCALE
 40
0.06
 41
0.48
  0
MTEXT
  5
241
100
AcDbEntity
  8
0
100
AcDbMText
 62
2
  6
CONTINUOUS
  7
STANDARD
 71
1
 72
1
 10
4.15
 20
0.5625
 30
0.0
 11
1.0
 21
0.0
 31
0.0
 44
0.9
  1
DATE
 40
0.06
 41
0.384
  0
MTEXT
  5
242
100
AcDbEntity
  8
0
100
AcDbMText
 62
2
  6
CONTINUOUS
  7
STANDARD
 71
1
 72
1
 10
0.05
 20
0.5625
 30
0.0
 11
1.0
 21
0.0
 31
0.0
 44
0.9
  1
DESCRIPTION
 40
0.06
 41
1.056
  0
MTEXT
  5
243
100
AcDbEntity
  8
0
100
AcDbMText
 62
2
  6
CONTINUOUS
  7
STANDARD
 71
2
 72
1
 10
5.45
 20
1.0375
 30
0.0
 11
1.0
 21
0.0
 31
0.0
 44
0.9
  1
ALL DIMENSIONS IN INCH\PVIEWS ARE THIRD ANGLE
 40
0.12
 41
4.224
  0
MTEXT
  5
244
100
AcDbEntity
  8
0
100
AcDbMText
 62
2
  6
CONTINUOUS
  7
STANDARD
 71
2
 72
1
 10
2.05
 20
0.95
 30
0.0
 11
1.0
 21
0.0
 31
0.0
 44
0.9
  1
Z8L
 40
0.125
 41
0.6
  0
MTEXT
  5
245
100
AcDbEntity
  8
0
100
AcDbMText
 62
2
  6
CONTINUOUS
  7
STANDARD
 71
1
 72
1
 10
0.05
 20
1.1875
 30
0.0
 11
1.0
 21
0.0
 31
0.0
 44
0.9
  1
MODEL
 40
0.06
 41
0.48
  0
ENDBLK
  5
246
100
AcDbEntity
  8
0
  6
BYBLOCK
 62
0
100
AcDbBlockEnd
  0
BLOCK
  5
247
100
AcDbEntity
  8
0
100
AcDbBlockBegin
  2
*T2
 70
1
 10
0.0
 20
0.0
  3
*T2
  1

  0
LINE
  5
248
100
AcDbEntity
  8
0
100
AcDbLine
 62
2
  6
CONTINUOUS
 10
0.0
 20
0.0
 11
9.055
 21
0.0
  0
LINE
  5
249
100
AcDbEntity
  8
0
100
AcDbLine
 62
2
  6
CONTINUOUS
 10
0.0
 20
0.0
 11
0.0
 21
-2.094
  0
LINE
  5
24A
100
AcDbEntity
  8
0
100
AcDbLine
 62
2
  6
CONTINUOUS
 10
0.0
 20
-0.344
 11
9.055
 21
-0.344
  0
LINE
  5
24B
100
AcDbEntity
  8
0
100
AcDbLine
 62
2
  6
CONTINUOUS
 10
0.0
 20
-0.594
 11
9.055
 21
-0.594
  0
LINE
  5
24C
100
AcDbEntity
  8
0
100
AcDbLine
 62
2
  6
CONTINUOUS
 10
0.0
 20
-0.844
 11
9.055
 21
-0.844
  0
LINE
  5
24D
100
AcDbEntity
  8
0
100
AcDbLine
 62
2
  6
CONTINUOUS
 10
0.0
 20
-1.094
 11
9.055
 21
-1.094
  0
LINE
  5
24E
100
AcDbEntity
  8
0
100
AcDbLine
 62
2
  6
CONTINUOUS
 10
0.0
 20
-1.344
 11
9.055
 21
-1.344
  0
LINE
  5
24F
100
AcDbEntity
  8
0
100
AcDbLine
 62
2
  6
CONTINUOUS
 10
0.0
 20
-1.594
 11
9.055
 21
-1.594
  0
LINE
  5
250
100
AcDbEntity
  8
0
100
AcDbLine
 62
2
  6
CONTINUOUS
 10
0.0
 20
-1.844
 11
9.055
 21
-1.844
  0
LINE
  5
251
100
AcDbEntity
  8
0
100
AcDbLine
 62
2
  6
CONTINUOUS
 10
0.0
 20
-2.094
 11
9.055
 21
-2.094
  0
LINE
  5
252
100
AcDbEntity
  8
0
100
AcDbLine
 62
2
  6
CONTINUOUS
 10
3.055
 20
0.0
 11
3.055
 21
-2.094
  0
LINE
  5
253
100
AcDbEntity
  8
0
100
AcDbLine
 62
2
  6
CONTINUOUS
 10
9.055
 20
0.0
 11
9.055
 21
-2.094
  0
MTEXT
  5
254
100
AcDbEntity
  8
0
100
AcDbMText
 62
2
  6
CONTINUOUS
  7
STANDARD
 71
2
 72
1
 10
1.5275
 20
-0.0995
 30
0.0
 11
1.0
 21
0.0
 31
0.0
 44
0.9
  1
Technical Data
 40
0.145
 41
3.248
  0
MTEXT
  5
255
100
AcDbEntity
  8
0
100
AcDbMText
 62
2
  6
CONTINUOUS
  7
STANDARD
 71
2
 72
1
 10
4.555
 20
-0.0995
 30
0.0
 11
1.0
 21
0.0
 31
0.0
 44
0.9
  1
U.S. Units
 40
0.145
 41
2.32
  0
MTEXT
  5
256
100
AcDbEntity
  8
0
100
AcDbMText
 62
2
  6
CONTINUOUS
  7
STANDARD
 71
2
 72
1
 10
7.555
 20
-0.0995
 30
0.0
 11
1.0
 21
0.0
 31
0.0
 44
0.9
  1
Metric Units
 40
0.145
 41
2.784
  0
MTEXT
  5
257
100
AcDbEntity
  8
0
100
AcDbMText
 62
2
  6
CONTINUOUS
  7
STANDARD
 71
2
 72
1
 10
1.5275
 20
-0.4065
 30
0.0
 11
1.0
 21
0.0
 31
0.0
 44
0.9
  1
Cavity
 40
0.125
 41
1.2
  0
MTEXT
  5
258
100
AcDbEntity
  8
0
100
AcDbMText
 62
2
  6
CONTINUOUS
  7
STANDARD
 71
2
 72
1
 10
6.055
 20
-0.4065
 30
0.0
 11
1.0
 21
0.0
 31
0.0
 44
0.9
  1
T-10A
 40
0.125
 41
1.0
  0
MTEXT
  5
259
100
AcDbEntity
  8
0
100
AcDbMText
 62
2
  6
CONTINUOUS
  7
STANDARD
 71
2
 72
1
 10
1.5275
 20
-0.6565
 30
0.0
 11
1.0
 21
0.0
 31
0.0
 44
0.9
  1
Body Features
 40
0.125
 41
2.6
  0
MTEXT
  5
25A
100
AcDbEntity
  8
0
100
AcDbMText
 62
2
  6
CONTINUOUS
  7
STANDARD
 71
2
 72
1
 10
6.055
 20
-0.6565
 30
0.0
 11
1.0
 21
0.0
 31
0.0
 44
0.9
  1
Cross port with make up checks
 40
0.125
 41
6.0
  0
MTEXT
  5
25B
100
AcDbEntity
  8
0
100
AcDbMText
 62
2
  6
CONTINUOUS
  7
STANDARD
 71
2
 72
1
 10
1.5275
 20
-0.9065
 30
0.0
 11
1.0
 21
0.0
 31
0.0
 44
0.9
  1
Body Type
 40
0.125
 41
1.8
  0
MTEXT
  5
25C
100
AcDbEntity
  8
0
100
AcDbMText
 62
2
  6
CONTINUOUS
  7
STANDARD
 71
2
 72
1
 10
6.055
 20
-0.9065
 30
0.0
 11
1.0
 21
0.0
 31
0.0
 44
0.9
  1
Motor mount
 40
0.125
 41
2.2
  0
MTEXT
  5
25D
100
AcDbEntity
  8
0
100
AcDbMText
 62
2
  6
CONTINUOUS
  7
STANDARD
 71
2
 72
1
 10
1.5275
 20
-1.1565
 30
0.0
 11
1.0
 21
0.0
 31
0.0
 44
0.9
  1
Interface
 40
0.125
 41
1.8
  0
MTEXT
  5
25E
100
AcDbEntity
  8
0
100
AcDbMText
 62
2
  6
CONTINUOUS
  7
STANDARD
 71
2
 72
1
 10
6.055
 20
-1.1565
 30
0.0
 11
1.0
 21
0.0
 31
0.0
 44
0.9
  1
Staffa 4", 5 piston
 40
0.125
 41
3.8
  0
MTEXT
  5
25F
100
AcDbEntity
  8
0
100
AcDbMText
 62
2
  6
CONTINUOUS
  7
STANDARD
 71
2
 72
1
 10
1.5275
 20
-1.4065
 30
0.0
 11
1.0
 21
0.0
 31
0.0
 44
0.9
  1
Open Cavity Quantity
 40
0.125
 41
4.0
  0
MTEXT
  5
260
100
AcDbEntity
  8
0
100
AcDbMText
 62
2
  6
CONTINUOUS
  7
STANDARD
 71
2
 72
1
 10
6.055
 20
-1.4065
 30
0.0
 11
1.0
 21
0.0
 31
0.0
 44
0.9
  1
2
 40
0.125
 41
0.2
  0
MTEXT
  5
261
100
AcDbEntity
  8
0
100
AcDbMText
 62
2
  6
CONTINUOUS
  7
STANDARD
 71
2
 72
1
 10
1.5275
 20
-1.6565
 30
0.0
 11
1.0
 21
0.0
 31
0.0
 44
0.9
  1
Weight
 40
0.125
 41
1.2
  0
MTEXT
  5
262
100
AcDbEntity
  8
0
100
AcDbMText
 62
2
  6
CONTINUOUS
  7
STANDARD
 71
2
 72
1
 10
4.555
 20
-1.6565
 30
0.0
 11
1.0
 21
0.0
 31
0.0
 44
0.9
  1
4.203 lb.
 40
0.125
 41
1.8
  0
MTEXT
  5
263
100
AcDbEntity
  8
0
100
AcDbMText
 62
2
  6
CONTINUOUS
  7
STANDARD
 71
2
 72
1
 10
7.555
 20
-1.6565
 30
0.0
 11
1.0
 21
0.0
 31
0.0
 44
0.9
  1
1,906 kg.
 40
0.125
 41
1.8
  0
MTEXT
  5
264
100
AcDbEntity
  8
0
100
AcDbMText
 62
2
  6
CONTINUOUS
  7
STANDARD
 71
2
 72
1
 10
1.5275
 20
-1.9065
 30
0.0
 11
1.0
 21
0.0
 31
0.0
 44
0.9
  1
Includes integral cartridge(s)
 40
0.125
 41
6.0
  0
MTEXT
  5
265
100
AcDbEntity
  8
0
100
AcDbMText
 62
2
  6
CONTINUOUS
  7
STANDARD
 71
2
 72
1
 10
6.055
 20
-1.9065
 30
0.0
 11
1.0
 21
0.0
 31
0.0
 44
0.9
  1
Yes (see Included Components)
 40
0.125
 41
5.8
  0
ENDBLK
  5
266
100
AcDbEntity
  8
0
  6
BYBLOCK
 62
0
100
AcDbBlockEnd
  0
BLOCK
  5
267
100
AcDbEntity
  8
0
100
AcDbBlockBegin
  2
*T3
 70
1
 10
0.0
 20
0.0
  3
*T3
  1

  0
LINE
  5
268
100
AcDbEntity
  8
0
100
AcDbLine
 62
2
  6
CONTINUOUS
 10
0.0
 20
0.0
 11
4.6
 21
0.0
  0
LINE
  5
269
100
AcDbEntity
  8
0
100
AcDbLine
 62
2
  6
CONTINUOUS
 10
0.0
 20
0.0
 11
0.0
 21
-1.18775
  0
LINE
  5
26A
100
AcDbEntity
  8
0
100
AcDbLine
 62
2
  6
CONTINUOUS
 10
0.0
 20
-0.34375
 11
4.6
 21
-0.34375
  0
LINE
  5
26B
100
AcDbEntity
  8
0
100
AcDbLine
 62
2
  6
CONTINUOUS
 10
0.0
 20
-0.68775
 11
4.6
 21
-0.68775
  0
LINE
  5
26C
100
AcDbEntity
  8
0
100
AcDbLine
 62
2
  6
CONTINUOUS
 10
0.0
 20
-0.93775
 11
4.6
 21
-0.93775
  0
LINE
  5
26D
100
AcDbEntity
  8
0
100
AcDbLine
 62
2
  6
CONTINUOUS
 10
0.0
 20
-1.18775
 11
4.6
 21
-1.18775
  0
LINE
  5
26E
100
AcDbEntity
  8
0
100
AcDbLine
 62
2
  6
CONTINUOUS
 10
1.3
 20
-0.34375
 11
1.3
 21
-1.18775
  0
LINE
  5
26F
100
AcDbEntity
  8
0
100
AcDbLine
 62
2
  6
CONTINUOUS
 10
3.3
 20
-0.34375
 11
3.3
 21
-1.18775
  0
LINE
  5
270
100
AcDbEntity
  8
0
100
AcDbLine
 62
2
  6
CONTINUOUS
 10
4.6
 20
0.0
 11
4.6
 21
-1.18775
  0
MTEXT
  5
271
100
AcDbEntity
  8
0
100
AcDbMText
 62
2
  6
CONTINUOUS
  7
STANDARD
 71
2
 72
1
 10
2.3
 20
-0.099375
 30
0.0
 11
1.0
 21
0.0
 31
0.0
 44
0.9
  1
Port Headings
 40
0.145
 41
3.016
  0
MTEXT
  5
272
100
AcDbEntity
  8
0
100
AcDbMText
 62
2
  6
CONTINUOUS
  7
STANDARD
 71
2
 72
1
 10
0.65
 20
-0.44325
 30
0.0
 11
1.0
 21
0.0
 31
0.0
 44
0.9
  1
Product
 40
0.145
 41
1.624
  0
MTEXT
  5
273
100
AcDbEntity
  8
0
100
AcDbMText
 62
2
  6
CONTINUOUS
  7
STANDARD
 71
2
 72
1
 10
2.3
 20
-0.44325
 30
0.0
 11
1.0
 21
0.0
 31
0.0
 44
0.9
  1
Port
 40
0.145
 41
0.928
  0
MTEXT
  5
274
100
AcDbEntity
  8
0
100
AcDbMText
 62
2
  6
CONTINUOUS
  7
STANDARD
 71
2
 72
1
 10
3.95
 20
-0.44325
 30
0.0
 11
1.0
 21
0.0
 31
0.0
 44
0.9
  1
Size
 40
0.145
 41
0.928
  0
MTEXT
  5
275
100
AcDbEntity
  8
0
100
AcDbMText
 62
2
  6
CONTINUOUS
  7
STANDARD
 71
2
 72
1
 10
0.65
 20
-0.75025
 30
0.0
 11
1.0
 21
0.0
 31
0.0
 44
0.9
  1
Z8L
 40
0.125
 41
0.6
  0
MTEXT
  5
276
100
AcDbEntity
  8
0
100
AcDbMText
 62
2
  6
CONTINUOUS
  7
STANDARD
 71
2
 72
1
 10
2.3
 20
-0.75025
 30
0.0
 11
1.0
 21
0.0
 31
0.0
 44
0.9
  1
Ports V1 & V2
 40
0.125
 41
2.6
  0
MTEXT
  5
277
100
AcDbEntity
  8
0
100
AcDbMText
 62
2
  6
CONTINUOUS
  7
STANDARD
 71
2
 72
1
 10
3.95
 20
-0.75025
 30
0.0
 11
1.0
 21
0.0
 31
0.0
 44
0.9
  1
1"  NPTF
 40
0.125
 41
1.6
  0
MTEXT
  5
278
100
AcDbEntity
  8
0
100
AcDbMText
 62
2
  6
CONTINUOUS
  7
STANDARD
 71
2
 72
1
 10
0.65
 20
-1.00025
 30
0.0
 11
1.0
 21
0.0
 31
0.0
 44
0.9
  1
Z8L
 40
0.125
 41
0.6
  0
MTEXT
  5
279
100
AcDbEntity
  8
0
100
AcDbMText
 62
2
  6
CONTINUOUS
  7
STANDARD
 71
2
 72
1
 10
2.3
 20
-1.00025
 30
0.0
 11
1.0
 21
0.0
 31
0.0
 44
0.9
  1
Port T
 40
0.125
 41
1.2
  0
MTEXT
  5
27A
100
AcDbEntity
  8
0
100
AcDbMText
 62
2
  6
CONTINUOUS
  7
STANDARD
 71
2
 72
1
 10
3.95
 20
-1.00025
 30
0.0
 11
1.0
 21
0.0
 31
0.0
 44
0.9
  1
3/4" NPTF
 40
0.125
 41
1.8
  0
ENDBLK
  5
27B
100
AcDbEntity
  8
0
  6
BYBLOCK
 62
0
100
AcDbBlockEnd
  0
ENDSEC
  0
SECTION
  2
ENTITIES
  0
IMAGE
  5
27C
100
AcDbEntity
  8
0
100
AcDbRasterImage
 62
7
  6
CONTINUOUS
 10
19.2297077316
 20
0.3094318264
 30
0.0
 11
0.0066666667
 21
0.0
 31
0.0
 12
0.0
 22
0.0066666667
 32
0.0
 13
369.0
 23
92.0
340
       42A
 70
9
280
0
281
50
282
50
283
0
360
       424
 71
1
 91
2
 14
-0.5
 24
-0.5
 14
368.5
 24
91.5
  0
INSERT
  5
27D
100
AcDbEntity
  8
0
100
AcDbBlockReference
 62
2
  6
CONTINUOUS
  2
SUN_FIRST_THIRD_ANGLE_BL0
 10
20.4816717061
 20
1.2289683772
  0
ACAD_TABLE
  5
27E
100
AcDbEntity
  8
0
 62
2
  6
CONTINUOUS
100
AcDbBlockReference
  2
*T1
 10
12.42375
 20
0.30125
 30
0.0
100
AcDbTable
342
       42C
343
207
 11
1.0
 21
0.0
 31
0.0
 90
6
 91
4
 92
6
 93
20
 94
0
 95
0
 96
0
 70
1
 41
0.0
141
0.525
141
0.1
141
0.525
141
0.1
142
4.1
142
1.1
142
0.7
142
0.5
142
0.4
142
2.475
171
1
172
0
173
0
174
0
175
1
176
1
 91
33
178
0
145
0.0
301
CELL_VALUE
 90
4
  1
T-10A Motor mount Staffa 4", 5 piston\PCross port with make up checks
304
ACVALUE_END
170
2
140
0.125
171
1
172
0
173
0
174
0
175
1
176
1
 91
33
178
0
145
0.0
301
CELL_VALUE
 90
4
  1
Aug-31-22
304
ACVALUE_END
170
5
140
0.125
171
1
172
0
173
0
174
0
175
1
176
1
 91
33
178
0
145
0.0
301
CELL_VALUE
 90
4
  1
1.000
304
ACVALUE_END
170
5
140
0.125
171
1
172
0
173
0
174
0
175
1
176
1
 91
33
178
0
145
0.0
301
CELL_VALUE
 90
4
  1
C
304
ACVALUE_END
170
5
140
0.125
171
1
172
0
173
0
174
0
175
1
176
1
 91
33
178
0
145
0.0
301
CELL_VALUE
 90
4
  1
2
304
ACVALUE_END
170
5
140
0.125
171
1
172
0
173
0
174
0
175
1
176
1
 91
33
178
0
145
0.0
301
CELL_VALUE
 90
4
  1
 
304
ACVALUE_END
170
1
140
0.125
171
1
172
0
173
0
174
0
175
1
176
1
 91
33
178
0
145
0.0
301
CELL_VALUE
 90
4
  1
DESCRIPTION
304
ACVALUE_END
170
1
140
0.06
171
1
172
0
173
0
174
0
175
1
176
1
 91
33
178
0
145
0.0
301
CELL_VALUE
 90
4
  1
DATE
304
ACVALUE_END
170
1
140
0.06
171
1
172
0
173
0
174
0
175
1
176
1
 91
33
178
0
145
0.0
301
CELL_VALUE
 90
4
  1
SCALE
304
ACVALUE_END
170
1
140
0.06
171
1
172
0
173
0
174
0
175
1
176
1
 91
33
178
0
145
0.0
301
CELL_VALUE
 90
4
  1
DWG SIZE
304
ACVALUE_END
170
1
140
0.06
171
1
172
0
173
0
174
0
175
1
176
1
 91
33
178
0
145
0.0
301
CELL_VALUE
 90
4
  1
SHEET
304
ACVALUE_END
170
1
140
0.06
171
1
172
0
173
0
174
0
175
1
176
1
 91
33
178
0
145
0.0
301
CELL_VALUE
 90
4
  1
 
304
ACVALUE_END
170
1
140
0.125
171
1
172
0
173
0
174
0
175
1
176
1
 91
33
178
0
145
0.0
301
CELL_VALUE
 90
4
  1
Z8L
304
ACVALUE_END
170
5
140
0.125
171
1
172
0
173
0
174
0
175
4
176
1
 91
33
178
0
145
0.0
301
CELL_VALUE
 90
4
  1
ALL DIMENSIONS IN INCH\PVIEWS ARE THIRD ANGLE
304
ACVALUE_END
170
5
140
0.12
171
1
172
0
173
1
174
0
175
1
176
1
 91
1
178
0
145
0.0
170
1
171
1
172
0
173
1
174
0
175
1
176
1
 91
1
178
0
145
0.0
170
1
171
1
172
0
173
1
174
0
175
1
176
1
 91
1
178
0
145
0.0
170
5
171
1
172
0
173
0
174
0
175
1
176
1
 91
33
178
0
145
0.0
301
CELL_VALUE
 90
4
  1
 
304
ACVALUE_END
170
1
140
0.125
171
1
172
0
173
0
174
0
175
1
176
1
 91
33
178
0
145
0.0
301
CELL_VALUE
 90
4
  1
MODEL
304
ACVALUE_END
170
1
140
0.06
171
1
172
0
173
0
174
0
175
1
176
1
 91
33
178
0
145
0.0
301
CELL_VALUE
 90
4
  1
 
304
ACVALUE_END
170
1
140
0.125
171
1
172
0
173
0
174
0
175
1
176
1
 91
33
178
0
145
0.0
301
CELL_VALUE
 90
4
  1
 
304
ACVALUE_END
170
1
140
0.125
171
1
172
0
173
0
174
0
175
1
176
1
 91
33
178
0
145
0.0
301
CELL_VALUE
 90
4
  1
 
304
ACVALUE_END
170
1
140
0.125
171
1
172
0
173
0
174
0
175
1
176
1
 91
33
178
0
145
0.0
301
CELL_VALUE
 90
4
  1
 
304
ACVALUE_END
170
1
140
0.125
171
1
172
0
173
0
174
0
175
1
176
1
 91
33
178
0
145
0.0
301
CELL_VALUE
 90
4
  1
 
304
ACVALUE_END
170
1
140
0.125
  0
ACAD_TABLE
  5
27F
100
AcDbEntity
  8
0
 62
2
  6
CONTINUOUS
100
AcDbBlockReference
  2
*T2
 10
12.4237499994
 20
16.47875
 30
0.0
100
AcDbTable
342
       42B
343
208
 11
1.0
 21
0.0
 31
0.0
 90
22
 91
8
 92
3
 93
16
 94
0
 95
0
 96
0
 41
0.028
141
0.344
141
0.25
141
0.25
141
0.25
141
0.25
141
0.25
141
0.25
141
0.25
142
3.055
142
3.0
142
3.0
171
1
172
0
173
0
174
0
175
1
176
1
 91
33
178
0
145
0.0
301
CELL_VALUE
 90
4
  1
Technical Data
304
ACVALUE_END
170
5
140
0.145
171
1
172
0
173
0
174
0
175
1
176
1
 91
33
178
0
145
0.0
301
CELL_VALUE
 90
4
  1
U.S. Units
304
ACVALUE_END
170
5
140
0.145
171
1
172
0
173
0
174
0
175
1
176
1
 91
33
178
0
145
0.0
301
CELL_VALUE
 90
4
  1
Metric Units
304
ACVALUE_END
170
5
140
0.145
171
1
172
0
173
0
174
0
175
1
176
1
 91
33
178
0
145
0.0
301
CELL_VALUE
 90
4
  1
Cavity
304
ACVALUE_END
170
5
140
0.125
171
1
172
0
173
0
174
0
175
2
176
1
 91
33
178
0
145
0.0
301
CELL_VALUE
 90
4
  1
T-10A
304
ACVALUE_END
170
5
140
0.125
171
1
172
0
173
1
174
0
175
1
176
1
 91
1
178
0
145
0.0
170
1
171
1
172
0
173
0
174
0
175
1
176
1
 91
33
178
0
145
0.0
301
CELL_VALUE
 90
4
  1
Body Features
304
ACVALUE_END
170
5
140
0.125
171
1
172
0
173
0
174
0
175
2
176
1
 91
33
178
0
145
0.0
301
CELL_VALUE
 90
4
  1
Cross port with make up checks
304
ACVALUE_END
170
5
140
0.125
171
1
172
0
173
1
174
0
175
1
176
1
 91
1
178
0
145
0.0
170
1
171
1
172
0
173
0
174
0
175
1
176
1
 91
33
178
0
145
0.0
301
CELL_VALUE
 90
4
  1
Body Type
304
ACVALUE_END
170
5
140
0.125
171
1
172
0
173
0
174
0
175
2
176
1
 91
33
178
0
145
0.0
301
CELL_VALUE
 90
4
  1
Motor mount
304
ACVALUE_END
170
5
140
0.125
171
1
172
0
173
1
174
0
175
1
176
1
 91
1
178
0
145
0.0
170
1
171
1
172
0
173
0
174
0
175
1
176
1
 91
33
178
0
145
0.0
301
CELL_VALUE
 90
4
  1
Interface
304
ACVALUE_END
170
5
140
0.125
171
1
172
0
173
0
174
0
175
2
176
1
 91
33
178
0
145
0.0
301
CELL_VALUE
 90
4
  1
Staffa 4", 5 piston
304
ACVALUE_END
170
5
140
0.125
171
1
172
0
173
1
174
0
175
1
176
1
 91
1
178
0
145
0.0
170
1
171
1
172
0
173
0
174
0
175
1
176
1
 91
33
178
0
145
0.0
301
CELL_VALUE
 90
4
  1
Open Cavity Quantity
304
ACVALUE_END
170
5
140
0.125
171
1
172
0
173
0
174
0
175
2
176
1
 91
33
178
0
145
0.0
301
CELL_VALUE
 90
4
  1
2
304
ACVALUE_END
170
5
140
0.125
171
1
172
0
173
1
174
0
175
1
176
1
 91
1
178
0
145
0.0
170
1
171
1
172
0
173
0
174
0
175
1
176
1
 91
33
178
0
145
0.0
301
CELL_VALUE
 90
4
  1
Weight
304
ACVALUE_END
170
5
140
0.125
171
1
172
0
173
0
174
0
175
1
176
1
 91
33
178
0
145
0.0
301
CELL_VALUE
 90
4
  1
4.203 lb.
304
ACVALUE_END
170
5
140
0.125
171
1
172
0
173
0
174
0
175
1
176
1
 91
33
178
0
145
0.0
301
CELL_VALUE
 90
4
  1
1,906 kg.
304
ACVALUE_END
170
5
140
0.125
171
1
172
0
173
0
174
0
175
1
176
1
 91
33
178
0
145
0.0
301
CELL_VALUE
 90
4
  1
Includes integral cartridge(s)
304
ACVALUE_END
170
5
140
0.125
171
1
172
0
173
0
174
0
175
2
176
1
 91
33
178
0
145
0.0
301
CELL_VALUE
 90
4
  1
Yes (see Included Components)
304
ACVALUE_END
170
5
140
0.125
171
1
172
0
173
1
174
0
175
1
176
1
 91
1
178
0
145
0.0
170
1
  0
ACAD_TABLE
  5
280
100
AcDbEntity
  8
0
 62
2
  6
CONTINUOUS
100
AcDbBlockReference
  2
*T3
 10
0.52125
 20
1.709
 30
0.0
100
AcDbTable
342
       42B
343
209
 11
1.0
 21
0.0
 31
0.0
 90
22
 91
4
 92
3
 93
16
 94
0
 95
0
 96
0
 41
0.05
141
0.34375
141
0.344
141
0.25
141
0.25
142
1.3
142
2.0
142
1.3
171
1
172
0
173
0
174
0
175
3
176
1
 91
33
178
0
145
0.0
301
CELL_VALUE
 90
4
  1
Port Headings
304
ACVALUE_END
170
5
140
0.145
171
1
172
0
173
1
174
0
175
1
176
1
 91
1
178
0
145
0.0
170
1
171
1
172
0
173
1
174
0
175
1
176
1
 91
1
178
0
145
0.0
170
1
171
1
172
0
173
0
174
0
175
1
176
1
 91
33
178
0
145
0.0
301
CELL_VALUE
 90
4
  1
Product
304
ACVALUE_END
170
5
140
0.145
171
1
172
0
173
0
174
0
175
1
176
1
 91
33
178
0
145
0.0
301
CELL_VALUE
 90
4
  1
Port
304
ACVALUE_END
170
5
140
0.145
171
1
172
0
173
0
174
0
175
1
176
1
 91
33
178
0
145
0.0
301
CELL_VALUE
 90
4
  1
Size
304
ACVALUE_END
170
5
140
0.145
171
1
172
0
173
0
174
0
175
1
176
1
 91
33
178
0
145
0.0
301
CELL_VALUE
 90
4
  1
Z8L
304
ACVALUE_END
170
5
140
0.125
171
1
172
0
173
0
174
0
175
1
176
1
 91
33
178
0
145
0.0
301
CELL_VALUE
 90
4
  1
Ports V1 & V2
304
ACVALUE_END
170
5
140
0.125
171
1
172
0
173
0
174
0
175
1
176
1
 91
33
178
0
145
0.0
301
CELL_VALUE
 90
4
  1
1"  NPTF
304
ACVALUE_END
170
5
140
0.125
171
1
172
0
173
0
174
0
175
1
176
1
 91
33
178
0
145
0.0
301
CELL_VALUE
 90
4
  1
Z8L
304
ACVALUE_END
170
5
140
0.125
171
1
172
0
173
0
174
0
175
1
176
1
 91
33
178
0
145
0.0
301
CELL_VALUE
 90
4
  1
Port T
304
ACVALUE_END
170
5
140
0.125
171
1
172
0
173
0
174
0
175
1
176
1
 91
33
178
0
145
0.0
301
CELL_VALUE
 90
4
  1
3/4" NPTF
304
ACVALUE_END
170
5
140
0.125
  0
MTEXT
  5
281
100
AcDbEntity
  8
0
100
AcDbMText
 62
2
  6
CONTINUOUS
  7
STANDARD
 71
1
 72
1
 10
0.52125
 20
5.75995
 30
0.0
 11
1.0
 21
0.0
 31
0.0
 44
0.6
  3
Notes\P \P1. Important: Carefully consider\P   the maximum system pressure. The\P   pressure rating of the manifold is\P   dependent on the manifold material,\P   with the port type/size a secondary\P   consideration. Manifolds\P   constructed of alu
  1
minum are not\P   rated for pressures higher than\P   3000 psi (210 bar), regardless of\P   the port type/size specified.
 40
0.1
 41
3.04
  0
LINE
  5
282
100
AcDbEntity
  8
0
100
AcDbLine
 62
7
  6
CONTINUOUS
 10
0.30125
 20
0.30125
 11
0.30125
 21
16.69875
  0
LINE
  5
283
100
AcDbEntity
  8
0
100
AcDbLine
 62
7
  6
CONTINUOUS
 10
0.30125
 20
0.30125
 11
21.69875
 21
0.30125
  0
LINE
  5
284
100
AcDbEntity
  8
0
100
AcDbLine
 62
7
  6
CONTINUOUS
 10
0.30125
 20
16.69875
 11
21.69875
 21
16.69875
  0
LINE
  5
285
100
AcDbEntity
  8
0
100
AcDbLine
 62
7
  6
CONTINUOUS
 10
21.69875
 20
0.30125
 11
21.69875
 21
16.69875
  0
LINE
  5
286
100
AcDbEntity
  8
0
100
AcDbLine
 62
7
  6
CONTINUOUS
 10
8.1963117521
 20
9.6157337773
 11
8.1963117521
 21
6.7179561267
  0
LINE
  5
287
100
AcDbEntity
  8
0
100
AcDbLine
 62
7
  6
CONTINUOUS
 10
9.2155403012
 20
10.6002330141
 11
8.1963117521
 21
9.6157337773
  0
LINE
  5
288
100
AcDbEntity
  8
0
100
AcDbLine
 62
7
  6
CONTINUOUS
 10
9.0902101747
 20
9.2297331471
 11
8.9775110515
 21
9.120874147
  0
LINE
  5
289
100
AcDbEntity
  8
0
100
AcDbLine
 62
7
  6
CONTINUOUS
 10
8.1963117521
 20
6.7179561267
 11
12.7844596988
 21
6.3997669859
  0
LINE
  5
28A
100
AcDbEntity
  8
0
100
AcDbLine
 62
4
  6
CONTINUOUS
 10
9.6403709849
 20
7.0998073647
 11
9.625882097
 21
7.1104714314
  0
LINE
  5
28B
100
AcDbEntity
  8
0
100
AcDbLine
 62
4
  6
CONTINUOUS
 10
9.6403709849
 20
7.2157184681
 11
9.6548598729
 21
7.205054404
  0
LINE
  5
28C
100
AcDbEntity
  8
0
100
AcDbLine
 62
4
  6
CONTINUOUS
 10
9.625882097
 20
7.1104714314
 11
9.6186376531
 21
7.1206330942
  0
LINE
  5
28D
100
AcDbEntity
  8
0
100
AcDbLine
 62
4
  6
CONTINUOUS
 10
9.6548598729
 20
7.205054404
 11
9.6621043168
 21
7.1948927369
  0
LINE
  5
28E
100
AcDbEntity
  8
0
100
AcDbLine
 62
4
  6
CONTINUOUS
 10
9.2926376747
 20
7.2398338551
 11
9.2926376747
 21
7.1239227517
  0
LINE
  5
28F
100
AcDbEntity
  8
0
100
AcDbLine
 62
7
  6
CONTINUOUS
 10
9.4556087909
 20
9.4153556565
 11
9.3429096677
 21
9.3064966564
  0
LINE
  5
290
100
AcDbEntity
  8
0
100
AcDbLine
 62
7
  6
CONTINUOUS
 10
9.5128182363
 20
9.411388168
 11
9.4001191132
 21
9.3025291678
  0
LINE
  5
291
100
AcDbEntity
  8
0
100
AcDbLine
 62
4
  6
CONTINUOUS
 10
9.6186376531
 20
7.1206330942
 11
9.6113932091
 21
7.1404540159
  0
LINE
  5
292
100
AcDbEntity
  8
0
100
AcDbLine
 62
4
  6
CONTINUOUS
 10
9.6621043168
 20
7.1948927369
 11
9.6693487608
 21
7.1750718204
  0
LINE
  5
293
100
AcDbEntity
  8
0
100
AcDbLine
 62
4
  6
CONTINUOUS
 10
9.3095413278
 20
8.3601014655
 11
9.3034809206
 21
8.3847633846
  0
LINE
  5
294
100
AcDbEntity
  8
0
100
AcDbLine
 62
4
  6
CONTINUOUS
 10
9.5244598815
 20
7.2237569304
 11
9.5244598815
 21
7.107845827
  0
LINE
  5
295
100
AcDbEntity
  8
0
100
AcDbLine
 62
4
  6
CONTINUOUS
 10
9.6113932091
 20
7.1404540159
 11
9.6113932091
 21
7.1790910515
  0
LINE
  5
296
100
AcDbEntity
  8
0
100
AcDbLine
 62
4
  6
CONTINUOUS
 10
9.5341190907
 20
8.3735047206
 11
9.5413635346
 21
8.4019800925
  0
LINE
  5
297
100
AcDbEntity
  8
0
100
AcDbLine
 62
4
  6
CONTINUOUS
 10
9.7345487565
 20
7.1319131497
 11
9.7780154203
 21
7.1288987263
  0
LINE
  5
298
100
AcDbEntity
  8
0
100
AcDbLine
 62
4
  6
CONTINUOUS
 10
11.6664005235
 20
6.9979387746
 11
11.7098671873
 21
6.9949243512
  0
LINE
  5
299
100
AcDbEntity
  8
0
100
AcDbLine
 62
4
  6
CONTINUOUS
 10
9.3868154462
 20
7.1753470527
 11
9.43028211
 21
7.1723326294
  0
LINE
  5
29A
100
AcDbEntity
  8
0
100
AcDbLine
 62
4
  6
CONTINUOUS
 10
11.3186672132
 20
7.0413726777
 11
11.362133877
 21
7.0383582543
  0
LINE
  5
29B
100
AcDbEntity
  8
0
100
AcDbLine
 62
4
  6
CONTINUOUS
 10
9.2564154548
 20
7.2423458746
 11
9.3288598945
 21
7.2373218356
  0
LINE
  5
29C
100
AcDbEntity
  8
0
100
AcDbLine
 62
4
  6
CONTINUOUS
 10
11.1882672219
 20
7.1083714995
 11
11.2607116615
 21
7.1033474605
  0
LINE
  5
29D
100
AcDbEntity
  8
0
100
AcDbLine
 62
4
  6
CONTINUOUS
 10
9.3240302157
 20
8.3397781407
 11
9.3095413278
 21
8.3601014655
  0
LINE
  5
29E
100
AcDbEntity
  8
0
100
AcDbLine
 62
4
  6
CONTINUOUS
 10
9.4576395938
 20
8.3868787061
 11
9.4906524269
 21
8.3185635922
  0
LINE
  5
29F
100
AcDbEntity
  8
0
100
AcDbLine
 62
4
  6
CONTINUOUS
 10
9.7562820884
 20
7.2076800058
 11
9.7925043082
 21
7.0892568829
  0
LINE
  5
2A0
100
AcDbEntity
  8
0
100
AcDbLine
 62
4
  6
CONTINUOUS
 10
9.5413635346
 20
8.3440245408
 11
9.5341190907
 21
8.3735047206
  0
LINE
  5
2A1
100
AcDbEntity
  8
0
100
AcDbLine
 62
4
  6
CONTINUOUS
 10
9.664519082
 20
8.3065058987
 11
9.664519082
 21
8.4224170022
  0
LINE
  5
2A2
100
AcDbEntity
  8
0
100
AcDbLine
 62
4
  6
CONTINUOUS
 10
9.6693487608
 20
7.1750718204
 11
9.6693487608
 21
7.1364347847
  0
LINE
  5
2A3
100
AcDbEntity
  8
0
100
AcDbLine
 62
4
  6
CONTINUOUS
 10
9.7297190777
 20
8.3599398154
 11
9.7224746337
 21
8.3314644434
  0
LINE
  5
2A4
100
AcDbEntity
  8
0
100
AcDbLine
 62
4
  6
CONTINUOUS
 10
9.4326968752
 20
8.3225828234
 11
9.4687967175
 21
8.3922789754
  0
LINE
  5
2A5
100
AcDbEntity
  8
0
100
AcDbLine
 62
4
  6
CONTINUOUS
 10
9.3747413234
 20
8.3459205724
 11
9.3674968795
 21
8.3367637174
  0
LINE
  5
2A6
100
AcDbEntity
  8
0
100
AcDbLine
 62
7
  6
CONTINUOUS
 10
9.8782168526
 20
9.1750846984
 11
9.7655177294
 21
9.0662256983
  0
LINE
  5
2A7
100
AcDbEntity
  8
0
100
AcDbLine
 62
7
  6
CONTINUOUS
 10
9.9068215753
 20
9.1235561211
 11
9.7941224521
 21
9.0146971209
  0
LINE
  5
2A8
100
AcDbEntity
  8
0
100
AcDbLine
 62
4
  6
CONTINUOUS
 10
9.5558524226
 20
8.3237012161
 11
9.5413635346
 21
8.3440245408
  0
LINE
  5
2A9
100
AcDbEntity
  8
0
100
AcDbLine
 62
4
  6
CONTINUOUS
 10
9.5993190863
 20
8.4172793809
 11
9.6065635303
 21
8.4071177138
  0
LINE
  5
2AA
100
AcDbEntity
  8
0
100
AcDbLine
 62
4
  6
CONTINUOUS
 10
9.7224746337
 20
8.3894199951
 11
9.7297190777
 21
8.3599398154
  0
LINE
  5
2AB
100
AcDbEntity
  8
0
100
AcDbLine
 62
4
  6
CONTINUOUS
 10
9.5413635346
 20
8.4019800925
 11
9.5558524226
 21
8.4202938043
  0
LINE
  5
2AC
100
AcDbEntity
  8
0
100
AcDbLine
 62
4
  6
CONTINUOUS
 10
9.6065635303
 20
8.3298436477
 11
9.5993190863
 21
8.3206867927
  0
LINE
  5
2AD
100
AcDbEntity
  8
0
100
AcDbLine
 62
7
  6
CONTINUOUS
 10
9.9068215753
 20
8.7016301422
 11
9.7941224521
 21
8.592771142
  0
LINE
  5
2AE
100
AcDbEntity
  8
0
100
AcDbLine
 62
4
  6
CONTINUOUS
 10
9.3385191036
 20
8.329114074
 11
9.3240302157
 21
8.3397781407
  0
LINE
  5
2AF
100
AcDbEntity
  8
0
100
AcDbLine
 62
4
  6
CONTINUOUS
 10
9.5703413105
 20
8.3130371494
 11
9.5558524226
 21
8.3237012161
  0
LINE
  5
2B0
100
AcDbEntity
  8
0
100
AcDbLine
 62
4
  6
CONTINUOUS
 10
9.7079857458
 20
8.4097433225
 11
9.7224746337
 21
8.3894199951
  0
LINE
  5
2B1
100
AcDbEntity
  8
0
100
AcDbLine
 62
4
  6
CONTINUOUS
 10
9.7200598686
 20
7.0942809218
 11
9.7562820884
 21
7.2076800058
  0
LINE
  5
2B2
100
AcDbEntity
  8
0
100
AcDbLine
 62
4
  6
CONTINUOUS
 10
9.6113932091
 20
7.1790910515
 11
9.6186376531
 21
7.1979071603
  0
LINE
  5
2B3
100
AcDbEntity
  8
0
100
AcDbLine
 62
4
  6
CONTINUOUS
 10
9.6693487608
 20
7.1364347847
 11
9.6621043168
 21
7.1176186708
  0
LINE
  5
2B4
100
AcDbEntity
  8
0
100
AcDbLine
 62
4
  6
CONTINUOUS
 10
9.7224746337
 20
8.3314644434
 11
9.7079857458
 21
8.3131507343
  0
LINE
  5
2B5
100
AcDbEntity
  8
0
100
AcDbLine
 62
7
  6
CONTINUOUS
 10
9.8782168526
 20
8.6540690533
 11
9.7655177294
 21
8.5452100532
  0
LINE
  5
2B6
100
AcDbEntity
  8
0
100
AcDbLine
 62
4
  6
CONTINUOUS
 10
9.3674968795
 20
8.3367637174
 11
9.3530079915
 21
8.3281092662
  0
LINE
  5
2B7
100
AcDbEntity
  8
0
100
AcDbLine
 62
4
  6
CONTINUOUS
 10
9.5558524226
 20
8.4202938043
 11
9.5703413105
 21
8.4289482528
  0
LINE
  5
2B8
100
AcDbEntity
  8
0
100
AcDbLine
 62
4
  6
CONTINUOUS
 10
9.5848301984
 20
8.427943445
 11
9.5993190863
 21
8.4172793809
  0
LINE
  5
2B9
100
AcDbEntity
  8
0
100
AcDbLine
 62
4
  6
CONTINUOUS
 10
11.572222752
 20
6.9658329896
 11
11.5577338641
 21
6.9764970563
  0
LINE
  5
2BA
100
AcDbEntity
  8
0
100
AcDbLine
 62
4
  6
CONTINUOUS
 10
9.6934968579
 20
8.4204073866
 11
9.7079857458
 21
8.4097433225
  0
LINE
  5
2BB
100
AcDbEntity
  8
0
100
AcDbLine
 62
4
  6
CONTINUOUS
 10
11.572222752
 20
7.081744093
 11
11.5867116399
 21
7.0710800289
  0
LINE
  5
2BC
100
AcDbEntity
  8
0
100
AcDbLine
 62
4
  6
CONTINUOUS
 10
9.5993190863
 20
8.3206867927
 11
9.5848301984
 21
8.3120323416
  0
LINE
  5
2BD
100
AcDbEntity
  8
0
100
AcDbLine
 62
4
  6
CONTINUOUS
 10
9.7079857458
 20
8.3131507343
 11
9.6934968579
 21
8.3044962832
  0
LINE
  5
2BE
100
AcDbEntity
  8
0
100
AcDbLine
 62
4
  6
CONTINUOUS
 10
9.6186376531
 20
7.1979071603
 11
9.625882097
 21
7.2070640196
  0
LINE
  5
2BF
100
AcDbEntity
  8
0
100
AcDbLine
 62
7
  6
CONTINUOUS
 10
11.0220619417
 20
9.0957587721
 11
10.9093628185
 21
8.9868997719
  0
LINE
  5
2C0
100
AcDbEntity
  8
0
100
AcDbLine
 62
7
  6
CONTINUOUS
 10
11.387460558
 20
9.2813812814
 11
11.2747614348
 21
9.1725222813
  0
LINE
  5
2C1
100
AcDbEntity
  8
0
100
AcDbLine
 62
7
  6
CONTINUOUS
 10
11.4446700034
 20
9.2774137929
 11
11.3319708802
 21
9.1685547928
  0
LINE
  5
2C2
100
AcDbEntity
  8
0
100
AcDbLine
 62
4
  6
CONTINUOUS
 10
11.6543264889
 20
8.1685122864
 11
11.6253487131
 21
8.170521902
  0
LINE
  5
2C3
100
AcDbEntity
  8
0
100
AcDbLine
 62
4
  6
CONTINUOUS
 10
11.5456598295
 20
8.1760483448
 11
11.5311709415
 21
8.1770531526
  0
LINE
  5
2C4
100
AcDbEntity
  8
0
100
AcDbLine
 62
4
  6
CONTINUOUS
 10
11.3138376226
 20
8.1921252695
 11
11.2993487347
 21
8.1931300772
  0
LINE
  5
2C5
100
AcDbEntity
  8
0
100
AcDbLine
 62
4
  6
CONTINUOUS
 10
9.6934968579
 20
8.3044962832
 11
9.664519082
 21
8.3065058987
  0
LINE
  5
2C6
100
AcDbEntity
  8
0
100
AcDbLine
 62
4
  6
CONTINUOUS
 10
9.5848301984
 20
8.3120323416
 11
9.5703413105
 21
8.3130371494
  0
LINE
  5
2C7
100
AcDbEntity
  8
0
100
AcDbLine
 62
4
  6
CONTINUOUS
 10
9.3530079915
 20
8.3281092662
 11
9.3385191036
 21
8.329114074
  0
LINE
  5
2C8
100
AcDbEntity
  8
0
100
AcDbLine
 62
4
  6
CONTINUOUS
 10
11.5577338641
 20
6.9764970563
 11
11.5504894201
 21
6.9866587191
  0
LINE
  5
2C9
100
AcDbEntity
  8
0
100
AcDbLine
 62
4
  6
CONTINUOUS
 10
11.5867116399
 20
7.0710800289
 11
11.5939560839
 21
7.0609183618
  0
LINE
  5
2CA
100
AcDbEntity
  8
0
100
AcDbLine
 62
4
  6
CONTINUOUS
 10
9.6621043168
 20
7.1176186708
 11
9.6548598729
 21
7.1084618158
  0
LINE
  5
2CB
100
AcDbEntity
  8
0
100
AcDbLine
 62
4
  6
CONTINUOUS
 10
9.5703413105
 20
8.4289482528
 11
9.5848301984
 21
8.427943445
  0
LINE
  5
2CC
100
AcDbEntity
  8
0
100
AcDbLine
 62
4
  6
CONTINUOUS
 10
9.664519082
 20
8.4224170022
 11
9.6934968579
 21
8.4204073866
  0
LINE
  5
2CD
100
AcDbEntity
  8
0
100
AcDbLine
 62
4
  6
CONTINUOUS
 10
11.5311709415
 20
8.292964256
 11
11.5456598295
 21
8.2919594482
  0
LINE
  5
2CE
100
AcDbEntity
  8
0
100
AcDbLine
 62
4
  6
CONTINUOUS
 10
11.6253487131
 20
8.2864330054
 11
11.6543264889
 21
8.2844233898
  0
LINE
  5
2CF
100
AcDbEntity
  8
0
100
AcDbLine
 62
4
  6
CONTINUOUS
 10
11.2993487347
 20
8.1931300772
 11
11.2848598468
 21
8.2037941439
  0
LINE
  5
2D0
100
AcDbEntity
  8
0
100
AcDbLine
 62
4
  6
CONTINUOUS
 10
11.5504894201
 20
6.9866587191
 11
11.5432449761
 21
7.0064796408
  0
LINE
  5
2D1
100
AcDbEntity
  8
0
100
AcDbLine
 62
4
  6
CONTINUOUS
 10
11.2244894417
 20
7.10585948
 11
11.2244894417
 21
6.9899483766
  0
LINE
  5
2D2
100
AcDbEntity
  8
0
100
AcDbLine
 62
7
  6
CONTINUOUS
 10
11.8100686197
 20
9.0411103233
 11
11.6973694965
 21
8.9322513232
  0
LINE
  5
2D3
100
AcDbEntity
  8
0
100
AcDbLine
 62
7
  6
CONTINUOUS
 10
11.8386733424
 20
8.989581746
 11
11.7259742192
 21
8.8807227459
  0
LINE
  5
2D4
100
AcDbEntity
  8
0
100
AcDbLine
 62
4
  6
CONTINUOUS
 10
13.4625650216
 20
8.4732976112
 11
13.4315067625
 21
8.476415091
  0
LINE
  5
2D5
100
AcDbEntity
  8
0
100
AcDbLine
 62
4
  6
CONTINUOUS
 10
11.5311709415
 20
8.1770531526
 11
11.5166820536
 21
8.1877172193
  0
LINE
  5
2D6
100
AcDbEntity
  8
0
100
AcDbLine
 62
4
  6
CONTINUOUS
 10
11.5456598295
 20
8.2919594482
 11
11.5601487174
 21
8.2812953841
  0
LINE
  5
2D7
100
AcDbEntity
  8
0
100
AcDbLine
 62
4
  6
CONTINUOUS
 10
11.6543264889
 20
8.2844233898
 11
11.6688153769
 21
8.2737593257
  0
LINE
  5
2D8
100
AcDbEntity
  8
0
100
AcDbLine
 62
4
  6
CONTINUOUS
 10
11.2848598468
 20
8.2037941439
 11
11.2703709588
 21
8.2241174687
  0
LINE
  5
2D9
100
AcDbEntity
  8
0
100
AcDbLine
 62
4
  6
CONTINUOUS
 10
11.5166820536
 20
8.1877172193
 11
11.5021931657
 21
8.208040544
  0
LINE
  5
2DA
100
AcDbEntity
  8
0
100
AcDbLine
 62
4
  6
CONTINUOUS
 10
11.5939560839
 20
7.0609183618
 11
11.6012005279
 21
7.0410974453
  0
LINE
  5
2DB
100
AcDbEntity
  8
0
100
AcDbLine
 62
4
  6
CONTINUOUS
 10
11.6881338554
 20
7.0737056307
 11
11.7243560752
 21
6.9552825078
  0
LINE
  5
2DC
100
AcDbEntity
  8
0
100
AcDbLine
 62
4
  6
CONTINUOUS
 10
11.2703709588
 20
8.2241174687
 11
11.2681598422
 21
8.2331152766
  0
LINE
  5
2DD
100
AcDbEntity
  8
0
100
AcDbLine
 62
4
  6
CONTINUOUS
 10
11.4563116486
 20
7.0897825554
 11
11.4563116486
 21
6.9738714519
  0
LINE
  5
2DE
100
AcDbEntity
  8
0
100
AcDbLine
 62
4
  6
CONTINUOUS
 10
11.3935265062
 20
8.1865988266
 11
11.4408190492
 21
8.2779041636
  0
LINE
  5
2DF
100
AcDbEntity
  8
0
100
AcDbLine
 62
4
  6
CONTINUOUS
 10
11.3355709545
 20
8.2099365756
 11
11.3283265105
 21
8.2007797206
  0
LINE
  5
2E0
100
AcDbEntity
  8
0
100
AcDbLine
 62
4
  6
CONTINUOUS
 10
9.625882097
 20
7.2070640196
 11
9.6403709849
 21
7.2157184681
  0
LINE
  5
2E1
100
AcDbEntity
  8
0
100
AcDbLine
 62
4
  6
CONTINUOUS
 10
11.3283265105
 20
8.2007797206
 11
11.3138376226
 21
8.1921252695
  0
LINE
  5
2E2
100
AcDbEntity
  8
0
100
AcDbLine
 62
4
  6
CONTINUOUS
 10
11.5166820536
 20
8.2843098075
 11
11.5311709415
 21
8.292964256
  0
LINE
  5
2E3
100
AcDbEntity
  8
0
100
AcDbLine
 62
4
  6
CONTINUOUS
 10
13.3115627239
 20
8.5592627843
 11
13.281983429
 21
8.5638088201
  0
LINE
  5
2E4
100
AcDbEntity
  8
0
100
AcDbLine
 62
4
  6
CONTINUOUS
 10
11.5601487174
 20
8.2812953841
 11
11.5673931614
 21
8.271133717
  0
LINE
  5
2E5
100
AcDbEntity
  8
0
100
AcDbLine
 62
4
  6
CONTINUOUS
 10
11.6688153769
 20
8.2737593257
 11
11.6833042648
 21
8.2534359984
  0
LINE
  5
2E6
100
AcDbEntity
  8
0
100
AcDbLine
 62
4
  6
CONTINUOUS
 10
11.4121883965
 20
8.263891943
 11
11.4514820579
 21
8.1825795954
  0
LINE
  5
2E7
100
AcDbEntity
  8
0
100
AcDbLine
 62
4
  6
CONTINUOUS
 10
11.5021931657
 20
8.208040544
 11
11.4949487217
 21
8.2375207238
  0
LINE
  5
2E8
100
AcDbEntity
  8
0
100
AcDbLine
 62
4
  6
CONTINUOUS
 10
11.5432449761
 20
7.0064796408
 11
11.5432449761
 21
7.0451166764
  0
LINE
  5
2E9
100
AcDbEntity
  8
0
100
AcDbLine
 62
4
  6
CONTINUOUS
 10
11.6012005279
 20
7.0410974453
 11
11.6012005279
 21
7.0024604096
  0
LINE
  5
2EA
100
AcDbEntity
  8
0
100
AcDbLine
 62
4
  6
CONTINUOUS
 10
11.6253487131
 20
8.170521902
 11
11.6253487131
 21
8.2864330054
  0
LINE
  5
2EB
100
AcDbEntity
  8
0
100
AcDbLine
 62
4
  6
CONTINUOUS
 10
11.4949487217
 20
8.2375207238
 11
11.5021931657
 21
8.2659960958
  0
LINE
  5
2EC
100
AcDbEntity
  8
0
100
AcDbLine
 62
4
  6
CONTINUOUS
 10
11.5021931657
 20
8.2659960958
 11
11.5166820536
 21
8.2843098075
  0
LINE
  5
2ED
100
AcDbEntity
  8
0
100
AcDbLine
 62
4
  6
CONTINUOUS
 10
11.5673931614
 20
8.1938596509
 11
11.5601487174
 21
8.1847027959
  0
LINE
  5
2EE
100
AcDbEntity
  8
0
100
AcDbLine
 62
4
  6
CONTINUOUS
 10
11.6833042648
 20
8.1954804467
 11
11.6688153769
 21
8.1771667375
  0
LINE
  5
2EF
100
AcDbEntity
  8
0
100
AcDbLine
 62
7
  6
CONTINUOUS
 10
11.8386733424
 20
8.5676557671
 11
11.7259742192
 21
8.4587967669
  0
LINE
  5
2F0
100
AcDbEntity
  8
0
100
AcDbLine
 62
7
  6
CONTINUOUS
 10
11.8100686197
 20
8.5200946783
 11
11.6973694965
 21
8.4112356781
  0
LINE
  5
2F1
100
AcDbEntity
  8
0
100
AcDbLine
 62
7
  6
CONTINUOUS
 10
13.8036882479
 20
10.2820438733
 11
12.7844596988
 21
9.2975446365
  0
LINE
  5
2F2
100
AcDbEntity
  8
0
100
AcDbLine
 62
4
  6
CONTINUOUS
 10
9.6548598729
 20
7.1084618158
 11
9.6403709849
 21
7.0998073647
  0
LINE
  5
2F3
100
AcDbEntity
  8
0
100
AcDbLine
 62
4
  6
CONTINUOUS
 10
11.5601487174
 20
8.1847027959
 11
11.5456598295
 21
8.1760483448
  0
LINE
  5
2F4
100
AcDbEntity
  8
0
100
AcDbLine
 62
4
  6
CONTINUOUS
 10
11.6688153769
 20
8.1771667375
 11
11.6543264889
 21
8.1685122864
  0
LINE
  5
2F5
100
AcDbEntity
  8
0
100
AcDbLine
 62
4
  6
CONTINUOUS
 10
11.6833042648
 20
8.2534359984
 11
11.6905487088
 21
8.2239558186
  0
LINE
  5
2F6
100
AcDbEntity
  8
0
100
AcDbLine
 62
4
  6
CONTINUOUS
 10
11.6905487088
 20
8.2239558186
 11
11.6833042648
 21
8.1954804467
  0
LINE
  5
2F7
100
AcDbEntity
  8
0
100
AcDbLine
 62
7
  6
CONTINUOUS
 10
12.7844596988
 20
9.2975446365
 11
8.1963117521
 21
9.6157337773
  0
LINE
  5
2F8
100
AcDbEntity
  8
0
100
AcDbLine
 62
4
  6
CONTINUOUS
 10
11.6519116356
 20
6.9603065467
 11
11.6881338554
 21
7.0737056307
  0
LINE
  5
2F9
100
AcDbEntity
  8
0
100
AcDbLine
 62
4
  6
CONTINUOUS
 10
11.5432449761
 20
7.0451166764
 11
11.5504894201
 21
7.0639327852
  0
LINE
  5
2FA
100
AcDbEntity
  8
0
100
AcDbLine
 62
4
  6
CONTINUOUS
 10
11.6012005279
 20
7.0024604096
 11
11.5939560839
 21
6.9836442957
  0
LINE
  5
2FB
100
AcDbEntity
  8
0
100
AcDbLine
 62
4
  6
CONTINUOUS
 10
13.3019494531
 20
9.1709293697
 11
13.2952941116
 21
9.164500803
  0
LINE
  5
2FC
100
AcDbEntity
  8
0
100
AcDbLine
 62
4
  6
CONTINUOUS
 10
13.2908572177
 20
9.1105389841
 11
13.2842018769
 21
9.1041104182
  0
LINE
  5
2FD
100
AcDbEntity
  8
0
100
AcDbLine
 62
7
  6
CONTINUOUS
 10
13.0029027571
 20
8.8179074338
 11
13.0042109607
 21
8.8191478527
  0
LINE
  5
2FE
100
AcDbEntity
  8
0
100
AcDbLine
 62
4
  6
CONTINUOUS
 10
13.2731096412
 20
8.9774849819
 11
13.2753280891
 21
8.9768680605
  0
LINE
  5
2FF
100
AcDbEntity
  8
0
100
AcDbLine
 62
4
  6
CONTINUOUS
 10
11.5504894201
 20
7.0639327852
 11
11.5577338641
 21
7.0730896445
  0
LINE
  5
300
100
AcDbEntity
  8
0
100
AcDbLine
 62
4
  6
CONTINUOUS
 10
11.5939560839
 20
6.9836442957
 11
11.5867116399
 21
6.9744874407
  0
LINE
  5
301
100
AcDbEntity
  8
0
100
AcDbLine
 62
4
  6
CONTINUOUS
 10
13.3019494531
 20
9.0467389333
 11
13.2842018769
 21
9.02959609
  0
LINE
  5
302
100
AcDbEntity
  8
0
100
AcDbLine
 62
4
  6
CONTINUOUS
 10
13.3041679003
 20
9.0047251806
 11
13.281983429
 21
8.9832966256
  0
LINE
  5
303
100
AcDbEntity
  8
0
100
AcDbLine
 62
4
  6
CONTINUOUS
 10
13.2753280891
 20
8.9768680605
 11
13.2731096412
 21
8.9747252043
  0
LINE
  5
304
100
AcDbEntity
  8
0
100
AcDbLine
 62
4
  6
CONTINUOUS
 10
13.4625650216
 20
9.138406581
 11
13.4315067625
 21
9.1084066046
  0
LINE
  5
305
100
AcDbEntity
  8
0
100
AcDbLine
 62
4
  6
CONTINUOUS
 10
13.4359436564
 20
9.0657758742
 11
13.4581281273
 21
9.0872044288
  0
LINE
  5
306
100
AcDbEntity
  8
0
100
AcDbLine
 62
4
  6
CONTINUOUS
 10
13.3019494531
 20
8.9280680522
 11
13.2731096412
 21
8.9002109314
  0
LINE
  5
307
100
AcDbEntity
  8
0
100
AcDbLine
 62
4
  6
CONTINUOUS
 10
13.3041679003
 20
8.8970934654
 11
13.281983429
 21
8.8756649104
  0
LINE
  5
308
100
AcDbEntity
  8
0
100
AcDbLine
 62
4
  6
CONTINUOUS
 10
13.4625650216
 20
9.0335345881
 11
13.4315067625
 21
9.0035346118
  0
LINE
  5
309
100
AcDbEntity
  8
0
100
AcDbLine
 62
4
  6
CONTINUOUS
 10
13.281983429
 20
8.8259886916
 11
13.3019494531
 21
8.8452743911
  0
LINE
  5
30A
100
AcDbEntity
  8
0
100
AcDbLine
 62
4
  6
CONTINUOUS
 10
13.4359436564
 20
8.9747028801
 11
13.4581281273
 21
8.9961314347
  0
LINE
  5
30B
100
AcDbEntity
  8
0
100
AcDbLine
 62
4
  6
CONTINUOUS
 10
13.3041679003
 20
8.8142998043
 11
13.2864203229
 21
8.7971569599
  0
LINE
  5
30C
100
AcDbEntity
  8
0
100
AcDbLine
 62
4
  6
CONTINUOUS
 10
13.4581281273
 20
8.938175883
 11
13.4359436564
 21
8.9167473284
  0
LINE
  5
30D
100
AcDbEntity
  8
0
100
AcDbLine
 62
4
  6
CONTINUOUS
 10
13.3019494531
 20
8.7624807853
 11
13.2952941116
 21
8.7560522186
  0
LINE
  5
30E
100
AcDbEntity
  8
0
100
AcDbLine
 62
4
  6
CONTINUOUS
 10
13.2842018769
 20
8.7094606667
 11
13.2886387707
 21
8.7137463774
  0
LINE
  5
30F
100
AcDbEntity
  8
0
100
AcDbLine
 62
4
  6
CONTINUOUS
 10
13.3631785926
 20
8.7581484064
 11
13.3942368516
 21
8.7881483827
  0
LINE
  5
310
100
AcDbEntity
  8
0
100
AcDbLine
 62
4
  6
CONTINUOUS
 10
13.4581281273
 20
8.8415833336
 11
13.4359436564
 21
8.820154779
  0
LINE
  5
311
100
AcDbEntity
  8
0
100
AcDbLine
 62
4
  6
CONTINUOUS
 10
13.3041679003
 20
8.6901093679
 11
13.281983429
 21
8.6686808129
  0
LINE
  5
312
100
AcDbEntity
  8
0
100
AcDbLine
 62
4
  6
CONTINUOUS
 10
13.380926169
 20
8.7421737937
 11
13.3897999573
 21
8.7507452155
  0
LINE
  5
313
100
AcDbEntity
  8
0
100
AcDbLine
 62
4
  6
CONTINUOUS
 10
13.3676154864
 20
8.7237970918
 11
13.3742708282
 21
8.7302256586
  0
LINE
  5
314
100
AcDbEntity
  8
0
100
AcDbLine
 62
4
  6
CONTINUOUS
 10
13.2731096412
 20
8.626991894
 11
13.3041679003
 21
8.6569918703
  0
LINE
  5
315
100
AcDbEntity
  8
0
100
AcDbLine
 62
4
  6
CONTINUOUS
 10
13.3742708282
 20
8.6833092521
 11
13.3676154864
 21
8.6768806852
  0
LINE
  5
316
100
AcDbEntity
  8
0
100
AcDbLine
 62
4
  6
CONTINUOUS
 10
13.3897999573
 20
8.6927896638
 11
13.380926169
 21
8.684218242
  0
LINE
  5
317
100
AcDbEntity
  8
0
100
AcDbLine
 62
4
  6
CONTINUOUS
 10
13.3019494531
 20
8.6051728513
 11
13.2842018769
 21
8.588030008
  0
LINE
  5
318
100
AcDbEntity
  8
0
100
AcDbLine
 62
4
  6
CONTINUOUS
 10
13.4625650216
 20
8.672002362
 11
13.4315067625
 21
8.6420023856
  0
LINE
  5
319
100
AcDbEntity
  8
0
100
AcDbLine
 62
4
  6
CONTINUOUS
 10
13.2842018769
 20
8.4831580428
 11
13.3041679003
 21
8.5024437416
  0
LINE
  5
31A
100
AcDbEntity
  8
0
100
AcDbLine
 62
4
  6
CONTINUOUS
 10
13.4625650216
 20
8.6057674497
 11
13.4315067625
 21
8.5757674733
  0
LINE
  5
31B
100
AcDbEntity
  8
0
100
AcDbLine
 62
4
  6
CONTINUOUS
 10
13.3041679003
 20
8.4527675505
 11
13.2731096412
 21
8.4227675742
  0
LINE
  5
31C
100
AcDbEntity
  8
0
100
AcDbLine
 62
4
  6
CONTINUOUS
 10
11.5577338641
 20
7.0730896445
 11
11.572222752
 21
7.081744093
  0
LINE
  5
31D
100
AcDbEntity
  8
0
100
AcDbLine
 62
4
  6
CONTINUOUS
 10
11.5867116399
 20
6.9744874407
 11
11.572222752
 21
6.9658329896
  0
LINE
  5
31E
100
AcDbEntity
  8
0
100
AcDbLine
 62
7
  6
CONTINUOUS
 10
12.7844596988
 20
6.3997669859
 11
12.7844596988
 21
9.2975446365
  0
LINE
  5
31F
100
AcDbEntity
  8
0
100
AcDbLine
 62
4
  6
CONTINUOUS
 10
13.3041679003
 20
8.3285770865
 11
13.2731096412
 21
8.2985771101
  0
LINE
  5
320
100
AcDbEntity
  8
0
100
AcDbLine
 62
4
  6
CONTINUOUS
 10
13.4359436564
 20
8.4006669459
 11
13.4581281273
 21
8.4220955005
  0
LINE
  5
321
100
AcDbEntity
  8
0
100
AcDbLine
 62
4
  6
CONTINUOUS
 10
13.3041679003
 20
8.2706215348
 11
13.2731096412
 21
8.2406215584
  0
LINE
  5
322
100
AcDbEntity
  8
0
100
AcDbLine
 62
4
  6
CONTINUOUS
 10
13.2997310059
 20
8.2332183675
 11
13.2731096412
 21
8.2075041023
  0
LINE
  5
323
100
AcDbEntity
  8
0
100
AcDbLine
 62
4
  6
CONTINUOUS
 10
13.4625650216
 20
8.3684256668
 11
13.4315067625
 21
8.3384256904
  0
LINE
  5
324
100
AcDbEntity
  8
0
100
AcDbLine
 62
4
  6
CONTINUOUS
 10
13.2731096412
 20
8.1495485506
 11
13.2997310059
 21
8.1752628158
  0
LINE
  5
325
100
AcDbEntity
  8
0
100
AcDbLine
 62
4
  6
CONTINUOUS
 10
13.2997310059
 20
8.1421453597
 11
13.2952941116
 21
8.1378596486
  0
LINE
  5
326
100
AcDbEntity
  8
0
100
AcDbLine
 62
4
  6
CONTINUOUS
 10
13.281983429
 20
8.067046964
 11
13.2775465351
 21
8.0627612533
  0
LINE
  5
327
100
AcDbEntity
  8
0
100
AcDbLine
 62
4
  6
CONTINUOUS
 10
13.3631785926
 20
8.6339579424
 11
13.3942368516
 21
8.606002367
  0
LINE
  5
328
100
AcDbEntity
  8
0
100
AcDbLine
 62
4
  6
CONTINUOUS
 10
12.9884089368
 20
7.5071520522
 11
12.9884089368
 21
7.5795964918
  0
LINE
  5
329
100
AcDbEntity
  8
0
100
AcDbLine
 62
4
  6
CONTINUOUS
 10
13.281983429
 20
9.1433643372
 11
13.2842018769
 21
9.1537865264
  0
LINE
  5
32A
100
AcDbEntity
  8
0
100
AcDbLine
 62
4
  6
CONTINUOUS
 10
13.3019494531
 20
9.1212532614
 11
13.3041679003
 21
9.1316754499
  0
LINE
  5
32B
100
AcDbEntity
  8
0
100
AcDbLine
 62
4
  6
CONTINUOUS
 10
13.2864203229
 20
8.7971569599
 11
13.281983429
 21
8.7845919163
  0
LINE
  5
32C
100
AcDbEntity
  8
0
100
AcDbLine
 62
4
  6
CONTINUOUS
 10
13.281983429
 20
8.5141326566
 11
13.3041679003
 21
8.560399321
  0
LINE
  5
32D
100
AcDbEntity
  8
0
100
AcDbLine
 62
4
  6
CONTINUOUS
 10
12.9884089368
 20
7.543374272
 11
13.0194671959
 21
7.5733742484
  0
LINE
  5
32E
100
AcDbEntity
  8
0
100
AcDbLine
 62
7
  6
CONTINUOUS
 10
13.8036882479
 20
10.2820438733
 11
9.2155403012
 21
10.6002330141
  0
LINE
  5
32F
100
AcDbEntity
  8
0
100
AcDbLine
 62
4
  6
CONTINUOUS
 10
13.3676154864
 20
8.6768806852
 11
13.3631785926
 21
8.6836341266
  0
LINE
  5
330
100
AcDbEntity
  8
0
100
AcDbLine
 62
4
  6
CONTINUOUS
 10
13.2775465351
 20
8.0627612533
 11
13.2731096412
 21
8.0750342725
  0
LINE
  5
331
100
AcDbEntity
  8
0
100
AcDbLine
 62
4
  6
CONTINUOUS
 10
13.3041679003
 20
8.1298723427
 11
13.2997310059
 21
8.1421453597
  0
LINE
  5
332
100
AcDbEntity
  8
0
100
AcDbLine
 62
4
  6
CONTINUOUS
 10
13.3041679003
 20
8.2209453575
 11
13.2997310059
 21
8.2332183675
  0
LINE
  5
333
100
AcDbEntity
  8
0
100
AcDbLine
 62
4
  6
CONTINUOUS
 10
13.2731096412
 20
8.0750342725
 11
13.2731096412
 21
8.1081517304
  0
LINE
  5
334
100
AcDbEntity
  8
0
100
AcDbLine
 62
4
  6
CONTINUOUS
 10
13.2731096412
 20
8.9747252043
 11
13.2731096412
 21
8.9774849819
  0
LINE
  5
335
100
AcDbEntity
  8
0
100
AcDbLine
 62
4
  6
CONTINUOUS
 10
13.281983429
 20
8.7845919163
 11
13.281983429
 21
8.7431950858
  0
LINE
  5
336
100
AcDbEntity
  8
0
100
AcDbLine
 62
4
  6
CONTINUOUS
 10
13.281983429
 20
8.4313389955
 11
13.281983429
 21
8.472735826
  0
LINE
  5
337
100
AcDbEntity
  8
0
100
AcDbLine
 62
4
  6
CONTINUOUS
 10
13.281983429
 20
8.602445873
 11
13.281983429
 21
8.6355633153
  0
LINE
  5
338
100
AcDbEntity
  8
0
100
AcDbLine
 62
4
  6
CONTINUOUS
 10
13.281983429
 20
8.6686808129
 11
13.281983429
 21
8.7017982552
  0
LINE
  5
339
100
AcDbEntity
  8
0
100
AcDbLine
 62
4
  6
CONTINUOUS
 10
13.281983429
 20
9.0357325667
 11
13.281983429
 21
9.0688501196
  0
LINE
  5
33A
100
AcDbEntity
  8
0
100
AcDbLine
 62
4
  6
CONTINUOUS
 10
13.281983429
 20
9.1102468949
 11
13.281983429
 21
9.1433643372
  0
LINE
  5
33B
100
AcDbEntity
  8
0
100
AcDbLine
 62
4
  6
CONTINUOUS
 10
13.2930756646
 20
8.7704680845
 11
13.2930756646
 21
8.8035855268
  0
LINE
  5
33C
100
AcDbEntity
  8
0
100
AcDbLine
 62
4
  6
CONTINUOUS
 10
13.3041679003
 20
9.0902786746
 11
13.3041679003
 21
9.0571611218
  0
LINE
  5
33D
100
AcDbEntity
  8
0
100
AcDbLine
 62
4
  6
CONTINUOUS
 10
13.3041679003
 20
8.9550490171
 11
13.3041679003
 21
8.938490296
  0
LINE
  5
33E
100
AcDbEntity
  8
0
100
AcDbLine
 62
4
  6
CONTINUOUS
 10
13.3041679003
 20
8.8142998043
 11
13.3041679003
 21
8.781182362
  0
LINE
  5
33F
100
AcDbEntity
  8
0
100
AcDbLine
 62
4
  6
CONTINUOUS
 10
13.3041679003
 20
8.6569918703
 11
13.3041679003
 21
8.623874428
  0
LINE
  5
340
100
AcDbEntity
  8
0
100
AcDbLine
 62
4
  6
CONTINUOUS
 10
13.3041679003
 20
8.0967548839
 11
13.3041679003
 21
8.1298723427
  0
LINE
  5
341
100
AcDbEntity
  8
0
100
AcDbLine
 62
4
  6
CONTINUOUS
 10
13.3041679003
 20
8.196107255
 11
13.3041679003
 21
8.2209453575
  0
LINE
  5
342
100
AcDbEntity
  8
0
100
AcDbLine
 62
4
  6
CONTINUOUS
 10
13.3041679003
 20
8.8556966349
 11
13.3041679003
 21
8.8970934654
  0
LINE
  5
343
100
AcDbEntity
  8
0
100
AcDbLine
 62
4
  6
CONTINUOUS
 10
13.3041679003
 20
9.1316754499
 11
13.3041679003
 21
9.1647928923
  0
LINE
  5
344
100
AcDbEntity
  8
0
100
AcDbLine
 62
4
  6
CONTINUOUS
 10
13.3115627239
 20
8.5427040631
 11
13.3115627239
 21
8.5592627843
  0
LINE
  5
345
100
AcDbEntity
  8
0
100
AcDbLine
 62
4
  6
CONTINUOUS
 10
13.3631785926
 20
8.5760023906
 11
13.3631785926
 21
8.6339579424
  0
LINE
  5
346
100
AcDbEntity
  8
0
100
AcDbLine
 62
4
  6
CONTINUOUS
 10
13.3631785926
 20
8.6836341266
 11
13.3631785926
 21
8.7084722291
  0
LINE
  5
347
100
AcDbEntity
  8
0
100
AcDbLine
 62
4
  6
CONTINUOUS
 10
13.293815147
 20
9.1547928998
 11
13.2923361823
 21
9.1202468873
  0
LINE
  5
348
100
AcDbEntity
  8
0
100
AcDbLine
 62
4
  6
CONTINUOUS
 10
13.3041679003
 20
8.781182362
 11
13.3019494531
 21
8.7624807853
  0
LINE
  5
349
100
AcDbEntity
  8
0
100
AcDbLine
 62
4
  6
CONTINUOUS
 10
13.3041679003
 20
8.623874428
 11
13.3019494531
 21
8.6051728513
  0
LINE
  5
34A
100
AcDbEntity
  8
0
100
AcDbLine
 62
4
  6
CONTINUOUS
 10
13.4433384796
 20
9.2026287722
 11
13.449254339
 21
9.2524996622
  0
LINE
  5
34B
100
AcDbEntity
  8
0
100
AcDbLine
 62
4
  6
CONTINUOUS
 10
13.2952941116
 20
9.164500803
 11
13.293815147
 21
9.1547928998
  0
LINE
  5
34C
100
AcDbEntity
  8
0
100
AcDbLine
 62
4
  6
CONTINUOUS
 10
13.2923361823
 20
9.1202468873
 11
13.2908572177
 21
9.1105389841
  0
LINE
  5
34D
100
AcDbEntity
  8
0
100
AcDbLine
 62
4
  6
CONTINUOUS
 10
13.3764892742
 20
8.6964912585
 11
13.3742708282
 21
8.6833092521
  0
LINE
  5
34E
100
AcDbEntity
  8
0
100
AcDbLine
 62
4
  6
CONTINUOUS
 10
13.2952941116
 20
8.1378596486
 11
13.281983429
 21
8.067046964
  0
LINE
  5
34F
100
AcDbEntity
  8
0
100
AcDbLine
 62
4
  6
CONTINUOUS
 10
13.3041679003
 20
9.0571611218
 11
13.3019494531
 21
9.0467389333
  0
LINE
  5
350
100
AcDbEntity
  8
0
100
AcDbLine
 62
4
  6
CONTINUOUS
 10
13.3041679003
 20
8.938490296
 11
13.3019494531
 21
8.9280680522
  0
LINE
  5
351
100
AcDbEntity
  8
0
100
AcDbLine
 62
4
  6
CONTINUOUS
 10
13.3019494531
 20
8.8452743911
 11
13.3041679003
 21
8.8556966349
  0
LINE
  5
352
100
AcDbEntity
  8
0
100
AcDbLine
 62
4
  6
CONTINUOUS
 10
13.281983429
 20
8.472735826
 11
13.2842018769
 21
8.4831580428
  0
LINE
  5
353
100
AcDbEntity
  8
0
100
AcDbLine
 62
4
  6
CONTINUOUS
 10
13.4315067625
 20
9.0449314423
 11
13.4359436564
 21
9.0657758742
  0
LINE
  5
354
100
AcDbEntity
  8
0
100
AcDbLine
 62
4
  6
CONTINUOUS
 10
13.3764892742
 20
8.721329361
 11
13.380926169
 21
8.7421737937
  0
LINE
  5
355
100
AcDbEntity
  8
0
100
AcDbLine
 62
4
  6
CONTINUOUS
 10
13.4315067625
 20
8.9538584483
 11
13.4359436564
 21
8.9747028801
  0
LINE
  5
356
100
AcDbEntity
  8
0
100
AcDbLine
 62
4
  6
CONTINUOUS
 10
13.3942368516
 20
8.7136341029
 11
13.3897999573
 21
8.6927896638
  0
LINE
  5
357
100
AcDbEntity
  8
0
100
AcDbLine
 62
4
  6
CONTINUOUS
 10
13.2731096412
 20
8.1081517304
 11
13.2753280891
 21
8.1185739506
  0
LINE
  5
358
100
AcDbEntity
  8
0
100
AcDbLine
 62
4
  6
CONTINUOUS
 10
13.4625650216
 20
8.9590203153
 11
13.4581281273
 21
8.938175883
  0
LINE
  5
359
100
AcDbEntity
  8
0
100
AcDbLine
 62
4
  6
CONTINUOUS
 10
13.2997310059
 20
8.1752628158
 11
13.3041679003
 21
8.196107255
  0
LINE
  5
35A
100
AcDbEntity
  8
0
100
AcDbLine
 62
4
  6
CONTINUOUS
 10
13.4625650216
 20
8.8624277659
 11
13.4581281273
 21
8.8415833336
  0
LINE
  5
35B
100
AcDbEntity
  8
0
100
AcDbLine
 62
4
  6
CONTINUOUS
 10
13.3019494531
 20
8.0863326635
 11
13.3041679003
 21
8.0967548839
  0
LINE
  5
35C
100
AcDbEntity
  8
0
100
AcDbLine
 62
4
  6
CONTINUOUS
 10
13.281983429
 20
8.7017982552
 11
13.2842018769
 21
8.7094606667
  0
LINE
  5
35D
100
AcDbEntity
  8
0
100
AcDbLine
 62
4
  6
CONTINUOUS
 10
13.3631785926
 20
8.7084722291
 11
13.3676154864
 21
8.7237970918
  0
LINE
  5
35E
100
AcDbEntity
  8
0
100
AcDbLine
 62
4
  6
CONTINUOUS
 10
13.2731096412
 20
8.2406215584
 11
13.3041679003
 21
8.3285770865
  0
LINE
  5
35F
100
AcDbEntity
  8
0
100
AcDbLine
 62
4
  6
CONTINUOUS
 10
13.4315067625
 20
8.476415091
 11
13.4625650216
 21
8.5395325374
  0
LINE
  5
360
100
AcDbEntity
  8
0
100
AcDbLine
 62
4
  6
CONTINUOUS
 10
13.4581281273
 20
8.4220955005
 11
13.4625650216
 21
8.4098224835
  0
LINE
  5
361
100
AcDbEntity
  8
0
100
AcDbLine
 62
4
  6
CONTINUOUS
 10
13.380926169
 20
8.684218242
 11
13.3764892742
 21
8.6964912585
  0
LINE
  5
362
100
AcDbEntity
  8
0
100
AcDbLine
 62
4
  6
CONTINUOUS
 10
13.2842018769
 20
9.02959609
 11
13.281983429
 21
9.0357325667
  0
LINE
  5
363
100
AcDbEntity
  8
0
100
AcDbLine
 62
4
  6
CONTINUOUS
 10
13.3897999573
 20
8.7507452155
 11
13.3942368516
 21
8.7384722054
  0
LINE
  5
364
100
AcDbEntity
  8
0
100
AcDbLine
 62
4
  6
CONTINUOUS
 10
13.2842018769
 20
9.1041104182
 11
13.281983429
 21
9.1102468949
  0
LINE
  5
365
100
AcDbEntity
  8
0
100
AcDbLine
 62
4
  6
CONTINUOUS
 10
13.3742708282
 20
8.7302256586
 11
13.3764892742
 21
8.721329361
  0
LINE
  5
366
100
AcDbEntity
  8
0
100
AcDbLine
 62
4
  6
CONTINUOUS
 10
13.2842018769
 20
8.588030008
 11
13.281983429
 21
8.602445873
  0
LINE
  5
367
100
AcDbEntity
  8
0
100
AcDbLine
 62
4
  6
CONTINUOUS
 10
13.2952941116
 20
8.7560522186
 11
13.2930756646
 21
8.7704680845
  0
LINE
  5
368
100
AcDbEntity
  8
0
100
AcDbLine
 62
4
  6
CONTINUOUS
 10
13.3764892742
 20
8.6964912585
 11
13.3764892742
 21
8.721329361
  0
LINE
  5
369
100
AcDbEntity
  8
0
100
AcDbLine
 62
4
  6
CONTINUOUS
 10
13.3942368516
 20
8.7384722054
 11
13.3942368516
 21
8.7136341029
  0
LINE
  5
36A
100
AcDbEntity
  8
0
100
AcDbLine
 62
4
  6
CONTINUOUS
 10
13.3942368516
 20
8.606002367
 11
13.3942368516
 21
8.6639579187
  0
LINE
  5
36B
100
AcDbEntity
  8
0
100
AcDbLine
 62
4
  6
CONTINUOUS
 10
13.3942368516
 20
8.7881483827
 11
13.3942368516
 21
8.8295452133
  0
LINE
  5
36C
100
AcDbEntity
  8
0
100
AcDbLine
 62
4
  6
CONTINUOUS
 10
13.4315067625
 20
8.3384256904
 11
13.4315067625
 21
8.3798225072
  0
LINE
  5
36D
100
AcDbEntity
  8
0
100
AcDbLine
 62
4
  6
CONTINUOUS
 10
13.4315067625
 20
8.5426500033
 11
13.4315067625
 21
8.6088849156
  0
LINE
  5
36E
100
AcDbEntity
  8
0
100
AcDbLine
 62
4
  6
CONTINUOUS
 10
13.4315067625
 20
8.6420023856
 11
13.4315067625
 21
8.6916785767
  0
LINE
  5
36F
100
AcDbEntity
  8
0
100
AcDbLine
 62
4
  6
CONTINUOUS
 10
13.4315067625
 20
8.8324277896
 11
13.4315067625
 21
8.8655452319
  0
LINE
  5
370
100
AcDbEntity
  8
0
100
AcDbLine
 62
4
  6
CONTINUOUS
 10
13.4315067625
 20
8.9290203389
 11
13.4315067625
 21
8.9538584483
  0
LINE
  5
371
100
AcDbEntity
  8
0
100
AcDbLine
 62
4
  6
CONTINUOUS
 10
13.4315067625
 20
9.0035346118
 11
13.4315067625
 21
9.0449314423
  0
LINE
  5
372
100
AcDbEntity
  8
0
100
AcDbLine
 62
4
  6
CONTINUOUS
 10
13.4315067625
 20
9.1084066046
 11
13.4315067625
 21
9.1580827681
  0
LINE
  5
373
100
AcDbEntity
  8
0
100
AcDbLine
 62
4
  6
CONTINUOUS
 10
13.4448174442
 20
9.1543811789
 11
13.4448174442
 21
9.1212637366
  0
LINE
  5
374
100
AcDbEntity
  8
0
100
AcDbLine
 62
4
  6
CONTINUOUS
 10
13.4448174442
 20
8.6879769875
 11
13.4448174442
 21
8.6548595176
  0
LINE
  5
375
100
AcDbEntity
  8
0
100
AcDbLine
 62
4
  6
CONTINUOUS
 10
13.4536912329
 20
8.4757653411
 11
13.4536912329
 21
8.5199219493
  0
LINE
  5
376
100
AcDbEntity
  8
0
100
AcDbLine
 62
4
  6
CONTINUOUS
 10
13.4625650216
 20
9.0749314187
 11
13.4625650216
 21
9.0335345881
  0
LINE
  5
377
100
AcDbEntity
  8
0
100
AcDbLine
 62
4
  6
CONTINUOUS
 10
13.4625650216
 20
8.9838584246
 11
13.4625650216
 21
8.9590203153
  0
LINE
  5
378
100
AcDbEntity
  8
0
100
AcDbLine
 62
4
  6
CONTINUOUS
 10
13.4625650216
 20
8.8955452082
 11
13.4625650216
 21
8.8624277659
  0
LINE
  5
379
100
AcDbEntity
  8
0
100
AcDbLine
 62
4
  6
CONTINUOUS
 10
13.4625650216
 20
8.4098224835
 11
13.4625650216
 21
8.3684256668
  0
LINE
  5
37A
100
AcDbEntity
  8
0
100
AcDbLine
 62
4
  6
CONTINUOUS
 10
13.4625650216
 20
8.672002362
 11
13.4625650216
 21
8.7216785531
  0
LINE
  5
37B
100
AcDbEntity
  8
0
100
AcDbLine
 62
4
  6
CONTINUOUS
 10
13.4625650216
 20
9.138406581
 11
13.4625650216
 21
9.1880827445
  0
LINE
  5
37C
100
AcDbEntity
  8
0
100
AcDbLine
 62
4
  6
CONTINUOUS
 10
13.449254339
 20
8.2893336147
 11
13.455170198
 21
8.3392045077
  0
LINE
  5
37D
100
AcDbEntity
  8
0
100
AcDbLine
 62
4
  6
CONTINUOUS
 10
13.4315067625
 20
8.3798225072
 11
13.4359436564
 21
8.4006669459
  0
LINE
  5
37E
100
AcDbEntity
  8
0
100
AcDbLine
 62
4
  6
CONTINUOUS
 10
13.3041679003
 20
9.1647928923
 11
13.3019494531
 21
9.1709293697
  0
LINE
  5
37F
100
AcDbEntity
  8
0
100
AcDbLine
 62
4
  6
CONTINUOUS
 10
13.4359436564
 20
8.820154779
 11
13.4315067625
 21
8.8324277896
  0
LINE
  5
380
100
AcDbEntity
  8
0
100
AcDbLine
 62
4
  6
CONTINUOUS
 10
13.4359436564
 20
8.9167473284
 11
13.4315067625
 21
8.9290203389
  0
LINE
  5
381
100
AcDbEntity
  8
0
100
AcDbLine
 62
4
  6
CONTINUOUS
 10
13.4581281273
 20
8.9961314347
 11
13.4625650216
 21
8.9838584246
  0
LINE
  5
382
100
AcDbEntity
  8
0
100
AcDbLine
 62
4
  6
CONTINUOUS
 10
13.4581281273
 20
9.0872044288
 11
13.4625650216
 21
9.0749314187
  0
LINE
  5
383
100
AcDbEntity
  8
0
100
AcDbLine
 62
4
  6
CONTINUOUS
 10
13.4433384796
 20
8.3277759446
 11
13.449254339
 21
8.2893336147
  0
LINE
  5
384
100
AcDbEntity
  8
0
100
AcDbLine
 62
4
  6
CONTINUOUS
 10
13.449254339
 20
9.2524996622
 11
13.455170198
 21
9.2140573353
  0
LINE
  5
385
100
AcDbEntity
  8
0
100
AcDbLine
 62
7
  6
CONTINUOUS
 10
13.8036882479
 20
7.3842662227
 11
13.8036882479
 21
10.2820438733
  0
LINE
  5
386
100
AcDbEntity
  8
0
100
AcDbLine
 62
7
  6
CONTINUOUS
 10
13.8036882479
 20
7.3842662227
 11
12.7844596988
 21
6.3997669859
  0
ARC
  5
387
100
AcDbEntity
  8
0
100
AcDbCircle
 62
7
  6
CONTINUOUS
 10
9.4418060408
 20
8.8991189485
 40
0.5163443539
100
AcDbArc
 50
25.7640228377
 51
32.3073428428
  0
ARC
  5
388
100
AcDbEntity
  8
0
100
AcDbCircle
 62
7
  6
CONTINUOUS
 10
9.4139218633
 20
8.8758242518
 40
0.5163443539
100
AcDbArc
 50
205.7640228377
 51
212.3073428428
  0
ARC
  5
389
100
AcDbEntity
  8
0
100
AcDbCircle
 62
7
  6
CONTINUOUS
 10
9.3291069176
 20
8.7902599484
 40
0.5163443539
100
AcDbArc
 50
25.7640228377
 51
32.3073428428
  0
ARC
  5
38A
100
AcDbEntity
  8
0
100
AcDbCircle
 62
7
  6
CONTINUOUS
 10
11.3736578078
 20
8.7651445735
 40
0.5163443539
100
AcDbArc
 50
25.7640228377
 51
32.3073428428
  0
ARC
  5
38B
100
AcDbEntity
  8
0
100
AcDbCircle
 62
7
  6
CONTINUOUS
 10
11.3457736303
 20
8.7418498767
 40
0.5163443539
100
AcDbArc
 50
205.7640228377
 51
212.3073428428
  0
ARC
  5
38C
100
AcDbEntity
  8
0
100
AcDbCircle
 62
7
  6
CONTINUOUS
 10
11.2609586846
 20
8.6562855733
 40
0.5163443539
100
AcDbArc
 50
25.7640228377
 51
32.3073428428
  0
ARC
  5
38D
100
AcDbEntity
  8
0
100
AcDbCircle
 62
7
  6
CONTINUOUS
 10
9.4510138929
 20
8.9361635229
 40
0.4792267106
100
AcDbArc
 50
82.590107291
 51
86.0275106487
  0
ARC
  5
38E
100
AcDbEntity
  8
0
100
AcDbCircle
 62
7
  6
CONTINUOUS
 10
9.4047140112
 20
8.8387796774
 40
0.4792267106
100
AcDbArc
 50
262.590107291
 51
266.0275106487
  0
ARC
  5
38F
100
AcDbEntity
  8
0
100
AcDbCircle
 62
7
  6
CONTINUOUS
 10
9.3383147697
 20
8.8273045227
 40
0.4792267106
100
AcDbArc
 50
82.590107291
 51
86.0275106487
  0
ARC
  5
390
100
AcDbEntity
  8
0
100
AcDbCircle
 62
7
  6
CONTINUOUS
 10
11.3828656599
 20
8.8021891478
 40
0.4792267106
100
AcDbArc
 50
82.590107291
 51
86.0275106487
  0
ARC
  5
391
100
AcDbEntity
  8
0
100
AcDbCircle
 62
7
  6
CONTINUOUS
 10
11.3365657782
 20
8.7048053024
 40
0.4792267106
100
AcDbArc
 50
262.590107291
 51
266.0275106487
  0
ARC
  5
392
100
AcDbEntity
  8
0
100
AcDbCircle
 62
7
  6
CONTINUOUS
 10
11.2701665367
 20
8.6933301477
 40
0.4792267106
100
AcDbArc
 50
82.590107291
 51
86.0275106487
  0
ARC
  5
393
100
AcDbEntity
  8
0
100
AcDbCircle
 62
7
  6
CONTINUOUS
 10
9.4042716171
 20
8.8328327942
 40
0.4732634682
100
AcDbArc
 50
266.0310634489
 51
269.4972694561
  0
ARC
  5
394
100
AcDbEntity
  8
0
100
AcDbCircle
 62
7
  6
CONTINUOUS
 10
9.3387571638
 20
8.833251406
 40
0.4732634681
100
AcDbArc
 50
86.0310634489
 51
89.4972694561
  0
ARC
  5
395
100
AcDbEntity
  8
0
100
AcDbCircle
 62
7
  6
CONTINUOUS
 10
11.3361233841
 20
8.6988584191
 40
0.4732634681
100
AcDbArc
 50
266.0310634489
 51
269.4972694561
  0
ARC
  5
396
100
AcDbEntity
  8
0
100
AcDbCircle
 62
7
  6
CONTINUOUS
 10
11.2706089309
 20
8.6992770309
 40
0.4732634681
100
AcDbArc
 50
86.0310634489
 51
89.4972694561
  0
ARC
  5
397
100
AcDbEntity
  8
0
100
AcDbCircle
 62
7
  6
CONTINUOUS
 10
9.4514950269
 20
8.9431026561
 40
0.4722709174
100
AcDbArc
 50
86.0274199487
 51
89.5009129563
  0
ARC
  5
398
100
AcDbEntity
  8
0
100
AcDbCircle
 62
7
  6
CONTINUOUS
 10
11.383346794
 20
8.809128281
 40
0.4722709174
100
AcDbArc
 50
86.0274199487
 51
89.5009129563
  0
ARC
  5
399
100
AcDbEntity
  8
0
100
AcDbCircle
 62
7
  6
CONTINUOUS
 10
9.5236766869
 20
8.8996830014
 40
0.4313060869
100
AcDbArc
 50
325.2870362755
 51
332.6649360488
  0
ARC
  5
39A
100
AcDbEntity
  8
0
100
AcDbCircle
 62
7
  6
CONTINUOUS
 10
9.3320512172
 20
8.875260199
 40
0.4313060869
100
AcDbArc
 50
145.2870362755
 51
152.6649360488
  0
ARC
  5
39B
100
AcDbEntity
  8
0
100
AcDbCircle
 62
7
  6
CONTINUOUS
 10
9.4109775637
 20
8.7908240012
 40
0.4313060869
100
AcDbArc
 50
325.2870362755
 51
332.6649360488
  0
ARC
  5
39C
100
AcDbEntity
  8
0
100
AcDbCircle
 62
7
  6
CONTINUOUS
 10
11.4555284539
 20
8.7657086263
 40
0.4313060869
100
AcDbArc
 50
325.2870362755
 51
332.6649360488
  0
ARC
  5
39D
100
AcDbEntity
  8
0
100
AcDbCircle
 62
7
  6
CONTINUOUS
 10
11.2639029843
 20
8.7412858239
 40
0.4313060869
100
AcDbArc
 50
145.2870362755
 51
152.6649360488
  0
ARC
  5
39E
100
AcDbEntity
  8
0
100
AcDbCircle
 62
7
  6
CONTINUOUS
 10
11.3428293307
 20
8.6568496262
 40
0.4313060869
100
AcDbArc
 50
325.2870362755
 51
332.6649360488
  0
ARC
  5
39F
100
AcDbEntity
  8
0
100
AcDbCircle
 62
7
  6
CONTINUOUS
 10
11.5030435737
 20
7.6370133869
 40
0.3747834775
100
AcDbArc
 50
312.301680235
 51
313.0377144568
  0
ARC
  5
3A0
100
AcDbEntity
  8
0
100
AcDbCircle
 62
7
  6
CONTINUOUS
 10
9.5711918066
 20
7.770987762
 40
0.3747834775
100
AcDbArc
 50
312.3016802349
 51
313.0377144567
  0
ARC
  5
3A1
100
AcDbEntity
  8
0
100
AcDbCircle
 62
7
  6
CONTINUOUS
 10
11.4256150453
 20
7.7171729617
 40
0.3747681348
100
AcDbArc
 50
134.6474941263
 51
135.7120434725
  0
ARC
  5
3A2
100
AcDbEntity
  8
0
100
AcDbCircle
 62
7
  6
CONTINUOUS
 10
9.4937632782
 20
7.8511473368
 40
0.3747681348
100
AcDbArc
 50
134.6474941263
 51
135.7120434725
  0
ARC
  5
3A3
100
AcDbEntity
  8
0
100
AcDbCircle
 62
7
  6
CONTINUOUS
 10
9.5003166276
 20
9.0325279964
 40
0.3735098238
100
AcDbArc
 50
125.72368488
 51
127.3112076297
  0
ARC
  5
3A4
100
AcDbEntity
  8
0
100
AcDbCircle
 62
7
  6
CONTINUOUS
 10
11.4321683946
 20
8.8985536213
 40
0.3735098238
100
AcDbArc
 50
125.72368488
 51
127.3112076297
  0
ARC
  5
3A5
100
AcDbEntity
  8
0
100
AcDbCircle
 62
7
  6
CONTINUOUS
 10
9.5049810324
 20
9.0381871322
 40
0.3726751537
100
AcDbArc
 50
128.8885395426
 51
129.1365371717
  0
ARC
  5
3A6
100
AcDbEntity
  8
0
100
AcDbCircle
 62
7
  6
CONTINUOUS
 10
11.4368327994
 20
8.9042127571
 40
0.3726751537
100
AcDbArc
 50
128.8885395426
 51
129.1365371718
  0
ARC
  5
3A7
100
AcDbEntity
  8
0
100
AcDbCircle
 62
7
  6
CONTINUOUS
 10
11.7860218696
 20
8.0183352644
 40
0.3485170737
100
AcDbArc
 50
170.526888694
 51
180.0268318237
  0
ARC
  5
3A8
100
AcDbEntity
  8
0
100
AcDbCircle
 62
7
  6
CONTINUOUS
 10
9.8541701025
 20
8.1523096395
 40
0.3485170737
100
AcDbArc
 50
170.526888694
 51
180.0268318236
  0
ARC
  5
3A9
100
AcDbEntity
  8
0
100
AcDbCircle
 62
7
  6
CONTINUOUS
 10
9.8588587476
 20
8.1553419538
 40
0.3328233466
100
AcDbArc
 50
170.7165021001
 51
180.0257890835
  0
ARC
  5
3AA
100
AcDbEntity
  8
0
100
AcDbCircle
 62
7
  6
CONTINUOUS
 10
11.7907105146
 20
8.0213675787
 40
0.3328233466
100
AcDbArc
 50
170.7165021002
 51
180.0257890834
  0
ARC
  5
3AB
100
AcDbEntity
  8
0
100
AcDbCircle
 62
7
  6
CONTINUOUS
 10
11.7947456627
 20
8.0244934376
 40
0.327539974
100
AcDbArc
 50
171.2035777603
 51
180.0231839978
  0
ARC
  5
3AC
100
AcDbEntity
  8
0
100
AcDbCircle
 62
7
  6
CONTINUOUS
 10
9.8628938957
 20
8.1584678127
 40
0.327539974
100
AcDbArc
 50
171.2035777603
 51
180.0231839978
  0
SPLINE
  5
3AD
100
AcDbEntity
  8
0
100
AcDbSpline
 62
7
  6
CONTINUOUS
 70
0
 71
3
 72
15
 73
11
 74
0
 42
0.0000001
 43
0.0000001
 44
0.0000000001
 40
0.0
 40
0.0
 40
0.0
 40
0.0
 40
0.1307127497
 40
0.2609289548
 40
0.3901052665
 40
0.5175755854
 40
0.6426742535
 40
0.7648942407
 40
0.8839930104
 40
1.0
 40
1.0
 40
1.0
 40
1.0
 10
8.9489063288
 20
9.0733130582
 30
0.0
 10
8.9477170545
 20
9.0549520843
 30
0.0
 10
8.945559777
 20
9.0182853038
 30
0.0
 10
8.9431084655
 20
8.9634257948
 30
0.0
 10
8.9415703652
 20
8.9089889674
 30
0.0
 10
8.9410389572
 20
8.8552529077
 30
0.0
 10
8.941551116
 20
8.8024956983
 30
0.0
 10
8.9430740219
 20
8.7509370373
 30
0.0
 10
8.9455162455
 20
8.700695582
 30
0.0
 10
8.9477006639
 20
8.6676719392
 30
0.0
 10
8.9489063288
 20
8.6513870793
 30
0.0
  0
SPLINE
  5
3AE
100
AcDbEntity
  8
0
100
AcDbSpline
 62
7
  6
CONTINUOUS
 70
0
 71
3
 72
19
 73
15
 74
0
 42
0.0000001
 43
0.0000001
 44
0.0000000001
 40
0.0
 40
0.0
 40
0.0
 40
0.0
 40
0.1211309729
 40
0.2440504747
 40
0.3061433785
 40
0.3686103884
 40
0.4313995925
 40
0.494447987
 40
0.5576846701
 40
0.6210353746
 40
0.6844274546
 40
0.747793941
 40
0.8742258059
 40
1.0
 40
1.0
 40
1.0
 40
1.0
 10
8.9775110515
 20
8.5998585019
 30
0.0
 10
8.9913417817
 20
8.5889803981
 30
0.0
 10
9.0194116373
 20
8.5673214624
 30
0.0
 10
9.0551930122
 20
8.5409054906
 30
0.0
 10
9.0844894913
 20
8.5200684912
 30
0.0
 10
9.106860261
 20
8.5045682049
 30
0.0
 10
9.1295403075
 20
8.4892743989
 30
0.0
 10
9.1525081461
 20
8.4742113986
 30
0.0
 10
9.1757362678
 20
8.4594006958
 30
0.0
 10
9.1991926156
 20
8.4448592497
 30
0.0
 10
9.2228428287
 20
8.4305987725
 30
0.0
 10
9.2545637112
 20
8.4119819548
 30
0.0
 10
9.2944900876
 20
8.389450129
 30
0.0
 10
9.3267498948
 20
8.3720800518
 30
0.0
 10
9.3429096677
 20
8.3635550324
 30
0.0
  0
SPLINE
  5
3AF
100
AcDbEntity
  8
0
100
AcDbSpline
 62
7
  6
CONTINUOUS
 70
0
 71
3
 72
15
 73
11
 74
0
 42
0.0000001
 43
0.0000001
 44
0.0000000001
 40
0.0
 40
0.0
 40
0.0
 40
0.0
 40
0.1128128137
 40
0.2295619377
 40
0.3503742146
 40
0.4750618339
 40
0.6031113457
 40
0.7337873942
 40
0.8663091291
 40
1.0
 40
1.0
 40
1.0
 40
1.0
 10
9.4001191132
 20
8.3595875438
 30
0.0
 10
9.4140784782
 20
8.3661246777
 30
0.0
 10
9.4424373644
 20
8.3795275455
 30
0.0
 10
9.4855614806
 20
8.4003176695
 30
0.0
 10
9.5299678403
 20
8.4221806217
 30
0.0
 10
9.5755669514
 20
8.4451124385
 30
0.0
 10
9.6221747409
 20
8.469034217
 30
0.0
 10
9.6695479827
 20
8.4938052478
 30
0.0
 10
9.7174347731
 20
8.5192547424
 30
0.0
 10
9.7494569326
 20
8.5365077425
 30
0.0
 10
9.7655177294
 20
8.5452100532
 30
0.0
  0
SPLINE
  5
3B0
100
AcDbEntity
  8
0
100
AcDbSpline
 62
7
  6
CONTINUOUS
 70
0
 71
3
 72
19
 73
15
 74
0
 42
0.0000001
 43
0.0000001
 44
0.0000000001
 40
0.0
 40
0.0
 40
0.0
 40
0.0
 40
0.1328015629
 40
0.2663305367
 40
0.3994308556
 40
0.4652784426
 40
0.530309522
 40
0.5942642601
 40
0.6569145156
 40
0.7180856282
 40
0.7776680806
 40
0.8356180425
 40
0.8919479122
 40
1.0
 40
1.0
 40
1.0
 40
1.0
 10
9.9068215753
 20
8.7016301422
 30
0.0
 10
9.9088189446
 20
8.7202493123
 30
0.0
 10
9.9124885641
 20
8.7576270831
 30
0.0
 10
9.9167502407
 20
8.8137934848
 30
0.0
 10
9.919042826
 20
8.8606265934
 30
0.0
 10
9.9199855138
 20
8.8978390683
 30
0.0
 10
9.9202253103
 20
8.9253123259
 30
0.0
 10
9.9199933467
 20
8.9523348107
 30
0.0
 10
9.9192960162
 20
8.978804852
 30
0.0
 10
9.918152148
 20
9.0046422164
 30
0.0
 10
9.9165905273
 20
9.029793576
 30
0.0
 10
9.9146463282
 20
9.0542335029
 30
0.0
 10
9.9116367523
 20
9.0854401812
 30
0.0
 10
9.9088646798
 20
9.1084575891
 30
0.0
 10
9.9068215753
 20
9.1235561211
 30
0.0
  0
SPLINE
  5
3B1
100
AcDbEntity
  8
0
100
AcDbSpline
 62
7
  6
CONTINUOUS
 70
0
 71
3
 72
20
 73
16
 74
0
 42
0.0000001
 43
0.0000001
 44
0.0000000001
 40
0.0
 40
0.0
 40
0.0
 40
0.0
 40
0.1168044981
 40
0.176753794
 40
0.2377411636
 40
0.2997231994
 40
0.3626075767
 40
0.4262490679
 40
0.4904552156
 40
0.5550012545
 40
0.6196521964
 40
0.6841864603
 40
0.7484148953
 40
0.875411599
 40
1.0
 40
1.0
 40
1.0
 40
1.0
 10
9.8782168526
 20
9.1750846984
 30
0.0
 10
9.8656008178
 20
9.1865057645
 30
0.0
 10
9.8462326301
 20
9.2034874978
 30
0.0
 10
9.8195756896
 20
9.2256071931
 30
0.0
 10
9.7987361776
 20
9.2422220514
 30
0.0
 10
9.77721653
 20
9.2586606167
 30
0.0
 10
9.7550323082
 20
9.27485591
 30
0.0
 10
9.7322244007
 20
9.2907348123
 30
0.0
 10
9.7088588832
 20
9.3062238625
 30
0.0
 10
9.6850228608
 20
9.3212560786
 30
0.0
 10
9.6608166918
 20
9.3357775555
 30
0.0
 10
9.6363441503
 20
9.3497521343
 30
0.0
 10
9.6036130822
 20
9.367566566
 30
0.0
 10
9.5625771111
 20
9.3884028725
 30
0.0
 10
9.5293656754
 20
9.4039267817
 30
0.0
 10
9.5128182363
 20
9.411388168
 30
0.0
  0
SPLINE
  5
3B2
100
AcDbEntity
  8
0
100
AcDbSpline
 62
7
  6
CONTINUOUS
 70
0
 71
3
 72
15
 73
11
 74
0
 42
0.0000001
 43
0.0000001
 44
0.0000000001
 40
0.0
 40
0.0
 40
0.0
 40
0.0
 40
0.1024590394
 40
0.2125892926
 40
0.3308757892
 40
0.4568382862
 40
0.5888686932
 40
0.7247066359
 40
0.8622407571
 40
1.0
 40
1.0
 40
1.0
 40
1.0
 10
9.4556087909
 20
9.4153556565
 30
0.0
 10
9.4427653015
 20
9.4097742281
 30
0.0
 10
9.4161978561
 20
9.3980057106
 30
0.0
 10
9.3751246019
 20
9.3790772963
 30
0.0
 10
9.3314546958
 20
9.3581214632
 30
0.0
 10
9.2854370261
 20
9.3351538752
 30
0.0
 10
9.2376275933
 20
9.3104178009
 30
0.0
 10
9.1887438398
 20
9.2843271773
 30
0.0
 10
9.1394566451
 20
9.2573373254
 30
0.0
 10
9.1066130085
 20
9.2389777446
 30
0.0
 10
9.0902101747
 20
9.2297331471
 30
0.0
  0
SPLINE
  5
3B3
100
AcDbEntity
  8
0
100
AcDbSpline
 62
7
  6
CONTINUOUS
 70
0
 71
3
 72
52
 73
48
 74
0
 42
0.0000001
 43
0.0000001
 44
0.0000000001
 40
0.0
 40
0.0
 40
0.0
 40
0.0
 40
0.0311866657
 40
0.0621624584
 40
0.0775790405
 40
0.0929473314
 40
0.1082695143
 40
0.1235485687
 40
0.138787887
 40
0.1539911669
 40
0.1691625276
 40
0.1843064036
 40
0.199427552
 40
0.2145309418
 40
0.2296217493
 40
0.2447052657
 40
0.2597868728
 40
0.2748719733
 40
0.2899659279
 40
0.3050740159
 40
0.3202013364
 40
0.3353528147
 40
0.3505330972
 40
0.3657465569
 40
0.3809971862
 40
0.3962886177
 40
0.4116240404
 40
0.4270062155
 40
0.4424374262
 40
0.4579194555
 40
0.4890310876
 40
0.5203549231
 40
0.5518869253
 40
0.5836151897
 40
0.6155205913
 40
0.6475775326
 40
0.6797550132
 40
0.7120177639
 40
0.7443275126
 40
0.7766443786
 40
0.8089282028
 40
0.8411399968
 40
0.8732432951
 40
0.9052053839
 40
0.9369988315
 40
0.9686016369
 40
1.0
 40
1.0
 40
1.0
 40
1.0
 10
9.3626980722
 20
8.4091780602
 30
0.0
 10
9.3762388046
 20
8.4082390073
 30
0.0
 10
9.4033379779
 20
8.4076811595
 30
0.0
 10
9.4370567574
 20
8.4103341318
 30
0.0
 10
9.4636285016
 20
8.4144564233
 30
0.0
 10
9.4832864915
 20
8.4185314104
 30
0.0
 10
9.5026537662
 20
8.4235849333
 30
0.0
 10
9.5216841845
 20
8.4296045421
 30
0.0
 10
9.5403317645
 20
8.4365758357
 30
0.0
 10
9.558551529
 20
8.4444821598
 30
0.0
 10
9.5762996167
 20
8.4533042446
 30
0.0
 10
9.5935330233
 20
8.4630212205
 30
0.0
 10
9.6102104673
 20
8.4736091792
 30
0.0
 10
9.626291329
 20
8.4850432094
 30
0.0
 10
9.6417372914
 20
8.4972950791
 30
0.0
 10
9.6565105293
 20
8.5103359481
 30
0.0
 10
9.6705760251
 20
8.5241336617
 30
0.0
 10
9.6838991992
 20
8.5386556085
 30
0.0
 10
9.6964485817
 20
8.5538661507
 30
0.0
 10
9.7081932835
 20
8.5697291173
 30
0.0
 10
9.7191055658
 20
8.586205805
 30
0.0
 10
9.7291586474
 20
8.6032567885
 30
0.0
 10
9.738328681
 20
8.6208407112
 30
0.0
 10
9.7465933585
 20
8.6389152852
 30
0.0
 10
9.753932866
 20
8.6574368746
 30
0.0
 10
9.7603296325
 20
8.6763607722
 30
0.0
 10
9.7657680355
 20
8.6956414639
 30
0.0
 10
9.7702354176
 20
8.7152321951
 30
0.0
 10
9.7737205175
 20
8.7350864851
 30
0.0
 10
9.7770524308
 20
8.7618842718
 30
0.0
 10
9.7787140883
 20
8.7958158265
 30
0.0
 10
9.7766972196
 20
8.8367264277
 30
0.0
 10
9.7706952973
 20
8.877516703
 30
0.0
 10
9.7607670223
 20
8.9177918795
 30
0.0
 10
9.7470091084
 20
8.9571658737
 30
0.0
 10
9.7295546661
 20
8.9952605539
 30
0.0
 10
9.7085720754
 20
9.0317104469
 30
0.0
 10
9.6842633255
 20
9.0661658563
 30
0.0
 10
9.6568620862
 20
9.0982962227
 30
0.0
 10
9.6266315162
 20
9.1277932103
 30
0.0
 10
9.5938617448
 20
9.1543736168
 30
0.0
 10
9.5588672012
 20
9.1777820536
 30
0.0
 10
9.5219834804
 20
9.1977933042
 30
0.0
 10
9.4835647901
 20
9.2142146404
 30
0.0
 10
9.4439784817
 20
9.2268872988
 30
0.0
 10
9.4036097126
 20
9.2356884114
 30
0.0
 10
9.37633072
 20
9.2389288927
 30
0.0
 10
9.3626980722
 20
9.2398743201
 30
0.0
  0
SPLINE
  5
3B4
100
AcDbEntity
  8
0
100
AcDbSpline
 62
7
  6
CONTINUOUS
 70
0
 71
3
 72
52
 73
48
 74
0
 42
0.0000001
 43
0.0000001
 44
0.0000000001
 40
0.0
 40
0.0
 40
0.0
 40
0.0
 40
0.0311866657
 40
0.0621624584
 40
0.0775790405
 40
0.0929473314
 40
0.1082695143
 40
0.1235485687
 40
0.138787887
 40
0.1539911669
 40
0.1691625276
 40
0.1843064036
 40
0.199427552
 40
0.2145309418
 40
0.2296217493
 40
0.2447052657
 40
0.2597868728
 40
0.2748719733
 40
0.2899659279
 40
0.3050740159
 40
0.3202013364
 40
0.3353528147
 40
0.3505330972
 40
0.3657465569
 40
0.3809971862
 40
0.3962886177
 40
0.4116240404
 40
0.4270062155
 40
0.4424374262
 40
0.4579194555
 40
0.4890310876
 40
0.5203549231
 40
0.5518869253
 40
0.5836151897
 40
0.6155205913
 40
0.6475775326
 40
0.6797550132
 40
0.7120177639
 40
0.7443275126
 40
0.7766443786
 40
0.8089282028
 40
0.8411399968
 40
0.8732432951
 40
0.9052053839
 40
0.9369988315
 40
0.9686016369
 40
1.0
 40
1.0
 40
1.0
 40
1.0
 10
9.3626980722
 20
9.2398743201
 30
0.0
 10
9.3491573399
 20
9.240813373
 30
0.0
 10
9.3220581666
 20
9.2413712208
 30
0.0
 10
9.2883393871
 20
9.2387182485
 30
0.0
 10
9.2617676428
 20
9.234595957
 30
0.0
 10
9.242109653
 20
9.2305209699
 30
0.0
 10
9.2227423782
 20
9.225467447
 30
0.0
 10
9.20371196
 20
9.2194478382
 30
0.0
 10
9.18506438
 20
9.2124765446
 30
0.0
 10
9.1668446155
 20
9.2045702205
 30
0.0
 10
9.1490965278
 20
9.1957481357
 30
0.0
 10
9.1318631212
 20
9.1860311598
 30
0.0
 10
9.1151856772
 20
9.1754432011
 30
0.0
 10
9.0991048155
 20
9.1640091709
 30
0.0
 10
9.0836588531
 20
9.1517573012
 30
0.0
 10
9.0688856152
 20
9.1387164322
 30
0.0
 10
9.0548201194
 20
9.1249187186
 30
0.0
 10
9.0414969453
 20
9.1103967719
 30
0.0
 10
9.0289475628
 20
9.0951862296
 30
0.0
 10
9.017202861
 20
9.079323263
 30
0.0
 10
9.0062905787
 20
9.0628465753
 30
0.0
 10
8.9962374971
 20
9.0457955918
 30
0.0
 10
8.9870674634
 20
9.0282116691
 30
0.0
 10
8.978802786
 20
9.0101370951
 30
0.0
 10
8.9714632785
 20
8.9916155057
 30
0.0
 10
8.965066512
 20
8.9726916081
 30
0.0
 10
8.959628109
 20
8.9534109164
 30
0.0
 10
8.9551607269
 20
8.9338201852
 30
0.0
 10
8.951675627
 20
8.9139658952
 30
0.0
 10
8.9483437137
 20
8.8871681085
 30
0.0
 10
8.9466820562
 20
8.8532365538
 30
0.0
 10
8.9486989248
 20
8.8123259526
 30
0.0
 10
8.9547008472
 20
8.7715356773
 30
0.0
 10
8.9646291222
 20
8.7312605008
 30
0.0
 10
8.9783870361
 20
8.6918865066
 30
0.0
 10
8.9958414784
 20
8.6537918264
 30
0.0
 10
9.0168240691
 20
8.6173419334
 30
0.0
 10
9.0411328189
 20
8.582886524
 30
0.0
 10
9.0685340583
 20
8.5507561576
 30
0.0
 10
9.0987646282
 20
8.52125917
 30
0.0
 10
9.1315343997
 20
8.4946787635
 30
0.0
 10
9.1665289432
 20
8.4712703267
 30
0.0
 10
9.2034126641
 20
8.4512590761
 30
0.0
 10
9.2418313544
 20
8.4348377399
 30
0.0
 10
9.2814176628
 20
8.4221650815
 30
0.0
 10
9.3217864319
 20
8.4133639689
 30
0.0
 10
9.3490654244
 20
8.4101234876
 30
0.0
 10
9.3626980722
 20
8.4091780602
 30
0.0
  0
SPLINE
  5
3B5
100
AcDbEntity
  8
0
100
AcDbSpline
 62
7
  6
CONTINUOUS
 70
0
 71
3
 72
15
 73
11
 74
0
 42
0.0000001
 43
0.0000001
 44
0.0000000001
 40
0.0
 40
0.0
 40
0.0
 40
0.0
 40
0.1160069896
 40
0.2351057593
 40
0.3573257466
 40
0.4824244147
 40
0.6098947336
 40
0.7390710453
 40
0.8692872503
 40
1.0
 40
1.0
 40
1.0
 40
1.0
 10
9.7941224521
 20
8.592771142
 30
0.0
 10
9.7929167872
 20
8.609056002
 30
0.0
 10
9.7907323689
 20
8.6420796448
 30
0.0
 10
9.7882901453
 20
8.6923211001
 30
0.0
 10
9.7867672394
 20
8.7438797611
 30
0.0
 10
9.7862550806
 20
8.7966369705
 30
0.0
 10
9.7867864886
 20
8.8503730302
 30
0.0
 10
9.7883245889
 20
8.9048098576
 30
0.0
 10
9.7907759004
 20
8.9596693666
 30
0.0
 10
9.7929331779
 20
8.9963361471
 30
0.0
 10
9.7941224521
 20
9.0146971209
 30
0.0
  0
SPLINE
  5
3B6
100
AcDbEntity
  8
0
100
AcDbSpline
 62
7
  6
CONTINUOUS
 70
0
 71
3
 72
19
 73
15
 74
0
 42
0.0000001
 43
0.0000001
 44
0.0000000001
 40
0.0
 40
0.0
 40
0.0
 40
0.0
 40
0.1257741941
 40
0.252206059
 40
0.3155725455
 40
0.3789646255
 40
0.4423153299
 40
0.505552013
 40
0.5686004075
 40
0.6313896116
 40
0.6938566216
 40
0.7559495253
 40
0.8788690271
 40
1.0
 40
1.0
 40
1.0
 40
1.0
 10
9.7655177294
 20
9.0662256983
 30
0.0
 10
9.7493579565
 20
9.0747507177
 30
0.0
 10
9.7170981492
 20
9.0921207949
 30
0.0
 10
9.6771717728
 20
9.1146526207
 30
0.0
 10
9.6454508903
 20
9.1332694384
 30
0.0
 10
9.6218006773
 20
9.1475299156
 30
0.0
 10
9.5983443295
 20
9.1620713617
 30
0.0
 10
9.5751162078
 20
9.1768820645
 30
0.0
 10
9.5521483692
 20
9.1919450649
 30
0.0
 10
9.5294683227
 20
9.2072388708
 30
0.0
 10
9.507097553
 20
9.2227391571
 30
0.0
 10
9.4778010739
 20
9.2435761566
 30
0.0
 10
9.442019699
 20
9.2699921283
 30
0.0
 10
9.4139498434
 20
9.291651064
 30
0.0
 10
9.4001191132
 20
9.3025291678
 30
0.0
  0
SPLINE
  5
3B7
100
AcDbEntity
  8
0
100
AcDbSpline
 62
7
  6
CONTINUOUS
 70
0
 71
3
 72
15
 73
11
 74
0
 42
0.0000001
 43
0.0000001
 44
0.0000000001
 40
0.0
 40
0.0
 40
0.0
 40
0.0
 40
0.1336908709
 40
0.2662126058
 40
0.3968886543
 40
0.5249381662
 40
0.6496257854
 40
0.7704380623
 40
0.8871871863
 40
1.0
 40
1.0
 40
1.0
 40
1.0
 10
9.3429096677
 20
9.3064966564
 30
0.0
 10
9.3268488709
 20
9.2977943457
 30
0.0
 10
9.2948267114
 20
9.2805413455
 30
0.0
 10
9.246939921
 20
9.255091851
 30
0.0
 10
9.1995666792
 20
9.2303208202
 30
0.0
 10
9.1529588897
 20
9.2063990417
 30
0.0
 10
9.1073597786
 20
9.1834672248
 30
0.0
 10
9.0629534189
 20
9.1616042726
 30
0.0
 10
9.0198293027
 20
9.1408141487
 30
0.0
 10
8.9914704165
 20
9.1274112809
 30
0.0
 10
8.9775110515
 20
9.120874147
 30
0.0
  0
SPLINE
  5
3B8
100
AcDbEntity
  8
0
100
AcDbSpline
 62
7
  6
CONTINUOUS
 70
0
 71
3
 72
15
 73
11
 74
0
 42
0.0000001
 43
0.0000001
 44
0.0000000001
 40
0.0
 40
0.0
 40
0.0
 40
0.0
 40
0.1307127497
 40
0.2609289548
 40
0.3901052665
 40
0.5175755854
 40
0.6426742535
 40
0.7648942407
 40
0.8839930104
 40
1.0
 40
1.0
 40
1.0
 40
1.0
 10
10.8807580958
 20
8.9393386831
 30
0.0
 10
10.8795688216
 20
8.9209777092
 30
0.0
 10
10.877411544
 20
8.8843109287
 30
0.0
 10
10.8749602325
 20
8.8294514197
 30
0.0
 10
10.8734221323
 20
8.7750145923
 30
0.0
 10
10.8728907243
 20
8.7212785326
 30
0.0
 10
10.8734028831
 20
8.6685213232
 30
0.0
 10
10.8749257889
 20
8.6169626623
 30
0.0
 10
10.8773680125
 20
8.566721207
 30
0.0
 10
10.8795524309
 20
8.5336975641
 30
0.0
 10
10.8807580958
 20
8.5174127042
 30
0.0
  0
SPLINE
  5
3B9
100
AcDbEntity
  8
0
100
AcDbSpline
 62
7
  6
CONTINUOUS
 70
0
 71
3
 72
19
 73
15
 74
0
 42
0.0000001
 43
0.0000001
 44
0.0000000001
 40
0.0
 40
0.0
 40
0.0
 40
0.0
 40
0.1211309729
 40
0.2440504747
 40
0.3061433785
 40
0.3686103884
 40
0.4313995925
 40
0.494447987
 40
0.5576846701
 40
0.6210353746
 40
0.6844274546
 40
0.747793941
 40
0.8742258059
 40
1.0
 40
1.0
 40
1.0
 40
1.0
 10
10.9093628185
 20
8.4658841268
 30
0.0
 10
10.9231935488
 20
8.455006023
 30
0.0
 10
10.9512634044
 20
8.4333470873
 30
0.0
 10
10.9870447793
 20
8.4069311156
 30
0.0
 10
11.0163412584
 20
8.3860941161
 30
0.0
 10
11.0387120281
 20
8.3705938298
 30
0.0
 10
11.0613920746
 20
8.3553000239
 30
0.0
 10
11.0843599132
 20
8.3402370235
 30
0.0
 10
11.1075880348
 20
8.3254263207
 30
0.0
 10
11.1310443827
 20
8.3108848746
 30
0.0
 10
11.1546945957
 20
8.2966243974
 30
0.0
 10
11.1864154782
 20
8.2780075797
 30
0.0
 10
11.2263418546
 20
8.2554757539
 30
0.0
 10
11.2586016619
 20
8.2381056767
 30
0.0
 10
11.2747614348
 20
8.2295806573
 30
0.0
  0
SPLINE
  5
3BA
100
AcDbEntity
  8
0
100
AcDbSpline
 62
7
  6
CONTINUOUS
 70
0
 71
3
 72
15
 73
11
 74
0
 42
0.0000001
 43
0.0000001
 44
0.0000000001
 40
0.0
 40
0.0
 40
0.0
 40
0.0
 40
0.1128128137
 40
0.2295619377
 40
0.3503742146
 40
0.4750618338
 40
0.6031113457
 40
0.7337873942
 40
0.8663091291
 40
1.0
 40
1.0
 40
1.0
 40
1.0
 10
11.3319708802
 20
8.2256131688
 30
0.0
 10
11.3459302452
 20
8.2321503026
 30
0.0
 10
11.3742891314
 20
8.2455531704
 30
0.0
 10
11.4174132476
 20
8.2663432944
 30
0.0
 10
11.4618196074
 20
8.2882062466
 30
0.0
 10
11.5074187184
 20
8.3111380635
 30
0.0
 10
11.5540265079
 20
8.335059842
 30
0.0
 10
11.6013997497
 20
8.3598308728
 30
0.0
 10
11.6492865401
 20
8.3852803673
 30
0.0
 10
11.6813086996
 20
8.4025333674
 30
0.0
 10
11.6973694965
 20
8.4112356781
 30
0.0
  0
SPLINE
  5
3BB
100
AcDbEntity
  8
0
100
AcDbSpline
 62
7
  6
CONTINUOUS
 70
0
 71
3
 72
19
 73
15
 74
0
 42
0.0000001
 43
0.0000001
 44
0.0000000001
 40
0.0
 40
0.0
 40
0.0
 40
0.0
 40
0.1328015629
 40
0.2663305367
 40
0.3994308556
 40
0.4652784426
 40
0.530309522
 40
0.5942642601
 40
0.6569145156
 40
0.7180856282
 40
0.7776680806
 40
0.8356180425
 40
0.8919479122
 40
1.0
 40
1.0
 40
1.0
 40
1.0
 10
11.8386733424
 20
8.5676557671
 30
0.0
 10
11.8406707116
 20
8.5862749372
 30
0.0
 10
11.8443403311
 20
8.623652708
 30
0.0
 10
11.8486020078
 20
8.6798191097
 30
0.0
 10
11.850894593
 20
8.7266522183
 30
0.0
 10
11.8518372808
 20
8.7638646932
 30
0.0
 10
11.8520770774
 20
8.7913379509
 30
0.0
 10
11.8518451137
 20
8.8183604356
 30
0.0
 10
11.8511477832
 20
8.844830477
 30
0.0
 10
11.8500039151
 20
8.8706678413
 30
0.0
 10
11.8484422943
 20
8.895819201
 30
0.0
 10
11.8464980952
 20
8.9202591278
 30
0.0
 10
11.8434885194
 20
8.9514658062
 30
0.0
 10
11.8407164468
 20
8.9744832141
 30
0.0
 10
11.8386733424
 20
8.989581746
 30
0.0
  0
SPLINE
  5
3BC
100
AcDbEntity
  8
0
100
AcDbSpline
 62
7
  6
CONTINUOUS
 70
0
 71
3
 72
20
 73
16
 74
0
 42
0.0000001
 43
0.0000001
 44
0.0000000001
 40
0.0
 40
0.0
 40
0.0
 40
0.0
 40
0.1168044981
 40
0.176753794
 40
0.2377411636
 40
0.2997231994
 40
0.3626075767
 40
0.4262490679
 40
0.4904552156
 40
0.5550012545
 40
0.6196521964
 40
0.6841864603
 40
0.7484148953
 40
0.875411599
 40
1.0
 40
1.0
 40
1.0
 40
1.0
 10
11.8100686197
 20
9.0411103233
 30
0.0
 10
11.7974525849
 20
9.0525313894
 30
0.0
 10
11.7780843971
 20
9.0695131227
 30
0.0
 10
11.7514274567
 20
9.091632818
 30
0.0
 10
11.7305879446
 20
9.1082476763
 30
0.0
 10
11.709068297
 20
9.1246862416
 30
0.0
 10
11.6868840752
 20
9.1408815349
 30
0.0
 10
11.6640761678
 20
9.1567604372
 30
0.0
 10
11.6407106503
 20
9.1722494874
 30
0.0
 10
11.6168746278
 20
9.1872817035
 30
0.0
 10
11.5926684589
 20
9.2018031804
 30
0.0
 10
11.5681959174
 20
9.2157777593
 30
0.0
 10
11.5354648493
 20
9.2335921909
 30
0.0
 10
11.4944288781
 20
9.2544284974
 30
0.0
 10
11.4612174424
 20
9.2699524066
 30
0.0
 10
11.4446700034
 20
9.2774137929
 30
0.0
  0
SPLINE
  5
3BD
100
AcDbEntity
  8
0
100
AcDbSpline
 62
7
  6
CONTINUOUS
 70
0
 71
3
 72
15
 73
11
 74
0
 42
0.0000001
 43
0.0000001
 44
0.0000000001
 40
0.0
 40
0.0
 40
0.0
 40
0.0
 40
0.1024590394
 40
0.2125892926
 40
0.3308757892
 40
0.4568382862
 40
0.5888686932
 40
0.7247066359
 40
0.8622407571
 40
1.0
 40
1.0
 40
1.0
 40
1.0
 10
11.387460558
 20
9.2813812814
 30
0.0
 10
11.3746170686
 20
9.275799853
 30
0.0
 10
11.3480496232
 20
9.2640313356
 30
0.0
 10
11.3069763689
 20
9.2451029212
 30
0.0
 10
11.2633064629
 20
9.2241470882
 30
0.0
 10
11.2172887931
 20
9.2011795001
 30
0.0
 10
11.1694793604
 20
9.1764434259
 30
0.0
 10
11.1205956069
 20
9.1503528022
 30
0.0
 10
11.0713084121
 20
9.1233629504
 30
0.0
 10
11.0384647755
 20
9.1050033695
 30
0.0
 10
11.0220619417
 20
9.0957587721
 30
0.0
  0
SPLINE
  5
3BE
100
AcDbEntity
  8
0
100
AcDbSpline
 62
7
  6
CONTINUOUS
 70
0
 71
3
 72
52
 73
48
 74
0
 42
0.0000001
 43
0.0000001
 44
0.0000000001
 40
0.0
 40
0.0
 40
0.0
 40
0.0
 40
0.0311866657
 40
0.0621624584
 40
0.0775790405
 40
0.0929473314
 40
0.1082695143
 40
0.1235485687
 40
0.138787887
 40
0.1539911669
 40
0.1691625276
 40
0.1843064036
 40
0.199427552
 40
0.2145309418
 40
0.2296217493
 40
0.2447052657
 40
0.2597868728
 40
0.2748719733
 40
0.2899659279
 40
0.3050740159
 40
0.3202013364
 40
0.3353528147
 40
0.3505330972
 40
0.3657465569
 40
0.3809971862
 40
0.3962886177
 40
0.4116240404
 40
0.4270062155
 40
0.4424374262
 40
0.4579194555
 40
0.4890310876
 40
0.5203549231
 40
0.5518869253
 40
0.5836151897
 40
0.6155205913
 40
0.6475775326
 40
0.6797550132
 40
0.7120177639
 40
0.7443275126
 40
0.7766443786
 40
0.8089282028
 40
0.8411399968
 40
0.8732432951
 40
0.9052053839
 40
0.9369988315
 40
0.9686016369
 40
1.0
 40
1.0
 40
1.0
 40
1.0
 10
11.2945498393
 20
8.2752036852
 30
0.0
 10
11.3080905716
 20
8.2742646322
 30
0.0
 10
11.335189745
 20
8.2737067844
 30
0.0
 10
11.3689085244
 20
8.2763597567
 30
0.0
 10
11.3954802687
 20
8.2804820482
 30
0.0
 10
11.4151382585
 20
8.2845570353
 30
0.0
 10
11.4345055333
 20
8.2896105582
 30
0.0
 10
11.4535359516
 20
8.295630167
 30
0.0
 10
11.4721835315
 20
8.3026014606
 30
0.0
 10
11.4904032961
 20
8.3105077847
 30
0.0
 10
11.5081513837
 20
8.3193298695
 30
0.0
 10
11.5253847903
 20
8.3290468454
 30
0.0
 10
11.5420622343
 20
8.3396348041
 30
0.0
 10
11.5581430961
 20
8.3510688343
 30
0.0
 10
11.5735890584
 20
8.363320704
 30
0.0
 10
11.5883622963
 20
8.376361573
 30
0.0
 10
11.6024277921
 20
8.3901592866
 30
0.0
 10
11.6157509662
 20
8.4046812334
 30
0.0
 10
11.6283003488
 20
8.4198917757
 30
0.0
 10
11.6400450506
 20
8.4357547422
 30
0.0
 10
11.6509573328
 20
8.4522314299
 30
0.0
 10
11.6610104144
 20
8.4692824135
 30
0.0
 10
11.6701804481
 20
8.4868663361
 30
0.0
 10
11.6784451256
 20
8.5049409101
 30
0.0
 10
11.685784633
 20
8.5234624995
 30
0.0
 10
11.6921813995
 20
8.5423863971
 30
0.0
 10
11.6976198026
 20
8.5616670889
 30
0.0
 10
11.7020871847
 20
8.58125782
 30
0.0
 10
11.7055722845
 20
8.60111211
 30
0.0
 10
11.7089041978
 20
8.6279098967
 30
0.0
 10
11.7105658554
 20
8.6618414515
 30
0.0
 10
11.7085489867
 20
8.7027520526
 30
0.0
 10
11.7025470643
 20
8.7435423279
 30
0.0
 10
11.6926187893
 20
8.7838175045
 30
0.0
 10
11.6788608754
 20
8.8231914987
 30
0.0
 10
11.6614064331
 20
8.8612861788
 30
0.0
 10
11.6404238424
 20
8.8977360718
 30
0.0
 10
11.6161150926
 20
8.9321914812
 30
0.0
 10
11.5887138533
 20
8.9643218477
 30
0.0
 10
11.5584832833
 20
8.9938188352
 30
0.0
 10
11.5257135119
 20
9.0203992417
 30
0.0
 10
11.4907189683
 20
9.0438076785
 30
0.0
 10
11.4538352475
 20
9.0638189291
 30
0.0
 10
11.4154165571
 20
9.0802402654
 30
0.0
 10
11.3758302487
 20
9.0929129237
 30
0.0
 10
11.3354614796
 20
9.1017140363
 30
0.0
 10
11.3081824871
 20
9.1049545176
 30
0.0
 10
11.2945498393
 20
9.105899945
 30
0.0
  0
SPLINE
  5
3BF
100
AcDbEntity
  8
0
100
AcDbSpline
 62
7
  6
CONTINUOUS
 70
0
 71
3
 72
52
 73
48
 74
0
 42
0.0000001
 43
0.0000001
 44
0.0000000001
 40
0.0
 40
0.0
 40
0.0
 40
0.0
 40
0.0311866657
 40
0.0621624584
 40
0.0775790405
 40
0.0929473314
 40
0.1082695143
 40
0.1235485687
 40
0.138787887
 40
0.1539911669
 40
0.1691625276
 40
0.1843064036
 40
0.199427552
 40
0.2145309418
 40
0.2296217493
 40
0.2447052657
 40
0.2597868728
 40
0.2748719733
 40
0.2899659279
 40
0.3050740159
 40
0.3202013364
 40
0.3353528147
 40
0.3505330972
 40
0.3657465569
 40
0.3809971862
 40
0.3962886177
 40
0.4116240404
 40
0.4270062155
 40
0.4424374262
 40
0.4579194555
 40
0.4890310876
 40
0.5203549231
 40
0.5518869253
 40
0.5836151897
 40
0.6155205913
 40
0.6475775326
 40
0.6797550132
 40
0.7120177639
 40
0.7443275126
 40
0.7766443786
 40
0.8089282028
 40
0.8411399968
 40
0.8732432951
 40
0.9052053839
 40
0.9369988315
 40
0.9686016369
 40
1.0
 40
1.0
 40
1.0
 40
1.0
 10
11.2945498393
 20
9.105899945
 30
0.0
 10
11.281009107
 20
9.106838998
 30
0.0
 10
11.2539099336
 20
9.1073968457
 30
0.0
 10
11.2201911542
 20
9.1047438734
 30
0.0
 10
11.1936194099
 20
9.1006215819
 30
0.0
 10
11.17396142
 20
9.0965465948
 30
0.0
 10
11.1545941453
 20
9.0914930719
 30
0.0
 10
11.135563727
 20
9.0854734632
 30
0.0
 10
11.1169161471
 20
9.0785021695
 30
0.0
 10
11.0986963825
 20
9.0705958454
 30
0.0
 10
11.0809482948
 20
9.0617737606
 30
0.0
 10
11.0637148883
 20
9.0520567847
 30
0.0
 10
11.0470374443
 20
9.041468826
 30
0.0
 10
11.0309565825
 20
9.0300347958
 30
0.0
 10
11.0155106201
 20
9.0177829261
 30
0.0
 10
11.0007373822
 20
9.0047420571
 30
0.0
 10
10.9866718865
 20
8.9909443435
 30
0.0
 10
10.9733487124
 20
8.9764223968
 30
0.0
 10
10.9607993298
 20
8.9612118545
 30
0.0
 10
10.949054628
 20
8.9453488879
 30
0.0
 10
10.9381423457
 20
8.9288722003
 30
0.0
 10
10.9280892641
 20
8.9118212167
 30
0.0
 10
10.9189192305
 20
8.894237294
 30
0.0
 10
10.910654553
 20
8.8761627201
 30
0.0
 10
10.9033150456
 20
8.8576411306
 30
0.0
 10
10.896918279
 20
8.838717233
 30
0.0
 10
10.891479876
 20
8.8194365413
 30
0.0
 10
10.8870124939
 20
8.7998458101
 30
0.0
 10
10.883527394
 20
8.7799915202
 30
0.0
 10
10.8801954807
 20
8.7531937335
 30
0.0
 10
10.8785338232
 20
8.7192621787
 30
0.0
 10
10.8805506919
 20
8.6783515775
 30
0.0
 10
10.8865526143
 20
8.6375613022
 30
0.0
 10
10.8964808893
 20
8.5972861257
 30
0.0
 10
10.9102388032
 20
8.5579121315
 30
0.0
 10
10.9276932454
 20
8.5198174513
 30
0.0
 10
10.9486758362
 20
8.4833675584
 30
0.0
 10
10.972984586
 20
8.4489121489
 30
0.0
 10
11.0003858253
 20
8.4167817825
 30
0.0
 10
11.0306163953
 20
8.3872847949
 30
0.0
 10
11.0633861667
 20
8.3607043884
 30
0.0
 10
11.0983807103
 20
8.3372959517
 30
0.0
 10
11.1352644311
 20
8.317284701
 30
0.0
 10
11.1736831214
 20
8.3008633648
 30
0.0
 10
11.2132694298
 20
8.2881907064
 30
0.0
 10
11.2536381989
 20
8.2793895938
 30
0.0
 10
11.2809171915
 20
8.2761491125
 30
0.0
 10
11.2945498393
 20
8.2752036852
 30
0.0
  0
SPLINE
  5
3C0
100
AcDbEntity
  8
0
100
AcDbSpline
 62
7
  6
CONTINUOUS
 70
0
 71
3
 72
15
 73
11
 74
0
 42
0.0000001
 43
0.0000001
 44
0.0000000001
 40
0.0
 40
0.0
 40
0.0
 40
0.0
 40
0.1160069896
 40
0.2351057593
 40
0.3573257466
 40
0.4824244147
 40
0.6098947336
 40
0.7390710453
 40
0.8692872503
 40
1.0
 40
1.0
 40
1.0
 40
1.0
 10
11.7259742192
 20
8.4587967669
 30
0.0
 10
11.7247685543
 20
8.4750816269
 30
0.0
 10
11.7225841359
 20
8.5081052697
 30
0.0
 10
11.7201419123
 20
8.558346725
 30
0.0
 10
11.7186190064
 20
8.609905386
 30
0.0
 10
11.7181068477
 20
8.6626625954
 30
0.0
 10
11.7186382557
 20
8.7163986551
 30
0.0
 10
11.7201763559
 20
8.7708354825
 30
0.0
 10
11.7226276674
 20
8.8256949915
 30
0.0
 10
11.7247849449
 20
8.862361772
 30
0.0
 10
11.7259742192
 20
8.8807227459
 30
0.0
  0
SPLINE
  5
3C1
100
AcDbEntity
  8
0
100
AcDbSpline
 62
7
  6
CONTINUOUS
 70
0
 71
3
 72
19
 73
15
 74
0
 42
0.0000001
 43
0.0000001
 44
0.0000000001
 40
0.0
 40
0.0
 40
0.0
 40
0.0
 40
0.1257741941
 40
0.252206059
 40
0.3155725455
 40
0.3789646255
 40
0.4423153299
 40
0.505552013
 40
0.5686004075
 40
0.6313896116
 40
0.6938566216
 40
0.7559495253
 40
0.8788690271
 40
1.0
 40
1.0
 40
1.0
 40
1.0
 10
11.6973694965
 20
8.9322513232
 30
0.0
 10
11.6812097236
 20
8.9407763426
 30
0.0
 10
11.6489499163
 20
8.9581464198
 30
0.0
 10
11.6090235399
 20
8.9806782456
 30
0.0
 10
11.5773026574
 20
8.9992950633
 30
0.0
 10
11.5536524443
 20
9.0135555405
 30
0.0
 10
11.5301960965
 20
9.0280969866
 30
0.0
 10
11.5069679749
 20
9.0429076894
 30
0.0
 10
11.4840001362
 20
9.0579706898
 30
0.0
 10
11.4613200897
 20
9.0732644957
 30
0.0
 10
11.4389493201
 20
9.088764782
 30
0.0
 10
11.409652841
 20
9.1096017815
 30
0.0
 10
11.373871466
 20
9.1360177532
 30
0.0
 10
11.3458016104
 20
9.1576766889
 30
0.0
 10
11.3319708802
 20
9.1685547928
 30
0.0
  0
SPLINE
  5
3C2
100
AcDbEntity
  8
0
100
AcDbSpline
 62
7
  6
CONTINUOUS
 70
0
 71
3
 72
15
 73
11
 74
0
 42
0.0000001
 43
0.0000001
 44
0.0000000001
 40
0.0
 40
0.0
 40
0.0
 40
0.0
 40
0.1336908709
 40
0.2662126058
 40
0.3968886543
 40
0.5249381662
 40
0.6496257854
 40
0.7704380623
 40
0.8871871863
 40
1.0
 40
1.0
 40
1.0
 40
1.0
 10
11.2747614348
 20
9.1725222813
 30
0.0
 10
11.2587006379
 20
9.1638199706
 30
0.0
 10
11.2266784784
 20
9.1465669704
 30
0.0
 10
11.178791688
 20
9.1211174759
 30
0.0
 10
11.1314184462
 20
9.0963464451
 30
0.0
 10
11.0848106567
 20
9.0724246666
 30
0.0
 10
11.0392115457
 20
9.0494928498
 30
0.0
 10
10.9948051859
 20
9.0276298976
 30
0.0
 10
10.9516810697
 20
9.0068397736
 30
0.0
 10
10.9233221835
 20
8.9934369058
 30
0.0
 10
10.9093628185
 20
8.9868997719
 30
0.0
  0
SPLINE
  5
3C3
100
AcDbEntity
  8
0
100
AcDbSpline
 62
7
  6
CONTINUOUS
 70
0
 71
3
 72
13
 73
9
 74
0
 42
0.0000001
 43
0.0000001
 44
0.0000000001
 40
0.0
 40
0.0
 40
0.0
 40
0.0
 40
0.2520869329
 40
0.5027116691
 40
0.6275252111
 40
0.7520009308
 40
0.8761536342
 40
1.0
 40
1.0
 40
1.0
 40
1.0
 10
9.9402909348
 20
8.9519380862
 30
0.0
 10
9.9402909348
 20
8.9402549153
 30
0.0
 10
9.9393081038
 20
8.9169447334
 30
0.0
 10
9.935598542
 20
8.8880612811
 30
0.0
 10
9.9311598665
 20
8.8653151949
 30
0.0
 10
9.9271080276
 20
8.8484827615
 30
0.0
 10
9.9223365397
 20
8.8318872367
 30
0.0
 10
9.9186766892
 20
8.82098712
 30
0.0
 10
9.9167298761
 20
8.8155876058
 30
0.0
  0
SPLINE
  5
3C4
100
AcDbEntity
  8
0
100
AcDbSpline
 62
7
  6
CONTINUOUS
 70
0
 71
3
 72
13
 73
9
 74
0
 42
0.0000001
 43
0.0000001
 44
0.0000000001
 40
0.0
 40
0.0
 40
0.0
 40
0.0
 40
0.2520869329
 40
0.5027116691
 40
0.6275252111
 40
0.7520009308
 40
0.8761536342
 40
1.0
 40
1.0
 40
1.0
 40
1.0
 10
11.8721427018
 20
8.8179637111
 30
0.0
 10
11.8721427018
 20
8.8062805403
 30
0.0
 10
11.8711598708
 20
8.7829703583
 30
0.0
 10
11.867450309
 20
8.754086906
 30
0.0
 10
11.8630116335
 20
8.7313408198
 30
0.0
 10
11.8589597946
 20
8.7145083864
 30
0.0
 10
11.8541883067
 20
8.6979128616
 30
0.0
 10
11.8505284562
 20
8.6870127449
 30
0.0
 10
11.8485816432
 20
8.6816132307
 30
0.0
  0
SPLINE
  5
3C5
100
AcDbEntity
  8
0
100
AcDbSpline
 62
7
  6
CONTINUOUS
 70
0
 71
3
 72
23
 73
19
 74
0
 42
0.0000001
 43
0.0000001
 44
0.0000000001
 40
0.0
 40
0.0
 40
0.0
 40
0.0
 40
0.0637771735
 40
0.1273448473
 40
0.1907019822
 40
0.253856143
 40
0.3168131975
 40
0.3795820985
 40
0.4421733906
 40
0.5045993374
 40
0.5668738654
 40
0.62901238
 40
0.6910316489
 40
0.7529496402
 40
0.814785347
 40
0.8765585971
 40
0.938289852
 40
1.0
 40
1.0
 40
1.0
 40
1.0
 10
9.9402909348
 20
7.7744743941
 30
0.0
 10
9.9402909348
 20
7.7678322801
 30
0.0
 10
9.9399730158
 20
7.7545676196
 30
0.0
 10
9.9385380853
 20
7.7347513149
 30
0.0
 10
9.9361489217
 20
7.7150921049
 30
0.0
 10
9.9328112235
 20
7.6956361106
 30
0.0
 10
9.9285324716
 20
7.6764278402
 30
0.0
 10
9.9233225349
 20
7.6575116924
 30
0.0
 10
9.9171933847
 20
7.638931247
 30
0.0
 10
9.9101591164
 20
7.6207293524
 30
0.0
 10
9.902235913
 20
7.6029479862
 30
0.0
 10
9.8934419938
 20
7.5856281681
 30
0.0
 10
9.8837976023
 20
7.5688098612
 30
0.0
 10
9.873324965
 20
7.5525318464
 30
0.0
 10
9.8620482537
 20
7.5368317081
 30
0.0
 10
9.8499933279
 20
7.521745547
 30
0.0
 10
9.8371884598
 20
7.5073086371
 30
0.0
 10
9.8281698687
 20
7.498137415
 30
0.0
 10
9.8235473252
 20
7.493672396
 30
0.0
  0
SPLINE
  5
3C6
100
AcDbEntity
  8
0
100
AcDbSpline
 62
7
  6
CONTINUOUS
 70
0
 71
3
 72
23
 73
19
 74
0
 42
0.0000001
 43
0.0000001
 44
0.0000000001
 40
0.0
 40
0.0
 40
0.0
 40
0.0
 40
0.0637771735
 40
0.1273448473
 40
0.1907019822
 40
0.253856143
 40
0.3168131975
 40
0.3795820985
 40
0.4421733906
 40
0.5045993374
 40
0.5668738654
 40
0.62901238
 40
0.6910316489
 40
0.7529496402
 40
0.814785347
 40
0.8765585971
 40
0.938289852
 40
1.0
 40
1.0
 40
1.0
 40
1.0
 10
11.8721427018
 20
7.6405000191
 30
0.0
 10
11.8721427018
 20
7.633857905
 30
0.0
 10
11.8718247829
 20
7.6205932445
 30
0.0
 10
11.8703898523
 20
7.6007769398
 30
0.0
 10
11.8680006888
 20
7.5811177298
 30
0.0
 10
11.8646629905
 20
7.5616617355
 30
0.0
 10
11.8603842386
 20
7.5424534651
 30
0.0
 10
11.8551743019
 20
7.5235373173
 30
0.0
 10
11.8490451517
 20
7.5049568719
 30
0.0
 10
11.8420108834
 20
7.4867549773
 30
0.0
 10
11.8340876801
 20
7.4689736112
 30
0.0
 10
11.8252937608
 20
7.4516537931
 30
0.0
 10
11.8156493694
 20
7.4348354861
 30
0.0
 10
11.805176732
 20
7.4185574713
 30
0.0
 10
11.7939000207
 20
7.402857333
 30
0.0
 10
11.781845095
 20
7.3877711719
 30
0.0
 10
11.7690402269
 20
7.373334262
 30
0.0
 10
11.7600216357
 20
7.3641630399
 30
0.0
 10
11.7553990923
 20
7.3596980209
 30
0.0
  0
SPLINE
  5
3C7
100
AcDbEntity
  8
0
100
AcDbSpline
 62
7
  6
CONTINUOUS
 70
0
 71
3
 72
19
 73
15
 74
0
 42
0.0000001
 43
0.0000001
 44
0.0000000001
 40
0.0
 40
0.0
 40
0.0
 40
0.0
 40
0.12732766
 40
0.2538196711
 40
0.3795264658
 40
0.5045235362
 40
0.5668075958
 40
0.6289556124
 40
0.6909843715
 40
0.7529118454
 40
0.8147570127
 40
0.8765397119
 40
0.9382804145
 40
1.0
 40
1.0
 40
1.0
 40
1.0
 10
8.7546169128
 20
9.2147929766
 30
0.0
 10
8.7546169128
 20
9.2085409807
 30
0.0
 10
8.7540199848
 20
9.1960694204
 30
0.0
 10
8.7513203046
 20
9.1776017035
 30
0.0
 10
8.7468442581
 20
9.1595988842
 30
0.0
 10
8.7416591225
 20
9.1451019409
 30
0.0
 10
8.7366724414
 20
9.1339110117
 30
0.0
 10
8.7325256696
 20
9.1257438031
 30
0.0
 10
8.7279779707
 20
9.1178132765
 30
0.0
 10
8.7230396952
 20
9.110137461
 30
0.0
 10
8.7177222366
 20
9.1027341775
 30
0.0
 10
8.7120378492
 20
9.0956203804
 30
0.0
 10
8.7059998221
 20
9.0888127398
 30
0.0
 10
8.7017471783
 20
9.0844881045
 30
0.0
 10
8.6995674535
 20
9.0823826528
 30
0.0
  0
SPLINE
  5
3C8
100
AcDbEntity
  8
0
100
AcDbSpline
 62
7
  6
CONTINUOUS
 70
0
 71
3
 72
19
 73
15
 74
0
 42
0.0000001
 43
0.0000001
 44
0.0000000001
 40
0.0
 40
0.0
 40
0.0
 40
0.0
 40
0.12732766
 40
0.2538196711
 40
0.3795264658
 40
0.5045235362
 40
0.5668075958
 40
0.6289556124
 40
0.6909843715
 40
0.7529118454
 40
0.8147570127
 40
0.8765397119
 40
0.9382804145
 40
1.0
 40
1.0
 40
1.0
 40
1.0
 10
10.6864686798
 20
9.0808186015
 30
0.0
 10
10.6864686798
 20
9.0745666056
 30
0.0
 10
10.6858717518
 20
9.0620950454
 30
0.0
 10
10.6831720716
 20
9.0436273284
 30
0.0
 10
10.6786960251
 20
9.0256245092
 30
0.0
 10
10.6735108895
 20
9.0111275659
 30
0.0
 10
10.6685242085
 20
8.9999366366
 30
0.0
 10
10.6643774367
 20
8.9917694281
 30
0.0
 10
10.6598297377
 20
8.9838389014
 30
0.0
 10
10.6548914623
 20
8.9761630859
 30
0.0
 10
10.6495740037
 20
8.9687598024
 30
0.0
 10
10.6438896162
 20
8.9616460053
 30
0.0
 10
10.6378515892
 20
8.9548383647
 30
0.0
 10
10.6335989453
 20
8.9505137294
 30
0.0
 10
10.6314192206
 20
8.9484082778
 30
0.0
  0
SPLINE
  5
3C9
100
AcDbEntity
  8
0
100
AcDbSpline
 62
7
  6
CONTINUOUS
 70
0
 71
3
 72
19
 73
15
 74
0
 42
0.0000001
 43
0.0000001
 44
0.0000000001
 40
0.0
 40
0.0
 40
0.0
 40
0.0
 40
0.12732766
 40
0.2538196711
 40
0.3795264658
 40
0.5045235362
 40
0.5668075958
 40
0.6289556124
 40
0.6909843715
 40
0.7529118454
 40
0.8147570127
 40
0.8765397119
 40
0.9382804145
 40
1.0
 40
1.0
 40
1.0
 40
1.0
 10
12.6183204469
 20
8.9468442264
 30
0.0
 10
12.6183204469
 20
8.9405922305
 30
0.0
 10
12.6177235189
 20
8.9281206703
 30
0.0
 10
12.6150238387
 20
8.9096529533
 30
0.0
 10
12.6105477922
 20
8.8916501341
 30
0.0
 10
12.6053626566
 20
8.8771531908
 30
0.0
 10
12.6003759755
 20
8.8659622616
 30
0.0
 10
12.5962292037
 20
8.857795053
 30
0.0
 10
12.5916815048
 20
8.8498645263
 30
0.0
 10
12.5867432293
 20
8.8421887109
 30
0.0
 10
12.5814257707
 20
8.8347854273
 30
0.0
 10
12.5757413833
 20
8.8276716302
 30
0.0
 10
12.5697033562
 20
8.8208639896
 30
0.0
 10
12.5654507124
 20
8.8165393543
 30
0.0
 10
12.5632709876
 20
8.8144339027
 30
0.0
  0
SPLINE
  5
3CA
100
AcDbEntity
  8
0
100
AcDbSpline
 62
7
  6
CONTINUOUS
 70
0
 71
3
 72
19
 73
15
 74
0
 42
0.0000001
 43
0.0000001
 44
0.0000000001
 40
0.0
 40
0.0
 40
0.0
 40
0.0
 40
0.12732766
 40
0.2538196711
 40
0.3795264658
 40
0.5045235362
 40
0.5668075958
 40
0.6289556124
 40
0.6909843715
 40
0.7529118454
 40
0.8147570127
 40
0.8765397119
 40
0.9382804145
 40
1.0
 40
1.0
 40
1.0
 40
1.0
 10
8.7546169128
 20
7.5244226804
 30
0.0
 10
8.7546169128
 20
7.5181706845
 30
0.0
 10
8.7540199848
 20
7.5056991243
 30
0.0
 10
8.7513203046
 20
7.4872314073
 30
0.0
 10
8.7468442581
 20
7.4692285881
 30
0.0
 10
8.7416591225
 20
7.4547316448
 30
0.0
 10
8.7366724414
 20
7.4435407156
 30
0.0
 10
8.7325256696
 20
7.435373507
 30
0.0
 10
8.7279779707
 20
7.4274429803
 30
0.0
 10
8.7230396952
 20
7.4197671649
 30
0.0
 10
8.7177222366
 20
7.4123638813
 30
0.0
 10
8.7120378492
 20
7.4052500842
 30
0.0
 10
8.7059998221
 20
7.3984424436
 30
0.0
 10
8.7017471783
 20
7.3941178083
 30
0.0
 10
8.6995674535
 20
7.3920123567
 30
0.0
  0
SPLINE
  5
3CB
100
AcDbEntity
  8
0
100
AcDbSpline
 62
7
  6
CONTINUOUS
 70
0
 71
3
 72
19
 73
15
 74
0
 42
0.0000001
 43
0.0000001
 44
0.0000000001
 40
0.0
 40
0.0
 40
0.0
 40
0.0
 40
0.12732766
 40
0.2538196711
 40
0.3795264658
 40
0.5045235362
 40
0.5668075958
 40
0.6289556124
 40
0.6909843715
 40
0.7529118454
 40
0.8147570127
 40
0.8765397119
 40
0.9382804145
 40
1.0
 40
1.0
 40
1.0
 40
1.0
 10
10.6864686798
 20
7.3904483053
 30
0.0
 10
10.6864686798
 20
7.3841963094
 30
0.0
 10
10.6858717518
 20
7.3717247492
 30
0.0
 10
10.6831720716
 20
7.3532570322
 30
0.0
 10
10.6786960251
 20
7.335254213
 30
0.0
 10
10.6735108895
 20
7.3207572697
 30
0.0
 10
10.6685242085
 20
7.3095663405
 30
0.0
 10
10.6643774367
 20
7.3013991319
 30
0.0
 10
10.6598297377
 20
7.2934686052
 30
0.0
 10
10.6548914623
 20
7.2857927898
 30
0.0
 10
10.6495740037
 20
7.2783895062
 30
0.0
 10
10.6438896162
 20
7.2712757091
 30
0.0
 10
10.6378515892
 20
7.2644680685
 30
0.0
 10
10.6335989453
 20
7.2601434332
 30
0.0
 10
10.6314192206
 20
7.2580379816
 30
0.0
  0
SPLINE
  5
3CC
100
AcDbEntity
  8
0
100
AcDbSpline
 62
7
  6
CONTINUOUS
 70
0
 71
3
 72
19
 73
15
 74
0
 42
0.0000001
 43
0.0000001
 44
0.0000000001
 40
0.0
 40
0.0
 40
0.0
 40
0.0
 40
0.12732766
 40
0.2538196711
 40
0.3795264658
 40
0.5045235362
 40
0.5668075958
 40
0.6289556124
 40
0.6909843715
 40
0.7529118454
 40
0.8147570127
 40
0.8765397119
 40
0.9382804145
 40
1.0
 40
1.0
 40
1.0
 40
1.0
 10
12.6183204469
 20
7.2564739303
 30
0.0
 10
12.6183204469
 20
7.2502219343
 30
0.0
 10
12.6177235189
 20
7.2377503741
 30
0.0
 10
12.6150238387
 20
7.2192826572
 30
0.0
 10
12.6105477922
 20
7.2012798379
 30
0.0
 10
12.6053626566
 20
7.1867828946
 30
0.0
 10
12.6003759755
 20
7.1755919654
 30
0.0
 10
12.5962292037
 20
7.1674247568
 30
0.0
 10
12.5916815048
 20
7.1594942301
 30
0.0
 10
12.5867432293
 20
7.1518184147
 30
0.0
 10
12.5814257707
 20
7.1444151311
 30
0.0
 10
12.5757413833
 20
7.137301334
 30
0.0
 10
12.5697033562
 20
7.1304936935
 30
0.0
 10
12.5654507124
 20
7.1261690581
 30
0.0
 10
12.5632709876
 20
7.1240636065
 30
0.0
  0
SPLINE
  5
3CD
100
AcDbEntity
  8
0
100
AcDbSpline
 62
7
  6
CONTINUOUS
 70
0
 71
3
 72
9
 73
5
 74
0
 42
0.0000001
 43
0.0000001
 44
0.0000000001
 40
0.0
 40
0.0
 40
0.0
 40
0.0
 40
0.4828737533
 40
1.0
 40
1.0
 40
1.0
 40
1.0
 10
9.362908083
 20
8.1453605669
 30
0.0
 10
9.3638541985
 20
8.1473950747
 30
0.0
 10
9.3659535937
 20
8.1515442399
 30
0.0
 10
9.368299078
 20
8.1555588862
 30
0.0
 10
9.3695683268
 20
8.157599209
 30
0.0
  0
SPLINE
  5
3CE
100
AcDbEntity
  8
0
100
AcDbSpline
 62
7
  6
CONTINUOUS
 70
0
 71
3
 72
13
 73
9
 74
0
 42
0.0000001
 43
0.0000001
 44
0.0000000001
 40
0.0
 40
0.0
 40
0.0
 40
0.0
 40
0.123825182
 40
0.2479100411
 40
0.3723025822
 40
0.4970451498
 40
0.7476572886
 40
1.0
 40
1.0
 40
1.0
 40
1.0
 10
9.8507098155
 20
8.0306396822
 30
0.0
 10
9.847494474
 20
8.0330937438
 30
0.0
 10
9.841175275
 20
8.0381640866
 30
0.0
 10
9.8320590262
 20
8.0462201749
 30
0.0
 10
9.8233060149
 20
8.0547130444
 30
0.0
 10
9.8121170427
 20
8.0666066548
 30
0.0
 10
9.7990822124
 20
8.0824701083
 30
0.0
 10
9.789763533
 20
8.096027864
 30
0.0
 10
9.7853769247
 20
8.1030067245
 30
0.0
  0
SPLINE
  5
3CF
100
AcDbEntity
  8
0
100
AcDbSpline
 62
7
  6
CONTINUOUS
 70
0
 71
3
 72
13
 73
9
 74
0
 42
0.0000001
 43
0.0000001
 44
0.0000000001
 40
0.0
 40
0.0
 40
0.0
 40
0.0
 40
0.123825182
 40
0.2479100411
 40
0.3723025822
 40
0.4970451498
 40
0.7476572886
 40
1.0
 40
1.0
 40
1.0
 40
1.0
 10
11.7825615826
 20
7.8966653071
 30
0.0
 10
11.779346241
 20
7.8991193687
 30
0.0
 10
11.7730270421
 20
7.9041897115
 30
0.0
 10
11.7639107933
 20
7.9122457998
 30
0.0
 10
11.7551577819
 20
7.9207386693
 30
0.0
 10
11.7439688098
 20
7.9326322798
 30
0.0
 10
11.7309339795
 20
7.9484957332
 30
0.0
 10
11.7216153
 20
7.9620534889
 30
0.0
 10
11.7172286918
 20
7.9690323494
 30
0.0
  0
SPLINE
  5
3D0
100
AcDbEntity
  8
0
100
AcDbSpline
 62
7
  6
CONTINUOUS
 70
0
 71
3
 72
11
 73
7
 74
0
 42
0.0000001
 43
0.0000001
 44
0.0000000001
 40
0.0
 40
0.0
 40
0.0
 40
0.0
 40
0.2489635149
 40
0.49850288
 40
0.7487953764
 40
1.0
 40
1.0
 40
1.0
 40
1.0
 10
9.2691101903
 20
9.3266797731
 30
0.0
 10
9.2772885103
 20
9.332475671
 30
0.0
 10
9.2941355521
 20
9.3434312123
 30
0.0
 10
9.3206629847
 20
9.3578204297
 30
0.0
 10
9.3483268626
 20
9.3701048294
 30
0.0
 10
9.3673901043
 20
9.3768329486
 30
0.0
 10
9.3770512866
 20
9.3798256052
 30
0.0
  0
SPLINE
  5
3D1
100
AcDbEntity
  8
0
100
AcDbSpline
 62
7
  6
CONTINUOUS
 70
0
 71
3
 72
23
 73
19
 74
0
 42
0.0000001
 43
0.0000001
 44
0.0000000001
 40
0.0
 40
0.0
 40
0.0
 40
0.0
 40
0.0613598602
 40
0.1229588809
 40
0.1847864025
 40
0.246828661
 40
0.3090690052
 40
0.3714881468
 40
0.4340644381
 40
0.4967741735
 40
0.559591912
 40
0.6224908158
 40
0.6854430018
 40
0.7484199031
 40
0.8113926358
 40
0.8743323696
 40
0.9372106971
 40
1.0
 40
1.0
 40
1.0
 40
1.0
 10
9.5501492456
 20
9.3940313125
 30
0.0
 10
9.5584057135
 20
9.3929476732
 30
0.0
 10
9.5748908727
 20
9.3902881934
 30
0.0
 10
9.5993867052
 20
9.3848549315
 30
0.0
 10
9.6236170989
 20
9.3779885413
 30
0.0
 10
9.6474950541
 20
9.3697136042
 30
0.0
 10
9.6709362696
 20
9.360059498
 30
0.0
 10
9.6938576134
 20
9.3490605238
 30
0.0
 10
9.7161779057
 20
9.3367557222
 30
0.0
 10
9.737818072
 20
9.3231887509
 30
0.0
 10
9.7587014563
 20
9.3084077267
 30
0.0
 10
9.7787540816
 20
9.2924650546
 30
0.0
 10
9.7979049087
 20
9.2754172502
 30
0.0
 10
9.8160861013
 20
9.2573247122
 30
0.0
 10
9.8332332038
 20
9.2382516155
 30
0.0
 10
9.8492855961
 20
9.2182652906
 30
0.0
 10
9.8641858572
 20
9.1974374577
 30
0.0
 10
9.8733251333
 20
9.1830259153
 30
0.0
 10
9.8776853062
 20
9.1757046501
 30
0.0
  0
SPLINE
  5
3D2
100
AcDbEntity
  8
0
100
AcDbSpline
 62
7
  6
CONTINUOUS
 70
0
 71
3
 72
15
 73
11
 74
0
 42
0.0000001
 43
0.0000001
 44
0.0000000001
 40
0.0
 40
0.0
 40
0.0
 40
0.0
 40
0.1262879032
 40
0.2522480357
 40
0.37785601
 40
0.5030906181
 40
0.6279347216
 40
0.7523725912
 40
0.876398598
 40
1.0
 40
1.0
 40
1.0
 40
1.0
 10
9.9081418136
 20
9.1144911539
 30
0.0
 10
9.91078235
 20
9.1079887622
 30
0.0
 10
9.9157517766
 20
9.0948746212
 30
0.0
 10
9.9222570431
 20
9.0749015443
 30
0.0
 10
9.9277891996
 20
9.0546974687
 30
0.0
 10
9.93233447
 20
9.0343123385
 30
0.0
 10
9.9358816992
 20
9.0137959752
 30
0.0
 10
9.9384223036
 20
8.9931982618
 30
0.0
 10
9.9399498042
 20
8.972570432
 30
0.0
 10
9.9402909348
 20
8.9588068777
 30
0.0
 10
9.9402909348
 20
8.9519380862
 30
0.0
  0
SPLINE
  5
3D3
100
AcDbEntity
  8
0
100
AcDbSpline
 62
7
  6
CONTINUOUS
 70
0
 71
3
 72
11
 73
7
 74
0
 42
0.0000001
 43
0.0000001
 44
0.0000000001
 40
0.0
 40
0.0
 40
0.0
 40
0.0
 40
0.2489635149
 40
0.49850288
 40
0.7487953764
 40
1.0
 40
1.0
 40
1.0
 40
1.0
 10
11.2009619573
 20
9.192705398
 30
0.0
 10
11.2091402773
 20
9.1985012959
 30
0.0
 10
11.2259873192
 20
9.2094568372
 30
0.0
 10
11.2525147518
 20
9.2238460546
 30
0.0
 10
11.2801786296
 20
9.2361304543
 30
0.0
 10
11.2992418713
 20
9.2428585735
 30
0.0
 10
11.3089030537
 20
9.2458512301
 30
0.0
  0
SPLINE
  5
3D4
100
AcDbEntity
  8
0
100
AcDbSpline
 62
7
  6
CONTINUOUS
 70
0
 71
3
 72
23
 73
19
 74
0
 42
0.0000001
 43
0.0000001
 44
0.0000000001
 40
0.0
 40
0.0
 40
0.0
 40
0.0
 40
0.0613598602
 40
0.1229588809
 40
0.1847864025
 40
0.246828661
 40
0.3090690052
 40
0.3714881468
 40
0.4340644381
 40
0.4967741735
 40
0.559591912
 40
0.6224908158
 40
0.6854430018
 40
0.7484199031
 40
0.8113926358
 40
0.8743323696
 40
0.9372106971
 40
1.0
 40
1.0
 40
1.0
 40
1.0
 10
11.4820010127
 20
9.2600569375
 30
0.0
 10
11.4902574806
 20
9.2589732982
 30
0.0
 10
11.5067426397
 20
9.2563138183
 30
0.0
 10
11.5312384723
 20
9.2508805564
 30
0.0
 10
11.5554688659
 20
9.2440141662
 30
0.0
 10
11.5793468211
 20
9.2357392291
 30
0.0
 10
11.6027880367
 20
9.2260851229
 30
0.0
 10
11.6257093805
 20
9.2150861487
 30
0.0
 10
11.6480296727
 20
9.2027813471
 30
0.0
 10
11.6696698391
 20
9.1892143758
 30
0.0
 10
11.6905532233
 20
9.1744333516
 30
0.0
 10
11.7106058487
 20
9.1584906795
 30
0.0
 10
11.7297566758
 20
9.1414428751
 30
0.0
 10
11.7479378684
 20
9.1233503371
 30
0.0
 10
11.7650849708
 20
9.1042772404
 30
0.0
 10
11.7811373631
 20
9.0842909155
 30
0.0
 10
11.7960376243
 20
9.0634630826
 30
0.0
 10
11.8051769003
 20
9.0490515402
 30
0.0
 10
11.8095370732
 20
9.041730275
 30
0.0
  0
SPLINE
  5
3D5
100
AcDbEntity
  8
0
100
AcDbSpline
 62
7
  6
CONTINUOUS
 70
0
 71
3
 72
15
 73
11
 74
0
 42
0.0000001
 43
0.0000001
 44
0.0000000001
 40
0.0
 40
0.0
 40
0.0
 40
0.0
 40
0.1262879032
 40
0.2522480357
 40
0.37785601
 40
0.5030906181
 40
0.6279347216
 40
0.7523725912
 40
0.876398598
 40
1.0
 40
1.0
 40
1.0
 40
1.0
 10
11.8399935806
 20
8.9805167788
 30
0.0
 10
11.8426341171
 20
8.9740143871
 30
0.0
 10
11.8476035437
 20
8.9609002462
 30
0.0
 10
11.8541088101
 20
8.9409271692
 30
0.0
 10
11.8596409667
 20
8.9207230936
 30
0.0
 10
11.864186237
 20
8.9003379634
 30
0.0
 10
11.8677334662
 20
8.8798216002
 30
0.0
 10
11.8702740707
 20
8.8592238867
 30
0.0
 10
11.8718015713
 20
8.8385960569
 30
0.0
 10
11.8721427018
 20
8.8248325026
 30
0.0
 10
11.8721427018
 20
8.8179637111
 30
0.0
  0
SPLINE
  5
3D6
100
AcDbEntity
  8
0
100
AcDbSpline
 62
7
  6
CONTINUOUS
 70
0
 71
3
 72
39
 73
35
 74
0
 42
0.0000001
 43
0.0000001
 44
0.0000000001
 40
0.0
 40
0.0
 40
0.0
 40
0.0
 40
0.0299424698
 40
0.0599093171
 40
0.0899243244
 40
0.1200101049
 40
0.1501875654
 40
0.1804754197
 40
0.2108897678
 40
0.2414437479
 40
0.2721472748
 40
0.3030068601
 40
0.3340255156
 40
0.3652027379
 40
0.3965345747
 40
0.4280137612
 40
0.4596299196
 40
0.491369815
 40
0.5232176628
 40
0.555155479
 40
0.5871634623
 40
0.619220404
 40
0.6513041182
 40
0.6833918873
 40
0.7154609133
 40
0.74748877
 40
0.7794538516
 40
0.811335809
 40
0.8431159677
 40
0.8747777197
 40
0.9063068786
 40
0.9376920899
 40
0.9689246486
 40
1.0
 40
1.0
 40
1.0
 40
1.0
 10
9.2253723586
 20
8.1129523608
 30
0.0
 10
9.2325142126
 20
8.1198508387
 30
0.0
 10
9.2473595295
 20
8.1330910243
 30
0.0
 10
9.2711440121
 20
8.1511284371
 30
0.0
 10
9.2963234554
 20
8.1672526882
 30
0.0
 10
9.3227571498
 20
8.18137335
 30
0.0
 10
9.3502997702
 20
8.1934132765
 30
0.0
 10
9.3787993208
 20
8.203306266
 30
0.0
 10
9.4080987529
 20
8.2109981799
 30
0.0
 10
9.4380366396
 20
8.21644705
 30
0.0
 10
9.4684481502
 20
8.2196232821
 30
0.0
 10
9.4991659394
 20
8.2205097914
 30
0.0
 10
9.5300210667
 20
8.2191020733
 30
0.0
 10
9.5608439223
 20
8.2154082746
 30
0.0
 10
9.5914651561
 20
8.2094490672
 30
0.0
 10
9.6217165925
 20
8.2012575203
 30
0.0
 10
9.6514321338
 20
8.1908789002
 30
0.0
 10
9.680448673
 20
8.1783704651
 30
0.0
 10
9.7086069812
 20
8.1638011326
 30
0.0
 10
9.7357525527
 20
8.1472510634
 30
0.0
 10
9.7617364395
 20
8.12881123
 30
0.0
 10
9.7864160604
 20
8.1085829313
 30
0.0
 10
9.8096560092
 20
8.0866772769
 30
0.0
 10
9.8313287494
 20
8.0632145275
 30
0.0
 10
9.8513153103
 20
8.0383234528
 30
0.0
 10
9.8695059217
 20
8.0121406278
 30
0.0
 10
9.8858006646
 20
7.9848097314
 30
0.0
 10
9.9001099835
 20
7.956480731
 30
0.0
 10
9.9123551613
 20
7.9273090833
 30
0.0
 10
9.9224687374
 20
7.8974548265
 30
0.0
 10
9.9303949435
 20
7.8670819726
 30
0.0
 10
9.9360899183
 20
7.8363567433
 30
0.0
 10
9.9395221911
 20
7.8054500299
 30
0.0
 10
9.9402909348
 20
7.7847795851
 30
0.0
 10
9.9402909348
 20
7.7744743941
 30
0.0
  0
SPLINE
  5
3D7
100
AcDbEntity
  8
0
100
AcDbSpline
 62
7
  6
CONTINUOUS
 70
0
 71
3
 72
39
 73
35
 74
0
 42
0.0000001
 43
0.0000001
 44
0.0000000001
 40
0.0
 40
0.0
 40
0.0
 40
0.0
 40
0.029942471
 40
0.0599093183
 40
0.0899243244
 40
0.1200101034
 40
0.1501875624
 40
0.1804754148
 40
0.2108897596
 40
0.2414437361
 40
0.2721472598
 40
0.3030068424
 40
0.3340254951
 40
0.3652027149
 40
0.3965345496
 40
0.4280137343
 40
0.459629891
 40
0.4913697854
 40
0.5232176334
 40
0.5551554501
 40
0.5871634341
 40
0.6192203766
 40
0.6513040925
 40
0.6833918636
 40
0.7154608915
 40
0.7474887505
 40
0.7794538351
 40
0.8113357956
 40
0.8431159562
 40
0.8747777121
 40
0.9063068677
 40
0.9376920929
 40
0.9689246489
 40
1.0
 40
1.0
 40
1.0
 40
1.0
 10
9.2544283774
 20
8.1083456089
 30
0.0
 10
9.2611803858
 20
8.1148675208
 30
0.0
 10
9.2752152862
 20
8.1273850396
 30
0.0
 10
9.2977014104
 20
8.1444379189
 30
0.0
 10
9.3215063342
 20
8.1596820982
 30
0.0
 10
9.3464970618
 20
8.1730320464
 30
0.0
 10
9.3725361999
 20
8.1844148168
 30
0.0
 10
9.3994800372
 20
8.1937678431
 30
0.0
 10
9.4271800924
 20
8.2010399633
 30
0.0
 10
9.4554837582
 20
8.2061914777
 30
0.0
 10
9.4842352016
 20
8.2091944014
 30
0.0
 10
9.5132762109
 20
8.2100325798
 30
0.0
 10
9.542447066
 20
8.2087017675
 30
0.0
 10
9.5715874157
 20
8.2052096598
 30
0.0
 10
9.6005371527
 20
8.1995757961
 30
0.0
 10
9.6291372806
 20
8.1918314433
 30
0.0
 10
9.6572307743
 20
8.1820194146
 30
0.0
 10
9.6846634252
 20
8.1701938232
 30
0.0
 10
9.7112846872
 20
8.1564198102
 30
0.0
 10
9.7369484918
 20
8.1407731728
 30
0.0
 10
9.7615140295
 20
8.1233399321
 30
0.0
 10
9.7848465136
 20
8.1042158683
 30
0.0
 10
9.8068179082
 20
8.0835059977
 30
0.0
 10
9.827307623
 20
8.0613240058
 30
0.0
 10
9.8462031938
 20
8.0377916493
 30
0.0
 10
9.8634008687
 20
8.0130380673
 30
0.0
 10
9.878806173
 20
7.9871990853
 30
0.0
 10
9.8923344228
 20
7.9604164749
 30
0.0
 10
9.9039111846
 20
7.9328372029
 30
0.0
 10
9.9134726943
 20
7.9046125835
 30
0.0
 10
9.9209662576
 20
7.8758976774
 30
0.0
 10
9.926350373
 20
7.8468496288
 30
0.0
 10
9.929595298
 20
7.8176300012
 30
0.0
 10
9.9303220775
 20
7.7980878837
 30
0.0
 10
9.9303220775
 20
7.7883452169
 30
0.0
  0
SPLINE
  5
3D8
100
AcDbEntity
  8
0
100
AcDbSpline
 62
7
  6
CONTINUOUS
 70
0
 71
3
 72
15
 73
11
 74
0
 42
0.0000001
 43
0.0000001
 44
0.0000000001
 40
0.0
 40
0.0
 40
0.0
 40
0.0
 40
0.1241449632
 40
0.2483766022
 40
0.3727797825
 40
0.497435798
 40
0.6224207061
 40
0.7478038011
 40
0.8736462614
 40
1.0
 40
1.0
 40
1.0
 40
1.0
 10
9.3282397101
 20
8.1240287641
 30
0.0
 10
9.3338760139
 20
8.1294730208
 30
0.0
 10
9.3455581554
 20
8.1399542339
 30
0.0
 10
9.3641964459
 20
8.1543506952
 30
0.0
 10
9.3838682528
 20
8.1673599898
 30
0.0
 10
9.4044794303
 20
8.1789196027
 30
0.0
 10
9.4259327939
 20
8.1889753559
 30
0.0
 10
9.4481273087
 20
8.1974799184
 30
0.0
 10
9.4709566425
 20
8.2043930626
 30
0.0
 10
9.4864981641
 20
8.207912463
 30
0.0
 10
9.4943342449
 20
8.2093984823
 30
0.0
  0
SPLINE
  5
3D9
100
AcDbEntity
  8
0
100
AcDbSpline
 62
7
  6
CONTINUOUS
 70
0
 71
3
 72
23
 73
19
 74
0
 42
0.0000001
 43
0.0000001
 44
0.0000000001
 40
0.0
 40
0.0
 40
0.0
 40
0.0
 40
0.0617101439
 40
0.1234413935
 40
0.1852146431
 40
0.2470503547
 40
0.3089683495
 40
0.3709876176
 40
0.4331261309
 40
0.4954006615
 40
0.5578266134
 40
0.6204179128
 40
0.6831867943
 40
0.7461438773
 40
0.8092980348
 40
0.872655047
 40
0.9362230873
 40
1.0
 40
1.0
 40
1.0
 40
1.0
 10
9.8199521084
 20
7.5228723955
 30
0.0
 10
9.8243223013
 20
7.52709366
 30
0.0
 10
9.8328484824
 20
7.53576428
 30
0.0
 10
9.8449542868
 20
7.5494130749
 30
0.0
 10
9.8563510921
 20
7.5636756775
 30
0.0
 10
9.8670121489
 20
7.578518751
 30
0.0
 10
9.8769130136
 20
7.5939081592
 30
0.0
 10
9.8860308585
 20
7.6098083528
 30
0.0
 10
9.8943446888
 20
7.6261826617
 30
0.0
 10
9.9018353325
 20
7.6429933246
 30
0.0
 10
9.9084855498
 20
7.6602015657
 30
0.0
 10
9.9142800649
 20
7.6777676856
 30
0.0
 10
9.9192055689
 20
7.695651176
 30
0.0
 10
9.9232507316
 20
7.7138108383
 30
0.0
 10
9.9264061973
 20
7.732204693
 30
0.0
 10
9.9286649312
 20
7.7507906996
 30
0.0
 10
9.930021505
 20
7.7695252005
 30
0.0
 10
9.9303220775
 20
7.782065732
 30
0.0
 10
9.9303220775
 20
7.7883452169
 30
0.0
  0
SPLINE
  5
3DA
100
AcDbEntity
  8
0
100
AcDbSpline
 62
7
  6
CONTINUOUS
 70
0
 71
3
 72
15
 73
11
 74
0
 42
0.0000001
 43
0.0000001
 44
0.0000000001
 40
0.0
 40
0.0
 40
0.0
 40
0.0
 40
0.1241431481
 40
0.2483731691
 40
0.3727751174
 40
0.4974304594
 40
0.6224154035
 40
0.7477993562
 40
0.8736436112
 40
1.0
 40
1.0
 40
1.0
 40
1.0
 10
9.8381837231
 20
7.5960959054
 30
0.0
 10
9.8438265045
 20
7.601546419
 30
0.0
 10
9.8547183246
 20
7.6128718166
 30
0.0
 10
9.8697670691
 20
7.6310228334
 30
0.0
 10
9.8834620339
 20
7.6502570992
 30
0.0
 10
9.8957372666
 20
7.6704823636
 30
0.0
 10
9.9065350832
 20
7.6916030294
 30
0.0
 10
9.9158045439
 20
7.7135193992
 30
0.0
 10
9.9235016495
 20
7.7361262101
 30
0.0
 10
9.9275528627
 20
7.7515571605
 30
0.0
 10
9.9293065629
 20
7.7593473973
 30
0.0
  0
SPLINE
  5
3DB
100
AcDbEntity
  8
0
100
AcDbSpline
 62
7
  6
CONTINUOUS
 70
0
 71
3
 72
39
 73
35
 74
0
 42
0.0000001
 43
0.0000001
 44
0.0000000001
 40
0.0
 40
0.0
 40
0.0
 40
0.0
 40
0.0299424698
 40
0.0599093171
 40
0.0899243244
 40
0.1200101049
 40
0.1501875654
 40
0.1804754197
 40
0.2108897678
 40
0.2414437479
 40
0.2721472748
 40
0.3030068601
 40
0.3340255156
 40
0.3652027379
 40
0.3965345747
 40
0.4280137612
 40
0.4596299196
 40
0.491369815
 40
0.5232176628
 40
0.555155479
 40
0.5871634623
 40
0.619220404
 40
0.6513041182
 40
0.6833918873
 40
0.7154609133
 40
0.74748877
 40
0.7794538516
 40
0.811335809
 40
0.8431159677
 40
0.8747777197
 40
0.9063068786
 40
0.9376920899
 40
0.9689246486
 40
1.0
 40
1.0
 40
1.0
 40
1.0
 10
11.1572241257
 20
7.9789779857
 30
0.0
 10
11.1643659797
 20
7.9858764637
 30
0.0
 10
11.1792112965
 20
7.9991166492
 30
0.0
 10
11.2029957792
 20
8.017154062
 30
0.0
 10
11.2281752224
 20
8.0332783131
 30
0.0
 10
11.2546089168
 20
8.047398975
 30
0.0
 10
11.2821515372
 20
8.0594389014
 30
0.0
 10
11.3106510879
 20
8.0693318909
 30
0.0
 10
11.33995052
 20
8.0770238048
 30
0.0
 10
11.3698884067
 20
8.0824726749
 30
0.0
 10
11.4002999172
 20
8.085648907
 30
0.0
 10
11.4310177065
 20
8.0865354163
 30
0.0
 10
11.4618728337
 20
8.0851276982
 30
0.0
 10
11.4926956894
 20
8.0814338995
 30
0.0
 10
11.5233169232
 20
8.0754746921
 30
0.0
 10
11.5535683596
 20
8.0672831452
 30
0.0
 10
11.5832839008
 20
8.0569045251
 30
0.0
 10
11.61230044
 20
8.04439609
 30
0.0
 10
11.6404587482
 20
8.0298267575
 30
0.0
 10
11.6676043198
 20
8.0132766884
 30
0.0
 10
11.6935882065
 20
7.9948368549
 30
0.0
 10
11.7182678275
 20
7.9746085563
 30
0.0
 10
11.7415077762
 20
7.9527029018
 30
0.0
 10
11.7631805164
 20
7.9292401524
 30
0.0
 10
11.7831670773
 20
7.9043490777
 30
0.0
 10
11.8013576888
 20
7.8781662527
 30
0.0
 10
11.8176524316
 20
7.8508353564
 30
0.0
 10
11.8319617505
 20
7.8225063559
 30
0.0
 10
11.8442069284
 20
7.7933347082
 30
0.0
 10
11.8543205045
 20
7.7634804514
 30
0.0
 10
11.8622467106
 20
7.7331075975
 30
0.0
 10
11.8679416854
 20
7.7023823682
 30
0.0
 10
11.8713739581
 20
7.6714756548
 30
0.0
 10
11.8721427018
 20
7.65080521
 30
0.0
 10
11.8721427018
 20
7.6405000191
 30
0.0
  0
SPLINE
  5
3DC
100
AcDbEntity
  8
0
100
AcDbSpline
 62
7
  6
CONTINUOUS
 70
0
 71
3
 72
39
 73
35
 74
0
 42
0.0000001
 43
0.0000001
 44
0.0000000001
 40
0.0
 40
0.0
 40
0.0
 40
0.0
 40
0.029942471
 40
0.0599093183
 40
0.0899243244
 40
0.1200101034
 40
0.1501875624
 40
0.1804754148
 40
0.2108897596
 40
0.2414437361
 40
0.2721472598
 40
0.3030068424
 40
0.3340254951
 40
0.3652027149
 40
0.3965345496
 40
0.4280137343
 40
0.459629891
 40
0.4913697854
 40
0.5232176334
 40
0.5551554501
 40
0.5871634341
 40
0.6192203766
 40
0.6513040925
 40
0.6833918636
 40
0.7154608915
 40
0.7474887505
 40
0.7794538351
 40
0.8113357956
 40
0.8431159562
 40
0.8747777121
 40
0.9063068677
 40
0.9376920929
 40
0.9689246489
 40
1.0
 40
1.0
 40
1.0
 40
1.0
 10
11.1862801445
 20
7.9743712338
 30
0.0
 10
11.1930321528
 20
7.9808931457
 30
0.0
 10
11.2070670533
 20
7.9934106645
 30
0.0
 10
11.2295531774
 20
8.0104635438
 30
0.0
 10
11.2533581013
 20
8.0257077231
 30
0.0
 10
11.2783488288
 20
8.0390576713
 30
0.0
 10
11.304387967
 20
8.0504404417
 30
0.0
 10
11.3313318043
 20
8.059793468
 30
0.0
 10
11.3590318595
 20
8.0670655882
 30
0.0
 10
11.3873355253
 20
8.0722171026
 30
0.0
 10
11.4160869687
 20
8.0752200263
 30
0.0
 10
11.4451279779
 20
8.0760582047
 30
0.0
 10
11.474298833
 20
8.0747273924
 30
0.0
 10
11.5034391827
 20
8.0712352847
 30
0.0
 10
11.5323889198
 20
8.065601421
 30
0.0
 10
11.5609890477
 20
8.0578570682
 30
0.0
 10
11.5890825413
 20
8.0480450395
 30
0.0
 10
11.6165151923
 20
8.0362194481
 30
0.0
 10
11.6431364543
 20
8.0224454351
 30
0.0
 10
11.6688002588
 20
8.0067987977
 30
0.0
 10
11.6933657965
 20
7.9893655571
 30
0.0
 10
11.7166982807
 20
7.9702414933
 30
0.0
 10
11.7386696752
 20
7.9495316226
 30
0.0
 10
11.75915939
 20
7.9273496307
 30
0.0
 10
11.7780549608
 20
7.9038172742
 30
0.0
 10
11.7952526358
 20
7.8790636923
 30
0.0
 10
11.8106579401
 20
7.8532247103
 30
0.0
 10
11.8241861899
 20
7.8264420998
 30
0.0
 10
11.8357629517
 20
7.7988628278
 30
0.0
 10
11.8453244613
 20
7.7706382084
 30
0.0
 10
11.8528180246
 20
7.7419233024
 30
0.0
 10
11.85820214
 20
7.7128752537
 30
0.0
 10
11.8614470651
 20
7.6836556261
 30
0.0
 10
11.8621738446
 20
7.6641135086
 30
0.0
 10
11.8621738446
 20
7.6543708418
 30
0.0
  0
SPLINE
  5
3DD
100
AcDbEntity
  8
0
100
AcDbSpline
 62
7
  6
CONTINUOUS
 70
0
 71
3
 72
15
 73
11
 74
0
 42
0.0000001
 43
0.0000001
 44
0.0000000001
 40
0.0
 40
0.0
 40
0.0
 40
0.0
 40
0.1241449632
 40
0.2483766022
 40
0.3727797825
 40
0.497435798
 40
0.6224207061
 40
0.7478038011
 40
0.8736462614
 40
1.0
 40
1.0
 40
1.0
 40
1.0
 10
11.2600914771
 20
7.9900543891
 30
0.0
 10
11.2657277809
 20
7.9954986457
 30
0.0
 10
11.2774099225
 20
8.0059798588
 30
0.0
 10
11.296048213
 20
8.0203763201
 30
0.0
 10
11.3157200199
 20
8.0333856147
 30
0.0
 10
11.3363311973
 20
8.0449452277
 30
0.0
 10
11.3577845609
 20
8.0550009808
 30
0.0
 10
11.3799790757
 20
8.0635055433
 30
0.0
 10
11.4028084096
 20
8.0704186876
 30
0.0
 10
11.4183499311
 20
8.0739380879
 30
0.0
 10
11.4261860119
 20
8.0754241072
 30
0.0
  0
SPLINE
  5
3DE
100
AcDbEntity
  8
0
100
AcDbSpline
 62
7
  6
CONTINUOUS
 70
0
 71
3
 72
23
 73
19
 74
0
 42
0.0000001
 43
0.0000001
 44
0.0000000001
 40
0.0
 40
0.0
 40
0.0
 40
0.0
 40
0.0617101439
 40
0.1234413935
 40
0.1852146431
 40
0.2470503547
 40
0.3089683495
 40
0.3709876176
 40
0.4331261309
 40
0.4954006615
 40
0.5578266134
 40
0.6204179128
 40
0.6831867943
 40
0.7461438773
 40
0.8092980348
 40
0.872655047
 40
0.9362230873
 40
1.0
 40
1.0
 40
1.0
 40
1.0
 10
11.7518038755
 20
7.3888980204
 30
0.0
 10
11.7561740684
 20
7.3931192849
 30
0.0
 10
11.7647002495
 20
7.4017899049
 30
0.0
 10
11.7768060538
 20
7.4154386998
 30
0.0
 10
11.7882028592
 20
7.4297013024
 30
0.0
 10
11.7988639159
 20
7.4445443759
 30
0.0
 10
11.8087647806
 20
7.4599337841
 30
0.0
 10
11.8178826255
 20
7.4758339777
 30
0.0
 10
11.8261964559
 20
7.4922082867
 30
0.0
 10
11.8336870996
 20
7.5090189495
 30
0.0
 10
11.8403373169
 20
7.5262271906
 30
0.0
 10
11.846131832
 20
7.5437933105
 30
0.0
 10
11.8510573359
 20
7.5616768009
 30
0.0
 10
11.8551024987
 20
7.5798364632
 30
0.0
 10
11.8582579644
 20
7.5982303179
 30
0.0
 10
11.8605166982
 20
7.6168163245
 30
0.0
 10
11.861873272
 20
7.6355508254
 30
0.0
 10
11.8621738446
 20
7.648091357
 30
0.0
 10
11.8621738446
 20
7.6543708418
 30
0.0
  0
SPLINE
  5
3DF
100
AcDbEntity
  8
0
100
AcDbSpline
 62
7
  6
CONTINUOUS
 70
0
 71
3
 72
15
 73
11
 74
0
 42
0.0000001
 43
0.0000001
 44
0.0000000001
 40
0.0
 40
0.0
 40
0.0
 40
0.0
 40
0.1241431481
 40
0.2483731691
 40
0.3727751174
 40
0.4974304594
 40
0.6224154035
 40
0.7477993562
 40
0.8736436112
 40
1.0
 40
1.0
 40
1.0
 40
1.0
 10
11.7700354901
 20
7.4621215303
 30
0.0
 10
11.7756782716
 20
7.4675720439
 30
0.0
 10
11.7865700917
 20
7.4788974415
 30
0.0
 10
11.8016188362
 20
7.4970484583
 30
0.0
 10
11.8153138009
 20
7.5162827241
 30
0.0
 10
11.8275890336
 20
7.5365079885
 30
0.0
 10
11.8383868502
 20
7.5576286543
 30
0.0
 10
11.8476563109
 20
7.5795450242
 30
0.0
 10
11.8553534165
 20
7.602151835
 30
0.0
 10
11.8594046298
 20
7.6175827854
 30
0.0
 10
11.86115833
 20
7.6253730222
 30
0.0
  0
SPLINE
  5
3E0
100
AcDbEntity
  8
0
100
AcDbSpline
 62
7
  6
CONTINUOUS
 70
0
 71
3
 72
42
 73
38
 74
0
 42
0.0000001
 43
0.0000001
 44
0.0000000001
 40
0.0
 40
0.0
 40
0.0
 40
0.0
 40
0.0299419644
 40
0.0449235317
 40
0.0599142035
 40
0.0899287023
 40
0.1200139727
 40
0.1350926544
 40
0.1501966973
 40
0.1804840373
 40
0.210897868
 40
0.2414513286
 40
0.2721543342
 40
0.3030133956
 40
0.3340315238
 40
0.3652082165
 40
0.3965395222
 40
0.4280181758
 40
0.459633799
 40
0.4913731572
 40
0.5232204671
 40
0.5551577446
 40
0.5871651885
 40
0.6192215901
 40
0.6513047644
 40
0.683391994
 40
0.715460481
 40
0.7474877999
 40
0.7794523452
 40
0.8113337678
 40
0.8431133918
 40
0.8747746145
 40
0.906303246
 40
0.9376878974
 40
0.9533257627
 40
0.9689252947
 40
1.0
 40
1.0
 40
1.0
 40
1.0
 10
8.4175004633
 20
9.3744000985
 30
0.0
 10
8.4208681657
 20
9.3776530479
 30
0.0
 10
8.4261182216
 20
9.3823353686
 30
0.0
 10
8.4334707795
 20
9.3881451574
 30
0.0
 10
8.4410575441
 20
9.3936657645
 30
0.0
 10
8.4509569701
 20
9.4000052922
 30
0.0
 10
8.4613377557
 20
9.4055504903
 30
0.0
 10
8.4698991754
 20
9.40949544
 30
0.0
 10
8.4786375045
 20
9.4131146155
 30
0.0
 10
8.4898483431
 20
9.417006354
 30
0.0
 10
8.5036640271
 20
9.4206333323
 30
0.0
 10
8.5177811716
 20
9.4232027935
 30
0.0
 10
8.5321215478
 20
9.4247005463
 30
0.0
 10
8.5466063788
 20
9.4251186019
 30
0.0
 10
8.5611559653
 20
9.4244548312
 30
0.0
 10
8.5756903389
 20
9.4227130689
 30
0.0
 10
8.5901296393
 20
9.4199030562
 30
0.0
 10
8.6043945639
 20
9.4160403882
 30
0.0
 10
8.6184067927
 20
9.4111464216
 30
0.0
 10
8.6320894138
 20
9.4052481536
 30
0.0
 10
8.6453673394
 20
9.3983780724
 30
0.0
 10
8.6581677116
 20
9.3905739776
 30
0.0
 10
8.6704202977
 20
9.3818787728
 30
0.0
 10
8.6820578697
 20
9.3723402316
 30
0.0
 10
8.6930165697
 20
9.3620107368
 30
0.0
 10
8.7032362557
 20
9.3509469955
 30
0.0
 10
8.7126608288
 20
9.3392097308
 30
0.0
 10
8.7212385374
 20
9.3268633512
 30
0.0
 10
8.7289222592
 20
9.3139756048
 30
0.0
 10
8.7356697588
 20
9.3006171969
 30
0.0
 10
8.7414439138
 20
9.2868614623
 30
0.0
 10
8.7462129367
 20
9.2727837632
 30
0.0
 10
8.7499504742
 20
9.25846184
 30
0.0
 10
8.7521912169
 20
9.2463725873
 30
0.0
 10
8.7534482029
 20
9.2366590099
 30
0.0
 10
8.7543452835
 20
9.2269547298
 30
0.0
 10
8.7546169128
 20
9.2196523213
 30
0.0
 10
8.7546169128
 20
9.2147929766
 30
0.0
  0
SPLINE
  5
3E1
100
AcDbEntity
  8
0
100
AcDbSpline
 62
7
  6
CONTINUOUS
 70
0
 71
3
 72
42
 73
38
 74
0
 42
0.0000001
 43
0.0000001
 44
0.0000000001
 40
0.0
 40
0.0
 40
0.0
 40
0.0
 40
0.0299419644
 40
0.0449235317
 40
0.0599142035
 40
0.0899287023
 40
0.1200139727
 40
0.1350926544
 40
0.1501966973
 40
0.1804840373
 40
0.210897868
 40
0.2414513286
 40
0.2721543342
 40
0.3030133956
 40
0.3340315238
 40
0.3652082165
 40
0.3965395222
 40
0.4280181758
 40
0.459633799
 40
0.4913731572
 40
0.5232204671
 40
0.5551577446
 40
0.5871651885
 40
0.6192215901
 40
0.6513047644
 40
0.683391994
 40
0.715460481
 40
0.7474877999
 40
0.7794523452
 40
0.8113337678
 40
0.8431133918
 40
0.8747746145
 40
0.906303246
 40
0.9376878974
 40
0.9533257627
 40
0.9689252947
 40
1.0
 40
1.0
 40
1.0
 40
1.0
 10
10.3493522303
 20
9.2404257234
 30
0.0
 10
10.3527199327
 20
9.2436786728
 30
0.0
 10
10.3579699886
 20
9.2483609935
 30
0.0
 10
10.3653225465
 20
9.2541707823
 30
0.0
 10
10.3729093111
 20
9.2596913894
 30
0.0
 10
10.3828087371
 20
9.2660309171
 30
0.0
 10
10.3931895227
 20
9.2715761152
 30
0.0
 10
10.4017509424
 20
9.2755210649
 30
0.0
 10
10.4104892716
 20
9.2791402404
 30
0.0
 10
10.4217001101
 20
9.2830319789
 30
0.0
 10
10.4355157942
 20
9.2866589572
 30
0.0
 10
10.4496329386
 20
9.2892284184
 30
0.0
 10
10.4639733148
 20
9.2907261712
 30
0.0
 10
10.4784581459
 20
9.2911442268
 30
0.0
 10
10.4930077323
 20
9.2904804562
 30
0.0
 10
10.5075421059
 20
9.2887386938
 30
0.0
 10
10.5219814064
 20
9.2859286811
 30
0.0
 10
10.5362463309
 20
9.2820660132
 30
0.0
 10
10.5502585597
 20
9.2771720465
 30
0.0
 10
10.5639411809
 20
9.2712737785
 30
0.0
 10
10.5772191064
 20
9.2644036973
 30
0.0
 10
10.5900194787
 20
9.2565996025
 30
0.0
 10
10.6022720647
 20
9.2479043977
 30
0.0
 10
10.6139096367
 20
9.2383658565
 30
0.0
 10
10.6248683367
 20
9.2280363617
 30
0.0
 10
10.6350880228
 20
9.2169726204
 30
0.0
 10
10.6445125958
 20
9.2052353557
 30
0.0
 10
10.6530903044
 20
9.1928889761
 30
0.0
 10
10.6607740263
 20
9.1800012297
 30
0.0
 10
10.6675215258
 20
9.1666428218
 30
0.0
 10
10.6732956808
 20
9.1528870873
 30
0.0
 10
10.6780647037
 20
9.1388093881
 30
0.0
 10
10.6818022413
 20
9.1244874649
 30
0.0
 10
10.6840429839
 20
9.1123982123
 30
0.0
 10
10.68529997
 20
9.1026846348
 30
0.0
 10
10.6861970506
 20
9.0929803547
 30
0.0
 10
10.6864686798
 20
9.0856779462
 30
0.0
 10
10.6864686798
 20
9.0808186015
 30
0.0
  0
SPLINE
  5
3E2
100
AcDbEntity
  8
0
100
AcDbSpline
 62
7
  6
CONTINUOUS
 70
0
 71
3
 72
42
 73
38
 74
0
 42
0.0000001
 43
0.0000001
 44
0.0000000001
 40
0.0
 40
0.0
 40
0.0
 40
0.0
 40
0.0299419644
 40
0.0449235317
 40
0.0599142035
 40
0.0899287023
 40
0.1200139727
 40
0.1350926544
 40
0.1501966973
 40
0.1804840373
 40
0.210897868
 40
0.2414513286
 40
0.2721543342
 40
0.3030133956
 40
0.3340315238
 40
0.3652082165
 40
0.3965395222
 40
0.4280181758
 40
0.459633799
 40
0.4913731572
 40
0.5232204671
 40
0.5551577446
 40
0.5871651885
 40
0.6192215901
 40
0.6513047644
 40
0.683391994
 40
0.715460481
 40
0.7474877999
 40
0.7794523452
 40
0.8113337678
 40
0.8431133918
 40
0.8747746145
 40
0.906303246
 40
0.9376878974
 40
0.9533257627
 40
0.9689252947
 40
1.0
 40
1.0
 40
1.0
 40
1.0
 10
12.2812039974
 20
9.1064513483
 30
0.0
 10
12.2845716998
 20
9.1097042977
 30
0.0
 10
12.2898217557
 20
9.1143866184
 30
0.0
 10
12.2971743135
 20
9.1201964072
 30
0.0
 10
12.3047610782
 20
9.1257170143
 30
0.0
 10
12.3146605041
 20
9.132056542
 30
0.0
 10
12.3250412898
 20
9.1376017402
 30
0.0
 10
12.3336027095
 20
9.1415466898
 30
0.0
 10
12.3423410386
 20
9.1451658654
 30
0.0
 10
12.3535518772
 20
9.1490576038
 30
0.0
 10
12.3673675612
 20
9.1526845821
 30
0.0
 10
12.3814847057
 20
9.1552540433
 30
0.0
 10
12.3958250818
 20
9.1567517961
 30
0.0
 10
12.4103099129
 20
9.1571698517
 30
0.0
 10
12.4248594994
 20
9.1565060811
 30
0.0
 10
12.4393938729
 20
9.1547643187
 30
0.0
 10
12.4538331734
 20
9.151954306
 30
0.0
 10
12.468098098
 20
9.1480916381
 30
0.0
 10
12.4821103267
 20
9.1431976714
 30
0.0
 10
12.4957929479
 20
9.1372994034
 30
0.0
 10
12.5090708734
 20
9.1304293223
 30
0.0
 10
12.5218712457
 20
9.1226252274
 30
0.0
 10
12.5341238317
 20
9.1139300226
 30
0.0
 10
12.5457614038
 20
9.1043914814
 30
0.0
 10
12.5567201038
 20
9.0940619866
 30
0.0
 10
12.5669397898
 20
9.0829982453
 30
0.0
 10
12.5763643629
 20
9.0712609806
 30
0.0
 10
12.5849420715
 20
9.058914601
 30
0.0
 10
12.5926257933
 20
9.0460268546
 30
0.0
 10
12.5993732929
 20
9.0326684467
 30
0.0
 10
12.6051474479
 20
9.0189127122
 30
0.0
 10
12.6099164708
 20
9.0048350131
 30
0.0
 10
12.6136540083
 20
8.9905130898
 30
0.0
 10
12.615894751
 20
8.9784238372
 30
0.0
 10
12.617151737
 20
8.9687102598
 30
0.0
 10
12.6180488176
 20
8.9590059796
 30
0.0
 10
12.6183204469
 20
8.9517035711
 30
0.0
 10
12.6183204469
 20
8.9468442264
 30
0.0
  0
SPLINE
  5
3E3
100
AcDbEntity
  8
0
100
AcDbSpline
 62
7
  6
CONTINUOUS
 70
0
 71
3
 72
42
 73
38
 74
0
 42
0.0000001
 43
0.0000001
 44
0.0000000001
 40
0.0
 40
0.0
 40
0.0
 40
0.0
 40
0.0299419644
 40
0.0449235317
 40
0.0599142035
 40
0.0899287023
 40
0.1200139727
 40
0.1350926544
 40
0.1501966973
 40
0.1804840373
 40
0.210897868
 40
0.2414513286
 40
0.2721543342
 40
0.3030133956
 40
0.3340315238
 40
0.3652082165
 40
0.3965395222
 40
0.4280181758
 40
0.459633799
 40
0.4913731572
 40
0.5232204671
 40
0.5551577446
 40
0.5871651885
 40
0.6192215901
 40
0.6513047644
 40
0.683391994
 40
0.715460481
 40
0.7474877999
 40
0.7794523452
 40
0.8113337678
 40
0.8431133918
 40
0.8747746145
 40
0.906303246
 40
0.9376878974
 40
0.9533257627
 40
0.9689252947
 40
1.0
 40
1.0
 40
1.0
 40
1.0
 10
8.4175004633
 20
7.6840298023
 30
0.0
 10
8.4208681657
 20
7.6872827517
 30
0.0
 10
8.4261182216
 20
7.6919650725
 30
0.0
 10
8.4334707795
 20
7.6977748612
 30
0.0
 10
8.4410575441
 20
7.7032954683
 30
0.0
 10
8.4509569701
 20
7.709634996
 30
0.0
 10
8.4613377557
 20
7.7151801942
 30
0.0
 10
8.4698991754
 20
7.7191251438
 30
0.0
 10
8.4786375045
 20
7.7227443194
 30
0.0
 10
8.4898483431
 20
7.7266360578
 30
0.0
 10
8.5036640271
 20
7.7302630361
 30
0.0
 10
8.5177811716
 20
7.7328324973
 30
0.0
 10
8.5321215478
 20
7.7343302501
 30
0.0
 10
8.5466063788
 20
7.7347483057
 30
0.0
 10
8.5611559653
 20
7.7340845351
 30
0.0
 10
8.5756903389
 20
7.7323427727
 30
0.0
 10
8.5901296393
 20
7.72953276
 30
0.0
 10
8.6043945639
 20
7.7256700921
 30
0.0
 10
8.6184067927
 20
7.7207761254
 30
0.0
 10
8.6320894138
 20
7.7148778574
 30
0.0
 10
8.6453673394
 20
7.7080077763
 30
0.0
 10
8.6581677116
 20
7.7002036814
 30
0.0
 10
8.6704202977
 20
7.6915084767
 30
0.0
 10
8.6820578697
 20
7.6819699354
 30
0.0
 10
8.6930165697
 20
7.6716404406
 30
0.0
 10
8.7032362557
 20
7.6605766993
 30
0.0
 10
8.7126608288
 20
7.6488394346
 30
0.0
 10
8.7212385374
 20
7.636493055
 30
0.0
 10
8.7289222592
 20
7.6236053086
 30
0.0
 10
8.7356697588
 20
7.6102469007
 30
0.0
 10
8.7414439138
 20
7.5964911662
 30
0.0
 10
8.7462129367
 20
7.5824134671
 30
0.0
 10
8.7499504742
 20
7.5680915438
 30
0.0
 10
8.7521912169
 20
7.5560022912
 30
0.0
 10
8.7534482029
 20
7.5462887138
 30
0.0
 10
8.7543452835
 20
7.5365844336
 30
0.0
 10
8.7546169128
 20
7.5292820251
 30
0.0
 10
8.7546169128
 20
7.5244226804
 30
0.0
  0
SPLINE
  5
3E4
100
AcDbEntity
  8
0
100
AcDbSpline
 62
7
  6
CONTINUOUS
 70
0
 71
3
 72
42
 73
38
 74
0
 42
0.0000001
 43
0.0000001
 44
0.0000000001
 40
0.0
 40
0.0
 40
0.0
 40
0.0
 40
0.0299419644
 40
0.0449235317
 40
0.0599142035
 40
0.0899287023
 40
0.1200139727
 40
0.1350926544
 40
0.1501966973
 40
0.1804840373
 40
0.210897868
 40
0.2414513286
 40
0.2721543342
 40
0.3030133956
 40
0.3340315238
 40
0.3652082165
 40
0.3965395222
 40
0.4280181758
 40
0.459633799
 40
0.4913731572
 40
0.5232204671
 40
0.5551577446
 40
0.5871651885
 40
0.6192215901
 40
0.6513047644
 40
0.683391994
 40
0.715460481
 40
0.7474877999
 40
0.7794523452
 40
0.8113337678
 40
0.8431133918
 40
0.8747746145
 40
0.906303246
 40
0.9376878974
 40
0.9533257627
 40
0.9689252947
 40
1.0
 40
1.0
 40
1.0
 40
1.0
 10
10.3493522303
 20
7.5500554272
 30
0.0
 10
10.3527199327
 20
7.5533083767
 30
0.0
 10
10.3579699886
 20
7.5579906974
 30
0.0
 10
10.3653225465
 20
7.5638004862
 30
0.0
 10
10.3729093111
 20
7.5693210933
 30
0.0
 10
10.3828087371
 20
7.5756606209
 30
0.0
 10
10.3931895227
 20
7.5812058191
 30
0.0
 10
10.4017509424
 20
7.5851507687
 30
0.0
 10
10.4104892716
 20
7.5887699443
 30
0.0
 10
10.4217001101
 20
7.5926616827
 30
0.0
 10
10.4355157942
 20
7.5962886611
 30
0.0
 10
10.4496329386
 20
7.5988581222
 30
0.0
 10
10.4639733148
 20
7.6003558751
 30
0.0
 10
10.4784581459
 20
7.6007739306
 30
0.0
 10
10.4930077323
 20
7.60011016
 30
0.0
 10
10.5075421059
 20
7.5983683977
 30
0.0
 10
10.5219814064
 20
7.5955583849
 30
0.0
 10
10.5362463309
 20
7.591695717
 30
0.0
 10
10.5502585597
 20
7.5868017503
 30
0.0
 10
10.5639411809
 20
7.5809034823
 30
0.0
 10
10.5772191064
 20
7.5740334012
 30
0.0
 10
10.5900194787
 20
7.5662293063
 30
0.0
 10
10.6022720647
 20
7.5575341016
 30
0.0
 10
10.6139096367
 20
7.5479955604
 30
0.0
 10
10.6248683367
 20
7.5376660656
 30
0.0
 10
10.6350880228
 20
7.5266023242
 30
0.0
 10
10.6445125958
 20
7.5148650595
 30
0.0
 10
10.6530903044
 20
7.5025186799
 30
0.0
 10
10.6607740263
 20
7.4896309335
 30
0.0
 10
10.6675215258
 20
7.4762725256
 30
0.0
 10
10.6732956808
 20
7.4625167911
 30
0.0
 10
10.6780647037
 20
7.448439092
 30
0.0
 10
10.6818022413
 20
7.4341171687
 30
0.0
 10
10.6840429839
 20
7.4220279161
 30
0.0
 10
10.68529997
 20
7.4123143387
 30
0.0
 10
10.6861970506
 20
7.4026100586
 30
0.0
 10
10.6864686798
 20
7.39530765
 30
0.0
 10
10.6864686798
 20
7.3904483053
 30
0.0
  0
SPLINE
  5
3E5
100
AcDbEntity
  8
0
100
AcDbSpline
 62
7
  6
CONTINUOUS
 70
0
 71
3
 72
42
 73
38
 74
0
 42
0.0000001
 43
0.0000001
 44
0.0000000001
 40
0.0
 40
0.0
 40
0.0
 40
0.0
 40
0.0299419644
 40
0.0449235317
 40
0.0599142035
 40
0.0899287023
 40
0.1200139727
 40
0.1350926544
 40
0.1501966973
 40
0.1804840373
 40
0.210897868
 40
0.2414513286
 40
0.2721543342
 40
0.3030133956
 40
0.3340315238
 40
0.3652082165
 40
0.3965395222
 40
0.4280181758
 40
0.459633799
 40
0.4913731572
 40
0.5232204671
 40
0.5551577446
 40
0.5871651885
 40
0.6192215901
 40
0.6513047644
 40
0.683391994
 40
0.715460481
 40
0.7474877999
 40
0.7794523452
 40
0.8113337678
 40
0.8431133918
 40
0.8747746145
 40
0.906303246
 40
0.9376878974
 40
0.9533257627
 40
0.9689252947
 40
1.0
 40
1.0
 40
1.0
 40
1.0
 10
12.2812039974
 20
7.4160810521
 30
0.0
 10
12.2845716998
 20
7.4193340016
 30
0.0
 10
12.2898217557
 20
7.4240163223
 30
0.0
 10
12.2971743135
 20
7.4298261111
 30
0.0
 10
12.3047610782
 20
7.4353467182
 30
0.0
 10
12.3146605041
 20
7.4416862458
 30
0.0
 10
12.3250412898
 20
7.447231444
 30
0.0
 10
12.3336027095
 20
7.4511763936
 30
0.0
 10
12.3423410386
 20
7.4547955692
 30
0.0
 10
12.3535518772
 20
7.4586873077
 30
0.0
 10
12.3673675612
 20
7.462314286
 30
0.0
 10
12.3814847057
 20
7.4648837471
 30
0.0
 10
12.3958250818
 20
7.4663815
 30
0.0
 10
12.4103099129
 20
7.4667995555
 30
0.0
 10
12.4248594994
 20
7.4661357849
 30
0.0
 10
12.4393938729
 20
7.4643940226
 30
0.0
 10
12.4538331734
 20
7.4615840098
 30
0.0
 10
12.468098098
 20
7.4577213419
 30
0.0
 10
12.4821103267
 20
7.4528273752
 30
0.0
 10
12.4957929479
 20
7.4469291073
 30
0.0
 10
12.5090708734
 20
7.4400590261
 30
0.0
 10
12.5218712457
 20
7.4322549313
 30
0.0
 10
12.5341238317
 20
7.4235597265
 30
0.0
 10
12.5457614038
 20
7.4140211853
 30
0.0
 10
12.5567201038
 20
7.4036916905
 30
0.0
 10
12.5669397898
 20
7.3926279491
 30
0.0
 10
12.5763643629
 20
7.3808906845
 30
0.0
 10
12.5849420715
 20
7.3685443049
 30
0.0
 10
12.5926257933
 20
7.3556565584
 30
0.0
 10
12.5993732929
 20
7.3422981506
 30
0.0
 10
12.6051474479
 20
7.328542416
 30
0.0
 10
12.6099164708
 20
7.3144647169
 30
0.0
 10
12.6136540083
 20
7.3001427937
 30
0.0
 10
12.615894751
 20
7.288053541
 30
0.0
 10
12.617151737
 20
7.2783399636
 30
0.0
 10
12.6180488176
 20
7.2686356835
 30
0.0
 10
12.6183204469
 20
7.261333275
 30
0.0
 10
12.6183204469
 20
7.2564739303
 30
0.0
  0
SPLINE
  5
3E6
100
AcDbEntity
  8
0
100
AcDbSpline
 62
7
  6
CONTINUOUS
 70
0
 71
3
 72
28
 73
24
 74
0
 42
0.0000001
 43
0.0000001
 44
0.0000000001
 40
0.0
 40
0.0
 40
0.0
 40
0.0
 40
0.0196467233
 40
0.0387974431
 40
0.0575995627
 40
0.0762097377
 40
0.0947930722
 40
0.1135173751
 40
0.1325465646
 40
0.1520403305
 40
0.172150876
 40
0.1930169876
 40
0.2374751285
 40
0.2863303992
 40
0.3402709823
 40
0.3998353492
 40
0.4654480734
 40
0.537438606
 40
0.6160640627
 40
0.7015209765
 40
0.7939466065
 40
0.8934272579
 40
1.0
 40
1.0
 40
1.0
 40
1.0
 10
11.3008612821
 20
7.9650860509
 30
0.0
 10
11.3004174632
 20
7.965117054
 30
0.0
 10
11.2995431552
 20
7.9652177989
 30
0.0
 10
11.2982659095
 20
7.9654922514
 30
0.0
 10
11.2970451241
 20
7.9658874804
 30
0.0
 10
11.2958840436
 20
7.9664030087
 30
0.0
 10
11.2947858645
 20
7.9670382454
 30
0.0
 10
11.2937538892
 20
7.9677923423
 30
0.0
 10
11.2927914106
 20
7.968664252
 30
0.0
 10
11.2919017418
 20
7.9696528222
 30
0.0
 10
11.2910881151
 20
7.9707568729
 30
0.0
 10
11.2900880745
 20
7.9724158053
 30
0.0
 10
11.2890545771
 20
7.9747999028
 30
0.0
 10
11.2882040805
 20
7.9780350639
 30
0.0
 10
11.2877419861
 20
7.9816919361
 30
0.0
 10
11.2876963044
 20
7.9857554919
 30
0.0
 10
11.2880957857
 20
7.9902091742
 30
0.0
 10
11.2889698962
 20
7.9950330275
 30
0.0
 10
11.2903476339
 20
8.00020385
 30
0.0
 10
11.2922570829
 20
8.0056948679
 30
0.0
 10
11.2947245082
 20
8.011475866
 30
0.0
 10
11.2977735154
 20
8.0175128594
 30
0.0
 10
11.300127335
 20
8.0215454446
 30
0.0
 10
11.3014015296
 20
8.0235949927
 30
0.0
  0
SPLINE
  5
3E7
100
AcDbEntity
  8
0
100
AcDbSpline
 62
7
  6
CONTINUOUS
 70
0
 71
3
 72
61
 73
57
 74
0
 42
0.0000001
 43
0.0000001
 44
0.0000000001
 40
0.0
 40
0.0
 40
0.0
 40
0.0
 40
0.0075207324
 40
0.0156240055
 40
0.0243308433
 40
0.0336545768
 40
0.0436023655
 40
0.0541763112
 40
0.065374328
 40
0.0771908606
 40
0.0896173893
 40
0.1026427859
 40
0.1162536758
 40
0.1304347083
 40
0.145168727
 40
0.1604369411
 40
0.1762191128
 40
0.1924936716
 40
0.2092377896
 40
0.2264275197
 40
0.2440378952
 40
0.2620429852
 40
0.2804159755
 40
0.2991292715
 40
0.3374622021
 40
0.3768084315
 40
0.4169256179
 40
0.4575651873
 40
0.4984744046
 40
0.5393983996
 40
0.5800821848
 40
0.6202726688
 40
0.6597207048
 40
0.6981831032
 40
0.716971193
 40
0.7354254645
 40
0.7535181528
 40
0.77122227
 40
0.7885116657
 40
0.8053611304
 40
0.8217464875
 40
0.8376446498
 40
0.8530337228
 40
0.8678931552
 40
0.8822038278
 40
0.8959481785
 40
0.9091104066
 40
0.9216766781
 40
0.9336353289
 40
0.9449771747
 40
0.9556959343
 40
0.9657887051
 40
0.9752565188
 40
0.9841051808
 40
0.9923468454
 40
1.0
 40
1.0
 40
1.0
 40
1.0
 10
12.9326933437
 20
7.7879052369
 30
0.0
 10
12.9310083336
 20
7.7899770342
 30
0.0
 10
12.9276882735
 20
7.7944297295
 30
0.0
 10
12.9230161608
 20
7.8017035324
 30
0.0
 10
12.9184774171
 20
7.8098033073
 30
0.0
 10
12.9140792589
 20
7.8187157964
 30
0.0
 10
12.9098283513
 20
7.8284271486
 30
0.0
 10
12.9057315316
 20
7.8389217936
 30
0.0
 10
12.9017954389
 20
7.8501828018
 30
0.0
 10
12.8980265715
 20
7.8621918606
 30
0.0
 10
12.8944312066
 20
7.8749293387
 30
0.0
 10
12.8910153265
 20
7.8883743097
 30
0.0
 10
12.8877846425
 20
7.9025046228
 30
0.0
 10
12.8847445828
 20
7.9172969562
 30
0.0
 10
12.8819002488
 20
7.9327268486
 30
0.0
 10
12.8792563992
 20
7.9487687469
 30
0.0
 10
12.8768174764
 20
7.9653960688
 30
0.0
 10
12.8745875892
 20
7.9825812449
 30
0.0
 10
12.8725704674
 20
8.0002957581
 30
0.0
 10
12.8707694937
 20
8.0185102018
 30
0.0
 10
12.8691877015
 20
8.037194339
 30
0.0
 10
12.8678277555
 20
8.0563171321
 30
0.0
 10
12.8666919
 20
8.0758468409
 30
0.0
 10
12.8654691178
 20
8.1025997818
 30
0.0
 10
12.8645254423
 20
8.1368177813
 30
0.0
 10
12.8643152753
 20
8.1786483404
 30
0.0
 10
12.8650205092
 20
8.2212926093
 30
0.0
 10
12.8666366154
 20
8.2644673077
 30
0.0
 10
12.8691530278
 20
8.3078858188
 30
0.0
 10
12.8725530942
 20
8.3512598272
 30
0.0
 10
12.8768141757
 20
8.3943013191
 30
0.0
 10
12.8819078753
 20
8.4367245763
 30
0.0
 10
12.8878001507
 20
8.4782478064
 30
0.0
 10
12.8933855553
 20
8.5121301778
 30
0.0
 10
12.8982337268
 20
8.5385716395
 30
0.0
 10
12.9020152139
 20
8.5578535635
 30
0.0
 10
12.9059639814
 20
8.5767088498
 30
0.0
 10
12.9100734721
 20
8.5951062061
 30
0.0
 10
12.9143368354
 20
8.6130150698
 30
0.0
 10
12.9187469633
 20
8.6304057089
 30
0.0
 10
12.9232964858
 20
8.6472492657
 30
0.0
 10
12.9279778141
 20
8.6635177943
 30
0.0
 10
12.9327831506
 20
8.6791843128
 30
0.0
 10
12.9377044628
 20
8.6942228675
 30
0.0
 10
12.9427335339
 20
8.7086085662
 30
0.0
 10
12.9478619873
 20
8.7223176139
 30
0.0
 10
12.9530812762
 20
8.7353273775
 30
0.0
 10
12.9583826976
 20
8.7476164358
 30
0.0
 10
12.9637574473
 20
8.759164601
 30
0.0
 10
12.96919665
 20
8.7699529663
 30
0.0
 10
12.9746913334
 20
8.7799639869
 30
0.0
 10
12.9802325603
 20
8.7891815024
 30
0.0
 10
12.9858113939
 20
8.7975906645
 30
0.0
 10
12.9914192807
 20
8.8051784264
 30
0.0
 10
12.9970472123
 20
8.8119321874
 30
0.0
 10
13.0009481631
 20
8.8160194409
 30
0.0
 10
13.0029027571
 20
8.8179074338
 30
0.0
  0
SPLINE
  5
3E8
100
AcDbEntity
  8
0
100
AcDbSpline
 62
7
  6
CONTINUOUS
 70
0
 71
3
 72
39
 73
35
 74
0
 42
0.0000001
 43
0.0000001
 44
0.0000000001
 40
0.0
 40
0.0
 40
0.0
 40
0.0
 40
0.0310753511
 40
0.0623079071
 40
0.0936931323
 40
0.1252222879
 40
0.1568840438
 40
0.1886642044
 40
0.2205461649
 40
0.2525112495
 40
0.2845391085
 40
0.3166081364
 40
0.3486959075
 40
0.3807796234
 40
0.4128365659
 40
0.4448445499
 40
0.4767823666
 40
0.5086302146
 40
0.540370109
 40
0.5719862657
 40
0.6034654504
 40
0.6347972851
 40
0.6659745049
 40
0.6969931576
 40
0.7278527402
 40
0.7585562639
 40
0.7891102404
 40
0.8195245852
 40
0.8498124376
 40
0.8799898966
 40
0.9100756756
 40
0.9400906817
 40
0.970057529
 40
1.0
 40
1.0
 40
1.0
 40
1.0
 10
9.1440584083
 20
7.8428727875
 30
0.0
 10
9.1440584083
 20
7.8331301207
 30
0.0
 10
9.1447851878
 20
7.8135880032
 30
0.0
 10
9.1480301129
 20
7.7843683756
 30
0.0
 10
9.1534142283
 20
7.755320327
 30
0.0
 10
9.1609077916
 20
7.7266054209
 30
0.0
 10
9.1704693012
 20
7.6983808015
 30
0.0
 10
9.182046063
 20
7.6708015295
 30
0.0
 10
9.1955743128
 20
7.6440189191
 30
0.0
 10
9.2109796171
 20
7.6181799371
 30
0.0
 10
9.2281772921
 20
7.5934263551
 30
0.0
 10
9.2470728628
 20
7.5698939986
 30
0.0
 10
9.2675625777
 20
7.5477120067
 30
0.0
 10
9.2895339722
 20
7.5270021361
 30
0.0
 10
9.3128664564
 20
7.5078780723
 30
0.0
 10
9.3374319941
 20
7.4904448316
 30
0.0
 10
9.3630957986
 20
7.4747981942
 30
0.0
 10
9.3897170606
 20
7.4610241812
 30
0.0
 10
9.4171497116
 20
7.4491985898
 30
0.0
 10
9.4452432052
 20
7.4393865611
 30
0.0
 10
9.4738433331
 20
7.4316422083
 30
0.0
 10
9.5027930701
 20
7.4260083446
 30
0.0
 10
9.5319334199
 20
7.4225162369
 30
0.0
 10
9.561104275
 20
7.4211854246
 30
0.0
 10
9.5901452842
 20
7.422023603
 30
0.0
 10
9.6188967276
 20
7.4250265267
 30
0.0
 10
9.6472003934
 20
7.4301780411
 30
0.0
 10
9.6749004486
 20
7.4374501613
 30
0.0
 10
9.7018442859
 20
7.4468031876
 30
0.0
 10
9.7278834241
 20
7.458185958
 30
0.0
 10
9.7528741516
 20
7.4715359062
 30
0.0
 10
9.7766790755
 20
7.4867800855
 30
0.0
 10
9.7991651996
 20
7.5038329648
 30
0.0
 10
9.8132001
 20
7.5163504836
 30
0.0
 10
9.8199521084
 20
7.5228723955
 30
0.0
  0
SPLINE
  5
3E9
100
AcDbEntity
  8
0
100
AcDbSpline
 62
7
  6
CONTINUOUS
 70
0
 71
3
 72
39
 73
35
 74
0
 42
0.0000001
 43
0.0000001
 44
0.0000000001
 40
0.0
 40
0.0
 40
0.0
 40
0.0
 40
0.0310367843
 40
0.0622264293
 40
0.0935647663
 40
0.1250437296
 40
0.1566528844
 40
0.1883791092
 40
0.2202070345
 40
0.252119327
 40
0.284097043
 40
0.3161199988
 40
0.3481671574
 40
0.3802170266
 40
0.4122480631
 40
0.4442390773
 40
0.4761696338
 40
0.5080204426
 40
0.5397737333
 40
0.5714136089
 40
0.6029263721
 40
0.6343008179
 40
0.6655284877
 40
0.6966038766
 40
0.7275245886
 40
0.7582914308
 40
0.7889084448
 40
0.8193828686
 40
0.8497250259
 40
0.8799481426
 40
0.9100680897
 40
0.9401030567
 40
0.9700731604
 40
1.0
 40
1.0
 40
1.0
 40
1.0
 10
9.1797271287
 20
7.8773261278
 30
0.0
 10
9.1797271287
 20
7.8678494501
 30
0.0
 10
9.1804146882
 20
7.8488425141
 30
0.0
 10
9.1834853202
 20
7.8204162392
 30
0.0
 10
9.1885813847
 20
7.7921440068
 30
0.0
 10
9.1956762497
 20
7.7641746316
 30
0.0
 10
9.2047327236
 20
7.7366529706
 30
0.0
 10
9.2157035709
 20
7.7097221116
 30
0.0
 10
9.2285316084
 20
7.6835218925
 30
0.0
 10
9.2431500551
 20
7.6581883869
 30
0.0
 10
9.2594828513
 20
7.6338531402
 30
0.0
 10
9.2774450748
 20
7.6106425199
 30
0.0
 10
9.2969433745
 20
7.5886770612
 30
0.0
 10
9.3178764523
 20
7.5680708501
 30
0.0
 10
9.340135583
 20
7.5489309366
 30
0.0
 10
9.3636051749
 20
7.5313567863
 30
0.0
 10
9.3881633545
 20
7.5154397575
 30
0.0
 10
9.413682596
 20
7.5012626279
 30
0.0
 10
9.4400303825
 20
7.4888991787
 30
0.0
 10
9.4670698838
 20
7.4784138105
 30
0.0
 10
9.4946606573
 20
7.4698612092
 30
0.0
 10
9.5226593663
 20
7.463286059
 30
0.0
 10
9.5509205146
 20
7.4587228089
 30
0.0
 10
9.5792971899
 20
7.4561954664
 30
0.0
 10
9.6076418227
 20
7.4557174755
 30
0.0
 10
9.6358069462
 20
7.4572916415
 30
0.0
 10
9.6636459556
 20
7.4609100991
 30
0.0
 10
9.6910138709
 20
7.4665543405
 30
0.0
 10
9.7177680789
 20
7.4741952821
 30
0.0
 10
9.7437691317
 20
7.4837934406
 30
0.0
 10
9.7688813009
 20
7.495298941
 30
0.0
 10
9.7929740039
 20
7.5086523879
 30
0.0
 10
9.8159198642
 20
7.5237829143
 30
0.0
 10
9.8303835716
 20
7.5350108706
 30
0.0
 10
9.8373797606
 20
7.5408889816
 30
0.0
  0
SPLINE
  5
3EA
100
AcDbEntity
  8
0
100
AcDbSpline
 62
7
  6
CONTINUOUS
 70
0
 71
3
 72
39
 73
35
 74
0
 42
0.0000001
 43
0.0000001
 44
0.0000000001
 40
0.0
 40
0.0
 40
0.0
 40
0.0
 40
0.0310753465
 40
0.0623079051
 40
0.0936931343
 40
0.1252222873
 40
0.1568840442
 40
0.1886642041
 40
0.2205461646
 40
0.2525112494
 40
0.2845391086
 40
0.3166081364
 40
0.3486959073
 40
0.3807796231
 40
0.4128365661
 40
0.4448445503
 40
0.4767823667
 40
0.5086302139
 40
0.540370108
 40
0.5719862655
 40
0.6034654513
 40
0.6347972861
 40
0.6659745048
 40
0.6969931564
 40
0.7278527389
 40
0.7585562636
 40
0.7891102411
 40
0.8195245859
 40
0.8498124376
 40
0.8799898959
 40
0.9100756748
 40
0.9400906811
 40
0.9700575287
 40
1.0
 40
1.0
 40
1.0
 40
1.0
 10
9.2287169173
 20
7.8846466326
 30
0.0
 10
9.2287169173
 20
7.8758614773
 30
0.0
 10
9.2293722682
 20
7.8582399617
 30
0.0
 10
9.2322982815
 20
7.8318920413
 30
0.0
 10
9.2371532465
 20
7.8056988367
 30
0.0
 10
9.2439103466
 20
7.7798060351
 30
0.0
 10
9.2525321512
 20
7.7543553353
 30
0.0
 10
9.2629711413
 20
7.7294865543
 30
0.0
 10
9.2751698264
 20
7.7053361379
 30
0.0
 10
9.2890610982
 20
7.6820366147
 30
0.0
 10
9.3045685902
 20
7.6597158213
 30
0.0
 10
9.3216071088
 20
7.6384962324
 30
0.0
 10
9.3400830938
 20
7.6184942907
 30
0.0
 10
9.3598951275
 20
7.5998197779
 30
0.0
 10
9.3809344858
 20
7.5825752196
 30
0.0
 10
9.403085723
 20
7.5668553233
 30
0.0
 10
9.4262272925
 20
7.5527464494
 30
0.0
 10
9.4502322193
 20
7.5403261588
 30
0.0
 10
9.4749687855
 20
7.5296627865
 30
0.0
 10
9.5003012425
 20
7.5208150688
 30
0.0
 10
9.5260905444
 20
7.5138318187
 30
0.0
 10
9.5521950998
 20
7.508751657
 30
0.0
 10
9.5784715345
 20
7.50560277
 30
0.0
 10
9.6047754748
 20
7.5044027637
 30
0.0
 10
9.6309623304
 20
7.5051585593
 30
0.0
 10
9.6568880812
 20
7.5078663396
 30
0.0
 10
9.682410063
 20
7.5125115509
 30
0.0
 10
9.7073877534
 20
7.5190689709
 30
0.0
 10
9.7316835414
 20
7.5275027982
 30
0.0
 10
9.7551635456
 20
7.5377668777
 30
0.0
 10
9.7776981849
 20
7.5498047847
 30
0.0
 10
9.7991635673
 20
7.5635507521
 30
0.0
 10
9.8194397508
 20
7.5789276741
 30
0.0
 10
9.8320953178
 20
7.5902149519
 30
0.0
 10
9.8381837231
 20
7.5960959054
 30
0.0
  0
SPLINE
  5
3EB
100
AcDbEntity
  8
0
100
AcDbSpline
 62
7
  6
CONTINUOUS
 70
0
 71
3
 72
39
 73
35
 74
0
 42
0.0000001
 43
0.0000001
 44
0.0000000001
 40
0.0
 40
0.0
 40
0.0
 40
0.0
 40
0.0306986927
 40
0.0615147631
 40
0.0924447744
 40
0.1234861556
 40
0.1546337127
 40
0.185881534
 40
0.2172223778
 40
0.2486479794
 40
0.2801491001
 40
0.3117156492
 40
0.3433368034
 40
0.3750011301
 40
0.4066967172
 40
0.4384113062
 40
0.4701324281
 40
0.501847541
 40
0.5335441699
 40
0.5652100448
 40
0.5968332365
 40
0.6284022899
 40
0.6599063533
 40
0.6913353033
 40
0.7226798641
 40
0.7539317205
 40
0.7850836212
 40
0.8161294719
 40
0.8470644175
 40
0.8778849116
 40
0.9085887733
 40
0.9391752284
 40
0.9696449366
 40
1.0
 40
1.0
 40
1.0
 40
1.0
 10
9.505653067
 20
8.1521464277
 30
0.0
 10
9.505653067
 20
8.1456025368
 30
0.0
 10
9.5060163586
 20
8.1324869156
 30
0.0
 10
9.5076420305
 20
8.1128387302
 30
0.0
 10
9.5103446237
 20
8.093235261
 30
0.0
 10
9.5141156194
 20
8.0737373013
 30
0.0
 10
9.5189435813
 20
8.0544040428
 30
0.0
 10
9.5248136385
 20
8.0352946075
 30
0.0
 10
9.5317078548
 20
8.016467291
 30
0.0
 10
9.5396051339
 20
7.9979795639
 30
0.0
 10
9.548481329
 20
7.9798878431
 30
0.0
 10
9.5583093071
 20
7.9622473349
 30
0.0
 10
9.5690590413
 20
7.9451118675
 30
0.0
 10
9.5806976999
 20
7.9285337277
 30
0.0
 10
9.5931897467
 20
7.9125635042
 30
0.0
 10
9.6064970476
 20
7.8972499335
 30
0.0
 10
9.6205789881
 20
7.8826397544
 30
0.0
 10
9.6353925887
 20
7.8687775589
 30
0.0
 10
9.6508926363
 20
7.8557056548
 30
0.0
 10
9.6670318293
 20
7.8434639454
 30
0.0
 10
9.6837609194
 20
7.8320898069
 30
0.0
 10
9.7010288605
 20
7.821617976
 30
0.0
 10
9.7187829626
 20
7.8120804439
 30
0.0
 10
9.7369690519
 20
7.8035063606
 30
0.0
 10
9.7555316319
 20
7.7959219416
 30
0.0
 10
9.7744140496
 20
7.7893503779
 30
0.0
 10
9.7935586735
 20
7.783811779
 30
0.0
 10
9.8129070679
 20
7.7793231095
 30
0.0
 10
9.8324001628
 20
7.7758981366
 30
0.0
 10
9.8519784579
 20
7.7735473906
 30
0.0
 10
9.8715821072
 20
7.772278118
 30
0.0
 10
9.8911514528
 20
7.7720943082
 30
0.0
 10
9.9106258976
 20
7.7729964786
 30
0.0
 10
9.9235317584
 20
7.7743228556
 30
0.0
 10
9.9299471869
 20
7.7751663447
 30
0.0
  0
SPLINE
  5
3EC
100
AcDbEntity
  8
0
100
AcDbSpline
 62
7
  6
CONTINUOUS
 70
0
 71
3
 72
37
 73
33
 74
0
 42
0.0000001
 43
0.0000001
 44
0.0000000001
 40
0.0
 40
0.0
 40
0.0
 40
0.0
 40
0.0306934267
 40
0.061503641
 40
0.0924269019
 40
0.1234609328
 40
0.1546005536
 40
0.1858399823
 40
0.2171721143
 40
0.2485888316
 40
0.2800810646
 40
0.3116389001
 40
0.3432517007
 40
0.3749082224
 40
0.4065967407
 40
0.4383051803
 40
0.5017117568
 40
0.565050191
 40
0.5966742315
 40
0.6282458831
 40
0.6597543542
 40
0.6911895527
 40
0.7225422028
 40
0.7538039537
 40
0.7849674807
 40
0.8160265784
 40
0.8469762451
 40
0.8778127534
 40
0.9085337061
 40
0.9391380788
 40
0.9696262476
 40
1.0
 40
1.0
 40
1.0
 40
1.0
 10
9.5353539485
 20
8.1583352779
 30
0.0
 10
9.5353539485
 20
8.152232954
 30
0.0
 10
9.5356905013
 20
8.1400024929
 30
0.0
 10
9.5371965456
 20
8.1216798185
 30
0.0
 10
9.5397003707
 20
8.1033978232
 30
0.0
 10
9.5431941417
 20
8.0852124977
 30
0.0
 10
9.5476674325
 20
8.0671782974
 30
0.0
 10
9.553106637
 20
8.0493496642
 30
0.0
 10
9.559495362
 20
8.0317802768
 30
0.0
 10
9.5668143011
 20
8.0145230628
 30
0.0
 10
9.5750413642
 20
7.997629992
 30
0.0
 10
9.5841517266
 20
7.9811519477
 30
0.0
 10
9.5941179504
 20
7.9651385261
 30
0.0
 10
9.604909884
 20
7.9496380641
 30
0.0
 10
9.6164954426
 20
7.9346968427
 30
0.0
 10
9.6329505422
 20
7.9155849854
 30
0.0
 10
9.6553185391
 20
7.8933180963
 30
0.0
 10
9.6798354707
 20
7.8734680998
 30
0.0
 10
9.7005576764
 20
7.8591876855
 30
0.0
 10
9.7165993103
 20
7.849312803
 30
0.0
 10
9.7330974617
 20
7.8403000355
 30
0.0
 10
9.7500028895
 20
7.8321761783
 30
0.0
 10
9.7672645599
 20
7.8249658397
 30
0.0
 10
9.784830516
 20
7.8186907581
 30
0.0
 10
9.8026478396
 20
7.8133699002
 30
0.0
 10
9.8206628608
 20
7.8090193562
 30
0.0
 10
9.8388212949
 20
7.8056522806
 30
0.0
 10
9.85706844
 20
7.8032788773
 30
0.0
 10
9.8753492505
 20
7.8019063542
 30
0.0
 10
9.8936088245
 20
7.8015389461
 30
0.0
 10
9.9117913651
 20
7.8021777319
 30
0.0
 10
9.9238492407
 20
7.8032754392
 30
0.0
 10
9.9298453949
 20
7.8039915754
 30
0.0
  0
SPLINE
  5
3ED
100
AcDbEntity
  8
0
100
AcDbSpline
 62
7
  6
CONTINUOUS
 70
0
 71
3
 72
23
 73
19
 74
0
 42
0.0000001
 43
0.0000001
 44
0.0000000001
 40
0.0
 40
0.0
 40
0.0
 40
0.0
 40
0.0615588417
 40
0.1234645896
 40
0.1856884017
 40
0.2481925051
 40
0.3109310285
 40
0.3738513825
 40
0.4368958282
 40
0.5000031402
 40
0.5631103326
 40
0.6261544212
 40
0.6890741879
 40
0.7518119152
 40
0.8143150378
 40
0.876537695
 40
0.9384421508
 40
1.0
 40
1.0
 40
1.0
 40
1.0
 10
9.6178113935
 20
8.1945760444
 30
0.0
 10
9.6187466652
 20
8.1850499347
 30
0.0
 10
9.6214563667
 20
8.1660158056
 30
0.0
 10
9.6279695504
 20
8.137852738
 30
0.0
 10
9.6368933253
 20
8.1102019921
 30
0.0
 10
9.6481578694
 20
8.0832801228
 30
0.0
 10
9.6616758834
 20
8.0572943509
 30
0.0
 10
9.6773425554
 20
8.0324455726
 30
0.0
 10
9.6950365956
 20
8.0089256108
 30
0.0
 10
9.7146212369
 20
7.9869161927
 30
0.0
 10
9.7359450759
 20
7.9665873179
 30
0.0
 10
9.7588433679
 20
7.9480960714
 30
0.0
 10
9.783139296
 20
7.9315855127
 30
0.0
 10
9.808645246
 20
7.9171833619
 30
0.0
 10
9.8351640309
 20
7.9050012198
 30
0.0
 10
9.8624916136
 20
7.8951335985
 30
0.0
 10
9.8904139682
 20
7.8876575623
 30
0.0
 10
9.9093435191
 20
7.8842961441
 30
0.0
 10
9.9188317624
 20
7.8830344849
 30
0.0
  0
SPLINE
  5
3EE
100
AcDbEntity
  8
0
100
AcDbSpline
 62
7
  6
CONTINUOUS
 70
0
 71
3
 72
39
 73
35
 74
0
 42
0.0000001
 43
0.0000001
 44
0.0000000001
 40
0.0
 40
0.0
 40
0.0
 40
0.0
 40
0.0306969779
 40
0.0615112908
 40
0.0924392194
 40
0.1234784032
 40
0.1546236037
 40
0.1858689524
 40
0.2172072432
 40
0.2486302463
 40
0.2801287673
 40
0.3116927612
 40
0.3433114529
 40
0.3749734583
 40
0.4066669129
 40
0.4383796038
 40
0.4700991067
 40
0.5018129237
 40
0.53350862
 40
0.5651739602
 40
0.5967970429
 40
0.6283664333
 40
0.6598712935
 40
0.6913015085
 40
0.7226478037
 40
0.7539018555
 40
0.7850563933
 40
0.8161052926
 40
0.8470436587
 40
0.8778678983
 40
0.908575776
 40
0.939166455
 40
0.9696405228
 40
1.0
 40
1.0
 40
1.0
 40
1.0
 10
9.5260354347
 20
8.1551921486
 30
0.0
 10
9.5260354347
 20
8.1489554527
 30
0.0
 10
9.5263810981
 20
8.1364555451
 30
0.0
 10
9.5279278688
 20
8.1177296154
 30
0.0
 10
9.5304993389
 20
8.0990460279
 30
0.0
 10
9.534087391
 20
8.0804625602
 30
0.0
 10
9.5386812062
 20
8.0620354147
 30
0.0
 10
9.5442666744
 20
8.0438207651
 30
0.0
 10
9.5508267947
 20
8.025873993
 30
0.0
 10
9.5583415509
 20
8.0082496964
 30
0.0
 10
9.5667880361
 20
7.9910014757
 30
0.0
 10
9.5761405198
 20
7.9741817881
 30
0.0
 10
9.586370525
 20
7.9578417865
 30
0.0
 10
9.597446915
 20
7.9420311666
 30
0.0
 10
9.6093359879
 20
7.926798019
 30
0.0
 10
9.6220015723
 20
7.9121886792
 30
0.0
 10
9.6354051272
 20
7.898247577
 30
0.0
 10
9.6495058772
 20
7.8850171158
 30
0.0
 10
9.6642609325
 20
7.8725375433
 30
0.0
 10
9.679625419
 20
7.860846831
 30
0.0
 10
9.6955526119
 20
7.8499805593
 30
0.0
 10
9.7119940776
 20
7.8399718127
 30
0.0
 10
9.7288998083
 20
7.8308510575
 30
0.0
 10
9.7462183848
 20
7.822646065
 30
0.0
 10
9.7638971334
 20
7.8153818308
 30
0.0
 10
9.7818822829
 20
7.8090804992
 30
0.0
 10
9.8001191258
 20
7.8037612943
 30
0.0
 10
9.8185521848
 20
7.7994404662
 30
0.0
 10
9.83712537
 20
7.7961312228
 30
0.0
 10
9.8557821749
 20
7.7938436905
 30
0.0
 10
9.8744657611
 20
7.7925848881
 30
0.0
 10
9.8931194626
 20
7.7923587446
 30
0.0
 10
9.9116857122
 20
7.7931659217
 30
0.0
 10
9.9239918422
 20
7.7943938557
 30
0.0
 10
9.930109735
 20
7.7951794545
 30
0.0
  0
SPLINE
  5
3EF
100
AcDbEntity
  8
0
100
AcDbSpline
 62
7
  6
CONTINUOUS
 70
0
 71
3
 72
25
 73
21
 74
0
 42
0.0000001
 43
0.0000001
 44
0.0000000001
 40
0.0
 40
0.0
 40
0.0
 40
0.0
 40
0.0307187314
 40
0.0615301394
 40
0.0924318539
 40
0.1234203452
 40
0.1856273123
 40
0.2481275861
 40
0.3108738051
 40
0.3738111951
 40
0.4368792754
 40
0.5000137002
 40
0.5631481694
 40
0.6262163782
 40
0.6891539757
 40
0.7519004815
 40
0.8144011077
 40
0.8766084786
 40
0.9384841663
 40
1.0
 40
1.0
 40
1.0
 40
1.0
 10
9.6050621633
 20
8.1979587103
 30
0.0
 10
9.6054632974
 20
8.1929301055
 30
0.0
 10
9.6064922337
 20
8.1828742649
 30
0.0
 10
9.6087067159
 20
8.1678529662
 30
0.0
 10
9.6115902087
 20
8.1528999401
 30
0.0
 10
9.616324127
 20
8.1330728678
 30
0.0
 10
9.6238881627
 20
8.1086124536
 30
0.0
 10
9.6355002765
 20
8.0800633916
 30
0.0
 10
9.649566268
 20
8.0525044693
 30
0.0
 10
9.6659710985
 20
8.0261612504
 30
0.0
 10
9.6845811266
 20
8.0012473553
 30
0.0
 10
9.7052449525
 20
7.977965453
 30
0.0
 10
9.7277944721
 20
7.9565047614
 30
0.0
 10
9.7520463519
 20
7.9370398021
 30
0.0
 10
9.7778035276
 20
7.9197290679
 30
0.0
 10
9.8048566754
 20
7.9047134654
 30
0.0
 10
9.8329857373
 20
7.8921155375
 30
0.0
 10
9.8619629214
 20
7.8820381364
 30
0.0
 10
9.8915493895
 20
7.8745641071
 30
0.0
 10
9.9115875654
 20
7.8713474768
 30
0.0
 10
9.9216235883
 20
7.8701945646
 30
0.0
  0
SPLINE
  5
3F0
100
AcDbEntity
  8
0
100
AcDbSpline
 62
7
  6
CONTINUOUS
 70
0
 71
3
 72
39
 73
35
 74
0
 42
0.0000001
 43
0.0000001
 44
0.0000000001
 40
0.0
 40
0.0
 40
0.0
 40
0.0
 40
0.0310589964
 40
0.0622733271
 40
0.0936386203
 40
0.1251464394
 40
0.1567858343
 40
0.1885430821
 40
0.2204021131
 40
0.252344835
 40
0.2843515082
 40
0.3164011426
 40
0.3484719117
 40
0.3805415785
 40
0.4125879274
 40
0.4445891959
 40
0.4765244994
 40
0.5083742433
 40
0.5401205188
 40
0.5717474743
 40
0.603241654
 40
0.6345922989
 40
0.6657916025
 40
0.6968349155
 40
0.7277208919
 40
0.758451567
 40
0.7890323639
 40
0.8194720236
 40
0.8497824576
 40
0.8799785203
 40
0.9100777024
 40
0.9400997508
 40
0.9700662253
 40
1.0
 40
1.0
 40
1.0
 40
1.0
 10
11.0485038998
 20
7.7059259815
 30
0.0
 10
11.0485038998
 20
7.6957416098
 30
0.0
 10
11.0492546854
 20
7.675314274
 30
0.0
 10
11.0526071738
 20
7.6447678604
 30
0.0
 10
11.0581703019
 20
7.6143948123
 30
0.0
 10
11.0659140531
 20
7.5843601393
 30
0.0
 10
11.0757965422
 20
7.5548243943
 30
0.0
 10
11.0877645727
 20
7.5259460787
 30
0.0
 10
11.1017537465
 20
7.4978799538
 30
0.0
 10
11.1176888817
 20
7.4707764572
 30
0.0
 10
11.1354844148
 20
7.444780849
 30
0.0
 10
11.1550448551
 20
7.4200324601
 30
0.0
 10
11.1762652961
 20
7.3966639557
 30
0.0
 10
11.1990319514
 20
7.3748006154
 30
0.0
 10
11.2232227616
 20
7.3545596626
 30
0.0
 10
11.2487080629
 20
7.3360496632
 30
0.0
 10
11.2753512678
 20
7.3193699455
 30
0.0
 10
11.3030095898
 20
7.3046100759
 30
0.0
 10
11.3315347913
 20
7.2918493721
 30
0.0
 10
11.3607739599
 20
7.2811564519
 30
0.0
 10
11.3905703361
 20
7.2725889001
 30
0.0
 10
11.4207641364
 20
7.266192953
 30
0.0
 10
11.4511933973
 20
7.2620032453
 30
0.0
 10
11.4816948299
 20
7.2600426176
 30
0.0
 10
11.5121046837
 20
7.260321939
 30
0.0
 10
11.5422596256
 20
7.2628400712
 30
0.0
 10
11.571997606
 20
7.2675838597
 30
0.0
 10
11.6011587308
 20
7.2745281845
 30
0.0
 10
11.6295861045
 20
7.2836360674
 30
0.0
 10
11.65712675
 20
7.2948588611
 30
0.0
 10
11.6836322396
 20
7.3081363266
 30
0.0
 10
11.7089602713
 20
7.3233976522
 30
0.0
 10
11.7329726033
 20
7.3405592436
 30
0.0
 10
11.7480260852
 20
7.353213167
 30
0.0
 10
11.7552856729
 20
7.3598192701
 30
0.0
  0
SPLINE
  5
3F1
100
AcDbEntity
  8
0
100
AcDbSpline
 62
7
  6
CONTINUOUS
 70
0
 71
3
 72
39
 73
35
 74
0
 42
0.0000001
 43
0.0000001
 44
0.0000000001
 40
0.0
 40
0.0
 40
0.0
 40
0.0
 40
0.0299424698
 40
0.0599093171
 40
0.0899243244
 40
0.1200101049
 40
0.1501875654
 40
0.1804754197
 40
0.2108897678
 40
0.2414437479
 40
0.2721472748
 40
0.3030068601
 40
0.3340255156
 40
0.3652027379
 40
0.3965345747
 40
0.4280137612
 40
0.4596299196
 40
0.491369815
 40
0.5232176628
 40
0.555155479
 40
0.5871634623
 40
0.619220404
 40
0.6513041182
 40
0.6833918873
 40
0.7154609133
 40
0.74748877
 40
0.7794538516
 40
0.811335809
 40
0.8431159677
 40
0.8747777197
 40
0.9063068786
 40
0.9376920899
 40
0.9689246486
 40
1.0
 40
1.0
 40
1.0
 40
1.0
 10
9.8235473252
 20
7.493672396
 30
0.0
 10
9.8164054712
 20
7.486773918
 30
0.0
 10
9.8015601544
 20
7.4735337324
 30
0.0
 10
9.7777756717
 20
7.4554963196
 30
0.0
 10
9.7525962285
 20
7.4393720686
 30
0.0
 10
9.7261625341
 20
7.4252514067
 30
0.0
 10
9.6986199137
 20
7.4132114802
 30
0.0
 10
9.670120363
 20
7.4033184908
 30
0.0
 10
9.6408209309
 20
7.3956265769
 30
0.0
 10
9.6108830442
 20
7.3901777067
 30
0.0
 10
9.5804715337
 20
7.3870014747
 30
0.0
 10
9.5497537444
 20
7.3861149654
 30
0.0
 10
9.5188986172
 20
7.3875226835
 30
0.0
 10
9.4880757616
 20
7.3912164821
 30
0.0
 10
9.4574545277
 20
7.3971756896
 30
0.0
 10
9.4272030913
 20
7.4053672365
 30
0.0
 10
9.3974875501
 20
7.4157458566
 30
0.0
 10
9.3684710109
 20
7.4282542916
 30
0.0
 10
9.3403127027
 20
7.4428236242
 30
0.0
 10
9.3131671311
 20
7.4593736933
 30
0.0
 10
9.2871832444
 20
7.4778135268
 30
0.0
 10
9.2625036235
 20
7.4980418254
 30
0.0
 10
9.2392636747
 20
7.5199474798
 30
0.0
 10
9.2175909345
 20
7.5434102292
 30
0.0
 10
9.1976043736
 20
7.568301304
 30
0.0
 10
9.1794137621
 20
7.594484129
 30
0.0
 10
9.1631190193
 20
7.6218150253
 30
0.0
 10
9.1488097004
 20
7.6501440258
 30
0.0
 10
9.1365645225
 20
7.6793156735
 30
0.0
 10
9.1264509465
 20
7.7091699303
 30
0.0
 10
9.1185247403
 20
7.7395427841
 30
0.0
 10
9.1128297655
 20
7.7702680135
 30
0.0
 10
9.1093974928
 20
7.8011747268
 30
0.0
 10
9.1086287491
 20
7.8218451717
 30
0.0
 10
9.1086287491
 20
7.8321503626
 30
0.0
  0
SPLINE
  5
3F2
100
AcDbEntity
  8
0
100
AcDbSpline
 62
7
  6
CONTINUOUS
 70
0
 71
3
 72
23
 73
19
 74
0
 42
0.0000001
 43
0.0000001
 44
0.0000000001
 40
0.0
 40
0.0
 40
0.0
 40
0.0
 40
0.0637492644
 40
0.1272977347
 40
0.1906427853
 40
0.2537920744
 40
0.3167507142
 40
0.3795265697
 40
0.4421291709
 40
0.5045694472
 40
0.5668598756
 40
0.6290142932
 40
0.6910477961
 40
0.7529766026
 40
0.8148179011
 40
0.8765897052
 40
0.9383106877
 40
1.0
 40
1.0
 40
1.0
 40
1.0
 10
11.0485038998
 20
7.7059259815
 30
0.0
 10
11.0485038998
 20
7.7123188274
 30
0.0
 10
11.0487984297
 20
7.7250863881
 30
0.0
 10
11.0501275974
 20
7.744164612
 30
0.0
 10
11.0523409077
 20
7.7631004898
 30
0.0
 10
11.0554334213
 20
7.7818527955
 30
0.0
 10
11.0593987579
 20
7.8003818523
 30
0.0
 10
11.0642284116
 20
7.8186479873
 30
0.0
 10
11.0699120901
 20
7.8366122244
 30
0.0
 10
11.0764377158
 20
7.8542361945
 30
0.0
 10
11.0837914112
 20
7.871482237
 30
0.0
 10
11.0919574698
 20
7.8883135242
 30
0.0
 10
11.1009184647
 20
7.9046941025
 30
0.0
 10
11.1106552978
 20
7.9205889775
 30
0.0
 10
11.1211471896
 20
7.9359641345
 30
0.0
 10
11.1323718236
 20
7.9507868537
 30
0.0
 10
11.1443048071
 20
7.9650250427
 30
0.0
 10
11.152717691
 20
7.9741096374
 30
0.0
 10
11.1570321069
 20
7.9785431205
 30
0.0
  0
LINE
  5
3F3
100
AcDbEntity
  8
0
100
AcDbLine
 62
7
  6
CONTINUOUS
 10
11.1570321069
 20
7.9785431205
 11
11.1573412022
 21
7.9788603706
  0
SPLINE
  5
3F4
100
AcDbEntity
  8
0
100
AcDbSpline
 62
7
  6
CONTINUOUS
 70
0
 71
3
 72
71
 73
67
 74
0
 42
0.0000001
 43
0.0000001
 44
0.0000000001
 40
0.0
 40
0.0
 40
0.0
 40
0.0
 40
0.0155841267
 40
0.0311159948
 40
0.046595237
 40
0.0620238811
 40
0.0774034528
 40
0.0927362808
 40
0.108025123
 40
0.1232731726
 40
0.1384840554
 40
0.1536617766
 40
0.1688106897
 40
0.1839354524
 40
0.1990409778
 40
0.2141323823
 40
0.2292149324
 40
0.2442939895
 40
0.2593749535
 40
0.2744632036
 40
0.2895640407
 40
0.3046826304
 40
0.3198239505
 40
0.3349927386
 40
0.3501934431
 40
0.3654301773
 40
0.3807066784
 40
0.3960262749
 40
0.4113918546
 40
0.4268058385
 40
0.4422701591
 40
0.4577862482
 40
0.4733550284
 40
0.4889769089
 40
0.5046517849
 40
0.520379043
 40
0.5361575757
 40
0.5519857956
 40
0.567861654
 40
0.5837826618
 40
0.599745918
 40
0.6157481409
 40
0.631785699
 40
0.6478546447
 40
0.6639507505
 40
0.6800695507
 40
0.6962063813
 40
0.7123564198
 40
0.7285147273
 40
0.7446762932
 40
0.7608360797
 40
0.7769890647
 40
0.7931302839
 40
0.8092548751
 40
0.8253581231
 40
0.8414355003
 40
0.8574827061
 40
0.8734957059
 40
0.8894707697
 40
0.9054045141
 40
0.921293915
 40
0.9371363644
 40
0.9529297309
 40
0.9686720281
 40
0.9843627508
 40
1.0
 40
1.0
 40
1.0
 40
1.0
 10
11.0610609363
 20
7.705055148
 30
0.0
 10
11.0610609363
 20
7.7116417144
 30
0.0
 10
11.0613832959
 20
7.7247950948
 30
0.0
 10
11.0628383094
 20
7.7444422621
 30
0.0
 10
11.065260794
 20
7.7639280847
 30
0.0
 10
11.0686446878
 20
7.7832047379
 30
0.0
 10
11.0729820808
 20
7.8022261273
 30
0.0
 10
11.0782625032
 20
7.8209462746
 30
0.0
 10
11.0844732592
 20
7.8393200845
 30
0.0
 10
11.0915994224
 20
7.8573032495
 30
0.0
 10
11.0996238545
 20
7.8748523985
 30
0.0
 10
11.1085272717
 20
7.8919251897
 30
0.0
 10
11.1182882154
 20
7.9084804468
 30
0.0
 10
11.1288831604
 20
7.9244782403
 30
0.0
 10
11.1402865771
 20
7.9398799762
 30
0.0
 10
11.1524709942
 20
7.9546484847
 30
0.0
 10
11.1654070428
 20
7.9687481252
 30
0.0
 10
11.1790635035
 20
7.9821449034
 30
0.0
 10
11.1934074346
 20
7.9948065099
 30
0.0
 10
11.2084042393
 20
8.0067024058
 30
0.0
 10
11.2240177557
 20
8.0178038837
 30
0.0
 10
11.2402103056
 20
8.0280841923
 30
0.0
 10
11.2569428136
 20
8.0375185749
 30
0.0
 10
11.2741749157
 20
8.0460843063
 30
0.0
 10
11.291865052
 20
8.0537607478
 30
0.0
 10
11.3099705605
 20
8.060529405
 30
0.0
 10
11.3284477643
 20
8.0663740245
 30
0.0
 10
11.3472521075
 20
8.071280567
 30
0.0
 10
11.3663382561
 20
8.0752372485
 30
0.0
 10
11.3856602065
 20
8.0782345536
 30
0.0
 10
11.4051713856
 20
8.080265312
 30
0.0
 10
11.4248247726
 20
8.0813247033
 30
0.0
 10
11.4445730161
 20
8.0814102258
 30
0.0
 10
11.4643685438
 20
8.080521711
 30
0.0
 10
11.4841636717
 20
8.0786613207
 30
0.0
 10
11.5039107265
 20
8.0758336075
 30
0.0
 10
11.5235621586
 20
8.0720454354
 30
0.0
 10
11.5430706534
 20
8.0673059659
 30
0.0
 10
11.5623892386
 20
8.0616266271
 30
0.0
 10
11.5814714045
 20
8.0550211254
 30
0.0
 10
11.6002712254
 20
8.0475054217
 30
0.0
 10
11.6187434525
 20
8.039097641
 30
0.0
 10
11.6368436239
 20
8.0298180424
 30
0.0
 10
11.6545281626
 20
8.019688963
 30
0.0
 10
11.6717545143
 20
8.0087348235
 30
0.0
 10
11.6884812283
 20
7.99698202
 30
0.0
 10
11.7046680492
 20
7.9844588542
 30
0.0
 10
11.720276008
 20
7.9711954646
 30
0.0
 10
11.7352675287
 20
7.9572237758
 30
0.0
 10
11.7496065455
 20
7.942577443
 30
0.0
 10
11.7632585474
 20
7.9272917243
 30
0.0
 10
11.7761906678
 20
7.9114034082
 30
0.0
 10
11.7883717501
 20
7.8949507195
 30
0.0
 10
11.7997724736
 20
7.8779732662
 30
0.0
 10
11.8103653994
 20
7.8605119191
 30
0.0
 10
11.8201250151
 20
7.8426087022
 30
0.0
 10
11.8290277965
 20
7.8243066971
 30
0.0
 10
11.8370522705
 20
7.8056499469
 30
0.0
 10
11.8441791218
 20
7.7866833685
 30
0.0
 10
11.8503911669
 20
7.7674526156
 30
0.0
 10
11.8556734202
 20
7.7480039827
 30
0.0
 10
11.8600131158
 20
7.7283842517
 30
0.0
 10
11.8633997031
 20
7.7086407853
 30
0.0
 10
11.8658251792
 20
7.6888207496
 30
0.0
 10
11.8672833906
 20
7.6689727515
 30
0.0
 10
11.867609049
 20
7.6557298648
 30
0.0
 10
11.867609049
 20
7.6491208464
 30
0.0
  0
SPLINE
  5
3F5
100
AcDbEntity
  8
0
100
AcDbSpline
 62
7
  6
CONTINUOUS
 70
0
 71
3
 72
23
 73
19
 74
0
 42
0.0000001
 43
0.0000001
 44
0.0000000001
 40
0.0
 40
0.0
 40
0.0
 40
0.0
 40
0.0637771735
 40
0.1273448473
 40
0.1907019822
 40
0.253856143
 40
0.3168131975
 40
0.3795820985
 40
0.4421733906
 40
0.5045993374
 40
0.5668738654
 40
0.62901238
 40
0.6910316489
 40
0.7529496402
 40
0.814785347
 40
0.8765585971
 40
0.938289852
 40
1.0
 40
1.0
 40
1.0
 40
1.0
 10
9.1086287491
 20
7.8321503626
 30
0.0
 10
9.1086287491
 20
7.8387924767
 30
0.0
 10
9.108946668
 20
7.8520571372
 30
0.0
 10
9.1103815986
 20
7.8718734418
 30
0.0
 10
9.1127707621
 20
7.8915326519
 30
0.0
 10
9.1161084604
 20
7.9109886462
 30
0.0
 10
9.1203872123
 20
7.9301969166
 30
0.0
 10
9.125597149
 20
7.9491130644
 30
0.0
 10
9.1317262992
 20
7.9676935098
 30
0.0
 10
9.1387605675
 20
7.9858954043
 30
0.0
 10
9.1466837708
 20
8.0036767705
 30
0.0
 10
9.1554776901
 20
8.0209965886
 30
0.0
 10
9.1651220815
 20
8.0378148956
 30
0.0
 10
9.1755947189
 20
8.0540929104
 30
0.0
 10
9.1868714302
 20
8.0697930487
 30
0.0
 10
9.198926356
 20
8.0848792097
 30
0.0
 10
9.211731224
 20
8.0993161197
 30
0.0
 10
9.2207498152
 20
8.1084873418
 30
0.0
 10
9.2253723586
 20
8.1129523608
 30
0.0
  0
SPLINE
  5
3F6
100
AcDbEntity
  8
0
100
AcDbSpline
 62
7
  6
CONTINUOUS
 70
0
 71
3
 72
23
 73
19
 74
0
 42
0.0000001
 43
0.0000001
 44
0.0000000001
 40
0.0
 40
0.0
 40
0.0
 40
0.0
 40
0.0637769127
 40
0.127344953
 40
0.1907019652
 40
0.2538561227
 40
0.3168132057
 40
0.3795820872
 40
0.4421733866
 40
0.5045993385
 40
0.5668738691
 40
0.6290123824
 40
0.6910316505
 40
0.7529496453
 40
0.8147853569
 40
0.8765586065
 40
0.9382898561
 40
1.0
 40
1.0
 40
1.0
 40
1.0
 10
11.0759101754
 20
7.7088984124
 30
0.0
 10
11.0759101754
 20
7.7151778973
 30
0.0
 10
11.0762107479
 20
7.7277184288
 30
0.0
 10
11.0775673217
 20
7.7464529298
 30
0.0
 10
11.0798260556
 20
7.7650389363
 30
0.0
 10
11.0829815213
 20
7.783432791
 30
0.0
 10
11.087026684
 20
7.8015924534
 30
0.0
 10
11.091952188
 20
7.8194759437
 30
0.0
 10
11.0977467031
 20
7.8370420636
 30
0.0
 10
11.1043969204
 20
7.8542503047
 30
0.0
 10
11.111887564
 20
7.8710609676
 30
0.0
 10
11.1202013944
 20
7.8874352765
 30
0.0
 10
11.1293192393
 20
7.9033354701
 30
0.0
 10
11.139220104
 20
7.9187248784
 30
0.0
 10
11.1498811608
 20
7.9335679519
 30
0.0
 10
11.1612779661
 20
7.9478305545
 30
0.0
 10
11.1733837704
 20
7.9614793493
 30
0.0
 10
11.1819099516
 20
7.9701499694
 30
0.0
 10
11.1862801445
 20
7.9743712338
 30
0.0
  0
SPLINE
  5
3F7
100
AcDbEntity
  8
0
100
AcDbSpline
 62
7
  6
CONTINUOUS
 70
0
 71
3
 72
21
 73
17
 74
0
 42
0.0000001
 43
0.0000001
 44
0.0000000001
 40
0.0
 40
0.0
 40
0.0
 40
0.0
 40
0.1272074726
 40
0.2536500371
 40
0.3166117841
 40
0.379397922
 40
0.4420167787
 40
0.5044777347
 40
0.5667915347
 40
0.6289701522
 40
0.6910266516
 40
0.7529751329
 40
0.8148306086
 40
0.8766088636
 40
0.9383263384
 40
1.0
 40
1.0
 40
1.0
 40
1.0
 10
11.1115788957
 20
7.7433517527
 30
0.0
 10
11.1115788957
 20
7.7548123788
 30
0.0
 10
11.1125792155
 20
7.7776769978
 30
0.0
 10
11.1163554421
 20
7.8059907908
 30
0.0
 10
11.1208725829
 20
7.8282648037
 30
0.0
 10
11.1249949274
 20
7.8447334363
 30
0.0
 10
11.1298482448
 20
7.8609543263
 30
0.0
 10
11.1354232798
 20
7.8768965877
 30
0.0
 10
11.1417092521
 20
7.8925294329
 30
0.0
 10
11.1486940961
 20
7.9078227703
 30
0.0
 10
11.156364427
 20
7.9227471019
 30
0.0
 10
11.1647054381
 20
7.9372737075
 30
0.0
 10
11.1737010498
 20
7.9513745777
 30
0.0
 10
11.1833340829
 20
7.9650226051
 30
0.0
 10
11.1935856472
 20
7.9781911375
 30
0.0
 10
11.2008218669
 20
7.9866367217
 30
0.0
 10
11.2045353056
 20
7.9907700293
 30
0.0
  0
SPLINE
  5
3F8
100
AcDbEntity
  8
0
100
AcDbSpline
 62
7
  6
CONTINUOUS
 70
0
 71
3
 72
23
 73
19
 74
0
 42
0.0000001
 43
0.0000001
 44
0.0000000001
 40
0.0
 40
0.0
 40
0.0
 40
0.0
 40
0.063776763
 40
0.1273450105
 40
0.1907019658
 40
0.2538561083
 40
0.3168132129
 40
0.3795820829
 40
0.4421733857
 40
0.5045993396
 40
0.5668738671
 40
0.6290123792
 40
0.6910316488
 40
0.752949646
 40
0.8147853557
 40
0.8765586025
 40
0.9382898529
 40
1.0
 40
1.0
 40
1.0
 40
1.0
 10
11.1605686843
 20
7.7506722575
 30
0.0
 10
11.1605686843
 20
7.7563345807
 30
0.0
 10
11.1608397221
 20
7.7676426324
 30
0.0
 10
11.1620629636
 20
7.7845359053
 30
0.0
 10
11.1640997108
 20
7.8012952893
 30
0.0
 10
11.1669450569
 20
7.8178813896
 30
0.0
 10
11.1705926657
 20
7.834256317
 30
0.0
 10
11.1750340897
 20
7.8503822175
 30
0.0
 10
11.1802591112
 20
7.8662219394
 30
0.0
 10
11.1862557447
 20
7.8817389534
 30
0.0
 10
11.193010221
 20
7.8968974562
 30
0.0
 10
11.2005069617
 20
7.9116624986
 30
0.0
 10
11.208728694
 20
7.9260000255
 30
0.0
 10
11.2176565
 20
7.9398769624
 30
0.0
 10
11.2272698045
 20
7.9532612445
 30
0.0
 10
11.2375465267
 20
7.9661221187
 30
0.0
 10
11.2484625526
 20
7.9784295266
 30
0.0
 10
11.2561507968
 20
7.9862479805
 30
0.0
 10
11.2600914771
 20
7.9900543891
 30
0.0
  0
SPLINE
  5
3F9
100
AcDbEntity
  8
0
100
AcDbSpline
 62
7
  6
CONTINUOUS
 70
0
 71
3
 72
17
 73
13
 74
0
 42
0.0000001
 43
0.0000001
 44
0.0000000001
 40
0.0
 40
0.0
 40
0.0
 40
0.0
 40
0.1661658368
 40
0.3194212717
 40
0.4601153468
 40
0.5887470654
 40
0.648759554
 40
0.7060234771
 40
0.8127564563
 40
0.8625765045
 40
0.9102556534
 40
1.0
 40
1.0
 40
1.0
 40
1.0
 10
11.3283587808
 20
7.9797026801
 30
0.0
 10
11.3270858751
 20
7.9784731475
 30
0.0
 10
11.324581007
 20
7.9761682755
 30
0.0
 10
11.3207840016
 20
7.9730651784
 30
0.0
 10
11.3171081787
 20
7.9704612489
 30
0.0
 10
11.3140869103
 20
7.968669251
 30
0.0
 10
11.3117407979
 20
7.9675024815
 30
0.0
 10
11.3095509856
 20
7.9665537804
 30
0.0
 10
11.3073861282
 20
7.9658245824
 30
0.0
 10
11.3052616252
 20
7.965348958
 30
0.0
 10
11.3032875509
 20
7.9650589659
 30
0.0
 10
11.3018147847
 20
7.9650194436
 30
0.0
 10
11.3008612821
 20
7.9650860509
 30
0.0
  0
SPLINE
  5
3FA
100
AcDbEntity
  8
0
100
AcDbSpline
 62
7
  6
CONTINUOUS
 70
0
 71
3
 72
71
 73
67
 74
0
 42
0.0000001
 43
0.0000001
 44
0.0000000001
 40
0.0
 40
0.0
 40
0.0
 40
0.0
 40
0.0156372492
 40
0.0313279719
 40
0.0470702691
 40
0.0628636356
 40
0.078706085
 40
0.0945954859
 40
0.1105292303
 40
0.1265042941
 40
0.1425172939
 40
0.1585644997
 40
0.1746418769
 40
0.1907451249
 40
0.2068697161
 40
0.2230109353
 40
0.2391639203
 40
0.2553237068
 40
0.2714852727
 40
0.2876435802
 40
0.3037936187
 40
0.3199304493
 40
0.3360492495
 40
0.3521453553
 40
0.368214301
 40
0.3842518591
 40
0.400254082
 40
0.4162173382
 40
0.432138346
 40
0.4480142044
 40
0.4638424243
 40
0.479620957
 40
0.4953482151
 40
0.5110230911
 40
0.5266449716
 40
0.5422137518
 40
0.5577298409
 40
0.5731941615
 40
0.5886081454
 40
0.6039737251
 40
0.6192933216
 40
0.6345698227
 40
0.6498065569
 40
0.6650072614
 40
0.6801760495
 40
0.6953173696
 40
0.7104359593
 40
0.7255367964
 40
0.7406250465
 40
0.7557060105
 40
0.7707850676
 40
0.7858676177
 40
0.8009590222
 40
0.8160645476
 40
0.8311893103
 40
0.8463382234
 40
0.8615159446
 40
0.8767268274
 40
0.891974877
 40
0.9072637192
 40
0.9225965472
 40
0.9379761189
 40
0.953404763
 40
0.9688840052
 40
0.9844158733
 40
1.0
 40
1.0
 40
1.0
 40
1.0
 10
11.0610609363
 20
7.705055148
 30
0.0
 10
11.0610609363
 20
7.6984461297
 30
0.0
 10
11.0613865946
 20
7.685203243
 30
0.0
 10
11.0628448061
 20
7.6653552448
 30
0.0
 10
11.0652702821
 20
7.6455352092
 30
0.0
 10
11.0686568694
 20
7.6257917428
 30
0.0
 10
11.072996565
 20
7.6061720118
 30
0.0
 10
11.0782788183
 20
7.5867233788
 30
0.0
 10
11.0844908634
 20
7.5674926259
 30
0.0
 10
11.0916177147
 20
7.5485260475
 30
0.0
 10
11.0996421888
 20
7.5298692973
 30
0.0
 10
11.1085449702
 20
7.5115672922
 30
0.0
 10
11.1183045859
 20
7.4936640754
 30
0.0
 10
11.1288975117
 20
7.4762027283
 30
0.0
 10
11.1402982352
 20
7.459225275
 30
0.0
 10
11.1524793175
 20
7.4427725863
 30
0.0
 10
11.1654114378
 20
7.4268842701
 30
0.0
 10
11.1790634397
 20
7.4115985515
 30
0.0
 10
11.1934024565
 20
7.3969522187
 30
0.0
 10
11.2083939772
 20
7.3829805298
 30
0.0
 10
11.224001936
 20
7.3697171403
 30
0.0
 10
11.2401887569
 20
7.3571939744
 30
0.0
 10
11.2569154709
 20
7.3454411709
 30
0.0
 10
11.2741418227
 20
7.3344870314
 30
0.0
 10
11.2918263613
 20
7.3243579521
 30
0.0
 10
11.3099265328
 20
7.3150783534
 30
0.0
 10
11.3283987599
 20
7.3066705728
 30
0.0
 10
11.3471985807
 20
7.2991548691
 30
0.0
 10
11.3662807466
 20
7.2925493674
 30
0.0
 10
11.3855993319
 20
7.2868700285
 30
0.0
 10
11.4051078267
 20
7.2821305591
 30
0.0
 10
11.4247592587
 20
7.278342387
 30
0.0
 10
11.4445063135
 20
7.2755146737
 30
0.0
 10
11.4643014414
 20
7.2736542835
 30
0.0
 10
11.4840969691
 20
7.2727657686
 30
0.0
 10
11.5038452127
 20
7.2728512911
 30
0.0
 10
11.5234985996
 20
7.2739106824
 30
0.0
 10
11.5430097788
 20
7.2759414409
 30
0.0
 10
11.5623317292
 20
7.2789387459
 30
0.0
 10
11.5814178777
 20
7.2828954274
 30
0.0
 10
11.6002222209
 20
7.28780197
 30
0.0
 10
11.6186994248
 20
7.2936465895
 30
0.0
 10
11.6368049333
 20
7.3004152466
 30
0.0
 10
11.6544950696
 20
7.3080916882
 30
0.0
 10
11.6717271716
 20
7.3166574195
 30
0.0
 10
11.6884596796
 20
7.3260918022
 30
0.0
 10
11.7046522295
 20
7.3363721108
 30
0.0
 10
11.720265746
 20
7.3474735887
 30
0.0
 10
11.7352625507
 20
7.3593694846
 30
0.0
 10
11.7496064818
 20
7.372031091
 30
0.0
 10
11.7632629425
 20
7.3854278692
 30
0.0
 10
11.776198991
 20
7.3995275098
 30
0.0
 10
11.7883834082
 20
7.4142960182
 30
0.0
 10
11.7997868249
 20
7.4296977541
 30
0.0
 10
11.8103817698
 20
7.4456955477
 30
0.0
 10
11.8201427136
 20
7.4622508048
 30
0.0
 10
11.8290461308
 20
7.4793235959
 30
0.0
 10
11.8370705628
 20
7.496872745
 30
0.0
 10
11.844196726
 20
7.5148559099
 30
0.0
 10
11.850407482
 20
7.5332297198
 30
0.0
 10
11.8556879045
 20
7.5519498672
 30
0.0
 10
11.8600252974
 20
7.5709712565
 30
0.0
 10
11.8634091913
 20
7.5902479097
 30
0.0
 10
11.8658316759
 20
7.6097337323
 30
0.0
 10
11.8672866894
 20
7.6293808997
 30
0.0
 10
11.867609049
 20
7.6425342801
 30
0.0
 10
11.867609049
 20
7.6491208464
 30
0.0
  0
SPLINE
  5
3FB
100
AcDbEntity
  8
0
100
AcDbSpline
 62
7
  6
CONTINUOUS
 70
0
 71
3
 72
23
 73
19
 74
0
 42
0.0000001
 43
0.0000001
 44
0.0000000001
 40
0.0
 40
0.0
 40
0.0
 40
0.0
 40
0.0618063263
 40
0.1238749099
 40
0.1861789662
 40
0.2486869199
 40
0.3113630902
 40
0.3741684377
 40
0.4370613619
 40
0.4999985347
 40
0.5629357582
 40
0.6258288333
 40
0.6886344298
 40
0.7513109428
 40
0.8138193279
 40
0.8761238913
 40
0.9381930635
 40
1.0
 40
1.0
 40
1.0
 40
1.0
 10
9.8941127463
 20
7.9552571161
 30
0.0
 10
9.8879030477
 20
7.956802642
 30
0.0
 10
9.8755642241
 20
7.9603489829
 30
0.0
 10
9.8574487652
 20
7.9669813677
 30
0.0
 10
9.8397784825
 20
7.9749034935
 30
0.0
 10
9.8226506212
 20
7.9840718625
 30
0.0
 10
9.8061578619
 20
7.9944366428
 30
0.0
 10
9.790389865
 20
8.0059414213
 30
0.0
 10
9.7754322386
 20
8.0185236453
 30
0.0
 10
9.7613662281
 20
8.0321149258
 30
0.0
 10
9.7482682401
 20
8.0466414146
 30
0.0
 10
9.7362094419
 20
8.0620242021
 30
0.0
 10
9.725255378
 20
8.0781797315
 30
0.0
 10
9.7154656093
 20
8.0950202874
 30
0.0
 10
9.7068934237
 20
8.1124543173
 30
0.0
 10
9.6995854288
 20
8.1303874784
 30
0.0
 10
9.6935817363
 20
8.1487210785
 30
0.0
 10
9.6904630479
 20
8.1611749951
 30
0.0
 10
9.6891325742
 20
8.1674343606
 30
0.0
  0
SPLINE
  5
3FC
100
AcDbEntity
  8
0
100
AcDbSpline
 62
7
  6
CONTINUOUS
 70
0
 71
3
 72
39
 73
35
 74
0
 42
0.0000001
 43
0.0000001
 44
0.0000000001
 40
0.0
 40
0.0
 40
0.0
 40
0.0
 40
0.0310753511
 40
0.0623079071
 40
0.0936931323
 40
0.1252222879
 40
0.1568840438
 40
0.1886642044
 40
0.2205461649
 40
0.2525112495
 40
0.2845391085
 40
0.3166081364
 40
0.3486959075
 40
0.3807796234
 40
0.4128365659
 40
0.4448445499
 40
0.4767823666
 40
0.5086302146
 40
0.540370109
 40
0.5719862657
 40
0.6034654504
 40
0.6347972851
 40
0.6659745049
 40
0.6969931576
 40
0.7278527402
 40
0.7585562639
 40
0.7891102404
 40
0.8195245852
 40
0.8498124376
 40
0.8799898966
 40
0.9100756756
 40
0.9400906817
 40
0.970057529
 40
1.0
 40
1.0
 40
1.0
 40
1.0
 10
11.0759101754
 20
7.7088984124
 30
0.0
 10
11.0759101754
 20
7.6991557456
 30
0.0
 10
11.0766369549
 20
7.6796136282
 30
0.0
 10
11.0798818799
 20
7.6503940005
 30
0.0
 10
11.0852659953
 20
7.6213459519
 30
0.0
 10
11.0927595586
 20
7.5926310459
 30
0.0
 10
11.1023210683
 20
7.5644064264
 30
0.0
 10
11.11389783
 20
7.5368271544
 30
0.0
 10
11.1274260798
 20
7.510044544
 30
0.0
 10
11.1428313842
 20
7.484205562
 30
0.0
 10
11.1600290591
 20
7.45945198
 30
0.0
 10
11.1789246299
 20
7.4359196235
 30
0.0
 10
11.1994143447
 20
7.4137376316
 30
0.0
 10
11.2213857393
 20
7.393027761
 30
0.0
 10
11.2447182234
 20
7.3739036972
 30
0.0
 10
11.2692837611
 20
7.3564704565
 30
0.0
 10
11.2949475657
 20
7.3408238192
 30
0.0
 10
11.3215688277
 20
7.3270498061
 30
0.0
 10
11.3490014786
 20
7.3152242147
 30
0.0
 10
11.3770949723
 20
7.305412186
 30
0.0
 10
11.4056951002
 20
7.2976678332
 30
0.0
 10
11.4346448372
 20
7.2920339695
 30
0.0
 10
11.4637851869
 20
7.2885418619
 30
0.0
 10
11.492956042
 20
7.2872110495
 30
0.0
 10
11.5219970513
 20
7.2880492279
 30
0.0
 10
11.5507484947
 20
7.2910521516
 30
0.0
 10
11.5790521605
 20
7.296203666
 30
0.0
 10
11.6067522157
 20
7.3034757862
 30
0.0
 10
11.633696053
 20
7.3128288126
 30
0.0
 10
11.6597351911
 20
7.324211583
 30
0.0
 10
11.6847259187
 20
7.3375615311
 30
0.0
 10
11.7085308425
 20
7.3528057105
 30
0.0
 10
11.7310169667
 20
7.3698585897
 30
0.0
 10
11.7450518671
 20
7.3823761085
 30
0.0
 10
11.7518038755
 20
7.3888980204
 30
0.0
  0
SPLINE
  5
3FD
100
AcDbEntity
  8
0
100
AcDbSpline
 62
7
  6
CONTINUOUS
 70
0
 71
3
 72
39
 73
35
 74
0
 42
0.0000001
 43
0.0000001
 44
0.0000000001
 40
0.0
 40
0.0
 40
0.0
 40
0.0
 40
0.0310367843
 40
0.0622264293
 40
0.0935647663
 40
0.1250437296
 40
0.1566528844
 40
0.1883791092
 40
0.2202070345
 40
0.252119327
 40
0.284097043
 40
0.3161199988
 40
0.3481671574
 40
0.3802170266
 40
0.4122480631
 40
0.4442390773
 40
0.4761696338
 40
0.5080204426
 40
0.5397737333
 40
0.5714136089
 40
0.6029263721
 40
0.6343008179
 40
0.6655284877
 40
0.6966038766
 40
0.7275245886
 40
0.7582914308
 40
0.7889084448
 40
0.8193828686
 40
0.8497250259
 40
0.8799481426
 40
0.9100680897
 40
0.9401030567
 40
0.9700731604
 40
1.0
 40
1.0
 40
1.0
 40
1.0
 10
11.1115788957
 20
7.7433517527
 30
0.0
 10
11.1115788957
 20
7.733875075
 30
0.0
 10
11.1122664553
 20
7.714868139
 30
0.0
 10
11.1153370872
 20
7.6864418642
 30
0.0
 10
11.1204331517
 20
7.6581696318
 30
0.0
 10
11.1275280167
 20
7.6302002565
 30
0.0
 10
11.1365844907
 20
7.6026785955
 30
0.0
 10
11.147555338
 20
7.5757477365
 30
0.0
 10
11.1603833754
 20
7.5495475174
 30
0.0
 10
11.1750018221
 20
7.5242140118
 30
0.0
 10
11.1913346184
 20
7.4998787651
 30
0.0
 10
11.2092968419
 20
7.4766681448
 30
0.0
 10
11.2287951416
 20
7.4547026861
 30
0.0
 10
11.2497282194
 20
7.4340964751
 30
0.0
 10
11.27198735
 20
7.4149565615
 30
0.0
 10
11.2954569419
 20
7.3973824113
 30
0.0
 10
11.3200151216
 20
7.3814653824
 30
0.0
 10
11.345534363
 20
7.3672882528
 30
0.0
 10
11.3718821495
 20
7.3549248036
 30
0.0
 10
11.3989216509
 20
7.3444394354
 30
0.0
 10
11.4265124243
 20
7.3358868341
 30
0.0
 10
11.4545111333
 20
7.3293116839
 30
0.0
 10
11.4827722816
 20
7.3247484338
 30
0.0
 10
11.5111489569
 20
7.3222210913
 30
0.0
 10
11.5394935897
 20
7.3217431004
 30
0.0
 10
11.5676587133
 20
7.3233172664
 30
0.0
 10
11.5954977226
 20
7.326935724
 30
0.0
 10
11.622865638
 20
7.3325799654
 30
0.0
 10
11.649619846
 20
7.340220907
 30
0.0
 10
11.6756208988
 20
7.3498190655
 30
0.0
 10
11.7007330679
 20
7.3613245659
 30
0.0
 10
11.7248257709
 20
7.3746780128
 30
0.0
 10
11.7477716312
 20
7.3898085393
 30
0.0
 10
11.7622353386
 20
7.4010364955
 30
0.0
 10
11.7692315276
 20
7.4069146065
 30
0.0
  0
SPLINE
  5
3FE
100
AcDbEntity
  8
0
100
AcDbSpline
 62
7
  6
CONTINUOUS
 70
0
 71
3
 72
20
 73
16
 74
0
 42
0.0000001
 43
0.0000001
 44
0.0000000001
 40
0.0
 40
0.0
 40
0.0
 40
0.0
 40
0.1611070539
 40
0.3121608644
 40
0.4529466727
 40
0.5194417232
 40
0.5833200948
 40
0.6445733354
 40
0.7031971847
 40
0.7591908143
 40
0.8125575478
 40
0.8633059766
 40
0.911450248
 40
0.9570086678
 40
1.0
 40
1.0
 40
1.0
 40
1.0
 10
11.3881903012
 20
8.0656797925
 30
0.0
 10
11.3852811013
 20
8.0608493449
 30
0.0
 10
11.379642913
 20
8.0514906442
 30
0.0
 10
11.3713730148
 20
8.0379648923
 30
0.0
 10
11.3646891927
 20
8.0273514679
 30
0.0
 10
11.3595056895
 20
8.0194010309
 30
0.0
 10
11.3557730865
 20
8.0138283272
 30
0.0
 10
11.3521168954
 20
8.0085367683
 30
0.0
 10
11.348533137
 20
8.0035315664
 30
0.0
 10
11.3450189539
 20
7.9988172765
 30
0.0
 10
11.3415721834
 20
7.9943980807
 30
0.0
 10
11.3381912724
 20
7.9902778785
 30
0.0
 10
11.3348758057
 20
7.9864598505
 30
0.0
 10
11.3316258909
 20
7.9829475541
 30
0.0
 10
11.3294410612
 20
7.9807480827
 30
0.0
 10
11.3283587808
 20
7.9797026801
 30
0.0
  0
SPLINE
  5
3FF
100
AcDbEntity
  8
0
100
AcDbSpline
 62
7
  6
CONTINUOUS
 70
0
 71
3
 72
39
 73
35
 74
0
 42
0.0000001
 43
0.0000001
 44
0.0000000001
 40
0.0
 40
0.0
 40
0.0
 40
0.0
 40
0.0310753465
 40
0.0623079051
 40
0.0936931343
 40
0.1252222873
 40
0.1568840442
 40
0.1886642041
 40
0.2205461646
 40
0.2525112494
 40
0.2845391086
 40
0.3166081364
 40
0.3486959073
 40
0.3807796231
 40
0.4128365661
 40
0.4448445503
 40
0.4767823667
 40
0.5086302139
 40
0.540370108
 40
0.5719862655
 40
0.6034654513
 40
0.6347972861
 40
0.6659745048
 40
0.6969931564
 40
0.7278527389
 40
0.7585562636
 40
0.7891102411
 40
0.8195245859
 40
0.8498124376
 40
0.8799898959
 40
0.9100756748
 40
0.9400906811
 40
0.9700575287
 40
1.0
 40
1.0
 40
1.0
 40
1.0
 10
11.1605686843
 20
7.7506722575
 30
0.0
 10
11.1605686843
 20
7.7418871022
 30
0.0
 10
11.1612240353
 20
7.7242655866
 30
0.0
 10
11.1641500485
 20
7.6979176662
 30
0.0
 10
11.1690050136
 20
7.6717244617
 30
0.0
 10
11.1757621136
 20
7.64583166
 30
0.0
 10
11.1843839183
 20
7.6203809602
 30
0.0
 10
11.1948229084
 20
7.5955121792
 30
0.0
 10
11.2070215934
 20
7.5713617628
 30
0.0
 10
11.2209128653
 20
7.5480622396
 30
0.0
 10
11.2364203573
 20
7.5257414463
 30
0.0
 10
11.2534588758
 20
7.5045218573
 30
0.0
 10
11.2719348608
 20
7.4845199156
 30
0.0
 10
11.2917468945
 20
7.4658454028
 30
0.0
 10
11.3127862528
 20
7.4486008445
 30
0.0
 10
11.3349374901
 20
7.4328809482
 30
0.0
 10
11.3580790595
 20
7.4187720743
 30
0.0
 10
11.3820839863
 20
7.4063517837
 30
0.0
 10
11.4068205526
 20
7.3956884114
 30
0.0
 10
11.4321530095
 20
7.3868406937
 30
0.0
 10
11.4579423114
 20
7.3798574436
 30
0.0
 10
11.4840468669
 20
7.3747772819
 30
0.0
 10
11.5103233016
 20
7.3716283949
 30
0.0
 10
11.5366272418
 20
7.3704283886
 30
0.0
 10
11.5628140974
 20
7.3711841842
 30
0.0
 10
11.5887398483
 20
7.3738919645
 30
0.0
 10
11.61426183
 20
7.3785371758
 30
0.0
 10
11.6392395204
 20
7.3850945958
 30
0.0
 10
11.6635353084
 20
7.3935284231
 30
0.0
 10
11.6870153127
 20
7.4037925026
 30
0.0
 10
11.7095499519
 20
7.4158304096
 30
0.0
 10
11.7310153343
 20
7.429576377
 30
0.0
 10
11.7512915178
 20
7.444953299
 30
0.0
 10
11.7639470849
 20
7.4562405769
 30
0.0
 10
11.7700354901
 20
7.4621215303
 30
0.0
  0
SPLINE
  5
400
100
AcDbEntity
  8
0
100
AcDbSpline
 62
7
  6
CONTINUOUS
 70
0
 71
3
 72
39
 73
35
 74
0
 42
0.0000001
 43
0.0000001
 44
0.0000000001
 40
0.0
 40
0.0
 40
0.0
 40
0.0
 40
0.0306986927
 40
0.0615147631
 40
0.0924447744
 40
0.1234861556
 40
0.1546337127
 40
0.185881534
 40
0.2172223778
 40
0.2486479794
 40
0.2801491001
 40
0.3117156492
 40
0.3433368034
 40
0.3750011301
 40
0.4066967172
 40
0.4384113062
 40
0.4701324281
 40
0.501847541
 40
0.5335441699
 40
0.5652100448
 40
0.5968332365
 40
0.6284022899
 40
0.6599063533
 40
0.6913353033
 40
0.7226798641
 40
0.7539317205
 40
0.7850836212
 40
0.8161294719
 40
0.8470644175
 40
0.8778849116
 40
0.9085887733
 40
0.9391752284
 40
0.9696449366
 40
1.0
 40
1.0
 40
1.0
 40
1.0
 10
11.4375048341
 20
8.0181720526
 30
0.0
 10
11.4375048341
 20
8.0116281617
 30
0.0
 10
11.4378681257
 20
7.9985125405
 30
0.0
 10
11.4394937975
 20
7.9788643551
 30
0.0
 10
11.4421963908
 20
7.9592608859
 30
0.0
 10
11.4459673864
 20
7.9397629262
 30
0.0
 10
11.4507953483
 20
7.9204296677
 30
0.0
 10
11.4566654055
 20
7.9013202324
 30
0.0
 10
11.4635596219
 20
7.882492916
 30
0.0
 10
11.4714569009
 20
7.8640051888
 30
0.0
 10
11.480333096
 20
7.845913468
 30
0.0
 10
11.4901610741
 20
7.8282729599
 30
0.0
 10
11.5009108083
 20
7.8111374924
 30
0.0
 10
11.512549467
 20
7.7945593527
 30
0.0
 10
11.5250415137
 20
7.7785891292
 30
0.0
 10
11.5383488146
 20
7.7632755584
 30
0.0
 10
11.5524307551
 20
7.7486653793
 30
0.0
 10
11.5672443558
 20
7.7348031838
 30
0.0
 10
11.5827444033
 20
7.7217312797
 30
0.0
 10
11.5988835964
 20
7.7094895703
 30
0.0
 10
11.6156126865
 20
7.6981154318
 30
0.0
 10
11.6328806275
 20
7.6876436009
 30
0.0
 10
11.6506347297
 20
7.6781060688
 30
0.0
 10
11.6688208189
 20
7.6695319855
 30
0.0
 10
11.6873833989
 20
7.6619475665
 30
0.0
 10
11.7062658167
 20
7.6553760029
 30
0.0
 10
11.7254104406
 20
7.649837404
 30
0.0
 10
11.7447588349
 20
7.6453487345
 30
0.0
 10
11.7642519298
 20
7.6419237615
 30
0.0
 10
11.783830225
 20
7.6395730155
 30
0.0
 10
11.8034338743
 20
7.6383037429
 30
0.0
 10
11.8230032199
 20
7.6381199331
 30
0.0
 10
11.8424776647
 20
7.6390221035
 30
0.0
 10
11.8553835255
 20
7.6403484805
 30
0.0
 10
11.8617989539
 20
7.6411919696
 30
0.0
  0
SPLINE
  5
401
100
AcDbEntity
  8
0
100
AcDbSpline
 62
7
  6
CONTINUOUS
 70
0
 71
3
 72
39
 73
35
 74
0
 42
0.0000001
 43
0.0000001
 44
0.0000000001
 40
0.0
 40
0.0
 40
0.0
 40
0.0
 40
0.0299424698
 40
0.0599093171
 40
0.0899243244
 40
0.1200101049
 40
0.1501875654
 40
0.1804754197
 40
0.2108897678
 40
0.2414437479
 40
0.2721472748
 40
0.3030068601
 40
0.3340255156
 40
0.3652027379
 40
0.3965345747
 40
0.4280137612
 40
0.4596299196
 40
0.491369815
 40
0.5232176628
 40
0.555155479
 40
0.5871634623
 40
0.619220404
 40
0.6513041182
 40
0.6833918873
 40
0.7154609133
 40
0.74748877
 40
0.7794538516
 40
0.811335809
 40
0.8431159677
 40
0.8747777197
 40
0.9063068786
 40
0.9376920899
 40
0.9689246486
 40
1.0
 40
1.0
 40
1.0
 40
1.0
 10
11.7553990923
 20
7.3596980209
 30
0.0
 10
11.7482572383
 20
7.3527995429
 30
0.0
 10
11.7334119214
 20
7.3395593574
 30
0.0
 10
11.7096274388
 20
7.3215219446
 30
0.0
 10
11.6844479956
 20
7.3053976935
 30
0.0
 10
11.6580143012
 20
7.2912770316
 30
0.0
 10
11.6304716807
 20
7.2792371052
 30
0.0
 10
11.6019721301
 20
7.2693441157
 30
0.0
 10
11.572672698
 20
7.2616522018
 30
0.0
 10
11.5427348113
 20
7.2562033316
 30
0.0
 10
11.5123233007
 20
7.2530270996
 30
0.0
 10
11.4816055115
 20
7.2521405903
 30
0.0
 10
11.4507503842
 20
7.2535483084
 30
0.0
 10
11.4199275286
 20
7.257242107
 30
0.0
 10
11.3893062948
 20
7.2632013145
 30
0.0
 10
11.3590548584
 20
7.2713928614
 30
0.0
 10
11.3293393172
 20
7.2817714815
 30
0.0
 10
11.3003227779
 20
7.2942799166
 30
0.0
 10
11.2721644697
 20
7.3088492491
 30
0.0
 10
11.2450188982
 20
7.3253993182
 30
0.0
 10
11.2190350115
 20
7.3438391517
 30
0.0
 10
11.1943553905
 20
7.3640674503
 30
0.0
 10
11.1711154417
 20
7.3859731047
 30
0.0
 10
11.1494427015
 20
7.4094358542
 30
0.0
 10
11.1294561406
 20
7.4343269289
 30
0.0
 10
11.1112655292
 20
7.4605097539
 30
0.0
 10
11.0949707863
 20
7.4878406502
 30
0.0
 10
11.0806614674
 20
7.5161696507
 30
0.0
 10
11.0684162896
 20
7.5453412984
 30
0.0
 10
11.0583027135
 20
7.5751955552
 30
0.0
 10
11.0503765074
 20
7.6055684091
 30
0.0
 10
11.0446815326
 20
7.6362936384
 30
0.0
 10
11.0412492598
 20
7.6672003518
 30
0.0
 10
11.0404805161
 20
7.6878707966
 30
0.0
 10
11.0404805161
 20
7.6981759875
 30
0.0
  0
SPLINE
  5
402
100
AcDbEntity
  8
0
100
AcDbSpline
 62
7
  6
CONTINUOUS
 70
0
 71
3
 72
37
 73
33
 74
0
 42
0.0000001
 43
0.0000001
 44
0.0000000001
 40
0.0
 40
0.0
 40
0.0
 40
0.0
 40
0.0306934267
 40
0.061503641
 40
0.0924269019
 40
0.1234609328
 40
0.1546005536
 40
0.1858399823
 40
0.2171721143
 40
0.2485888316
 40
0.2800810646
 40
0.3116389001
 40
0.3432517007
 40
0.3749082224
 40
0.4065967407
 40
0.4383051803
 40
0.5017117568
 40
0.565050191
 40
0.5966742315
 40
0.6282458831
 40
0.6597543542
 40
0.6911895527
 40
0.7225422028
 40
0.7538039537
 40
0.7849674807
 40
0.8160265784
 40
0.8469762451
 40
0.8778127534
 40
0.9085337061
 40
0.9391380788
 40
0.9696262476
 40
1.0
 40
1.0
 40
1.0
 40
1.0
 10
11.4672057155
 20
8.0243609028
 30
0.0
 10
11.4672057155
 20
8.0182585789
 30
0.0
 10
11.4675422683
 20
8.0060281179
 30
0.0
 10
11.4690483126
 20
7.9877054434
 30
0.0
 10
11.4715521377
 20
7.9694234481
 30
0.0
 10
11.4750459087
 20
7.9512381226
 30
0.0
 10
11.4795191996
 20
7.9332039224
 30
0.0
 10
11.484958404
 20
7.9153752891
 30
0.0
 10
11.4913471291
 20
7.8978059017
 30
0.0
 10
11.4986660681
 20
7.8805486877
 30
0.0
 10
11.5068931313
 20
7.8636556169
 30
0.0
 10
11.5160034936
 20
7.8471775726
 30
0.0
 10
11.5259697175
 20
7.831164151
 30
0.0
 10
11.5367616511
 20
7.815663689
 30
0.0
 10
11.5483472096
 20
7.8007224676
 30
0.0
 10
11.5648023093
 20
7.7816106104
 30
0.0
 10
11.5871703061
 20
7.7593437212
 30
0.0
 10
11.6116872377
 20
7.7394937247
 30
0.0
 10
11.6324094434
 20
7.7252133104
 30
0.0
 10
11.6484510773
 20
7.715338428
 30
0.0
 10
11.6649492288
 20
7.7063256605
 30
0.0
 10
11.6818546565
 20
7.6982018032
 30
0.0
 10
11.6991163269
 20
7.6909914646
 30
0.0
 10
11.716682283
 20
7.6847163831
 30
0.0
 10
11.7344996067
 20
7.6793955252
 30
0.0
 10
11.7525146279
 20
7.6750449811
 30
0.0
 10
11.7706730619
 20
7.6716779055
 30
0.0
 10
11.7889202071
 20
7.6693045022
 30
0.0
 10
11.8072010175
 20
7.6679319791
 30
0.0
 10
11.8254605915
 20
7.6675645711
 30
0.0
 10
11.8436431321
 20
7.6682033568
 30
0.0
 10
11.8557010078
 20
7.6693010641
 30
0.0
 10
11.8616971619
 20
7.6700172004
 30
0.0
  0
SPLINE
  5
403
100
AcDbEntity
  8
0
100
AcDbSpline
 62
7
  6
CONTINUOUS
 70
0
 71
3
 72
23
 73
19
 74
0
 42
0.0000001
 43
0.0000001
 44
0.0000000001
 40
0.0
 40
0.0
 40
0.0
 40
0.0
 40
0.0615588417
 40
0.1234645896
 40
0.1856884017
 40
0.2481925051
 40
0.3109310285
 40
0.3738513825
 40
0.4368958282
 40
0.5000031402
 40
0.5631103326
 40
0.6261544212
 40
0.6890741879
 40
0.7518119152
 40
0.8143150378
 40
0.876537695
 40
0.9384421508
 40
1.0
 40
1.0
 40
1.0
 40
1.0
 10
11.5496631605
 20
8.0606016693
 30
0.0
 10
11.5505984322
 20
8.0510755596
 30
0.0
 10
11.5533081337
 20
8.0320414305
 30
0.0
 10
11.5598213175
 20
8.003878363
 30
0.0
 10
11.5687450923
 20
7.976227617
 30
0.0
 10
11.5800096364
 20
7.9493057477
 30
0.0
 10
11.5935276504
 20
7.9233199759
 30
0.0
 10
11.6091943225
 20
7.8984711976
 30
0.0
 10
11.6268883627
 20
7.8749512358
 30
0.0
 10
11.6464730039
 20
7.8529418176
 30
0.0
 10
11.667796843
 20
7.8326129428
 30
0.0
 10
11.6906951349
 20
7.8141216963
 30
0.0
 10
11.714991063
 20
7.7976111377
 30
0.0
 10
11.740497013
 20
7.7832089868
 30
0.0
 10
11.767015798
 20
7.7710268447
 30
0.0
 10
11.7943433807
 20
7.7611592234
 30
0.0
 10
11.8222657353
 20
7.7536831872
 30
0.0
 10
11.8411952862
 20
7.750321769
 30
0.0
 10
11.8506835295
 20
7.7490601099
 30
0.0
  0
SPLINE
  5
404
100
AcDbEntity
  8
0
100
AcDbSpline
 62
7
  6
CONTINUOUS
 70
0
 71
3
 72
39
 73
35
 74
0
 42
0.0000001
 43
0.0000001
 44
0.0000000001
 40
0.0
 40
0.0
 40
0.0
 40
0.0
 40
0.0306969779
 40
0.0615112908
 40
0.0924392194
 40
0.1234784032
 40
0.1546236037
 40
0.1858689524
 40
0.2172072432
 40
0.2486302463
 40
0.2801287673
 40
0.3116927612
 40
0.3433114529
 40
0.3749734583
 40
0.4066669129
 40
0.4383796038
 40
0.4700991067
 40
0.5018129237
 40
0.53350862
 40
0.5651739602
 40
0.5967970429
 40
0.6283664333
 40
0.6598712935
 40
0.6913015085
 40
0.7226478037
 40
0.7539018555
 40
0.7850563933
 40
0.8161052926
 40
0.8470436587
 40
0.8778678983
 40
0.908575776
 40
0.939166455
 40
0.9696405228
 40
1.0
 40
1.0
 40
1.0
 40
1.0
 10
11.4578872017
 20
8.0212177735
 30
0.0
 10
11.4578872017
 20
8.0149810776
 30
0.0
 10
11.4582328652
 20
8.00248117
 30
0.0
 10
11.4597796358
 20
7.9837552403
 30
0.0
 10
11.4623511059
 20
7.9650716528
 30
0.0
 10
11.465939158
 20
7.9464881851
 30
0.0
 10
11.4705329732
 20
7.9280610396
 30
0.0
 10
11.4761184415
 20
7.90984639
 30
0.0
 10
11.4826785618
 20
7.8918996179
 30
0.0
 10
11.490193318
 20
7.8742753213
 30
0.0
 10
11.4986398032
 20
7.8570271007
 30
0.0
 10
11.5079922869
 20
7.8402074131
 30
0.0
 10
11.5182222921
 20
7.8238674114
 30
0.0
 10
11.5292986821
 20
7.8080567916
 30
0.0
 10
11.541187755
 20
7.7928236439
 30
0.0
 10
11.5538533394
 20
7.7782143041
 30
0.0
 10
11.5672568942
 20
7.7642732019
 30
0.0
 10
11.5813576442
 20
7.7510427407
 30
0.0
 10
11.5961126996
 20
7.7385631682
 30
0.0
 10
11.6114771861
 20
7.7268724559
 30
0.0
 10
11.6274043789
 20
7.7160061842
 30
0.0
 10
11.6438458446
 20
7.7059974376
 30
0.0
 10
11.6607515753
 20
7.6968766824
 30
0.0
 10
11.6780701519
 20
7.6886716899
 30
0.0
 10
11.6957489004
 20
7.6814074558
 30
0.0
 10
11.7137340499
 20
7.6751061241
 30
0.0
 10
11.7319708928
 20
7.6697869193
 30
0.0
 10
11.7504039519
 20
7.6654660911
 30
0.0
 10
11.768977137
 20
7.6621568477
 30
0.0
 10
11.787633942
 20
7.6598693155
 30
0.0
 10
11.8063175282
 20
7.6586105131
 30
0.0
 10
11.8249712296
 20
7.6583843695
 30
0.0
 10
11.8435374792
 20
7.6591915466
 30
0.0
 10
11.8558436092
 20
7.6604194806
 30
0.0
 10
11.861961502
 20
7.6612050794
 30
0.0
  0
SPLINE
  5
405
100
AcDbEntity
  8
0
100
AcDbSpline
 62
7
  6
CONTINUOUS
 70
0
 71
3
 72
25
 73
21
 74
0
 42
0.0000001
 43
0.0000001
 44
0.0000000001
 40
0.0
 40
0.0
 40
0.0
 40
0.0
 40
0.0307187314
 40
0.0615301394
 40
0.0924318539
 40
0.1234203452
 40
0.1856273123
 40
0.2481275861
 40
0.3108738051
 40
0.3738111951
 40
0.4368792754
 40
0.5000137002
 40
0.5631481694
 40
0.6262163782
 40
0.6891539757
 40
0.7519004815
 40
0.8144011077
 40
0.8766084786
 40
0.9384841663
 40
1.0
 40
1.0
 40
1.0
 40
1.0
 10
11.5369139304
 20
8.0639843352
 30
0.0
 10
11.5373150644
 20
8.0589557304
 30
0.0
 10
11.5383440007
 20
8.0488998899
 30
0.0
 10
11.5405584829
 20
8.0338785912
 30
0.0
 10
11.5434419758
 20
8.018925565
 30
0.0
 10
11.5481758941
 20
7.9990984927
 30
0.0
 10
11.5557399298
 20
7.9746380785
 30
0.0
 10
11.5673520435
 20
7.9460890165
 30
0.0
 10
11.581418035
 20
7.9185300942
 30
0.0
 10
11.5978228656
 20
7.8921868753
 30
0.0
 10
11.6164328937
 20
7.8672729803
 30
0.0
 10
11.6370967196
 20
7.8439910779
 30
0.0
 10
11.6596462391
 20
7.8225303863
 30
0.0
 10
11.6838981189
 20
7.803065427
 30
0.0
 10
11.7096552946
 20
7.7857546929
 30
0.0
 10
11.7367084425
 20
7.7707390903
 30
0.0
 10
11.7648375044
 20
7.7581411624
 30
0.0
 10
11.7938146885
 20
7.7480637613
 30
0.0
 10
11.8234011566
 20
7.740589732
 30
0.0
 10
11.8434393325
 20
7.7373731018
 30
0.0
 10
11.8534753553
 20
7.7362201896
 30
0.0
  0
SPLINE
  5
406
100
AcDbEntity
  8
0
100
AcDbSpline
 62
7
  6
CONTINUOUS
 70
0
 71
3
 72
23
 73
19
 74
0
 42
0.0000001
 43
0.0000001
 44
0.0000000001
 40
0.0
 40
0.0
 40
0.0
 40
0.0
 40
0.0618063263
 40
0.1238749099
 40
0.1861789662
 40
0.2486869199
 40
0.3113630902
 40
0.3741684377
 40
0.4370613619
 40
0.4999985347
 40
0.5629357582
 40
0.6258288333
 40
0.6886344298
 40
0.7513109428
 40
0.8138193279
 40
0.8761238913
 40
0.9381930635
 40
1.0
 40
1.0
 40
1.0
 40
1.0
 10
11.8259645134
 20
7.821282741
 30
0.0
 10
11.8197548147
 20
7.8228282669
 30
0.0
 10
11.8074159911
 20
7.8263746078
 30
0.0
 10
11.7893005322
 20
7.8330069926
 30
0.0
 10
11.7716302495
 20
7.8409291184
 30
0.0
 10
11.7545023883
 20
7.8500974874
 30
0.0
 10
11.738009629
 20
7.8604622678
 30
0.0
 10
11.7222416321
 20
7.8719670462
 30
0.0
 10
11.7072840057
 20
7.8845492703
 30
0.0
 10
11.6932179951
 20
7.8981405507
 30
0.0
 10
11.6801200071
 20
7.9126670395
 30
0.0
 10
11.6680612089
 20
7.928049827
 30
0.0
 10
11.6571071451
 20
7.9442053564
 30
0.0
 10
11.6473173763
 20
7.9610459123
 30
0.0
 10
11.6387451907
 20
7.9784799422
 30
0.0
 10
11.6314371958
 20
7.9964131034
 30
0.0
 10
11.6254335034
 20
8.0147467034
 30
0.0
 10
11.6223148149
 20
8.02720062
 30
0.0
 10
11.6209843412
 20
8.0334599855
 30
0.0
  0
SPLINE
  5
407
100
AcDbEntity
  8
0
100
AcDbSpline
 62
7
  6
CONTINUOUS
 70
0
 71
3
 72
42
 73
38
 74
0
 42
0.0000001
 43
0.0000001
 44
0.0000000001
 40
0.0
 40
0.0
 40
0.0
 40
0.0
 40
0.0299419644
 40
0.0449235317
 40
0.0599142035
 40
0.0899287023
 40
0.1200139727
 40
0.1350926544
 40
0.1501966973
 40
0.1804840373
 40
0.210897868
 40
0.2414513286
 40
0.2721543342
 40
0.3030133956
 40
0.3340315238
 40
0.3652082165
 40
0.3965395222
 40
0.4280181758
 40
0.459633799
 40
0.4913731572
 40
0.5232204671
 40
0.5551577446
 40
0.5871651885
 40
0.6192215901
 40
0.6513047644
 40
0.683391994
 40
0.715460481
 40
0.7474877999
 40
0.7794523452
 40
0.8113337678
 40
0.8431133918
 40
0.8747746145
 40
0.906303246
 40
0.9376878974
 40
0.9533257627
 40
0.9689252947
 40
1.0
 40
1.0
 40
1.0
 40
1.0
 10
8.6995674535
 20
9.0823826528
 30
0.0
 10
8.6961997512
 20
9.0791297034
 30
0.0
 10
8.6909496953
 20
9.0744473827
 30
0.0
 10
8.6835971374
 20
9.0686375939
 30
0.0
 10
8.6760103727
 20
9.0631169868
 30
0.0
 10
8.6661109468
 20
9.0567774591
 30
0.0
 10
8.6557301611
 20
9.051232261
 30
0.0
 10
8.6471687414
 20
9.0472873113
 30
0.0
 10
8.6384304123
 20
9.0436681358
 30
0.0
 10
8.6272195737
 20
9.0397763973
 30
0.0
 10
8.6134038897
 20
9.036149419
 30
0.0
 10
8.5992867452
 20
9.0335799578
 30
0.0
 10
8.5849463691
 20
9.032082205
 30
0.0
 10
8.570461538
 20
9.0316641494
 30
0.0
 10
8.5559119516
 20
9.0323279201
 30
0.0
 10
8.541377578
 20
9.0340696824
 30
0.0
 10
8.5269382775
 20
9.0368796951
 30
0.0
 10
8.5126733529
 20
9.0407423631
 30
0.0
 10
8.4986611242
 20
9.0456363297
 30
0.0
 10
8.484978503
 20
9.0515345977
 30
0.0
 10
8.4717005775
 20
9.0584046789
 30
0.0
 10
8.4589002052
 20
9.0662087737
 30
0.0
 10
8.4466476192
 20
9.0749039785
 30
0.0
 10
8.4350100471
 20
9.0844425197
 30
0.0
 10
8.4240513471
 20
9.0947720145
 30
0.0
 10
8.4138316611
 20
9.1058357558
 30
0.0
 10
8.404407088
 20
9.1175730205
 30
0.0
 10
8.3958293794
 20
9.1299194001
 30
0.0
 10
8.3881456576
 20
9.1428071465
 30
0.0
 10
8.381398158
 20
9.1561655544
 30
0.0
 10
8.3756240031
 20
9.169921289
 30
0.0
 10
8.3708549801
 20
9.1839989881
 30
0.0
 10
8.3671174426
 20
9.1983209113
 30
0.0
 10
8.3648766999
 20
9.210410164
 30
0.0
 10
8.3636197139
 20
9.2201237414
 30
0.0
 10
8.3627226333
 20
9.2298280215
 30
0.0
 10
8.3624510041
 20
9.23713043
 30
0.0
 10
8.3624510041
 20
9.2419897747
 30
0.0
  0
SPLINE
  5
408
100
AcDbEntity
  8
0
100
AcDbSpline
 62
7
  6
CONTINUOUS
 70
0
 71
3
 72
23
 73
19
 74
0
 42
0.0000001
 43
0.0000001
 44
0.0000000001
 40
0.0
 40
0.0
 40
0.0
 40
0.0
 40
0.0637771735
 40
0.1273448473
 40
0.1907019822
 40
0.253856143
 40
0.3168131975
 40
0.3795820985
 40
0.4421733906
 40
0.5045993374
 40
0.5668738654
 40
0.62901238
 40
0.6910316489
 40
0.7529496402
 40
0.814785347
 40
0.8765585971
 40
0.938289852
 40
1.0
 40
1.0
 40
1.0
 40
1.0
 10
11.0404805161
 20
7.6981759875
 30
0.0
 10
11.0404805161
 20
7.7048181016
 30
0.0
 10
11.0407984351
 20
7.7180827621
 30
0.0
 10
11.0422333657
 20
7.7378990668
 30
0.0
 10
11.0446225292
 20
7.7575582768
 30
0.0
 10
11.0479602274
 20
7.7770142711
 30
0.0
 10
11.0522389794
 20
7.7962225415
 30
0.0
 10
11.057448916
 20
7.8151386893
 30
0.0
 10
11.0635780662
 20
7.8337191347
 30
0.0
 10
11.0706123345
 20
7.8519210293
 30
0.0
 10
11.0785355379
 20
7.8697023954
 30
0.0
 10
11.0873294571
 20
7.8870222135
 30
0.0
 10
11.0969738486
 20
7.9038405205
 30
0.0
 10
11.1074464859
 20
7.9201185353
 30
0.0
 10
11.1187231972
 20
7.9358186736
 30
0.0
 10
11.130778123
 20
7.9509048346
 30
0.0
 10
11.1435829911
 20
7.9653417446
 30
0.0
 10
11.1526015822
 20
7.9745129667
 30
0.0
 10
11.1572241257
 20
7.9789779857
 30
0.0
  0
SPLINE
  5
409
100
AcDbEntity
  8
0
100
AcDbSpline
 62
7
  6
CONTINUOUS
 70
0
 71
3
 72
42
 73
38
 74
0
 42
0.0000001
 43
0.0000001
 44
0.0000000001
 40
0.0
 40
0.0
 40
0.0
 40
0.0
 40
0.0299419644
 40
0.0449235317
 40
0.0599142035
 40
0.0899287023
 40
0.1200139727
 40
0.1350926544
 40
0.1501966973
 40
0.1804840373
 40
0.210897868
 40
0.2414513286
 40
0.2721543342
 40
0.3030133956
 40
0.3340315238
 40
0.3652082165
 40
0.3965395222
 40
0.4280181758
 40
0.459633799
 40
0.4913731572
 40
0.5232204671
 40
0.5551577446
 40
0.5871651885
 40
0.6192215901
 40
0.6513047644
 40
0.683391994
 40
0.715460481
 40
0.7474877999
 40
0.7794523452
 40
0.8113337678
 40
0.8431133918
 40
0.8747746145
 40
0.906303246
 40
0.9376878974
 40
0.9533257627
 40
0.9689252947
 40
1.0
 40
1.0
 40
1.0
 40
1.0
 10
10.6314192206
 20
8.9484082778
 30
0.0
 10
10.6280515182
 20
8.9451553283
 30
0.0
 10
10.6228014623
 20
8.9404730076
 30
0.0
 10
10.6154489044
 20
8.9346632188
 30
0.0
 10
10.6078621398
 20
8.9291426117
 30
0.0
 10
10.5979627138
 20
8.9228030841
 30
0.0
 10
10.5875819282
 20
8.9172578859
 30
0.0
 10
10.5790205085
 20
8.9133129362
 30
0.0
 10
10.5702821793
 20
8.9096937607
 30
0.0
 10
10.5590713408
 20
8.9058020222
 30
0.0
 10
10.5452556567
 20
8.9021750439
 30
0.0
 10
10.5311385123
 20
8.8996055828
 30
0.0
 10
10.5167981361
 20
8.8981078299
 30
0.0
 10
10.5023133051
 20
8.8976897743
 30
0.0
 10
10.4877637186
 20
8.898353545
 30
0.0
 10
10.473229345
 20
8.9000953073
 30
0.0
 10
10.4587900445
 20
8.90290532
 30
0.0
 10
10.44452512
 20
8.906767988
 30
0.0
 10
10.4305128912
 20
8.9116619547
 30
0.0
 10
10.4168302701
 20
8.9175602226
 30
0.0
 10
10.4035523445
 20
8.9244303038
 30
0.0
 10
10.3907519722
 20
8.9322343986
 30
0.0
 10
10.3784993862
 20
8.9409296034
 30
0.0
 10
10.3668618142
 20
8.9504681446
 30
0.0
 10
10.3559031142
 20
8.9607976394
 30
0.0
 10
10.3456834281
 20
8.9718613807
 30
0.0
 10
10.3362588551
 20
8.9835986454
 30
0.0
 10
10.3276811465
 20
8.995945025
 30
0.0
 10
10.3199974246
 20
9.0088327714
 30
0.0
 10
10.3132499251
 20
9.0221911793
 30
0.0
 10
10.3074757701
 20
9.0359469139
 30
0.0
 10
10.3027067472
 20
9.050024613
 30
0.0
 10
10.2989692096
 20
9.0643465362
 30
0.0
 10
10.296728467
 20
9.0764357889
 30
0.0
 10
10.295471481
 20
9.0861493663
 30
0.0
 10
10.2945744003
 20
9.0958536464
 30
0.0
 10
10.2943027711
 20
9.1031560549
 30
0.0
 10
10.2943027711
 20
9.1080153996
 30
0.0
  0
SPLINE
  5
40A
100
AcDbEntity
  8
0
100
AcDbSpline
 62
7
  6
CONTINUOUS
 70
0
 71
3
 72
42
 73
38
 74
0
 42
0.0000001
 43
0.0000001
 44
0.0000000001
 40
0.0
 40
0.0
 40
0.0
 40
0.0
 40
0.0299419644
 40
0.0449235317
 40
0.0599142035
 40
0.0899287023
 40
0.1200139727
 40
0.1350926544
 40
0.1501966973
 40
0.1804840373
 40
0.210897868
 40
0.2414513286
 40
0.2721543342
 40
0.3030133956
 40
0.3340315238
 40
0.3652082165
 40
0.3965395222
 40
0.4280181758
 40
0.459633799
 40
0.4913731572
 40
0.5232204671
 40
0.5551577446
 40
0.5871651885
 40
0.6192215901
 40
0.6513047644
 40
0.683391994
 40
0.715460481
 40
0.7474877999
 40
0.7794523452
 40
0.8113337678
 40
0.8431133918
 40
0.8747746145
 40
0.906303246
 40
0.9376878974
 40
0.9533257627
 40
0.9689252947
 40
1.0
 40
1.0
 40
1.0
 40
1.0
 10
12.5632709876
 20
8.8144339027
 30
0.0
 10
12.5599032852
 20
8.8111809532
 30
0.0
 10
12.5546532294
 20
8.8064986325
 30
0.0
 10
12.5473006715
 20
8.8006888437
 30
0.0
 10
12.5397139068
 20
8.7951682366
 30
0.0
 10
12.5298144809
 20
8.788828709
 30
0.0
 10
12.5194336952
 20
8.7832835108
 30
0.0
 10
12.5108722755
 20
8.7793385612
 30
0.0
 10
12.5021339464
 20
8.7757193856
 30
0.0
 10
12.4909231078
 20
8.7718276472
 30
0.0
 10
12.4771074238
 20
8.7682006688
 30
0.0
 10
12.4629902793
 20
8.7656312077
 30
0.0
 10
12.4486499032
 20
8.7641334548
 30
0.0
 10
12.4341650721
 20
8.7637153993
 30
0.0
 10
12.4196154857
 20
8.7643791699
 30
0.0
 10
12.4050811121
 20
8.7661209322
 30
0.0
 10
12.3906418116
 20
8.768930945
 30
0.0
 10
12.376376887
 20
8.7727936129
 30
0.0
 10
12.3623646583
 20
8.7776875796
 30
0.0
 10
12.3486820371
 20
8.7835858475
 30
0.0
 10
12.3354041116
 20
8.7904559287
 30
0.0
 10
12.3226037393
 20
8.7982600236
 30
0.0
 10
12.3103511533
 20
8.8069552283
 30
0.0
 10
12.2987135812
 20
8.8164937695
 30
0.0
 10
12.2877548812
 20
8.8268232643
 30
0.0
 10
12.2775351952
 20
8.8378870057
 30
0.0
 10
12.2681106221
 20
8.8496242703
 30
0.0
 10
12.2595329135
 20
8.8619706499
 30
0.0
 10
12.2518491917
 20
8.8748583964
 30
0.0
 10
12.2451016921
 20
8.8882168042
 30
0.0
 10
12.2393275371
 20
8.9019725388
 30
0.0
 10
12.2345585142
 20
8.9160502379
 30
0.0
 10
12.2308209767
 20
8.9303721611
 30
0.0
 10
12.228580234
 20
8.9424614138
 30
0.0
 10
12.227323248
 20
8.9521749912
 30
0.0
 10
12.2264261674
 20
8.9618792713
 30
0.0
 10
12.2261545381
 20
8.9691816799
 30
0.0
 10
12.2261545381
 20
8.9740410246
 30
0.0
  0
SPLINE
  5
40B
100
AcDbEntity
  8
0
100
AcDbSpline
 62
7
  6
CONTINUOUS
 70
0
 71
3
 72
19
 73
15
 74
0
 42
0.0000001
 43
0.0000001
 44
0.0000000001
 40
0.0
 40
0.0
 40
0.0
 40
0.0
 40
0.12732766
 40
0.2538196711
 40
0.3795264658
 40
0.5045235362
 40
0.5668075958
 40
0.6289556124
 40
0.6909843715
 40
0.7529118454
 40
0.8147570127
 40
0.8765397119
 40
0.9382804145
 40
1.0
 40
1.0
 40
1.0
 40
1.0
 10
8.3624510041
 20
9.2419897747
 30
0.0
 10
8.3624510041
 20
9.2482417706
 30
0.0
 10
8.363047932
 20
9.2607133309
 30
0.0
 10
8.3657476122
 20
9.2791810478
 30
0.0
 10
8.3702236587
 20
9.2971838671
 30
0.0
 10
8.3754087943
 20
9.3116808104
 30
0.0
 10
8.3803954754
 20
9.3228717396
 30
0.0
 10
8.3845422472
 20
9.3310389482
 30
0.0
 10
8.3890899461
 20
9.3389694748
 30
0.0
 10
8.3940282216
 20
9.3466452903
 30
0.0
 10
8.3993456802
 20
9.3540485739
 30
0.0
 10
8.4050300676
 20
9.3611623709
 30
0.0
 10
8.4110680947
 20
9.3679700115
 30
0.0
 10
8.4153207385
 20
9.3722946468
 30
0.0
 10
8.4175004633
 20
9.3744000985
 30
0.0
  0
SPLINE
  5
40C
100
AcDbEntity
  8
0
100
AcDbSpline
 62
7
  6
CONTINUOUS
 70
0
 71
3
 72
42
 73
38
 74
0
 42
0.0000001
 43
0.0000001
 44
0.0000000001
 40
0.0
 40
0.0
 40
0.0
 40
0.0
 40
0.0299419644
 40
0.0449235317
 40
0.0599142035
 40
0.0899287023
 40
0.1200139727
 40
0.1350926544
 40
0.1501966973
 40
0.1804840373
 40
0.210897868
 40
0.2414513286
 40
0.2721543342
 40
0.3030133956
 40
0.3340315238
 40
0.3652082165
 40
0.3965395222
 40
0.4280181758
 40
0.459633799
 40
0.4913731572
 40
0.5232204671
 40
0.5551577446
 40
0.5871651885
 40
0.6192215901
 40
0.6513047644
 40
0.683391994
 40
0.715460481
 40
0.7474877999
 40
0.7794523452
 40
0.8113337678
 40
0.8431133918
 40
0.8747746145
 40
0.906303246
 40
0.9376878974
 40
0.9533257627
 40
0.9689252947
 40
1.0
 40
1.0
 40
1.0
 40
1.0
 10
8.6995674535
 20
7.3920123567
 30
0.0
 10
8.6961997512
 20
7.3887594072
 30
0.0
 10
8.6909496953
 20
7.3840770865
 30
0.0
 10
8.6835971374
 20
7.3782672977
 30
0.0
 10
8.6760103727
 20
7.3727466906
 30
0.0
 10
8.6661109468
 20
7.366407163
 30
0.0
 10
8.6557301611
 20
7.3608619648
 30
0.0
 10
8.6471687414
 20
7.3569170152
 30
0.0
 10
8.6384304123
 20
7.3532978396
 30
0.0
 10
8.6272195737
 20
7.3494061012
 30
0.0
 10
8.6134038897
 20
7.3457791228
 30
0.0
 10
8.5992867452
 20
7.3432096617
 30
0.0
 10
8.5849463691
 20
7.3417119088
 30
0.0
 10
8.570461538
 20
7.3412938533
 30
0.0
 10
8.5559119516
 20
7.3419576239
 30
0.0
 10
8.541377578
 20
7.3436993862
 30
0.0
 10
8.5269382775
 20
7.346509399
 30
0.0
 10
8.5126733529
 20
7.3503720669
 30
0.0
 10
8.4986611242
 20
7.3552660336
 30
0.0
 10
8.484978503
 20
7.3611643015
 30
0.0
 10
8.4717005775
 20
7.3680343827
 30
0.0
 10
8.4589002052
 20
7.3758384776
 30
0.0
 10
8.4466476192
 20
7.3845336823
 30
0.0
 10
8.4350100471
 20
7.3940722235
 30
0.0
 10
8.4240513471
 20
7.4044017183
 30
0.0
 10
8.4138316611
 20
7.4154654597
 30
0.0
 10
8.404407088
 20
7.4272027243
 30
0.0
 10
8.3958293794
 20
7.439549104
 30
0.0
 10
8.3881456576
 20
7.4524368504
 30
0.0
 10
8.381398158
 20
7.4657952583
 30
0.0
 10
8.3756240031
 20
7.4795509928
 30
0.0
 10
8.3708549801
 20
7.4936286919
 30
0.0
 10
8.3671174426
 20
7.5079506151
 30
0.0
 10
8.3648766999
 20
7.5200398678
 30
0.0
 10
8.3636197139
 20
7.5297534452
 30
0.0
 10
8.3627226333
 20
7.5394577253
 30
0.0
 10
8.3624510041
 20
7.5467601339
 30
0.0
 10
8.3624510041
 20
7.5516194786
 30
0.0
  0
SPLINE
  5
40D
100
AcDbEntity
  8
0
100
AcDbSpline
 62
7
  6
CONTINUOUS
 70
0
 71
3
 72
42
 73
38
 74
0
 42
0.0000001
 43
0.0000001
 44
0.0000000001
 40
0.0
 40
0.0
 40
0.0
 40
0.0
 40
0.0299419644
 40
0.0449235317
 40
0.0599142035
 40
0.0899287023
 40
0.1200139727
 40
0.1350926544
 40
0.1501966973
 40
0.1804840373
 40
0.210897868
 40
0.2414513286
 40
0.2721543342
 40
0.3030133956
 40
0.3340315238
 40
0.3652082165
 40
0.3965395222
 40
0.4280181758
 40
0.459633799
 40
0.4913731572
 40
0.5232204671
 40
0.5551577446
 40
0.5871651885
 40
0.6192215901
 40
0.6513047644
 40
0.683391994
 40
0.715460481
 40
0.7474877999
 40
0.7794523452
 40
0.8113337678
 40
0.8431133918
 40
0.8747746145
 40
0.906303246
 40
0.9376878974
 40
0.9533257627
 40
0.9689252947
 40
1.0
 40
1.0
 40
1.0
 40
1.0
 10
10.6314192206
 20
7.2580379816
 30
0.0
 10
10.6280515182
 20
7.2547850321
 30
0.0
 10
10.6228014623
 20
7.2501027114
 30
0.0
 10
10.6154489044
 20
7.2442929227
 30
0.0
 10
10.6078621398
 20
7.2387723155
 30
0.0
 10
10.5979627138
 20
7.2324327879
 30
0.0
 10
10.5875819282
 20
7.2268875897
 30
0.0
 10
10.5790205085
 20
7.2229426401
 30
0.0
 10
10.5702821793
 20
7.2193234645
 30
0.0
 10
10.5590713408
 20
7.2154317261
 30
0.0
 10
10.5452556567
 20
7.2118047478
 30
0.0
 10
10.5311385123
 20
7.2092352866
 30
0.0
 10
10.5167981361
 20
7.2077375337
 30
0.0
 10
10.5023133051
 20
7.2073194782
 30
0.0
 10
10.4877637186
 20
7.2079832488
 30
0.0
 10
10.473229345
 20
7.2097250112
 30
0.0
 10
10.4587900445
 20
7.2125350239
 30
0.0
 10
10.44452512
 20
7.2163976918
 30
0.0
 10
10.4305128912
 20
7.2212916585
 30
0.0
 10
10.4168302701
 20
7.2271899265
 30
0.0
 10
10.4035523445
 20
7.2340600076
 30
0.0
 10
10.3907519722
 20
7.2418641025
 30
0.0
 10
10.3784993862
 20
7.2505593072
 30
0.0
 10
10.3668618142
 20
7.2600978485
 30
0.0
 10
10.3559031142
 20
7.2704273432
 30
0.0
 10
10.3456834281
 20
7.2814910846
 30
0.0
 10
10.3362588551
 20
7.2932283493
 30
0.0
 10
10.3276811465
 20
7.3055747289
 30
0.0
 10
10.3199974246
 20
7.3184624753
 30
0.0
 10
10.3132499251
 20
7.3318208832
 30
0.0
 10
10.3074757701
 20
7.3455766177
 30
0.0
 10
10.3027067472
 20
7.3596543168
 30
0.0
 10
10.2989692096
 20
7.3739762401
 30
0.0
 10
10.296728467
 20
7.3860654927
 30
0.0
 10
10.295471481
 20
7.3957790701
 30
0.0
 10
10.2945744003
 20
7.4054833502
 30
0.0
 10
10.2943027711
 20
7.4127857588
 30
0.0
 10
10.2943027711
 20
7.4176451035
 30
0.0
  0
SPLINE
  5
40E
100
AcDbEntity
  8
0
100
AcDbSpline
 62
7
  6
CONTINUOUS
 70
0
 71
3
 72
42
 73
38
 74
0
 42
0.0000001
 43
0.0000001
 44
0.0000000001
 40
0.0
 40
0.0
 40
0.0
 40
0.0
 40
0.0299419644
 40
0.0449235317
 40
0.0599142035
 40
0.0899287023
 40
0.1200139727
 40
0.1350926544
 40
0.1501966973
 40
0.1804840373
 40
0.210897868
 40
0.2414513286
 40
0.2721543342
 40
0.3030133956
 40
0.3340315238
 40
0.3652082165
 40
0.3965395222
 40
0.4280181758
 40
0.459633799
 40
0.4913731572
 40
0.5232204671
 40
0.5551577446
 40
0.5871651885
 40
0.6192215901
 40
0.6513047644
 40
0.683391994
 40
0.715460481
 40
0.7474877999
 40
0.7794523452
 40
0.8113337678
 40
0.8431133918
 40
0.8747746145
 40
0.906303246
 40
0.9376878974
 40
0.9533257627
 40
0.9689252947
 40
1.0
 40
1.0
 40
1.0
 40
1.0
 10
12.5632709876
 20
7.1240636065
 30
0.0
 10
12.5599032852
 20
7.1208106571
 30
0.0
 10
12.5546532294
 20
7.1161283364
 30
0.0
 10
12.5473006715
 20
7.1103185476
 30
0.0
 10
12.5397139068
 20
7.1047979405
 30
0.0
 10
12.5298144809
 20
7.0984584128
 30
0.0
 10
12.5194336952
 20
7.0929132147
 30
0.0
 10
12.5108722755
 20
7.088968265
 30
0.0
 10
12.5021339464
 20
7.0853490895
 30
0.0
 10
12.4909231078
 20
7.081457351
 30
0.0
 10
12.4771074238
 20
7.0778303727
 30
0.0
 10
12.4629902793
 20
7.0752609115
 30
0.0
 10
12.4486499032
 20
7.0737631587
 30
0.0
 10
12.4341650721
 20
7.0733451031
 30
0.0
 10
12.4196154857
 20
7.0740088737
 30
0.0
 10
12.4050811121
 20
7.0757506361
 30
0.0
 10
12.3906418116
 20
7.0785606488
 30
0.0
 10
12.376376887
 20
7.0824233167
 30
0.0
 10
12.3623646583
 20
7.0873172834
 30
0.0
 10
12.3486820371
 20
7.0932155514
 30
0.0
 10
12.3354041116
 20
7.1000856326
 30
0.0
 10
12.3226037393
 20
7.1078897274
 30
0.0
 10
12.3103511533
 20
7.1165849322
 30
0.0
 10
12.2987135812
 20
7.1261234734
 30
0.0
 10
12.2877548812
 20
7.1364529682
 30
0.0
 10
12.2775351952
 20
7.1475167095
 30
0.0
 10
12.2681106221
 20
7.1592539742
 30
0.0
 10
12.2595329135
 20
7.1716003538
 30
0.0
 10
12.2518491917
 20
7.1844881002
 30
0.0
 10
12.2451016921
 20
7.1978465081
 30
0.0
 10
12.2393275371
 20
7.2116022426
 30
0.0
 10
12.2345585142
 20
7.2256799417
 30
0.0
 10
12.2308209767
 20
7.240001865
 30
0.0
 10
12.228580234
 20
7.2520911176
 30
0.0
 10
12.227323248
 20
7.261804695
 30
0.0
 10
12.2264261674
 20
7.2715089752
 30
0.0
 10
12.2261545381
 20
7.2788113837
 30
0.0
 10
12.2261545381
 20
7.2836707284
 30
0.0
  0
SPLINE
  5
40F
100
AcDbEntity
  8
0
100
AcDbSpline
 62
7
  6
CONTINUOUS
 70
0
 71
3
 72
23
 73
19
 74
0
 42
0.0000001
 43
0.0000001
 44
0.0000000001
 40
0.0
 40
0.0
 40
0.0
 40
0.0
 40
0.0755972399
 40
0.1466395047
 40
0.2134649845
 40
0.2765140689
 40
0.3363265565
 40
0.3935467574
 40
0.4489229844
 40
0.5032880879
 40
0.5575259989
 40
0.6125272937
 40
0.6691433527
 40
0.7281488082
 40
0.7902194195
 40
0.8559234935
 40
0.9257264946
 40
1.0
 40
1.0
 40
1.0
 40
1.0
 10
13.0029027571
 20
7.7843667384
 30
0.0
 10
13.001415838
 20
7.7829304849
 30
0.0
 10
12.9984440091
 20
7.7802327725
 30
0.0
 10
12.9938447911
 20
7.7766288326
 30
0.0
 10
12.9892509965
 20
7.7736020101
 30
0.0
 10
12.984666784
 20
7.7711569133
 30
0.0
 10
12.9800960418
 20
7.7692978528
 30
0.0
 10
12.9755434207
 20
7.7680296006
 30
0.0
 10
12.971014951
 20
7.7673564129
 30
0.0
 10
12.9665181404
 20
7.7672816454
 30
0.0
 10
12.9620616407
 20
7.7678062912
 30
0.0
 10
12.9576540902
 20
7.7689288417
 30
0.0
 10
12.9533029831
 20
7.7706455168
 30
0.0
 10
12.9490140579
 20
7.7729512477
 30
0.0
 10
12.9447917106
 20
7.7758408523
 30
0.0
 10
12.9406392787
 20
7.7793092154
 30
0.0
 10
12.9365601853
 20
7.7833512974
 30
0.0
 10
12.9339749115
 20
7.7863294905
 30
0.0
 10
12.9326933437
 20
7.7879052369
 30
0.0
  0
SPLINE
  5
410
100
AcDbEntity
  8
0
100
AcDbSpline
 62
7
  6
CONTINUOUS
 70
0
 71
3
 72
69
 73
65
 74
0
 42
0.0000001
 43
0.0000001
 44
0.0000000001
 40
0.0
 40
0.0
 40
0.0
 40
0.0
 40
0.0027957627
 40
0.0056661822
 40
0.0116863795
 40
0.0148655016
 40
0.0181707672
 40
0.0216114309
 40
0.0251954462
 40
0.0289295608
 40
0.0328195236
 40
0.0368701003
 40
0.0410852169
 40
0.0454681095
 40
0.0500212918
 40
0.0596450013
 40
0.069967155
 40
0.0809908062
 40
0.0927135496
 40
0.1051284592
 40
0.1182248429
 40
0.1319887734
 40
0.1464034587
 40
0.1614496196
 40
0.1771057802
 40
0.1933484635
 40
0.2101523571
 40
0.2274905256
 40
0.2453345529
 40
0.2636546343
 40
0.2824197112
 40
0.3015976079
 40
0.3211551215
 40
0.3410580972
 40
0.3817590477
 40
0.423413134
 40
0.4657232872
 40
0.5083864056
 40
0.5510961576
 40
0.5935457848
 40
0.6354309031
 40
0.6764523244
 40
0.6965481458
 40
0.7163196566
 40
0.7357322043
 40
0.7547519935
 40
0.7733461923
 40
0.7914830645
 40
0.8091320442
 40
0.8262638388
 40
0.842850586
 40
0.8588659934
 40
0.874285453
 40
0.8890862178
 40
0.9032476547
 40
0.9167514495
 40
0.929581878
 40
0.9417262009
 40
0.9531751503
 40
0.9639235131
 40
0.9739708601
 40
0.9833225851
 40
0.991991883
 40
1.0
 40
1.0
 40
1.0
 40
1.0
 10
12.9627369861
 20
8.7569343259
 30
0.0
 10
12.9635528159
 20
8.7566471745
 30
0.0
 10
12.9651829043
 20
8.755996442
 30
0.0
 10
12.9684282499
 20
8.7543970233
 30
0.0
 10
12.9715835106
 20
8.7523738566
 30
0.0
 10
12.9746292346
 20
8.7499866313
 30
0.0
 10
12.9769305194
 20
8.7479511942
 30
0.0
 10
12.9792053694
 20
8.745704809
 30
0.0
 10
12.9814531498
 20
8.7432483969
 30
0.0
 10
12.9836728616
 20
8.7405832393
 30
0.0
 10
12.9858635152
 20
8.7377105454
 30
0.0
 10
12.9880241652
 20
8.7346316955
 30
0.0
 10
12.9901538609
 20
8.7313481469
 30
0.0
 10
12.9922516151
 20
8.7278614021
 30
0.0
 10
12.995056682
 20
8.7228507514
 30
0.0
 10
12.9984651782
 20
8.7160768831
 30
0.0
 10
13.0023402595
 20
8.7073113049
 30
0.0
 10
13.0060653993
 20
8.6977805397
 30
0.0
 10
13.0096335744
 20
8.6875025396
 30
0.0
 10
13.0130380415
 20
8.6764964344
 30
0.0
 10
13.0162722684
 20
8.6647829583
 30
0.0
 10
13.0193300099
 20
8.6523842476
 30
0.0
 10
13.0222053724
 20
8.6393238399
 30
0.0
 10
13.0248927974
 20
8.6256265866
 30
0.0
 10
13.0273870709
 20
8.6113185879
 30
0.0
 10
13.0296833512
 20
8.5964271476
 30
0.0
 10
13.0317772038
 20
8.5809807185
 30
0.0
 10
13.0336645706
 20
8.5650088299
 30
0.0
 10
13.035341781
 20
8.5485420262
 30
0.0
 10
13.0368055872
 20
8.5316118181
 30
0.0
 10
13.0380531633
 20
8.5142506138
 30
0.0
 10
13.0390820788
 20
8.4964916574
 30
0.0
 10
13.0398903512
 20
8.4783689249
 30
0.0
 10
13.0406774948
 20
8.4535823308
 30
0.0
 10
13.0410897667
 20
8.4219473709
 30
0.0
 10
13.0406883273
 20
8.3833800942
 30
0.0
 10
13.0393968559
 20
8.3442250205
 30
0.0
 10
13.0372250863
 20
8.3047819355
 30
0.0
 10
13.03418955
 20
8.2653526441
 30
0.0
 10
13.0303135371
 20
8.2262388441
 30
0.0
 10
13.0256268058
 20
8.1877399948
 30
0.0
 10
13.0210451014
 20
8.156203243
 30
0.0
 10
13.0169930196
 20
8.1315094224
 30
0.0
 10
13.0137962643
 20
8.1134510073
 30
0.0
 10
13.0104273112
 20
8.0957626696
 30
0.0
 10
13.0068926018
 20
8.0784782591
 30
0.0
 10
13.0031989304
 20
8.0616308774
 30
0.0
 10
12.9993534114
 20
8.0452527658
 30
0.0
 10
12.9953634453
 20
8.0293752631
 30
0.0
 10
12.9912366976
 20
8.0140287468
 30
0.0
 10
12.9869811107
 20
7.9992425575
 30
0.0
 10
12.9826048865
 20
7.9850449394
 30
0.0
 10
12.9781164473
 20
7.9714629974
 30
0.0
 10
12.9735244158
 20
7.9585226376
 30
0.0
 10
12.9688376365
 20
7.94624849
 30
0.0
 10
12.964065122
 20
7.9346638649
 30
0.0
 10
12.959216018
 20
7.9237907122
 30
0.0
 10
12.9542995801
 20
7.9136495511
 30
0.0
 10
12.9493251766
 20
7.9042593907
 30
0.0
 10
12.9443021494
 20
7.8956376914
 30
0.0
 10
12.9392398447
 20
7.8878004339
 30
0.0
 10
12.9341472121
 20
7.8807615734
 30
0.0
 10
12.9290336247
 20
7.8745344876
 30
0.0
 10
12.9254786941
 20
7.8707867544
 30
0.0
 10
12.9236968346
 20
7.8690656103
 30
0.0
  0
SPLINE
  5
411
100
AcDbEntity
  8
0
100
AcDbSpline
 62
7
  6
CONTINUOUS
 70
0
 71
3
 72
91
 73
87
 74
0
 42
0.0000001
 43
0.0000001
 44
0.0000000001
 40
0.0
 40
0.0
 40
0.0
 40
0.0
 40
0.0039488015
 40
0.0077209331
 40
0.0113256819
 40
0.0147746019
 40
0.0212567658
 40
0.0243283152
 40
0.0273114065
 40
0.0302282841
 40
0.0331028744
 40
0.0359602763
 40
0.0388260741
 40
0.0417256118
 40
0.0446832887
 40
0.0477219744
 40
0.0508625685
 40
0.0541238092
 40
0.0575221299
 40
0.0610717921
 40
0.0647849438
 40
0.0686718492
 40
0.0727410776
 40
0.0769996588
 40
0.0814533528
 40
0.0861066974
 40
0.0909632799
 40
0.096025756
 40
0.101296025
 40
0.1067753105
 40
0.1124641923
 40
0.1183627698
 40
0.1244705899
 40
0.1307868294
 40
0.1373102246
 40
0.150971258
 40
0.1654376565
 40
0.180688312
 40
0.1966982523
 40
0.2134391186
 40
0.2308795483
 40
0.2489854884
 40
0.2677204706
 40
0.2870458502
 40
0.3069210158
 40
0.3273035826
 40
0.3481495711
 40
0.3694135761
 40
0.3910489271
 40
0.4130078492
 40
0.4352416181
 40
0.4577007106
 40
0.4803349532
 40
0.5030936693
 40
0.5487793245
 40
0.5943486269
 40
0.6169622232
 40
0.63939388
 40
0.6615935013
 40
0.6835116605
 40
0.7050997529
 40
0.7263101462
 40
0.7470963337
 40
0.7674130922
 40
0.7872166448
 40
0.8064648314
 40
0.8251172911
 40
0.8431356621
 40
0.8604837921
 40
0.8771279774
 40
0.8930372383
 40
0.9081836444
 40
0.9225427094
 40
0.9360938851
 40
0.9425616161
 40
0.948821818
 40
0.9548733438
 40
0.9607154415
 40
0.9663478531
 40
0.9717707504
 40
0.9769849049
 40
0.9819916518
 40
0.986793165
 40
0.9913924601
 40
0.9957932483
 40
1.0
 40
1.0
 40
1.0
 40
1.0
 10
13.004210961
 20
8.8191479892
 30
0.0
 10
13.0053147236
 20
8.82017521
 30
0.0
 10
13.0075213263
 20
8.8221326313
 30
0.0
 10
13.0109069967
 20
8.8248265375
 30
0.0
 10
13.0142896255
 20
8.8272077405
 30
0.0
 10
13.0186998417
 20
8.8299068708
 30
0.0
 10
13.0231994177
 20
8.8320594177
 30
0.0
 10
13.0277466155
 20
8.8335715817
 30
0.0
 10
13.0310838933
 20
8.8343655587
 30
0.0
 10
13.034405816
 20
8.8348382385
 30
0.0
 10
13.0377100502
 20
8.8349887756
 30
0.0
 10
13.0409937982
 20
8.834816893
 30
0.0
 10
13.0442542655
 20
8.8343225754
 30
0.0
 10
13.0474887312
 20
8.8335065118
 30
0.0
 10
13.0506946939
 20
8.8323697206
 30
0.0
 10
13.0538699012
 20
8.8309135109
 30
0.0
 10
13.0570124404
 20
8.8291394888
 30
0.0
 10
13.0601204983
 20
8.827049169
 30
0.0
 10
13.0631925451
 20
8.8246443291
 30
0.0
 10
13.0662269783
 20
8.8219266055
 30
0.0
 10
13.069222334
 20
8.8188978398
 30
0.0
 10
13.0721770873
 20
8.8155598992
 30
0.0
 10
13.0750896819
 20
8.8119147756
 30
0.0
 10
13.0779586287
 20
8.8079646545
 30
0.0
 10
13.0807822839
 20
8.8037117995
 30
0.0
 10
13.0835591614
 20
8.7991587365
 30
0.0
 10
13.0862876169
 20
8.7943080872
 30
0.0
 10
13.0889661294
 20
8.7891627105
 30
0.0
 10
13.0915931325
 20
8.7837256171
 30
0.0
 10
13.0941670661
 20
8.7779999998
 30
0.0
 10
13.0966864638
 20
8.7719892488
 30
0.0
 10
13.0991497676
 20
8.7656968993
 30
0.0
 10
13.101555577
 20
8.7591266982
 30
0.0
 10
13.1039024281
 20
8.7522825212
 30
0.0
 10
13.1069987912
 20
8.7426483686
 30
0.0
 10
13.1106987
 20
8.729942191
 30
0.0
 10
13.1148167064
 20
8.713896335
 30
0.0
 10
13.1186684197
 20
8.6968638806
 30
0.0
 10
13.1222445319
 20
8.6788854147
 30
0.0
 10
13.12553636
 20
8.6600036149
 30
0.0
 10
13.1285359134
 20
8.6402634692
 30
0.0
 10
13.131235911
 20
8.6197120537
 30
0.0
 10
13.1336297987
 20
8.5983984335
 30
0.0
 10
13.1357117644
 20
8.5763735256
 30
0.0
 10
13.1374767523
 20
8.5536899722
 30
0.0
 10
13.1389204735
 20
8.5304020092
 30
0.0
 10
13.1400394164
 20
8.5065653332
 30
0.0
 10
13.1408308535
 20
8.4822369669
 30
0.0
 10
13.1412928521
 20
8.4574751198
 30
0.0
 10
13.1414242734
 20
8.4323390475
 30
0.0
 10
13.1412247778
 20
8.4068889014
 30
0.0
 10
13.1406948131
 20
8.3811856035
 30
0.0
 10
13.1398356567
 20
8.3552906265
 30
0.0
 10
13.1382518372
 20
8.3205486455
 30
0.0
 10
13.135468408
 20
8.2770982822
 30
0.0
 10
13.1316311116
 20
8.2337838546
 30
0.0
 10
13.1279362711
 20
8.1993808073
 30
0.0
 10
13.124873327
 20
8.1738867443
 30
0.0
 10
13.1215190854
 20
8.1486972468
 30
0.0
 10
13.1178815604
 20
8.1238725585
 30
0.0
 10
13.1139694962
 20
8.0994720943
 30
0.0
 10
13.1097922874
 20
8.0755542332
 30
0.0
 10
13.1053599707
 20
8.0521761941
 30
0.0
 10
13.1006831982
 20
8.0293938938
 30
0.0
 10
13.095773213
 20
8.0072618121
 30
0.0
 10
13.0906418225
 20
7.9858328579
 30
0.0
 10
13.0853013696
 20
7.9651582367
 30
0.0
 10
13.0797647078
 20
7.9452873199
 30
0.0
 10
13.0740451653
 20
7.9262675221
 30
0.0
 10
13.0681565111
 20
7.9081441727
 30
0.0
 10
13.0621129198
 20
7.890960424
 30
0.0
 10
13.0559289269
 20
7.8747570296
 30
0.0
 10
13.0496193951
 20
7.8595725778
 30
0.0
 10
13.0441883079
 20
7.8476187202
 30
0.0
 10
13.0397824999
 20
7.8386027098
 30
0.0
 10
13.0365076217
 20
7.8322229226
 30
0.0
 10
13.0332127314
 20
7.8261236185
 30
0.0
 10
13.029899724
 20
7.8203084192
 30
0.0
 10
13.026570623
 20
7.8147807442
 30
0.0
 10
13.0232273273
 20
7.8095438946
 30
0.0
 10
13.0198718926
 20
7.8046009368
 30
0.0
 10
13.0165062274
 20
7.7999547913
 30
0.0
 10
13.0131322754
 20
7.7956081412
 30
0.0
 10
13.0097519057
 20
7.7915634875
 30
0.0
 10
13.0063672344
 20
7.787823433
 30
0.0
 10
13.0040580956
 20
7.7854827098
 30
0.0
 10
13.0029027571
 20
7.7843667384
 30
0.0
  0
SPLINE
  5
412
100
AcDbEntity
  8
0
100
AcDbSpline
 62
7
  6
CONTINUOUS
 70
0
 71
3
 72
15
 73
11
 74
0
 42
0.0000001
 43
0.0000001
 44
0.0000000001
 40
0.0
 40
0.0
 40
0.0
 40
0.0
 40
0.1453413074
 40
0.2840012477
 40
0.4163097308
 40
0.5426794222
 40
0.6636093109
 40
0.7796801499
 40
0.8915590814
 40
1.0
 40
1.0
 40
1.0
 40
1.0
 10
12.9236968346
 20
7.8690656103
 30
0.0
 10
12.922736084
 20
7.8681375964
 30
0.0
 10
12.9208153556
 20
7.8663683167
 30
0.0
 10
12.9178656997
 20
7.8639284073
 30
0.0
 10
12.9149185645
 20
7.8617682186
 30
0.0
 10
12.9119757407
 20
7.8598894477
 30
0.0
 10
12.9090388417
 20
7.8582934405
 30
0.0
 10
12.906109314
 20
7.8569815814
 30
0.0
 10
12.9031892721
 20
7.8559551484
 30
0.0
 10
12.9012235875
 20
7.8554553753
 30
0.0
 10
12.9002470915
 20
7.8552560794
 30
0.0
  0
SPLINE
  5
413
100
AcDbEntity
  8
0
100
AcDbSpline
 62
7
  6
CONTINUOUS
 70
0
 71
3
 72
19
 73
15
 74
0
 42
0.0000001
 43
0.0000001
 44
0.0000000001
 40
0.0
 40
0.0
 40
0.0
 40
0.0
 40
0.12732766
 40
0.2538196711
 40
0.3795264658
 40
0.5045235362
 40
0.5668075958
 40
0.6289556124
 40
0.6909843715
 40
0.7529118454
 40
0.8147570127
 40
0.8765397119
 40
0.9382804145
 40
1.0
 40
1.0
 40
1.0
 40
1.0
 10
12.2261545381
 20
8.9740410246
 30
0.0
 10
12.2261545381
 20
8.9802930205
 30
0.0
 10
12.2267514661
 20
8.9927645807
 30
0.0
 10
12.2294511463
 20
9.0112322976
 30
0.0
 10
12.2339271928
 20
9.0292351169
 30
0.0
 10
12.2391123284
 20
9.0437320602
 30
0.0
 10
12.2440990095
 20
9.0549229894
 30
0.0
 10
12.2482457813
 20
9.063090198
 30
0.0
 10
12.2527934802
 20
9.0710207247
 30
0.0
 10
12.2577317557
 20
9.0786965401
 30
0.0
 10
12.2630492143
 20
9.0860998237
 30
0.0
 10
12.2687336017
 20
9.0932136208
 30
0.0
 10
12.2747716288
 20
9.1000212613
 30
0.0
 10
12.2790242726
 20
9.1043458967
 30
0.0
 10
12.2812039974
 20
9.1064513483
 30
0.0
  0
SPLINE
  5
414
100
AcDbEntity
  8
0
100
AcDbSpline
 62
7
  6
CONTINUOUS
 70
0
 71
3
 72
19
 73
15
 74
0
 42
0.0000001
 43
0.0000001
 44
0.0000000001
 40
0.0
 40
0.0
 40
0.0
 40
0.0
 40
0.12732766
 40
0.2538196711
 40
0.3795264658
 40
0.5045235362
 40
0.5668075958
 40
0.6289556124
 40
0.6909843715
 40
0.7529118454
 40
0.8147570127
 40
0.8765397119
 40
0.9382804145
 40
1.0
 40
1.0
 40
1.0
 40
1.0
 10
8.3624510041
 20
7.5516194786
 30
0.0
 10
8.3624510041
 20
7.5578714745
 30
0.0
 10
8.363047932
 20
7.5703430347
 30
0.0
 10
8.3657476122
 20
7.5888107516
 30
0.0
 10
8.3702236587
 20
7.6068135709
 30
0.0
 10
8.3754087943
 20
7.6213105142
 30
0.0
 10
8.3803954754
 20
7.6325014434
 30
0.0
 10
8.3845422472
 20
7.640668652
 30
0.0
 10
8.3890899461
 20
7.6485991787
 30
0.0
 10
8.3940282216
 20
7.6562749941
 30
0.0
 10
8.3993456802
 20
7.6636782777
 30
0.0
 10
8.4050300676
 20
7.6707920748
 30
0.0
 10
8.4110680947
 20
7.6775997154
 30
0.0
 10
8.4153207385
 20
7.6819243507
 30
0.0
 10
8.4175004633
 20
7.6840298023
 30
0.0
  0
SPLINE
  5
415
100
AcDbEntity
  8
0
100
AcDbSpline
 62
7
  6
CONTINUOUS
 70
0
 71
3
 72
19
 73
15
 74
0
 42
0.0000001
 43
0.0000001
 44
0.0000000001
 40
0.0
 40
0.0
 40
0.0
 40
0.0
 40
0.12732766
 40
0.2538196711
 40
0.3795264658
 40
0.5045235362
 40
0.5668075958
 40
0.6289556124
 40
0.6909843715
 40
0.7529118454
 40
0.8147570127
 40
0.8765397119
 40
0.9382804145
 40
1.0
 40
1.0
 40
1.0
 40
1.0
 10
10.2943027711
 20
9.1080153996
 30
0.0
 10
10.2943027711
 20
9.1142673956
 30
0.0
 10
10.2948996991
 20
9.1267389558
 30
0.0
 10
10.2975993793
 20
9.1452066727
 30
0.0
 10
10.3020754258
 20
9.163209492
 30
0.0
 10
10.3072605614
 20
9.1777064353
 30
0.0
 10
10.3122472425
 20
9.1888973645
 30
0.0
 10
10.3163940142
 20
9.1970645731
 30
0.0
 10
10.3209417132
 20
9.2049950998
 30
0.0
 10
10.3258799886
 20
9.2126709152
 30
0.0
 10
10.3311974473
 20
9.2200741988
 30
0.0
 10
10.3368818347
 20
9.2271879959
 30
0.0
 10
10.3429198618
 20
9.2339956364
 30
0.0
 10
10.3471725056
 20
9.2383202718
 30
0.0
 10
10.3493522303
 20
9.2404257234
 30
0.0
  0
SPLINE
  5
416
100
AcDbEntity
  8
0
100
AcDbSpline
 62
7
  6
CONTINUOUS
 70
0
 71
3
 72
19
 73
15
 74
0
 42
0.0000001
 43
0.0000001
 44
0.0000000001
 40
0.0
 40
0.0
 40
0.0
 40
0.0
 40
0.12732766
 40
0.2538196711
 40
0.3795264658
 40
0.5045235362
 40
0.5668075958
 40
0.6289556124
 40
0.6909843715
 40
0.7529118454
 40
0.8147570127
 40
0.8765397119
 40
0.9382804145
 40
1.0
 40
1.0
 40
1.0
 40
1.0
 10
10.2943027711
 20
7.4176451035
 30
0.0
 10
10.2943027711
 20
7.4238970994
 30
0.0
 10
10.2948996991
 20
7.4363686596
 30
0.0
 10
10.2975993793
 20
7.4548363766
 30
0.0
 10
10.3020754258
 20
7.4728391958
 30
0.0
 10
10.3072605614
 20
7.4873361391
 30
0.0
 10
10.3122472425
 20
7.4985270683
 30
0.0
 10
10.3163940142
 20
7.5066942769
 30
0.0
 10
10.3209417132
 20
7.5146248036
 30
0.0
 10
10.3258799886
 20
7.522300619
 30
0.0
 10
10.3311974473
 20
7.5297039026
 30
0.0
 10
10.3368818347
 20
7.5368176997
 30
0.0
 10
10.3429198618
 20
7.5436253403
 30
0.0
 10
10.3471725056
 20
7.5479499756
 30
0.0
 10
10.3493522303
 20
7.5500554272
 30
0.0
  0
SPLINE
  5
417
100
AcDbEntity
  8
0
100
AcDbSpline
 62
7
  6
CONTINUOUS
 70
0
 71
3
 72
39
 73
35
 74
0
 42
0.0000001
 43
0.0000001
 44
0.0000000001
 40
0.0
 40
0.0
 40
0.0
 40
0.0
 40
0.0310589964
 40
0.0622733271
 40
0.0936386203
 40
0.1251464394
 40
0.1567858343
 40
0.1885430821
 40
0.2204021131
 40
0.252344835
 40
0.2843515082
 40
0.3164011426
 40
0.3484719117
 40
0.3805415785
 40
0.4125879274
 40
0.4445891959
 40
0.4765244994
 40
0.5083742433
 40
0.5401205188
 40
0.5717474743
 40
0.603241654
 40
0.6345922989
 40
0.6657916025
 40
0.6968349155
 40
0.7277208919
 40
0.758451567
 40
0.7890323639
 40
0.8194720236
 40
0.8497824576
 40
0.8799785203
 40
0.9100777024
 40
0.9400997508
 40
0.9700662253
 40
1.0
 40
1.0
 40
1.0
 40
1.0
 10
9.1166521327
 20
7.8399003565
 30
0.0
 10
9.1166521327
 20
7.8297159849
 30
0.0
 10
9.1174029183
 20
7.809288649
 30
0.0
 10
9.1207554068
 20
7.7787422355
 30
0.0
 10
9.1263185348
 20
7.7483691874
 30
0.0
 10
9.134062286
 20
7.7183345143
 30
0.0
 10
9.1439447752
 20
7.6887987694
 30
0.0
 10
9.1559128057
 20
7.6599204538
 30
0.0
 10
9.1699019795
 20
7.6318543289
 30
0.0
 10
9.1858371146
 20
7.6047508323
 30
0.0
 10
9.2036326478
 20
7.5787552241
 30
0.0
 10
9.2231930881
 20
7.5540068352
 30
0.0
 10
9.244413529
 20
7.5306383307
 30
0.0
 10
9.2671801844
 20
7.5087749905
 30
0.0
 10
9.2913709946
 20
7.4885340376
 30
0.0
 10
9.3168562959
 20
7.4700240383
 30
0.0
 10
9.3434995008
 20
7.4533443206
 30
0.0
 10
9.3711578228
 20
7.438584451
 30
0.0
 10
9.3996830243
 20
7.4258237472
 30
0.0
 10
9.4289221929
 20
7.415130827
 30
0.0
 10
9.4587185691
 20
7.4065632752
 30
0.0
 10
9.4889123694
 20
7.4001673281
 30
0.0
 10
9.5193416303
 20
7.3959776204
 30
0.0
 10
9.5498430628
 20
7.3940169927
 30
0.0
 10
9.5802529167
 20
7.394296314
 30
0.0
 10
9.6104078586
 20
7.3968144463
 30
0.0
 10
9.640145839
 20
7.4015582348
 30
0.0
 10
9.6693069638
 20
7.4085025596
 30
0.0
 10
9.6977343374
 20
7.4176104424
 30
0.0
 10
9.725274983
 20
7.4288332362
 30
0.0
 10
9.7517804726
 20
7.4421107017
 30
0.0
 10
9.7771085042
 20
7.4573720272
 30
0.0
 10
9.8011208362
 20
7.4745336187
 30
0.0
 10
9.8161743182
 20
7.4871875421
 30
0.0
 10
9.8234339059
 20
7.4937936452
 30
0.0
  0
SPLINE
  5
418
100
AcDbEntity
  8
0
100
AcDbSpline
 62
7
  6
CONTINUOUS
 70
0
 71
3
 72
23
 73
19
 74
0
 42
0.0000001
 43
0.0000001
 44
0.0000000001
 40
0.0
 40
0.0
 40
0.0
 40
0.0
 40
0.0637492644
 40
0.1272977347
 40
0.1906427853
 40
0.2537920744
 40
0.3167507142
 40
0.3795265697
 40
0.4421291709
 40
0.5045694472
 40
0.5668598756
 40
0.6290142932
 40
0.6910477961
 40
0.7529766026
 40
0.8148179011
 40
0.8765897052
 40
0.9383106877
 40
1.0
 40
1.0
 40
1.0
 40
1.0
 10
9.1166521327
 20
7.8399003565
 30
0.0
 10
9.1166521327
 20
7.8462932025
 30
0.0
 10
9.1169466626
 20
7.8590607631
 30
0.0
 10
9.1182758303
 20
7.8781389871
 30
0.0
 10
9.1204891407
 20
7.8970748649
 30
0.0
 10
9.1235816542
 20
7.9158271706
 30
0.0
 10
9.1275469909
 20
7.9343562273
 30
0.0
 10
9.1323766445
 20
7.9526223624
 30
0.0
 10
9.1380603231
 20
7.9705865995
 30
0.0
 10
9.1445859487
 20
7.9882105696
 30
0.0
 10
9.1519396441
 20
8.005456612
 30
0.0
 10
9.1601057028
 20
8.0222878993
 30
0.0
 10
9.1690666977
 20
8.0386684776
 30
0.0
 10
9.1788035308
 20
8.0545633526
 30
0.0
 10
9.1892954225
 20
8.0699385096
 30
0.0
 10
9.2005200566
 20
8.0847612288
 30
0.0
 10
9.2124530401
 20
8.0989994178
 30
0.0
 10
9.220865924
 20
8.1080840125
 30
0.0
 10
9.2251803399
 20
8.1125174956
 30
0.0
  0
LINE
  5
419
100
AcDbEntity
  8
0
100
AcDbLine
 62
7
  6
CONTINUOUS
 10
9.2251803399
 20
8.1125174956
 11
9.2254894352
 21
8.1128347457
  0
SPLINE
  5
41A
100
AcDbEntity
  8
0
100
AcDbSpline
 62
7
  6
CONTINUOUS
 70
0
 71
3
 72
71
 73
67
 74
0
 42
0.0000001
 43
0.0000001
 44
0.0000000001
 40
0.0
 40
0.0
 40
0.0
 40
0.0
 40
0.0155841267
 40
0.0311159948
 40
0.046595237
 40
0.0620238811
 40
0.0774034528
 40
0.0927362808
 40
0.108025123
 40
0.1232731726
 40
0.1384840554
 40
0.1536617766
 40
0.1688106897
 40
0.1839354524
 40
0.1990409778
 40
0.2141323823
 40
0.2292149324
 40
0.2442939895
 40
0.2593749535
 40
0.2744632036
 40
0.2895640407
 40
0.3046826304
 40
0.3198239505
 40
0.3349927386
 40
0.3501934431
 40
0.3654301773
 40
0.3807066784
 40
0.3960262749
 40
0.4113918546
 40
0.4268058385
 40
0.4422701591
 40
0.4577862482
 40
0.4733550284
 40
0.4889769089
 40
0.5046517849
 40
0.520379043
 40
0.5361575757
 40
0.5519857956
 40
0.567861654
 40
0.5837826618
 40
0.599745918
 40
0.6157481409
 40
0.631785699
 40
0.6478546447
 40
0.6639507505
 40
0.6800695507
 40
0.6962063813
 40
0.7123564198
 40
0.7285147273
 40
0.7446762932
 40
0.7608360797
 40
0.7769890647
 40
0.7931302839
 40
0.8092548751
 40
0.8253581231
 40
0.8414355003
 40
0.8574827061
 40
0.8734957059
 40
0.8894707697
 40
0.9054045141
 40
0.921293915
 40
0.9371363644
 40
0.9529297309
 40
0.9686720281
 40
0.9843627508
 40
1.0
 40
1.0
 40
1.0
 40
1.0
 10
9.1292091692
 20
7.8390295231
 30
0.0
 10
9.1292091692
 20
7.8456160894
 30
0.0
 10
9.1295315288
 20
7.8587694699
 30
0.0
 10
9.1309865423
 20
7.8784166372
 30
0.0
 10
9.1334090269
 20
7.8979024598
 30
0.0
 10
9.1367929208
 20
7.917179113
 30
0.0
 10
9.1411303137
 20
7.9362005024
 30
0.0
 10
9.1464107362
 20
7.9549206497
 30
0.0
 10
9.1526214922
 20
7.9732944596
 30
0.0
 10
9.1597476554
 20
7.9912776246
 30
0.0
 10
9.1677720874
 20
8.0088267736
 30
0.0
 10
9.1766755046
 20
8.0258995648
 30
0.0
 10
9.1864364484
 20
8.0424548219
 30
0.0
 10
9.1970313933
 20
8.0584526154
 30
0.0
 10
9.20843481
 20
8.0738543513
 30
0.0
 10
9.2206192272
 20
8.0886228597
 30
0.0
 10
9.2335552757
 20
8.1027225003
 30
0.0
 10
9.2472117364
 20
8.1161192785
 30
0.0
 10
9.2615556675
 20
8.128780885
 30
0.0
 10
9.2765524722
 20
8.1406767808
 30
0.0
 10
9.2921659887
 20
8.1517782588
 30
0.0
 10
9.3083585386
 20
8.1620585674
 30
0.0
 10
9.3250910466
 20
8.17149295
 30
0.0
 10
9.3423231486
 20
8.1800586814
 30
0.0
 10
9.3600132849
 20
8.1877351229
 30
0.0
 10
9.3781187934
 20
8.1945037801
 30
0.0
 10
9.3965959973
 20
8.2003483996
 30
0.0
 10
9.4154003405
 20
8.2052549421
 30
0.0
 10
9.434486489
 20
8.2092116236
 30
0.0
 10
9.4538084394
 20
8.2122089287
 30
0.0
 10
9.4733196186
 20
8.2142396871
 30
0.0
 10
9.4929730056
 20
8.2152990784
 30
0.0
 10
9.5127212491
 20
8.2153846009
 30
0.0
 10
9.5325167768
 20
8.2144960861
 30
0.0
 10
9.5523119047
 20
8.2126356958
 30
0.0
 10
9.5720589595
 20
8.2098079826
 30
0.0
 10
9.5917103915
 20
8.2060198105
 30
0.0
 10
9.6112188863
 20
8.201280341
 30
0.0
 10
9.6305374716
 20
8.1956010022
 30
0.0
 10
9.6496196375
 20
8.1889955005
 30
0.0
 10
9.6684194583
 20
8.1814797968
 30
0.0
 10
9.6868916854
 20
8.1730720161
 30
0.0
 10
9.7049918569
 20
8.1637924175
 30
0.0
 10
9.7226763955
 20
8.1536633381
 30
0.0
 10
9.7399027473
 20
8.1427091986
 30
0.0
 10
9.7566294613
 20
8.1309563951
 30
0.0
 10
9.7728162822
 20
8.1184332292
 30
0.0
 10
9.788424241
 20
8.1051698397
 30
0.0
 10
9.8034157617
 20
8.0911981509
 30
0.0
 10
9.8177547785
 20
8.0765518181
 30
0.0
 10
9.8314067804
 20
8.0612660994
 30
0.0
 10
9.8443389007
 20
8.0453777833
 30
0.0
 10
9.856519983
 20
8.0289250945
 30
0.0
 10
9.8679207065
 20
8.0119476412
 30
0.0
 10
9.8785136323
 20
7.9944862942
 30
0.0
 10
9.888273248
 20
7.9765830773
 30
0.0
 10
9.8971760294
 20
7.9582810722
 30
0.0
 10
9.9052005035
 20
7.939624322
 30
0.0
 10
9.9123273548
 20
7.9206577436
 30
0.0
 10
9.9185393999
 20
7.9014269907
 30
0.0
 10
9.9238216532
 20
7.8819783577
 30
0.0
 10
9.9281613488
 20
7.8623586267
 30
0.0
 10
9.9315479361
 20
7.8426151604
 30
0.0
 10
9.9339734121
 20
7.8227951247
 30
0.0
 10
9.9354316236
 20
7.8029471266
 30
0.0
 10
9.935757282
 20
7.7897042399
 30
0.0
 10
9.935757282
 20
7.7830952215
 30
0.0
  0
SPLINE
  5
41B
100
AcDbEntity
  8
0
100
AcDbSpline
 62
7
  6
CONTINUOUS
 70
0
 71
3
 72
23
 73
19
 74
0
 42
0.0000001
 43
0.0000001
 44
0.0000000001
 40
0.0
 40
0.0
 40
0.0
 40
0.0
 40
0.0637769127
 40
0.127344953
 40
0.1907019652
 40
0.2538561227
 40
0.3168132057
 40
0.3795820872
 40
0.4421733866
 40
0.5045993385
 40
0.5668738691
 40
0.6290123824
 40
0.6910316505
 40
0.7529496453
 40
0.8147853569
 40
0.8765586065
 40
0.9382898561
 40
1.0
 40
1.0
 40
1.0
 40
1.0
 10
9.1440584083
 20
7.8428727875
 30
0.0
 10
9.1440584083
 20
7.8491522723
 30
0.0
 10
9.1443589809
 20
7.8616928039
 30
0.0
 10
9.1457155547
 20
7.8804273048
 30
0.0
 10
9.1479742885
 20
7.8990133114
 30
0.0
 10
9.1511297542
 20
7.9174071661
 30
0.0
 10
9.1551749169
 20
7.9355668284
 30
0.0
 10
9.1601004209
 20
7.9534503188
 30
0.0
 10
9.165894936
 20
7.9710164387
 30
0.0
 10
9.1725451533
 20
7.9882246798
 30
0.0
 10
9.180035797
 20
8.0050353427
 30
0.0
 10
9.1883496274
 20
8.0214096516
 30
0.0
 10
9.1974674722
 20
8.0373098452
 30
0.0
 10
9.207368337
 20
8.0526992534
 30
0.0
 10
9.2180293937
 20
8.0675423269
 30
0.0
 10
9.2294261991
 20
8.0818049295
 30
0.0
 10
9.2415320034
 20
8.0954537244
 30
0.0
 10
9.2500581845
 20
8.1041243444
 30
0.0
 10
9.2544283774
 20
8.1083456089
 30
0.0
  0
SPLINE
  5
41C
100
AcDbEntity
  8
0
100
AcDbSpline
 62
7
  6
CONTINUOUS
 70
0
 71
3
 72
21
 73
17
 74
0
 42
0.0000001
 43
0.0000001
 44
0.0000000001
 40
0.0
 40
0.0
 40
0.0
 40
0.0
 40
0.1272074726
 40
0.2536500371
 40
0.3166117841
 40
0.379397922
 40
0.4420167787
 40
0.5044777347
 40
0.5667915347
 40
0.6289701522
 40
0.6910266516
 40
0.7529751329
 40
0.8148306086
 40
0.8766088636
 40
0.9383263384
 40
1.0
 40
1.0
 40
1.0
 40
1.0
 10
9.1797271287
 20
7.8773261278
 30
0.0
 10
9.1797271287
 20
7.8887867539
 30
0.0
 10
9.1807274484
 20
7.9116513729
 30
0.0
 10
9.1845036751
 20
7.9399651659
 30
0.0
 10
9.1890208159
 20
7.9622391788
 30
0.0
 10
9.1931431604
 20
7.9787078114
 30
0.0
 10
9.1979964777
 20
7.9949287014
 30
0.0
 10
9.2035715128
 20
8.0108709628
 30
0.0
 10
9.2098574851
 20
8.026503808
 30
0.0
 10
9.2168423291
 20
8.0417971453
 30
0.0
 10
9.2245126599
 20
8.0567214769
 30
0.0
 10
9.2328536711
 20
8.0712480826
 30
0.0
 10
9.2418492828
 20
8.0853489528
 30
0.0
 10
9.2514823158
 20
8.0989969802
 30
0.0
 10
9.2617338802
 20
8.1121655126
 30
0.0
 10
9.2689700998
 20
8.1206110968
 30
0.0
 10
9.2726835385
 20
8.1247444044
 30
0.0
  0
SPLINE
  5
41D
100
AcDbEntity
  8
0
100
AcDbSpline
 62
7
  6
CONTINUOUS
 70
0
 71
3
 72
23
 73
19
 74
0
 42
0.0000001
 43
0.0000001
 44
0.0000000001
 40
0.0
 40
0.0
 40
0.0
 40
0.0
 40
0.063776763
 40
0.1273450105
 40
0.1907019658
 40
0.2538561083
 40
0.3168132129
 40
0.3795820829
 40
0.4421733857
 40
0.5045993396
 40
0.5668738671
 40
0.6290123792
 40
0.6910316488
 40
0.752949646
 40
0.8147853557
 40
0.8765586025
 40
0.9382898529
 40
1.0
 40
1.0
 40
1.0
 40
1.0
 10
9.2287169173
 20
7.8846466326
 30
0.0
 10
9.2287169173
 20
7.8903089557
 30
0.0
 10
9.2289879551
 20
7.9016170075
 30
0.0
 10
9.2302111966
 20
7.9185102804
 30
0.0
 10
9.2322479437
 20
7.9352696644
 30
0.0
 10
9.2350932899
 20
7.9518557647
 30
0.0
 10
9.2387408986
 20
7.9682306921
 30
0.0
 10
9.2431823227
 20
7.9843565926
 30
0.0
 10
9.2484073441
 20
8.0001963145
 30
0.0
 10
9.2544039777
 20
8.0157133285
 30
0.0
 10
9.2611584539
 20
8.0308718313
 30
0.0
 10
9.2686551946
 20
8.0456368737
 30
0.0
 10
9.276876927
 20
8.0599744006
 30
0.0
 10
9.2858047329
 20
8.0738513375
 30
0.0
 10
9.2954180375
 20
8.0872356195
 30
0.0
 10
9.3056947597
 20
8.1000964938
 30
0.0
 10
9.3166107856
 20
8.1124039017
 30
0.0
 10
9.3242990297
 20
8.1202223556
 30
0.0
 10
9.3282397101
 20
8.1240287641
 30
0.0
  0
SPLINE
  5
41E
100
AcDbEntity
  8
0
100
AcDbSpline
 62
7
  6
CONTINUOUS
 70
0
 71
3
 72
19
 73
15
 74
0
 42
0.0000001
 43
0.0000001
 44
0.0000000001
 40
0.0
 40
0.0
 40
0.0
 40
0.0
 40
0.12732766
 40
0.2538196711
 40
0.3795264658
 40
0.5045235362
 40
0.5668075958
 40
0.6289556124
 40
0.6909843715
 40
0.7529118454
 40
0.8147570127
 40
0.8765397119
 40
0.9382804145
 40
1.0
 40
1.0
 40
1.0
 40
1.0
 10
12.2261545381
 20
7.2836707284
 30
0.0
 10
12.2261545381
 20
7.2899227243
 30
0.0
 10
12.2267514661
 20
7.3023942845
 30
0.0
 10
12.2294511463
 20
7.3208620015
 30
0.0
 10
12.2339271928
 20
7.3388648207
 30
0.0
 10
12.2391123284
 20
7.353361764
 30
0.0
 10
12.2440990095
 20
7.3645526933
 30
0.0
 10
12.2482457813
 20
7.3727199018
 30
0.0
 10
12.2527934802
 20
7.3806504285
 30
0.0
 10
12.2577317557
 20
7.388326244
 30
0.0
 10
12.2630492143
 20
7.3957295275
 30
0.0
 10
12.2687336017
 20
7.4028433246
 30
0.0
 10
12.2747716288
 20
7.4096509652
 30
0.0
 10
12.2790242726
 20
7.4139756005
 30
0.0
 10
12.2812039974
 20
7.4160810521
 30
0.0
  0
SPLINE
  5
41F
100
AcDbEntity
  8
0
100
AcDbSpline
 62
7
  6
CONTINUOUS
 70
0
 71
3
 72
27
 73
23
 74
0
 42
0.0000001
 43
0.0000001
 44
0.0000000001
 40
0.0
 40
0.0
 40
0.0
 40
0.0
 40
0.116309757
 40
0.2237110821
 40
0.3223237229
 40
0.412354864
 40
0.4940836921
 40
0.5678559698
 40
0.6340959313
 40
0.6932994976
 40
0.7460415093
 40
0.7929811324
 40
0.8348645537
 40
0.8725313053
 40
0.8900877097
 40
0.9069412004
 40
0.9232135501
 40
0.9390273958
 40
0.9545025801
 40
0.9697529767
 40
0.9848861333
 40
1.0
 40
1.0
 40
1.0
 40
1.0
 10
9.4114628768
 20
8.1630516462
 30
0.0
 10
9.4098535764
 20
8.1614971814
 30
0.0
 10
9.4067088119
 20
8.1585577029
 30
0.0
 10
9.4020147924
 20
8.154503683
 30
0.0
 10
9.3975386632
 20
8.1509790098
 30
0.0
 10
9.3932880365
 20
8.1479769688
 30
0.0
 10
9.389271306
 20
8.1454857654
 30
0.0
 10
9.3854967168
 20
8.1434904941
 30
0.0
 10
9.3819733448
 20
8.1419713288
 30
0.0
 10
9.3787094747
 20
8.140906114
 30
0.0
 10
9.3757133183
 20
8.1402694197
 30
0.0
 10
9.3729921381
 20
8.1400339916
 30
0.0
 10
9.3705536524
 20
8.1401710973
 30
0.0
 10
9.3687203004
 20
8.1405809546
 30
0.0
 10
9.3674214888
 20
8.1410716096
 30
0.0
 10
9.3665453271
 20
8.1415029461
 30
0.0
 10
9.3657451068
 20
8.142001967
 30
0.0
 10
9.3650212453
 20
8.1425642403
 30
0.0
 10
9.3643740892
 20
8.1431852401
 30
0.0
 10
9.3638038919
 20
8.1438605146
 30
0.0
 10
9.3633107587
 20
8.1445853914
 30
0.0
 10
9.3630335389
 20
8.1450982805
 30
0.0
 10
9.362908083
 20
8.1453605669
 30
0.0
  0
SPLINE
  5
420
100
AcDbEntity
  8
0
100
AcDbSpline
 62
7
  6
CONTINUOUS
 70
0
 71
3
 72
12
 73
8
 74
0
 42
0.0000001
 43
0.0000001
 44
0.0000000001
 40
0.0
 40
0.0
 40
0.0
 40
0.0
 40
0.2787910765
 40
0.538682344
 40
0.7791819972
 40
0.8920637864
 40
1.0
 40
1.0
 40
1.0
 40
1.0
 10
9.4393004521
 20
8.1939939018
 30
0.0
 10
9.436850459
 20
8.190998217
 30
0.0
 10
9.4320678435
 20
8.1852493578
 30
0.0
 10
9.424963185
 20
8.1770926289
 30
0.0
 10
9.4191898199
 20
8.1708342376
 30
0.0
 10
9.4147217506
 20
8.1662465166
 30
0.0
 10
9.4125405261
 20
8.1640925756
 30
0.0
 10
9.4114628768
 20
8.1630516462
 30
0.0
  0
SPLINE
  5
421
100
AcDbEntity
  8
0
100
AcDbSpline
 62
7
  6
CONTINUOUS
 70
0
 71
3
 72
71
 73
67
 74
0
 42
0.0000001
 43
0.0000001
 44
0.0000000001
 40
0.0
 40
0.0
 40
0.0
 40
0.0
 40
0.0156372492
 40
0.0313279719
 40
0.0470702691
 40
0.0628636356
 40
0.078706085
 40
0.0945954859
 40
0.1105292303
 40
0.1265042941
 40
0.1425172939
 40
0.1585644997
 40
0.1746418769
 40
0.1907451249
 40
0.2068697161
 40
0.2230109353
 40
0.2391639203
 40
0.2553237068
 40
0.2714852727
 40
0.2876435802
 40
0.3037936187
 40
0.3199304493
 40
0.3360492495
 40
0.3521453553
 40
0.368214301
 40
0.3842518591
 40
0.400254082
 40
0.4162173382
 40
0.432138346
 40
0.4480142044
 40
0.4638424243
 40
0.479620957
 40
0.4953482151
 40
0.5110230911
 40
0.5266449716
 40
0.5422137518
 40
0.5577298409
 40
0.5731941615
 40
0.5886081454
 40
0.6039737251
 40
0.6192933216
 40
0.6345698227
 40
0.6498065569
 40
0.6650072614
 40
0.6801760495
 40
0.6953173696
 40
0.7104359593
 40
0.7255367964
 40
0.7406250465
 40
0.7557060105
 40
0.7707850676
 40
0.7858676177
 40
0.8009590222
 40
0.8160645476
 40
0.8311893103
 40
0.8463382234
 40
0.8615159446
 40
0.8767268274
 40
0.891974877
 40
0.9072637192
 40
0.9225965472
 40
0.9379761189
 40
0.953404763
 40
0.9688840052
 40
0.9844158733
 40
1.0
 40
1.0
 40
1.0
 40
1.0
 10
9.1292091692
 20
7.8390295231
 30
0.0
 10
9.1292091692
 20
7.8324205048
 30
0.0
 10
9.1295348276
 20
7.819177618
 30
0.0
 10
9.130993039
 20
7.7993296199
 30
0.0
 10
9.1334185151
 20
7.7795095842
 30
0.0
 10
9.1368051024
 20
7.7597661179
 30
0.0
 10
9.141144798
 20
7.7401463869
 30
0.0
 10
9.1464270513
 20
7.7206977539
 30
0.0
 10
9.1526390964
 20
7.701467001
 30
0.0
 10
9.1597659477
 20
7.6825004226
 30
0.0
 10
9.1677904217
 20
7.6638436724
 30
0.0
 10
9.1766932031
 20
7.6455416673
 30
0.0
 10
9.1864528188
 20
7.6276384504
 30
0.0
 10
9.1970457446
 20
7.6101771034
 30
0.0
 10
9.2084464681
 20
7.5931996501
 30
0.0
 10
9.2206275504
 20
7.5767469614
 30
0.0
 10
9.2335596708
 20
7.5608586452
 30
0.0
 10
9.2472116727
 20
7.5455729266
 30
0.0
 10
9.2615506895
 20
7.5309265938
 30
0.0
 10
9.2765422102
 20
7.5169549049
 30
0.0
 10
9.292150169
 20
7.5036915154
 30
0.0
 10
9.3083369899
 20
7.4911683495
 30
0.0
 10
9.3250637039
 20
7.479415546
 30
0.0
 10
9.3422900556
 20
7.4684614065
 30
0.0
 10
9.3599745943
 20
7.4583323271
 30
0.0
 10
9.3780747657
 20
7.4490527285
 30
0.0
 10
9.3965469928
 20
7.4406449479
 30
0.0
 10
9.4153468137
 20
7.4331292441
 30
0.0
 10
9.4344289796
 20
7.4265237424
 30
0.0
 10
9.4537475648
 20
7.4208444036
 30
0.0
 10
9.4732560597
 20
7.4161049341
 30
0.0
 10
9.4929074917
 20
7.4123167621
 30
0.0
 10
9.5126545465
 20
7.4094890488
 30
0.0
 10
9.5324496744
 20
7.4076286586
 30
0.0
 10
9.5522452021
 20
7.4067401437
 30
0.0
 10
9.5719934456
 20
7.4068256662
 30
0.0
 10
9.5916468326
 20
7.4078850575
 30
0.0
 10
9.6111580117
 20
7.409915816
 30
0.0
 10
9.6304799621
 20
7.412913121
 30
0.0
 10
9.6495661107
 20
7.4168698025
 30
0.0
 10
9.6683704539
 20
7.421776345
 30
0.0
 10
9.6868476577
 20
7.4276209646
 30
0.0
 10
9.7049531662
 20
7.4343896217
 30
0.0
 10
9.7226433025
 20
7.4420660633
 30
0.0
 10
9.7398754046
 20
7.4506317946
 30
0.0
 10
9.7566079126
 20
7.4600661773
 30
0.0
 10
9.7728004625
 20
7.4703464858
 30
0.0
 10
9.788413979
 20
7.4814479638
 30
0.0
 10
9.8034107836
 20
7.4933438597
 30
0.0
 10
9.8177547147
 20
7.5060054661
 30
0.0
 10
9.8314111754
 20
7.5194022443
 30
0.0
 10
9.844347224
 20
7.5335018849
 30
0.0
 10
9.8565316411
 20
7.5482703933
 30
0.0
 10
9.8679350578
 20
7.5636721292
 30
0.0
 10
9.8785300028
 20
7.5796699228
 30
0.0
 10
9.8882909465
 20
7.5962251799
 30
0.0
 10
9.8971943637
 20
7.613297971
 30
0.0
 10
9.9052187958
 20
7.63084712
 30
0.0
 10
9.912344959
 20
7.648830285
 30
0.0
 10
9.918555715
 20
7.6672040949
 30
0.0
 10
9.9238361374
 20
7.6859242422
 30
0.0
 10
9.9281735304
 20
7.7049456316
 30
0.0
 10
9.9315574242
 20
7.7242222848
 30
0.0
 10
9.9339799088
 20
7.7437081074
 30
0.0
 10
9.9354349223
 20
7.7633552748
 30
0.0
 10
9.935757282
 20
7.7765086552
 30
0.0
 10
9.935757282
 20
7.7830952215
 30
0.0
  0
SPLINE
  5
422
100
AcDbEntity
  8
0
100
AcDbSpline
 62
4
  6
CONTINUOUS
 70
0
 71
3
 72
283
 73
279
 74
0
 42
0.0000001
 43
0.0000001
 44
0.0000000001
 40
0.0
 40
0.0
 40
0.0
 40
0.0
 40
0.015625
 40
0.03125
 40
0.0390625
 40
0.046875
 40
0.05078125
 40
0.0546875
 40
0.05859375
 40
0.060546875
 40
0.0615234375
 40
0.0625
 40
0.0634765625
 40
0.064453125
 40
0.06640625
 40
0.0703125
 40
0.07421875
 40
0.078125
 40
0.0859375
 40
0.09375
 40
0.1015625
 40
0.109375
 40
0.11328125
 40
0.1171875
 40
0.119140625
 40
0.12109375
 40
0.123046875
 40
0.1240234375
 40
0.1245117188
 40
0.125
 40
0.1254882812
 40
0.1259765625
 40
0.126953125
 40
0.12890625
 40
0.130859375
 40
0.1328125
 40
0.13671875
 40
0.140625
 40
0.1484375
 40
0.15625
 40
0.1640625
 40
0.171875
 40
0.17578125
 40
0.1796875
 40
0.181640625
 40
0.18359375
 40
0.185546875
 40
0.1865234375
 40
0.1870117188
 40
0.1875
 40
0.1879882812
 40
0.1884765625
 40
0.189453125
 40
0.19140625
 40
0.193359375
 40
0.1953125
 40
0.19921875
 40
0.203125
 40
0.2109375
 40
0.21875
 40
0.2265625
 40
0.234375
 40
0.23828125
 40
0.2421875
 40
0.244140625
 40
0.24609375
 40
0.248046875
 40
0.2490234375
 40
0.2495117188
 40
0.25
 40
0.2504882812
 40
0.2509765625
 40
0.251953125
 40
0.25390625
 40
0.255859375
 40
0.2578125
 40
0.26171875
 40
0.265625
 40
0.2734375
 40
0.28125
 40
0.2890625
 40
0.296875
 40
0.30078125
 40
0.3046875
 40
0.306640625
 40
0.30859375
 40
0.310546875
 40
0.3115234375
 40
0.3120117188
 40
0.3125
 40
0.3129882812
 40
0.3134765625
 40
0.314453125
 40
0.31640625
 40
0.318359375
 40
0.3203125
 40
0.32421875
 40
0.328125
 40
0.3359375
 40
0.34375
 40
0.3515625
 40
0.359375
 40
0.36328125
 40
0.3671875
 40
0.369140625
 40
0.37109375
 40
0.373046875
 40
0.3740234375
 40
0.3745117188
 40
0.375
 40
0.3754882812
 40
0.3759765625
 40
0.376953125
 40
0.37890625
 40
0.380859375
 40
0.3828125
 40
0.38671875
 40
0.390625
 40
0.3984375
 40
0.40625
 40
0.4140625
 40
0.421875
 40
0.42578125
 40
0.4296875
 40
0.431640625
 40
0.43359375
 40
0.435546875
 40
0.4365234375
 40
0.4370117188
 40
0.4375
 40
0.4379882812
 40
0.4384765625
 40
0.439453125
 40
0.44140625
 40
0.443359375
 40
0.4453125
 40
0.44921875
 40
0.453125
 40
0.4609375
 40
0.46875
 40
0.4765625
 40
0.484375
 40
0.48828125
 40
0.4921875
 40
0.494140625
 40
0.49609375
 40
0.498046875
 40
0.4990234375
 40
0.4995117188
 40
0.5
 40
0.5004882812
 40
0.5009765625
 40
0.501953125
 40
0.50390625
 40
0.505859375
 40
0.5078125
 40
0.51171875
 40
0.515625
 40
0.5234375
 40
0.53125
 40
0.5390625
 40
0.546875
 40
0.55078125
 40
0.5546875
 40
0.556640625
 40
0.55859375
 40
0.560546875
 40
0.5615234375
 40
0.5620117188
 40
0.5625
 40
0.5629882812
 40
0.5634765625
 40
0.564453125
 40
0.56640625
 40
0.568359375
 40
0.5703125
 40
0.57421875
 40
0.578125
 40
0.5859375
 40
0.59375
 40
0.6015625
 40
0.609375
 40
0.61328125
 40
0.6171875
 40
0.619140625
 40
0.62109375
 40
0.623046875
 40
0.6240234375
 40
0.6245117188
 40
0.625
 40
0.6254882812
 40
0.6259765625
 40
0.626953125
 40
0.62890625
 40
0.630859375
 40
0.6328125
 40
0.63671875
 40
0.640625
 40
0.6484375
 40
0.65625
 40
0.6640625
 40
0.671875
 40
0.67578125
 40
0.6796875
 40
0.681640625
 40
0.68359375
 40
0.685546875
 40
0.6865234375
 40
0.6870117188
 40
0.6875
 40
0.6879882812
 40
0.6884765625
 40
0.689453125
 40
0.69140625
 40
0.693359375
 40
0.6953125
 40
0.69921875
 40
0.703125
 40
0.7109375
 40
0.71875
 40
0.7265625
 40
0.734375
 40
0.73828125
 40
0.7421875
 40
0.74609375
 40
0.748046875
 40
0.7490234375
 40
0.75
 40
0.7509765625
 40
0.751953125
 40
0.75390625
 40
0.7578125
 40
0.76171875
 40
0.765625
 40
0.7734375
 40
0.78125
 40
0.7890625
 40
0.796875
 40
0.80078125
 40
0.8046875
 40
0.80859375
 40
0.810546875
 40
0.8115234375
 40
0.8125
 40
0.8134765625
 40
0.814453125
 40
0.81640625
 40
0.8203125
 40
0.82421875
 40
0.828125
 40
0.8359375
 40
0.84375
 40
0.8515625
 40
0.859375
 40
0.8671875
 40
0.87109375
 40
0.873046875
 40
0.875
 40
0.876953125
 40
0.87890625
 40
0.8828125
 40
0.890625
 40
0.8984375
 40
0.90625
 40
0.9140625
 40
0.921875
 40
0.9296875
 40
0.93359375
 40
0.935546875
 40
0.9375
 40
0.939453125
 40
0.94140625
 40
0.9453125
 40
0.953125
 40
0.9609375
 40
0.96875
 40
0.984375
 40
1.0
 40
1.0
 40
1.0
 40
1.0
 10
13.3405060634
 20
8.240480107
 30
0.0
 10
13.3404237464
 20
8.2435337817
 30
0.0
 10
13.3402591089
 20
8.2496411255
 30
0.0
 10
13.3400533289
 20
8.2572753338
 30
0.0
 10
13.3398886697
 20
8.2633826406
 30
0.0
 10
13.3397858371
 20
8.2671998427
 30
0.0
 10
13.3397033893
 20
8.2702532944
 30
0.0
 10
13.3396420512
 20
8.2725442319
 30
0.0
 10
13.3395893524
 20
8.2744506464
 30
0.0
 10
13.3395555713
 20
8.2757904355
 30
0.0
 10
13.3395314149
 20
8.2765477555
 30
0.0
 10
13.3395269684
 20
8.2771390528
 30
0.0
 10
13.339470265
 20
8.2776412576
 30
0.0
 10
13.3394128882
 20
8.2783419406
 30
0.0
 10
13.3393039863
 20
8.2795536566
 30
0.0
 10
13.3391528521
 20
8.2812922494
 30
0.0
 10
13.3389695906
 20
8.2833753206
 30
0.0
 10
13.3387259058
 20
8.2861538807
 30
0.0
 10
13.3384210718
 20
8.2896266921
 30
0.0
 10
13.3380553694
 20
8.2937942339
 30
0.0
 10
13.3376896385
 20
8.2979617251
 30
0.0
 10
13.337384876
 20
8.301434663
 30
0.0
 10
13.3371410483
 20
8.3042129701
 30
0.0
 10
13.3369886935
 20
8.3059495059
 30
0.0
 10
13.336866724
 20
8.3073385199
 30
0.0
 10
13.3367754815
 20
8.308380868
 30
0.0
 10
13.3366986997
 20
8.3092476224
 30
0.0
 10
13.3366464172
 20
8.3098580183
 30
0.0
 10
13.3366142545
 20
8.310201089
 30
0.0
 10
13.3365965748
 20
8.3104745248
 30
0.0
 10
13.3365542692
 20
8.3106862931
 30
0.0
 10
13.3365064515
 20
8.3109901611
 30
0.0
 10
13.3364187683
 20
8.311511908
 30
0.0
 10
13.3362955991
 20
8.3122625005
 30
0.0
 10
13.3361469004
 20
8.3131609687
 30
0.0
 10
13.3359489483
 20
8.3143597096
 30
0.0
 10
13.3357014011
 20
8.3158578675
 30
0.0
 10
13.3353053854
 20
8.3182550702
 30
0.0
 10
13.3348103452
 20
8.3212515217
 30
0.0
 10
13.3342163063
 20
8.3248472874
 30
0.0
 10
13.3336222627
 20
8.3284430403
 30
0.0
 10
13.3331272341
 20
8.3314395238
 30
0.0
 10
13.3327311951
 20
8.3338366625
 30
0.0
 10
13.3324837071
 20
8.3353349831
 30
0.0
 10
13.3322856335
 20
8.3365333902
 30
0.0
 10
13.3321373061
 20
8.3374328782
 30
0.0
 10
13.3320129753
 20
8.33818028
 30
0.0
 10
13.3319273657
 20
8.3387077228
 30
0.0
 10
13.3318762256
 20
8.3390024646
 30
0.0
 10
13.3318441253
 20
8.3392422656
 30
0.0
 10
13.3317881164
 20
8.3394104151
 30
0.0
 10
13.3317217774
 20
8.3396596074
 30
0.0
 10
13.3316017987
 20
8.3400840492
 30
0.0
 10
13.331432432
 20
8.3406964827
 30
0.0
 10
13.3312283224
 20
8.3414287969
 30
0.0
 10
13.3309564799
 20
8.3424061261
 30
0.0
 10
13.3306165729
 20
8.343627476
 30
0.0
 10
13.3300727797
 20
8.34558181
 30
0.0
 10
13.3293930182
 20
8.3480246671
 30
0.0
 10
13.3285773135
 20
8.3509561239
 30
0.0
 10
13.3277616047
 20
8.3538875647
 30
0.0
 10
13.3270818532
 20
8.3563304618
 30
0.0
 10
13.3265380402
 20
8.3582847159
 30
0.0
 10
13.3261981836
 20
8.3595062687
 30
0.0
 10
13.3259262376
 20
8.3604831813
 30
0.0
 10
13.3257224445
 20
8.3612167684
 30
0.0
 10
13.3255520873
 20
8.3618252194
 30
0.0
 10
13.3254338768
 20
8.3622567706
 30
0.0
 10
13.3253647047
 20
8.3624945718
 30
0.0
 10
13.3253173984
 20
8.3626977111
 30
0.0
 10
13.3252526123
 20
8.3628060965
 30
0.0
 10
13.325172328
 20
8.3629836615
 30
0.0
 10
13.3250289896
 20
8.3632790011
 30
0.0
 10
13.3248257056
 20
8.3637089657
 30
0.0
 10
13.3245811292
 20
8.3642214773
 30
0.0
 10
13.3242552494
 20
8.3649060296
 30
0.0
 10
13.3238478235
 20
8.3657613078
 30
0.0
 10
13.3231959847
 20
8.3671299834
 30
0.0
 10
13.3223811714
 20
8.3688407484
 30
0.0
 10
13.3214034022
 20
8.3708937027
 30
0.0
 10
13.3204256299
 20
8.3729466387
 30
0.0
 10
13.3196108244
 20
8.3746574496
 30
0.0
 10
13.31895897
 20
8.3760260333
 30
0.0
 10
13.3185515836
 20
8.3768815453
 30
0.0
 10
13.3182256229
 20
8.3775656177
 30
0.0
 10
13.3179812935
 20
8.3780795954
 30
0.0
 10
13.3177772366
 20
8.3785049728
 30
0.0
 10
13.3176352781
 20
8.3788085013
 30
0.0
 10
13.3175527829
 20
8.3789729457
 30
0.0
 10
13.3174947878
 20
8.3791216334
 30
0.0
 10
13.3174219754
 20
8.3791734038
 30
0.0
 10
13.3173300606
 20
8.3792762368
 30
0.0
 10
13.3171668017
 20
8.3794404439
 30
0.0
 10
13.3169348337
 20
8.37968326
 30
0.0
 10
13.3166559332
 20
8.3799711147
 30
0.0
 10
13.3162842541
 20
8.380356152
 30
0.0
 10
13.3158195907
 20
8.3808370272
 30
0.0
 10
13.3150761654
 20
8.381606663
 30
0.0
 10
13.3141468712
 20
8.3825686265
 30
0.0
 10
13.3130317239
 20
8.3837230199
 30
0.0
 10
13.3119165741
 20
8.3848773943
 30
0.0
 10
13.310987286
 20
8.3858394054
 30
0.0
 10
13.3102438486
 20
8.386608946
 30
0.0
 10
13.3097792158
 20
8.3870900633
 30
0.0
 10
13.309407474
 20
8.3874746035
 30
0.0
 10
13.3091287651
 20
8.3877639771
 30
0.0
 10
13.3088961975
 20
8.3880020408
 30
0.0
 10
13.308734009
 20
8.3881747318
 30
0.0
 10
13.3086403792
 20
8.3882639714
 30
0.0
 10
13.3085728347
 20
8.3883574963
 30
0.0
 10
13.3084950542
 20
8.3883493612
 30
0.0
 10
13.3083949174
 20
8.3883739746
 30
0.0
 10
13.3082180143
 20
8.3884005266
 30
0.0
 10
13.3079661653
 20
8.3884470955
 30
0.0
 10
13.3076635743
 20
8.3884992811
 30
0.0
 10
13.3072602497
 20
8.3885701532
 30
0.0
 10
13.3067560493
 20
8.3886583012
 30
0.0
 10
13.3059493537
 20
8.3887995851
 30
0.0
 10
13.3049409755
 20
8.3889761047
 30
0.0
 10
13.3037309256
 20
8.3891879673
 30
0.0
 10
13.3025208739
 20
8.38939981
 30
0.0
 10
13.3015125001
 20
8.3895763791
 30
0.0
 10
13.3007057958
 20
8.389717564
 30
0.0
 10
13.3002016174
 20
8.3898059639
 30
0.0
 10
13.2997982478
 20
8.3898763189
 30
0.0
 10
13.299495794
 20
8.3899300843
 30
0.0
 10
13.2992435157
 20
8.3899717104
 30
0.0
 10
13.2990673791
 20
8.3900070861
 30
0.0
 10
13.2989660141
 20
8.3900175616
 30
0.0
 10
13.2988920062
 20
8.3900528537
 30
0.0
 10
13.2988102925
 20
8.3899832736
 30
0.0
 10
13.2987040288
 20
8.3899270808
 30
0.0
 10
13.2985168151
 20
8.3898116998
 30
0.0
 10
13.2982500216
 20
8.3896557803
 30
0.0
 10
13.2979295892
 20
8.3894648629
 30
0.0
 10
13.2975024439
 20
8.3892116386
 30
0.0
 10
13.2969684787
 20
8.388894652
 30
0.0
 10
13.2961141531
 20
8.3883877285
 30
0.0
 10
13.2950462397
 20
8.3877539861
 30
0.0
 10
13.2937647464
 20
8.3869935354
 30
0.0
 10
13.2924832525
 20
8.386233065
 30
0.0
 10
13.2914153404
 20
8.3855993715
 30
0.0
 10
13.2905610123
 20
8.3850923502
 30
0.0
 10
13.2900270536
 20
8.3847756122
 30
0.0
 10
13.289599895
 20
8.3845218777
 30
0.0
 10
13.2892795032
 20
8.3843325189
 30
0.0
 10
13.2890125826
 20
8.3841717232
 30
0.0
 10
13.2888255958
 20
8.3840650471
 30
0.0
 10
13.2887189685
 20
8.3839949067
 30
0.0
 10
13.2886383718
 20
8.383968169
 30
0.0
 10
13.2885601688
 20
8.3838425524
 30
0.0
 10
13.2884550632
 20
8.3837095536
 30
0.0
 10
13.2882715173
 20
8.3834607361
 30
0.0
 10
13.2880091056
 20
8.383113684
 30
0.0
 10
13.2876942986
 20
8.3826936253
 30
0.0
 10
13.2872745255
 20
8.3821348032
 30
0.0
 10
13.2867498196
 20
8.3814358454
 30
0.0
 10
13.2859102843
 20
8.3803177534
 30
0.0
 10
13.2848608672
 20
8.3789200554
 30
0.0
 10
13.2836015657
 20
8.3772428556
 30
0.0
 10
13.2823422649
 20
8.3755656375
 30
0.0
 10
13.2812928459
 20
8.3741679854
 30
0.0
 10
13.2804533142
 20
8.3730498015
 30
0.0
 10
13.2799285991
 20
8.3723510772
 30
0.0
 10
13.279508845
 20
8.3717917759
 30
0.0
 10
13.2791939801
 20
8.3713731813
 30
0.0
 10
13.2789317495
 20
8.3710215486
 30
0.0
 10
13.2787478803
 20
8.3707809082
 30
0.0
 10
13.2786432927
 20
8.3706348077
 30
0.0
 10
13.2785634985
 20
8.3705494352
 30
0.0
 10
13.278488878
 20
8.3703715471
 30
0.0
 10
13.2783875792
 20
8.3701666335
 30
0.0
 10
13.2782111473
 20
8.3697929993
 30
0.0
 10
13.277958662
 20
8.3692670968
 30
0.0
 10
13.2776558679
 20
8.3686326492
 30
0.0
 10
13.2772520766
 20
8.3677878942
 30
0.0
 10
13.2767473601
 20
8.3667315481
 30
0.0
 10
13.275939801
 20
8.3650416194
 30
0.0
 10
13.2749303566
 20
8.3629291307
 30
0.0
 10
13.2737190212
 20
8.3603941796
 30
0.0
 10
13.2725076872
 20
8.3578592117
 30
0.0
 10
13.2714982391
 20
8.355746765
 30
0.0
 10
13.2706906874
 20
8.3540567524
 30
0.0
 10
13.2701859521
 20
8.3530006193
 30
0.0
 10
13.2697821993
 20
8.3521554272
 30
0.0
 10
13.2694792879
 20
8.3515223153
 30
0.0
 10
13.2692271694
 20
8.3509922338
 30
0.0
 10
13.2690500828
 20
8.3506260598
 30
0.0
 10
13.268949833
 20
8.350409193
 30
0.0
 10
13.2688719903
 20
8.3502680213
 30
0.0
 10
13.2688042977
 20
8.3500447483
 30
0.0
 10
13.2687105005
 20
8.3497756889
 30
0.0
 10
13.2685480049
 20
8.3492914921
 30
0.0
 10
13.2683150059
 20
8.3486067581
 30
0.0
 10
13.2680357763
 20
8.3477820914
 30
0.0
 10
13.2676633412
 20
8.3466835788
 30
0.0
 10
13.2671978415
 20
8.3453100809
 30
0.0
 10
13.2664530172
 20
8.343112684
 30
0.0
 10
13.2655219954
 20
8.3403658688
 30
0.0
 10
13.2644047653
 20
8.337069722
 30
0.0
 10
13.2632875374
 20
8.33377356
 30
0.0
 10
13.26235651
 20
8.331026783
 30
0.0
 10
13.2616116969
 20
8.3288293098
 30
0.0
 10
13.2611461689
 20
8.3274560056
 30
0.0
 10
13.2607737918
 20
8.3263570954
 30
0.0
 10
13.260494385
 20
8.3255336432
 30
0.0
 10
13.2602619403
 20
8.3248451097
 30
0.0
 10
13.2600984552
 20
8.3243676956
 30
0.0
 10
13.2600062434
 20
8.3240877684
 30
0.0
 10
13.2599336808
 20
8.3238978779
 30
0.0
 10
13.2598741291
 20
8.3236313273
 30
0.0
 10
13.2597901886
 20
8.3233026664
 30
0.0
 10
13.2596454071
 20
8.3227150511
 30
0.0
 10
13.2594374709
 20
8.3218821143
 30
0.0
 10
13.2591884206
 20
8.3208798021
 30
0.0
 10
13.2588561883
 20
8.3195443596
 30
0.0
 10
13.2584409546
 20
8.317874723
 30
0.0
 10
13.2577765488
 20
8.3152034912
 30
0.0
 10
13.2569460537
 20
8.3118643848
 30
0.0
 10
13.2559494491
 20
8.307857497
 30
0.0
 10
13.2549528668
 20
8.3038505565
 30
0.0
 10
13.2541223162
 20
8.3005115816
 30
0.0
 10
13.2534580213
 20
8.2978400869
 30
0.0
 10
13.2529594025
 20
8.295837325
 30
0.0
 10
13.2525451516
 20
8.2941656241
 30
0.0
 10
13.252252694
 20
8.2930007961
 30
0.0
 10
13.2520894508
 20
8.2923268068
 30
0.0
 10
13.2519561013
 20
8.2918449025
 30
0.0
 10
13.2518644821
 20
8.2912728343
 30
0.0
 10
13.2517277672
 20
8.2905415268
 30
0.0
 10
13.251495298
 20
8.2892470855
 30
0.0
 10
13.2511596534
 20
8.2874055445
 30
0.0
 10
13.2507583976
 20
8.2851924162
 30
0.0
 10
13.2502228596
 20
8.2822427242
 30
0.0
 10
13.2495536203
 20
8.2785552141
 30
0.0
 10
13.248750449
 20
8.2741303797
 30
0.0
 10
13.2479473209
 20
8.2697054662
 30
0.0
 10
13.2472779738
 20
8.2660181542
 30
0.0
 10
13.2467426514
 20
8.2630680659
 30
0.0
 10
13.2463407378
 20
8.2608561463
 30
0.0
 10
13.2460071514
 20
8.2590108239
 30
0.0
 10
13.245771008
 20
8.257723133
 30
0.0
 10
13.24564018
 20
8.2569810097
 30
0.0
 10
13.2455304781
 20
8.2564421644
 30
0.0
 10
13.245465044
 20
8.2558354802
 30
0.0
 10
13.2453623575
 20
8.2550502309
 30
0.0
 10
13.2451898503
 20
8.2536650197
 30
0.0
 10
13.2449396502
 20
8.2516919106
 30
0.0
 10
13.2446410204
 20
8.2493217122
 30
0.0
 10
13.2442422828
 20
8.2461623108
 30
0.0
 10
13.2437440692
 20
8.2422127542
 30
0.0
 10
13.2431460595
 20
8.2374734546
 30
0.0
 10
13.2425483297
 20
8.2327339696
 30
0.0
 10
13.2419496336
 20
8.227995058
 30
0.0
 10
13.2414537079
 20
8.2240442082
 30
0.0
 10
13.2411007085
 20
8.2212820517
 30
0.0
 10
13.2409081293
 20
8.2196983092
 30
0.0
 10
13.2407379626
 20
8.2185256221
 30
0.0
 10
13.2406661575
 20
8.2172951398
 30
0.0
 10
13.2405361077
 20
8.2156746563
 30
0.0
 10
13.2403245067
 20
8.2128294174
 30
0.0
 10
13.2400138563
 20
8.2087697025
 30
0.0
 10
13.2396446795
 20
8.2038959361
 30
0.0
 10
13.2392744691
 20
8.199022744
 30
0.0
 10
13.2389047893
 20
8.1941493635
 30
0.0
 10
13.2385340209
 20
8.189276162
 30
0.0
 10
13.2382282335
 20
8.1852147213
 30
0.0
 10
13.2380079676
 20
8.1823725573
 30
0.0
 10
13.2378917993
 20
8.1807471477
 30
0.0
 10
13.2377773548
 20
8.179531797
 30
0.0
 10
13.2377673343
 20
8.1783022783
 30
0.0
 10
13.2377175494
 20
8.1766678621
 30
0.0
 10
13.2376473966
 20
8.1738053311
 30
0.0
 10
13.2375383057
 20
8.1697172049
 30
0.0
 10
13.2374111944
 20
8.1648109382
 30
0.0
 10
13.2372403857
 20
8.1582694293
 30
0.0
 10
13.2370273332
 20
8.150092481
 30
0.0
 10
13.2368567515
 20
8.1435509413
 30
0.0
 10
13.2367714781
 20
8.1402801691
 30
0.0
  0
SPLINE
  5
423
100
AcDbEntity
  8
0
100
AcDbSpline
 62
4
  6
CONTINUOUS
 70
0
 71
3
 72
283
 73
279
 74
0
 42
0.0000001
 43
0.0000001
 44
0.0000000001
 40
0.0
 40
0.0
 40
0.0
 40
0.0
 40
0.015625
 40
0.03125
 40
0.0390625
 40
0.046875
 40
0.05078125
 40
0.0546875
 40
0.05859375
 40
0.060546875
 40
0.0615234375
 40
0.0625
 40
0.0634765625
 40
0.064453125
 40
0.06640625
 40
0.0703125
 40
0.07421875
 40
0.078125
 40
0.0859375
 40
0.09375
 40
0.1015625
 40
0.109375
 40
0.11328125
 40
0.1171875
 40
0.119140625
 40
0.12109375
 40
0.123046875
 40
0.1240234375
 40
0.1245117188
 40
0.125
 40
0.1254882812
 40
0.1259765625
 40
0.126953125
 40
0.12890625
 40
0.130859375
 40
0.1328125
 40
0.13671875
 40
0.140625
 40
0.1484375
 40
0.15625
 40
0.1640625
 40
0.171875
 40
0.17578125
 40
0.1796875
 40
0.181640625
 40
0.18359375
 40
0.185546875
 40
0.1865234375
 40
0.1870117188
 40
0.1875
 40
0.1879882812
 40
0.1884765625
 40
0.189453125
 40
0.19140625
 40
0.193359375
 40
0.1953125
 40
0.19921875
 40
0.203125
 40
0.2109375
 40
0.21875
 40
0.2265625
 40
0.234375
 40
0.23828125
 40
0.2421875
 40
0.244140625
 40
0.24609375
 40
0.248046875
 40
0.2490234375
 40
0.2495117188
 40
0.25
 40
0.2504882812
 40
0.2509765625
 40
0.251953125
 40
0.25390625
 40
0.255859375
 40
0.2578125
 40
0.26171875
 40
0.265625
 40
0.2734375
 40
0.28125
 40
0.2890625
 40
0.296875
 40
0.30078125
 40
0.3046875
 40
0.306640625
 40
0.30859375
 40
0.310546875
 40
0.3115234375
 40
0.3120117188
 40
0.3125
 40
0.3129882812
 40
0.3134765625
 40
0.314453125
 40
0.31640625
 40
0.318359375
 40
0.3203125
 40
0.32421875
 40
0.328125
 40
0.3359375
 40
0.34375
 40
0.3515625
 40
0.359375
 40
0.36328125
 40
0.3671875
 40
0.369140625
 40
0.37109375
 40
0.373046875
 40
0.3740234375
 40
0.3745117188
 40
0.375
 40
0.3754882812
 40
0.3759765625
 40
0.376953125
 40
0.37890625
 40
0.380859375
 40
0.3828125
 40
0.38671875
 40
0.390625
 40
0.3984375
 40
0.40625
 40
0.4140625
 40
0.421875
 40
0.42578125
 40
0.4296875
 40
0.431640625
 40
0.43359375
 40
0.435546875
 40
0.4365234375
 40
0.4370117188
 40
0.4375
 40
0.4379882812
 40
0.4384765625
 40
0.439453125
 40
0.44140625
 40
0.443359375
 40
0.4453125
 40
0.44921875
 40
0.453125
 40
0.4609375
 40
0.46875
 40
0.4765625
 40
0.484375
 40
0.48828125
 40
0.4921875
 40
0.494140625
 40
0.49609375
 40
0.498046875
 40
0.4990234375
 40
0.4995117188
 40
0.5
 40
0.5004882812
 40
0.5009765625
 40
0.501953125
 40
0.50390625
 40
0.505859375
 40
0.5078125
 40
0.51171875
 40
0.515625
 40
0.5234375
 40
0.53125
 40
0.5390625
 40
0.546875
 40
0.55078125
 40
0.5546875
 40
0.556640625
 40
0.55859375
 40
0.560546875
 40
0.5615234375
 40
0.5620117188
 40
0.5625
 40
0.5629882812
 40
0.5634765625
 40
0.564453125
 40
0.56640625
 40
0.568359375
 40
0.5703125
 40
0.57421875
 40
0.578125
 40
0.5859375
 40
0.59375
 40
0.6015625
 40
0.609375
 40
0.61328125
 40
0.6171875
 40
0.619140625
 40
0.62109375
 40
0.623046875
 40
0.6240234375
 40
0.6245117188
 40
0.625
 40
0.6254882812
 40
0.6259765625
 40
0.626953125
 40
0.62890625
 40
0.630859375
 40
0.6328125
 40
0.63671875
 40
0.640625
 40
0.6484375
 40
0.65625
 40
0.6640625
 40
0.671875
 40
0.67578125
 40
0.6796875
 40
0.681640625
 40
0.68359375
 40
0.685546875
 40
0.6865234375
 40
0.6870117188
 40
0.6875
 40
0.6879882812
 40
0.6884765625
 40
0.689453125
 40
0.69140625
 40
0.693359375
 40
0.6953125
 40
0.69921875
 40
0.703125
 40
0.7109375
 40
0.71875
 40
0.7265625
 40
0.734375
 40
0.73828125
 40
0.7421875
 40
0.74609375
 40
0.748046875
 40
0.7490234375
 40
0.75
 40
0.7509765625
 40
0.751953125
 40
0.75390625
 40
0.7578125
 40
0.76171875
 40
0.765625
 40
0.7734375
 40
0.78125
 40
0.7890625
 40
0.796875
 40
0.80078125
 40
0.8046875
 40
0.80859375
 40
0.810546875
 40
0.8115234375
 40
0.8125
 40
0.8134765625
 40
0.814453125
 40
0.81640625
 40
0.8203125
 40
0.82421875
 40
0.828125
 40
0.8359375
 40
0.84375
 40
0.8515625
 40
0.859375
 40
0.8671875
 40
0.87109375
 40
0.873046875
 40
0.875
 40
0.876953125
 40
0.87890625
 40
0.8828125
 40
0.890625
 40
0.8984375
 40
0.90625
 40
0.9140625
 40
0.921875
 40
0.9296875
 40
0.93359375
 40
0.935546875
 40
0.9375
 40
0.939453125
 40
0.94140625
 40
0.9453125
 40
0.953125
 40
0.9609375
 40
0.96875
 40
0.984375
 40
1.0
 40
1.0
 40
1.0
 40
1.0
 10
13.2367714781
 20
8.140280186
 30
0.0
 10
13.2368537951
 20
8.1372265112
 30
0.0
 10
13.2370184325
 20
8.1311191674
 30
0.0
 10
13.2372242126
 20
8.1234849591
 30
0.0
 10
13.2373888718
 20
8.1173776524
 30
0.0
 10
13.2374917043
 20
8.1135604503
 30
0.0
 10
13.2375741522
 20
8.1105069986
 30
0.0
 10
13.2376354903
 20
8.108216061
 30
0.0
 10
13.2376881891
 20
8.1063096465
 30
0.0
 10
13.2377219702
 20
8.1049698575
 30
0.0
 10
13.2377461266
 20
8.1042125375
 30
0.0
 10
13.2377505731
 20
8.1036212402
 30
0.0
 10
13.2378072765
 20
8.1031190353
 30
0.0
 10
13.2378646533
 20
8.1024183524
 30
0.0
 10
13.2379735552
 20
8.1012066363
 30
0.0
 10
13.2381246894
 20
8.0994680435
 30
0.0
 10
13.2383079509
 20
8.0973849724
 30
0.0
 10
13.2385516357
 20
8.0946064123
 30
0.0
 10
13.2388564697
 20
8.0911336009
 30
0.0
 10
13.2392221721
 20
8.0869660591
 30
0.0
 10
13.239587903
 20
8.0827985679
 30
0.0
 10
13.2398926655
 20
8.0793256299
 30
0.0
 10
13.2401364932
 20
8.0765473229
 30
0.0
 10
13.240288848
 20
8.0748107871
 30
0.0
 10
13.2404108175
 20
8.073421773
 30
0.0
 10
13.24050206
 20
8.072379425
 30
0.0
 10
13.2405788418
 20
8.0715126705
 30
0.0
 10
13.2406311243
 20
8.0709022747
 30
0.0
 10
13.240663287
 20
8.0705592039
 30
0.0
 10
13.2406809667
 20
8.0702857681
 30
0.0
 10
13.2407232723
 20
8.0700739999
 30
0.0
 10
13.24077109
 20
8.0697701319
 30
0.0
 10
13.2408587732
 20
8.0692483849
 30
0.0
 10
13.2409819424
 20
8.0684977925
 30
0.0
 10
13.2411306411
 20
8.0675993243
 30
0.0
 10
13.2413285932
 20
8.0664005834
 30
0.0
 10
13.2415761404
 20
8.0649024254
 30
0.0
 10
13.2419721561
 20
8.0625052228
 30
0.0
 10
13.2424671963
 20
8.0595087713
 30
0.0
 10
13.2430612352
 20
8.0559130055
 30
0.0
 10
13.2436552788
 20
8.0523172526
 30
0.0
 10
13.2441503074
 20
8.0493207691
 30
0.0
 10
13.2445463464
 20
8.0469236305
 30
0.0
 10
13.2447938344
 20
8.0454253099
 30
0.0
 10
13.244991908
 20
8.0442269028
 30
0.0
 10
13.2451402354
 20
8.0433274148
 30
0.0
 10
13.2452645662
 20
8.042580013
 30
0.0
 10
13.2453501758
 20
8.0420525702
 30
0.0
 10
13.2454013158
 20
8.0417578284
 30
0.0
 10
13.2454334162
 20
8.0415180274
 30
0.0
 10
13.2454894251
 20
8.0413498778
 30
0.0
 10
13.2455557641
 20
8.0411006855
 30
0.0
 10
13.2456757428
 20
8.0406762437
 30
0.0
 10
13.2458451095
 20
8.0400638103
 30
0.0
 10
13.2460492191
 20
8.039331496
 30
0.0
 10
13.2463210616
 20
8.0383541668
 30
0.0
 10
13.2466609686
 20
8.037132817
 30
0.0
 10
13.2472047618
 20
8.035178483
 30
0.0
 10
13.2478845233
 20
8.0327356258
 30
0.0
 10
13.248700228
 20
8.0298041691
 30
0.0
 10
13.2495159367
 20
8.0268727283
 30
0.0
 10
13.2501956883
 20
8.0244298312
 30
0.0
 10
13.2507395013
 20
8.022475577
 30
0.0
 10
13.2510793579
 20
8.0212540242
 30
0.0
 10
13.2513513039
 20
8.0202771117
 30
0.0
 10
13.251555097
 20
8.0195435245
 30
0.0
 10
13.2517254542
 20
8.0189350736
 30
0.0
 10
13.2518436647
 20
8.0185035223
 30
0.0
 10
13.2519128368
 20
8.0182657212
 30
0.0
 10
13.2519601431
 20
8.0180625818
 30
0.0
 10
13.2520249292
 20
8.0179541965
 30
0.0
 10
13.2521052135
 20
8.0177766315
 30
0.0
 10
13.2522485519
 20
8.0174812918
 30
0.0
 10
13.2524518359
 20
8.0170513272
 30
0.0
 10
13.2526964123
 20
8.0165388157
 30
0.0
 10
13.2530222921
 20
8.0158542634
 30
0.0
 10
13.253429718
 20
8.0149989851
 30
0.0
 10
13.2540815568
 20
8.0136303095
 30
0.0
 10
13.2548963701
 20
8.0119195446
 30
0.0
 10
13.2558741393
 20
8.0098665902
 30
0.0
 10
13.2568519116
 20
8.0078136543
 30
0.0
 10
13.2576667171
 20
8.0061028433
 30
0.0
 10
13.2583185715
 20
8.0047342597
 30
0.0
 10
13.2587259579
 20
8.0038787476
 30
0.0
 10
13.2590519186
 20
8.0031946752
 30
0.0
 10
13.259296248
 20
8.0026806976
 30
0.0
 10
13.2595003049
 20
8.0022553201
 30
0.0
 10
13.2596422634
 20
8.0019517916
 30
0.0
 10
13.2597247586
 20
8.0017873472
 30
0.0
 10
13.2597827537
 20
8.0016386595
 30
0.0
 10
13.2598555661
 20
8.0015868891
 30
0.0
 10
13.2599474808
 20
8.0014840561
 30
0.0
 10
13.2601107397
 20
8.0013198491
 30
0.0
 10
13.2603427078
 20
8.0010770329
 30
0.0
 10
13.2606216083
 20
8.0007891783
 30
0.0
 10
13.2609932874
 20
8.0004041409
 30
0.0
 10
13.2614579508
 20
7.9999232658
 30
0.0
 10
13.2622013761
 20
7.9991536299
 30
0.0
 10
13.2631306702
 20
7.9981916665
 30
0.0
 10
13.2642458176
 20
7.997037273
 30
0.0
 10
13.2653609674
 20
7.9958828986
 30
0.0
 10
13.2662902555
 20
7.9949208876
 30
0.0
 10
13.2670336928
 20
7.994151347
 30
0.0
 10
13.2674983256
 20
7.9936702296
 30
0.0
 10
13.2678700675
 20
7.9932856895
 30
0.0
 10
13.2681487764
 20
7.9929963158
 30
0.0
 10
13.268381344
 20
7.9927582521
 30
0.0
 10
13.2685435325
 20
7.9925855612
 30
0.0
 10
13.2686371623
 20
7.9924963215
 30
0.0
 10
13.2687047068
 20
7.9924027967
 30
0.0
 10
13.2687824873
 20
7.9924109317
 30
0.0
 10
13.2688826241
 20
7.9923863183
 30
0.0
 10
13.2690595272
 20
7.9923597664
 30
0.0
 10
13.2693113762
 20
7.9923131974
 30
0.0
 10
13.2696139672
 20
7.9922610119
 30
0.0
 10
13.2700172918
 20
7.9921901397
 30
0.0
 10
13.2705214922
 20
7.9921019918
 30
0.0
 10
13.2713281878
 20
7.9919607078
 30
0.0
 10
13.272336566
 20
7.9917841883
 30
0.0
 10
13.2735466159
 20
7.9915723257
 30
0.0
 10
13.2747566676
 20
7.9913604829
 30
0.0
 10
13.2757650414
 20
7.9911839138
 30
0.0
 10
13.2765717457
 20
7.991042729
 30
0.0
 10
13.2770759241
 20
7.9909543291
 30
0.0
 10
13.2774792937
 20
7.990883974
 30
0.0
 10
13.2777817475
 20
7.9908302087
 30
0.0
 10
13.2780340258
 20
7.9907885825
 30
0.0
 10
13.2782101624
 20
7.9907532068
 30
0.0
 10
13.2783115274
 20
7.9907427313
 30
0.0
 10
13.2783855353
 20
7.9907074393
 30
0.0
 10
13.278467249
 20
7.9907770193
 30
0.0
 10
13.2785735126
 20
7.9908332122
 30
0.0
 10
13.2787607264
 20
7.9909485932
 30
0.0
 10
13.2790275199
 20
7.9911045127
 30
0.0
 10
13.2793479523
 20
7.99129543
 30
0.0
 10
13.2797750976
 20
7.9915486544
 30
0.0
 10
13.2803090628
 20
7.9918656409
 30
0.0
 10
13.2811633884
 20
7.9923725644
 30
0.0
 10
13.2822313017
 20
7.9930063068
 30
0.0
 10
13.2835127951
 20
7.9937667576
 30
0.0
 10
13.284794289
 20
7.9945272279
 30
0.0
 10
13.2858622011
 20
7.9951609214
 30
0.0
 10
13.2867165292
 20
7.9956679427
 30
0.0
 10
13.2872504879
 20
7.9959846807
 30
0.0
 10
13.2876776465
 20
7.9962384152
 30
0.0
 10
13.2879980383
 20
7.996427774
 30
0.0
 10
13.2882649589
 20
7.9965885698
 30
0.0
 10
13.2884519457
 20
7.9966952458
 30
0.0
 10
13.288558573
 20
7.9967653862
 30
0.0
 10
13.2886391697
 20
7.9967921239
 30
0.0
 10
13.2887173727
 20
7.9969177406
 30
0.0
 10
13.2888224783
 20
7.9970507394
 30
0.0
 10
13.2890060242
 20
7.9972995568
 30
0.0
 10
13.2892684359
 20
7.997646609
 30
0.0
 10
13.2895832429
 20
7.9980666676
 30
0.0
 10
13.290003016
 20
7.9986254898
 30
0.0
 10
13.2905277219
 20
7.9993244475
 30
0.0
 10
13.2913672572
 20
8.0004425395
 30
0.0
 10
13.2924166743
 20
8.0018402375
 30
0.0
 10
13.2936759758
 20
8.0035174373
 30
0.0
 10
13.2949352766
 20
8.0051946555
 30
0.0
 10
13.2959846956
 20
8.0065923076
 30
0.0
 10
13.2968242273
 20
8.0077104914
 30
0.0
 10
13.2973489424
 20
8.0084092157
 30
0.0
 10
13.2977686965
 20
8.0089685171
 30
0.0
 10
13.2980835614
 20
8.0093871117
 30
0.0
 10
13.298345792
 20
8.0097387444
 30
0.0
 10
13.2985296612
 20
8.0099793848
 30
0.0
 10
13.2986342488
 20
8.0101254853
 30
0.0
 10
13.298714043
 20
8.0102108578
 30
0.0
 10
13.2987886635
 20
8.0103887458
 30
0.0
 10
13.2988899623
 20
8.0105936594
 30
0.0
 10
13.2990663942
 20
8.0109672937
 30
0.0
 10
13.2993188795
 20
8.0114931961
 30
0.0
 10
13.2996216736
 20
8.0121276438
 30
0.0
 10
13.3000254648
 20
8.0129723987
 30
0.0
 10
13.3005301814
 20
8.0140287448
 30
0.0
 10
13.3013377404
 20
8.0157186736
 30
0.0
 10
13.3023471849
 20
8.0178311622
 30
0.0
 10
13.3035585203
 20
8.0203661133
 30
0.0
 10
13.3047698543
 20
8.0229010812
 30
0.0
 10
13.3057793024
 20
8.0250135279
 30
0.0
 10
13.3065868541
 20
8.0267035405
 30
0.0
 10
13.3070915894
 20
8.0277596736
 30
0.0
 10
13.3074953422
 20
8.0286048658
 30
0.0
 10
13.3077982536
 20
8.0292379777
 30
0.0
 10
13.3080503721
 20
8.0297680592
 30
0.0
 10
13.3082274587
 20
8.0301342332
 30
0.0
 10
13.3083277085
 20
8.0303511
 30
0.0
 10
13.3084055512
 20
8.0304922717
 30
0.0
 10
13.3084732437
 20
8.0307155446
 30
0.0
 10
13.308567041
 20
8.030984604
 30
0.0
 10
13.3087295366
 20
8.0314688009
 30
0.0
 10
13.3089625356
 20
8.0321535349
 30
0.0
 10
13.3092417652
 20
8.0329782015
 30
0.0
 10
13.3096142003
 20
8.0340767141
 30
0.0
 10
13.3100797
 20
8.035450212
 30
0.0
 10
13.3108245243
 20
8.037647609
 30
0.0
 10
13.3117555461
 20
8.0403944241
 30
0.0
 10
13.3128727762
 20
8.0436905709
 30
0.0
 10
13.3139900041
 20
8.046986733
 30
0.0
 10
13.3149210315
 20
8.04973351
 30
0.0
 10
13.3156658446
 20
8.0519309832
 30
0.0
 10
13.3161313726
 20
8.0533042874
 30
0.0
 10
13.3165037497
 20
8.0544031975
 30
0.0
 10
13.3167831565
 20
8.0552266498
 30
0.0
 10
13.3170156012
 20
8.0559151833
 30
0.0
 10
13.3171790863
 20
8.0563925973
 30
0.0
 10
13.3172712981
 20
8.0566725245
 30
0.0
 10
13.3173438607
 20
8.056862415
 30
0.0
 10
13.3174034123
 20
8.0571289656
 30
0.0
 10
13.3174873529
 20
8.0574576266
 30
0.0
 10
13.3176321344
 20
8.0580452418
 30
0.0
 10
13.3178400706
 20
8.0588781787
 30
0.0
 10
13.3180891209
 20
8.0598804909
 30
0.0
 10
13.3184213532
 20
8.0612159333
 30
0.0
 10
13.3188365869
 20
8.0628855699
 30
0.0
 10
13.3195009927
 20
8.0655568017
 30
0.0
 10
13.3203314878
 20
8.0688959081
 30
0.0
 10
13.3213280924
 20
8.072902796
 30
0.0
 10
13.3223246747
 20
8.0769097364
 30
0.0
 10
13.3231552253
 20
8.0802487113
 30
0.0
 10
13.3238195202
 20
8.0829202061
 30
0.0
 10
13.3243181389
 20
8.084922968
 30
0.0
 10
13.3247323899
 20
8.0865946689
 30
0.0
 10
13.3250248475
 20
8.0877594969
 30
0.0
 10
13.3251880907
 20
8.0884334861
 30
0.0
 10
13.3253214401
 20
8.0889153905
 30
0.0
 10
13.3254130594
 20
8.0894874587
 30
0.0
 10
13.3255497743
 20
8.0902187662
 30
0.0
 10
13.3257822435
 20
8.0915132074
 30
0.0
 10
13.3261178881
 20
8.0933547484
 30
0.0
 10
13.3265191439
 20
8.0955678767
 30
0.0
 10
13.3270546819
 20
8.0985175688
 30
0.0
 10
13.3277239212
 20
8.1022050789
 30
0.0
 10
13.3285270925
 20
8.1066299132
 30
0.0
 10
13.3293302206
 20
8.1110548268
 30
0.0
 10
13.3299995677
 20
8.1147421388
 30
0.0
 10
13.33053489
 20
8.1176922271
 30
0.0
 10
13.3309368037
 20
8.1199041467
 30
0.0
 10
13.3312703901
 20
8.1217494691
 30
0.0
 10
13.3315065335
 20
8.1230371599
 30
0.0
 10
13.3316373615
 20
8.1237792833
 30
0.0
 10
13.3317470634
 20
8.1243181286
 30
0.0
 10
13.3318124975
 20
8.1249248127
 30
0.0
 10
13.331915184
 20
8.125710062
 30
0.0
 10
13.3320876912
 20
8.1270952732
 30
0.0
 10
13.3323378913
 20
8.1290683824
 30
0.0
 10
13.3326365211
 20
8.1314385808
 30
0.0
 10
13.3330352587
 20
8.1345979822
 30
0.0
 10
13.3335334723
 20
8.1385475387
 30
0.0
 10
13.334131482
 20
8.1432868383
 30
0.0
 10
13.3347292118
 20
8.1480263233
 30
0.0
 10
13.3353279079
 20
8.152765235
 30
0.0
 10
13.3358238335
 20
8.1567160848
 30
0.0
 10
13.3361768329
 20
8.1594782412
 30
0.0
 10
13.3363694122
 20
8.1610619837
 30
0.0
 10
13.3365395789
 20
8.1622346709
 30
0.0
 10
13.336611384
 20
8.1634651532
 30
0.0
 10
13.3367414338
 20
8.1650856366
 30
0.0
 10
13.3369530348
 20
8.1679308755
 30
0.0
 10
13.3372636852
 20
8.1719905905
 30
0.0
 10
13.337632862
 20
8.1768643568
 30
0.0
 10
13.3380030724
 20
8.181737549
 30
0.0
 10
13.3383727522
 20
8.1866109294
 30
0.0
 10
13.3387435205
 20
8.1914841309
 30
0.0
 10
13.339049308
 20
8.1955455716
 30
0.0
 10
13.3392695739
 20
8.1983877356
 30
0.0
 10
13.3393857422
 20
8.2000131452
 30
0.0
 10
13.3395001867
 20
8.201228496
 30
0.0
 10
13.3395102072
 20
8.2024580146
 30
0.0
 10
13.3395599921
 20
8.2040924309
 30
0.0
 10
13.3396301449
 20
8.2069549619
 30
0.0
 10
13.3397392358
 20
8.2110430881
 30
0.0
 10
13.3398663471
 20
8.2159493548
 30
0.0
 10
13.3400371558
 20
8.2224908637
 30
0.0
 10
13.3402502083
 20
8.230667812
 30
0.0
 10
13.34042079
 20
8.2372093517
 30
0.0
 10
13.3405060634
 20
8.2404801239
 30
0.0
  0
ENDSEC
  0
SECTION
  2
OBJECTS
  0
DICTIONARY
  5
C
100
AcDbDictionary
280
0
281
1
  3
ACAD_GROUP
350
D
  3
ACAD_MLINESTYLE
350
17
  3
ACAD_LAYOUT
350
1A
  3
ACAD_PLOTSETTINGS
350
19
  3
ACAD_PLOTSTYLENAME
350
E
  3
ACAD_IMAGE_DICT
350
       425
  3
ACAD_IMAGE_VARS
350
       426
  3
ACAD_TABLESTYLE
350
       427
  0
IMAGEDEF_REACTOR
  5
424
100
AcDbRasterImageDefReactor
 90
2
330
27C
  0
DICTIONARY
  5
D
102
{ACAD_REACTORS
330
C
102
}
100
AcDbDictionary
280
0
281
1
  0
ACDBDICTIONARYWDFLT
  5
E
102
{ACAD_REACTORS
330
C
102
}
100
AcDbDictionary
281
1
  3
Normal
350
F
100
AcDbDictionaryWithDefault
340
F
  0
DICTIONARY
  5
425
330
C
100
AcDbDictionary
281
1
  3
Z8L_assy_2_img_1
350
       42A
  0
RASTERVARIABLES
  5
426
330
C
100
AcDbRasterVariables
 90
0
 70
0
 71
1
 72
5
  0
DICTIONARY
  5
17
102
{ACAD_REACTORS
330
C
102
}
100
AcDbDictionary
280
0
281
1
  3
Standard
350
18
  0
DICTIONARY
  5
427
330
C
100
AcDbDictionary
281
1
  3
Standard
350
       42B
  3
Standard1
350
       42C
  0
DICTIONARY
  5
19
102
{ACAD_REACTORS
330
C
102
}
100
AcDbDictionary
281
1
  0
DICTIONARY
  5
1A
102
{ACAD_REACTORS
330
C
102
}
100
AcDbDictionary
281
1
  3
Model
350
428
  3
Layout1
350
429
  0
ACDBPLACEHOLDER
  5
F
102
{ACAD_REACTORS
330
E
102
}
  0
MLINESTYLE
  5
18
102
{ACAD_REACTORS
330
17
102
}
100
AcDbMlineStyle
  2
STANDARD
 70
0
  3

 62
256
 51
90.0
 52
90.0
 71
2
 49
0.5
 62
256
  6
BYLAYER
 49
-0.5
 62
256
  6
BYLAYER
  0
LAYOUT
  5
428
102
{ACAD_REACTORS
330
1A
102
}
100
AcDbPlotSettings
  1

  2
none_device
  4
ANSI_C_(22.00_x_17.00_Inches)
  6

 40
0.0
 41
0.0
 42
0.0
 43
0.0
 44
558.8
 45
431.8
 46
0.0
 47
0.0
 48
0.0
 49
0.0
140
0.0
141
0.0
142
1.0
143
1.0
 70
1024
 72
0
 73
0
 74
0
  7

 75
0
147
1.0
148
0.0
149
0.0
100
AcDbLayout
  1
Model
 70
0
 71
0
 10
0.0
 20
0.0
 11
22.0
 21
17.0
 12
0.0
 22
0.0
 32
0.0
 14
0.0
 24
0.0
 34
0.0
 15
0.0
 25
0.0
 35
0.0
146
0.0
 13
0.0
 23
0.0
 33
0.0
 16
1.0
 26
0.0
 36
0.0
 17
0.0
 27
1.0
 37
0.0
 76
0
330
204
345
0
346
0
  0
LAYOUT
  5
429
102
{ACAD_REACTORS
330
1A
102
}
100
AcDbPlotSettings
  1

  2
none_device
  4
ANSI_C_(22.00_x_17.00_Inches)
  6

 40
0.0
 41
0.0
 42
0.0
 43
0.0
 44
558.8
 45
431.8
 46
0.0
 47
0.0
 48
0.0
 49
0.0
140
0.0
141
0.0
142
1.0
143
1.0
 70
0
 72
0
 73
0
 74
0
  7

 75
0
147
1.0
148
0.0
149
0.0
100
AcDbLayout
  1
Layout1
 70
0
 71
1
 10
0.0
 20
0.0
 11
22.0
 21
17.0
 12
0.0
 22
0.0
 32
0.0
 14
0.0
 24
0.0
 34
0.0
 15
0.0
 25
0.0
 35
0.0
146
0.0
 13
0.0
 23
0.0
 33
0.0
 16
1.0
 26
0.0
 36
0.0
 17
0.0
 27
1.0
 37
0.0
 76
0
330
205
345
0
346
0
  0
IMAGEDEF
  5
42A
102
{ACAD_REACTORS
330
425
330
424
102
}
100
AcDbRasterImageDef
 90
0
  1
Z8L_assy_2_img_1.png
 10
369.0
 20
92.0
 11
0.0066666667
 21
0.0066666667
280
1
281
0
  0
TABLESTYLE
  5
42B
102
{ACAD_REACTORS
330
427
330
27F
330
280
102
}
330
427
100
AcDbTableStyle
  3
Standard
 70
0
 71
0
 40
0.06
 41
0.06
280
1
281
1
  7
Standard
140
0.18
170
1
 62
0
 63
7
283
0
  7
Standard
140
0.18
170
1
 62
0
 63
7
283
0
  7
Standard
140
0.18
170
1
 62
0
 63
7
283
0
  0
TABLESTYLE
  5
42C
102
{ACAD_REACTORS
330
427
330
27E
102
}
330
427
100
AcDbTableStyle
  3
Standard1
 70
1
 71
0
 40
0.06
 41
0.06
280
1
281
1
  7
Standard
140
0.18
170
1
 62
0
 63
7
283
0
  7
Standard
140
0.18
170
1
 62
0
 63
7
283
0
  7
Standard
140
0.18
170
1
 62
0
 63
7
283
0
  0
ENDSEC
  0
EOF
