999
DXF file: Z8C_assy_2.dxf
999
Pro/ENGINEER 2014200 by Parametric Technology Corporation
  0
SECTION
  2
HEADER
  9
$ACADVER
  1
AC1021
  9
$DWGCODEPAGE
  3
ANSI_1252
  9
$EXTMAX
 10
22.0
 20
17.0
 30
0.0
  9
$EXTMIN
 10
0.0
 20
0.0
 30
0.0
  9
$LIMMIN
 10
0.0
 20
0.0
  9
$LIMMAX
 10
22.0
 20
17.0
  9
$VIEWCTR
 10
11.0
 20
8.5
  9
$VIEWSIZE
 40
17.0
  9
$CLAYER
  8
0
  9
$LTSCALE
 40
1.21
  9
$CELTYPE
  6
BYLAYER
  9
$DIMSCALE
 40
1.0
  9
$DIMASZ
 40
0.1875
  9
$DIMEXO
 40
0.0625
  9
$DIMDLI
 40
0.836
  9
$DIMEXE
 40
0.125
  9
$DIMCEN
 40
0.198
  9
$DIMLFAC
 40
1.0
  9
$DIMBLK
  1
_FILLED
  9
$DIMTXT
 40
0.1
  9
$DIMTOL
 70
0
  9
$DIMLIM
 70
0
  9
$DIMTFAC
 40
1.0
  9
$DIMGAP
 40
0.09
  9
$DIMDSEP
 70
46
  9
$AUNITS
 70
0
  9
$PDMODE
 70
3
  9
$PDSIZE
 40
0.3125
  9
$HANDSEED
  5
3D4
  9
$TILEMODE
 70
1
  9
$MEASUREMENT
 70
0
  9
$INSUNITS
 70
1
  0
ENDSEC
  0
SECTION
  2
CLASSES
  0
CLASS
  1
ACDBDICTIONARYWDFLT
  2
AcDbDictionaryWithDefault
  3
AutoCAD 2000
 90
0
 91
1
280
0
281
0
  0
CLASS
  1
ACDBPLACEHOLDER
  2
AcDbPlaceHolder
  3
AutoCAD 2000
 90
0
 91
1
280
0
281
0
  0
CLASS
  1
LAYOUT
  2
AcDbLayout
  3
AutoCAD 2000
 90
0
 91
0
280
0
281
0
  0
CLASS
  1
RASTERVARIABLES
  2
AcDbRasterVariables
  3
ISM
 90
0
 91
1
280
0
281
0
  0
CLASS
  1
IMAGEDEF
  2
AcDbRasterImageDef
  3
ISM
 90
0
 91
1
280
0
281
0
  0
CLASS
  1
IMAGEDEF_REACTOR
  2
AcDbRasterImageDefReactor
  3
ISM
 90
0
 91
1
280
0
281
0
  0
CLASS
  1
IMAGE
  2
AcDbRasterImage
  3
ISM
 90
127
 91
1
280
0
281
1
  0
CLASS
  1
TABLESTYLE
  2
AcDbTableStyle
  3
ObjectDBX Classes
 90
2047
 91
1
280
0
281
0
  0
CLASS
  1
ACAD_TABLE
  2
AcDbTable
  3
ObjectDBX Classes
 90
1025
 91
3
280
0
281
1
  0
ENDSEC
  0
SECTION
  2
TABLES
  0
TABLE
  2
VPORT
  5
8
100
AcDbSymbolTable
 70
2
  0
VPORT
  5
1F4
100
AcDbSymbolTableRecord
100
AcDbViewportTableRecord
  2
*ACTIVE
 70
0
 10
0.0
 20
0.0
 11
1.0
 21
1.0
 12
11.0
 22
8.5
 13
0.0
 23
0.0
 14
1.0
 24
1.0
 15
0.0
 25
0.0
 16
0.0
 26
0.0
 36
1.0
 17
0.0
 27
0.0
 37
0.0
 40
17.0
 41
1.2941176471
 42
50.0
 43
0.0
 44
0.0
 50
0.0
 51
0.0
 71
0
 72
100
 73
1
 74
1
 75
0
 76
0
 77
0
 78
0
  0
ENDTAB
  0
TABLE
  2
LTYPE
  5
5
100
AcDbSymbolTable
 70
6
  0
LTYPE
  5
14
100
AcDbSymbolTableRecord
100
AcDbLinetypeTableRecord
  2
BYBLOCK
 70
0
  3

 72
65
 73
0
 40
0.0
  0
LTYPE
  5
15
100
AcDbSymbolTableRecord
100
AcDbLinetypeTableRecord
  2
BYLAYER
 70
0
  3

 72
65
 73
0
 40
0.0
  0
LTYPE
  5
16
100
AcDbSymbolTableRecord
100
AcDbLinetypeTableRecord
  2
CONTINUOUS
 70
64
  3
Solid line
 72
65
 73
0
 40
0.0
  0
LTYPE
  5
1F5
100
AcDbSymbolTableRecord
100
AcDbLinetypeTableRecord
  2
CENTER
 70
64
  3
____ _ ____ _ ____ _ ____ _ ____ _ ____ _ ____
 72
65
 73
4
 40
0.6
 49
0.375
 74
0
 49
-0.075
 74
0
 49
0.075
 74
0
 49
-0.075
 74
0
  0
LTYPE
  5
1F6
100
AcDbSymbolTableRecord
100
AcDbLinetypeTableRecord
  2
HIDDEN
 70
64
  3
- - - - - - - - - - - - - - - - - - - -
 72
65
 73
2
 40
0.2
 49
0.1
 74
0
 49
-0.1
 74
0
  0
LTYPE
  5
1F7
100
AcDbSymbolTableRecord
100
AcDbLinetypeTableRecord
  2
PHANTOM
 70
64
  3
_____ _ _ _____ _ _ _____ _ _ _____
 72
65
 73
6
 40
0.8
 49
0.45
 74
0
 49
-0.05
 74
0
 49
0.1
 74
0
 49
-0.05
 74
0
 49
0.1
 74
0
 49
-0.05
 74
0
  0
LTYPE
  5
1F8
100
AcDbSymbolTableRecord
100
AcDbLinetypeTableRecord
  2
DOT
 70
64
  3
. . . . . . . . . . . . . . . . . . . .
 72
65
 73
2
 40
0.2
 49
0.1
 74
0
 49
-0.1
 74
0
  0
LTYPE
  5
1F9
100
AcDbSymbolTableRecord
100
AcDbLinetypeTableRecord
  2
DASHED
 70
64
  3
- - - - - - - - - - - - - - - - - - - -
 72
65
 73
2
 40
0.2
 49
0.1
 74
0
 49
-0.1
 74
0
  0
ENDTAB
  0
TABLE
  2
LAYER
  5
2
100
AcDbSymbolTable
 70
36
  0
LAYER
  5
10
100
AcDbSymbolTableRecord
100
AcDbLayerTableRecord
  2
0
 70
0
 62
7
  6
CONTINUOUS
370
-3
390
F
  0
LAYER
  5
1FA
100
AcDbSymbolTableRecord
100
AcDbLayerTableRecord
  2
DEFAULT_1
 70
0
 62
7
  6
CENTER
370
-3
390
F
  0
LAYER
  5
1FB
100
AcDbSymbolTableRecord
100
AcDbLayerTableRecord
  2
DEFAULT_2
 70
0
 62
8
  6
HIDDEN
370
-3
390
F
  0
LAYER
  5
1FC
100
AcDbSymbolTableRecord
100
AcDbLayerTableRecord
  2
DEFAULT_3
 70
0
 62
7
  6
PHANTOM
370
-3
390
F
  0
LAYER
  5
1FD
100
AcDbSymbolTableRecord
100
AcDbLayerTableRecord
  2
DATUM_PLANES
 70
0
 62
7
  6
CONTINUOUS
370
-3
390
F
  0
LAYER
  5
1FE
100
AcDbSymbolTableRecord
100
AcDbLayerTableRecord
  2
PORT_AREAS
 70
0
 62
7
  6
CONTINUOUS
370
-3
390
F
  0
LAYER
  5
1FF
100
AcDbSymbolTableRecord
100
AcDbLayerTableRecord
  2
SUNNBOMCOSMETIC
 70
0
 62
7
  6
CONTINUOUS
370
-3
390
F
  0
LAYER
  5
200
100
AcDbSymbolTableRecord
100
AcDbLayerTableRecord
  2
SUNNBOMSTAMPING
 70
0
 62
7
  6
CONTINUOUS
370
-3
390
F
  0
LAYER
  5
201
100
AcDbSymbolTableRecord
100
AcDbLayerTableRecord
  2
THREADS
 70
0
 62
7
  6
CONTINUOUS
370
-3
390
F
  0
ENDTAB
  0
TABLE
  2
STYLE
  5
3
100
AcDbSymbolTable
 70
1
  0
STYLE
  5
11
100
AcDbSymbolTableRecord
100
AcDbTextStyleTableRecord
  2
STANDARD
 70
0
 40
0.0
 41
0.8
 50
0.0
 71
0
 42
0.2
  3
txt
  4

  0
STYLE
  5
202
100
AcDbSymbolTableRecord
100
AcDbTextStyleTableRecord
  2
TEXTSTYLE_1
 70
0
 40
0.0
 41
0.8
 50
0.0
 71
0
 42
0.2
  3
gdt
  4

  0
ENDTAB
  0
TABLE
  2
VIEW
  5
6
100
AcDbSymbolTable
 70
0
  0
ENDTAB
  0
TABLE
  2
UCS
  5
7
100
AcDbSymbolTable
 70
0
  0
ENDTAB
  0
TABLE
  2
APPID
  5
9
100
AcDbSymbolTable
 70
1
  0
APPID
  5
203
100
AcDbSymbolTableRecord
100
AcDbRegAppTableRecord
  2
ACAD
 70
0
  0
ENDTAB
  0
TABLE
  2
BLOCK_RECORD
  5
1
100
AcDbSymbolTable
 70
0
  0
BLOCK_RECORD
  5
204
100
AcDbSymbolTableRecord
100
AcDbBlockTableRecord
  2
*Model_Space
  0
BLOCK_RECORD
  5
205
100
AcDbSymbolTableRecord
100
AcDbBlockTableRecord
  2
*Paper_Space
  0
BLOCK_RECORD
  5
206
100
AcDbSymbolTableRecord
100
AcDbBlockTableRecord
  2
SUN_FIRST_THIRD_ANGLE_BL0
  0
BLOCK_RECORD
  5
207
100
AcDbSymbolTableRecord
100
AcDbBlockTableRecord
  2
*T1
  0
BLOCK_RECORD
  5
208
100
AcDbSymbolTableRecord
100
AcDbBlockTableRecord
  2
*T2
  0
BLOCK_RECORD
  5
209
100
AcDbSymbolTableRecord
100
AcDbBlockTableRecord
  2
*T3
  0
ENDTAB
  0
TABLE
  2
DIMSTYLE
  5
A
100
AcDbSymbolTable
 70
1
100
AcDbDimStyleTable
 71
0
  0
DIMSTYLE
105
20A
100
AcDbSymbolTableRecord
100
AcDbDimStyleTableRecord
  2
STANDARD
 70
0
  3

  4

 40
1.0
 41
0.1875
 42
0.0625
 43
0.38
 44
0.125
 45
0.0
 46
0.0
 47
0.001
 48
0.001
140
0.1
141
0.09
142
0.0
143
25.4
144
1.0
145
0.0
146
1.0
147
0.09
 71
0.0
 72
0.0
 73
1
 74
1
 75
0
 76
0
 77
0
 78
4
170
0
171
2
172
0
173
0
174
0
175
0
176
0
177
0
178
0
270
2
271
3
272
3
273
2
274
2
275
0
280
0
281
0
282
0
283
1
284
4
285
0
286
0
287
3
288
0
340
11
278
46
  0
ENDTAB
  0
ENDSEC
  0
SECTION
  2
BLOCKS
  0
BLOCK
  5
20
100
AcDbEntity
  8
0
100
AcDbBlockBegin
  2
*Model_Space
 70
0
 10
0.0
 20
0.0
 30
0.0
  3
*Model_Space
  1

  0
ENDBLK
  5
21
100
AcDbEntity
  8
0
100
AcDbBlockEnd
  0
BLOCK
  5
1C
100
AcDbEntity
  8
0
100
AcDbBlockBegin
  2
*Paper_Space
 70
0
 10
0.0
 20
0.0
 30
0.0
  3
*Paper_Space
  1

  0
ENDBLK
  5
1D
100
AcDbEntity
  8
0
100
AcDbBlockEnd
  0
BLOCK
  5
20B
100
AcDbEntity
  8
0
100
AcDbBlockBegin
 62
2
  6
CONTINUOUS
  2
SUN_FIRST_THIRD_ANGLE_BL0
 70
64
 10
20.4816717061
 20
1.2289683772
  3
SUN_FIRST_THIRD_ANGLE_BL0
  1

  0
TEXT
  5
20C
100
AcDbEntity
  8
0
100
AcDbText
 62
2
  6
CONTINUOUS
 10
19.4750896608
 20
1.4136269581
  7
STANDARD
 40
0.08
  1
FIRST ANGLE
 41
0.8
 72
0
100
AcDbText
  0
TEXT
  5
20D
100
AcDbEntity
  8
0
100
AcDbText
 62
2
  6
CONTINUOUS
 10
20.7842537513
 20
1.4047600029
  7
STANDARD
 40
0.08
  1
THIRD ANGLE
 41
0.8
 72
0
100
AcDbText
  0
LINE
  5
20E
100
AcDbEntity
  8
0
100
AcDbLine
 62
7
  6
CONTINUOUS
 10
19.4767170086
 20
1.1727031207
 11
19.6334271527
 21
1.1717972817
  0
LINE
  5
20F
100
AcDbEntity
  8
0
100
AcDbLine
 62
7
  6
CONTINUOUS
 10
19.6596964832
 20
1.1717972817
 11
19.6950230232
 21
1.171593082
  0
LINE
  5
210
100
AcDbEntity
  8
0
100
AcDbLine
 62
7
  6
CONTINUOUS
 10
19.7194818561
 20
1.1708914427
 11
19.8852396156
 21
1.1699333054
  0
LINE
  5
211
100
AcDbEntity
  8
0
100
AcDbLine
 62
7
  6
CONTINUOUS
 10
19.4758111696
 20
1.2723454088
 11
19.88525039
 21
1.3511534004
  0
LINE
  5
212
100
AcDbEntity
  8
0
100
AcDbLine
 62
7
  6
CONTINUOUS
 10
19.88525039
 20
1.3511534004
 11
19.8831348489
 21
0.9851647912
  0
LINE
  5
213
100
AcDbEntity
  8
0
100
AcDbLine
 62
7
  6
CONTINUOUS
 10
19.8831348489
 20
0.9851647912
 11
19.4767170086
 21
1.0658141206
  0
LINE
  5
214
100
AcDbEntity
  8
0
100
AcDbLine
 62
7
  6
CONTINUOUS
 10
19.4767170086
 20
1.0658141206
 11
19.4779056764
 21
1.2714536432
  0
CIRCLE
  5
215
100
AcDbEntity
  8
0
100
AcDbCircle
 62
7
  6
CONTINUOUS
 10
20.2068232291
 20
1.1717972817
 40
0.175742101
  0
CIRCLE
  5
216
100
AcDbEntity
  8
0
100
AcDbCircle
 62
7
  6
CONTINUOUS
 10
20.2068232291
 20
1.1717972817
 40
0.1005522074
  0
LINE
  5
217
100
AcDbEntity
  8
0
100
AcDbLine
 62
7
  6
CONTINUOUS
 10
20.2077290681
 20
1.3756110529
 11
20.2071171714
 21
1.2379342989
  0
LINE
  5
218
100
AcDbEntity
  8
0
100
AcDbLine
 62
7
  6
CONTINUOUS
 10
20.2077290681
 20
1.2016899681
 11
20.2074674401
 21
1.1428236749
  0
LINE
  5
219
100
AcDbEntity
  8
0
100
AcDbLine
 62
7
  6
CONTINUOUS
 10
20.208634907
 20
1.101141841
 11
20.2080230104
 21
0.963465087
  0
LINE
  5
21A
100
AcDbEntity
  8
0
100
AcDbLine
 62
7
  6
CONTINUOUS
 10
20.0066328138
 20
1.1745147986
 11
20.1443095678
 21
1.1739029019
  0
LINE
  5
21B
100
AcDbEntity
  8
0
100
AcDbLine
 62
7
  6
CONTINUOUS
 10
20.1832714155
 20
1.1727031207
 11
20.238153505
 21
1.172335442
  0
LINE
  5
21C
100
AcDbEntity
  8
0
100
AcDbLine
 62
7
  6
CONTINUOUS
 10
20.2756669918
 20
1.1717972817
 11
20.407916871
 21
1.1712095044
  0
CIRCLE
  5
21D
100
AcDbEntity
  8
0
100
AcDbCircle
 62
7
  6
CONTINUOUS
 10
20.7509457401
 20
1.1693297793
 40
0.1722024983
  0
CIRCLE
  5
21E
100
AcDbEntity
  8
0
100
AcDbCircle
 62
7
  6
CONTINUOUS
 10
20.7509457401
 20
1.1693297793
 40
0.0985164967
  0
LINE
  5
21F
100
AcDbEntity
  8
0
100
AcDbLine
 62
7
  6
CONTINUOUS
 10
20.7169767782
 20
1.170462078
 11
20.7825395137
 21
1.1682766535
  0
LINE
  5
220
100
AcDbEntity
  8
0
100
AcDbLine
 62
7
  6
CONTINUOUS
 10
20.8177513651
 20
1.1693297793
 11
20.947965719
 21
1.1693297793
  0
LINE
  5
221
100
AcDbEntity
  8
0
100
AcDbLine
 62
7
  6
CONTINUOUS
 10
20.6875370113
 20
1.170462078
 11
20.5573226574
 21
1.170462078
  0
LINE
  5
222
100
AcDbEntity
  8
0
100
AcDbLine
 62
7
  6
CONTINUOUS
 10
20.7486811426
 20
1.1987695462
 11
20.7486811426
 21
1.1432869085
  0
LINE
  5
223
100
AcDbEntity
  8
0
100
AcDbLine
 62
7
  6
CONTINUOUS
 10
20.7498134414
 20
1.1059210505
 11
20.7498134414
 21
0.9757066966
  0
LINE
  5
224
100
AcDbEntity
  8
0
100
AcDbLine
 62
7
  6
CONTINUOUS
 10
20.7486811426
 20
1.2338708068
 11
20.7486811426
 21
1.3640851607
  0
LINE
  5
225
100
AcDbEntity
  8
0
100
AcDbLine
 62
7
  6
CONTINUOUS
 10
21.0702539817
 20
1.2701043662
 11
21.4790138229
 21
1.3448360823
  0
LINE
  5
226
100
AcDbEntity
  8
0
100
AcDbLine
 62
7
  6
CONTINUOUS
 10
21.4790138229
 20
1.3448360823
 11
21.4790138229
 21
0.9779712941
  0
LINE
  5
227
100
AcDbEntity
  8
0
100
AcDbLine
 62
7
  6
CONTINUOUS
 10
21.4790138229
 20
0.9779712941
 11
21.069121683
 21
1.0617614
  0
LINE
  5
228
100
AcDbEntity
  8
0
100
AcDbLine
 62
7
  6
CONTINUOUS
 10
21.0702539817
 20
1.2701043662
 11
21.069121683
 21
1.0617614
  0
LINE
  5
229
100
AcDbEntity
  8
0
100
AcDbLine
 62
7
  6
CONTINUOUS
 10
21.4790138229
 20
1.1693297793
 11
21.3159628059
 21
1.1693297793
  0
LINE
  5
22A
100
AcDbEntity
  8
0
100
AcDbLine
 62
7
  6
CONTINUOUS
 10
21.2876553377
 20
1.1693297793
 11
21.2502894796
 21
1.1693297793
  0
LINE
  5
22B
100
AcDbEntity
  8
0
100
AcDbLine
 62
7
  6
CONTINUOUS
 10
21.2208497126
 20
1.1659328831
 11
21.0713862804
 21
1.1659328831
  0
LINE
  5
22C
100
AcDbEntity
  8
0
100
AcDbLine
 62
7
  6
CONTINUOUS
 10
20.4796138713
 20
1.5284908897
 11
20.4766766948
 21
0.9294458646
  0
ENDBLK
  5
22D
100
AcDbEntity
  8
0
  6
BYBLOCK
 62
0
100
AcDbBlockEnd
  0
BLOCK
  5
22E
100
AcDbEntity
  8
0
100
AcDbBlockBegin
  2
*T1
 70
1
 10
0.0
 20
0.0
  3
*T1
  1

  0
LINE
  5
22F
100
AcDbEntity
  8
0
100
AcDbLine
 62
2
  6
CONTINUOUS
 10
9.275
 20
0.0
 11
-0.0
 21
0.0
  0
LINE
  5
230
100
AcDbEntity
  8
0
100
AcDbLine
 62
2
  6
CONTINUOUS
 10
9.275
 20
0.0
 11
9.275
 21
1.25
  0
LINE
  5
231
100
AcDbEntity
  8
0
100
AcDbLine
 62
2
  6
CONTINUOUS
 10
9.275
 20
0.625
 11
-0.0
 21
0.625
  0
LINE
  5
232
100
AcDbEntity
  8
0
100
AcDbLine
 62
2
  6
CONTINUOUS
 10
9.275
 20
1.25
 11
-0.0
 21
1.25
  0
LINE
  5
233
100
AcDbEntity
  8
0
100
AcDbLine
 62
2
  6
CONTINUOUS
 10
6.8
 20
0.0
 11
6.8
 21
1.25
  0
LINE
  5
234
100
AcDbEntity
  8
0
100
AcDbLine
 62
2
  6
CONTINUOUS
 10
6.4
 20
0.0
 11
6.4
 21
0.625
  0
LINE
  5
235
100
AcDbEntity
  8
0
100
AcDbLine
 62
2
  6
CONTINUOUS
 10
5.9
 20
0.0
 11
5.9
 21
0.625
  0
LINE
  5
236
100
AcDbEntity
  8
0
100
AcDbLine
 62
2
  6
CONTINUOUS
 10
5.2
 20
0.0
 11
5.2
 21
0.625
  0
LINE
  5
237
100
AcDbEntity
  8
0
100
AcDbLine
 62
2
  6
CONTINUOUS
 10
4.1
 20
0.0
 11
4.1
 21
1.25
  0
LINE
  5
238
100
AcDbEntity
  8
0
100
AcDbLine
 62
2
  6
CONTINUOUS
 10
-0.0
 20
0.0
 11
-0.0
 21
1.25
  0
MTEXT
  5
239
100
AcDbEntity
  8
0
100
AcDbMText
 62
2
  6
CONTINUOUS
  7
STANDARD
 71
2
 72
1
 10
6.6
 20
0.325
 30
0.0
 11
1.0
 21
0.0
 31
0.0
 44
0.9
  1
2
 40
0.125
 41
0.2
  0
MTEXT
  5
23A
100
AcDbEntity
  8
0
100
AcDbMText
 62
2
  6
CONTINUOUS
  7
STANDARD
 71
2
 72
1
 10
6.15
 20
0.325
 30
0.0
 11
1.0
 21
0.0
 31
0.0
 44
0.9
  1
C
 40
0.125
 41
0.2
  0
MTEXT
  5
23B
100
AcDbEntity
  8
0
100
AcDbMText
 62
2
  6
CONTINUOUS
  7
STANDARD
 71
2
 72
1
 10
5.55
 20
0.325
 30
0.0
 11
1.0
 21
0.0
 31
0.0
 44
0.9
  1
2.000
 40
0.125
 41
1.0
  0
MTEXT
  5
23C
100
AcDbEntity
  8
0
100
AcDbMText
 62
2
  6
CONTINUOUS
  7
STANDARD
 71
2
 72
1
 10
4.65
 20
0.325
 30
0.0
 11
1.0
 21
0.0
 31
0.0
 44
0.9
  1
Mar-29-23
 40
0.125
 41
1.8
  0
MTEXT
  5
23D
100
AcDbEntity
  8
0
100
AcDbMText
 62
2
  6
CONTINUOUS
  7
STANDARD
 71
2
 72
1
 10
2.05
 20
0.4625
 30
0.0
 11
1.0
 21
0.0
 31
0.0
 44
0.9
  1
T-10A Line mount\PCross port with shuttle
 40
0.125
 41
4.6
  0
MTEXT
  5
23E
100
AcDbEntity
  8
0
100
AcDbMText
 62
2
  6
CONTINUOUS
  7
STANDARD
 71
1
 72
1
 10
6.45
 20
0.5625
 30
0.0
 11
1.0
 21
0.0
 31
0.0
 44
0.9
  1
SHEET
 40
0.06
 41
0.48
  0
MTEXT
  5
23F
100
AcDbEntity
  8
0
100
AcDbMText
 62
2
  6
CONTINUOUS
  7
STANDARD
 71
1
 72
1
 10
5.95
 20
0.5625
 30
0.0
 11
1.0
 21
0.0
 31
0.0
 44
0.9
  1
DWG SIZE
 40
0.06
 41
0.768
  0
MTEXT
  5
240
100
AcDbEntity
  8
0
100
AcDbMText
 62
2
  6
CONTINUOUS
  7
STANDARD
 71
1
 72
1
 10
5.25
 20
0.5625
 30
0.0
 11
1.0
 21
0.0
 31
0.0
 44
0.9
  1
SCALE
 40
0.06
 41
0.48
  0
MTEXT
  5
241
100
AcDbEntity
  8
0
100
AcDbMText
 62
2
  6
CONTINUOUS
  7
STANDARD
 71
1
 72
1
 10
4.15
 20
0.5625
 30
0.0
 11
1.0
 21
0.0
 31
0.0
 44
0.9
  1
DATE
 40
0.06
 41
0.384
  0
MTEXT
  5
242
100
AcDbEntity
  8
0
100
AcDbMText
 62
2
  6
CONTINUOUS
  7
STANDARD
 71
1
 72
1
 10
0.05
 20
0.5625
 30
0.0
 11
1.0
 21
0.0
 31
0.0
 44
0.9
  1
DESCRIPTION
 40
0.06
 41
1.056
  0
MTEXT
  5
243
100
AcDbEntity
  8
0
100
AcDbMText
 62
2
  6
CONTINUOUS
  7
STANDARD
 71
2
 72
1
 10
5.45
 20
1.0375
 30
0.0
 11
1.0
 21
0.0
 31
0.0
 44
0.9
  1
ALL DIMENSIONS IN INCH\PVIEWS ARE THIRD ANGLE
 40
0.12
 41
4.224
  0
MTEXT
  5
244
100
AcDbEntity
  8
0
100
AcDbMText
 62
2
  6
CONTINUOUS
  7
STANDARD
 71
2
 72
1
 10
2.05
 20
0.95
 30
0.0
 11
1.0
 21
0.0
 31
0.0
 44
0.9
  1
Z8C
 40
0.125
 41
0.6
  0
MTEXT
  5
245
100
AcDbEntity
  8
0
100
AcDbMText
 62
2
  6
CONTINUOUS
  7
STANDARD
 71
1
 72
1
 10
0.05
 20
1.1875
 30
0.0
 11
1.0
 21
0.0
 31
0.0
 44
0.9
  1
MODEL
 40
0.06
 41
0.48
  0
ENDBLK
  5
246
100
AcDbEntity
  8
0
  6
BYBLOCK
 62
0
100
AcDbBlockEnd
  0
BLOCK
  5
247
100
AcDbEntity
  8
0
100
AcDbBlockBegin
  2
*T2
 70
1
 10
0.0
 20
0.0
  3
*T2
  1

  0
LINE
  5
248
100
AcDbEntity
  8
0
100
AcDbLine
 62
2
  6
CONTINUOUS
 10
0.0
 20
0.0
 11
9.055
 21
0.0
  0
LINE
  5
249
100
AcDbEntity
  8
0
100
AcDbLine
 62
2
  6
CONTINUOUS
 10
0.0
 20
0.0
 11
0.0
 21
-2.844
  0
LINE
  5
24A
100
AcDbEntity
  8
0
100
AcDbLine
 62
2
  6
CONTINUOUS
 10
0.0
 20
-0.344
 11
9.055
 21
-0.344
  0
LINE
  5
24B
100
AcDbEntity
  8
0
100
AcDbLine
 62
2
  6
CONTINUOUS
 10
0.0
 20
-0.594
 11
9.055
 21
-0.594
  0
LINE
  5
24C
100
AcDbEntity
  8
0
100
AcDbLine
 62
2
  6
CONTINUOUS
 10
0.0
 20
-0.844
 11
9.055
 21
-0.844
  0
LINE
  5
24D
100
AcDbEntity
  8
0
100
AcDbLine
 62
2
  6
CONTINUOUS
 10
0.0
 20
-1.094
 11
9.055
 21
-1.094
  0
LINE
  5
24E
100
AcDbEntity
  8
0
100
AcDbLine
 62
2
  6
CONTINUOUS
 10
0.0
 20
-1.344
 11
9.055
 21
-1.344
  0
LINE
  5
24F
100
AcDbEntity
  8
0
100
AcDbLine
 62
2
  6
CONTINUOUS
 10
0.0
 20
-1.594
 11
9.055
 21
-1.594
  0
LINE
  5
250
100
AcDbEntity
  8
0
100
AcDbLine
 62
2
  6
CONTINUOUS
 10
0.0
 20
-1.844
 11
9.055
 21
-1.844
  0
LINE
  5
251
100
AcDbEntity
  8
0
100
AcDbLine
 62
2
  6
CONTINUOUS
 10
0.0
 20
-2.094
 11
9.055
 21
-2.094
  0
LINE
  5
252
100
AcDbEntity
  8
0
100
AcDbLine
 62
2
  6
CONTINUOUS
 10
0.0
 20
-2.344
 11
9.055
 21
-2.344
  0
LINE
  5
253
100
AcDbEntity
  8
0
100
AcDbLine
 62
2
  6
CONTINUOUS
 10
0.0
 20
-2.594
 11
9.055
 21
-2.594
  0
LINE
  5
254
100
AcDbEntity
  8
0
100
AcDbLine
 62
2
  6
CONTINUOUS
 10
0.0
 20
-2.844
 11
9.055
 21
-2.844
  0
LINE
  5
255
100
AcDbEntity
  8
0
100
AcDbLine
 62
2
  6
CONTINUOUS
 10
3.055
 20
0.0
 11
3.055
 21
-2.844
  0
LINE
  5
256
100
AcDbEntity
  8
0
100
AcDbLine
 62
2
  6
CONTINUOUS
 10
9.055
 20
0.0
 11
9.055
 21
-2.844
  0
MTEXT
  5
257
100
AcDbEntity
  8
0
100
AcDbMText
 62
2
  6
CONTINUOUS
  7
STANDARD
 71
2
 72
1
 10
1.5275
 20
-0.0995
 30
0.0
 11
1.0
 21
0.0
 31
0.0
 44
0.9
  1
Technical Data
 40
0.145
 41
3.248
  0
MTEXT
  5
258
100
AcDbEntity
  8
0
100
AcDbMText
 62
2
  6
CONTINUOUS
  7
STANDARD
 71
2
 72
1
 10
4.555
 20
-0.0995
 30
0.0
 11
1.0
 21
0.0
 31
0.0
 44
0.9
  1
U.S. Units
 40
0.145
 41
2.32
  0
MTEXT
  5
259
100
AcDbEntity
  8
0
100
AcDbMText
 62
2
  6
CONTINUOUS
  7
STANDARD
 71
2
 72
1
 10
7.555
 20
-0.0995
 30
0.0
 11
1.0
 21
0.0
 31
0.0
 44
0.9
  1
Metric Units
 40
0.145
 41
2.784
  0
MTEXT
  5
25A
100
AcDbEntity
  8
0
100
AcDbMText
 62
2
  6
CONTINUOUS
  7
STANDARD
 71
2
 72
1
 10
1.5275
 20
-0.4065
 30
0.0
 11
1.0
 21
0.0
 31
0.0
 44
0.9
  1
Cavity
 40
0.125
 41
1.2
  0
MTEXT
  5
25B
100
AcDbEntity
  8
0
100
AcDbMText
 62
2
  6
CONTINUOUS
  7
STANDARD
 71
2
 72
1
 10
6.055
 20
-0.4065
 30
0.0
 11
1.0
 21
0.0
 31
0.0
 44
0.9
  1
T-10A
 40
0.125
 41
1.0
  0
MTEXT
  5
25C
100
AcDbEntity
  8
0
100
AcDbMText
 62
2
  6
CONTINUOUS
  7
STANDARD
 71
2
 72
1
 10
1.5275
 20
-0.6565
 30
0.0
 11
1.0
 21
0.0
 31
0.0
 44
0.9
  1
Body Features
 40
0.125
 41
2.6
  0
MTEXT
  5
25D
100
AcDbEntity
  8
0
100
AcDbMText
 62
2
  6
CONTINUOUS
  7
STANDARD
 71
2
 72
1
 10
6.055
 20
-0.6565
 30
0.0
 11
1.0
 21
0.0
 31
0.0
 44
0.9
  1
Cross port with shuttle
 40
0.125
 41
4.6
  0
MTEXT
  5
25E
100
AcDbEntity
  8
0
100
AcDbMText
 62
2
  6
CONTINUOUS
  7
STANDARD
 71
2
 72
1
 10
1.5275
 20
-0.9065
 30
0.0
 11
1.0
 21
0.0
 31
0.0
 44
0.9
  1
Body Type
 40
0.125
 41
1.8
  0
MTEXT
  5
25F
100
AcDbEntity
  8
0
100
AcDbMText
 62
2
  6
CONTINUOUS
  7
STANDARD
 71
2
 72
1
 10
6.055
 20
-0.9065
 30
0.0
 11
1.0
 21
0.0
 31
0.0
 44
0.9
  1
Line mount
 40
0.125
 41
2.0
  0
MTEXT
  5
260
100
AcDbEntity
  8
0
100
AcDbMText
 62
2
  6
CONTINUOUS
  7
STANDARD
 71
2
 72
1
 10
1.5275
 20
-1.1565
 30
0.0
 11
1.0
 21
0.0
 31
0.0
 44
0.9
  1
Interface
 40
0.125
 41
1.8
  0
MTEXT
  5
261
100
AcDbEntity
  8
0
100
AcDbMText
 62
2
  6
CONTINUOUS
  7
STANDARD
 71
2
 72
1
 10
6.055
 20
-1.1565
 30
0.0
 11
1.0
 21
0.0
 31
0.0
 44
0.9
  1
None
 40
0.125
 41
0.8
  0
MTEXT
  5
262
100
AcDbEntity
  8
0
100
AcDbMText
 62
2
  6
CONTINUOUS
  7
STANDARD
 71
2
 72
1
 10
1.5275
 20
-1.4065
 30
0.0
 11
1.0
 21
0.0
 31
0.0
 44
0.9
  1
Open Cavity Quantity
 40
0.125
 41
4.0
  0
MTEXT
  5
263
100
AcDbEntity
  8
0
100
AcDbMText
 62
2
  6
CONTINUOUS
  7
STANDARD
 71
2
 72
1
 10
6.055
 20
-1.4065
 30
0.0
 11
1.0
 21
0.0
 31
0.0
 44
0.9
  1
2
 40
0.125
 41
0.2
  0
MTEXT
  5
264
100
AcDbEntity
  8
0
100
AcDbMText
 62
2
  6
CONTINUOUS
  7
STANDARD
 71
2
 72
1
 10
1.5275
 20
-1.6565
 30
0.0
 11
1.0
 21
0.0
 31
0.0
 44
0.9
  1
Weight
 40
0.125
 41
1.2
  0
MTEXT
  5
265
100
AcDbEntity
  8
0
100
AcDbMText
 62
2
  6
CONTINUOUS
  7
STANDARD
 71
2
 72
1
 10
4.555
 20
-1.6565
 30
0.0
 11
1.0
 21
0.0
 31
0.0
 44
0.9
  1
2.150 lb.
 40
0.125
 41
1.8
  0
MTEXT
  5
266
100
AcDbEntity
  8
0
100
AcDbMText
 62
2
  6
CONTINUOUS
  7
STANDARD
 71
2
 72
1
 10
7.555
 20
-1.6565
 30
0.0
 11
1.0
 21
0.0
 31
0.0
 44
0.9
  1
0,975 kg.
 40
0.125
 41
1.8
  0
MTEXT
  5
267
100
AcDbEntity
  8
0
100
AcDbMText
 62
2
  6
CONTINUOUS
  7
STANDARD
 71
2
 72
1
 10
1.5275
 20
-1.9065
 30
0.0
 11
1.0
 21
0.0
 31
0.0
 44
0.9
  1
Mounting Hole Diameter
 40
0.125
 41
4.4
  0
MTEXT
  5
268
100
AcDbEntity
  8
0
100
AcDbMText
 62
2
  6
CONTINUOUS
  7
STANDARD
 71
2
 72
1
 10
4.555
 20
-1.9065
 30
0.0
 11
1.0
 21
0.0
 31
0.0
 44
0.9
  1
.34 in.
 40
0.125
 41
1.4
  0
MTEXT
  5
269
100
AcDbEntity
  8
0
100
AcDbMText
 62
2
  6
CONTINUOUS
  7
STANDARD
 71
2
 72
1
 10
7.555
 20
-1.9065
 30
0.0
 11
1.0
 21
0.0
 31
0.0
 44
0.9
  1
8.6 mm
 40
0.125
 41
1.2
  0
MTEXT
  5
26A
100
AcDbEntity
  8
0
100
AcDbMText
 62
2
  6
CONTINUOUS
  7
STANDARD
 71
2
 72
1
 10
1.5275
 20
-2.1565
 30
0.0
 11
1.0
 21
0.0
 31
0.0
 44
0.9
  1
Mounting Hole Depth
 40
0.125
 41
3.8
  0
MTEXT
  5
26B
100
AcDbEntity
  8
0
100
AcDbMText
 62
2
  6
CONTINUOUS
  7
STANDARD
 71
2
 72
1
 10
6.055
 20
-2.1565
 30
0.0
 11
1.0
 21
0.0
 31
0.0
 44
0.9
  1
Through
 40
0.125
 41
1.4
  0
MTEXT
  5
26C
100
AcDbEntity
  8
0
100
AcDbMText
 62
2
  6
CONTINUOUS
  7
STANDARD
 71
2
 72
1
 10
1.5275
 20
-2.4065
 30
0.0
 11
1.0
 21
0.0
 31
0.0
 44
0.9
  1
Mounting Hole Quantity
 40
0.125
 41
4.4
  0
MTEXT
  5
26D
100
AcDbEntity
  8
0
100
AcDbMText
 62
2
  6
CONTINUOUS
  7
STANDARD
 71
2
 72
1
 10
6.055
 20
-2.4065
 30
0.0
 11
1.0
 21
0.0
 31
0.0
 44
0.9
  1
2
 40
0.125
 41
0.2
  0
MTEXT
  5
26E
100
AcDbEntity
  8
0
100
AcDbMText
 62
2
  6
CONTINUOUS
  7
STANDARD
 71
2
 72
1
 10
1.5275
 20
-2.6565
 30
0.0
 11
1.0
 21
0.0
 31
0.0
 44
0.9
  1
Includes integral cartridge(s)
 40
0.125
 41
6.0
  0
MTEXT
  5
26F
100
AcDbEntity
  8
0
100
AcDbMText
 62
2
  6
CONTINUOUS
  7
STANDARD
 71
2
 72
1
 10
6.055
 20
-2.6565
 30
0.0
 11
1.0
 21
0.0
 31
0.0
 44
0.9
  1
Yes (see Included Components)
 40
0.125
 41
5.8
  0
ENDBLK
  5
270
100
AcDbEntity
  8
0
  6
BYBLOCK
 62
0
100
AcDbBlockEnd
  0
BLOCK
  5
271
100
AcDbEntity
  8
0
100
AcDbBlockBegin
  2
*T3
 70
1
 10
0.0
 20
0.0
  3
*T3
  1

  0
LINE
  5
272
100
AcDbEntity
  8
0
100
AcDbLine
 62
2
  6
CONTINUOUS
 10
0.0
 20
0.0
 11
4.6
 21
0.0
  0
LINE
  5
273
100
AcDbEntity
  8
0
100
AcDbLine
 62
2
  6
CONTINUOUS
 10
0.0
 20
0.0
 11
0.0
 21
-1.18775
  0
LINE
  5
274
100
AcDbEntity
  8
0
100
AcDbLine
 62
2
  6
CONTINUOUS
 10
0.0
 20
-0.34375
 11
4.6
 21
-0.34375
  0
LINE
  5
275
100
AcDbEntity
  8
0
100
AcDbLine
 62
2
  6
CONTINUOUS
 10
0.0
 20
-0.68775
 11
4.6
 21
-0.68775
  0
LINE
  5
276
100
AcDbEntity
  8
0
100
AcDbLine
 62
2
  6
CONTINUOUS
 10
0.0
 20
-0.93775
 11
4.6
 21
-0.93775
  0
LINE
  5
277
100
AcDbEntity
  8
0
100
AcDbLine
 62
2
  6
CONTINUOUS
 10
0.0
 20
-1.18775
 11
4.6
 21
-1.18775
  0
LINE
  5
278
100
AcDbEntity
  8
0
100
AcDbLine
 62
2
  6
CONTINUOUS
 10
1.3
 20
-0.34375
 11
1.3
 21
-1.18775
  0
LINE
  5
279
100
AcDbEntity
  8
0
100
AcDbLine
 62
2
  6
CONTINUOUS
 10
3.3
 20
-0.34375
 11
3.3
 21
-1.18775
  0
LINE
  5
27A
100
AcDbEntity
  8
0
100
AcDbLine
 62
2
  6
CONTINUOUS
 10
4.6
 20
0.0
 11
4.6
 21
-1.18775
  0
MTEXT
  5
27B
100
AcDbEntity
  8
0
100
AcDbMText
 62
2
  6
CONTINUOUS
  7
STANDARD
 71
2
 72
1
 10
2.3
 20
-0.099375
 30
0.0
 11
1.0
 21
0.0
 31
0.0
 44
0.9
  1
Port Headings
 40
0.145
 41
3.016
  0
MTEXT
  5
27C
100
AcDbEntity
  8
0
100
AcDbMText
 62
2
  6
CONTINUOUS
  7
STANDARD
 71
2
 72
1
 10
0.65
 20
-0.44325
 30
0.0
 11
1.0
 21
0.0
 31
0.0
 44
0.9
  1
Product
 40
0.145
 41
1.624
  0
MTEXT
  5
27D
100
AcDbEntity
  8
0
100
AcDbMText
 62
2
  6
CONTINUOUS
  7
STANDARD
 71
2
 72
1
 10
2.3
 20
-0.44325
 30
0.0
 11
1.0
 21
0.0
 31
0.0
 44
0.9
  1
Port
 40
0.145
 41
0.928
  0
MTEXT
  5
27E
100
AcDbEntity
  8
0
100
AcDbMText
 62
2
  6
CONTINUOUS
  7
STANDARD
 71
2
 72
1
 10
3.95
 20
-0.44325
 30
0.0
 11
1.0
 21
0.0
 31
0.0
 44
0.9
  1
Size
 40
0.145
 41
0.928
  0
MTEXT
  5
27F
100
AcDbEntity
  8
0
100
AcDbMText
 62
2
  6
CONTINUOUS
  7
STANDARD
 71
2
 72
1
 10
0.65
 20
-0.75025
 30
0.0
 11
1.0
 21
0.0
 31
0.0
 44
0.9
  1
Z8C
 40
0.125
 41
0.6
  0
MTEXT
  5
280
100
AcDbEntity
  8
0
100
AcDbMText
 62
2
  6
CONTINUOUS
  7
STANDARD
 71
2
 72
1
 10
2.3
 20
-0.75025
 30
0.0
 11
1.0
 21
0.0
 31
0.0
 44
0.9
  1
Ports 1 &  2
 40
0.125
 41
2.4
  0
MTEXT
  5
281
100
AcDbEntity
  8
0
100
AcDbMText
 62
2
  6
CONTINUOUS
  7
STANDARD
 71
2
 72
1
 10
3.95
 20
-0.75025
 30
0.0
 11
1.0
 21
0.0
 31
0.0
 44
0.9
  1
3/8" BSPP
 40
0.125
 41
1.8
  0
MTEXT
  5
282
100
AcDbEntity
  8
0
100
AcDbMText
 62
2
  6
CONTINUOUS
  7
STANDARD
 71
2
 72
1
 10
0.65
 20
-1.00025
 30
0.0
 11
1.0
 21
0.0
 31
0.0
 44
0.9
  1
Z8C
 40
0.125
 41
0.6
  0
MTEXT
  5
283
100
AcDbEntity
  8
0
100
AcDbMText
 62
2
  6
CONTINUOUS
  7
STANDARD
 71
2
 72
1
 10
2.3
 20
-1.00025
 30
0.0
 11
1.0
 21
0.0
 31
0.0
 44
0.9
  1
Shuttle Port
 40
0.125
 41
2.4
  0
MTEXT
  5
284
100
AcDbEntity
  8
0
100
AcDbMText
 62
2
  6
CONTINUOUS
  7
STANDARD
 71
2
 72
1
 10
3.95
 20
-1.00025
 30
0.0
 11
1.0
 21
0.0
 31
0.0
 44
0.9
  1
1/4" BSPP
 40
0.125
 41
1.8
  0
ENDBLK
  5
285
100
AcDbEntity
  8
0
  6
BYBLOCK
 62
0
100
AcDbBlockEnd
  0
ENDSEC
  0
SECTION
  2
ENTITIES
  0
IMAGE
  5
286
100
AcDbEntity
  8
0
100
AcDbRasterImage
 62
7
  6
CONTINUOUS
 10
19.2297077316
 20
0.3094318264
 30
0.0
 11
0.0066666667
 21
0.0
 31
0.0
 12
0.0
 22
0.0066666667
 32
0.0
 13
369.0
 23
92.0
340
       3D1
 70
9
280
0
281
50
282
50
283
0
360
       3CB
 71
1
 91
2
 14
-0.5
 24
-0.5
 14
368.5
 24
91.5
  0
INSERT
  5
287
100
AcDbEntity
  8
0
100
AcDbBlockReference
 62
2
  6
CONTINUOUS
  2
SUN_FIRST_THIRD_ANGLE_BL0
 10
20.4816717061
 20
1.2289683772
  0
ACAD_TABLE
  5
288
100
AcDbEntity
  8
0
 62
2
  6
CONTINUOUS
100
AcDbBlockReference
  2
*T1
 10
12.42375
 20
0.30125
 30
0.0
100
AcDbTable
342
       3D3
343
207
 11
1.0
 21
0.0
 31
0.0
 90
6
 91
4
 92
6
 93
20
 94
0
 95
0
 96
0
 70
1
 41
0.0
141
0.525
141
0.1
141
0.525
141
0.1
142
4.1
142
1.1
142
0.7
142
0.5
142
0.4
142
2.475
171
1
172
0
173
0
174
0
175
1
176
1
 91
33
178
0
145
0.0
301
CELL_VALUE
 90
4
  1
T-10A Line mount\PCross port with shuttle
304
ACVALUE_END
170
2
140
0.125
171
1
172
0
173
0
174
0
175
1
176
1
 91
33
178
0
145
0.0
301
CELL_VALUE
 90
4
  1
Mar-29-23
304
ACVALUE_END
170
5
140
0.125
171
1
172
0
173
0
174
0
175
1
176
1
 91
33
178
0
145
0.0
301
CELL_VALUE
 90
4
  1
2.000
304
ACVALUE_END
170
5
140
0.125
171
1
172
0
173
0
174
0
175
1
176
1
 91
33
178
0
145
0.0
301
CELL_VALUE
 90
4
  1
C
304
ACVALUE_END
170
5
140
0.125
171
1
172
0
173
0
174
0
175
1
176
1
 91
33
178
0
145
0.0
301
CELL_VALUE
 90
4
  1
2
304
ACVALUE_END
170
5
140
0.125
171
1
172
0
173
0
174
0
175
1
176
1
 91
33
178
0
145
0.0
301
CELL_VALUE
 90
4
  1
 
304
ACVALUE_END
170
1
140
0.125
171
1
172
0
173
0
174
0
175
1
176
1
 91
33
178
0
145
0.0
301
CELL_VALUE
 90
4
  1
DESCRIPTION
304
ACVALUE_END
170
1
140
0.06
171
1
172
0
173
0
174
0
175
1
176
1
 91
33
178
0
145
0.0
301
CELL_VALUE
 90
4
  1
DATE
304
ACVALUE_END
170
1
140
0.06
171
1
172
0
173
0
174
0
175
1
176
1
 91
33
178
0
145
0.0
301
CELL_VALUE
 90
4
  1
SCALE
304
ACVALUE_END
170
1
140
0.06
171
1
172
0
173
0
174
0
175
1
176
1
 91
33
178
0
145
0.0
301
CELL_VALUE
 90
4
  1
DWG SIZE
304
ACVALUE_END
170
1
140
0.06
171
1
172
0
173
0
174
0
175
1
176
1
 91
33
178
0
145
0.0
301
CELL_VALUE
 90
4
  1
SHEET
304
ACVALUE_END
170
1
140
0.06
171
1
172
0
173
0
174
0
175
1
176
1
 91
33
178
0
145
0.0
301
CELL_VALUE
 90
4
  1
 
304
ACVALUE_END
170
1
140
0.125
171
1
172
0
173
0
174
0
175
1
176
1
 91
33
178
0
145
0.0
301
CELL_VALUE
 90
4
  1
Z8C
304
ACVALUE_END
170
5
140
0.125
171
1
172
0
173
0
174
0
175
4
176
1
 91
33
178
0
145
0.0
301
CELL_VALUE
 90
4
  1
ALL DIMENSIONS IN INCH\PVIEWS ARE THIRD ANGLE
304
ACVALUE_END
170
5
140
0.12
171
1
172
0
173
1
174
0
175
1
176
1
 91
1
178
0
145
0.0
170
1
171
1
172
0
173
1
174
0
175
1
176
1
 91
1
178
0
145
0.0
170
1
171
1
172
0
173
1
174
0
175
1
176
1
 91
1
178
0
145
0.0
170
5
171
1
172
0
173
0
174
0
175
1
176
1
 91
33
178
0
145
0.0
301
CELL_VALUE
 90
4
  1
 
304
ACVALUE_END
170
1
140
0.125
171
1
172
0
173
0
174
0
175
1
176
1
 91
33
178
0
145
0.0
301
CELL_VALUE
 90
4
  1
MODEL
304
ACVALUE_END
170
1
140
0.06
171
1
172
0
173
0
174
0
175
1
176
1
 91
33
178
0
145
0.0
301
CELL_VALUE
 90
4
  1
 
304
ACVALUE_END
170
1
140
0.125
171
1
172
0
173
0
174
0
175
1
176
1
 91
33
178
0
145
0.0
301
CELL_VALUE
 90
4
  1
 
304
ACVALUE_END
170
1
140
0.125
171
1
172
0
173
0
174
0
175
1
176
1
 91
33
178
0
145
0.0
301
CELL_VALUE
 90
4
  1
 
304
ACVALUE_END
170
1
140
0.125
171
1
172
0
173
0
174
0
175
1
176
1
 91
33
178
0
145
0.0
301
CELL_VALUE
 90
4
  1
 
304
ACVALUE_END
170
1
140
0.125
171
1
172
0
173
0
174
0
175
1
176
1
 91
33
178
0
145
0.0
301
CELL_VALUE
 90
4
  1
 
304
ACVALUE_END
170
1
140
0.125
  0
ACAD_TABLE
  5
289
100
AcDbEntity
  8
0
 62
2
  6
CONTINUOUS
100
AcDbBlockReference
  2
*T2
 10
12.4237499994
 20
16.47875
 30
0.0
100
AcDbTable
342
       3D2
343
208
 11
1.0
 21
0.0
 31
0.0
 90
22
 91
11
 92
3
 93
16
 94
0
 95
0
 96
0
 41
0.028
141
0.344
141
0.25
141
0.25
141
0.25
141
0.25
141
0.25
141
0.25
141
0.25
141
0.25
141
0.25
141
0.25
142
3.055
142
3.0
142
3.0
171
1
172
0
173
0
174
0
175
1
176
1
 91
33
178
0
145
0.0
301
CELL_VALUE
 90
4
  1
Technical Data
304
ACVALUE_END
170
5
140
0.145
171
1
172
0
173
0
174
0
175
1
176
1
 91
33
178
0
145
0.0
301
CELL_VALUE
 90
4
  1
U.S. Units
304
ACVALUE_END
170
5
140
0.145
171
1
172
0
173
0
174
0
175
1
176
1
 91
33
178
0
145
0.0
301
CELL_VALUE
 90
4
  1
Metric Units
304
ACVALUE_END
170
5
140
0.145
171
1
172
0
173
0
174
0
175
1
176
1
 91
33
178
0
145
0.0
301
CELL_VALUE
 90
4
  1
Cavity
304
ACVALUE_END
170
5
140
0.125
171
1
172
0
173
0
174
0
175
2
176
1
 91
33
178
0
145
0.0
301
CELL_VALUE
 90
4
  1
T-10A
304
ACVALUE_END
170
5
140
0.125
171
1
172
0
173
1
174
0
175
1
176
1
 91
1
178
0
145
0.0
170
1
171
1
172
0
173
0
174
0
175
1
176
1
 91
33
178
0
145
0.0
301
CELL_VALUE
 90
4
  1
Body Features
304
ACVALUE_END
170
5
140
0.125
171
1
172
0
173
0
174
0
175
2
176
1
 91
33
178
0
145
0.0
301
CELL_VALUE
 90
4
  1
Cross port with shuttle
304
ACVALUE_END
170
5
140
0.125
171
1
172
0
173
1
174
0
175
1
176
1
 91
1
178
0
145
0.0
170
1
171
1
172
0
173
0
174
0
175
1
176
1
 91
33
178
0
145
0.0
301
CELL_VALUE
 90
4
  1
Body Type
304
ACVALUE_END
170
5
140
0.125
171
1
172
0
173
0
174
0
175
2
176
1
 91
33
178
0
145
0.0
301
CELL_VALUE
 90
4
  1
Line mount
304
ACVALUE_END
170
5
140
0.125
171
1
172
0
173
1
174
0
175
1
176
1
 91
1
178
0
145
0.0
170
1
171
1
172
0
173
0
174
0
175
1
176
1
 91
33
178
0
145
0.0
301
CELL_VALUE
 90
4
  1
Interface
304
ACVALUE_END
170
5
140
0.125
171
1
172
0
173
0
174
0
175
2
176
1
 91
33
178
0
145
0.0
301
CELL_VALUE
 90
4
  1
None
304
ACVALUE_END
170
5
140
0.125
171
1
172
0
173
1
174
0
175
1
176
1
 91
1
178
0
145
0.0
170
1
171
1
172
0
173
0
174
0
175
1
176
1
 91
33
178
0
145
0.0
301
CELL_VALUE
 90
4
  1
Open Cavity Quantity
304
ACVALUE_END
170
5
140
0.125
171
1
172
0
173
0
174
0
175
2
176
1
 91
33
178
0
145
0.0
301
CELL_VALUE
 90
4
  1
2
304
ACVALUE_END
170
5
140
0.125
171
1
172
0
173
1
174
0
175
1
176
1
 91
1
178
0
145
0.0
170
1
171
1
172
0
173
0
174
0
175
1
176
1
 91
33
178
0
145
0.0
301
CELL_VALUE
 90
4
  1
Weight
304
ACVALUE_END
170
5
140
0.125
171
1
172
0
173
0
174
0
175
1
176
1
 91
33
178
0
145
0.0
301
CELL_VALUE
 90
4
  1
2.150 lb.
304
ACVALUE_END
170
5
140
0.125
171
1
172
0
173
0
174
0
175
1
176
1
 91
33
178
0
145
0.0
301
CELL_VALUE
 90
4
  1
0,975 kg.
304
ACVALUE_END
170
5
140
0.125
171
1
172
0
173
0
174
0
175
1
176
1
 91
33
178
0
145
0.0
301
CELL_VALUE
 90
4
  1
Mounting Hole Diameter
304
ACVALUE_END
170
5
140
0.125
171
1
172
0
173
0
174
0
175
1
176
1
 91
33
178
0
145
0.0
301
CELL_VALUE
 90
4
  1
.34 in.
304
ACVALUE_END
170
5
140
0.125
171
1
172
0
173
0
174
0
175
1
176
1
 91
33
178
0
145
0.0
301
CELL_VALUE
 90
4
  1
8.6 mm
304
ACVALUE_END
170
5
140
0.125
171
1
172
0
173
0
174
0
175
1
176
1
 91
33
178
0
145
0.0
301
CELL_VALUE
 90
4
  1
Mounting Hole Depth
304
ACVALUE_END
170
5
140
0.125
171
1
172
0
173
0
174
0
175
2
176
1
 91
33
178
0
145
0.0
301
CELL_VALUE
 90
4
  1
Through
304
ACVALUE_END
170
5
140
0.125
171
1
172
0
173
1
174
0
175
1
176
1
 91
1
178
0
145
0.0
170
1
171
1
172
0
173
0
174
0
175
1
176
1
 91
33
178
0
145
0.0
301
CELL_VALUE
 90
4
  1
Mounting Hole Quantity
304
ACVALUE_END
170
5
140
0.125
171
1
172
0
173
0
174
0
175
2
176
1
 91
33
178
0
145
0.0
301
CELL_VALUE
 90
4
  1
2
304
ACVALUE_END
170
5
140
0.125
171
1
172
0
173
1
174
0
175
1
176
1
 91
1
178
0
145
0.0
170
1
171
1
172
0
173
0
174
0
175
1
176
1
 91
33
178
0
145
0.0
301
CELL_VALUE
 90
4
  1
Includes integral cartridge(s)
304
ACVALUE_END
170
5
140
0.125
171
1
172
0
173
0
174
0
175
2
176
1
 91
33
178
0
145
0.0
301
CELL_VALUE
 90
4
  1
Yes (see Included Components)
304
ACVALUE_END
170
5
140
0.125
171
1
172
0
173
1
174
0
175
1
176
1
 91
1
178
0
145
0.0
170
1
  0
ACAD_TABLE
  5
28A
100
AcDbEntity
  8
0
 62
2
  6
CONTINUOUS
100
AcDbBlockReference
  2
*T3
 10
0.52125
 20
1.709
 30
0.0
100
AcDbTable
342
       3D2
343
209
 11
1.0
 21
0.0
 31
0.0
 90
22
 91
4
 92
3
 93
16
 94
0
 95
0
 96
0
 41
0.05
141
0.34375
141
0.344
141
0.25
141
0.25
142
1.3
142
2.0
142
1.3
171
1
172
0
173
0
174
0
175
3
176
1
 91
33
178
0
145
0.0
301
CELL_VALUE
 90
4
  1
Port Headings
304
ACVALUE_END
170
5
140
0.145
171
1
172
0
173
1
174
0
175
1
176
1
 91
1
178
0
145
0.0
170
1
171
1
172
0
173
1
174
0
175
1
176
1
 91
1
178
0
145
0.0
170
1
171
1
172
0
173
0
174
0
175
1
176
1
 91
33
178
0
145
0.0
301
CELL_VALUE
 90
4
  1
Product
304
ACVALUE_END
170
5
140
0.145
171
1
172
0
173
0
174
0
175
1
176
1
 91
33
178
0
145
0.0
301
CELL_VALUE
 90
4
  1
Port
304
ACVALUE_END
170
5
140
0.145
171
1
172
0
173
0
174
0
175
1
176
1
 91
33
178
0
145
0.0
301
CELL_VALUE
 90
4
  1
Size
304
ACVALUE_END
170
5
140
0.145
171
1
172
0
173
0
174
0
175
1
176
1
 91
33
178
0
145
0.0
301
CELL_VALUE
 90
4
  1
Z8C
304
ACVALUE_END
170
5
140
0.125
171
1
172
0
173
0
174
0
175
1
176
1
 91
33
178
0
145
0.0
301
CELL_VALUE
 90
4
  1
Ports 1 &  2
304
ACVALUE_END
170
5
140
0.125
171
1
172
0
173
0
174
0
175
1
176
1
 91
33
178
0
145
0.0
301
CELL_VALUE
 90
4
  1
3/8" BSPP
304
ACVALUE_END
170
5
140
0.125
171
1
172
0
173
0
174
0
175
1
176
1
 91
33
178
0
145
0.0
301
CELL_VALUE
 90
4
  1
Z8C
304
ACVALUE_END
170
5
140
0.125
171
1
172
0
173
0
174
0
175
1
176
1
 91
33
178
0
145
0.0
301
CELL_VALUE
 90
4
  1
Shuttle Port
304
ACVALUE_END
170
5
140
0.125
171
1
172
0
173
0
174
0
175
1
176
1
 91
33
178
0
145
0.0
301
CELL_VALUE
 90
4
  1
1/4" BSPP
304
ACVALUE_END
170
5
140
0.125
  0
MTEXT
  5
28B
100
AcDbEntity
  8
0
100
AcDbMText
 62
2
  6
CONTINUOUS
  7
STANDARD
 71
1
 72
1
 10
0.52125
 20
5.75995
 30
0.0
 11
1.0
 21
0.0
 31
0.0
 44
0.6
  3
Notes\P \P1. Important: Carefully consider\P   the maximum system pressure. The\P   pressure rating of the manifold is\P   dependent on the manifold material,\P   with the port type/size a secondary\P   consideration. Manifolds\P   constructed of alu
  1
minum are not\P   rated for pressures higher than\P   3000 psi (210 bar), regardless of\P   the port type/size specified.
 40
0.1
 41
3.04
  0
LINE
  5
28C
100
AcDbEntity
  8
0
100
AcDbLine
 62
7
  6
CONTINUOUS
 10
0.30125
 20
0.30125
 11
0.30125
 21
16.69875
  0
LINE
  5
28D
100
AcDbEntity
  8
0
100
AcDbLine
 62
7
  6
CONTINUOUS
 10
0.30125
 20
0.30125
 11
21.69875
 21
0.30125
  0
LINE
  5
28E
100
AcDbEntity
  8
0
100
AcDbLine
 62
7
  6
CONTINUOUS
 10
0.30125
 20
16.69875
 11
21.69875
 21
16.69875
  0
LINE
  5
28F
100
AcDbEntity
  8
0
100
AcDbLine
 62
7
  6
CONTINUOUS
 10
21.69875
 20
0.30125
 11
21.69875
 21
16.69875
  0
LINE
  5
290
100
AcDbEntity
  8
0
100
AcDbLine
 62
7
  6
CONTINUOUS
 10
6.6186588029
 20
11.2864675192
 11
7.6539341289
 21
12.2864667532
  0
LINE
  5
291
100
AcDbEntity
  8
0
100
AcDbLine
 62
7
  6
CONTINUOUS
 10
6.6186588029
 20
5.2494307472
 11
6.6186588029
 21
11.2864675192
  0
LINE
  5
292
100
AcDbEntity
  8
0
100
AcDbLine
 62
4
  6
CONTINUOUS
 10
7.0823032382
 20
9.8633804416
 11
7.0823032382
 21
9.6315582347
  0
LINE
  5
293
100
AcDbEntity
  8
0
100
AcDbLine
 62
4
  6
CONTINUOUS
 10
7.0823032382
 20
6.811054411
 11
7.0823032382
 21
6.7724173858
  0
LINE
  5
294
100
AcDbEntity
  8
0
100
AcDbLine
 62
4
  6
CONTINUOUS
 10
7.0678143503
 20
6.8313777453
 11
7.0823032382
 21
6.811054411
  0
LINE
  5
295
100
AcDbEntity
  8
0
100
AcDbLine
 62
4
  6
CONTINUOUS
 10
6.9808810227
 20
6.6828584495
 11
6.9663921348
 21
6.6259077056
  0
LINE
  5
296
100
AcDbEntity
  8
0
100
AcDbLine
 62
7
  6
CONTINUOUS
 10
14.3460658711
 20
4.7135332468
 11
6.6186588029
 21
5.2494307472
  0
LINE
  5
297
100
AcDbEntity
  8
0
100
AcDbLine
 62
4
  6
CONTINUOUS
 10
9.5191960746
 20
5.365929624
 11
9.6075092979
 21
5.3156484695
  0
LINE
  5
298
100
AcDbEntity
  8
0
100
AcDbLine
 62
4
  6
CONTINUOUS
 10
7.0388365744
 20
6.8527058735
 11
7.0678143503
 21
6.8313777453
  0
LINE
  5
299
100
AcDbEntity
  8
0
100
AcDbLine
 62
4
  6
CONTINUOUS
 10
11.0646774168
 20
5.1593977536
 11
10.9818837557
 21
5.1651395135
  0
LINE
  5
29A
100
AcDbEntity
  8
0
100
AcDbLine
 62
4
  6
CONTINUOUS
 10
10.8825314287
 20
5.1720296207
 11
10.83285521
 21
5.1754746782
  0
LINE
  5
29B
100
AcDbEntity
  8
0
100
AcDbLine
 62
4
  6
CONTINUOUS
 10
10.7059049959
 20
5.1842787055
 11
10.6396701113
 21
5.1888721103
  0
LINE
  5
29C
100
AcDbEntity
  8
0
100
AcDbLine
 62
4
  6
CONTINUOUS
 10
9.7344595465
 20
5.2516486762
 11
9.651665913
 21
5.2573904342
  0
LINE
  5
29D
100
AcDbEntity
  8
0
100
AcDbLine
 62
4
  6
CONTINUOUS
 10
10.2588193034
 20
5.2152842035
 11
10.3581716856
 21
5.2083940924
  0
LINE
  5
29E
100
AcDbEntity
  8
0
100
AcDbLine
 62
4
  6
CONTINUOUS
 10
11.1916277414
 20
5.1505937187
 11
11.2909800684
 21
5.1437036114
  0
LINE
  5
29F
100
AcDbEntity
  8
0
100
AcDbLine
 62
4
  6
CONTINUOUS
 10
9.883488106
 20
5.3075484297
 11
9.9718013224
 21
5.3014238873
  0
LINE
  5
2A0
100
AcDbEntity
  8
0
100
AcDbLine
 62
4
  6
CONTINUOUS
 10
11.2578626261
 20
5.2784701522
 11
11.1916277414
 21
5.2830635571
  0
LINE
  5
2A1
100
AcDbEntity
  8
0
100
AcDbLine
 62
4
  6
CONTINUOUS
 10
10.3250542433
 20
5.3431606333
 11
10.2588193034
 21
5.347754042
  0
LINE
  5
2A2
100
AcDbEntity
  8
0
100
AcDbLine
 62
4
  6
CONTINUOUS
 10
9.651665913
 20
5.489212641
 11
9.7344595465
 21
5.4834708831
  0
LINE
  5
2A3
100
AcDbEntity
  8
0
100
AcDbLine
 62
4
  6
CONTINUOUS
 10
10.0601145388
 20
5.4608866326
 11
10.1925843634
 21
5.4516998191
  0
LINE
  5
2A4
100
AcDbEntity
  8
0
100
AcDbLine
 62
4
  6
CONTINUOUS
 10
10.2588193034
 20
5.4471064104
 11
10.3581716856
 21
5.4402162993
  0
LINE
  5
2A5
100
AcDbEntity
  8
0
100
AcDbLine
 62
4
  6
CONTINUOUS
 10
10.6396701113
 20
5.4206943172
 11
10.7059049959
 21
5.4161009123
  0
LINE
  5
2A6
100
AcDbEntity
  8
0
100
AcDbLine
 62
4
  6
CONTINUOUS
 10
10.83285521
 20
5.4072968851
 11
10.8825314287
 21
5.4038518276
  0
LINE
  5
2A7
100
AcDbEntity
  8
0
100
AcDbLine
 62
4
  6
CONTINUOUS
 10
10.9818837557
 20
5.3969617203
 11
11.0646774168
 21
5.3912199604
  0
LINE
  5
2A8
100
AcDbEntity
  8
0
100
AcDbLine
 62
4
  6
CONTINUOUS
 10
11.1916277414
 20
5.3824159255
 11
11.2909800684
 21
5.3755258182
  0
LINE
  5
2A9
100
AcDbEntity
  8
0
100
AcDbLine
 62
4
  6
CONTINUOUS
 10
10.7141845295
 20
5.693713373
 11
10.6479496172
 21
5.6983067797
  0
LINE
  5
2AA
100
AcDbEntity
  8
0
100
AcDbLine
 62
4
  6
CONTINUOUS
 10
10.5154797926
 20
5.7074935933
 11
10.4658035876
 21
5.7109386498
  0
LINE
  5
2AB
100
AcDbEntity
  8
0
100
AcDbLine
 62
4
  6
CONTINUOUS
 10
10.2505401157
 20
5.7258672223
 11
10.3664512192
 21
5.7178287599
  0
LINE
  5
2AC
100
AcDbEntity
  8
0
100
AcDbLine
 62
4
  6
CONTINUOUS
 10
10.4658035876
 20
5.8434084882
 11
10.5154797926
 21
5.8399634317
  0
LINE
  5
2AD
100
AcDbEntity
  8
0
100
AcDbLine
 62
4
  6
CONTINUOUS
 10
9.7344595465
 20
5.4834708831
 11
9.7675770026
 21
5.4480567235
  0
LINE
  5
2AE
100
AcDbEntity
  8
0
100
AcDbLine
 62
4
  6
CONTINUOUS
 10
10.2505401157
 20
5.9576894291
 11
10.3664512192
 21
5.9496509668
  0
LINE
  5
2AF
100
AcDbEntity
  8
0
100
AcDbLine
 62
4
  6
CONTINUOUS
 10
10.4658035876
 20
5.9427608566
 11
10.5154797926
 21
5.9393158001
  0
LINE
  5
2B0
100
AcDbEntity
  8
0
100
AcDbLine
 62
4
  6
CONTINUOUS
 10
10.6479496172
 20
5.9301289866
 11
10.7141845295
 21
5.9255355798
  0
LINE
  5
2B1
100
AcDbEntity
  8
0
100
AcDbLine
 62
4
  6
CONTINUOUS
 10
11.3572149531
 20
5.282619197
 11
11.4455281695
 21
5.2323380395
  0
LINE
  5
2B2
100
AcDbEntity
  8
0
100
AcDbLine
 62
4
  6
CONTINUOUS
 10
10.4658035876
 20
5.8434084882
 11
10.4437252835
 21
5.861498345
  0
LINE
  5
2B3
100
AcDbEntity
  8
0
100
AcDbLine
 62
4
  6
CONTINUOUS
 10
9.51367671
 20
6.5154881921
 11
9.3977656066
 21
6.6228790298
  0
LINE
  5
2B4
100
AcDbEntity
  8
0
100
AcDbLine
 62
4
  6
CONTINUOUS
 10
9.3977656066
 20
6.473850465
 11
9.4143243364
 21
6.4561433834
  0
LINE
  5
2B5
100
AcDbEntity
  8
0
100
AcDbLine
 62
4
  6
CONTINUOUS
 10
10.6396701113
 20
5.1888721103
 11
10.6065526689
 21
5.2242862723
  0
LINE
  5
2B6
100
AcDbEntity
  8
0
100
AcDbLine
 62
4
  6
CONTINUOUS
 10
9.5799116223
 20
6.4777773258
 11
9.6130290785
 21
6.4423631628
  0
LINE
  5
2B7
100
AcDbEntity
  8
0
100
AcDbLine
 62
4
  6
CONTINUOUS
 10
10.83285521
 20
5.1754746782
 11
10.7997377676
 21
5.2108888402
  0
LINE
  5
2B8
100
AcDbEntity
  8
0
100
AcDbLine
 62
4
  6
CONTINUOUS
 10
9.4971179819
 20
6.6822238315
 11
9.51367671
 21
6.6645167448
  0
LINE
  5
2B9
100
AcDbEntity
  8
0
100
AcDbLine
 62
4
  6
CONTINUOUS
 10
10.4658035876
 20
5.7109386498
 11
10.4326861315
 21
5.7463528128
  0
LINE
  5
2BA
100
AcDbEntity
  8
0
100
AcDbLine
 62
4
  6
CONTINUOUS
 10
6.9663921348
 20
6.8190928734
 11
6.9808810227
 21
6.837406592
  0
LINE
  5
2BB
100
AcDbEntity
  8
0
100
AcDbLine
 62
4
  6
CONTINUOUS
 10
7.0098587986
 20
6.7194858661
 11
6.9808810227
 21
6.6828584495
  0
LINE
  5
2BC
100
AcDbEntity
  8
0
100
AcDbLine
 62
4
  6
CONTINUOUS
 10
7.0823032382
 20
6.7724173858
 11
7.0678143503
 21
6.7541036671
  0
LINE
  5
2BD
100
AcDbEntity
  8
0
100
AcDbLine
 62
4
  6
CONTINUOUS
 10
10.2919369917
 20
6.3400849754
 11
10.325054434
 21
6.3377882729
  0
LINE
  5
2BE
100
AcDbEntity
  8
0
100
AcDbLine
 62
4
  6
CONTINUOUS
 10
6.9663921348
 20
6.6259077056
 11
7.0823032382
 21
6.6178692432
  0
LINE
  5
2BF
100
AcDbEntity
  8
0
100
AcDbLine
 62
4
  6
CONTINUOUS
 10
13.7665104331
 20
6.1543178998
 11
13.8824215365
 21
6.1462794375
  0
LINE
  5
2C0
100
AcDbEntity
  8
0
100
AcDbLine
 62
4
  6
CONTINUOUS
 10
11.4013719178
 20
6.3183411656
 11
11.335136812
 21
6.3229345858
  0
LINE
  5
2C1
100
AcDbEntity
  8
0
100
AcDbLine
 62
4
  6
CONTINUOUS
 10
11.1309126028
 20
6.3370975828
 11
11.0977951604
 21
6.3393942852
  0
LINE
  5
2C2
100
AcDbEntity
  8
0
100
AcDbLine
 62
4
  6
CONTINUOUS
 10
10.8494141771
 20
6.3566195649
 11
10.7831792925
 21
6.3612129698
  0
LINE
  5
2C3
100
AcDbEntity
  8
0
100
AcDbLine
 62
4
  6
CONTINUOUS
 10
10.5347983092
 20
6.3784382495
 11
10.4685634245
 21
6.3830316543
  0
LINE
  5
2C4
100
AcDbEntity
  8
0
100
AcDbLine
 62
4
  6
CONTINUOUS
 10
9.4143243364
 20
6.4561433834
 11
9.4805592539
 21
6.4515499763
  0
LINE
  5
2C5
100
AcDbEntity
  8
0
100
AcDbLine
 62
4
  6
CONTINUOUS
 10
9.6130290785
 20
6.4423631628
 11
9.6627052834
 21
6.4389181062
  0
LINE
  5
2C6
100
AcDbEntity
  8
0
100
AcDbLine
 62
4
  6
CONTINUOUS
 10
10.9322078382
 20
6.350877805
 11
11.0150014993
 21
6.3451360451
  0
LINE
  5
2C7
100
AcDbEntity
  8
0
100
AcDbLine
 62
4
  6
CONTINUOUS
 10
11.4841654684
 20
6.3125994134
 11
11.550400353
 21
6.3080060085
  0
LINE
  5
2C8
100
AcDbEntity
  8
0
100
AcDbLine
 62
4
  6
CONTINUOUS
 10
10.7831792925
 20
6.4440066171
 11
10.8494141771
 21
6.4394132122
  0
LINE
  5
2C9
100
AcDbEntity
  8
0
100
AcDbLine
 62
4
  6
CONTINUOUS
 10
10.8328555112
 20
6.5233552069
 11
10.7500618501
 21
6.5290969668
  0
LINE
  5
2CA
100
AcDbEntity
  8
0
100
AcDbLine
 62
4
  6
CONTINUOUS
 10
10.1263496695
 20
6.5723515534
 11
10.2091433306
 21
6.5666097935
  0
LINE
  5
2CB
100
AcDbEntity
  8
0
100
AcDbLine
 62
4
  6
CONTINUOUS
 10
10.4685634245
 20
6.5486189489
 11
10.5347983092
 21
6.5440255441
  0
LINE
  5
2CC
100
AcDbEntity
  8
0
100
AcDbLine
 62
4
  6
CONTINUOUS
 10
10.6010333044
 20
6.5394321315
 11
10.667268189
 21
6.5348387267
  0
LINE
  5
2CD
100
AcDbEntity
  8
0
100
AcDbLine
 62
4
  6
CONTINUOUS
 10
11.335136812
 20
6.4885218804
 11
11.4013719178
 21
6.4839284602
  0
LINE
  5
2CE
100
AcDbEntity
  8
0
100
AcDbLine
 62
4
  6
CONTINUOUS
 10
11.4841654684
 20
6.478186708
 11
11.550400353
 21
6.4735933031
  0
LINE
  5
2CF
100
AcDbEntity
  8
0
100
AcDbLine
 62
4
  6
CONTINUOUS
 10
7.0098587986
 20
6.8547154891
 11
7.0388365744
 21
6.8527058735
  0
LINE
  5
2D0
100
AcDbEntity
  8
0
100
AcDbLine
 62
4
  6
CONTINUOUS
 10
13.8099770969
 20
6.3831256833
 11
13.8389548727
 21
6.3811160678
  0
LINE
  5
2D1
100
AcDbEntity
  8
0
100
AcDbLine
 62
4
  6
CONTINUOUS
 10
9.4308830662
 20
6.6868172385
 11
9.4971179819
 21
6.6822238315
  0
LINE
  5
2D2
100
AcDbEntity
  8
0
100
AcDbLine
 62
4
  6
CONTINUOUS
 10
11.2302649298
 20
6.5620296824
 11
11.2357844851
 21
6.5616468999
  0
LINE
  5
2D3
100
AcDbEntity
  8
0
100
AcDbLine
 62
4
  6
CONTINUOUS
 10
11.550400353
 20
6.3852800798
 11
11.4841654684
 21
6.4009126367
  0
LINE
  5
2D4
100
AcDbEntity
  8
0
100
AcDbLine
 62
4
  6
CONTINUOUS
 10
10.4685634245
 20
6.3830316543
 11
10.4354459822
 21
6.4018870866
  0
LINE
  5
2D5
100
AcDbEntity
  8
0
100
AcDbLine
 62
4
  6
CONTINUOUS
 10
10.7831792925
 20
6.3612129698
 11
10.7500618501
 21
6.380068402
  0
LINE
  5
2D6
100
AcDbEntity
  8
0
100
AcDbLine
 62
4
  6
CONTINUOUS
 10
10.8825314287
 20
5.4038518276
 11
10.9156488711
 21
5.368437669
  0
LINE
  5
2D7
100
AcDbEntity
  8
0
100
AcDbLine
 62
4
  6
CONTINUOUS
 10
10.6479496172
 20
5.6983067797
 11
10.6148321472
 21
5.7337209437
  0
LINE
  5
2D8
100
AcDbEntity
  8
0
100
AcDbLine
 62
4
  6
CONTINUOUS
 10
10.5154797926
 20
5.8399634317
 11
10.5485972349
 21
5.8045492662
  0
LINE
  5
2D9
100
AcDbEntity
  8
0
100
AcDbLine
 62
4
  6
CONTINUOUS
 10
11.0646774168
 20
5.3912199604
 11
11.0977948592
 21
5.3558058019
  0
LINE
  5
2DA
100
AcDbEntity
  8
0
100
AcDbLine
 62
4
  6
CONTINUOUS
 10
10.2091433306
 20
6.5666097935
 11
10.2257020518
 21
6.5489027073
  0
LINE
  5
2DB
100
AcDbEntity
  8
0
100
AcDbLine
 62
4
  6
CONTINUOUS
 10
9.762057638
 20
6.6638502039
 11
9.8779687415
 21
6.4239895347
  0
LINE
  5
2DC
100
AcDbEntity
  8
0
100
AcDbLine
 62
4
  6
CONTINUOUS
 10
9.3977656066
 20
6.6228790298
 11
9.3977656066
 21
6.655996486
  0
LINE
  5
2DD
100
AcDbEntity
  8
0
100
AcDbLine
 62
4
  6
CONTINUOUS
 10
10.9156490618
 20
6.3685848899
 11
10.9322078382
 21
6.350877805
  0
LINE
  5
2DE
100
AcDbEntity
  8
0
100
AcDbLine
 62
4
  6
CONTINUOUS
 10
10.5154797926
 20
5.9393158001
 11
10.5375580967
 21
5.9046672084
  0
LINE
  5
2DF
100
AcDbEntity
  8
0
100
AcDbLine
 62
4
  6
CONTINUOUS
 10
9.9276447142
 20
5.4700734462
 11
9.9938796542
 21
5.2336578306
  0
LINE
  5
2E0
100
AcDbEntity
  8
0
100
AcDbLine
 62
4
  6
CONTINUOUS
 10
9.51367671
 20
6.4823707325
 11
9.51367671
 21
6.5154881921
  0
LINE
  5
2E1
100
AcDbEntity
  8
0
100
AcDbLine
 62
4
  6
CONTINUOUS
 10
9.5309253423
 20
8.8628716077
 11
9.5309253423
 21
8.8435530951
  0
LINE
  5
2E2
100
AcDbEntity
  8
0
100
AcDbLine
 62
4
  6
CONTINUOUS
 10
9.5799116223
 20
6.676482073
 11
9.5799116223
 21
6.4777773258
  0
LINE
  5
2E3
100
AcDbEntity
  8
0
100
AcDbLine
 62
4
  6
CONTINUOUS
 10
9.6468364457
 20
8.7389220488
 11
9.6468364457
 21
8.7002850132
  0
LINE
  5
2E4
100
AcDbEntity
  8
0
100
AcDbLine
 62
4
  6
CONTINUOUS
 10
9.651665913
 20
5.2573904342
 11
9.651665913
 21
5.489212641
  0
LINE
  5
2E5
100
AcDbEntity
  8
0
100
AcDbLine
 62
4
  6
CONTINUOUS
 10
9.6958227257
 20
6.4697388634
 11
9.6958227257
 21
6.6684436107
  0
LINE
  5
2E6
100
AcDbEntity
  8
0
100
AcDbLine
 62
4
  6
CONTINUOUS
 10
9.762057638
 20
6.4320279971
 11
9.762057638
 21
6.6638502039
  0
LINE
  5
2E7
100
AcDbEntity
  8
0
100
AcDbLine
 62
4
  6
CONTINUOUS
 10
9.7675770026
 20
5.4480567235
 11
9.7675770026
 21
5.2824694324
  0
LINE
  5
2E8
100
AcDbEntity
  8
0
100
AcDbLine
 62
4
  6
CONTINUOUS
 10
9.8779687415
 20
6.4239895347
 11
9.8779687415
 21
6.6558117416
  0
LINE
  5
2E9
100
AcDbEntity
  8
0
100
AcDbLine
 62
4
  6
CONTINUOUS
 10
9.5454142302
 20
8.8811853263
 11
9.5309253423
 21
8.8628716077
  0
LINE
  5
2EA
100
AcDbEntity
  8
0
100
AcDbLine
 62
4
  6
CONTINUOUS
 10
9.6468364457
 20
8.7002850132
 11
9.6323475578
 21
8.6819713032
  0
LINE
  5
2EB
100
AcDbEntity
  8
0
100
AcDbLine
 62
4
  6
CONTINUOUS
 10
11.5497106519
 20
7.1773868741
 11
11.5207328761
 21
7.1793964897
  0
LINE
  5
2EC
100
AcDbEntity
  8
0
100
AcDbLine
 62
4
  6
CONTINUOUS
 10
11.3178884451
 20
7.1934637988
 11
11.2889106692
 21
7.1954734143
  0
LINE
  5
2ED
100
AcDbEntity
  8
0
100
AcDbLine
 62
4
  6
CONTINUOUS
 10
11.7235773071
 20
7.2426032519
 11
11.8105106346
 21
7.2365744051
  0
LINE
  5
2EE
100
AcDbEntity
  8
0
100
AcDbLine
 62
4
  6
CONTINUOUS
 10
11.4841654684
 20
6.4009126367
 11
11.4676068025
 21
6.4131001361
  0
LINE
  5
2EF
100
AcDbEntity
  8
0
100
AcDbLine
 62
4
  6
CONTINUOUS
 10
11.5669590189
 20
6.3730925804
 11
11.550400353
 21
6.3852800798
  0
LINE
  5
2F0
100
AcDbEntity
  8
0
100
AcDbLine
 62
4
  6
CONTINUOUS
 10
11.0977951604
 20
6.3393942852
 11
11.081236384
 21
6.3571013701
  0
LINE
  5
2F1
100
AcDbEntity
  8
0
100
AcDbLine
 62
4
  6
CONTINUOUS
 10
11.335136812
 20
6.3229345858
 11
11.3185781462
 21
6.340641663
  0
LINE
  5
2F2
100
AcDbEntity
  8
0
100
AcDbLine
 62
4
  6
CONTINUOUS
 10
11.4676068025
 20
6.3303064906
 11
11.4841654684
 21
6.3125994134
  0
LINE
  5
2F3
100
AcDbEntity
  8
0
100
AcDbLine
 62
4
  6
CONTINUOUS
 10
10.667268189
 20
6.5348387267
 11
10.6783072996
 21
6.5175144268
  0
LINE
  5
2F4
100
AcDbEntity
  8
0
100
AcDbLine
 62
4
  6
CONTINUOUS
 10
10.2919369917
 20
6.5608680336
 11
10.3416132105
 21
6.3918356816
  0
LINE
  5
2F5
100
AcDbEntity
  8
0
100
AcDbLine
 62
4
  6
CONTINUOUS
 10
10.1263494788
 20
5.2244710171
 11
10.1263494788
 21
5.4562932239
  0
LINE
  5
2F6
100
AcDbEntity
  8
0
100
AcDbLine
 62
4
  6
CONTINUOUS
 10
10.1263496695
 20
6.4067642589
 11
10.1263496695
 21
6.6385864657
  0
LINE
  5
2F7
100
AcDbEntity
  8
0
100
AcDbLine
 62
4
  6
CONTINUOUS
 10
10.2257020518
 20
6.5489027073
 11
10.2257020518
 21
6.3998741478
  0
LINE
  5
2F8
100
AcDbEntity
  8
0
100
AcDbLine
 62
4
  6
CONTINUOUS
 10
10.2588193034
 20
5.2152842035
 11
10.2588193034
 21
5.4471064104
  0
LINE
  5
2F9
100
AcDbEntity
  8
0
100
AcDbLine
 62
7
  6
CONTINUOUS
 10
9.9189416593
 20
8.5997078903
 11
9.6704935995
 21
8.3597254786
  0
LINE
  5
2FA
100
AcDbEntity
  8
0
100
AcDbLine
 62
7
  6
CONTINUOUS
 10
9.9728781028
 20
8.6271076054
 11
9.724430043
 21
8.3871251938
  0
LINE
  5
2FB
100
AcDbEntity
  8
0
100
AcDbLine
 62
4
  6
CONTINUOUS
 10
9.5743920061
 20
8.8984942234
 11
9.5454142302
 21
8.8811853263
  0
LINE
  5
2FC
100
AcDbEntity
  8
0
100
AcDbLine
 62
4
  6
CONTINUOUS
 10
9.6323475578
 20
8.6819713032
 11
9.6033697819
 21
8.6646624009
  0
LINE
  5
2FD
100
AcDbEntity
  8
0
100
AcDbLine
 62
4
  6
CONTINUOUS
 10
11.5497106519
 20
7.409209081
 11
11.5207328761
 21
7.4112186966
  0
LINE
  5
2FE
100
AcDbEntity
  8
0
100
AcDbLine
 62
4
  6
CONTINUOUS
 10
11.2889106692
 20
7.4272956212
 11
11.3178884451
 21
7.4252860056
  0
LINE
  5
2FF
100
AcDbEntity
  8
0
100
AcDbLine
 62
4
  6
CONTINUOUS
 10
11.2889106692
 20
7.1954734143
 11
11.2599328933
 21
7.2168015477
  0
LINE
  5
300
100
AcDbEntity
  8
0
100
AcDbLine
 62
4
  6
CONTINUOUS
 10
11.5207328761
 20
7.1793964897
 11
11.4917551002
 21
7.2007246231
  0
LINE
  5
301
100
AcDbEntity
  8
0
100
AcDbLine
 62
4
  6
CONTINUOUS
 10
11.550400353
 20
6.4735933031
 11
11.5669590189
 21
6.4558862207
  0
LINE
  5
302
100
AcDbEntity
  8
0
100
AcDbLine
 62
4
  6
CONTINUOUS
 10
9.5454142302
 20
8.6880001499
 11
9.5164364544
 21
8.7286467994
  0
LINE
  5
303
100
AcDbEntity
  8
0
100
AcDbLine
 62
4
  6
CONTINUOUS
 10
9.5309253423
 20
8.8435530951
 11
9.5454142302
 21
8.8232297746
  0
LINE
  5
304
100
AcDbEntity
  8
0
100
AcDbLine
 62
4
  6
CONTINUOUS
 10
9.6323475578
 20
8.7592453693
 11
9.6468364457
 21
8.7389220488
  0
LINE
  5
305
100
AcDbEntity
  8
0
100
AcDbLine
 62
4
  6
CONTINUOUS
 10
9.6468364457
 20
8.8548331454
 11
9.6323475578
 21
8.8751564796
  0
LINE
  5
306
100
AcDbEntity
  8
0
100
AcDbLine
 62
4
  6
CONTINUOUS
 10
10.8494141771
 20
6.4890894034
 11
10.8328555112
 21
6.5233552069
  0
LINE
  5
307
100
AcDbEntity
  8
0
100
AcDbLine
 62
4
  6
CONTINUOUS
 10
10.4326861315
 20
5.7463528128
 11
10.4326861315
 21
5.8125877285
  0
LINE
  5
308
100
AcDbEntity
  8
0
100
AcDbLine
 62
4
  6
CONTINUOUS
 10
10.4354459822
 20
6.4018870866
 11
10.4354459822
 21
6.5343569164
  0
LINE
  5
309
100
AcDbEntity
  8
0
100
AcDbLine
 62
4
  6
CONTINUOUS
 10
10.4437252835
 20
5.861498345
 11
10.4437252835
 21
5.9111745361
  0
LINE
  5
30A
100
AcDbEntity
  8
0
100
AcDbLine
 62
4
  6
CONTINUOUS
 10
10.5347983092
 20
6.6102604564
 11
10.5347983092
 21
6.3784382495
  0
LINE
  5
30B
100
AcDbEntity
  8
0
100
AcDbLine
 62
4
  6
CONTINUOUS
 10
10.5375580967
 20
5.9046672084
 11
10.5375580967
 21
5.8549910173
  0
LINE
  5
30C
100
AcDbEntity
  8
0
100
AcDbLine
 62
4
  6
CONTINUOUS
 10
10.5485972349
 20
5.8045492662
 11
10.5485972349
 21
5.7383143504
  0
LINE
  5
30D
100
AcDbEntity
  8
0
100
AcDbLine
 62
4
  6
CONTINUOUS
 10
10.6010333044
 20
6.373844837
 11
10.6010333044
 21
6.5394321315
  0
LINE
  5
30E
100
AcDbEntity
  8
0
100
AcDbLine
 62
4
  6
CONTINUOUS
 10
10.6065526689
 20
5.2242862723
 11
10.6065526689
 21
5.3898735635
  0
LINE
  5
30F
100
AcDbEntity
  8
0
100
AcDbLine
 62
4
  6
CONTINUOUS
 10
10.6148321472
 20
5.7337209437
 11
10.6148321472
 21
5.8993082348
  0
LINE
  5
310
100
AcDbEntity
  8
0
100
AcDbLine
 62
4
  6
CONTINUOUS
 10
6.9808810227
 20
6.837406592
 11
7.0098587986
 21
6.8547154891
  0
LINE
  5
311
100
AcDbEntity
  8
0
100
AcDbLine
 62
4
  6
CONTINUOUS
 10
7.0678143503
 20
6.7541036671
 11
7.0098587986
 21
6.7194858661
  0
LINE
  5
312
100
AcDbEntity
  8
0
100
AcDbLine
 62
4
  6
CONTINUOUS
 10
9.5743920061
 20
8.6666720165
 11
9.5454142302
 21
8.6880001499
  0
LINE
  5
313
100
AcDbEntity
  8
0
100
AcDbLine
 62
4
  6
CONTINUOUS
 10
11.3178884451
 20
7.4252860056
 11
11.3468662209
 21
7.4039578774
  0
LINE
  5
314
100
AcDbEntity
  8
0
100
AcDbLine
 62
4
  6
CONTINUOUS
 10
11.4917551002
 20
7.3359542478
 11
11.5786884278
 21
7.2719698424
  0
LINE
  5
315
100
AcDbEntity
  8
0
100
AcDbLine
 62
4
  6
CONTINUOUS
 10
9.5454142302
 20
8.8232297746
 11
9.6323475578
 21
8.7592453693
  0
LINE
  5
316
100
AcDbEntity
  8
0
100
AcDbLine
 62
4
  6
CONTINUOUS
 10
11.5786884278
 20
7.3878809528
 11
11.5497106519
 21
7.409209081
  0
LINE
  5
317
100
AcDbEntity
  8
0
100
AcDbLine
 62
4
  6
CONTINUOUS
 10
9.6323475578
 20
8.8751564796
 11
9.6033697819
 21
8.8964846078
  0
LINE
  5
318
100
AcDbEntity
  8
0
100
AcDbLine
 62
4
  6
CONTINUOUS
 10
11.2599328933
 20
7.2168015477
 11
11.2309551175
 21
7.2574481972
  0
LINE
  5
319
100
AcDbEntity
  8
0
100
AcDbLine
 62
4
  6
CONTINUOUS
 10
11.4917551002
 20
7.2007246231
 11
11.4627773243
 21
7.2413712726
  0
LINE
  5
31A
100
AcDbEntity
  8
0
100
AcDbLine
 62
4
  6
CONTINUOUS
 10
11.3468662209
 20
7.4039578774
 11
11.3613551088
 21
7.3836345432
  0
LINE
  5
31B
100
AcDbEntity
  8
0
100
AcDbLine
 62
4
  6
CONTINUOUS
 10
10.6783072996
 20
6.5175144268
 11
10.6783072996
 21
6.4843969706
  0
LINE
  5
31C
100
AcDbEntity
  8
0
100
AcDbLine
 62
4
  6
CONTINUOUS
 10
10.7500618501
 20
6.380068402
 11
10.7500618501
 21
6.4297445914
  0
LINE
  5
31D
100
AcDbEntity
  8
0
100
AcDbLine
 62
4
  6
CONTINUOUS
 10
10.7997377676
 20
5.2108888402
 11
10.7997377676
 21
5.3764761314
  0
LINE
  5
31E
100
AcDbEntity
  8
0
100
AcDbLine
 62
4
  6
CONTINUOUS
 10
10.8494141771
 20
6.3566195649
 11
10.8494141771
 21
6.4890894034
  0
LINE
  5
31F
100
AcDbEntity
  8
0
100
AcDbLine
 62
4
  6
CONTINUOUS
 10
10.9156488711
 20
5.368437669
 11
10.9156488711
 21
5.2028503779
  0
LINE
  5
320
100
AcDbEntity
  8
0
100
AcDbLine
 62
4
  6
CONTINUOUS
 10
10.9156490618
 20
6.5176134547
 11
10.9156490618
 21
6.3685848899
  0
LINE
  5
321
100
AcDbEntity
  8
0
100
AcDbLine
 62
4
  6
CONTINUOUS
 10
10.9818837557
 20
5.1651395135
 11
10.9818837557
 21
5.3969617203
  0
LINE
  5
322
100
AcDbEntity
  8
0
100
AcDbLine
 62
4
  6
CONTINUOUS
 10
11.0150014993
 20
6.3451360451
 11
11.0150014993
 21
6.5107233397
  0
LINE
  5
323
100
AcDbEntity
  8
0
100
AcDbLine
 62
4
  6
CONTINUOUS
 10
9.8614098019
 20
5.2428446461
 11
9.9276447142
 21
5.4700734462
  0
LINE
  5
324
100
AcDbEntity
  8
0
100
AcDbLine
 62
4
  6
CONTINUOUS
 10
10.325054434
 20
6.3377882729
 11
10.3912893187
 21
6.5539779264
  0
LINE
  5
325
100
AcDbEntity
  8
0
100
AcDbLine
 62
7
  6
CONTINUOUS
 10
10.7374546599
 20
8.5740840411
 11
10.4890066001
 21
8.3341016295
  0
LINE
  5
326
100
AcDbEntity
  8
0
100
AcDbLine
 62
7
  6
CONTINUOUS
 10
10.7913911034
 20
8.5392033158
 11
10.5429430436
 21
8.2992209042
  0
LINE
  5
327
100
AcDbEntity
  8
0
100
AcDbLine
 62
4
  6
CONTINUOUS
 10
13.8389548727
 20
6.3811160678
 11
13.8679326486
 21
6.3597879395
  0
LINE
  5
328
100
AcDbEntity
  8
0
100
AcDbLine
 62
4
  6
CONTINUOUS
 10
11.4772662123
 20
7.3562775682
 11
11.4917551002
 21
7.3359542478
  0
LINE
  5
329
100
AcDbEntity
  8
0
100
AcDbLine
 62
4
  6
CONTINUOUS
 10
11.5786884278
 20
7.2719698424
 11
11.5931773157
 21
7.251646522
  0
LINE
  5
32A
100
AcDbEntity
  8
0
100
AcDbLine
 62
4
  6
CONTINUOUS
 10
11.5931773157
 20
7.3675576185
 11
11.5786884278
 21
7.3878809528
  0
LINE
  5
32B
100
AcDbEntity
  8
0
100
AcDbLine
 62
4
  6
CONTINUOUS
 10
11.2309551175
 20
7.2574481972
 11
11.2164662295
 21
7.3164085567
  0
LINE
  5
32C
100
AcDbEntity
  8
0
100
AcDbLine
 62
4
  6
CONTINUOUS
 10
11.081236384
 20
6.3571013701
 11
11.081236384
 21
6.5723648472
  0
LINE
  5
32D
100
AcDbEntity
  8
0
100
AcDbLine
 62
4
  6
CONTINUOUS
 10
11.0977948592
 20
5.3558058019
 11
11.0977948592
 21
5.1902185107
  0
LINE
  5
32E
100
AcDbEntity
  8
0
100
AcDbLine
 62
4
  6
CONTINUOUS
 10
11.1916277414
 20
5.1505937187
 11
11.1916277414
 21
5.3824159255
  0
LINE
  5
32F
100
AcDbEntity
  8
0
100
AcDbLine
 62
4
  6
CONTINUOUS
 10
11.2302649298
 20
6.3302074755
 11
11.2302649298
 21
6.4957947701
  0
LINE
  5
330
100
AcDbEntity
  8
0
100
AcDbLine
 62
4
  6
CONTINUOUS
 10
11.2302649298
 20
6.5454709474
 11
11.2302649298
 21
6.5620296824
  0
LINE
  5
331
100
AcDbEntity
  8
0
100
AcDbLine
 62
4
  6
CONTINUOUS
 10
11.3185781462
 20
6.340641663
 11
11.3185781462
 21
6.4731114928
  0
LINE
  5
332
100
AcDbEntity
  8
0
100
AcDbLine
 62
4
  6
CONTINUOUS
 10
9.3977656066
 20
6.655996486
 11
9.4308830662
 21
6.6868172385
  0
LINE
  5
333
100
AcDbEntity
  8
0
100
AcDbLine
 62
4
  6
CONTINUOUS
 10
9.6033697819
 20
8.6646624009
 11
9.5743920061
 21
8.6666720165
  0
LINE
  5
334
100
AcDbEntity
  8
0
100
AcDbLine
 62
4
  6
CONTINUOUS
 10
9.6033697819
 20
8.8964846078
 11
9.5743920061
 21
8.8984942234
  0
LINE
  5
335
100
AcDbEntity
  8
0
100
AcDbLine
 62
4
  6
CONTINUOUS
 10
11.7670439709
 20
7.3941369641
 11
11.8394884105
 21
7.1572907183
  0
LINE
  5
336
100
AcDbEntity
  8
0
100
AcDbLine
 62
4
  6
CONTINUOUS
 10
11.4676068025
 20
6.4131001361
 11
11.4676068025
 21
6.4627763203
  0
LINE
  5
337
100
AcDbEntity
  8
0
100
AcDbLine
 62
4
  6
CONTINUOUS
 10
11.4772662123
 20
7.3755960808
 11
11.4772662123
 21
7.3562775682
  0
LINE
  5
338
100
AcDbEntity
  8
0
100
AcDbLine
 62
4
  6
CONTINUOUS
 10
11.5669590189
 20
6.323416391
 11
11.5669590189
 21
6.3730925804
  0
LINE
  5
339
100
AcDbEntity
  8
0
100
AcDbLine
 62
4
  6
CONTINUOUS
 10
11.5931773157
 20
7.251646522
 11
11.5931773157
 21
7.2130094864
  0
LINE
  5
33A
100
AcDbEntity
  8
0
100
AcDbLine
 62
4
  6
CONTINUOUS
 10
11.2164662295
 20
7.3164085567
 11
11.2309551175
 21
7.3733593007
  0
LINE
  5
33B
100
AcDbEntity
  8
0
100
AcDbLine
 62
4
  6
CONTINUOUS
 10
10.3664512192
 20
5.9496509668
 11
10.2505401157
 21
5.7258672223
  0
LINE
  5
33C
100
AcDbEntity
  8
0
100
AcDbLine
 62
7
  6
CONTINUOUS
 10
11.173679382
 20
7.8505488121
 11
10.9252313222
 21
7.6105664005
  0
LINE
  5
33D
100
AcDbEntity
  8
0
100
AcDbLine
 62
7
  6
CONTINUOUS
 10
11.173679382
 20
7.7882683717
 11
10.9252313222
 21
7.5482859601
  0
LINE
  5
33E
100
AcDbEntity
  8
0
100
AcDbLine
 62
7
  6
CONTINUOUS
 10
14.3460658711
 20
10.7505700189
 11
15.3813411971
 21
11.7505692528
  0
LINE
  5
33F
100
AcDbEntity
  8
0
100
AcDbLine
 62
4
  6
CONTINUOUS
 10
9.4805592539
 20
6.4515499763
 11
9.51367671
 21
6.4823707325
  0
LINE
  5
340
100
AcDbEntity
  8
0
100
AcDbLine
 62
4
  6
CONTINUOUS
 10
9.6627052834
 20
6.4389181062
 11
9.6958227257
 21
6.4697388634
  0
LINE
  5
341
100
AcDbEntity
  8
0
100
AcDbLine
 62
4
  6
CONTINUOUS
 10
11.9119328501
 20
7.3840888862
 11
11.9553995139
 21
7.149252256
  0
LINE
  5
342
100
AcDbEntity
  8
0
100
AcDbLine
 62
4
  6
CONTINUOUS
 10
11.9988661777
 20
7.3780600395
 11
12.0423328415
 21
7.1432234092
  0
LINE
  5
343
100
AcDbEntity
  8
0
100
AcDbLine
 62
4
  6
CONTINUOUS
 10
11.9553995139
 20
7.149252256
 11
11.9988661777
 21
7.3780600395
  0
LINE
  5
344
100
AcDbEntity
  8
0
100
AcDbLine
 62
4
  6
CONTINUOUS
 10
11.6945995312
 20
7.1673387962
 11
11.7670439709
 21
7.3941369641
  0
LINE
  5
345
100
AcDbEntity
  8
0
100
AcDbLine
 62
4
  6
CONTINUOUS
 10
11.2357844851
 20
6.5616468999
 11
11.2302649298
 21
6.5454709474
  0
LINE
  5
346
100
AcDbEntity
  8
0
100
AcDbLine
 62
4
  6
CONTINUOUS
 10
10.4437252835
 20
5.9111745361
 11
10.4658035876
 21
5.9427608566
  0
LINE
  5
347
100
AcDbEntity
  8
0
100
AcDbLine
 62
4
  6
CONTINUOUS
 10
11.2309551175
 20
7.3733593007
 11
11.2599328933
 21
7.4099867242
  0
LINE
  5
348
100
AcDbEntity
  8
0
100
AcDbLine
 62
4
  6
CONTINUOUS
 10
11.4917551002
 20
7.3939097995
 11
11.4772662123
 21
7.3755960808
  0
LINE
  5
349
100
AcDbEntity
  8
0
100
AcDbLine
 62
4
  6
CONTINUOUS
 10
11.3613551088
 20
7.229086411
 11
11.3468662209
 21
7.210772701
  0
LINE
  5
34A
100
AcDbEntity
  8
0
100
AcDbLine
 62
7
  6
CONTINUOUS
 10
10.7913911034
 20
7.1526374323
 11
10.5429430436
 21
6.9126550207
  0
LINE
  5
34B
100
AcDbEntity
  8
0
100
AcDbLine
 62
4
  6
CONTINUOUS
 10
11.2599328933
 20
7.4099867242
 11
11.2889106692
 21
7.4272956212
  0
LINE
  5
34C
100
AcDbEntity
  8
0
100
AcDbLine
 62
4
  6
CONTINUOUS
 10
11.5207328761
 20
7.4112186966
 11
11.4917551002
 21
7.3939097995
  0
LINE
  5
34D
100
AcDbEntity
  8
0
100
AcDbLine
 62
4
  6
CONTINUOUS
 10
13.8679326486
 20
6.3597879395
 11
13.8824215365
 21
6.3394646053
  0
LINE
  5
34E
100
AcDbEntity
  8
0
100
AcDbLine
 62
4
  6
CONTINUOUS
 10
12.0423328415
 20
7.1432234092
 11
12.0857995053
 21
7.3720311927
  0
LINE
  5
34F
100
AcDbEntity
  8
0
100
AcDbLine
 62
4
  6
CONTINUOUS
 10
11.5931773157
 20
7.2130094864
 11
11.5786884278
 21
7.1946957763
  0
LINE
  5
350
100
AcDbEntity
  8
0
100
AcDbLine
 62
4
  6
CONTINUOUS
 10
9.7675770026
 20
5.2824694324
 11
9.7344595465
 21
5.2516486762
  0
LINE
  5
351
100
AcDbEntity
  8
0
100
AcDbLine
 62
4
  6
CONTINUOUS
 10
10.4326861315
 20
5.8125877285
 11
10.4658035876
 21
5.8434084882
  0
LINE
  5
352
100
AcDbEntity
  8
0
100
AcDbLine
 62
4
  6
CONTINUOUS
 10
11.3468662209
 20
7.210772701
 11
11.3178884451
 21
7.1934637988
  0
LINE
  5
353
100
AcDbEntity
  8
0
100
AcDbLine
 62
4
  6
CONTINUOUS
 10
11.5786884278
 20
7.1946957763
 11
11.5497106519
 21
7.1773868741
  0
LINE
  5
354
100
AcDbEntity
  8
0
100
AcDbLine
 62
4
  6
CONTINUOUS
 10
10.4354459822
 20
6.5343569164
 11
10.4685634245
 21
6.5486189489
  0
LINE
  5
355
100
AcDbEntity
  8
0
100
AcDbLine
 62
4
  6
CONTINUOUS
 10
10.6148321472
 20
5.8993082348
 11
10.6479496172
 21
5.9301289866
  0
LINE
  5
356
100
AcDbEntity
  8
0
100
AcDbLine
 62
4
  6
CONTINUOUS
 10
11.3185781462
 20
6.4731114928
 11
11.335136812
 21
6.4885218804
  0
LINE
  5
357
100
AcDbEntity
  8
0
100
AcDbLine
 62
4
  6
CONTINUOUS
 10
10.5485972349
 20
5.7383143504
 11
10.5154797926
 21
5.7074935933
  0
LINE
  5
358
100
AcDbEntity
  8
0
100
AcDbLine
 62
4
  6
CONTINUOUS
 10
11.4676068025
 20
6.4627763203
 11
11.4841654684
 21
6.478186708
  0
LINE
  5
359
100
AcDbEntity
  8
0
100
AcDbLine
 62
4
  6
CONTINUOUS
 10
11.550400353
 20
6.3080060085
 11
11.5669590189
 21
6.323416391
  0
LINE
  5
35A
100
AcDbEntity
  8
0
100
AcDbLine
 62
4
  6
CONTINUOUS
 10
10.5375580967
 20
5.8549910173
 11
10.5154797926
 21
5.8399634317
  0
LINE
  5
35B
100
AcDbEntity
  8
0
100
AcDbLine
 62
4
  6
CONTINUOUS
 10
10.7500618501
 20
6.4297445914
 11
10.7831792925
 21
6.4440066171
  0
LINE
  5
35C
100
AcDbEntity
  8
0
100
AcDbLine
 62
4
  6
CONTINUOUS
 10
10.6065526689
 20
5.3898735635
 11
10.6396701113
 21
5.4206943172
  0
LINE
  5
35D
100
AcDbEntity
  8
0
100
AcDbLine
 62
4
  6
CONTINUOUS
 10
10.7997377676
 20
5.3764761314
 11
10.83285521
 21
5.4072968851
  0
LINE
  5
35E
100
AcDbEntity
  8
0
100
AcDbLine
 62
4
  6
CONTINUOUS
 10
10.9156488711
 20
5.2028503779
 11
10.8825314287
 21
5.1720296207
  0
LINE
  5
35F
100
AcDbEntity
  8
0
100
AcDbLine
 62
4
  6
CONTINUOUS
 10
9.6075092979
 20
5.4039616963
 11
9.5191960746
 21
5.365929624
  0
LINE
  5
360
100
AcDbEntity
  8
0
100
AcDbLine
 62
4
  6
CONTINUOUS
 10
11.0977948592
 20
5.1902185107
 11
11.0646774168
 21
5.1593977536
  0
LINE
  5
361
100
AcDbEntity
  8
0
100
AcDbLine
 62
7
  6
CONTINUOUS
 10
6.6186588029
 20
11.2864675192
 11
14.3460658711
 21
10.7505700189
  0
LINE
  5
362
100
AcDbEntity
  8
0
100
AcDbLine
 62
4
  6
CONTINUOUS
 10
13.8824215365
 20
9.3917906359
 11
13.8824215365
 21
9.159968429
  0
LINE
  5
363
100
AcDbEntity
  8
0
100
AcDbLine
 62
4
  6
CONTINUOUS
 10
13.8824215365
 20
6.3394646053
 11
13.8824215365
 21
6.30082758
  0
LINE
  5
364
100
AcDbEntity
  8
0
100
AcDbLine
 62
7
  6
CONTINUOUS
 10
14.3460658711
 20
10.7505700189
 11
14.3460658711
 21
4.7135332468
  0
LINE
  5
365
100
AcDbEntity
  8
0
100
AcDbLine
 62
4
  6
CONTINUOUS
 10
13.780999321
 20
6.2112686438
 11
13.7665104331
 21
6.1543178998
  0
LINE
  5
366
100
AcDbEntity
  8
0
100
AcDbLine
 62
4
  6
CONTINUOUS
 10
13.7665104331
 20
6.3475030676
 11
13.780999321
 21
6.3658167863
  0
LINE
  5
367
100
AcDbEntity
  8
0
100
AcDbLine
 62
4
  6
CONTINUOUS
 10
13.780999321
 20
6.3658167863
 11
13.8099770969
 21
6.3831256833
  0
LINE
  5
368
100
AcDbEntity
  8
0
100
AcDbLine
 62
4
  6
CONTINUOUS
 10
13.8679326486
 20
6.2825138614
 11
13.8099770969
 21
6.2478960604
  0
LINE
  5
369
100
AcDbEntity
  8
0
100
AcDbLine
 62
4
  6
CONTINUOUS
 10
11.4455281695
 20
5.2323380395
 11
11.3572149531
 21
5.1943059702
  0
LINE
  5
36A
100
AcDbEntity
  8
0
100
AcDbLine
 62
4
  6
CONTINUOUS
 10
13.8099770969
 20
6.2478960604
 11
13.780999321
 21
6.2112686438
  0
LINE
  5
36B
100
AcDbEntity
  8
0
100
AcDbLine
 62
4
  6
CONTINUOUS
 10
13.8824215365
 20
6.30082758
 11
13.8679326486
 21
6.2825138614
  0
LINE
  5
36C
100
AcDbEntity
  8
0
100
AcDbLine
 62
7
  6
CONTINUOUS
 10
7.6539341289
 20
12.2864667532
 11
15.3813411971
 21
11.7505692528
  0
LINE
  5
36D
100
AcDbEntity
  8
0
100
AcDbLine
 62
7
  6
CONTINUOUS
 10
15.3813411971
 20
11.7505692528
 11
15.3813411971
 21
5.7135324808
  0
LINE
  5
36E
100
AcDbEntity
  8
0
100
AcDbLine
 62
7
  6
CONTINUOUS
 10
14.3460658711
 20
4.7135332468
 11
15.3813411971
 21
5.7135324808
  0
ARC
  5
36F
100
AcDbEntity
  8
0
100
AcDbCircle
 62
7
  6
CONTINUOUS
 10
10.2768021028
 20
7.8026303829
 40
0.8985218557
100
AcDbArc
 50
55.0608491477
 51
59.1576122472
  0
ARC
  5
370
100
AcDbEntity
  8
0
100
AcDbCircle
 62
7
  6
CONTINUOUS
 10
10.1850826001
 20
7.7097325281
 40
0.8985218557
100
AcDbArc
 50
235.0608491477
 51
239.1576122472
  0
ARC
  5
371
100
AcDbEntity
  8
0
100
AcDbCircle
 62
7
  6
CONTINUOUS
 10
10.028354043
 20
7.5626479712
 40
0.8985218557
100
AcDbArc
 50
55.0608491477
 51
59.1576122472
  0
ARC
  5
372
100
AcDbEntity
  8
0
100
AcDbCircle
 62
7
  6
CONTINUOUS
 10
10.3524636656
 20
7.8193572389
 40
0.821807865
100
AcDbArc
 50
0.000717226
 51
2.1751737109
  0
ARC
  5
373
100
AcDbEntity
  8
0
100
AcDbCircle
 62
7
  6
CONTINUOUS
 10
10.1094210373
 20
7.693005672
 40
0.821807865
100
AcDbArc
 50
180.000717226
 51
182.1751737109
  0
ARC
  5
374
100
AcDbEntity
  8
0
100
AcDbCircle
 62
7
  6
CONTINUOUS
 10
10.1040156058
 20
7.5793748273
 40
0.821807865
100
AcDbArc
 50
0.000717226
 51
2.1751737109
  0
ARC
  5
375
100
AcDbEntity
  8
0
100
AcDbCircle
 62
7
  6
CONTINUOUS
 10
10.3578623823
 20
7.8193572854
 40
0.8164091484
100
AcDbArc
 50
357.8176453237
 51
0.0007187083
  0
ARC
  5
376
100
AcDbEntity
  8
0
100
AcDbCircle
 62
7
  6
CONTINUOUS
 10
10.1029461056
 20
7.6930261174
 40
0.8153329338
100
AcDbArc
 50
177.816204354
 51
180.002159678
  0
ARC
  5
377
100
AcDbEntity
  8
0
100
AcDbCircle
 62
7
  6
CONTINUOUS
 10
10.1104905375
 20
7.5793543819
 40
0.8153329338
100
AcDbArc
 50
357.816204354
 51
0.002159678
  0
ARC
  5
378
100
AcDbEntity
  8
0
100
AcDbCircle
 62
7
  6
CONTINUOUS
 10
10.2856632091
 20
7.9446020282
 40
0.7507652001
100
AcDbArc
 50
114.6214869613
 51
119.2396551685
  0
ARC
  5
379
100
AcDbEntity
  8
0
100
AcDbCircle
 62
7
  6
CONTINUOUS
 10
10.1762214938
 20
7.5677608827
 40
0.7507652001
100
AcDbArc
 50
294.6214869613
 51
299.2396551685
  0
ARC
  5
37A
100
AcDbEntity
  8
0
100
AcDbCircle
 62
7
  6
CONTINUOUS
 10
10.0372151493
 20
7.7046196166
 40
0.7507652001
100
AcDbArc
 50
114.6214869613
 51
119.2396551685
  0
ARC
  5
37B
100
AcDbEntity
  8
0
100
AcDbCircle
 62
7
  6
CONTINUOUS
 10
10.4895794792
 20
7.9516856008
 40
0.6737606169
100
AcDbArc
 50
354.0831279839
 51
0.0104562908
  0
ARC
  5
37C
100
AcDbEntity
  8
0
100
AcDbCircle
 62
7
  6
CONTINUOUS
 10
10.5104118562
 20
8.0007800606
 40
0.2968428998
100
AcDbArc
 50
265.9814664774
 51
276.6643031236
  0
ARC
  5
37D
100
AcDbEntity
  8
0
100
AcDbCircle
 62
7
  6
CONTINUOUS
 10
14.9334887598
 20
10.4342296114
 40
0.0380483244
100
AcDbArc
 50
86.066311515
 51
96.75970332
  0
ARC
  5
37E
100
AcDbEntity
  8
0
100
AcDbCircle
 62
7
  6
CONTINUOUS
 10
14.9334887598
 20
7.4147451392
 40
0.0380483244
100
AcDbArc
 50
86.066311515
 51
96.75970332
  0
ARC
  5
37F
100
AcDbEntity
  8
0
100
AcDbCircle
 62
7
  6
CONTINUOUS
 10
14.8557322624
 20
9.3130178269
 40
0.0380468813
100
AcDbArc
 50
255.2483063984
 51
265.9997336137
  0
ARC
  5
380
100
AcDbEntity
  8
0
100
AcDbCircle
 62
7
  6
CONTINUOUS
 10
14.8557322624
 20
6.2935333547
 40
0.0380468813
100
AcDbArc
 50
255.2483063984
 51
265.9997336137
  0
SPLINE
  5
381
100
AcDbEntity
  8
0
100
AcDbSpline
 62
7
  6
CONTINUOUS
 70
0
 71
3
 72
20
 73
16
 74
0
 42
0.0000001
 43
0.0000001
 44
0.0000000001
 40
0.0
 40
0.0
 40
0.0
 40
0.0
 40
0.1158333033
 40
0.1749277063
 40
0.2348336549
 40
0.2955505154
 40
0.3570578458
 40
0.4193137153
 40
0.4822556508
 40
0.545803937
 40
0.6098670736
 40
0.674348424
 40
0.7391527537
 40
0.8693865003
 40
1.0
 40
1.0
 40
1.0
 40
1.0
 10
9.724430043
 20
6.9382788699
 30
0.0
 10
9.7537246096
 20
6.9338871755
 30
0.0
 10
9.7980204848
 20
6.9276196428
 30
0.0
 10
9.8575935422
 20
6.9200309926
 30
0.0
 10
9.9032395985
 20
6.9146707141
 30
0.0
 10
9.9495517262
 20
6.9097125772
 30
0.0
 10
9.9965118961
 20
6.9051863808
 30
0.0
 10
10.0440849964
 20
6.9011169519
 30
0.0
 10
10.0922197138
 20
6.8975221023
 30
0.0
 10
10.1408512238
 20
6.8944111363
 30
0.0
 10
10.1899054557
 20
6.8917840657
 30
0.0
 10
10.2393042747
 20
6.8896317993
 30
0.0
 10
10.305633136
 20
6.8873685389
 30
0.0
 10
10.3888976309
 20
6.8856326272
 30
0.0
 10
10.4556049505
 20
6.8852431403
 30
0.0
 10
10.4890066001
 20
6.8852553055
 30
0.0
  0
SPLINE
  5
382
100
AcDbEntity
  8
0
100
AcDbSpline
 62
7
  6
CONTINUOUS
 70
0
 71
3
 72
15
 73
11
 74
0
 42
0.0000001
 43
0.0000001
 44
0.0000000001
 40
0.0
 40
0.0
 40
0.0
 40
0.0
 40
0.1341421652
 40
0.2671240091
 40
0.3982062961
 40
0.5265153303
 40
0.6512220454
 40
0.7717611743
 40
0.887958221
 40
1.0
 40
1.0
 40
1.0
 40
1.0
 10
10.7913911034
 20
7.1526374323
 30
0.0
 10
10.8091724134
 20
7.1806390978
 30
0.0
 10
10.8444642372
 20
7.2364746581
 30
0.0
 10
10.8966457744
 20
7.3199791424
 30
0.0
 10
10.9475578017
 20
7.4025741634
 30
0.0
 10
10.9968263107
 20
7.4837759261
 30
0.0
 10
11.044135053
 20
7.5631142407
 30
0.0
 10
11.0893018913
 20
7.6402394206
 30
0.0
 10
11.1323130457
 20
7.7149946297
 30
0.0
 10
11.1601111223
 20
7.7641128355
 30
0.0
 10
11.173679382
 20
7.7882683717
 30
0.0
  0
SPLINE
  5
383
100
AcDbEntity
  8
0
100
AcDbSpline
 62
7
  6
CONTINUOUS
 70
0
 71
3
 72
21
 73
17
 74
0
 42
0.0000001
 43
0.0000001
 44
0.0000000001
 40
0.0
 40
0.0
 40
0.0
 40
0.0
 40
0.1260823583
 40
0.1893891066
 40
0.2528254031
 40
0.3163393684
 40
0.3798665806
 40
0.4433318296
 40
0.5066530905
 40
0.5697468179
 40
0.6325339346
 40
0.6949453646
 40
0.7569260935
 40
0.8184373832
 40
0.8794565978
 40
1.0
 40
1.0
 40
1.0
 40
1.0
 10
11.173679382
 20
7.8505488121
 30
0.0
 10
11.1603049938
 20
7.8808879571
 30
0.0
 10
11.1398262673
 20
7.9262913191
 30
0.0
 10
11.1115751809
 20
7.9864779301
 30
0.0
 10
11.0898221905
 20
8.0315353124
 30
0.0
 10
11.0675186844
 20
8.0763875832
 30
0.0
 10
11.0446592766
 20
8.1209678207
 30
0.0
 10
11.0212501599
 20
8.1652046593
 30
0.0
 10
10.9973096763
 20
8.2090264193
 30
0.0
 10
10.9728676912
 20
8.2523658517
 30
0.0
 10
10.9479637439
 20
8.2951648564
 30
0.0
 10
10.9226441901
 20
8.3373782923
 30
0.0
 10
10.896958955
 20
8.3789762722
 30
0.0
 10
10.8709582743
 20
8.4199447872
 30
0.0
 10
10.8360770947
 20
8.4735119945
 30
0.0
 10
10.8093694198
 20
8.5130949034
 30
0.0
 10
10.7913911034
 20
8.5392033158
 30
0.0
  0
SPLINE
  5
384
100
AcDbEntity
  8
0
100
AcDbSpline
 62
7
  6
CONTINUOUS
 70
0
 71
3
 72
20
 73
16
 74
0
 42
0.0000001
 43
0.0000001
 44
0.0000000001
 40
0.0
 40
0.0
 40
0.0
 40
0.0
 40
0.1158333033
 40
0.1749277063
 40
0.2348336549
 40
0.2955505154
 40
0.3570578458
 40
0.4193137153
 40
0.4822556508
 40
0.545803937
 40
0.6098670736
 40
0.674348424
 40
0.7391527537
 40
0.8693865003
 40
1.0
 40
1.0
 40
1.0
 40
1.0
 10
10.7374546599
 20
8.5740840411
 30
0.0
 10
10.7081600933
 20
8.5784757354
 30
0.0
 10
10.6638642181
 20
8.5847432682
 30
0.0
 10
10.6042911607
 20
8.5923319184
 30
0.0
 10
10.5586451044
 20
8.5976921968
 30
0.0
 10
10.5123329767
 20
8.6026503338
 30
0.0
 10
10.4653728068
 20
8.6071765302
 30
0.0
 10
10.4177997066
 20
8.611245959
 30
0.0
 10
10.3696649891
 20
8.6148408086
 30
0.0
 10
10.3210334791
 20
8.6179517746
 30
0.0
 10
10.2719792472
 20
8.6205788452
 30
0.0
 10
10.2225804282
 20
8.6227311116
 30
0.0
 10
10.1562515669
 20
8.624994372
 30
0.0
 10
10.072987072
 20
8.6267302837
 30
0.0
 10
10.0062797524
 20
8.6271197707
 30
0.0
 10
9.9728781028
 20
8.6271076054
 30
0.0
  0
SPLINE
  5
385
100
AcDbEntity
  8
0
100
AcDbSpline
 62
7
  6
CONTINUOUS
 70
0
 71
3
 72
15
 73
11
 74
0
 42
0.0000001
 43
0.0000001
 44
0.0000000001
 40
0.0
 40
0.0
 40
0.0
 40
0.0
 40
0.1341421652
 40
0.2671240091
 40
0.3982062961
 40
0.5265153303
 40
0.6512220454
 40
0.7717611743
 40
0.887958221
 40
1.0
 40
1.0
 40
1.0
 40
1.0
 10
9.6704935995
 20
8.3597254786
 30
0.0
 10
9.6527122895
 20
8.3317238132
 30
0.0
 10
9.6174204657
 20
8.2758882529
 30
0.0
 10
9.5652389285
 20
8.1923837685
 30
0.0
 10
9.5143269012
 20
8.1097887475
 30
0.0
 10
9.4650583922
 20
8.0285869848
 30
0.0
 10
9.4177496499
 20
7.9492486703
 30
0.0
 10
9.3725828116
 20
7.8721234903
 30
0.0
 10
9.3295716572
 20
7.7973682812
 30
0.0
 10
9.3017735806
 20
7.7482500755
 30
0.0
 10
9.288205321
 20
7.7240945392
 30
0.0
  0
SPLINE
  5
386
100
AcDbEntity
  8
0
100
AcDbSpline
 62
7
  6
CONTINUOUS
 70
0
 71
3
 72
21
 73
17
 74
0
 42
0.0000001
 43
0.0000001
 44
0.0000000001
 40
0.0
 40
0.0
 40
0.0
 40
0.0
 40
0.1260823583
 40
0.1893891066
 40
0.2528254031
 40
0.3163393684
 40
0.3798665806
 40
0.4433318296
 40
0.5066530905
 40
0.5697468179
 40
0.6325339346
 40
0.6949453646
 40
0.7569260935
 40
0.8184373832
 40
0.8794565978
 40
1.0
 40
1.0
 40
1.0
 40
1.0
 10
9.288205321
 20
7.6618140988
 30
0.0
 10
9.3015797091
 20
7.6314749539
 30
0.0
 10
9.3220584356
 20
7.5860715919
 30
0.0
 10
9.350309522
 20
7.5258849809
 30
0.0
 10
9.3720625124
 20
7.4808275985
 30
0.0
 10
9.3943660185
 20
7.4359753278
 30
0.0
 10
9.4172254263
 20
7.3913950902
 30
0.0
 10
9.440634543
 20
7.3471582516
 30
0.0
 10
9.4645750266
 20
7.3033364916
 30
0.0
 10
9.4890170117
 20
7.2599970593
 30
0.0
 10
9.513920959
 20
7.2171980545
 30
0.0
 10
9.5392405128
 20
7.1749846186
 30
0.0
 10
9.5649257479
 20
7.1333866387
 30
0.0
 10
9.5909264286
 20
7.0924181238
 30
0.0
 10
9.6258076082
 20
7.0388509164
 30
0.0
 10
9.6525152832
 20
6.9992680075
 30
0.0
 10
9.6704935995
 20
6.9731595951
 30
0.0
  0
SPLINE
  5
387
100
AcDbEntity
  8
0
100
AcDbSpline
 62
7
  6
CONTINUOUS
 70
0
 71
3
 72
44
 73
40
 74
0
 42
0.0000001
 43
0.0000001
 44
0.0000000001
 40
0.0
 40
0.0
 40
0.0
 40
0.0
 40
0.0310729656
 40
0.0623068567
 40
0.0936902519
 40
0.1252187137
 40
0.1568795764
 40
0.1886588006
 40
0.2205398587
 40
0.2525040158
 40
0.2845309811
 40
0.3165990814
 40
0.3486859243
 40
0.3807687375
 40
0.4128247536
 40
0.4448318233
 40
0.4767687209
 40
0.5086156476
 40
0.5403546459
 40
0.5719698846
 40
0.6034481534
 40
0.6347790959
 40
0.665955421
 40
0.6969731695
 40
0.7124249879
 40
0.7278372619
 40
0.7585399059
 40
0.7890930007
 40
0.8195064729
 40
0.834667685
 40
0.8497991575
 40
0.8649030178
 40
0.8799815172
 40
0.9100664512
 40
0.9400805833
 40
0.9550710718
 40
0.9700524675
 40
0.9850277717
 40
1.0
 40
1.0
 40
1.0
 40
1.0
 10
10.556489386
 20
7.6056357624
 30
0.0
 10
10.556489386
 20
7.6167663037
 30
0.0
 10
10.5556587189
 20
7.6390935743
 30
0.0
 10
10.5519519115
 20
7.6724772332
 30
0.0
 10
10.5458000081
 20
7.7056653277
 30
0.0
 10
10.5372388882
 20
7.7384721614
 30
0.0
 10
10.5263146163
 20
7.7707190497
 30
0.0
 10
10.5130879618
 20
7.8022285423
 30
0.0
 10
10.4976318725
 20
7.8328279049
 30
0.0
 10
10.4800312407
 20
7.8623491995
 30
0.0
 10
10.4603826637
 20
7.8906303114
 30
0.0
 10
10.4387942186
 20
7.9175161427
 30
0.0
 10
10.4153845279
 20
7.9428592241
 30
0.0
 10
10.3902820764
 20
7.9665204727
 30
0.0
 10
10.3636244544
 20
7.9883698031
 30
0.0
 10
10.3355580405
 20
8.008287296
 30
0.0
 10
10.3062369143
 20
8.0261636636
 30
0.0
 10
10.2758219127
 20
8.0419006082
 30
0.0
 10
10.2444798433
 20
8.0554113424
 30
0.0
 10
10.2123827318
 20
8.0666215057
 30
0.0
 10
10.1797068956
 20
8.0754694245
 30
0.0
 10
10.1466313921
 20
8.0819061604
 30
0.0
 10
10.1133390214
 20
8.0858958704
 30
0.0
 10
10.085526968
 20
8.0871642001
 30
0.0
 10
10.0633571663
 20
8.0869355788
 30
0.0
 10
10.041324294
 20
8.0858829749
 30
0.0
 10
10.0139814467
 20
8.0830274252
 30
0.0
 10
9.9816457626
 20
8.0771419734
 30
0.0
 10
9.9552415372
 20
8.0702095052
 30
0.0
 10
9.9345607112
 20
8.0634746336
 30
0.0
 10
9.9193019264
 20
8.0578408942
 30
0.0
 10
9.9043015927
 20
8.0516282559
 30
0.0
 10
9.8846906424
 20
8.0425918016
 30
0.0
 10
9.8609119213
 20
8.0298896664
 30
0.0
 10
9.8382358921
 20
8.0153676287
 30
0.0
 10
9.8208576183
 20
8.0027222703
 30
0.0
 10
9.8082217508
 20
7.9927372285
 30
0.0
 10
9.7959974635
 20
7.9822631484
 30
0.0
 10
9.7881326833
 20
7.9749628441
 30
0.0
 10
9.7842752602
 20
7.9712367637
 30
0.0
  0
SPLINE
  5
388
100
AcDbEntity
  8
0
100
AcDbSpline
 62
7
  6
CONTINUOUS
 70
0
 71
3
 72
20
 73
16
 74
0
 42
0.0000001
 43
0.0000001
 44
0.0000000001
 40
0.0
 40
0.0
 40
0.0
 40
0.0
 40
0.1273213933
 40
0.253810065
 40
0.3795115173
 40
0.442110115
 40
0.5045430396
 40
0.5668245774
 40
0.628970238
 40
0.6909965445
 40
0.7529215647
 40
0.8147642937
 40
0.8765446172
 40
0.9382828586
 40
1.0
 40
1.0
 40
1.0
 40
1.0
 10
10.556489386
 20
7.6056357624
 30
0.0
 10
10.556489386
 20
7.5913149236
 30
0.0
 10
10.5551218241
 20
7.5627467323
 30
0.0
 10
10.5489389093
 20
7.5204462429
 30
0.0
 10
10.5403794087
 20
7.4860234197
 30
0.0
 10
10.531541242
 20
7.4592320623
 30
0.0
 10
10.5239435427
 20
7.4395711388
 30
0.0
 10
10.5153853086
 20
7.4203651874
 30
0.0
 10
10.5058870671
 20
7.4016573655
 30
0.0
 10
10.4954697882
 20
7.3834914915
 30
0.0
 10
10.4841582958
 20
7.3659089546
 30
0.0
 10
10.4719779307
 20
7.3489508338
 30
0.0
 10
10.4589573157
 20
7.3326556419
 30
0.0
 10
10.4451264173
 20
7.3170619192
 30
0.0
 10
10.4353853088
 20
7.3071557101
 30
0.0
 10
10.4303924401
 20
7.3023328455
 30
0.0
  0
SPLINE
  5
389
100
AcDbEntity
  8
0
100
AcDbSpline
 62
7
  6
CONTINUOUS
 70
0
 71
3
 72
15
 73
11
 74
0
 42
0.0000001
 43
0.0000001
 44
0.0000000001
 40
0.0
 40
0.0
 40
0.0
 40
0.0
 40
0.112041779
 40
0.2282388258
 40
0.3487779546
 40
0.4734846697
 40
0.601793704
 40
0.7328759909
 40
0.8658578349
 40
1.0
 40
1.0
 40
1.0
 40
1.0
 10
10.5429430436
 20
6.9126550207
 30
0.0
 10
10.5565113033
 20
6.9368105569
 30
0.0
 10
10.5843093799
 20
6.9859287626
 30
0.0
 10
10.6273205343
 20
7.0606839717
 30
0.0
 10
10.6724873726
 20
7.1378091517
 30
0.0
 10
10.7197961149
 20
7.2171474663
 30
0.0
 10
10.7690646239
 20
7.298349229
 30
0.0
 10
10.8199766512
 20
7.38094425
 30
0.0
 10
10.8721581884
 20
7.4644487343
 30
0.0
 10
10.9074500122
 20
7.5202842946
 30
0.0
 10
10.9252313222
 20
7.5482859601
 30
0.0
  0
SPLINE
  5
38A
100
AcDbEntity
  8
0
100
AcDbSpline
 62
7
  6
CONTINUOUS
 70
0
 71
3
 72
21
 73
17
 74
0
 42
0.0000001
 43
0.0000001
 44
0.0000000001
 40
0.0
 40
0.0
 40
0.0
 40
0.0
 40
0.1205434023
 40
0.1815626168
 40
0.2430739065
 40
0.3050546354
 40
0.3674660655
 40
0.4302531821
 40
0.4933469095
 40
0.5566681704
 40
0.6201334194
 40
0.6836606316
 40
0.7471745969
 40
0.8106108934
 40
0.8739176417
 40
1.0
 40
1.0
 40
1.0
 40
1.0
 10
10.9252313222
 20
7.6105664005
 30
0.0
 10
10.9072530058
 20
7.6366748129
 30
0.0
 10
10.8805453309
 20
7.6762577218
 30
0.0
 10
10.8456641513
 20
7.7298249291
 30
0.0
 10
10.8196634706
 20
7.7707934441
 30
0.0
 10
10.7939782355
 20
7.812391424
 30
0.0
 10
10.7686586817
 20
7.8546048599
 30
0.0
 10
10.7437547344
 20
7.8974038646
 30
0.0
 10
10.7193127493
 20
7.940743297
 30
0.0
 10
10.6953722657
 20
7.984565057
 30
0.0
 10
10.671963149
 20
8.0288018956
 30
0.0
 10
10.6491037412
 20
8.0733821331
 30
0.0
 10
10.6268002351
 20
8.1182344039
 30
0.0
 10
10.6050472447
 20
8.1632917862
 30
0.0
 10
10.5767961583
 20
8.2234783972
 30
0.0
 10
10.5563174318
 20
8.2688817592
 30
0.0
 10
10.5429430436
 20
8.2992209042
 30
0.0
  0
SPLINE
  5
38B
100
AcDbEntity
  8
0
100
AcDbSpline
 62
7
  6
CONTINUOUS
 70
0
 71
3
 72
20
 73
16
 74
0
 42
0.0000001
 43
0.0000001
 44
0.0000000001
 40
0.0
 40
0.0
 40
0.0
 40
0.0
 40
0.1306134997
 40
0.2608472463
 40
0.325651576
 40
0.3901329265
 40
0.454196063
 40
0.5177443493
 40
0.5806862848
 40
0.6429421542
 40
0.7044494846
 40
0.7651663451
 40
0.8250722937
 40
0.8841666967
 40
1.0
 40
1.0
 40
1.0
 40
1.0
 10
10.4890066001
 20
8.3341016295
 30
0.0
 10
10.4556049505
 20
8.3340894642
 30
0.0
 10
10.3888976309
 20
8.3344789512
 30
0.0
 10
10.305633136
 20
8.3362148628
 30
0.0
 10
10.2393042747
 20
8.3384781232
 30
0.0
 10
10.1899054557
 20
8.3406303896
 30
0.0
 10
10.1408512238
 20
8.3432574602
 30
0.0
 10
10.0922197138
 20
8.3463684262
 30
0.0
 10
10.0440849963
 20
8.3499632759
 30
0.0
 10
9.9965118961
 20
8.3540327047
 30
0.0
 10
9.9495517262
 20
8.3585589011
 30
0.0
 10
9.9032395985
 20
8.363517038
 30
0.0
 10
9.8575935422
 20
8.3688773165
 30
0.0
 10
9.7980204848
 20
8.3764659667
 30
0.0
 10
9.7537246096
 20
8.3827334994
 30
0.0
 10
9.724430043
 20
8.3871251938
 30
0.0
  0
SPLINE
  5
38C
100
AcDbEntity
  8
0
100
AcDbSpline
 62
7
  6
CONTINUOUS
 70
0
 71
3
 72
13
 73
9
 74
0
 42
0.0000001
 43
0.0000001
 44
0.0000000001
 40
0.0
 40
0.0
 40
0.0
 40
0.0
 40
0.2523502838
 40
0.5030575249
 40
0.627844619
 40
0.7522537142
 40
0.8762987145
 40
1.0
 40
1.0
 40
1.0
 40
1.0
 10
10.3985050356
 20
7.5104138663
 30
0.0
 10
10.4113582351
 20
7.5095224939
 30
0.0
 10
10.43708069
 20
7.5089521031
 30
0.0
 10
10.4691011057
 20
7.5113133073
 30
0.0
 10
10.4943595289
 20
7.5150396889
 30
0.0
 10
10.5130616375
 20
7.5187381834
 30
0.0
 10
10.5315051224
 20
7.5233366387
 30
0.0
 10
10.5436182626
 20
7.5270005698
 30
0.0
 10
10.5496162205
 20
7.5289786849
 30
0.0
  0
SPLINE
  5
38D
100
AcDbEntity
  8
0
100
AcDbSpline
 62
7
  6
CONTINUOUS
 70
0
 71
3
 72
39
 73
35
 74
0
 42
0.0000001
 43
0.0000001
 44
0.0000000001
 40
0.0
 40
0.0
 40
0.0
 40
0.0
 40
0.0309340721
 40
0.0620079513
 40
0.0932047088
 40
0.1245220973
 40
0.1402261697
 40
0.1559575042
 40
0.1874927134
 40
0.2191199627
 40
0.2508269725
 40
0.2825998082
 40
0.3144237254
 40
0.3781349873
 40
0.4418596474
 40
0.4737001896
 40
0.5054959104
 40
0.5372317795
 40
0.5688935399
 40
0.6004681226
 40
0.6319436489
 40
0.6633097053
 40
0.6945575498
 40
0.7256801992
 40
0.7566726311
 40
0.7875316763
 40
0.8182564395
 40
0.8488480752
 40
0.8793098089
 40
0.9096470635
 40
0.9398672609
 40
0.954938385
 40
0.9699839135
 40
1.0
 40
1.0
 40
1.0
 40
1.0
 10
10.414942239
 20
7.6325428338
 30
0.0
 10
10.4086091557
 20
7.6329820346
 30
0.0
 10
10.3959385796
 20
7.6342616034
 30
0.0
 10
10.3770521182
 20
7.6373612334
 30
0.0
 10
10.3583153138
 20
7.6416352614
 30
0.0
 10
10.3429021707
 20
7.6461567774
 30
0.0
 10
10.3307205143
 20
7.6503397257
 30
0.0
 10
10.3186287621
 20
7.6549040754
 30
0.0
 10
10.3037456571
 20
7.6613049328
 30
0.0
 10
10.2863420249
 20
7.670057119
 30
0.0
 10
10.2694475183
 20
7.6798535093
 30
0.0
 10
10.2531283156
 20
7.6906550277
 30
0.0
 10
10.2322201338
 20
7.7063421647
 30
0.0
 10
10.2078478621
 20
7.7282382832
 30
0.0
 10
10.1862058366
 20
7.7528409138
 30
0.0
 10
10.170730361
 20
7.773919665
 30
0.0
 10
10.1600899879
 20
7.7903611016
 30
0.0
 10
10.1504580692
 20
7.8073701404
 30
0.0
 10
10.1418726486
 20
7.8248803928
 30
0.0
 10
10.1343670862
 20
7.842822135
 30
0.0
 10
10.1279720146
 20
7.8611248869
 30
0.0
 10
10.1227119648
 20
7.8797159686
 30
0.0
 10
10.1186083442
 20
7.8985220688
 30
0.0
 10
10.1156774243
 20
7.9174687825
 30
0.0
 10
10.1139304662
 20
7.9364811373
 30
0.0
 10
10.1133753323
 20
7.9554839759
 30
0.0
 10
10.1140133309
 20
7.9744020854
 30
0.0
 10
10.1158429903
 20
7.9931605416
 30
0.0
 10
10.1188565912
 20
8.0116852207
 30
0.0
 10
10.1230423493
 20
8.0299022934
 30
0.0
 10
10.1274984593
 20
8.0447818593
 30
0.0
 10
10.1316308952
 20
8.0564564122
 30
0.0
 10
10.1361295463
 20
8.0679493574
 30
0.0
 10
10.1399261735
 20
8.0763913701
 30
0.0
 10
10.142638039
 20
8.0819222125
 30
0.0
  0
SPLINE
  5
38E
100
AcDbEntity
  8
0
100
AcDbSpline
 62
7
  6
CONTINUOUS
 70
0
 71
3
 72
41
 73
37
 74
0
 42
0.0000001
 43
0.0000001
 44
0.0000000001
 40
0.0
 40
0.0
 40
0.0
 40
0.0
 40
0.0308690266
 40
0.0618701878
 40
0.0929888296
 40
0.124223252
 40
0.1555678238
 40
0.1870129276
 40
0.2185487408
 40
0.2501644956
 40
0.2818479464
 40
0.3135861091
 40
0.345365314
 40
0.3771712999
 40
0.3930813286
 40
0.4089925663
 40
0.4408081629
 40
0.4726065239
 40
0.5043730974
 40
0.5360938362
 40
0.5677552569
 40
0.5993446539
 40
0.6308502919
 40
0.6622614709
 40
0.6935688688
 40
0.7247644866
 40
0.7558418587
 40
0.7867961555
 40
0.8176242753
 40
0.8483249261
 40
0.863629236
 40
0.8789020131
 40
0.9093509285
 40
0.9396793376
 40
0.96989313
 40
1.0
 40
1.0
 40
1.0
 40
1.0
 10
10.3985050356
 20
7.5104138663
 30
0.0
 10
10.390354219
 20
7.5109791274
 30
0.0
 10
10.3740475131
 20
7.5126007444
 30
0.0
 10
10.3497292084
 20
7.5164796848
 30
0.0
 10
10.3255849599
 20
7.5217986745
 30
0.0
 10
10.301703859
 20
7.5285374202
 30
0.0
 10
10.278169812
 20
7.5366712164
 30
0.0
 10
10.2550675176
 20
7.5461720392
 30
0.0
 10
10.232479492
 20
7.5570047511
 30
0.0
 10
10.2104868383
 20
7.5691311734
 30
0.0
 10
10.1891681195
 20
7.5825074897
 30
0.0
 10
10.1685994697
 20
7.5970857638
 30
0.0
 10
10.1488552679
 20
7.6128139459
 30
0.0
 10
10.1331475211
 20
7.6268311164
 30
0.0
 10
10.1210620173
 20
7.6385621627
 30
0.0
 10
10.1093068488
 20
7.6506277542
 30
0.0
 10
10.0952548923
 20
7.6663150297
 30
0.0
 10
10.0794795242
 20
7.686040911
 30
0.0
 10
10.064847121
 20
7.7065986083
 30
0.0
 10
10.0514097421
 20
7.7279136963
 30
0.0
 10
10.0392162721
 20
7.7499105079
 30
0.0
 10
10.028309724
 20
7.772509863
 30
0.0
 10
10.0187295538
 20
7.7956310752
 30
0.0
 10
10.0105102779
 20
7.8191913946
 30
0.0
 10
10.0036808015
 20
7.843106289
 30
0.0
 10
9.9982665998
 20
7.8672903989
 30
0.0
 10
9.9942862233
 20
7.8916568465
 30
0.0
 10
9.9917546964
 20
7.9161186483
 30
0.0
 10
9.9906810334
 20
7.9405875613
 30
0.0
 10
9.9910046201
 20
7.9609344117
 30
0.0
 10
9.9919961307
 20
7.9771251776
 30
0.0
 10
9.9934707751
 20
7.9932121733
 30
0.0
 10
9.9962201025
 20
8.0131660531
 30
0.0
 10
10.0009652226
 20
8.0367927913
 30
0.0
 10
10.0071353571
 20
8.0599939803
 30
0.0
 10
10.0121936578
 20
8.0751500481
 30
0.0
 10
10.0149520958
 20
8.082626054
 30
0.0
  0
SPLINE
  5
38F
100
AcDbEntity
  8
0
100
AcDbSpline
 62
7
  6
CONTINUOUS
 70
0
 71
3
 72
14
 73
10
 74
0
 42
0.0000001
 43
0.0000001
 44
0.0000000001
 40
0.0
 40
0.0
 40
0.0
 40
0.0
 40
0.2524626969
 40
0.3780778148
 40
0.5032553567
 40
0.6280190538
 40
0.7523841113
 40
0.8763690428
 40
1.0
 40
1.0
 40
1.0
 40
1.0
 10
10.3883660826
 20
7.5006203892
 30
0.0
 10
10.4020280144
 20
7.4996729311
 30
0.0
 10
10.4225792687
 20
7.4992786413
 30
0.0
 10
10.4498413409
 20
7.5008444173
 30
0.0
 10
10.4701028649
 20
7.503054236
 30
0.0
 10
10.4901553935
 20
7.5062965093
 30
0.0
 10
10.5099497556
 20
7.5105621564
 30
0.0
 10
10.5294339948
 20
7.5158413163
 30
0.0
 10
10.5422028003
 20
7.5200329842
 30
0.0
 10
10.5485168893
 20
7.5222928398
 30
0.0
  0
SPLINE
  5
390
100
AcDbEntity
  8
0
100
AcDbSpline
 62
7
  6
CONTINUOUS
 70
0
 71
3
 72
23
 73
19
 74
0
 42
0.0000001
 43
0.0000001
 44
0.0000000001
 40
0.0
 40
0.0
 40
0.0
 40
0.0
 40
0.0613028236
 40
0.1230130137
 40
0.1851073539
 40
0.2475483091
 40
0.3102858929
 40
0.3732593398
 40
0.4363996894
 40
0.4996320156
 40
0.5628782539
 40
0.6260598565
 40
0.6891004582
 40
0.7519287399
 40
0.8144807171
 40
0.8767024113
 40
0.9385516346
 40
1.0
 40
1.0
 40
1.0
 40
1.0
 10
9.9807453598
 20
7.9365097052
 30
0.0
 10
9.9807453598
 20
7.9231303848
 30
0.0
 10
9.9820691854
 20
7.8962649963
 30
0.0
 10
9.9879595057
 20
7.8562372382
 30
0.0
 10
9.9977030343
 20
7.8167103837
 30
0.0
 10
10.0112049816
 20
7.7780691814
 30
0.0
 10
10.0283346772
 20
7.7406831621
 30
0.0
 10
10.0489268887
 20
7.7049114125
 30
0.0
 10
10.0727833812
 20
7.6710970217
 30
0.0
 10
10.0996748316
 20
7.6395644244
 30
0.0
 10
10.12934298
 20
7.6106162138
 30
0.0
 10
10.1615030876
 20
7.5845303278
 30
0.0
 10
10.1958465839
 20
7.561557409
 30
0.0
 10
10.2320441049
 20
7.541918447
 30
0.0
 10
10.2697480274
 20
7.5258026907
 30
0.0
 10
10.3085978941
 20
7.5133657182
 30
0.0
 10
10.3482156322
 20
7.5047284558
 30
0.0
 10
10.3749871319
 20
7.5015482226
 30
0.0
 10
10.3883660826
 20
7.5006203892
 30
0.0
  0
SPLINE
  5
391
100
AcDbEntity
  8
0
100
AcDbSpline
 62
7
  6
CONTINUOUS
 70
0
 71
3
 72
69
 73
65
 74
0
 42
0.0000001
 43
0.0000001
 44
0.0000000001
 40
0.0
 40
0.0
 40
0.0
 40
0.0
 40
0.0156364853
 40
0.0313286062
 40
0.0470713557
 40
0.0628645992
 40
0.0787073833
 40
0.0945971192
 40
0.1105311031
 40
0.1265064347
 40
0.1425197135
 40
0.1585671911
 40
0.1746448341
 40
0.1907483626
 40
0.206873226
 40
0.2230147174
 40
0.2553195563
 40
0.2876315028
 40
0.303781814
 40
0.3199189166
 40
0.3360379974
 40
0.3521343711
 40
0.368203588
 40
0.3842414187
 40
0.4002439185
 40
0.4162074416
 40
0.432128716
 40
0.4480048488
 40
0.4638333352
 40
0.4796121374
 40
0.4953396571
 40
0.5110148031
 40
0.5266369471
 40
0.5422059923
 40
0.5577223427
 40
0.5731869237
 40
0.588601175
 40
0.6039670101
 40
0.6192868674
 40
0.6345636277
 40
0.6498006243
 40
0.6650015827
 40
0.6801706254
 40
0.6953122085
 40
0.7104310524
 40
0.7255321451
 40
0.7406206482
 40
0.7557018704
 40
0.7707811855
 40
0.7858639884
 40
0.8009556483
 40
0.816061428
 40
0.8311864536
 40
0.8463356192
 40
0.8615135947
 40
0.8767247464
 40
0.8919730461
 40
0.9072621218
 40
0.9225952734
 40
0.9379751727
 40
0.953403688
 40
0.9688833741
 40
0.9844166438
 40
1.0
 40
1.0
 40
1.0
 40
1.0
 10
10.8087111952
 20
7.5712633364
 30
0.0
 10
10.8087111952
 20
7.5830242398
 30
0.0
 10
10.8081312885
 20
7.6065918822
 30
0.0
 10
10.8055367449
 20
7.6419144382
 30
0.0
 10
10.8012201035
 20
7.6771876734
 30
0.0
 10
10.7951929772
 20
7.7123237979
 30
0.0
 10
10.7874700633
 20
7.7472397093
 30
0.0
 10
10.7780694579
 20
7.7818513382
 30
0.0
 10
10.7670144389
 20
7.8160752567
 30
0.0
 10
10.7543309308
 20
7.8498288238
 30
0.0
 10
10.7400504959
 20
7.8830312446
 30
0.0
 10
10.72420655
 20
7.9156021329
 30
0.0
 10
10.7068380655
 20
7.9474635333
 30
0.0
 10
10.6879865109
 20
7.9785383146
 30
0.0
 10
10.6676968982
 20
8.0087524713
 30
0.0
 10
10.6387896825
 20
8.0477973424
 30
0.0
 10
10.599316794
 20
8.0940844205
 30
0.0
 10
10.5557712116
 20
8.1365718312
 30
0.0
 10
10.5187350151
 20
8.1680441173
 30
0.0
 10
10.4899279288
 20
8.1903313002
 30
0.0
 10
10.4601605269
 20
8.2112470118
 30
0.0
 10
10.4295036929
 20
8.2307413249
 30
0.0
 10
10.3980316893
 20
8.2487676298
 30
0.0
 10
10.3658197673
 20
8.2652817542
 30
0.0
 10
10.3329459639
 20
8.2802448517
 30
0.0
 10
10.2994889458
 20
8.2936198751
 30
0.0
 10
10.265529595
 20
8.305375412
 30
0.0
 10
10.2311494377
 20
8.3154825456
 30
0.0
 10
10.196431322
 20
8.3239170698
 30
0.0
 10
10.161458866
 20
8.3306588177
 30
0.0
 10
10.1263161707
 20
8.3356908767
 30
0.0
 10
10.0910879832
 20
8.3390019701
 30
0.0
 10
10.0558590428
 20
8.3405829384
 30
0.0
 10
10.0207142696
 20
8.3404309973
 30
0.0
 10
9.9857383103
 20
8.3385454947
 30
0.0
 10
9.9510154237
 20
8.3349315024
 30
0.0
 10
9.916629284
 20
8.3295974301
 30
0.0
 10
9.8826628288
 20
8.3225558298
 30
0.0
 10
9.8491977902
 20
8.3138241969
 30
0.0
 10
9.8163150984
 20
8.3034225777
 30
0.0
 10
9.7840937065
 20
8.2913770546
 30
0.0
 10
9.7526117138
 20
8.2777155328
 30
0.0
 10
9.7219446885
 20
8.2624717737
 30
0.0
 10
9.692166861
 20
8.2456819078
 30
0.0
 10
9.6633499864
 20
8.2273865873
 30
0.0
 10
9.6355634477
 20
8.207630074
 30
0.0
 10
9.608874666
 20
8.1864594835
 30
0.0
 10
9.5833474142
 20
8.163926607
 30
0.0
 10
9.5590440392
 20
8.1400849307
 30
0.0
 10
9.5360223613
 20
8.114992791
 30
0.0
 10
9.5143385981
 20
8.088710054
 30
0.0
 10
9.4940445526
 20
8.061300548
 30
0.0
 10
9.4751893058
 20
8.0328302524
 30
0.0
 10
9.4578184901
 20
8.0033677585
 30
0.0
 10
9.4419733966
 20
7.9729844297
 30
0.0
 10
9.4276930497
 20
7.9417531351
 30
0.0
 10
9.4150107537
 20
7.9097496985
 30
0.0
 10
9.4039580371
 20
7.8770508261
 30
0.0
 10
9.3945606859
 20
7.8437356391
 30
0.0
 10
9.3868418752
 20
7.8098845593
 30
0.0
 10
9.3808195355
 20
7.775579199
 30
0.0
 10
9.3765082195
 20
7.7409007403
 30
0.0
 10
9.3739193711
 20
7.7059355931
 30
0.0
 10
9.3733453323
 20
7.6825272397
 30
0.0
 10
9.3733453323
 20
7.670806297
 30
0.0
  0
SPLINE
  5
392
100
AcDbEntity
  8
0
100
AcDbSpline
 62
7
  6
CONTINUOUS
 70
0
 71
3
 72
69
 73
65
 74
0
 42
0.0000001
 43
0.0000001
 44
0.0000000001
 40
0.0
 40
0.0
 40
0.0
 40
0.0
 40
0.0156364853
 40
0.0313286062
 40
0.0470713557
 40
0.0628645992
 40
0.0787073833
 40
0.0945971192
 40
0.1105311031
 40
0.1265064347
 40
0.1425197135
 40
0.1585671911
 40
0.1746448341
 40
0.1907483626
 40
0.206873226
 40
0.2230147174
 40
0.2553195563
 40
0.2876315028
 40
0.303781814
 40
0.3199189166
 40
0.3360379974
 40
0.3521343711
 40
0.368203588
 40
0.3842414187
 40
0.4002439185
 40
0.4162074416
 40
0.432128716
 40
0.4480048488
 40
0.4638333352
 40
0.4796121374
 40
0.4953396571
 40
0.5110148031
 40
0.5266369471
 40
0.5422059923
 40
0.5577223427
 40
0.5731869237
 40
0.588601175
 40
0.6039670101
 40
0.6192868674
 40
0.6345636277
 40
0.6498006243
 40
0.6650015827
 40
0.6801706254
 40
0.6953122085
 40
0.7104310524
 40
0.7255321451
 40
0.7406206482
 40
0.7557018704
 40
0.7707811855
 40
0.7858639884
 40
0.8009556483
 40
0.816061428
 40
0.8311864536
 40
0.8463356192
 40
0.8615135947
 40
0.8767247464
 40
0.8919730461
 40
0.9072621218
 40
0.9225952734
 40
0.9379751727
 40
0.953403688
 40
0.9688833741
 40
0.9844166438
 40
1.0
 40
1.0
 40
1.0
 40
1.0
 10
9.3733453323
 20
7.670806297
 30
0.0
 10
9.3733453323
 20
7.6590453936
 30
0.0
 10
9.3739252391
 20
7.6354777512
 30
0.0
 10
9.3765197826
 20
7.6001551952
 30
0.0
 10
9.380836424
 20
7.56488196
 30
0.0
 10
9.3868635504
 20
7.5297458355
 30
0.0
 10
9.3945864642
 20
7.4948299241
 30
0.0
 10
9.4039870696
 20
7.4602182952
 30
0.0
 10
9.4150420887
 20
7.4259943767
 30
0.0
 10
9.4277255967
 20
7.3922408096
 30
0.0
 10
9.4420060316
 20
7.3590383888
 30
0.0
 10
9.4578499775
 20
7.3264675005
 30
0.0
 10
9.475218462
 20
7.2946061001
 30
0.0
 10
9.4940700166
 20
7.2635313188
 30
0.0
 10
9.5143596293
 20
7.2333171621
 30
0.0
 10
9.543266845
 20
7.194272291
 30
0.0
 10
9.5827397335
 20
7.1479852129
 30
0.0
 10
9.6262853159
 20
7.1054978022
 30
0.0
 10
9.6633215124
 20
7.0740255161
 30
0.0
 10
9.6921285987
 20
7.0517383332
 30
0.0
 10
9.7218960006
 20
7.0308226215
 30
0.0
 10
9.7525528347
 20
7.0113283085
 30
0.0
 10
9.7840248382
 20
6.9933020035
 30
0.0
 10
9.8162367602
 20
6.9767878792
 30
0.0
 10
9.8491105636
 20
6.9618247817
 30
0.0
 10
9.8825675817
 20
6.9484497583
 30
0.0
 10
9.9165269325
 20
6.9366942214
 30
0.0
 10
9.9509070898
 20
6.9265870878
 30
0.0
 10
9.9856252056
 20
6.9181525636
 30
0.0
 10
10.0205976615
 20
6.9114108157
 30
0.0
 10
10.0557403568
 20
6.9063787567
 30
0.0
 10
10.0909685443
 20
6.9030676633
 30
0.0
 10
10.1261974848
 20
6.901486695
 30
0.0
 10
10.1613422579
 20
6.9016386361
 30
0.0
 10
10.1963182172
 20
6.9035241387
 30
0.0
 10
10.2310411038
 20
6.9071381309
 30
0.0
 10
10.2654272435
 20
6.9124722033
 30
0.0
 10
10.2993936987
 20
6.9195138036
 30
0.0
 10
10.3328587373
 20
6.9282454365
 30
0.0
 10
10.3657414291
 20
6.9386470557
 30
0.0
 10
10.397962821
 20
6.9506925788
 30
0.0
 10
10.4294448137
 20
6.9643541006
 30
0.0
 10
10.460111839
 20
6.9795978597
 30
0.0
 10
10.4898896665
 20
6.9963877256
 30
0.0
 10
10.5187065411
 20
7.0146830461
 30
0.0
 10
10.5464930798
 20
7.0344395594
 30
0.0
 10
10.5731818615
 20
7.0556101499
 30
0.0
 10
10.5987091133
 20
7.0781430264
 30
0.0
 10
10.6230124883
 20
7.1019847027
 30
0.0
 10
10.6460341662
 20
7.1270768424
 30
0.0
 10
10.6677179294
 20
7.1533595794
 30
0.0
 10
10.6880119749
 20
7.1807690854
 30
0.0
 10
10.7068672217
 20
7.209239381
 30
0.0
 10
10.7242380374
 20
7.2387018749
 30
0.0
 10
10.7400831309
 20
7.2690852036
 30
0.0
 10
10.7543634778
 20
7.3003164982
 30
0.0
 10
10.7670457738
 20
7.3323199349
 30
0.0
 10
10.7780984904
 20
7.3650188073
 30
0.0
 10
10.7874958416
 20
7.3983339943
 30
0.0
 10
10.7952146523
 20
7.4321850741
 30
0.0
 10
10.801236992
 20
7.4664904344
 30
0.0
 10
10.805548308
 20
7.501168893
 30
0.0
 10
10.8081371564
 20
7.5361340403
 30
0.0
 10
10.8087111952
 20
7.5595423937
 30
0.0
 10
10.8087111952
 20
7.5712633364
 30
0.0
  0
SPLINE
  5
393
100
AcDbEntity
  8
0
100
AcDbSpline
 62
7
  6
CONTINUOUS
 70
0
 71
3
 72
64
 73
60
 74
0
 42
0.0000001
 43
0.0000001
 44
0.0000000001
 40
0.0
 40
0.0
 40
0.0
 40
0.0
 40
0.0313206026
 40
0.0628491105
 40
0.0945740798
 40
0.1264760601
 40
0.158529615
 40
0.1907036725
 40
0.2068292833
 40
0.2229715163
 40
0.2391255247
 40
0.2552863224
 40
0.2714489057
 40
0.2876082274
 40
0.3037592922
 40
0.3198971338
 40
0.3360169484
 40
0.3521140629
 40
0.3681840289
 40
0.3842225925
 40
0.4002258258
 40
0.4161900791
 40
0.4321120939
 40
0.4479889491
 40
0.4638181738
 40
0.4795976912
 40
0.4953259411
 40
0.5110018025
 40
0.5266246755
 40
0.5421944292
 40
0.557711495
 40
0.5731767879
 40
0.588591747
 40
0.6039582927
 40
0.6192788523
 40
0.6345563126
 40
0.6497940052
 40
0.6649956722
 40
0.6801654138
 40
0.6953076851
 40
0.7104272226
 40
0.7255290187
 40
0.7406182161
 40
0.7557001295
 40
0.7707801303
 40
0.7858636359
 40
0.8009559888
 40
0.8160624679
 40
0.8311881754
 40
0.8463380423
 40
0.8615167279
 40
0.8767285715
 40
0.8919775466
 40
0.9072673553
 40
0.9226012841
 40
0.937981763
 40
0.9534108408
 40
0.968891578
 40
1.0
 40
1.0
 40
1.0
 40
1.0
 10
10.6010371303
 20
7.5856655817
 30
0.0
 10
10.6010371303
 20
7.6024056325
 30
0.0
 10
10.5993808135
 20
7.6360191728
 30
0.0
 10
10.5920108362
 20
7.6861013194
 30
0.0
 10
10.5798200196
 20
7.7355565806
 30
0.0
 10
10.5629262688
 20
7.7839042604
 30
0.0
 10
10.5414948707
 20
7.8306796194
 30
0.0
 10
10.5200352092
 20
7.8679573369
 30
0.0
 10
10.5008281393
 20
7.8965590341
 30
0.0
 10
10.485422912
 20
7.9173667077
 30
0.0
 10
10.4690680788
 20
7.9374600684
 30
0.0
 10
10.4518027964
 20
7.9567915105
 30
0.0
 10
10.4336686761
 20
7.9753142913
 30
0.0
 10
10.4147092953
 20
7.9929838314
 30
0.0
 10
10.394970421
 20
8.0097577116
 30
0.0
 10
10.3744993733
 20
8.0255953254
 30
0.0
 10
10.353345669
 20
8.0404588546
 30
0.0
 10
10.3315599162
 20
8.0543120874
 30
0.0
 10
10.3091948861
 20
8.0671221857
 30
0.0
 10
10.286304044
 20
8.0788576541
 30
0.0
 10
10.2629428649
 20
8.0894909433
 30
0.0
 10
10.2391671913
 20
8.098995595
 30
0.0
 10
10.2150346227
 20
8.1073496162
 30
0.0
 10
10.1906028928
 20
8.1145318373
 30
0.0
 10
10.16593115
 20
8.120526014
 30
0.0
 10
10.1410785046
 20
8.1253165039
 30
0.0
 10
10.116105033
 20
8.1288929315
 30
0.0
 10
10.0910706817
 20
8.131245374
 30
0.0
 10
10.0660358759
 20
8.1323693934
 30
0.0
 10
10.0410608538
 20
8.1322609271
 30
0.0
 10
10.0162057816
 20
8.1309214563
 30
0.0
 10
9.9915305995
 20
8.1283528918
 30
0.0
 10
9.967094653
 20
8.124562577
 30
0.0
 10
9.9429570143
 20
8.1195584226
 30
0.0
 10
9.9191756516
 20
8.1133535207
 30
0.0
 10
9.8958081528
 20
8.1059617641
 30
0.0
 10
9.8729105804
 20
8.0974018283
 30
0.0
 10
9.8505384562
 20
8.0876934909
 30
0.0
 10
9.8287454433
 20
8.0768608261
 30
0.0
 10
9.8075844033
 20
8.0649293204
 30
0.0
 10
9.7871061149
 20
8.0519281921
 30
0.0
 10
9.7673602089
 20
8.0378884084
 30
0.0
 10
9.7483941484
 20
8.0228440719
 30
0.0
 10
9.7302538082
 20
8.0068313069
 30
0.0
 10
9.7129829033
 20
7.9898887787
 30
0.0
 10
9.6966230417
 20
7.9720573979
 30
0.0
 10
9.6812138217
 20
7.9533800539
 30
0.0
 10
9.6667921573
 20
7.9339020077
 30
0.0
 10
9.6533931552
 20
7.9136699992
 30
0.0
 10
9.6410486436
 20
7.892733129
 30
0.0
 10
9.6297889431
 20
7.8711415685
 30
0.0
 10
9.6196404725
 20
7.8489477855
 30
0.0
 10
9.6106284135
 20
7.8262049434
 30
0.0
 10
9.6027735878
 20
7.8029681726
 30
0.0
 10
9.5960959529
 20
7.7792931424
 30
0.0
 10
9.5906103579
 20
7.7552379081
 30
0.0
 10
9.5863308313
 20
7.7308584134
 30
0.0
 10
9.5822397562
 20
7.6979552539
 30
0.0
 10
9.5810193973
 20
7.6730306975
 30
0.0
 10
9.5810193973
 20
7.6564040517
 30
0.0
  0
SPLINE
  5
394
100
AcDbEntity
  8
0
100
AcDbSpline
 62
7
  6
CONTINUOUS
 70
0
 71
3
 72
64
 73
60
 74
0
 42
0.0000001
 43
0.0000001
 44
0.0000000001
 40
0.0
 40
0.0
 40
0.0
 40
0.0
 40
0.0313206026
 40
0.0628491105
 40
0.0945740798
 40
0.1264760601
 40
0.158529615
 40
0.1907036725
 40
0.2068292833
 40
0.2229715163
 40
0.2391255247
 40
0.2552863224
 40
0.2714489057
 40
0.2876082274
 40
0.3037592922
 40
0.3198971338
 40
0.3360169484
 40
0.3521140629
 40
0.3681840289
 40
0.3842225925
 40
0.4002258258
 40
0.4161900791
 40
0.4321120939
 40
0.4479889491
 40
0.4638181738
 40
0.4795976912
 40
0.4953259411
 40
0.5110018025
 40
0.5266246755
 40
0.5421944292
 40
0.557711495
 40
0.5731767879
 40
0.588591747
 40
0.6039582927
 40
0.6192788523
 40
0.6345563126
 40
0.6497940052
 40
0.6649956722
 40
0.6801654138
 40
0.6953076851
 40
0.7104272226
 40
0.7255290187
 40
0.7406182161
 40
0.7557001295
 40
0.7707801303
 40
0.7858636359
 40
0.8009559888
 40
0.8160624679
 40
0.8311881754
 40
0.8463380423
 40
0.8615167279
 40
0.8767285715
 40
0.8919775466
 40
0.9072673553
 40
0.9226012841
 40
0.937981763
 40
0.9534108408
 40
0.968891578
 40
1.0
 40
1.0
 40
1.0
 40
1.0
 10
9.5810193973
 20
7.6564040517
 30
0.0
 10
9.5810193973
 20
7.6396640009
 30
0.0
 10
9.582675714
 20
7.6060504606
 30
0.0
 10
9.5900456913
 20
7.555968314
 30
0.0
 10
9.6022365079
 20
7.5065130527
 30
0.0
 10
9.6191302587
 20
7.458165373
 30
0.0
 10
9.6405616568
 20
7.411390014
 30
0.0
 10
9.6620213184
 20
7.3741122965
 30
0.0
 10
9.6812283882
 20
7.3455105993
 30
0.0
 10
9.6966336155
 20
7.3247029257
 30
0.0
 10
9.7129884487
 20
7.304609565
 30
0.0
 10
9.7302537312
 20
7.2852781229
 30
0.0
 10
9.7483878514
 20
7.2667553421
 30
0.0
 10
9.7673472322
 20
7.249085802
 30
0.0
 10
9.7870861065
 20
7.2323119218
 30
0.0
 10
9.8075571542
 20
7.216474308
 30
0.0
 10
9.8287108585
 20
7.2016107788
 30
0.0
 10
9.8504966113
 20
7.187757546
 30
0.0
 10
9.8728616414
 20
7.1749474477
 30
0.0
 10
9.8957524835
 20
7.1632119793
 30
0.0
 10
9.9191136626
 20
7.1525786901
 30
0.0
 10
9.9428893362
 20
7.1430740384
 30
0.0
 10
9.9670219048
 20
7.1347200172
 30
0.0
 10
9.9914536347
 20
7.1275377961
 30
0.0
 10
10.0161253775
 20
7.1215436194
 30
0.0
 10
10.0409780229
 20
7.1167531295
 30
0.0
 10
10.0659514945
 20
7.1131767019
 30
0.0
 10
10.0909858458
 20
7.1108242594
 30
0.0
 10
10.1160206516
 20
7.10970024
 30
0.0
 10
10.1409956737
 20
7.1098087063
 30
0.0
 10
10.1658507459
 20
7.1111481771
 30
0.0
 10
10.190525928
 20
7.1137167416
 30
0.0
 10
10.2149618745
 20
7.1175070564
 30
0.0
 10
10.2390995132
 20
7.1225112108
 30
0.0
 10
10.2628808759
 20
7.1287161127
 30
0.0
 10
10.2862483747
 20
7.1361078693
 30
0.0
 10
10.3091459471
 20
7.144667805
 30
0.0
 10
10.3315180713
 20
7.1543761425
 30
0.0
 10
10.3533110842
 20
7.1652088073
 30
0.0
 10
10.3744721242
 20
7.177140313
 30
0.0
 10
10.3949504126
 20
7.1901414413
 30
0.0
 10
10.4146963186
 20
7.2041812249
 30
0.0
 10
10.4336623791
 20
7.2192255615
 30
0.0
 10
10.4518027193
 20
7.2352383265
 30
0.0
 10
10.4690736242
 20
7.2521808547
 30
0.0
 10
10.4854334858
 20
7.2700122355
 30
0.0
 10
10.5008427058
 20
7.2886895795
 30
0.0
 10
10.5152643702
 20
7.3081676256
 30
0.0
 10
10.5286633723
 20
7.3283996342
 30
0.0
 10
10.5410078839
 20
7.3493365044
 30
0.0
 10
10.5522675845
 20
7.3709280649
 30
0.0
 10
10.562416055
 20
7.3931218479
 30
0.0
 10
10.5714281141
 20
7.4158646899
 30
0.0
 10
10.5792829397
 20
7.4391014607
 30
0.0
 10
10.5859605746
 20
7.462776491
 30
0.0
 10
10.5914461696
 20
7.4868317253
 30
0.0
 10
10.5957256962
 20
7.51121122
 30
0.0
 10
10.5998167714
 20
7.5441143795
 30
0.0
 10
10.6010371303
 20
7.5690389359
 30
0.0
 10
10.6010371303
 20
7.5856655817
 30
0.0
  0
SPLINE
  5
395
100
AcDbEntity
  8
0
100
AcDbSpline
 62
7
  6
CONTINUOUS
 70
0
 71
3
 72
44
 73
40
 74
0
 42
0.0000001
 43
0.0000001
 44
0.0000000001
 40
0.0
 40
0.0
 40
0.0
 40
0.0
 40
0.0149722283
 40
0.0299475325
 40
0.0449289282
 40
0.0599194167
 40
0.0899335488
 40
0.1200184828
 40
0.1350969822
 40
0.1502008425
 40
0.165332315
 40
0.1804935271
 40
0.2109069993
 40
0.2414600941
 40
0.2721627381
 40
0.2875750121
 40
0.3030268305
 40
0.334044579
 40
0.3652209041
 40
0.3965518466
 40
0.4280301154
 40
0.4596453541
 40
0.4913843524
 40
0.5232312791
 40
0.5551681767
 40
0.5871752464
 40
0.6192312625
 40
0.6513140757
 40
0.6834009186
 40
0.7154690189
 40
0.7474959842
 40
0.7794601413
 40
0.8113411994
 40
0.8431204236
 40
0.8747812863
 40
0.9063097481
 40
0.9376931433
 40
0.9689270344
 40
1.0
 40
1.0
 40
1.0
 40
1.0
 10
10.4303924401
 20
7.3023328455
 30
0.0
 10
10.4265350169
 20
7.2986067652
 30
0.0
 10
10.4186702367
 20
7.2913064609
 30
0.0
 10
10.4064459495
 20
7.2808323807
 30
0.0
 10
10.393810082
 20
7.270847339
 30
0.0
 10
10.3764318082
 20
7.2582019805
 30
0.0
 10
10.353755779
 20
7.2436799429
 30
0.0
 10
10.3299770578
 20
7.2309778077
 30
0.0
 10
10.3103661076
 20
7.2219413533
 30
0.0
 10
10.2953657739
 20
7.2157287151
 30
0.0
 10
10.2801069891
 20
7.2100949757
 30
0.0
 10
10.2594261631
 20
7.203360104
 30
0.0
 10
10.2330219377
 20
7.1964276359
 30
0.0
 10
10.2006862535
 20
7.190542184
 30
0.0
 10
10.1733434063
 20
7.1876866344
 30
0.0
 10
10.151310534
 20
7.1866340304
 30
0.0
 10
10.1291407323
 20
7.1864054092
 30
0.0
 10
10.1013286789
 20
7.1876737388
 30
0.0
 10
10.0680363081
 20
7.1916634489
 30
0.0
 10
10.0349608047
 20
7.1981001848
 30
0.0
 10
10.0022849685
 20
7.2069481036
 30
0.0
 10
9.970187857
 20
7.2181582668
 30
0.0
 10
9.9388457876
 20
7.231669001
 30
0.0
 10
9.9084307859
 20
7.2474059456
 30
0.0
 10
9.8791096598
 20
7.2652823133
 30
0.0
 10
9.8510432458
 20
7.2851998061
 30
0.0
 10
9.8243856239
 20
7.3070491366
 30
0.0
 10
9.7992831724
 20
7.3307103852
 30
0.0
 10
9.7758734817
 20
7.3560534665
 30
0.0
 10
9.7542850366
 20
7.3829392978
 30
0.0
 10
9.7346364596
 20
7.4112204098
 30
0.0
 10
9.7170358278
 20
7.4407417043
 30
0.0
 10
9.7015797385
 20
7.471341067
 30
0.0
 10
9.688353084
 20
7.5028505596
 30
0.0
 10
9.677428812
 20
7.5350974479
 30
0.0
 10
9.6688676922
 20
7.5679042815
 30
0.0
 10
9.6627157887
 20
7.6010923761
 30
0.0
 10
9.6590089814
 20
7.634476035
 30
0.0
 10
9.6581783143
 20
7.6568033055
 30
0.0
 10
9.6581783143
 20
7.6679338468
 30
0.0
  0
SPLINE
  5
396
100
AcDbEntity
  8
0
100
AcDbSpline
 62
7
  6
CONTINUOUS
 70
0
 71
3
 72
41
 73
37
 74
0
 42
0.0000001
 43
0.0000001
 44
0.0000000001
 40
0.0
 40
0.0
 40
0.0
 40
0.0
 40
0.0301535699
 40
0.0452734851
 40
0.0604221616
 40
0.0908052768
 40
0.1213115294
 40
0.1519440536
 40
0.1827041452
 40
0.2135913267
 40
0.2446032373
 40
0.2601564334
 40
0.2757391274
 40
0.3069866085
 40
0.3383416546
 40
0.3697955168
 40
0.4013380112
 40
0.4329578633
 40
0.4646427796
 40
0.4963795182
 40
0.528154244
 40
0.559952614
 40
0.591759962
 40
0.6235614806
 40
0.6553424881
 40
0.6870885801
 40
0.7187856978
 40
0.7504205577
 40
0.781980649
 40
0.8134543095
 40
0.8448313363
 40
0.8761027759
 40
0.9072599789
 40
0.9382976592
 40
0.9692152138
 40
1.0
 40
1.0
 40
1.0
 40
1.0
 10
10.5347657015
 20
7.4690795496
 30
0.0
 10
10.5263139621
 20
7.4666075248
 30
0.0
 10
10.5135035805
 20
7.4632915728
 30
0.0
 10
10.4962323236
 20
7.4596681521
 30
0.0
 10
10.4787909459
 20
7.4565674748
 30
0.0
 10
10.4567569782
 20
7.4536927458
 30
0.0
 10
10.4300765392
 20
7.4518570182
 30
0.0
 10
10.4032235796
 20
7.4516384811
 30
0.0
 10
10.3762949947
 20
7.4530370333
 30
0.0
 10
10.3493878904
 20
7.456048168
 30
0.0
 10
10.3270832914
 20
7.459888464
 30
0.0
 10
10.3093474929
 20
7.4637505429
 30
0.0
 10
10.2916650723
 20
7.4681447975
 30
0.0
 10
10.2697546007
 20
7.4746176231
 30
0.0
 10
10.2438913507
 20
7.4839113159
 30
0.0
 10
10.2185238473
 20
7.4947062843
 30
0.0
 10
10.1937436371
 20
7.5069634487
 30
0.0
 10
10.169639204
 20
7.5206384187
 30
0.0
 10
10.1462974437
 20
7.5356827714
 30
0.0
 10
10.1238016371
 20
7.5520418247
 30
0.0
 10
10.1022326596
 20
7.5696571921
 30
0.0
 10
10.0816680086
 20
7.5884657957
 30
0.0
 10
10.0621809735
 20
7.6083996766
 30
0.0
 10
10.0438420583
 20
7.6293879209
 30
0.0
 10
10.0267166013
 20
7.6513548276
 30
0.0
 10
10.0108661042
 20
7.674221701
 30
0.0
 10
9.9963478435
 20
7.697906769
 30
0.0
 10
9.9832132787
 20
7.7223246998
 30
0.0
 10
9.971510257
 20
7.7473882841
 30
0.0
 10
9.9612804212
 20
7.7730074305
 30
0.0
 10
9.9525604281
 20
7.7990903081
 30
0.0
 10
9.945382475
 20
7.825543402
 30
0.0
 10
9.9397711996
 20
7.852271377
 30
0.0
 10
9.9357475262
 20
7.879179981
 30
0.0
 10
9.9333268486
 20
7.9061698197
 30
0.0
 10
9.9327850945
 20
7.9241934684
 30
0.0
 10
9.9327850945
 20
7.9331836437
 30
0.0
  0
SPLINE
  5
397
100
AcDbEntity
  8
0
100
AcDbSpline
 62
7
  6
CONTINUOUS
 70
0
 71
3
 72
20
 73
16
 74
0
 42
0.0000001
 43
0.0000001
 44
0.0000000001
 40
0.0
 40
0.0
 40
0.0
 40
0.0
 40
0.0617171414
 40
0.1234553828
 40
0.1852357063
 40
0.2470784353
 40
0.3090034555
 40
0.371029762
 40
0.4331754226
 40
0.4954569604
 40
0.557889885
 40
0.6204884827
 40
0.746189935
 40
0.8726786067
 40
1.0
 40
1.0
 40
1.0
 40
1.0
 10
9.7842752602
 20
7.9712367637
 30
0.0
 10
9.7792823915
 20
7.9664138991
 30
0.0
 10
9.769541283
 20
7.9565076901
 30
0.0
 10
9.7557103846
 20
7.9409139674
 30
0.0
 10
9.7426897696
 20
7.9246187755
 30
0.0
 10
9.7305094045
 20
7.9076606546
 30
0.0
 10
9.7191979121
 20
7.8900781178
 30
0.0
 10
9.7087806332
 20
7.8719122438
 30
0.0
 10
9.6992823916
 20
7.8532044219
 30
0.0
 10
9.6907241576
 20
7.8339984705
 30
0.0
 10
9.6831264583
 20
7.814337547
 30
0.0
 10
9.6742882916
 20
7.7875461895
 30
0.0
 10
9.665728791
 20
7.7531233663
 30
0.0
 10
9.6595458762
 20
7.710822877
 30
0.0
 10
9.6581783143
 20
7.6822546857
 30
0.0
 10
9.6581783143
 20
7.6679338468
 30
0.0
  0
SPLINE
  5
398
100
AcDbEntity
  8
0
100
AcDbSpline
 62
7
  6
CONTINUOUS
 70
0
 71
3
 72
11
 73
7
 74
0
 42
0.0000001
 43
0.0000001
 44
0.0000000001
 40
0.0
 40
0.0
 40
0.0
 40
0.0
 40
0.248105998
 40
0.497418455
 40
0.7480470988
 40
1.0
 40
1.0
 40
1.0
 40
1.0
 10
9.9543978431
 20
8.0693359501
 30
0.0
 10
9.9508175218
 20
8.0584640464
 30
0.0
 10
9.9445235387
 20
8.0363652329
 30
0.0
 10
9.9377582667
 20
8.0024878953
 30
0.0
 10
9.933686302
 20
7.968004137
 30
0.0
 10
9.9327850945
 20
7.9448073843
 30
0.0
 10
9.9327850945
 20
7.9331836437
 30
0.0
  0
SPLINE
  5
399
100
AcDbEntity
  8
0
100
AcDbSpline
 62
7
  6
CONTINUOUS
 70
0
 71
3
 72
13
 73
9
 74
0
 42
0.0000001
 43
0.0000001
 44
0.0000000001
 40
0.0
 40
0.0
 40
0.0
 40
0.0
 40
0.1237687352
 40
0.2478596597
 40
0.3722937371
 40
0.49708599
 40
0.7477516241
 40
1.0
 40
1.0
 40
1.0
 40
1.0
 10
10.0081342657
 20
8.0815061025
 30
0.0
 10
10.0058752445
 20
8.0758153011
 30
0.0
 10
10.0016261398
 20
8.0643075892
 30
0.0
 10
9.9960823746
 20
8.0467376162
 30
0.0
 10
9.9913717839
 20
8.0288730678
 30
0.0
 10
9.9862076034
 20
8.0046807979
 30
0.0
 10
9.9818892107
 20
7.9738819663
 30
0.0
 10
9.9807453598
 20
7.9489883053
 30
0.0
 10
9.9807453598
 20
7.9365097052
 30
0.0
  0
SPLINE
  5
39A
100
AcDbEntity
  8
0
100
AcDbSpline
 62
7
  6
CONTINUOUS
 70
0
 71
3
 72
16
 73
12
 74
0
 42
0.0000001
 43
0.0000001
 44
0.0000000001
 40
0.0
 40
0.0
 40
0.0
 40
0.0
 40
0.1234534961
 40
0.1853251865
 40
0.2472959618
 40
0.3715403643
 40
0.4962359816
 40
0.6214068906
 40
0.7470855325
 40
0.8732988941
 40
1.0
 40
1.0
 40
1.0
 40
1.0
 10
10.5534603178
 20
7.6566566573
 30
0.0
 10
10.5481278404
 20
7.654266681
 30
0.0
 10
10.5400066339
 20
7.6509303208
 30
0.0
 10
10.528980848
 20
7.6469954129
 30
0.0
 10
10.517801667
 20
7.6433948336
 30
0.0
 10
10.5035881216
 20
7.6395401774
 30
0.0
 10
10.4862327216
 20
7.6359680946
 30
0.0
 10
10.4686235566
 20
7.6334575825
 30
0.0
 10
10.4508226698
 20
7.632017547
 30
0.0
 10
10.4328956656
 20
7.6316540735
 30
0.0
 10
10.4209251612
 20
7.6321279167
 30
0.0
 10
10.414942239
 20
7.6325428338
 30
0.0
  0
SPLINE
  5
39B
100
AcDbEntity
  8
0
100
AcDbSpline
 62
7
  6
CONTINUOUS
 70
0
 71
3
 72
25
 73
21
 74
0
 42
0.0000001
 43
0.0000001
 44
0.0000000001
 40
0.0
 40
0.0
 40
0.0
 40
0.0
 40
0.0303706418
 40
0.0608533155
 40
0.0914498271
 40
0.1221604999
 40
0.1838979016
 40
0.2460649809
 40
0.3086199342
 40
0.3715039902
 40
0.4346442185
 40
0.4979568136
 40
0.5613507246
 40
0.6247315003
 40
0.6880052418
 40
0.7510825169
 40
0.8138822088
 40
0.8763349195
 40
0.9383865009
 40
1.0
 40
1.0
 40
1.0
 40
1.0
 10
10.1916575997
 20
8.0719523188
 30
0.0
 10
10.190844733
 20
8.0666565907
 30
0.0
 10
10.189507708
 20
8.0559985
 30
0.0
 10
10.1883741223
 20
8.0398980477
 30
0.0
 10
10.1881126552
 20
8.0236990046
 30
0.0
 10
10.1889275859
 20
8.0019991964
 30
0.0
 10
10.19213615
 20
7.9748563632
 30
0.0
 10
10.1994166497
 20
7.9427187728
 30
0.0
 10
10.2100494689
 20
7.9113149322
 30
0.0
 10
10.223910779
 20
7.8810091699
 30
0.0
 10
10.2408399647
 20
7.8521497608
 30
0.0
 10
10.2606413605
 20
7.825069129
 30
0.0
 10
10.283086512
 20
7.8000790144
 30
0.0
 10
10.3079167657
 20
7.7774672637
 30
0.0
 10
10.3348461522
 20
7.7574945189
 30
0.0
 10
10.3635647556
 20
7.7403912626
 30
0.0
 10
10.3937416165
 20
7.726355287
 30
0.0
 10
10.4250306045
 20
7.7155491892
 30
0.0
 10
10.4570662686
 20
7.7080991953
 30
0.0
 10
10.4787659381
 20
7.7054176333
 30
0.0
 10
10.4896092643
 20
7.7046656461
 30
0.0
  0
SPLINE
  5
39C
100
AcDbEntity
  8
0
100
AcDbSpline
 62
7
  6
CONTINUOUS
 70
0
 71
3
 72
23
 73
19
 74
0
 42
0.0000001
 43
0.0000001
 44
0.0000000001
 40
0.0
 40
0.0
 40
0.0
 40
0.0
 40
0.0637757517
 40
0.1273453038
 40
0.1907021142
 40
0.2538559682
 40
0.3168132565
 40
0.3795821027
 40
0.442173382
 40
0.5045993411
 40
0.5668738656
 40
0.6290123776
 40
0.6910316412
 40
0.7529496359
 40
0.8147853464
 40
0.8765585919
 40
0.9382898467
 40
1.0
 40
1.0
 40
1.0
 40
1.0
 10
7.5536750706
 20
8.2021396789
 30
0.0
 10
7.5536750706
 20
8.1968322603
 30
0.0
 10
7.5534209797
 20
8.1862327863
 30
0.0
 10
7.552274432
 20
8.1703980889
 30
0.0
 10
7.5503653085
 20
8.1546888307
 30
0.0
 10
7.5476981777
 20
8.1391421074
 30
0.0
 10
7.5442791487
 20
8.1237932992
 30
0.0
 10
7.5401160413
 20
8.1086778889
 30
0.0
 10
7.5352183636
 20
8.0938307649
 30
0.0
 10
7.5295974417
 20
8.0792861254
 30
0.0
 10
7.5232662255
 20
8.0650775048
 30
0.0
 10
7.5162391886
 20
8.0512377239
 30
0.0
 10
7.5085325862
 20
8.0377986779
 30
0.0
 10
7.5001641914
 20
8.0247913407
 30
0.0
 10
7.4911532223
 20
8.0122458106
 30
0.0
 10
7.4815204035
 20
8.0001909
 30
0.0
 10
7.4712883773
 20
7.9886547449
 30
0.0
 10
7.4640818243
 20
7.9813262999
 30
0.0
 10
7.4603880675
 20
7.9777584265
 30
0.0
  0
SPLINE
  5
39D
100
AcDbEntity
  8
0
100
AcDbSpline
 62
7
  6
CONTINUOUS
 70
0
 71
3
 72
23
 73
19
 74
0
 42
0.0000001
 43
0.0000001
 44
0.0000000001
 40
0.0
 40
0.0
 40
0.0
 40
0.0
 40
0.0637757517
 40
0.1273453038
 40
0.1907021142
 40
0.2538559682
 40
0.3168132565
 40
0.3795821027
 40
0.442173382
 40
0.5045993411
 40
0.5668738656
 40
0.6290123776
 40
0.6910316412
 40
0.7529496359
 40
0.8147853464
 40
0.8765585919
 40
0.9382898467
 40
1.0
 40
1.0
 40
1.0
 40
1.0
 10
14.0756065537
 20
7.7498421943
 30
0.0
 10
14.0756065537
 20
7.7445347758
 30
0.0
 10
14.0753524628
 20
7.7339353018
 30
0.0
 10
14.0742059151
 20
7.7181006043
 30
0.0
 10
14.0722967916
 20
7.7023913461
 30
0.0
 10
14.0696296608
 20
7.6868446228
 30
0.0
 10
14.0662106318
 20
7.6714958146
 30
0.0
 10
14.0620475244
 20
7.6563804044
 30
0.0
 10
14.0571498467
 20
7.6415332804
 30
0.0
 10
14.0515289248
 20
7.6269886409
 30
0.0
 10
14.0451977086
 20
7.6127800203
 30
0.0
 10
14.0381706716
 20
7.5989402393
 30
0.0
 10
14.0304640693
 20
7.5855011933
 30
0.0
 10
14.0220956745
 20
7.5724938561
 30
0.0
 10
14.0130847054
 20
7.559948326
 30
0.0
 10
14.0034518866
 20
7.5478934154
 30
0.0
 10
13.9932198604
 20
7.5363572603
 30
0.0
 10
13.9860133074
 20
7.5290288153
 30
0.0
 10
13.9823195505
 20
7.5254609419
 30
0.0
  0
SPLINE
  5
39E
100
AcDbEntity
  8
0
100
AcDbSpline
 62
7
  6
CONTINUOUS
 70
0
 71
3
 72
51
 73
47
 74
0
 42
0.0000001
 43
0.0000001
 44
0.0000000001
 40
0.0
 40
0.0
 40
0.0
 40
0.0
 40
0.0481977053
 40
0.095830135
 40
0.1428201362
 40
0.1890981738
 40
0.2345933851
 40
0.2792370546
 40
0.3229625179
 40
0.3657049562
 40
0.4074018956
 40
0.4479933021
 40
0.4874217525
 40
0.5256327531
 40
0.5625750279
 40
0.5982007274
 40
0.6324657774
 40
0.6653303865
 40
0.6967594376
 40
0.7267230069
 40
0.755197147
 40
0.7688706186
 40
0.7821659217
 40
0.7950822342
 40
0.8076192537
 40
0.8197772583
 40
0.831557354
 40
0.8429613076
 40
0.8539917351
 40
0.8646522838
 40
0.8749475169
 40
0.8848832127
 40
0.8944664754
 40
0.9037057278
 40
0.9126110859
 40
0.9211944161
 40
0.9294694595
 40
0.9374522112
 40
0.9451609368
 40
0.9598350083
 40
0.9668568308
 40
0.9737036631
 40
0.9804068758
 40
0.9870000868
 40
0.9935188331
 40
1.0
 40
1.0
 40
1.0
 40
1.0
 10
12.6769152301
 20
11.1382942112
 30
0.0
 10
12.6656360664
 20
11.1390764239
 30
0.0
 10
12.6432185355
 20
11.1407575986
 30
0.0
 10
12.6098398885
 20
11.1436482727
 30
0.0
 10
12.5769458522
 20
11.146889531
 30
0.0
 10
12.5445919895
 20
11.1504758027
 30
0.0
 10
12.5128319853
 20
11.1544011422
 30
0.0
 10
12.4817190472
 20
11.1586589232
 30
0.0
 10
12.4513051836
 20
11.1632419835
 30
0.0
 10
12.42164121
 20
11.1681426512
 30
0.0
 10
12.3927766927
 20
11.1733526655
 30
0.0
 10
12.3647598387
 20
11.178863258
 30
0.0
 10
12.3376374363
 20
11.1846651804
 30
0.0
 10
12.311454753
 20
11.1907486798
 30
0.0
 10
12.2862554477
 20
11.1971035031
 30
0.0
 10
12.2620815198
 20
11.2037189656
 30
0.0
 10
12.2389732202
 20
11.210583974
 30
0.0
 10
12.2169689735
 20
11.2176869724
 30
0.0
 10
12.1961052192
 20
11.2250160394
 30
0.0
 10
12.1764167178
 20
11.2325588948
 30
0.0
 10
12.1608120264
 20
11.239097604
 30
0.0
 10
12.1489516583
 20
11.2444360683
 30
0.0
 10
12.1404907029
 20
11.2484313932
 30
0.0
 10
12.1323471171
 20
11.2524705929
 30
0.0
 10
12.1245242662
 20
11.2565520172
 30
0.0
 10
12.1170254261
 20
11.2606740248
 30
0.0
 10
12.1098536682
 20
11.2648348414
 30
0.0
 10
12.1030119713
 20
11.269032781
 30
0.0
 10
12.0965031842
 20
11.2732661545
 30
0.0
 10
12.0903299494
 20
11.2775331587
 30
0.0
 10
12.0844948459
 20
11.2818321194
 30
0.0
 10
12.0790002823
 20
11.2861613017
 30
0.0
 10
12.0738484797
 20
11.290518914
 30
0.0
 10
12.0690416266
 20
11.2949033109
 30
0.0
 10
12.0645816995
 20
11.2993127232
 30
0.0
 10
12.0604705146
 20
11.3037454481
 30
0.0
 10
12.0567099809
 20
11.3081997315
 30
0.0
 10
12.0533014155
 20
11.3126742752
 30
0.0
 10
12.0492947949
 20
11.3185664602
 30
0.0
 10
12.0459050697
 20
11.3245979188
 30
0.0
 10
12.0432193904
 20
11.3307359502
 30
0.0
 10
12.0415932975
 20
11.3352839309
 30
0.0
 10
12.0403273175
 20
11.3398408085
 30
0.0
 10
12.0394223564
 20
11.3444048068
 30
0.0
 10
12.0388791264
 20
11.34897324
 30
0.0
 10
12.0387582405
 20
11.3520241299
 30
0.0
 10
12.0387582463
 20
11.3535444869
 30
0.0
  0
SPLINE
  5
39F
100
AcDbEntity
  8
0
100
AcDbSpline
 62
7
  6
CONTINUOUS
 70
0
 71
3
 72
58
 73
54
 74
0
 42
0.0000001
 43
0.0000001
 44
0.0000000001
 40
0.0
 40
0.0
 40
0.0
 40
0.0
 40
0.0417737373
 40
0.0840364485
 40
0.126657724
 40
0.1695054566
 40
0.2124468032
 40
0.2553484901
 40
0.298077421
 40
0.3405011733
 40
0.3824885338
 40
0.4239100241
 40
0.4646384356
 40
0.5045493696
 40
0.5435217891
 40
0.5814385861
 40
0.6181871714
 40
0.6536600995
 40
0.6708864646
 40
0.6877562952
 40
0.7042579614
 40
0.7203802099
 40
0.7361123688
 40
0.7514441951
 40
0.766366103
 40
0.7808690035
 40
0.7949445543
 40
0.8085850007
 40
0.8217834443
 40
0.8345336989
 40
0.8468305763
 40
0.8586697732
 40
0.8700481773
 40
0.8809638057
 40
0.8914161393
 40
0.9014061401
 40
0.9109366315
 40
0.9200124299
 40
0.9286407999
 40
0.9368317431
 40
0.9445985649
 40
0.9519583582
 40
0.9589326975
 40
0.9655482957
 40
0.9718377309
 40
0.9778400552
 40
0.9836011724
 40
0.9864084712
 40
0.989175789
 40
0.9919106562
 40
0.994620905
 40
0.9973146092
 40
1.0
 40
1.0
 40
1.0
 40
1.0
 10
14.7472350599
 20
9.629293457
 30
0.0
 10
14.7472350599
 20
9.6470165605
 30
0.0
 10
14.7475115606
 20
9.6826707789
 30
0.0
 10
14.7487339144
 20
9.7363950852
 30
0.0
 10
14.7507627266
 20
9.7905510496
 30
0.0
 10
14.75359134
 20
9.8449593789
 30
0.0
 10
14.7572104114
 20
9.89944008
 30
0.0
 10
14.7616079762
 20
9.9538129096
 30
0.0
 10
14.7667694677
 20
10.0078979795
 30
0.0
 10
14.7726777751
 20
10.0615163626
 30
0.0
 10
14.7793132959
 20
10.1144906852
 30
0.0
 10
14.7866540012
 20
10.1666457203
 30
0.0
 10
14.7946755071
 20
10.2178089707
 30
0.0
 10
14.8033511536
 20
10.2678112532
 30
0.0
 10
14.8126520931
 20
10.316487243
 30
0.0
 10
14.8225473753
 20
10.3636761176
 30
0.0
 10
14.8330040784
 20
10.4092217969
 30
0.0
 10
14.8422446061
 20
10.4460323429
 30
0.0
 10
14.8499040775
 20
10.4745374301
 30
0.0
 10
14.8557109747
 20
10.4952044984
 30
0.0
 10
14.861631293
 20
10.5153515913
 30
0.0
 10
14.8676602419
 20
10.534962067
 30
0.0
 10
14.8737927189
 20
10.5540197247
 30
0.0
 10
14.88002374
 20
10.5725088115
 30
0.0
 10
14.8863480346
 20
10.5904140718
 30
0.0
 10
14.8927604661
 20
10.6077207118
 30
0.0
 10
14.8992556101
 20
10.6244144716
 30
0.0
 10
14.9058281959
 20
10.6404815696
 30
0.0
 10
14.9124726685
 20
10.655908794
 30
0.0
 10
14.9191836428
 20
10.670683426
 30
0.0
 10
14.9259554598
 20
10.6847933525
 30
0.0
 10
14.9327826432
 20
10.6982269666
 30
0.0
 10
14.9396594637
 20
10.7109733022
 30
0.0
 10
14.9465803844
 20
10.7230219115
 30
0.0
 10
14.9535396499
 20
10.7343630197
 30
0.0
 10
14.9605317072
 20
10.7449873809
 30
0.0
 10
14.9675508376
 20
10.7548864464
 30
0.0
 10
14.9745915398
 20
10.7640522
 30
0.0
 10
14.9816482242
 20
10.7724773269
 30
0.0
 10
14.9887155424
 20
10.7801550275
 30
0.0
 10
14.9957881602
 20
10.7870791568
 30
0.0
 10
15.002861001
 20
10.7932440124
 30
0.0
 10
15.0099291085
 20
10.7986443975
 30
0.0
 10
15.0169876678
 20
10.8032753766
 30
0.0
 10
15.0240321275
 20
10.8071322645
 30
0.0
 10
15.0310570125
 20
10.8102103089
 30
0.0
 10
15.036942262
 20
10.812139148
 30
0.0
 10
15.041617616
 20
10.8132746627
 30
0.0
 10
15.0450847351
 20
10.8139229141
 30
0.0
 10
15.0485413514
 20
10.814374653
 30
0.0
 10
15.0519868001
 20
10.8146297237
 30
0.0
 10
15.0554201022
 20
10.8146880877
 30
0.0
 10
15.0577018829
 20
10.8145957663
 30
0.0
 10
15.058838468
 20
10.8145169376
 30
0.0
  0
SPLINE
  5
3A0
100
AcDbEntity
  8
0
100
AcDbSpline
 62
7
  6
CONTINUOUS
 70
0
 71
3
 72
58
 73
54
 74
0
 42
0.0000001
 43
0.0000001
 44
0.0000000001
 40
0.0
 40
0.0
 40
0.0
 40
0.0
 40
0.0417737373
 40
0.0840364485
 40
0.126657724
 40
0.1695054566
 40
0.2124468032
 40
0.2553484901
 40
0.298077421
 40
0.3405011733
 40
0.3824885338
 40
0.4239100241
 40
0.4646384356
 40
0.5045493696
 40
0.5435217891
 40
0.5814385861
 40
0.6181871714
 40
0.6536600995
 40
0.6708864646
 40
0.6877562952
 40
0.7042579614
 40
0.7203802099
 40
0.7361123688
 40
0.7514441951
 40
0.766366103
 40
0.7808690035
 40
0.7949445543
 40
0.8085850007
 40
0.8217834443
 40
0.8345336989
 40
0.8468305763
 40
0.8586697732
 40
0.8700481773
 40
0.8809638057
 40
0.8914161393
 40
0.9014061401
 40
0.9109366315
 40
0.9200124299
 40
0.9286407999
 40
0.9368317431
 40
0.9445985649
 40
0.9519583582
 40
0.9589326975
 40
0.9655482957
 40
0.9718377309
 40
0.9778400552
 40
0.9836011724
 40
0.9864084712
 40
0.989175789
 40
0.9919106562
 40
0.994620905
 40
0.9973146092
 40
1.0
 40
1.0
 40
1.0
 40
1.0
 10
14.7472350599
 20
6.6098089848
 30
0.0
 10
14.7472350599
 20
6.6275320883
 30
0.0
 10
14.7475115606
 20
6.6631863067
 30
0.0
 10
14.7487339144
 20
6.716910613
 30
0.0
 10
14.7507627266
 20
6.7710665774
 30
0.0
 10
14.75359134
 20
6.8254749067
 30
0.0
 10
14.7572104114
 20
6.8799556078
 30
0.0
 10
14.7616079762
 20
6.9343284374
 30
0.0
 10
14.7667694677
 20
6.9884135073
 30
0.0
 10
14.7726777751
 20
7.0420318904
 30
0.0
 10
14.7793132959
 20
7.095006213
 30
0.0
 10
14.7866540012
 20
7.1471612481
 30
0.0
 10
14.7946755071
 20
7.1983244985
 30
0.0
 10
14.8033511536
 20
7.248326781
 30
0.0
 10
14.8126520931
 20
7.2970027709
 30
0.0
 10
14.8225473753
 20
7.3441916454
 30
0.0
 10
14.8330040784
 20
7.3897373248
 30
0.0
 10
14.8422446061
 20
7.4265478708
 30
0.0
 10
14.8499040775
 20
7.4550529579
 30
0.0
 10
14.8557109747
 20
7.4757200262
 30
0.0
 10
14.861631293
 20
7.4958671191
 30
0.0
 10
14.8676602419
 20
7.5154775948
 30
0.0
 10
14.8737927189
 20
7.5345352525
 30
0.0
 10
14.88002374
 20
7.5530243393
 30
0.0
 10
14.8863480346
 20
7.5709295996
 30
0.0
 10
14.8927604661
 20
7.5882362396
 30
0.0
 10
14.8992556101
 20
7.6049299994
 30
0.0
 10
14.9058281959
 20
7.6209970974
 30
0.0
 10
14.9124726685
 20
7.6364243218
 30
0.0
 10
14.9191836428
 20
7.6511989538
 30
0.0
 10
14.9259554598
 20
7.6653088803
 30
0.0
 10
14.9327826432
 20
7.6787424945
 30
0.0
 10
14.9396594637
 20
7.69148883
 30
0.0
 10
14.9465803844
 20
7.7035374393
 30
0.0
 10
14.9535396499
 20
7.7148785476
 30
0.0
 10
14.9605317072
 20
7.7255029087
 30
0.0
 10
14.9675508376
 20
7.7354019742
 30
0.0
 10
14.9745915398
 20
7.7445677278
 30
0.0
 10
14.9816482242
 20
7.7529928548
 30
0.0
 10
14.9887155424
 20
7.7606705554
 30
0.0
 10
14.9957881602
 20
7.7675946846
 30
0.0
 10
15.002861001
 20
7.7737595402
 30
0.0
 10
15.0099291085
 20
7.7791599253
 30
0.0
 10
15.0169876678
 20
7.7837909044
 30
0.0
 10
15.0240321275
 20
7.7876477923
 30
0.0
 10
15.0310570125
 20
7.7907258367
 30
0.0
 10
15.036942262
 20
7.7926546758
 30
0.0
 10
15.041617616
 20
7.7937901906
 30
0.0
 10
15.0450847351
 20
7.7944384419
 30
0.0
 10
15.0485413514
 20
7.7948901808
 30
0.0
 10
15.0519868001
 20
7.7951452515
 30
0.0
 10
15.0554201022
 20
7.7952036156
 30
0.0
 10
15.0577018829
 20
7.7951112941
 30
0.0
 10
15.058838468
 20
7.7950324654
 30
0.0
  0
SPLINE
  5
3A1
100
AcDbEntity
  8
0
100
AcDbSpline
 62
7
  6
CONTINUOUS
 70
0
 71
3
 72
48
 73
44
 74
0
 42
0.0000001
 43
0.0000001
 44
0.0000000001
 40
0.0
 40
0.0
 40
0.0
 40
0.0
 40
0.0379397667
 40
0.0762768574
 40
0.1149214
 40
0.1537870855
 40
0.192784556
 40
0.2318248323
 40
0.270818687
 40
0.3096770054
 40
0.3483110957
 40
0.3866328965
 40
0.4245552675
 40
0.4619922523
 40
0.4988593315
 40
0.5350736843
 40
0.5705544633
 40
0.6052231035
 40
0.6390035953
 40
0.6718227741
 40
0.7036106367
 40
0.7343007097
 40
0.7638304543
 40
0.79214166
 40
0.8191809324
 40
0.8322086558
 40
0.8449009291
 40
0.8572526591
 40
0.8692592848
 40
0.880916707
 40
0.8922212509
 40
0.9031699381
 40
0.9137602573
 40
0.923990431
 40
0.9338594345
 40
0.9433669411
 40
0.9525136808
 40
0.9613012743
 40
0.9697325283
 40
0.9778116006
 40
0.9855440008
 40
0.9929370732
 40
1.0
 40
1.0
 40
1.0
 40
1.0
 10
14.788794703
 20
9.7014369934
 30
0.0
 10
14.788794703
 20
9.712153715
 30
0.0
 10
14.7889380178
 20
9.7336996399
 30
0.0
 10
14.7895731018
 20
9.7661557365
 30
0.0
 10
14.7906281684
 20
9.7988626131
 30
0.0
 10
14.792100548
 20
9.831740054
 30
0.0
 10
14.7939867449
 20
9.8647083126
 30
0.0
 10
14.7962821421
 20
9.8976868972
 30
0.0
 10
14.7989811406
 20
9.9305954719
 30
0.0
 10
14.8020771569
 20
9.9633538369
 30
0.0
 10
14.8055626343
 20
9.9958821569
 30
0.0
 10
14.8094290736
 20
10.0281011627
 30
0.0
 10
14.8136670255
 20
10.0599323429
 30
0.0
 10
14.818266125
 20
10.0912981412
 30
0.0
 10
14.8232151287
 20
10.1221221406
 30
0.0
 10
14.8285019375
 20
10.1523292459
 30
0.0
 10
14.8341136288
 20
10.1818458759
 30
0.0
 10
14.84003646
 20
10.2106001535
 30
0.0
 10
14.846255928
 20
10.2385220799
 30
0.0
 10
14.852756802
 20
10.2655436976
 30
0.0
 10
14.8595231641
 20
10.2915992665
 30
0.0
 10
14.8665384404
 20
10.3166254238
 30
0.0
 10
14.8737854202
 20
10.3405614299
 30
0.0
 10
14.8812463519
 20
10.363349054
 30
0.0
 10
14.8877042552
 20
10.3815545348
 30
0.0
 10
14.8929730394
 20
10.3954952655
 30
0.0
 10
14.8969176581
 20
10.4055001067
 30
0.0
 10
14.9009019656
 20
10.4151780219
 30
0.0
 10
14.9049235311
 20
10.4245231475
 30
0.0
 10
14.9089798673
 20
10.4335298191
 30
0.0
 10
14.9130685829
 20
10.4421925499
 30
0.0
 10
14.9171870979
 20
10.4505061209
 30
0.0
 10
14.9213329753
 20
10.4584654807
 30
0.0
 10
14.9255036901
 20
10.4660658201
 30
0.0
 10
14.9296966646
 20
10.473302577
 30
0.0
 10
14.9339094659
 20
10.4801713488
 30
0.0
 10
14.9381394634
 20
10.4866680537
 30
0.0
 10
14.9423841827
 20
10.4927887727
 30
0.0
 10
14.9466411191
 20
10.4985298364
 30
0.0
 10
14.9509076762
 20
10.5038878584
 30
0.0
 10
14.955181527
 20
10.5088596131
 30
0.0
 10
14.9594599672
 20
10.5134420582
 30
0.0
 10
14.9623792275
 20
10.516299743
 30
0.0
 10
14.9638396293
 20
10.5176589407
 30
0.0
  0
SPLINE
  5
3A2
100
AcDbEntity
  8
0
100
AcDbSpline
 62
7
  6
CONTINUOUS
 70
0
 71
3
 72
35
 73
31
 74
0
 42
0.0000001
 43
0.0000001
 44
0.0000000001
 40
0.0
 40
0.0
 40
0.0
 40
0.0
 40
0.0851784211
 40
0.1685800267
 40
0.249882267
 40
0.3287728077
 40
0.3672203308
 40
0.4049540811
 40
0.4419390139
 40
0.4781412984
 40
0.5135281869
 40
0.5480682266
 40
0.5817312635
 40
0.614488584
 40
0.6463130236
 40
0.6771790223
 40
0.7070628766
 40
0.7359427104
 40
0.7637988882
 40
0.7906139176
 40
0.8163730481
 40
0.8410641411
 40
0.8646784841
 40
0.8872106928
 40
0.9086597867
 40
0.9290292303
 40
0.9483283434
 40
0.9665726433
 40
0.9837857018
 40
1.0
 40
1.0
 40
1.0
 40
1.0
 10
14.788794703
 20
9.7014369934
 30
0.0
 10
14.788794703
 20
9.6875548565
 30
0.0
 10
14.7890312597
 20
9.6600794994
 30
0.0
 10
14.790116215
 20
9.6193666219
 30
0.0
 10
14.7919232708
 20
9.579705019
 30
0.0
 10
14.7940419742
 20
9.5473980488
 30
0.0
 10
14.7961022629
 20
9.5222085738
 30
0.0
 10
14.7978091225
 20
9.5038438121
 30
0.0
 10
14.7996890275
 20
9.4858638268
 30
0.0
 10
14.8017399636
 20
9.4682875394
 30
0.0
 10
14.8039597828
 20
9.45113346
 30
0.0
 10
14.8063461081
 20
9.4344196481
 30
0.0
 10
14.8088964221
 20
9.4181636967
 30
0.0
 10
14.8116080164
 20
9.4023827101
 30
0.0
 10
14.814478007
 20
9.3870932877
 30
0.0
 10
14.8175033705
 20
9.3723115023
 30
0.0
 10
14.8206808667
 20
9.3580528845
 30
0.0
 10
14.8240071736
 20
9.3443324038
 30
0.0
 10
14.8274787097
 20
9.3311644473
 30
0.0
 10
14.8310918745
 20
9.318562812
 30
0.0
 10
14.8348427647
 20
9.3065406671
 30
0.0
 10
14.8387275284
 20
9.29511057
 30
0.0
 10
14.8427419706
 20
9.2842843975
 30
0.0
 10
14.8468820264
 20
9.2740734015
 30
0.0
 10
14.8511432578
 20
9.2644880947
 30
0.0
 10
14.8555214556
 20
9.2555383554
 30
0.0
 10
14.8600120041
 20
9.247233296
 30
0.0
 10
14.8646107355
 20
9.2395812886
 30
0.0
 10
14.8693127442
 20
9.2325903559
 30
0.0
 10
14.8726098761
 20
9.2282483719
 30
0.0
 10
14.8742772496
 20
9.2261982523
 30
0.0
  0
SPLINE
  5
3A3
100
AcDbEntity
  8
0
100
AcDbSpline
 62
7
  6
CONTINUOUS
 70
0
 71
3
 72
48
 73
44
 74
0
 42
0.0000001
 43
0.0000001
 44
0.0000000001
 40
0.0
 40
0.0
 40
0.0
 40
0.0
 40
0.0379397667
 40
0.0762768574
 40
0.1149214
 40
0.1537870855
 40
0.192784556
 40
0.2318248323
 40
0.270818687
 40
0.3096770054
 40
0.3483110957
 40
0.3866328965
 40
0.4245552675
 40
0.4619922523
 40
0.4988593315
 40
0.5350736843
 40
0.5705544633
 40
0.6052231035
 40
0.6390035953
 40
0.6718227741
 40
0.7036106367
 40
0.7343007097
 40
0.7638304543
 40
0.79214166
 40
0.8191809324
 40
0.8322086558
 40
0.8449009291
 40
0.8572526591
 40
0.8692592848
 40
0.880916707
 40
0.8922212509
 40
0.9031699381
 40
0.9137602573
 40
0.923990431
 40
0.9338594345
 40
0.9433669411
 40
0.9525136808
 40
0.9613012743
 40
0.9697325283
 40
0.9778116006
 40
0.9855440008
 40
0.9929370732
 40
1.0
 40
1.0
 40
1.0
 40
1.0
 10
14.788794703
 20
6.6819525213
 30
0.0
 10
14.788794703
 20
6.6926692428
 30
0.0
 10
14.7889380178
 20
6.7142151677
 30
0.0
 10
14.7895731018
 20
6.7466712644
 30
0.0
 10
14.7906281684
 20
6.7793781409
 30
0.0
 10
14.792100548
 20
6.8122555818
 30
0.0
 10
14.7939867449
 20
6.8452238404
 30
0.0
 10
14.7962821421
 20
6.878202425
 30
0.0
 10
14.7989811406
 20
6.9111109997
 30
0.0
 10
14.8020771569
 20
6.9438693647
 30
0.0
 10
14.8055626343
 20
6.9763976847
 30
0.0
 10
14.8094290736
 20
7.0086166905
 30
0.0
 10
14.8136670255
 20
7.0404478707
 30
0.0
 10
14.818266125
 20
7.0718136691
 30
0.0
 10
14.8232151287
 20
7.1026376684
 30
0.0
 10
14.8285019375
 20
7.1328447738
 30
0.0
 10
14.8341136288
 20
7.1623614038
 30
0.0
 10
14.84003646
 20
7.1911156813
 30
0.0
 10
14.846255928
 20
7.2190376077
 30
0.0
 10
14.852756802
 20
7.2460592254
 30
0.0
 10
14.8595231641
 20
7.2721147944
 30
0.0
 10
14.8665384404
 20
7.2971409517
 30
0.0
 10
14.8737854202
 20
7.3210769577
 30
0.0
 10
14.8812463519
 20
7.3438645819
 30
0.0
 10
14.8877042552
 20
7.3620700626
 30
0.0
 10
14.8929730394
 20
7.3760107933
 30
0.0
 10
14.8969176581
 20
7.3860156346
 30
0.0
 10
14.9009019656
 20
7.3956935497
 30
0.0
 10
14.9049235311
 20
7.4050386753
 30
0.0
 10
14.9089798673
 20
7.4140453469
 30
0.0
 10
14.9130685829
 20
7.4227080778
 30
0.0
 10
14.9171870979
 20
7.4310216488
 30
0.0
 10
14.9213329753
 20
7.4389810086
 30
0.0
 10
14.9255036901
 20
7.446581348
 30
0.0
 10
14.9296966646
 20
7.4538181049
 30
0.0
 10
14.9339094659
 20
7.4606868766
 30
0.0
 10
14.9381394634
 20
7.4671835816
 30
0.0
 10
14.9423841827
 20
7.4733043005
 30
0.0
 10
14.9466411191
 20
7.4790453642
 30
0.0
 10
14.9509076762
 20
7.4844033862
 30
0.0
 10
14.955181527
 20
7.489375141
 30
0.0
 10
14.9594599672
 20
7.493957586
 30
0.0
 10
14.9623792275
 20
7.4968152708
 30
0.0
 10
14.9638396293
 20
7.4981744685
 30
0.0
  0
SPLINE
  5
3A4
100
AcDbEntity
  8
0
100
AcDbSpline
 62
7
  6
CONTINUOUS
 70
0
 71
3
 72
35
 73
31
 74
0
 42
0.0000001
 43
0.0000001
 44
0.0000000001
 40
0.0
 40
0.0
 40
0.0
 40
0.0
 40
0.0851784211
 40
0.1685800267
 40
0.249882267
 40
0.3287728077
 40
0.3672203308
 40
0.4049540811
 40
0.4419390139
 40
0.4781412984
 40
0.5135281869
 40
0.5480682266
 40
0.5817312635
 40
0.614488584
 40
0.6463130236
 40
0.6771790223
 40
0.7070628766
 40
0.7359427104
 40
0.7637988882
 40
0.7906139176
 40
0.8163730481
 40
0.8410641411
 40
0.8646784841
 40
0.8872106928
 40
0.9086597867
 40
0.9290292303
 40
0.9483283434
 40
0.9665726433
 40
0.9837857018
 40
1.0
 40
1.0
 40
1.0
 40
1.0
 10
14.788794703
 20
6.6819525213
 30
0.0
 10
14.788794703
 20
6.6680703844
 30
0.0
 10
14.7890312597
 20
6.6405950272
 30
0.0
 10
14.790116215
 20
6.5998821498
 30
0.0
 10
14.7919232708
 20
6.5602205468
 30
0.0
 10
14.7940419742
 20
6.5279135767
 30
0.0
 10
14.7961022629
 20
6.5027241016
 30
0.0
 10
14.7978091225
 20
6.4843593399
 30
0.0
 10
14.7996890275
 20
6.4663793546
 30
0.0
 10
14.8017399636
 20
6.4488030672
 30
0.0
 10
14.8039597828
 20
6.4316489879
 30
0.0
 10
14.8063461081
 20
6.4149351759
 30
0.0
 10
14.8088964221
 20
6.3986792245
 30
0.0
 10
14.8116080164
 20
6.3828982379
 30
0.0
 10
14.814478007
 20
6.3676088156
 30
0.0
 10
14.8175033705
 20
6.3528270301
 30
0.0
 10
14.8206808667
 20
6.3385684124
 30
0.0
 10
14.8240071736
 20
6.3248479317
 30
0.0
 10
14.8274787097
 20
6.3116799752
 30
0.0
 10
14.8310918745
 20
6.2990783398
 30
0.0
 10
14.8348427647
 20
6.2870561949
 30
0.0
 10
14.8387275284
 20
6.2756260978
 30
0.0
 10
14.8427419706
 20
6.2647999253
 30
0.0
 10
14.8468820264
 20
6.2545889293
 30
0.0
 10
14.8511432578
 20
6.2450036225
 30
0.0
 10
14.8555214556
 20
6.2360538833
 30
0.0
 10
14.8600120041
 20
6.2277488238
 30
0.0
 10
14.8646107355
 20
6.2200968164
 30
0.0
 10
14.8693127442
 20
6.2131058837
 30
0.0
 10
14.8726098761
 20
6.2087638997
 30
0.0
 10
14.8742772496
 20
6.2067137801
 30
0.0
  0
SPLINE
  5
3A5
100
AcDbEntity
  8
0
100
AcDbSpline
 62
7
  6
CONTINUOUS
 70
0
 71
3
 72
39
 73
35
 74
0
 42
0.0000001
 43
0.0000001
 44
0.0000000001
 40
0.0
 40
0.0
 40
0.0
 40
0.0
 40
0.0299424689
 40
0.059909316
 40
0.0899243238
 40
0.120010106
 40
0.150187569
 40
0.1804754262
 40
0.2108897768
 40
0.2414437599
 40
0.2721472906
 40
0.3030068794
 40
0.3340255372
 40
0.3652027613
 40
0.3965346002
 40
0.4280137884
 40
0.4596299473
 40
0.4913698423
 40
0.5232176895
 40
0.5551555049
 40
0.5871634868
 40
0.6192204263
 40
0.6513041383
 40
0.683391905
 40
0.7154609283
 40
0.7474887827
 40
0.7794538622
 40
0.8113358179
 40
0.8431159726
 40
0.8747777271
 40
0.9063068788
 40
0.9376920781
 40
0.9689247389
 40
1.0
 40
1.0
 40
1.0
 40
1.0
 10
6.9824050659
 20
8.4726081163
 30
0.0
 10
6.9881119146
 20
8.4781204753
 30
0.0
 10
6.9999744066
 20
8.4887002613
 30
0.0
 10
7.0189799006
 20
8.5031133792
 30
0.0
 10
7.0391000662
 20
8.5159977439
 30
0.0
 10
7.0602224662
 20
8.5272810935
 30
0.0
 10
7.0822309759
 20
8.53690178
 30
0.0
 10
7.1050041321
 20
8.5448069195
 30
0.0
 10
7.1284164421
 20
8.5509532593
 30
0.0
 10
7.1523389208
 20
8.5553072431
 30
0.0
 10
7.1766398558
 20
8.5578452207
 30
0.0
 10
7.2011855241
 20
8.5585535478
 30
0.0
 10
7.2258409313
 20
8.5574286466
 30
0.0
 10
7.2504705488
 20
8.5544770077
 30
0.0
 10
7.2749390523
 20
8.5497151413
 30
0.0
 10
7.2991120565
 20
8.5431694745
 30
0.0
 10
7.3228568434
 20
8.534876198
 30
0.0
 10
7.3460430808
 20
8.5248810615
 30
0.0
 10
7.3685435269
 20
8.5132391186
 30
0.0
 10
7.3902347197
 20
8.5000144236
 30
0.0
 10
7.4109976448
 20
8.4852796802
 30
0.0
 10
7.4307183803
 20
8.4691158441
 30
0.0
 10
7.4492887146
 20
8.4516116818
 30
0.0
 10
7.4666067333
 20
8.4328632876
 30
0.0
 10
7.4825773728
 20
8.412973561
 30
0.0
 10
7.4971129367
 20
8.3920516475
 30
0.0
 10
7.5101335739
 20
8.3702123474
 30
0.0
 10
7.5215677107
 20
8.347575489
 30
0.0
 10
7.53135245
 20
8.3242652943
 30
0.0
 10
7.5394338944
 20
8.3004096517
 30
0.0
 10
7.5457674942
 20
8.2761396213
 30
0.0
 10
7.5503181879
 20
8.2515879905
 30
0.0
 10
7.5530607881
 20
8.2268913594
 30
0.0
 10
7.5536750706
 20
8.2103742241
 30
0.0
 10
7.5536750706
 20
8.2021396789
 30
0.0
  0
SPLINE
  5
3A6
100
AcDbEntity
  8
0
100
AcDbSpline
 62
7
  6
CONTINUOUS
 70
0
 71
3
 72
39
 73
35
 74
0
 42
0.0000001
 43
0.0000001
 44
0.0000000001
 40
0.0
 40
0.0
 40
0.0
 40
0.0
 40
0.0299424689
 40
0.059909316
 40
0.0899243238
 40
0.120010106
 40
0.150187569
 40
0.1804754262
 40
0.2108897768
 40
0.2414437599
 40
0.2721472906
 40
0.3030068794
 40
0.3340255372
 40
0.3652027613
 40
0.3965346002
 40
0.4280137884
 40
0.4596299473
 40
0.4913698423
 40
0.5232176895
 40
0.5551555049
 40
0.5871634868
 40
0.6192204263
 40
0.6513041383
 40
0.683391905
 40
0.7154609283
 40
0.7474887827
 40
0.7794538622
 40
0.8113358179
 40
0.8431159726
 40
0.8747777271
 40
0.9063068788
 40
0.9376920781
 40
0.9689247389
 40
1.0
 40
1.0
 40
1.0
 40
1.0
 10
13.504336549
 20
8.0203106318
 30
0.0
 10
13.5100433977
 20
8.0258229908
 30
0.0
 10
13.5219058897
 20
8.0364027767
 30
0.0
 10
13.5409113837
 20
8.0508158947
 30
0.0
 10
13.5610315493
 20
8.0637002593
 30
0.0
 10
13.5821539493
 20
8.0749836089
 30
0.0
 10
13.604162459
 20
8.0846042954
 30
0.0
 10
13.6269356152
 20
8.092509435
 30
0.0
 10
13.6503479252
 20
8.0986557748
 30
0.0
 10
13.6742704039
 20
8.1030097586
 30
0.0
 10
13.6985713389
 20
8.1055477361
 30
0.0
 10
13.7231170072
 20
8.1062560633
 30
0.0
 10
13.7477724144
 20
8.105131162
 30
0.0
 10
13.7724020319
 20
8.1021795232
 30
0.0
 10
13.7968705354
 20
8.0974176567
 30
0.0
 10
13.8210435396
 20
8.0908719899
 30
0.0
 10
13.8447883265
 20
8.0825787135
 30
0.0
 10
13.8679745639
 20
8.0725835769
 30
0.0
 10
13.89047501
 20
8.060941634
 30
0.0
 10
13.9121662028
 20
8.047716939
 30
0.0
 10
13.9329291279
 20
8.0329821956
 30
0.0
 10
13.9526498634
 20
8.0168183595
 30
0.0
 10
13.9712201977
 20
7.9993141973
 30
0.0
 10
13.9885382164
 20
7.9805658031
 30
0.0
 10
14.0045088559
 20
7.9606760765
 30
0.0
 10
14.0190444198
 20
7.9397541629
 30
0.0
 10
14.032065057
 20
7.9179148629
 30
0.0
 10
14.0434991938
 20
7.8952780045
 30
0.0
 10
14.0532839331
 20
7.8719678097
 30
0.0
 10
14.0613653775
 20
7.8481121671
 30
0.0
 10
14.0676989773
 20
7.8238421368
 30
0.0
 10
14.072249671
 20
7.799290506
 30
0.0
 10
14.0749922712
 20
7.7745938749
 30
0.0
 10
14.0756065537
 20
7.7580767395
 30
0.0
 10
14.0756065537
 20
7.7498421943
 30
0.0
  0
SPLINE
  5
3A7
100
AcDbEntity
  8
0
100
AcDbSpline
 62
7
  6
CONTINUOUS
 70
0
 71
3
 72
43
 73
39
 74
0
 42
0.0000001
 43
0.0000001
 44
0.0000000001
 40
0.0
 40
0.0
 40
0.0
 40
0.0
 40
0.0150000044
 40
0.0300228457
 40
0.0450701557
 40
0.0601434504
 40
0.0903693128
 40
0.1207144484
 40
0.1359362908
 40
0.1511906641
 40
0.1664781937
 40
0.1817993649
 40
0.2125398788
 40
0.2434172965
 40
0.2744304223
 40
0.3055758616
 40
0.3368481026
 40
0.3682396293
 40
0.3997410622
 40
0.4313413228
 40
0.4630278199
 40
0.494786653
 40
0.526602832
 40
0.5584605073
 40
0.5903432107
 40
0.6222341021
 40
0.6541162196
 40
0.6859727317
 40
0.7177871876
 40
0.7495437639
 40
0.7812275041
 40
0.8128245502
 40
0.8443223581
 40
0.875709912
 40
0.9069778703
 40
0.9381188581
 40
0.969127242
 40
1.0
 40
1.0
 40
1.0
 40
1.0
 10
10.1670848223
 20
8.6244972923
 30
0.0
 10
10.1735406071
 20
8.6274216285
 30
0.0
 10
10.1865622812
 20
8.6330562242
 30
0.0
 10
10.2063837844
 20
8.6408498018
 30
0.0
 10
10.2264894466
 20
8.6479835051
 30
0.0
 10
10.2536696267
 20
8.65661263
 30
0.0
 10
10.2882616585
 20
8.665712146
 30
0.0
 10
10.3234493925
 20
8.6725105802
 30
0.0
 10
10.3519032469
 20
8.6765652953
 30
0.0
 10
10.3734019511
 20
8.6789132441
 30
0.0
 10
10.395012577
 20
8.6805622066
 30
0.0
 10
10.4239755433
 20
8.6818278872
 30
0.0
 10
10.4603549355
 20
8.6816499946
 30
0.0
 10
10.5040462017
 20
8.6786302554
 30
0.0
 10
10.5476477618
 20
8.6728170517
 30
0.0
 10
10.5909792665
 20
8.6642344625
 30
0.0
 10
10.6338630689
 20
8.6529180339
 30
0.0
 10
10.6761229814
 20
8.6389144812
 30
0.0
 10
10.7175855218
 20
8.6222815318
 30
0.0
 10
10.758080475
 20
8.603087675
 30
0.0
 10
10.7974416228
 20
8.5814118817
 30
0.0
 10
10.8355074089
 20
8.557343279
 30
0.0
 10
10.8721215983
 20
8.530980786
 30
0.0
 10
10.9071339133
 20
8.5024327102
 30
0.0
 10
10.9404006436
 20
8.471816303
 30
0.0
 10
10.9717852315
 20
8.4392572818
 30
0.0
 10
11.001158828
 20
8.4048893174
 30
0.0
 10
11.0284008173
 20
8.3688534895
 30
0.0
 10
11.0533993094
 20
8.3312977121
 30
0.0
 10
11.0760515955
 20
8.292376131
 30
0.0
 10
11.0962645694
 20
8.2522484985
 30
0.0
 10
11.113955104
 20
8.2110795181
 30
0.0
 10
11.1290504037
 20
8.1690381943
 30
0.0
 10
11.1414882735
 20
8.1262970777
 30
0.0
 10
11.1512174507
 20
8.0830318124
 30
0.0
 10
11.1581976573
 20
8.0394194868
 30
0.0
 10
11.1624000594
 20
7.9956415534
 30
0.0
 10
11.1633400849
 20
7.9663953883
 30
0.0
 10
11.1633400849
 20
7.9518085599
 30
0.0
  0
SPLINE
  5
3A8
100
AcDbEntity
  8
0
100
AcDbSpline
 62
7
  6
CONTINUOUS
 70
0
 71
3
 72
60
 73
56
 74
0
 42
0.0000001
 43
0.0000001
 44
0.0000000001
 40
0.0
 40
0.0
 40
0.0
 40
0.0
 40
0.0027758442
 40
0.0055595974
 40
0.0083590905
 40
0.0111820121
 40
0.0140358493
 40
0.0169278177
 40
0.022851653
 40
0.0290063909
 40
0.0354367419
 40
0.0387681448
 40
0.0421823378
 40
0.0492731305
 40
0.0567371465
 40
0.0645961914
 40
0.0728678354
 40
0.0815658032
 40
0.090700695
 40
0.10028023
 40
0.1103098407
 40
0.120792778
 40
0.1317305986
 40
0.143123166
 40
0.1549690593
 40
0.167265505
 40
0.1800087299
 40
0.1931938481
 40
0.206815175
 40
0.2208660874
 40
0.235339308
 40
0.250226751
 40
0.2655197837
 40
0.2812090655
 40
0.2972847914
 40
0.3137365292
 40
0.3305534468
 40
0.347724153
 40
0.3652369092
 40
0.3830794766
 40
0.4197029569
 40
0.4574901813
 40
0.496331037
 40
0.5361108622
 40
0.5767110374
 40
0.6180095499
 40
0.6598815424
 40
0.7021998488
 40
0.744835522
 40
0.7876583565
 40
0.8305374083
 40
0.8733415093
 40
0.9159397945
 40
0.9582021934
 40
1.0
 40
1.0
 40
1.0
 40
1.0
 10
13.7607582418
 20
11.3535436058
 30
0.0
 10
13.7607582377
 20
11.3524797439
 30
0.0
 10
13.7606991871
 20
11.3503485207
 30
0.0
 10
13.760433676
 20
11.3471543203
 30
0.0
 10
13.7599913007
 20
11.343961484
 30
0.0
 10
13.7593721995
 20
11.3407708798
 30
0.0
 10
13.7585764541
 20
11.3375831194
 30
0.0
 10
13.7572701211
 20
11.333303937
 30
0.0
 10
13.7551796536
 20
11.3279499829
 30
0.0
 10
13.751987972
 20
11.3216046974
 30
0.0
 10
13.7487840036
 20
11.3164050118
 30
0.0
 10
13.7458885874
 20
11.3122666159
 30
0.0
 10
13.7426873742
 20
11.3080375676
 30
0.0
 10
13.7382365361
 20
11.302774716
 30
0.0
 10
13.7322760081
 20
11.296581755
 30
0.0
 10
13.7256350496
 20
11.2904373289
 30
0.0
 10
13.7183191618
 20
11.2843462348
 30
0.0
 10
13.710334235
 20
11.2783127505
 30
0.0
 10
13.7016865616
 20
11.2723416098
 30
0.0
 10
13.6923831007
 20
11.2664372828
 30
0.0
 10
13.6824312212
 20
11.260604549
 30
0.0
 10
13.6718389567
 20
11.2548479112
 30
0.0
 10
13.6606147794
 20
11.2491721222
 30
0.0
 10
13.6487677895
 20
11.2435816387
 30
0.0
 10
13.6363075375
 20
11.2380811256
 30
0.0
 10
13.6232441615
 20
11.2326749428
 30
0.0
 10
13.6095882506
 20
11.2273676263
 30
0.0
 10
13.5953509429
 20
11.2221634042
 30
0.0
 10
13.5805438218
 20
11.2170666555
 30
0.0
 10
13.5651789836
 20
11.2120814514
 30
0.0
 10
13.5492689601
 20
11.2072119924
 30
0.0
 10
13.5328267621
 20
11.2024621731
 30
0.0
 10
13.5158658222
 20
11.1978359989
 30
0.0
 10
13.49840002
 20
11.1933371711
 30
0.0
 10
13.4804436401
 20
11.1889694856
 30
0.0
 10
13.4620113838
 20
11.1847364367
 30
0.0
 10
13.4431183362
 20
11.1806415963
 30
0.0
 10
13.4237799746
 20
11.1766882444
 30
0.0
 10
13.4040121173
 20
11.172879696
 30
0.0
 10
13.3768682054
 20
11.1679561169
 30
0.0
 10
13.3419807048
 20
11.1621985188
 30
0.0
 10
13.2990225878
 20
11.1559722101
 30
0.0
 10
13.254756475
 20
11.1503908537
 30
0.0
 10
13.2093274244
 20
11.1454728715
 30
0.0
 10
13.1628841486
 20
11.1412345268
 30
0.0
 10
13.1155787716
 20
11.1376898199
 30
0.0
 10
13.0675662518
 20
11.1348504594
 30
0.0
 10
13.0190038873
 20
11.132725821
 30
0.0
 10
12.97005079
 20
11.1313229193
 30
0.0
 10
12.9208673621
 20
11.1306463853
 30
0.0
 10
12.8716147625
 20
11.1306984524
 30
0.0
 10
12.8224543906
 20
11.1314789477
 30
0.0
 10
12.7735472918
 20
11.1329852981
 30
0.0
 10
12.7250538729
 20
11.1352125209
 30
0.0
 10
12.6928961506
 20
11.1371859306
 30
0.0
 10
12.6769152301
 20
11.1382942112
 30
0.0
  0
SPLINE
  5
3A9
100
AcDbEntity
  8
0
100
AcDbSpline
 62
7
  6
CONTINUOUS
 70
0
 71
3
 72
53
 73
49
 74
0
 42
0.0000001
 43
0.0000001
 44
0.0000000001
 40
0.0
 40
0.0
 40
0.0
 40
0.0
 40
0.0063158443
 40
0.0126706032
 40
0.0191024038
 40
0.0256479293
 40
0.0323417853
 40
0.0392160999
 40
0.0536138948
 40
0.0611945917
 40
0.0690563434
 40
0.0772174261
 40
0.0856937972
 40
0.0944991824
 40
0.1036452589
 40
0.1131420192
 40
0.1229977586
 40
0.133219338
 40
0.1438124256
 40
0.1547814115
 40
0.1661297224
 40
0.1778598996
 40
0.1899735277
 40
0.2024715474
 40
0.2153541861
 40
0.2286209712
 40
0.2422709812
 40
0.2563026796
 40
0.2707140367
 40
0.285502677
 40
0.3006656816
 40
0.3321007977
 40
0.3649898962
 40
0.3992976051
 40
0.4349839194
 40
0.4720046713
 40
0.5103119934
 40
0.5498546246
 40
0.5905781197
 40
0.6324251754
 40
0.6753358979
 40
0.7192479639
 40
0.7640967365
 40
0.8098157317
 40
0.8563364697
 40
0.9035882633
 40
0.9515016804
 40
1.0
 40
1.0
 40
1.0
 40
1.0
 10
14.9273874317
 20
8.9190696125
 30
0.0
 10
14.9257817573
 20
8.9191809753
 30
0.0
 10
14.9225681059
 20
8.9195358471
 30
0.0
 10
14.9177836538
 20
8.9204607793
 30
0.0
 10
14.9130311589
 20
8.9217782205
 30
0.0
 10
14.9083134538
 20
8.9234872956
 30
0.0
 10
14.9036323493
 20
8.9255868838
 30
0.0
 10
14.8973468586
 20
8.9289562606
 30
0.0
 10
14.8912321079
 20
8.9330809527
 30
0.0
 10
14.8853145352
 20
8.9378607468
 30
0.0
 10
14.8808448246
 20
8.9418907303
 30
0.0
 10
14.8764227855
 20
8.946301484
 30
0.0
 10
14.8720496161
 20
8.9510915309
 30
0.0
 10
14.8677270891
 20
8.9562587795
 30
0.0
 10
14.8634567287
 20
8.9618010873
 30
0.0
 10
14.8592402699
 20
8.9677162522
 30
0.0
 10
14.8550793022
 20
8.974001841
 30
0.0
 10
14.8509754314
 20
8.9806552935
 30
0.0
 10
14.8469303684
 20
8.9876739565
 30
0.0
 10
14.8429456546
 20
8.9950549393
 30
0.0
 10
14.8390229106
 20
9.0027952525
 30
0.0
 10
14.8351637776
 20
9.0108917654
 30
0.0
 10
14.8313697449
 20
9.0193411433
 30
0.0
 10
14.8276424125
 20
9.0281399556
 30
0.0
 10
14.8239833165
 20
9.037284605
 30
0.0
 10
14.8203938973
 20
9.0467713286
 30
0.0
 10
14.8168756992
 20
9.0565962579
 30
0.0
 10
14.8134301398
 20
9.0667553522
 30
0.0
 10
14.8100586151
 20
9.0772444306
 30
0.0
 10
14.806762561
 20
9.0880592123
 30
0.0
 10
14.802417996
 20
9.1030881182
 30
0.0
 10
14.7971979839
 20
9.122663191
 30
0.0
 10
14.7913286907
 20
9.1471060655
 30
0.0
 10
14.7857910881
 20
9.172735544
 30
0.0
 10
14.7805943763
 20
9.1995094111
 30
0.0
 10
14.7757471962
 20
9.2273837167
 30
0.0
 10
14.7712576287
 20
9.2563126093
 30
0.0
 10
14.7671331786
 20
9.286248487
 30
0.0
 10
14.7633807003
 20
9.3171420427
 30
0.0
 10
14.7600064392
 20
9.3489423715
 30
0.0
 10
14.7570160316
 20
9.3815970696
 30
0.0
 10
14.7544144759
 20
9.4150522953
 30
0.0
 10
14.7522060805
 20
9.4492528933
 30
0.0
 10
14.7503945379
 20
9.4841424624
 30
0.0
 10
14.7489828986
 20
9.5196633286
 30
0.0
 10
14.7479734639
 20
9.5557573217
 30
0.0
 10
14.7473680181
 20
9.5923643109
 30
0.0
 10
14.7472350599
 20
9.616934131
 30
0.0
 10
14.7472350599
 20
9.629293457
 30
0.0
  0
SPLINE
  5
3AA
100
AcDbEntity
  8
0
100
AcDbSpline
 62
7
  6
CONTINUOUS
 70
0
 71
3
 72
53
 73
49
 74
0
 42
0.0000001
 43
0.0000001
 44
0.0000000001
 40
0.0
 40
0.0
 40
0.0
 40
0.0
 40
0.0063158443
 40
0.0126706032
 40
0.0191024038
 40
0.0256479293
 40
0.0323417853
 40
0.0392160999
 40
0.0536138948
 40
0.0611945917
 40
0.0690563434
 40
0.0772174261
 40
0.0856937972
 40
0.0944991824
 40
0.1036452589
 40
0.1131420192
 40
0.1229977586
 40
0.133219338
 40
0.1438124256
 40
0.1547814115
 40
0.1661297224
 40
0.1778598996
 40
0.1899735277
 40
0.2024715474
 40
0.2153541861
 40
0.2286209712
 40
0.2422709812
 40
0.2563026796
 40
0.2707140367
 40
0.285502677
 40
0.3006656816
 40
0.3321007977
 40
0.3649898962
 40
0.3992976051
 40
0.4349839194
 40
0.4720046713
 40
0.5103119934
 40
0.5498546246
 40
0.5905781197
 40
0.6324251754
 40
0.6753358979
 40
0.7192479639
 40
0.7640967365
 40
0.8098157317
 40
0.8563364697
 40
0.9035882633
 40
0.9515016804
 40
1.0
 40
1.0
 40
1.0
 40
1.0
 10
14.9273874317
 20
5.8995851403
 30
0.0
 10
14.9257817573
 20
5.8996965031
 30
0.0
 10
14.9225681059
 20
5.9000513749
 30
0.0
 10
14.9177836538
 20
5.9009763071
 30
0.0
 10
14.9130311589
 20
5.9022937483
 30
0.0
 10
14.9083134538
 20
5.9040028234
 30
0.0
 10
14.9036323493
 20
5.9061024116
 30
0.0
 10
14.8973468586
 20
5.9094717885
 30
0.0
 10
14.8912321079
 20
5.9135964805
 30
0.0
 10
14.8853145352
 20
5.9183762747
 30
0.0
 10
14.8808448246
 20
5.9224062581
 30
0.0
 10
14.8764227855
 20
5.9268170118
 30
0.0
 10
14.8720496161
 20
5.9316070587
 30
0.0
 10
14.8677270891
 20
5.9367743073
 30
0.0
 10
14.8634567287
 20
5.9423166152
 30
0.0
 10
14.8592402699
 20
5.94823178
 30
0.0
 10
14.8550793022
 20
5.9545173688
 30
0.0
 10
14.8509754314
 20
5.9611708213
 30
0.0
 10
14.8469303684
 20
5.9681894843
 30
0.0
 10
14.8429456546
 20
5.9755704671
 30
0.0
 10
14.8390229106
 20
5.9833107803
 30
0.0
 10
14.8351637776
 20
5.9914072932
 30
0.0
 10
14.8313697449
 20
5.9998566711
 30
0.0
 10
14.8276424125
 20
6.0086554834
 30
0.0
 10
14.8239833165
 20
6.0178001329
 30
0.0
 10
14.8203938973
 20
6.0272868564
 30
0.0
 10
14.8168756992
 20
6.0371117857
 30
0.0
 10
14.8134301398
 20
6.04727088
 30
0.0
 10
14.8100586151
 20
6.0577599584
 30
0.0
 10
14.806762561
 20
6.0685747401
 30
0.0
 10
14.802417996
 20
6.0836036461
 30
0.0
 10
14.7971979839
 20
6.1031787188
 30
0.0
 10
14.7913286907
 20
6.1276215934
 30
0.0
 10
14.7857910881
 20
6.1532510718
 30
0.0
 10
14.7805943763
 20
6.180024939
 30
0.0
 10
14.7757471962
 20
6.2078992445
 30
0.0
 10
14.7712576287
 20
6.2368281371
 30
0.0
 10
14.7671331786
 20
6.2667640148
 30
0.0
 10
14.7633807003
 20
6.2976575705
 30
0.0
 10
14.7600064392
 20
6.3294578993
 30
0.0
 10
14.7570160316
 20
6.3621125974
 30
0.0
 10
14.7544144759
 20
6.3955678231
 30
0.0
 10
14.7522060805
 20
6.4297684212
 30
0.0
 10
14.7503945379
 20
6.4646579902
 30
0.0
 10
14.7489828986
 20
6.5001788565
 30
0.0
 10
14.7479734639
 20
6.5362728496
 30
0.0
 10
14.7473680181
 20
6.5728798387
 30
0.0
 10
14.7472350599
 20
6.5974496588
 30
0.0
 10
14.7472350599
 20
6.6098089848
 30
0.0
  0
SPLINE
  5
3AB
100
AcDbEntity
  8
0
100
AcDbSpline
 62
7
  6
CONTINUOUS
 70
0
 71
3
 72
60
 73
56
 74
0
 42
0.0000001
 43
0.0000001
 44
0.0000000001
 40
0.0
 40
0.0
 40
0.0
 40
0.0
 40
0.0027758442
 40
0.0055595974
 40
0.0083590905
 40
0.0111820121
 40
0.0140358493
 40
0.0169278177
 40
0.022851653
 40
0.0290063909
 40
0.0354367419
 40
0.0387681448
 40
0.0421823378
 40
0.0492731305
 40
0.0567371465
 40
0.0645961914
 40
0.0728678354
 40
0.0815658032
 40
0.090700695
 40
0.10028023
 40
0.1103098407
 40
0.120792778
 40
0.1317305986
 40
0.143123166
 40
0.1549690593
 40
0.167265505
 40
0.1800087299
 40
0.1931938481
 40
0.206815175
 40
0.2208660874
 40
0.235339308
 40
0.250226751
 40
0.2655197837
 40
0.2812090655
 40
0.2972847914
 40
0.3137365292
 40
0.3305534468
 40
0.347724153
 40
0.3652369092
 40
0.3830794766
 40
0.4197029569
 40
0.4574901813
 40
0.496331037
 40
0.5361108622
 40
0.5767110374
 40
0.6180095499
 40
0.6598815424
 40
0.7021998488
 40
0.744835522
 40
0.7876583565
 40
0.8305374083
 40
0.8733415093
 40
0.9159397945
 40
0.9582021934
 40
1.0
 40
1.0
 40
1.0
 40
1.0
 10
12.0387582463
 20
11.3535444869
 30
0.0
 10
12.0387582503
 20
11.3546083488
 30
0.0
 10
12.038817301
 20
11.356739572
 30
0.0
 10
12.0390828121
 20
11.3599337724
 30
0.0
 10
12.0395251874
 20
11.3631266087
 30
0.0
 10
12.0401442886
 20
11.3663172129
 30
0.0
 10
12.040940034
 20
11.3695049733
 30
0.0
 10
12.042246367
 20
11.3737841557
 30
0.0
 10
12.0443368344
 20
11.3791381098
 30
0.0
 10
12.047528516
 20
11.3854833953
 30
0.0
 10
12.0507324845
 20
11.3906830809
 30
0.0
 10
12.0536279007
 20
11.3948214768
 30
0.0
 10
12.0568291138
 20
11.3990505251
 30
0.0
 10
12.0612799519
 20
11.4043133767
 30
0.0
 10
12.0672404799
 20
11.4105063377
 30
0.0
 10
12.0738814384
 20
11.4166507638
 30
0.0
 10
12.0811973263
 20
11.4227418579
 30
0.0
 10
12.089182253
 20
11.4287753422
 30
0.0
 10
12.0978299265
 20
11.4347464829
 30
0.0
 10
12.1071333873
 20
11.4406508099
 30
0.0
 10
12.1170852669
 20
11.4464835437
 30
0.0
 10
12.1276775314
 20
11.4522401815
 30
0.0
 10
12.1389017087
 20
11.4579159705
 30
0.0
 10
12.1507486986
 20
11.463506454
 30
0.0
 10
12.1632089506
 20
11.4690069671
 30
0.0
 10
12.1762723266
 20
11.4744131499
 30
0.0
 10
12.1899282374
 20
11.4797204664
 30
0.0
 10
12.2041655452
 20
11.4849246885
 30
0.0
 10
12.2189726663
 20
11.4900214372
 30
0.0
 10
12.2343375044
 20
11.4950066413
 30
0.0
 10
12.250247528
 20
11.4998761003
 30
0.0
 10
12.2666897259
 20
11.5046259196
 30
0.0
 10
12.2836506659
 20
11.5092520938
 30
0.0
 10
12.3011164681
 20
11.5137509216
 30
0.0
 10
12.319072848
 20
11.5181186071
 30
0.0
 10
12.3375051043
 20
11.522351656
 30
0.0
 10
12.3563981519
 20
11.5264464964
 30
0.0
 10
12.3757365134
 20
11.5303998483
 30
0.0
 10
12.3955043708
 20
11.5342083967
 30
0.0
 10
12.4226482827
 20
11.5391319758
 30
0.0
 10
12.4575357832
 20
11.5448895739
 30
0.0
 10
12.5004939003
 20
11.5511158826
 30
0.0
 10
12.5447600131
 20
11.556697239
 30
0.0
 10
12.5901890637
 20
11.5616152212
 30
0.0
 10
12.6366323395
 20
11.5658535659
 30
0.0
 10
12.6839377165
 20
11.5693982728
 30
0.0
 10
12.7319502363
 20
11.5722376333
 30
0.0
 10
12.7805126008
 20
11.5743622717
 30
0.0
 10
12.8294656981
 20
11.5757651734
 30
0.0
 10
12.8786491259
 20
11.5764417075
 30
0.0
 10
12.9279017256
 20
11.5763896403
 30
0.0
 10
12.9770620974
 20
11.575609145
 30
0.0
 10
13.0259691963
 20
11.5741027946
 30
0.0
 10
13.0744626152
 20
11.5718755718
 30
0.0
 10
13.1066203375
 20
11.5699021621
 30
0.0
 10
13.122601258
 20
11.5687938815
 30
0.0
  0
SPLINE
  5
3AC
100
AcDbEntity
  8
0
100
AcDbSpline
 62
7
  6
CONTINUOUS
 70
0
 71
3
 72
52
 73
48
 74
0
 42
0.0000001
 43
0.0000001
 44
0.0000000001
 40
0.0
 40
0.0
 40
0.0
 40
0.0
 40
0.0060374451
 40
0.0123407665
 40
0.0189382332
 40
0.025853747
 40
0.0331071982
 40
0.0407150037
 40
0.0486903792
 40
0.0570439358
 40
0.0657837996
 40
0.074916164
 40
0.0844453164
 40
0.0943740687
 40
0.104703787
 40
0.1154346506
 40
0.1265657542
 40
0.1380951853
 40
0.1500202233
 40
0.1623372605
 40
0.17504208
 40
0.1881296788
 40
0.2015945678
 40
0.2154305805
 40
0.2296311204
 40
0.2441890343
 40
0.259096751
 40
0.2743462625
 40
0.3058360848
 40
0.3385873397
 40
0.3725228505
 40
0.407560598
 40
0.443614234
 40
0.4805935502
 40
0.5184049143
 40
0.5569516832
 40
0.5961345996
 40
0.6358521776
 40
0.6760010801
 40
0.7164764915
 40
0.7571724802
 40
0.7979823792
 40
0.8387990941
 40
0.8795156363
 40
0.9200249995
 40
0.9602217187
 40
1.0
 40
1.0
 40
1.0
 40
1.0
 10
12.0466396459
 20
11.3237394117
 30
0.0
 10
12.0476880237
 20
11.3257310302
 30
0.0
 10
12.0500015571
 20
11.3297140271
 30
0.0
 10
12.0539995224
 20
11.3355398282
 30
0.0
 10
12.0585913688
 20
11.3413335527
 30
0.0
 10
12.0637732272
 20
11.3470911544
 30
0.0
 10
12.0695413137
 20
11.3528094025
 30
0.0
 10
12.0758916046
 20
11.358484616
 30
0.0
 10
12.0828196027
 20
11.3641133579
 30
0.0
 10
12.0903206416
 20
11.3696918297
 30
0.0
 10
12.0983894842
 20
11.3752165122
 30
0.0
 10
12.1070206724
 20
11.3806835547
 30
0.0
 10
12.1162082073
 20
11.3860893773
 30
0.0
 10
12.1259457964
 20
11.3914301793
 30
0.0
 10
12.1362266783
 20
11.3967023389
 30
0.0
 10
12.1470437361
 20
11.4019021734
 30
0.0
 10
12.1583894533
 20
11.4070260477
 30
0.0
 10
12.1702559194
 20
11.4120704284
 30
0.0
 10
12.1826348752
 20
11.4170317045
 30
0.0
 10
12.1955176551
 20
11.4219064948
 30
0.0
 10
12.208895273
 20
11.4266912595
 30
0.0
 10
12.2227583468
 20
11.4313827531
 30
0.0
 10
12.2370971846
 20
11.4359775596
 30
0.0
 10
12.2519017233
 20
11.440472544
 30
0.0
 10
12.2671615933
 20
11.4448644621
 30
0.0
 10
12.2828660791
 20
11.4491502676
 30
0.0
 10
12.2990041806
 20
11.4533269401
 30
0.0
 10
12.3213236554
 20
11.4588049345
 30
0.0
 10
12.3502294503
 20
11.4653439646
 30
0.0
 10
12.386098972
 20
11.4726292204
 30
0.0
 10
12.4234115548
 20
11.479413667
 30
0.0
 10
12.4620623819
 20
11.4856780902
 30
0.0
 10
12.5019430467
 20
11.4914047255
 30
0.0
 10
12.5429415754
 20
11.4965773474
 30
0.0
 10
12.5849428353
 20
11.501181303
 30
0.0
 10
12.6278288422
 20
11.5052035546
 30
0.0
 10
12.6714791045
 20
11.5086327155
 30
0.0
 10
12.715770965
 20
11.5114590812
 30
0.0
 10
12.7605799511
 20
11.5136746552
 30
0.0
 10
12.8057801266
 20
11.515273169
 30
0.0
 10
12.8512444536
 20
11.5162501028
 30
0.0
 10
12.8968451342
 20
11.5166026891
 30
0.0
 10
12.9424540259
 20
11.5163299402
 30
0.0
 10
12.9879428498
 20
11.5154326086
 30
0.0
 10
13.0331839398
 20
11.5139132622
 30
0.0
 10
13.0780498246
 20
11.5117761608
 30
0.0
 10
13.1078078538
 20
11.5099324037
 30
0.0
 10
13.122601258
 20
11.5089064777
 30
0.0
  0
SPLINE
  5
3AD
100
AcDbEntity
  8
0
100
AcDbSpline
 62
7
  6
CONTINUOUS
 70
0
 71
3
 72
55
 73
51
 74
0
 42
0.0000001
 43
0.0000001
 44
0.0000000001
 40
0.0
 40
0.0
 40
0.0
 40
0.0
 40
0.0055583057
 40
0.0112281018
 40
0.0170646316
 40
0.0231181162
 40
0.0294328959
 40
0.0360473386
 40
0.0429938998
 40
0.0502996816
 40
0.0579868788
 40
0.0660734531
 40
0.0745736313
 40
0.0834984409
 40
0.0928561594
 40
0.1026526466
 40
0.1128917484
 40
0.1235754416
 40
0.1347042146
 40
0.1462770636
 40
0.1582918664
 40
0.1707452716
 40
0.1836330669
 40
0.1969500033
 40
0.2106901473
 40
0.2248466797
 40
0.2394122137
 40
0.2543786043
 40
0.2697372135
 40
0.2854787569
 40
0.3015935039
 40
0.3180711778
 40
0.3349010844
 40
0.3520720738
 40
0.3873902386
 40
0.42392937
 40
0.46158717
 40
0.5002565267
 40
0.539826096
 40
0.5801808516
 40
0.6212026138
 40
0.662770562
 40
0.7047617381
 40
0.7470515388
 40
0.7895142163
 40
0.8320233345
 40
0.874452348
 40
0.9166748341
 40
0.9585655956
 40
1.0
 40
1.0
 40
1.0
 40
1.0
 10
12.0650066914
 20
11.2989279159
 30
0.0
 10
12.0651996657
 20
11.3009749825
 30
0.0
 10
12.0658159523
 20
11.3050920747
 30
0.0
 10
12.0674057801
 20
11.3112121342
 30
0.0
 10
12.0696639002
 20
11.3173138448
 30
0.0
 10
12.0725868063
 20
11.323390913
 30
0.0
 10
12.0761703574
 20
11.3294391635
 30
0.0
 10
12.0804106663
 20
11.3354542631
 30
0.0
 10
12.0853034385
 20
11.3414323761
 30
0.0
 10
12.0908444575
 20
11.3473694673
 30
0.0
 10
12.0970290714
 20
11.3532616132
 30
0.0
 10
12.1038524015
 20
11.3591046741
 30
0.0
 10
12.1113090902
 20
11.3648944981
 30
0.0
 10
12.119393352
 20
11.3706268339
 30
0.0
 10
12.1280989232
 20
11.3762973605
 30
0.0
 10
12.1374190155
 20
11.3819018001
 30
0.0
 10
12.1473463856
 20
11.3874357583
 30
0.0
 10
12.1578732326
 20
11.3928950055
 30
0.0
 10
12.1689913242
 20
11.3982751535
 30
0.0
 10
12.180691873
 20
11.4035720693
 30
0.0
 10
12.1929656765
 20
11.408781431
 30
0.0
 10
12.2058029984
 20
11.4138992291
 30
0.0
 10
12.2191936976
 20
11.4189212536
 30
0.0
 10
12.2331271289
 20
11.4238436335
 30
0.0
 10
12.2475922497
 20
11.4286623069
 30
0.0
 10
12.2625775467
 20
11.4333735492
 30
0.0
 10
12.2780711163
 20
11.4379734766
 30
0.0
 10
12.294060618
 20
11.4424585168
 30
0.0
 10
12.3105333302
 20
11.4468249877
 30
0.0
 10
12.3274761263
 20
11.4510694763
 30
0.0
 10
12.3448755131
 20
11.4551885214
 30
0.0
 10
12.3627176166
 20
11.4591788724
 30
0.0
 10
12.3809882344
 20
11.4630373238
 30
0.0
 10
12.4061368932
 20
11.4680488775
 30
0.0
 10
12.4385405275
 20
11.4739483428
 30
0.0
 10
12.4785396977
 20
11.480390529
 30
0.0
 10
12.5198822268
 20
11.486239389
 30
0.0
 10
12.5624362377
 20
11.4914761209
 30
0.0
 10
12.6060661463
 20
11.4960838649
 30
0.0
 10
12.6506328419
 20
11.5000478009
 30
0.0
 10
12.6959942131
 20
11.5033551811
 30
0.0
 10
12.7420055881
 20
11.505995373
 30
0.0
 10
12.7885202056
 20
11.5079598903
 30
0.0
 10
12.8353896898
 20
11.5092424208
 30
0.0
 10
12.8824645173
 20
11.5098388409
 30
0.0
 10
12.9295945288
 20
11.5097472396
 30
0.0
 10
12.9766293217
 20
11.5089679009
 30
0.0
 10
13.0234189682
 20
11.5075033443
 30
0.0
 10
13.0698139611
 20
11.5053582594
 30
0.0
 10
13.1005811772
 20
11.5034669026
 30
0.0
 10
13.1158719683
 20
11.5024064826
 30
0.0
  0
SPLINE
  5
3AE
100
AcDbEntity
  8
0
100
AcDbSpline
 62
7
  6
CONTINUOUS
 70
0
 71
3
 72
52
 73
48
 74
0
 42
0.0000001
 43
0.0000001
 44
0.0000000001
 40
0.0
 40
0.0
 40
0.0
 40
0.0
 40
0.0057769004
 40
0.0117750131
 40
0.0180322083
 40
0.0245812214
 40
0.031449724
 40
0.0386609329
 40
0.0462338731
 40
0.0541840725
 40
0.06252384
 40
0.0712628188
 40
0.0804082654
 40
0.08996538
 40
0.0999376187
 40
0.1103268016
 40
0.1211334745
 40
0.132356842
 40
0.1439951584
 40
0.1560455644
 40
0.168504452
 40
0.1813673001
 40
0.1946289461
 40
0.2082834977
 40
0.2223244699
 40
0.2367448104
 40
0.2515368946
 40
0.2666926654
 40
0.2980598882
 40
0.3307735216
 40
0.3647536988
 40
0.3999150076
 40
0.4361670915
 40
0.4734151916
 40
0.5115606465
 40
0.5505013629
 40
0.5901322641
 40
0.6303457265
 40
0.6710320033
 40
0.7120796424
 40
0.7533758938
 40
0.7948071345
 40
0.8362592192
 40
0.8776180571
 40
0.9187695369
 40
0.9596011088
 40
1.0
 40
1.0
 40
1.0
 40
1.0
 10
12.0893164767
 20
11.2782001798
 30
0.0
 10
12.0900165521
 20
11.2801317051
 30
0.0
 10
12.0916319312
 20
11.284002647
 30
0.0
 10
12.0946126167
 20
11.2896887752
 30
0.0
 10
12.0981878613
 20
11.2953483631
 30
0.0
 10
12.102354125
 20
11.3009769854
 30
0.0
 10
12.1071076985
 20
11.3065715295
 30
0.0
 10
12.1124449487
 20
11.3121283006
 30
0.0
 10
12.1183617157
 20
11.3176439344
 30
0.0
 10
12.1248537643
 20
11.3231146976
 30
0.0
 10
12.1319163276
 20
11.3285370232
 30
0.0
 10
12.1395443651
 20
11.333907136
 30
0.0
 10
12.1477323746
 20
11.3392213073
 30
0.0
 10
12.1564744488
 20
11.3444757945
 30
0.0
 10
12.1657642907
 20
11.3496667766
 30
0.0
 10
12.1755951334
 20
11.354790594
 30
0.0
 10
12.1859598674
 20
11.359843407
 30
0.0
 10
12.1968508986
 20
11.3648216553
 30
0.0
 10
12.2082603096
 20
11.3697215522
 30
0.0
 10
12.2201797177
 20
11.374539629
 30
0.0
 10
12.2326004145
 20
11.3792722173
 30
0.0
 10
12.2455132651
 20
11.3839159257
 30
0.0
 10
12.2589087985
 20
11.3884672523
 30
0.0
 10
12.2727771582
 20
11.3929228782
 30
0.0
 10
12.2871081462
 20
11.3972794965
 30
0.0
 10
12.3018912093
 20
11.4015338632
 30
0.0
 10
12.3171154755
 20
11.4056829014
 30
0.0
 10
12.3382299799
 20
11.4111327136
 30
0.0
 10
12.3656501544
 20
11.4176439406
 30
0.0
 10
12.399763202
 20
11.424903774
 30
0.0
 10
12.4353509007
 20
11.4316750238
 30
0.0
 10
12.4723083185
 20
11.4379375424
 30
0.0
 10
12.5105266633
 20
11.4436726743
 30
0.0
 10
12.5498932956
 20
11.4488633494
 30
0.0
 10
12.5902921649
 20
11.4534941218
 30
0.0
 10
12.6316041359
 20
11.4575512173
 30
0.0
 10
12.6737073545
 20
11.4610225729
 30
0.0
 10
12.7164776117
 20
11.46389787
 30
0.0
 10
12.759788716
 20
11.4661685639
 30
0.0
 10
12.8035128681
 20
11.4678279072
 30
0.0
 10
12.8475210462
 20
11.4688709719
 30
0.0
 10
12.8916833726
 20
11.4692946552
 30
0.0
 10
12.9358695503
 20
11.4690977079
 30
0.0
 10
12.9799491048
 20
11.4682806965
 30
0.0
 10
13.0237921373
 20
11.4668460768
 30
0.0
 10
13.0672689651
 20
11.4647980746
 30
0.0
 10
13.0961038416
 20
11.463016792
 30
0.0
 10
13.1104367729
 20
11.4620227998
 30
0.0
  0
SPLINE
  5
3AF
100
AcDbEntity
  8
0
100
AcDbSpline
 62
7
  6
CONTINUOUS
 70
0
 71
3
 72
23
 73
19
 74
0
 42
0.0000001
 43
0.0000001
 44
0.0000000001
 40
0.0
 40
0.0
 40
0.0
 40
0.0
 40
0.0554383549
 40
0.1125762417
 40
0.1712654434
 40
0.2313517264
 40
0.292675566
 40
0.3550728389
 40
0.4183754953
 40
0.4824122156
 40
0.5470090567
 40
0.6119900804
 40
0.6771780129
 40
0.7423947819
 40
0.8074624249
 40
0.8722029222
 40
0.9364407763
 40
1.0
 40
1.0
 40
1.0
 40
1.0
 10
12.4374411483
 20
11.1656884385
 30
0.0
 10
12.4497246718
 20
11.167882269
 30
0.0
 10
12.4747141339
 20
11.1720837906
 30
0.0
 10
12.5128436264
 20
11.1777615128
 30
0.0
 10
12.5521050367
 20
11.1828984639
 30
0.0
 10
12.5923833929
 20
11.1874794556
 30
0.0
 10
12.633560983
 20
11.1914909878
 30
0.0
 10
12.6755173644
 20
11.1949212321
 30
0.0
 10
12.7181298175
 20
11.1977600807
 30
0.0
 10
12.7612736837
 20
11.1999991695
 30
0.0
 10
12.8048227397
 20
11.2016319022
 30
0.0
 10
12.8486495732
 20
11.2026534713
 30
0.0
 10
12.8926259413
 20
11.2030608639
 30
0.0
 10
12.936623201
 20
11.2028528898
 30
0.0
 10
12.9805125364
 20
11.2020301425
 30
0.0
 10
13.0241657189
 20
11.200595075
 30
0.0
 10
13.0674547145
 20
11.1985518759
 30
0.0
 10
13.0961653363
 20
11.1967773385
 30
0.0
 10
13.1104367729
 20
11.195787611
 30
0.0
  0
SPLINE
  5
3B0
100
AcDbEntity
  8
0
100
AcDbSpline
 62
7
  6
CONTINUOUS
 70
0
 71
3
 72
45
 73
41
 74
0
 42
0.0000001
 43
0.0000001
 44
0.0000000001
 40
0.0
 40
0.0
 40
0.0
 40
0.0
 40
0.0139953023
 40
0.0213176987
 40
0.0288755297
 40
0.0366821724
 40
0.0447493701
 40
0.0530874928
 40
0.0617056198
 40
0.070611517
 40
0.0798119025
 40
0.0893125532
 40
0.099118226
 40
0.1092328822
 40
0.119659815
 40
0.1304015372
 40
0.1414599354
 40
0.1645307071
 40
0.1888781702
 40
0.2145001224
 40
0.2413882017
 40
0.269528816
 40
0.2989039098
 40
0.3294912217
 40
0.3612649722
 40
0.3941961483
 40
0.428252666
 40
0.4633998794
 40
0.4996006001
 40
0.536815334
 40
0.5750025926
 40
0.6141188238
 40
0.6541187372
 40
0.6949554176
 40
0.7365802656
 40
0.7789434385
 40
0.821993839
 40
0.8656785258
 40
0.9099442307
 40
1.0
 40
1.0
 40
1.0
 40
1.0
 10
13.7529131134
 20
11.3236704261
 30
0.0
 10
13.7514546153
 20
11.3264476428
 30
0.0
 10
13.7489848589
 20
11.3305519224
 30
0.0
 10
13.745244118
 20
11.3358351842
 30
0.0
 10
13.7421115692
 20
11.3398433483
 30
0.0
 10
13.7386960827
 20
11.3438350593
 30
0.0
 10
13.7349986909
 20
11.347809498
 30
0.0
 10
13.7310206934
 20
11.3517652955
 30
0.0
 10
13.7267633728
 20
11.3557011834
 30
0.0
 10
13.722228218
 20
11.3596159547
 30
0.0
 10
13.7174167334
 20
11.3635083508
 30
0.0
 10
13.7123304761
 20
11.3673770572
 30
0.0
 10
13.7069711783
 20
11.3712208614
 30
0.0
 10
13.7013406276
 20
11.375038518
 30
0.0
 10
13.6954406601
 20
11.3788287084
 30
0.0
 10
13.6892732518
 20
11.3825902442
 30
0.0
 10
13.6805730688
 20
11.3876370894
 30
0.0
 10
13.6690302919
 20
11.3938543836
 30
0.0
 10
13.6543358944
 20
11.4010790951
 30
0.0
 10
13.6386283579
 20
11.4081598797
 30
0.0
 10
13.6219286848
 20
11.4150873028
 30
0.0
 10
13.6042589538
 20
11.4218521417
 30
0.0
 10
13.5856426721
 20
11.428445238
 30
0.0
 10
13.5661046793
 20
11.4348577835
 30
0.0
 10
13.5456710781
 20
11.4410811118
 30
0.0
 10
13.5243692043
 20
11.4471067882
 30
0.0
 10
13.5022276063
 20
11.4529267377
 30
0.0
 10
13.4792759644
 20
11.4585330474
 30
0.0
 10
13.455545075
 20
11.4639181503
 30
0.0
 10
13.4310667996
 20
11.4690748064
 30
0.0
 10
13.4058740066
 20
11.4739959899
 30
0.0
 10
13.3800005454
 20
11.4786750944
 30
0.0
 10
13.3534811837
 20
11.4831057989
 30
0.0
 10
13.3263515679
 20
11.4872820752
 30
0.0
 10
13.2986481719
 20
11.4911983396
 30
0.0
 10
13.2704082075
 20
11.4948492764
 30
0.0
 10
13.2416697307
 20
11.4982299193
 30
0.0
 10
13.2124713592
 20
11.5013357992
 30
0.0
 10
13.1727530701
 20
11.5051264288
 30
0.0
 10
13.1427379557
 20
11.5075099929
 30
0.0
 10
13.122601258
 20
11.5089064777
 30
0.0
  0
SPLINE
  5
3B1
100
AcDbEntity
  8
0
100
AcDbSpline
 62
7
  6
CONTINUOUS
 70
0
 71
3
 72
51
 73
47
 74
0
 42
0.0000001
 43
0.0000001
 44
0.0000000001
 40
0.0
 40
0.0
 40
0.0
 40
0.0
 40
0.0064578767
 40
0.0129939098
 40
0.0196417201
 40
0.0264330517
 40
0.0333974818
 40
0.0405622154
 40
0.0479518619
 40
0.0555885531
 40
0.0634920095
 40
0.0716795187
 40
0.0801662613
 40
0.088965451
 40
0.0980883561
 40
0.1075446737
 40
0.1173426314
 40
0.1274889872
 40
0.1379893876
 40
0.1488484021
 40
0.1600694972
 40
0.1716553628
 40
0.1836078864
 40
0.1959281126
 40
0.2086165403
 40
0.2216730487
 40
0.2488857883
 40
0.2775559793
 40
0.3076649684
 40
0.3391879807
 40
0.3720950018
 40
0.406351214
 40
0.4419175041
 40
0.4787510246
 40
0.5168054073
 40
0.5560310434
 40
0.5963754983
 40
0.6377836445
 40
0.6801978448
 40
0.723558248
 40
0.7678029233
 40
0.8128681866
 40
0.8586882058
 40
0.9051956149
 40
0.9523244147
 40
1.0
 40
1.0
 40
1.0
 40
1.0
 10
13.7345127061
 20
11.2988970265
 30
0.0
 10
13.73437667
 20
11.3003485292
 30
0.0
 10
13.733989806
 20
11.3032596882
 30
0.0
 10
13.7330743417
 20
11.3076022588
 30
0.0
 10
13.7318216867
 20
11.3119382977
 30
0.0
 10
13.7302328434
 20
11.3162655729
 30
0.0
 10
13.7283087638
 20
11.3205823773
 30
0.0
 10
13.7260504392
 20
11.3248869151
 30
0.0
 10
13.7234591586
 20
11.3291776033
 30
0.0
 10
13.7205361451
 20
11.3334528345
 30
0.0
 10
13.7172826574
 20
11.3377109793
 30
0.0
 10
13.7137002054
 20
11.3419505473
 30
0.0
 10
13.7097902625
 20
11.3461699604
 30
0.0
 10
13.7055543843
 20
11.3503676002
 30
0.0
 10
13.7009943597
 20
11.3545419704
 30
0.0
 10
13.6961119847
 20
11.3586914642
 30
0.0
 10
13.6909091717
 20
11.3628144492
 30
0.0
 10
13.685388048
 20
11.3669094105
 30
0.0
 10
13.6795507786
 20
11.3709747228
 30
0.0
 10
13.6733996605
 20
11.3750087569
 30
0.0
 10
13.6669371852
 20
11.3790099965
 30
0.0
 10
13.6601659003
 20
11.3829768205
 30
0.0
 10
13.6530884895
 20
11.3869076268
 30
0.0
 10
13.6457078155
 20
11.390800908
 30
0.0
 10
13.6380267928
 20
11.3946550988
 30
0.0
 10
13.6272398697
 20
11.3998109892
 30
0.0
 10
13.613015834
 20
11.4061348929
 30
0.0
 10
13.5950278481
 20
11.4134422503
 30
0.0
 10
13.5759213826
 20
11.4205576676
 30
0.0
 10
13.5557270814
 20
11.4274696908
 30
0.0
 10
13.5344770999
 20
11.4341671331
 30
0.0
 10
13.5122054534
 20
11.4406391666
 30
0.0
 10
13.4889478366
 20
11.4468753532
 30
0.0
 10
13.4647415557
 20
11.4528655625
 30
0.0
 10
13.4396254817
 20
11.4586000853
 30
0.0
 10
13.4136399881
 20
11.4640696696
 30
0.0
 10
13.3868268533
 20
11.469265432
 30
0.0
 10
13.359229205
 20
11.4741789431
 30
0.0
 10
13.3308914626
 20
11.4788022815
 30
0.0
 10
13.3018592435
 20
11.4831279449
 30
0.0
 10
13.272179255
 20
11.4871489178
 30
0.0
 10
13.2418993249
 20
11.4908587085
 30
0.0
 10
13.2110683128
 20
11.4942513092
 30
0.0
 10
13.1797354196
 20
11.497321268
 30
0.0
 10
13.1479517439
 20
11.5000635063
 30
0.0
 10
13.1266089267
 20
11.5016618721
 30
0.0
 10
13.1158719683
 20
11.5024064826
 30
0.0
  0
SPLINE
  5
3B2
100
AcDbEntity
  8
0
100
AcDbSpline
 62
7
  6
CONTINUOUS
 70
0
 71
3
 72
48
 73
44
 74
0
 42
0.0000001
 43
0.0000001
 44
0.0000000001
 40
0.0
 40
0.0
 40
0.0
 40
0.0
 40
0.0066400755
 40
0.0134484724
 40
0.020448001
 40
0.0276593425
 40
0.0427856017
 40
0.050736538
 40
0.0589624028
 40
0.0674746049
 40
0.0762829467
 40
0.0853959334
 40
0.0948208778
 40
0.1045638464
 40
0.1146299466
 40
0.1250234364
 40
0.135747615
 40
0.1468050628
 40
0.1581977627
 40
0.1699269542
 40
0.1819933163
 40
0.2071369944
 40
0.2336257831
 40
0.2614490281
 40
0.2905903015
 40
0.3210281345
 40
0.3527367948
 40
0.3856864952
 40
0.4198439299
 40
0.4551726856
 40
0.4916332811
 40
0.5291836335
 40
0.5677792328
 40
0.6073731772
 40
0.6479165793
 40
0.6893585989
 40
0.7316464984
 40
0.7747260626
 40
0.8185416313
 40
0.8630355327
 40
0.9081494737
 40
0.953826216
 40
1.0
 40
1.0
 40
1.0
 40
1.0
 10
13.7102296478
 20
11.2781182268
 30
0.0
 10
13.7097447393
 20
11.2794617262
 30
0.0
 10
13.7086721548
 20
11.2821509457
 30
0.0
 10
13.7067893367
 20
11.2861289299
 30
0.0
 10
13.704614943
 20
11.2900961549
 30
0.0
 10
13.7012756845
 20
11.2954540163
 30
0.0
 10
13.6973906127
 20
11.3007001128
 30
0.0
 10
13.6930239549
 20
11.3058275116
 30
0.0
 10
13.6894082613
 20
11.3097197721
 30
0.0
 10
13.6855081158
 20
11.3135928818
 30
0.0
 10
13.6813247811
 20
11.3174458394
 30
0.0
 10
13.676859803
 20
11.3212772497
 30
0.0
 10
13.6721147176
 20
11.3250857627
 30
0.0
 10
13.6670912739
 20
11.3288701119
 30
0.0
 10
13.6617912557
 20
11.3326289773
 30
0.0
 10
13.6562165113
 20
11.3363609825
 30
0.0
 10
13.6503690658
 20
11.3400648608
 30
0.0
 10
13.6442510097
 20
11.3437393115
 30
0.0
 10
13.6378644955
 20
11.3473829641
 30
0.0
 10
13.631211821
 20
11.3509945865
 30
0.0
 10
13.6218612801
 20
11.3558320965
 30
0.0
 10
13.6095133452
 20
11.3617789383
 30
0.0
 10
13.5938705442
 20
11.3686723046
 30
0.0
 10
13.5772277308
 20
11.3754074873
 30
0.0
 10
13.5596087985
 20
11.3819747877
 30
0.0
 10
13.5410388458
 20
11.3883647937
 30
0.0
 10
13.5215444449
 20
11.3945682035
 30
0.0
 10
13.5011535488
 20
11.400576074
 30
0.0
 10
13.4798954376
 20
11.4063797203
 30
0.0
 10
13.4578006547
 20
11.4119706733
 30
0.0
 10
13.4349009945
 20
11.4173408784
 30
0.0
 10
13.4112294201
 20
11.422482541
 30
0.0
 10
13.3868200188
 20
11.4273881669
 30
0.0
 10
13.3617079672
 20
11.4320506978
 30
0.0
 10
13.3359294546
 20
11.4364633457
 30
0.0
 10
13.3095216479
 20
11.4406196973
 30
0.0
 10
13.2825226303
 20
11.4445137771
 30
0.0
 10
13.2549713057
 20
11.448139904
 30
0.0
 10
13.2269074714
 20
11.451492813
 30
0.0
 10
13.1983716646
 20
11.4545676956
 30
0.0
 10
13.1694046132
 20
11.4573600923
 30
0.0
 10
13.1400487312
 20
11.4598658646
 30
0.0
 10
13.1203453014
 20
11.461335641
 30
0.0
 10
13.1104367729
 20
11.4620227998
 30
0.0
  0
SPLINE
  5
3B3
100
AcDbEntity
  8
0
100
AcDbSpline
 62
7
  6
CONTINUOUS
 70
0
 71
3
 72
15
 73
11
 74
0
 42
0.0000001
 43
0.0000001
 44
0.0000000001
 40
0.0
 40
0.0
 40
0.0
 40
0.0
 40
0.1163233699
 40
0.2355257924
 40
0.3574146917
 40
0.4817914897
 40
0.6084511672
 40
0.7371817845
 40
0.8677750034
 40
1.0
 40
1.0
 40
1.0
 40
1.0
 10
13.3620745969
 20
11.1656885747
 30
0.0
 10
13.3523964951
 20
11.1674170714
 30
0.0
 10
13.3327724184
 20
11.170759902
 30
0.0
 10
13.3029200503
 20
11.1753845218
 30
0.0
 10
13.2723303644
 20
11.1796750508
 30
0.0
 10
13.2410593664
 20
11.1836235673
 30
0.0
 10
13.2091643144
 20
11.187222783
 30
0.0
 10
13.1767030993
 20
11.190466173
 30
0.0
 10
13.1437356608
 20
11.1933476367
 30
0.0
 10
13.1215851898
 20
11.1950144657
 30
0.0
 10
13.1104367729
 20
11.195787611
 30
0.0
  0
SPLINE
  5
3B4
100
AcDbEntity
  8
0
100
AcDbSpline
 62
7
  6
CONTINUOUS
 70
0
 71
3
 72
58
 73
54
 74
0
 42
0.0000001
 43
0.0000001
 44
0.0000000001
 40
0.0
 40
0.0
 40
0.0
 40
0.0
 40
0.0417737373
 40
0.0840364485
 40
0.126657724
 40
0.1695054566
 40
0.2124468032
 40
0.2553484901
 40
0.298077421
 40
0.3405011733
 40
0.3824885338
 40
0.4239100241
 40
0.4646384356
 40
0.5045493696
 40
0.5435217891
 40
0.5814385861
 40
0.6181871714
 40
0.6536600995
 40
0.6708864646
 40
0.6877562952
 40
0.7042579614
 40
0.7203802099
 40
0.7361123688
 40
0.7514441951
 40
0.766366103
 40
0.7808690035
 40
0.7949445543
 40
0.8085850007
 40
0.8217834443
 40
0.8345336989
 40
0.8468305763
 40
0.8586697732
 40
0.8700481773
 40
0.8809638057
 40
0.8914161393
 40
0.9014061401
 40
0.9109366315
 40
0.9200124299
 40
0.9286407999
 40
0.9368317431
 40
0.9445985649
 40
0.9519583582
 40
0.9589326975
 40
0.9655482957
 40
0.9718377309
 40
0.9778400552
 40
0.9836011724
 40
0.9864084712
 40
0.989175789
 40
0.9919106562
 40
0.994620905
 40
0.9973146092
 40
1.0
 40
1.0
 40
1.0
 40
1.0
 10
15.2389908398
 20
10.1042930931
 30
0.0
 10
15.2389908398
 20
10.0865699895
 30
0.0
 10
15.2387143391
 20
10.0509157712
 30
0.0
 10
15.2374919853
 20
9.9971914649
 30
0.0
 10
15.2354631731
 20
9.9430355004
 30
0.0
 10
15.2326345597
 20
9.8886271712
 30
0.0
 10
15.2290154883
 20
9.83414647
 30
0.0
 10
15.2246179234
 20
9.7797736405
 30
0.0
 10
15.219456432
 20
9.7256885706
 30
0.0
 10
15.2135481246
 20
9.6720701875
 30
0.0
 10
15.2069126038
 20
9.6190958649
 30
0.0
 10
15.1995718985
 20
9.5669408298
 30
0.0
 10
15.1915503926
 20
9.5157775794
 30
0.0
 10
15.182874746
 20
9.4657752969
 30
0.0
 10
15.1735738066
 20
9.417099307
 30
0.0
 10
15.1636785243
 20
9.3699104324
 30
0.0
 10
15.1532218213
 20
9.3243647531
 30
0.0
 10
15.1439812936
 20
9.2875542071
 30
0.0
 10
15.1363218222
 20
9.2590491199
 30
0.0
 10
15.130514925
 20
9.2383820517
 30
0.0
 10
15.1245946067
 20
9.2182349588
 30
0.0
 10
15.1185656578
 20
9.1986244831
 30
0.0
 10
15.1124331808
 20
9.1795668254
 30
0.0
 10
15.1062021597
 20
9.1610777386
 30
0.0
 10
15.0998778651
 20
9.1431724782
 30
0.0
 10
15.0934654335
 20
9.1258658382
 30
0.0
 10
15.0869702896
 20
9.1091720784
 30
0.0
 10
15.0803977037
 20
9.0931049804
 30
0.0
 10
15.0737532311
 20
9.0776777561
 30
0.0
 10
15.0670422569
 20
9.062903124
 30
0.0
 10
15.0602704399
 20
9.0487931975
 30
0.0
 10
15.0534432565
 20
9.0353595834
 30
0.0
 10
15.046566436
 20
9.0226132478
 30
0.0
 10
15.0396455153
 20
9.0105646386
 30
0.0
 10
15.0326862498
 20
8.9992235303
 30
0.0
 10
15.0256941925
 20
8.9885991692
 30
0.0
 10
15.0186750621
 20
8.9787001037
 30
0.0
 10
15.0116343599
 20
8.9695343501
 30
0.0
 10
15.0045776755
 20
8.9611092231
 30
0.0
 10
14.9975103573
 20
8.9534315225
 30
0.0
 10
14.9904377394
 20
8.9465073933
 30
0.0
 10
14.9833648987
 20
8.9403425376
 30
0.0
 10
14.9762967911
 20
8.9349421526
 30
0.0
 10
14.9692382319
 20
8.9303111734
 30
0.0
 10
14.9621937722
 20
8.9264542856
 30
0.0
 10
14.9551688871
 20
8.9233762411
 30
0.0
 10
14.9492836377
 20
8.921447402
 30
0.0
 10
14.9446082836
 20
8.9203118873
 30
0.0
 10
14.9411411646
 20
8.9196636359
 30
0.0
 10
14.9376845483
 20
8.9192118971
 30
0.0
 10
14.9342390996
 20
8.9189568263
 30
0.0
 10
14.9308057975
 20
8.9188984623
 30
0.0
 10
14.9285240167
 20
8.9189907837
 30
0.0
 10
14.9273874317
 20
8.9190696125
 30
0.0
  0
SPLINE
  5
3B5
100
AcDbEntity
  8
0
100
AcDbSpline
 62
7
  6
CONTINUOUS
 70
0
 71
3
 72
23
 73
19
 74
0
 42
0.0000001
 43
0.0000001
 44
0.0000000001
 40
0.0
 40
0.0
 40
0.0
 40
0.0
 40
0.0637757517
 40
0.1273453038
 40
0.1907021142
 40
0.2538559682
 40
0.3168132565
 40
0.3795821027
 40
0.442173382
 40
0.5045993411
 40
0.5668738656
 40
0.6290123776
 40
0.6910316412
 40
0.7529496359
 40
0.8147853464
 40
0.8765585919
 40
0.9382898467
 40
1.0
 40
1.0
 40
1.0
 40
1.0
 10
6.8891180627
 20
8.2482268639
 30
0.0
 10
6.8891180627
 20
8.2535342825
 30
0.0
 10
6.8893721536
 20
8.2641337565
 30
0.0
 10
6.8905187013
 20
8.279968454
 30
0.0
 10
6.8924278248
 20
8.2956777122
 30
0.0
 10
6.8950949556
 20
8.3112244354
 30
0.0
 10
6.8985139846
 20
8.3265732437
 30
0.0
 10
6.902677092
 20
8.3416886539
 30
0.0
 10
6.9075747697
 20
8.3565357779
 30
0.0
 10
6.9131956916
 20
8.3710804174
 30
0.0
 10
6.9195269078
 20
8.385289038
 30
0.0
 10
6.9265539448
 20
8.3991288189
 30
0.0
 10
6.9342605471
 20
8.4125678649
 30
0.0
 10
6.9426289419
 20
8.4255752021
 30
0.0
 10
6.951639911
 20
8.4381207323
 30
0.0
 10
6.9612727298
 20
8.4501756429
 30
0.0
 10
6.971504756
 20
8.461711798
 30
0.0
 10
6.978711309
 20
8.4690402429
 30
0.0
 10
6.9824050659
 20
8.4726081163
 30
0.0
  0
SPLINE
  5
3B6
100
AcDbEntity
  8
0
100
AcDbSpline
 62
7
  6
CONTINUOUS
 70
0
 71
3
 72
39
 73
35
 74
0
 42
0.0000001
 43
0.0000001
 44
0.0000000001
 40
0.0
 40
0.0
 40
0.0
 40
0.0
 40
0.0299424689
 40
0.059909316
 40
0.0899243238
 40
0.120010106
 40
0.150187569
 40
0.1804754262
 40
0.2108897768
 40
0.2414437599
 40
0.2721472906
 40
0.3030068794
 40
0.3340255372
 40
0.3652027613
 40
0.3965346002
 40
0.4280137884
 40
0.4596299473
 40
0.4913698423
 40
0.5232176895
 40
0.5551555049
 40
0.5871634868
 40
0.6192204263
 40
0.6513041383
 40
0.683391905
 40
0.7154609283
 40
0.7474887827
 40
0.7794538622
 40
0.8113358179
 40
0.8431159726
 40
0.8747777271
 40
0.9063068788
 40
0.9376920781
 40
0.9689247389
 40
1.0
 40
1.0
 40
1.0
 40
1.0
 10
7.4603880675
 20
7.9777584265
 30
0.0
 10
7.4546812187
 20
7.9722460675
 30
0.0
 10
7.4428187267
 20
7.9616662816
 30
0.0
 10
7.4238132328
 20
7.9472531636
 30
0.0
 10
7.4036930671
 20
7.934368799
 30
0.0
 10
7.3825706671
 20
7.9230854494
 30
0.0
 10
7.3605621574
 20
7.9134647629
 30
0.0
 10
7.3377890012
 20
7.9055596233
 30
0.0
 10
7.3143766912
 20
7.8994132835
 30
0.0
 10
7.2904542125
 20
7.8950592997
 30
0.0
 10
7.2661532775
 20
7.8925213221
 30
0.0
 10
7.2416076092
 20
7.891812995
 30
0.0
 10
7.216952202
 20
7.8929378963
 30
0.0
 10
7.1923225845
 20
7.8958895351
 30
0.0
 10
7.167854081
 20
7.9006514016
 30
0.0
 10
7.1436810768
 20
7.9071970683
 30
0.0
 10
7.1199362899
 20
7.9154903448
 30
0.0
 10
7.0967500525
 20
7.9254854813
 30
0.0
 10
7.0742496064
 20
7.9371274243
 30
0.0
 10
7.0525584136
 20
7.9503521193
 30
0.0
 10
7.0317954885
 20
7.9650868627
 30
0.0
 10
7.012074753
 20
7.9812506988
 30
0.0
 10
6.9935044187
 20
7.998754861
 30
0.0
 10
6.9761864
 20
8.0175032552
 30
0.0
 10
6.9602157605
 20
8.0373929818
 30
0.0
 10
6.9456801966
 20
8.0583148953
 30
0.0
 10
6.9326595594
 20
8.0801541954
 30
0.0
 10
6.9212254226
 20
8.1027910538
 30
0.0
 10
6.9114406833
 20
8.1261012485
 30
0.0
 10
6.9033592389
 20
8.1499568911
 30
0.0
 10
6.8970256391
 20
8.1742269215
 30
0.0
 10
6.8924749454
 20
8.1987785523
 30
0.0
 10
6.8897323452
 20
8.2234751834
 30
0.0
 10
6.8891180627
 20
8.2399923187
 30
0.0
 10
6.8891180627
 20
8.2482268639
 30
0.0
  0
SPLINE
  5
3B7
100
AcDbEntity
  8
0
100
AcDbSpline
 62
7
  6
CONTINUOUS
 70
0
 71
3
 72
53
 73
49
 74
0
 42
0.0000001
 43
0.0000001
 44
0.0000000001
 40
0.0
 40
0.0
 40
0.0
 40
0.0
 40
0.0063158443
 40
0.0126706032
 40
0.0191024038
 40
0.0256479293
 40
0.0323417853
 40
0.0392160999
 40
0.0536138948
 40
0.0611945917
 40
0.0690563434
 40
0.0772174261
 40
0.0856937972
 40
0.0944991824
 40
0.1036452589
 40
0.1131420192
 40
0.1229977586
 40
0.133219338
 40
0.1438124256
 40
0.1547814115
 40
0.1661297224
 40
0.1778598996
 40
0.1899735277
 40
0.2024715474
 40
0.2153541861
 40
0.2286209712
 40
0.2422709812
 40
0.2563026796
 40
0.2707140367
 40
0.285502677
 40
0.3006656816
 40
0.3321007977
 40
0.3649898962
 40
0.3992976051
 40
0.4349839194
 40
0.4720046713
 40
0.5103119934
 40
0.5498546246
 40
0.5905781197
 40
0.6324251754
 40
0.6753358979
 40
0.7192479639
 40
0.7640967365
 40
0.8098157317
 40
0.8563364697
 40
0.9035882633
 40
0.9515016804
 40
1.0
 40
1.0
 40
1.0
 40
1.0
 10
15.058838468
 20
10.8145169376
 30
0.0
 10
15.0604441424
 20
10.8144055747
 30
0.0
 10
15.0636577938
 20
10.8140507029
 30
0.0
 10
15.0684422458
 20
10.8131257708
 30
0.0
 10
15.0731947408
 20
10.8118083296
 30
0.0
 10
15.0779124459
 20
10.8100992545
 30
0.0
 10
15.0825935504
 20
10.8079996662
 30
0.0
 10
15.0888790411
 20
10.8046302894
 30
0.0
 10
15.0949937918
 20
10.8005055974
 30
0.0
 10
15.1009113645
 20
10.7957258032
 30
0.0
 10
15.1053810751
 20
10.7916958197
 30
0.0
 10
15.1098031142
 20
10.7872850661
 30
0.0
 10
15.1141762836
 20
10.7824950191
 30
0.0
 10
15.1184988106
 20
10.7773277706
 30
0.0
 10
15.122769171
 20
10.7717854627
 30
0.0
 10
15.1269856298
 20
10.7658702979
 30
0.0
 10
15.1311465975
 20
10.7595847091
 30
0.0
 10
15.1352504683
 20
10.7529312566
 30
0.0
 10
15.1392955312
 20
10.7459125936
 30
0.0
 10
15.1432802451
 20
10.7385316107
 30
0.0
 10
15.1472029891
 20
10.7307912975
 30
0.0
 10
15.1510621221
 20
10.7226947847
 30
0.0
 10
15.1548561547
 20
10.7142454067
 30
0.0
 10
15.1585834871
 20
10.7054465944
 30
0.0
 10
15.1622425831
 20
10.696301945
 30
0.0
 10
15.1658320024
 20
10.6868152215
 30
0.0
 10
15.1693502004
 20
10.6769902922
 30
0.0
 10
15.1727957599
 20
10.6668311978
 30
0.0
 10
15.1761672845
 20
10.6563421195
 30
0.0
 10
15.1794633387
 20
10.6455273378
 30
0.0
 10
15.1838079036
 20
10.6304984318
 30
0.0
 10
15.1890279158
 20
10.610923359
 30
0.0
 10
15.194897209
 20
10.5864804845
 30
0.0
 10
15.2004348116
 20
10.5608510061
 30
0.0
 10
15.2056315233
 20
10.5340771389
 30
0.0
 10
15.2104787034
 20
10.5062028333
 30
0.0
 10
15.214968271
 20
10.4772739407
 30
0.0
 10
15.2190927211
 20
10.4473380631
 30
0.0
 10
15.2228451994
 20
10.4164445074
 30
0.0
 10
15.2262194605
 20
10.3846441785
 30
0.0
 10
15.2292098681
 20
10.3519894804
 30
0.0
 10
15.2318114238
 20
10.3185342548
 30
0.0
 10
15.2340198192
 20
10.2843336567
 30
0.0
 10
15.2358313618
 20
10.2494440877
 30
0.0
 10
15.237243001
 20
10.2139232214
 30
0.0
 10
15.2382524358
 20
10.1778292283
 30
0.0
 10
15.2388578816
 20
10.1412222391
 30
0.0
 10
15.2389908398
 20
10.1166524191
 30
0.0
 10
15.2389908398
 20
10.1042930931
 30
0.0
  0
SPLINE
  5
3B8
100
AcDbEntity
  8
0
100
AcDbSpline
 62
7
  6
CONTINUOUS
 70
0
 71
3
 72
51
 73
47
 74
0
 42
0.0000001
 43
0.0000001
 44
0.0000000001
 40
0.0
 40
0.0
 40
0.0
 40
0.0
 40
0.0063707753
 40
0.0128829018
 40
0.019564233
 40
0.0264402671
 40
0.0335341681
 40
0.0408667488
 40
0.0484564441
 40
0.0563195793
 40
0.064470468
 40
0.0729214683
 40
0.0816833226
 40
0.0907652406
 40
0.1001749487
 40
0.1099190195
 40
0.1200028981
 40
0.1304309253
 40
0.1412066356
 40
0.1523327274
 40
0.1638110674
 40
0.1756429577
 40
0.1878290611
 40
0.200369399
 40
0.2132635921
 40
0.2265107519
 40
0.2540572999
 40
0.2829946583
 40
0.3133018467
 40
0.3449529265
 40
0.3779176998
 40
0.4121620285
 40
0.4476481931
 40
0.4843353586
 40
0.5221797387
 40
0.561134793
 40
0.6011515804
 40
0.6421788674
 40
0.6841632597
 40
0.7270494538
 40
0.7707803547
 40
0.8152973487
 40
0.860539919
 40
0.906446229
 40
0.9529557293
 40
1.0
 40
1.0
 40
1.0
 40
1.0
 10
15.0431992041
 20
10.8135851469
 30
0.0
 10
15.0447066954
 20
10.8130784074
 30
0.0
 10
15.0477185476
 20
10.8119414979
 30
0.0
 10
15.0521595235
 20
10.8099004716
 30
0.0
 10
15.0565657176
 20
10.8075083651
 30
0.0
 10
15.0609352795
 20
10.8047666075
 30
0.0
 10
15.0652667722
 20
10.8016764025
 30
0.0
 10
15.0695586612
 20
10.7982390532
 30
0.0
 10
15.0738095972
 20
10.7944560712
 30
0.0
 10
15.0780181317
 20
10.7903289115
 30
0.0
 10
15.0821828108
 20
10.7858591246
 30
0.0
 10
15.0863023017
 20
10.7810484649
 30
0.0
 10
15.0903751533
 20
10.7758986809
 30
0.0
 10
15.0943999161
 20
10.7704116485
 30
0.0
 10
15.0983752528
 20
10.7645894363
 30
0.0
 10
15.1022997094
 20
10.7584341452
 30
0.0
 10
15.1061718534
 20
10.751948017
 30
0.0
 10
15.1099903587
 20
10.7451334707
 30
0.0
 10
15.1137537925
 20
10.7379929802
 30
0.0
 10
15.1174607613
 20
10.7305291627
 30
0.0
 10
15.1211099708
 20
10.7227447962
 30
0.0
 10
15.1247000303
 20
10.7146427272
 30
0.0
 10
15.1282296043
 20
10.7062259415
 30
0.0
 10
15.1316974389
 20
10.6974975755
 30
0.0
 10
15.1351022269
 20
10.6884608249
 30
0.0
 10
15.1396149872
 20
10.6758403601
 30
0.0
 10
15.1450766718
 20
10.6593087479
 30
0.0
 10
15.1512770524
 20
10.6385458857
 30
0.0
 10
15.1571970417
 20
10.6166383249
 30
0.0
 10
15.1628278138
 20
10.5936185849
 30
0.0
 10
15.1681608939
 20
10.5695206316
 30
0.0
 10
15.173188273
 20
10.544380167
 30
0.0
 10
15.1779024399
 20
10.5182344734
 30
0.0
 10
15.1822962851
 20
10.4911223522
 30
0.0
 10
15.1863631948
 20
10.4630840706
 30
0.0
 10
15.1900970961
 20
10.4341613047
 30
0.0
 10
15.1934923582
 20
10.404397054
 30
0.0
 10
15.1965438616
 20
10.3738355822
 30
0.0
 10
15.199247056
 20
10.3425223623
 30
0.0
 10
15.2015978653
 20
10.3105039945
 30
0.0
 10
15.2035927385
 20
10.2778280975
 30
0.0
 10
15.2052286938
 20
10.2445433445
 30
0.0
 10
15.2065032726
 20
10.2106993795
 30
0.0
 10
15.2074145574
 20
10.1763461238
 30
0.0
 10
15.2079611071
 20
10.1415353674
 30
0.0
 10
15.20808121
 20
10.1181806801
 30
0.0
 10
15.20808121
 20
10.1064366832
 30
0.0
  0
SPLINE
  5
3B9
100
AcDbEntity
  8
0
100
AcDbSpline
 62
7
  6
CONTINUOUS
 70
0
 71
3
 72
59
 73
55
 74
0
 42
0.0000001
 43
0.0000001
 44
0.0000000001
 40
0.0
 40
0.0
 40
0.0
 40
0.0
 40
0.0095825291
 40
0.018737114
 40
0.0274869222
 40
0.0358596822
 40
0.0438879053
 40
0.0516092972
 40
0.0590670962
 40
0.0663098064
 40
0.0733909587
 40
0.0803681787
 40
0.0873019208
 40
0.0942538926
 40
0.1012852767
 40
0.1084550421
 40
0.1158184846
 40
0.1234263123
 40
0.1313238812
 40
0.1395511711
 40
0.1481428378
 40
0.1571284113
 40
0.1665329868
 40
0.176377389
 40
0.1866788452
 40
0.1974514486
 40
0.2087063061
 40
0.2204522604
 40
0.2326958818
 40
0.2454418428
 40
0.2586932973
 40
0.2724517127
 40
0.2867174216
 40
0.301489527
 40
0.3167659921
 40
0.3325440136
 40
0.3488197128
 40
0.3655885371
 40
0.3828452229
 40
0.4005836873
 40
0.4187974181
 40
0.4374791579
 40
0.4762144678
 40
0.5167225587
 40
0.5589282497
 40
0.6027498588
 40
0.6480997975
 40
0.6948852306
 40
0.7430085283
 40
0.7923678373
 40
0.8428575417
 40
0.8943674805
 40
0.9467879682
 40
1.0
 40
1.0
 40
1.0
 40
1.0
 10
14.9638396293
 20
10.5176589407
 30
0.0
 10
14.965217853
 20
10.5189416551
 30
0.0
 10
14.9679730549
 20
10.5213862109
 30
0.0
 10
14.9722003696
 20
10.5247516091
 30
0.0
 10
14.976423334
 20
10.5277275227
 30
0.0
 10
14.9806395875
 20
10.5303119432
 30
0.0
 10
14.9848469997
 20
10.53250303
 30
0.0
 10
14.9890433886
 20
10.5342988598
 30
0.0
 10
14.9932263239
 20
10.5356978832
 30
0.0
 10
14.9973933004
 20
10.5366983404
 30
0.0
 10
15.0015414281
 20
10.5372989147
 30
0.0
 10
15.0056675606
 20
10.5374986592
 30
0.0
 10
15.0097683071
 20
10.5372968809
 30
0.0
 10
15.013840198
 20
10.5366939045
 30
0.0
 10
15.0178798508
 20
10.5356903215
 30
0.0
 10
15.0218841287
 20
10.5342874152
 30
0.0
 10
15.0258503103
 20
10.5324869465
 30
0.0
 10
15.029775861
 20
10.530290619
 30
0.0
 10
15.0336586874
 20
10.5277005944
 30
0.0
 10
15.0374967549
 20
10.5247188706
 30
0.0
 10
15.0412881123
 20
10.5213475479
 30
0.0
 10
15.0450309877
 20
10.5175889363
 30
0.0
 10
15.0487233795
 20
10.5134452545
 30
0.0
 10
15.0523634717
 20
10.5089190577
 30
0.0
 10
15.0559493393
 20
10.5040129888
 30
0.0
 10
15.0594789647
 20
10.4987298588
 30
0.0
 10
15.062950516
 20
10.4930727963
 30
0.0
 10
15.0663619374
 20
10.4870450282
 30
0.0
 10
15.0697113261
 20
10.4806500841
 30
0.0
 10
15.072996787
 20
10.4738917008
 30
0.0
 10
15.0762163132
 20
10.4667737953
 30
0.0
 10
15.0793681273
 20
10.459300577
 30
0.0
 10
15.0824503072
 20
10.4514764142
 30
0.0
 10
15.0854610332
 20
10.4433059168
 30
0.0
 10
15.0883985846
 20
10.4347939158
 30
0.0
 10
15.0912611221
 20
10.4259454183
 30
0.0
 10
15.0940470256
 20
10.4167656749
 30
0.0
 10
15.0967546062
 20
10.4072601132
 30
0.0
 10
15.0993822198
 20
10.3974343608
 30
0.0
 10
15.1019283692
 20
10.3872942552
 30
0.0
 10
15.1043914738
 20
10.3768457899
 30
0.0
 10
15.107601693
 20
10.3623363209
 30
0.0
 10
15.111384772
 20
10.3434692638
 30
0.0
 10
15.1155183141
 20
10.3199656303
 30
0.0
 10
15.1192886363
 20
10.2953895874
 30
0.0
 10
15.122686655
 20
10.269799531
 30
0.0
 10
15.1257041769
 20
10.2432561442
 30
0.0
 10
15.1283339242
 20
10.2158224772
 30
0.0
 10
15.1305695511
 20
10.1875636972
 30
0.0
 10
15.1324056516
 20
10.1585469279
 30
0.0
 10
15.1338377599
 20
10.1288412959
 30
0.0
 10
15.1348624974
 20
10.0985170584
 30
0.0
 10
15.1354772545
 20
10.0676468539
 30
0.0
 10
15.1356119372
 20
10.0468918576
 30
0.0
 10
15.1356119372
 20
10.0364367368
 30
0.0
  0
SPLINE
  5
3BA
100
AcDbEntity
  8
0
100
AcDbSpline
 62
7
  6
CONTINUOUS
 70
0
 71
3
 72
49
 73
45
 74
0
 42
0.0000001
 43
0.0000001
 44
0.0000000001
 40
0.0
 40
0.0
 40
0.0
 40
0.0
 40
0.0063158739
 40
0.0126706614
 40
0.0191024887
 40
0.025648017
 40
0.0323418974
 40
0.0392162388
 40
0.0536140346
 40
0.0611947609
 40
0.0690564797
 40
0.0772175905
 40
0.0856939922
 40
0.0944993482
 40
0.1036454535
 40
0.1131422449
 40
0.1229979708
 40
0.1332195757
 40
0.1438126963
 40
0.1547816923
 40
0.1661300203
 40
0.1778602367
 40
0.1899739013
 40
0.2153533332
 40
0.2422691153
 40
0.2707114005
 40
0.3006623333
 40
0.3320975524
 40
0.3649868235
 40
0.3992946402
 40
0.434981104
 40
0.472002035
 40
0.510309514
 40
0.5498523452
 40
0.5905760178
 40
0.6324232721
 40
0.6753342484
 40
0.7192464705
 40
0.7640954863
 40
0.8098148725
 40
0.8563355218
 40
0.9035875905
 40
0.9515022409
 40
1.0
 40
1.0
 40
1.0
 40
1.0
 10
14.9360989468
 20
10.4721882983
 30
0.0
 10
14.9371130594
 20
10.4721179773
 30
0.0
 10
14.9391427421
 20
10.4718938938
 30
0.0
 10
14.942164509
 20
10.471309737
 30
0.0
 10
14.945166084
 20
10.4704776754
 30
0.0
 10
14.9481457154
 20
10.4693983413
 30
0.0
 10
14.951102202
 20
10.468072284
 30
0.0
 10
14.9550719835
 20
10.46594427
 30
0.0
 10
14.9589339763
 20
10.463339275
 30
0.0
 10
14.9626713644
 20
10.4603204507
 30
0.0
 10
14.9654943887
 20
10.4577752656
 30
0.0
 10
14.9682872445
 20
10.4549895253
 30
0.0
 10
14.9710492405
 20
10.4519642402
 30
0.0
 10
14.9737792989
 20
10.4487007606
 30
0.0
 10
14.9764763608
 20
10.4452003604
 30
0.0
 10
14.9791393871
 20
10.4414644762
 30
0.0
 10
14.9817673962
 20
10.43749466
 30
0.0
 10
14.9843593146
 20
10.4332924891
 30
0.0
 10
14.9869140946
 20
10.428859658
 30
0.0
 10
14.9894307728
 20
10.424198001
 30
0.0
 10
14.9919083022
 20
10.4193093971
 30
0.0
 10
14.9943456708
 20
10.414195809
 30
0.0
 10
14.9975911613
 20
10.4069678977
 30
0.0
 10
15.0015297139
 20
10.3973751567
 30
0.0
 10
15.006009781
 20
10.3851742693
 30
0.0
 10
15.0103068496
 20
10.3721309171
 30
0.0
 10
15.0144139202
 20
10.35826647
 30
0.0
 10
15.0183241605
 20
10.3436034221
 30
0.0
 10
15.0220310677
 20
10.3281657417
 30
0.0
 10
15.0255285352
 20
10.3119787111
 30
0.0
 10
15.0288106796
 20
10.2950688818
 30
0.0
 10
15.03187206
 20
10.2774640381
 30
0.0
 10
15.0347075994
 20
10.2591931343
 30
0.0
 10
15.0373125152
 20
10.2402862391
 30
0.0
 10
15.0396825172
 20
10.2207744917
 30
0.0
 10
15.0418136452
 20
10.2006900382
 30
0.0
 10
15.0437023114
 20
10.1800659855
 30
0.0
 10
15.0453454242
 20
10.158936334
 30
0.0
 10
15.0467402089
 20
10.1373358986
 30
0.0
 10
15.0478843207
 20
10.1153003632
 30
0.0
 10
15.0487759119
 20
10.0928661121
 30
0.0
 10
15.0494134508
 20
10.0700697502
 30
0.0
 10
15.0497958203
 20
10.0469494678
 30
0.0
 10
15.0498798072
 20
10.0314316282
 30
0.0
 10
15.0498798072
 20
10.0236258533
 30
0.0
  0
SPLINE
  5
3BB
100
AcDbEntity
  8
0
100
AcDbSpline
 62
7
  6
CONTINUOUS
 70
0
 71
3
 72
39
 73
35
 74
0
 42
0.0000001
 43
0.0000001
 44
0.0000000001
 40
0.0
 40
0.0
 40
0.0
 40
0.0
 40
0.0299424689
 40
0.059909316
 40
0.0899243238
 40
0.120010106
 40
0.150187569
 40
0.1804754262
 40
0.2108897768
 40
0.2414437599
 40
0.2721472906
 40
0.3030068794
 40
0.3340255372
 40
0.3652027613
 40
0.3965346002
 40
0.4280137884
 40
0.4596299473
 40
0.4913698423
 40
0.5232176895
 40
0.5551555049
 40
0.5871634868
 40
0.6192204263
 40
0.6513041383
 40
0.683391905
 40
0.7154609283
 40
0.7474887827
 40
0.7794538622
 40
0.8113358179
 40
0.8431159726
 40
0.8747777271
 40
0.9063068788
 40
0.9376920781
 40
0.9689247389
 40
1.0
 40
1.0
 40
1.0
 40
1.0
 10
13.9823195505
 20
7.5254609419
 30
0.0
 10
13.9766127018
 20
7.5199485829
 30
0.0
 10
13.9647502098
 20
7.509368797
 30
0.0
 10
13.9457447159
 20
7.494955679
 30
0.0
 10
13.9256245502
 20
7.4820713144
 30
0.0
 10
13.9045021502
 20
7.4707879648
 30
0.0
 10
13.8824936405
 20
7.4611672783
 30
0.0
 10
13.8597204843
 20
7.4532621387
 30
0.0
 10
13.8363081743
 20
7.4471157989
 30
0.0
 10
13.8123856956
 20
7.4427618152
 30
0.0
 10
13.7880847606
 20
7.4402238376
 30
0.0
 10
13.7635390923
 20
7.4395155104
 30
0.0
 10
13.7388836851
 20
7.4406404117
 30
0.0
 10
13.7142540676
 20
7.4435920506
 30
0.0
 10
13.6897855641
 20
7.448353917
 30
0.0
 10
13.6656125599
 20
7.4548995838
 30
0.0
 10
13.641867773
 20
7.4631928602
 30
0.0
 10
13.6186815356
 20
7.4731879968
 30
0.0
 10
13.5961810895
 20
7.4848299397
 30
0.0
 10
13.5744898967
 20
7.4980546347
 30
0.0
 10
13.5537269716
 20
7.5127893781
 30
0.0
 10
13.5340062361
 20
7.5289532142
 30
0.0
 10
13.5154359018
 20
7.5464573764
 30
0.0
 10
13.4981178831
 20
7.5652057706
 30
0.0
 10
13.4821472436
 20
7.5850954972
 30
0.0
 10
13.4676116797
 20
7.6060174108
 30
0.0
 10
13.4545910425
 20
7.6278567108
 30
0.0
 10
13.4431569057
 20
7.6504935693
 30
0.0
 10
13.4333721664
 20
7.673803764
 30
0.0
 10
13.425290722
 20
7.6976594066
 30
0.0
 10
13.4189571222
 20
7.7219294369
 30
0.0
 10
13.4144064285
 20
7.7464810677
 30
0.0
 10
13.4116638283
 20
7.7711776988
 30
0.0
 10
13.4110495458
 20
7.7876948342
 30
0.0
 10
13.4110495458
 20
7.7959293794
 30
0.0
  0
SPLINE
  5
3BC
100
AcDbEntity
  8
0
100
AcDbSpline
 62
7
  6
CONTINUOUS
 70
0
 71
3
 72
54
 73
50
 74
0
 42
0.0000001
 43
0.0000001
 44
0.0000000001
 40
0.0
 40
0.0
 40
0.0
 40
0.0
 40
0.0054786382
 40
0.0111451209
 40
0.0170463838
 40
0.0232232994
 40
0.0297107791
 40
0.0365380479
 40
0.0437292527
 40
0.0513039949
 40
0.0592779745
 40
0.0676634951
 40
0.0764699612
 40
0.0857042883
 40
0.095371228
 40
0.1054736978
 40
0.1160129601
 40
0.1269889034
 40
0.1384001069
 40
0.1502440991
 40
0.1625173365
 40
0.1752154542
 40
0.1883331812
 40
0.2018645915
 40
0.2158029733
 40
0.2301410819
 40
0.2448709783
 40
0.2599842817
 40
0.2754719914
 40
0.2913247326
 40
0.3075325744
 40
0.3240852631
 40
0.3581814174
 40
0.3935236765
 40
0.4300166023
 40
0.467559963
 40
0.5060492806
 40
0.5453763452
 40
0.5854297056
 40
0.626095145
 40
0.667256144
 40
0.7087943377
 40
0.7505899645
 40
0.7925223196
 40
0.8344701847
 40
0.8763123191
 40
0.9179277767
 40
0.9591966638
 40
1.0
 40
1.0
 40
1.0
 40
1.0
 10
14.91179211
 20
8.9221073094
 30
0.0
 10
14.914050444
 20
8.9225231766
 30
0.0
 10
14.9186024922
 20
8.9236142549
 30
0.0
 10
14.9253617645
 20
8.9259606889
 30
0.0
 10
14.9321441591
 20
8.9290363245
 30
0.0
 10
14.9389439833
 20
8.9328367996
 30
0.0
 10
14.9457570639
 20
8.9373581772
 30
0.0
 10
14.9525790676
 20
8.9425961521
 30
0.0
 10
14.9594055928
 20
8.9485464025
 30
0.0
 10
14.9662321801
 20
8.9552041869
 30
0.0
 10
14.9730541585
 20
8.962564453
 30
0.0
 10
14.9798667715
 20
8.9706216467
 30
0.0
 10
14.9866651307
 20
8.9793697398
 30
0.0
 10
14.9934442587
 20
8.988802181
 30
0.0
 10
15.0001991502
 20
8.9989118739
 30
0.0
 10
15.0069247058
 20
9.0096912114
 30
0.0
 10
15.0136158865
 20
9.0211320202
 30
0.0
 10
15.0202675467
 20
9.0332256376
 30
0.0
 10
15.0268746703
 20
9.045962838
 30
0.0
 10
15.0334321188
 20
9.0593339278
 30
0.0
 10
15.0399349363
 20
9.0733286655
 30
0.0
 10
15.0463780297
 20
9.0879363607
 30
0.0
 10
15.0527565288
 20
9.1031457963
 30
0.0
 10
15.0590654159
 20
9.1189453229
 30
0.0
 10
15.0652999251
 20
9.1353227896
 30
0.0
 10
15.0714551384
 20
9.1522656288
 30
0.0
 10
15.0775264099
 20
9.1697607982
 30
0.0
 10
15.0835089424
 20
9.187794854
 30
0.0
 10
15.0893982246
 20
9.2063539075
 30
0.0
 10
15.0951895932
 20
9.2254236795
 30
0.0
 10
15.1008787068
 20
9.2449894944
 30
0.0
 10
15.1083959582
 20
9.2719850754
 30
0.0
 10
15.11749033
 20
9.3068640068
 30
0.0
 10
15.127823
 20
9.3500476059
 30
0.0
 10
15.1376477872
 20
9.3948298298
 30
0.0
 10
15.1469342408
 20
9.4410726942
 30
0.0
 10
15.1556535756
 20
9.4886338816
 30
0.0
 10
15.1637787823
 20
9.5373669033
 30
0.0
 10
15.1712847026
 20
9.5871216425
 30
0.0
 10
15.1781481073
 20
9.6377448019
 30
0.0
 10
15.1843477662
 20
9.6890803886
 30
0.0
 10
15.1898645118
 20
9.7409701979
 30
0.0
 10
15.194681299
 20
9.7932543072
 30
0.0
 10
15.1987832541
 20
9.8457715662
 30
0.0
 10
15.2021577275
 20
9.898360116
 30
0.0
 10
15.2047943166
 20
9.9508578335
 30
0.0
 10
15.2066849302
 20
10.0031029961
 30
0.0
 10
15.2078237603
 20
10.0549343694
 30
0.0
 10
15.20808121
 20
10.089334456
 30
0.0
 10
15.20808121
 20
10.1064366832
 30
0.0
  0
SPLINE
  5
3BD
100
AcDbEntity
  8
0
100
AcDbSpline
 62
7
  6
CONTINUOUS
 70
0
 71
3
 72
64
 73
60
 74
0
 42
0.0000001
 43
0.0000001
 44
0.0000000001
 40
0.0
 40
0.0
 40
0.0
 40
0.0
 40
0.0079606512
 40
0.0154473882
 40
0.0224990269
 40
0.0291639193
 40
0.0355011812
 40
0.0385697612
 40
0.0415836627
 40
0.044553254
 40
0.0474894177
 40
0.0504034625
 40
0.0533069748
 40
0.0562116741
 40
0.0591292706
 40
0.0620713018
 40
0.0650489912
 40
0.0680731367
 40
0.0711540068
 40
0.0775214098
 40
0.0842229507
 40
0.0913165721
 40
0.0988496791
 40
0.1068600767
 40
0.1153774302
 40
0.1244243125
 40
0.1340175944
 40
0.1441691192
 40
0.1548868108
 40
0.1661749875
 40
0.1780352173
 40
0.1904663999
 40
0.2034654246
 40
0.2170271378
 40
0.2311448406
 40
0.2458102252
 40
0.261013733
 40
0.2767445121
 40
0.2929906506
 40
0.3097391835
 40
0.3269762143
 40
0.3446869828
 40
0.3628558901
 40
0.381466627
 40
0.4005021199
 40
0.4199447097
 40
0.4599766616
 40
0.5014100009
 40
0.5440835828
 40
0.5878294097
 40
0.6324736943
 40
0.6778378814
 40
0.7237396475
 40
0.7699938768
 40
0.8164136505
 40
0.8628111566
 40
0.9089988278
 40
0.9547898322
 40
1.0
 40
1.0
 40
1.0
 40
1.0
 10
14.8742772496
 20
9.2261982523
 30
0.0
 10
14.8758643243
 20
9.224246864
 30
0.0
 10
14.8790655596
 20
9.2205563589
 30
0.0
 10
14.8841136079
 20
9.2155409408
 30
0.0
 10
14.8892513911
 20
9.2112273572
 30
0.0
 10
14.8944743255
 20
9.207622139
 30
0.0
 10
14.8989430357
 20
9.2051867054
 30
0.0
 10
14.9025414997
 20
9.2036163046
 30
0.0
 10
14.9052284171
 20
9.2026307188
 30
0.0
 10
14.9079311379
 20
9.201825383
 30
0.0
 10
14.9106489413
 20
9.2012006379
 30
0.0
 10
14.913380955
 20
9.2007567158
 30
0.0
 10
14.9161263152
 20
9.2004937491
 30
0.0
 10
14.9188841463
 20
9.2004118517
 30
0.0
 10
14.9216535584
 20
9.2005111046
 30
0.0
 10
14.9244336731
 20
9.200791373
 30
0.0
 10
14.9272236138
 20
9.2012524681
 30
0.0
 10
14.9300226189
 20
9.2018942393
 30
0.0
 10
14.9338065103
 20
9.2030024212
 30
0.0
 10
14.9385715058
 20
9.2048595198
 30
0.0
 10
14.9442435915
 20
9.2077817618
 30
0.0
 10
14.9499286804
 20
9.211416604
 30
0.0
 10
14.9556214219
 20
9.2157587795
 30
0.0
 10
14.9613174318
 20
9.2208029106
 30
0.0
 10
14.967011603
 20
9.2265435307
 30
0.0
 10
14.9726988964
 20
9.2329744686
 30
0.0
 10
14.9783737114
 20
9.2400891585
 30
0.0
 10
14.9840305809
 20
9.2478801328
 30
0.0
 10
14.9896635802
 20
9.2563393802
 30
0.0
 10
14.9952670219
 20
9.2654579779
 30
0.0
 10
15.0008348599
 20
9.2752264007
 30
0.0
 10
15.0063613263
 20
9.2856342684
 30
0.0
 10
15.0118403881
 20
9.2966705763
 30
0.0
 10
15.0172662821
 20
9.308323535
 30
0.0
 10
15.022633071
 20
9.3205807254
 30
0.0
 10
15.0279350505
 20
9.3334290102
 30
0.0
 10
15.0331664323
 20
9.3468546293
 30
0.0
 10
15.0383216104
 20
9.3608431635
 30
0.0
 10
15.043394982
 20
9.3753795866
 30
0.0
 10
15.0483810732
 20
9.3904482655
 30
0.0
 10
15.0532744938
 20
9.406032985
 30
0.0
 10
15.0580699317
 20
9.4221169691
 30
0.0
 10
15.0627622331
 20
9.4386828926
 30
0.0
 10
15.0673462705
 20
9.4557129075
 30
0.0
 10
15.071817168
 20
9.4731886741
 30
0.0
 10
15.0776778838
 20
9.4972934479
 30
0.0
 10
15.0846725499
 20
9.5284031707
 30
0.0
 10
15.0924619985
 20
9.5668483575
 30
0.0
 10
15.099692848
 20
9.6065957155
 30
0.0
 10
15.1063337243
 20
9.6474738632
 30
0.0
 10
15.112355806
 20
9.6893066998
 30
0.0
 10
15.1177329865
 20
9.7319138998
 30
0.0
 10
15.1224419713
 20
9.7751117814
 30
0.0
 10
15.1264623826
 20
9.8187140889
 30
0.0
 10
15.1297768374
 20
9.8625328025
 30
0.0
 10
15.1323710395
 20
9.9063789755
 30
0.0
 10
15.1342338053
 20
9.9500635236
 30
0.0
 10
15.1353571731
 20
9.9933979624
 30
0.0
 10
15.1356119372
 20
10.0221518464
 30
0.0
 10
15.1356119372
 20
10.0364367368
 30
0.0
  0
SPLINE
  5
3BE
100
AcDbEntity
  8
0
100
AcDbSpline
 62
7
  6
CONTINUOUS
 70
0
 71
3
 72
54
 73
50
 74
0
 42
0.0000001
 43
0.0000001
 44
0.0000000001
 40
0.0
 40
0.0
 40
0.0
 40
0.0
 40
0.0053769186
 40
0.0108199428
 40
0.0163926243
 40
0.022153787
 40
0.0281561826
 40
0.0344456662
 40
0.0410613506
 40
0.0480357468
 40
0.0553956303
 40
0.0631625236
 40
0.0713535528
 40
0.0799820113
 40
0.0890578894
 40
0.0985884839
 40
0.1085785629
 40
0.1190310065
 40
0.1299467216
 40
0.1413252315
 40
0.1531645311
 40
0.1654615028
 40
0.1782118785
 40
0.1914104045
 40
0.2050509878
 40
0.2191266139
 40
0.2336296601
 40
0.2485516461
 40
0.2638836166
 40
0.279615865
 40
0.2957382482
 40
0.3122400189
 40
0.3463359012
 40
0.3818090716
 40
0.4185578996
 40
0.4564749399
 40
0.4954476046
 40
0.5353587867
 40
0.57608745
 40
0.6175091958
 40
0.659496813
 40
0.7019208221
 40
0.7446500046
 40
0.7875519534
 40
0.830493521
 40
0.8733415942
 40
0.9159628917
 40
0.9582262997
 40
1.0
 40
1.0
 40
1.0
 40
1.0
 10
14.8530780697
 20
9.2750636382
 30
0.0
 10
14.8545153872
 20
9.2749639712
 30
0.0
 10
14.8574220146
 20
9.2749307695
 30
0.0
 10
14.8618000313
 20
9.2753826501
 30
0.0
 10
14.8662024743
 20
9.2763344527
 30
0.0
 10
14.8706240558
 20
9.2777837355
 30
0.0
 10
14.8750610405
 20
9.2797278934
 30
0.0
 10
14.8795101289
 20
9.2821637982
 30
0.0
 10
14.8839681456
 20
9.2850887163
 30
0.0
 10
14.888432234
 20
9.2884994827
 30
0.0
 10
14.8928992597
 20
9.2923931382
 30
0.0
 10
14.8973661865
 20
9.2967662885
 30
0.0
 10
14.9018297414
 20
9.3016154003
 30
0.0
 10
14.9062865847
 20
9.3069365626
 30
0.0
 10
14.9107333479
 20
9.3127254805
 30
0.0
 10
14.9151664572
 20
9.318977556
 30
0.0
 10
14.9195825063
 20
9.3256876925
 30
0.0
 10
14.9239778034
 20
9.3328505287
 30
0.0
 10
14.9283489184
 20
9.3404601908
 30
0.0
 10
14.9326921564
 20
9.3485105303
 30
0.0
 10
14.9370040519
 20
9.3569949349
 30
0.0
 10
14.9412809911
 20
9.3659064799
 30
0.0
 10
14.9455194711
 20
9.3752378442
 30
0.0
 10
14.9497160011
 20
9.3849813591
 30
0.0
 10
14.9538670614
 20
9.3951290165
 30
0.0
 10
14.9579692907
 20
9.4056724438
 30
0.0
 10
14.9620191938
 20
9.4166029666
 30
0.0
 10
14.9660135189
 20
9.4279115502
 30
0.0
 10
14.9699488526
 20
9.439588877
 30
0.0
 10
14.9738220164
 20
9.4516252882
 30
0.0
 10
14.977629752
 20
9.464010861
 30
0.0
 10
14.9826702142
 20
9.481163929
 30
0.0
 10
14.9887732635
 20
9.5034071232
 30
0.0
 10
14.9957100587
 20
9.5310400999
 30
0.0
 10
15.0023142642
 20
9.5598058681
 30
0.0
 10
15.0085639031
 20
9.5896093138
 30
0.0
 10
15.0144381652
 20
9.6203520195
 30
0.0
 10
15.0199175075
 20
9.6519323703
 30
0.0
 10
15.0249837087
 20
9.6842459644
 30
0.0
 10
15.0296199296
 20
9.7171859462
 30
0.0
 10
15.0338107708
 20
9.7506433708
 30
0.0
 10
15.0375423197
 20
9.7845075666
 30
0.0
 10
15.0408021987
 20
9.8186665111
 30
0.0
 10
15.0435795958
 20
9.8530071879
 30
0.0
 10
15.0458653254
 20
9.8874160169
 30
0.0
 10
15.0476518004
 20
9.9217790744
 30
0.0
 10
15.0489331741
 20
9.955982871
 30
0.0
 10
15.049705167
 20
9.9899139436
 30
0.0
 10
15.0498798072
 20
10.0124324071
 30
0.0
 10
15.0498798072
 20
10.0236258533
 30
0.0
  0
SPLINE
  5
3BF
100
AcDbEntity
  8
0
100
AcDbSpline
 62
7
  6
CONTINUOUS
 70
0
 71
3
 72
58
 73
54
 74
0
 42
0.0000001
 43
0.0000001
 44
0.0000000001
 40
0.0
 40
0.0
 40
0.0
 40
0.0
 40
0.0417737373
 40
0.0840364485
 40
0.126657724
 40
0.1695054566
 40
0.2124468032
 40
0.2553484901
 40
0.298077421
 40
0.3405011733
 40
0.3824885338
 40
0.4239100241
 40
0.4646384356
 40
0.5045493696
 40
0.5435217891
 40
0.5814385861
 40
0.6181871714
 40
0.6536600995
 40
0.6708864646
 40
0.6877562952
 40
0.7042579614
 40
0.7203802099
 40
0.7361123688
 40
0.7514441951
 40
0.766366103
 40
0.7808690035
 40
0.7949445543
 40
0.8085850007
 40
0.8217834443
 40
0.8345336989
 40
0.8468305763
 40
0.8586697732
 40
0.8700481773
 40
0.8809638057
 40
0.8914161393
 40
0.9014061401
 40
0.9109366315
 40
0.9200124299
 40
0.9286407999
 40
0.9368317431
 40
0.9445985649
 40
0.9519583582
 40
0.9589326975
 40
0.9655482957
 40
0.9718377309
 40
0.9778400552
 40
0.9836011724
 40
0.9864084712
 40
0.989175789
 40
0.9919106562
 40
0.994620905
 40
0.9973146092
 40
1.0
 40
1.0
 40
1.0
 40
1.0
 10
15.2389908398
 20
7.0848086209
 30
0.0
 10
15.2389908398
 20
7.0670855174
 30
0.0
 10
15.2387143391
 20
7.031431299
 30
0.0
 10
15.2374919853
 20
6.9777069927
 30
0.0
 10
15.2354631731
 20
6.9235510283
 30
0.0
 10
15.2326345597
 20
6.869142699
 30
0.0
 10
15.2290154883
 20
6.8146619979
 30
0.0
 10
15.2246179234
 20
6.7602891683
 30
0.0
 10
15.219456432
 20
6.7062040984
 30
0.0
 10
15.2135481246
 20
6.6525857153
 30
0.0
 10
15.2069126038
 20
6.5996113927
 30
0.0
 10
15.1995718985
 20
6.5474563576
 30
0.0
 10
15.1915503926
 20
6.4962931072
 30
0.0
 10
15.182874746
 20
6.4462908247
 30
0.0
 10
15.1735738066
 20
6.3976148348
 30
0.0
 10
15.1636785243
 20
6.3504259603
 30
0.0
 10
15.1532218213
 20
6.3048802809
 30
0.0
 10
15.1439812936
 20
6.2680697349
 30
0.0
 10
15.1363218222
 20
6.2395646478
 30
0.0
 10
15.130514925
 20
6.2188975795
 30
0.0
 10
15.1245946067
 20
6.1987504866
 30
0.0
 10
15.1185656578
 20
6.1791400109
 30
0.0
 10
15.1124331808
 20
6.1600823532
 30
0.0
 10
15.1062021597
 20
6.1415932664
 30
0.0
 10
15.0998778651
 20
6.123688006
 30
0.0
 10
15.0934654335
 20
6.1063813661
 30
0.0
 10
15.0869702896
 20
6.0896876062
 30
0.0
 10
15.0803977037
 20
6.0736205083
 30
0.0
 10
15.0737532311
 20
6.0581932839
 30
0.0
 10
15.0670422569
 20
6.0434186518
 30
0.0
 10
15.0602704399
 20
6.0293087254
 30
0.0
 10
15.0534432565
 20
6.0158751112
 30
0.0
 10
15.046566436
 20
6.0031287757
 30
0.0
 10
15.0396455153
 20
5.9910801664
 30
0.0
 10
15.0326862498
 20
5.9797390581
 30
0.0
 10
15.0256941925
 20
5.969114697
 30
0.0
 10
15.0186750621
 20
5.9592156315
 30
0.0
 10
15.0116343599
 20
5.9500498779
 30
0.0
 10
15.0045776755
 20
5.9416247509
 30
0.0
 10
14.9975103573
 20
5.9339470503
 30
0.0
 10
14.9904377394
 20
5.9270229211
 30
0.0
 10
14.9833648987
 20
5.9208580655
 30
0.0
 10
14.9762967911
 20
5.9154576804
 30
0.0
 10
14.9692382319
 20
5.9108267012
 30
0.0
 10
14.9621937722
 20
5.9069698134
 30
0.0
 10
14.9551688871
 20
5.903891769
 30
0.0
 10
14.9492836377
 20
5.9019629299
 30
0.0
 10
14.9446082836
 20
5.9008274151
 30
0.0
 10
14.9411411646
 20
5.9001791638
 30
0.0
 10
14.9376845483
 20
5.8997274249
 30
0.0
 10
14.9342390996
 20
5.8994723542
 30
0.0
 10
14.9308057975
 20
5.8994139901
 30
0.0
 10
14.9285240167
 20
5.8995063116
 30
0.0
 10
14.9273874317
 20
5.8995851403
 30
0.0
  0
SPLINE
  5
3C0
100
AcDbEntity
  8
0
100
AcDbSpline
 62
7
  6
CONTINUOUS
 70
0
 71
3
 72
23
 73
19
 74
0
 42
0.0000001
 43
0.0000001
 44
0.0000000001
 40
0.0
 40
0.0
 40
0.0
 40
0.0
 40
0.0637757517
 40
0.1273453038
 40
0.1907021142
 40
0.2538559682
 40
0.3168132565
 40
0.3795821027
 40
0.442173382
 40
0.5045993411
 40
0.5668738656
 40
0.6290123776
 40
0.6910316412
 40
0.7529496359
 40
0.8147853464
 40
0.8765585919
 40
0.9382898467
 40
1.0
 40
1.0
 40
1.0
 40
1.0
 10
13.4110495458
 20
7.7959293794
 30
0.0
 10
13.4110495458
 20
7.8012367979
 30
0.0
 10
13.4113036367
 20
7.8118362719
 30
0.0
 10
13.4124501844
 20
7.8276709694
 30
0.0
 10
13.4143593079
 20
7.8433802276
 30
0.0
 10
13.4170264387
 20
7.8589269509
 30
0.0
 10
13.4204454677
 20
7.8742757591
 30
0.0
 10
13.4246085751
 20
7.8893911693
 30
0.0
 10
13.4295062528
 20
7.9042382934
 30
0.0
 10
13.4351271747
 20
7.9187829328
 30
0.0
 10
13.4414583909
 20
7.9329915534
 30
0.0
 10
13.4484854279
 20
7.9468313344
 30
0.0
 10
13.4561920302
 20
7.9602703804
 30
0.0
 10
13.464560425
 20
7.9732777176
 30
0.0
 10
13.4735713941
 20
7.9858232477
 30
0.0
 10
13.4832042129
 20
7.9978781583
 30
0.0
 10
13.4934362391
 20
8.0094143134
 30
0.0
 10
13.5006427921
 20
8.0167427584
 30
0.0
 10
13.504336549
 20
8.0203106318
 30
0.0
  0
SPLINE
  5
3C1
100
AcDbEntity
  8
0
100
AcDbSpline
 62
7
  6
CONTINUOUS
 70
0
 71
3
 72
53
 73
49
 74
0
 42
0.0000001
 43
0.0000001
 44
0.0000000001
 40
0.0
 40
0.0
 40
0.0
 40
0.0
 40
0.0063158443
 40
0.0126706032
 40
0.0191024038
 40
0.0256479293
 40
0.0323417853
 40
0.0392160999
 40
0.0536138948
 40
0.0611945917
 40
0.0690563434
 40
0.0772174261
 40
0.0856937972
 40
0.0944991824
 40
0.1036452589
 40
0.1131420192
 40
0.1229977586
 40
0.133219338
 40
0.1438124256
 40
0.1547814115
 40
0.1661297224
 40
0.1778598996
 40
0.1899735277
 40
0.2024715474
 40
0.2153541861
 40
0.2286209712
 40
0.2422709812
 40
0.2563026796
 40
0.2707140367
 40
0.285502677
 40
0.3006656816
 40
0.3321007977
 40
0.3649898962
 40
0.3992976051
 40
0.4349839194
 40
0.4720046713
 40
0.5103119934
 40
0.5498546246
 40
0.5905781197
 40
0.6324251754
 40
0.6753358979
 40
0.7192479639
 40
0.7640967365
 40
0.8098157317
 40
0.8563364697
 40
0.9035882633
 40
0.9515016804
 40
1.0
 40
1.0
 40
1.0
 40
1.0
 10
15.058838468
 20
7.7950324654
 30
0.0
 10
15.0604441424
 20
7.7949211026
 30
0.0
 10
15.0636577938
 20
7.7945662308
 30
0.0
 10
15.0684422458
 20
7.7936412986
 30
0.0
 10
15.0731947408
 20
7.7923238574
 30
0.0
 10
15.0779124459
 20
7.7906147823
 30
0.0
 10
15.0825935504
 20
7.788515194
 30
0.0
 10
15.0888790411
 20
7.7851458172
 30
0.0
 10
15.0949937918
 20
7.7810211252
 30
0.0
 10
15.1009113645
 20
7.776241331
 30
0.0
 10
15.1053810751
 20
7.7722113475
 30
0.0
 10
15.1098031142
 20
7.7678005939
 30
0.0
 10
15.1141762836
 20
7.7630105469
 30
0.0
 10
15.1184988106
 20
7.7578432984
 30
0.0
 10
15.122769171
 20
7.7523009905
 30
0.0
 10
15.1269856298
 20
7.7463858257
 30
0.0
 10
15.1311465975
 20
7.7401002369
 30
0.0
 10
15.1352504683
 20
7.7334467844
 30
0.0
 10
15.1392955312
 20
7.7264281214
 30
0.0
 10
15.1432802451
 20
7.7190471386
 30
0.0
 10
15.1472029891
 20
7.7113068254
 30
0.0
 10
15.1510621221
 20
7.7032103125
 30
0.0
 10
15.1548561547
 20
7.6947609346
 30
0.0
 10
15.1585834871
 20
7.6859621222
 30
0.0
 10
15.1622425831
 20
7.6768174728
 30
0.0
 10
15.1658320024
 20
7.6673307493
 30
0.0
 10
15.1693502004
 20
7.65750582
 30
0.0
 10
15.1727957599
 20
7.6473467257
 30
0.0
 10
15.1761672845
 20
7.6368576473
 30
0.0
 10
15.1794633387
 20
7.6260428656
 30
0.0
 10
15.1838079036
 20
7.6110139596
 30
0.0
 10
15.1890279158
 20
7.5914388868
 30
0.0
 10
15.194897209
 20
7.5669960123
 30
0.0
 10
15.2004348116
 20
7.5413665339
 30
0.0
 10
15.2056315233
 20
7.5145926667
 30
0.0
 10
15.2104787034
 20
7.4867183612
 30
0.0
 10
15.214968271
 20
7.4577894686
 30
0.0
 10
15.2190927211
 20
7.4278535909
 30
0.0
 10
15.2228451994
 20
7.3969600352
 30
0.0
 10
15.2262194605
 20
7.3651597064
 30
0.0
 10
15.2292098681
 20
7.3325050082
 30
0.0
 10
15.2318114238
 20
7.2990497826
 30
0.0
 10
15.2340198192
 20
7.2648491845
 30
0.0
 10
15.2358313618
 20
7.2299596155
 30
0.0
 10
15.237243001
 20
7.1944387492
 30
0.0
 10
15.2382524358
 20
7.1583447561
 30
0.0
 10
15.2388578816
 20
7.1217377669
 30
0.0
 10
15.2389908398
 20
7.0971679469
 30
0.0
 10
15.2389908398
 20
7.0848086209
 30
0.0
  0
SPLINE
  5
3C2
100
AcDbEntity
  8
0
100
AcDbSpline
 62
7
  6
CONTINUOUS
 70
0
 71
3
 72
51
 73
47
 74
0
 42
0.0000001
 43
0.0000001
 44
0.0000000001
 40
0.0
 40
0.0
 40
0.0
 40
0.0
 40
0.0063707753
 40
0.0128829018
 40
0.019564233
 40
0.0264402671
 40
0.0335341681
 40
0.0408667488
 40
0.0484564441
 40
0.0563195793
 40
0.064470468
 40
0.0729214683
 40
0.0816833226
 40
0.0907652406
 40
0.1001749487
 40
0.1099190195
 40
0.1200028981
 40
0.1304309253
 40
0.1412066356
 40
0.1523327274
 40
0.1638110674
 40
0.1756429577
 40
0.1878290611
 40
0.200369399
 40
0.2132635921
 40
0.2265107519
 40
0.2540572999
 40
0.2829946583
 40
0.3133018467
 40
0.3449529265
 40
0.3779176998
 40
0.4121620285
 40
0.4476481931
 40
0.4843353586
 40
0.5221797387
 40
0.561134793
 40
0.6011515804
 40
0.6421788674
 40
0.6841632597
 40
0.7270494538
 40
0.7707803547
 40
0.8152973487
 40
0.860539919
 40
0.906446229
 40
0.9529557293
 40
1.0
 40
1.0
 40
1.0
 40
1.0
 10
15.0431992041
 20
7.7941006747
 30
0.0
 10
15.0447066954
 20
7.7935939352
 30
0.0
 10
15.0477185476
 20
7.7924570257
 30
0.0
 10
15.0521595235
 20
7.7904159995
 30
0.0
 10
15.0565657176
 20
7.7880238929
 30
0.0
 10
15.0609352795
 20
7.7852821353
 30
0.0
 10
15.0652667722
 20
7.7821919303
 30
0.0
 10
15.0695586612
 20
7.778754581
 30
0.0
 10
15.0738095972
 20
7.774971599
 30
0.0
 10
15.0780181317
 20
7.7708444394
 30
0.0
 10
15.0821828108
 20
7.7663746524
 30
0.0
 10
15.0863023017
 20
7.7615639927
 30
0.0
 10
15.0903751533
 20
7.7564142087
 30
0.0
 10
15.0943999161
 20
7.7509271763
 30
0.0
 10
15.0983752528
 20
7.7451049642
 30
0.0
 10
15.1022997094
 20
7.7389496731
 30
0.0
 10
15.1061718534
 20
7.7324635449
 30
0.0
 10
15.1099903587
 20
7.7256489986
 30
0.0
 10
15.1137537925
 20
7.718508508
 30
0.0
 10
15.1174607613
 20
7.7110446905
 30
0.0
 10
15.1211099708
 20
7.703260324
 30
0.0
 10
15.1247000303
 20
7.695158255
 30
0.0
 10
15.1282296043
 20
7.6867414694
 30
0.0
 10
15.1316974389
 20
7.6780131034
 30
0.0
 10
15.1351022269
 20
7.6689763527
 30
0.0
 10
15.1396149872
 20
7.6563558879
 30
0.0
 10
15.1450766718
 20
7.6398242757
 30
0.0
 10
15.1512770524
 20
7.6190614135
 30
0.0
 10
15.1571970417
 20
7.5971538528
 30
0.0
 10
15.1628278138
 20
7.5741341128
 30
0.0
 10
15.1681608939
 20
7.5500361595
 30
0.0
 10
15.173188273
 20
7.5248956948
 30
0.0
 10
15.1779024399
 20
7.4987500013
 30
0.0
 10
15.1822962851
 20
7.4716378801
 30
0.0
 10
15.1863631948
 20
7.4435995984
 30
0.0
 10
15.1900970961
 20
7.4146768325
 30
0.0
 10
15.1934923582
 20
7.3849125818
 30
0.0
 10
15.1965438616
 20
7.35435111
 30
0.0
 10
15.199247056
 20
7.3230378901
 30
0.0
 10
15.2015978653
 20
7.2910195223
 30
0.0
 10
15.2035927385
 20
7.2583436253
 30
0.0
 10
15.2052286938
 20
7.2250588723
 30
0.0
 10
15.2065032726
 20
7.1912149073
 30
0.0
 10
15.2074145574
 20
7.1568616517
 30
0.0
 10
15.2079611071
 20
7.1220508952
 30
0.0
 10
15.20808121
 20
7.0986962079
 30
0.0
 10
15.20808121
 20
7.086952211
 30
0.0
  0
SPLINE
  5
3C3
100
AcDbEntity
  8
0
100
AcDbSpline
 62
7
  6
CONTINUOUS
 70
0
 71
3
 72
59
 73
55
 74
0
 42
0.0000001
 43
0.0000001
 44
0.0000000001
 40
0.0
 40
0.0
 40
0.0
 40
0.0
 40
0.0095825291
 40
0.018737114
 40
0.0274869222
 40
0.0358596822
 40
0.0438879053
 40
0.0516092972
 40
0.0590670962
 40
0.0663098064
 40
0.0733909587
 40
0.0803681787
 40
0.0873019208
 40
0.0942538926
 40
0.1012852767
 40
0.1084550421
 40
0.1158184846
 40
0.1234263123
 40
0.1313238812
 40
0.1395511711
 40
0.1481428378
 40
0.1571284113
 40
0.1665329868
 40
0.176377389
 40
0.1866788452
 40
0.1974514486
 40
0.2087063061
 40
0.2204522604
 40
0.2326958818
 40
0.2454418428
 40
0.2586932973
 40
0.2724517127
 40
0.2867174216
 40
0.301489527
 40
0.3167659921
 40
0.3325440136
 40
0.3488197128
 40
0.3655885371
 40
0.3828452229
 40
0.4005836873
 40
0.4187974181
 40
0.4374791579
 40
0.4762144678
 40
0.5167225587
 40
0.5589282497
 40
0.6027498588
 40
0.6480997975
 40
0.6948852306
 40
0.7430085283
 40
0.7923678373
 40
0.8428575417
 40
0.8943674805
 40
0.9467879682
 40
1.0
 40
1.0
 40
1.0
 40
1.0
 10
14.9638396293
 20
7.4981744685
 30
0.0
 10
14.965217853
 20
7.499457183
 30
0.0
 10
14.9679730549
 20
7.5019017387
 30
0.0
 10
14.9722003696
 20
7.5052671369
 30
0.0
 10
14.976423334
 20
7.5082430505
 30
0.0
 10
14.9806395875
 20
7.510827471
 30
0.0
 10
14.9848469997
 20
7.5130185579
 30
0.0
 10
14.9890433886
 20
7.5148143876
 30
0.0
 10
14.9932263239
 20
7.516213411
 30
0.0
 10
14.9973933004
 20
7.5172138682
 30
0.0
 10
15.0015414281
 20
7.5178144425
 30
0.0
 10
15.0056675606
 20
7.518014187
 30
0.0
 10
15.0097683071
 20
7.5178124087
 30
0.0
 10
15.013840198
 20
7.5172094323
 30
0.0
 10
15.0178798508
 20
7.5162058494
 30
0.0
 10
15.0218841287
 20
7.514802943
 30
0.0
 10
15.0258503103
 20
7.5130024743
 30
0.0
 10
15.029775861
 20
7.5108061469
 30
0.0
 10
15.0336586874
 20
7.5082161223
 30
0.0
 10
15.0374967549
 20
7.5052343985
 30
0.0
 10
15.0412881123
 20
7.5018630757
 30
0.0
 10
15.0450309877
 20
7.4981044641
 30
0.0
 10
15.0487233795
 20
7.4939607823
 30
0.0
 10
15.0523634717
 20
7.4894345855
 30
0.0
 10
15.0559493393
 20
7.4845285166
 30
0.0
 10
15.0594789647
 20
7.4792453866
 30
0.0
 10
15.062950516
 20
7.4735883242
 30
0.0
 10
15.0663619374
 20
7.4675605561
 30
0.0
 10
15.0697113261
 20
7.4611656119
 30
0.0
 10
15.072996787
 20
7.4544072286
 30
0.0
 10
15.0762163132
 20
7.4472893231
 30
0.0
 10
15.0793681273
 20
7.4398161049
 30
0.0
 10
15.0824503072
 20
7.4319919421
 30
0.0
 10
15.0854610332
 20
7.4238214446
 30
0.0
 10
15.0883985846
 20
7.4153094436
 30
0.0
 10
15.0912611221
 20
7.4064609461
 30
0.0
 10
15.0940470256
 20
7.3972812027
 30
0.0
 10
15.0967546062
 20
7.387775641
 30
0.0
 10
15.0993822198
 20
7.3779498886
 30
0.0
 10
15.1019283692
 20
7.367809783
 30
0.0
 10
15.1043914738
 20
7.3573613178
 30
0.0
 10
15.107601693
 20
7.3428518487
 30
0.0
 10
15.111384772
 20
7.3239847916
 30
0.0
 10
15.1155183141
 20
7.3004811581
 30
0.0
 10
15.1192886363
 20
7.2759051152
 30
0.0
 10
15.122686655
 20
7.2503150588
 30
0.0
 10
15.1257041769
 20
7.2237716721
 30
0.0
 10
15.1283339242
 20
7.1963380051
 30
0.0
 10
15.1305695511
 20
7.168079225
 30
0.0
 10
15.1324056516
 20
7.1390624557
 30
0.0
 10
15.1338377599
 20
7.1093568237
 30
0.0
 10
15.1348624974
 20
7.0790325863
 30
0.0
 10
15.1354772545
 20
7.0481623817
 30
0.0
 10
15.1356119372
 20
7.0274073854
 30
0.0
 10
15.1356119372
 20
7.0169522646
 30
0.0
  0
SPLINE
  5
3C4
100
AcDbEntity
  8
0
100
AcDbSpline
 62
7
  6
CONTINUOUS
 70
0
 71
3
 72
51
 73
47
 74
0
 42
0.0000001
 43
0.0000001
 44
0.0000000001
 40
0.0
 40
0.0
 40
0.0
 40
0.0
 40
0.0481977053
 40
0.095830135
 40
0.1428201362
 40
0.1890981738
 40
0.2345933851
 40
0.2792370546
 40
0.3229625179
 40
0.3657049562
 40
0.4074018956
 40
0.4479933021
 40
0.4874217525
 40
0.5256327531
 40
0.5625750279
 40
0.5982007274
 40
0.6324657774
 40
0.6653303865
 40
0.6967594376
 40
0.7267230069
 40
0.755197147
 40
0.7688706186
 40
0.7821659217
 40
0.7950822342
 40
0.8076192537
 40
0.8197772583
 40
0.831557354
 40
0.8429613076
 40
0.8539917351
 40
0.8646522838
 40
0.8749475169
 40
0.8848832127
 40
0.8944664754
 40
0.9037057278
 40
0.9126110859
 40
0.9211944161
 40
0.9294694595
 40
0.9374522112
 40
0.9451609368
 40
0.9598350083
 40
0.9668568308
 40
0.9737036631
 40
0.9804068758
 40
0.9870000868
 40
0.9935188331
 40
1.0
 40
1.0
 40
1.0
 40
1.0
 10
13.122601258
 20
11.5687938815
 30
0.0
 10
13.1338804217
 20
11.5680116688
 30
0.0
 10
13.1562979525
 20
11.5663304941
 30
0.0
 10
13.1896765996
 20
11.56343982
 30
0.0
 10
13.2225706358
 20
11.5601985617
 30
0.0
 10
13.2549244985
 20
11.55661229
 30
0.0
 10
13.2866845028
 20
11.5526869505
 30
0.0
 10
13.3177974409
 20
11.5484291695
 30
0.0
 10
13.3482113045
 20
11.5438461093
 30
0.0
 10
13.3778752781
 20
11.5389454415
 30
0.0
 10
13.4067397954
 20
11.5337354272
 30
0.0
 10
13.4347566493
 20
11.5282248347
 30
0.0
 10
13.4618790518
 20
11.5224229123
 30
0.0
 10
13.4880617351
 20
11.5163394129
 30
0.0
 10
13.5132610404
 20
11.5099845896
 30
0.0
 10
13.5374349683
 20
11.5033691271
 30
0.0
 10
13.5605432679
 20
11.4965041187
 30
0.0
 10
13.5825475146
 20
11.4894011203
 30
0.0
 10
13.6034112689
 20
11.4820720533
 30
0.0
 10
13.6230997703
 20
11.4745291979
 30
0.0
 10
13.6387044617
 20
11.4679904887
 30
0.0
 10
13.6505648298
 20
11.4626520244
 30
0.0
 10
13.6590257851
 20
11.4586566995
 30
0.0
 10
13.6671693709
 20
11.4546174998
 30
0.0
 10
13.6749922218
 20
11.4505360755
 30
0.0
 10
13.6824910619
 20
11.4464140679
 30
0.0
 10
13.6896628199
 20
11.4422532513
 30
0.0
 10
13.6965045168
 20
11.4380553117
 30
0.0
 10
13.7030133039
 20
11.4338219382
 30
0.0
 10
13.7091865387
 20
11.429554934
 30
0.0
 10
13.7150216422
 20
11.4252559733
 30
0.0
 10
13.7205162058
 20
11.420926791
 30
0.0
 10
13.7256680084
 20
11.4165691787
 30
0.0
 10
13.7304748614
 20
11.4121847818
 30
0.0
 10
13.7349347886
 20
11.4077753695
 30
0.0
 10
13.7390459735
 20
11.4033426446
 30
0.0
 10
13.7428065071
 20
11.3988883612
 30
0.0
 10
13.7462150725
 20
11.3944138175
 30
0.0
 10
13.7502216932
 20
11.3885216325
 30
0.0
 10
13.7536114184
 20
11.3824901739
 30
0.0
 10
13.7562970977
 20
11.3763521425
 30
0.0
 10
13.7579231906
 20
11.3718041618
 30
0.0
 10
13.7591891706
 20
11.3672472842
 30
0.0
 10
13.7600941317
 20
11.3626832859
 30
0.0
 10
13.7606373617
 20
11.3581148527
 30
0.0
 10
13.7607582476
 20
11.3550639628
 30
0.0
 10
13.7607582418
 20
11.3535436058
 30
0.0
  0
SPLINE
  5
3C5
100
AcDbEntity
  8
0
100
AcDbSpline
 62
7
  6
CONTINUOUS
 70
0
 71
3
 72
49
 73
45
 74
0
 42
0.0000001
 43
0.0000001
 44
0.0000000001
 40
0.0
 40
0.0
 40
0.0
 40
0.0
 40
0.0063158739
 40
0.0126706614
 40
0.0191024887
 40
0.025648017
 40
0.0323418974
 40
0.0392162388
 40
0.0536140346
 40
0.0611947609
 40
0.0690564797
 40
0.0772175905
 40
0.0856939922
 40
0.0944993482
 40
0.1036454535
 40
0.1131422449
 40
0.1229979708
 40
0.1332195757
 40
0.1438126963
 40
0.1547816923
 40
0.1661300203
 40
0.1778602367
 40
0.1899739013
 40
0.2153533332
 40
0.2422691153
 40
0.2707114005
 40
0.3006623333
 40
0.3320975524
 40
0.3649868235
 40
0.3992946402
 40
0.434981104
 40
0.472002035
 40
0.510309514
 40
0.5498523452
 40
0.5905760178
 40
0.6324232721
 40
0.6753342484
 40
0.7192464705
 40
0.7640954863
 40
0.8098148725
 40
0.8563355218
 40
0.9035875905
 40
0.9515022409
 40
1.0
 40
1.0
 40
1.0
 40
1.0
 10
14.9360989468
 20
7.4527038261
 30
0.0
 10
14.9371130594
 20
7.4526335051
 30
0.0
 10
14.9391427421
 20
7.4524094216
 30
0.0
 10
14.942164509
 20
7.4518252648
 30
0.0
 10
14.945166084
 20
7.4509932032
 30
0.0
 10
14.9481457154
 20
7.4499138691
 30
0.0
 10
14.951102202
 20
7.4485878119
 30
0.0
 10
14.9550719835
 20
7.4464597978
 30
0.0
 10
14.9589339763
 20
7.4438548029
 30
0.0
 10
14.9626713644
 20
7.4408359786
 30
0.0
 10
14.9654943887
 20
7.4382907935
 30
0.0
 10
14.9682872445
 20
7.4355050532
 30
0.0
 10
14.9710492405
 20
7.432479768
 30
0.0
 10
14.9737792989
 20
7.4292162885
 30
0.0
 10
14.9764763608
 20
7.4257158882
 30
0.0
 10
14.9791393871
 20
7.421980004
 30
0.0
 10
14.9817673962
 20
7.4180101879
 30
0.0
 10
14.9843593146
 20
7.4138080169
 30
0.0
 10
14.9869140946
 20
7.4093751858
 30
0.0
 10
14.9894307728
 20
7.4047135288
 30
0.0
 10
14.9919083022
 20
7.3998249249
 30
0.0
 10
14.9943456708
 20
7.3947113369
 30
0.0
 10
14.9975911613
 20
7.3874834255
 30
0.0
 10
15.0015297139
 20
7.3778906845
 30
0.0
 10
15.006009781
 20
7.3656897971
 30
0.0
 10
15.0103068496
 20
7.3526464449
 30
0.0
 10
15.0144139202
 20
7.3387819978
 30
0.0
 10
15.0183241605
 20
7.3241189499
 30
0.0
 10
15.0220310677
 20
7.3086812695
 30
0.0
 10
15.0255285352
 20
7.2924942389
 30
0.0
 10
15.0288106796
 20
7.2755844096
 30
0.0
 10
15.03187206
 20
7.2579795659
 30
0.0
 10
15.0347075994
 20
7.2397086622
 30
0.0
 10
15.0373125152
 20
7.220801767
 30
0.0
 10
15.0396825172
 20
7.2012900196
 30
0.0
 10
15.0418136452
 20
7.181205566
 30
0.0
 10
15.0437023114
 20
7.1605815133
 30
0.0
 10
15.0453454242
 20
7.1394518618
 30
0.0
 10
15.0467402089
 20
7.1178514264
 30
0.0
 10
15.0478843207
 20
7.095815891
 30
0.0
 10
15.0487759119
 20
7.0733816399
 30
0.0
 10
15.0494134508
 20
7.0505852781
 30
0.0
 10
15.0497958203
 20
7.0274649956
 30
0.0
 10
15.0498798072
 20
7.0119471561
 30
0.0
 10
15.0498798072
 20
7.0041413812
 30
0.0
  0
SPLINE
  5
3C6
100
AcDbEntity
  8
0
100
AcDbSpline
 62
7
  6
CONTINUOUS
 70
0
 71
3
 72
54
 73
50
 74
0
 42
0.0000001
 43
0.0000001
 44
0.0000000001
 40
0.0
 40
0.0
 40
0.0
 40
0.0
 40
0.0054786382
 40
0.0111451209
 40
0.0170463838
 40
0.0232232994
 40
0.0297107791
 40
0.0365380479
 40
0.0437292527
 40
0.0513039949
 40
0.0592779745
 40
0.0676634951
 40
0.0764699612
 40
0.0857042883
 40
0.095371228
 40
0.1054736978
 40
0.1160129601
 40
0.1269889034
 40
0.1384001069
 40
0.1502440991
 40
0.1625173365
 40
0.1752154542
 40
0.1883331812
 40
0.2018645915
 40
0.2158029733
 40
0.2301410819
 40
0.2448709783
 40
0.2599842817
 40
0.2754719914
 40
0.2913247326
 40
0.3075325744
 40
0.3240852631
 40
0.3581814174
 40
0.3935236765
 40
0.4300166023
 40
0.467559963
 40
0.5060492806
 40
0.5453763452
 40
0.5854297056
 40
0.626095145
 40
0.667256144
 40
0.7087943377
 40
0.7505899645
 40
0.7925223196
 40
0.8344701847
 40
0.8763123191
 40
0.9179277767
 40
0.9591966638
 40
1.0
 40
1.0
 40
1.0
 40
1.0
 10
14.91179211
 20
5.9026228372
 30
0.0
 10
14.914050444
 20
5.9030387044
 30
0.0
 10
14.9186024922
 20
5.9041297828
 30
0.0
 10
14.9253617645
 20
5.9064762167
 30
0.0
 10
14.9321441591
 20
5.9095518524
 30
0.0
 10
14.9389439833
 20
5.9133523274
 30
0.0
 10
14.9457570639
 20
5.917873705
 30
0.0
 10
14.9525790676
 20
5.92311168
 30
0.0
 10
14.9594055928
 20
5.9290619304
 30
0.0
 10
14.9662321801
 20
5.9357197147
 30
0.0
 10
14.9730541585
 20
5.9430799808
 30
0.0
 10
14.9798667715
 20
5.9511371746
 30
0.0
 10
14.9866651307
 20
5.9598852676
 30
0.0
 10
14.9934442587
 20
5.9693177088
 30
0.0
 10
15.0001991502
 20
5.9794274017
 30
0.0
 10
15.0069247058
 20
5.9902067393
 30
0.0
 10
15.0136158865
 20
6.001647548
 30
0.0
 10
15.0202675467
 20
6.0137411654
 30
0.0
 10
15.0268746703
 20
6.0264783658
 30
0.0
 10
15.0334321188
 20
6.0398494556
 30
0.0
 10
15.0399349363
 20
6.0538441934
 30
0.0
 10
15.0463780297
 20
6.0684518885
 30
0.0
 10
15.0527565288
 20
6.0836613241
 30
0.0
 10
15.0590654159
 20
6.0994608507
 30
0.0
 10
15.0652999251
 20
6.1158383175
 30
0.0
 10
15.0714551384
 20
6.1327811566
 30
0.0
 10
15.0775264099
 20
6.150276326
 30
0.0
 10
15.0835089424
 20
6.1683103819
 30
0.0
 10
15.0893982246
 20
6.1868694353
 30
0.0
 10
15.0951895932
 20
6.2059392073
 30
0.0
 10
15.1008787068
 20
6.2255050223
 30
0.0
 10
15.1083959582
 20
6.2525006032
 30
0.0
 10
15.11749033
 20
6.2873795347
 30
0.0
 10
15.127823
 20
6.3305631337
 30
0.0
 10
15.1376477872
 20
6.3753453576
 30
0.0
 10
15.1469342408
 20
6.421588222
 30
0.0
 10
15.1556535756
 20
6.4691494094
 30
0.0
 10
15.1637787823
 20
6.5178824311
 30
0.0
 10
15.1712847026
 20
6.5676371703
 30
0.0
 10
15.1781481073
 20
6.6182603297
 30
0.0
 10
15.1843477662
 20
6.6695959164
 30
0.0
 10
15.1898645118
 20
6.7214857257
 30
0.0
 10
15.194681299
 20
6.7737698351
 30
0.0
 10
15.1987832541
 20
6.826287094
 30
0.0
 10
15.2021577275
 20
6.8788756438
 30
0.0
 10
15.2047943166
 20
6.9313733614
 30
0.0
 10
15.2066849302
 20
6.9836185239
 30
0.0
 10
15.2078237603
 20
7.0354498972
 30
0.0
 10
15.20808121
 20
7.0698499838
 30
0.0
 10
15.20808121
 20
7.086952211
 30
0.0
  0
SPLINE
  5
3C7
100
AcDbEntity
  8
0
100
AcDbSpline
 62
7
  6
CONTINUOUS
 70
0
 71
3
 72
64
 73
60
 74
0
 42
0.0000001
 43
0.0000001
 44
0.0000000001
 40
0.0
 40
0.0
 40
0.0
 40
0.0
 40
0.0079606512
 40
0.0154473882
 40
0.0224990269
 40
0.0291639193
 40
0.0355011812
 40
0.0385697612
 40
0.0415836627
 40
0.044553254
 40
0.0474894177
 40
0.0504034625
 40
0.0533069748
 40
0.0562116741
 40
0.0591292706
 40
0.0620713018
 40
0.0650489912
 40
0.0680731367
 40
0.0711540068
 40
0.0775214098
 40
0.0842229507
 40
0.0913165721
 40
0.0988496791
 40
0.1068600767
 40
0.1153774302
 40
0.1244243125
 40
0.1340175944
 40
0.1441691192
 40
0.1548868108
 40
0.1661749875
 40
0.1780352173
 40
0.1904663999
 40
0.2034654246
 40
0.2170271378
 40
0.2311448406
 40
0.2458102252
 40
0.261013733
 40
0.2767445121
 40
0.2929906506
 40
0.3097391835
 40
0.3269762143
 40
0.3446869828
 40
0.3628558901
 40
0.381466627
 40
0.4005021199
 40
0.4199447097
 40
0.4599766616
 40
0.5014100009
 40
0.5440835828
 40
0.5878294097
 40
0.6324736943
 40
0.6778378814
 40
0.7237396475
 40
0.7699938768
 40
0.8164136505
 40
0.8628111566
 40
0.9089988278
 40
0.9547898322
 40
1.0
 40
1.0
 40
1.0
 40
1.0
 10
14.8742772496
 20
6.2067137801
 30
0.0
 10
14.8758643243
 20
6.2047623918
 30
0.0
 10
14.8790655596
 20
6.2010718867
 30
0.0
 10
14.8841136079
 20
6.1960564686
 30
0.0
 10
14.8892513911
 20
6.1917428851
 30
0.0
 10
14.8944743255
 20
6.1881376669
 30
0.0
 10
14.8989430357
 20
6.1857022332
 30
0.0
 10
14.9025414997
 20
6.1841318324
 30
0.0
 10
14.9052284171
 20
6.1831462467
 30
0.0
 10
14.9079311379
 20
6.1823409108
 30
0.0
 10
14.9106489413
 20
6.1817161657
 30
0.0
 10
14.913380955
 20
6.1812722437
 30
0.0
 10
14.9161263152
 20
6.181009277
 30
0.0
 10
14.9188841463
 20
6.1809273795
 30
0.0
 10
14.9216535584
 20
6.1810266324
 30
0.0
 10
14.9244336731
 20
6.1813069008
 30
0.0
 10
14.9272236138
 20
6.1817679959
 30
0.0
 10
14.9300226189
 20
6.1824097671
 30
0.0
 10
14.9338065103
 20
6.1835179491
 30
0.0
 10
14.9385715058
 20
6.1853750476
 30
0.0
 10
14.9442435915
 20
6.1882972897
 30
0.0
 10
14.9499286804
 20
6.1919321318
 30
0.0
 10
14.9556214219
 20
6.1962743073
 30
0.0
 10
14.9613174318
 20
6.2013184384
 30
0.0
 10
14.967011603
 20
6.2070590585
 30
0.0
 10
14.9726988964
 20
6.2134899964
 30
0.0
 10
14.9783737114
 20
6.2206046863
 30
0.0
 10
14.9840305809
 20
6.2283956606
 30
0.0
 10
14.9896635802
 20
6.2368549081
 30
0.0
 10
14.9952670219
 20
6.2459735057
 30
0.0
 10
15.0008348599
 20
6.2557419285
 30
0.0
 10
15.0063613263
 20
6.2661497962
 30
0.0
 10
15.0118403881
 20
6.2771861041
 30
0.0
 10
15.0172662821
 20
6.2888390628
 30
0.0
 10
15.022633071
 20
6.3010962532
 30
0.0
 10
15.0279350505
 20
6.3139445381
 30
0.0
 10
15.0331664323
 20
6.3273701572
 30
0.0
 10
15.0383216104
 20
6.3413586913
 30
0.0
 10
15.043394982
 20
6.3558951144
 30
0.0
 10
15.0483810732
 20
6.3709637933
 30
0.0
 10
15.0532744938
 20
6.3865485128
 30
0.0
 10
15.0580699317
 20
6.402632497
 30
0.0
 10
15.0627622331
 20
6.4191984204
 30
0.0
 10
15.0673462705
 20
6.4362284353
 30
0.0
 10
15.071817168
 20
6.4537042019
 30
0.0
 10
15.0776778838
 20
6.4778089758
 30
0.0
 10
15.0846725499
 20
6.5089186985
 30
0.0
 10
15.0924619985
 20
6.5473638853
 30
0.0
 10
15.099692848
 20
6.5871112434
 30
0.0
 10
15.1063337243
 20
6.627989391
 30
0.0
 10
15.112355806
 20
6.6698222276
 30
0.0
 10
15.1177329865
 20
6.7124294277
 30
0.0
 10
15.1224419713
 20
6.7556273092
 30
0.0
 10
15.1264623826
 20
6.7992296167
 30
0.0
 10
15.1297768374
 20
6.8430483303
 30
0.0
 10
15.1323710395
 20
6.8868945033
 30
0.0
 10
15.1342338053
 20
6.9305790514
 30
0.0
 10
15.1353571731
 20
6.9739134902
 30
0.0
 10
15.1356119372
 20
7.0026673742
 30
0.0
 10
15.1356119372
 20
7.0169522646
 30
0.0
  0
SPLINE
  5
3C8
100
AcDbEntity
  8
0
100
AcDbSpline
 62
7
  6
CONTINUOUS
 70
0
 71
3
 72
54
 73
50
 74
0
 42
0.0000001
 43
0.0000001
 44
0.0000000001
 40
0.0
 40
0.0
 40
0.0
 40
0.0
 40
0.0053769186
 40
0.0108199428
 40
0.0163926243
 40
0.022153787
 40
0.0281561826
 40
0.0344456662
 40
0.0410613506
 40
0.0480357468
 40
0.0553956303
 40
0.0631625236
 40
0.0713535528
 40
0.0799820113
 40
0.0890578894
 40
0.0985884839
 40
0.1085785629
 40
0.1190310065
 40
0.1299467216
 40
0.1413252315
 40
0.1531645311
 40
0.1654615028
 40
0.1782118785
 40
0.1914104045
 40
0.2050509878
 40
0.2191266139
 40
0.2336296601
 40
0.2485516461
 40
0.2638836166
 40
0.279615865
 40
0.2957382482
 40
0.3122400189
 40
0.3463359012
 40
0.3818090716
 40
0.4185578996
 40
0.4564749399
 40
0.4954476046
 40
0.5353587867
 40
0.57608745
 40
0.6175091958
 40
0.659496813
 40
0.7019208221
 40
0.7446500046
 40
0.7875519534
 40
0.830493521
 40
0.8733415942
 40
0.9159628917
 40
0.9582262997
 40
1.0
 40
1.0
 40
1.0
 40
1.0
 10
14.8530780697
 20
6.2555791661
 30
0.0
 10
14.8545153872
 20
6.255479499
 30
0.0
 10
14.8574220146
 20
6.2554462973
 30
0.0
 10
14.8618000313
 20
6.255898178
 30
0.0
 10
14.8662024743
 20
6.2568499805
 30
0.0
 10
14.8706240558
 20
6.2582992633
 30
0.0
 10
14.8750610405
 20
6.2602434212
 30
0.0
 10
14.8795101289
 20
6.2626793261
 30
0.0
 10
14.8839681456
 20
6.2656042441
 30
0.0
 10
14.888432234
 20
6.2690150105
 30
0.0
 10
14.8928992597
 20
6.2729086661
 30
0.0
 10
14.8973661865
 20
6.2772818164
 30
0.0
 10
14.9018297414
 20
6.2821309282
 30
0.0
 10
14.9062865847
 20
6.2874520904
 30
0.0
 10
14.9107333479
 20
6.2932410083
 30
0.0
 10
14.9151664572
 20
6.2994930838
 30
0.0
 10
14.9195825063
 20
6.3062032203
 30
0.0
 10
14.9239778034
 20
6.3133660566
 30
0.0
 10
14.9283489184
 20
6.3209757186
 30
0.0
 10
14.9326921564
 20
6.3290260581
 30
0.0
 10
14.9370040519
 20
6.3375104627
 30
0.0
 10
14.9412809911
 20
6.3464220077
 30
0.0
 10
14.9455194711
 20
6.355753372
 30
0.0
 10
14.9497160011
 20
6.3654968869
 30
0.0
 10
14.9538670614
 20
6.3756445443
 30
0.0
 10
14.9579692907
 20
6.3861879716
 30
0.0
 10
14.9620191938
 20
6.3971184944
 30
0.0
 10
14.9660135189
 20
6.408427078
 30
0.0
 10
14.9699488526
 20
6.4201044048
 30
0.0
 10
14.9738220164
 20
6.432140816
 30
0.0
 10
14.977629752
 20
6.4445263888
 30
0.0
 10
14.9826702142
 20
6.4616794569
 30
0.0
 10
14.9887732635
 20
6.483922651
 30
0.0
 10
14.9957100587
 20
6.5115556277
 30
0.0
 10
15.0023142642
 20
6.5403213959
 30
0.0
 10
15.0085639031
 20
6.5701248417
 30
0.0
 10
15.0144381652
 20
6.6008675473
 30
0.0
 10
15.0199175075
 20
6.6324478981
 30
0.0
 10
15.0249837087
 20
6.6647614922
 30
0.0
 10
15.0296199296
 20
6.6977014741
 30
0.0
 10
15.0338107708
 20
6.7311588987
 30
0.0
 10
15.0375423197
 20
6.7650230944
 30
0.0
 10
15.0408021987
 20
6.7991820389
 30
0.0
 10
15.0435795958
 20
6.8335227157
 30
0.0
 10
15.0458653254
 20
6.8679315447
 30
0.0
 10
15.0476518004
 20
6.9022946022
 30
0.0
 10
15.0489331741
 20
6.9364983988
 30
0.0
 10
15.049705167
 20
6.9704294714
 30
0.0
 10
15.0498798072
 20
6.9929479349
 30
0.0
 10
15.0498798072
 20
7.0041413812
 30
0.0
  0
SPLINE
  5
3C9
100
AcDbEntity
  8
0
100
AcDbSpline
 62
4
  6
CONTINUOUS
 70
0
 71
3
 72
393
 73
389
 74
0
 42
0.0000001
 43
0.0000001
 44
0.0000000001
 40
0.0
 40
0.0
 40
0.0
 40
0.0
 40
0.015625
 40
0.0234375
 40
0.03125
 40
0.0390625
 40
0.04296875
 40
0.046875
 40
0.05078125
 40
0.0546875
 40
0.056640625
 40
0.05859375
 40
0.0595703125
 40
0.060546875
 40
0.0615234375
 40
0.0620117188
 40
0.0622558594
 40
0.0625
 40
0.0627441406
 40
0.0629882812
 40
0.0634765625
 40
0.064453125
 40
0.0654296875
 40
0.06640625
 40
0.068359375
 40
0.0703125
 40
0.07421875
 40
0.078125
 40
0.08203125
 40
0.0859375
 40
0.09375
 40
0.1015625
 40
0.10546875
 40
0.109375
 40
0.11328125
 40
0.1171875
 40
0.119140625
 40
0.12109375
 40
0.1220703125
 40
0.123046875
 40
0.1240234375
 40
0.1245117188
 40
0.1247558594
 40
0.125
 40
0.1252441406
 40
0.1254882812
 40
0.1259765625
 40
0.126953125
 40
0.1279296875
 40
0.12890625
 40
0.130859375
 40
0.1328125
 40
0.13671875
 40
0.140625
 40
0.14453125
 40
0.1484375
 40
0.15625
 40
0.1640625
 40
0.16796875
 40
0.171875
 40
0.17578125
 40
0.1796875
 40
0.181640625
 40
0.18359375
 40
0.1845703125
 40
0.185546875
 40
0.1865234375
 40
0.1870117188
 40
0.1872558594
 40
0.1875
 40
0.1877441406
 40
0.1879882812
 40
0.1884765625
 40
0.189453125
 40
0.1904296875
 40
0.19140625
 40
0.193359375
 40
0.1953125
 40
0.19921875
 40
0.203125
 40
0.20703125
 40
0.2109375
 40
0.21875
 40
0.2265625
 40
0.23046875
 40
0.234375
 40
0.23828125
 40
0.2421875
 40
0.244140625
 40
0.24609375
 40
0.2470703125
 40
0.248046875
 40
0.2490234375
 40
0.2495117188
 40
0.2497558594
 40
0.25
 40
0.2502441406
 40
0.2504882812
 40
0.2509765625
 40
0.251953125
 40
0.2529296875
 40
0.25390625
 40
0.255859375
 40
0.2578125
 40
0.26171875
 40
0.265625
 40
0.26953125
 40
0.2734375
 40
0.28125
 40
0.2890625
 40
0.29296875
 40
0.296875
 40
0.30078125
 40
0.3046875
 40
0.306640625
 40
0.30859375
 40
0.3095703125
 40
0.310546875
 40
0.3115234375
 40
0.3120117188
 40
0.3122558594
 40
0.3125
 40
0.3127441406
 40
0.3129882812
 40
0.3134765625
 40
0.314453125
 40
0.3154296875
 40
0.31640625
 40
0.318359375
 40
0.3203125
 40
0.32421875
 40
0.328125
 40
0.33203125
 40
0.3359375
 40
0.34375
 40
0.3515625
 40
0.35546875
 40
0.359375
 40
0.36328125
 40
0.3671875
 40
0.369140625
 40
0.37109375
 40
0.3720703125
 40
0.373046875
 40
0.3740234375
 40
0.3745117188
 40
0.3747558594
 40
0.375
 40
0.3752441406
 40
0.3754882812
 40
0.3759765625
 40
0.376953125
 40
0.3779296875
 40
0.37890625
 40
0.380859375
 40
0.3828125
 40
0.38671875
 40
0.390625
 40
0.39453125
 40
0.3984375
 40
0.40625
 40
0.4140625
 40
0.41796875
 40
0.421875
 40
0.42578125
 40
0.4296875
 40
0.431640625
 40
0.43359375
 40
0.4345703125
 40
0.435546875
 40
0.4365234375
 40
0.4370117188
 40
0.4372558594
 40
0.4375
 40
0.4377441406
 40
0.4379882812
 40
0.4384765625
 40
0.439453125
 40
0.4404296875
 40
0.44140625
 40
0.443359375
 40
0.4453125
 40
0.44921875
 40
0.453125
 40
0.45703125
 40
0.4609375
 40
0.46875
 40
0.4765625
 40
0.48046875
 40
0.484375
 40
0.48828125
 40
0.4921875
 40
0.494140625
 40
0.49609375
 40
0.4970703125
 40
0.498046875
 40
0.4990234375
 40
0.4995117188
 40
0.4997558594
 40
0.5
 40
0.5002441406
 40
0.5004882812
 40
0.5009765625
 40
0.501953125
 40
0.5029296875
 40
0.50390625
 40
0.505859375
 40
0.5078125
 40
0.51171875
 40
0.515625
 40
0.51953125
 40
0.5234375
 40
0.53125
 40
0.5390625
 40
0.54296875
 40
0.546875
 40
0.55078125
 40
0.5546875
 40
0.556640625
 40
0.55859375
 40
0.5595703125
 40
0.560546875
 40
0.5615234375
 40
0.5620117188
 40
0.5625
 40
0.5629882812
 40
0.5634765625
 40
0.564453125
 40
0.5654296875
 40
0.56640625
 40
0.568359375
 40
0.5703125
 40
0.57421875
 40
0.578125
 40
0.58203125
 40
0.5859375
 40
0.59375
 40
0.6015625
 40
0.60546875
 40
0.609375
 40
0.61328125
 40
0.6171875
 40
0.619140625
 40
0.62109375
 40
0.6220703125
 40
0.623046875
 40
0.6240234375
 40
0.6245117188
 40
0.625
 40
0.6254882812
 40
0.6259765625
 40
0.626953125
 40
0.6279296875
 40
0.62890625
 40
0.630859375
 40
0.6328125
 40
0.63671875
 40
0.640625
 40
0.64453125
 40
0.6484375
 40
0.65625
 40
0.6640625
 40
0.66796875
 40
0.671875
 40
0.67578125
 40
0.6796875
 40
0.681640625
 40
0.68359375
 40
0.6845703125
 40
0.685546875
 40
0.6865234375
 40
0.6870117188
 40
0.6872558594
 40
0.6875
 40
0.6877441406
 40
0.6879882812
 40
0.6884765625
 40
0.689453125
 40
0.6904296875
 40
0.69140625
 40
0.693359375
 40
0.6953125
 40
0.69921875
 40
0.703125
 40
0.70703125
 40
0.7109375
 40
0.71875
 40
0.7265625
 40
0.73046875
 40
0.734375
 40
0.73828125
 40
0.7421875
 40
0.744140625
 40
0.74609375
 40
0.7470703125
 40
0.748046875
 40
0.7490234375
 40
0.7495117188
 40
0.75
 40
0.7504882812
 40
0.7509765625
 40
0.751953125
 40
0.7529296875
 40
0.75390625
 40
0.755859375
 40
0.7578125
 40
0.76171875
 40
0.765625
 40
0.76953125
 40
0.7734375
 40
0.78125
 40
0.7890625
 40
0.79296875
 40
0.796875
 40
0.80078125
 40
0.8046875
 40
0.806640625
 40
0.80859375
 40
0.8095703125
 40
0.810546875
 40
0.8115234375
 40
0.8120117188
 40
0.8125
 40
0.8129882812
 40
0.8134765625
 40
0.814453125
 40
0.8154296875
 40
0.81640625
 40
0.818359375
 40
0.8203125
 40
0.82421875
 40
0.828125
 40
0.83203125
 40
0.8359375
 40
0.84375
 40
0.8515625
 40
0.85546875
 40
0.859375
 40
0.86328125
 40
0.8671875
 40
0.869140625
 40
0.87109375
 40
0.8720703125
 40
0.873046875
 40
0.8740234375
 40
0.8745117188
 40
0.875
 40
0.8754882812
 40
0.8759765625
 40
0.876953125
 40
0.8779296875
 40
0.87890625
 40
0.880859375
 40
0.8828125
 40
0.88671875
 40
0.890625
 40
0.89453125
 40
0.8984375
 40
0.90625
 40
0.9140625
 40
0.91796875
 40
0.921875
 40
0.92578125
 40
0.9296875
 40
0.931640625
 40
0.93359375
 40
0.9345703125
 40
0.935546875
 40
0.9365234375
 40
0.9370117188
 40
0.9372558594
 40
0.9375
 40
0.9377441406
 40
0.9379882812
 40
0.9384765625
 40
0.939453125
 40
0.9404296875
 40
0.94140625
 40
0.943359375
 40
0.9453125
 40
0.94921875
 40
0.953125
 40
0.95703125
 40
0.9609375
 40
0.96875
 40
0.9765625
 40
0.984375
 40
1.0
 40
1.0
 40
1.0
 40
1.0
 10
9.6315748378
 20
6.9441311989
 30
0.0
 10
9.625308464
 20
6.9439513501
 30
0.0
 10
9.6159089032
 20
6.9436815768
 30
0.0
 10
9.6033761555
 20
6.9433218792
 30
0.0
 10
9.5939765948
 20
6.9430521058
 30
0.0
 10
9.5861436274
 20
6.9428272951
 30
0.0
 10
9.5798772537
 20
6.9426474457
 30
0.0
 10
9.575177473
 20
6.942512561
 30
0.0
 10
9.570477694
 20
6.9423776669
 30
0.0
 10
9.5665612059
 20
6.9422652847
 30
0.0
 10
9.5634280282
 20
6.9421753129
 30
0.0
 10
9.5614697628
 20
6.9421192307
 30
0.0
 10
9.5599032177
 20
6.942074021
 30
0.0
 10
9.5587281249
 20
6.9420410555
 30
0.0
 10
9.5577494661
 20
6.9420105883
 30
0.0
 10
9.5570632566
 20
6.9419951406
 30
0.0
 10
9.5566729299
 20
6.9419771333
 30
0.0
 10
9.5563751338
 20
6.9419894883
 30
0.0
 10
9.5560966457
 20
6.9419029914
 30
0.0
 10
9.5557185934
 20
6.9418221429
 30
0.0
 10
9.5550601397
 20
6.9416645928
 30
0.0
 10
9.5541178511
 20
6.9414479202
 30
0.0
 10
9.552987807
 20
6.9411843182
 30
0.0
 10
9.5514808363
 20
6.9408341044
 30
0.0
 10
9.5495972068
 20
6.9403959072
 30
0.0
 10
9.5465833528
 20
6.939695032
 30
0.0
 10
9.5428160513
 20
6.9388188556
 30
0.0
 10
9.5382952826
 20
6.9377674793
 30
0.0
 10
9.5337745158
 20
6.9367160935
 30
0.0
 10
9.5277468261
 20
6.935314249
 30
0.0
 10
9.5202122142
 20
6.9335619423
 30
0.0
 10
9.512677602
 20
6.9318096363
 30
0.0
 10
9.5066499127
 20
6.9304077906
 30
0.0
 10
9.5021291447
 20
6.9293564087
 30
0.0
 10
9.4976083804
 20
6.9283050177
 30
0.0
 10
9.4938410655
 20
6.9274288867
 30
0.0
 10
9.4908272388
 20
6.9267279189
 30
0.0
 10
9.4889435396
 20
6.9262899576
 30
0.0
 10
9.4874367121
 20
6.9259392596
 30
0.0
 10
9.4863062305
 20
6.9256771368
 30
0.0
 10
9.4853653106
 20
6.9254558361
 30
0.0
 10
9.4847044136
 20
6.925306548
 30
0.0
 10
9.4843302761
 20
6.9252124616
 30
0.0
 10
9.4840397631
 20
6.9251666273
 30
0.0
 10
9.4837871307
 20
6.9250262605
 30
0.0
 10
9.4834370743
 20
6.9248720787
 30
0.0
 10
9.482830632
 20
6.9245868975
 30
0.0
 10
9.4819610672
 20
6.9241875278
 30
0.0
 10
9.4809189671
 20
6.9237048462
 30
0.0
 10
9.4795290191
 20
6.9230624715
 30
0.0
 10
9.4777917489
 20
6.9222590919
 30
0.0
 10
9.4750120245
 20
6.9209739145
 30
0.0
 10
9.4715374005
 20
6.9193673638
 30
0.0
 10
9.4673678383
 20
6.9174395368
 30
0.0
 10
9.4631982796
 20
6.9155117008
 30
0.0
 10
9.4576388668
 20
6.9129412559
 30
0.0
 10
9.4506896013
 20
6.9097281986
 30
0.0
 10
9.4437403354
 20
6.9065151421
 30
0.0
 10
9.4381809232
 20
6.903944696
 30
0.0
 10
9.4340113628
 20
6.9020168637
 30
0.0
 10
9.4298418071
 20
6.9000890226
 30
0.0
 10
9.4263671628
 20
6.8984825159
 30
0.0
 10
9.4235874798
 20
6.8971972487
 30
0.0
 10
9.4218501042
 20
6.8963940975
 30
0.0
 10
9.4204603726
 20
6.8957512542
 30
0.0
 10
9.4194176113
 20
6.895270004
 30
0.0
 10
9.4185501152
 20
6.8948661558
 30
0.0
 10
9.4179399799
 20
6.8945889694
 30
0.0
 10
9.4175958406
 20
6.894421978
 30
0.0
 10
9.417325033
 20
6.8943209582
 30
0.0
 10
9.417102783
 20
6.8941273432
 30
0.0
 10
9.4167895123
 20
6.893901488
 30
0.0
 10
9.4162491799
 20
6.8934911931
 30
0.0
 10
9.4154731507
 20
6.892912925
 30
0.0
 10
9.4145436817
 20
6.8922156358
 30
0.0
 10
9.4133037728
 20
6.8912870931
 30
0.0
 10
9.411754098
 20
6.8901260119
 30
0.0
 10
9.4092745002
 20
6.8882685071
 30
0.0
 10
9.4061750434
 20
6.8859465489
 30
0.0
 10
9.4024556779
 20
6.8831602321
 30
0.0
 10
9.398736317
 20
6.8803739065
 30
0.0
 10
9.3937771676
 20
6.8766588088
 30
0.0
 10
9.3875782315
 20
6.8720149355
 30
0.0
 10
9.3813792948
 20
6.8673710628
 30
0.0
 10
9.3764201462
 20
6.863655964
 30
0.0
 10
9.3727007828
 20
6.8608696417
 30
0.0
 10
9.3689814269
 20
6.8580833126
 30
0.0
 10
9.3658819404
 20
6.8557613927
 30
0.0
 10
9.3634024032
 20
6.8539038097
 30
0.0
 10
9.3618525741
 20
6.8527429276
 30
0.0
 10
9.3606129818
 20
6.8518139762
 30
0.0
 10
9.3596825457
 20
6.8511179355
 30
0.0
 10
9.3589095423
 20
6.8505357609
 30
0.0
 10
9.3583638085
 20
6.8501324399
 30
0.0
 10
9.3580591921
 20
6.8498954109
 30
0.0
 10
9.3578103585
 20
6.8497361182
 30
0.0
 10
9.3576393945
 20
6.8495061892
 30
0.0
 10
9.3573842808
 20
6.8492242559
 30
0.0
 10
9.3569504869
 20
6.848719393
 30
0.0
 10
9.3563241651
 20
6.848004162
 30
0.0
 10
9.3555754109
 20
6.8471433158
 30
0.0
 10
9.3545760828
 20
6.8459964182
 30
0.0
 10
9.3533272613
 20
6.844562489
 30
0.0
 10
9.3513289578
 20
6.8422683739
 30
0.0
 10
9.3488311432
 20
6.8394006711
 30
0.0
 10
9.3458337379
 20
6.8359594531
 30
0.0
 10
9.3428363401
 20
6.8325182282
 30
0.0
 10
9.3388398071
 20
6.8279299308
 30
0.0
 10
9.3338441417
 20
6.8221945582
 30
0.0
 10
9.3288484757
 20
6.8164591862
 30
0.0
 10
9.3248519437
 20
6.8118708879
 30
0.0
 10
9.3218545427
 20
6.8084296657
 30
0.0
 10
9.3188571495
 20
6.8049884377
 30
0.0
 10
9.3163592973
 20
6.8021207659
 30
0.0
 10
9.3143610706
 20
6.7998265877
 30
0.0
 10
9.3131120534
 20
6.7983928191
 30
0.0
 10
9.3121131271
 20
6.7972455918
 30
0.0
 10
9.3113631454
 20
6.7963857528
 30
0.0
 10
9.3107406641
 20
6.7956673707
 30
0.0
 10
9.3103000142
 20
6.7951681329
 30
0.0
 10
9.3100558855
 20
6.7948771867
 30
0.0
 10
9.3098511789
 20
6.7946749425
 30
0.0
 10
9.3097290771
 20
6.7944116704
 30
0.0
 10
9.3095374613
 20
6.7940819282
 30
0.0
 10
9.3092155582
 20
6.7934949612
 30
0.0
 10
9.3087486782
 20
6.7926616222
 30
0.0
 10
9.3081914263
 20
6.7916593959
 30
0.0
 10
9.3074473744
 20
6.7903238695
 30
0.0
 10
9.3065176689
 20
6.788654196
 30
0.0
 10
9.3050299393
 20
6.7859828667
 30
0.0
 10
9.3031703462
 20
6.7826436542
 30
0.0
 10
9.3009388049
 20
6.7786366211
 30
0.0
 10
9.2987072716
 20
6.774629582
 30
0.0
 10
9.295731891
 20
6.7692868654
 30
0.0
 10
9.2920126663
 20
6.7626084689
 30
0.0
 10
9.2882934408
 20
6.7559300728
 30
0.0
 10
9.2853180614
 20
6.7505873555
 30
0.0
 10
9.2830865245
 20
6.7465803186
 30
0.0
 10
9.2808549964
 20
6.7425732775
 30
0.0
 10
9.2789953623
 20
6.7392340898
 30
0.0
 10
9.2775077163
 20
6.7365627099
 30
0.0
 10
9.2765777981
 20
6.7348931652
 30
0.0
 10
9.2758341828
 20
6.7335573744
 30
0.0
 10
9.2752755971
 20
6.7325559558
 30
0.0
 10
9.2748128903
 20
6.7317200897
 30
0.0
 10
9.2744835372
 20
6.731137634
 30
0.0
 10
9.2743038582
 20
6.7308006635
 30
0.0
 10
9.2741450904
 20
6.7305595944
 30
0.0
 10
9.2740780952
 20
6.7302739596
 30
0.0
 10
9.273956757
 20
6.7299086582
 30
0.0
 10
9.2737593298
 20
6.729262138
 30
0.0
 10
9.2734694935
 20
6.7283423243
 30
0.0
 10
9.2731250274
 20
6.727236927
 30
0.0
 10
9.2726645735
 20
6.7257636302
 30
0.0
 10
9.2720894054
 20
6.7239218153
 30
0.0
 10
9.2711689133
 20
6.7209750197
 30
0.0
 10
9.2700183747
 20
6.7172914882
 30
0.0
 10
9.2686376956
 20
6.7128712662
 30
0.0
 10
9.2672570252
 20
6.70845104
 30
0.0
 10
9.2654161283
 20
6.7025574065
 30
0.0
 10
9.2631150084
 20
6.6951903641
 30
0.0
 10
9.2608138877
 20
6.687823322
 30
0.0
 10
9.2589729921
 20
6.681929688
 30
0.0
 10
9.2575923179
 20
6.6775094634
 30
0.0
 10
9.2562116531
 20
6.6730892354
 30
0.0
 10
9.25506107
 20
6.6694057226
 30
0.0
 10
9.2541406686
 20
6.6664588887
 30
0.0
 10
9.2535652696
 20
6.6646171715
 30
0.0
 10
9.2531052895
 20
6.6631436741
 30
0.0
 10
9.2527593762
 20
6.6620388895
 30
0.0
 10
9.2524740679
 20
6.6611171592
 30
0.0
 10
9.2522685574
 20
6.6604740604
 30
0.0
 10
9.2521601707
 20
6.6601032771
 30
0.0
 10
9.2520533925
 20
6.6598344807
 30
0.0
 10
9.2520440432
 20
6.6595301694
 30
0.0
 10
9.2519975932
 20
6.6591368089
 30
0.0
 10
9.2519321397
 20
6.6584426563
 30
0.0
 10
9.2518303564
 20
6.6574540273
 30
0.0
 10
9.2517117598
 20
6.6562663809
 30
0.0
 10
9.2515523934
 20
6.6546833035
 30
0.0
 10
9.2513536092
 20
6.6527043023
 30
0.0
 10
9.2510353176
 20
6.6495379866
 30
0.0
 10
9.2506375343
 20
6.6455800624
 30
0.0
 10
9.2501601595
 20
6.6408305661
 30
0.0
 10
9.2496827941
 20
6.6360810664
 30
0.0
 10
9.2490463036
 20
6.6297484013
 30
0.0
 10
9.2482506917
 20
6.6218325695
 30
0.0
 10
9.2474550789
 20
6.6139167379
 30
0.0
 10
9.2468185897
 20
6.6075840726
 30
0.0
 10
9.2463412203
 20
6.6028345735
 30
0.0
 10
9.2458638606
 20
6.5980850747
 30
0.0
 10
9.2454660306
 20
6.5941271584
 30
0.0
 10
9.2451478342
 20
6.5909608267
 30
0.0
 10
9.2449488077
 20
6.5889818664
 30
0.0
 10
9.2447899386
 20
6.5873987049
 30
0.0
 10
9.2446698227
 20
6.5862113155
 30
0.0
 10
9.2445727929
 20
6.5852218824
 30
0.0
 10
9.2444988536
 20
6.5845291652
 30
0.0
 10
9.2444659999
 20
6.5841335048
 30
0.0
 10
9.2444148872
 20
6.5838362583
 30
0.0
 10
9.2444649655
 20
6.5835409275
 30
0.0
 10
9.2444964401
 20
6.5831464848
 30
0.0
 10
9.2445679658
 20
6.5824565215
 30
0.0
 10
9.2446615477
 20
6.5814706969
 30
0.0
 10
9.2447775261
 20
6.580287777
 30
0.0
 10
9.2449308786
 20
6.5787105261
 30
0.0
 10
9.2451230093
 20
6.5767389709
 30
0.0
 10
9.2454301725
 20
6.5735844779
 30
0.0
 10
9.2458142109
 20
6.5696413632
 30
0.0
 10
9.2462750207
 20
6.5649096248
 30
0.0
 10
9.2467358402
 20
6.5601778867
 30
0.0
 10
9.2473502629
 20
6.5538689024
 30
0.0
 10
9.2481182922
 20
6.5459826721
 30
0.0
 10
9.2488863221
 20
6.5380964419
 30
0.0
 10
9.2495007436
 20
6.5317874575
 30
0.0
 10
9.2499615667
 20
6.52705572
 30
0.0
 10
9.2504223634
 20
6.5223239791
 30
0.0
 10
9.2508064426
 20
6.5183808723
 30
0.0
 10
9.2511135224
 20
6.5152263632
 30
0.0
 10
9.2513058653
 20
6.5132548488
 30
0.0
 10
9.2514587822
 20
6.5116775141
 30
0.0
 10
9.2515760913
 20
6.5104948504
 30
0.0
 10
9.2516655099
 20
6.5095082244
 30
0.0
 10
9.2517557475
 20
6.5087213298
 30
0.0
 10
9.2517723209
 20
6.508124584
 30
0.0
 10
9.2519839622
 20
6.5075529346
 30
0.0
 10
9.2521980109
 20
6.5067819689
 30
0.0
 10
9.2524889501
 20
6.5058212696
 30
0.0
 10
9.2528280704
 20
6.504667143
 30
0.0
 10
9.253283726
 20
6.5031287572
 30
0.0
 10
9.2538520988
 20
6.5012056209
 30
0.0
 10
9.2547621641
 20
6.498128689
 30
0.0
 10
9.2558995161
 20
6.4942824946
 30
0.0
 10
9.257264437
 20
6.4896670739
 30
0.0
 10
9.2586293316
 20
6.4850516498
 30
0.0
 10
9.2604492002
 20
6.4788977523
 30
0.0
 10
9.2627240325
 20
6.4712053799
 30
0.0
 10
9.2649988671
 20
6.4635130079
 30
0.0
 10
9.2668187322
 20
6.4573591095
 30
0.0
 10
9.2681836375
 20
6.452743688
 30
0.0
 10
9.269548518
 20
6.4481282579
 30
0.0
 10
9.2706859957
 20
6.4442820927
 30
0.0
 10
9.2715958048
 20
6.4412051012
 30
0.0
 10
9.2721648294
 20
6.4392821166
 30
0.0
 10
9.2726191469
 20
6.4377434195
 30
0.0
 10
9.2729623555
 20
6.4365902437
 30
0.0
 10
9.2732405034
 20
6.4356265695
 30
0.0
 10
9.2734806489
 20
6.4348616732
 30
0.0
 10
9.2736125919
 20
6.4342714886
 30
0.0
 10
9.2739283856
 20
6.4337443317
 30
0.0
 10
9.2742852225
 20
6.4330194394
 30
0.0
 10
9.2747533026
 20
6.4321208778
 30
0.0
 10
9.2753055675
 20
6.4310393707
 30
0.0
 10
9.2760452148
 20
6.4295984904
 30
0.0
 10
9.276968646
 20
6.4277970035
 30
0.0
 10
9.2784467663
 20
6.4249148404
 30
0.0
 10
9.2802942004
 20
6.4213120625
 30
0.0
 10
9.2825112141
 20
6.4169887607
 30
0.0
 10
9.2847282029
 20
6.4126654505
 30
0.0
 10
9.2876841967
 20
6.4069010398
 30
0.0
 10
9.2913791861
 20
6.3996955254
 30
0.0
 10
9.2950741761
 20
6.3924900112
 30
0.0
 10
9.2980301688
 20
6.3867256002
 30
0.0
 10
9.300247161
 20
6.3824022909
 30
0.0
 10
9.3024641618
 20
6.3780789856
 30
0.0
 10
9.3043116359
 20
6.3744762186
 30
0.0
 10
9.3057896747
 20
6.3715940332
 30
0.0
 10
9.3067133134
 20
6.369792603
 30
0.0
 10
9.3074525349
 20
6.3683516063
 30
0.0
 10
9.3080061009
 20
6.3672704551
 30
0.0
 10
9.3084701101
 20
6.3663707798
 30
0.0
 10
9.3087896096
 20
6.3657384872
 30
0.0
 10
9.3089804671
 20
6.3653811118
 30
0.0
 10
9.3091002674
 20
6.3651019961
 30
0.0
 10
9.3093092956
 20
6.3648652499
 30
0.0
 10
9.3095568761
 20
6.3645348094
 30
0.0
 10
9.3100046432
 20
6.3639634242
 30
0.0
 10
9.3106367291
 20
6.3631435598
 30
0.0
 10
9.3113984772
 20
6.3621612633
 30
0.0
 10
9.3124130079
 20
6.3608509965
 30
0.0
 10
9.3136815594
 20
6.3592133473
 30
0.0
 10
9.3157110249
 20
6.3565930056
 30
0.0
 10
9.3182479312
 20
6.3533176138
 30
0.0
 10
9.3212921868
 20
6.3493871284
 30
0.0
 10
9.324336451
 20
6.3454566471
 30
0.0
 10
9.3283954669
 20
6.340216004
 30
0.0
 10
9.3334692377
 20
6.3336652004
 30
0.0
 10
9.3385430088
 20
6.3271143975
 30
0.0
 10
9.3426020241
 20
6.3218737533
 30
0.0
 10
9.3456462902
 20
6.3179432753
 30
0.0
 10
9.3486905387
 20
6.3140127775
 30
0.0
 10
9.3512274673
 20
6.3107374244
 30
0.0
 10
9.3532568873
 20
6.3081170038
 30
0.0
 10
9.3545255545
 20
6.3064795553
 30
0.0
 10
9.3555398477
 20
6.3051688765
 30
0.0
 10
9.3563023213
 20
6.304187839
 30
0.0
 10
9.3569321373
 20
6.3033640355
 30
0.0
 10
9.3574485022
 20
6.3027190603
 30
0.0
 10
9.3578015867
 20
6.3021968897
 30
0.0
 10
9.3582851717
 20
6.3018214419
 30
0.0
 10
9.3588843662
 20
6.3012695926
 30
0.0
 10
9.3596489994
 20
6.3005973655
 30
0.0
 10
9.3605598648
 20
6.2997831662
 30
0.0
 10
9.3617766903
 20
6.298700196
 30
0.0
 10
9.3632969215
 20
6.2973455832
 30
0.0
 10
9.3657297389
 20
6.2951787058
 30
0.0
 10
9.3687706071
 20
6.2924699364
 30
0.0
 10
9.3724197147
 20
6.2892194871
 30
0.0
 10
9.3760688048
 20
6.2859690181
 30
0.0
 10
9.3809342643
 20
6.2816350662
 30
0.0
 10
9.3870160865
 20
6.2762176238
 30
0.0
 10
9.3930979101
 20
6.2708001832
 30
0.0
 10
9.3979633674
 20
6.2664662285
 30
0.0
 10
9.4016124643
 20
6.2632157681
 30
0.0
 10
9.4052615462
 20
6.2599652864
 30
0.0
 10
9.4083024944
 20
6.2572566179
 30
0.0
 10
9.4107351487
 20
6.2550895347
 30
0.0
 10
9.4122557948
 20
6.2537354455
 30
0.0
 10
9.4134717687
 20
6.2526514007
 30
0.0
 10
9.4143852357
 20
6.2518404846
 30
0.0
 10
9.4151417292
 20
6.2511579851
 30
0.0
 10
9.4157575303
 20
6.2506270933
 30
0.0
 10
9.4161903998
 20
6.2501876426
 30
0.0
 10
9.4167338914
 20
6.2499057657
 30
0.0
 10
9.4174199052
 20
6.2494748872
 30
0.0
 10
9.4182906802
 20
6.2489551739
 30
0.0
 10
9.4193299355
 20
6.2483234346
 30
0.0
 10
9.4207175912
 20
6.2474839389
 30
0.0
 10
9.4224514823
 20
6.2464336026
 30
0.0
 10
9.4252260872
 20
6.2447536048
 30
0.0
 10
9.4286942133
 20
6.2426534221
 30
0.0
 10
9.4328560203
 20
6.2401332824
 30
0.0
 10
9.4370178124
 20
6.2376131214
 30
0.0
 10
9.4425668738
 20
6.2342529142
 30
0.0
 10
9.4495031986
 20
6.2300526524
 30
0.0
 10
9.4564395245
 20
6.2258523925
 30
0.0
 10
9.4619885841
 20
6.2224921822
 30
0.0
 10
9.4661503816
 20
6.2199720307
 30
0.0
 10
9.4703121687
 20
6.2174518552
 30
0.0
 10
9.4737803567
 20
6.2153517839
 30
0.0
 10
9.4765548352
 20
6.213671559
 30
0.0
 10
9.4782890481
 20
6.2126218005
 30
0.0
 10
9.4796760433
 20
6.2117811187
 30
0.0
 10
9.4807173166
 20
6.2111530032
 30
0.0
 10
9.4815817775
 20
6.2106219521
 30
0.0
 10
9.4822806732
 20
6.2102142049
 30
0.0
 10
9.4827848243
 20
6.2098616864
 30
0.0
 10
9.4833653945
 20
6.2096874533
 30
0.0
 10
9.484112794
 20
6.2093928651
 30
0.0
 10
9.4850562019
 20
6.2090459969
 30
0.0
 10
9.4861843712
 20
6.2086206092
 30
0.0
 10
9.4876899661
 20
6.2080566201
 30
0.0
 10
9.489571491
 20
6.20735054
 30
0.0
 10
9.4925821929
 20
6.2062214231
 30
0.0
 10
9.4963454802
 20
6.2048098172
 30
0.0
 10
9.5008614637
 20
6.2031159801
 30
0.0
 10
9.5053774368
 20
6.2014221189
 30
0.0
 10
9.5113987378
 20
6.1991636456
 30
0.0
 10
9.518925363
 20
6.1963405513
 30
0.0
 10
9.5264519884
 20
6.1935174577
 30
0.0
 10
9.5324732889
 20
6.1912589834
 30
0.0
 10
9.5369892636
 20
6.1895651254
 30
0.0
 10
9.5415052411
 20
6.1878712764
 30
0.0
 10
9.5452685471
 20
6.1864597072
 30
0.0
 10
9.548279211
 20
6.1853305155
 30
0.0
 10
9.5501608323
 20
6.1846246257
 30
0.0
 10
9.5516662294
 20
6.1840602459
 30
0.0
 10
9.5527950032
 20
6.1836360519
 30
0.0
 10
9.5537365197
 20
6.1832854492
 30
0.0
 10
9.5543938707
 20
6.1830343512
 30
0.0
 10
9.5547721706
 20
6.1828997294
 30
0.0
 10
9.5550483721
 20
6.1827737965
 30
0.0
 10
9.555353332
 20
6.1827432982
 30
0.0
 10
9.5557499139
 20
6.1826693452
 30
0.0
 10
9.5564486061
 20
6.1825554372
 30
0.0
 10
9.5574442942
 20
6.1823846027
 30
0.0
 10
9.5586401658
 20
6.1821830721
 30
0.0
 10
9.5602342961
 20
6.1819131524
 30
0.0
 10
9.5622270839
 20
6.1815761679
 30
0.0
 10
9.5654154746
 20
6.1810367606
 30
0.0
 10
9.5694009869
 20
6.1803625811
 30
0.0
 10
9.5741835913
 20
6.1795535316
 30
0.0
 10
9.5789661986
 20
6.1787444912
 30
0.0
 10
9.5853430073
 20
6.1776657675
 30
0.0
 10
9.5933140184
 20
6.176317364
 30
0.0
 10
9.6028792317
 20
6.1746992793
 30
0.0
 10
9.6156328495
 20
6.1725418333
 30
0.0
 10
9.6251980628
 20
6.1709237487
 30
0.0
 10
9.6315748716
 20
6.1698450256
 30
0.0
  0
SPLINE
  5
3CA
100
AcDbEntity
  8
0
100
AcDbSpline
 62
4
  6
CONTINUOUS
 70
0
 71
3
 72
393
 73
389
 74
0
 42
0.0000001
 43
0.0000001
 44
0.0000000001
 40
0.0
 40
0.0
 40
0.0
 40
0.0
 40
0.015625
 40
0.0234375
 40
0.03125
 40
0.0390625
 40
0.04296875
 40
0.046875
 40
0.05078125
 40
0.0546875
 40
0.056640625
 40
0.05859375
 40
0.0595703125
 40
0.060546875
 40
0.0615234375
 40
0.0620117188
 40
0.0622558594
 40
0.0625
 40
0.0627441406
 40
0.0629882812
 40
0.0634765625
 40
0.064453125
 40
0.0654296875
 40
0.06640625
 40
0.068359375
 40
0.0703125
 40
0.07421875
 40
0.078125
 40
0.08203125
 40
0.0859375
 40
0.09375
 40
0.1015625
 40
0.10546875
 40
0.109375
 40
0.11328125
 40
0.1171875
 40
0.119140625
 40
0.12109375
 40
0.1220703125
 40
0.123046875
 40
0.1240234375
 40
0.1245117188
 40
0.1247558594
 40
0.125
 40
0.1252441406
 40
0.1254882812
 40
0.1259765625
 40
0.126953125
 40
0.1279296875
 40
0.12890625
 40
0.130859375
 40
0.1328125
 40
0.13671875
 40
0.140625
 40
0.14453125
 40
0.1484375
 40
0.15625
 40
0.1640625
 40
0.16796875
 40
0.171875
 40
0.17578125
 40
0.1796875
 40
0.181640625
 40
0.18359375
 40
0.1845703125
 40
0.185546875
 40
0.1865234375
 40
0.1870117188
 40
0.1872558594
 40
0.1875
 40
0.1877441406
 40
0.1879882812
 40
0.1884765625
 40
0.189453125
 40
0.1904296875
 40
0.19140625
 40
0.193359375
 40
0.1953125
 40
0.19921875
 40
0.203125
 40
0.20703125
 40
0.2109375
 40
0.21875
 40
0.2265625
 40
0.23046875
 40
0.234375
 40
0.23828125
 40
0.2421875
 40
0.244140625
 40
0.24609375
 40
0.2470703125
 40
0.248046875
 40
0.2490234375
 40
0.2495117188
 40
0.2497558594
 40
0.25
 40
0.2502441406
 40
0.2504882812
 40
0.2509765625
 40
0.251953125
 40
0.2529296875
 40
0.25390625
 40
0.255859375
 40
0.2578125
 40
0.26171875
 40
0.265625
 40
0.26953125
 40
0.2734375
 40
0.28125
 40
0.2890625
 40
0.29296875
 40
0.296875
 40
0.30078125
 40
0.3046875
 40
0.306640625
 40
0.30859375
 40
0.3095703125
 40
0.310546875
 40
0.3115234375
 40
0.3120117188
 40
0.3122558594
 40
0.3125
 40
0.3127441406
 40
0.3129882812
 40
0.3134765625
 40
0.314453125
 40
0.3154296875
 40
0.31640625
 40
0.318359375
 40
0.3203125
 40
0.32421875
 40
0.328125
 40
0.33203125
 40
0.3359375
 40
0.34375
 40
0.3515625
 40
0.35546875
 40
0.359375
 40
0.36328125
 40
0.3671875
 40
0.369140625
 40
0.37109375
 40
0.3720703125
 40
0.373046875
 40
0.3740234375
 40
0.3745117188
 40
0.3747558594
 40
0.375
 40
0.3752441406
 40
0.3754882812
 40
0.3759765625
 40
0.376953125
 40
0.3779296875
 40
0.37890625
 40
0.380859375
 40
0.3828125
 40
0.38671875
 40
0.390625
 40
0.39453125
 40
0.3984375
 40
0.40625
 40
0.4140625
 40
0.41796875
 40
0.421875
 40
0.42578125
 40
0.4296875
 40
0.431640625
 40
0.43359375
 40
0.4345703125
 40
0.435546875
 40
0.4365234375
 40
0.4370117188
 40
0.4372558594
 40
0.4375
 40
0.4377441406
 40
0.4379882812
 40
0.4384765625
 40
0.439453125
 40
0.4404296875
 40
0.44140625
 40
0.443359375
 40
0.4453125
 40
0.44921875
 40
0.453125
 40
0.45703125
 40
0.4609375
 40
0.46875
 40
0.4765625
 40
0.48046875
 40
0.484375
 40
0.48828125
 40
0.4921875
 40
0.494140625
 40
0.49609375
 40
0.4970703125
 40
0.498046875
 40
0.4990234375
 40
0.4995117188
 40
0.4997558594
 40
0.5
 40
0.5002441406
 40
0.5004882812
 40
0.5009765625
 40
0.501953125
 40
0.5029296875
 40
0.50390625
 40
0.505859375
 40
0.5078125
 40
0.51171875
 40
0.515625
 40
0.51953125
 40
0.5234375
 40
0.53125
 40
0.5390625
 40
0.54296875
 40
0.546875
 40
0.55078125
 40
0.5546875
 40
0.556640625
 40
0.55859375
 40
0.5595703125
 40
0.560546875
 40
0.5615234375
 40
0.5620117188
 40
0.5625
 40
0.5629882812
 40
0.5634765625
 40
0.564453125
 40
0.5654296875
 40
0.56640625
 40
0.568359375
 40
0.5703125
 40
0.57421875
 40
0.578125
 40
0.58203125
 40
0.5859375
 40
0.59375
 40
0.6015625
 40
0.60546875
 40
0.609375
 40
0.61328125
 40
0.6171875
 40
0.619140625
 40
0.62109375
 40
0.6220703125
 40
0.623046875
 40
0.6240234375
 40
0.6245117188
 40
0.625
 40
0.6254882812
 40
0.6259765625
 40
0.626953125
 40
0.6279296875
 40
0.62890625
 40
0.630859375
 40
0.6328125
 40
0.63671875
 40
0.640625
 40
0.64453125
 40
0.6484375
 40
0.65625
 40
0.6640625
 40
0.66796875
 40
0.671875
 40
0.67578125
 40
0.6796875
 40
0.681640625
 40
0.68359375
 40
0.6845703125
 40
0.685546875
 40
0.6865234375
 40
0.6870117188
 40
0.6872558594
 40
0.6875
 40
0.6877441406
 40
0.6879882812
 40
0.6884765625
 40
0.689453125
 40
0.6904296875
 40
0.69140625
 40
0.693359375
 40
0.6953125
 40
0.69921875
 40
0.703125
 40
0.70703125
 40
0.7109375
 40
0.71875
 40
0.7265625
 40
0.73046875
 40
0.734375
 40
0.73828125
 40
0.7421875
 40
0.744140625
 40
0.74609375
 40
0.7470703125
 40
0.748046875
 40
0.7490234375
 40
0.7495117188
 40
0.75
 40
0.7504882812
 40
0.7509765625
 40
0.751953125
 40
0.7529296875
 40
0.75390625
 40
0.755859375
 40
0.7578125
 40
0.76171875
 40
0.765625
 40
0.76953125
 40
0.7734375
 40
0.78125
 40
0.7890625
 40
0.79296875
 40
0.796875
 40
0.80078125
 40
0.8046875
 40
0.806640625
 40
0.80859375
 40
0.8095703125
 40
0.810546875
 40
0.8115234375
 40
0.8120117188
 40
0.8125
 40
0.8129882812
 40
0.8134765625
 40
0.814453125
 40
0.8154296875
 40
0.81640625
 40
0.818359375
 40
0.8203125
 40
0.82421875
 40
0.828125
 40
0.83203125
 40
0.8359375
 40
0.84375
 40
0.8515625
 40
0.85546875
 40
0.859375
 40
0.86328125
 40
0.8671875
 40
0.869140625
 40
0.87109375
 40
0.8720703125
 40
0.873046875
 40
0.8740234375
 40
0.8745117188
 40
0.875
 40
0.8754882812
 40
0.8759765625
 40
0.876953125
 40
0.8779296875
 40
0.87890625
 40
0.880859375
 40
0.8828125
 40
0.88671875
 40
0.890625
 40
0.89453125
 40
0.8984375
 40
0.90625
 40
0.9140625
 40
0.91796875
 40
0.921875
 40
0.92578125
 40
0.9296875
 40
0.931640625
 40
0.93359375
 40
0.9345703125
 40
0.935546875
 40
0.9365234375
 40
0.9370117188
 40
0.9372558594
 40
0.9375
 40
0.9377441406
 40
0.9379882812
 40
0.9384765625
 40
0.939453125
 40
0.9404296875
 40
0.94140625
 40
0.943359375
 40
0.9453125
 40
0.94921875
 40
0.953125
 40
0.95703125
 40
0.9609375
 40
0.96875
 40
0.9765625
 40
0.984375
 40
1.0
 40
1.0
 40
1.0
 40
1.0
 10
9.6315748378
 20
6.169845028
 30
0.0
 10
9.6378412116
 20
6.1700248768
 30
0.0
 10
9.6472407724
 20
6.17029465
 30
0.0
 10
9.6597735201
 20
6.1706543476
 30
0.0
 10
9.6691730808
 20
6.170924121
 30
0.0
 10
9.6770060482
 20
6.1711489317
 30
0.0
 10
9.6832724219
 20
6.1713287812
 30
0.0
 10
9.6879722026
 20
6.1714636658
 30
0.0
 10
9.6926719816
 20
6.1715985599
 30
0.0
 10
9.6965884697
 20
6.1717109422
 30
0.0
 10
9.6997216474
 20
6.171800914
 30
0.0
 10
9.7016799128
 20
6.1718569961
 30
0.0
 10
9.7032464579
 20
6.1719022059
 30
0.0
 10
9.7044215507
 20
6.1719351714
 30
0.0
 10
9.7054002095
 20
6.1719656385
 30
0.0
 10
9.706086419
 20
6.1719810862
 30
0.0
 10
9.7064767457
 20
6.1719990935
 30
0.0
 10
9.7067745418
 20
6.1719867385
 30
0.0
 10
9.7070530299
 20
6.1720732354
 30
0.0
 10
9.7074310822
 20
6.172154084
 30
0.0
 10
9.7080895359
 20
6.1723116341
 30
0.0
 10
9.7090318245
 20
6.1725283066
 30
0.0
 10
9.7101618686
 20
6.1727919087
 30
0.0
 10
9.7116688393
 20
6.1731421225
 30
0.0
 10
9.7135524688
 20
6.1735803196
 30
0.0
 10
9.7165663228
 20
6.1742811948
 30
0.0
 10
9.7203336243
 20
6.1751573712
 30
0.0
 10
9.724854393
 20
6.1762087476
 30
0.0
 10
9.7293751598
 20
6.1772601334
 30
0.0
 10
9.7354028495
 20
6.1786619778
 30
0.0
 10
9.7429374614
 20
6.1804142846
 30
0.0
 10
9.7504720736
 20
6.1821665905
 30
0.0
 10
9.7564997629
 20
6.1835684363
 30
0.0
 10
9.7610205309
 20
6.1846198182
 30
0.0
 10
9.7655412952
 20
6.1856712091
 30
0.0
 10
9.7693086101
 20
6.1865473401
 30
0.0
 10
9.7723224368
 20
6.187248308
 30
0.0
 10
9.774206136
 20
6.1876862692
 30
0.0
 10
9.7757129635
 20
6.1880369672
 30
0.0
 10
9.7768434451
 20
6.1882990901
 30
0.0
 10
9.777784365
 20
6.1885203908
 30
0.0
 10
9.778445262
 20
6.1886696788
 30
0.0
 10
9.7788193995
 20
6.1887637652
 30
0.0
 10
9.7791099125
 20
6.1888095996
 30
0.0
 10
9.7793625449
 20
6.1889499663
 30
0.0
 10
9.7797126013
 20
6.1891041481
 30
0.0
 10
9.7803190436
 20
6.1893893293
 30
0.0
 10
9.7811886084
 20
6.189788699
 30
0.0
 10
9.7822307085
 20
6.1902713807
 30
0.0
 10
9.7836206565
 20
6.1909137554
 30
0.0
 10
9.7853579267
 20
6.1917171349
 30
0.0
 10
9.7881376511
 20
6.1930023123
 30
0.0
 10
9.7916122751
 20
6.194608863
 30
0.0
 10
9.7957818373
 20
6.19653669
 30
0.0
 10
9.799951396
 20
6.198464526
 30
0.0
 10
9.8055108088
 20
6.2010349709
 30
0.0
 10
9.8124600743
 20
6.2042480282
 30
0.0
 10
9.8194093402
 20
6.2074610847
 30
0.0
 10
9.8249687524
 20
6.2100315309
 30
0.0
 10
9.8291383128
 20
6.2119593631
 30
0.0
 10
9.8333078685
 20
6.2138872043
 30
0.0
 10
9.8367825128
 20
6.215493711
 30
0.0
 10
9.8395621958
 20
6.2167789781
 30
0.0
 10
9.8412995714
 20
6.2175821294
 30
0.0
 10
9.842689303
 20
6.2182249726
 30
0.0
 10
9.8437320643
 20
6.2187062228
 30
0.0
 10
9.8445995604
 20
6.219110071
 30
0.0
 10
9.8452096957
 20
6.2193872575
 30
0.0
 10
9.845553835
 20
6.2195542488
 30
0.0
 10
9.8458246426
 20
6.2196552686
 30
0.0
 10
9.8460468926
 20
6.2198488837
 30
0.0
 10
9.8463601633
 20
6.2200747388
 30
0.0
 10
9.8469004957
 20
6.2204850337
 30
0.0
 10
9.8476765249
 20
6.2210633018
 30
0.0
 10
9.8486059939
 20
6.221760591
 30
0.0
 10
9.8498459028
 20
6.2226891338
 30
0.0
 10
9.8513955776
 20
6.2238502149
 30
0.0
 10
9.8538751754
 20
6.2257077197
 30
0.0
 10
9.8569746322
 20
6.228029678
 30
0.0
 10
9.8606939977
 20
6.2308159947
 30
0.0
 10
9.8644133586
 20
6.2336023203
 30
0.0
 10
9.869372508
 20
6.2373174181
 30
0.0
 10
9.8755714441
 20
6.2419612914
 30
0.0
 10
9.8817703808
 20
6.246605164
 30
0.0
 10
9.8867295294
 20
6.2503202628
 30
0.0
 10
9.8904488928
 20
6.2531065852
 30
0.0
 10
9.8941682487
 20
6.2558929142
 30
0.0
 10
9.8972677352
 20
6.2582148341
 30
0.0
 10
9.8997472724
 20
6.2600724171
 30
0.0
 10
9.9012971015
 20
6.2612332992
 30
0.0
 10
9.9025366938
 20
6.2621622507
 30
0.0
 10
9.9034671299
 20
6.2628582913
 30
0.0
 10
9.9042401333
 20
6.2634404659
 30
0.0
 10
9.9047858671
 20
6.263843787
 30
0.0
 10
9.9050904835
 20
6.2640808159
 30
0.0
 10
9.9053393171
 20
6.2642401086
 30
0.0
 10
9.9055102811
 20
6.2644700376
 30
0.0
 10
9.9057653948
 20
6.2647519709
 30
0.0
 10
9.9061991887
 20
6.2652568338
 30
0.0
 10
9.9068255105
 20
6.2659720649
 30
0.0
 10
9.9075742647
 20
6.266832911
 30
0.0
 10
9.9085735928
 20
6.2679798086
 30
0.0
 10
9.9098224143
 20
6.2694137379
 30
0.0
 10
9.9118207178
 20
6.271707853
 30
0.0
 10
9.9143185324
 20
6.2745755557
 30
0.0
 10
9.9173159377
 20
6.2780167738
 30
0.0
 10
9.9203133355
 20
6.2814579986
 30
0.0
 10
9.9243098685
 20
6.286046296
 30
0.0
 10
9.9293055339
 20
6.2917816686
 30
0.0
 10
9.9343011999
 20
6.2975170407
 30
0.0
 10
9.9382977319
 20
6.3021053389
 30
0.0
 10
9.9412951329
 20
6.3055465611
 30
0.0
 10
9.9442925261
 20
6.3089877891
 30
0.0
 10
9.9467903783
 20
6.3118554609
 30
0.0
 10
9.948788605
 20
6.3141496391
 30
0.0
 10
9.9500376222
 20
6.3155834077
 30
0.0
 10
9.9510365485
 20
6.316730635
 30
0.0
 10
9.9517865302
 20
6.317590474
 30
0.0
 10
9.9524090115
 20
6.3183088561
 30
0.0
 10
9.9528496614
 20
6.3188080939
 30
0.0
 10
9.9530937901
 20
6.3190990401
 30
0.0
 10
9.9532984967
 20
6.3193012844
 30
0.0
 10
9.9534205985
 20
6.3195645564
 30
0.0
 10
9.9536122143
 20
6.3198942986
 30
0.0
 10
9.9539341174
 20
6.3204812656
 30
0.0
 10
9.9544009974
 20
6.3213146046
 30
0.0
 10
9.9549582493
 20
6.3223168309
 30
0.0
 10
9.9557023012
 20
6.3236523573
 30
0.0
 10
9.9566320067
 20
6.3253220309
 30
0.0
 10
9.9581197363
 20
6.3279933601
 30
0.0
 10
9.9599793294
 20
6.3313325726
 30
0.0
 10
9.9622108707
 20
6.3353396058
 30
0.0
 10
9.964442404
 20
6.3393466448
 30
0.0
 10
9.9674177846
 20
6.3446893614
 30
0.0
 10
9.9711370093
 20
6.3513677579
 30
0.0
 10
9.9748562348
 20
6.358046154
 30
0.0
 10
9.9778316142
 20
6.3633888714
 30
0.0
 10
9.9800631511
 20
6.3673959082
 30
0.0
 10
9.9822946792
 20
6.3714029494
 30
0.0
 10
9.9841543133
 20
6.374742137
 30
0.0
 10
9.9856419593
 20
6.3774135169
 30
0.0
 10
9.9865718775
 20
6.3790830616
 30
0.0
 10
9.9873154928
 20
6.3804188525
 30
0.0
 10
9.9878740785
 20
6.381420271
 30
0.0
 10
9.9883367853
 20
6.3822561371
 30
0.0
 10
9.9886661384
 20
6.3828385928
 30
0.0
 10
9.9888458174
 20
6.3831755633
 30
0.0
 10
9.9890045852
 20
6.3834166324
 30
0.0
 10
9.9890715804
 20
6.3837022673
 30
0.0
 10
9.9891929186
 20
6.3840675687
 30
0.0
 10
9.9893903458
 20
6.3847140889
 30
0.0
 10
9.9896801821
 20
6.3856339026
 30
0.0
 10
9.9900246482
 20
6.3867392998
 30
0.0
 10
9.9904851021
 20
6.3882125967
 30
0.0
 10
9.9910602702
 20
6.3900544116
 30
0.0
 10
9.9919807623
 20
6.3930012071
 30
0.0
 10
9.9931313009
 20
6.3966847387
 30
0.0
 10
9.99451198
 20
6.4011049606
 30
0.0
 10
9.9958926504
 20
6.4055251869
 30
0.0
 10
9.9977335473
 20
6.4114188203
 30
0.0
 10
10.0000346672
 20
6.4187858627
 30
0.0
 10
10.0023357879
 20
6.4261529048
 30
0.0
 10
10.0041766835
 20
6.4320465388
 30
0.0
 10
10.0055573577
 20
6.4364667634
 30
0.0
 10
10.0069380225
 20
6.4408869914
 30
0.0
 10
10.0080886056
 20
6.4445705042
 30
0.0
 10
10.009009007
 20
6.4475173381
 30
0.0
 10
10.009584406
 20
6.4493590553
 30
0.0
 10
10.0100443861
 20
6.4508325527
 30
0.0
 10
10.0103902994
 20
6.4519373374
 30
0.0
 10
10.0106756077
 20
6.4528590676
 30
0.0
 10
10.0108811182
 20
6.4535021665
 30
0.0
 10
10.0109895049
 20
6.4538729497
 30
0.0
 10
10.0110962831
 20
6.4541417461
 30
0.0
 10
10.0111056324
 20
6.4544460575
 30
0.0
 10
10.0111520824
 20
6.4548394179
 30
0.0
 10
10.0112175359
 20
6.4555335705
 30
0.0
 10
10.0113193192
 20
6.4565221995
 30
0.0
 10
10.0114379158
 20
6.4577098459
 30
0.0
 10
10.0115972822
 20
6.4592929233
 30
0.0
 10
10.0117960664
 20
6.4612719246
 30
0.0
 10
10.012114358
 20
6.4644382402
 30
0.0
 10
10.0125121413
 20
6.4683961644
 30
0.0
 10
10.0129895161
 20
6.4731456607
 30
0.0
 10
10.0134668815
 20
6.4778951604
 30
0.0
 10
10.014103372
 20
6.4842278255
 30
0.0
 10
10.0148989839
 20
6.4921436573
 30
0.0
 10
10.0156945967
 20
6.5000594889
 30
0.0
 10
10.0163310859
 20
6.5063921543
 30
0.0
 10
10.0168084553
 20
6.5111416533
 30
0.0
 10
10.017285815
 20
6.5158911521
 30
0.0
 10
10.017683645
 20
6.5198490684
 30
0.0
 10
10.0180018414
 20
6.5230154002
 30
0.0
 10
10.0182008679
 20
6.5249943604
 30
0.0
 10
10.018359737
 20
6.526577522
 30
0.0
 10
10.0184798529
 20
6.5277649114
 30
0.0
 10
10.0185768827
 20
6.5287543445
 30
0.0
 10
10.018650822
 20
6.5294470616
 30
0.0
 10
10.0186836757
 20
6.529842722
 30
0.0
 10
10.0187347884
 20
6.5301399685
 30
0.0
 10
10.0186847101
 20
6.5304352994
 30
0.0
 10
10.0186532355
 20
6.530829742
 30
0.0
 10
10.0185817098
 20
6.5315197053
 30
0.0
 10
10.0184881279
 20
6.5325055299
 30
0.0
 10
10.0183721495
 20
6.5336884498
 30
0.0
 10
10.018218797
 20
6.5352657007
 30
0.0
 10
10.0180266663
 20
6.5372372559
 30
0.0
 10
10.0177195031
 20
6.540391749
 30
0.0
 10
10.0173354647
 20
6.5443348637
 30
0.0
 10
10.0168746549
 20
6.549066602
 30
0.0
 10
10.0164138354
 20
6.5537983401
 30
0.0
 10
10.0157994127
 20
6.5601073244
 30
0.0
 10
10.0150313834
 20
6.5679935547
 30
0.0
 10
10.0142633535
 20
6.5758797849
 30
0.0
 10
10.013648932
 20
6.5821887694
 30
0.0
 10
10.0131881089
 20
6.5869205068
 30
0.0
 10
10.0127273122
 20
6.5916522477
 30
0.0
 10
10.012343233
 20
6.5955953545
 30
0.0
 10
10.0120361532
 20
6.5987498636
 30
0.0
 10
10.0118438103
 20
6.600721378
 30
0.0
 10
10.0116908934
 20
6.6022987127
 30
0.0
 10
10.0115735843
 20
6.6034813765
 30
0.0
 10
10.0114841657
 20
6.6044680024
 30
0.0
 10
10.0113939281
 20
6.605254897
 30
0.0
 10
10.0113773547
 20
6.6058516429
 30
0.0
 10
10.0111657134
 20
6.6064232922
 30
0.0
 10
10.0109516647
 20
6.6071942579
 30
0.0
 10
10.0106607255
 20
6.6081549572
 30
0.0
 10
10.0103216052
 20
6.6093090838
 30
0.0
 10
10.0098659496
 20
6.6108474696
 30
0.0
 10
10.0092975768
 20
6.6127706059
 30
0.0
 10
10.0083875115
 20
6.6158475378
 30
0.0
 10
10.0072501595
 20
6.6196937323
 30
0.0
 10
10.0058852386
 20
6.6243091529
 30
0.0
 10
10.004520344
 20
6.628924577
 30
0.0
 10
10.0027004754
 20
6.6350784745
 30
0.0
 10
10.0004256431
 20
6.642770847
 30
0.0
 10
9.9981508085
 20
6.6504632189
 30
0.0
 10
9.9963309434
 20
6.6566171173
 30
0.0
 10
9.9949660381
 20
6.6612325388
 30
0.0
 10
9.9936011576
 20
6.6658479689
 30
0.0
 10
9.9924636799
 20
6.6696941341
 30
0.0
 10
9.9915538708
 20
6.6727711256
 30
0.0
 10
9.9909848462
 20
6.6746941103
 30
0.0
 10
9.9905305287
 20
6.6762328073
 30
0.0
 10
9.9901873201
 20
6.6773859831
 30
0.0
 10
9.9899091722
 20
6.6783496573
 30
0.0
 10
9.9896690267
 20
6.6791145537
 30
0.0
 10
9.9895370837
 20
6.6797047383
 30
0.0
 10
9.98922129
 20
6.6802318952
 30
0.0
 10
9.9888644531
 20
6.6809567874
 30
0.0
 10
9.988396373
 20
6.681855349
 30
0.0
 10
9.9878441081
 20
6.6829368562
 30
0.0
 10
9.9871044608
 20
6.6843777364
 30
0.0
 10
9.9861810296
 20
6.6861792234
 30
0.0
 10
9.9847029093
 20
6.6890613864
 30
0.0
 10
9.9828554752
 20
6.6926641644
 30
0.0
 10
9.9806384615
 20
6.6969874661
 30
0.0
 10
9.9784214727
 20
6.7013107764
 30
0.0
 10
9.9754654789
 20
6.7070751871
 30
0.0
 10
9.9717704895
 20
6.7142807014
 30
0.0
 10
9.9680754995
 20
6.7214862156
 30
0.0
 10
9.9651195068
 20
6.7272506266
 30
0.0
 10
9.9629025146
 20
6.731573936
 30
0.0
 10
9.9606855138
 20
6.7358972412
 30
0.0
 10
9.9588380397
 20
6.7395000083
 30
0.0
 10
9.9573600009
 20
6.7423821936
 30
0.0
 10
9.9564363622
 20
6.7441836238
 30
0.0
 10
9.9556971407
 20
6.7456246205
 30
0.0
 10
9.9551435747
 20
6.7467057718
 30
0.0
 10
9.9546795655
 20
6.747605447
 30
0.0
 10
9.954360066
 20
6.7482377397
 30
0.0
 10
9.9541692085
 20
6.748595115
 30
0.0
 10
9.9540494082
 20
6.7488742308
 30
0.0
 10
9.95384038
 20
6.7491109769
 30
0.0
 10
9.9535927995
 20
6.7494414175
 30
0.0
 10
9.9531450324
 20
6.7500128026
 30
0.0
 10
9.9525129465
 20
6.7508326671
 30
0.0
 10
9.9517511984
 20
6.7518149635
 30
0.0
 10
9.9507366677
 20
6.7531252303
 30
0.0
 10
9.9494681162
 20
6.7547628795
 30
0.0
 10
9.9474386507
 20
6.7573832212
 30
0.0
 10
9.9449017444
 20
6.7606586131
 30
0.0
 10
9.9418574888
 20
6.7645890984
 30
0.0
 10
9.9388132246
 20
6.7685195797
 30
0.0
 10
9.9347542087
 20
6.7737602228
 30
0.0
 10
9.9296804379
 20
6.7803110264
 30
0.0
 10
9.9246066668
 20
6.7868618293
 30
0.0
 10
9.9205476515
 20
6.7921024735
 30
0.0
 10
9.9175033854
 20
6.7960329515
 30
0.0
 10
9.9144591369
 20
6.7999634493
 30
0.0
 10
9.9119222083
 20
6.8032388024
 30
0.0
 10
9.9098927883
 20
6.805859223
 30
0.0
 10
9.9086241211
 20
6.8074966715
 30
0.0
 10
9.9076098279
 20
6.8088073504
 30
0.0
 10
9.9068473543
 20
6.8097883878
 30
0.0
 10
9.9062175383
 20
6.8106121913
 30
0.0
 10
9.9057011734
 20
6.8112571666
 30
0.0
 10
9.9053480889
 20
6.8117793372
 30
0.0
 10
9.9048645039
 20
6.812154785
 30
0.0
 10
9.9042653094
 20
6.8127066342
 30
0.0
 10
9.9035006762
 20
6.8133788614
 30
0.0
 10
9.9025898108
 20
6.8141930607
 30
0.0
 10
9.9013729853
 20
6.8152760308
 30
0.0
 10
9.8998527541
 20
6.8166306436
 30
0.0
 10
9.8974199367
 20
6.818797521
 30
0.0
 10
9.8943790685
 20
6.8215062904
 30
0.0
 10
9.8907299609
 20
6.8247567397
 30
0.0
 10
9.8870808708
 20
6.8280072088
 30
0.0
 10
9.8822154113
 20
6.8323411606
 30
0.0
 10
9.8761335891
 20
6.837758603
 30
0.0
 10
9.8700517655
 20
6.8431760436
 30
0.0
 10
9.8651863082
 20
6.8475099983
 30
0.0
 10
9.8615372113
 20
6.8507604587
 30
0.0
 10
9.8578881294
 20
6.8540109404
 30
0.0
 10
9.8548471812
 20
6.856719609
 30
0.0
 10
9.8524145269
 20
6.8588866921
 30
0.0
 10
9.8508938808
 20
6.8602407814
 30
0.0
 10
9.8496779069
 20
6.8613248262
 30
0.0
 10
9.8487644399
 20
6.8621357423
 30
0.0
 10
9.8480079464
 20
6.8628182417
 30
0.0
 10
9.8473921453
 20
6.8633491335
 30
0.0
 10
9.8469592758
 20
6.8637885842
 30
0.0
 10
9.8464157842
 20
6.8640704612
 30
0.0
 10
9.8457297704
 20
6.8645013397
 30
0.0
 10
9.8448589954
 20
6.865021053
 30
0.0
 10
9.8438197401
 20
6.8656527922
 30
0.0
 10
9.8424320844
 20
6.8664922879
 30
0.0
 10
9.8406981933
 20
6.8675426242
 30
0.0
 10
9.8379235884
 20
6.8692226221
 30
0.0
 10
9.8344554624
 20
6.8713228047
 30
0.0
 10
9.8302936553
 20
6.8738429444
 30
0.0
 10
9.8261318632
 20
6.8763631054
 30
0.0
 10
9.8205828018
 20
6.8797233126
 30
0.0
 10
9.813646477
 20
6.8839235745
 30
0.0
 10
9.8067101511
 20
6.8881238343
 30
0.0
 10
9.8011610915
 20
6.8914840447
 30
0.0
 10
9.796999294
 20
6.8940041961
 30
0.0
 10
9.7928375069
 20
6.8965243716
 30
0.0
 10
9.7893693189
 20
6.898624443
 30
0.0
 10
9.7865948404
 20
6.9003046678
 30
0.0
 10
9.7848606275
 20
6.9013544263
 30
0.0
 10
9.7834736323
 20
6.9021951081
 30
0.0
 10
9.782432359
 20
6.9028232236
 30
0.0
 10
9.7815678981
 20
6.9033542747
 30
0.0
 10
9.7808690024
 20
6.903762022
 30
0.0
 10
9.7803648513
 20
6.9041145404
 30
0.0
 10
9.7797842811
 20
6.9042887735
 30
0.0
 10
9.7790368816
 20
6.9045833618
 30
0.0
 10
9.7780934737
 20
6.90493023
 30
0.0
 10
9.7769653044
 20
6.9053556176
 30
0.0
 10
9.7754597095
 20
6.9059196067
 30
0.0
 10
9.7735781846
 20
6.9066256868
 30
0.0
 10
9.7705674827
 20
6.9077548037
 30
0.0
 10
9.7668041954
 20
6.9091664096
 30
0.0
 10
9.7622882119
 20
6.9108602468
 30
0.0
 10
9.7577722388
 20
6.912554108
 30
0.0
 10
9.7517509378
 20
6.9148125812
 30
0.0
 10
9.7442243126
 20
6.9176356755
 30
0.0
 10
9.7366976872
 20
6.9204587691
 30
0.0
 10
9.7306763867
 20
6.9227172434
 30
0.0
 10
9.726160412
 20
6.9244111015
 30
0.0
 10
9.7216444345
 20
6.9261049504
 30
0.0
 10
9.7178811285
 20
6.9275165196
 30
0.0
 10
9.7148704646
 20
6.9286457113
 30
0.0
 10
9.7129888433
 20
6.9293516011
 30
0.0
 10
9.7114834462
 20
6.9299159809
 30
0.0
 10
9.7103546724
 20
6.9303401749
 30
0.0
 10
9.7094131559
 20
6.9306907776
 30
0.0
 10
9.7087558049
 20
6.9309418756
 30
0.0
 10
9.708377505
 20
6.9310764974
 30
0.0
 10
9.7081013035
 20
6.9312024303
 30
0.0
 10
9.7077963436
 20
6.9312329286
 30
0.0
 10
9.7073997617
 20
6.9313068816
 30
0.0
 10
9.7067010695
 20
6.9314207897
 30
0.0
 10
9.7057053814
 20
6.9315916241
 30
0.0
 10
9.7045095098
 20
6.9317931547
 30
0.0
 10
9.7029153795
 20
6.9320630744
 30
0.0
 10
9.7009225917
 20
6.932400059
 30
0.0
 10
9.697734201
 20
6.9329394662
 30
0.0
 10
9.6937486887
 20
6.9336136457
 30
0.0
 10
9.6889660843
 20
6.9344226952
 30
0.0
 10
9.684183477
 20
6.9352317356
 30
0.0
 10
9.6778066683
 20
6.9363104593
 30
0.0
 10
9.6698356572
 20
6.9376588628
 30
0.0
 10
9.6602704439
 20
6.9392769475
 30
0.0
 10
9.6475168261
 20
6.9414343936
 30
0.0
 10
9.6379516128
 20
6.9430524782
 30
0.0
 10
9.631574804
 20
6.9441312012
 30
0.0
  0
ENDSEC
  0
SECTION
  2
OBJECTS
  0
DICTIONARY
  5
C
100
AcDbDictionary
280
0
281
1
  3
ACAD_GROUP
350
D
  3
ACAD_MLINESTYLE
350
17
  3
ACAD_LAYOUT
350
1A
  3
ACAD_PLOTSETTINGS
350
19
  3
ACAD_PLOTSTYLENAME
350
E
  3
ACAD_IMAGE_DICT
350
       3CC
  3
ACAD_IMAGE_VARS
350
       3CD
  3
ACAD_TABLESTYLE
350
       3CE
  0
IMAGEDEF_REACTOR
  5
3CB
100
AcDbRasterImageDefReactor
 90
2
330
286
  0
DICTIONARY
  5
D
102
{ACAD_REACTORS
330
C
102
}
100
AcDbDictionary
280
0
281
1
  0
ACDBDICTIONARYWDFLT
  5
E
102
{ACAD_REACTORS
330
C
102
}
100
AcDbDictionary
281
1
  3
Normal
350
F
100
AcDbDictionaryWithDefault
340
F
  0
DICTIONARY
  5
3CC
330
C
100
AcDbDictionary
281
1
  3
Z8C_assy_2_img_1
350
       3D1
  0
RASTERVARIABLES
  5
3CD
330
C
100
AcDbRasterVariables
 90
0
 70
0
 71
1
 72
5
  0
DICTIONARY
  5
17
102
{ACAD_REACTORS
330
C
102
}
100
AcDbDictionary
280
0
281
1
  3
Standard
350
18
  0
DICTIONARY
  5
3CE
330
C
100
AcDbDictionary
281
1
  3
Standard
350
       3D2
  3
Standard1
350
       3D3
  0
DICTIONARY
  5
19
102
{ACAD_REACTORS
330
C
102
}
100
AcDbDictionary
281
1
  0
DICTIONARY
  5
1A
102
{ACAD_REACTORS
330
C
102
}
100
AcDbDictionary
281
1
  3
Model
350
3CF
  3
Layout1
350
3D0
  0
ACDBPLACEHOLDER
  5
F
102
{ACAD_REACTORS
330
E
102
}
  0
MLINESTYLE
  5
18
102
{ACAD_REACTORS
330
17
102
}
100
AcDbMlineStyle
  2
STANDARD
 70
0
  3

 62
256
 51
90.0
 52
90.0
 71
2
 49
0.5
 62
256
  6
BYLAYER
 49
-0.5
 62
256
  6
BYLAYER
  0
LAYOUT
  5
3CF
102
{ACAD_REACTORS
330
1A
102
}
100
AcDbPlotSettings
  1

  2
none_device
  4
ANSI_C_(22.00_x_17.00_Inches)
  6

 40
0.0
 41
0.0
 42
0.0
 43
0.0
 44
558.8
 45
431.8
 46
0.0
 47
0.0
 48
0.0
 49
0.0
140
0.0
141
0.0
142
1.0
143
1.0
 70
1024
 72
0
 73
0
 74
0
  7

 75
0
147
1.0
148
0.0
149
0.0
100
AcDbLayout
  1
Model
 70
0
 71
0
 10
0.0
 20
0.0
 11
22.0
 21
17.0
 12
0.0
 22
0.0
 32
0.0
 14
0.0
 24
0.0
 34
0.0
 15
0.0
 25
0.0
 35
0.0
146
0.0
 13
0.0
 23
0.0
 33
0.0
 16
1.0
 26
0.0
 36
0.0
 17
0.0
 27
1.0
 37
0.0
 76
0
330
204
345
0
346
0
  0
LAYOUT
  5
3D0
102
{ACAD_REACTORS
330
1A
102
}
100
AcDbPlotSettings
  1

  2
none_device
  4
ANSI_C_(22.00_x_17.00_Inches)
  6

 40
0.0
 41
0.0
 42
0.0
 43
0.0
 44
558.8
 45
431.8
 46
0.0
 47
0.0
 48
0.0
 49
0.0
140
0.0
141
0.0
142
1.0
143
1.0
 70
0
 72
0
 73
0
 74
0
  7

 75
0
147
1.0
148
0.0
149
0.0
100
AcDbLayout
  1
Layout1
 70
0
 71
1
 10
0.0
 20
0.0
 11
22.0
 21
17.0
 12
0.0
 22
0.0
 32
0.0
 14
0.0
 24
0.0
 34
0.0
 15
0.0
 25
0.0
 35
0.0
146
0.0
 13
0.0
 23
0.0
 33
0.0
 16
1.0
 26
0.0
 36
0.0
 17
0.0
 27
1.0
 37
0.0
 76
0
330
205
345
0
346
0
  0
IMAGEDEF
  5
3D1
102
{ACAD_REACTORS
330
3CC
330
3CB
102
}
100
AcDbRasterImageDef
 90
0
  1
Z8C_assy_2_img_1.png
 10
369.0
 20
92.0
 11
0.0066666667
 21
0.0066666667
280
1
281
0
  0
TABLESTYLE
  5
3D2
102
{ACAD_REACTORS
330
3CE
330
289
330
28A
102
}
330
3CE
100
AcDbTableStyle
  3
Standard
 70
0
 71
0
 40
0.06
 41
0.06
280
1
281
1
  7
Standard
140
0.18
170
1
 62
0
 63
7
283
0
  7
Standard
140
0.18
170
1
 62
0
 63
7
283
0
  7
Standard
140
0.18
170
1
 62
0
 63
7
283
0
  0
TABLESTYLE
  5
3D3
102
{ACAD_REACTORS
330
3CE
330
288
102
}
330
3CE
100
AcDbTableStyle
  3
Standard1
 70
1
 71
0
 40
0.06
 41
0.06
280
1
281
1
  7
Standard
140
0.18
170
1
 62
0
 63
7
283
0
  7
Standard
140
0.18
170
1
 62
0
 63
7
283
0
  7
Standard
140
0.18
170
1
 62
0
 63
7
283
0
  0
ENDSEC
  0
EOF
