999
DXF file: Z8A_assy_2.dxf
999
Pro/ENGINEER 2014200 by Parametric Technology Corporation
  0
SECTION
  2
HEADER
  9
$ACADVER
  1
AC1021
  9
$DWGCODEPAGE
  3
ANSI_1252
  9
$EXTMAX
 10
22.0
 20
17.0
 30
0.0
  9
$EXTMIN
 10
0.0
 20
0.0
 30
0.0
  9
$LIMMIN
 10
0.0
 20
0.0
  9
$LIMMAX
 10
22.0
 20
17.0
  9
$VIEWCTR
 10
11.0
 20
8.5
  9
$VIEWSIZE
 40
17.0
  9
$CLAYER
  8
0
  9
$LTSCALE
 40
1.21
  9
$CELTYPE
  6
BYLAYER
  9
$DIMSCALE
 40
1.0
  9
$DIMASZ
 40
0.1875
  9
$DIMEXO
 40
0.0625
  9
$DIMDLI
 40
0.836
  9
$DIMEXE
 40
0.125
  9
$DIMCEN
 40
0.198
  9
$DIMLFAC
 40
1.0
  9
$DIMBLK
  1
_FILLED
  9
$DIMTXT
 40
0.1
  9
$DIMTOL
 70
0
  9
$DIMLIM
 70
0
  9
$DIMTFAC
 40
1.0
  9
$DIMGAP
 40
0.09
  9
$DIMDSEP
 70
46
  9
$AUNITS
 70
0
  9
$PDMODE
 70
3
  9
$PDSIZE
 40
0.3125
  9
$HANDSEED
  5
3E4
  9
$TILEMODE
 70
1
  9
$MEASUREMENT
 70
0
  9
$INSUNITS
 70
1
  0
ENDSEC
  0
SECTION
  2
CLASSES
  0
CLASS
  1
ACDBDICTIONARYWDFLT
  2
AcDbDictionaryWithDefault
  3
AutoCAD 2000
 90
0
 91
1
280
0
281
0
  0
CLASS
  1
ACDBPLACEHOLDER
  2
AcDbPlaceHolder
  3
AutoCAD 2000
 90
0
 91
1
280
0
281
0
  0
CLASS
  1
LAYOUT
  2
AcDbLayout
  3
AutoCAD 2000
 90
0
 91
0
280
0
281
0
  0
CLASS
  1
RASTERVARIABLES
  2
AcDbRasterVariables
  3
ISM
 90
0
 91
1
280
0
281
0
  0
CLASS
  1
IMAGEDEF
  2
AcDbRasterImageDef
  3
ISM
 90
0
 91
1
280
0
281
0
  0
CLASS
  1
IMAGEDEF_REACTOR
  2
AcDbRasterImageDefReactor
  3
ISM
 90
0
 91
1
280
0
281
0
  0
CLASS
  1
IMAGE
  2
AcDbRasterImage
  3
ISM
 90
127
 91
1
280
0
281
1
  0
CLASS
  1
TABLESTYLE
  2
AcDbTableStyle
  3
ObjectDBX Classes
 90
2047
 91
1
280
0
281
0
  0
CLASS
  1
ACAD_TABLE
  2
AcDbTable
  3
ObjectDBX Classes
 90
1025
 91
3
280
0
281
1
  0
ENDSEC
  0
SECTION
  2
TABLES
  0
TABLE
  2
VPORT
  5
8
100
AcDbSymbolTable
 70
2
  0
VPORT
  5
1F4
100
AcDbSymbolTableRecord
100
AcDbViewportTableRecord
  2
*ACTIVE
 70
0
 10
0.0
 20
0.0
 11
1.0
 21
1.0
 12
11.0
 22
8.5
 13
0.0
 23
0.0
 14
1.0
 24
1.0
 15
0.0
 25
0.0
 16
0.0
 26
0.0
 36
1.0
 17
0.0
 27
0.0
 37
0.0
 40
17.0
 41
1.2941176471
 42
50.0
 43
0.0
 44
0.0
 50
0.0
 51
0.0
 71
0
 72
100
 73
1
 74
1
 75
0
 76
0
 77
0
 78
0
  0
ENDTAB
  0
TABLE
  2
LTYPE
  5
5
100
AcDbSymbolTable
 70
6
  0
LTYPE
  5
14
100
AcDbSymbolTableRecord
100
AcDbLinetypeTableRecord
  2
BYBLOCK
 70
0
  3

 72
65
 73
0
 40
0.0
  0
LTYPE
  5
15
100
AcDbSymbolTableRecord
100
AcDbLinetypeTableRecord
  2
BYLAYER
 70
0
  3

 72
65
 73
0
 40
0.0
  0
LTYPE
  5
16
100
AcDbSymbolTableRecord
100
AcDbLinetypeTableRecord
  2
CONTINUOUS
 70
64
  3
Solid line
 72
65
 73
0
 40
0.0
  0
LTYPE
  5
1F5
100
AcDbSymbolTableRecord
100
AcDbLinetypeTableRecord
  2
CENTER
 70
64
  3
____ _ ____ _ ____ _ ____ _ ____ _ ____ _ ____
 72
65
 73
4
 40
0.6
 49
0.375
 74
0
 49
-0.075
 74
0
 49
0.075
 74
0
 49
-0.075
 74
0
  0
LTYPE
  5
1F6
100
AcDbSymbolTableRecord
100
AcDbLinetypeTableRecord
  2
HIDDEN
 70
64
  3
- - - - - - - - - - - - - - - - - - - -
 72
65
 73
2
 40
0.2
 49
0.1
 74
0
 49
-0.1
 74
0
  0
LTYPE
  5
1F7
100
AcDbSymbolTableRecord
100
AcDbLinetypeTableRecord
  2
PHANTOM
 70
64
  3
_____ _ _ _____ _ _ _____ _ _ _____
 72
65
 73
6
 40
0.8
 49
0.45
 74
0
 49
-0.05
 74
0
 49
0.1
 74
0
 49
-0.05
 74
0
 49
0.1
 74
0
 49
-0.05
 74
0
  0
LTYPE
  5
1F8
100
AcDbSymbolTableRecord
100
AcDbLinetypeTableRecord
  2
DOT
 70
64
  3
. . . . . . . . . . . . . . . . . . . .
 72
65
 73
2
 40
0.2
 49
0.1
 74
0
 49
-0.1
 74
0
  0
LTYPE
  5
1F9
100
AcDbSymbolTableRecord
100
AcDbLinetypeTableRecord
  2
DASHED
 70
64
  3
- - - - - - - - - - - - - - - - - - - -
 72
65
 73
2
 40
0.2
 49
0.1
 74
0
 49
-0.1
 74
0
  0
ENDTAB
  0
TABLE
  2
LAYER
  5
2
100
AcDbSymbolTable
 70
36
  0
LAYER
  5
10
100
AcDbSymbolTableRecord
100
AcDbLayerTableRecord
  2
0
 70
0
 62
7
  6
CONTINUOUS
370
-3
390
F
  0
LAYER
  5
1FA
100
AcDbSymbolTableRecord
100
AcDbLayerTableRecord
  2
DEFAULT_1
 70
0
 62
7
  6
CENTER
370
-3
390
F
  0
LAYER
  5
1FB
100
AcDbSymbolTableRecord
100
AcDbLayerTableRecord
  2
DEFAULT_2
 70
0
 62
8
  6
HIDDEN
370
-3
390
F
  0
LAYER
  5
1FC
100
AcDbSymbolTableRecord
100
AcDbLayerTableRecord
  2
DEFAULT_3
 70
0
 62
7
  6
PHANTOM
370
-3
390
F
  0
LAYER
  5
1FD
100
AcDbSymbolTableRecord
100
AcDbLayerTableRecord
  2
1
 70
0
 62
7
  6
CONTINUOUS
370
-3
390
F
  0
LAYER
  5
1FE
100
AcDbSymbolTableRecord
100
AcDbLayerTableRecord
  2
10
 70
0
 62
7
  6
CONTINUOUS
370
-3
390
F
  0
LAYER
  5
1FF
100
AcDbSymbolTableRecord
100
AcDbLayerTableRecord
  2
11
 70
0
 62
7
  6
CONTINUOUS
370
-3
390
F
  0
LAYER
  5
200
100
AcDbSymbolTableRecord
100
AcDbLayerTableRecord
  2
12
 70
0
 62
7
  6
CONTINUOUS
370
-3
390
F
  0
LAYER
  5
201
100
AcDbSymbolTableRecord
100
AcDbLayerTableRecord
  2
13
 70
0
 62
7
  6
CONTINUOUS
370
-3
390
F
  0
LAYER
  5
202
100
AcDbSymbolTableRecord
100
AcDbLayerTableRecord
  2
14
 70
0
 62
7
  6
CONTINUOUS
370
-3
390
F
  0
LAYER
  5
203
100
AcDbSymbolTableRecord
100
AcDbLayerTableRecord
  2
15
 70
0
 62
7
  6
CONTINUOUS
370
-3
390
F
  0
LAYER
  5
204
100
AcDbSymbolTableRecord
100
AcDbLayerTableRecord
  2
16
 70
0
 62
7
  6
CONTINUOUS
370
-3
390
F
  0
LAYER
  5
205
100
AcDbSymbolTableRecord
100
AcDbLayerTableRecord
  2
17
 70
0
 62
7
  6
CONTINUOUS
370
-3
390
F
  0
LAYER
  5
206
100
AcDbSymbolTableRecord
100
AcDbLayerTableRecord
  2
18
 70
0
 62
7
  6
CONTINUOUS
370
-3
390
F
  0
LAYER
  5
207
100
AcDbSymbolTableRecord
100
AcDbLayerTableRecord
  2
19
 70
0
 62
7
  6
CONTINUOUS
370
-3
390
F
  0
LAYER
  5
208
100
AcDbSymbolTableRecord
100
AcDbLayerTableRecord
  2
2
 70
0
 62
7
  6
CONTINUOUS
370
-3
390
F
  0
LAYER
  5
209
100
AcDbSymbolTableRecord
100
AcDbLayerTableRecord
  2
20
 70
0
 62
7
  6
CONTINUOUS
370
-3
390
F
  0
LAYER
  5
20A
100
AcDbSymbolTableRecord
100
AcDbLayerTableRecord
  2
21
 70
0
 62
7
  6
CONTINUOUS
370
-3
390
F
  0
LAYER
  5
20B
100
AcDbSymbolTableRecord
100
AcDbLayerTableRecord
  2
22
 70
0
 62
7
  6
CONTINUOUS
370
-3
390
F
  0
LAYER
  5
20C
100
AcDbSymbolTableRecord
100
AcDbLayerTableRecord
  2
23
 70
0
 62
7
  6
CONTINUOUS
370
-3
390
F
  0
LAYER
  5
20D
100
AcDbSymbolTableRecord
100
AcDbLayerTableRecord
  2
24
 70
0
 62
7
  6
CONTINUOUS
370
-3
390
F
  0
LAYER
  5
20E
100
AcDbSymbolTableRecord
100
AcDbLayerTableRecord
  2
25
 70
0
 62
7
  6
CONTINUOUS
370
-3
390
F
  0
LAYER
  5
20F
100
AcDbSymbolTableRecord
100
AcDbLayerTableRecord
  2
26
 70
0
 62
7
  6
CONTINUOUS
370
-3
390
F
  0
LAYER
  5
210
100
AcDbSymbolTableRecord
100
AcDbLayerTableRecord
  2
27
 70
0
 62
7
  6
CONTINUOUS
370
-3
390
F
  0
LAYER
  5
211
100
AcDbSymbolTableRecord
100
AcDbLayerTableRecord
  2
28
 70
0
 62
7
  6
CONTINUOUS
370
-3
390
F
  0
LAYER
  5
212
100
AcDbSymbolTableRecord
100
AcDbLayerTableRecord
  2
29
 70
0
 62
7
  6
CONTINUOUS
370
-3
390
F
  0
LAYER
  5
213
100
AcDbSymbolTableRecord
100
AcDbLayerTableRecord
  2
3
 70
0
 62
7
  6
CONTINUOUS
370
-3
390
F
  0
LAYER
  5
214
100
AcDbSymbolTableRecord
100
AcDbLayerTableRecord
  2
30
 70
0
 62
7
  6
CONTINUOUS
370
-3
390
F
  0
LAYER
  5
215
100
AcDbSymbolTableRecord
100
AcDbLayerTableRecord
  2
31
 70
0
 62
7
  6
CONTINUOUS
370
-3
390
F
  0
LAYER
  5
216
100
AcDbSymbolTableRecord
100
AcDbLayerTableRecord
  2
32
 70
0
 62
7
  6
CONTINUOUS
370
-3
390
F
  0
LAYER
  5
217
100
AcDbSymbolTableRecord
100
AcDbLayerTableRecord
  2
4
 70
0
 62
7
  6
CONTINUOUS
370
-3
390
F
  0
LAYER
  5
218
100
AcDbSymbolTableRecord
100
AcDbLayerTableRecord
  2
5
 70
0
 62
7
  6
CONTINUOUS
370
-3
390
F
  0
LAYER
  5
219
100
AcDbSymbolTableRecord
100
AcDbLayerTableRecord
  2
6
 70
0
 62
7
  6
CONTINUOUS
370
-3
390
F
  0
LAYER
  5
21A
100
AcDbSymbolTableRecord
100
AcDbLayerTableRecord
  2
7
 70
0
 62
7
  6
CONTINUOUS
370
-3
390
F
  0
LAYER
  5
21B
100
AcDbSymbolTableRecord
100
AcDbLayerTableRecord
  2
8
 70
0
 62
7
  6
CONTINUOUS
370
-3
390
F
  0
LAYER
  5
21C
100
AcDbSymbolTableRecord
100
AcDbLayerTableRecord
  2
9
 70
0
 62
7
  6
CONTINUOUS
370
-3
390
F
  0
LAYER
  5
21D
100
AcDbSymbolTableRecord
100
AcDbLayerTableRecord
  2
DATUM_PLANES
 70
0
 62
7
  6
CONTINUOUS
370
-3
390
F
  0
LAYER
  5
21E
100
AcDbSymbolTableRecord
100
AcDbLayerTableRecord
  2
PORT_AREAS
 70
0
 62
7
  6
CONTINUOUS
370
-3
390
F
  0
LAYER
  5
21F
100
AcDbSymbolTableRecord
100
AcDbLayerTableRecord
  2
SUNNBOMCOSMETIC
 70
0
 62
7
  6
CONTINUOUS
370
-3
390
F
  0
LAYER
  5
220
100
AcDbSymbolTableRecord
100
AcDbLayerTableRecord
  2
SUNNBOMSTAMPING
 70
0
 62
7
  6
CONTINUOUS
370
-3
390
F
  0
LAYER
  5
221
100
AcDbSymbolTableRecord
100
AcDbLayerTableRecord
  2
THREADS
 70
0
 62
7
  6
CONTINUOUS
370
-3
390
F
  0
ENDTAB
  0
TABLE
  2
STYLE
  5
3
100
AcDbSymbolTable
 70
1
  0
STYLE
  5
11
100
AcDbSymbolTableRecord
100
AcDbTextStyleTableRecord
  2
STANDARD
 70
0
 40
0.0
 41
0.8
 50
0.0
 71
0
 42
0.2
  3
txt
  4

  0
STYLE
  5
222
100
AcDbSymbolTableRecord
100
AcDbTextStyleTableRecord
  2
TEXTSTYLE_1
 70
0
 40
0.0
 41
0.8
 50
0.0
 71
0
 42
0.2
  3
gdt
  4

  0
ENDTAB
  0
TABLE
  2
VIEW
  5
6
100
AcDbSymbolTable
 70
0
  0
ENDTAB
  0
TABLE
  2
UCS
  5
7
100
AcDbSymbolTable
 70
0
  0
ENDTAB
  0
TABLE
  2
APPID
  5
9
100
AcDbSymbolTable
 70
1
  0
APPID
  5
223
100
AcDbSymbolTableRecord
100
AcDbRegAppTableRecord
  2
ACAD
 70
0
  0
ENDTAB
  0
TABLE
  2
BLOCK_RECORD
  5
1
100
AcDbSymbolTable
 70
0
  0
BLOCK_RECORD
  5
224
100
AcDbSymbolTableRecord
100
AcDbBlockTableRecord
  2
*Model_Space
  0
BLOCK_RECORD
  5
225
100
AcDbSymbolTableRecord
100
AcDbBlockTableRecord
  2
*Paper_Space
  0
BLOCK_RECORD
  5
226
100
AcDbSymbolTableRecord
100
AcDbBlockTableRecord
  2
SUN_FIRST_THIRD_ANGLE_BL0
  0
BLOCK_RECORD
  5
227
100
AcDbSymbolTableRecord
100
AcDbBlockTableRecord
  2
*T1
  0
BLOCK_RECORD
  5
228
100
AcDbSymbolTableRecord
100
AcDbBlockTableRecord
  2
*T2
  0
BLOCK_RECORD
  5
229
100
AcDbSymbolTableRecord
100
AcDbBlockTableRecord
  2
*T3
  0
ENDTAB
  0
TABLE
  2
DIMSTYLE
  5
A
100
AcDbSymbolTable
 70
1
100
AcDbDimStyleTable
 71
0
  0
DIMSTYLE
105
22A
100
AcDbSymbolTableRecord
100
AcDbDimStyleTableRecord
  2
STANDARD
 70
0
  3

  4

 40
1.0
 41
0.1875
 42
0.0625
 43
0.38
 44
0.125
 45
0.0
 46
0.0
 47
0.001
 48
0.001
140
0.1
141
0.09
142
0.0
143
25.4
144
1.0
145
0.0
146
1.0
147
0.09
 71
0.0
 72
0.0
 73
1
 74
1
 75
0
 76
0
 77
0
 78
4
170
0
171
2
172
0
173
0
174
0
175
0
176
0
177
0
178
0
270
2
271
3
272
3
273
2
274
2
275
0
280
0
281
0
282
0
283
1
284
4
285
0
286
0
287
3
288
0
340
11
278
46
  0
ENDTAB
  0
ENDSEC
  0
SECTION
  2
BLOCKS
  0
BLOCK
  5
20
100
AcDbEntity
  8
0
100
AcDbBlockBegin
  2
*Model_Space
 70
0
 10
0.0
 20
0.0
 30
0.0
  3
*Model_Space
  1

  0
ENDBLK
  5
21
100
AcDbEntity
  8
0
100
AcDbBlockEnd
  0
BLOCK
  5
1C
100
AcDbEntity
  8
0
100
AcDbBlockBegin
  2
*Paper_Space
 70
0
 10
0.0
 20
0.0
 30
0.0
  3
*Paper_Space
  1

  0
ENDBLK
  5
1D
100
AcDbEntity
  8
0
100
AcDbBlockEnd
  0
BLOCK
  5
22B
100
AcDbEntity
  8
0
100
AcDbBlockBegin
 62
2
  6
CONTINUOUS
  2
SUN_FIRST_THIRD_ANGLE_BL0
 70
64
 10
20.4816717061
 20
1.2289683772
  3
SUN_FIRST_THIRD_ANGLE_BL0
  1

  0
TEXT
  5
22C
100
AcDbEntity
  8
0
100
AcDbText
 62
2
  6
CONTINUOUS
 10
19.4750896608
 20
1.4136269581
  7
STANDARD
 40
0.08
  1
FIRST ANGLE
 41
0.8
 72
0
100
AcDbText
  0
TEXT
  5
22D
100
AcDbEntity
  8
0
100
AcDbText
 62
2
  6
CONTINUOUS
 10
20.7842537513
 20
1.4047600029
  7
STANDARD
 40
0.08
  1
THIRD ANGLE
 41
0.8
 72
0
100
AcDbText
  0
LINE
  5
22E
100
AcDbEntity
  8
0
100
AcDbLine
 62
7
  6
CONTINUOUS
 10
19.4767170086
 20
1.1727031207
 11
19.6334271527
 21
1.1717972817
  0
LINE
  5
22F
100
AcDbEntity
  8
0
100
AcDbLine
 62
7
  6
CONTINUOUS
 10
19.6596964832
 20
1.1717972817
 11
19.6950230232
 21
1.171593082
  0
LINE
  5
230
100
AcDbEntity
  8
0
100
AcDbLine
 62
7
  6
CONTINUOUS
 10
19.7194818561
 20
1.1708914427
 11
19.8852396156
 21
1.1699333054
  0
LINE
  5
231
100
AcDbEntity
  8
0
100
AcDbLine
 62
7
  6
CONTINUOUS
 10
19.4758111696
 20
1.2723454088
 11
19.88525039
 21
1.3511534004
  0
LINE
  5
232
100
AcDbEntity
  8
0
100
AcDbLine
 62
7
  6
CONTINUOUS
 10
19.88525039
 20
1.3511534004
 11
19.8831348489
 21
0.9851647912
  0
LINE
  5
233
100
AcDbEntity
  8
0
100
AcDbLine
 62
7
  6
CONTINUOUS
 10
19.8831348489
 20
0.9851647912
 11
19.4767170086
 21
1.0658141206
  0
LINE
  5
234
100
AcDbEntity
  8
0
100
AcDbLine
 62
7
  6
CONTINUOUS
 10
19.4767170086
 20
1.0658141206
 11
19.4779056764
 21
1.2714536432
  0
CIRCLE
  5
235
100
AcDbEntity
  8
0
100
AcDbCircle
 62
7
  6
CONTINUOUS
 10
20.2068232291
 20
1.1717972817
 40
0.175742101
  0
CIRCLE
  5
236
100
AcDbEntity
  8
0
100
AcDbCircle
 62
7
  6
CONTINUOUS
 10
20.2068232291
 20
1.1717972817
 40
0.1005522074
  0
LINE
  5
237
100
AcDbEntity
  8
0
100
AcDbLine
 62
7
  6
CONTINUOUS
 10
20.2077290681
 20
1.3756110529
 11
20.2071171714
 21
1.2379342989
  0
LINE
  5
238
100
AcDbEntity
  8
0
100
AcDbLine
 62
7
  6
CONTINUOUS
 10
20.2077290681
 20
1.2016899681
 11
20.2074674401
 21
1.1428236749
  0
LINE
  5
239
100
AcDbEntity
  8
0
100
AcDbLine
 62
7
  6
CONTINUOUS
 10
20.208634907
 20
1.101141841
 11
20.2080230104
 21
0.963465087
  0
LINE
  5
23A
100
AcDbEntity
  8
0
100
AcDbLine
 62
7
  6
CONTINUOUS
 10
20.0066328138
 20
1.1745147986
 11
20.1443095678
 21
1.1739029019
  0
LINE
  5
23B
100
AcDbEntity
  8
0
100
AcDbLine
 62
7
  6
CONTINUOUS
 10
20.1832714155
 20
1.1727031207
 11
20.238153505
 21
1.172335442
  0
LINE
  5
23C
100
AcDbEntity
  8
0
100
AcDbLine
 62
7
  6
CONTINUOUS
 10
20.2756669918
 20
1.1717972817
 11
20.407916871
 21
1.1712095044
  0
CIRCLE
  5
23D
100
AcDbEntity
  8
0
100
AcDbCircle
 62
7
  6
CONTINUOUS
 10
20.7509457401
 20
1.1693297793
 40
0.1722024983
  0
CIRCLE
  5
23E
100
AcDbEntity
  8
0
100
AcDbCircle
 62
7
  6
CONTINUOUS
 10
20.7509457401
 20
1.1693297793
 40
0.0985164967
  0
LINE
  5
23F
100
AcDbEntity
  8
0
100
AcDbLine
 62
7
  6
CONTINUOUS
 10
20.7169767782
 20
1.170462078
 11
20.7825395137
 21
1.1682766535
  0
LINE
  5
240
100
AcDbEntity
  8
0
100
AcDbLine
 62
7
  6
CONTINUOUS
 10
20.8177513651
 20
1.1693297793
 11
20.947965719
 21
1.1693297793
  0
LINE
  5
241
100
AcDbEntity
  8
0
100
AcDbLine
 62
7
  6
CONTINUOUS
 10
20.6875370113
 20
1.170462078
 11
20.5573226574
 21
1.170462078
  0
LINE
  5
242
100
AcDbEntity
  8
0
100
AcDbLine
 62
7
  6
CONTINUOUS
 10
20.7486811426
 20
1.1987695462
 11
20.7486811426
 21
1.1432869085
  0
LINE
  5
243
100
AcDbEntity
  8
0
100
AcDbLine
 62
7
  6
CONTINUOUS
 10
20.7498134414
 20
1.1059210505
 11
20.7498134414
 21
0.9757066966
  0
LINE
  5
244
100
AcDbEntity
  8
0
100
AcDbLine
 62
7
  6
CONTINUOUS
 10
20.7486811426
 20
1.2338708068
 11
20.7486811426
 21
1.3640851607
  0
LINE
  5
245
100
AcDbEntity
  8
0
100
AcDbLine
 62
7
  6
CONTINUOUS
 10
21.0702539817
 20
1.2701043662
 11
21.4790138229
 21
1.3448360823
  0
LINE
  5
246
100
AcDbEntity
  8
0
100
AcDbLine
 62
7
  6
CONTINUOUS
 10
21.4790138229
 20
1.3448360823
 11
21.4790138229
 21
0.9779712941
  0
LINE
  5
247
100
AcDbEntity
  8
0
100
AcDbLine
 62
7
  6
CONTINUOUS
 10
21.4790138229
 20
0.9779712941
 11
21.069121683
 21
1.0617614
  0
LINE
  5
248
100
AcDbEntity
  8
0
100
AcDbLine
 62
7
  6
CONTINUOUS
 10
21.0702539817
 20
1.2701043662
 11
21.069121683
 21
1.0617614
  0
LINE
  5
249
100
AcDbEntity
  8
0
100
AcDbLine
 62
7
  6
CONTINUOUS
 10
21.4790138229
 20
1.1693297793
 11
21.3159628059
 21
1.1693297793
  0
LINE
  5
24A
100
AcDbEntity
  8
0
100
AcDbLine
 62
7
  6
CONTINUOUS
 10
21.2876553377
 20
1.1693297793
 11
21.2502894796
 21
1.1693297793
  0
LINE
  5
24B
100
AcDbEntity
  8
0
100
AcDbLine
 62
7
  6
CONTINUOUS
 10
21.2208497126
 20
1.1659328831
 11
21.0713862804
 21
1.1659328831
  0
LINE
  5
24C
100
AcDbEntity
  8
0
100
AcDbLine
 62
7
  6
CONTINUOUS
 10
20.4796138713
 20
1.5284908897
 11
20.4766766948
 21
0.9294458646
  0
ENDBLK
  5
24D
100
AcDbEntity
  8
0
  6
BYBLOCK
 62
0
100
AcDbBlockEnd
  0
BLOCK
  5
24E
100
AcDbEntity
  8
0
100
AcDbBlockBegin
  2
*T1
 70
1
 10
0.0
 20
0.0
  3
*T1
  1

  0
LINE
  5
24F
100
AcDbEntity
  8
0
100
AcDbLine
 62
2
  6
CONTINUOUS
 10
9.275
 20
0.0
 11
-0.0
 21
0.0
  0
LINE
  5
250
100
AcDbEntity
  8
0
100
AcDbLine
 62
2
  6
CONTINUOUS
 10
9.275
 20
0.0
 11
9.275
 21
1.25
  0
LINE
  5
251
100
AcDbEntity
  8
0
100
AcDbLine
 62
2
  6
CONTINUOUS
 10
9.275
 20
0.625
 11
-0.0
 21
0.625
  0
LINE
  5
252
100
AcDbEntity
  8
0
100
AcDbLine
 62
2
  6
CONTINUOUS
 10
9.275
 20
1.25
 11
-0.0
 21
1.25
  0
LINE
  5
253
100
AcDbEntity
  8
0
100
AcDbLine
 62
2
  6
CONTINUOUS
 10
6.8
 20
0.0
 11
6.8
 21
1.25
  0
LINE
  5
254
100
AcDbEntity
  8
0
100
AcDbLine
 62
2
  6
CONTINUOUS
 10
6.4
 20
0.0
 11
6.4
 21
0.625
  0
LINE
  5
255
100
AcDbEntity
  8
0
100
AcDbLine
 62
2
  6
CONTINUOUS
 10
5.9
 20
0.0
 11
5.9
 21
0.625
  0
LINE
  5
256
100
AcDbEntity
  8
0
100
AcDbLine
 62
2
  6
CONTINUOUS
 10
5.2
 20
0.0
 11
5.2
 21
0.625
  0
LINE
  5
257
100
AcDbEntity
  8
0
100
AcDbLine
 62
2
  6
CONTINUOUS
 10
4.1
 20
0.0
 11
4.1
 21
1.25
  0
LINE
  5
258
100
AcDbEntity
  8
0
100
AcDbLine
 62
2
  6
CONTINUOUS
 10
-0.0
 20
0.0
 11
-0.0
 21
1.25
  0
MTEXT
  5
259
100
AcDbEntity
  8
0
100
AcDbMText
 62
2
  6
CONTINUOUS
  7
STANDARD
 71
2
 72
1
 10
6.6
 20
0.325
 30
0.0
 11
1.0
 21
0.0
 31
0.0
 44
0.9
  1
2
 40
0.125
 41
0.2
  0
MTEXT
  5
25A
100
AcDbEntity
  8
0
100
AcDbMText
 62
2
  6
CONTINUOUS
  7
STANDARD
 71
2
 72
1
 10
6.15
 20
0.325
 30
0.0
 11
1.0
 21
0.0
 31
0.0
 44
0.9
  1
C
 40
0.125
 41
0.2
  0
MTEXT
  5
25B
100
AcDbEntity
  8
0
100
AcDbMText
 62
2
  6
CONTINUOUS
  7
STANDARD
 71
2
 72
1
 10
5.55
 20
0.325
 30
0.0
 11
1.0
 21
0.0
 31
0.0
 44
0.9
  1
2.000
 40
0.125
 41
1.0
  0
MTEXT
  5
25C
100
AcDbEntity
  8
0
100
AcDbMText
 62
2
  6
CONTINUOUS
  7
STANDARD
 71
2
 72
1
 10
4.65
 20
0.325
 30
0.0
 11
1.0
 21
0.0
 31
0.0
 44
0.9
  1
May-19-23
 40
0.125
 41
1.8
  0
MTEXT
  5
25D
100
AcDbEntity
  8
0
100
AcDbMText
 62
2
  6
CONTINUOUS
  7
STANDARD
 71
2
 72
1
 10
2.05
 20
0.4625
 30
0.0
 11
1.0
 21
0.0
 31
0.0
 44
0.9
  1
T-10A Line mount\PCross port with shuttle
 40
0.125
 41
4.6
  0
MTEXT
  5
25E
100
AcDbEntity
  8
0
100
AcDbMText
 62
2
  6
CONTINUOUS
  7
STANDARD
 71
1
 72
1
 10
6.45
 20
0.5625
 30
0.0
 11
1.0
 21
0.0
 31
0.0
 44
0.9
  1
SHEET
 40
0.06
 41
0.48
  0
MTEXT
  5
25F
100
AcDbEntity
  8
0
100
AcDbMText
 62
2
  6
CONTINUOUS
  7
STANDARD
 71
1
 72
1
 10
5.95
 20
0.5625
 30
0.0
 11
1.0
 21
0.0
 31
0.0
 44
0.9
  1
DWG SIZE
 40
0.06
 41
0.768
  0
MTEXT
  5
260
100
AcDbEntity
  8
0
100
AcDbMText
 62
2
  6
CONTINUOUS
  7
STANDARD
 71
1
 72
1
 10
5.25
 20
0.5625
 30
0.0
 11
1.0
 21
0.0
 31
0.0
 44
0.9
  1
SCALE
 40
0.06
 41
0.48
  0
MTEXT
  5
261
100
AcDbEntity
  8
0
100
AcDbMText
 62
2
  6
CONTINUOUS
  7
STANDARD
 71
1
 72
1
 10
4.15
 20
0.5625
 30
0.0
 11
1.0
 21
0.0
 31
0.0
 44
0.9
  1
DATE
 40
0.06
 41
0.384
  0
MTEXT
  5
262
100
AcDbEntity
  8
0
100
AcDbMText
 62
2
  6
CONTINUOUS
  7
STANDARD
 71
1
 72
1
 10
0.05
 20
0.5625
 30
0.0
 11
1.0
 21
0.0
 31
0.0
 44
0.9
  1
DESCRIPTION
 40
0.06
 41
1.056
  0
MTEXT
  5
263
100
AcDbEntity
  8
0
100
AcDbMText
 62
2
  6
CONTINUOUS
  7
STANDARD
 71
2
 72
1
 10
5.45
 20
1.0375
 30
0.0
 11
1.0
 21
0.0
 31
0.0
 44
0.9
  1
ALL DIMENSIONS IN INCH\PVIEWS ARE THIRD ANGLE
 40
0.12
 41
4.224
  0
MTEXT
  5
264
100
AcDbEntity
  8
0
100
AcDbMText
 62
2
  6
CONTINUOUS
  7
STANDARD
 71
2
 72
1
 10
2.05
 20
0.95
 30
0.0
 11
1.0
 21
0.0
 31
0.0
 44
0.9
  1
Z8A
 40
0.125
 41
0.6
  0
MTEXT
  5
265
100
AcDbEntity
  8
0
100
AcDbMText
 62
2
  6
CONTINUOUS
  7
STANDARD
 71
1
 72
1
 10
0.05
 20
1.1875
 30
0.0
 11
1.0
 21
0.0
 31
0.0
 44
0.9
  1
MODEL
 40
0.06
 41
0.48
  0
ENDBLK
  5
266
100
AcDbEntity
  8
0
  6
BYBLOCK
 62
0
100
AcDbBlockEnd
  0
BLOCK
  5
267
100
AcDbEntity
  8
0
100
AcDbBlockBegin
  2
*T2
 70
1
 10
0.0
 20
0.0
  3
*T2
  1

  0
LINE
  5
268
100
AcDbEntity
  8
0
100
AcDbLine
 62
2
  6
CONTINUOUS
 10
0.0
 20
0.0
 11
9.055
 21
0.0
  0
LINE
  5
269
100
AcDbEntity
  8
0
100
AcDbLine
 62
2
  6
CONTINUOUS
 10
0.0
 20
0.0
 11
0.0
 21
-2.844
  0
LINE
  5
26A
100
AcDbEntity
  8
0
100
AcDbLine
 62
2
  6
CONTINUOUS
 10
0.0
 20
-0.344
 11
9.055
 21
-0.344
  0
LINE
  5
26B
100
AcDbEntity
  8
0
100
AcDbLine
 62
2
  6
CONTINUOUS
 10
0.0
 20
-0.594
 11
9.055
 21
-0.594
  0
LINE
  5
26C
100
AcDbEntity
  8
0
100
AcDbLine
 62
2
  6
CONTINUOUS
 10
0.0
 20
-0.844
 11
9.055
 21
-0.844
  0
LINE
  5
26D
100
AcDbEntity
  8
0
100
AcDbLine
 62
2
  6
CONTINUOUS
 10
0.0
 20
-1.094
 11
9.055
 21
-1.094
  0
LINE
  5
26E
100
AcDbEntity
  8
0
100
AcDbLine
 62
2
  6
CONTINUOUS
 10
0.0
 20
-1.344
 11
9.055
 21
-1.344
  0
LINE
  5
26F
100
AcDbEntity
  8
0
100
AcDbLine
 62
2
  6
CONTINUOUS
 10
0.0
 20
-1.594
 11
9.055
 21
-1.594
  0
LINE
  5
270
100
AcDbEntity
  8
0
100
AcDbLine
 62
2
  6
CONTINUOUS
 10
0.0
 20
-1.844
 11
9.055
 21
-1.844
  0
LINE
  5
271
100
AcDbEntity
  8
0
100
AcDbLine
 62
2
  6
CONTINUOUS
 10
0.0
 20
-2.094
 11
9.055
 21
-2.094
  0
LINE
  5
272
100
AcDbEntity
  8
0
100
AcDbLine
 62
2
  6
CONTINUOUS
 10
0.0
 20
-2.344
 11
9.055
 21
-2.344
  0
LINE
  5
273
100
AcDbEntity
  8
0
100
AcDbLine
 62
2
  6
CONTINUOUS
 10
0.0
 20
-2.594
 11
9.055
 21
-2.594
  0
LINE
  5
274
100
AcDbEntity
  8
0
100
AcDbLine
 62
2
  6
CONTINUOUS
 10
0.0
 20
-2.844
 11
9.055
 21
-2.844
  0
LINE
  5
275
100
AcDbEntity
  8
0
100
AcDbLine
 62
2
  6
CONTINUOUS
 10
3.055
 20
0.0
 11
3.055
 21
-2.844
  0
LINE
  5
276
100
AcDbEntity
  8
0
100
AcDbLine
 62
2
  6
CONTINUOUS
 10
9.055
 20
0.0
 11
9.055
 21
-2.844
  0
MTEXT
  5
277
100
AcDbEntity
  8
0
100
AcDbMText
 62
2
  6
CONTINUOUS
  7
STANDARD
 71
2
 72
1
 10
1.5275
 20
-0.0995
 30
0.0
 11
1.0
 21
0.0
 31
0.0
 44
0.9
  1
Technical Data
 40
0.145
 41
3.248
  0
MTEXT
  5
278
100
AcDbEntity
  8
0
100
AcDbMText
 62
2
  6
CONTINUOUS
  7
STANDARD
 71
2
 72
1
 10
4.555
 20
-0.0995
 30
0.0
 11
1.0
 21
0.0
 31
0.0
 44
0.9
  1
U.S. Units
 40
0.145
 41
2.32
  0
MTEXT
  5
279
100
AcDbEntity
  8
0
100
AcDbMText
 62
2
  6
CONTINUOUS
  7
STANDARD
 71
2
 72
1
 10
7.555
 20
-0.0995
 30
0.0
 11
1.0
 21
0.0
 31
0.0
 44
0.9
  1
Metric Units
 40
0.145
 41
2.784
  0
MTEXT
  5
27A
100
AcDbEntity
  8
0
100
AcDbMText
 62
2
  6
CONTINUOUS
  7
STANDARD
 71
2
 72
1
 10
1.5275
 20
-0.4065
 30
0.0
 11
1.0
 21
0.0
 31
0.0
 44
0.9
  1
Cavity
 40
0.125
 41
1.2
  0
MTEXT
  5
27B
100
AcDbEntity
  8
0
100
AcDbMText
 62
2
  6
CONTINUOUS
  7
STANDARD
 71
2
 72
1
 10
6.055
 20
-0.4065
 30
0.0
 11
1.0
 21
0.0
 31
0.0
 44
0.9
  1
T-10A
 40
0.125
 41
1.0
  0
MTEXT
  5
27C
100
AcDbEntity
  8
0
100
AcDbMText
 62
2
  6
CONTINUOUS
  7
STANDARD
 71
2
 72
1
 10
1.5275
 20
-0.6565
 30
0.0
 11
1.0
 21
0.0
 31
0.0
 44
0.9
  1
Body Features
 40
0.125
 41
2.6
  0
MTEXT
  5
27D
100
AcDbEntity
  8
0
100
AcDbMText
 62
2
  6
CONTINUOUS
  7
STANDARD
 71
2
 72
1
 10
6.055
 20
-0.6565
 30
0.0
 11
1.0
 21
0.0
 31
0.0
 44
0.9
  1
Cross port with shuttle
 40
0.125
 41
4.6
  0
MTEXT
  5
27E
100
AcDbEntity
  8
0
100
AcDbMText
 62
2
  6
CONTINUOUS
  7
STANDARD
 71
2
 72
1
 10
1.5275
 20
-0.9065
 30
0.0
 11
1.0
 21
0.0
 31
0.0
 44
0.9
  1
Body Type
 40
0.125
 41
1.8
  0
MTEXT
  5
27F
100
AcDbEntity
  8
0
100
AcDbMText
 62
2
  6
CONTINUOUS
  7
STANDARD
 71
2
 72
1
 10
6.055
 20
-0.9065
 30
0.0
 11
1.0
 21
0.0
 31
0.0
 44
0.9
  1
Line mount
 40
0.125
 41
2.0
  0
MTEXT
  5
280
100
AcDbEntity
  8
0
100
AcDbMText
 62
2
  6
CONTINUOUS
  7
STANDARD
 71
2
 72
1
 10
1.5275
 20
-1.1565
 30
0.0
 11
1.0
 21
0.0
 31
0.0
 44
0.9
  1
Interface
 40
0.125
 41
1.8
  0
MTEXT
  5
281
100
AcDbEntity
  8
0
100
AcDbMText
 62
2
  6
CONTINUOUS
  7
STANDARD
 71
2
 72
1
 10
6.055
 20
-1.1565
 30
0.0
 11
1.0
 21
0.0
 31
0.0
 44
0.9
  1
None
 40
0.125
 41
0.8
  0
MTEXT
  5
282
100
AcDbEntity
  8
0
100
AcDbMText
 62
2
  6
CONTINUOUS
  7
STANDARD
 71
2
 72
1
 10
1.5275
 20
-1.4065
 30
0.0
 11
1.0
 21
0.0
 31
0.0
 44
0.9
  1
Open Cavity Quantity
 40
0.125
 41
4.0
  0
MTEXT
  5
283
100
AcDbEntity
  8
0
100
AcDbMText
 62
2
  6
CONTINUOUS
  7
STANDARD
 71
2
 72
1
 10
6.055
 20
-1.4065
 30
0.0
 11
1.0
 21
0.0
 31
0.0
 44
0.9
  1
2
 40
0.125
 41
0.2
  0
MTEXT
  5
284
100
AcDbEntity
  8
0
100
AcDbMText
 62
2
  6
CONTINUOUS
  7
STANDARD
 71
2
 72
1
 10
1.5275
 20
-1.6565
 30
0.0
 11
1.0
 21
0.0
 31
0.0
 44
0.9
  1
Weight
 40
0.125
 41
1.2
  0
MTEXT
  5
285
100
AcDbEntity
  8
0
100
AcDbMText
 62
2
  6
CONTINUOUS
  7
STANDARD
 71
2
 72
1
 10
4.555
 20
-1.6565
 30
0.0
 11
1.0
 21
0.0
 31
0.0
 44
0.9
  1
2.081 lb.
 40
0.125
 41
1.8
  0
MTEXT
  5
286
100
AcDbEntity
  8
0
100
AcDbMText
 62
2
  6
CONTINUOUS
  7
STANDARD
 71
2
 72
1
 10
7.555
 20
-1.6565
 30
0.0
 11
1.0
 21
0.0
 31
0.0
 44
0.9
  1
0,944 kg.
 40
0.125
 41
1.8
  0
MTEXT
  5
287
100
AcDbEntity
  8
0
100
AcDbMText
 62
2
  6
CONTINUOUS
  7
STANDARD
 71
2
 72
1
 10
1.5275
 20
-1.9065
 30
0.0
 11
1.0
 21
0.0
 31
0.0
 44
0.9
  1
Mounting Hole Diameter
 40
0.125
 41
4.4
  0
MTEXT
  5
288
100
AcDbEntity
  8
0
100
AcDbMText
 62
2
  6
CONTINUOUS
  7
STANDARD
 71
2
 72
1
 10
4.555
 20
-1.9065
 30
0.0
 11
1.0
 21
0.0
 31
0.0
 44
0.9
  1
.34 in.
 40
0.125
 41
1.4
  0
MTEXT
  5
289
100
AcDbEntity
  8
0
100
AcDbMText
 62
2
  6
CONTINUOUS
  7
STANDARD
 71
2
 72
1
 10
7.555
 20
-1.9065
 30
0.0
 11
1.0
 21
0.0
 31
0.0
 44
0.9
  1
8.6 mm
 40
0.125
 41
1.2
  0
MTEXT
  5
28A
100
AcDbEntity
  8
0
100
AcDbMText
 62
2
  6
CONTINUOUS
  7
STANDARD
 71
2
 72
1
 10
1.5275
 20
-2.1565
 30
0.0
 11
1.0
 21
0.0
 31
0.0
 44
0.9
  1
Mounting Hole Depth
 40
0.125
 41
3.8
  0
MTEXT
  5
28B
100
AcDbEntity
  8
0
100
AcDbMText
 62
2
  6
CONTINUOUS
  7
STANDARD
 71
2
 72
1
 10
6.055
 20
-2.1565
 30
0.0
 11
1.0
 21
0.0
 31
0.0
 44
0.9
  1
Through
 40
0.125
 41
1.4
  0
MTEXT
  5
28C
100
AcDbEntity
  8
0
100
AcDbMText
 62
2
  6
CONTINUOUS
  7
STANDARD
 71
2
 72
1
 10
1.5275
 20
-2.4065
 30
0.0
 11
1.0
 21
0.0
 31
0.0
 44
0.9
  1
Mounting Hole Quantity
 40
0.125
 41
4.4
  0
MTEXT
  5
28D
100
AcDbEntity
  8
0
100
AcDbMText
 62
2
  6
CONTINUOUS
  7
STANDARD
 71
2
 72
1
 10
6.055
 20
-2.4065
 30
0.0
 11
1.0
 21
0.0
 31
0.0
 44
0.9
  1
2
 40
0.125
 41
0.2
  0
MTEXT
  5
28E
100
AcDbEntity
  8
0
100
AcDbMText
 62
2
  6
CONTINUOUS
  7
STANDARD
 71
2
 72
1
 10
1.5275
 20
-2.6565
 30
0.0
 11
1.0
 21
0.0
 31
0.0
 44
0.9
  1
Includes integral cartridge(s)
 40
0.125
 41
6.0
  0
MTEXT
  5
28F
100
AcDbEntity
  8
0
100
AcDbMText
 62
2
  6
CONTINUOUS
  7
STANDARD
 71
2
 72
1
 10
6.055
 20
-2.6565
 30
0.0
 11
1.0
 21
0.0
 31
0.0
 44
0.9
  1
Yes (see Included Components)
 40
0.125
 41
5.8
  0
ENDBLK
  5
290
100
AcDbEntity
  8
0
  6
BYBLOCK
 62
0
100
AcDbBlockEnd
  0
BLOCK
  5
291
100
AcDbEntity
  8
0
100
AcDbBlockBegin
  2
*T3
 70
1
 10
0.0
 20
0.0
  3
*T3
  1

  0
LINE
  5
292
100
AcDbEntity
  8
0
100
AcDbLine
 62
2
  6
CONTINUOUS
 10
0.0
 20
0.0
 11
4.6
 21
0.0
  0
LINE
  5
293
100
AcDbEntity
  8
0
100
AcDbLine
 62
2
  6
CONTINUOUS
 10
0.0
 20
0.0
 11
0.0
 21
-1.18775
  0
LINE
  5
294
100
AcDbEntity
  8
0
100
AcDbLine
 62
2
  6
CONTINUOUS
 10
0.0
 20
-0.34375
 11
4.6
 21
-0.34375
  0
LINE
  5
295
100
AcDbEntity
  8
0
100
AcDbLine
 62
2
  6
CONTINUOUS
 10
0.0
 20
-0.68775
 11
4.6
 21
-0.68775
  0
LINE
  5
296
100
AcDbEntity
  8
0
100
AcDbLine
 62
2
  6
CONTINUOUS
 10
0.0
 20
-0.93775
 11
4.6
 21
-0.93775
  0
LINE
  5
297
100
AcDbEntity
  8
0
100
AcDbLine
 62
2
  6
CONTINUOUS
 10
0.0
 20
-1.18775
 11
4.6
 21
-1.18775
  0
LINE
  5
298
100
AcDbEntity
  8
0
100
AcDbLine
 62
2
  6
CONTINUOUS
 10
1.3
 20
-0.34375
 11
1.3
 21
-1.18775
  0
LINE
  5
299
100
AcDbEntity
  8
0
100
AcDbLine
 62
2
  6
CONTINUOUS
 10
3.3
 20
-0.34375
 11
3.3
 21
-1.18775
  0
LINE
  5
29A
100
AcDbEntity
  8
0
100
AcDbLine
 62
2
  6
CONTINUOUS
 10
4.6
 20
0.0
 11
4.6
 21
-1.18775
  0
MTEXT
  5
29B
100
AcDbEntity
  8
0
100
AcDbMText
 62
2
  6
CONTINUOUS
  7
STANDARD
 71
2
 72
1
 10
2.3
 20
-0.099375
 30
0.0
 11
1.0
 21
0.0
 31
0.0
 44
0.9
  1
Port Headings
 40
0.145
 41
3.016
  0
MTEXT
  5
29C
100
AcDbEntity
  8
0
100
AcDbMText
 62
2
  6
CONTINUOUS
  7
STANDARD
 71
2
 72
1
 10
0.65
 20
-0.44325
 30
0.0
 11
1.0
 21
0.0
 31
0.0
 44
0.9
  1
Product
 40
0.145
 41
1.624
  0
MTEXT
  5
29D
100
AcDbEntity
  8
0
100
AcDbMText
 62
2
  6
CONTINUOUS
  7
STANDARD
 71
2
 72
1
 10
2.3
 20
-0.44325
 30
0.0
 11
1.0
 21
0.0
 31
0.0
 44
0.9
  1
Port
 40
0.145
 41
0.928
  0
MTEXT
  5
29E
100
AcDbEntity
  8
0
100
AcDbMText
 62
2
  6
CONTINUOUS
  7
STANDARD
 71
2
 72
1
 10
3.95
 20
-0.44325
 30
0.0
 11
1.0
 21
0.0
 31
0.0
 44
0.9
  1
Size
 40
0.145
 41
0.928
  0
MTEXT
  5
29F
100
AcDbEntity
  8
0
100
AcDbMText
 62
2
  6
CONTINUOUS
  7
STANDARD
 71
2
 72
1
 10
0.65
 20
-0.75025
 30
0.0
 11
1.0
 21
0.0
 31
0.0
 44
0.9
  1
Z8A
 40
0.125
 41
0.6
  0
MTEXT
  5
2A0
100
AcDbEntity
  8
0
100
AcDbMText
 62
2
  6
CONTINUOUS
  7
STANDARD
 71
2
 72
1
 10
2.3
 20
-0.75025
 30
0.0
 11
1.0
 21
0.0
 31
0.0
 44
0.9
  1
Ports 1 &  2
 40
0.125
 41
2.4
  0
MTEXT
  5
2A1
100
AcDbEntity
  8
0
100
AcDbMText
 62
2
  6
CONTINUOUS
  7
STANDARD
 71
2
 72
1
 10
3.95
 20
-0.75025
 30
0.0
 11
1.0
 21
0.0
 31
0.0
 44
0.9
  1
SAE 8
 40
0.125
 41
1.0
  0
MTEXT
  5
2A2
100
AcDbEntity
  8
0
100
AcDbMText
 62
2
  6
CONTINUOUS
  7
STANDARD
 71
2
 72
1
 10
0.65
 20
-1.00025
 30
0.0
 11
1.0
 21
0.0
 31
0.0
 44
0.9
  1
Z8A
 40
0.125
 41
0.6
  0
MTEXT
  5
2A3
100
AcDbEntity
  8
0
100
AcDbMText
 62
2
  6
CONTINUOUS
  7
STANDARD
 71
2
 72
1
 10
2.3
 20
-1.00025
 30
0.0
 11
1.0
 21
0.0
 31
0.0
 44
0.9
  1
Shuttle Port
 40
0.125
 41
2.4
  0
MTEXT
  5
2A4
100
AcDbEntity
  8
0
100
AcDbMText
 62
2
  6
CONTINUOUS
  7
STANDARD
 71
2
 72
1
 10
3.95
 20
-1.00025
 30
0.0
 11
1.0
 21
0.0
 31
0.0
 44
0.9
  1
SAE 4
 40
0.125
 41
1.0
  0
ENDBLK
  5
2A5
100
AcDbEntity
  8
0
  6
BYBLOCK
 62
0
100
AcDbBlockEnd
  0
ENDSEC
  0
SECTION
  2
ENTITIES
  0
IMAGE
  5
2A6
100
AcDbEntity
  8
0
100
AcDbRasterImage
 62
7
  6
CONTINUOUS
 10
19.2297077316
 20
0.3094318264
 30
0.0
 11
0.0066666667
 21
0.0
 31
0.0
 12
0.0
 22
0.0066666667
 32
0.0
 13
369.0
 23
92.0
340
       3E1
 70
9
280
0
281
50
282
50
283
0
360
       3DB
 71
1
 91
2
 14
-0.5
 24
-0.5
 14
368.5
 24
91.5
  0
INSERT
  5
2A7
100
AcDbEntity
  8
0
100
AcDbBlockReference
 62
2
  6
CONTINUOUS
  2
SUN_FIRST_THIRD_ANGLE_BL0
 10
20.4816717061
 20
1.2289683772
  0
ACAD_TABLE
  5
2A8
100
AcDbEntity
  8
0
 62
2
  6
CONTINUOUS
100
AcDbBlockReference
  2
*T1
 10
12.42375
 20
0.30125
 30
0.0
100
AcDbTable
342
       3E3
343
227
 11
1.0
 21
0.0
 31
0.0
 90
6
 91
4
 92
6
 93
20
 94
0
 95
0
 96
0
 70
1
 41
0.0
141
0.525
141
0.1
141
0.525
141
0.1
142
4.1
142
1.1
142
0.7
142
0.5
142
0.4
142
2.475
171
1
172
0
173
0
174
0
175
1
176
1
 91
33
178
0
145
0.0
301
CELL_VALUE
 90
4
  1
T-10A Line mount\PCross port with shuttle
304
ACVALUE_END
170
2
140
0.125
171
1
172
0
173
0
174
0
175
1
176
1
 91
33
178
0
145
0.0
301
CELL_VALUE
 90
4
  1
May-19-23
304
ACVALUE_END
170
5
140
0.125
171
1
172
0
173
0
174
0
175
1
176
1
 91
33
178
0
145
0.0
301
CELL_VALUE
 90
4
  1
2.000
304
ACVALUE_END
170
5
140
0.125
171
1
172
0
173
0
174
0
175
1
176
1
 91
33
178
0
145
0.0
301
CELL_VALUE
 90
4
  1
C
304
ACVALUE_END
170
5
140
0.125
171
1
172
0
173
0
174
0
175
1
176
1
 91
33
178
0
145
0.0
301
CELL_VALUE
 90
4
  1
2
304
ACVALUE_END
170
5
140
0.125
171
1
172
0
173
0
174
0
175
1
176
1
 91
33
178
0
145
0.0
301
CELL_VALUE
 90
4
  1
 
304
ACVALUE_END
170
1
140
0.125
171
1
172
0
173
0
174
0
175
1
176
1
 91
33
178
0
145
0.0
301
CELL_VALUE
 90
4
  1
DESCRIPTION
304
ACVALUE_END
170
1
140
0.06
171
1
172
0
173
0
174
0
175
1
176
1
 91
33
178
0
145
0.0
301
CELL_VALUE
 90
4
  1
DATE
304
ACVALUE_END
170
1
140
0.06
171
1
172
0
173
0
174
0
175
1
176
1
 91
33
178
0
145
0.0
301
CELL_VALUE
 90
4
  1
SCALE
304
ACVALUE_END
170
1
140
0.06
171
1
172
0
173
0
174
0
175
1
176
1
 91
33
178
0
145
0.0
301
CELL_VALUE
 90
4
  1
DWG SIZE
304
ACVALUE_END
170
1
140
0.06
171
1
172
0
173
0
174
0
175
1
176
1
 91
33
178
0
145
0.0
301
CELL_VALUE
 90
4
  1
SHEET
304
ACVALUE_END
170
1
140
0.06
171
1
172
0
173
0
174
0
175
1
176
1
 91
33
178
0
145
0.0
301
CELL_VALUE
 90
4
  1
 
304
ACVALUE_END
170
1
140
0.125
171
1
172
0
173
0
174
0
175
1
176
1
 91
33
178
0
145
0.0
301
CELL_VALUE
 90
4
  1
Z8A
304
ACVALUE_END
170
5
140
0.125
171
1
172
0
173
0
174
0
175
4
176
1
 91
33
178
0
145
0.0
301
CELL_VALUE
 90
4
  1
ALL DIMENSIONS IN INCH\PVIEWS ARE THIRD ANGLE
304
ACVALUE_END
170
5
140
0.12
171
1
172
0
173
1
174
0
175
1
176
1
 91
1
178
0
145
0.0
170
1
171
1
172
0
173
1
174
0
175
1
176
1
 91
1
178
0
145
0.0
170
1
171
1
172
0
173
1
174
0
175
1
176
1
 91
1
178
0
145
0.0
170
5
171
1
172
0
173
0
174
0
175
1
176
1
 91
33
178
0
145
0.0
301
CELL_VALUE
 90
4
  1
 
304
ACVALUE_END
170
1
140
0.125
171
1
172
0
173
0
174
0
175
1
176
1
 91
33
178
0
145
0.0
301
CELL_VALUE
 90
4
  1
MODEL
304
ACVALUE_END
170
1
140
0.06
171
1
172
0
173
0
174
0
175
1
176
1
 91
33
178
0
145
0.0
301
CELL_VALUE
 90
4
  1
 
304
ACVALUE_END
170
1
140
0.125
171
1
172
0
173
0
174
0
175
1
176
1
 91
33
178
0
145
0.0
301
CELL_VALUE
 90
4
  1
 
304
ACVALUE_END
170
1
140
0.125
171
1
172
0
173
0
174
0
175
1
176
1
 91
33
178
0
145
0.0
301
CELL_VALUE
 90
4
  1
 
304
ACVALUE_END
170
1
140
0.125
171
1
172
0
173
0
174
0
175
1
176
1
 91
33
178
0
145
0.0
301
CELL_VALUE
 90
4
  1
 
304
ACVALUE_END
170
1
140
0.125
171
1
172
0
173
0
174
0
175
1
176
1
 91
33
178
0
145
0.0
301
CELL_VALUE
 90
4
  1
 
304
ACVALUE_END
170
1
140
0.125
  0
ACAD_TABLE
  5
2A9
100
AcDbEntity
  8
0
 62
2
  6
CONTINUOUS
100
AcDbBlockReference
  2
*T2
 10
12.4237499994
 20
16.47875
 30
0.0
100
AcDbTable
342
       3E2
343
228
 11
1.0
 21
0.0
 31
0.0
 90
22
 91
11
 92
3
 93
16
 94
0
 95
0
 96
0
 41
0.028
141
0.344
141
0.25
141
0.25
141
0.25
141
0.25
141
0.25
141
0.25
141
0.25
141
0.25
141
0.25
141
0.25
142
3.055
142
3.0
142
3.0
171
1
172
0
173
0
174
0
175
1
176
1
 91
33
178
0
145
0.0
301
CELL_VALUE
 90
4
  1
Technical Data
304
ACVALUE_END
170
5
140
0.145
171
1
172
0
173
0
174
0
175
1
176
1
 91
33
178
0
145
0.0
301
CELL_VALUE
 90
4
  1
U.S. Units
304
ACVALUE_END
170
5
140
0.145
171
1
172
0
173
0
174
0
175
1
176
1
 91
33
178
0
145
0.0
301
CELL_VALUE
 90
4
  1
Metric Units
304
ACVALUE_END
170
5
140
0.145
171
1
172
0
173
0
174
0
175
1
176
1
 91
33
178
0
145
0.0
301
CELL_VALUE
 90
4
  1
Cavity
304
ACVALUE_END
170
5
140
0.125
171
1
172
0
173
0
174
0
175
2
176
1
 91
33
178
0
145
0.0
301
CELL_VALUE
 90
4
  1
T-10A
304
ACVALUE_END
170
5
140
0.125
171
1
172
0
173
1
174
0
175
1
176
1
 91
1
178
0
145
0.0
170
1
171
1
172
0
173
0
174
0
175
1
176
1
 91
33
178
0
145
0.0
301
CELL_VALUE
 90
4
  1
Body Features
304
ACVALUE_END
170
5
140
0.125
171
1
172
0
173
0
174
0
175
2
176
1
 91
33
178
0
145
0.0
301
CELL_VALUE
 90
4
  1
Cross port with shuttle
304
ACVALUE_END
170
5
140
0.125
171
1
172
0
173
1
174
0
175
1
176
1
 91
1
178
0
145
0.0
170
1
171
1
172
0
173
0
174
0
175
1
176
1
 91
33
178
0
145
0.0
301
CELL_VALUE
 90
4
  1
Body Type
304
ACVALUE_END
170
5
140
0.125
171
1
172
0
173
0
174
0
175
2
176
1
 91
33
178
0
145
0.0
301
CELL_VALUE
 90
4
  1
Line mount
304
ACVALUE_END
170
5
140
0.125
171
1
172
0
173
1
174
0
175
1
176
1
 91
1
178
0
145
0.0
170
1
171
1
172
0
173
0
174
0
175
1
176
1
 91
33
178
0
145
0.0
301
CELL_VALUE
 90
4
  1
Interface
304
ACVALUE_END
170
5
140
0.125
171
1
172
0
173
0
174
0
175
2
176
1
 91
33
178
0
145
0.0
301
CELL_VALUE
 90
4
  1
None
304
ACVALUE_END
170
5
140
0.125
171
1
172
0
173
1
174
0
175
1
176
1
 91
1
178
0
145
0.0
170
1
171
1
172
0
173
0
174
0
175
1
176
1
 91
33
178
0
145
0.0
301
CELL_VALUE
 90
4
  1
Open Cavity Quantity
304
ACVALUE_END
170
5
140
0.125
171
1
172
0
173
0
174
0
175
2
176
1
 91
33
178
0
145
0.0
301
CELL_VALUE
 90
4
  1
2
304
ACVALUE_END
170
5
140
0.125
171
1
172
0
173
1
174
0
175
1
176
1
 91
1
178
0
145
0.0
170
1
171
1
172
0
173
0
174
0
175
1
176
1
 91
33
178
0
145
0.0
301
CELL_VALUE
 90
4
  1
Weight
304
ACVALUE_END
170
5
140
0.125
171
1
172
0
173
0
174
0
175
1
176
1
 91
33
178
0
145
0.0
301
CELL_VALUE
 90
4
  1
2.081 lb.
304
ACVALUE_END
170
5
140
0.125
171
1
172
0
173
0
174
0
175
1
176
1
 91
33
178
0
145
0.0
301
CELL_VALUE
 90
4
  1
0,944 kg.
304
ACVALUE_END
170
5
140
0.125
171
1
172
0
173
0
174
0
175
1
176
1
 91
33
178
0
145
0.0
301
CELL_VALUE
 90
4
  1
Mounting Hole Diameter
304
ACVALUE_END
170
5
140
0.125
171
1
172
0
173
0
174
0
175
1
176
1
 91
33
178
0
145
0.0
301
CELL_VALUE
 90
4
  1
.34 in.
304
ACVALUE_END
170
5
140
0.125
171
1
172
0
173
0
174
0
175
1
176
1
 91
33
178
0
145
0.0
301
CELL_VALUE
 90
4
  1
8.6 mm
304
ACVALUE_END
170
5
140
0.125
171
1
172
0
173
0
174
0
175
1
176
1
 91
33
178
0
145
0.0
301
CELL_VALUE
 90
4
  1
Mounting Hole Depth
304
ACVALUE_END
170
5
140
0.125
171
1
172
0
173
0
174
0
175
2
176
1
 91
33
178
0
145
0.0
301
CELL_VALUE
 90
4
  1
Through
304
ACVALUE_END
170
5
140
0.125
171
1
172
0
173
1
174
0
175
1
176
1
 91
1
178
0
145
0.0
170
1
171
1
172
0
173
0
174
0
175
1
176
1
 91
33
178
0
145
0.0
301
CELL_VALUE
 90
4
  1
Mounting Hole Quantity
304
ACVALUE_END
170
5
140
0.125
171
1
172
0
173
0
174
0
175
2
176
1
 91
33
178
0
145
0.0
301
CELL_VALUE
 90
4
  1
2
304
ACVALUE_END
170
5
140
0.125
171
1
172
0
173
1
174
0
175
1
176
1
 91
1
178
0
145
0.0
170
1
171
1
172
0
173
0
174
0
175
1
176
1
 91
33
178
0
145
0.0
301
CELL_VALUE
 90
4
  1
Includes integral cartridge(s)
304
ACVALUE_END
170
5
140
0.125
171
1
172
0
173
0
174
0
175
2
176
1
 91
33
178
0
145
0.0
301
CELL_VALUE
 90
4
  1
Yes (see Included Components)
304
ACVALUE_END
170
5
140
0.125
171
1
172
0
173
1
174
0
175
1
176
1
 91
1
178
0
145
0.0
170
1
  0
ACAD_TABLE
  5
2AA
100
AcDbEntity
  8
0
 62
2
  6
CONTINUOUS
100
AcDbBlockReference
  2
*T3
 10
0.52125
 20
1.709
 30
0.0
100
AcDbTable
342
       3E2
343
229
 11
1.0
 21
0.0
 31
0.0
 90
22
 91
4
 92
3
 93
16
 94
0
 95
0
 96
0
 41
0.05
141
0.34375
141
0.344
141
0.25
141
0.25
142
1.3
142
2.0
142
1.3
171
1
172
0
173
0
174
0
175
3
176
1
 91
33
178
0
145
0.0
301
CELL_VALUE
 90
4
  1
Port Headings
304
ACVALUE_END
170
5
140
0.145
171
1
172
0
173
1
174
0
175
1
176
1
 91
1
178
0
145
0.0
170
1
171
1
172
0
173
1
174
0
175
1
176
1
 91
1
178
0
145
0.0
170
1
171
1
172
0
173
0
174
0
175
1
176
1
 91
33
178
0
145
0.0
301
CELL_VALUE
 90
4
  1
Product
304
ACVALUE_END
170
5
140
0.145
171
1
172
0
173
0
174
0
175
1
176
1
 91
33
178
0
145
0.0
301
CELL_VALUE
 90
4
  1
Port
304
ACVALUE_END
170
5
140
0.145
171
1
172
0
173
0
174
0
175
1
176
1
 91
33
178
0
145
0.0
301
CELL_VALUE
 90
4
  1
Size
304
ACVALUE_END
170
5
140
0.145
171
1
172
0
173
0
174
0
175
1
176
1
 91
33
178
0
145
0.0
301
CELL_VALUE
 90
4
  1
Z8A
304
ACVALUE_END
170
5
140
0.125
171
1
172
0
173
0
174
0
175
1
176
1
 91
33
178
0
145
0.0
301
CELL_VALUE
 90
4
  1
Ports 1 &  2
304
ACVALUE_END
170
5
140
0.125
171
1
172
0
173
0
174
0
175
1
176
1
 91
33
178
0
145
0.0
301
CELL_VALUE
 90
4
  1
SAE 8
304
ACVALUE_END
170
5
140
0.125
171
1
172
0
173
0
174
0
175
1
176
1
 91
33
178
0
145
0.0
301
CELL_VALUE
 90
4
  1
Z8A
304
ACVALUE_END
170
5
140
0.125
171
1
172
0
173
0
174
0
175
1
176
1
 91
33
178
0
145
0.0
301
CELL_VALUE
 90
4
  1
Shuttle Port
304
ACVALUE_END
170
5
140
0.125
171
1
172
0
173
0
174
0
175
1
176
1
 91
33
178
0
145
0.0
301
CELL_VALUE
 90
4
  1
SAE 4
304
ACVALUE_END
170
5
140
0.125
  0
MTEXT
  5
2AB
100
AcDbEntity
  8
0
100
AcDbMText
 62
2
  6
CONTINUOUS
  7
STANDARD
 71
1
 72
1
 10
0.52125
 20
5.75995
 30
0.0
 11
1.0
 21
0.0
 31
0.0
 44
0.6
  3
Notes\P \P1. Important: Carefully consider\P   the maximum system pressure. The\P   pressure rating of the manifold is\P   dependent on the manifold material,\P   with the port type/size a secondary\P   consideration. Manifolds\P   constructed of alu
  3
minum are not\P   rated for pressures higher than\P   3000 psi (210 bar), regardless of\P   the port type/size specified.\P2. This drawing is for reference\P   only. It is generated by an\P   automated process and does not fall\P   under Sun's docume
  1
nt control\P   process.
 40
0.1
 41
3.04
  0
LINE
  5
2AC
100
AcDbEntity
  8
0
100
AcDbLine
 62
7
  6
CONTINUOUS
 10
0.30125
 20
0.30125
 11
0.30125
 21
16.69875
  0
LINE
  5
2AD
100
AcDbEntity
  8
0
100
AcDbLine
 62
7
  6
CONTINUOUS
 10
0.30125
 20
0.30125
 11
21.69875
 21
0.30125
  0
LINE
  5
2AE
100
AcDbEntity
  8
0
100
AcDbLine
 62
7
  6
CONTINUOUS
 10
0.30125
 20
16.69875
 11
21.69875
 21
16.69875
  0
LINE
  5
2AF
100
AcDbEntity
  8
0
100
AcDbLine
 62
7
  6
CONTINUOUS
 10
21.69875
 20
0.30125
 11
21.69875
 21
16.69875
  0
LINE
  5
2B0
100
AcDbEntity
  8
0
100
AcDbLine
 62
7
  6
CONTINUOUS
 10
6.6186588029
 20
11.2864675192
 11
7.6539341289
 21
12.2864667532
  0
LINE
  5
2B1
100
AcDbEntity
  8
0
100
AcDbLine
 62
7
  6
CONTINUOUS
 10
6.6186588029
 20
5.2494307472
 11
6.6186588029
 21
11.2864675192
  0
LINE
  5
2B2
100
AcDbEntity
  8
0
100
AcDbLine
 62
4
  6
CONTINUOUS
 10
7.0823032382
 20
9.8633804416
 11
7.0823032382
 21
9.6315582347
  0
LINE
  5
2B3
100
AcDbEntity
  8
0
100
AcDbLine
 62
4
  6
CONTINUOUS
 10
7.0823032382
 20
6.811054411
 11
7.0823032382
 21
6.7724173858
  0
LINE
  5
2B4
100
AcDbEntity
  8
0
100
AcDbLine
 62
4
  6
CONTINUOUS
 10
7.0678143503
 20
6.8313777453
 11
7.0823032382
 21
6.811054411
  0
LINE
  5
2B5
100
AcDbEntity
  8
0
100
AcDbLine
 62
4
  6
CONTINUOUS
 10
6.9808810227
 20
6.6828584495
 11
6.9663921348
 21
6.6259077056
  0
LINE
  5
2B6
100
AcDbEntity
  8
0
100
AcDbLine
 62
7
  6
CONTINUOUS
 10
14.3460658711
 20
4.7135332468
 11
6.6186588029
 21
5.2494307472
  0
LINE
  5
2B7
100
AcDbEntity
  8
0
100
AcDbLine
 62
4
  6
CONTINUOUS
 10
9.5191962473
 20
5.3659295853
 11
9.6075094726
 21
5.3156484296
  0
LINE
  5
2B8
100
AcDbEntity
  8
0
100
AcDbLine
 62
4
  6
CONTINUOUS
 10
7.0388365744
 20
6.8527058735
 11
7.0678143503
 21
6.8313777453
  0
LINE
  5
2B9
100
AcDbEntity
  8
0
100
AcDbLine
 62
4
  6
CONTINUOUS
 10
11.0646776241
 20
5.1593977102
 11
10.9818839611
 21
5.1651394702
  0
LINE
  5
2BA
100
AcDbEntity
  8
0
100
AcDbLine
 62
4
  6
CONTINUOUS
 10
10.8825316319
 20
5.1720295776
 11
10.832855412
 21
5.1754746352
  0
LINE
  5
2BB
100
AcDbEntity
  8
0
100
AcDbLine
 62
4
  6
CONTINUOUS
 10
10.7059051952
 20
5.1842786626
 11
10.639670309
 21
5.1888720676
  0
LINE
  5
2BC
100
AcDbEntity
  8
0
100
AcDbLine
 62
4
  6
CONTINUOUS
 10
9.734459724
 20
5.2516486349
 11
9.6516660887
 21
5.257390393
  0
LINE
  5
2BD
100
AcDbEntity
  8
0
100
AcDbLine
 62
4
  6
CONTINUOUS
 10
10.2588194926
 20
5.2152841614
 11
10.3581718771
 21
5.2083940501
  0
LINE
  5
2BE
100
AcDbEntity
  8
0
100
AcDbLine
 62
4
  6
CONTINUOUS
 10
11.1916279515
 20
5.1505936751
 11
11.2909802807
 21
5.1437035676
  0
LINE
  5
2BF
100
AcDbEntity
  8
0
100
AcDbLine
 62
4
  6
CONTINUOUS
 10
9.8834882869
 20
5.3075483896
 11
9.9718015053
 21
5.3014238471
  0
LINE
  5
2C0
100
AcDbEntity
  8
0
100
AcDbLine
 62
4
  6
CONTINUOUS
 10
11.2578628376
 20
5.2784701115
 11
11.1916279515
 21
5.2830635164
  0
LINE
  5
2C1
100
AcDbEntity
  8
0
100
AcDbLine
 62
4
  6
CONTINUOUS
 10
10.325054434
 20
5.343160594
 11
10.2588194926
 21
5.3477540028
  0
LINE
  5
2C2
100
AcDbEntity
  8
0
100
AcDbLine
 62
4
  6
CONTINUOUS
 10
9.6516660887
 20
5.489212605
 11
9.734459724
 21
5.4834708469
  0
LINE
  5
2C3
100
AcDbEntity
  8
0
100
AcDbLine
 62
4
  6
CONTINUOUS
 10
10.0601147236
 20
5.460886596
 11
10.1925845512
 21
5.4516997822
  0
LINE
  5
2C4
100
AcDbEntity
  8
0
100
AcDbLine
 62
4
  6
CONTINUOUS
 10
10.2588194926
 20
5.4471063735
 11
10.3581718771
 21
5.4402162622
  0
LINE
  5
2C5
100
AcDbEntity
  8
0
100
AcDbLine
 62
4
  6
CONTINUOUS
 10
10.639670309
 20
5.4206942796
 11
10.7059051952
 21
5.4161008747
  0
LINE
  5
2C6
100
AcDbEntity
  8
0
100
AcDbLine
 62
4
  6
CONTINUOUS
 10
10.832855412
 20
5.4072968472
 11
10.8825316319
 21
5.4038517897
  0
LINE
  5
2C7
100
AcDbEntity
  8
0
100
AcDbLine
 62
4
  6
CONTINUOUS
 10
10.9818839611
 20
5.3969616822
 11
11.0646776241
 21
5.3912199222
  0
LINE
  5
2C8
100
AcDbEntity
  8
0
100
AcDbLine
 62
4
  6
CONTINUOUS
 10
11.1916279515
 20
5.3824158871
 11
11.2909802807
 21
5.3755257797
  0
LINE
  5
2C9
100
AcDbEntity
  8
0
100
AcDbLine
 62
4
  6
CONTINUOUS
 10
10.4989210643
 20
5.7086419274
 11
10.4492448582
 21
5.7120869839
  0
LINE
  5
2CA
100
AcDbEntity
  8
0
100
AcDbLine
 62
4
  6
CONTINUOUS
 10
10.2339813815
 20
5.7270155568
 11
10.3498924876
 21
5.7189770943
  0
LINE
  5
2CB
100
AcDbEntity
  8
0
100
AcDbLine
 62
4
  6
CONTINUOUS
 10
10.6203517257
 20
5.7664556031
 11
10.7086649717
 21
5.7603310587
  0
LINE
  5
2CC
100
AcDbEntity
  8
0
100
AcDbLine
 62
4
  6
CONTINUOUS
 10
10.4492448582
 20
5.8445568253
 11
10.4989210643
 21
5.8411117687
  0
LINE
  5
2CD
100
AcDbEntity
  8
0
100
AcDbLine
 62
4
  6
CONTINUOUS
 10
9.734459724
 20
5.4834708469
 11
9.7675771809
 21
5.4480566866
  0
LINE
  5
2CE
100
AcDbEntity
  8
0
100
AcDbLine
 62
4
  6
CONTINUOUS
 10
10.2339813815
 20
5.9588377688
 11
10.3498924876
 21
5.9507993063
  0
LINE
  5
2CF
100
AcDbEntity
  8
0
100
AcDbLine
 62
4
  6
CONTINUOUS
 10
10.4492448582
 20
5.943909196
 11
10.4989210643
 21
5.9404641394
  0
LINE
  5
2D0
100
AcDbEntity
  8
0
100
AcDbLine
 62
4
  6
CONTINUOUS
 10
11.3572151669
 20
5.2826191563
 11
11.4455283852
 21
5.2323379978
  0
LINE
  5
2D1
100
AcDbEntity
  8
0
100
AcDbLine
 62
4
  6
CONTINUOUS
 10
10.4492448582
 20
5.8445568253
 11
10.4271665536
 21
5.8626466825
  0
LINE
  5
2D2
100
AcDbEntity
  8
0
100
AcDbLine
 62
4
  6
CONTINUOUS
 10
10.639670309
 20
5.1888720676
 11
10.606552866
 21
5.2242862304
  0
LINE
  5
2D3
100
AcDbEntity
  8
0
100
AcDbLine
 62
4
  6
CONTINUOUS
 10
10.832855412
 20
5.1754746352
 11
10.799737969
 21
5.210888798
  0
LINE
  5
2D4
100
AcDbEntity
  8
0
100
AcDbLine
 62
4
  6
CONTINUOUS
 10
10.4492448582
 20
5.7120869839
 11
10.4161274013
 21
5.7475011477
  0
LINE
  5
2D5
100
AcDbEntity
  8
0
100
AcDbLine
 62
4
  6
CONTINUOUS
 10
6.9663921348
 20
6.8190928734
 11
6.9808810227
 21
6.837406592
  0
LINE
  5
2D6
100
AcDbEntity
  8
0
100
AcDbLine
 62
4
  6
CONTINUOUS
 10
7.0098587986
 20
6.7194858661
 11
6.9808810227
 21
6.6828584495
  0
LINE
  5
2D7
100
AcDbEntity
  8
0
100
AcDbLine
 62
4
  6
CONTINUOUS
 10
7.0823032382
 20
6.7724173858
 11
7.0678143503
 21
6.7541036671
  0
LINE
  5
2D8
100
AcDbEntity
  8
0
100
AcDbLine
 62
4
  6
CONTINUOUS
 10
10.4050882663
 20
6.2715225629
 11
10.3278141956
 21
6.2768815379
  0
LINE
  5
2D9
100
AcDbEntity
  8
0
100
AcDbLine
 62
4
  6
CONTINUOUS
 10
6.9663921348
 20
6.6259077056
 11
7.0823032382
 21
6.6178692432
  0
LINE
  5
2DA
100
AcDbEntity
  8
0
100
AcDbLine
 62
4
  6
CONTINUOUS
 10
13.7665104331
 20
6.1543178998
 11
13.8824215365
 21
6.1462794375
  0
LINE
  5
2DB
100
AcDbEntity
  8
0
100
AcDbLine
 62
4
  6
CONTINUOUS
 10
11.7187474679
 20
6.2963310939
 11
11.6028363619
 21
6.3043695564
  0
LINE
  5
2DC
100
AcDbEntity
  8
0
100
AcDbLine
 62
4
  6
CONTINUOUS
 10
10.9846437964
 20
6.3472413564
 11
10.8687326904
 21
6.3552798189
  0
LINE
  5
2DD
100
AcDbEntity
  8
0
100
AcDbLine
 62
4
  6
CONTINUOUS
 10
10.598273443
 20
6.3740362314
 11
10.482362337
 21
6.3820746939
  0
LINE
  5
2DE
100
AcDbEntity
  8
0
100
AcDbLine
 62
4
  6
CONTINUOUS
 10
10.4050882663
 20
6.3874336689
 11
10.2891771603
 21
6.3954721314
  0
LINE
  5
2DF
100
AcDbEntity
  8
0
100
AcDbLine
 62
4
  6
CONTINUOUS
 10
9.6729164466
 20
6.4382099571
 11
9.5570053406
 21
6.4462484196
  0
LINE
  5
2E0
100
AcDbEntity
  8
0
100
AcDbLine
 62
4
  6
CONTINUOUS
 10
9.4990497876
 20
6.4502676508
 11
9.3831386815
 21
6.4583061133
  0
LINE
  5
2E1
100
AcDbEntity
  8
0
100
AcDbLine
 62
4
  6
CONTINUOUS
 10
11.0619178671
 20
6.3418823814
 11
11.1778289731
 21
6.3338439189
  0
LINE
  5
2E2
100
AcDbEntity
  8
0
100
AcDbLine
 62
4
  6
CONTINUOUS
 10
11.4096511852
 20
6.3177669939
 11
11.5255622912
 21
6.3097285314
  0
LINE
  5
2E3
100
AcDbEntity
  8
0
100
AcDbLine
 62
4
  6
CONTINUOUS
 10
11.6028363619
 20
6.3623251094
 11
11.7187474679
 21
6.3542866469
  0
LINE
  5
2E4
100
AcDbEntity
  8
0
100
AcDbLine
 62
4
  6
CONTINUOUS
 10
10.8687326904
 20
6.4325538896
 11
10.9846437964
 21
6.4245154271
  0
LINE
  5
2E5
100
AcDbEntity
  8
0
100
AcDbLine
 62
4
  6
CONTINUOUS
 10
10.9846437964
 20
6.4631524624
 11
10.9073697257
 21
6.4685114374
  0
LINE
  5
2E6
100
AcDbEntity
  8
0
100
AcDbLine
 62
4
  6
CONTINUOUS
 10
10.1945164237
 20
6.5179479818
 11
10.0786053177
 21
6.5259864443
  0
LINE
  5
2E7
100
AcDbEntity
  8
0
100
AcDbLine
 62
4
  6
CONTINUOUS
 10
9.3831386815
 20
6.5742172194
 11
9.4990497876
 21
6.5661787569
  0
LINE
  5
2E8
100
AcDbEntity
  8
0
100
AcDbLine
 62
4
  6
CONTINUOUS
 10
10.482362337
 20
6.4979857999
 11
10.598273443
 21
6.4899473374
  0
LINE
  5
2E9
100
AcDbEntity
  8
0
100
AcDbLine
 62
4
  6
CONTINUOUS
 10
10.6755475137
 20
6.4845883624
 11
10.7914586197
 21
6.4765498999
  0
LINE
  5
2EA
100
AcDbEntity
  8
0
100
AcDbLine
 62
4
  6
CONTINUOUS
 10
11.4096511852
 20
6.4336780999
 11
11.5255622912
 21
6.4256396374
  0
LINE
  5
2EB
100
AcDbEntity
  8
0
100
AcDbLine
 62
4
  6
CONTINUOUS
 10
11.6028363619
 20
6.4202806624
 11
11.7187474679
 21
6.4122421999
  0
LINE
  5
2EC
100
AcDbEntity
  8
0
100
AcDbLine
 62
4
  6
CONTINUOUS
 10
11.3178882262
 20
6.4979974357
 11
11.3468660027
 21
6.4959878201
  0
LINE
  5
2ED
100
AcDbEntity
  8
0
100
AcDbLine
 62
4
  6
CONTINUOUS
 10
7.0098587986
 20
6.8547154891
 11
7.0388365744
 21
6.8527058735
  0
LINE
  5
2EE
100
AcDbEntity
  8
0
100
AcDbLine
 62
4
  6
CONTINUOUS
 10
13.8099770969
 20
6.3831256833
 11
13.8389548727
 21
6.3811160678
  0
LINE
  5
2EF
100
AcDbEntity
  8
0
100
AcDbLine
 62
4
  6
CONTINUOUS
 10
9.4990497876
 20
6.6820898629
 11
9.3831386815
 21
6.6901283254
  0
LINE
  5
2F0
100
AcDbEntity
  8
0
100
AcDbLine
 62
4
  6
CONTINUOUS
 10
9.7308719996
 20
6.6660129379
 11
9.8467831056
 21
6.6579744754
  0
LINE
  5
2F1
100
AcDbEntity
  8
0
100
AcDbLine
 62
4
  6
CONTINUOUS
 10
10.8825316319
 20
5.4038517897
 11
10.915649075
 21
5.3684376303
  0
LINE
  5
2F2
100
AcDbEntity
  8
0
100
AcDbLine
 62
4
  6
CONTINUOUS
 10
10.4989210643
 20
5.8411117687
 11
10.5320385074
 21
5.8056976025
  0
LINE
  5
2F3
100
AcDbEntity
  8
0
100
AcDbLine
 62
4
  6
CONTINUOUS
 10
11.0646776241
 20
5.3912199222
 11
11.0977950672
 21
5.3558057628
  0
LINE
  5
2F4
100
AcDbEntity
  8
0
100
AcDbLine
 62
4
  6
CONTINUOUS
 10
9.3831386815
 20
6.6901283254
 11
9.3831386815
 21
6.5742172194
  0
LINE
  5
2F5
100
AcDbEntity
  8
0
100
AcDbLine
 62
4
  6
CONTINUOUS
 10
9.4990497876
 20
6.5661787569
 11
9.4990497876
 21
6.4502676508
  0
LINE
  5
2F6
100
AcDbEntity
  8
0
100
AcDbLine
 62
4
  6
CONTINUOUS
 10
10.4989210643
 20
5.9404641394
 11
10.5209993689
 21
5.9058155469
  0
LINE
  5
2F7
100
AcDbEntity
  8
0
100
AcDbLine
 62
4
  6
CONTINUOUS
 10
9.9276448961
 20
5.4700734097
 11
9.9938798375
 21
5.2336577889
  0
LINE
  5
2F8
100
AcDbEntity
  8
0
100
AcDbLine
 62
4
  6
CONTINUOUS
 10
9.5309253423
 20
8.9594641039
 11
9.5309253423
 21
8.9401455913
  0
LINE
  5
2F9
100
AcDbEntity
  8
0
100
AcDbLine
 62
4
  6
CONTINUOUS
 10
9.5570053406
 20
6.4462484196
 11
9.5570053406
 21
6.6780706316
  0
LINE
  5
2FA
100
AcDbEntity
  8
0
100
AcDbLine
 62
4
  6
CONTINUOUS
 10
9.6468364457
 20
8.8355145451
 11
9.6468364457
 21
8.7968775094
  0
LINE
  5
2FB
100
AcDbEntity
  8
0
100
AcDbLine
 62
4
  6
CONTINUOUS
 10
9.6516660887
 20
5.257390393
 11
9.6516660887
 21
5.489212605
  0
LINE
  5
2FC
100
AcDbEntity
  8
0
100
AcDbLine
 62
4
  6
CONTINUOUS
 10
9.6729164466
 20
6.6700321691
 11
9.6729164466
 21
6.4382099571
  0
LINE
  5
2FD
100
AcDbEntity
  8
0
100
AcDbLine
 62
4
  6
CONTINUOUS
 10
9.7308719996
 20
6.6660129379
 11
9.7308719996
 21
6.4341907258
  0
LINE
  5
2FE
100
AcDbEntity
  8
0
100
AcDbLine
 62
4
  6
CONTINUOUS
 10
9.7675771809
 20
5.4480566866
 11
9.7675771809
 21
5.2824693918
  0
LINE
  5
2FF
100
AcDbEntity
  8
0
100
AcDbLine
 62
4
  6
CONTINUOUS
 10
9.8467831056
 20
6.6579744754
 11
9.8467831056
 21
6.4261522633
  0
LINE
  5
300
100
AcDbEntity
  8
0
100
AcDbLine
 62
4
  6
CONTINUOUS
 10
9.5454142302
 20
8.9777778226
 11
9.5309253423
 21
8.9594641039
  0
LINE
  5
301
100
AcDbEntity
  8
0
100
AcDbLine
 62
4
  6
CONTINUOUS
 10
9.6468364457
 20
8.7968775094
 11
9.6323475578
 21
8.7785637994
  0
LINE
  5
302
100
AcDbEntity
  8
0
100
AcDbLine
 62
4
  6
CONTINUOUS
 10
9.5743920061
 20
8.9950867196
 11
9.5454142302
 21
8.9777778226
  0
LINE
  5
303
100
AcDbEntity
  8
0
100
AcDbLine
 62
4
  6
CONTINUOUS
 10
11.5497106519
 20
7.0035203809
 11
11.5207328761
 21
7.0055299965
  0
LINE
  5
304
100
AcDbEntity
  8
0
100
AcDbLine
 62
4
  6
CONTINUOUS
 10
11.3178884451
 20
7.0195973055
 11
11.2889106692
 21
7.0216069211
  0
LINE
  5
305
100
AcDbEntity
  8
0
100
AcDbLine
 62
4
  6
CONTINUOUS
 10
11.7235773071
 20
7.0687367587
 11
11.8105106346
 21
7.0627079119
  0
LINE
  5
306
100
AcDbEntity
  8
0
100
AcDbLine
 62
4
  6
CONTINUOUS
 10
11.5497106519
 20
7.2353425878
 11
11.5207328761
 21
7.2373522033
  0
LINE
  5
307
100
AcDbEntity
  8
0
100
AcDbLine
 62
4
  6
CONTINUOUS
 10
11.2889106692
 20
7.253429128
 11
11.3178884451
 21
7.2514195124
  0
LINE
  5
308
100
AcDbEntity
  8
0
100
AcDbLine
 62
4
  6
CONTINUOUS
 10
10.0786053177
 20
6.4100753383
 11
10.0786053177
 21
6.6418975504
  0
LINE
  5
309
100
AcDbEntity
  8
0
100
AcDbLine
 62
4
  6
CONTINUOUS
 10
10.1263496651
 20
5.2244709751
 11
10.1263496651
 21
5.4562931872
  0
LINE
  5
30A
100
AcDbEntity
  8
0
100
AcDbLine
 62
4
  6
CONTINUOUS
 10
10.1945164237
 20
6.4020368758
 11
10.1945164237
 21
6.5179479818
  0
LINE
  5
30B
100
AcDbEntity
  8
0
100
AcDbLine
 62
4
  6
CONTINUOUS
 10
10.2588194926
 20
5.2152841614
 11
10.2588194926
 21
5.4471063735
  0
LINE
  5
30C
100
AcDbEntity
  8
0
100
AcDbLine
 62
7
  6
CONTINUOUS
 10
9.6704935995
 20
8.3597254786
 11
9.9189416593
 21
8.5997078903
  0
LINE
  5
30D
100
AcDbEntity
  8
0
100
AcDbLine
 62
7
  6
CONTINUOUS
 10
9.9728781028
 20
8.6271076054
 11
9.724430043
 21
8.3871251938
  0
LINE
  5
30E
100
AcDbEntity
  8
0
100
AcDbLine
 62
4
  6
CONTINUOUS
 10
9.6323475578
 20
8.7785637994
 11
9.6033697819
 21
8.7612548972
  0
LINE
  5
30F
100
AcDbEntity
  8
0
100
AcDbLine
 62
4
  6
CONTINUOUS
 10
11.2889106692
 20
7.0216069211
 11
11.2599328933
 21
7.0429350545
  0
LINE
  5
310
100
AcDbEntity
  8
0
100
AcDbLine
 62
4
  6
CONTINUOUS
 10
11.5207328761
 20
7.0055299965
 11
11.4917551002
 21
7.0268581299
  0
LINE
  5
311
100
AcDbEntity
  8
0
100
AcDbLine
 62
4
  6
CONTINUOUS
 10
11.3178884451
 20
7.2514195124
 11
11.3468662209
 21
7.2300913842
  0
LINE
  5
312
100
AcDbEntity
  8
0
100
AcDbLine
 62
4
  6
CONTINUOUS
 10
11.4917551002
 20
7.1620877546
 11
11.5786884278
 21
7.0981033492
  0
LINE
  5
313
100
AcDbEntity
  8
0
100
AcDbLine
 62
4
  6
CONTINUOUS
 10
9.5454142302
 20
8.7845926462
 11
9.5164364544
 21
8.8252392956
  0
LINE
  5
314
100
AcDbEntity
  8
0
100
AcDbLine
 62
4
  6
CONTINUOUS
 10
9.5309253423
 20
8.9401455913
 11
9.5454142302
 21
8.9198222709
  0
LINE
  5
315
100
AcDbEntity
  8
0
100
AcDbLine
 62
4
  6
CONTINUOUS
 10
9.6323475578
 20
8.8558378655
 11
9.6468364457
 21
8.8355145451
  0
LINE
  5
316
100
AcDbEntity
  8
0
100
AcDbLine
 62
4
  6
CONTINUOUS
 10
9.6468364457
 20
8.9514256416
 11
9.6323475578
 21
8.9717489758
  0
LINE
  5
317
100
AcDbEntity
  8
0
100
AcDbLine
 62
4
  6
CONTINUOUS
 10
10.6645083349
 20
5.9289806232
 11
10.7307432487
 21
5.6925650043
  0
LINE
  5
318
100
AcDbEntity
  8
0
100
AcDbLine
 62
4
  6
CONTINUOUS
 10
10.2891771603
 20
6.3954721314
 11
10.2891771603
 21
6.5113832375
  0
LINE
  5
319
100
AcDbEntity
  8
0
100
AcDbLine
 62
4
  6
CONTINUOUS
 10
10.4050882663
 20
6.503344775
 11
10.4050882663
 21
6.2715225629
  0
LINE
  5
31A
100
AcDbEntity
  8
0
100
AcDbLine
 62
4
  6
CONTINUOUS
 10
10.4161274013
 20
5.7475011477
 11
10.4161274013
 21
5.813736065
  0
LINE
  5
31B
100
AcDbEntity
  8
0
100
AcDbLine
 62
4
  6
CONTINUOUS
 10
10.4271665536
 20
5.8626466825
 11
10.4271665536
 21
5.9123228747
  0
LINE
  5
31C
100
AcDbEntity
  8
0
100
AcDbLine
 62
4
  6
CONTINUOUS
 10
10.482362337
 20
6.3820746939
 11
10.482362337
 21
6.4979857999
  0
LINE
  5
31D
100
AcDbEntity
  8
0
100
AcDbLine
 62
4
  6
CONTINUOUS
 10
10.5209993689
 20
5.9058155469
 11
10.5209993689
 21
5.8561393546
  0
LINE
  5
31E
100
AcDbEntity
  8
0
100
AcDbLine
 62
4
  6
CONTINUOUS
 10
10.5320385074
 20
5.8056976025
 11
10.5320385074
 21
5.7394626852
  0
LINE
  5
31F
100
AcDbEntity
  8
0
100
AcDbLine
 62
4
  6
CONTINUOUS
 10
10.598273443
 20
6.6058584435
 11
10.598273443
 21
6.3740362314
  0
LINE
  5
320
100
AcDbEntity
  8
0
100
AcDbLine
 62
4
  6
CONTINUOUS
 10
10.606552866
 20
5.2242862304
 11
10.606552866
 21
5.3898735252
  0
LINE
  5
321
100
AcDbEntity
  8
0
100
AcDbLine
 62
7
  6
CONTINUOUS
 10
10.563643409
 20
7.5102432211
 11
10.5716482234
 21
7.5962780759
  0
LINE
  5
322
100
AcDbEntity
  8
0
100
AcDbLine
 62
4
  6
CONTINUOUS
 10
6.9808810227
 20
6.837406592
 11
7.0098587986
 21
6.8547154891
  0
LINE
  5
323
100
AcDbEntity
  8
0
100
AcDbLine
 62
4
  6
CONTINUOUS
 10
7.0678143503
 20
6.7541036671
 11
7.0098587986
 21
6.7194858661
  0
LINE
  5
324
100
AcDbEntity
  8
0
100
AcDbLine
 62
4
  6
CONTINUOUS
 10
11.5786884278
 20
7.2140144595
 11
11.5497106519
 21
7.2353425878
  0
LINE
  5
325
100
AcDbEntity
  8
0
100
AcDbLine
 62
4
  6
CONTINUOUS
 10
9.5743920061
 20
8.7632645128
 11
9.5454142302
 21
8.7845926462
  0
LINE
  5
326
100
AcDbEntity
  8
0
100
AcDbLine
 62
4
  6
CONTINUOUS
 10
9.5454142302
 20
8.9198222709
 11
9.6323475578
 21
8.8558378655
  0
LINE
  5
327
100
AcDbEntity
  8
0
100
AcDbLine
 62
4
  6
CONTINUOUS
 10
9.6323475578
 20
8.9717489758
 11
9.6033697819
 21
8.993077104
  0
LINE
  5
328
100
AcDbEntity
  8
0
100
AcDbLine
 62
4
  6
CONTINUOUS
 10
11.2599328933
 20
7.0429350545
 11
11.2309551175
 21
7.083581704
  0
LINE
  5
329
100
AcDbEntity
  8
0
100
AcDbLine
 62
4
  6
CONTINUOUS
 10
11.4917551002
 20
7.0268581299
 11
11.4627773243
 21
7.0675047794
  0
LINE
  5
32A
100
AcDbEntity
  8
0
100
AcDbLine
 62
4
  6
CONTINUOUS
 10
11.3468662209
 20
7.2300913842
 11
11.3613551088
 21
7.20976805
  0
LINE
  5
32B
100
AcDbEntity
  8
0
100
AcDbLine
 62
4
  6
CONTINUOUS
 10
11.4772662123
 20
7.182411075
 11
11.4917551002
 21
7.1620877546
  0
LINE
  5
32C
100
AcDbEntity
  8
0
100
AcDbLine
 62
4
  6
CONTINUOUS
 10
11.5786884278
 20
7.0981033492
 11
11.5931773157
 21
7.0777800288
  0
LINE
  5
32D
100
AcDbEntity
  8
0
100
AcDbLine
 62
4
  6
CONTINUOUS
 10
10.6755475137
 20
6.4845883624
 11
10.6755475137
 21
6.3686772564
  0
LINE
  5
32E
100
AcDbEntity
  8
0
100
AcDbLine
 62
4
  6
CONTINUOUS
 10
10.799737969
 20
5.210888798
 11
10.799737969
 21
5.3764760928
  0
LINE
  5
32F
100
AcDbEntity
  8
0
100
AcDbLine
 62
4
  6
CONTINUOUS
 10
10.8687326904
 20
6.3552798189
 11
10.8687326904
 21
6.4325538896
  0
LINE
  5
330
100
AcDbEntity
  8
0
100
AcDbLine
 62
4
  6
CONTINUOUS
 10
10.915649075
 20
5.3684376303
 11
10.915649075
 21
5.2028503355
  0
LINE
  5
331
100
AcDbEntity
  8
0
100
AcDbLine
 62
4
  6
CONTINUOUS
 10
10.9818839611
 20
5.1651394702
 11
10.9818839611
 21
5.3969616822
  0
LINE
  5
332
100
AcDbEntity
  8
0
100
AcDbLine
 62
4
  6
CONTINUOUS
 10
10.9846437964
 20
6.4631524624
 11
10.9846437964
 21
6.3472413564
  0
LINE
  5
333
100
AcDbEntity
  8
0
100
AcDbLine
 62
4
  6
CONTINUOUS
 10
9.8614099823
 20
5.2428446046
 11
9.9276448961
 21
5.4700734097
  0
LINE
  5
334
100
AcDbEntity
  8
0
100
AcDbLine
 62
7
  6
CONTINUOUS
 10
10.4890066001
 20
8.3341016295
 11
10.7374546599
 21
8.5740840411
  0
LINE
  5
335
100
AcDbEntity
  8
0
100
AcDbLine
 62
7
  6
CONTINUOUS
 10
10.7913911034
 20
8.5392033158
 11
10.5429430436
 21
8.2992209042
  0
LINE
  5
336
100
AcDbEntity
  8
0
100
AcDbLine
 62
4
  6
CONTINUOUS
 10
13.8389548727
 20
6.3811160678
 11
13.8679326486
 21
6.3597879395
  0
LINE
  5
337
100
AcDbEntity
  8
0
100
AcDbLine
 62
4
  6
CONTINUOUS
 10
11.5931773157
 20
7.1936911253
 11
11.5786884278
 21
7.2140144595
  0
LINE
  5
338
100
AcDbEntity
  8
0
100
AcDbLine
 62
4
  6
CONTINUOUS
 10
11.2309551175
 20
7.083581704
 11
11.2164662295
 21
7.1425420635
  0
LINE
  5
339
100
AcDbEntity
  8
0
100
AcDbLine
 62
4
  6
CONTINUOUS
 10
11.0619178671
 20
6.4577934874
 11
11.0619178671
 21
6.3418823814
  0
LINE
  5
33A
100
AcDbEntity
  8
0
100
AcDbLine
 62
4
  6
CONTINUOUS
 10
11.0977950672
 20
5.3558057628
 11
11.0977950672
 21
5.190218468
  0
LINE
  5
33B
100
AcDbEntity
  8
0
100
AcDbLine
 62
4
  6
CONTINUOUS
 10
11.1778289731
 20
6.3338439189
 11
11.1778289731
 21
6.4497550249
  0
LINE
  5
33C
100
AcDbEntity
  8
0
100
AcDbLine
 62
4
  6
CONTINUOUS
 10
11.1916279515
 20
5.1505936751
 11
11.1916279515
 21
5.3824158871
  0
LINE
  5
33D
100
AcDbEntity
  8
0
100
AcDbLine
 62
4
  6
CONTINUOUS
 10
11.2551030438
 20
6.3284849439
 11
11.2551030438
 21
6.5603071559
  0
LINE
  5
33E
100
AcDbEntity
  8
0
100
AcDbLine
 62
4
  6
CONTINUOUS
 10
11.3323771145
 20
6.3231259689
 11
11.3323771145
 21
6.4390370749
  0
LINE
  5
33F
100
AcDbEntity
  8
0
100
AcDbLine
 62
4
  6
CONTINUOUS
 10
11.4096511852
 20
6.4336780999
 11
11.4096511852
 21
6.3177669939
  0
LINE
  5
340
100
AcDbEntity
  8
0
100
AcDbLine
 62
4
  6
CONTINUOUS
 10
10.5982734211
 20
5.701751818
 11
10.6645083349
 21
5.9289806232
  0
LINE
  5
341
100
AcDbEntity
  8
0
100
AcDbLine
 62
4
  6
CONTINUOUS
 10
9.6033697819
 20
8.7612548972
 11
9.5743920061
 21
8.7632645128
  0
LINE
  5
342
100
AcDbEntity
  8
0
100
AcDbLine
 62
4
  6
CONTINUOUS
 10
9.6033697819
 20
8.993077104
 11
9.5743920061
 21
8.9950867196
  0
LINE
  5
343
100
AcDbEntity
  8
0
100
AcDbLine
 62
4
  6
CONTINUOUS
 10
11.7670439709
 20
7.2202704709
 11
11.8394884105
 21
6.9834242251
  0
LINE
  5
344
100
AcDbEntity
  8
0
100
AcDbLine
 62
4
  6
CONTINUOUS
 10
11.4772662123
 20
7.2017295876
 11
11.4772662123
 21
7.182411075
  0
LINE
  5
345
100
AcDbEntity
  8
0
100
AcDbLine
 62
4
  6
CONTINUOUS
 10
11.5931773157
 20
7.0777800288
 11
11.5931773157
 21
7.0391429932
  0
LINE
  5
346
100
AcDbEntity
  8
0
100
AcDbLine
 62
4
  6
CONTINUOUS
 10
11.6028363619
 20
6.4202806624
 11
11.6028363619
 21
6.3623251094
  0
LINE
  5
347
100
AcDbEntity
  8
0
100
AcDbLine
 62
4
  6
CONTINUOUS
 10
11.7187474679
 20
6.3542866469
 11
11.7187474679
 21
6.2963310939
  0
LINE
  5
348
100
AcDbEntity
  8
0
100
AcDbLine
 62
4
  6
CONTINUOUS
 10
11.2164662295
 20
7.1425420635
 11
11.2309551175
 21
7.1994928074
  0
LINE
  5
349
100
AcDbEntity
  8
0
100
AcDbLine
 62
4
  6
CONTINUOUS
 10
10.3498924876
 20
5.9507993063
 11
10.2339813815
 21
5.7270155568
  0
LINE
  5
34A
100
AcDbEntity
  8
0
100
AcDbLine
 62
7
  6
CONTINUOUS
 10
10.9252313222
 20
7.6105664005
 11
11.173679382
 21
7.8505488121
  0
LINE
  5
34B
100
AcDbEntity
  8
0
100
AcDbLine
 62
7
  6
CONTINUOUS
 10
11.173679382
 20
7.7882683717
 11
10.9252313222
 21
7.5482859601
  0
LINE
  5
34C
100
AcDbEntity
  8
0
100
AcDbLine
 62
7
  6
CONTINUOUS
 10
14.3460658711
 20
10.7505700189
 11
15.3813411971
 21
11.7505692528
  0
LINE
  5
34D
100
AcDbEntity
  8
0
100
AcDbLine
 62
4
  6
CONTINUOUS
 10
11.9119328501
 20
7.210222393
 11
11.9553995139
 21
6.9753857628
  0
LINE
  5
34E
100
AcDbEntity
  8
0
100
AcDbLine
 62
4
  6
CONTINUOUS
 10
11.9988661777
 20
7.2041935462
 11
12.0423328415
 21
6.969356916
  0
LINE
  5
34F
100
AcDbEntity
  8
0
100
AcDbLine
 62
4
  6
CONTINUOUS
 10
11.6945995312
 20
6.993472303
 11
11.7670439709
 21
7.2202704709
  0
LINE
  5
350
100
AcDbEntity
  8
0
100
AcDbLine
 62
4
  6
CONTINUOUS
 10
10.4271665536
 20
5.9123228747
 11
10.4492448582
 21
5.943909196
  0
LINE
  5
351
100
AcDbEntity
  8
0
100
AcDbLine
 62
4
  6
CONTINUOUS
 10
11.2309551175
 20
7.1994928074
 11
11.2599328933
 21
7.2361202309
  0
LINE
  5
352
100
AcDbEntity
  8
0
100
AcDbLine
 62
4
  6
CONTINUOUS
 10
11.4917551002
 20
7.2200433063
 11
11.4772662123
 21
7.2017295876
  0
LINE
  5
353
100
AcDbEntity
  8
0
100
AcDbLine
 62
4
  6
CONTINUOUS
 10
11.3613551088
 20
7.0552199178
 11
11.3468662209
 21
7.0369062078
  0
LINE
  5
354
100
AcDbEntity
  8
0
100
AcDbLine
 62
7
  6
CONTINUOUS
 10
10.5429430436
 20
6.9126550207
 11
10.7913911034
 21
7.1526374323
  0
LINE
  5
355
100
AcDbEntity
  8
0
100
AcDbLine
 62
4
  6
CONTINUOUS
 10
13.8679326486
 20
6.3597879395
 11
13.8824215365
 21
6.3394646053
  0
LINE
  5
356
100
AcDbEntity
  8
0
100
AcDbLine
 62
4
  6
CONTINUOUS
 10
11.9553995139
 20
6.9753857628
 11
11.9988661777
 21
7.2041935462
  0
LINE
  5
357
100
AcDbEntity
  8
0
100
AcDbLine
 62
4
  6
CONTINUOUS
 10
12.0423328415
 20
6.969356916
 11
12.0857995053
 21
7.1981646995
  0
LINE
  5
358
100
AcDbEntity
  8
0
100
AcDbLine
 62
4
  6
CONTINUOUS
 10
11.5931773157
 20
7.0391429932
 11
11.5786884278
 21
7.0208292831
  0
LINE
  5
359
100
AcDbEntity
  8
0
100
AcDbLine
 62
4
  6
CONTINUOUS
 10
9.7675771809
 20
5.2824693918
 11
9.734459724
 21
5.2516486349
  0
LINE
  5
35A
100
AcDbEntity
  8
0
100
AcDbLine
 62
4
  6
CONTINUOUS
 10
10.4161274013
 20
5.813736065
 11
10.4492448582
 21
5.8445568253
  0
LINE
  5
35B
100
AcDbEntity
  8
0
100
AcDbLine
 62
4
  6
CONTINUOUS
 10
11.2599328933
 20
7.2361202309
 11
11.2889106692
 21
7.253429128
  0
LINE
  5
35C
100
AcDbEntity
  8
0
100
AcDbLine
 62
4
  6
CONTINUOUS
 10
11.5207328761
 20
7.2373522033
 11
11.4917551002
 21
7.2200433063
  0
LINE
  5
35D
100
AcDbEntity
  8
0
100
AcDbLine
 62
4
  6
CONTINUOUS
 10
11.3468662209
 20
7.0369062078
 11
11.3178884451
 21
7.0195973055
  0
LINE
  5
35E
100
AcDbEntity
  8
0
100
AcDbLine
 62
4
  6
CONTINUOUS
 10
11.5786884278
 20
7.0208292831
 11
11.5497106519
 21
7.0035203809
  0
LINE
  5
35F
100
AcDbEntity
  8
0
100
AcDbLine
 62
4
  6
CONTINUOUS
 10
10.5320385074
 20
5.7394626852
 11
10.4989210643
 21
5.7086419274
  0
LINE
  5
360
100
AcDbEntity
  8
0
100
AcDbLine
 62
4
  6
CONTINUOUS
 10
10.5209993689
 20
5.8561393546
 11
10.4989210643
 21
5.8411117687
  0
LINE
  5
361
100
AcDbEntity
  8
0
100
AcDbLine
 62
4
  6
CONTINUOUS
 10
10.606552866
 20
5.3898735252
 11
10.639670309
 21
5.4206942796
  0
LINE
  5
362
100
AcDbEntity
  8
0
100
AcDbLine
 62
4
  6
CONTINUOUS
 10
10.799737969
 20
5.3764760928
 11
10.832855412
 21
5.4072968472
  0
LINE
  5
363
100
AcDbEntity
  8
0
100
AcDbLine
 62
4
  6
CONTINUOUS
 10
10.915649075
 20
5.2028503355
 11
10.8825316319
 21
5.1720295776
  0
LINE
  5
364
100
AcDbEntity
  8
0
100
AcDbLine
 62
4
  6
CONTINUOUS
 10
9.6075094726
 20
5.4039616584
 11
9.5191962473
 21
5.3659295853
  0
LINE
  5
365
100
AcDbEntity
  8
0
100
AcDbLine
 62
4
  6
CONTINUOUS
 10
11.0977950672
 20
5.190218468
 11
11.0646776241
 21
5.1593977102
  0
LINE
  5
366
100
AcDbEntity
  8
0
100
AcDbLine
 62
7
  6
CONTINUOUS
 10
6.6186588029
 20
11.2864675192
 11
14.3460658711
 21
10.7505700189
  0
LINE
  5
367
100
AcDbEntity
  8
0
100
AcDbLine
 62
4
  6
CONTINUOUS
 10
13.8824215365
 20
9.3917906359
 11
13.8824215365
 21
9.159968429
  0
LINE
  5
368
100
AcDbEntity
  8
0
100
AcDbLine
 62
4
  6
CONTINUOUS
 10
13.8824215365
 20
6.3394646053
 11
13.8824215365
 21
6.30082758
  0
LINE
  5
369
100
AcDbEntity
  8
0
100
AcDbLine
 62
7
  6
CONTINUOUS
 10
14.3460658711
 20
10.7505700189
 11
14.3460658711
 21
4.7135332468
  0
LINE
  5
36A
100
AcDbEntity
  8
0
100
AcDbLine
 62
4
  6
CONTINUOUS
 10
13.780999321
 20
6.2112686438
 11
13.7665104331
 21
6.1543178998
  0
LINE
  5
36B
100
AcDbEntity
  8
0
100
AcDbLine
 62
4
  6
CONTINUOUS
 10
13.7665104331
 20
6.3475030676
 11
13.780999321
 21
6.3658167863
  0
LINE
  5
36C
100
AcDbEntity
  8
0
100
AcDbLine
 62
4
  6
CONTINUOUS
 10
13.780999321
 20
6.3658167863
 11
13.8099770969
 21
6.3831256833
  0
LINE
  5
36D
100
AcDbEntity
  8
0
100
AcDbLine
 62
4
  6
CONTINUOUS
 10
13.8679326486
 20
6.2825138614
 11
13.8099770969
 21
6.2478960604
  0
LINE
  5
36E
100
AcDbEntity
  8
0
100
AcDbLine
 62
4
  6
CONTINUOUS
 10
11.4455283852
 20
5.2323379978
 11
11.3572151669
 21
5.1943059276
  0
LINE
  5
36F
100
AcDbEntity
  8
0
100
AcDbLine
 62
4
  6
CONTINUOUS
 10
13.8099770969
 20
6.2478960604
 11
13.780999321
 21
6.2112686438
  0
LINE
  5
370
100
AcDbEntity
  8
0
100
AcDbLine
 62
4
  6
CONTINUOUS
 10
13.8824215365
 20
6.30082758
 11
13.8679326486
 21
6.2825138614
  0
LINE
  5
371
100
AcDbEntity
  8
0
100
AcDbLine
 62
7
  6
CONTINUOUS
 10
7.6539341289
 20
12.2864667532
 11
15.3813411971
 21
11.7505692528
  0
LINE
  5
372
100
AcDbEntity
  8
0
100
AcDbLine
 62
7
  6
CONTINUOUS
 10
15.3813411971
 20
11.7505692528
 11
15.3813411971
 21
5.7135324808
  0
LINE
  5
373
100
AcDbEntity
  8
0
100
AcDbLine
 62
7
  6
CONTINUOUS
 10
14.3460658711
 20
4.7135332468
 11
15.3813411971
 21
5.7135324808
  0
ARC
  5
374
100
AcDbEntity
  8
0
100
AcDbCircle
 62
7
  6
CONTINUOUS
 10
10.2765203407
 20
7.8021946911
 40
0.8990403858
100
AcDbArc
 50
55.0620310744
 51
59.1564303205
  0
ARC
  5
375
100
AcDbEntity
  8
0
100
AcDbCircle
 62
7
  6
CONTINUOUS
 10
10.1847958318
 20
7.7092890952
 40
0.897994113
100
AcDbArc
 50
235.0596448196
 51
239.1588165753
  0
ARC
  5
376
100
AcDbEntity
  8
0
100
AcDbCircle
 62
7
  6
CONTINUOUS
 10
10.0286408113
 20
7.5630914041
 40
0.897994113
100
AcDbArc
 50
55.0596448196
 51
59.1588165753
  0
ARC
  5
377
100
AcDbEntity
  8
0
100
AcDbCircle
 62
7
  6
CONTINUOUS
 10
10.1105029453
 20
7.693026218
 40
0.8228897736
100
AcDbArc
 50
180.0021468494
 51
182.1737440875
  0
ARC
  5
378
100
AcDbEntity
  8
0
100
AcDbCircle
 62
7
  6
CONTINUOUS
 10
10.1029336978
 20
7.5793542813
 40
0.8228897736
100
AcDbArc
 50
0.0021468494
 51
2.1737440876
  0
ARC
  5
379
100
AcDbEntity
  8
0
100
AcDbCircle
 62
7
  6
CONTINUOUS
 10
10.3524636656
 20
7.8193572389
 40
0.821807865
100
AcDbArc
 50
0.000717226
 51
2.175173711
  0
ARC
  5
37A
100
AcDbEntity
  8
0
100
AcDbCircle
 62
7
  6
CONTINUOUS
 10
10.1040223206
 20
7.6930056256
 40
0.8164091484
100
AcDbArc
 50
177.8176453237
 51
180.0007187083
  0
ARC
  5
37B
100
AcDbEntity
  8
0
100
AcDbCircle
 62
7
  6
CONTINUOUS
 10
10.1094143225
 20
7.5793748737
 40
0.8164091484
100
AcDbArc
 50
357.8176453237
 51
0.0007187083
  0
ARC
  5
37C
100
AcDbEntity
  8
0
100
AcDbCircle
 62
7
  6
CONTINUOUS
 10
10.3589385973
 20
7.8193367935
 40
0.8153329338
100
AcDbArc
 50
357.816204354
 51
0.002159678
  0
ARC
  5
37D
100
AcDbEntity
  8
0
100
AcDbCircle
 62
7
  6
CONTINUOUS
 10
10.2859206718
 20
7.9440952119
 40
0.7513332015
100
AcDbArc
 50
114.6232335537
 51
119.2379085761
  0
ARC
  5
37E
100
AcDbEntity
  8
0
100
AcDbCircle
 62
7
  6
CONTINUOUS
 10
10.1764676984
 20
7.5672762281
 40
0.7502220364
100
AcDbArc
 50
294.6198142689
 51
299.2413278609
  0
ARC
  5
37F
100
AcDbEntity
  8
0
100
AcDbCircle
 62
7
  6
CONTINUOUS
 10
10.0369689448
 20
7.7051042712
 40
0.7502220364
100
AcDbArc
 50
114.6198142689
 51
119.2413278609
  0
ARC
  5
380
100
AcDbEntity
  8
0
100
AcDbCircle
 62
7
  6
CONTINUOUS
 10
10.4896204318
 20
7.9516841809
 40
0.6737196646
100
AcDbArc
 50
354.0497483967
 51
0.0105776796
  0
ARC
  5
381
100
AcDbEntity
  8
0
100
AcDbCircle
 62
7
  6
CONTINUOUS
 10
10.128304141
 20
7.6570224005
 40
0.4152927097
100
AcDbArc
 50
42.1564137933
 51
45.5988568173
  0
ARC
  5
382
100
AcDbEntity
  8
0
100
AcDbCircle
 62
7
  6
CONTINUOUS
 10
10.1190738012
 20
7.7048928473
 40
0.4063093155
100
AcDbArc
 50
103.212508524
 51
107.341305776
  0
ARC
  5
383
100
AcDbEntity
  8
0
100
AcDbCircle
 62
7
  6
CONTINUOUS
 10
10.1758683499
 20
7.6461236514
 40
0.4062424468
100
AcDbArc
 50
340.6337088721
 51
344.9952268178
  0
ARC
  5
384
100
AcDbEntity
  8
0
100
AcDbCircle
 62
7
  6
CONTINUOUS
 10
10.4528928697
 20
7.9415715615
 40
0.167236203
100
AcDbArc
 50
293.7852064837
 51
294.4307632366
  0
ARC
  5
385
100
AcDbEntity
  8
0
100
AcDbCircle
 62
7
  6
CONTINUOUS
 10
10.4235528948
 20
7.9717779177
 40
0.1668236192
100
AcDbArc
 50
153.683565729
 51
154.3061853594
  0
SPLINE
  5
386
100
AcDbEntity
  8
0
100
AcDbSpline
 62
7
  6
CONTINUOUS
 70
0
 71
3
 72
11
 73
7
 74
0
 42
0.0000001
 43
0.0000001
 44
0.0000000001
 40
0.0
 40
0.0
 40
0.0
 40
0.0
 40
0.2472634638
 40
0.4962460639
 40
0.7472675544
 40
1.0
 40
1.0
 40
1.0
 40
1.0
 10
10.5203407429
 20
7.788539761
 30
0.0
 10
10.5139704413
 20
7.7857320846
 30
0.0
 10
10.5008187122
 20
7.7808932133
 30
0.0
 10
10.4802832756
 20
7.7760906514
 30
0.0
 10
10.4591648959
 20
7.7737987567
 30
0.0
 10
10.4449440191
 20
7.7739482099
 30
0.0
 10
10.437845498
 20
7.774440494
 30
0.0
  0
SPLINE
  5
387
100
AcDbEntity
  8
0
100
AcDbSpline
 62
7
  6
CONTINUOUS
 70
0
 71
3
 72
15
 73
11
 74
0
 42
0.0000001
 43
0.0000001
 44
0.0000000001
 40
0.0
 40
0.0
 40
0.0
 40
0.0
 40
0.1234389364
 40
0.2470473381
 40
0.370987441
 40
0.4953935886
 40
0.620395394
 40
0.7461421851
 40
0.8727199755
 40
1.0
 40
1.0
 40
1.0
 40
1.0
 10
10.4361814236
 20
7.4149799603
 30
0.0
 10
10.444512078
 20
7.4230273617
 30
0.0
 10
10.4603666685
 20
7.440005328
 30
0.0
 10
10.481427962
 20
7.4677957667
 30
0.0
 10
10.4995802048
 20
7.4976777701
 30
0.0
 10
10.5146684255
 20
7.5293609807
 30
0.0
 10
10.5265413774
 20
7.5625632392
 30
0.0
 10
10.5351011303
 20
7.596979729
 30
0.0
 10
10.5402526629
 20
7.6322798787
 30
0.0
 10
10.5413990596
 20
7.6561164349
 30
0.0
 10
10.5413990596
 20
7.6680596256
 30
0.0
  0
SPLINE
  5
388
100
AcDbEntity
  8
0
100
AcDbSpline
 62
7
  6
CONTINUOUS
 70
0
 71
3
 72
20
 73
16
 74
0
 42
0.0000001
 43
0.0000001
 44
0.0000000001
 40
0.0
 40
0.0
 40
0.0
 40
0.0
 40
0.1234149148
 40
0.2469952189
 40
0.308919618
 40
0.3709464008
 40
0.433093818
 40
0.4953765837
 40
0.5578077259
 40
0.6204006566
 40
0.6831727187
 40
0.7461410539
 40
0.8093212433
 40
0.8727120777
 40
1.0
 40
1.0
 40
1.0
 40
1.0
 10
10.5578911847
 20
7.1376913623
 30
0.0
 10
10.5723201328
 20
7.1516290501
 30
0.0
 10
10.5997835047
 20
7.1810283226
 30
0.0
 10
10.6301624581
 20
7.2211270536
 30
0.0
 10
10.6519421704
 20
7.2549769503
 30
0.0
 10
10.6669977969
 20
7.2812305572
 30
0.0
 10
10.6807234201
 20
7.308267784
 30
0.0
 10
10.6930919899
 20
7.3360241391
 30
0.0
 10
10.7040742932
 20
7.3644351993
 30
0.0
 10
10.7136412433
 20
7.3934372432
 30
0.0
 10
10.7217738395
 20
7.4229642184
 30
0.0
 10
10.7284548838
 20
7.4529504741
 30
0.0
 10
10.7336648962
 20
7.4833303266
 30
0.0
 10
10.7386405227
 20
7.5243054922
 30
0.0
 10
10.7401304575
 20
7.5553286161
 30
0.0
 10
10.7401304575
 20
7.5760194267
 30
0.0
  0
SPLINE
  5
389
100
AcDbEntity
  8
0
100
AcDbSpline
 62
7
  6
CONTINUOUS
 70
0
 71
3
 72
15
 73
11
 74
0
 42
0.0000001
 43
0.0000001
 44
0.0000000001
 40
0.0
 40
0.0
 40
0.0
 40
0.0
 40
0.1341341199
 40
0.2671160695
 40
0.3982000469
 40
0.5265140366
 40
0.6512262464
 40
0.7717680025
 40
0.8879653785
 40
1.0
 40
1.0
 40
1.0
 40
1.0
 10
10.7913911034
 20
7.1526374323
 30
0.0
 10
10.8091713468
 20
7.1806374182
 30
0.0
 10
10.8444621729
 20
7.236471286
 30
0.0
 10
10.8966428664
 20
7.3199744751
 30
0.0
 10
10.9475556581
 20
7.4025709855
 30
0.0
 10
10.9968256425
 20
7.4837753634
 30
0.0
 10
11.0441361179
 20
7.5631164085
 30
0.0
 10
11.0893041368
 20
7.6402433183
 30
0.0
 10
11.1323148095
 20
7.714997606
 30
0.0
 10
11.1601119892
 20
7.7641143788
 30
0.0
 10
11.173679382
 20
7.7882683717
 30
0.0
  0
SPLINE
  5
38A
100
AcDbEntity
  8
0
100
AcDbSpline
 62
7
  6
CONTINUOUS
 70
0
 71
3
 72
15
 73
11
 74
0
 42
0.0000001
 43
0.0000001
 44
0.0000000001
 40
0.0
 40
0.0
 40
0.0
 40
0.0
 40
0.1120346215
 40
0.2282319975
 40
0.3487737536
 40
0.4734859634
 40
0.6017999531
 40
0.7328839305
 40
0.8658658801
 40
1.0
 40
1.0
 40
1.0
 40
1.0
 10
9.288205321
 20
7.7240945392
 30
0.0
 10
9.3017727137
 20
7.7482485322
 30
0.0
 10
9.3295698934
 20
7.7973653049
 30
0.0
 10
9.3725805661
 20
7.8721195927
 30
0.0
 10
9.417748585
 20
7.9492465025
 30
0.0
 10
9.4650590604
 20
8.0285875475
 30
0.0
 10
9.5143290448
 20
8.1097919255
 30
0.0
 10
9.5652418365
 20
8.1923884359
 30
0.0
 10
9.61742253
 20
8.275891625
 30
0.0
 10
9.6527133561
 20
8.3317254928
 30
0.0
 10
9.6704935995
 20
8.3597254786
 30
0.0
  0
SPLINE
  5
38B
100
AcDbEntity
  8
0
100
AcDbSpline
 62
7
  6
CONTINUOUS
 70
0
 71
3
 72
19
 73
15
 74
0
 42
0.0000001
 43
0.0000001
 44
0.0000000001
 40
0.0
 40
0.0
 40
0.0
 40
0.0
 40
0.1260751551
 40
0.2528170052
 40
0.3163306301
 40
0.3798607152
 40
0.4433283395
 40
0.5066528928
 40
0.5697504944
 40
0.6325395368
 40
0.6949540025
 40
0.7569344527
 40
0.8794635999
 40
1.0
 40
1.0
 40
1.0
 40
1.0
 10
11.173679382
 20
7.8505488121
 30
0.0
 10
11.1603058117
 20
7.8808861018
 30
0.0
 10
11.1329695906
 20
7.9414945589
 30
0.0
 10
11.0972373019
 20
8.0166232956
 30
0.0
 10
11.0675211114
 20
8.0763825534
 30
0.0
 10
11.0446603746
 20
8.1209633574
 30
0.0
 10
11.0212518541
 20
8.165202825
 30
0.0
 10
10.9973082093
 20
8.2090254864
 30
0.0
 10
10.9728671908
 20
8.2523679783
 30
0.0
 10
10.9479606556
 20
8.2951679329
 30
0.0
 10
10.9226413348
 20
8.3373827458
 30
0.0
 10
10.8885255017
 20
8.3926344335
 30
0.0
 10
10.8451229205
 20
8.4601066461
 30
0.0
 10
10.8093683031
 20
8.513096525
 30
0.0
 10
10.7913911034
 20
8.5392033158
 30
0.0
  0
SPLINE
  5
38C
100
AcDbEntity
  8
0
100
AcDbSpline
 62
7
  6
CONTINUOUS
 70
0
 71
3
 72
18
 73
14
 74
0
 42
0.0000001
 43
0.0000001
 44
0.0000000001
 40
0.0
 40
0.0
 40
0.0
 40
0.0
 40
0.1158263358
 40
0.2348258924
 40
0.2955424589
 40
0.3570528973
 40
0.419310243
 40
0.4822564707
 40
0.5458074985
 40
0.6098733075
 40
0.7391597588
 40
0.86939402
 40
1.0
 40
1.0
 40
1.0
 40
1.0
 10
10.7374546599
 20
8.5740840411
 30
0.0
 10
10.7081619401
 20
8.5784754586
 30
0.0
 10
10.6486992968
 20
8.5868896321
 30
0.0
 10
10.5736767319
 20
8.5960829382
 30
0.0
 10
10.5123378314
 20
8.6026497314
 30
0.0
 10
10.4653766189
 20
8.6071753352
 30
0.0
 10
10.4178015103
 20
8.6112462908
 30
0.0
 10
10.3696646354
 20
8.6148395114
 30
0.0
 10
10.3210308745
 20
8.6179523475
 30
0.0
 10
10.2554263989
 20
8.6214643378
 30
0.0
 10
10.1727320953
 20
8.6246512939
 30
0.0
 10
10.0729832283
 20
8.6267303303
 30
0.0
 10
10.0062777328
 20
8.6271197699
 30
0.0
 10
9.9728781028
 20
8.6271076054
 30
0.0
  0
SPLINE
  5
38D
100
AcDbEntity
  8
0
100
AcDbSpline
 62
7
  6
CONTINUOUS
 70
0
 71
3
 72
18
 73
14
 74
0
 42
0.0000001
 43
0.0000001
 44
0.0000000001
 40
0.0
 40
0.0
 40
0.0
 40
0.0
 40
0.13060598
 40
0.2608402412
 40
0.3901266925
 40
0.4541925015
 40
0.5177435293
 40
0.580689757
 40
0.6429471027
 40
0.7044575411
 40
0.7651741076
 40
0.8841736641
 40
1.0
 40
1.0
 40
1.0
 40
1.0
 10
10.4890066001
 20
6.8852553055
 30
0.0
 10
10.4556069701
 20
6.885243141
 30
0.0
 10
10.3889014746
 20
6.8856325806
 30
0.0
 10
10.2891526076
 20
6.887711617
 30
0.0
 10
10.206458304
 20
6.8908985732
 30
0.0
 10
10.1408538284
 20
6.8944105635
 30
0.0
 10
10.0922200675
 20
6.8975233996
 30
0.0
 10
10.0440831926
 20
6.9011166202
 30
0.0
 10
9.996508084
 20
6.9051875758
 30
0.0
 10
9.9495468715
 20
6.9097131795
 30
0.0
 10
9.888207971
 20
6.9162799728
 30
0.0
 10
9.8131854061
 20
6.9254732789
 30
0.0
 10
9.7537227628
 20
6.9338874524
 30
0.0
 10
9.724430043
 20
6.9382788699
 30
0.0
  0
SPLINE
  5
38E
100
AcDbEntity
  8
0
100
AcDbSpline
 62
7
  6
CONTINUOUS
 70
0
 71
3
 72
19
 73
15
 74
0
 42
0.0000001
 43
0.0000001
 44
0.0000000001
 40
0.0
 40
0.0
 40
0.0
 40
0.0
 40
0.1205364001
 40
0.2430655473
 40
0.3050459975
 40
0.3674604632
 40
0.4302495056
 40
0.4933471072
 40
0.5566716605
 40
0.6201392848
 40
0.6836693699
 40
0.7471829948
 40
0.8739248449
 40
1.0
 40
1.0
 40
1.0
 40
1.0
 10
9.6704935995
 20
6.9731595951
 30
0.0
 10
9.6525163998
 20
6.999266386
 30
0.0
 10
9.6167617824
 20
7.0522562648
 30
0.0
 10
9.5733592012
 20
7.1197284775
 30
0.0
 10
9.5392433681
 20
7.1749801652
 30
0.0
 10
9.5139240473
 20
7.217194978
 30
0.0
 10
9.4890175121
 20
7.2599949326
 30
0.0
 10
9.4645764936
 20
7.3033374246
 30
0.0
 10
9.4406328488
 20
7.347160086
 30
0.0
 10
9.4172243283
 20
7.3913995536
 30
0.0
 10
9.3943635915
 20
7.4359803576
 30
0.0
 10
9.364647401
 20
7.4957396154
 30
0.0
 10
9.3289151123
 20
7.5708683521
 30
0.0
 10
9.3015788912
 20
7.6314768091
 30
0.0
 10
9.288205321
 20
7.6618140988
 30
0.0
  0
SPLINE
  5
38F
100
AcDbEntity
  8
0
100
AcDbSpline
 62
7
  6
CONTINUOUS
 70
0
 71
3
 72
40
 73
36
 74
0
 42
0.0000001
 43
0.0000001
 44
0.0000000001
 40
0.0
 40
0.0
 40
0.0
 40
0.0
 40
0.0310620086
 40
0.0623049682
 40
0.0936958361
 40
0.1252229303
 40
0.1568824331
 40
0.1886628609
 40
0.2205451027
 40
0.2525097501
 40
0.2845369867
 40
0.3166060343
 40
0.3486941452
 40
0.3807781103
 40
0.4128353428
 40
0.4448433979
 40
0.4767813936
 40
0.5086292017
 40
0.5403690783
 40
0.5719850983
 40
0.6034640434
 40
0.634795663
 40
0.6659724738
 40
0.6969908504
 40
0.7278499445
 40
0.7585531441
 40
0.7738508481
 40
0.7891122135
 40
0.8195262038
 40
0.8498136397
 40
0.879990757
 40
0.9100762345
 40
0.940090949
 40
0.9700576571
 40
1.0
 40
1.0
 40
1.0
 40
1.0
 10
10.7401304575
 20
7.5760194267
 30
0.0
 10
10.7401304575
 20
7.5920986733
 30
0.0
 10
10.7389263454
 20
7.6243629774
 30
0.0
 10
10.7335741786
 20
7.6726095321
 30
0.0
 10
10.7246830912
 20
7.7205781254
 30
0.0
 10
10.7123104326
 20
7.76799011
 30
0.0
 10
10.6965222317
 20
7.8145893158
 30
0.0
 10
10.6774079256
 20
7.8601245364
 30
0.0
 10
10.6550736576
 20
7.9043466959
 30
0.0
 10
10.6296361076
 20
7.9470079614
 30
0.0
 10
10.6012436467
 20
7.9878799347
 30
0.0
 10
10.57004257
 20
8.0267320716
 30
0.0
 10
10.5362143939
 20
8.0633595242
 30
0.0
 10
10.4999351118
 20
8.0975520321
 30
0.0
 10
10.4614118917
 20
8.1291296306
 30
0.0
 10
10.4208507969
 20
8.1579131332
 30
0.0
 10
10.3784771479
 20
8.1837473455
 30
0.0
 10
10.3345231562
 20
8.2064908721
 30
0.0
 10
10.2892283259
 20
8.2260141684
 30
0.0
 10
10.2428442187
 20
8.2422176917
 30
0.0
 10
10.1956219138
 20
8.2550012016
 30
0.0
 10
10.1478240085
 20
8.2643067514
 30
0.0
 10
10.0997104187
 20
8.2700695316
 30
0.0
 10
10.0515468133
 20
8.2722694777
 30
0.0
 10
10.0035986838
 20
8.2708844845
 30
0.0
 10
9.9639863987
 20
8.2667472238
 30
0.0
 10
9.9326778218
 20
8.2616604903
 30
0.0
 10
9.9017334654
 20
8.2554100707
 30
0.0
 10
9.8636594073
 20
8.2454145565
 30
0.0
 10
9.8191729845
 20
8.2299745456
 30
0.0
 10
9.7761809372
 20
8.2111783373
 30
0.0
 10
9.7349171944
 20
8.1891400588
 30
0.0
 10
9.6956146536
 20
8.1639680752
 30
0.0
 10
9.6584857245
 20
8.1358152439
 30
0.0
 10
9.6353133864
 20
8.1151467589
 30
0.0
 10
9.6241653428
 20
8.1043782711
 30
0.0
  0
SPLINE
  5
390
100
AcDbEntity
  8
0
100
AcDbSpline
 62
7
  6
CONTINUOUS
 70
0
 71
3
 72
36
 73
32
 74
0
 42
0.0000001
 43
0.0000001
 44
0.0000000001
 40
0.0
 40
0.0
 40
0.0
 40
0.0
 40
0.0615011207
 40
0.0924627159
 40
0.1235309695
 40
0.1546981929
 40
0.1859623336
 40
0.2173203575
 40
0.2487660606
 40
0.2802885458
 40
0.3118758896
 40
0.3751770889
 40
0.4068892409
 40
0.4386191311
 40
0.4703542008
 40
0.502081097
 40
0.5337866803
 40
0.56545872
 40
0.6286319704
 40
0.6601324328
 40
0.6915546326
 40
0.7228889702
 40
0.754127103
 40
0.7852623501
 40
0.8162886543
 40
0.8472011344
 40
0.8779969924
 40
0.9086745073
 40
0.9392329915
 40
0.9696738368
 40
1.0
 40
1.0
 40
1.0
 40
1.0
 10
10.5716482234
 20
7.5962780759
 30
0.0
 10
10.5716482234
 20
7.6139448596
 30
0.0
 10
10.5701486445
 20
7.6405352902
 30
0.0
 10
10.5652494736
 20
7.6756925368
 30
0.0
 10
10.5601055346
 20
7.7019803279
 30
0.0
 10
10.5535195466
 20
7.7280321596
 30
0.0
 10
10.5455159365
 20
7.7537714408
 30
0.0
 10
10.5361162018
 20
7.7791195589
 30
0.0
 10
10.5253492174
 20
7.8039982633
 30
0.0
 10
10.5132522107
 20
7.8283327025
 30
0.0
 10
10.4953904153
 20
7.8599633473
 30
0.0
 10
10.4750176221
 20
7.8901850504
 30
0.0
 10
10.4523618256
 20
7.9187011128
 30
0.0
 10
10.4342492292
 20
7.9391990831
 30
0.0
 10
10.4150901305
 20
7.9587268139
 30
0.0
 10
10.3949456336
 20
7.9772260808
 30
0.0
 10
10.3738745609
 20
7.9946359924
 30
0.0
 10
10.3446663331
 20
8.0162994849
 30
0.0
 10
10.3138421495
 20
8.0356120904
 30
0.0
 10
10.2817050651
 20
8.0523509684
 30
0.0
 10
10.2570499035
 20
8.0635749701
 30
0.0
 10
10.2319026979
 20
8.0734416331
 30
0.0
 10
10.2063390331
 20
8.0819155767
 30
0.0
 10
10.1804406037
 20
8.0889738605
 30
0.0
 10
10.1542885531
 20
8.0945966548
 30
0.0
 10
10.1279635728
 20
8.0987614635
 30
0.0
 10
10.1015483312
 20
8.1014557814
 30
0.0
 10
10.0751257927
 20
8.1026755079
 30
0.0
 10
10.0487778953
 20
8.1024136242
 30
0.0
 10
10.0225885142
 20
8.1006679308
 30
0.0
 10
10.0052542321
 20
8.0985178849
 30
0.0
 10
9.9966433333
 20
8.0971979226
 30
0.0
  0
SPLINE
  5
391
100
AcDbEntity
  8
0
100
AcDbSpline
 62
7
  6
CONTINUOUS
 70
0
 71
3
 72
16
 73
12
 74
0
 42
0.0000001
 43
0.0000001
 44
0.0000000001
 40
0.0
 40
0.0
 40
0.0
 40
0.0
 40
0.122654279
 40
0.184359795
 40
0.2462655913
 40
0.3705563212
 40
0.4954963985
 40
0.6210366004
 40
0.7470619913
 40
0.8734303418
 40
1.0
 40
1.0
 40
1.0
 40
1.0
 10
10.5413990596
 20
7.6680596256
 30
0.0
 10
10.5413990596
 20
7.6800834578
 30
0.0
 10
10.5405234428
 20
7.6981711388
 30
0.0
 10
10.5376560238
 20
7.7221479189
 30
0.0
 10
10.5336393426
 20
7.746123899
 30
0.0
 10
10.526481298
 20
7.7758220534
 30
0.0
 10
10.5145992848
 20
7.8106400435
 30
0.0
 10
10.4995100795
 20
7.8443797354
 30
0.0
 10
10.4813657904
 20
7.8767400953
 30
0.0
 10
10.460320942
 20
7.9074122753
 30
0.0
 10
10.4444942867
 20
7.9265507692
 30
0.0
 10
10.4361670118
 20
7.9357489465
 30
0.0
  0
SPLINE
  5
392
100
AcDbEntity
  8
0
100
AcDbSpline
 62
7
  6
CONTINUOUS
 70
0
 71
3
 72
32
 73
28
 74
0
 42
0.0000001
 43
0.0000001
 44
0.0000000001
 40
0.0
 40
0.0
 40
0.0
 40
0.0
 40
0.0646535663
 40
0.0969553392
 40
0.1292224927
 40
0.1936016356
 40
0.225712858
 40
0.2577558101
 40
0.3215933561
 40
0.35339229
 40
0.385098558
 40
0.4482011049
 40
0.4796088979
 40
0.5109126131
 40
0.5731898312
 40
0.6041831872
 40
0.6350761499
 40
0.6965575711
 40
0.7271742265
 40
0.7577092829
 40
0.8185443712
 40
0.8488796226
 40
0.8791648048
 40
0.9094096237
 40
0.9396238862
 40
0.9698173111
 40
1.0
 40
1.0
 40
1.0
 40
1.0
 10
10.4188751456
 20
7.9537318981
 30
0.0
 10
10.4099819941
 20
7.9624412237
 30
0.0
 10
10.3960489281
 20
7.9749127543
 30
0.0
 10
10.3764302852
 20
7.9902218574
 30
0.0
 10
10.3561820844
 20
8.0045983476
 30
0.0
 10
10.3350103117
 20
8.0175696213
 30
0.0
 10
10.3130712258
 20
8.0290323205
 30
0.0
 10
10.2907249665
 20
8.0394344192
 30
0.0
 10
10.2677410529
 20
8.0482677844
 30
0.0
 10
10.2442934802
 20
8.0554542053
 30
0.0
 10
10.2206730222
 20
8.061502201
 30
0.0
 10
10.1967252678
 20
8.0658697425
 30
0.0
 10
10.1726393353
 20
8.0685091509
 30
0.0
 10
10.148613423
 20
8.0699821609
 30
0.0
 10
10.1245865342
 20
8.0697201906
 30
0.0
 10
10.1007583367
 20
8.0677121973
 30
0.0
 10
10.0772097249
 20
8.0645554183
 30
0.0
 10
10.0539927016
 20
8.0596709577
 30
0.0
 10
10.0313097018
 20
8.0530903059
 30
0.0
 10
10.009104514
 20
8.0454168538
 30
0.0
 10
9.9875577349
 20
8.0360881501
 30
0.0
 10
9.9668644997
 20
8.0251825203
 30
0.0
 10
9.9518193229
 20
8.0162400405
 30
0.0
 10
9.9372738925
 20
8.0065489182
 30
0.0
 10
9.9232593453
 20
7.9961339155
 30
0.0
 10
9.9098086895
 20
7.9850197243
 30
0.0
 10
9.9012376178
 20
7.9771586509
 30
0.0
 10
9.8970582101
 20
7.9731213485
 30
0.0
  0
SPLINE
  5
393
100
AcDbEntity
  8
0
100
AcDbSpline
 62
7
  6
CONTINUOUS
 70
0
 71
3
 72
31
 73
27
 74
0
 42
0.0000001
 43
0.0000001
 44
0.0000000001
 40
0.0
 40
0.0
 40
0.0
 40
0.0
 40
0.0619466993
 40
0.124472423
 40
0.1874115641
 40
0.2190325398
 40
0.2507358981
 40
0.2825084878
 40
0.3143334194
 40
0.346193453
 40
0.3780726524
 40
0.4417986014
 40
0.5054130871
 40
0.5687945326
 40
0.6318327055
 40
0.6632086818
 40
0.6944669158
 40
0.72560111
 40
0.7566061536
 40
0.7874781221
 40
0.818215905
 40
0.8488212535
 40
0.8792968233
 40
0.9096471622
 40
0.9398801288
 40
1.0
 40
1.0
 40
1.0
 40
1.0
 10
10.437845498
 20
7.774440494
 30
0.0
 10
10.430230556
 20
7.774968592
 30
0.0
 10
10.4149804733
 20
7.7769963329
 30
0.0
 10
10.3925784515
 20
7.782818045
 30
0.0
 10
10.3745227976
 20
7.7899358796
 30
0.0
 10
10.3606069002
 20
7.7969102568
 30
0.0
 10
10.3504551642
 20
7.8027775863
 30
0.0
 10
10.3406463356
 20
7.8092465007
 30
0.0
 10
10.3312178238
 20
7.8162904429
 30
0.0
 10
10.3222081417
 20
7.8238838175
 30
0.0
 10
10.3108078205
 20
7.8346985936
 30
0.0
 10
10.297775221
 20
7.8494292433
 30
0.0
 10
10.2843416524
 20
7.8687772305
 30
0.0
 10
10.2733064918
 20
7.8894912404
 30
0.0
 10
10.2662518221
 20
7.907664696
 30
0.0
 10
10.2619676467
 20
7.9225540263
 30
0.0
 10
10.2594513268
 20
7.9338387771
 30
0.0
 10
10.2576372353
 20
7.9452107933
 30
0.0
 10
10.2565294792
 20
7.956625537
 30
0.0
 10
10.2561334974
 20
7.9680383432
 30
0.0
 10
10.256454519
 20
7.9794043232
 30
0.0
 10
10.2574878733
 20
7.9906788133
 30
0.0
 10
10.2592283013
 20
8.0018175522
 30
0.0
 10
10.2616723974
 20
8.0127774276
 30
0.0
 10
10.2658469277
 20
8.027060066
 30
0.0
 10
10.2700122609
 20
8.0374306361
 30
0.0
 10
10.2732241558
 20
8.0441062674
 30
0.0
  0
SPLINE
  5
394
100
AcDbEntity
  8
0
100
AcDbSpline
 62
7
  6
CONTINUOUS
 70
0
 71
3
 72
35
 73
31
 74
0
 42
0.0000001
 43
0.0000001
 44
0.0000000001
 40
0.0
 40
0.0
 40
0.0
 40
0.0
 40
0.0301284874
 40
0.0603666713
 40
0.0907218521
 40
0.1212003852
 40
0.1825120126
 40
0.2443392518
 40
0.2754540854
 40
0.3066872268
 40
0.3380319874
 40
0.3694792858
 40
0.4010189995
 40
0.4326403309
 40
0.4960503827
 40
0.5278375989
 40
0.5596517649
 40
0.5914773821
 40
0.6232994392
 40
0.6551033462
 40
0.6868741813
 40
0.718597675
 40
0.7502598533
 40
0.7818462099
 40
0.8133430945
 40
0.8447418435
 40
0.876038214
 40
0.9072292593
 40
0.9383066327
 40
1.0
 40
1.0
 40
1.0
 40
1.0
 10
10.5186900359
 20
7.5439447644
 30
0.0
 10
10.5116130812
 20
7.5416745846
 30
0.0
 10
10.4972846253
 20
7.5375758955
 30
0.0
 10
10.4754105051
 20
7.5327823517
 30
0.0
 10
10.4531928207
 20
7.5293503748
 30
0.0
 10
10.4231705826
 20
7.5266087087
 30
0.0
 10
10.3851750794
 20
7.5266522867
 30
0.0
 10
10.3473120949
 20
7.5313106529
 30
0.0
 10
10.3173467448
 20
7.5377361992
 30
0.0
 10
10.2950605278
 20
7.5439129704
 30
0.0
 10
10.2730979546
 20
7.5514114617
 30
0.0
 10
10.2515376093
 20
7.5602001321
 30
0.0
 10
10.2304594602
 20
7.5702514375
 30
0.0
 10
10.20308599
 20
7.5852967705
 30
0.0
 10
10.1769935995
 20
7.6027028435
 30
0.0
 10
10.1524978058
 20
7.6222579499
 30
0.0
 10
10.1349510688
 20
7.6379703978
 30
0.0
 10
10.118315549
 20
7.6546553099
 30
0.0
 10
10.102655341
 20
7.6722558743
 30
0.0
 10
10.0880249114
 20
7.6907038606
 30
0.0
 10
10.0744766128
 20
7.7099310155
 30
0.0
 10
10.0620653001
 20
7.7298699365
 30
0.0
 10
10.0508344762
 20
7.7504449781
 30
0.0
 10
10.0408222098
 20
7.7715780274
 30
0.0
 10
10.0320691655
 20
7.7931930268
 30
0.0
 10
10.0246083471
 20
7.8152120496
 30
0.0
 10
10.0184629394
 20
7.8375552425
 30
0.0
 10
10.0136589538
 20
7.8601456333
 30
0.0
 10
10.0090829055
 20
7.8903922209
 30
0.0
 10
10.0076790252
 20
7.9133069771
 30
0.0
 10
10.0076790252
 20
7.9285256298
 30
0.0
  0
SPLINE
  5
395
100
AcDbEntity
  8
0
100
AcDbSpline
 62
7
  6
CONTINUOUS
 70
0
 71
3
 72
25
 73
21
 74
0
 42
0.0000001
 43
0.0000001
 44
0.0000000001
 40
0.0
 40
0.0
 40
0.0
 40
0.0
 40
0.06304816
 40
0.1257757927
 40
0.1882205491
 40
0.2504291623
 40
0.3124558257
 40
0.3743599507
 40
0.4362046686
 40
0.498053879
 40
0.5599745826
 40
0.5909897923
 40
0.6220468482
 40
0.6842966975
 40
0.7155162682
 40
0.7468012058
 40
0.8095807738
 40
0.872706529
 40
0.936199224
 40
1.0
 40
1.0
 40
1.0
 40
1.0
 10
9.9966433333
 20
8.0971979226
 30
0.0
 10
9.9836993991
 20
8.0952137505
 30
0.0
 10
9.9580339827
 20
8.0901363443
 30
0.0
 10
9.9204494981
 20
8.0792063878
 30
0.0
 10
9.8841336167
 20
8.0650679421
 30
0.0
 10
9.8493553879
 20
8.0478091933
 30
0.0
 10
9.8163556078
 20
8.0275668055
 30
0.0
 10
9.7853797034
 20
8.0044713181
 30
0.0
 10
9.7566400396
 20
7.978700663
 30
0.0
 10
9.7303518631
 20
7.9504306766
 30
0.0
 10
9.7106452149
 20
7.9249699906
 30
0.0
 10
9.6962890284
 20
7.903580014
 30
0.0
 10
9.6828759084
 20
7.8815071224
 30
0.0
 10
9.6709410515
 20
7.8585151519
 30
0.0
 10
9.6605580857
 20
7.834767533
 30
0.0
 10
9.6511995382
 20
7.8104789824
 30
0.0
 10
9.6414911991
 20
7.7792597121
 30
0.0
 10
9.633124354
 20
7.7407713556
 30
0.0
 10
9.6280921722
 20
7.7014956277
 30
0.0
 10
9.6269727093
 20
7.6750429917
 30
0.0
 10
9.6269727093
 20
7.6617915453
 30
0.0
  0
SPLINE
  5
396
100
AcDbEntity
  8
0
100
AcDbSpline
 62
7
  6
CONTINUOUS
 70
0
 71
3
 72
39
 73
35
 74
0
 42
0.0000001
 43
0.0000001
 44
0.0000000001
 40
0.0
 40
0.0
 40
0.0
 40
0.0
 40
0.029936775
 40
0.0599035411
 40
0.0899232094
 40
0.1200179771
 40
0.1502077568
 40
0.1805105816
 40
0.2109416742
 40
0.241513297
 40
0.2722347601
 40
0.3031115989
 40
0.3341465183
 40
0.3653380986
 40
0.3966822898
 40
0.4281711728
 40
0.4597943304
 40
0.4915383064
 40
0.5233872338
 40
0.5553233596
 40
0.58732676
 40
0.6193767763
 40
0.6514512496
 40
0.683527974
 40
0.7155840454
 40
0.7475972505
 40
0.779547216
 40
0.8114145118
 40
0.8431799399
 40
0.8748248004
 40
0.9063383564
 40
0.9377170025
 40
0.9689485373
 40
1.0
 40
1.0
 40
1.0
 40
1.0
 10
10.5578174816
 20
7.1377772196
 30
0.0
 10
10.5465461584
 20
7.1273100968
 30
0.0
 10
10.523154066
 20
7.1072476321
 30
0.0
 10
10.4857855348
 20
7.079997532
 30
0.0
 10
10.4463237674
 20
7.0557173916
 30
0.0
 10
10.4049809864
 20
7.0345502815
 30
0.0
 10
10.3619866546
 20
7.0165982303
 30
0.0
 10
10.3175690378
 20
7.0019713404
 30
0.0
 10
10.2719733955
 20
6.9907359734
 30
0.0
 10
10.2254441465
 20
6.9829625432
 30
0.0
 10
10.1782351253
 20
6.9786859479
 30
0.0
 10
10.1306012405
 20
6.9779310839
 30
0.0
 10
10.0828009696
 20
6.9807035292
 30
0.0
 10
10.0350920401
 20
6.9869814387
 30
0.0
 10
9.9877342475
 20
6.9967399766
 30
0.0
 10
9.9409808935
 20
7.0099139651
 30
0.0
 10
9.8950883876
 20
7.0264444448
 30
0.0
 10
9.8503005075
 20
7.0462296521
 30
0.0
 10
9.8068633221
 20
7.0691722771
 30
0.0
 10
9.7650083021
 20
7.0951410892
 30
0.0
 10
9.7249630458
 20
7.1239989813
 30
0.0
 10
9.6869446646
 20
7.1555900452
 30
0.0
 10
9.6511551569
 20
7.1897402029
 30
0.0
 10
9.6177943291
 20
7.2262706685
 30
0.0
 10
9.5870337888
 20
7.2649760496
 30
0.0
 10
9.5590498777
 20
7.3056552634
 30
0.0
 10
9.5339836598
 20
7.3480820683
 30
0.0
 10
9.5119807242
 20
7.39203349
 30
0.0
 10
9.4931521764
 20
7.4372659606
 30
0.0
 10
9.4776030601
 20
7.4835369211
 30
0.0
 10
9.4654184796
 20
7.5306004597
 30
0.0
 10
9.4566638534
 20
7.5782064753
 30
0.0
 10
9.4513938683
 20
7.6260818342
 30
0.0
 10
9.4502082726
 20
7.6580955417
 30
0.0
 10
9.4502082726
 20
7.6740502006
 30
0.0
  0
SPLINE
  5
397
100
AcDbEntity
  8
0
100
AcDbSpline
 62
7
  6
CONTINUOUS
 70
0
 71
3
 72
20
 73
16
 74
0
 42
0.0000001
 43
0.0000001
 44
0.0000000001
 40
0.0
 40
0.0
 40
0.0
 40
0.0
 40
0.1234149148
 40
0.2469952189
 40
0.308919618
 40
0.3709464008
 40
0.433093818
 40
0.4953765837
 40
0.5578077259
 40
0.6204006566
 40
0.6831727187
 40
0.7461410539
 40
0.8093212433
 40
0.8727120777
 40
1.0
 40
1.0
 40
1.0
 40
1.0
 10
9.6241653428
 20
8.1043782711
 30
0.0
 10
9.6097363947
 20
8.0904405832
 30
0.0
 10
9.5822730228
 20
8.0610413108
 30
0.0
 10
9.5518940694
 20
8.0209425798
 30
0.0
 10
9.5301143571
 20
7.9870926831
 30
0.0
 10
9.5150587307
 20
7.9608390762
 30
0.0
 10
9.5013331074
 20
7.9338018494
 30
0.0
 10
9.4889645376
 20
7.9060454943
 30
0.0
 10
9.4779822343
 20
7.8776344341
 30
0.0
 10
9.4684152842
 20
7.8486323902
 30
0.0
 10
9.460282688
 20
7.819105415
 30
0.0
 10
9.4536016437
 20
7.7891191593
 30
0.0
 10
9.4483916313
 20
7.7587393068
 30
0.0
 10
9.4434160048
 20
7.7177641412
 30
0.0
 10
9.44192607
 20
7.6867410173
 30
0.0
 10
9.44192607
 20
7.6660502067
 30
0.0
  0
SPLINE
  5
398
100
AcDbEntity
  8
0
100
AcDbSpline
 62
7
  6
CONTINUOUS
 70
0
 71
3
 72
19
 73
15
 74
0
 42
0.0000001
 43
0.0000001
 44
0.0000000001
 40
0.0
 40
0.0
 40
0.0
 40
0.0
 40
0.1260751551
 40
0.2528170052
 40
0.3163306301
 40
0.3798607152
 40
0.4433283395
 40
0.5066528929
 40
0.5697504944
 40
0.6325395368
 40
0.6949540025
 40
0.7569344527
 40
0.8794635999
 40
1.0
 40
1.0
 40
1.0
 40
1.0
 10
10.5429430436
 20
8.2992209042
 30
0.0
 10
10.5563166139
 20
8.2688836145
 30
0.0
 10
10.583652835
 20
8.2082751574
 30
0.0
 10
10.6193851237
 20
8.1331464207
 30
0.0
 10
10.6491013142
 20
8.0733871629
 30
0.0
 10
10.671962051
 20
8.0288063589
 30
0.0
 10
10.6953705716
 20
7.9845668913
 30
0.0
 10
10.7193142163
 20
7.9407442299
 30
0.0
 10
10.7437552349
 20
7.897401738
 30
0.0
 10
10.76866177
 20
7.8546017833
 30
0.0
 10
10.7939810908
 20
7.8123869705
 30
0.0
 10
10.8280969239
 20
7.7571352828
 30
0.0
 10
10.8714995051
 20
7.6896630702
 30
0.0
 10
10.9072541225
 20
7.6366731913
 30
0.0
 10
10.9252313222
 20
7.6105664005
 30
0.0
  0
SPLINE
  5
399
100
AcDbEntity
  8
0
100
AcDbSpline
 62
7
  6
CONTINUOUS
 70
0
 71
3
 72
18
 73
14
 74
0
 42
0.0000001
 43
0.0000001
 44
0.0000000001
 40
0.0
 40
0.0
 40
0.0
 40
0.0
 40
0.1158263358
 40
0.2348258924
 40
0.2955424589
 40
0.3570528973
 40
0.4193102431
 40
0.4822564708
 40
0.5458074985
 40
0.6098733075
 40
0.7391597588
 40
0.86939402
 40
1.0
 40
1.0
 40
1.0
 40
1.0
 10
9.724430043
 20
8.3871251938
 30
0.0
 10
9.7537227628
 20
8.3827337763
 30
0.0
 10
9.8131854061
 20
8.3743196028
 30
0.0
 10
9.888207971
 20
8.3651262967
 30
0.0
 10
9.9495468715
 20
8.3585595034
 30
0.0
 10
9.996508084
 20
8.3540338997
 30
0.0
 10
10.0440831926
 20
8.3499629441
 30
0.0
 10
10.0922200675
 20
8.3463697235
 30
0.0
 10
10.1408538284
 20
8.3432568874
 30
0.0
 10
10.2064583041
 20
8.3397448971
 30
0.0
 10
10.2891526076
 20
8.3365579409
 30
0.0
 10
10.3889014746
 20
8.3344789046
 30
0.0
 10
10.4556069701
 20
8.3340894649
 30
0.0
 10
10.4890066001
 20
8.3341016295
 30
0.0
  0
SPLINE
  5
39A
100
AcDbEntity
  8
0
100
AcDbSpline
 62
7
  6
CONTINUOUS
 70
0
 71
3
 72
15
 73
11
 74
0
 42
0.0000001
 43
0.0000001
 44
0.0000000001
 40
0.0
 40
0.0
 40
0.0
 40
0.0
 40
0.1341341199
 40
0.2671160695
 40
0.3982000469
 40
0.5265140367
 40
0.6512262464
 40
0.7717680025
 40
0.8879653785
 40
1.0
 40
1.0
 40
1.0
 40
1.0
 10
10.9252313222
 20
7.5482859601
 30
0.0
 10
10.9074510788
 20
7.5202859742
 30
0.0
 10
10.8721602527
 20
7.4644521064
 30
0.0
 10
10.8199795592
 20
7.3809489173
 30
0.0
 10
10.7690667675
 20
7.2983524069
 30
0.0
 10
10.719796783
 20
7.2171480289
 30
0.0
 10
10.6724863077
 20
7.1378069839
 30
0.0
 10
10.6273182888
 20
7.0606800741
 30
0.0
 10
10.5843076161
 20
6.9859257864
 30
0.0
 10
10.5565104364
 20
6.9368090136
 30
0.0
 10
10.5429430436
 20
6.9126550207
 30
0.0
  0
SPLINE
  5
39B
100
AcDbEntity
  8
0
100
AcDbSpline
 62
7
  6
CONTINUOUS
 70
0
 71
3
 72
60
 73
56
 74
0
 42
0.0000001
 43
0.0000001
 44
0.0000000001
 40
0.0
 40
0.0
 40
0.0
 40
0.0
 40
0.0311013591
 40
0.0465884113
 40
0.0620225757
 40
0.0774042146
 40
0.0927373722
 40
0.1080264514
 40
0.1232757087
 40
0.1536579131
 40
0.1839242246
 40
0.1990311071
 40
0.2141239772
 40
0.2292082614
 40
0.2442891845
 40
0.2593719565
 40
0.2744619919
 40
0.3046745556
 40
0.3198175606
 40
0.3349880954
 40
0.3501904927
 40
0.3654288461
 40
0.3807070263
 40
0.39602828
 40
0.4113954167
 40
0.4268109932
 40
0.4422769329
 40
0.45779455
 40
0.4889788672
 40
0.5203747454
 40
0.5361548214
 40
0.5519845863
 40
0.5678619051
 40
0.5837844122
 40
0.599749227
 40
0.6157529554
 40
0.6478538688
 40
0.68006331
 40
0.6962017217
 40
0.7123534143
 40
0.7285133748
 40
0.7446766467
 40
0.7608382123
 40
0.7769928645
 40
0.7931354818
 40
0.809261362
 40
0.8414363816
 40
0.8574855141
 40
0.8735004405
 40
0.8894768193
 40
0.905410842
 40
0.9371365301
 40
0.9529357704
 40
0.9686861165
 40
1.0
 40
1.0
 40
1.0
 40
1.0
 10
9.3733453323
 20
7.670806297
 30
0.0
 10
9.3733453323
 20
7.6941969763
 30
0.0
 10
9.375067387
 20
7.7292683267
 30
0.0
 10
9.3808188551
 20
7.775571484
 30
0.0
 10
9.3868411731
 20
7.8098863942
 30
0.0
 10
9.3945619553
 20
7.8437393103
 30
0.0
 10
9.4039583948
 20
7.8770528419
 30
0.0
 10
9.4150111485
 20
7.9097500411
 30
0.0
 10
9.4318990246
 20
7.952359102
 30
0.0
 10
9.4570042518
 20
8.0037439708
 30
0.0
 10
9.48726874
 20
8.0521458829
 30
0.0
 10
9.5143378067
 20
8.0887088116
 30
0.0
 10
9.5360222646
 20
8.1149917254
 30
0.0
 10
9.5590452216
 20
8.1400828624
 30
0.0
 10
9.5833481636
 20
8.1639253012
 30
0.0
 10
9.6088755418
 20
8.1864604841
 30
0.0
 10
9.6444692925
 20
8.2146915946
 30
0.0
 10
9.6822802035
 20
8.2401085251
 30
0.0
 10
9.7219466161
 20
8.2624711841
 30
0.0
 10
9.7526152687
 20
8.2777145843
 30
0.0
 10
9.7840967324
 20
8.2913770908
 30
0.0
 10
9.8163181508
 20
8.3034233518
 30
0.0
 10
9.8492016738
 20
8.3138226793
 30
0.0
 10
9.8826665503
 20
8.3225549357
 30
0.0
 10
9.9166327783
 20
8.3295979553
 30
0.0
 10
9.9510190338
 20
8.3349301172
 30
0.0
 10
9.9857424457
 20
8.3385434171
 30
0.0
 10
10.0324459075
 20
8.3410637496
 30
0.0
 10
10.0912705837
 20
8.3398515823
 30
0.0
 10
10.1498898498
 20
8.3328896129
 30
0.0
 10
10.1964327846
 20
8.3239144664
 30
0.0
 10
10.2311512031
 20
8.3154801326
 30
0.0
 10
10.2655313812
 20
8.3053747281
 30
0.0
 10
10.2994898651
 20
8.2936179721
 30
0.0
 10
10.3329466148
 20
8.2802418694
 30
0.0
 10
10.3768173452
 20
8.2602768025
 30
0.0
 10
10.4299893627
 20
8.2314253704
 30
0.0
 10
10.4803566019
 20
8.1977372358
 30
0.0
 10
10.518733076
 20
8.168043348
 30
0.0
 10
10.5465100474
 20
8.1444391809
 30
0.0
 10
10.573190742
 20
8.1195761079
 30
0.0
 10
10.5987081287
 20
8.0935098529
 30
0.0
 10
10.6230030951
 20
8.066306054
 30
0.0
 10
10.6460187069
 20
8.0380319874
 30
0.0
 10
10.6676970878
 20
8.0087519353
 30
0.0
 10
10.6947224649
 20
7.9685043913
 30
0.0
 10
10.7189114004
 20
7.9264911777
 30
0.0
 10
10.7400474777
 20
7.8830322685
 30
0.0
 10
10.754328361
 20
7.8498293416
 30
0.0
 10
10.7670136321
 20
7.8160768607
 30
0.0
 10
10.7817296773
 20
7.7705222553
 30
0.0
 10
10.793174588
 20
7.72410056
 30
0.0
 10
10.8012203504
 20
7.677181881
 30
0.0
 10
10.8069601112
 20
7.6302401809
 30
0.0
 10
10.8087111952
 20
7.5948138508
 30
0.0
 10
10.8087111952
 20
7.5712633364
 30
0.0
  0
SPLINE
  5
39C
100
AcDbEntity
  8
0
100
AcDbSpline
 62
7
  6
CONTINUOUS
 70
0
 71
3
 72
60
 73
56
 74
0
 42
0.0000001
 43
0.0000001
 44
0.0000000001
 40
0.0
 40
0.0
 40
0.0
 40
0.0
 40
0.0311013591
 40
0.0465884113
 40
0.0620225757
 40
0.0774042146
 40
0.0927373722
 40
0.1080264514
 40
0.1232757087
 40
0.1536579131
 40
0.1839242246
 40
0.1990311071
 40
0.2141239772
 40
0.2292082614
 40
0.2442891845
 40
0.2593719565
 40
0.2744619919
 40
0.3046745556
 40
0.3198175606
 40
0.3349880954
 40
0.3501904927
 40
0.3654288461
 40
0.3807070263
 40
0.39602828
 40
0.4113954167
 40
0.4268109932
 40
0.4422769329
 40
0.45779455
 40
0.4889788672
 40
0.5203747454
 40
0.5361548214
 40
0.5519845863
 40
0.5678619051
 40
0.5837844122
 40
0.599749227
 40
0.6157529554
 40
0.6478538688
 40
0.68006331
 40
0.6962017217
 40
0.7123534143
 40
0.7285133748
 40
0.7446766467
 40
0.7608382123
 40
0.7769928645
 40
0.7931354818
 40
0.809261362
 40
0.8414363816
 40
0.8574855141
 40
0.8735004405
 40
0.8894768193
 40
0.905410842
 40
0.9371365301
 40
0.9529357704
 40
0.9686861165
 40
1.0
 40
1.0
 40
1.0
 40
1.0
 10
10.8087111952
 20
7.5712633364
 30
0.0
 10
10.8087111952
 20
7.5478726571
 30
0.0
 10
10.8069891405
 20
7.5128013067
 30
0.0
 10
10.8012376724
 20
7.4664981494
 30
0.0
 10
10.7952153544
 20
7.4321832392
 30
0.0
 10
10.7874945722
 20
7.3983303231
 30
0.0
 10
10.7780981327
 20
7.3650167915
 30
0.0
 10
10.767045379
 20
7.3323195923
 30
0.0
 10
10.750157503
 20
7.2897105314
 30
0.0
 10
10.7250522757
 20
7.2383256626
 30
0.0
 10
10.6947877875
 20
7.1899237505
 30
0.0
 10
10.6677187208
 20
7.1533608218
 30
0.0
 10
10.6460342629
 20
7.127077908
 30
0.0
 10
10.6230113059
 20
7.101986771
 30
0.0
 10
10.5987083639
 20
7.0781443322
 30
0.0
 10
10.5731809857
 20
7.0556091493
 30
0.0
 10
10.537587235
 20
7.0273780388
 30
0.0
 10
10.4997763241
 20
7.0019611083
 30
0.0
 10
10.4601099114
 20
6.9795984493
 30
0.0
 10
10.4294412588
 20
6.9643550491
 30
0.0
 10
10.3979597951
 20
6.9506925425
 30
0.0
 10
10.3657383767
 20
6.9386462816
 30
0.0
 10
10.3328548537
 20
6.9282469541
 30
0.0
 10
10.2993899772
 20
6.9195146977
 30
0.0
 10
10.2654237492
 20
6.912471678
 30
0.0
 10
10.2310374937
 20
6.9071395162
 30
0.0
 10
10.1963140819
 20
6.9035262163
 30
0.0
 10
10.14961062
 20
6.9010058838
 30
0.0
 10
10.0907859438
 20
6.9022180511
 30
0.0
 10
10.0321666778
 20
6.9091800205
 30
0.0
 10
9.9856237429
 20
6.918155167
 30
0.0
 10
9.9509053244
 20
6.9265895008
 30
0.0
 10
9.9165251464
 20
6.9366949053
 30
0.0
 10
9.8825666624
 20
6.9484516613
 30
0.0
 10
9.8491099127
 20
6.961827764
 30
0.0
 10
9.8052391823
 20
6.9817928309
 30
0.0
 10
9.7520671648
 20
7.010644263
 30
0.0
 10
9.7016999256
 20
7.0443323976
 30
0.0
 10
9.6633234515
 20
7.0740262854
 30
0.0
 10
9.6355464801
 20
7.0976304525
 30
0.0
 10
9.6088657855
 20
7.1224935255
 30
0.0
 10
9.5833483988
 20
7.1485597805
 30
0.0
 10
9.5590534324
 20
7.1757635794
 30
0.0
 10
9.5360378206
 20
7.2040376459
 30
0.0
 10
9.5143594397
 20
7.2333176981
 30
0.0
 10
9.4873340626
 20
7.2735652421
 30
0.0
 10
9.4631451271
 20
7.3155784557
 30
0.0
 10
9.4420090498
 20
7.3590373649
 30
0.0
 10
9.4277281665
 20
7.3922402918
 30
0.0
 10
9.4150428954
 20
7.4259927727
 30
0.0
 10
9.4003268502
 20
7.4715473781
 30
0.0
 10
9.3888819395
 20
7.5179690734
 30
0.0
 10
9.3808361771
 20
7.5648877524
 30
0.0
 10
9.3750964163
 20
7.6118294524
 30
0.0
 10
9.3733453323
 20
7.6472557826
 30
0.0
 10
9.3733453323
 20
7.670806297
 30
0.0
  0
SPLINE
  5
39D
100
AcDbEntity
  8
0
100
AcDbSpline
 62
7
  6
CONTINUOUS
 70
0
 71
3
 72
40
 73
36
 74
0
 42
0.0000001
 43
0.0000001
 44
0.0000000001
 40
0.0
 40
0.0
 40
0.0
 40
0.0
 40
0.0310620086
 40
0.0623049682
 40
0.0936958361
 40
0.1252229303
 40
0.1568824331
 40
0.1886628609
 40
0.2205451027
 40
0.2525097501
 40
0.2845369867
 40
0.3166060343
 40
0.3486941452
 40
0.3807781103
 40
0.4128353428
 40
0.4448433979
 40
0.4767813936
 40
0.5086292017
 40
0.5403690783
 40
0.5719850983
 40
0.6034640434
 40
0.634795663
 40
0.6659724738
 40
0.6969908504
 40
0.7278499445
 40
0.7585531441
 40
0.7738508481
 40
0.7891122135
 40
0.8195262038
 40
0.8498136397
 40
0.879990757
 40
0.9100762345
 40
0.940090949
 40
0.9700576571
 40
1.0
 40
1.0
 40
1.0
 40
1.0
 10
9.44192607
 20
7.6660502067
 30
0.0
 10
9.44192607
 20
7.6499709601
 30
0.0
 10
9.4431301821
 20
7.617706656
 30
0.0
 10
9.448482349
 20
7.5694601013
 30
0.0
 10
9.4573734363
 20
7.521491508
 30
0.0
 10
9.4697460949
 20
7.4740795234
 30
0.0
 10
9.4855342958
 20
7.4274803176
 30
0.0
 10
9.5046486019
 20
7.3819450969
 30
0.0
 10
9.5269828699
 20
7.3377229375
 30
0.0
 10
9.5524204199
 20
7.295061672
 30
0.0
 10
9.5808128808
 20
7.2541896987
 30
0.0
 10
9.6120139576
 20
7.2153375618
 30
0.0
 10
9.6458421336
 20
7.1787101092
 30
0.0
 10
9.6821214157
 20
7.1445176013
 30
0.0
 10
9.7206446358
 20
7.1129400028
 30
0.0
 10
9.7612057306
 20
7.0841565002
 30
0.0
 10
9.8035793796
 20
7.0583222879
 30
0.0
 10
9.8475333713
 20
7.0355787613
 30
0.0
 10
9.8928282016
 20
7.016055465
 30
0.0
 10
9.9392123088
 20
6.9998519417
 30
0.0
 10
9.9864346137
 20
6.9870684318
 30
0.0
 10
10.034232519
 20
6.977762882
 30
0.0
 10
10.0823461088
 20
6.9720001018
 30
0.0
 10
10.1305097142
 20
6.9698001557
 30
0.0
 10
10.1784578437
 20
6.9711851489
 30
0.0
 10
10.2180701288
 20
6.9753224096
 30
0.0
 10
10.2493787057
 20
6.9804091431
 30
0.0
 10
10.2803230621
 20
6.9866595627
 30
0.0
 10
10.3183971202
 20
6.9966550769
 30
0.0
 10
10.362883543
 20
7.0120950877
 30
0.0
 10
10.4058755903
 20
7.0308912961
 30
0.0
 10
10.4471393331
 20
7.0529295746
 30
0.0
 10
10.4864418739
 20
7.0781015582
 30
0.0
 10
10.523570803
 20
7.1062543895
 30
0.0
 10
10.5467431411
 20
7.1269228745
 30
0.0
 10
10.5578911847
 20
7.1376913623
 30
0.0
  0
SPLINE
  5
39E
100
AcDbEntity
  8
0
100
AcDbSpline
 62
7
  6
CONTINUOUS
 70
0
 71
3
 72
18
 73
14
 74
0
 42
0.0000001
 43
0.0000001
 44
0.0000000001
 40
0.0
 40
0.0
 40
0.0
 40
0.0
 40
0.127266302
 40
0.2537984796
 40
0.3795172855
 40
0.4421215388
 40
0.5045655201
 40
0.566862383
 40
0.6290243506
 40
0.6910649515
 40
0.7530008108
 40
0.8765946026
 40
1.0
 40
1.0
 40
1.0
 40
1.0
 10
9.4502082726
 20
7.6740502006
 30
0.0
 10
9.4502082726
 20
7.6942490174
 30
0.0
 10
9.4520968888
 20
7.7345568166
 30
0.0
 10
9.4606045288
 20
7.7942731831
 30
0.0
 10
9.4724003933
 20
7.8429216321
 30
0.0
 10
9.4845789076
 20
7.8808261015
 30
0.0
 10
9.4950539912
 20
7.9086673247
 30
0.0
 10
9.506855126
 20
7.935895674
 30
0.0
 10
9.5199553428
 20
7.9624521504
 30
0.0
 10
9.5343292913
 20
7.9882766422
 30
0.0
 10
9.5551328259
 20
8.0216263736
 30
0.0
 10
9.5841665945
 20
8.0612437152
 30
0.0
 10
9.6104463454
 20
8.0904353036
 30
0.0
 10
9.6242638715
 20
8.1043165491
 30
0.0
  0
SPLINE
  5
39F
100
AcDbEntity
  8
0
100
AcDbSpline
 62
7
  6
CONTINUOUS
 70
0
 71
3
 72
40
 73
36
 74
0
 42
0.0000001
 43
0.0000001
 44
0.0000000001
 40
0.0
 40
0.0
 40
0.0
 40
0.0
 40
0.031293454
 40
0.0628109413
 40
0.0945048442
 40
0.1263618569
 40
0.1583703991
 40
0.1905028887
 40
0.2227267173
 40
0.2550094841
 40
0.2873174755
 40
0.319614672
 40
0.3518652557
 40
0.3840354763
 40
0.4160939241
 40
0.4320763664
 40
0.448020696
 40
0.4797765366
 40
0.5113513093
 40
0.5427324741
 40
0.5739144775
 40
0.6048979262
 40
0.6356908392
 40
0.6663073927
 40
0.6967685384
 40
0.7271004687
 40
0.7573345762
 40
0.7875055922
 40
0.8176502739
 40
0.8478064648
 40
0.8780128402
 40
0.9083059916
 40
0.938715695
 40
0.9692695074
 40
1.0
 40
1.0
 40
1.0
 40
1.0
 10
9.6269727093
 20
7.6617915453
 30
0.0
 10
9.6269727093
 20
7.6472066152
 30
0.0
 10
9.6283364131
 20
7.617915477
 30
0.0
 10
9.6343772334
 20
7.5742280413
 30
0.0
 10
9.644395635
 20
7.5310050994
 30
0.0
 10
9.6582873143
 20
7.4886284304
 30
0.0
 10
9.6759440354
 20
7.4474554205
 30
0.0
 10
9.6972010854
 20
7.407827123
 30
0.0
 10
9.7218933278
 20
7.3700907972
 30
0.0
 10
9.7497961216
 20
7.334558798
 30
0.0
 10
9.7806844146
 20
7.3015423998
 30
0.0
 10
9.8142832291
 20
7.271311139
 30
0.0
 10
9.8503186563
 20
7.2441353919
 30
0.0
 10
9.8884716819
 20
7.2202341741
 30
0.0
 10
9.9218105522
 20
7.2032053961
 30
0.0
 10
9.9492113305
 20
7.1914146903
 30
0.0
 10
9.9769737242
 20
7.1808942799
 30
0.0
 10
10.0123698652
 20
7.1701160069
 30
0.0
 10
10.0556359501
 20
7.1610732023
 30
0.0
 10
10.0992818083
 20
7.1560298839
 30
0.0
 10
10.1429314503
 20
7.155014051
 30
0.0
 10
10.1862135313
 20
7.1580525713
 30
0.0
 10
10.2287594458
 20
7.1651037939
 30
0.0
 10
10.2702027723
 20
7.1761258167
 30
0.0
 10
10.3101932465
 20
7.1910088359
 30
0.0
 10
10.348382341
 20
7.2096429067
 30
0.0
 10
10.3844502905
 20
7.2318538013
 30
0.0
 10
10.418078317
 20
7.2574668193
 30
0.0
 10
10.44898878
 20
7.2862480534
 30
0.0
 10
10.476904965
 20
7.3179638048
 30
0.0
 10
10.5016004137
 20
7.3523319359
 30
0.0
 10
10.5228492965
 20
7.3890668917
 30
0.0
 10
10.5404876969
 20
7.4278436684
 30
0.0
 10
10.5543499623
 20
7.4683355746
 30
0.0
 10
10.5609855743
 20
7.4961694403
 30
0.0
 10
10.5636433718
 20
7.5102432306
 30
0.0
  0
SPLINE
  5
3A0
100
AcDbEntity
  8
0
100
AcDbSpline
 62
7
  6
CONTINUOUS
 70
0
 71
3
 72
43
 73
39
 74
0
 42
0.0000001
 43
0.0000001
 44
0.0000000001
 40
0.0
 40
0.0
 40
0.0
 40
0.0
 40
0.0626737677
 40
0.0943178315
 40
0.1261176288
 40
0.1580646486
 40
0.1901371318
 40
0.2223057665
 40
0.2545413487
 40
0.2706780344
 40
0.2868199514
 40
0.3190966177
 40
0.3352298684
 40
0.351352196
 40
0.3835421383
 40
0.3996089824
 40
0.4156500531
 40
0.4476353394
 40
0.4794806646
 40
0.5111663811
 40
0.5426771167
 40
0.5740028584
 40
0.6051391801
 40
0.6360872502
 40
0.6668544856
 40
0.6974535326
 40
0.7279030842
 40
0.7582260459
 40
0.7884502943
 40
0.8186062727
 40
0.8487274135
 40
0.8637895554
 40
0.8788558505
 40
0.9090099097
 40
0.9241142925
 40
0.9392396341
 40
0.9695587486
 40
1.0
 40
1.0
 40
1.0
 40
1.0
 10
9.720727518
 20
7.7094153162
 30
0.0
 10
9.720727518
 20
7.6840630304
 30
0.0
 10
9.7241169037
 20
7.6458074356
 30
0.0
 10
9.735093442
 20
7.5959453452
 30
0.0
 10
9.7465624784
 20
7.55904975
 30
0.0
 10
9.7611553036
 20
7.5230942336
 30
0.0
 10
9.7787503738
 20
7.4883399299
 30
0.0
 10
9.7992208424
 20
7.4550627617
 30
0.0
 10
9.8185371739
 20
7.4287776247
 30
0.0
 10
9.8352579394
 20
7.4087328526
 30
0.0
 10
9.8527987163
 20
7.3893799528
 30
0.0
 10
9.8715132733
 20
7.3711203514
 30
0.0
 10
9.8912863949
 20
7.3540687125
 30
0.0
 10
9.9117167491
 20
7.3378667781
 30
0.0
 10
9.9331076312
 20
7.3229522132
 30
0.0
 10
9.9553274947
 20
7.3094219028
 30
0.0
 10
9.978017917
 20
7.2968654478
 30
0.0
 10
10.0072426196
 20
7.2829941216
 30
0.0
 10
10.0434529374
 20
7.2693879291
 30
0.0
 10
10.0805016452
 20
7.2589459433
 30
0.0
 10
10.1180997602
 20
7.2517397336
 30
0.0
 10
10.1559603043
 20
7.2478376189
 30
0.0
 10
10.193790267
 20
7.2472569224
 30
0.0
 10
10.2312981676
 20
7.2500177708
 30
0.0
 10
10.26819569
 20
7.2560845588
 30
0.0
 10
10.3041954056
 20
7.2654267173
 30
0.0
 10
10.339022712
 20
7.2779581313
 30
0.0
 10
10.3724033265
 20
7.2935964433
 30
0.0
 10
10.404084606
 20
7.3122093614
 30
0.0
 10
10.4338140548
 20
7.3336624683
 30
0.0
 10
10.4567810184
 20
7.3537686183
 30
0.0
 10
10.4739454543
 20
7.3710818648
 30
0.0
 10
10.4902831841
 20
7.3891942133
 30
0.0
 10
10.5053369465
 20
7.4084537239
 30
0.0
 10
10.5189944876
 20
7.4287131136
 30
0.0
 10
10.5317230408
 20
7.4496482173
 30
0.0
 10
10.5458208972
 20
7.4769674761
 30
0.0
 10
10.5550408871
 20
7.4997942348
 30
0.0
 10
10.5591247522
 20
7.5114111587
 30
0.0
  0
SPLINE
  5
3A1
100
AcDbEntity
  8
0
100
AcDbSpline
 62
7
  6
CONTINUOUS
 70
0
 71
3
 72
23
 73
19
 74
0
 42
0.0000001
 43
0.0000001
 44
0.0000000001
 40
0.0
 40
0.0
 40
0.0
 40
0.0
 40
0.0638706192
 40
0.1274726225
 40
0.1907522723
 40
0.2537090024
 40
0.3163847242
 40
0.3788242622
 40
0.4410644925
 40
0.5031441026
 40
0.5651108072
 40
0.6270151254
 40
0.6889101896
 40
0.7508477345
 40
0.8128784067
 40
0.8750515812
 40
0.9374115768
 40
1.0
 40
1.0
 40
1.0
 40
1.0
 10
9.720727518
 20
7.7094153162
 30
0.0
 10
9.720727518
 20
7.7202055459
 30
0.0
 10
9.721541398
 20
7.7417495775
 30
0.0
 10
9.7251999015
 20
7.7737967544
 30
0.0
 10
9.7312838921
 20
7.8053186203
 30
0.0
 10
9.7397601631
 20
7.8361205543
 30
0.0
 10
9.7505737705
 20
7.8660314957
 30
0.0
 10
9.763671698
 20
7.8948823935
 30
0.0
 10
9.7789697113
 20
7.9225147697
 30
0.0
 10
9.7963904552
 20
7.9487652013
 30
0.0
 10
9.8158307059
 20
7.9734849944
 30
0.0
 10
9.8371780618
 20
7.9965358277
 30
0.0
 10
9.8603167727
 20
8.0177804579
 30
0.0
 10
9.8851072833
 20
8.0371066903
 30
0.0
 10
9.9114153356
 20
8.0543955794
 30
0.0
 10
9.9390871068
 20
8.0695545826
 30
0.0
 10
9.9679634467
 20
8.0824968063
 30
0.0
 10
9.9878750749
 20
8.0895819372
 30
0.0
 10
9.9979679852
 20
8.0927338471
 30
0.0
  0
SPLINE
  5
3A2
100
AcDbEntity
  8
0
100
AcDbSpline
 62
7
  6
CONTINUOUS
 70
0
 71
3
 72
38
 73
34
 74
0
 42
0.0000001
 43
0.0000001
 44
0.0000000001
 40
0.0
 40
0.0
 40
0.0
 40
0.0
 40
0.0310541863
 40
0.0622996765
 40
0.0937001149
 40
0.1252324483
 40
0.1568913713
 40
0.1886701778
 40
0.2205538637
 40
0.2525211035
 40
0.2845505261
 40
0.3166207552
 40
0.3487094159
 40
0.3807944621
 40
0.4128527755
 40
0.4448618794
 40
0.5086110611
 40
0.5403521109
 40
0.5719696856
 40
0.603449941
 40
0.6347830465
 40
0.665961603
 40
0.6969812773
 40
0.7278422256
 40
0.758546911
 40
0.789102005
 40
0.8195177095
 40
0.8498065716
 40
0.879985287
 40
0.910072301
 40
0.9400884015
 40
0.970056597
 40
1.0
 40
1.0
 40
1.0
 40
1.0
 10
9.791840574
 20
7.7200416832
 30
0.0
 10
9.791840574
 20
7.7107605416
 30
0.0
 10
9.7925367984
 20
7.6921340732
 30
0.0
 10
9.7956279065
 20
7.6642775046
 30
0.0
 10
9.8007579704
 20
7.6365765216
 30
0.0
 10
9.807904834
 20
7.6091992958
 30
0.0
 10
9.8170183605
 20
7.5822933148
 30
0.0
 10
9.8280563625
 20
7.5560042281
 30
0.0
 10
9.8409532686
 20
7.5304726376
 30
0.0
 10
9.8556367174
 20
7.5058377014
 30
0.0
 10
9.8720340822
 20
7.4822410349
 30
0.0
 10
9.8900463707
 20
7.4598065696
 30
0.0
 10
9.909579303
 20
7.4386597835
 30
0.0
 10
9.9305261378
 20
7.4189188043
 30
0.0
 10
9.9527688836
 20
7.4006843971
 30
0.0
 10
9.9839412296
 20
7.3785643796
 30
0.0
 10
10.017273502
 20
7.3597912831
 30
0.0
 10
10.0521829301
 20
7.3447480236
 30
0.0
 10
10.0789654776
 20
7.3353915805
 30
0.0
 10
10.1062301211
 20
7.3280086909
 30
0.0
 10
10.1338287797
 20
7.3226399944
 30
0.0
 10
10.1616083099
 20
7.3193078613
 30
0.0
 10
10.1894175468
 20
7.3180414125
 30
0.0
 10
10.2171026217
 20
7.3188404867
 30
0.0
 10
10.2445121484
 20
7.3217009378
 30
0.0
 10
10.2714939022
 20
7.3266150855
 30
0.0
 10
10.2979012392
 20
7.3335455126
 30
0.0
 10
10.3235872795
 20
7.3424621325
 30
0.0
 10
10.3484098813
 20
7.3533152645
 30
0.0
 10
10.3722354656
 20
7.3660391422
 30
0.0
 10
10.394927729
 20
7.3805739742
 30
0.0
 10
10.416364075
 20
7.3968304426
 30
0.0
 10
10.4297449317
 20
7.4087623174
 30
0.0
 10
10.4361814236
 20
7.4149799603
 30
0.0
  0
SPLINE
  5
3A3
100
AcDbEntity
  8
0
100
AcDbSpline
 62
7
  6
CONTINUOUS
 70
0
 71
3
 72
11
 73
7
 74
0
 42
0.0000001
 43
0.0000001
 44
0.0000000001
 40
0.0
 40
0.0
 40
0.0
 40
0.0
 40
0.2519725934
 40
0.5027459012
 40
0.7520693467
 40
1.0
 40
1.0
 40
1.0
 40
1.0
 10
10.0076790252
 20
7.9285256298
 30
0.0
 10
10.0076790252
 20
7.9391502387
 30
0.0
 10
10.008586653
 20
7.9603600604
 30
0.0
 10
10.0126644607
 20
7.9918470984
 30
0.0
 10
10.0194424749
 20
8.0226915863
 30
0.0
 10
10.0257443458
 20
8.0427233074
 30
0.0
 10
10.0293237422
 20
8.0525456161
 30
0.0
  0
SPLINE
  5
3A4
100
AcDbEntity
  8
0
100
AcDbSpline
 62
7
  6
CONTINUOUS
 70
0
 71
3
 72
23
 73
19
 74
0
 42
0.0000001
 43
0.0000001
 44
0.0000000001
 40
0.0
 40
0.0
 40
0.0
 40
0.0
 40
0.0612544175
 40
0.1230015615
 40
0.1851192151
 40
0.2475547012
 40
0.3102832758
 40
0.373257443
 40
0.4363996216
 40
0.4996320162
 40
0.5628783093
 40
0.6260617667
 40
0.6891030802
 40
0.7519223271
 40
0.8144688211
 40
0.8767138857
 40
0.9386001607
 40
1.0
 40
1.0
 40
1.0
 40
1.0
 10
10.2147342613
 20
7.9285256417
 30
0.0
 10
10.2147342613
 20
7.9225699153
 30
0.0
 10
10.215327775
 20
7.9106028784
 30
0.0
 10
10.2179472905
 20
7.8927689842
 30
0.0
 10
10.2222886929
 20
7.8751544314
 30
0.0
 10
10.2283044152
 20
7.857939279
 30
0.0
 10
10.2359359587
 20
7.8412855162
 30
0.0
 10
10.2451106949
 20
7.8253507921
 30
0.0
 10
10.2557360591
 20
7.8102843944
 30
0.0
 10
10.2677183379
 20
7.7962384175
 30
0.0
 10
10.2809335657
 20
7.7833399761
 30
0.0
 10
10.295263156
 20
7.7717212697
 30
0.0
 10
10.3105615354
 20
7.7614860378
 30
0.0
 10
10.3266858048
 20
7.7527367361
 30
0.0
 10
10.3434833588
 20
7.7455565298
 30
0.0
 10
10.3607962675
 20
7.740014832
 30
0.0
 10
10.3784478124
 20
7.7361714262
 30
0.0
 10
10.3903727661
 20
7.7347510039
 30
0.0
 10
10.3963283274
 20
7.7343379843
 30
0.0
  0
SPLINE
  5
3A5
100
AcDbEntity
  8
0
100
AcDbSpline
 62
7
  6
CONTINUOUS
 70
0
 71
3
 72
15
 73
11
 74
0
 42
0.0000001
 43
0.0000001
 44
0.0000000001
 40
0.0
 40
0.0
 40
0.0
 40
0.0
 40
0.1273582742
 40
0.254046594
 40
0.3798939519
 40
0.5049354596
 40
0.6293207811
 40
0.7532026554
 40
0.87671158
 40
1.0
 40
1.0
 40
1.0
 40
1.0
 10
10.3963283274
 20
7.7343379843
 30
0.0
 10
10.4021797639
 20
7.7339321858
 30
0.0
 10
10.4138990872
 20
7.7336887015
 30
0.0
 10
10.4313706088
 20
7.7350300433
 30
0.0
 10
10.4485200707
 20
7.7380813658
 30
0.0
 10
10.4651741324
 20
7.7428110753
 30
0.0
 10
10.4811786073
 20
7.7491732875
 30
0.0
 10
10.4963841472
 20
7.7571110506
 30
0.0
 10
10.5106493422
 20
7.7665419279
 30
0.0
 10
10.5194453067
 20
7.7737791358
 30
0.0
 10
10.5236368782
 20
7.7776094124
 30
0.0
  0
SPLINE
  5
3A6
100
AcDbEntity
  8
0
100
AcDbSpline
 62
7
  6
CONTINUOUS
 70
0
 71
3
 72
15
 73
11
 74
0
 42
0.0000001
 43
0.0000001
 44
0.0000000001
 40
0.0
 40
0.0
 40
0.0
 40
0.0
 40
0.1234131278
 40
0.2470291401
 40
0.3709828308
 40
0.4954013941
 40
0.6204363073
 40
0.7462298719
 40
0.872802417
 40
1.0
 40
1.0
 40
1.0
 40
1.0
 10
10.2626347129
 20
8.0480947828
 30
0.0
 10
10.2588283932
 20
8.0442183647
 30
0.0
 10
10.2515911364
 20
8.0360734108
 30
0.0
 10
10.2419981506
 20
8.022825537
 30
0.0
 10
10.2337322894
 20
8.0086585372
 30
0.0
 10
10.2268749669
 20
7.9936906054
 30
0.0
 10
10.2214783503
 20
7.9780510241
 30
0.0
 10
10.2175940888
 20
7.9618712997
 30
0.0
 10
10.2152556067
 20
7.9453031709
 30
0.0
 10
10.2147342613
 20
7.9341249785
 30
0.0
 10
10.2147342613
 20
7.9285256417
 30
0.0
  0
SPLINE
  5
3A7
100
AcDbEntity
  8
0
100
AcDbSpline
 62
7
  6
CONTINUOUS
 70
0
 71
3
 72
15
 73
11
 74
0
 42
0.0000001
 43
0.0000001
 44
0.0000000001
 40
0.0
 40
0.0
 40
0.0
 40
0.0
 40
0.1234389364
 40
0.2470473381
 40
0.370987441
 40
0.4953935886
 40
0.620395394
 40
0.7461421851
 40
0.8727199755
 40
1.0
 40
1.0
 40
1.0
 40
1.0
 10
9.8970582101
 20
7.9731213485
 30
0.0
 10
9.8887275557
 20
7.9650739471
 30
0.0
 10
9.8728729652
 20
7.9480959808
 30
0.0
 10
9.8518116717
 20
7.9203055421
 30
0.0
 10
9.8336594289
 20
7.8904235387
 30
0.0
 10
9.8185712082
 20
7.8587403281
 30
0.0
 10
9.8066982563
 20
7.8255380696
 30
0.0
 10
9.7981385034
 20
7.7911215798
 30
0.0
 10
9.7929869708
 20
7.7558214301
 30
0.0
 10
9.791840574
 20
7.7319848739
 30
0.0
 10
9.791840574
 20
7.7200416832
 30
0.0
  0
SPLINE
  5
3A8
100
AcDbEntity
  8
0
100
AcDbSpline
 62
7
  6
CONTINUOUS
 70
0
 71
3
 72
23
 73
19
 74
0
 42
0.0000001
 43
0.0000001
 44
0.0000000001
 40
0.0
 40
0.0
 40
0.0
 40
0.0
 40
0.0637757517
 40
0.1273453038
 40
0.1907021142
 40
0.2538559682
 40
0.3168132565
 40
0.3795821027
 40
0.442173382
 40
0.5045993411
 40
0.5668738656
 40
0.6290123776
 40
0.6910316412
 40
0.7529496359
 40
0.8147853464
 40
0.8765585919
 40
0.9382898467
 40
1.0
 40
1.0
 40
1.0
 40
1.0
 10
7.5536750706
 20
8.2021396789
 30
0.0
 10
7.5536750706
 20
8.1968322603
 30
0.0
 10
7.5534209797
 20
8.1862327863
 30
0.0
 10
7.552274432
 20
8.1703980889
 30
0.0
 10
7.5503653085
 20
8.1546888307
 30
0.0
 10
7.5476981777
 20
8.1391421074
 30
0.0
 10
7.5442791487
 20
8.1237932992
 30
0.0
 10
7.5401160413
 20
8.1086778889
 30
0.0
 10
7.5352183636
 20
8.0938307649
 30
0.0
 10
7.5295974417
 20
8.0792861254
 30
0.0
 10
7.5232662255
 20
8.0650775048
 30
0.0
 10
7.5162391886
 20
8.0512377239
 30
0.0
 10
7.5085325862
 20
8.0377986779
 30
0.0
 10
7.5001641914
 20
8.0247913407
 30
0.0
 10
7.4911532223
 20
8.0122458106
 30
0.0
 10
7.4815204035
 20
8.0001909
 30
0.0
 10
7.4712883773
 20
7.9886547449
 30
0.0
 10
7.4640818243
 20
7.9813262999
 30
0.0
 10
7.4603880675
 20
7.9777584265
 30
0.0
  0
SPLINE
  5
3A9
100
AcDbEntity
  8
0
100
AcDbSpline
 62
7
  6
CONTINUOUS
 70
0
 71
3
 72
23
 73
19
 74
0
 42
0.0000001
 43
0.0000001
 44
0.0000000001
 40
0.0
 40
0.0
 40
0.0
 40
0.0
 40
0.0637757517
 40
0.1273453038
 40
0.1907021142
 40
0.2538559682
 40
0.3168132565
 40
0.3795821027
 40
0.442173382
 40
0.5045993411
 40
0.5668738656
 40
0.6290123776
 40
0.6910316412
 40
0.7529496359
 40
0.8147853464
 40
0.8765585919
 40
0.9382898467
 40
1.0
 40
1.0
 40
1.0
 40
1.0
 10
14.0756065537
 20
7.7498421943
 30
0.0
 10
14.0756065537
 20
7.7445347758
 30
0.0
 10
14.0753524628
 20
7.7339353018
 30
0.0
 10
14.0742059151
 20
7.7181006043
 30
0.0
 10
14.0722967916
 20
7.7023913461
 30
0.0
 10
14.0696296608
 20
7.6868446228
 30
0.0
 10
14.0662106318
 20
7.6714958146
 30
0.0
 10
14.0620475244
 20
7.6563804044
 30
0.0
 10
14.0571498467
 20
7.6415332804
 30
0.0
 10
14.0515289248
 20
7.6269886409
 30
0.0
 10
14.0451977086
 20
7.6127800203
 30
0.0
 10
14.0381706716
 20
7.5989402393
 30
0.0
 10
14.0304640693
 20
7.5855011933
 30
0.0
 10
14.0220956745
 20
7.5724938561
 30
0.0
 10
14.0130847054
 20
7.559948326
 30
0.0
 10
14.0034518866
 20
7.5478934154
 30
0.0
 10
13.9932198604
 20
7.5363572603
 30
0.0
 10
13.9860133074
 20
7.5290288153
 30
0.0
 10
13.9823195505
 20
7.5254609419
 30
0.0
  0
SPLINE
  5
3AA
100
AcDbEntity
  8
0
100
AcDbSpline
 62
7
  6
CONTINUOUS
 70
0
 71
3
 72
51
 73
47
 74
0
 42
0.0000001
 43
0.0000001
 44
0.0000000001
 40
0.0
 40
0.0
 40
0.0
 40
0.0
 40
0.0481977053
 40
0.095830135
 40
0.1428201362
 40
0.1890981738
 40
0.2345933851
 40
0.2792370546
 40
0.3229625179
 40
0.3657049562
 40
0.4074018956
 40
0.4479933021
 40
0.4874217525
 40
0.5256327531
 40
0.5625750279
 40
0.5982007274
 40
0.6324657774
 40
0.6653303865
 40
0.6967594376
 40
0.7267230069
 40
0.755197147
 40
0.7688706186
 40
0.7821659217
 40
0.7950822342
 40
0.8076192537
 40
0.8197772583
 40
0.831557354
 40
0.8429613076
 40
0.8539917351
 40
0.8646522838
 40
0.8749475169
 40
0.8848832127
 40
0.8944664754
 40
0.9037057278
 40
0.9126110859
 40
0.9211944161
 40
0.9294694595
 40
0.9374522112
 40
0.9451609368
 40
0.9598350083
 40
0.9668568308
 40
0.9737036631
 40
0.9804068758
 40
0.9870000868
 40
0.9935188331
 40
1.0
 40
1.0
 40
1.0
 40
1.0
 10
12.6769152301
 20
11.1382942112
 30
0.0
 10
12.6656360664
 20
11.1390764239
 30
0.0
 10
12.6432185355
 20
11.1407575986
 30
0.0
 10
12.6098398885
 20
11.1436482727
 30
0.0
 10
12.5769458522
 20
11.146889531
 30
0.0
 10
12.5445919895
 20
11.1504758027
 30
0.0
 10
12.5128319853
 20
11.1544011422
 30
0.0
 10
12.4817190472
 20
11.1586589232
 30
0.0
 10
12.4513051836
 20
11.1632419835
 30
0.0
 10
12.42164121
 20
11.1681426512
 30
0.0
 10
12.3927766927
 20
11.1733526655
 30
0.0
 10
12.3647598387
 20
11.178863258
 30
0.0
 10
12.3376374363
 20
11.1846651804
 30
0.0
 10
12.311454753
 20
11.1907486798
 30
0.0
 10
12.2862554477
 20
11.1971035031
 30
0.0
 10
12.2620815198
 20
11.2037189656
 30
0.0
 10
12.2389732202
 20
11.210583974
 30
0.0
 10
12.2169689735
 20
11.2176869724
 30
0.0
 10
12.1961052192
 20
11.2250160394
 30
0.0
 10
12.1764167178
 20
11.2325588948
 30
0.0
 10
12.1608120264
 20
11.239097604
 30
0.0
 10
12.1489516583
 20
11.2444360683
 30
0.0
 10
12.1404907029
 20
11.2484313932
 30
0.0
 10
12.1323471171
 20
11.2524705929
 30
0.0
 10
12.1245242662
 20
11.2565520172
 30
0.0
 10
12.1170254261
 20
11.2606740248
 30
0.0
 10
12.1098536682
 20
11.2648348414
 30
0.0
 10
12.1030119713
 20
11.269032781
 30
0.0
 10
12.0965031842
 20
11.2732661545
 30
0.0
 10
12.0903299494
 20
11.2775331587
 30
0.0
 10
12.0844948459
 20
11.2818321194
 30
0.0
 10
12.0790002823
 20
11.2861613017
 30
0.0
 10
12.0738484797
 20
11.290518914
 30
0.0
 10
12.0690416266
 20
11.2949033109
 30
0.0
 10
12.0645816995
 20
11.2993127232
 30
0.0
 10
12.0604705146
 20
11.3037454481
 30
0.0
 10
12.0567099809
 20
11.3081997315
 30
0.0
 10
12.0533014155
 20
11.3126742752
 30
0.0
 10
12.0492947949
 20
11.3185664602
 30
0.0
 10
12.0459050697
 20
11.3245979188
 30
0.0
 10
12.0432193904
 20
11.3307359502
 30
0.0
 10
12.0415932975
 20
11.3352839309
 30
0.0
 10
12.0403273175
 20
11.3398408085
 30
0.0
 10
12.0394223564
 20
11.3444048068
 30
0.0
 10
12.0388791264
 20
11.34897324
 30
0.0
 10
12.0387582405
 20
11.3520241299
 30
0.0
 10
12.0387582463
 20
11.3535444869
 30
0.0
  0
SPLINE
  5
3AB
100
AcDbEntity
  8
0
100
AcDbSpline
 62
7
  6
CONTINUOUS
 70
0
 71
3
 72
60
 73
56
 74
0
 42
0.0000001
 43
0.0000001
 44
0.0000000001
 40
0.0
 40
0.0
 40
0.0
 40
0.0
 40
0.0417737215
 40
0.0840362954
 40
0.1266575307
 40
0.1695051874
 40
0.2124464681
 40
0.2553480875
 40
0.2980769527
 40
0.3405006415
 40
0.3824879411
 40
0.4239093736
 40
0.4646377307
 40
0.5045486136
 40
0.543520985
 40
0.5814377367
 40
0.599965091
 40
0.6181867239
 40
0.6360893624
 40
0.6536601077
 40
0.6708864507
 40
0.6877562714
 40
0.7042579206
 40
0.7203801597
 40
0.7361123056
 40
0.7514441249
 40
0.7663660213
 40
0.7808689196
 40
0.7949444585
 40
0.8085849095
 40
0.8217833396
 40
0.8345336065
 40
0.8468304684
 40
0.8586696849
 40
0.8700480724
 40
0.8809637257
 40
0.8914160437
 40
0.9014060712
 40
0.9109365509
 40
0.9200123738
 40
0.9286407389
 40
0.9368317014
 40
0.9445985263
 40
0.9519583321
 40
0.9589326812
 40
0.9655482848
 40
0.9718377328
 40
0.9778400566
 40
0.9836011837
 40
0.9864084827
 40
0.9891757961
 40
0.9919106627
 40
0.9946209124
 40
0.9973146132
 40
1.0
 40
1.0
 40
1.0
 40
1.0
 10
14.6877067287
 20
9.571793501
 30
0.0
 10
14.6877067287
 20
9.5938074663
 30
0.0
 10
14.6880501689
 20
9.638093705
 30
0.0
 10
14.6895684649
 20
9.7048248873
 30
0.0
 10
14.6920884545
 20
9.7720922035
 30
0.0
 10
14.6956018871
 20
9.8396730211
 30
0.0
 10
14.7000971457
 20
9.9073437182
 30
0.0
 10
14.7055593741
 20
9.974880433
 30
0.0
 10
14.7119704769
 20
10.0420597213
 30
0.0
 10
14.7193092017
 20
10.1086593393
 30
0.0
 10
14.7275512002
 20
10.1744589697
 30
0.0
 10
14.7366691102
 20
10.2392409662
 30
0.0
 10
14.7466326464
 20
10.302791057
 30
0.0
 10
14.7574086887
 20
10.3648991427
 30
0.0
 10
14.7689614275
 20
10.4253597128
 30
0.0
 10
14.7792815599
 20
10.4745751619
 30
0.0
 10
14.7879087839
 20
10.5129656978
 30
0.0
 10
14.79449909
 20
10.5410024274
 30
0.0
 10
14.8012535193
 20
10.5684812284
 30
0.0
 10
14.8081664916
 20
10.5953793957
 30
0.0
 10
14.8152322549
 20
10.6216746795
 30
0.0
 10
14.8224449857
 20
10.6473453364
 30
0.0
 10
14.8297986483
 20
10.6723701475
 30
0.0
 10
14.8372872165
 20
10.696728422
 30
0.0
 10
14.8449043938
 20
10.7204000405
 30
0.0
 10
14.8526439592
 20
10.7433654368
 30
0.0
 10
14.8604993963
 20
10.7656056595
 30
0.0
 10
14.8684642871
 20
10.7871023376
 30
0.0
 10
14.8765319453
 20
10.8078377514
 30
0.0
 10
14.8846957543
 20
10.8277947949
 30
0.0
 10
14.8929489069
 20
10.8469570393
 30
0.0
 10
14.9012845956
 20
10.8653087133
 30
0.0
 10
14.9096959375
 20
10.8828347341
 30
0.0
 10
14.9181759567
 20
10.8995207338
 30
0.0
 10
14.9267177369
 20
10.9153530287
 30
0.0
 10
14.9353141778
 20
10.9303187187
 30
0.0
 10
14.943958371
 20
10.9444055701
 30
0.0
 10
14.9526431688
 20
10.9576022048
 30
0.0
 10
14.9613617185
 20
10.9698978865
 30
0.0
 10
14.9701069471
 20
10.9812827833
 30
0.0
 10
14.9788721299
 20
10.9917476838
 30
0.0
 10
14.9876504374
 20
11.0012842609
 30
0.0
 10
14.9964353895
 20
11.0098847794
 30
0.0
 10
15.0052205818
 20
11.0175422319
 30
0.0
 10
15.0139999071
 20
11.0242501265
 30
0.0
 10
15.0227673846
 20
11.0300023198
 30
0.0
 10
15.0315173181
 20
11.0347930643
 30
0.0
 10
15.0402429816
 20
11.0386163236
 30
0.0
 10
15.0475530605
 20
11.0410122324
 30
0.0
 10
15.0533603402
 20
11.0424227038
 30
0.0
 10
15.0576668702
 20
11.043227885
 30
0.0
 10
15.061960347
 20
11.0437890189
 30
0.0
 10
15.0662399521
 20
11.0441059271
 30
0.0
 10
15.070504475
 20
11.0441784297
 30
0.0
 10
15.0733386843
 20
11.0440637557
 30
0.0
 10
15.0747504416
 20
11.0439658472
 30
0.0
  0
SPLINE
  5
3AC
100
AcDbEntity
  8
0
100
AcDbSpline
 62
7
  6
CONTINUOUS
 70
0
 71
3
 72
60
 73
56
 74
0
 42
0.0000001
 43
0.0000001
 44
0.0000000001
 40
0.0
 40
0.0
 40
0.0
 40
0.0
 40
0.0417737215
 40
0.0840362954
 40
0.1266575307
 40
0.1695051874
 40
0.2124464681
 40
0.2553480875
 40
0.2980769527
 40
0.3405006415
 40
0.3824879411
 40
0.4239093736
 40
0.4646377307
 40
0.5045486136
 40
0.543520985
 40
0.5814377367
 40
0.599965091
 40
0.6181867239
 40
0.6360893624
 40
0.6536601077
 40
0.6708864507
 40
0.6877562714
 40
0.7042579206
 40
0.7203801597
 40
0.7361123056
 40
0.7514441249
 40
0.7663660213
 40
0.7808689196
 40
0.7949444585
 40
0.8085849095
 40
0.8217833396
 40
0.8345336065
 40
0.8468304684
 40
0.8586696849
 40
0.8700480724
 40
0.8809637257
 40
0.8914160437
 40
0.9014060712
 40
0.9109365509
 40
0.9200123738
 40
0.9286407389
 40
0.9368317014
 40
0.9445985263
 40
0.9519583321
 40
0.9589326812
 40
0.9655482848
 40
0.9718377328
 40
0.9778400566
 40
0.9836011837
 40
0.9864084827
 40
0.9891757961
 40
0.9919106627
 40
0.9946209124
 40
0.9973146132
 40
1.0
 40
1.0
 40
1.0
 40
1.0
 10
14.6877067287
 20
6.5523090288
 30
0.0
 10
14.6877067287
 20
6.5743229942
 30
0.0
 10
14.6880501689
 20
6.6186092328
 30
0.0
 10
14.6895684649
 20
6.6853404151
 30
0.0
 10
14.6920884545
 20
6.7526077313
 30
0.0
 10
14.6956018871
 20
6.8201885489
 30
0.0
 10
14.7000971457
 20
6.887859246
 30
0.0
 10
14.7055593741
 20
6.9553959608
 30
0.0
 10
14.7119704769
 20
7.0225752491
 30
0.0
 10
14.7193092017
 20
7.0891748671
 30
0.0
 10
14.7275512002
 20
7.1549744975
 30
0.0
 10
14.7366691102
 20
7.219756494
 30
0.0
 10
14.7466326464
 20
7.2833065848
 30
0.0
 10
14.7574086887
 20
7.3454146705
 30
0.0
 10
14.7689614275
 20
7.4058752407
 30
0.0
 10
14.7792815599
 20
7.4550906897
 30
0.0
 10
14.7879087839
 20
7.4934812256
 30
0.0
 10
14.79449909
 20
7.5215179552
 30
0.0
 10
14.8012535193
 20
7.5489967562
 30
0.0
 10
14.8081664916
 20
7.5758949235
 30
0.0
 10
14.8152322549
 20
7.6021902073
 30
0.0
 10
14.8224449857
 20
7.6278608642
 30
0.0
 10
14.8297986483
 20
7.6528856753
 30
0.0
 10
14.8372872165
 20
7.6772439498
 30
0.0
 10
14.8449043938
 20
7.7009155683
 30
0.0
 10
14.8526439592
 20
7.7238809646
 30
0.0
 10
14.8604993963
 20
7.7461211873
 30
0.0
 10
14.8684642871
 20
7.7676178654
 30
0.0
 10
14.8765319453
 20
7.7883532792
 30
0.0
 10
14.8846957543
 20
7.8083103228
 30
0.0
 10
14.8929489069
 20
7.8274725671
 30
0.0
 10
14.9012845956
 20
7.8458242411
 30
0.0
 10
14.9096959375
 20
7.8633502619
 30
0.0
 10
14.9181759567
 20
7.8800362617
 30
0.0
 10
14.9267177369
 20
7.8958685565
 30
0.0
 10
14.9353141778
 20
7.9108342465
 30
0.0
 10
14.943958371
 20
7.924921098
 30
0.0
 10
14.9526431688
 20
7.9381177326
 30
0.0
 10
14.9613617185
 20
7.9504134143
 30
0.0
 10
14.9701069471
 20
7.9617983112
 30
0.0
 10
14.9788721299
 20
7.9722632116
 30
0.0
 10
14.9876504374
 20
7.9817997887
 30
0.0
 10
14.9964353895
 20
7.9904003072
 30
0.0
 10
15.0052205818
 20
7.9980577597
 30
0.0
 10
15.0139999071
 20
8.0047656543
 30
0.0
 10
15.0227673846
 20
8.0105178476
 30
0.0
 10
15.0315173181
 20
8.0153085921
 30
0.0
 10
15.0402429816
 20
8.0191318514
 30
0.0
 10
15.0475530605
 20
8.0215277602
 30
0.0
 10
15.0533603402
 20
8.0229382316
 30
0.0
 10
15.0576668702
 20
8.0237434128
 30
0.0
 10
15.061960347
 20
8.0243045467
 30
0.0
 10
15.0662399521
 20
8.0246214549
 30
0.0
 10
15.070504475
 20
8.0246939575
 30
0.0
 10
15.0733386843
 20
8.0245792836
 30
0.0
 10
15.0747504416
 20
8.024481375
 30
0.0
  0
SPLINE
  5
3AD
100
AcDbEntity
  8
0
100
AcDbSpline
 62
7
  6
CONTINUOUS
 70
0
 71
3
 72
54
 73
50
 74
0
 42
0.0000001
 43
0.0000001
 44
0.0000000001
 40
0.0
 40
0.0
 40
0.0
 40
0.0
 40
0.0407254958
 40
0.0819148668
 40
0.1234496511
 40
0.1652111622
 40
0.2070792552
 40
0.2489336668
 40
0.2906540836
 40
0.3321207151
 40
0.3732146883
 40
0.4138185036
 40
0.4538164754
 40
0.4930951832
 40
0.5315439286
 40
0.5690552032
 40
0.6055251725
 40
0.6408541826
 40
0.6749472989
 40
0.6915024078
 40
0.7077154142
 40
0.7235760212
 40
0.7390743999
 40
0.7542011357
 40
0.7689472922
 40
0.7833044553
 40
0.7972647054
 40
0.8108207698
 40
0.8239659064
 40
0.836694158
 40
0.8490001734
 40
0.8608795379
 40
0.8723285781
 40
0.8833447311
 40
0.8939263946
 40
0.9040732958
 40
0.913786452
 40
0.9230685163
 40
0.9319239049
 40
0.9403591234
 40
0.948383105
 40
0.9560075447
 40
0.9632474681
 40
0.9701216086
 40
0.9766531632
 40
0.9828701887
 40
0.9888063476
 40
0.994501107
 40
1.0
 40
1.0
 40
1.0
 40
1.0
 10
14.7216504383
 20
9.6685806102
 30
0.0
 10
14.7216504383
 20
9.6831201379
 30
0.0
 10
14.7218686767
 20
9.7123652271
 30
0.0
 10
14.7228340838
 20
9.7564291922
 30
0.0
 10
14.724436838
 20
9.8008447588
 30
0.0
 10
14.7266720164
 20
9.8454755598
 30
0.0
 10
14.7295328193
 20
9.8901849709
 30
0.0
 10
14.7330104669
 20
9.9348359194
 30
0.0
 10
14.7370943025
 20
9.9792915963
 30
0.0
 10
14.741771786
 20
10.023415765
 30
0.0
 10
14.7470285501
 20
10.0670732209
 30
0.0
 10
14.7528484362
 20
10.1101301959
 30
0.0
 10
14.7592135466
 20
10.1524547757
 30
0.0
 10
14.7661042969
 20
10.1939173057
 30
0.0
 10
14.773499475
 20
10.2343907991
 30
0.0
 10
14.781376307
 20
10.2737513129
 30
0.0
 10
14.7897105168
 20
10.3118784052
 30
0.0
 10
14.7984764326
 20
10.3486552689
 30
0.0
 10
14.8061920353
 20
10.3783672729
 30
0.0
 10
14.8125700908
 20
10.4013701611
 30
0.0
 10
14.8173976704
 20
10.4180469545
 30
0.0
 10
14.8223123851
 20
10.4343045501
 30
0.0
 10
14.8273104572
 20
10.4501305171
 30
0.0
 10
14.8323880513
 20
10.4655127399
 30
0.0
 10
14.8375412808
 20
10.4804394477
 30
0.0
 10
14.8427661557
 20
10.4948992295
 30
0.0
 10
14.8480587186
 20
10.5088810216
 30
0.0
 10
14.8534148331
 20
10.5223741547
 30
0.0
 10
14.8588304822
 20
10.5353683076
 30
0.0
 10
14.8643014051
 20
10.54785359
 30
0.0
 10
14.86982353
 20
10.5598204577
 30
0.0
 10
14.8753925045
 20
10.571259834
 30
0.0
 10
14.8810042007
 20
10.5821629881
 30
0.0
 10
14.8866542183
 20
10.5925216859
 30
0.0
 10
14.8923383746
 20
10.6023280486
 30
0.0
 10
14.8980522724
 20
10.6115747077
 30
0.0
 10
14.903791686
 20
10.6202546744
 30
0.0
 10
14.9095522813
 20
10.6283614584
 30
0.0
 10
14.9153298221
 20
10.6358889932
 30
0.0
 10
14.9211201088
 20
10.6428316585
 30
0.0
 10
14.9269189576
 20
10.6491843167
 30
0.0
 10
14.9327223848
 20
10.6549421635
 30
0.0
 10
14.9385263489
 20
10.6601009304
 30
0.0
 10
14.9443271393
 20
10.6646564799
 30
0.0
 10
14.9501209275
 20
10.6686052205
 30
0.0
 10
14.9559041317
 20
10.6719433855
 30
0.0
 10
14.9616731654
 20
10.6746677562
 30
0.0
 10
14.9674233517
 20
10.6767745354
 30
0.0
 10
14.9712993137
 20
10.6777801695
 30
0.0
 10
14.9732228271
 20
10.6781727958
 30
0.0
  0
SPLINE
  5
3AE
100
AcDbEntity
  8
0
100
AcDbSpline
 62
7
  6
CONTINUOUS
 70
0
 71
3
 72
49
 73
45
 74
0
 42
0.0000001
 43
0.0000001
 44
0.0000000001
 40
0.0
 40
0.0
 40
0.0
 40
0.0
 40
0.0469507736
 40
0.0933703464
 40
0.1391901414
 40
0.1843502478
 40
0.2287896219
 40
0.2724480661
 40
0.3152674619
 40
0.3571912403
 40
0.3981644589
 40
0.4381341619
 40
0.4770495295
 40
0.5148618771
 40
0.5515250307
 40
0.5869954998
 40
0.621232557
 40
0.6541987391
 40
0.6858600375
 40
0.716186164
 40
0.7451512524
 40
0.7727341932
 40
0.7989192806
 40
0.8236972954
 40
0.8355583246
 40
0.8470676038
 40
0.8582262082
 40
0.8690359891
 40
0.8794995072
 40
0.8896200172
 40
0.8994017622
 40
0.9088499737
 40
0.9179708673
 40
0.926771955
 40
0.9352621214
 40
0.9434516417
 40
0.9513525034
 40
0.9589785453
 40
0.9663454868
 40
0.9734712125
 40
0.980375902
 40
0.9870819947
 40
0.9936143098
 40
1.0
 40
1.0
 40
1.0
 40
1.0
 10
14.7216504383
 20
9.6685806102
 30
0.0
 10
14.7216504383
 20
9.6586008102
 30
0.0
 10
14.7217521657
 20
9.6387539593
 30
0.0
 10
14.7222150499
 20
9.6091709578
 30
0.0
 10
14.7229868484
 20
9.579975102
 30
0.0
 10
14.724066352
 20
9.5512101872
 30
0.0
 10
14.7254519172
 20
9.5229183135
 30
0.0
 10
14.7271415116
 20
9.4951413755
 30
0.0
 10
14.7291326156
 20
9.4679204938
 30
0.0
 10
14.731422216
 20
9.4412958769
 30
0.0
 10
14.7340069286
 20
9.4153068807
 30
0.0
 10
14.7368829008
 20
9.389991915
 30
0.0
 10
14.7400458005
 20
9.3653883748
 30
0.0
 10
14.7434909502
 20
9.3415325993
 30
0.0
 10
14.7472131992
 20
9.3184598045
 30
0.0
 10
14.7512069588
 20
9.2962040292
 30
0.0
 10
14.7554663226
 20
9.2747980928
 30
0.0
 10
14.7599849101
 20
9.2542735213
 30
0.0
 10
14.7647559617
 20
9.2346605068
 30
0.0
 10
14.769772433
 20
9.2159878608
 30
0.0
 10
14.7750268201
 20
9.1982829574
 30
0.0
 10
14.7805113325
 20
9.1815715928
 30
0.0
 10
14.786217928
 20
9.1658783417
 30
0.0
 10
14.7912216672
 20
9.1534936794
 30
0.0
 10
14.7953392215
 20
9.1441234854
 30
0.0
 10
14.7984325901
 20
9.1374671467
 30
0.0
 10
14.8015750919
 20
9.1310819584
 30
0.0
 10
14.8047655782
 20
9.1249702283
 30
0.0
 10
14.8080028536
 20
9.1191341729
 30
0.0
 10
14.811285812
 20
9.1135759552
 30
0.0
 10
14.8146132506
 20
9.1082975884
 30
0.0
 10
14.817983945
 20
9.103300965
 30
0.0
 10
14.8213967651
 20
9.0985879453
 30
0.0
 10
14.8248505039
 20
9.0941602413
 30
0.0
 10
14.8283439202
 20
9.0900194312
 30
0.0
 10
14.8318758775
 20
9.0861670869
 30
0.0
 10
14.8354451811
 20
9.0826046494
 30
0.0
 10
14.8390505871
 20
9.0793334132
 30
0.0
 10
14.842690949
 20
9.0763547082
 30
0.0
 10
14.8463650745
 20
9.0736697631
 30
0.0
 10
14.8500716612
 20
9.0712796554
 30
0.0
 10
14.8538095611
 20
9.069185504
 30
0.0
 10
14.8575771902
 20
9.0673884711
 30
0.0
 10
14.8601336123
 20
9.0663789427
 30
0.0
 10
14.8614133225
 20
9.0659265059
 30
0.0
  0
SPLINE
  5
3AF
100
AcDbEntity
  8
0
100
AcDbSpline
 62
7
  6
CONTINUOUS
 70
0
 71
3
 72
54
 73
50
 74
0
 42
0.0000001
 43
0.0000001
 44
0.0000000001
 40
0.0
 40
0.0
 40
0.0
 40
0.0
 40
0.0407254958
 40
0.0819148668
 40
0.1234496511
 40
0.1652111622
 40
0.2070792552
 40
0.2489336668
 40
0.2906540836
 40
0.3321207151
 40
0.3732146883
 40
0.4138185036
 40
0.4538164754
 40
0.4930951832
 40
0.5315439286
 40
0.5690552032
 40
0.6055251725
 40
0.6408541826
 40
0.6749472989
 40
0.6915024078
 40
0.7077154142
 40
0.7235760212
 40
0.7390743999
 40
0.7542011357
 40
0.7689472922
 40
0.7833044553
 40
0.7972647054
 40
0.8108207698
 40
0.8239659064
 40
0.836694158
 40
0.8490001734
 40
0.8608795379
 40
0.8723285781
 40
0.8833447311
 40
0.8939263946
 40
0.9040732958
 40
0.913786452
 40
0.9230685163
 40
0.9319239049
 40
0.9403591234
 40
0.948383105
 40
0.9560075447
 40
0.9632474681
 40
0.9701216086
 40
0.9766531632
 40
0.9828701887
 40
0.9888063476
 40
0.994501107
 40
1.0
 40
1.0
 40
1.0
 40
1.0
 10
14.7216504383
 20
6.6490961381
 30
0.0
 10
14.7216504383
 20
6.6636356657
 30
0.0
 10
14.7218686767
 20
6.692880755
 30
0.0
 10
14.7228340838
 20
6.73694472
 30
0.0
 10
14.724436838
 20
6.7813602866
 30
0.0
 10
14.7266720164
 20
6.8259910876
 30
0.0
 10
14.7295328193
 20
6.8707004987
 30
0.0
 10
14.7330104669
 20
6.9153514472
 30
0.0
 10
14.7370943025
 20
6.9598071241
 30
0.0
 10
14.741771786
 20
7.0039312928
 30
0.0
 10
14.7470285501
 20
7.0475887487
 30
0.0
 10
14.7528484362
 20
7.0906457237
 30
0.0
 10
14.7592135466
 20
7.1329703035
 30
0.0
 10
14.7661042969
 20
7.1744328335
 30
0.0
 10
14.773499475
 20
7.2149063269
 30
0.0
 10
14.781376307
 20
7.2542668407
 30
0.0
 10
14.7897105168
 20
7.292393933
 30
0.0
 10
14.7984764326
 20
7.3291707967
 30
0.0
 10
14.8061920353
 20
7.3588828007
 30
0.0
 10
14.8125700908
 20
7.381885689
 30
0.0
 10
14.8173976704
 20
7.3985624823
 30
0.0
 10
14.8223123851
 20
7.4148200779
 30
0.0
 10
14.8273104572
 20
7.4306460449
 30
0.0
 10
14.8323880513
 20
7.4460282678
 30
0.0
 10
14.8375412808
 20
7.4609549755
 30
0.0
 10
14.8427661557
 20
7.4754147573
 30
0.0
 10
14.8480587186
 20
7.4893965495
 30
0.0
 10
14.8534148331
 20
7.5028896826
 30
0.0
 10
14.8588304822
 20
7.5158838355
 30
0.0
 10
14.8643014051
 20
7.5283691178
 30
0.0
 10
14.86982353
 20
7.5403359855
 30
0.0
 10
14.8753925045
 20
7.5517753618
 30
0.0
 10
14.8810042007
 20
7.5626785159
 30
0.0
 10
14.8866542183
 20
7.5730372137
 30
0.0
 10
14.8923383746
 20
7.5828435765
 30
0.0
 10
14.8980522724
 20
7.5920902355
 30
0.0
 10
14.903791686
 20
7.6007702022
 30
0.0
 10
14.9095522813
 20
7.6088769863
 30
0.0
 10
14.9153298221
 20
7.616404521
 30
0.0
 10
14.9211201088
 20
7.6233471863
 30
0.0
 10
14.9269189576
 20
7.6296998445
 30
0.0
 10
14.9327223848
 20
7.6354576913
 30
0.0
 10
14.9385263489
 20
7.6406164583
 30
0.0
 10
14.9443271393
 20
7.6451720077
 30
0.0
 10
14.9501209275
 20
7.6491207483
 30
0.0
 10
14.9559041317
 20
7.6524589134
 30
0.0
 10
14.9616731654
 20
7.6551832841
 30
0.0
 10
14.9674233517
 20
7.6572900632
 30
0.0
 10
14.9712993137
 20
7.6582956974
 30
0.0
 10
14.9732228271
 20
7.6586883236
 30
0.0
  0
SPLINE
  5
3B0
100
AcDbEntity
  8
0
100
AcDbSpline
 62
7
  6
CONTINUOUS
 70
0
 71
3
 72
49
 73
45
 74
0
 42
0.0000001
 43
0.0000001
 44
0.0000000001
 40
0.0
 40
0.0
 40
0.0
 40
0.0
 40
0.0469507736
 40
0.0933703464
 40
0.1391901414
 40
0.1843502478
 40
0.2287896219
 40
0.2724480661
 40
0.3152674619
 40
0.3571912403
 40
0.3981644589
 40
0.4381341619
 40
0.4770495295
 40
0.5148618771
 40
0.5515250307
 40
0.5869954998
 40
0.621232557
 40
0.6541987391
 40
0.6858600375
 40
0.716186164
 40
0.7451512524
 40
0.7727341932
 40
0.7989192806
 40
0.8236972954
 40
0.8355583246
 40
0.8470676038
 40
0.8582262082
 40
0.8690359891
 40
0.8794995072
 40
0.8896200172
 40
0.8994017622
 40
0.9088499737
 40
0.9179708673
 40
0.926771955
 40
0.9352621214
 40
0.9434516417
 40
0.9513525034
 40
0.9589785453
 40
0.9663454868
 40
0.9734712125
 40
0.980375902
 40
0.9870819947
 40
0.9936143098
 40
1.0
 40
1.0
 40
1.0
 40
1.0
 10
14.7216504383
 20
6.6490961381
 30
0.0
 10
14.7216504383
 20
6.639116338
 30
0.0
 10
14.7217521657
 20
6.6192694871
 30
0.0
 10
14.7222150499
 20
6.5896864856
 30
0.0
 10
14.7229868484
 20
6.5604906298
 30
0.0
 10
14.724066352
 20
6.5317257151
 30
0.0
 10
14.7254519172
 20
6.5034338414
 30
0.0
 10
14.7271415116
 20
6.4756569033
 30
0.0
 10
14.7291326156
 20
6.4484360216
 30
0.0
 10
14.731422216
 20
6.4218114047
 30
0.0
 10
14.7340069286
 20
6.3958224085
 30
0.0
 10
14.7368829008
 20
6.3705074428
 30
0.0
 10
14.7400458005
 20
6.3459039026
 30
0.0
 10
14.7434909502
 20
6.3220481271
 30
0.0
 10
14.7472131992
 20
6.2989753324
 30
0.0
 10
14.7512069588
 20
6.276719557
 30
0.0
 10
14.7554663226
 20
6.2553136206
 30
0.0
 10
14.7599849101
 20
6.2347890492
 30
0.0
 10
14.7647559617
 20
6.2151760346
 30
0.0
 10
14.769772433
 20
6.1965033886
 30
0.0
 10
14.7750268201
 20
6.1787984852
 30
0.0
 10
14.7805113325
 20
6.1620871207
 30
0.0
 10
14.786217928
 20
6.1463938695
 30
0.0
 10
14.7912216672
 20
6.1340092072
 30
0.0
 10
14.7953392215
 20
6.1246390133
 30
0.0
 10
14.7984325901
 20
6.1179826745
 30
0.0
 10
14.8015750919
 20
6.1115974862
 30
0.0
 10
14.8047655782
 20
6.1054857562
 30
0.0
 10
14.8080028536
 20
6.0996497007
 30
0.0
 10
14.811285812
 20
6.094091483
 30
0.0
 10
14.8146132506
 20
6.0888131162
 30
0.0
 10
14.817983945
 20
6.0838164929
 30
0.0
 10
14.8213967651
 20
6.0791034731
 30
0.0
 10
14.8248505039
 20
6.0746757692
 30
0.0
 10
14.8283439202
 20
6.070534959
 30
0.0
 10
14.8318758775
 20
6.0666826148
 30
0.0
 10
14.8354451811
 20
6.0631201772
 30
0.0
 10
14.8390505871
 20
6.059848941
 30
0.0
 10
14.842690949
 20
6.056870236
 30
0.0
 10
14.8463650745
 20
6.0541852909
 30
0.0
 10
14.8500716612
 20
6.0517951832
 30
0.0
 10
14.8538095611
 20
6.0497010318
 30
0.0
 10
14.8575771902
 20
6.0479039989
 30
0.0
 10
14.8601336123
 20
6.0468944705
 30
0.0
 10
14.8614133225
 20
6.0464420337
 30
0.0
  0
SPLINE
  5
3B1
100
AcDbEntity
  8
0
100
AcDbSpline
 62
7
  6
CONTINUOUS
 70
0
 71
3
 72
39
 73
35
 74
0
 42
0.0000001
 43
0.0000001
 44
0.0000000001
 40
0.0
 40
0.0
 40
0.0
 40
0.0
 40
0.0299424689
 40
0.059909316
 40
0.0899243238
 40
0.120010106
 40
0.150187569
 40
0.1804754262
 40
0.2108897768
 40
0.2414437599
 40
0.2721472906
 40
0.3030068794
 40
0.3340255372
 40
0.3652027613
 40
0.3965346002
 40
0.4280137884
 40
0.4596299473
 40
0.4913698423
 40
0.5232176895
 40
0.5551555049
 40
0.5871634868
 40
0.6192204263
 40
0.6513041383
 40
0.683391905
 40
0.7154609283
 40
0.7474887827
 40
0.7794538622
 40
0.8113358179
 40
0.8431159726
 40
0.8747777271
 40
0.9063068788
 40
0.9376920781
 40
0.9689247389
 40
1.0
 40
1.0
 40
1.0
 40
1.0
 10
6.9824050659
 20
8.4726081163
 30
0.0
 10
6.9881119146
 20
8.4781204753
 30
0.0
 10
6.9999744066
 20
8.4887002613
 30
0.0
 10
7.0189799006
 20
8.5031133792
 30
0.0
 10
7.0391000662
 20
8.5159977439
 30
0.0
 10
7.0602224662
 20
8.5272810935
 30
0.0
 10
7.0822309759
 20
8.53690178
 30
0.0
 10
7.1050041321
 20
8.5448069195
 30
0.0
 10
7.1284164421
 20
8.5509532593
 30
0.0
 10
7.1523389208
 20
8.5553072431
 30
0.0
 10
7.1766398558
 20
8.5578452207
 30
0.0
 10
7.2011855241
 20
8.5585535478
 30
0.0
 10
7.2258409313
 20
8.5574286466
 30
0.0
 10
7.2504705488
 20
8.5544770077
 30
0.0
 10
7.2749390523
 20
8.5497151413
 30
0.0
 10
7.2991120565
 20
8.5431694745
 30
0.0
 10
7.3228568434
 20
8.534876198
 30
0.0
 10
7.3460430808
 20
8.5248810615
 30
0.0
 10
7.3685435269
 20
8.5132391186
 30
0.0
 10
7.3902347197
 20
8.5000144236
 30
0.0
 10
7.4109976448
 20
8.4852796802
 30
0.0
 10
7.4307183803
 20
8.4691158441
 30
0.0
 10
7.4492887146
 20
8.4516116818
 30
0.0
 10
7.4666067333
 20
8.4328632876
 30
0.0
 10
7.4825773728
 20
8.412973561
 30
0.0
 10
7.4971129367
 20
8.3920516475
 30
0.0
 10
7.5101335739
 20
8.3702123474
 30
0.0
 10
7.5215677107
 20
8.347575489
 30
0.0
 10
7.53135245
 20
8.3242652943
 30
0.0
 10
7.5394338944
 20
8.3004096517
 30
0.0
 10
7.5457674942
 20
8.2761396213
 30
0.0
 10
7.5503181879
 20
8.2515879905
 30
0.0
 10
7.5530607881
 20
8.2268913594
 30
0.0
 10
7.5536750706
 20
8.2103742241
 30
0.0
 10
7.5536750706
 20
8.2021396789
 30
0.0
  0
SPLINE
  5
3B2
100
AcDbEntity
  8
0
100
AcDbSpline
 62
7
  6
CONTINUOUS
 70
0
 71
3
 72
39
 73
35
 74
0
 42
0.0000001
 43
0.0000001
 44
0.0000000001
 40
0.0
 40
0.0
 40
0.0
 40
0.0
 40
0.0299424689
 40
0.059909316
 40
0.0899243238
 40
0.120010106
 40
0.150187569
 40
0.1804754262
 40
0.2108897768
 40
0.2414437599
 40
0.2721472906
 40
0.3030068794
 40
0.3340255372
 40
0.3652027613
 40
0.3965346002
 40
0.4280137884
 40
0.4596299473
 40
0.4913698423
 40
0.5232176895
 40
0.5551555049
 40
0.5871634868
 40
0.6192204263
 40
0.6513041383
 40
0.683391905
 40
0.7154609283
 40
0.7474887827
 40
0.7794538622
 40
0.8113358179
 40
0.8431159726
 40
0.8747777271
 40
0.9063068788
 40
0.9376920781
 40
0.9689247389
 40
1.0
 40
1.0
 40
1.0
 40
1.0
 10
13.504336549
 20
8.0203106318
 30
0.0
 10
13.5100433977
 20
8.0258229908
 30
0.0
 10
13.5219058897
 20
8.0364027767
 30
0.0
 10
13.5409113837
 20
8.0508158947
 30
0.0
 10
13.5610315493
 20
8.0637002593
 30
0.0
 10
13.5821539493
 20
8.0749836089
 30
0.0
 10
13.604162459
 20
8.0846042954
 30
0.0
 10
13.6269356152
 20
8.092509435
 30
0.0
 10
13.6503479252
 20
8.0986557748
 30
0.0
 10
13.6742704039
 20
8.1030097586
 30
0.0
 10
13.6985713389
 20
8.1055477361
 30
0.0
 10
13.7231170072
 20
8.1062560633
 30
0.0
 10
13.7477724144
 20
8.105131162
 30
0.0
 10
13.7724020319
 20
8.1021795232
 30
0.0
 10
13.7968705354
 20
8.0974176567
 30
0.0
 10
13.8210435396
 20
8.0908719899
 30
0.0
 10
13.8447883265
 20
8.0825787135
 30
0.0
 10
13.8679745639
 20
8.0725835769
 30
0.0
 10
13.89047501
 20
8.060941634
 30
0.0
 10
13.9121662028
 20
8.047716939
 30
0.0
 10
13.9329291279
 20
8.0329821956
 30
0.0
 10
13.9526498634
 20
8.0168183595
 30
0.0
 10
13.9712201977
 20
7.9993141973
 30
0.0
 10
13.9885382164
 20
7.9805658031
 30
0.0
 10
14.0045088559
 20
7.9606760765
 30
0.0
 10
14.0190444198
 20
7.9397541629
 30
0.0
 10
14.032065057
 20
7.9179148629
 30
0.0
 10
14.0434991938
 20
7.8952780045
 30
0.0
 10
14.0532839331
 20
7.8719678097
 30
0.0
 10
14.0613653775
 20
7.8481121671
 30
0.0
 10
14.0676989773
 20
7.8238421368
 30
0.0
 10
14.072249671
 20
7.799290506
 30
0.0
 10
14.0749922712
 20
7.7745938749
 30
0.0
 10
14.0756065537
 20
7.7580767395
 30
0.0
 10
14.0756065537
 20
7.7498421943
 30
0.0
  0
SPLINE
  5
3B3
100
AcDbEntity
  8
0
100
AcDbSpline
 62
7
  6
CONTINUOUS
 70
0
 71
3
 72
43
 73
39
 74
0
 42
0.0000001
 43
0.0000001
 44
0.0000000001
 40
0.0
 40
0.0
 40
0.0
 40
0.0
 40
0.014999742
 40
0.0300222933
 40
0.045069289
 40
0.0601422483
 40
0.0903673873
 40
0.1207117554
 40
0.1359332073
 40
0.1511871887
 40
0.1664743278
 40
0.1817951128
 40
0.2125348752
 40
0.2434115897
 40
0.2744240785
 40
0.3055689614
 40
0.3368407387
 40
0.3682319033
 40
0.3997330815
 40
0.4313331978
 40
0.4630196611
 40
0.4947785687
 40
0.5265949253
 40
0.5584528745
 40
0.5903359394
 40
0.6222272691
 40
0.6541098903
 40
0.6859669588
 40
0.7177820109
 40
0.7495392099
 40
0.7812235863
 40
0.8128212694
 40
0.8443197034
 40
0.8757078621
 40
0.9069763946
 40
0.938117919
 40
0.9691267954
 40
1.0
 40
1.0
 40
1.0
 40
1.0
 10
10.1666682224
 20
8.6243083981
 30
0.0
 10
10.1731238416
 20
8.6272383351
 30
0.0
 10
10.1861454049
 20
8.6328840507
 30
0.0
 10
10.2059673912
 20
8.6406940486
 30
0.0
 10
10.2260741583
 20
8.6478438831
 30
0.0
 10
10.2532566
 20
8.6564941278
 30
0.0
 10
10.287852953
 20
8.6656192339
 30
0.0
 10
10.3230468701
 20
8.6724419972
 30
0.0
 10
10.3515066894
 20
8.6765153619
 30
0.0
 10
10.3730103681
 20
8.6788769025
 30
0.0
 10
10.3946264472
 20
8.6805390171
 30
0.0
 10
10.4235973079
 20
8.6818216615
 30
0.0
 10
10.4599876795
 20
8.6816638125
 30
0.0
 10
10.5036936579
 20
8.6786661514
 30
0.0
 10
10.5473113188
 20
8.6728729971
 30
0.0
 10
10.5906601245
 20
8.6643083629
 30
0.0
 10
10.6335622375
 20
8.6530077453
 30
0.0
 10
10.6758412764
 20
8.6390178266
 30
0.0
 10
10.7173235635
 20
8.6223963174
 30
0.0
 10
10.7578386884
 20
8.6032117064
 30
0.0
 10
10.7972202381
 20
8.5815429799
 30
0.0
 10
10.835306464
 20
8.5574792963
 30
0.0
 10
10.8719409423
 20
8.531119621
 30
0.0
 10
10.9069732109
 20
8.5025723228
 30
0.0
 10
10.9402593813
 20
8.471954729
 30
0.0
 10
10.9716627241
 20
8.4393926465
 30
0.0
 10
11.0010542267
 20
8.4050198485
 30
0.0
 10
11.0283131191
 20
8.3689775294
 30
0.0
 10
11.0533273665
 20
8.3314137292
 30
0.0
 10
11.0759941267
 20
8.2924827302
 30
0.0
 10
11.0962201712
 20
8.2523444307
 30
0.0
 10
11.1139222634
 20
8.2111636886
 30
0.0
 10
11.1290275112
 20
8.1691096702
 30
0.0
 10
11.1414736369
 20
8.126355094
 30
0.0
 10
11.1512093091
 20
8.0830757774
 30
0.0
 10
11.1581941959
 20
8.0394489855
 30
0.0
 10
11.1623994246
 20
7.9956563527
 30
0.0
 10
11.1633400849
 20
7.9664003045
 30
0.0
 10
11.1633400849
 20
7.9518085599
 30
0.0
  0
SPLINE
  5
3B4
100
AcDbEntity
  8
0
100
AcDbSpline
 62
7
  6
CONTINUOUS
 70
0
 71
3
 72
60
 73
56
 74
0
 42
0.0000001
 43
0.0000001
 44
0.0000000001
 40
0.0
 40
0.0
 40
0.0
 40
0.0
 40
0.0027758442
 40
0.0055595974
 40
0.0083590905
 40
0.0111820121
 40
0.0140358493
 40
0.0169278177
 40
0.022851653
 40
0.0290063909
 40
0.0354367419
 40
0.0387681448
 40
0.0421823378
 40
0.0492731305
 40
0.0567371465
 40
0.0645961914
 40
0.0728678354
 40
0.0815658032
 40
0.090700695
 40
0.10028023
 40
0.1103098407
 40
0.120792778
 40
0.1317305986
 40
0.143123166
 40
0.1549690593
 40
0.167265505
 40
0.1800087299
 40
0.1931938481
 40
0.206815175
 40
0.2208660874
 40
0.235339308
 40
0.250226751
 40
0.2655197837
 40
0.2812090655
 40
0.2972847914
 40
0.3137365292
 40
0.3305534468
 40
0.347724153
 40
0.3652369092
 40
0.3830794766
 40
0.4197029569
 40
0.4574901813
 40
0.496331037
 40
0.5361108622
 40
0.5767110374
 40
0.6180095499
 40
0.6598815424
 40
0.7021998488
 40
0.744835522
 40
0.7876583565
 40
0.8305374083
 40
0.8733415093
 40
0.9159397945
 40
0.9582021934
 40
1.0
 40
1.0
 40
1.0
 40
1.0
 10
13.7607582418
 20
11.3535436058
 30
0.0
 10
13.7607582377
 20
11.3524797439
 30
0.0
 10
13.7606991871
 20
11.3503485207
 30
0.0
 10
13.760433676
 20
11.3471543203
 30
0.0
 10
13.7599913007
 20
11.343961484
 30
0.0
 10
13.7593721995
 20
11.3407708798
 30
0.0
 10
13.7585764541
 20
11.3375831194
 30
0.0
 10
13.7572701211
 20
11.333303937
 30
0.0
 10
13.7551796536
 20
11.3279499829
 30
0.0
 10
13.751987972
 20
11.3216046974
 30
0.0
 10
13.7487840036
 20
11.3164050118
 30
0.0
 10
13.7458885874
 20
11.3122666159
 30
0.0
 10
13.7426873742
 20
11.3080375676
 30
0.0
 10
13.7382365361
 20
11.302774716
 30
0.0
 10
13.7322760081
 20
11.296581755
 30
0.0
 10
13.7256350496
 20
11.2904373289
 30
0.0
 10
13.7183191618
 20
11.2843462348
 30
0.0
 10
13.710334235
 20
11.2783127505
 30
0.0
 10
13.7016865616
 20
11.2723416098
 30
0.0
 10
13.6923831007
 20
11.2664372828
 30
0.0
 10
13.6824312212
 20
11.260604549
 30
0.0
 10
13.6718389567
 20
11.2548479112
 30
0.0
 10
13.6606147794
 20
11.2491721222
 30
0.0
 10
13.6487677895
 20
11.2435816387
 30
0.0
 10
13.6363075375
 20
11.2380811256
 30
0.0
 10
13.6232441615
 20
11.2326749428
 30
0.0
 10
13.6095882506
 20
11.2273676263
 30
0.0
 10
13.5953509429
 20
11.2221634042
 30
0.0
 10
13.5805438218
 20
11.2170666555
 30
0.0
 10
13.5651789836
 20
11.2120814514
 30
0.0
 10
13.5492689601
 20
11.2072119924
 30
0.0
 10
13.5328267621
 20
11.2024621731
 30
0.0
 10
13.5158658222
 20
11.1978359989
 30
0.0
 10
13.49840002
 20
11.1933371711
 30
0.0
 10
13.4804436401
 20
11.1889694856
 30
0.0
 10
13.4620113838
 20
11.1847364367
 30
0.0
 10
13.4431183362
 20
11.1806415963
 30
0.0
 10
13.4237799746
 20
11.1766882444
 30
0.0
 10
13.4040121173
 20
11.172879696
 30
0.0
 10
13.3768682054
 20
11.1679561169
 30
0.0
 10
13.3419807048
 20
11.1621985188
 30
0.0
 10
13.2990225878
 20
11.1559722101
 30
0.0
 10
13.254756475
 20
11.1503908537
 30
0.0
 10
13.2093274244
 20
11.1454728715
 30
0.0
 10
13.1628841486
 20
11.1412345268
 30
0.0
 10
13.1155787716
 20
11.1376898199
 30
0.0
 10
13.0675662518
 20
11.1348504594
 30
0.0
 10
13.0190038873
 20
11.132725821
 30
0.0
 10
12.97005079
 20
11.1313229193
 30
0.0
 10
12.9208673621
 20
11.1306463853
 30
0.0
 10
12.8716147625
 20
11.1306984524
 30
0.0
 10
12.8224543906
 20
11.1314789477
 30
0.0
 10
12.7735472918
 20
11.1329852981
 30
0.0
 10
12.7250538729
 20
11.1352125209
 30
0.0
 10
12.6928961506
 20
11.1371859306
 30
0.0
 10
12.6769152301
 20
11.1382942112
 30
0.0
  0
SPLINE
  5
3B5
100
AcDbEntity
  8
0
100
AcDbSpline
 62
7
  6
CONTINUOUS
 70
0
 71
3
 72
54
 73
50
 74
0
 42
0.0000001
 43
0.0000001
 44
0.0000000001
 40
0.0
 40
0.0
 40
0.0
 40
0.0
 40
0.0063158427
 40
0.0126705974
 40
0.0191023953
 40
0.0256479035
 40
0.0323417516
 40
0.0392160545
 40
0.0536138127
 40
0.061194488
 40
0.0690562166
 40
0.0772172825
 40
0.0856936302
 40
0.0944989909
 40
0.1036450473
 40
0.113141787
 40
0.1229974971
 40
0.1332190617
 40
0.1438121259
 40
0.1547810799
 40
0.1661293869
 40
0.1778595312
 40
0.189973133
 40
0.2024711534
 40
0.2153537503
 40
0.2286205275
 40
0.2422705277
 40
0.256302183
 40
0.2707135528
 40
0.2855021644
 40
0.300665138
 40
0.316199276
 40
0.3321009043
 40
0.3649900029
 40
0.3992976831
 40
0.4349839512
 40
0.472004695
 40
0.5103120262
 40
0.5498546333
 40
0.5905781015
 40
0.6324251619
 40
0.6753358913
 40
0.7192479428
 40
0.7640967229
 40
0.8098156864
 40
0.8563364658
 40
0.9035883331
 40
0.9515014468
 40
1.0
 40
1.0
 40
1.0
 40
1.0
 10
14.9114754581
 20
5.6701362307
 30
0.0
 10
14.909481039
 20
5.6702745481
 30
0.0
 10
14.9054893357
 20
5.6707152661
 30
0.0
 10
14.8995465284
 20
5.6718640965
 30
0.0
 10
14.8936434329
 20
5.6735005018
 30
0.0
 10
14.887783514
 20
5.6756232593
 30
0.0
 10
14.8819690909
 20
5.6782311663
 30
0.0
 10
14.8741618344
 20
5.6824162406
 30
0.0
 10
14.8665666528
 20
5.6875394981
 30
0.0
 10
14.859216388
 20
5.6934764623
 30
0.0
 10
14.8536645205
 20
5.6984820926
 30
0.0
 10
14.8481718784
 20
5.703960694
 30
0.0
 10
14.8427399263
 20
5.7099104079
 30
0.0
 10
14.8373708788
 20
5.7163286483
 30
0.0
 10
14.8320666321
 20
5.7232127582
 30
0.0
 10
14.8268293392
 20
5.7305599965
 30
0.0
 10
14.8216609563
 20
5.7383673336
 30
0.0
 10
14.8165635163
 20
5.7466316109
 30
0.0
 10
14.8115391107
 20
5.7553495106
 30
0.0
 10
14.8065896489
 20
5.7645174467
 30
0.0
 10
14.801717202
 20
5.774131728
 30
0.0
 10
14.7969237252
 20
5.7841884289
 30
0.0
 10
14.7922111187
 20
5.7946834329
 30
0.0
 10
14.7875813965
 20
5.8056124836
 30
0.0
 10
14.783036372
 20
5.8169710833
 30
0.0
 10
14.7785779403
 20
5.8287545911
 30
0.0
 10
14.7742079678
 20
5.8409581837
 30
0.0
 10
14.7699281778
 20
5.8535768367
 30
0.0
 10
14.7657404116
 20
5.8666053854
 30
0.0
 10
14.7616463557
 20
5.8800384668
 30
0.0
 10
14.7576476879
 20
5.8938705524
 30
0.0
 10
14.7537461004
 20
5.9080959781
 30
0.0
 10
14.748617915
 20
5.9278014286
 30
0.0
 10
14.7424758264
 20
5.9533810151
 30
0.0
 10
14.735597503
 20
5.9852153954
 30
0.0
 10
14.7291426093
 20
6.0184714056
 30
0.0
 10
14.7231218908
 20
6.0530942436
 30
0.0
 10
14.7175453789
 20
6.0890270147
 30
0.0
 10
14.7124223545
 20
6.1262105548
 30
0.0
 10
14.7077613566
 20
6.1645836332
 30
0.0
 10
14.7035701656
 20
6.2040830327
 30
0.0
 10
14.6998557667
 20
6.2446436544
 30
0.0
 10
14.696624341
 20
6.2861986158
 30
0.0
 10
14.6938812713
 20
6.328679398
 30
0.0
 10
14.6916311411
 20
6.3720159739
 30
0.0
 10
14.6898777368
 20
6.4161367094
 30
0.0
 10
14.6886239095
 20
6.4609692433
 30
0.0
 10
14.6878718704
 20
6.506439034
 30
0.0
 10
14.6877067287
 20
6.5369573522
 30
0.0
 10
14.6877067287
 20
6.5523090288
 30
0.0
  0
SPLINE
  5
3B6
100
AcDbEntity
  8
0
100
AcDbSpline
 62
7
  6
CONTINUOUS
 70
0
 71
3
 72
54
 73
50
 74
0
 42
0.0000001
 43
0.0000001
 44
0.0000000001
 40
0.0
 40
0.0
 40
0.0
 40
0.0
 40
0.0063158427
 40
0.0126705974
 40
0.0191023953
 40
0.0256479035
 40
0.0323417516
 40
0.0392160545
 40
0.0536138127
 40
0.061194488
 40
0.0690562166
 40
0.0772172825
 40
0.0856936302
 40
0.0944989909
 40
0.1036450473
 40
0.113141787
 40
0.1229974971
 40
0.1332190617
 40
0.1438121259
 40
0.1547810799
 40
0.1661293869
 40
0.1778595312
 40
0.189973133
 40
0.2024711534
 40
0.2153537503
 40
0.2286205275
 40
0.2422705277
 40
0.256302183
 40
0.2707135528
 40
0.2855021644
 40
0.300665138
 40
0.316199276
 40
0.3321009043
 40
0.3649900029
 40
0.3992976831
 40
0.4349839512
 40
0.472004695
 40
0.5103120262
 40
0.5498546333
 40
0.5905781015
 40
0.6324251619
 40
0.6753358913
 40
0.7192479428
 40
0.7640967229
 40
0.8098156864
 40
0.8563364658
 40
0.9035883331
 40
0.9515014468
 40
1.0
 40
1.0
 40
1.0
 40
1.0
 10
14.9114754581
 20
8.6896207028
 30
0.0
 10
14.909481039
 20
8.6897590203
 30
0.0
 10
14.9054893357
 20
8.6901997383
 30
0.0
 10
14.8995465284
 20
8.6913485686
 30
0.0
 10
14.8936434329
 20
8.692984974
 30
0.0
 10
14.887783514
 20
8.6951077315
 30
0.0
 10
14.8819690909
 20
8.6977156384
 30
0.0
 10
14.8741618344
 20
8.7019007128
 30
0.0
 10
14.8665666528
 20
8.7070239703
 30
0.0
 10
14.859216388
 20
8.7129609345
 30
0.0
 10
14.8536645205
 20
8.7179665647
 30
0.0
 10
14.8481718784
 20
8.7234451662
 30
0.0
 10
14.8427399263
 20
8.72939488
 30
0.0
 10
14.8373708788
 20
8.7358131205
 30
0.0
 10
14.8320666321
 20
8.7426972304
 30
0.0
 10
14.8268293392
 20
8.7500444687
 30
0.0
 10
14.8216609563
 20
8.7578518058
 30
0.0
 10
14.8165635163
 20
8.766116083
 30
0.0
 10
14.8115391107
 20
8.7748339828
 30
0.0
 10
14.8065896489
 20
8.7840019189
 30
0.0
 10
14.801717202
 20
8.7936162002
 30
0.0
 10
14.7969237252
 20
8.8036729011
 30
0.0
 10
14.7922111187
 20
8.8141679051
 30
0.0
 10
14.7875813965
 20
8.8250969558
 30
0.0
 10
14.783036372
 20
8.8364555555
 30
0.0
 10
14.7785779403
 20
8.8482390632
 30
0.0
 10
14.7742079678
 20
8.8604426559
 30
0.0
 10
14.7699281778
 20
8.8730613089
 30
0.0
 10
14.7657404116
 20
8.8860898575
 30
0.0
 10
14.7616463557
 20
8.899522939
 30
0.0
 10
14.7576476879
 20
8.9133550245
 30
0.0
 10
14.7537461004
 20
8.9275804502
 30
0.0
 10
14.748617915
 20
8.9472859007
 30
0.0
 10
14.7424758264
 20
8.9728654873
 30
0.0
 10
14.735597503
 20
9.0046998676
 30
0.0
 10
14.7291426093
 20
9.0379558778
 30
0.0
 10
14.7231218908
 20
9.0725787158
 30
0.0
 10
14.7175453789
 20
9.1085114869
 30
0.0
 10
14.7124223545
 20
9.1456950269
 30
0.0
 10
14.7077613566
 20
9.1840681053
 30
0.0
 10
14.7035701656
 20
9.2235675049
 30
0.0
 10
14.6998557667
 20
9.2641281265
 30
0.0
 10
14.696624341
 20
9.305683088
 30
0.0
 10
14.6938812713
 20
9.3481638702
 30
0.0
 10
14.6916311411
 20
9.3915004461
 30
0.0
 10
14.6898777368
 20
9.4356211815
 30
0.0
 10
14.6886239095
 20
9.4804537155
 30
0.0
 10
14.6878718704
 20
9.5259235062
 30
0.0
 10
14.6877067287
 20
9.5564418244
 30
0.0
 10
14.6877067287
 20
9.571793501
 30
0.0
  0
SPLINE
  5
3B7
100
AcDbEntity
  8
0
100
AcDbSpline
 62
7
  6
CONTINUOUS
 70
0
 71
3
 72
23
 73
19
 74
0
 42
0.0000001
 43
0.0000001
 44
0.0000000001
 40
0.0
 40
0.0
 40
0.0
 40
0.0
 40
0.0637757517
 40
0.1273453038
 40
0.1907021142
 40
0.2538559682
 40
0.3168132565
 40
0.3795821027
 40
0.442173382
 40
0.5045993411
 40
0.5668738656
 40
0.6290123776
 40
0.6910316412
 40
0.7529496359
 40
0.8147853464
 40
0.8765585919
 40
0.9382898467
 40
1.0
 40
1.0
 40
1.0
 40
1.0
 10
13.4110495458
 20
7.7959293794
 30
0.0
 10
13.4110495458
 20
7.8012367979
 30
0.0
 10
13.4113036367
 20
7.8118362719
 30
0.0
 10
13.4124501844
 20
7.8276709694
 30
0.0
 10
13.4143593079
 20
7.8433802276
 30
0.0
 10
13.4170264387
 20
7.8589269509
 30
0.0
 10
13.4204454677
 20
7.8742757591
 30
0.0
 10
13.4246085751
 20
7.8893911693
 30
0.0
 10
13.4295062528
 20
7.9042382934
 30
0.0
 10
13.4351271747
 20
7.9187829328
 30
0.0
 10
13.4414583909
 20
7.9329915534
 30
0.0
 10
13.4484854279
 20
7.9468313344
 30
0.0
 10
13.4561920302
 20
7.9602703804
 30
0.0
 10
13.464560425
 20
7.9732777176
 30
0.0
 10
13.4735713941
 20
7.9858232477
 30
0.0
 10
13.4832042129
 20
7.9978781583
 30
0.0
 10
13.4934362391
 20
8.0094143134
 30
0.0
 10
13.5006427921
 20
8.0167427584
 30
0.0
 10
13.504336549
 20
8.0203106318
 30
0.0
  0
SPLINE
  5
3B8
100
AcDbEntity
  8
0
100
AcDbSpline
 62
7
  6
CONTINUOUS
 70
0
 71
3
 72
39
 73
35
 74
0
 42
0.0000001
 43
0.0000001
 44
0.0000000001
 40
0.0
 40
0.0
 40
0.0
 40
0.0
 40
0.0299424689
 40
0.059909316
 40
0.0899243238
 40
0.120010106
 40
0.150187569
 40
0.1804754262
 40
0.2108897768
 40
0.2414437599
 40
0.2721472906
 40
0.3030068794
 40
0.3340255372
 40
0.3652027613
 40
0.3965346002
 40
0.4280137884
 40
0.4596299473
 40
0.4913698423
 40
0.5232176895
 40
0.5551555049
 40
0.5871634868
 40
0.6192204263
 40
0.6513041383
 40
0.683391905
 40
0.7154609283
 40
0.7474887827
 40
0.7794538622
 40
0.8113358179
 40
0.8431159726
 40
0.8747777271
 40
0.9063068788
 40
0.9376920781
 40
0.9689247389
 40
1.0
 40
1.0
 40
1.0
 40
1.0
 10
7.4603880675
 20
7.9777584265
 30
0.0
 10
7.4546812187
 20
7.9722460675
 30
0.0
 10
7.4428187267
 20
7.9616662816
 30
0.0
 10
7.4238132328
 20
7.9472531636
 30
0.0
 10
7.4036930671
 20
7.934368799
 30
0.0
 10
7.3825706671
 20
7.9230854494
 30
0.0
 10
7.3605621574
 20
7.9134647629
 30
0.0
 10
7.3377890012
 20
7.9055596233
 30
0.0
 10
7.3143766912
 20
7.8994132835
 30
0.0
 10
7.2904542125
 20
7.8950592997
 30
0.0
 10
7.2661532775
 20
7.8925213221
 30
0.0
 10
7.2416076092
 20
7.891812995
 30
0.0
 10
7.216952202
 20
7.8929378963
 30
0.0
 10
7.1923225845
 20
7.8958895351
 30
0.0
 10
7.167854081
 20
7.9006514016
 30
0.0
 10
7.1436810768
 20
7.9071970683
 30
0.0
 10
7.1199362899
 20
7.9154903448
 30
0.0
 10
7.0967500525
 20
7.9254854813
 30
0.0
 10
7.0742496064
 20
7.9371274243
 30
0.0
 10
7.0525584136
 20
7.9503521193
 30
0.0
 10
7.0317954885
 20
7.9650868627
 30
0.0
 10
7.012074753
 20
7.9812506988
 30
0.0
 10
6.9935044187
 20
7.998754861
 30
0.0
 10
6.9761864
 20
8.0175032552
 30
0.0
 10
6.9602157605
 20
8.0373929818
 30
0.0
 10
6.9456801966
 20
8.0583148953
 30
0.0
 10
6.9326595594
 20
8.0801541954
 30
0.0
 10
6.9212254226
 20
8.1027910538
 30
0.0
 10
6.9114406833
 20
8.1261012485
 30
0.0
 10
6.9033592389
 20
8.1499568911
 30
0.0
 10
6.8970256391
 20
8.1742269215
 30
0.0
 10
6.8924749454
 20
8.1987785523
 30
0.0
 10
6.8897323452
 20
8.2234751834
 30
0.0
 10
6.8891180627
 20
8.2399923187
 30
0.0
 10
6.8891180627
 20
8.2482268639
 30
0.0
  0
SPLINE
  5
3B9
100
AcDbEntity
  8
0
100
AcDbSpline
 62
7
  6
CONTINUOUS
 70
0
 71
3
 72
39
 73
35
 74
0
 42
0.0000001
 43
0.0000001
 44
0.0000000001
 40
0.0
 40
0.0
 40
0.0
 40
0.0
 40
0.0299424689
 40
0.059909316
 40
0.0899243238
 40
0.120010106
 40
0.150187569
 40
0.1804754262
 40
0.2108897768
 40
0.2414437599
 40
0.2721472906
 40
0.3030068794
 40
0.3340255372
 40
0.3652027613
 40
0.3965346002
 40
0.4280137884
 40
0.4596299473
 40
0.4913698423
 40
0.5232176895
 40
0.5551555049
 40
0.5871634868
 40
0.6192204263
 40
0.6513041383
 40
0.683391905
 40
0.7154609283
 40
0.7474887827
 40
0.7794538622
 40
0.8113358179
 40
0.8431159726
 40
0.8747777271
 40
0.9063068788
 40
0.9376920781
 40
0.9689247389
 40
1.0
 40
1.0
 40
1.0
 40
1.0
 10
13.9823195505
 20
7.5254609419
 30
0.0
 10
13.9766127018
 20
7.5199485829
 30
0.0
 10
13.9647502098
 20
7.509368797
 30
0.0
 10
13.9457447159
 20
7.494955679
 30
0.0
 10
13.9256245502
 20
7.4820713144
 30
0.0
 10
13.9045021502
 20
7.4707879648
 30
0.0
 10
13.8824936405
 20
7.4611672783
 30
0.0
 10
13.8597204843
 20
7.4532621387
 30
0.0
 10
13.8363081743
 20
7.4471157989
 30
0.0
 10
13.8123856956
 20
7.4427618152
 30
0.0
 10
13.7880847606
 20
7.4402238376
 30
0.0
 10
13.7635390923
 20
7.4395155104
 30
0.0
 10
13.7388836851
 20
7.4406404117
 30
0.0
 10
13.7142540676
 20
7.4435920506
 30
0.0
 10
13.6897855641
 20
7.448353917
 30
0.0
 10
13.6656125599
 20
7.4548995838
 30
0.0
 10
13.641867773
 20
7.4631928602
 30
0.0
 10
13.6186815356
 20
7.4731879968
 30
0.0
 10
13.5961810895
 20
7.4848299397
 30
0.0
 10
13.5744898967
 20
7.4980546347
 30
0.0
 10
13.5537269716
 20
7.5127893781
 30
0.0
 10
13.5340062361
 20
7.5289532142
 30
0.0
 10
13.5154359018
 20
7.5464573764
 30
0.0
 10
13.4981178831
 20
7.5652057706
 30
0.0
 10
13.4821472436
 20
7.5850954972
 30
0.0
 10
13.4676116797
 20
7.6060174108
 30
0.0
 10
13.4545910425
 20
7.6278567108
 30
0.0
 10
13.4431569057
 20
7.6504935693
 30
0.0
 10
13.4333721664
 20
7.673803764
 30
0.0
 10
13.425290722
 20
7.6976594066
 30
0.0
 10
13.4189571222
 20
7.7219294369
 30
0.0
 10
13.4144064285
 20
7.7464810677
 30
0.0
 10
13.4116638283
 20
7.7711776988
 30
0.0
 10
13.4110495458
 20
7.7876948342
 30
0.0
 10
13.4110495458
 20
7.7959293794
 30
0.0
  0
SPLINE
  5
3BA
100
AcDbEntity
  8
0
100
AcDbSpline
 62
7
  6
CONTINUOUS
 70
0
 71
3
 72
60
 73
56
 74
0
 42
0.0000001
 43
0.0000001
 44
0.0000000001
 40
0.0
 40
0.0
 40
0.0
 40
0.0
 40
0.0417737215
 40
0.0840362954
 40
0.1266575307
 40
0.1695051874
 40
0.2124464681
 40
0.2553480875
 40
0.2980769527
 40
0.3405006415
 40
0.3824879411
 40
0.4239093736
 40
0.4646377307
 40
0.5045486136
 40
0.543520985
 40
0.5814377367
 40
0.599965091
 40
0.6181867239
 40
0.6360893624
 40
0.6536601077
 40
0.6708864507
 40
0.6877562714
 40
0.7042579206
 40
0.7203801597
 40
0.7361123056
 40
0.7514441249
 40
0.7663660213
 40
0.7808689196
 40
0.7949444585
 40
0.8085849095
 40
0.8217833396
 40
0.8345336065
 40
0.8468304684
 40
0.8586696849
 40
0.8700480724
 40
0.8809637257
 40
0.8914160437
 40
0.9014060712
 40
0.9109365509
 40
0.9200123738
 40
0.9286407389
 40
0.9368317014
 40
0.9445985263
 40
0.9519583321
 40
0.9589326812
 40
0.9655482848
 40
0.9718377328
 40
0.9778400566
 40
0.9836011837
 40
0.9864084827
 40
0.9891757961
 40
0.9919106627
 40
0.9946209124
 40
0.9973146132
 40
1.0
 40
1.0
 40
1.0
 40
1.0
 10
15.298519171
 20
10.161793049
 30
0.0
 10
15.298519171
 20
10.1397790837
 30
0.0
 10
15.2981757308
 20
10.0954928451
 30
0.0
 10
15.2966574348
 20
10.0287616628
 30
0.0
 10
15.2941374451
 20
9.9614943465
 30
0.0
 10
15.2906240125
 20
9.893913529
 30
0.0
 10
15.286128754
 20
9.8262428319
 30
0.0
 10
15.2806665256
 20
9.7587061171
 30
0.0
 10
15.2742554228
 20
9.6915268288
 30
0.0
 10
15.266916698
 20
9.6249272108
 30
0.0
 10
15.2586746995
 20
9.5591275803
 30
0.0
 10
15.2495567895
 20
9.4943455839
 30
0.0
 10
15.2395932533
 20
9.4307954931
 30
0.0
 10
15.228817211
 20
9.3686874074
 30
0.0
 10
15.2172644722
 20
9.3082268372
 30
0.0
 10
15.2069443398
 20
9.2590113882
 30
0.0
 10
15.1983171158
 20
9.2206208523
 30
0.0
 10
15.1917268097
 20
9.1925841227
 30
0.0
 10
15.1849723804
 20
9.1651053217
 30
0.0
 10
15.1780594081
 20
9.1382071543
 30
0.0
 10
15.1709936448
 20
9.1119118706
 30
0.0
 10
15.163780914
 20
9.0862412136
 30
0.0
 10
15.1564272514
 20
9.0612164026
 30
0.0
 10
15.1489386832
 20
9.036858128
 30
0.0
 10
15.1413215058
 20
9.0131865096
 30
0.0
 10
15.1335819405
 20
8.9902211133
 30
0.0
 10
15.1257265034
 20
8.9679808906
 30
0.0
 10
15.1177616126
 20
8.9464842125
 30
0.0
 10
15.1096939544
 20
8.9257487987
 30
0.0
 10
15.1015301454
 20
8.9057917551
 30
0.0
 10
15.0932769928
 20
8.8866295107
 30
0.0
 10
15.0849413041
 20
8.8682778368
 30
0.0
 10
15.0765299622
 20
8.8507518159
 30
0.0
 10
15.068049943
 20
8.8340658162
 30
0.0
 10
15.0595081628
 20
8.8182335214
 30
0.0
 10
15.0509117219
 20
8.8032678314
 30
0.0
 10
15.0422675287
 20
8.7891809799
 30
0.0
 10
15.0335827309
 20
8.7759843452
 30
0.0
 10
15.0248641812
 20
8.7636886635
 30
0.0
 10
15.0161189526
 20
8.7523037667
 30
0.0
 10
15.0073537698
 20
8.7418388662
 30
0.0
 10
14.9985754623
 20
8.7323022892
 30
0.0
 10
14.9897905102
 20
8.7237017707
 30
0.0
 10
14.9810053178
 20
8.7160443182
 30
0.0
 10
14.9722259925
 20
8.7093364236
 30
0.0
 10
14.9634585151
 20
8.7035842302
 30
0.0
 10
14.9547085816
 20
8.6987934857
 30
0.0
 10
14.9459829181
 20
8.6949702265
 30
0.0
 10
14.9386728392
 20
8.6925743176
 30
0.0
 10
14.9328655595
 20
8.6911638463
 30
0.0
 10
14.9285590295
 20
8.690358665
 30
0.0
 10
14.9242655527
 20
8.6897975312
 30
0.0
 10
14.9199859476
 20
8.6894806229
 30
0.0
 10
14.9157214247
 20
8.6894081204
 30
0.0
 10
14.9128872154
 20
8.6895227943
 30
0.0
 10
14.9114754581
 20
8.6896207028
 30
0.0
  0
SPLINE
  5
3BB
100
AcDbEntity
  8
0
100
AcDbSpline
 62
7
  6
CONTINUOUS
 70
0
 71
3
 72
60
 73
56
 74
0
 42
0.0000001
 43
0.0000001
 44
0.0000000001
 40
0.0
 40
0.0
 40
0.0
 40
0.0
 40
0.0417737215
 40
0.0840362954
 40
0.1266575307
 40
0.1695051874
 40
0.2124464681
 40
0.2553480875
 40
0.2980769527
 40
0.3405006415
 40
0.3824879411
 40
0.4239093736
 40
0.4646377307
 40
0.5045486136
 40
0.543520985
 40
0.5814377367
 40
0.599965091
 40
0.6181867239
 40
0.6360893624
 40
0.6536601077
 40
0.6708864507
 40
0.6877562714
 40
0.7042579206
 40
0.7203801597
 40
0.7361123056
 40
0.7514441249
 40
0.7663660213
 40
0.7808689196
 40
0.7949444585
 40
0.8085849095
 40
0.8217833396
 40
0.8345336065
 40
0.8468304684
 40
0.8586696849
 40
0.8700480724
 40
0.8809637257
 40
0.8914160437
 40
0.9014060712
 40
0.9109365509
 40
0.9200123738
 40
0.9286407389
 40
0.9368317014
 40
0.9445985263
 40
0.9519583321
 40
0.9589326812
 40
0.9655482848
 40
0.9718377328
 40
0.9778400566
 40
0.9836011837
 40
0.9864084827
 40
0.9891757961
 40
0.9919106627
 40
0.9946209124
 40
0.9973146132
 40
1.0
 40
1.0
 40
1.0
 40
1.0
 10
15.298519171
 20
7.1423085769
 30
0.0
 10
15.298519171
 20
7.1202946115
 30
0.0
 10
15.2981757308
 20
7.0760083729
 30
0.0
 10
15.2966574348
 20
7.0092771906
 30
0.0
 10
15.2941374451
 20
6.9420098744
 30
0.0
 10
15.2906240125
 20
6.8744290568
 30
0.0
 10
15.286128754
 20
6.8067583597
 30
0.0
 10
15.2806665256
 20
6.7392216449
 30
0.0
 10
15.2742554228
 20
6.6720423566
 30
0.0
 10
15.266916698
 20
6.6054427386
 30
0.0
 10
15.2586746995
 20
6.5396431081
 30
0.0
 10
15.2495567895
 20
6.4748611117
 30
0.0
 10
15.2395932533
 20
6.4113110209
 30
0.0
 10
15.228817211
 20
6.3492029352
 30
0.0
 10
15.2172644722
 20
6.288742365
 30
0.0
 10
15.2069443398
 20
6.239526916
 30
0.0
 10
15.1983171158
 20
6.2011363801
 30
0.0
 10
15.1917268097
 20
6.1730996505
 30
0.0
 10
15.1849723804
 20
6.1456208495
 30
0.0
 10
15.1780594081
 20
6.1187226821
 30
0.0
 10
15.1709936448
 20
6.0924273984
 30
0.0
 10
15.163780914
 20
6.0667567414
 30
0.0
 10
15.1564272514
 20
6.0417319304
 30
0.0
 10
15.1489386832
 20
6.0173736558
 30
0.0
 10
15.1413215058
 20
5.9937020374
 30
0.0
 10
15.1335819405
 20
5.9707366411
 30
0.0
 10
15.1257265034
 20
5.9484964184
 30
0.0
 10
15.1177616126
 20
5.9269997403
 30
0.0
 10
15.1096939544
 20
5.9062643265
 30
0.0
 10
15.1015301454
 20
5.8863072829
 30
0.0
 10
15.0932769928
 20
5.8671450386
 30
0.0
 10
15.0849413041
 20
5.8487933646
 30
0.0
 10
15.0765299622
 20
5.8312673437
 30
0.0
 10
15.068049943
 20
5.814581344
 30
0.0
 10
15.0595081628
 20
5.7987490492
 30
0.0
 10
15.0509117219
 20
5.7837833592
 30
0.0
 10
15.0422675287
 20
5.7696965077
 30
0.0
 10
15.0335827309
 20
5.756499873
 30
0.0
 10
15.0248641812
 20
5.7442041914
 30
0.0
 10
15.0161189526
 20
5.7328192945
 30
0.0
 10
15.0073537698
 20
5.7223543941
 30
0.0
 10
14.9985754623
 20
5.712817817
 30
0.0
 10
14.9897905102
 20
5.7042172985
 30
0.0
 10
14.9810053178
 20
5.696559846
 30
0.0
 10
14.9722259925
 20
5.6898519514
 30
0.0
 10
14.9634585151
 20
5.684099758
 30
0.0
 10
14.9547085816
 20
5.6793090136
 30
0.0
 10
14.9459829181
 20
5.6754857543
 30
0.0
 10
14.9386728392
 20
5.6730898455
 30
0.0
 10
14.9328655595
 20
5.6716793741
 30
0.0
 10
14.9285590295
 20
5.6708741929
 30
0.0
 10
14.9242655527
 20
5.670313059
 30
0.0
 10
14.9199859476
 20
5.6699961508
 30
0.0
 10
14.9157214247
 20
5.6699236482
 30
0.0
 10
14.9128872154
 20
5.6700383221
 30
0.0
 10
14.9114754581
 20
5.6701362307
 30
0.0
  0
SPLINE
  5
3BC
100
AcDbEntity
  8
0
100
AcDbSpline
 62
7
  6
CONTINUOUS
 70
0
 71
3
 72
60
 73
56
 74
0
 42
0.0000001
 43
0.0000001
 44
0.0000000001
 40
0.0
 40
0.0
 40
0.0
 40
0.0
 40
0.0027758442
 40
0.0055595974
 40
0.0083590905
 40
0.0111820121
 40
0.0140358493
 40
0.0169278177
 40
0.022851653
 40
0.0290063909
 40
0.0354367419
 40
0.0387681448
 40
0.0421823378
 40
0.0492731305
 40
0.0567371465
 40
0.0645961914
 40
0.0728678354
 40
0.0815658032
 40
0.090700695
 40
0.10028023
 40
0.1103098407
 40
0.120792778
 40
0.1317305986
 40
0.143123166
 40
0.1549690593
 40
0.167265505
 40
0.1800087299
 40
0.1931938481
 40
0.206815175
 40
0.2208660874
 40
0.235339308
 40
0.250226751
 40
0.2655197837
 40
0.2812090655
 40
0.2972847914
 40
0.3137365292
 40
0.3305534468
 40
0.347724153
 40
0.3652369092
 40
0.3830794766
 40
0.4197029569
 40
0.4574901813
 40
0.496331037
 40
0.5361108622
 40
0.5767110374
 40
0.6180095499
 40
0.6598815424
 40
0.7021998488
 40
0.744835522
 40
0.7876583565
 40
0.8305374083
 40
0.8733415093
 40
0.9159397945
 40
0.9582021934
 40
1.0
 40
1.0
 40
1.0
 40
1.0
 10
12.0387582463
 20
11.3535444869
 30
0.0
 10
12.0387582503
 20
11.3546083488
 30
0.0
 10
12.038817301
 20
11.356739572
 30
0.0
 10
12.0390828121
 20
11.3599337724
 30
0.0
 10
12.0395251874
 20
11.3631266087
 30
0.0
 10
12.0401442886
 20
11.3663172129
 30
0.0
 10
12.040940034
 20
11.3695049733
 30
0.0
 10
12.042246367
 20
11.3737841557
 30
0.0
 10
12.0443368344
 20
11.3791381098
 30
0.0
 10
12.047528516
 20
11.3854833953
 30
0.0
 10
12.0507324845
 20
11.3906830809
 30
0.0
 10
12.0536279007
 20
11.3948214768
 30
0.0
 10
12.0568291138
 20
11.3990505251
 30
0.0
 10
12.0612799519
 20
11.4043133767
 30
0.0
 10
12.0672404799
 20
11.4105063377
 30
0.0
 10
12.0738814384
 20
11.4166507638
 30
0.0
 10
12.0811973263
 20
11.4227418579
 30
0.0
 10
12.089182253
 20
11.4287753422
 30
0.0
 10
12.0978299265
 20
11.4347464829
 30
0.0
 10
12.1071333873
 20
11.4406508099
 30
0.0
 10
12.1170852669
 20
11.4464835437
 30
0.0
 10
12.1276775314
 20
11.4522401815
 30
0.0
 10
12.1389017087
 20
11.4579159705
 30
0.0
 10
12.1507486986
 20
11.463506454
 30
0.0
 10
12.1632089506
 20
11.4690069671
 30
0.0
 10
12.1762723266
 20
11.4744131499
 30
0.0
 10
12.1899282374
 20
11.4797204664
 30
0.0
 10
12.2041655452
 20
11.4849246885
 30
0.0
 10
12.2189726663
 20
11.4900214372
 30
0.0
 10
12.2343375044
 20
11.4950066413
 30
0.0
 10
12.250247528
 20
11.4998761003
 30
0.0
 10
12.2666897259
 20
11.5046259196
 30
0.0
 10
12.2836506659
 20
11.5092520938
 30
0.0
 10
12.3011164681
 20
11.5137509216
 30
0.0
 10
12.319072848
 20
11.5181186071
 30
0.0
 10
12.3375051043
 20
11.522351656
 30
0.0
 10
12.3563981519
 20
11.5264464964
 30
0.0
 10
12.3757365134
 20
11.5303998483
 30
0.0
 10
12.3955043708
 20
11.5342083967
 30
0.0
 10
12.4226482827
 20
11.5391319758
 30
0.0
 10
12.4575357832
 20
11.5448895739
 30
0.0
 10
12.5004939003
 20
11.5511158826
 30
0.0
 10
12.5447600131
 20
11.556697239
 30
0.0
 10
12.5901890637
 20
11.5616152212
 30
0.0
 10
12.6366323395
 20
11.5658535659
 30
0.0
 10
12.6839377165
 20
11.5693982728
 30
0.0
 10
12.7319502363
 20
11.5722376333
 30
0.0
 10
12.7805126008
 20
11.5743622717
 30
0.0
 10
12.8294656981
 20
11.5757651734
 30
0.0
 10
12.8786491259
 20
11.5764417075
 30
0.0
 10
12.9279017256
 20
11.5763896403
 30
0.0
 10
12.9770620974
 20
11.575609145
 30
0.0
 10
13.0259691963
 20
11.5741027946
 30
0.0
 10
13.0744626152
 20
11.5718755718
 30
0.0
 10
13.1066203375
 20
11.5699021621
 30
0.0
 10
13.122601258
 20
11.5687938815
 30
0.0
  0
SPLINE
  5
3BD
100
AcDbEntity
  8
0
100
AcDbSpline
 62
7
  6
CONTINUOUS
 70
0
 71
3
 72
52
 73
48
 74
0
 42
0.0000001
 43
0.0000001
 44
0.0000000001
 40
0.0
 40
0.0
 40
0.0
 40
0.0
 40
0.0060374451
 40
0.0123407665
 40
0.0189382332
 40
0.025853747
 40
0.0331071982
 40
0.0407150037
 40
0.0486903792
 40
0.0570439358
 40
0.0657837996
 40
0.074916164
 40
0.0844453164
 40
0.0943740687
 40
0.104703787
 40
0.1154346506
 40
0.1265657542
 40
0.1380951853
 40
0.1500202233
 40
0.1623372605
 40
0.17504208
 40
0.1881296788
 40
0.2015945678
 40
0.2154305805
 40
0.2296311204
 40
0.2441890343
 40
0.259096751
 40
0.2743462625
 40
0.3058360848
 40
0.3385873397
 40
0.3725228505
 40
0.407560598
 40
0.443614234
 40
0.4805935502
 40
0.5184049143
 40
0.5569516832
 40
0.5961345996
 40
0.6358521776
 40
0.6760010801
 40
0.7164764915
 40
0.7571724802
 40
0.7979823792
 40
0.8387990941
 40
0.8795156363
 40
0.9200249995
 40
0.9602217187
 40
1.0
 40
1.0
 40
1.0
 40
1.0
 10
12.0466396459
 20
11.3237394117
 30
0.0
 10
12.0476880237
 20
11.3257310302
 30
0.0
 10
12.0500015571
 20
11.3297140271
 30
0.0
 10
12.0539995224
 20
11.3355398282
 30
0.0
 10
12.0585913688
 20
11.3413335527
 30
0.0
 10
12.0637732272
 20
11.3470911544
 30
0.0
 10
12.0695413137
 20
11.3528094025
 30
0.0
 10
12.0758916046
 20
11.358484616
 30
0.0
 10
12.0828196027
 20
11.3641133579
 30
0.0
 10
12.0903206416
 20
11.3696918297
 30
0.0
 10
12.0983894842
 20
11.3752165122
 30
0.0
 10
12.1070206724
 20
11.3806835547
 30
0.0
 10
12.1162082073
 20
11.3860893773
 30
0.0
 10
12.1259457964
 20
11.3914301793
 30
0.0
 10
12.1362266783
 20
11.3967023389
 30
0.0
 10
12.1470437361
 20
11.4019021734
 30
0.0
 10
12.1583894533
 20
11.4070260477
 30
0.0
 10
12.1702559194
 20
11.4120704284
 30
0.0
 10
12.1826348752
 20
11.4170317045
 30
0.0
 10
12.1955176551
 20
11.4219064948
 30
0.0
 10
12.208895273
 20
11.4266912595
 30
0.0
 10
12.2227583468
 20
11.4313827531
 30
0.0
 10
12.2370971846
 20
11.4359775596
 30
0.0
 10
12.2519017233
 20
11.440472544
 30
0.0
 10
12.2671615933
 20
11.4448644621
 30
0.0
 10
12.2828660791
 20
11.4491502676
 30
0.0
 10
12.2990041806
 20
11.4533269401
 30
0.0
 10
12.3213236554
 20
11.4588049345
 30
0.0
 10
12.3502294503
 20
11.4653439646
 30
0.0
 10
12.386098972
 20
11.4726292204
 30
0.0
 10
12.4234115548
 20
11.479413667
 30
0.0
 10
12.4620623819
 20
11.4856780902
 30
0.0
 10
12.5019430467
 20
11.4914047255
 30
0.0
 10
12.5429415754
 20
11.4965773474
 30
0.0
 10
12.5849428353
 20
11.501181303
 30
0.0
 10
12.6278288422
 20
11.5052035546
 30
0.0
 10
12.6714791045
 20
11.5086327155
 30
0.0
 10
12.715770965
 20
11.5114590812
 30
0.0
 10
12.7605799511
 20
11.5136746552
 30
0.0
 10
12.8057801266
 20
11.515273169
 30
0.0
 10
12.8512444536
 20
11.5162501028
 30
0.0
 10
12.8968451342
 20
11.5166026891
 30
0.0
 10
12.9424540259
 20
11.5163299402
 30
0.0
 10
12.9879428498
 20
11.5154326086
 30
0.0
 10
13.0331839398
 20
11.5139132622
 30
0.0
 10
13.0780498246
 20
11.5117761608
 30
0.0
 10
13.1078078538
 20
11.5099324037
 30
0.0
 10
13.122601258
 20
11.5089064777
 30
0.0
  0
SPLINE
  5
3BE
100
AcDbEntity
  8
0
100
AcDbSpline
 62
7
  6
CONTINUOUS
 70
0
 71
3
 72
55
 73
51
 74
0
 42
0.0000001
 43
0.0000001
 44
0.0000000001
 40
0.0
 40
0.0
 40
0.0
 40
0.0
 40
0.0055583057
 40
0.0112281018
 40
0.0170646316
 40
0.0231181162
 40
0.0294328959
 40
0.0360473386
 40
0.0429938998
 40
0.0502996816
 40
0.0579868788
 40
0.0660734531
 40
0.0745736313
 40
0.0834984409
 40
0.0928561594
 40
0.1026526466
 40
0.1128917484
 40
0.1235754416
 40
0.1347042146
 40
0.1462770636
 40
0.1582918664
 40
0.1707452716
 40
0.1836330669
 40
0.1969500033
 40
0.2106901473
 40
0.2248466797
 40
0.2394122137
 40
0.2543786043
 40
0.2697372135
 40
0.2854787569
 40
0.3015935039
 40
0.3180711778
 40
0.3349010844
 40
0.3520720738
 40
0.3873902386
 40
0.42392937
 40
0.46158717
 40
0.5002565267
 40
0.539826096
 40
0.5801808516
 40
0.6212026138
 40
0.662770562
 40
0.7047617381
 40
0.7470515388
 40
0.7895142163
 40
0.8320233345
 40
0.874452348
 40
0.9166748341
 40
0.9585655956
 40
1.0
 40
1.0
 40
1.0
 40
1.0
 10
12.0650066914
 20
11.2989279159
 30
0.0
 10
12.0651996657
 20
11.3009749825
 30
0.0
 10
12.0658159523
 20
11.3050920747
 30
0.0
 10
12.0674057801
 20
11.3112121342
 30
0.0
 10
12.0696639002
 20
11.3173138448
 30
0.0
 10
12.0725868063
 20
11.323390913
 30
0.0
 10
12.0761703574
 20
11.3294391635
 30
0.0
 10
12.0804106663
 20
11.3354542631
 30
0.0
 10
12.0853034385
 20
11.3414323761
 30
0.0
 10
12.0908444575
 20
11.3473694673
 30
0.0
 10
12.0970290714
 20
11.3532616132
 30
0.0
 10
12.1038524015
 20
11.3591046741
 30
0.0
 10
12.1113090902
 20
11.3648944981
 30
0.0
 10
12.119393352
 20
11.3706268339
 30
0.0
 10
12.1280989232
 20
11.3762973605
 30
0.0
 10
12.1374190155
 20
11.3819018001
 30
0.0
 10
12.1473463856
 20
11.3874357583
 30
0.0
 10
12.1578732326
 20
11.3928950055
 30
0.0
 10
12.1689913242
 20
11.3982751535
 30
0.0
 10
12.180691873
 20
11.4035720693
 30
0.0
 10
12.1929656765
 20
11.408781431
 30
0.0
 10
12.2058029984
 20
11.4138992291
 30
0.0
 10
12.2191936976
 20
11.4189212536
 30
0.0
 10
12.2331271289
 20
11.4238436335
 30
0.0
 10
12.2475922497
 20
11.4286623069
 30
0.0
 10
12.2625775467
 20
11.4333735492
 30
0.0
 10
12.2780711163
 20
11.4379734766
 30
0.0
 10
12.294060618
 20
11.4424585168
 30
0.0
 10
12.3105333302
 20
11.4468249877
 30
0.0
 10
12.3274761263
 20
11.4510694763
 30
0.0
 10
12.3448755131
 20
11.4551885214
 30
0.0
 10
12.3627176166
 20
11.4591788724
 30
0.0
 10
12.3809882344
 20
11.4630373238
 30
0.0
 10
12.4061368932
 20
11.4680488775
 30
0.0
 10
12.4385405275
 20
11.4739483428
 30
0.0
 10
12.4785396977
 20
11.480390529
 30
0.0
 10
12.5198822268
 20
11.486239389
 30
0.0
 10
12.5624362377
 20
11.4914761209
 30
0.0
 10
12.6060661463
 20
11.4960838649
 30
0.0
 10
12.6506328419
 20
11.5000478009
 30
0.0
 10
12.6959942131
 20
11.5033551811
 30
0.0
 10
12.7420055881
 20
11.505995373
 30
0.0
 10
12.7885202056
 20
11.5079598903
 30
0.0
 10
12.8353896898
 20
11.5092424208
 30
0.0
 10
12.8824645173
 20
11.5098388409
 30
0.0
 10
12.9295945288
 20
11.5097472396
 30
0.0
 10
12.9766293217
 20
11.5089679009
 30
0.0
 10
13.0234189682
 20
11.5075033443
 30
0.0
 10
13.0698139611
 20
11.5053582594
 30
0.0
 10
13.1005811772
 20
11.5034669026
 30
0.0
 10
13.1158719683
 20
11.5024064826
 30
0.0
  0
SPLINE
  5
3BF
100
AcDbEntity
  8
0
100
AcDbSpline
 62
7
  6
CONTINUOUS
 70
0
 71
3
 72
52
 73
48
 74
0
 42
0.0000001
 43
0.0000001
 44
0.0000000001
 40
0.0
 40
0.0
 40
0.0
 40
0.0
 40
0.0057769004
 40
0.0117750131
 40
0.0180322083
 40
0.0245812214
 40
0.031449724
 40
0.0386609329
 40
0.0462338731
 40
0.0541840725
 40
0.06252384
 40
0.0712628188
 40
0.0804082654
 40
0.08996538
 40
0.0999376187
 40
0.1103268016
 40
0.1211334745
 40
0.132356842
 40
0.1439951584
 40
0.1560455644
 40
0.168504452
 40
0.1813673001
 40
0.1946289461
 40
0.2082834977
 40
0.2223244699
 40
0.2367448104
 40
0.2515368946
 40
0.2666926654
 40
0.2980598882
 40
0.3307735216
 40
0.3647536988
 40
0.3999150076
 40
0.4361670915
 40
0.4734151916
 40
0.5115606465
 40
0.5505013629
 40
0.5901322641
 40
0.6303457265
 40
0.6710320033
 40
0.7120796424
 40
0.7533758938
 40
0.7948071345
 40
0.8362592192
 40
0.8776180571
 40
0.9187695369
 40
0.9596011088
 40
1.0
 40
1.0
 40
1.0
 40
1.0
 10
12.0893164767
 20
11.2782001798
 30
0.0
 10
12.0900165521
 20
11.2801317051
 30
0.0
 10
12.0916319312
 20
11.284002647
 30
0.0
 10
12.0946126167
 20
11.2896887752
 30
0.0
 10
12.0981878613
 20
11.2953483631
 30
0.0
 10
12.102354125
 20
11.3009769854
 30
0.0
 10
12.1071076985
 20
11.3065715295
 30
0.0
 10
12.1124449487
 20
11.3121283006
 30
0.0
 10
12.1183617157
 20
11.3176439344
 30
0.0
 10
12.1248537643
 20
11.3231146976
 30
0.0
 10
12.1319163276
 20
11.3285370232
 30
0.0
 10
12.1395443651
 20
11.333907136
 30
0.0
 10
12.1477323746
 20
11.3392213073
 30
0.0
 10
12.1564744488
 20
11.3444757945
 30
0.0
 10
12.1657642907
 20
11.3496667766
 30
0.0
 10
12.1755951334
 20
11.354790594
 30
0.0
 10
12.1859598674
 20
11.359843407
 30
0.0
 10
12.1968508986
 20
11.3648216553
 30
0.0
 10
12.2082603096
 20
11.3697215522
 30
0.0
 10
12.2201797177
 20
11.374539629
 30
0.0
 10
12.2326004145
 20
11.3792722173
 30
0.0
 10
12.2455132651
 20
11.3839159257
 30
0.0
 10
12.2589087985
 20
11.3884672523
 30
0.0
 10
12.2727771582
 20
11.3929228782
 30
0.0
 10
12.2871081462
 20
11.3972794965
 30
0.0
 10
12.3018912093
 20
11.4015338632
 30
0.0
 10
12.3171154755
 20
11.4056829014
 30
0.0
 10
12.3382299799
 20
11.4111327136
 30
0.0
 10
12.3656501544
 20
11.4176439406
 30
0.0
 10
12.399763202
 20
11.424903774
 30
0.0
 10
12.4353509007
 20
11.4316750238
 30
0.0
 10
12.4723083185
 20
11.4379375424
 30
0.0
 10
12.5105266633
 20
11.4436726743
 30
0.0
 10
12.5498932956
 20
11.4488633494
 30
0.0
 10
12.5902921649
 20
11.4534941218
 30
0.0
 10
12.6316041359
 20
11.4575512173
 30
0.0
 10
12.6737073545
 20
11.4610225729
 30
0.0
 10
12.7164776117
 20
11.46389787
 30
0.0
 10
12.759788716
 20
11.4661685639
 30
0.0
 10
12.8035128681
 20
11.4678279072
 30
0.0
 10
12.8475210462
 20
11.4688709719
 30
0.0
 10
12.8916833726
 20
11.4692946552
 30
0.0
 10
12.9358695503
 20
11.4690977079
 30
0.0
 10
12.9799491048
 20
11.4682806965
 30
0.0
 10
13.0237921373
 20
11.4668460768
 30
0.0
 10
13.0672689651
 20
11.4647980746
 30
0.0
 10
13.0961038416
 20
11.463016792
 30
0.0
 10
13.1104367729
 20
11.4620227998
 30
0.0
  0
SPLINE
  5
3C0
100
AcDbEntity
  8
0
100
AcDbSpline
 62
7
  6
CONTINUOUS
 70
0
 71
3
 72
23
 73
19
 74
0
 42
0.0000001
 43
0.0000001
 44
0.0000000001
 40
0.0
 40
0.0
 40
0.0
 40
0.0
 40
0.0554383549
 40
0.1125762417
 40
0.1712654434
 40
0.2313517264
 40
0.292675566
 40
0.3550728389
 40
0.4183754953
 40
0.4824122156
 40
0.5470090567
 40
0.6119900804
 40
0.6771780129
 40
0.7423947819
 40
0.8074624249
 40
0.8722029222
 40
0.9364407763
 40
1.0
 40
1.0
 40
1.0
 40
1.0
 10
12.4374411483
 20
11.1656884385
 30
0.0
 10
12.4497246718
 20
11.167882269
 30
0.0
 10
12.4747141339
 20
11.1720837906
 30
0.0
 10
12.5128436264
 20
11.1777615128
 30
0.0
 10
12.5521050367
 20
11.1828984639
 30
0.0
 10
12.5923833929
 20
11.1874794556
 30
0.0
 10
12.633560983
 20
11.1914909878
 30
0.0
 10
12.6755173644
 20
11.1949212321
 30
0.0
 10
12.7181298175
 20
11.1977600807
 30
0.0
 10
12.7612736837
 20
11.1999991695
 30
0.0
 10
12.8048227397
 20
11.2016319022
 30
0.0
 10
12.8486495732
 20
11.2026534713
 30
0.0
 10
12.8926259413
 20
11.2030608639
 30
0.0
 10
12.936623201
 20
11.2028528898
 30
0.0
 10
12.9805125364
 20
11.2020301425
 30
0.0
 10
13.0241657189
 20
11.200595075
 30
0.0
 10
13.0674547145
 20
11.1985518759
 30
0.0
 10
13.0961653363
 20
11.1967773385
 30
0.0
 10
13.1104367729
 20
11.195787611
 30
0.0
  0
SPLINE
  5
3C1
100
AcDbEntity
  8
0
100
AcDbSpline
 62
7
  6
CONTINUOUS
 70
0
 71
3
 72
45
 73
41
 74
0
 42
0.0000001
 43
0.0000001
 44
0.0000000001
 40
0.0
 40
0.0
 40
0.0
 40
0.0
 40
0.0139953023
 40
0.0213176987
 40
0.0288755297
 40
0.0366821724
 40
0.0447493701
 40
0.0530874928
 40
0.0617056198
 40
0.070611517
 40
0.0798119025
 40
0.0893125532
 40
0.099118226
 40
0.1092328822
 40
0.119659815
 40
0.1304015372
 40
0.1414599354
 40
0.1645307071
 40
0.1888781702
 40
0.2145001224
 40
0.2413882017
 40
0.269528816
 40
0.2989039098
 40
0.3294912217
 40
0.3612649722
 40
0.3941961483
 40
0.428252666
 40
0.4633998794
 40
0.4996006001
 40
0.536815334
 40
0.5750025926
 40
0.6141188238
 40
0.6541187372
 40
0.6949554176
 40
0.7365802656
 40
0.7789434385
 40
0.821993839
 40
0.8656785258
 40
0.9099442307
 40
1.0
 40
1.0
 40
1.0
 40
1.0
 10
13.7529131134
 20
11.3236704261
 30
0.0
 10
13.7514546153
 20
11.3264476428
 30
0.0
 10
13.7489848589
 20
11.3305519224
 30
0.0
 10
13.745244118
 20
11.3358351842
 30
0.0
 10
13.7421115692
 20
11.3398433483
 30
0.0
 10
13.7386960827
 20
11.3438350593
 30
0.0
 10
13.7349986909
 20
11.347809498
 30
0.0
 10
13.7310206934
 20
11.3517652955
 30
0.0
 10
13.7267633728
 20
11.3557011834
 30
0.0
 10
13.722228218
 20
11.3596159547
 30
0.0
 10
13.7174167334
 20
11.3635083508
 30
0.0
 10
13.7123304761
 20
11.3673770572
 30
0.0
 10
13.7069711783
 20
11.3712208614
 30
0.0
 10
13.7013406276
 20
11.375038518
 30
0.0
 10
13.6954406601
 20
11.3788287084
 30
0.0
 10
13.6892732518
 20
11.3825902442
 30
0.0
 10
13.6805730688
 20
11.3876370894
 30
0.0
 10
13.6690302919
 20
11.3938543836
 30
0.0
 10
13.6543358944
 20
11.4010790951
 30
0.0
 10
13.6386283579
 20
11.4081598797
 30
0.0
 10
13.6219286848
 20
11.4150873028
 30
0.0
 10
13.6042589538
 20
11.4218521417
 30
0.0
 10
13.5856426721
 20
11.428445238
 30
0.0
 10
13.5661046793
 20
11.4348577835
 30
0.0
 10
13.5456710781
 20
11.4410811118
 30
0.0
 10
13.5243692043
 20
11.4471067882
 30
0.0
 10
13.5022276063
 20
11.4529267377
 30
0.0
 10
13.4792759644
 20
11.4585330474
 30
0.0
 10
13.455545075
 20
11.4639181503
 30
0.0
 10
13.4310667996
 20
11.4690748064
 30
0.0
 10
13.4058740066
 20
11.4739959899
 30
0.0
 10
13.3800005454
 20
11.4786750944
 30
0.0
 10
13.3534811837
 20
11.4831057989
 30
0.0
 10
13.3263515679
 20
11.4872820752
 30
0.0
 10
13.2986481719
 20
11.4911983396
 30
0.0
 10
13.2704082075
 20
11.4948492764
 30
0.0
 10
13.2416697307
 20
11.4982299193
 30
0.0
 10
13.2124713592
 20
11.5013357992
 30
0.0
 10
13.1727530701
 20
11.5051264288
 30
0.0
 10
13.1427379557
 20
11.5075099929
 30
0.0
 10
13.122601258
 20
11.5089064777
 30
0.0
  0
SPLINE
  5
3C2
100
AcDbEntity
  8
0
100
AcDbSpline
 62
7
  6
CONTINUOUS
 70
0
 71
3
 72
51
 73
47
 74
0
 42
0.0000001
 43
0.0000001
 44
0.0000000001
 40
0.0
 40
0.0
 40
0.0
 40
0.0
 40
0.0064578767
 40
0.0129939098
 40
0.0196417201
 40
0.0264330517
 40
0.0333974818
 40
0.0405622154
 40
0.0479518619
 40
0.0555885531
 40
0.0634920095
 40
0.0716795187
 40
0.0801662613
 40
0.088965451
 40
0.0980883561
 40
0.1075446737
 40
0.1173426314
 40
0.1274889872
 40
0.1379893876
 40
0.1488484021
 40
0.1600694972
 40
0.1716553628
 40
0.1836078864
 40
0.1959281126
 40
0.2086165403
 40
0.2216730487
 40
0.2488857883
 40
0.2775559793
 40
0.3076649684
 40
0.3391879807
 40
0.3720950018
 40
0.406351214
 40
0.4419175041
 40
0.4787510246
 40
0.5168054073
 40
0.5560310434
 40
0.5963754983
 40
0.6377836445
 40
0.6801978448
 40
0.723558248
 40
0.7678029233
 40
0.8128681866
 40
0.8586882058
 40
0.9051956149
 40
0.9523244147
 40
1.0
 40
1.0
 40
1.0
 40
1.0
 10
13.7345127061
 20
11.2988970265
 30
0.0
 10
13.73437667
 20
11.3003485292
 30
0.0
 10
13.733989806
 20
11.3032596882
 30
0.0
 10
13.7330743417
 20
11.3076022588
 30
0.0
 10
13.7318216867
 20
11.3119382977
 30
0.0
 10
13.7302328434
 20
11.3162655729
 30
0.0
 10
13.7283087638
 20
11.3205823773
 30
0.0
 10
13.7260504392
 20
11.3248869151
 30
0.0
 10
13.7234591586
 20
11.3291776033
 30
0.0
 10
13.7205361451
 20
11.3334528345
 30
0.0
 10
13.7172826574
 20
11.3377109793
 30
0.0
 10
13.7137002054
 20
11.3419505473
 30
0.0
 10
13.7097902625
 20
11.3461699604
 30
0.0
 10
13.7055543843
 20
11.3503676002
 30
0.0
 10
13.7009943597
 20
11.3545419704
 30
0.0
 10
13.6961119847
 20
11.3586914642
 30
0.0
 10
13.6909091717
 20
11.3628144492
 30
0.0
 10
13.685388048
 20
11.3669094105
 30
0.0
 10
13.6795507786
 20
11.3709747228
 30
0.0
 10
13.6733996605
 20
11.3750087569
 30
0.0
 10
13.6669371852
 20
11.3790099965
 30
0.0
 10
13.6601659003
 20
11.3829768205
 30
0.0
 10
13.6530884895
 20
11.3869076268
 30
0.0
 10
13.6457078155
 20
11.390800908
 30
0.0
 10
13.6380267928
 20
11.3946550988
 30
0.0
 10
13.6272398697
 20
11.3998109892
 30
0.0
 10
13.613015834
 20
11.4061348929
 30
0.0
 10
13.5950278481
 20
11.4134422503
 30
0.0
 10
13.5759213826
 20
11.4205576676
 30
0.0
 10
13.5557270814
 20
11.4274696908
 30
0.0
 10
13.5344770999
 20
11.4341671331
 30
0.0
 10
13.5122054534
 20
11.4406391666
 30
0.0
 10
13.4889478366
 20
11.4468753532
 30
0.0
 10
13.4647415557
 20
11.4528655625
 30
0.0
 10
13.4396254817
 20
11.4586000853
 30
0.0
 10
13.4136399881
 20
11.4640696696
 30
0.0
 10
13.3868268533
 20
11.469265432
 30
0.0
 10
13.359229205
 20
11.4741789431
 30
0.0
 10
13.3308914626
 20
11.4788022815
 30
0.0
 10
13.3018592435
 20
11.4831279449
 30
0.0
 10
13.272179255
 20
11.4871489178
 30
0.0
 10
13.2418993249
 20
11.4908587085
 30
0.0
 10
13.2110683128
 20
11.4942513092
 30
0.0
 10
13.1797354196
 20
11.497321268
 30
0.0
 10
13.1479517439
 20
11.5000635063
 30
0.0
 10
13.1266089267
 20
11.5016618721
 30
0.0
 10
13.1158719683
 20
11.5024064826
 30
0.0
  0
SPLINE
  5
3C3
100
AcDbEntity
  8
0
100
AcDbSpline
 62
7
  6
CONTINUOUS
 70
0
 71
3
 72
23
 73
19
 74
0
 42
0.0000001
 43
0.0000001
 44
0.0000000001
 40
0.0
 40
0.0
 40
0.0
 40
0.0
 40
0.0637757517
 40
0.1273453038
 40
0.1907021142
 40
0.2538559682
 40
0.3168132565
 40
0.3795821027
 40
0.442173382
 40
0.5045993411
 40
0.5668738656
 40
0.6290123776
 40
0.6910316412
 40
0.7529496359
 40
0.8147853464
 40
0.8765585919
 40
0.9382898467
 40
1.0
 40
1.0
 40
1.0
 40
1.0
 10
6.8891180627
 20
8.2482268639
 30
0.0
 10
6.8891180627
 20
8.2535342825
 30
0.0
 10
6.8893721536
 20
8.2641337565
 30
0.0
 10
6.8905187013
 20
8.279968454
 30
0.0
 10
6.8924278248
 20
8.2956777122
 30
0.0
 10
6.8950949556
 20
8.3112244354
 30
0.0
 10
6.8985139846
 20
8.3265732437
 30
0.0
 10
6.902677092
 20
8.3416886539
 30
0.0
 10
6.9075747697
 20
8.3565357779
 30
0.0
 10
6.9131956916
 20
8.3710804174
 30
0.0
 10
6.9195269078
 20
8.385289038
 30
0.0
 10
6.9265539448
 20
8.3991288189
 30
0.0
 10
6.9342605471
 20
8.4125678649
 30
0.0
 10
6.9426289419
 20
8.4255752021
 30
0.0
 10
6.951639911
 20
8.4381207323
 30
0.0
 10
6.9612727298
 20
8.4501756429
 30
0.0
 10
6.971504756
 20
8.461711798
 30
0.0
 10
6.978711309
 20
8.4690402429
 30
0.0
 10
6.9824050659
 20
8.4726081163
 30
0.0
  0
SPLINE
  5
3C4
100
AcDbEntity
  8
0
100
AcDbSpline
 62
7
  6
CONTINUOUS
 70
0
 71
3
 72
48
 73
44
 74
0
 42
0.0000001
 43
0.0000001
 44
0.0000000001
 40
0.0
 40
0.0
 40
0.0
 40
0.0
 40
0.0066400755
 40
0.0134484724
 40
0.020448001
 40
0.0276593425
 40
0.0427856017
 40
0.050736538
 40
0.0589624028
 40
0.0674746049
 40
0.0762829467
 40
0.0853959334
 40
0.0948208778
 40
0.1045638464
 40
0.1146299466
 40
0.1250234364
 40
0.135747615
 40
0.1468050628
 40
0.1581977627
 40
0.1699269542
 40
0.1819933163
 40
0.2071369944
 40
0.2336257831
 40
0.2614490281
 40
0.2905903015
 40
0.3210281345
 40
0.3527367948
 40
0.3856864952
 40
0.4198439299
 40
0.4551726856
 40
0.4916332811
 40
0.5291836335
 40
0.5677792328
 40
0.6073731772
 40
0.6479165793
 40
0.6893585989
 40
0.7316464984
 40
0.7747260626
 40
0.8185416313
 40
0.8630355327
 40
0.9081494737
 40
0.953826216
 40
1.0
 40
1.0
 40
1.0
 40
1.0
 10
13.7102296478
 20
11.2781182268
 30
0.0
 10
13.7097447393
 20
11.2794617262
 30
0.0
 10
13.7086721548
 20
11.2821509457
 30
0.0
 10
13.7067893367
 20
11.2861289299
 30
0.0
 10
13.704614943
 20
11.2900961549
 30
0.0
 10
13.7012756845
 20
11.2954540163
 30
0.0
 10
13.6973906127
 20
11.3007001128
 30
0.0
 10
13.6930239549
 20
11.3058275116
 30
0.0
 10
13.6894082613
 20
11.3097197721
 30
0.0
 10
13.6855081158
 20
11.3135928818
 30
0.0
 10
13.6813247811
 20
11.3174458394
 30
0.0
 10
13.676859803
 20
11.3212772497
 30
0.0
 10
13.6721147176
 20
11.3250857627
 30
0.0
 10
13.6670912739
 20
11.3288701119
 30
0.0
 10
13.6617912557
 20
11.3326289773
 30
0.0
 10
13.6562165113
 20
11.3363609825
 30
0.0
 10
13.6503690658
 20
11.3400648608
 30
0.0
 10
13.6442510097
 20
11.3437393115
 30
0.0
 10
13.6378644955
 20
11.3473829641
 30
0.0
 10
13.631211821
 20
11.3509945865
 30
0.0
 10
13.6218612801
 20
11.3558320965
 30
0.0
 10
13.6095133452
 20
11.3617789383
 30
0.0
 10
13.5938705442
 20
11.3686723046
 30
0.0
 10
13.5772277308
 20
11.3754074873
 30
0.0
 10
13.5596087985
 20
11.3819747877
 30
0.0
 10
13.5410388458
 20
11.3883647937
 30
0.0
 10
13.5215444449
 20
11.3945682035
 30
0.0
 10
13.5011535488
 20
11.400576074
 30
0.0
 10
13.4798954376
 20
11.4063797203
 30
0.0
 10
13.4578006547
 20
11.4119706733
 30
0.0
 10
13.4349009945
 20
11.4173408784
 30
0.0
 10
13.4112294201
 20
11.422482541
 30
0.0
 10
13.3868200188
 20
11.4273881669
 30
0.0
 10
13.3617079672
 20
11.4320506978
 30
0.0
 10
13.3359294546
 20
11.4364633457
 30
0.0
 10
13.3095216479
 20
11.4406196973
 30
0.0
 10
13.2825226303
 20
11.4445137771
 30
0.0
 10
13.2549713057
 20
11.448139904
 30
0.0
 10
13.2269074714
 20
11.451492813
 30
0.0
 10
13.1983716646
 20
11.4545676956
 30
0.0
 10
13.1694046132
 20
11.4573600923
 30
0.0
 10
13.1400487312
 20
11.4598658646
 30
0.0
 10
13.1203453014
 20
11.461335641
 30
0.0
 10
13.1104367729
 20
11.4620227998
 30
0.0
  0
SPLINE
  5
3C5
100
AcDbEntity
  8
0
100
AcDbSpline
 62
7
  6
CONTINUOUS
 70
0
 71
3
 72
15
 73
11
 74
0
 42
0.0000001
 43
0.0000001
 44
0.0000000001
 40
0.0
 40
0.0
 40
0.0
 40
0.0
 40
0.1163233699
 40
0.2355257924
 40
0.3574146917
 40
0.4817914897
 40
0.6084511672
 40
0.7371817845
 40
0.8677750034
 40
1.0
 40
1.0
 40
1.0
 40
1.0
 10
13.3620745969
 20
11.1656885747
 30
0.0
 10
13.3523964951
 20
11.1674170714
 30
0.0
 10
13.3327724184
 20
11.170759902
 30
0.0
 10
13.3029200503
 20
11.1753845218
 30
0.0
 10
13.2723303644
 20
11.1796750508
 30
0.0
 10
13.2410593664
 20
11.1836235673
 30
0.0
 10
13.2091643144
 20
11.187222783
 30
0.0
 10
13.1767030993
 20
11.190466173
 30
0.0
 10
13.1437356608
 20
11.1933476367
 30
0.0
 10
13.1215851898
 20
11.1950144657
 30
0.0
 10
13.1104367729
 20
11.195787611
 30
0.0
  0
SPLINE
  5
3C6
100
AcDbEntity
  8
0
100
AcDbSpline
 62
7
  6
CONTINUOUS
 70
0
 71
3
 72
51
 73
47
 74
0
 42
0.0000001
 43
0.0000001
 44
0.0000000001
 40
0.0
 40
0.0
 40
0.0
 40
0.0
 40
0.0481977053
 40
0.095830135
 40
0.1428201362
 40
0.1890981738
 40
0.2345933851
 40
0.2792370546
 40
0.3229625179
 40
0.3657049562
 40
0.4074018956
 40
0.4479933021
 40
0.4874217525
 40
0.5256327531
 40
0.5625750279
 40
0.5982007274
 40
0.6324657774
 40
0.6653303865
 40
0.6967594376
 40
0.7267230069
 40
0.755197147
 40
0.7688706186
 40
0.7821659217
 40
0.7950822342
 40
0.8076192537
 40
0.8197772583
 40
0.831557354
 40
0.8429613076
 40
0.8539917351
 40
0.8646522838
 40
0.8749475169
 40
0.8848832127
 40
0.8944664754
 40
0.9037057278
 40
0.9126110859
 40
0.9211944161
 40
0.9294694595
 40
0.9374522112
 40
0.9451609368
 40
0.9598350083
 40
0.9668568308
 40
0.9737036631
 40
0.9804068758
 40
0.9870000868
 40
0.9935188331
 40
1.0
 40
1.0
 40
1.0
 40
1.0
 10
13.122601258
 20
11.5687938815
 30
0.0
 10
13.1338804217
 20
11.5680116688
 30
0.0
 10
13.1562979525
 20
11.5663304941
 30
0.0
 10
13.1896765996
 20
11.56343982
 30
0.0
 10
13.2225706358
 20
11.5601985617
 30
0.0
 10
13.2549244985
 20
11.55661229
 30
0.0
 10
13.2866845028
 20
11.5526869505
 30
0.0
 10
13.3177974409
 20
11.5484291695
 30
0.0
 10
13.3482113045
 20
11.5438461093
 30
0.0
 10
13.3778752781
 20
11.5389454415
 30
0.0
 10
13.4067397954
 20
11.5337354272
 30
0.0
 10
13.4347566493
 20
11.5282248347
 30
0.0
 10
13.4618790518
 20
11.5224229123
 30
0.0
 10
13.4880617351
 20
11.5163394129
 30
0.0
 10
13.5132610404
 20
11.5099845896
 30
0.0
 10
13.5374349683
 20
11.5033691271
 30
0.0
 10
13.5605432679
 20
11.4965041187
 30
0.0
 10
13.5825475146
 20
11.4894011203
 30
0.0
 10
13.6034112689
 20
11.4820720533
 30
0.0
 10
13.6230997703
 20
11.4745291979
 30
0.0
 10
13.6387044617
 20
11.4679904887
 30
0.0
 10
13.6505648298
 20
11.4626520244
 30
0.0
 10
13.6590257851
 20
11.4586566995
 30
0.0
 10
13.6671693709
 20
11.4546174998
 30
0.0
 10
13.6749922218
 20
11.4505360755
 30
0.0
 10
13.6824910619
 20
11.4464140679
 30
0.0
 10
13.6896628199
 20
11.4422532513
 30
0.0
 10
13.6965045168
 20
11.4380553117
 30
0.0
 10
13.7030133039
 20
11.4338219382
 30
0.0
 10
13.7091865387
 20
11.429554934
 30
0.0
 10
13.7150216422
 20
11.4252559733
 30
0.0
 10
13.7205162058
 20
11.420926791
 30
0.0
 10
13.7256680084
 20
11.4165691787
 30
0.0
 10
13.7304748614
 20
11.4121847818
 30
0.0
 10
13.7349347886
 20
11.4077753695
 30
0.0
 10
13.7390459735
 20
11.4033426446
 30
0.0
 10
13.7428065071
 20
11.3988883612
 30
0.0
 10
13.7462150725
 20
11.3944138175
 30
0.0
 10
13.7502216932
 20
11.3885216325
 30
0.0
 10
13.7536114184
 20
11.3824901739
 30
0.0
 10
13.7562970977
 20
11.3763521425
 30
0.0
 10
13.7579231906
 20
11.3718041618
 30
0.0
 10
13.7591891706
 20
11.3672472842
 30
0.0
 10
13.7600941317
 20
11.3626832859
 30
0.0
 10
13.7606373617
 20
11.3581148527
 30
0.0
 10
13.7607582476
 20
11.3550639628
 30
0.0
 10
13.7607582418
 20
11.3535436058
 30
0.0
  0
SPLINE
  5
3C7
100
AcDbEntity
  8
0
100
AcDbSpline
 62
7
  6
CONTINUOUS
 70
0
 71
3
 72
28
 73
24
 74
0
 42
0.0000001
 43
0.0000001
 44
0.0000000001
 40
0.0
 40
0.0
 40
0.0
 40
0.0
 40
0.0240321401
 40
0.0488345781
 40
0.0743842381
 40
0.1006564588
 40
0.127625295
 40
0.155263537
 40
0.1835427572
 40
0.2124335371
 40
0.2419053213
 40
0.2719267471
 40
0.3334875237
 40
0.3968490904
 40
0.4617327706
 40
0.5278508307
 40
0.5949083073
 40
0.662604799
 40
0.7306362541
 40
0.7986966365
 40
0.8664800191
 40
0.9336811922
 40
1.0
 40
1.0
 40
1.0
 40
1.0
 10
14.7394527445
 20
6.3507851748
 30
0.0
 10
14.7413292705
 20
6.3560867087
 30
0.0
 10
14.7450442844
 20
6.3668946831
 30
0.0
 10
14.7504253846
 20
6.3834497252
 30
0.0
 10
14.7556981445
 20
6.400588825
 30
0.0
 10
14.7608562464
 20
6.4182913871
 30
0.0
 10
14.7658934724
 20
6.4365362325
 30
0.0
 10
14.7708037439
 20
6.4553014994
 30
0.0
 10
14.775581201
 20
6.4745646994
 30
0.0
 10
14.780220022
 20
6.4943027425
 30
0.0
 10
14.7847147323
 20
6.5144919812
 30
0.0
 10
14.790556898
 20
6.5422117882
 30
0.0
 10
14.7974478819
 20
6.5778129241
 30
0.0
 10
14.8049935758
 20
6.6215873323
 30
0.0
 10
14.8118467566
 20
6.6665544969
 30
0.0
 10
14.8179743772
 20
6.7124987759
 30
0.0
 10
14.8233468918
 20
6.759200004
 30
0.0
 10
14.8279384321
 20
6.8064342891
 30
0.0
 10
14.831726909
 20
6.8539751677
 30
0.0
 10
14.8346941461
 20
6.9015947184
 30
0.0
 10
14.8368259041
 20
6.949064562
 30
0.0
 10
14.8381120669
 20
6.996157027
 30
0.0
 10
14.8384040785
 20
7.0274031883
 30
0.0
 10
14.8384040785
 20
7.0429226788
 30
0.0
  0
SPLINE
  5
3C8
100
AcDbEntity
  8
0
100
AcDbSpline
 62
7
  6
CONTINUOUS
 70
0
 71
3
 72
34
 73
30
 74
0
 42
0.0000001
 43
0.0000001
 44
0.0000000001
 40
0.0
 40
0.0
 40
0.0
 40
0.0
 40
0.0200005699
 40
0.0410972415
 40
0.0632729715
 40
0.0865062973
 40
0.1107717605
 40
0.1360403588
 40
0.1622800155
 40
0.1894557885
 40
0.2175300938
 40
0.2464630463
 40
0.2762125991
 40
0.3067346561
 40
0.3379833474
 40
0.3699111516
 40
0.4024689625
 40
0.435606317
 40
0.4692715191
 40
0.503411698
 40
0.5379729953
 40
0.5729006935
 40
0.6081392846
 40
0.6436326262
 40
0.7151555654
 40
0.7870130666
 40
0.8587449898
 40
0.9298916957
 40
1.0
 40
1.0
 40
1.0
 40
1.0
 10
14.766491689
 20
6.2091322265
 30
0.0
 10
14.7691620226
 20
6.2142343026
 30
0.0
 10
14.7744597985
 20
6.2248178949
 30
0.0
 10
14.7820984439
 20
6.2413596578
 30
0.0
 10
14.7896300714
 20
6.2589674234
 30
0.0
 10
14.7970416393
 20
6.2776111993
 30
0.0
 10
14.8043205096
 20
6.2972595012
 30
0.0
 10
14.8114542293
 20
6.3178789545
 30
0.0
 10
14.818430545
 20
6.3394345364
 30
0.0
 10
14.8252374799
 20
6.3618895734
 30
0.0
 10
14.8318633927
 20
6.3852058129
 30
0.0
 10
14.8382969035
 20
6.4093435267
 30
0.0
 10
14.8445269574
 20
6.4342615661
 30
0.0
 10
14.8505429062
 20
6.4599174177
 30
0.0
 10
14.8563344304
 20
6.4862673076
 30
0.0
 10
14.8618915756
 20
6.5132662727
 30
0.0
 10
14.867204849
 20
6.5408682184
 30
0.0
 10
14.87226515
 20
6.5690260192
 30
0.0
 10
14.877063781
 20
6.5976916031
 30
0.0
 10
14.8815925457
 20
6.6268160146
 30
0.0
 10
14.8858437022
 20
6.656349515
 30
0.0
 10
14.8898099378
 20
6.6862416591
 30
0.0
 10
14.8934845031
 20
6.7164414291
 30
0.0
 10
14.8979978607
 20
6.7571511554
 30
0.0
 10
14.9028631673
 20
6.8084269044
 30
0.0
 10
14.9074376573
 20
6.8701979083
 30
0.0
 10
14.9107314412
 20
6.9319422063
 30
0.0
 10
14.9127222458
 20
6.9932380891
 30
0.0
 10
14.9131761857
 20
7.0339099875
 30
0.0
 10
14.9131761857
 20
7.0540958148
 30
0.0
  0
SPLINE
  5
3C9
100
AcDbEntity
  8
0
100
AcDbSpline
 62
7
  6
CONTINUOUS
 70
0
 71
3
 72
62
 73
58
 74
0
 42
0.0000001
 43
0.0000001
 44
0.0000000001
 40
0.0
 40
0.0
 40
0.0
 40
0.0
 40
0.0028268402
 40
0.0056210363
 40
0.0083913031
 40
0.0111465967
 40
0.0138960307
 40
0.0166487858
 40
0.0194140052
 40
0.0222006953
 40
0.0250176435
 40
0.0278733355
 40
0.0337308942
 40
0.0398351679
 40
0.046238003
 40
0.052983398
 40
0.060107859
 40
0.0676411685
 40
0.0756071526
 40
0.0840245817
 40
0.0929078414
 40
0.1022676801
 40
0.1121116639
 40
0.1224447436
 40
0.1332695202
 40
0.1445866754
 40
0.1563951002
 40
0.1686922351
 40
0.1814741068
 40
0.1947356116
 40
0.2084704906
 40
0.2226715782
 40
0.2373307372
 40
0.2524390843
 40
0.2679869001
 40
0.2839638387
 40
0.3003588218
 40
0.3171602374
 40
0.3343558243
 40
0.3519328615
 40
0.369878049
 40
0.3881776883
 40
0.4068175632
 40
0.445058842
 40
0.4844810486
 40
0.5249573148
 40
0.5663559762
 40
0.6085412563
 40
0.6513739278
 40
0.6947119587
 40
0.738411148
 40
0.7823257543
 40
0.8263091244
 40
0.8702143056
 40
0.9138946992
 40
0.9572046053
 40
1.0
 40
1.0
 40
1.0
 40
1.0
 10
14.8614133225
 20
6.0464420337
 30
0.0
 10
14.8623900255
 20
6.046096724
 30
0.0
 10
14.8643516402
 20
6.0454637034
 30
0.0
 10
14.8673290185
 20
6.0446879213
 30
0.0
 10
14.8703210342
 20
6.0440923789
 30
0.0
 10
14.8733268174
 20
6.0436772881
 30
0.0
 10
14.8763456352
 20
6.0434427923
 30
0.0
 10
14.8793766975
 20
6.0433890092
 30
0.0
 10
14.8824192257
 20
6.0435158741
 30
0.0
 10
14.8854724255
 20
6.0438232963
 30
0.0
 10
14.8885356173
 20
6.0443112212
 30
0.0
 10
14.89266638
 20
6.045209596
 30
0.0
 10
14.8978699092
 20
6.0468004456
 30
0.0
 10
14.9040830599
 20
6.0494134368
 30
0.0
 10
14.910314412
 20
6.0527419737
 30
0.0
 10
14.916558731
 20
6.0567815092
 30
0.0
 10
14.9228118165
 20
6.0615274436
 30
0.0
 10
14.9290690963
 20
6.0669751308
 30
0.0
 10
14.9353260029
 20
6.0731195336
 30
0.0
 10
14.9415776507
 20
6.0799552956
 30
0.0
 10
14.9478191044
 20
6.0874764589
 30
0.0
 10
14.9540451634
 20
6.0956765871
 30
0.0
 10
14.9602506519
 20
6.104548569
 30
0.0
 10
14.9664301907
 20
6.1140847569
 30
0.0
 10
14.9725784928
 20
6.1242768251
 30
0.0
 10
14.978690113
 20
6.1351159006
 30
0.0
 10
14.9847597437
 20
6.1465924556
 30
0.0
 10
14.9907819489
 20
6.1586964225
 30
0.0
 10
14.9967514595
 20
6.1714171097
 30
0.0
 10
15.002662898
 20
6.1847433002
 30
0.0
 10
15.0085110742
 20
6.1986631859
 30
0.0
 10
15.0142907036
 20
6.2131644501
 30
0.0
 10
15.0199967041
 20
6.228234218
 30
0.0
 10
15.0256239114
 20
6.2438591259
 30
0.0
 10
15.0311673754
 20
6.2600252839
 30
0.0
 10
15.0366220741
 20
6.2767183348
 30
0.0
 10
15.0419832097
 20
6.2939234273
 30
0.0
 10
15.0472459223
 20
6.3116252665
 30
0.0
 10
15.052405585
 20
6.3298080955
 30
0.0
 10
15.0574575196
 20
6.3484557401
 30
0.0
 10
15.0623972815
 20
6.3675515921
 30
0.0
 10
15.0672204127
 20
6.3870786721
 30
0.0
 10
15.0735438642
 20
6.4138950158
 30
0.0
 10
15.0811138352
 20
6.448368332
 30
0.0
 10
15.0895914343
 20
6.4908271365
 30
0.0
 10
15.0975077778
 20
6.5345704701
 30
0.0
 10
15.1048345329
 20
6.5794425276
 30
0.0
 10
15.1115454635
 20
6.6252836297
 30
0.0
 10
15.1176165609
 20
6.6719305605
 30
0.0
 10
15.1230261168
 20
6.7192172244
 30
0.0
 10
15.1277548019
 20
6.7669752255
 30
0.0
 10
15.1317857336
 20
6.8150344772
 30
0.0
 10
15.1351045343
 20
6.8632238142
 30
0.0
 10
15.1376993858
 20
6.9113715954
 30
0.0
 10
15.1395610656
 20
6.9593063698
 30
0.0
 10
15.1406829879
 20
7.006857266
 30
0.0
 10
15.1409369453
 20
7.0384126676
 30
0.0
 10
15.1409369453
 20
7.0540958278
 30
0.0
  0
SPLINE
  5
3CA
100
AcDbEntity
  8
0
100
AcDbSpline
 62
7
  6
CONTINUOUS
 70
0
 71
3
 72
55
 73
51
 74
0
 42
0.0000001
 43
0.0000001
 44
0.0000000001
 40
0.0
 40
0.0
 40
0.0
 40
0.0
 40
0.0056934615
 40
0.0116332993
 40
0.0178550524
 40
0.0243888286
 40
0.0312598539
 40
0.0384888318
 40
0.0460926477
 40
0.0540847061
 40
0.0624755784
 40
0.0712732185
 40
0.0804835028
 40
0.0901103257
 40
0.1001560439
 40
0.11062148
 40
0.1215062948
 40
0.1328089279
 40
0.1445269191
 40
0.1566568083
 40
0.1691944198
 40
0.1821347374
 40
0.195472162
 40
0.2092003724
 40
0.223312562
 40
0.2378012923
 40
0.2526587135
 40
0.267876416
 40
0.2834456358
 40
0.2993571086
 40
0.3156012615
 40
0.3321680718
 40
0.349047246
 40
0.3662280856
 40
0.4014502651
 40
0.4377438042
 40
0.475013272
 40
0.5131595126
 40
0.5520800966
 40
0.5916697549
 40
0.6318208001
 40
0.6724235382
 40
0.7133666753
 40
0.7545377196
 40
0.7958233808
 40
0.8371099683
 40
0.8782837877
 40
0.9192315405
 40
0.9598407152
 40
1.0
 40
1.0
 40
1.0
 40
1.0
 10
14.8814764232
 20
5.6789493967
 30
0.0
 10
14.8842513244
 20
5.6799175463
 30
0.0
 10
14.889830306
 20
5.6821647942
 30
0.0
 10
14.8980623358
 20
5.6863312375
 30
0.0
 10
14.9063136794
 20
5.6913534923
 30
0.0
 10
14.9145783984
 20
5.6972262815
 30
0.0
 10
14.9228515863
 20
5.7039449892
 30
0.0
 10
14.9311281709
 20
5.7115042215
 30
0.0
 10
14.9394027113
 20
5.719898552
 30
0.0
 10
14.9476699161
 20
5.7291217762
 30
0.0
 10
14.955924034
 20
5.7391674128
 30
0.0
 10
14.9641595353
 20
5.7500281805
 30
0.0
 10
14.9723704821
 20
5.7616964056
 30
0.0
 10
14.9805512032
 20
5.7741636369
 30
0.0
 10
14.9886956782
 20
5.7874209758
 30
0.0
 10
14.996798179
 20
5.801458788
 30
0.0
 10
15.004852677
 20
5.8162669672
 30
0.0
 10
15.012853448
 20
5.8318347166
 30
0.0
 10
15.0207945059
 20
5.8481507583
 30
0.0
 10
15.0286701731
 20
5.8652031674
 30
0.0
 10
15.0364745415
 20
5.8829795372
 30
0.0
 10
15.0442020117
 20
5.9014668542
 30
0.0
 10
15.0518467804
 20
5.9206516288
 30
0.0
 10
15.0594033512
 20
5.9405198011
 30
0.0
 10
15.0668660476
 20
5.9610568454
 30
0.0
 10
15.0742294976
 20
5.9822477003
 30
0.0
 10
15.0814881699
 20
6.0040768519
 30
0.0
 10
15.0886368357
 20
6.026528284
 30
0.0
 10
15.0956701263
 20
6.0495855446
 30
0.0
 10
15.1025829729
 20
6.0732317108
 30
0.0
 10
15.1093701866
 20
6.097449445
 30
0.0
 10
15.1160268687
 20
6.1222209646
 30
0.0
 10
15.1225480498
 20
6.1475281152
 30
0.0
 10
15.1311268815
 20
6.1822476481
 30
0.0
 10
15.1414630503
 20
6.2268535072
 30
0.0
 10
15.1531519917
 20
6.2817808107
 30
0.0
 10
15.1641921581
 20
6.3383807117
 30
0.0
 10
15.1745509911
 20
6.3964870142
 30
0.0
 10
15.1841979264
 20
6.4559292717
 30
0.0
 10
15.1931045211
 20
6.5165330209
 30
0.0
 10
15.2012445242
 20
6.5781203783
 30
0.0
 10
15.2085939561
 20
6.6405105473
 30
0.0
 10
15.2151311768
 20
6.70352036
 30
0.0
 10
15.2208369487
 20
6.7669648176
 30
0.0
 10
15.2256944928
 20
6.8306576368
 30
0.0
 10
15.2296895376
 20
6.8944118046
 30
0.0
 10
15.232810361
 20
6.9580401111
 30
0.0
 10
15.2350478258
 20
7.0213557768
 30
0.0
 10
15.2363954038
 20
7.0841727237
 30
0.0
 10
15.236699913
 20
7.1258656834
 30
0.0
 10
15.236699913
 20
7.146595757
 30
0.0
  0
SPLINE
  5
3CB
100
AcDbEntity
  8
0
100
AcDbSpline
 62
7
  6
CONTINUOUS
 70
0
 71
3
 72
20
 73
16
 74
0
 42
0.0000001
 43
0.0000001
 44
0.0000000001
 40
0.0
 40
0.0
 40
0.0
 40
0.0
 40
0.0519097969
 40
0.1055195802
 40
0.1607770307
 40
0.2176261477
 40
0.2760081519
 40
0.3358610954
 40
0.3971205327
 40
0.4597195074
 40
0.5235885943
 40
0.5886564406
 40
0.7220912433
 40
0.8594159985
 40
1.0
 40
1.0
 40
1.0
 40
1.0
 10
14.8104424691
 20
7.3739809447
 30
0.0
 10
14.8115953732
 20
7.3683397221
 30
0.0
 10
14.8138319722
 20
7.3568504437
 30
0.0
 10
14.8169388205
 20
7.3392890099
 30
0.0
 10
14.8198487272
 20
7.3211387934
 30
0.0
 10
14.8225580872
 20
7.3024226261
 30
0.0
 10
14.8250633945
 20
7.283163958
 30
0.0
 10
14.8273615343
 20
7.2633869521
 30
0.0
 10
14.8294495768
 20
7.2431164201
 30
0.0
 10
14.831324858
 20
7.2223778125
 30
0.0
 10
14.832985075
 20
7.2011971382
 30
0.0
 10
14.8349251885
 20
7.1721591125
 30
0.0
 10
14.8367850257
 20
7.1349524348
 30
0.0
 10
14.8381146812
 20
7.0893427686
 30
0.0
 10
14.8384040785
 20
7.0585162372
 30
0.0
 10
14.8384040785
 20
7.0429226788
 30
0.0
  0
SPLINE
  5
3CC
100
AcDbEntity
  8
0
100
AcDbSpline
 62
7
  6
CONTINUOUS
 70
0
 71
3
 72
26
 73
22
 74
0
 42
0.0000001
 43
0.0000001
 44
0.0000000001
 40
0.0
 40
0.0
 40
0.0
 40
0.0
 40
0.0218527498
 40
0.0444245773
 40
0.0677102122
 40
0.0917030546
 40
0.1163954914
 40
0.1417790554
 40
0.1945793211
 40
0.2500198033
 40
0.3080031764
 40
0.3684216172
 40
0.4311579195
 40
0.4960864779
 40
0.563074133
 40
0.6319808519
 40
0.7026603798
 40
0.7749612106
 40
0.8487254259
 40
0.9237948348
 40
1.0
 40
1.0
 40
1.0
 40
1.0
 10
14.856771545
 20
7.5106059086
 30
0.0
 10
14.857904917
 20
7.5074380538
 30
0.0
 10
14.8601408393
 20
7.500973554
 30
0.0
 10
14.8633560604
 20
7.4910563407
 30
0.0
 10
14.8664851967
 20
7.4807667383
 30
0.0
 10
14.8695264002
 20
7.4701109224
 30
0.0
 10
14.8724778966
 20
7.4590951881
 30
0.0
 10
14.8763419278
 20
7.443734158
 30
0.0
 10
14.8809203162
 20
7.4236739965
 30
0.0
 10
14.8859602601
 20
7.3985803498
 30
0.0
 10
14.8906034972
 20
7.372218657
 30
0.0
 10
14.8948388254
 20
7.3446516513
 30
0.0
 10
14.898656003
 20
7.3159447757
 30
0.0
 10
14.9020458023
 20
7.2861663132
 30
0.0
 10
14.9050000217
 20
7.2553871197
 30
0.0
 10
14.9075115083
 20
7.2236804797
 30
0.0
 10
14.90957419
 20
7.1911218727
 30
0.0
 10
14.9111830455
 20
7.157789015
 30
0.0
 10
14.9123342491
 20
7.1237609989
 30
0.0
 10
14.9130248881
 20
7.0891193981
 30
0.0
 10
14.9131761857
 20
7.0658285263
 30
0.0
 10
14.9131761857
 20
7.0540958148
 30
0.0
  0
SPLINE
  5
3CD
100
AcDbEntity
  8
0
100
AcDbSpline
 62
7
  6
CONTINUOUS
 70
0
 71
3
 72
54
 73
50
 74
0
 42
0.0000001
 43
0.0000001
 44
0.0000000001
 40
0.0
 40
0.0
 40
0.0
 40
0.0
 40
0.0063158427
 40
0.0126705974
 40
0.0191023953
 40
0.0256479035
 40
0.0323417516
 40
0.0392160545
 40
0.0536138127
 40
0.061194488
 40
0.0690562166
 40
0.0772172825
 40
0.0856936302
 40
0.0944989909
 40
0.1036450473
 40
0.113141787
 40
0.1229974971
 40
0.1332190617
 40
0.1438121259
 40
0.1547810799
 40
0.1661293869
 40
0.1778595312
 40
0.189973133
 40
0.2024711534
 40
0.2153537503
 40
0.2286205275
 40
0.2422705277
 40
0.256302183
 40
0.2707135528
 40
0.2855021644
 40
0.300665138
 40
0.316199276
 40
0.3321009043
 40
0.3649900029
 40
0.3992976831
 40
0.4349839512
 40
0.472004695
 40
0.5103120262
 40
0.5498546333
 40
0.5905781015
 40
0.6324251619
 40
0.6753358913
 40
0.7192479428
 40
0.7640967229
 40
0.8098156864
 40
0.8563364658
 40
0.9035883331
 40
0.9515014468
 40
1.0
 40
1.0
 40
1.0
 40
1.0
 10
15.0747504416
 20
11.0439658472
 30
0.0
 10
15.0767448607
 20
11.0438275298
 30
0.0
 10
15.0807365639
 20
11.0433868117
 30
0.0
 10
15.0866793713
 20
11.0422379814
 30
0.0
 10
15.0925824668
 20
11.0406015761
 30
0.0
 10
15.0984423857
 20
11.0384788186
 30
0.0
 10
15.1042568088
 20
11.0358709116
 30
0.0
 10
15.1120640653
 20
11.0316858373
 30
0.0
 10
15.1196592469
 20
11.0265625797
 30
0.0
 10
15.1270095116
 20
11.0206256156
 30
0.0
 10
15.1325613792
 20
11.0156199853
 30
0.0
 10
15.1380540213
 20
11.0101413839
 30
0.0
 10
15.1434859734
 20
11.00419167
 30
0.0
 10
15.1488550208
 20
10.9977734296
 30
0.0
 10
15.1541592676
 20
10.9908893197
 30
0.0
 10
15.1593965605
 20
10.9835420813
 30
0.0
 10
15.1645649434
 20
10.9757347443
 30
0.0
 10
15.1696623833
 20
10.967470467
 30
0.0
 10
15.174686789
 20
10.9587525672
 30
0.0
 10
15.1796362507
 20
10.9495846311
 30
0.0
 10
15.1845086977
 20
10.9399703498
 30
0.0
 10
15.1893021745
 20
10.929913649
 30
0.0
 10
15.194014781
 20
10.9194186449
 30
0.0
 10
15.1986445032
 20
10.9084895942
 30
0.0
 10
15.2031895277
 20
10.8971309945
 30
0.0
 10
15.2076479594
 20
10.8853474868
 30
0.0
 10
15.2120179318
 20
10.8731438941
 30
0.0
 10
15.2162977219
 20
10.8605252411
 30
0.0
 10
15.220485488
 20
10.8474966925
 30
0.0
 10
15.224579544
 20
10.834063611
 30
0.0
 10
15.2285782118
 20
10.8202315255
 30
0.0
 10
15.2324797993
 20
10.8060060998
 30
0.0
 10
15.2376079847
 20
10.7863006493
 30
0.0
 10
15.2437500732
 20
10.7607210627
 30
0.0
 10
15.2506283966
 20
10.7288866825
 30
0.0
 10
15.2570832904
 20
10.6956306722
 30
0.0
 10
15.2631040089
 20
10.6610078342
 30
0.0
 10
15.2686805208
 20
10.6250750631
 30
0.0
 10
15.2738035452
 20
10.5878915231
 30
0.0
 10
15.2784645431
 20
10.5495184447
 30
0.0
 10
15.2826557341
 20
10.5100190452
 30
0.0
 10
15.286370133
 20
10.4694584235
 30
0.0
 10
15.2896015587
 20
10.4279034621
 30
0.0
 10
15.2923446284
 20
10.3854226798
 30
0.0
 10
15.2945947586
 20
10.342086104
 30
0.0
 10
15.2963481629
 20
10.2979653685
 30
0.0
 10
15.2976019902
 20
10.2531328345
 30
0.0
 10
15.2983540293
 20
10.2076630438
 30
0.0
 10
15.298519171
 20
10.1771447257
 30
0.0
 10
15.298519171
 20
10.161793049
 30
0.0
  0
SPLINE
  5
3CE
100
AcDbEntity
  8
0
100
AcDbSpline
 62
7
  6
CONTINUOUS
 70
0
 71
3
 72
50
 73
46
 74
0
 42
0.0000001
 43
0.0000001
 44
0.0000000001
 40
0.0
 40
0.0
 40
0.0
 40
0.0
 40
0.0065716353
 40
0.0133303381
 40
0.0202970784
 40
0.027490774
 40
0.0349282405
 40
0.0426244078
 40
0.0505924488
 40
0.0588437924
 40
0.0673884106
 40
0.0762349231
 40
0.0853906114
 40
0.0948617058
 40
0.1046534263
 40
0.1147699899
 40
0.125214873
 40
0.1359907866
 40
0.1470996895
 40
0.1585430173
 40
0.1703216054
 40
0.1824357186
 40
0.1948852468
 40
0.2076695871
 40
0.2342375024
 40
0.2621280647
 40
0.2913237829
 40
0.3218025476
 40
0.3535382769
 40
0.3865012977
 40
0.4206585933
 40
0.4559742225
 40
0.4924095694
 40
0.5299234512
 40
0.5684724032
 40
0.6080108829
 40
0.6484913283
 40
0.6898643621
 40
0.7320789545
 40
0.7750824761
 40
0.8188210109
 40
0.8632390401
 40
0.908279735
 40
0.9538875092
 40
1.0
 40
1.0
 40
1.0
 40
1.0
 10
15.0437688278
 20
11.0394050414
 30
0.0
 10
15.0455571594
 20
11.038488663
 30
0.0
 10
15.0491255052
 20
11.0365120572
 30
0.0
 10
15.0543657075
 20
11.0331802605
 30
0.0
 10
15.0595619393
 20
11.0294442651
 30
0.0
 10
15.0647121774
 20
11.0253056361
 30
0.0
 10
15.0698149635
 20
11.0207660097
 30
0.0
 10
15.0748686679
 20
11.0158270525
 30
0.0
 10
15.0798716361
 20
11.0104904709
 30
0.0
 10
15.084822357
 20
11.0047582208
 30
0.0
 10
15.0897192145
 20
10.9986322659
 30
0.0
 10
15.0945605619
 20
10.9921146816
 30
0.0
 10
15.0993448914
 20
10.9852077659
 30
0.0
 10
15.1040705765
 20
10.9779138559
 30
0.0
 10
15.1087359992
 20
10.9702354313
 30
0.0
 10
15.1133396646
 20
10.9621751681
 30
0.0
 10
15.1178799619
 20
10.9537358021
 30
0.0
 10
15.1223553247
 20
10.9449202252
 30
0.0
 10
15.1267642893
 20
10.9357315004
 30
0.0
 10
15.1311052839
 20
10.9261727652
 30
0.0
 10
15.1353768132
 20
10.916247315
 30
0.0
 10
15.1395774514
 20
10.9059586005
 30
0.0
 10
15.1437057142
 20
10.8953101367
 30
0.0
 10
15.1491819058
 20
10.8804464768
 30
0.0
 10
15.1558214885
 20
10.8609830439
 30
0.0
 10
15.1633792274
 20
10.8365423793
 30
0.0
 10
15.1706154366
 20
10.8107604989
 30
0.0
 10
15.1775200514
 20
10.7836731521
 30
0.0
 10
15.1840834036
 20
10.7553176581
 30
0.0
 10
15.1902962687
 20
10.7257332354
 30
0.0
 10
15.1961499792
 20
10.6949608516
 30
0.0
 10
15.2016363274
 20
10.6630431575
 30
0.0
 10
15.2067475836
 20
10.6300244146
 30
0.0
 10
15.2114766074
 20
10.5959504533
 30
0.0
 10
15.2158167776
 20
10.560868588
 30
0.0
 10
15.2197619745
 20
10.5248275401
 30
0.0
 10
15.2233066776
 20
10.4878773838
 30
0.0
 10
15.2264459346
 20
10.4500694729
 30
0.0
 10
15.2291753164
 20
10.4114563623
 30
0.0
 10
15.231490996
 20
10.3720916983
 30
0.0
 10
15.2333897344
 20
10.3320302374
 30
0.0
 10
15.234868856
 20
10.2913277948
 30
0.0
 10
15.2359262999
 20
10.2500404778
 30
0.0
 10
15.2365605017
 20
10.2082263767
 30
0.0
 10
15.236699913
 20
10.1801803167
 30
0.0
 10
15.236699913
 20
10.1660802291
 30
0.0
  0
SPLINE
  5
3CF
100
AcDbEntity
  8
0
100
AcDbSpline
 62
7
  6
CONTINUOUS
 70
0
 71
3
 72
54
 73
50
 74
0
 42
0.0000001
 43
0.0000001
 44
0.0000000001
 40
0.0
 40
0.0
 40
0.0
 40
0.0
 40
0.006670369
 40
0.0132427574
 40
0.0197603011
 40
0.0262673223
 40
0.0328083817
 40
0.0394272868
 40
0.0461662095
 40
0.053064863
 40
0.0601600417
 40
0.0674852335
 40
0.075070423
 40
0.0829422626
 40
0.0911240482
 40
0.0996359747
 40
0.1084955128
 40
0.1177174412
 40
0.1273142822
 40
0.1372965722
 40
0.1476728691
 40
0.1584502147
 40
0.1696342054
 40
0.1812290323
 40
0.1932378807
 40
0.2056628283
 40
0.2185049774
 40
0.2317647347
 40
0.2454416102
 40
0.2595344551
 40
0.2740415891
 40
0.2889605912
 40
0.3200214371
 40
0.3526892228
 40
0.3869283138
 40
0.4226969845
 40
0.4599480722
 40
0.4986296443
 40
0.538685441
 40
0.5800551676
 40
0.6226749165
 40
0.6664775332
 40
0.7113928336
 40
0.7573477559
 40
0.8042669386
 40
0.8520725556
 40
0.9006841274
 40
0.9500225024
 40
1.0
 40
1.0
 40
1.0
 40
1.0
 10
14.9732228271
 20
7.6586883236
 30
0.0
 10
14.9746738182
 20
7.6589844989
 30
0.0
 10
14.9775792894
 20
7.6594586073
 30
0.0
 10
14.9819576509
 20
7.659804317
 30
0.0
 10
14.9863137143
 20
7.6597776855
 30
0.0
 10
14.9906444873
 20
7.6593783796
 30
0.0
 10
14.9949474427
 20
7.6586068515
 30
0.0
 10
14.9992200379
 20
7.6574637248
 30
0.0
 10
15.0034598683
 20
7.6559498646
 30
0.0
 10
15.0076648122
 20
7.6540666334
 30
0.0
 10
15.0118328512
 20
7.6518153088
 30
0.0
 10
15.015962129
 20
7.6491973578
 30
0.0
 10
15.0200510014
 20
7.6462144438
 30
0.0
 10
15.0240977416
 20
7.6428680917
 30
0.0
 10
15.0281007651
 20
7.6391600584
 30
0.0
 10
15.0320585224
 20
7.6350921822
 30
0.0
 10
15.0359693183
 20
7.6306662869
 30
0.0
 10
15.0398316218
 20
7.6258844722
 30
0.0
 10
15.0436438204
 20
7.6207488967
 30
0.0
 10
15.0474042197
 20
7.6152618246
 30
0.0
 10
15.0511112935
 20
7.609425779
 30
0.0
 10
15.0547633799
 20
7.6032433491
 30
0.0
 10
15.0583588372
 20
7.5967172995
 30
0.0
 10
15.0618961487
 20
7.5898506045
 30
0.0
 10
15.0653736585
 20
7.582646326
 30
0.0
 10
15.0687898162
 20
7.5751077274
 30
0.0
 10
15.072143129
 20
7.5672382366
 30
0.0
 10
15.0754319951
 20
7.5590413921
 30
0.0
 10
15.0786549723
 20
7.5505209327
 30
0.0
 10
15.081810598
 20
7.5416807353
 30
0.0
 10
15.0848973906
 20
7.53252479
 30
0.0
 10
15.0889743282
 20
7.5197291566
 30
0.0
 10
15.093875042
 20
7.5029671424
 30
0.0
 10
15.0993836229
 20
7.4819235205
 30
0.0
 10
15.1045859281
 20
7.4597273603
 30
0.0
 10
15.1094723635
 20
7.436419165
 30
0.0
 10
15.1140339156
 20
7.4120413029
 30
0.0
 10
15.118262143
 20
7.3866382123
 30
0.0
 10
15.1221491958
 20
7.3602562228
 30
0.0
 10
15.125687898
 20
7.3329435095
 30
0.0
 10
15.1288717126
 20
7.3047499764
 30
0.0
 10
15.1316947346
 20
7.275727146
 30
0.0
 10
15.1341517214
 20
7.2459280896
 30
0.0
 10
15.1362381564
 20
7.2154072947
 30
0.0
 10
15.1379501659
 20
7.184220591
 30
0.0
 10
15.1392845495
 20
7.1524251608
 30
0.0
 10
15.1402388901
 20
7.1200787545
 30
0.0
 10
15.1408113145
 20
7.0872411553
 30
0.0
 10
15.1409369453
 20
7.0651914933
 30
0.0
 10
15.1409369453
 20
7.0540958278
 30
0.0
  0
SPLINE
  5
3D0
100
AcDbEntity
  8
0
100
AcDbSpline
 62
7
  6
CONTINUOUS
 70
0
 71
3
 72
54
 73
50
 74
0
 42
0.0000001
 43
0.0000001
 44
0.0000000001
 40
0.0
 40
0.0
 40
0.0
 40
0.0
 40
0.006670369
 40
0.0132427574
 40
0.0197603011
 40
0.0262673223
 40
0.0328083817
 40
0.0394272868
 40
0.0461662095
 40
0.053064863
 40
0.0601600417
 40
0.0674852335
 40
0.075070423
 40
0.0829422626
 40
0.0911240482
 40
0.0996359747
 40
0.1084955128
 40
0.1177174412
 40
0.1273142822
 40
0.1372965722
 40
0.1476728691
 40
0.1584502147
 40
0.1696342054
 40
0.1812290323
 40
0.1932378807
 40
0.2056628283
 40
0.2185049774
 40
0.2317647347
 40
0.2454416102
 40
0.2595344551
 40
0.2740415891
 40
0.2889605912
 40
0.3200214371
 40
0.3526892228
 40
0.3869283138
 40
0.4226969845
 40
0.4599480722
 40
0.4986296443
 40
0.538685441
 40
0.5800551676
 40
0.6226749165
 40
0.6664775332
 40
0.7113928336
 40
0.7573477559
 40
0.8042669386
 40
0.8520725556
 40
0.9006841274
 40
0.9500225024
 40
1.0
 40
1.0
 40
1.0
 40
1.0
 10
14.9732228271
 20
10.6781727958
 30
0.0
 10
14.9746738182
 20
10.678468971
 30
0.0
 10
14.9775792894
 20
10.6789430795
 30
0.0
 10
14.9819576509
 20
10.6792887892
 30
0.0
 10
14.9863137143
 20
10.6792621577
 30
0.0
 10
14.9906444873
 20
10.6788628518
 30
0.0
 10
14.9949474427
 20
10.6780913237
 30
0.0
 10
14.9992200379
 20
10.676948197
 30
0.0
 10
15.0034598683
 20
10.6754343368
 30
0.0
 10
15.0076648122
 20
10.6735511056
 30
0.0
 10
15.0118328512
 20
10.671299781
 30
0.0
 10
15.015962129
 20
10.6686818299
 30
0.0
 10
15.0200510014
 20
10.6656989159
 30
0.0
 10
15.0240977416
 20
10.6623525639
 30
0.0
 10
15.0281007651
 20
10.6586445305
 30
0.0
 10
15.0320585224
 20
10.6545766544
 30
0.0
 10
15.0359693183
 20
10.6501507591
 30
0.0
 10
15.0398316218
 20
10.6453689444
 30
0.0
 10
15.0436438204
 20
10.6402333689
 30
0.0
 10
15.0474042197
 20
10.6347462968
 30
0.0
 10
15.0511112935
 20
10.6289102511
 30
0.0
 10
15.0547633799
 20
10.6227278213
 30
0.0
 10
15.0583588372
 20
10.6162017717
 30
0.0
 10
15.0618961487
 20
10.6093350767
 30
0.0
 10
15.0653736585
 20
10.6021307981
 30
0.0
 10
15.0687898162
 20
10.5945921996
 30
0.0
 10
15.072143129
 20
10.5867227088
 30
0.0
 10
15.0754319951
 20
10.5785258642
 30
0.0
 10
15.0786549723
 20
10.5700054048
 30
0.0
 10
15.081810598
 20
10.5611652074
 30
0.0
 10
15.0848973906
 20
10.5520092621
 30
0.0
 10
15.0889743282
 20
10.5392136288
 30
0.0
 10
15.093875042
 20
10.5224516146
 30
0.0
 10
15.0993836229
 20
10.5014079927
 30
0.0
 10
15.1045859281
 20
10.4792118325
 30
0.0
 10
15.1094723635
 20
10.4559036371
 30
0.0
 10
15.1140339156
 20
10.4315257751
 30
0.0
 10
15.118262143
 20
10.4061226845
 30
0.0
 10
15.1221491958
 20
10.3797406949
 30
0.0
 10
15.125687898
 20
10.3524279816
 30
0.0
 10
15.1288717126
 20
10.3242344485
 30
0.0
 10
15.1316947346
 20
10.2952116182
 30
0.0
 10
15.1341517214
 20
10.2654125618
 30
0.0
 10
15.1362381564
 20
10.2348917669
 30
0.0
 10
15.1379501659
 20
10.2037050632
 30
0.0
 10
15.1392845495
 20
10.1719096329
 30
0.0
 10
15.1402388901
 20
10.1395632267
 30
0.0
 10
15.1408113145
 20
10.1067256274
 30
0.0
 10
15.1409369453
 20
10.0846759655
 30
0.0
 10
15.1409369453
 20
10.0735803
 30
0.0
  0
SPLINE
  5
3D1
100
AcDbEntity
  8
0
100
AcDbSpline
 62
7
  6
CONTINUOUS
 70
0
 71
3
 72
26
 73
22
 74
0
 42
0.0000001
 43
0.0000001
 44
0.0000000001
 40
0.0
 40
0.0
 40
0.0
 40
0.0
 40
0.0218527498
 40
0.0444245773
 40
0.0677102122
 40
0.0917030546
 40
0.1163954914
 40
0.1417790554
 40
0.1945793211
 40
0.2500198033
 40
0.3080031764
 40
0.3684216172
 40
0.4311579195
 40
0.4960864779
 40
0.563074133
 40
0.6319808519
 40
0.7026603798
 40
0.7749612106
 40
0.8487254259
 40
0.9237948348
 40
1.0
 40
1.0
 40
1.0
 40
1.0
 10
14.856771545
 20
10.5300903808
 30
0.0
 10
14.857904917
 20
10.526922526
 30
0.0
 10
14.8601408393
 20
10.5204580262
 30
0.0
 10
14.8633560604
 20
10.5105408129
 30
0.0
 10
14.8664851967
 20
10.5002512104
 30
0.0
 10
14.8695264002
 20
10.4895953945
 30
0.0
 10
14.8724778966
 20
10.4785796603
 30
0.0
 10
14.8763419278
 20
10.4632186302
 30
0.0
 10
14.8809203162
 20
10.4431584687
 30
0.0
 10
14.8859602601
 20
10.418064822
 30
0.0
 10
14.8906034972
 20
10.3917031292
 30
0.0
 10
14.8948388254
 20
10.3641361235
 30
0.0
 10
14.898656003
 20
10.3354292479
 30
0.0
 10
14.9020458023
 20
10.3056507853
 30
0.0
 10
14.9050000217
 20
10.2748715919
 30
0.0
 10
14.9075115083
 20
10.2431649519
 30
0.0
 10
14.90957419
 20
10.2106063449
 30
0.0
 10
14.9111830455
 20
10.1772734872
 30
0.0
 10
14.9123342491
 20
10.1432454711
 30
0.0
 10
14.9130248881
 20
10.1086038702
 30
0.0
 10
14.9131761857
 20
10.0853129985
 30
0.0
 10
14.9131761857
 20
10.073580287
 30
0.0
  0
SPLINE
  5
3D2
100
AcDbEntity
  8
0
100
AcDbSpline
 62
7
  6
CONTINUOUS
 70
0
 71
3
 72
50
 73
46
 74
0
 42
0.0000001
 43
0.0000001
 44
0.0000000001
 40
0.0
 40
0.0
 40
0.0
 40
0.0
 40
0.0065716353
 40
0.0133303381
 40
0.0202970784
 40
0.027490774
 40
0.0349282405
 40
0.0426244078
 40
0.0505924488
 40
0.0588437924
 40
0.0673884106
 40
0.0762349231
 40
0.0853906114
 40
0.0948617058
 40
0.1046534263
 40
0.1147699899
 40
0.125214873
 40
0.1359907866
 40
0.1470996895
 40
0.1585430173
 40
0.1703216054
 40
0.1824357186
 40
0.1948852468
 40
0.2076695871
 40
0.2342375024
 40
0.2621280647
 40
0.2913237829
 40
0.3218025476
 40
0.3535382769
 40
0.3865012977
 40
0.4206585933
 40
0.4559742225
 40
0.4924095694
 40
0.5299234512
 40
0.5684724032
 40
0.6080108829
 40
0.6484913283
 40
0.6898643621
 40
0.7320789545
 40
0.7750824761
 40
0.8188210109
 40
0.8632390401
 40
0.908279735
 40
0.9538875092
 40
1.0
 40
1.0
 40
1.0
 40
1.0
 10
15.0437688278
 20
8.0199205692
 30
0.0
 10
15.0455571594
 20
8.0190041908
 30
0.0
 10
15.0491255052
 20
8.0170275851
 30
0.0
 10
15.0543657075
 20
8.0136957883
 30
0.0
 10
15.0595619393
 20
8.0099597929
 30
0.0
 10
15.0647121774
 20
8.0058211639
 30
0.0
 10
15.0698149635
 20
8.0012815375
 30
0.0
 10
15.0748686679
 20
7.9963425804
 30
0.0
 10
15.0798716361
 20
7.9910059987
 30
0.0
 10
15.084822357
 20
7.9852737487
 30
0.0
 10
15.0897192145
 20
7.9791477937
 30
0.0
 10
15.0945605619
 20
7.9726302094
 30
0.0
 10
15.0993448914
 20
7.9657232937
 30
0.0
 10
15.1040705765
 20
7.9584293837
 30
0.0
 10
15.1087359992
 20
7.9507509591
 30
0.0
 10
15.1133396646
 20
7.9426906959
 30
0.0
 10
15.1178799619
 20
7.9342513299
 30
0.0
 10
15.1223553247
 20
7.925435753
 30
0.0
 10
15.1267642893
 20
7.9162470282
 30
0.0
 10
15.1311052839
 20
7.906688293
 30
0.0
 10
15.1353768132
 20
7.8967628428
 30
0.0
 10
15.1395774514
 20
7.8864741284
 30
0.0
 10
15.1437057142
 20
7.8758256645
 30
0.0
 10
15.1491819058
 20
7.8609620046
 30
0.0
 10
15.1558214885
 20
7.8414985718
 30
0.0
 10
15.1633792274
 20
7.8170579071
 30
0.0
 10
15.1706154366
 20
7.7912760267
 30
0.0
 10
15.1775200514
 20
7.7641886799
 30
0.0
 10
15.1840834036
 20
7.7358331859
 30
0.0
 10
15.1902962687
 20
7.7062487632
 30
0.0
 10
15.1961499792
 20
7.6754763794
 30
0.0
 10
15.2016363274
 20
7.6435586854
 30
0.0
 10
15.2067475836
 20
7.6105399424
 30
0.0
 10
15.2114766074
 20
7.5764659812
 30
0.0
 10
15.2158167776
 20
7.5413841158
 30
0.0
 10
15.2197619745
 20
7.5053430679
 30
0.0
 10
15.2233066776
 20
7.4683929117
 30
0.0
 10
15.2264459346
 20
7.4305850007
 30
0.0
 10
15.2291753164
 20
7.3919718901
 30
0.0
 10
15.231490996
 20
7.3526072261
 30
0.0
 10
15.2333897344
 20
7.3125457652
 30
0.0
 10
15.234868856
 20
7.2718433227
 30
0.0
 10
15.2359262999
 20
7.2305560057
 30
0.0
 10
15.2365605017
 20
7.1887419045
 30
0.0
 10
15.236699913
 20
7.1606958445
 30
0.0
 10
15.236699913
 20
7.146595757
 30
0.0
  0
SPLINE
  5
3D3
100
AcDbEntity
  8
0
100
AcDbSpline
 62
7
  6
CONTINUOUS
 70
0
 71
3
 72
54
 73
50
 74
0
 42
0.0000001
 43
0.0000001
 44
0.0000000001
 40
0.0
 40
0.0
 40
0.0
 40
0.0
 40
0.0063158427
 40
0.0126705974
 40
0.0191023953
 40
0.0256479035
 40
0.0323417516
 40
0.0392160545
 40
0.0536138127
 40
0.061194488
 40
0.0690562166
 40
0.0772172825
 40
0.0856936302
 40
0.0944989909
 40
0.1036450473
 40
0.113141787
 40
0.1229974971
 40
0.1332190617
 40
0.1438121259
 40
0.1547810799
 40
0.1661293869
 40
0.1778595312
 40
0.189973133
 40
0.2024711534
 40
0.2153537503
 40
0.2286205275
 40
0.2422705277
 40
0.256302183
 40
0.2707135528
 40
0.2855021644
 40
0.300665138
 40
0.316199276
 40
0.3321009043
 40
0.3649900029
 40
0.3992976831
 40
0.4349839512
 40
0.472004695
 40
0.5103120262
 40
0.5498546333
 40
0.5905781015
 40
0.6324251619
 40
0.6753358913
 40
0.7192479428
 40
0.7640967229
 40
0.8098156864
 40
0.8563364658
 40
0.9035883331
 40
0.9515014468
 40
1.0
 40
1.0
 40
1.0
 40
1.0
 10
15.0747504416
 20
8.024481375
 30
0.0
 10
15.0767448607
 20
8.0243430576
 30
0.0
 10
15.0807365639
 20
8.0239023395
 30
0.0
 10
15.0866793713
 20
8.0227535092
 30
0.0
 10
15.0925824668
 20
8.0211171039
 30
0.0
 10
15.0984423857
 20
8.0189943464
 30
0.0
 10
15.1042568088
 20
8.0163864394
 30
0.0
 10
15.1120640653
 20
8.0122013651
 30
0.0
 10
15.1196592469
 20
8.0070781075
 30
0.0
 10
15.1270095116
 20
8.0011411434
 30
0.0
 10
15.1325613792
 20
7.9961355131
 30
0.0
 10
15.1380540213
 20
7.9906569117
 30
0.0
 10
15.1434859734
 20
7.9847071978
 30
0.0
 10
15.1488550208
 20
7.9782889574
 30
0.0
 10
15.1541592676
 20
7.9714048475
 30
0.0
 10
15.1593965605
 20
7.9640576092
 30
0.0
 10
15.1645649434
 20
7.9562502721
 30
0.0
 10
15.1696623833
 20
7.9479859948
 30
0.0
 10
15.174686789
 20
7.9392680951
 30
0.0
 10
15.1796362507
 20
7.930100159
 30
0.0
 10
15.1845086977
 20
7.9204858776
 30
0.0
 10
15.1893021745
 20
7.9104291768
 30
0.0
 10
15.194014781
 20
7.8999341728
 30
0.0
 10
15.1986445032
 20
7.8890051221
 30
0.0
 10
15.2031895277
 20
7.8776465224
 30
0.0
 10
15.2076479594
 20
7.8658630146
 30
0.0
 10
15.2120179318
 20
7.853659422
 30
0.0
 10
15.2162977219
 20
7.841040769
 30
0.0
 10
15.220485488
 20
7.8280122203
 30
0.0
 10
15.224579544
 20
7.8145791389
 30
0.0
 10
15.2285782118
 20
7.8007470533
 30
0.0
 10
15.2324797993
 20
7.7865216276
 30
0.0
 10
15.2376079847
 20
7.7668161771
 30
0.0
 10
15.2437500732
 20
7.7412365905
 30
0.0
 10
15.2506283966
 20
7.7094022103
 30
0.0
 10
15.2570832904
 20
7.6761462
 30
0.0
 10
15.2631040089
 20
7.6415233621
 30
0.0
 10
15.2686805208
 20
7.6055905909
 30
0.0
 10
15.2738035452
 20
7.5684070509
 30
0.0
 10
15.2784645431
 20
7.5300339725
 30
0.0
 10
15.2826557341
 20
7.490534573
 30
0.0
 10
15.286370133
 20
7.4499739513
 30
0.0
 10
15.2896015587
 20
7.4084189899
 30
0.0
 10
15.2923446284
 20
7.3659382076
 30
0.0
 10
15.2945947586
 20
7.3226016318
 30
0.0
 10
15.2963481629
 20
7.2784808963
 30
0.0
 10
15.2976019902
 20
7.2336483623
 30
0.0
 10
15.2983540293
 20
7.1881785716
 30
0.0
 10
15.298519171
 20
7.1576602535
 30
0.0
 10
15.298519171
 20
7.1423085769
 30
0.0
  0
SPLINE
  5
3D4
100
AcDbEntity
  8
0
100
AcDbSpline
 62
7
  6
CONTINUOUS
 70
0
 71
3
 72
20
 73
16
 74
0
 42
0.0000001
 43
0.0000001
 44
0.0000000001
 40
0.0
 40
0.0
 40
0.0
 40
0.0
 40
0.0519097969
 40
0.1055195802
 40
0.1607770307
 40
0.2176261477
 40
0.2760081519
 40
0.3358610954
 40
0.3971205327
 40
0.4597195074
 40
0.5235885943
 40
0.5886564406
 40
0.7220912433
 40
0.8594159985
 40
1.0
 40
1.0
 40
1.0
 40
1.0
 10
14.8104424691
 20
10.3934654168
 30
0.0
 10
14.8115953732
 20
10.3878241943
 30
0.0
 10
14.8138319722
 20
10.3763349158
 30
0.0
 10
14.8169388205
 20
10.3587734821
 30
0.0
 10
14.8198487272
 20
10.3406232656
 30
0.0
 10
14.8225580872
 20
10.3219070983
 30
0.0
 10
14.8250633945
 20
10.3026484302
 30
0.0
 10
14.8273615343
 20
10.2828714242
 30
0.0
 10
14.8294495768
 20
10.2626008923
 30
0.0
 10
14.831324858
 20
10.2418622846
 30
0.0
 10
14.832985075
 20
10.2206816104
 30
0.0
 10
14.8349251885
 20
10.1916435847
 30
0.0
 10
14.8367850257
 20
10.154436907
 30
0.0
 10
14.8381146812
 20
10.1088272408
 30
0.0
 10
14.8384040785
 20
10.0780007094
 30
0.0
 10
14.8384040785
 20
10.0624071509
 30
0.0
  0
SPLINE
  5
3D5
100
AcDbEntity
  8
0
100
AcDbSpline
 62
7
  6
CONTINUOUS
 70
0
 71
3
 72
28
 73
24
 74
0
 42
0.0000001
 43
0.0000001
 44
0.0000000001
 40
0.0
 40
0.0
 40
0.0
 40
0.0
 40
0.0240321401
 40
0.0488345781
 40
0.0743842381
 40
0.1006564588
 40
0.127625295
 40
0.155263537
 40
0.1835427572
 40
0.2124335371
 40
0.2419053213
 40
0.2719267471
 40
0.3334875237
 40
0.3968490904
 40
0.4617327706
 40
0.5278508307
 40
0.5949083073
 40
0.662604799
 40
0.7306362541
 40
0.7986966365
 40
0.8664800191
 40
0.9336811922
 40
1.0
 40
1.0
 40
1.0
 40
1.0
 10
14.7394527445
 20
9.370269647
 30
0.0
 10
14.7413292705
 20
9.3755711809
 30
0.0
 10
14.7450442844
 20
9.3863791553
 30
0.0
 10
14.7504253846
 20
9.4029341974
 30
0.0
 10
14.7556981445
 20
9.4200732972
 30
0.0
 10
14.7608562464
 20
9.4377758592
 30
0.0
 10
14.7658934724
 20
9.4560207047
 30
0.0
 10
14.7708037439
 20
9.4747859716
 30
0.0
 10
14.775581201
 20
9.4940491715
 30
0.0
 10
14.780220022
 20
9.5137872146
 30
0.0
 10
14.7847147323
 20
9.5339764534
 30
0.0
 10
14.790556898
 20
9.5616962604
 30
0.0
 10
14.7974478819
 20
9.5972973963
 30
0.0
 10
14.8049935758
 20
9.6410718045
 30
0.0
 10
14.8118467566
 20
9.686038969
 30
0.0
 10
14.8179743772
 20
9.7319832481
 30
0.0
 10
14.8233468918
 20
9.7786844762
 30
0.0
 10
14.8279384321
 20
9.8259187613
 30
0.0
 10
14.831726909
 20
9.8734596399
 30
0.0
 10
14.8346941461
 20
9.9210791906
 30
0.0
 10
14.8368259041
 20
9.9685490342
 30
0.0
 10
14.8381120669
 20
10.0156414992
 30
0.0
 10
14.8384040785
 20
10.0468876604
 30
0.0
 10
14.8384040785
 20
10.0624071509
 30
0.0
  0
SPLINE
  5
3D6
100
AcDbEntity
  8
0
100
AcDbSpline
 62
7
  6
CONTINUOUS
 70
0
 71
3
 72
55
 73
51
 74
0
 42
0.0000001
 43
0.0000001
 44
0.0000000001
 40
0.0
 40
0.0
 40
0.0
 40
0.0
 40
0.0056934615
 40
0.0116332993
 40
0.0178550524
 40
0.0243888286
 40
0.0312598539
 40
0.0384888318
 40
0.0460926477
 40
0.0540847061
 40
0.0624755784
 40
0.0712732185
 40
0.0804835028
 40
0.0901103257
 40
0.1001560439
 40
0.11062148
 40
0.1215062948
 40
0.1328089279
 40
0.1445269191
 40
0.1566568083
 40
0.1691944198
 40
0.1821347374
 40
0.195472162
 40
0.2092003724
 40
0.223312562
 40
0.2378012923
 40
0.2526587135
 40
0.267876416
 40
0.2834456358
 40
0.2993571086
 40
0.3156012615
 40
0.3321680718
 40
0.349047246
 40
0.3662280856
 40
0.4014502651
 40
0.4377438042
 40
0.475013272
 40
0.5131595126
 40
0.5520800966
 40
0.5916697549
 40
0.6318208001
 40
0.6724235382
 40
0.7133666753
 40
0.7545377196
 40
0.7958233808
 40
0.8371099683
 40
0.8782837877
 40
0.9192315405
 40
0.9598407152
 40
1.0
 40
1.0
 40
1.0
 40
1.0
 10
14.8814764232
 20
8.6984338689
 30
0.0
 10
14.8842513244
 20
8.6994020185
 30
0.0
 10
14.889830306
 20
8.7016492664
 30
0.0
 10
14.8980623358
 20
8.7058157097
 30
0.0
 10
14.9063136794
 20
8.7108379645
 30
0.0
 10
14.9145783984
 20
8.7167107537
 30
0.0
 10
14.9228515863
 20
8.7234294614
 30
0.0
 10
14.9311281709
 20
8.7309886937
 30
0.0
 10
14.9394027113
 20
8.7393830242
 30
0.0
 10
14.9476699161
 20
8.7486062484
 30
0.0
 10
14.955924034
 20
8.7586518849
 30
0.0
 10
14.9641595353
 20
8.7695126526
 30
0.0
 10
14.9723704821
 20
8.7811808778
 30
0.0
 10
14.9805512032
 20
8.7936481091
 30
0.0
 10
14.9886956782
 20
8.806905448
 30
0.0
 10
14.996798179
 20
8.8209432602
 30
0.0
 10
15.004852677
 20
8.8357514394
 30
0.0
 10
15.012853448
 20
8.8513191888
 30
0.0
 10
15.0207945059
 20
8.8676352305
 30
0.0
 10
15.0286701731
 20
8.8846876395
 30
0.0
 10
15.0364745415
 20
8.9024640094
 30
0.0
 10
15.0442020117
 20
8.9209513264
 30
0.0
 10
15.0518467804
 20
8.940136101
 30
0.0
 10
15.0594033512
 20
8.9600042733
 30
0.0
 10
15.0668660476
 20
8.9805413176
 30
0.0
 10
15.0742294976
 20
9.0017321724
 30
0.0
 10
15.0814881699
 20
9.023561324
 30
0.0
 10
15.0886368357
 20
9.0460127562
 30
0.0
 10
15.0956701263
 20
9.0690700167
 30
0.0
 10
15.1025829729
 20
9.092716183
 30
0.0
 10
15.1093701866
 20
9.1169339172
 30
0.0
 10
15.1160268687
 20
9.1417054367
 30
0.0
 10
15.1225480498
 20
9.1670125874
 30
0.0
 10
15.1311268815
 20
9.2017321203
 30
0.0
 10
15.1414630503
 20
9.2463379794
 30
0.0
 10
15.1531519917
 20
9.3012652829
 30
0.0
 10
15.1641921581
 20
9.3578651839
 30
0.0
 10
15.1745509911
 20
9.4159714864
 30
0.0
 10
15.1841979264
 20
9.4754137439
 30
0.0
 10
15.1931045211
 20
9.5360174931
 30
0.0
 10
15.2012445242
 20
9.5976048505
 30
0.0
 10
15.2085939561
 20
9.6599950195
 30
0.0
 10
15.2151311768
 20
9.7230048322
 30
0.0
 10
15.2208369487
 20
9.7864492898
 30
0.0
 10
15.2256944928
 20
9.850142109
 30
0.0
 10
15.2296895376
 20
9.9138962767
 30
0.0
 10
15.232810361
 20
9.9775245832
 30
0.0
 10
15.2350478258
 20
10.040840249
 30
0.0
 10
15.2363954038
 20
10.1036571958
 30
0.0
 10
15.236699913
 20
10.1453501556
 30
0.0
 10
15.236699913
 20
10.1660802291
 30
0.0
  0
SPLINE
  5
3D7
100
AcDbEntity
  8
0
100
AcDbSpline
 62
7
  6
CONTINUOUS
 70
0
 71
3
 72
62
 73
58
 74
0
 42
0.0000001
 43
0.0000001
 44
0.0000000001
 40
0.0
 40
0.0
 40
0.0
 40
0.0
 40
0.0028268402
 40
0.0056210363
 40
0.0083913031
 40
0.0111465967
 40
0.0138960307
 40
0.0166487858
 40
0.0194140052
 40
0.0222006953
 40
0.0250176435
 40
0.0278733355
 40
0.0337308942
 40
0.0398351679
 40
0.046238003
 40
0.052983398
 40
0.060107859
 40
0.0676411685
 40
0.0756071526
 40
0.0840245817
 40
0.0929078414
 40
0.1022676801
 40
0.1121116639
 40
0.1224447436
 40
0.1332695202
 40
0.1445866754
 40
0.1563951002
 40
0.1686922351
 40
0.1814741068
 40
0.1947356116
 40
0.2084704906
 40
0.2226715782
 40
0.2373307372
 40
0.2524390843
 40
0.2679869001
 40
0.2839638387
 40
0.3003588218
 40
0.3171602374
 40
0.3343558243
 40
0.3519328615
 40
0.369878049
 40
0.3881776883
 40
0.4068175632
 40
0.445058842
 40
0.4844810486
 40
0.5249573148
 40
0.5663559762
 40
0.6085412563
 40
0.6513739278
 40
0.6947119587
 40
0.738411148
 40
0.7823257543
 40
0.8263091244
 40
0.8702143056
 40
0.9138946992
 40
0.9572046053
 40
1.0
 40
1.0
 40
1.0
 40
1.0
 10
14.8614133225
 20
9.0659265059
 30
0.0
 10
14.8623900255
 20
9.0655811962
 30
0.0
 10
14.8643516402
 20
9.0649481755
 30
0.0
 10
14.8673290185
 20
9.0641723935
 30
0.0
 10
14.8703210342
 20
9.0635768511
 30
0.0
 10
14.8733268174
 20
9.0631617603
 30
0.0
 10
14.8763456352
 20
9.0629272645
 30
0.0
 10
14.8793766975
 20
9.0628734814
 30
0.0
 10
14.8824192257
 20
9.0630003463
 30
0.0
 10
14.8854724255
 20
9.0633077685
 30
0.0
 10
14.8885356173
 20
9.0637956934
 30
0.0
 10
14.89266638
 20
9.0646940682
 30
0.0
 10
14.8978699092
 20
9.0662849178
 30
0.0
 10
14.9040830599
 20
9.068897909
 30
0.0
 10
14.910314412
 20
9.0722264459
 30
0.0
 10
14.916558731
 20
9.0762659813
 30
0.0
 10
14.9228118165
 20
9.0810119158
 30
0.0
 10
14.9290690963
 20
9.086459603
 30
0.0
 10
14.9353260029
 20
9.0926040058
 30
0.0
 10
14.9415776507
 20
9.0994397678
 30
0.0
 10
14.9478191044
 20
9.1069609311
 30
0.0
 10
14.9540451634
 20
9.1151610593
 30
0.0
 10
14.9602506519
 20
9.1240330412
 30
0.0
 10
14.9664301907
 20
9.1335692291
 30
0.0
 10
14.9725784928
 20
9.1437612972
 30
0.0
 10
14.978690113
 20
9.1546003728
 30
0.0
 10
14.9847597437
 20
9.1660769278
 30
0.0
 10
14.9907819489
 20
9.1781808946
 30
0.0
 10
14.9967514595
 20
9.1909015819
 30
0.0
 10
15.002662898
 20
9.2042277724
 30
0.0
 10
15.0085110742
 20
9.218147658
 30
0.0
 10
15.0142907036
 20
9.2326489223
 30
0.0
 10
15.0199967041
 20
9.2477186902
 30
0.0
 10
15.0256239114
 20
9.2633435981
 30
0.0
 10
15.0311673754
 20
9.2795097561
 30
0.0
 10
15.0366220741
 20
9.2962028069
 30
0.0
 10
15.0419832097
 20
9.3134078995
 30
0.0
 10
15.0472459223
 20
9.3311097387
 30
0.0
 10
15.052405585
 20
9.3492925677
 30
0.0
 10
15.0574575196
 20
9.3679402123
 30
0.0
 10
15.0623972815
 20
9.3870360643
 30
0.0
 10
15.0672204127
 20
9.4065631443
 30
0.0
 10
15.0735438642
 20
9.4333794879
 30
0.0
 10
15.0811138352
 20
9.4678528041
 30
0.0
 10
15.0895914343
 20
9.5103116087
 30
0.0
 10
15.0975077778
 20
9.5540549422
 30
0.0
 10
15.1048345329
 20
9.5989269998
 30
0.0
 10
15.1115454635
 20
9.6447681018
 30
0.0
 10
15.1176165609
 20
9.6914150327
 30
0.0
 10
15.1230261168
 20
9.7387016966
 30
0.0
 10
15.1277548019
 20
9.7864596977
 30
0.0
 10
15.1317857336
 20
9.8345189494
 30
0.0
 10
15.1351045343
 20
9.8827082864
 30
0.0
 10
15.1376993858
 20
9.9308560676
 30
0.0
 10
15.1395610656
 20
9.9787908419
 30
0.0
 10
15.1406829879
 20
10.0263417381
 30
0.0
 10
15.1409369453
 20
10.0578971398
 30
0.0
 10
15.1409369453
 20
10.0735803
 30
0.0
  0
SPLINE
  5
3D8
100
AcDbEntity
  8
0
100
AcDbSpline
 62
7
  6
CONTINUOUS
 70
0
 71
3
 72
34
 73
30
 74
0
 42
0.0000001
 43
0.0000001
 44
0.0000000001
 40
0.0
 40
0.0
 40
0.0
 40
0.0
 40
0.0200005699
 40
0.0410972415
 40
0.0632729715
 40
0.0865062973
 40
0.1107717605
 40
0.1360403588
 40
0.1622800155
 40
0.1894557885
 40
0.2175300938
 40
0.2464630463
 40
0.2762125991
 40
0.3067346561
 40
0.3379833474
 40
0.3699111516
 40
0.4024689625
 40
0.435606317
 40
0.4692715191
 40
0.503411698
 40
0.5379729953
 40
0.5729006935
 40
0.6081392846
 40
0.6436326262
 40
0.7151555654
 40
0.7870130666
 40
0.8587449898
 40
0.9298916957
 40
1.0
 40
1.0
 40
1.0
 40
1.0
 10
14.766491689
 20
9.2286166986
 30
0.0
 10
14.7691620226
 20
9.2337187748
 30
0.0
 10
14.7744597985
 20
9.244302367
 30
0.0
 10
14.7820984439
 20
9.26084413
 30
0.0
 10
14.7896300714
 20
9.2784518956
 30
0.0
 10
14.7970416393
 20
9.2970956715
 30
0.0
 10
14.8043205096
 20
9.3167439734
 30
0.0
 10
14.8114542293
 20
9.3373634266
 30
0.0
 10
14.818430545
 20
9.3589190086
 30
0.0
 10
14.8252374799
 20
9.3813740456
 30
0.0
 10
14.8318633927
 20
9.4046902851
 30
0.0
 10
14.8382969035
 20
9.4288279989
 30
0.0
 10
14.8445269574
 20
9.4537460383
 30
0.0
 10
14.8505429062
 20
9.4794018899
 30
0.0
 10
14.8563344304
 20
9.5057517798
 30
0.0
 10
14.8618915756
 20
9.5327507449
 30
0.0
 10
14.867204849
 20
9.5603526906
 30
0.0
 10
14.87226515
 20
9.5885104914
 30
0.0
 10
14.877063781
 20
9.6171760752
 30
0.0
 10
14.8815925457
 20
9.6463004867
 30
0.0
 10
14.8858437022
 20
9.6758339872
 30
0.0
 10
14.8898099378
 20
9.7057261313
 30
0.0
 10
14.8934845031
 20
9.7359259012
 30
0.0
 10
14.8979978607
 20
9.7766356276
 30
0.0
 10
14.9028631673
 20
9.8279113766
 30
0.0
 10
14.9074376573
 20
9.8896823805
 30
0.0
 10
14.9107314412
 20
9.9514266785
 30
0.0
 10
14.9127222458
 20
10.0127225613
 30
0.0
 10
14.9131761857
 20
10.0533944597
 30
0.0
 10
14.9131761857
 20
10.073580287
 30
0.0
  0
SPLINE
  5
3D9
100
AcDbEntity
  8
0
100
AcDbSpline
 62
4
  6
CONTINUOUS
 70
0
 71
3
 72
343
 73
339
 74
0
 42
0.0000001
 43
0.0000001
 44
0.0000000001
 40
0.0
 40
0.0
 40
0.0
 40
0.0
 40
0.015625
 40
0.0234375
 40
0.03125
 40
0.0390625
 40
0.04296875
 40
0.046875
 40
0.05078125
 40
0.0546875
 40
0.056640625
 40
0.05859375
 40
0.060546875
 40
0.0615234375
 40
0.0620117188
 40
0.0625
 40
0.0629882812
 40
0.0634765625
 40
0.064453125
 40
0.06640625
 40
0.068359375
 40
0.0703125
 40
0.07421875
 40
0.078125
 40
0.08203125
 40
0.0859375
 40
0.09375
 40
0.1015625
 40
0.10546875
 40
0.109375
 40
0.11328125
 40
0.1171875
 40
0.119140625
 40
0.12109375
 40
0.123046875
 40
0.1240234375
 40
0.1245117188
 40
0.125
 40
0.1254882812
 40
0.1259765625
 40
0.126953125
 40
0.12890625
 40
0.130859375
 40
0.1328125
 40
0.13671875
 40
0.140625
 40
0.14453125
 40
0.1484375
 40
0.15625
 40
0.1640625
 40
0.16796875
 40
0.171875
 40
0.17578125
 40
0.1796875
 40
0.181640625
 40
0.18359375
 40
0.1845703125
 40
0.185546875
 40
0.1865234375
 40
0.1870117188
 40
0.1875
 40
0.1879882812
 40
0.1884765625
 40
0.189453125
 40
0.1904296875
 40
0.19140625
 40
0.193359375
 40
0.1953125
 40
0.19921875
 40
0.203125
 40
0.20703125
 40
0.2109375
 40
0.21875
 40
0.2265625
 40
0.23046875
 40
0.234375
 40
0.23828125
 40
0.2421875
 40
0.244140625
 40
0.24609375
 40
0.2470703125
 40
0.248046875
 40
0.2490234375
 40
0.2495117188
 40
0.25
 40
0.2504882812
 40
0.2509765625
 40
0.251953125
 40
0.2529296875
 40
0.25390625
 40
0.255859375
 40
0.2578125
 40
0.26171875
 40
0.265625
 40
0.26953125
 40
0.2734375
 40
0.28125
 40
0.2890625
 40
0.29296875
 40
0.296875
 40
0.30078125
 40
0.3046875
 40
0.306640625
 40
0.30859375
 40
0.310546875
 40
0.3115234375
 40
0.3120117188
 40
0.3125
 40
0.3129882812
 40
0.3134765625
 40
0.314453125
 40
0.31640625
 40
0.318359375
 40
0.3203125
 40
0.32421875
 40
0.328125
 40
0.33203125
 40
0.3359375
 40
0.34375
 40
0.3515625
 40
0.35546875
 40
0.359375
 40
0.36328125
 40
0.3671875
 40
0.369140625
 40
0.37109375
 40
0.373046875
 40
0.3740234375
 40
0.3745117188
 40
0.375
 40
0.3754882812
 40
0.3759765625
 40
0.376953125
 40
0.37890625
 40
0.380859375
 40
0.3828125
 40
0.38671875
 40
0.390625
 40
0.39453125
 40
0.3984375
 40
0.40625
 40
0.4140625
 40
0.41796875
 40
0.421875
 40
0.42578125
 40
0.4296875
 40
0.431640625
 40
0.43359375
 40
0.4345703125
 40
0.435546875
 40
0.4365234375
 40
0.4370117188
 40
0.4375
 40
0.4379882812
 40
0.4384765625
 40
0.439453125
 40
0.4404296875
 40
0.44140625
 40
0.443359375
 40
0.4453125
 40
0.44921875
 40
0.453125
 40
0.45703125
 40
0.4609375
 40
0.46875
 40
0.4765625
 40
0.48046875
 40
0.484375
 40
0.48828125
 40
0.4921875
 40
0.494140625
 40
0.49609375
 40
0.498046875
 40
0.4990234375
 40
0.4995117188
 40
0.5
 40
0.5004882812
 40
0.5009765625
 40
0.501953125
 40
0.50390625
 40
0.505859375
 40
0.5078125
 40
0.51171875
 40
0.515625
 40
0.51953125
 40
0.5234375
 40
0.53125
 40
0.5390625
 40
0.54296875
 40
0.546875
 40
0.55078125
 40
0.5546875
 40
0.556640625
 40
0.55859375
 40
0.560546875
 40
0.5615234375
 40
0.5620117188
 40
0.5625
 40
0.5629882812
 40
0.5634765625
 40
0.564453125
 40
0.56640625
 40
0.568359375
 40
0.5703125
 40
0.57421875
 40
0.578125
 40
0.58203125
 40
0.5859375
 40
0.59375
 40
0.6015625
 40
0.609375
 40
0.61328125
 40
0.6171875
 40
0.619140625
 40
0.62109375
 40
0.623046875
 40
0.6240234375
 40
0.6245117188
 40
0.625
 40
0.6254882812
 40
0.6259765625
 40
0.626953125
 40
0.62890625
 40
0.630859375
 40
0.6328125
 40
0.63671875
 40
0.640625
 40
0.6484375
 40
0.65625
 40
0.6640625
 40
0.66796875
 40
0.671875
 40
0.67578125
 40
0.6796875
 40
0.681640625
 40
0.68359375
 40
0.685546875
 40
0.6865234375
 40
0.6870117188
 40
0.6875
 40
0.6879882812
 40
0.6884765625
 40
0.689453125
 40
0.69140625
 40
0.693359375
 40
0.6953125
 40
0.69921875
 40
0.703125
 40
0.70703125
 40
0.7109375
 40
0.71875
 40
0.7265625
 40
0.73046875
 40
0.734375
 40
0.73828125
 40
0.7421875
 40
0.744140625
 40
0.74609375
 40
0.748046875
 40
0.7490234375
 40
0.7495117188
 40
0.75
 40
0.7504882812
 40
0.7509765625
 40
0.751953125
 40
0.75390625
 40
0.755859375
 40
0.7578125
 40
0.76171875
 40
0.765625
 40
0.76953125
 40
0.7734375
 40
0.78125
 40
0.7890625
 40
0.796875
 40
0.80078125
 40
0.8046875
 40
0.806640625
 40
0.80859375
 40
0.810546875
 40
0.8115234375
 40
0.8120117188
 40
0.8125
 40
0.8129882812
 40
0.8134765625
 40
0.814453125
 40
0.81640625
 40
0.818359375
 40
0.8203125
 40
0.82421875
 40
0.828125
 40
0.8359375
 40
0.84375
 40
0.8515625
 40
0.859375
 40
0.86328125
 40
0.8671875
 40
0.869140625
 40
0.87109375
 40
0.873046875
 40
0.8740234375
 40
0.8745117188
 40
0.875
 40
0.8754882812
 40
0.8759765625
 40
0.876953125
 40
0.87890625
 40
0.880859375
 40
0.8828125
 40
0.88671875
 40
0.890625
 40
0.8984375
 40
0.90625
 40
0.9140625
 40
0.91796875
 40
0.921875
 40
0.92578125
 40
0.9296875
 40
0.931640625
 40
0.93359375
 40
0.935546875
 40
0.9365234375
 40
0.9370117188
 40
0.9375
 40
0.9379882812
 40
0.9384765625
 40
0.939453125
 40
0.94140625
 40
0.943359375
 40
0.9453125
 40
0.94921875
 40
0.953125
 40
0.95703125
 40
0.9609375
 40
0.96875
 40
0.9765625
 40
0.984375
 40
1.0
 40
1.0
 40
1.0
 40
1.0
 10
9.6149608936
 20
6.9058736124
 30
0.0
 10
9.609332414
 20
6.9057120716
 30
0.0
 10
9.6008896946
 20
6.9054697601
 30
0.0
 10
9.5896327353
 20
6.9051466787
 30
0.0
 10
9.581190016
 20
6.9049043665
 30
0.0
 10
9.5741544159
 20
6.9047024434
 30
0.0
 10
9.5685259375
 20
6.9045408964
 30
0.0
 10
9.5643045741
 20
6.9044197594
 30
0.0
 10
9.5600832281
 20
6.9042985337
 30
0.0
 10
9.5565653857
 20
6.9041977888
 30
0.0
 10
9.5537512328
 20
6.9041165735
 30
0.0
 10
9.5516402876
 20
6.9040573541
 30
0.0
 10
9.5498822179
 20
6.9040026227
 30
0.0
 10
9.5486495061
 20
6.9039748724
 30
0.0
 10
9.5479483204
 20
6.9039425239
 30
0.0
 10
9.5474133573
 20
6.9039647184
 30
0.0
 10
9.5469130793
 20
6.9038093348
 30
0.0
 10
9.5462339434
 20
6.9036640979
 30
0.0
 10
9.5450510925
 20
6.9033810738
 30
0.0
 10
9.5433583585
 20
6.9029918417
 30
0.0
 10
9.5413283391
 20
6.9025183049
 30
0.0
 10
9.5386212059
 20
6.9018891786
 30
0.0
 10
9.5352374407
 20
6.9011019965
 30
0.0
 10
9.5311768575
 20
6.9001577099
 30
0.0
 10
9.5271162917
 20
6.8992133344
 30
0.0
 10
9.5217021979
 20
6.8979541983
 30
0.0
 10
9.5149345831
 20
6.8963802666
 30
0.0
 10
9.5081669661
 20
6.8948063424
 30
0.0
 10
9.5027528759
 20
6.8935471941
 30
0.0
 10
9.4986922993
 20
6.8926028553
 30
0.0
 10
9.4946317567
 20
6.8916584315
 30
0.0
 10
9.4912478653
 20
6.8908716761
 30
0.0
 10
9.4885409894
 20
6.8902416796
 30
0.0
 10
9.4865101842
 20
6.8897708002
 30
0.0
 10
9.4848199088
 20
6.889373254
 30
0.0
 10
9.4836326688
 20
6.8891050719
 30
0.0
 10
9.4829605654
 20
6.8889360544
 30
0.0
 10
9.4824386857
 20
6.8888537173
 30
0.0
 10
9.4819848551
 20
6.8886015613
 30
0.0
 10
9.4813560113
 20
6.8883245882
 30
0.0
 10
9.4802665939
 20
6.8878122865
 30
0.0
 10
9.4787045014
 20
6.8870948559
 30
0.0
 10
9.4768324653
 20
6.8862277631
 30
0.0
 10
9.4743355526
 20
6.8850737967
 30
0.0
 10
9.4712147084
 20
6.8836305985
 30
0.0
 10
9.4674695682
 20
6.8818990779
 30
0.0
 10
9.4637244621
 20
6.8801674725
 30
0.0
 10
9.4587309753
 20
6.8778586949
 30
0.0
 10
9.4524891208
 20
6.8749727129
 30
0.0
 10
9.4462472653
 20
6.8720867336
 30
0.0
 10
9.4412537801
 20
6.8697779516
 30
0.0
 10
9.4375086692
 20
6.8680463594
 30
0.0
 10
9.4337635466
 20
6.8663147895
 30
0.0
 10
9.4306426478
 20
6.8648717447
 30
0.0
 10
9.4281458466
 20
6.8637174654
 30
0.0
 10
9.4265855328
 20
6.8629956844
 30
0.0
 10
9.4253368536
 20
6.8624190761
 30
0.0
 10
9.4244015166
 20
6.8619843841
 30
0.0
 10
9.4236183394
 20
6.8616292531
 30
0.0
 10
9.4230001628
 20
6.8613291966
 30
0.0
 10
9.4225136726
 20
6.8611477419
 30
0.0
 10
9.4221144306
 20
6.8607999124
 30
0.0
 10
9.4215516309
 20
6.8603942566
 30
0.0
 10
9.4208585878
 20
6.8598672472
 30
0.0
 10
9.4200224604
 20
6.8592433708
 30
0.0
 10
9.4189091871
 20
6.8584085546
 30
0.0
 10
9.4175170602
 20
6.8573660549
 30
0.0
 10
9.4152899564
 20
6.8556974851
 30
0.0
 10
9.412505974
 20
6.8536119685
 30
0.0
 10
9.409165239
 20
6.8511092647
 30
0.0
 10
9.4058244923
 20
6.8486065834
 30
0.0
 10
9.4013701675
 20
6.8452696671
 30
0.0
 10
9.3958022599
 20
6.8410985245
 30
0.0
 10
9.3902343536
 20
6.8369273803
 30
0.0
 10
9.3857800266
 20
6.8335904667
 30
0.0
 10
9.3824392864
 20
6.8310877771
 30
0.0
 10
9.3790985273
 20
6.8285851045
 30
0.0
 10
9.3763146201
 20
6.8264994907
 30
0.0
 10
9.3740873627
 20
6.8248311192
 30
0.0
 10
9.3726956267
 20
6.8237881149
 30
0.0
 10
9.3715815511
 20
6.8229543345
 30
0.0
 10
9.3707478747
 20
6.8223272936
 30
0.0
 10
9.3700471631
 20
6.8218101851
 30
0.0
 10
9.3695000087
 20
6.8213843296
 30
0.0
 10
9.369052987
 20
6.8210981888
 30
0.0
 10
9.3687458813
 20
6.8206851289
 30
0.0
 10
9.3682875325
 20
6.8201787169
 30
0.0
 10
9.3677313651
 20
6.8195304909
 30
0.0
 10
9.3670567867
 20
6.8187591304
 30
0.0
 10
9.3661598559
 20
6.8177283758
 30
0.0
 10
9.3650378339
 20
6.8164407111
 30
0.0
 10
9.3632430785
 20
6.8143800125
 30
0.0
 10
9.3609994697
 20
6.8118042885
 30
0.0
 10
9.3583072096
 20
6.8087133557
 30
0.0
 10
9.3556149307
 20
6.80562244
 30
0.0
 10
9.3520252319
 20
6.8015012131
 30
0.0
 10
9.3475381071
 20
6.796349681
 30
0.0
 10
9.3430509798
 20
6.7911981506
 30
0.0
 10
9.3394612849
 20
6.7870769211
 30
0.0
 10
9.3367689943
 20
6.7839860133
 30
0.0
 10
9.3340767779
 20
6.7808950508
 30
0.0
 10
9.3318330332
 20
6.7783194194
 30
0.0
 10
9.3300385549
 20
6.7762585319
 30
0.0
 10
9.3286912823
 20
6.7747139109
 30
0.0
 10
9.3275730525
 20
6.7734234041
 30
0.0
 10
9.3267814658
 20
6.7725265698
 30
0.0
 10
9.3263429113
 20
6.7720039119
 30
0.0
 10
9.3259751748
 20
6.7716405989
 30
0.0
 10
9.3257558303
 20
6.771167655
 30
0.0
 10
9.3254116102
 20
6.7705753037
 30
0.0
 10
9.3248333413
 20
6.7695208719
 30
0.0
 10
9.3239946345
 20
6.7680238558
 30
0.0
 10
9.3229935832
 20
6.7662234493
 30
0.0
 10
9.321656963
 20
6.7638243
 30
0.0
 10
9.3199868345
 20
6.7608248855
 30
0.0
 10
9.3179824031
 20
6.757225793
 30
0.0
 10
9.3159780459
 20
6.7536266456
 30
0.0
 10
9.3133055436
 20
6.7488278017
 30
0.0
 10
9.3099649255
 20
6.7428292398
 30
0.0
 10
9.3066243006
 20
6.736830682
 30
0.0
 10
9.3039518093
 20
6.7320318314
 30
0.0
 10
9.3019474191
 20
6.7284327041
 30
0.0
 10
9.2999431114
 20
6.7248335367
 30
0.0
 10
9.2982725982
 20
6.7218343551
 30
0.0
 10
9.2969367626
 20
6.7194347307
 30
0.0
 10
9.2959333151
 20
6.7176357752
 30
0.0
 10
9.2951021053
 20
6.7161342193
 30
0.0
 10
9.2945104531
 20
6.7150878917
 30
0.0
 10
9.2941876763
 20
6.7144825555
 30
0.0
 10
9.2939024647
 20
6.7140494972
 30
0.0
 10
9.2937821141
 20
6.7135363807
 30
0.0
 10
9.2935641413
 20
6.7128801506
 30
0.0
 10
9.2932094817
 20
6.7117187371
 30
0.0
 10
9.2926888175
 20
6.7100663771
 30
0.0
 10
9.2920700162
 20
6.7080806335
 30
0.0
 10
9.2912428534
 20
6.7054339925
 30
0.0
 10
9.2902096186
 20
6.7021253422
 30
0.0
 10
9.2889694288
 20
6.6981551114
 30
0.0
 10
9.2877293213
 20
6.6941848406
 30
0.0
 10
9.286075816
 20
6.6888911602
 30
0.0
 10
9.284008944
 20
6.682274055
 30
0.0
 10
9.2819420694
 20
6.6756569512
 30
0.0
 10
9.2802885682
 20
6.6703632686
 30
0.0
 10
9.2790484484
 20
6.6663930044
 30
0.0
 10
9.277808305
 20
6.6624227489
 30
0.0
 10
9.2767749257
 20
6.6591141757
 30
0.0
 10
9.2759480575
 20
6.6564673773
 30
0.0
 10
9.2754316401
 20
6.6548129915
 30
0.0
 10
9.2750176469
 20
6.6534897961
 30
0.0
 10
9.2747095045
 20
6.652496542
 30
0.0
 10
9.2744452356
 20
6.6516715582
 30
0.0
 10
9.2742506049
 20
6.6510054529
 30
0.0
 10
9.2740587688
 20
6.6505225919
 30
0.0
 10
9.2740419926
 20
6.6499759179
 30
0.0
 10
9.2739584737
 20
6.64926931
 30
0.0
 10
9.2738750556
 20
6.6483784023
 30
0.0
 10
9.2737659735
 20
6.6473125865
 30
0.0
 10
9.2736236674
 20
6.6458903554
 30
0.0
 10
9.2734447107
 20
6.644112958
 30
0.0
 10
9.2731589803
 20
6.6412689034
 30
0.0
 10
9.2728016114
 20
6.6377139103
 30
0.0
 10
9.2723728569
 20
6.6334478863
 30
0.0
 10
9.2719440788
 20
6.629181871
 30
0.0
 10
9.2713723828
 20
6.6234938475
 30
0.0
 10
9.2706577611
 20
6.6163838192
 30
0.0
 10
9.2699431363
 20
6.6092737905
 30
0.0
 10
9.2693714451
 20
6.6035857677
 30
0.0
 10
9.2689426529
 20
6.5993197502
 30
0.0
 10
9.2685139515
 20
6.5950537344
 30
0.0
 10
9.2681564173
 20
6.5914987159
 30
0.0
 10
9.2678710239
 20
6.5886547131
 30
0.0
 10
9.2676552468
 20
6.5865216782
 30
0.0
 10
9.2674809418
 20
6.5847442534
 30
0.0
 10
9.2673481167
 20
6.5834998514
 30
0.0
 10
9.267289098
 20
6.5827890841
 30
0.0
 10
9.2671972788
 20
6.5822551083
 30
0.0
 10
9.2672872399
 20
6.5817245739
 30
0.0
 10
9.267343781
 20
6.5810159943
 30
0.0
 10
9.2674722704
 20
6.5797765392
 30
0.0
 10
9.2676403816
 20
6.5780055967
 30
0.0
 10
9.2678487261
 20
6.5758805908
 30
0.0
 10
9.2681242094
 20
6.573047206
 30
0.0
 10
9.268469356
 20
6.56950549
 30
0.0
 10
9.2688831921
 20
6.5652554243
 30
0.0
 10
9.2692971192
 20
6.5610053603
 30
0.0
 10
9.2698489901
 20
6.5553386077
 30
0.0
 10
9.2705388406
 20
6.5482551674
 30
0.0
 10
9.2712286833
 20
6.5411717264
 30
0.0
 10
9.2717805667
 20
6.5355049748
 30
0.0
 10
9.2721944562
 20
6.5312549081
 30
0.0
 10
9.2726084333
 20
6.5270048526
 30
0.0
 10
9.2729531414
 20
6.5234631047
 30
0.0
 10
9.2732295188
 20
6.5206297849
 30
0.0
 10
9.2734351328
 20
6.5185045804
 30
0.0
 10
9.2736117868
 20
6.5167342596
 30
0.0
 10
9.2737250259
 20
6.5154936946
 30
0.0
 10
9.2738060018
 20
6.5147868933
 30
0.0
 10
9.2738209071
 20
6.5142508965
 30
0.0
 10
9.2740109851
 20
6.5137374365
 30
0.0
 10
9.2742033202
 20
6.5130449621
 30
0.0
 10
9.2745683754
 20
6.5118367946
 30
0.0
 10
9.2750749989
 20
6.5101089261
 30
0.0
 10
9.275689318
 20
6.5080363035
 30
0.0
 10
9.2765061847
 20
6.5052725205
 30
0.0
 10
9.2775280317
 20
6.5018178899
 30
0.0
 10
9.2787539207
 20
6.4976722911
 30
0.0
 10
9.2799798973
 20
6.4935267035
 30
0.0
 10
9.2816145026
 20
6.4879992496
 30
0.0
 10
9.2836577661
 20
6.4810899324
 30
0.0
 10
9.2861096941
 20
6.4727987567
 30
0.0
 10
9.2881529192
 20
6.4658894269
 30
0.0
 10
9.2897876092
 20
6.4603620008
 30
0.0
 10
9.2908090397
 20
6.4569072735
 30
0.0
 10
9.2916267585
 20
6.4541436886
 30
0.0
 10
9.2922384747
 20
6.4520704607
 30
0.0
 10
9.2927532418
 20
6.4503444861
 30
0.0
 10
9.2931037594
 20
6.4491329376
 30
0.0
 10
9.2933193874
 20
6.4484458804
 30
0.0
 10
9.293437917
 20
6.4479157806
 30
0.0
 10
9.2937215462
 20
6.4474422803
 30
0.0
 10
9.2940421299
 20
6.4467912039
 30
0.0
 10
9.2946299828
 20
6.4456610188
 30
0.0
 10
9.295455745
 20
6.4440416595
 30
0.0
 10
9.2964526639
 20
6.4421004868
 30
0.0
 10
9.2977797919
 20
6.4395115376
 30
0.0
 10
9.29943942
 20
6.4362755972
 30
0.0
 10
9.3020944237
 20
6.431097955
 30
0.0
 10
9.3054133158
 20
6.4246259494
 30
0.0
 10
9.3093959282
 20
6.4168595229
 30
0.0
 10
9.312714782
 20
6.4103875039
 30
0.0
 10
9.3153698699
 20
6.4052098913
 30
0.0
 10
9.3173611652
 20
6.4013266721
 30
0.0
 10
9.3193525405
 20
6.3974434908
 30
0.0
 10
9.3210117704
 20
6.3942073879
 30
0.0
 10
9.3223397133
 20
6.391618771
 30
0.0
 10
9.3233341432
 20
6.3896765832
 30
0.0
 10
9.3241676927
 20
6.3880604
 30
0.0
 10
9.3247416439
 20
6.3869245449
 30
0.0
 10
9.3250845017
 20
6.3862825533
 30
0.0
 10
9.325299712
 20
6.3857811477
 30
0.0
 10
9.3256752116
 20
6.3853558552
 30
0.0
 10
9.3261199671
 20
6.3847622495
 30
0.0
 10
9.3269243391
 20
6.3837358091
 30
0.0
 10
9.3280598228
 20
6.3822629986
 30
0.0
 10
9.3294282326
 20
6.3804983942
 30
0.0
 10
9.3312507428
 20
6.3781446214
 30
0.0
 10
9.3335295792
 20
6.3752027372
 30
0.0
 10
9.3362638834
 20
6.3716723339
 30
0.0
 10
9.3389982677
 20
6.3681419686
 30
0.0
 10
9.3426440854
 20
6.3634348016
 30
0.0
 10
9.3472013678
 20
6.3575508481
 30
0.0
 10
9.3517586441
 20
6.3516668901
 30
0.0
 10
9.3554044716
 20
6.3469597303
 30
0.0
 10
9.3581388267
 20
6.3434293432
 30
0.0
 10
9.3608732404
 20
6.339899022
 30
0.0
 10
9.363151736
 20
6.3369568824
 30
0.0
 10
9.3649749412
 20
6.3346036303
 30
0.0
 10
9.3663412285
 20
6.3328374358
 30
0.0
 10
9.367483353
 20
6.3313696002
 30
0.0
 10
9.36827587
 20
6.3303342788
 30
0.0
 10
9.3687396201
 20
6.3297549027
 30
0.0
 10
9.3690567746
 20
6.3292859014
 30
0.0
 10
9.3694911197
 20
6.3289486586
 30
0.0
 10
9.3700293691
 20
6.3284530427
 30
0.0
 10
9.370990351
 20
6.3276071279
 30
0.0
 10
9.3723532252
 20
6.3263874832
 30
0.0
 10
9.3739929362
 20
6.3249287014
 30
0.0
 10
9.3761777288
 20
6.3229819851
 30
0.0
 10
9.3789092304
 20
6.3205491642
 30
0.0
 10
9.3821868133
 20
6.3176295329
 30
0.0
 10
9.3854644548
 20
6.3147099673
 30
0.0
 10
9.3898346233
 20
6.3108171907
 30
0.0
 10
9.3952973387
 20
6.3059512248
 30
0.0
 10
9.401852604
 20
6.3001120762
 30
0.0
 10
9.4073152961
 20
6.2952460775
 30
0.0
 10
9.411685516
 20
6.2913533729
 30
0.0
 10
9.4144167525
 20
6.2889202175
 30
0.0
 10
9.4166020873
 20
6.2869741856
 30
0.0
 10
9.4182401421
 20
6.2855133136
 30
0.0
 10
9.4196081983
 20
6.2843002087
 30
0.0
 10
9.4205599294
 20
6.2834426192
 30
0.0
 10
9.4211130011
 20
6.2829657091
 30
0.0
 10
9.4215018168
 20
6.2825710082
 30
0.0
 10
9.4219899722
 20
6.2823178099
 30
0.0
 10
9.4226061953
 20
6.2819308546
 30
0.0
 10
9.4237007301
 20
6.2812766794
 30
0.0
 10
9.4252559108
 20
6.2803301205
 30
0.0
 10
9.4271257404
 20
6.2791993961
 30
0.0
 10
9.4296175847
 20
6.277689966
 30
0.0
 10
9.4327328222
 20
6.2758037939
 30
0.0
 10
9.4377169606
 20
6.2727855744
 30
0.0
 10
9.4439472168
 20
6.2690129189
 30
0.0
 10
9.451423487
 20
6.2644856776
 30
0.0
 10
9.4588997732
 20
6.2599584652
 30
0.0
 10
9.4651299892
 20
6.2561857374
 30
0.0
 10
9.4701142082
 20
6.2531676626
 30
0.0
 10
9.4732292407
 20
6.2512811226
 30
0.0
 10
9.4757215056
 20
6.2497724477
 30
0.0
 10
9.4775900504
 20
6.2486394162
 30
0.0
 10
9.4791492509
 20
6.2477000754
 30
0.0
 10
9.4802366097
 20
6.2470330147
 30
0.0
 10
9.4808643306
 20
6.2466667053
 30
0.0
 10
9.4813171684
 20
6.2463500893
 30
0.0
 10
9.4818386312
 20
6.2461935751
 30
0.0
 10
9.4825099778
 20
6.2459290443
 30
0.0
 10
9.4836959871
 20
6.2454921346
 30
0.0
 10
9.4853844553
 20
6.2448543748
 30
0.0
 10
9.4874131128
 20
6.2440948856
 30
0.0
 10
9.4901171179
 20
6.2430801996
 30
0.0
 10
9.4934974227
 20
6.2418125384
 30
0.0
 10
9.4989057435
 20
6.2397838914
 30
0.0
 10
9.5056662018
 20
6.237248216
 30
0.0
 10
9.5137787274
 20
6.2342053494
 30
0.0
 10
9.52053917
 20
6.2316696366
 30
0.0
 10
9.5259475254
 20
6.2296410718
 30
0.0
 10
9.5300037853
 20
6.2281196261
 30
0.0
 10
9.534060071
 20
6.2265982661
 30
0.0
 10
9.5374402286
 20
6.2253301991
 30
0.0
 10
9.5401445349
 20
6.2243163434
 30
0.0
 10
9.5421722723
 20
6.2235543181
 30
0.0
 10
9.5438636193
 20
6.2229244929
 30
0.0
 10
9.5450444895
 20
6.2224734186
 30
0.0
 10
9.5457240701
 20
6.222231583
 30
0.0
 10
9.5462202405
 20
6.2220053563
 30
0.0
 10
9.5467680726
 20
6.221950569
 30
0.0
 10
9.5474804953
 20
6.2218177192
 30
0.0
 10
9.5487356309
 20
6.221613094
 30
0.0
 10
9.5505242922
 20
6.2213062057
 30
0.0
 10
9.5526725647
 20
6.2209441747
 30
0.0
 10
9.5555362717
 20
6.2204592888
 30
0.0
 10
9.5591161306
 20
6.2198539288
 30
0.0
 10
9.5634118648
 20
6.2191271764
 30
0.0
 10
9.5677076248
 20
6.2184005097
 30
0.0
 10
9.5734352958
 20
6.2174315909
 30
0.0
 10
9.5805948876
 20
6.2162204526
 30
0.0
 10
9.5891863965
 20
6.2147670823
 30
0.0
 10
9.6006417421
 20
6.2128292567
 30
0.0
 10
9.6092332512
 20
6.2113758871
 30
0.0
 10
9.614960924
 20
6.2104069742
 30
0.0
  0
SPLINE
  5
3DA
100
AcDbEntity
  8
0
100
AcDbSpline
 62
4
  6
CONTINUOUS
 70
0
 71
3
 72
343
 73
339
 74
0
 42
0.0000001
 43
0.0000001
 44
0.0000000001
 40
0.0
 40
0.0
 40
0.0
 40
0.0
 40
0.015625
 40
0.0234375
 40
0.03125
 40
0.0390625
 40
0.04296875
 40
0.046875
 40
0.05078125
 40
0.0546875
 40
0.056640625
 40
0.05859375
 40
0.060546875
 40
0.0615234375
 40
0.0620117188
 40
0.0625
 40
0.0629882812
 40
0.0634765625
 40
0.064453125
 40
0.06640625
 40
0.068359375
 40
0.0703125
 40
0.07421875
 40
0.078125
 40
0.08203125
 40
0.0859375
 40
0.09375
 40
0.1015625
 40
0.10546875
 40
0.109375
 40
0.11328125
 40
0.1171875
 40
0.119140625
 40
0.12109375
 40
0.123046875
 40
0.1240234375
 40
0.1245117188
 40
0.125
 40
0.1254882812
 40
0.1259765625
 40
0.126953125
 40
0.12890625
 40
0.130859375
 40
0.1328125
 40
0.13671875
 40
0.140625
 40
0.14453125
 40
0.1484375
 40
0.15625
 40
0.1640625
 40
0.16796875
 40
0.171875
 40
0.17578125
 40
0.1796875
 40
0.181640625
 40
0.18359375
 40
0.1845703125
 40
0.185546875
 40
0.1865234375
 40
0.1870117188
 40
0.1875
 40
0.1879882812
 40
0.1884765625
 40
0.189453125
 40
0.1904296875
 40
0.19140625
 40
0.193359375
 40
0.1953125
 40
0.19921875
 40
0.203125
 40
0.20703125
 40
0.2109375
 40
0.21875
 40
0.2265625
 40
0.23046875
 40
0.234375
 40
0.23828125
 40
0.2421875
 40
0.244140625
 40
0.24609375
 40
0.2470703125
 40
0.248046875
 40
0.2490234375
 40
0.2495117188
 40
0.25
 40
0.2504882812
 40
0.2509765625
 40
0.251953125
 40
0.2529296875
 40
0.25390625
 40
0.255859375
 40
0.2578125
 40
0.26171875
 40
0.265625
 40
0.26953125
 40
0.2734375
 40
0.28125
 40
0.2890625
 40
0.29296875
 40
0.296875
 40
0.30078125
 40
0.3046875
 40
0.306640625
 40
0.30859375
 40
0.310546875
 40
0.3115234375
 40
0.3120117188
 40
0.3125
 40
0.3129882812
 40
0.3134765625
 40
0.314453125
 40
0.31640625
 40
0.318359375
 40
0.3203125
 40
0.32421875
 40
0.328125
 40
0.33203125
 40
0.3359375
 40
0.34375
 40
0.3515625
 40
0.35546875
 40
0.359375
 40
0.36328125
 40
0.3671875
 40
0.369140625
 40
0.37109375
 40
0.373046875
 40
0.3740234375
 40
0.3745117188
 40
0.375
 40
0.3754882812
 40
0.3759765625
 40
0.376953125
 40
0.37890625
 40
0.380859375
 40
0.3828125
 40
0.38671875
 40
0.390625
 40
0.39453125
 40
0.3984375
 40
0.40625
 40
0.4140625
 40
0.41796875
 40
0.421875
 40
0.42578125
 40
0.4296875
 40
0.431640625
 40
0.43359375
 40
0.4345703125
 40
0.435546875
 40
0.4365234375
 40
0.4370117188
 40
0.4375
 40
0.4379882812
 40
0.4384765625
 40
0.439453125
 40
0.4404296875
 40
0.44140625
 40
0.443359375
 40
0.4453125
 40
0.44921875
 40
0.453125
 40
0.45703125
 40
0.4609375
 40
0.46875
 40
0.4765625
 40
0.48046875
 40
0.484375
 40
0.48828125
 40
0.4921875
 40
0.494140625
 40
0.49609375
 40
0.498046875
 40
0.4990234375
 40
0.4995117188
 40
0.5
 40
0.5004882812
 40
0.5009765625
 40
0.501953125
 40
0.50390625
 40
0.505859375
 40
0.5078125
 40
0.51171875
 40
0.515625
 40
0.51953125
 40
0.5234375
 40
0.53125
 40
0.5390625
 40
0.54296875
 40
0.546875
 40
0.55078125
 40
0.5546875
 40
0.556640625
 40
0.55859375
 40
0.560546875
 40
0.5615234375
 40
0.5620117188
 40
0.5625
 40
0.5629882812
 40
0.5634765625
 40
0.564453125
 40
0.56640625
 40
0.568359375
 40
0.5703125
 40
0.57421875
 40
0.578125
 40
0.58203125
 40
0.5859375
 40
0.59375
 40
0.6015625
 40
0.609375
 40
0.61328125
 40
0.6171875
 40
0.619140625
 40
0.62109375
 40
0.623046875
 40
0.6240234375
 40
0.6245117188
 40
0.625
 40
0.6254882812
 40
0.6259765625
 40
0.626953125
 40
0.62890625
 40
0.630859375
 40
0.6328125
 40
0.63671875
 40
0.640625
 40
0.6484375
 40
0.65625
 40
0.6640625
 40
0.66796875
 40
0.671875
 40
0.67578125
 40
0.6796875
 40
0.681640625
 40
0.68359375
 40
0.685546875
 40
0.6865234375
 40
0.6870117188
 40
0.6875
 40
0.6879882812
 40
0.6884765625
 40
0.689453125
 40
0.69140625
 40
0.693359375
 40
0.6953125
 40
0.69921875
 40
0.703125
 40
0.70703125
 40
0.7109375
 40
0.71875
 40
0.7265625
 40
0.73046875
 40
0.734375
 40
0.73828125
 40
0.7421875
 40
0.744140625
 40
0.74609375
 40
0.748046875
 40
0.7490234375
 40
0.7495117188
 40
0.75
 40
0.7504882812
 40
0.7509765625
 40
0.751953125
 40
0.75390625
 40
0.755859375
 40
0.7578125
 40
0.76171875
 40
0.765625
 40
0.76953125
 40
0.7734375
 40
0.78125
 40
0.7890625
 40
0.796875
 40
0.80078125
 40
0.8046875
 40
0.806640625
 40
0.80859375
 40
0.810546875
 40
0.8115234375
 40
0.8120117188
 40
0.8125
 40
0.8129882812
 40
0.8134765625
 40
0.814453125
 40
0.81640625
 40
0.818359375
 40
0.8203125
 40
0.82421875
 40
0.828125
 40
0.8359375
 40
0.84375
 40
0.8515625
 40
0.859375
 40
0.86328125
 40
0.8671875
 40
0.869140625
 40
0.87109375
 40
0.873046875
 40
0.8740234375
 40
0.8745117188
 40
0.875
 40
0.8754882812
 40
0.8759765625
 40
0.876953125
 40
0.87890625
 40
0.880859375
 40
0.8828125
 40
0.88671875
 40
0.890625
 40
0.8984375
 40
0.90625
 40
0.9140625
 40
0.91796875
 40
0.921875
 40
0.92578125
 40
0.9296875
 40
0.931640625
 40
0.93359375
 40
0.935546875
 40
0.9365234375
 40
0.9370117188
 40
0.9375
 40
0.9379882812
 40
0.9384765625
 40
0.939453125
 40
0.94140625
 40
0.943359375
 40
0.9453125
 40
0.94921875
 40
0.953125
 40
0.95703125
 40
0.9609375
 40
0.96875
 40
0.9765625
 40
0.984375
 40
1.0
 40
1.0
 40
1.0
 40
1.0
 10
9.6149608936
 20
6.2104069763
 30
0.0
 10
9.6205893732
 20
6.2105685172
 30
0.0
 10
9.6290320926
 20
6.2108108286
 30
0.0
 10
9.6402890519
 20
6.21113391
 30
0.0
 10
9.6487317712
 20
6.2113762222
 30
0.0
 10
9.6557673713
 20
6.2115781453
 30
0.0
 10
9.6613958497
 20
6.2117396923
 30
0.0
 10
9.6656172131
 20
6.2118608293
 30
0.0
 10
9.6698385591
 20
6.211982055
 30
0.0
 10
9.6733564014
 20
6.2120828
 30
0.0
 10
9.6761705544
 20
6.2121640152
 30
0.0
 10
9.6782814995
 20
6.2122232346
 30
0.0
 10
9.6800395693
 20
6.2122779661
 30
0.0
 10
9.6812722811
 20
6.2123057164
 30
0.0
 10
9.6819734667
 20
6.2123380649
 30
0.0
 10
9.6825084299
 20
6.2123158703
 30
0.0
 10
9.6830087079
 20
6.2124712539
 30
0.0
 10
9.6836878438
 20
6.2126164908
 30
0.0
 10
9.6848706947
 20
6.212899515
 30
0.0
 10
9.6865634287
 20
6.213288747
 30
0.0
 10
9.6885934481
 20
6.2137622838
 30
0.0
 10
9.6913005813
 20
6.2143914101
 30
0.0
 10
9.6946843465
 20
6.2151785922
 30
0.0
 10
9.6987449296
 20
6.2161228788
 30
0.0
 10
9.7028054954
 20
6.2170672543
 30
0.0
 10
9.7082195892
 20
6.2183263904
 30
0.0
 10
9.714987204
 20
6.2199003222
 30
0.0
 10
9.7217548211
 20
6.2214742463
 30
0.0
 10
9.7271689113
 20
6.2227333946
 30
0.0
 10
9.7312294879
 20
6.2236777335
 30
0.0
 10
9.7352900305
 20
6.2246221572
 30
0.0
 10
9.7386739219
 20
6.2254089126
 30
0.0
 10
9.7413807978
 20
6.2260389091
 30
0.0
 10
9.743411603
 20
6.2265097885
 30
0.0
 10
9.7451018784
 20
6.2269073347
 30
0.0
 10
9.7462891184
 20
6.2271755168
 30
0.0
 10
9.7469612218
 20
6.2273445343
 30
0.0
 10
9.7474831015
 20
6.2274268715
 30
0.0
 10
9.7479369321
 20
6.2276790274
 30
0.0
 10
9.7485657759
 20
6.2279560006
 30
0.0
 10
9.7496551933
 20
6.2284683022
 30
0.0
 10
9.7512172858
 20
6.2291857328
 30
0.0
 10
9.7530893219
 20
6.2300528256
 30
0.0
 10
9.7555862346
 20
6.231206792
 30
0.0
 10
9.7587070788
 20
6.2326499902
 30
0.0
 10
9.7624522189
 20
6.2343815108
 30
0.0
 10
9.7661973251
 20
6.2361131162
 30
0.0
 10
9.7711908119
 20
6.2384218939
 30
0.0
 10
9.7774326664
 20
6.2413078758
 30
0.0
 10
9.7836745219
 20
6.2441938551
 30
0.0
 10
9.7886680071
 20
6.2465026371
 30
0.0
 10
9.7924131179
 20
6.2482342294
 30
0.0
 10
9.7961582406
 20
6.2499657992
 30
0.0
 10
9.7992791394
 20
6.251408844
 30
0.0
 10
9.8017759406
 20
6.2525631233
 30
0.0
 10
9.8033362544
 20
6.2532849044
 30
0.0
 10
9.8045849336
 20
6.2538615127
 30
0.0
 10
9.8055202706
 20
6.2542962047
 30
0.0
 10
9.8063034478
 20
6.2546513357
 30
0.0
 10
9.8069216244
 20
6.2549513921
 30
0.0
 10
9.8074081145
 20
6.2551328468
 30
0.0
 10
9.8078073566
 20
6.2554806763
 30
0.0
 10
9.8083701563
 20
6.2558863321
 30
0.0
 10
9.8090631994
 20
6.2564133415
 30
0.0
 10
9.8098993268
 20
6.2570372179
 30
0.0
 10
9.8110126001
 20
6.2578720342
 30
0.0
 10
9.8124047269
 20
6.2589145338
 30
0.0
 10
9.8146318308
 20
6.2605831036
 30
0.0
 10
9.8174158132
 20
6.2626686202
 30
0.0
 10
9.8207565481
 20
6.265171324
 30
0.0
 10
9.8240972949
 20
6.2676740053
 30
0.0
 10
9.8285516197
 20
6.2710109217
 30
0.0
 10
9.8341195273
 20
6.2751820642
 30
0.0
 10
9.8396874336
 20
6.2793532084
 30
0.0
 10
9.8441417605
 20
6.282690122
 30
0.0
 10
9.8474825008
 20
6.2851928117
 30
0.0
 10
9.8508232599
 20
6.2876954842
 30
0.0
 10
9.8536071671
 20
6.289781098
 30
0.0
 10
9.8558344245
 20
6.2914494696
 30
0.0
 10
9.8572261605
 20
6.2924924738
 30
0.0
 10
9.858340236
 20
6.2933262543
 30
0.0
 10
9.8591739125
 20
6.2939532952
 30
0.0
 10
9.8598746241
 20
6.2944704036
 30
0.0
 10
9.8604217785
 20
6.2948962591
 30
0.0
 10
9.8608688002
 20
6.2951823999
 30
0.0
 10
9.8611759059
 20
6.2955954598
 30
0.0
 10
9.8616342547
 20
6.2961018718
 30
0.0
 10
9.8621904221
 20
6.2967500978
 30
0.0
 10
9.8628650004
 20
6.2975214583
 30
0.0
 10
9.8637619313
 20
6.2985522129
 30
0.0
 10
9.8648839533
 20
6.2998398776
 30
0.0
 10
9.8666787086
 20
6.3019005763
 30
0.0
 10
9.8689223175
 20
6.3044763003
 30
0.0
 10
9.8716145776
 20
6.3075672331
 30
0.0
 10
9.8743068565
 20
6.3106581488
 30
0.0
 10
9.8778965552
 20
6.3147793756
 30
0.0
 10
9.8823836801
 20
6.3199309077
 30
0.0
 10
9.8868708074
 20
6.3250824381
 30
0.0
 10
9.8904605023
 20
6.3292036676
 30
0.0
 10
9.8931527928
 20
6.3322945754
 30
0.0
 10
9.8958450092
 20
6.3353855379
 30
0.0
 10
9.898088754
 20
6.3379611694
 30
0.0
 10
9.8998832322
 20
6.3400220568
 30
0.0
 10
9.9012305048
 20
6.3415666779
 30
0.0
 10
9.9023487347
 20
6.3428571846
 30
0.0
 10
9.9031403214
 20
6.3437540189
 30
0.0
 10
9.9035788759
 20
6.3442766768
 30
0.0
 10
9.9039466123
 20
6.3446399899
 30
0.0
 10
9.9041659569
 20
6.3451129337
 30
0.0
 10
9.904510177
 20
6.345705285
 30
0.0
 10
9.9050884459
 20
6.3467597168
 30
0.0
 10
9.9059271526
 20
6.3482567329
 30
0.0
 10
9.906928204
 20
6.3500571395
 30
0.0
 10
9.9082648242
 20
6.3524562887
 30
0.0
 10
9.9099349526
 20
6.3554557032
 30
0.0
 10
9.911939384
 20
6.3590547957
 30
0.0
 10
9.9139437413
 20
6.3626539431
 30
0.0
 10
9.9166162436
 20
6.367452787
 30
0.0
 10
9.9199568616
 20
6.3734513489
 30
0.0
 10
9.9232974866
 20
6.3794499067
 30
0.0
 10
9.9259699779
 20
6.3842487573
 30
0.0
 10
9.9279743681
 20
6.3878478847
 30
0.0
 10
9.9299786758
 20
6.3914470521
 30
0.0
 10
9.931649189
 20
6.3944462336
 30
0.0
 10
9.9329850246
 20
6.396845858
 30
0.0
 10
9.9339884721
 20
6.3986448135
 30
0.0
 10
9.9348196819
 20
6.4001463694
 30
0.0
 10
9.9354113341
 20
6.401192697
 30
0.0
 10
9.9357341109
 20
6.4017980332
 30
0.0
 10
9.9360193225
 20
6.4022310915
 30
0.0
 10
9.9361396731
 20
6.402744208
 30
0.0
 10
9.9363576459
 20
6.4034004381
 30
0.0
 10
9.9367123055
 20
6.4045618517
 30
0.0
 10
9.9372329697
 20
6.4062142116
 30
0.0
 10
9.937851771
 20
6.4081999552
 30
0.0
 10
9.9386789338
 20
6.4108465963
 30
0.0
 10
9.9397121686
 20
6.4141552466
 30
0.0
 10
9.9409523584
 20
6.4181254773
 30
0.0
 10
9.9421924658
 20
6.4220957481
 30
0.0
 10
9.9438459712
 20
6.4273894285
 30
0.0
 10
9.9459128432
 20
6.4340065337
 30
0.0
 10
9.9479797178
 20
6.4406236375
 30
0.0
 10
9.949633219
 20
6.4459173201
 30
0.0
 10
9.9508733388
 20
6.4498875843
 30
0.0
 10
9.9521134822
 20
6.4538578399
 30
0.0
 10
9.9531468615
 20
6.457166413
 30
0.0
 10
9.9539737296
 20
6.4598132114
 30
0.0
 10
9.9544901471
 20
6.4614675972
 30
0.0
 10
9.9549041403
 20
6.4627907926
 30
0.0
 10
9.9552122826
 20
6.4637840467
 30
0.0
 10
9.9554765516
 20
6.4646090305
 30
0.0
 10
9.9556711823
 20
6.4652751358
 30
0.0
 10
9.9558630184
 20
6.4657579968
 30
0.0
 10
9.9558797945
 20
6.4663046708
 30
0.0
 10
9.9559633135
 20
6.4670112787
 30
0.0
 10
9.9560467316
 20
6.4679021865
 30
0.0
 10
9.9561558137
 20
6.4689680023
 30
0.0
 10
9.9562981198
 20
6.4703902333
 30
0.0
 10
9.9564770765
 20
6.4721676307
 30
0.0
 10
9.9567628069
 20
6.4750116853
 30
0.0
 10
9.9571201758
 20
6.4785666784
 30
0.0
 10
9.9575489303
 20
6.4828327024
 30
0.0
 10
9.9579777084
 20
6.4870987177
 30
0.0
 10
9.9585494043
 20
6.4927867412
 30
0.0
 10
9.9592640261
 20
6.4998967695
 30
0.0
 10
9.9599786508
 20
6.5070067982
 30
0.0
 10
9.9605503421
 20
6.512694821
 30
0.0
 10
9.9609791343
 20
6.5169608385
 30
0.0
 10
9.9614078357
 20
6.5212268543
 30
0.0
 10
9.9617653699
 20
6.5247818728
 30
0.0
 10
9.9620507633
 20
6.5276258756
 30
0.0
 10
9.9622665404
 20
6.5297589105
 30
0.0
 10
9.9624408454
 20
6.5315363353
 30
0.0
 10
9.9625736705
 20
6.5327807374
 30
0.0
 10
9.9626326891
 20
6.5334915047
 30
0.0
 10
9.9627245084
 20
6.5340254804
 30
0.0
 10
9.9626345473
 20
6.5345560148
 30
0.0
 10
9.9625780062
 20
6.5352645945
 30
0.0
 10
9.9624495167
 20
6.5365040495
 30
0.0
 10
9.9622814056
 20
6.538274992
 30
0.0
 10
9.9620730611
 20
6.5403999979
 30
0.0
 10
9.9617975778
 20
6.5432333827
 30
0.0
 10
9.9614524312
 20
6.5467750988
 30
0.0
 10
9.9610385951
 20
6.5510251644
 30
0.0
 10
9.960624668
 20
6.5552752284
 30
0.0
 10
9.9600727971
 20
6.560941981
 30
0.0
 10
9.9593829466
 20
6.5680254214
 30
0.0
 10
9.9586931039
 20
6.5751088623
 30
0.0
 10
9.9581412205
 20
6.580775614
 30
0.0
 10
9.957727331
 20
6.5850256807
 30
0.0
 10
9.9573133539
 20
6.5892757361
 30
0.0
 10
9.9569686458
 20
6.592817484
 30
0.0
 10
9.9566922684
 20
6.5956508038
 30
0.0
 10
9.9564866544
 20
6.5977760084
 30
0.0
 10
9.9563100004
 20
6.5995463291
 30
0.0
 10
9.9561967612
 20
6.6007868941
 30
0.0
 10
9.9561157853
 20
6.6014936954
 30
0.0
 10
9.9561008801
 20
6.6020296922
 30
0.0
 10
9.9559108021
 20
6.6025431522
 30
0.0
 10
9.955718467
 20
6.6032356266
 30
0.0
 10
9.9553534118
 20
6.6044437941
 30
0.0
 10
9.9548467882
 20
6.6061716626
 30
0.0
 10
9.9542324692
 20
6.6082442852
 30
0.0
 10
9.9534156025
 20
6.6110080683
 30
0.0
 10
9.9523937555
 20
6.6144626988
 30
0.0
 10
9.9511678664
 20
6.6186082977
 30
0.0
 10
9.9499418899
 20
6.6227538852
 30
0.0
 10
9.9483072846
 20
6.6282813391
 30
0.0
 10
9.946264021
 20
6.6351906563
 30
0.0
 10
9.9438120931
 20
6.643481832
 30
0.0
 10
9.941768868
 20
6.6503911618
 30
0.0
 10
9.940134178
 20
6.6559185879
 30
0.0
 10
9.9391127475
 20
6.6593733152
 30
0.0
 10
9.9382950287
 20
6.6621369001
 30
0.0
 10
9.9376833125
 20
6.664210128
 30
0.0
 10
9.9371685453
 20
6.6659361026
 30
0.0
 10
9.9368180278
 20
6.6671476511
 30
0.0
 10
9.9366023998
 20
6.6678347083
 30
0.0
 10
9.9364838702
 20
6.6683648081
 30
0.0
 10
9.936200241
 20
6.6688383085
 30
0.0
 10
9.9358796573
 20
6.6694893848
 30
0.0
 10
9.9352918043
 20
6.67061957
 30
0.0
 10
9.9344660422
 20
6.6722389292
 30
0.0
 10
9.9334691233
 20
6.6741801019
 30
0.0
 10
9.9321419953
 20
6.6767690512
 30
0.0
 10
9.9304823672
 20
6.6800049915
 30
0.0
 10
9.9278273635
 20
6.6851826337
 30
0.0
 10
9.9245084714
 20
6.6916546393
 30
0.0
 10
9.9205258589
 20
6.6994210658
 30
0.0
 10
9.9172070052
 20
6.7058930848
 30
0.0
 10
9.9145519173
 20
6.7110706974
 30
0.0
 10
9.912560622
 20
6.7149539167
 30
0.0
 10
9.9105692466
 20
6.7188370979
 30
0.0
 10
9.9089100168
 20
6.7220732008
 30
0.0
 10
9.9075820739
 20
6.7246618177
 30
0.0
 10
9.906587644
 20
6.7266040055
 30
0.0
 10
9.9057540945
 20
6.7282201887
 30
0.0
 10
9.9051801432
 20
6.7293560438
 30
0.0
 10
9.9048372855
 20
6.7299980354
 30
0.0
 10
9.9046220752
 20
6.730499441
 30
0.0
 10
9.9042465755
 20
6.7309247335
 30
0.0
 10
9.90380182
 20
6.7315183393
 30
0.0
 10
9.9029974481
 20
6.7325447797
 30
0.0
 10
9.9018619644
 20
6.7340175901
 30
0.0
 10
9.9004935546
 20
6.7357821945
 30
0.0
 10
9.8986710444
 20
6.7381359673
 30
0.0
 10
9.896392208
 20
6.7410778515
 30
0.0
 10
9.8936579038
 20
6.7446082548
 30
0.0
 10
9.8909235195
 20
6.7481386201
 30
0.0
 10
9.8872777018
 20
6.7528457871
 30
0.0
 10
9.8827204194
 20
6.7587297406
 30
0.0
 10
9.878163143
 20
6.7646136987
 30
0.0
 10
9.8745173156
 20
6.7693208584
 30
0.0
 10
9.8717829605
 20
6.7728512455
 30
0.0
 10
9.8690485467
 20
6.7763815668
 30
0.0
 10
9.8667700511
 20
6.7793237063
 30
0.0
 10
9.8649468459
 20
6.7816769585
 30
0.0
 10
9.8635805586
 20
6.783443153
 30
0.0
 10
9.8624384342
 20
6.7849109885
 30
0.0
 10
9.8616459171
 20
6.7859463099
 30
0.0
 10
9.8611821671
 20
6.7865256861
 30
0.0
 10
9.8608650126
 20
6.7869946873
 30
0.0
 10
9.8604306675
 20
6.7873319301
 30
0.0
 10
9.8598924181
 20
6.787827546
 30
0.0
 10
9.8589314361
 20
6.7886734608
 30
0.0
 10
9.857568562
 20
6.7898931055
 30
0.0
 10
9.855928851
 20
6.7913518873
 30
0.0
 10
9.8537440584
 20
6.7932986036
 30
0.0
 10
9.8510125568
 20
6.7957314245
 30
0.0
 10
9.8477349738
 20
6.7986510558
 30
0.0
 10
9.8444573324
 20
6.8015706214
 30
0.0
 10
9.8400871639
 20
6.805463398
 30
0.0
 10
9.8346244484
 20
6.8103293639
 30
0.0
 10
9.8280691831
 20
6.8161685125
 30
0.0
 10
9.822606491
 20
6.8210345112
 30
0.0
 10
9.8182362712
 20
6.8249272158
 30
0.0
 10
9.8155050347
 20
6.8273603712
 30
0.0
 10
9.8133196998
 20
6.8293064031
 30
0.0
 10
9.8116816451
 20
6.8307672752
 30
0.0
 10
9.8103135888
 20
6.83198038
 30
0.0
 10
9.8093618578
 20
6.8328379695
 30
0.0
 10
9.8088087861
 20
6.8333148797
 30
0.0
 10
9.8084199704
 20
6.8337095806
 30
0.0
 10
9.807931815
 20
6.8339627788
 30
0.0
 10
9.8073155919
 20
6.8343497341
 30
0.0
 10
9.8062210571
 20
6.8350039093
 30
0.0
 10
9.8046658764
 20
6.8359504682
 30
0.0
 10
9.8027960468
 20
6.8370811926
 30
0.0
 10
9.8003042025
 20
6.8385906227
 30
0.0
 10
9.797188965
 20
6.8404767948
 30
0.0
 10
9.7922048266
 20
6.8434950143
 30
0.0
 10
9.7859745704
 20
6.8472676698
 30
0.0
 10
9.7784983002
 20
6.8517949111
 30
0.0
 10
9.7710220139
 20
6.8563221235
 30
0.0
 10
9.764791798
 20
6.8600948513
 30
0.0
 10
9.759807579
 20
6.8631129261
 30
0.0
 10
9.7566925464
 20
6.8649994661
 30
0.0
 10
9.7542002816
 20
6.8665081411
 30
0.0
 10
9.7523317367
 20
6.8676411726
 30
0.0
 10
9.7507725362
 20
6.8685805133
 30
0.0
 10
9.7496851774
 20
6.8692475741
 30
0.0
 10
9.7490574565
 20
6.8696138834
 30
0.0
 10
9.7486046188
 20
6.8699304994
 30
0.0
 10
9.7480831559
 20
6.8700870136
 30
0.0
 10
9.7474118094
 20
6.8703515445
 30
0.0
 10
9.7462258001
 20
6.8707884541
 30
0.0
 10
9.7445373319
 20
6.8714262139
 30
0.0
 10
9.7425086743
 20
6.8721857032
 30
0.0
 10
9.7398046693
 20
6.8732003891
 30
0.0
 10
9.7364243645
 20
6.8744680503
 30
0.0
 10
9.7310160436
 20
6.8764966973
 30
0.0
 10
9.7242555854
 20
6.8790323727
 30
0.0
 10
9.7161430597
 20
6.8820752394
 30
0.0
 10
9.7093826172
 20
6.8846109522
 30
0.0
 10
9.7039742618
 20
6.8866395169
 30
0.0
 10
9.6999180019
 20
6.8881609626
 30
0.0
 10
9.6958617162
 20
6.8896823226
 30
0.0
 10
9.6924815586
 20
6.8909503896
 30
0.0
 10
9.6897772523
 20
6.8919642453
 30
0.0
 10
9.6877495148
 20
6.8927262706
 30
0.0
 10
9.6860581679
 20
6.8933560958
 30
0.0
 10
9.6848772977
 20
6.8938071701
 30
0.0
 10
9.684197717
 20
6.8940490057
 30
0.0
 10
9.6837015467
 20
6.8942752324
 30
0.0
 10
9.6831537145
 20
6.8943300198
 30
0.0
 10
9.6824412919
 20
6.8944628695
 30
0.0
 10
9.6811861563
 20
6.8946674948
 30
0.0
 10
9.679397495
 20
6.894974383
 30
0.0
 10
9.6772492225
 20
6.895336414
 30
0.0
 10
9.6743855155
 20
6.8958212999
 30
0.0
 10
9.6708056566
 20
6.8964266599
 30
0.0
 10
9.6665099224
 20
6.8971534123
 30
0.0
 10
9.6622141624
 20
6.897880079
 30
0.0
 10
9.6564864914
 20
6.8988489978
 30
0.0
 10
9.6493268996
 20
6.9000601361
 30
0.0
 10
9.6407353907
 20
6.9015135065
 30
0.0
 10
9.6292800451
 20
6.9034513321
 30
0.0
 10
9.620688536
 20
6.9049047016
 30
0.0
 10
9.6149608632
 20
6.9058736145
 30
0.0
  0
ENDSEC
  0
SECTION
  2
OBJECTS
  0
DICTIONARY
  5
C
100
AcDbDictionary
280
0
281
1
  3
ACAD_GROUP
350
D
  3
ACAD_MLINESTYLE
350
17
  3
ACAD_LAYOUT
350
1A
  3
ACAD_PLOTSETTINGS
350
19
  3
ACAD_PLOTSTYLENAME
350
E
  3
ACAD_IMAGE_DICT
350
       3DC
  3
ACAD_IMAGE_VARS
350
       3DD
  3
ACAD_TABLESTYLE
350
       3DE
  0
IMAGEDEF_REACTOR
  5
3DB
100
AcDbRasterImageDefReactor
 90
2
330
2A6
  0
DICTIONARY
  5
D
102
{ACAD_REACTORS
330
C
102
}
100
AcDbDictionary
280
0
281
1
  0
ACDBDICTIONARYWDFLT
  5
E
102
{ACAD_REACTORS
330
C
102
}
100
AcDbDictionary
281
1
  3
Normal
350
F
100
AcDbDictionaryWithDefault
340
F
  0
DICTIONARY
  5
3DC
330
C
100
AcDbDictionary
281
1
  3
Z8A_assy_2_img_1
350
       3E1
  0
RASTERVARIABLES
  5
3DD
330
C
100
AcDbRasterVariables
 90
0
 70
0
 71
1
 72
5
  0
DICTIONARY
  5
17
102
{ACAD_REACTORS
330
C
102
}
100
AcDbDictionary
280
0
281
1
  3
Standard
350
18
  0
DICTIONARY
  5
3DE
330
C
100
AcDbDictionary
281
1
  3
Standard
350
       3E2
  3
Standard1
350
       3E3
  0
DICTIONARY
  5
19
102
{ACAD_REACTORS
330
C
102
}
100
AcDbDictionary
281
1
  0
DICTIONARY
  5
1A
102
{ACAD_REACTORS
330
C
102
}
100
AcDbDictionary
281
1
  3
Model
350
3DF
  3
Layout1
350
3E0
  0
ACDBPLACEHOLDER
  5
F
102
{ACAD_REACTORS
330
E
102
}
  0
MLINESTYLE
  5
18
102
{ACAD_REACTORS
330
17
102
}
100
AcDbMlineStyle
  2
STANDARD
 70
0
  3

 62
256
 51
90.0
 52
90.0
 71
2
 49
0.5
 62
256
  6
BYLAYER
 49
-0.5
 62
256
  6
BYLAYER
  0
LAYOUT
  5
3DF
102
{ACAD_REACTORS
330
1A
102
}
100
AcDbPlotSettings
  1

  2
none_device
  4
ANSI_C_(22.00_x_17.00_Inches)
  6

 40
0.0
 41
0.0
 42
0.0
 43
0.0
 44
558.8
 45
431.8
 46
0.0
 47
0.0
 48
0.0
 49
0.0
140
0.0
141
0.0
142
1.0
143
1.0
 70
1024
 72
0
 73
0
 74
0
  7

 75
0
147
1.0
148
0.0
149
0.0
100
AcDbLayout
  1
Model
 70
0
 71
0
 10
0.0
 20
0.0
 11
22.0
 21
17.0
 12
0.0
 22
0.0
 32
0.0
 14
0.0
 24
0.0
 34
0.0
 15
0.0
 25
0.0
 35
0.0
146
0.0
 13
0.0
 23
0.0
 33
0.0
 16
1.0
 26
0.0
 36
0.0
 17
0.0
 27
1.0
 37
0.0
 76
0
330
224
345
0
346
0
  0
LAYOUT
  5
3E0
102
{ACAD_REACTORS
330
1A
102
}
100
AcDbPlotSettings
  1

  2
none_device
  4
ANSI_C_(22.00_x_17.00_Inches)
  6

 40
0.0
 41
0.0
 42
0.0
 43
0.0
 44
558.8
 45
431.8
 46
0.0
 47
0.0
 48
0.0
 49
0.0
140
0.0
141
0.0
142
1.0
143
1.0
 70
0
 72
0
 73
0
 74
0
  7

 75
0
147
1.0
148
0.0
149
0.0
100
AcDbLayout
  1
Layout1
 70
0
 71
1
 10
0.0
 20
0.0
 11
22.0
 21
17.0
 12
0.0
 22
0.0
 32
0.0
 14
0.0
 24
0.0
 34
0.0
 15
0.0
 25
0.0
 35
0.0
146
0.0
 13
0.0
 23
0.0
 33
0.0
 16
1.0
 26
0.0
 36
0.0
 17
0.0
 27
1.0
 37
0.0
 76
0
330
225
345
0
346
0
  0
IMAGEDEF
  5
3E1
102
{ACAD_REACTORS
330
3DC
330
3DB
102
}
100
AcDbRasterImageDef
 90
0
  1
Z8A_assy_2_img_1.png
 10
369.0
 20
92.0
 11
0.0066666667
 21
0.0066666667
280
1
281
0
  0
TABLESTYLE
  5
3E2
102
{ACAD_REACTORS
330
3DE
330
2A9
330
2AA
102
}
330
3DE
100
AcDbTableStyle
  3
Standard
 70
0
 71
0
 40
0.06
 41
0.06
280
1
281
1
  7
Standard
140
0.18
170
1
 62
0
 63
7
283
0
  7
Standard
140
0.18
170
1
 62
0
 63
7
283
0
  7
Standard
140
0.18
170
1
 62
0
 63
7
283
0
  0
TABLESTYLE
  5
3E3
102
{ACAD_REACTORS
330
3DE
330
2A8
102
}
330
3DE
100
AcDbTableStyle
  3
Standard1
 70
1
 71
0
 40
0.06
 41
0.06
280
1
281
1
  7
Standard
140
0.18
170
1
 62
0
 63
7
283
0
  7
Standard
140
0.18
170
1
 62
0
 63
7
283
0
  7
Standard
140
0.18
170
1
 62
0
 63
7
283
0
  0
ENDSEC
  0
EOF
