999
DXF file: Z7Z_assy_2.dxf
999
Pro/ENGINEER 2014200 by Parametric Technology Corporation
  0
SECTION
  2
HEADER
  9
$ACADVER
  1
AC1021
  9
$DWGCODEPAGE
  3
ANSI_1252
  9
$EXTMAX
 10
22.0
 20
17.0
 30
0.0
  9
$EXTMIN
 10
0.0
 20
0.0
 30
0.0
  9
$LIMMIN
 10
0.0
 20
0.0
  9
$LIMMAX
 10
22.0
 20
17.0
  9
$VIEWCTR
 10
11.0
 20
8.5
  9
$VIEWSIZE
 40
17.0
  9
$CLAYER
  8
0
  9
$LTSCALE
 40
1.21
  9
$CELTYPE
  6
BYLAYER
  9
$DIMSCALE
 40
1.0
  9
$DIMASZ
 40
0.1875
  9
$DIMEXO
 40
0.0625
  9
$DIMDLI
 40
0.836
  9
$DIMEXE
 40
0.125
  9
$DIMCEN
 40
0.198
  9
$DIMLFAC
 40
1.0
  9
$DIMBLK
  1
_FILLED
  9
$DIMTXT
 40
0.1
  9
$DIMTOL
 70
0
  9
$DIMLIM
 70
0
  9
$DIMTFAC
 40
1.0
  9
$DIMGAP
 40
0.09
  9
$DIMDSEP
 70
46
  9
$AUNITS
 70
0
  9
$PDMODE
 70
3
  9
$PDSIZE
 40
0.3125
  9
$HANDSEED
  5
3DA
  9
$TILEMODE
 70
1
  9
$MEASUREMENT
 70
0
  9
$INSUNITS
 70
1
  0
ENDSEC
  0
SECTION
  2
CLASSES
  0
CLASS
  1
ACDBDICTIONARYWDFLT
  2
AcDbDictionaryWithDefault
  3
AutoCAD 2000
 90
0
 91
1
280
0
281
0
  0
CLASS
  1
ACDBPLACEHOLDER
  2
AcDbPlaceHolder
  3
AutoCAD 2000
 90
0
 91
1
280
0
281
0
  0
CLASS
  1
LAYOUT
  2
AcDbLayout
  3
AutoCAD 2000
 90
0
 91
0
280
0
281
0
  0
CLASS
  1
RASTERVARIABLES
  2
AcDbRasterVariables
  3
ISM
 90
0
 91
1
280
0
281
0
  0
CLASS
  1
IMAGEDEF
  2
AcDbRasterImageDef
  3
ISM
 90
0
 91
1
280
0
281
0
  0
CLASS
  1
IMAGEDEF_REACTOR
  2
AcDbRasterImageDefReactor
  3
ISM
 90
0
 91
1
280
0
281
0
  0
CLASS
  1
IMAGE
  2
AcDbRasterImage
  3
ISM
 90
127
 91
1
280
0
281
1
  0
CLASS
  1
TABLESTYLE
  2
AcDbTableStyle
  3
ObjectDBX Classes
 90
2047
 91
1
280
0
281
0
  0
CLASS
  1
ACAD_TABLE
  2
AcDbTable
  3
ObjectDBX Classes
 90
1025
 91
3
280
0
281
1
  0
ENDSEC
  0
SECTION
  2
TABLES
  0
TABLE
  2
VPORT
  5
8
100
AcDbSymbolTable
 70
2
  0
VPORT
  5
1F4
100
AcDbSymbolTableRecord
100
AcDbViewportTableRecord
  2
*ACTIVE
 70
0
 10
0.0
 20
0.0
 11
1.0
 21
1.0
 12
11.0
 22
8.5
 13
0.0
 23
0.0
 14
1.0
 24
1.0
 15
0.0
 25
0.0
 16
0.0
 26
0.0
 36
1.0
 17
0.0
 27
0.0
 37
0.0
 40
17.0
 41
1.2941176471
 42
50.0
 43
0.0
 44
0.0
 50
0.0
 51
0.0
 71
0
 72
100
 73
1
 74
1
 75
0
 76
0
 77
0
 78
0
  0
ENDTAB
  0
TABLE
  2
LTYPE
  5
5
100
AcDbSymbolTable
 70
6
  0
LTYPE
  5
14
100
AcDbSymbolTableRecord
100
AcDbLinetypeTableRecord
  2
BYBLOCK
 70
0
  3

 72
65
 73
0
 40
0.0
  0
LTYPE
  5
15
100
AcDbSymbolTableRecord
100
AcDbLinetypeTableRecord
  2
BYLAYER
 70
0
  3

 72
65
 73
0
 40
0.0
  0
LTYPE
  5
16
100
AcDbSymbolTableRecord
100
AcDbLinetypeTableRecord
  2
CONTINUOUS
 70
64
  3
Solid line
 72
65
 73
0
 40
0.0
  0
LTYPE
  5
1F5
100
AcDbSymbolTableRecord
100
AcDbLinetypeTableRecord
  2
CENTER
 70
64
  3
____ _ ____ _ ____ _ ____ _ ____ _ ____ _ ____
 72
65
 73
4
 40
0.6
 49
0.375
 74
0
 49
-0.075
 74
0
 49
0.075
 74
0
 49
-0.075
 74
0
  0
LTYPE
  5
1F6
100
AcDbSymbolTableRecord
100
AcDbLinetypeTableRecord
  2
HIDDEN
 70
64
  3
- - - - - - - - - - - - - - - - - - - -
 72
65
 73
2
 40
0.2
 49
0.1
 74
0
 49
-0.1
 74
0
  0
LTYPE
  5
1F7
100
AcDbSymbolTableRecord
100
AcDbLinetypeTableRecord
  2
PHANTOM
 70
64
  3
_____ _ _ _____ _ _ _____ _ _ _____
 72
65
 73
6
 40
0.8
 49
0.45
 74
0
 49
-0.05
 74
0
 49
0.1
 74
0
 49
-0.05
 74
0
 49
0.1
 74
0
 49
-0.05
 74
0
  0
LTYPE
  5
1F8
100
AcDbSymbolTableRecord
100
AcDbLinetypeTableRecord
  2
DOT
 70
64
  3
. . . . . . . . . . . . . . . . . . . .
 72
65
 73
2
 40
0.2
 49
0.1
 74
0
 49
-0.1
 74
0
  0
LTYPE
  5
1F9
100
AcDbSymbolTableRecord
100
AcDbLinetypeTableRecord
  2
DASHED
 70
64
  3
- - - - - - - - - - - - - - - - - - - -
 72
65
 73
2
 40
0.2
 49
0.1
 74
0
 49
-0.1
 74
0
  0
ENDTAB
  0
TABLE
  2
LAYER
  5
2
100
AcDbSymbolTable
 70
36
  0
LAYER
  5
10
100
AcDbSymbolTableRecord
100
AcDbLayerTableRecord
  2
0
 70
0
 62
7
  6
CONTINUOUS
370
-3
390
F
  0
LAYER
  5
1FA
100
AcDbSymbolTableRecord
100
AcDbLayerTableRecord
  2
DEFAULT_1
 70
0
 62
7
  6
CENTER
370
-3
390
F
  0
LAYER
  5
1FB
100
AcDbSymbolTableRecord
100
AcDbLayerTableRecord
  2
DEFAULT_2
 70
0
 62
8
  6
HIDDEN
370
-3
390
F
  0
LAYER
  5
1FC
100
AcDbSymbolTableRecord
100
AcDbLayerTableRecord
  2
DEFAULT_3
 70
0
 62
7
  6
PHANTOM
370
-3
390
F
  0
LAYER
  5
1FD
100
AcDbSymbolTableRecord
100
AcDbLayerTableRecord
  2
1
 70
0
 62
7
  6
CONTINUOUS
370
-3
390
F
  0
LAYER
  5
1FE
100
AcDbSymbolTableRecord
100
AcDbLayerTableRecord
  2
10
 70
0
 62
7
  6
CONTINUOUS
370
-3
390
F
  0
LAYER
  5
1FF
100
AcDbSymbolTableRecord
100
AcDbLayerTableRecord
  2
11
 70
0
 62
7
  6
CONTINUOUS
370
-3
390
F
  0
LAYER
  5
200
100
AcDbSymbolTableRecord
100
AcDbLayerTableRecord
  2
12
 70
0
 62
7
  6
CONTINUOUS
370
-3
390
F
  0
LAYER
  5
201
100
AcDbSymbolTableRecord
100
AcDbLayerTableRecord
  2
13
 70
0
 62
7
  6
CONTINUOUS
370
-3
390
F
  0
LAYER
  5
202
100
AcDbSymbolTableRecord
100
AcDbLayerTableRecord
  2
14
 70
0
 62
7
  6
CONTINUOUS
370
-3
390
F
  0
LAYER
  5
203
100
AcDbSymbolTableRecord
100
AcDbLayerTableRecord
  2
15
 70
0
 62
7
  6
CONTINUOUS
370
-3
390
F
  0
LAYER
  5
204
100
AcDbSymbolTableRecord
100
AcDbLayerTableRecord
  2
16
 70
0
 62
7
  6
CONTINUOUS
370
-3
390
F
  0
LAYER
  5
205
100
AcDbSymbolTableRecord
100
AcDbLayerTableRecord
  2
17
 70
0
 62
7
  6
CONTINUOUS
370
-3
390
F
  0
LAYER
  5
206
100
AcDbSymbolTableRecord
100
AcDbLayerTableRecord
  2
18
 70
0
 62
7
  6
CONTINUOUS
370
-3
390
F
  0
LAYER
  5
207
100
AcDbSymbolTableRecord
100
AcDbLayerTableRecord
  2
19
 70
0
 62
7
  6
CONTINUOUS
370
-3
390
F
  0
LAYER
  5
208
100
AcDbSymbolTableRecord
100
AcDbLayerTableRecord
  2
2
 70
0
 62
7
  6
CONTINUOUS
370
-3
390
F
  0
LAYER
  5
209
100
AcDbSymbolTableRecord
100
AcDbLayerTableRecord
  2
20
 70
0
 62
7
  6
CONTINUOUS
370
-3
390
F
  0
LAYER
  5
20A
100
AcDbSymbolTableRecord
100
AcDbLayerTableRecord
  2
21
 70
0
 62
7
  6
CONTINUOUS
370
-3
390
F
  0
LAYER
  5
20B
100
AcDbSymbolTableRecord
100
AcDbLayerTableRecord
  2
22
 70
0
 62
7
  6
CONTINUOUS
370
-3
390
F
  0
LAYER
  5
20C
100
AcDbSymbolTableRecord
100
AcDbLayerTableRecord
  2
23
 70
0
 62
7
  6
CONTINUOUS
370
-3
390
F
  0
LAYER
  5
20D
100
AcDbSymbolTableRecord
100
AcDbLayerTableRecord
  2
24
 70
0
 62
7
  6
CONTINUOUS
370
-3
390
F
  0
LAYER
  5
20E
100
AcDbSymbolTableRecord
100
AcDbLayerTableRecord
  2
25
 70
0
 62
7
  6
CONTINUOUS
370
-3
390
F
  0
LAYER
  5
20F
100
AcDbSymbolTableRecord
100
AcDbLayerTableRecord
  2
26
 70
0
 62
7
  6
CONTINUOUS
370
-3
390
F
  0
LAYER
  5
210
100
AcDbSymbolTableRecord
100
AcDbLayerTableRecord
  2
27
 70
0
 62
7
  6
CONTINUOUS
370
-3
390
F
  0
LAYER
  5
211
100
AcDbSymbolTableRecord
100
AcDbLayerTableRecord
  2
28
 70
0
 62
7
  6
CONTINUOUS
370
-3
390
F
  0
LAYER
  5
212
100
AcDbSymbolTableRecord
100
AcDbLayerTableRecord
  2
29
 70
0
 62
7
  6
CONTINUOUS
370
-3
390
F
  0
LAYER
  5
213
100
AcDbSymbolTableRecord
100
AcDbLayerTableRecord
  2
3
 70
0
 62
7
  6
CONTINUOUS
370
-3
390
F
  0
LAYER
  5
214
100
AcDbSymbolTableRecord
100
AcDbLayerTableRecord
  2
30
 70
0
 62
7
  6
CONTINUOUS
370
-3
390
F
  0
LAYER
  5
215
100
AcDbSymbolTableRecord
100
AcDbLayerTableRecord
  2
31
 70
0
 62
7
  6
CONTINUOUS
370
-3
390
F
  0
LAYER
  5
216
100
AcDbSymbolTableRecord
100
AcDbLayerTableRecord
  2
32
 70
0
 62
7
  6
CONTINUOUS
370
-3
390
F
  0
LAYER
  5
217
100
AcDbSymbolTableRecord
100
AcDbLayerTableRecord
  2
4
 70
0
 62
7
  6
CONTINUOUS
370
-3
390
F
  0
LAYER
  5
218
100
AcDbSymbolTableRecord
100
AcDbLayerTableRecord
  2
5
 70
0
 62
7
  6
CONTINUOUS
370
-3
390
F
  0
LAYER
  5
219
100
AcDbSymbolTableRecord
100
AcDbLayerTableRecord
  2
6
 70
0
 62
7
  6
CONTINUOUS
370
-3
390
F
  0
LAYER
  5
21A
100
AcDbSymbolTableRecord
100
AcDbLayerTableRecord
  2
7
 70
0
 62
7
  6
CONTINUOUS
370
-3
390
F
  0
LAYER
  5
21B
100
AcDbSymbolTableRecord
100
AcDbLayerTableRecord
  2
8
 70
0
 62
7
  6
CONTINUOUS
370
-3
390
F
  0
LAYER
  5
21C
100
AcDbSymbolTableRecord
100
AcDbLayerTableRecord
  2
9
 70
0
 62
7
  6
CONTINUOUS
370
-3
390
F
  0
LAYER
  5
21D
100
AcDbSymbolTableRecord
100
AcDbLayerTableRecord
  2
DATUM_PLANES
 70
0
 62
7
  6
CONTINUOUS
370
-3
390
F
  0
LAYER
  5
21E
100
AcDbSymbolTableRecord
100
AcDbLayerTableRecord
  2
PORT_AREAS
 70
0
 62
7
  6
CONTINUOUS
370
-3
390
F
  0
LAYER
  5
21F
100
AcDbSymbolTableRecord
100
AcDbLayerTableRecord
  2
SUNNBOMCOSMETIC
 70
0
 62
7
  6
CONTINUOUS
370
-3
390
F
  0
LAYER
  5
220
100
AcDbSymbolTableRecord
100
AcDbLayerTableRecord
  2
SUNNBOMSTAMPING
 70
0
 62
7
  6
CONTINUOUS
370
-3
390
F
  0
LAYER
  5
221
100
AcDbSymbolTableRecord
100
AcDbLayerTableRecord
  2
THREADS
 70
0
 62
7
  6
CONTINUOUS
370
-3
390
F
  0
ENDTAB
  0
TABLE
  2
STYLE
  5
3
100
AcDbSymbolTable
 70
1
  0
STYLE
  5
11
100
AcDbSymbolTableRecord
100
AcDbTextStyleTableRecord
  2
STANDARD
 70
0
 40
0.0
 41
0.8
 50
0.0
 71
0
 42
0.2
  3
txt
  4

  0
STYLE
  5
222
100
AcDbSymbolTableRecord
100
AcDbTextStyleTableRecord
  2
TEXTSTYLE_1
 70
0
 40
0.0
 41
0.8
 50
0.0
 71
0
 42
0.2
  3
gdt
  4

  0
ENDTAB
  0
TABLE
  2
VIEW
  5
6
100
AcDbSymbolTable
 70
0
  0
ENDTAB
  0
TABLE
  2
UCS
  5
7
100
AcDbSymbolTable
 70
0
  0
ENDTAB
  0
TABLE
  2
APPID
  5
9
100
AcDbSymbolTable
 70
1
  0
APPID
  5
223
100
AcDbSymbolTableRecord
100
AcDbRegAppTableRecord
  2
ACAD
 70
0
  0
ENDTAB
  0
TABLE
  2
BLOCK_RECORD
  5
1
100
AcDbSymbolTable
 70
0
  0
BLOCK_RECORD
  5
224
100
AcDbSymbolTableRecord
100
AcDbBlockTableRecord
  2
*Model_Space
  0
BLOCK_RECORD
  5
225
100
AcDbSymbolTableRecord
100
AcDbBlockTableRecord
  2
*Paper_Space
  0
BLOCK_RECORD
  5
226
100
AcDbSymbolTableRecord
100
AcDbBlockTableRecord
  2
SUN_FIRST_THIRD_ANGLE_BL0
  0
BLOCK_RECORD
  5
227
100
AcDbSymbolTableRecord
100
AcDbBlockTableRecord
  2
*T1
  0
BLOCK_RECORD
  5
228
100
AcDbSymbolTableRecord
100
AcDbBlockTableRecord
  2
*T2
  0
BLOCK_RECORD
  5
229
100
AcDbSymbolTableRecord
100
AcDbBlockTableRecord
  2
*T3
  0
ENDTAB
  0
TABLE
  2
DIMSTYLE
  5
A
100
AcDbSymbolTable
 70
1
100
AcDbDimStyleTable
 71
0
  0
DIMSTYLE
105
22A
100
AcDbSymbolTableRecord
100
AcDbDimStyleTableRecord
  2
STANDARD
 70
0
  3

  4

 40
1.0
 41
0.1875
 42
0.0625
 43
0.38
 44
0.125
 45
0.0
 46
0.0
 47
0.001
 48
0.001
140
0.1
141
0.09
142
0.0
143
25.4
144
1.0
145
0.0
146
1.0
147
0.09
 71
0.0
 72
0.0
 73
1
 74
1
 75
0
 76
0
 77
0
 78
4
170
0
171
2
172
0
173
0
174
0
175
0
176
0
177
0
178
0
270
2
271
3
272
3
273
2
274
2
275
0
280
0
281
0
282
0
283
1
284
4
285
0
286
0
287
3
288
0
340
11
278
46
  0
ENDTAB
  0
ENDSEC
  0
SECTION
  2
BLOCKS
  0
BLOCK
  5
20
100
AcDbEntity
  8
0
100
AcDbBlockBegin
  2
*Model_Space
 70
0
 10
0.0
 20
0.0
 30
0.0
  3
*Model_Space
  1

  0
ENDBLK
  5
21
100
AcDbEntity
  8
0
100
AcDbBlockEnd
  0
BLOCK
  5
1C
100
AcDbEntity
  8
0
100
AcDbBlockBegin
  2
*Paper_Space
 70
0
 10
0.0
 20
0.0
 30
0.0
  3
*Paper_Space
  1

  0
ENDBLK
  5
1D
100
AcDbEntity
  8
0
100
AcDbBlockEnd
  0
BLOCK
  5
22B
100
AcDbEntity
  8
0
100
AcDbBlockBegin
 62
2
  6
CONTINUOUS
  2
SUN_FIRST_THIRD_ANGLE_BL0
 70
64
 10
20.4816717061
 20
1.2289683772
  3
SUN_FIRST_THIRD_ANGLE_BL0
  1

  0
TEXT
  5
22C
100
AcDbEntity
  8
0
100
AcDbText
 62
2
  6
CONTINUOUS
 10
19.4750896608
 20
1.4136269581
  7
STANDARD
 40
0.08
  1
FIRST ANGLE
 41
0.8
 72
0
100
AcDbText
  0
TEXT
  5
22D
100
AcDbEntity
  8
0
100
AcDbText
 62
2
  6
CONTINUOUS
 10
20.7842537513
 20
1.4047600029
  7
STANDARD
 40
0.08
  1
THIRD ANGLE
 41
0.8
 72
0
100
AcDbText
  0
LINE
  5
22E
100
AcDbEntity
  8
0
100
AcDbLine
 62
7
  6
CONTINUOUS
 10
19.4767170086
 20
1.1727031207
 11
19.6334271527
 21
1.1717972817
  0
LINE
  5
22F
100
AcDbEntity
  8
0
100
AcDbLine
 62
7
  6
CONTINUOUS
 10
19.6596964832
 20
1.1717972817
 11
19.6950230232
 21
1.171593082
  0
LINE
  5
230
100
AcDbEntity
  8
0
100
AcDbLine
 62
7
  6
CONTINUOUS
 10
19.7194818561
 20
1.1708914427
 11
19.8852396156
 21
1.1699333054
  0
LINE
  5
231
100
AcDbEntity
  8
0
100
AcDbLine
 62
7
  6
CONTINUOUS
 10
19.4758111696
 20
1.2723454088
 11
19.88525039
 21
1.3511534004
  0
LINE
  5
232
100
AcDbEntity
  8
0
100
AcDbLine
 62
7
  6
CONTINUOUS
 10
19.88525039
 20
1.3511534004
 11
19.8831348489
 21
0.9851647912
  0
LINE
  5
233
100
AcDbEntity
  8
0
100
AcDbLine
 62
7
  6
CONTINUOUS
 10
19.8831348489
 20
0.9851647912
 11
19.4767170086
 21
1.0658141206
  0
LINE
  5
234
100
AcDbEntity
  8
0
100
AcDbLine
 62
7
  6
CONTINUOUS
 10
19.4767170086
 20
1.0658141206
 11
19.4779056764
 21
1.2714536432
  0
CIRCLE
  5
235
100
AcDbEntity
  8
0
100
AcDbCircle
 62
7
  6
CONTINUOUS
 10
20.2068232291
 20
1.1717972817
 40
0.175742101
  0
CIRCLE
  5
236
100
AcDbEntity
  8
0
100
AcDbCircle
 62
7
  6
CONTINUOUS
 10
20.2068232291
 20
1.1717972817
 40
0.1005522074
  0
LINE
  5
237
100
AcDbEntity
  8
0
100
AcDbLine
 62
7
  6
CONTINUOUS
 10
20.2077290681
 20
1.3756110529
 11
20.2071171714
 21
1.2379342989
  0
LINE
  5
238
100
AcDbEntity
  8
0
100
AcDbLine
 62
7
  6
CONTINUOUS
 10
20.2077290681
 20
1.2016899681
 11
20.2074674401
 21
1.1428236749
  0
LINE
  5
239
100
AcDbEntity
  8
0
100
AcDbLine
 62
7
  6
CONTINUOUS
 10
20.208634907
 20
1.101141841
 11
20.2080230104
 21
0.963465087
  0
LINE
  5
23A
100
AcDbEntity
  8
0
100
AcDbLine
 62
7
  6
CONTINUOUS
 10
20.0066328138
 20
1.1745147986
 11
20.1443095678
 21
1.1739029019
  0
LINE
  5
23B
100
AcDbEntity
  8
0
100
AcDbLine
 62
7
  6
CONTINUOUS
 10
20.1832714155
 20
1.1727031207
 11
20.238153505
 21
1.172335442
  0
LINE
  5
23C
100
AcDbEntity
  8
0
100
AcDbLine
 62
7
  6
CONTINUOUS
 10
20.2756669918
 20
1.1717972817
 11
20.407916871
 21
1.1712095044
  0
CIRCLE
  5
23D
100
AcDbEntity
  8
0
100
AcDbCircle
 62
7
  6
CONTINUOUS
 10
20.7509457401
 20
1.1693297793
 40
0.1722024983
  0
CIRCLE
  5
23E
100
AcDbEntity
  8
0
100
AcDbCircle
 62
7
  6
CONTINUOUS
 10
20.7509457401
 20
1.1693297793
 40
0.0985164967
  0
LINE
  5
23F
100
AcDbEntity
  8
0
100
AcDbLine
 62
7
  6
CONTINUOUS
 10
20.7169767782
 20
1.170462078
 11
20.7825395137
 21
1.1682766535
  0
LINE
  5
240
100
AcDbEntity
  8
0
100
AcDbLine
 62
7
  6
CONTINUOUS
 10
20.8177513651
 20
1.1693297793
 11
20.947965719
 21
1.1693297793
  0
LINE
  5
241
100
AcDbEntity
  8
0
100
AcDbLine
 62
7
  6
CONTINUOUS
 10
20.6875370113
 20
1.170462078
 11
20.5573226574
 21
1.170462078
  0
LINE
  5
242
100
AcDbEntity
  8
0
100
AcDbLine
 62
7
  6
CONTINUOUS
 10
20.7486811426
 20
1.1987695462
 11
20.7486811426
 21
1.1432869085
  0
LINE
  5
243
100
AcDbEntity
  8
0
100
AcDbLine
 62
7
  6
CONTINUOUS
 10
20.7498134414
 20
1.1059210505
 11
20.7498134414
 21
0.9757066966
  0
LINE
  5
244
100
AcDbEntity
  8
0
100
AcDbLine
 62
7
  6
CONTINUOUS
 10
20.7486811426
 20
1.2338708068
 11
20.7486811426
 21
1.3640851607
  0
LINE
  5
245
100
AcDbEntity
  8
0
100
AcDbLine
 62
7
  6
CONTINUOUS
 10
21.0702539817
 20
1.2701043662
 11
21.4790138229
 21
1.3448360823
  0
LINE
  5
246
100
AcDbEntity
  8
0
100
AcDbLine
 62
7
  6
CONTINUOUS
 10
21.4790138229
 20
1.3448360823
 11
21.4790138229
 21
0.9779712941
  0
LINE
  5
247
100
AcDbEntity
  8
0
100
AcDbLine
 62
7
  6
CONTINUOUS
 10
21.4790138229
 20
0.9779712941
 11
21.069121683
 21
1.0617614
  0
LINE
  5
248
100
AcDbEntity
  8
0
100
AcDbLine
 62
7
  6
CONTINUOUS
 10
21.0702539817
 20
1.2701043662
 11
21.069121683
 21
1.0617614
  0
LINE
  5
249
100
AcDbEntity
  8
0
100
AcDbLine
 62
7
  6
CONTINUOUS
 10
21.4790138229
 20
1.1693297793
 11
21.3159628059
 21
1.1693297793
  0
LINE
  5
24A
100
AcDbEntity
  8
0
100
AcDbLine
 62
7
  6
CONTINUOUS
 10
21.2876553377
 20
1.1693297793
 11
21.2502894796
 21
1.1693297793
  0
LINE
  5
24B
100
AcDbEntity
  8
0
100
AcDbLine
 62
7
  6
CONTINUOUS
 10
21.2208497126
 20
1.1659328831
 11
21.0713862804
 21
1.1659328831
  0
LINE
  5
24C
100
AcDbEntity
  8
0
100
AcDbLine
 62
7
  6
CONTINUOUS
 10
20.4796138713
 20
1.5284908897
 11
20.4766766948
 21
0.9294458646
  0
ENDBLK
  5
24D
100
AcDbEntity
  8
0
  6
BYBLOCK
 62
0
100
AcDbBlockEnd
  0
BLOCK
  5
24E
100
AcDbEntity
  8
0
100
AcDbBlockBegin
  2
*T1
 70
1
 10
0.0
 20
0.0
  3
*T1
  1

  0
LINE
  5
24F
100
AcDbEntity
  8
0
100
AcDbLine
 62
2
  6
CONTINUOUS
 10
9.275
 20
0.0
 11
-0.0
 21
0.0
  0
LINE
  5
250
100
AcDbEntity
  8
0
100
AcDbLine
 62
2
  6
CONTINUOUS
 10
9.275
 20
0.0
 11
9.275
 21
1.25
  0
LINE
  5
251
100
AcDbEntity
  8
0
100
AcDbLine
 62
2
  6
CONTINUOUS
 10
9.275
 20
0.625
 11
-0.0
 21
0.625
  0
LINE
  5
252
100
AcDbEntity
  8
0
100
AcDbLine
 62
2
  6
CONTINUOUS
 10
9.275
 20
1.25
 11
-0.0
 21
1.25
  0
LINE
  5
253
100
AcDbEntity
  8
0
100
AcDbLine
 62
2
  6
CONTINUOUS
 10
6.8
 20
0.0
 11
6.8
 21
1.25
  0
LINE
  5
254
100
AcDbEntity
  8
0
100
AcDbLine
 62
2
  6
CONTINUOUS
 10
6.4
 20
0.0
 11
6.4
 21
0.625
  0
LINE
  5
255
100
AcDbEntity
  8
0
100
AcDbLine
 62
2
  6
CONTINUOUS
 10
5.9
 20
0.0
 11
5.9
 21
0.625
  0
LINE
  5
256
100
AcDbEntity
  8
0
100
AcDbLine
 62
2
  6
CONTINUOUS
 10
5.2
 20
0.0
 11
5.2
 21
0.625
  0
LINE
  5
257
100
AcDbEntity
  8
0
100
AcDbLine
 62
2
  6
CONTINUOUS
 10
4.1
 20
0.0
 11
4.1
 21
1.25
  0
LINE
  5
258
100
AcDbEntity
  8
0
100
AcDbLine
 62
2
  6
CONTINUOUS
 10
-0.0
 20
0.0
 11
-0.0
 21
1.25
  0
MTEXT
  5
259
100
AcDbEntity
  8
0
100
AcDbMText
 62
2
  6
CONTINUOUS
  7
STANDARD
 71
2
 72
1
 10
6.6
 20
0.325
 30
0.0
 11
1.0
 21
0.0
 31
0.0
 44
0.9
  1
2
 40
0.125
 41
0.2
  0
MTEXT
  5
25A
100
AcDbEntity
  8
0
100
AcDbMText
 62
2
  6
CONTINUOUS
  7
STANDARD
 71
2
 72
1
 10
6.15
 20
0.325
 30
0.0
 11
1.0
 21
0.0
 31
0.0
 44
0.9
  1
C
 40
0.125
 41
0.2
  0
MTEXT
  5
25B
100
AcDbEntity
  8
0
100
AcDbMText
 62
2
  6
CONTINUOUS
  7
STANDARD
 71
2
 72
1
 10
5.55
 20
0.325
 30
0.0
 11
1.0
 21
0.0
 31
0.0
 44
0.9
  1
2.000
 40
0.125
 41
1.0
  0
MTEXT
  5
25C
100
AcDbEntity
  8
0
100
AcDbMText
 62
2
  6
CONTINUOUS
  7
STANDARD
 71
2
 72
1
 10
4.65
 20
0.325
 30
0.0
 11
1.0
 21
0.0
 31
0.0
 44
0.9
  1
Mar-04-24
 40
0.125
 41
1.8
  0
MTEXT
  5
25D
100
AcDbEntity
  8
0
100
AcDbMText
 62
2
  6
CONTINUOUS
  7
STANDARD
 71
2
 72
1
 10
2.05
 20
0.4625
 30
0.0
 11
1.0
 21
0.0
 31
0.0
 44
0.9
  1
T-10A Line mount\PCross port with shuttle
 40
0.125
 41
4.6
  0
MTEXT
  5
25E
100
AcDbEntity
  8
0
100
AcDbMText
 62
2
  6
CONTINUOUS
  7
STANDARD
 71
1
 72
1
 10
6.45
 20
0.5625
 30
0.0
 11
1.0
 21
0.0
 31
0.0
 44
0.9
  1
SHEET
 40
0.06
 41
0.48
  0
MTEXT
  5
25F
100
AcDbEntity
  8
0
100
AcDbMText
 62
2
  6
CONTINUOUS
  7
STANDARD
 71
1
 72
1
 10
5.95
 20
0.5625
 30
0.0
 11
1.0
 21
0.0
 31
0.0
 44
0.9
  1
DWG SIZE
 40
0.06
 41
0.768
  0
MTEXT
  5
260
100
AcDbEntity
  8
0
100
AcDbMText
 62
2
  6
CONTINUOUS
  7
STANDARD
 71
1
 72
1
 10
5.25
 20
0.5625
 30
0.0
 11
1.0
 21
0.0
 31
0.0
 44
0.9
  1
SCALE
 40
0.06
 41
0.48
  0
MTEXT
  5
261
100
AcDbEntity
  8
0
100
AcDbMText
 62
2
  6
CONTINUOUS
  7
STANDARD
 71
1
 72
1
 10
4.15
 20
0.5625
 30
0.0
 11
1.0
 21
0.0
 31
0.0
 44
0.9
  1
DATE
 40
0.06
 41
0.384
  0
MTEXT
  5
262
100
AcDbEntity
  8
0
100
AcDbMText
 62
2
  6
CONTINUOUS
  7
STANDARD
 71
1
 72
1
 10
0.05
 20
0.5625
 30
0.0
 11
1.0
 21
0.0
 31
0.0
 44
0.9
  1
DESCRIPTION
 40
0.06
 41
1.056
  0
MTEXT
  5
263
100
AcDbEntity
  8
0
100
AcDbMText
 62
2
  6
CONTINUOUS
  7
STANDARD
 71
2
 72
1
 10
5.45
 20
1.0375
 30
0.0
 11
1.0
 21
0.0
 31
0.0
 44
0.9
  1
ALL DIMENSIONS IN INCH\PVIEWS ARE THIRD ANGLE
 40
0.12
 41
4.224
  0
MTEXT
  5
264
100
AcDbEntity
  8
0
100
AcDbMText
 62
2
  6
CONTINUOUS
  7
STANDARD
 71
2
 72
1
 10
2.05
 20
0.95
 30
0.0
 11
1.0
 21
0.0
 31
0.0
 44
0.9
  1
Z7Z
 40
0.125
 41
0.6
  0
MTEXT
  5
265
100
AcDbEntity
  8
0
100
AcDbMText
 62
2
  6
CONTINUOUS
  7
STANDARD
 71
1
 72
1
 10
0.05
 20
1.1875
 30
0.0
 11
1.0
 21
0.0
 31
0.0
 44
0.9
  1
MODEL
 40
0.06
 41
0.48
  0
ENDBLK
  5
266
100
AcDbEntity
  8
0
  6
BYBLOCK
 62
0
100
AcDbBlockEnd
  0
BLOCK
  5
267
100
AcDbEntity
  8
0
100
AcDbBlockBegin
  2
*T2
 70
1
 10
0.0
 20
0.0
  3
*T2
  1

  0
LINE
  5
268
100
AcDbEntity
  8
0
100
AcDbLine
 62
2
  6
CONTINUOUS
 10
0.0
 20
0.0
 11
9.055
 21
0.0
  0
LINE
  5
269
100
AcDbEntity
  8
0
100
AcDbLine
 62
2
  6
CONTINUOUS
 10
0.0
 20
0.0
 11
0.0
 21
-2.844
  0
LINE
  5
26A
100
AcDbEntity
  8
0
100
AcDbLine
 62
2
  6
CONTINUOUS
 10
0.0
 20
-0.344
 11
9.055
 21
-0.344
  0
LINE
  5
26B
100
AcDbEntity
  8
0
100
AcDbLine
 62
2
  6
CONTINUOUS
 10
0.0
 20
-0.594
 11
9.055
 21
-0.594
  0
LINE
  5
26C
100
AcDbEntity
  8
0
100
AcDbLine
 62
2
  6
CONTINUOUS
 10
0.0
 20
-0.844
 11
9.055
 21
-0.844
  0
LINE
  5
26D
100
AcDbEntity
  8
0
100
AcDbLine
 62
2
  6
CONTINUOUS
 10
0.0
 20
-1.094
 11
9.055
 21
-1.094
  0
LINE
  5
26E
100
AcDbEntity
  8
0
100
AcDbLine
 62
2
  6
CONTINUOUS
 10
0.0
 20
-1.344
 11
9.055
 21
-1.344
  0
LINE
  5
26F
100
AcDbEntity
  8
0
100
AcDbLine
 62
2
  6
CONTINUOUS
 10
0.0
 20
-1.594
 11
9.055
 21
-1.594
  0
LINE
  5
270
100
AcDbEntity
  8
0
100
AcDbLine
 62
2
  6
CONTINUOUS
 10
0.0
 20
-1.844
 11
9.055
 21
-1.844
  0
LINE
  5
271
100
AcDbEntity
  8
0
100
AcDbLine
 62
2
  6
CONTINUOUS
 10
0.0
 20
-2.094
 11
9.055
 21
-2.094
  0
LINE
  5
272
100
AcDbEntity
  8
0
100
AcDbLine
 62
2
  6
CONTINUOUS
 10
0.0
 20
-2.344
 11
9.055
 21
-2.344
  0
LINE
  5
273
100
AcDbEntity
  8
0
100
AcDbLine
 62
2
  6
CONTINUOUS
 10
0.0
 20
-2.594
 11
9.055
 21
-2.594
  0
LINE
  5
274
100
AcDbEntity
  8
0
100
AcDbLine
 62
2
  6
CONTINUOUS
 10
0.0
 20
-2.844
 11
9.055
 21
-2.844
  0
LINE
  5
275
100
AcDbEntity
  8
0
100
AcDbLine
 62
2
  6
CONTINUOUS
 10
3.055
 20
0.0
 11
3.055
 21
-2.844
  0
LINE
  5
276
100
AcDbEntity
  8
0
100
AcDbLine
 62
2
  6
CONTINUOUS
 10
9.055
 20
0.0
 11
9.055
 21
-2.844
  0
MTEXT
  5
277
100
AcDbEntity
  8
0
100
AcDbMText
 62
2
  6
CONTINUOUS
  7
STANDARD
 71
2
 72
1
 10
1.5275
 20
-0.0995
 30
0.0
 11
1.0
 21
0.0
 31
0.0
 44
0.9
  1
Technical Data
 40
0.145
 41
3.248
  0
MTEXT
  5
278
100
AcDbEntity
  8
0
100
AcDbMText
 62
2
  6
CONTINUOUS
  7
STANDARD
 71
2
 72
1
 10
4.555
 20
-0.0995
 30
0.0
 11
1.0
 21
0.0
 31
0.0
 44
0.9
  1
U.S. Units
 40
0.145
 41
2.32
  0
MTEXT
  5
279
100
AcDbEntity
  8
0
100
AcDbMText
 62
2
  6
CONTINUOUS
  7
STANDARD
 71
2
 72
1
 10
7.555
 20
-0.0995
 30
0.0
 11
1.0
 21
0.0
 31
0.0
 44
0.9
  1
Metric Units
 40
0.145
 41
2.784
  0
MTEXT
  5
27A
100
AcDbEntity
  8
0
100
AcDbMText
 62
2
  6
CONTINUOUS
  7
STANDARD
 71
2
 72
1
 10
1.5275
 20
-0.4065
 30
0.0
 11
1.0
 21
0.0
 31
0.0
 44
0.9
  1
Cavity
 40
0.125
 41
1.2
  0
MTEXT
  5
27B
100
AcDbEntity
  8
0
100
AcDbMText
 62
2
  6
CONTINUOUS
  7
STANDARD
 71
2
 72
1
 10
6.055
 20
-0.4065
 30
0.0
 11
1.0
 21
0.0
 31
0.0
 44
0.9
  1
T-10A
 40
0.125
 41
1.0
  0
MTEXT
  5
27C
100
AcDbEntity
  8
0
100
AcDbMText
 62
2
  6
CONTINUOUS
  7
STANDARD
 71
2
 72
1
 10
1.5275
 20
-0.6565
 30
0.0
 11
1.0
 21
0.0
 31
0.0
 44
0.9
  1
Body Features
 40
0.125
 41
2.6
  0
MTEXT
  5
27D
100
AcDbEntity
  8
0
100
AcDbMText
 62
2
  6
CONTINUOUS
  7
STANDARD
 71
2
 72
1
 10
6.055
 20
-0.6565
 30
0.0
 11
1.0
 21
0.0
 31
0.0
 44
0.9
  1
Cross port with shuttle
 40
0.125
 41
4.6
  0
MTEXT
  5
27E
100
AcDbEntity
  8
0
100
AcDbMText
 62
2
  6
CONTINUOUS
  7
STANDARD
 71
2
 72
1
 10
1.5275
 20
-0.9065
 30
0.0
 11
1.0
 21
0.0
 31
0.0
 44
0.9
  1
Body Type
 40
0.125
 41
1.8
  0
MTEXT
  5
27F
100
AcDbEntity
  8
0
100
AcDbMText
 62
2
  6
CONTINUOUS
  7
STANDARD
 71
2
 72
1
 10
6.055
 20
-0.9065
 30
0.0
 11
1.0
 21
0.0
 31
0.0
 44
0.9
  1
Line mount
 40
0.125
 41
2.0
  0
MTEXT
  5
280
100
AcDbEntity
  8
0
100
AcDbMText
 62
2
  6
CONTINUOUS
  7
STANDARD
 71
2
 72
1
 10
1.5275
 20
-1.1565
 30
0.0
 11
1.0
 21
0.0
 31
0.0
 44
0.9
  1
Interface
 40
0.125
 41
1.8
  0
MTEXT
  5
281
100
AcDbEntity
  8
0
100
AcDbMText
 62
2
  6
CONTINUOUS
  7
STANDARD
 71
2
 72
1
 10
6.055
 20
-1.1565
 30
0.0
 11
1.0
 21
0.0
 31
0.0
 44
0.9
  1
None
 40
0.125
 41
0.8
  0
MTEXT
  5
282
100
AcDbEntity
  8
0
100
AcDbMText
 62
2
  6
CONTINUOUS
  7
STANDARD
 71
2
 72
1
 10
1.5275
 20
-1.4065
 30
0.0
 11
1.0
 21
0.0
 31
0.0
 44
0.9
  1
Open Cavity Quantity
 40
0.125
 41
4.0
  0
MTEXT
  5
283
100
AcDbEntity
  8
0
100
AcDbMText
 62
2
  6
CONTINUOUS
  7
STANDARD
 71
2
 72
1
 10
6.055
 20
-1.4065
 30
0.0
 11
1.0
 21
0.0
 31
0.0
 44
0.9
  1
2
 40
0.125
 41
0.2
  0
MTEXT
  5
284
100
AcDbEntity
  8
0
100
AcDbMText
 62
2
  6
CONTINUOUS
  7
STANDARD
 71
2
 72
1
 10
1.5275
 20
-1.6565
 30
0.0
 11
1.0
 21
0.0
 31
0.0
 44
0.9
  1
Weight
 40
0.125
 41
1.2
  0
MTEXT
  5
285
100
AcDbEntity
  8
0
100
AcDbMText
 62
2
  6
CONTINUOUS
  7
STANDARD
 71
2
 72
1
 10
4.555
 20
-1.6565
 30
0.0
 11
1.0
 21
0.0
 31
0.0
 44
0.9
  1
2.202 lb.
 40
0.125
 41
1.8
  0
MTEXT
  5
286
100
AcDbEntity
  8
0
100
AcDbMText
 62
2
  6
CONTINUOUS
  7
STANDARD
 71
2
 72
1
 10
7.555
 20
-1.6565
 30
0.0
 11
1.0
 21
0.0
 31
0.0
 44
0.9
  1
0,999 kg.
 40
0.125
 41
1.8
  0
MTEXT
  5
287
100
AcDbEntity
  8
0
100
AcDbMText
 62
2
  6
CONTINUOUS
  7
STANDARD
 71
2
 72
1
 10
1.5275
 20
-1.9065
 30
0.0
 11
1.0
 21
0.0
 31
0.0
 44
0.9
  1
Mounting Hole Diameter
 40
0.125
 41
4.4
  0
MTEXT
  5
288
100
AcDbEntity
  8
0
100
AcDbMText
 62
2
  6
CONTINUOUS
  7
STANDARD
 71
2
 72
1
 10
4.555
 20
-1.9065
 30
0.0
 11
1.0
 21
0.0
 31
0.0
 44
0.9
  1
.34 in.
 40
0.125
 41
1.4
  0
MTEXT
  5
289
100
AcDbEntity
  8
0
100
AcDbMText
 62
2
  6
CONTINUOUS
  7
STANDARD
 71
2
 72
1
 10
7.555
 20
-1.9065
 30
0.0
 11
1.0
 21
0.0
 31
0.0
 44
0.9
  1
8.6 mm
 40
0.125
 41
1.2
  0
MTEXT
  5
28A
100
AcDbEntity
  8
0
100
AcDbMText
 62
2
  6
CONTINUOUS
  7
STANDARD
 71
2
 72
1
 10
1.5275
 20
-2.1565
 30
0.0
 11
1.0
 21
0.0
 31
0.0
 44
0.9
  1
Mounting Hole Depth
 40
0.125
 41
3.8
  0
MTEXT
  5
28B
100
AcDbEntity
  8
0
100
AcDbMText
 62
2
  6
CONTINUOUS
  7
STANDARD
 71
2
 72
1
 10
6.055
 20
-2.1565
 30
0.0
 11
1.0
 21
0.0
 31
0.0
 44
0.9
  1
Through
 40
0.125
 41
1.4
  0
MTEXT
  5
28C
100
AcDbEntity
  8
0
100
AcDbMText
 62
2
  6
CONTINUOUS
  7
STANDARD
 71
2
 72
1
 10
1.5275
 20
-2.4065
 30
0.0
 11
1.0
 21
0.0
 31
0.0
 44
0.9
  1
Mounting Hole Quantity
 40
0.125
 41
4.4
  0
MTEXT
  5
28D
100
AcDbEntity
  8
0
100
AcDbMText
 62
2
  6
CONTINUOUS
  7
STANDARD
 71
2
 72
1
 10
6.055
 20
-2.4065
 30
0.0
 11
1.0
 21
0.0
 31
0.0
 44
0.9
  1
2
 40
0.125
 41
0.2
  0
MTEXT
  5
28E
100
AcDbEntity
  8
0
100
AcDbMText
 62
2
  6
CONTINUOUS
  7
STANDARD
 71
2
 72
1
 10
1.5275
 20
-2.6565
 30
0.0
 11
1.0
 21
0.0
 31
0.0
 44
0.9
  1
Includes integral cartridge(s)
 40
0.125
 41
6.0
  0
MTEXT
  5
28F
100
AcDbEntity
  8
0
100
AcDbMText
 62
2
  6
CONTINUOUS
  7
STANDARD
 71
2
 72
1
 10
6.055
 20
-2.6565
 30
0.0
 11
1.0
 21
0.0
 31
0.0
 44
0.9
  1
Yes (see Included Components)
 40
0.125
 41
5.8
  0
ENDBLK
  5
290
100
AcDbEntity
  8
0
  6
BYBLOCK
 62
0
100
AcDbBlockEnd
  0
BLOCK
  5
291
100
AcDbEntity
  8
0
100
AcDbBlockBegin
  2
*T3
 70
1
 10
0.0
 20
0.0
  3
*T3
  1

  0
LINE
  5
292
100
AcDbEntity
  8
0
100
AcDbLine
 62
2
  6
CONTINUOUS
 10
0.0
 20
0.0
 11
4.6
 21
0.0
  0
LINE
  5
293
100
AcDbEntity
  8
0
100
AcDbLine
 62
2
  6
CONTINUOUS
 10
0.0
 20
0.0
 11
0.0
 21
-1.18775
  0
LINE
  5
294
100
AcDbEntity
  8
0
100
AcDbLine
 62
2
  6
CONTINUOUS
 10
0.0
 20
-0.34375
 11
4.6
 21
-0.34375
  0
LINE
  5
295
100
AcDbEntity
  8
0
100
AcDbLine
 62
2
  6
CONTINUOUS
 10
0.0
 20
-0.68775
 11
4.6
 21
-0.68775
  0
LINE
  5
296
100
AcDbEntity
  8
0
100
AcDbLine
 62
2
  6
CONTINUOUS
 10
0.0
 20
-0.93775
 11
4.6
 21
-0.93775
  0
LINE
  5
297
100
AcDbEntity
  8
0
100
AcDbLine
 62
2
  6
CONTINUOUS
 10
0.0
 20
-1.18775
 11
4.6
 21
-1.18775
  0
LINE
  5
298
100
AcDbEntity
  8
0
100
AcDbLine
 62
2
  6
CONTINUOUS
 10
1.3
 20
-0.34375
 11
1.3
 21
-1.18775
  0
LINE
  5
299
100
AcDbEntity
  8
0
100
AcDbLine
 62
2
  6
CONTINUOUS
 10
3.3
 20
-0.34375
 11
3.3
 21
-1.18775
  0
LINE
  5
29A
100
AcDbEntity
  8
0
100
AcDbLine
 62
2
  6
CONTINUOUS
 10
4.6
 20
0.0
 11
4.6
 21
-1.18775
  0
MTEXT
  5
29B
100
AcDbEntity
  8
0
100
AcDbMText
 62
2
  6
CONTINUOUS
  7
STANDARD
 71
2
 72
1
 10
2.3
 20
-0.099375
 30
0.0
 11
1.0
 21
0.0
 31
0.0
 44
0.9
  1
Port Headings
 40
0.145
 41
3.016
  0
MTEXT
  5
29C
100
AcDbEntity
  8
0
100
AcDbMText
 62
2
  6
CONTINUOUS
  7
STANDARD
 71
2
 72
1
 10
0.65
 20
-0.44325
 30
0.0
 11
1.0
 21
0.0
 31
0.0
 44
0.9
  1
Product
 40
0.145
 41
1.624
  0
MTEXT
  5
29D
100
AcDbEntity
  8
0
100
AcDbMText
 62
2
  6
CONTINUOUS
  7
STANDARD
 71
2
 72
1
 10
2.3
 20
-0.44325
 30
0.0
 11
1.0
 21
0.0
 31
0.0
 44
0.9
  1
Port
 40
0.145
 41
0.928
  0
MTEXT
  5
29E
100
AcDbEntity
  8
0
100
AcDbMText
 62
2
  6
CONTINUOUS
  7
STANDARD
 71
2
 72
1
 10
3.95
 20
-0.44325
 30
0.0
 11
1.0
 21
0.0
 31
0.0
 44
0.9
  1
Size
 40
0.145
 41
0.928
  0
MTEXT
  5
29F
100
AcDbEntity
  8
0
100
AcDbMText
 62
2
  6
CONTINUOUS
  7
STANDARD
 71
2
 72
1
 10
0.65
 20
-0.75025
 30
0.0
 11
1.0
 21
0.0
 31
0.0
 44
0.9
  1
Z7Z
 40
0.125
 41
0.6
  0
MTEXT
  5
2A0
100
AcDbEntity
  8
0
100
AcDbMText
 62
2
  6
CONTINUOUS
  7
STANDARD
 71
2
 72
1
 10
2.3
 20
-0.75025
 30
0.0
 11
1.0
 21
0.0
 31
0.0
 44
0.9
  1
Ports 1 &  2
 40
0.125
 41
2.4
  0
MTEXT
  5
2A1
100
AcDbEntity
  8
0
100
AcDbMText
 62
2
  6
CONTINUOUS
  7
STANDARD
 71
2
 72
1
 10
3.95
 20
-0.75025
 30
0.0
 11
1.0
 21
0.0
 31
0.0
 44
0.9
  1
SAE 6
 40
0.125
 41
1.0
  0
MTEXT
  5
2A2
100
AcDbEntity
  8
0
100
AcDbMText
 62
2
  6
CONTINUOUS
  7
STANDARD
 71
2
 72
1
 10
0.65
 20
-1.00025
 30
0.0
 11
1.0
 21
0.0
 31
0.0
 44
0.9
  1
Z7Z
 40
0.125
 41
0.6
  0
MTEXT
  5
2A3
100
AcDbEntity
  8
0
100
AcDbMText
 62
2
  6
CONTINUOUS
  7
STANDARD
 71
2
 72
1
 10
2.3
 20
-1.00025
 30
0.0
 11
1.0
 21
0.0
 31
0.0
 44
0.9
  1
Shuttle Port
 40
0.125
 41
2.4
  0
MTEXT
  5
2A4
100
AcDbEntity
  8
0
100
AcDbMText
 62
2
  6
CONTINUOUS
  7
STANDARD
 71
2
 72
1
 10
3.95
 20
-1.00025
 30
0.0
 11
1.0
 21
0.0
 31
0.0
 44
0.9
  1
SAE 4
 40
0.125
 41
1.0
  0
ENDBLK
  5
2A5
100
AcDbEntity
  8
0
  6
BYBLOCK
 62
0
100
AcDbBlockEnd
  0
ENDSEC
  0
SECTION
  2
ENTITIES
  0
IMAGE
  5
2A6
100
AcDbEntity
  8
0
100
AcDbRasterImage
 62
7
  6
CONTINUOUS
 10
19.2297077316
 20
0.3094318264
 30
0.0
 11
0.0066666667
 21
0.0
 31
0.0
 12
0.0
 22
0.0066666667
 32
0.0
 13
369.0
 23
92.0
340
       3D7
 70
9
280
0
281
50
282
50
283
0
360
       3D1
 71
1
 91
2
 14
-0.5
 24
-0.5
 14
368.5
 24
91.5
  0
INSERT
  5
2A7
100
AcDbEntity
  8
0
100
AcDbBlockReference
 62
2
  6
CONTINUOUS
  2
SUN_FIRST_THIRD_ANGLE_BL0
 10
20.4816717061
 20
1.2289683772
  0
ACAD_TABLE
  5
2A8
100
AcDbEntity
  8
0
 62
2
  6
CONTINUOUS
100
AcDbBlockReference
  2
*T1
 10
12.42375
 20
0.30125
 30
0.0
100
AcDbTable
342
       3D9
343
227
 11
1.0
 21
0.0
 31
0.0
 90
6
 91
4
 92
6
 93
20
 94
0
 95
0
 96
0
 70
1
 41
0.0
141
0.525
141
0.1
141
0.525
141
0.1
142
4.1
142
1.1
142
0.7
142
0.5
142
0.4
142
2.475
171
1
172
0
173
0
174
0
175
1
176
1
 91
33
178
0
145
0.0
301
CELL_VALUE
 90
4
  1
T-10A Line mount\PCross port with shuttle
304
ACVALUE_END
170
2
140
0.125
171
1
172
0
173
0
174
0
175
1
176
1
 91
33
178
0
145
0.0
301
CELL_VALUE
 90
4
  1
Mar-04-24
304
ACVALUE_END
170
5
140
0.125
171
1
172
0
173
0
174
0
175
1
176
1
 91
33
178
0
145
0.0
301
CELL_VALUE
 90
4
  1
2.000
304
ACVALUE_END
170
5
140
0.125
171
1
172
0
173
0
174
0
175
1
176
1
 91
33
178
0
145
0.0
301
CELL_VALUE
 90
4
  1
C
304
ACVALUE_END
170
5
140
0.125
171
1
172
0
173
0
174
0
175
1
176
1
 91
33
178
0
145
0.0
301
CELL_VALUE
 90
4
  1
2
304
ACVALUE_END
170
5
140
0.125
171
1
172
0
173
0
174
0
175
1
176
1
 91
33
178
0
145
0.0
301
CELL_VALUE
 90
4
  1
 
304
ACVALUE_END
170
1
140
0.125
171
1
172
0
173
0
174
0
175
1
176
1
 91
33
178
0
145
0.0
301
CELL_VALUE
 90
4
  1
DESCRIPTION
304
ACVALUE_END
170
1
140
0.06
171
1
172
0
173
0
174
0
175
1
176
1
 91
33
178
0
145
0.0
301
CELL_VALUE
 90
4
  1
DATE
304
ACVALUE_END
170
1
140
0.06
171
1
172
0
173
0
174
0
175
1
176
1
 91
33
178
0
145
0.0
301
CELL_VALUE
 90
4
  1
SCALE
304
ACVALUE_END
170
1
140
0.06
171
1
172
0
173
0
174
0
175
1
176
1
 91
33
178
0
145
0.0
301
CELL_VALUE
 90
4
  1
DWG SIZE
304
ACVALUE_END
170
1
140
0.06
171
1
172
0
173
0
174
0
175
1
176
1
 91
33
178
0
145
0.0
301
CELL_VALUE
 90
4
  1
SHEET
304
ACVALUE_END
170
1
140
0.06
171
1
172
0
173
0
174
0
175
1
176
1
 91
33
178
0
145
0.0
301
CELL_VALUE
 90
4
  1
 
304
ACVALUE_END
170
1
140
0.125
171
1
172
0
173
0
174
0
175
1
176
1
 91
33
178
0
145
0.0
301
CELL_VALUE
 90
4
  1
Z7Z
304
ACVALUE_END
170
5
140
0.125
171
1
172
0
173
0
174
0
175
4
176
1
 91
33
178
0
145
0.0
301
CELL_VALUE
 90
4
  1
ALL DIMENSIONS IN INCH\PVIEWS ARE THIRD ANGLE
304
ACVALUE_END
170
5
140
0.12
171
1
172
0
173
1
174
0
175
1
176
1
 91
1
178
0
145
0.0
170
1
171
1
172
0
173
1
174
0
175
1
176
1
 91
1
178
0
145
0.0
170
1
171
1
172
0
173
1
174
0
175
1
176
1
 91
1
178
0
145
0.0
170
5
171
1
172
0
173
0
174
0
175
1
176
1
 91
33
178
0
145
0.0
301
CELL_VALUE
 90
4
  1
 
304
ACVALUE_END
170
1
140
0.125
171
1
172
0
173
0
174
0
175
1
176
1
 91
33
178
0
145
0.0
301
CELL_VALUE
 90
4
  1
MODEL
304
ACVALUE_END
170
1
140
0.06
171
1
172
0
173
0
174
0
175
1
176
1
 91
33
178
0
145
0.0
301
CELL_VALUE
 90
4
  1
 
304
ACVALUE_END
170
1
140
0.125
171
1
172
0
173
0
174
0
175
1
176
1
 91
33
178
0
145
0.0
301
CELL_VALUE
 90
4
  1
 
304
ACVALUE_END
170
1
140
0.125
171
1
172
0
173
0
174
0
175
1
176
1
 91
33
178
0
145
0.0
301
CELL_VALUE
 90
4
  1
 
304
ACVALUE_END
170
1
140
0.125
171
1
172
0
173
0
174
0
175
1
176
1
 91
33
178
0
145
0.0
301
CELL_VALUE
 90
4
  1
 
304
ACVALUE_END
170
1
140
0.125
171
1
172
0
173
0
174
0
175
1
176
1
 91
33
178
0
145
0.0
301
CELL_VALUE
 90
4
  1
 
304
ACVALUE_END
170
1
140
0.125
  0
ACAD_TABLE
  5
2A9
100
AcDbEntity
  8
0
 62
2
  6
CONTINUOUS
100
AcDbBlockReference
  2
*T2
 10
12.4237499994
 20
16.47875
 30
0.0
100
AcDbTable
342
       3D8
343
228
 11
1.0
 21
0.0
 31
0.0
 90
22
 91
11
 92
3
 93
16
 94
0
 95
0
 96
0
 41
0.028
141
0.344
141
0.25
141
0.25
141
0.25
141
0.25
141
0.25
141
0.25
141
0.25
141
0.25
141
0.25
141
0.25
142
3.055
142
3.0
142
3.0
171
1
172
0
173
0
174
0
175
1
176
1
 91
33
178
0
145
0.0
301
CELL_VALUE
 90
4
  1
Technical Data
304
ACVALUE_END
170
5
140
0.145
171
1
172
0
173
0
174
0
175
1
176
1
 91
33
178
0
145
0.0
301
CELL_VALUE
 90
4
  1
U.S. Units
304
ACVALUE_END
170
5
140
0.145
171
1
172
0
173
0
174
0
175
1
176
1
 91
33
178
0
145
0.0
301
CELL_VALUE
 90
4
  1
Metric Units
304
ACVALUE_END
170
5
140
0.145
171
1
172
0
173
0
174
0
175
1
176
1
 91
33
178
0
145
0.0
301
CELL_VALUE
 90
4
  1
Cavity
304
ACVALUE_END
170
5
140
0.125
171
1
172
0
173
0
174
0
175
2
176
1
 91
33
178
0
145
0.0
301
CELL_VALUE
 90
4
  1
T-10A
304
ACVALUE_END
170
5
140
0.125
171
1
172
0
173
1
174
0
175
1
176
1
 91
1
178
0
145
0.0
170
1
171
1
172
0
173
0
174
0
175
1
176
1
 91
33
178
0
145
0.0
301
CELL_VALUE
 90
4
  1
Body Features
304
ACVALUE_END
170
5
140
0.125
171
1
172
0
173
0
174
0
175
2
176
1
 91
33
178
0
145
0.0
301
CELL_VALUE
 90
4
  1
Cross port with shuttle
304
ACVALUE_END
170
5
140
0.125
171
1
172
0
173
1
174
0
175
1
176
1
 91
1
178
0
145
0.0
170
1
171
1
172
0
173
0
174
0
175
1
176
1
 91
33
178
0
145
0.0
301
CELL_VALUE
 90
4
  1
Body Type
304
ACVALUE_END
170
5
140
0.125
171
1
172
0
173
0
174
0
175
2
176
1
 91
33
178
0
145
0.0
301
CELL_VALUE
 90
4
  1
Line mount
304
ACVALUE_END
170
5
140
0.125
171
1
172
0
173
1
174
0
175
1
176
1
 91
1
178
0
145
0.0
170
1
171
1
172
0
173
0
174
0
175
1
176
1
 91
33
178
0
145
0.0
301
CELL_VALUE
 90
4
  1
Interface
304
ACVALUE_END
170
5
140
0.125
171
1
172
0
173
0
174
0
175
2
176
1
 91
33
178
0
145
0.0
301
CELL_VALUE
 90
4
  1
None
304
ACVALUE_END
170
5
140
0.125
171
1
172
0
173
1
174
0
175
1
176
1
 91
1
178
0
145
0.0
170
1
171
1
172
0
173
0
174
0
175
1
176
1
 91
33
178
0
145
0.0
301
CELL_VALUE
 90
4
  1
Open Cavity Quantity
304
ACVALUE_END
170
5
140
0.125
171
1
172
0
173
0
174
0
175
2
176
1
 91
33
178
0
145
0.0
301
CELL_VALUE
 90
4
  1
2
304
ACVALUE_END
170
5
140
0.125
171
1
172
0
173
1
174
0
175
1
176
1
 91
1
178
0
145
0.0
170
1
171
1
172
0
173
0
174
0
175
1
176
1
 91
33
178
0
145
0.0
301
CELL_VALUE
 90
4
  1
Weight
304
ACVALUE_END
170
5
140
0.125
171
1
172
0
173
0
174
0
175
1
176
1
 91
33
178
0
145
0.0
301
CELL_VALUE
 90
4
  1
2.202 lb.
304
ACVALUE_END
170
5
140
0.125
171
1
172
0
173
0
174
0
175
1
176
1
 91
33
178
0
145
0.0
301
CELL_VALUE
 90
4
  1
0,999 kg.
304
ACVALUE_END
170
5
140
0.125
171
1
172
0
173
0
174
0
175
1
176
1
 91
33
178
0
145
0.0
301
CELL_VALUE
 90
4
  1
Mounting Hole Diameter
304
ACVALUE_END
170
5
140
0.125
171
1
172
0
173
0
174
0
175
1
176
1
 91
33
178
0
145
0.0
301
CELL_VALUE
 90
4
  1
.34 in.
304
ACVALUE_END
170
5
140
0.125
171
1
172
0
173
0
174
0
175
1
176
1
 91
33
178
0
145
0.0
301
CELL_VALUE
 90
4
  1
8.6 mm
304
ACVALUE_END
170
5
140
0.125
171
1
172
0
173
0
174
0
175
1
176
1
 91
33
178
0
145
0.0
301
CELL_VALUE
 90
4
  1
Mounting Hole Depth
304
ACVALUE_END
170
5
140
0.125
171
1
172
0
173
0
174
0
175
2
176
1
 91
33
178
0
145
0.0
301
CELL_VALUE
 90
4
  1
Through
304
ACVALUE_END
170
5
140
0.125
171
1
172
0
173
1
174
0
175
1
176
1
 91
1
178
0
145
0.0
170
1
171
1
172
0
173
0
174
0
175
1
176
1
 91
33
178
0
145
0.0
301
CELL_VALUE
 90
4
  1
Mounting Hole Quantity
304
ACVALUE_END
170
5
140
0.125
171
1
172
0
173
0
174
0
175
2
176
1
 91
33
178
0
145
0.0
301
CELL_VALUE
 90
4
  1
2
304
ACVALUE_END
170
5
140
0.125
171
1
172
0
173
1
174
0
175
1
176
1
 91
1
178
0
145
0.0
170
1
171
1
172
0
173
0
174
0
175
1
176
1
 91
33
178
0
145
0.0
301
CELL_VALUE
 90
4
  1
Includes integral cartridge(s)
304
ACVALUE_END
170
5
140
0.125
171
1
172
0
173
0
174
0
175
2
176
1
 91
33
178
0
145
0.0
301
CELL_VALUE
 90
4
  1
Yes (see Included Components)
304
ACVALUE_END
170
5
140
0.125
171
1
172
0
173
1
174
0
175
1
176
1
 91
1
178
0
145
0.0
170
1
  0
ACAD_TABLE
  5
2AA
100
AcDbEntity
  8
0
 62
2
  6
CONTINUOUS
100
AcDbBlockReference
  2
*T3
 10
0.52125
 20
1.709
 30
0.0
100
AcDbTable
342
       3D8
343
229
 11
1.0
 21
0.0
 31
0.0
 90
22
 91
4
 92
3
 93
16
 94
0
 95
0
 96
0
 41
0.05
141
0.34375
141
0.344
141
0.25
141
0.25
142
1.3
142
2.0
142
1.3
171
1
172
0
173
0
174
0
175
3
176
1
 91
33
178
0
145
0.0
301
CELL_VALUE
 90
4
  1
Port Headings
304
ACVALUE_END
170
5
140
0.145
171
1
172
0
173
1
174
0
175
1
176
1
 91
1
178
0
145
0.0
170
1
171
1
172
0
173
1
174
0
175
1
176
1
 91
1
178
0
145
0.0
170
1
171
1
172
0
173
0
174
0
175
1
176
1
 91
33
178
0
145
0.0
301
CELL_VALUE
 90
4
  1
Product
304
ACVALUE_END
170
5
140
0.145
171
1
172
0
173
0
174
0
175
1
176
1
 91
33
178
0
145
0.0
301
CELL_VALUE
 90
4
  1
Port
304
ACVALUE_END
170
5
140
0.145
171
1
172
0
173
0
174
0
175
1
176
1
 91
33
178
0
145
0.0
301
CELL_VALUE
 90
4
  1
Size
304
ACVALUE_END
170
5
140
0.145
171
1
172
0
173
0
174
0
175
1
176
1
 91
33
178
0
145
0.0
301
CELL_VALUE
 90
4
  1
Z7Z
304
ACVALUE_END
170
5
140
0.125
171
1
172
0
173
0
174
0
175
1
176
1
 91
33
178
0
145
0.0
301
CELL_VALUE
 90
4
  1
Ports 1 &  2
304
ACVALUE_END
170
5
140
0.125
171
1
172
0
173
0
174
0
175
1
176
1
 91
33
178
0
145
0.0
301
CELL_VALUE
 90
4
  1
SAE 6
304
ACVALUE_END
170
5
140
0.125
171
1
172
0
173
0
174
0
175
1
176
1
 91
33
178
0
145
0.0
301
CELL_VALUE
 90
4
  1
Z7Z
304
ACVALUE_END
170
5
140
0.125
171
1
172
0
173
0
174
0
175
1
176
1
 91
33
178
0
145
0.0
301
CELL_VALUE
 90
4
  1
Shuttle Port
304
ACVALUE_END
170
5
140
0.125
171
1
172
0
173
0
174
0
175
1
176
1
 91
33
178
0
145
0.0
301
CELL_VALUE
 90
4
  1
SAE 4
304
ACVALUE_END
170
5
140
0.125
  0
MTEXT
  5
2AB
100
AcDbEntity
  8
0
100
AcDbMText
 62
2
  6
CONTINUOUS
  7
STANDARD
 71
1
 72
1
 10
0.52125
 20
5.75995
 30
0.0
 11
1.0
 21
0.0
 31
0.0
 44
0.6
  3
Notes\P \P1. Port S is the external\P   connection at the top of the\P   shuttle cartridge.\P2. Important: Carefully consider\P   the maximum system pressure. The\P   pressure rating of the manifold is\P   dependent on the manifold material,\P   with
  3
 the port type/size a secondary\P   consideration. Manifolds\P   constructed of aluminum are not\P   rated for pressures higher than\P   3000 psi (210 bar), regardless of\P   the port type/size specified.\P3. This drawing is for reference\P   only. I
  1
t is generated by an\P   automated process and does not fall\P   under Sun's document control\P   process.
 40
0.1
 41
3.04
  0
LINE
  5
2AC
100
AcDbEntity
  8
0
100
AcDbLine
 62
7
  6
CONTINUOUS
 10
0.30125
 20
0.30125
 11
0.30125
 21
16.69875
  0
LINE
  5
2AD
100
AcDbEntity
  8
0
100
AcDbLine
 62
7
  6
CONTINUOUS
 10
0.30125
 20
0.30125
 11
21.69875
 21
0.30125
  0
LINE
  5
2AE
100
AcDbEntity
  8
0
100
AcDbLine
 62
7
  6
CONTINUOUS
 10
0.30125
 20
16.69875
 11
21.69875
 21
16.69875
  0
LINE
  5
2AF
100
AcDbEntity
  8
0
100
AcDbLine
 62
7
  6
CONTINUOUS
 10
21.69875
 20
0.30125
 11
21.69875
 21
16.69875
  0
LINE
  5
2B0
100
AcDbEntity
  8
0
100
AcDbLine
 62
7
  6
CONTINUOUS
 10
6.6186588029
 20
11.2864675192
 11
7.6539341289
 21
12.2864667532
  0
LINE
  5
2B1
100
AcDbEntity
  8
0
100
AcDbLine
 62
7
  6
CONTINUOUS
 10
6.6186588029
 20
5.2494307472
 11
6.6186588029
 21
11.2864675192
  0
LINE
  5
2B2
100
AcDbEntity
  8
0
100
AcDbLine
 62
4
  6
CONTINUOUS
 10
7.0823032382
 20
9.8633804416
 11
7.0823032382
 21
9.6315582347
  0
LINE
  5
2B3
100
AcDbEntity
  8
0
100
AcDbLine
 62
4
  6
CONTINUOUS
 10
7.0823032382
 20
6.811054411
 11
7.0823032382
 21
6.7724173858
  0
LINE
  5
2B4
100
AcDbEntity
  8
0
100
AcDbLine
 62
4
  6
CONTINUOUS
 10
7.0678143503
 20
6.8313777453
 11
7.0823032382
 21
6.811054411
  0
LINE
  5
2B5
100
AcDbEntity
  8
0
100
AcDbLine
 62
4
  6
CONTINUOUS
 10
6.9808810227
 20
6.6828584495
 11
6.9663921348
 21
6.6259077056
  0
LINE
  5
2B6
100
AcDbEntity
  8
0
100
AcDbLine
 62
7
  6
CONTINUOUS
 10
14.3460658711
 20
4.7135332468
 11
6.6186588029
 21
5.2494307472
  0
LINE
  5
2B7
100
AcDbEntity
  8
0
100
AcDbLine
 62
4
  6
CONTINUOUS
 10
9.5191962473
 20
5.3659295853
 11
9.6075094726
 21
5.3156484296
  0
LINE
  5
2B8
100
AcDbEntity
  8
0
100
AcDbLine
 62
4
  6
CONTINUOUS
 10
7.0388365744
 20
6.8527058735
 11
7.0678143503
 21
6.8313777453
  0
LINE
  5
2B9
100
AcDbEntity
  8
0
100
AcDbLine
 62
4
  6
CONTINUOUS
 10
11.0646776241
 20
5.1593977102
 11
10.9818839611
 21
5.1651394702
  0
LINE
  5
2BA
100
AcDbEntity
  8
0
100
AcDbLine
 62
4
  6
CONTINUOUS
 10
10.8825316319
 20
5.1720295776
 11
10.832855412
 21
5.1754746352
  0
LINE
  5
2BB
100
AcDbEntity
  8
0
100
AcDbLine
 62
4
  6
CONTINUOUS
 10
10.7059051952
 20
5.1842786626
 11
10.639670309
 21
5.1888720676
  0
LINE
  5
2BC
100
AcDbEntity
  8
0
100
AcDbLine
 62
4
  6
CONTINUOUS
 10
9.734459724
 20
5.2516486349
 11
9.6516660887
 21
5.257390393
  0
LINE
  5
2BD
100
AcDbEntity
  8
0
100
AcDbLine
 62
4
  6
CONTINUOUS
 10
10.2588194926
 20
5.2152841614
 11
10.3581718771
 21
5.2083940501
  0
LINE
  5
2BE
100
AcDbEntity
  8
0
100
AcDbLine
 62
4
  6
CONTINUOUS
 10
11.1916279515
 20
5.1505936751
 11
11.2909802807
 21
5.1437035676
  0
LINE
  5
2BF
100
AcDbEntity
  8
0
100
AcDbLine
 62
4
  6
CONTINUOUS
 10
9.8834882869
 20
5.3075483896
 11
9.9718015053
 21
5.3014238471
  0
LINE
  5
2C0
100
AcDbEntity
  8
0
100
AcDbLine
 62
4
  6
CONTINUOUS
 10
11.2578628376
 20
5.2784701115
 11
11.1916279515
 21
5.2830635164
  0
LINE
  5
2C1
100
AcDbEntity
  8
0
100
AcDbLine
 62
4
  6
CONTINUOUS
 10
10.325054434
 20
5.343160594
 11
10.2588194926
 21
5.3477540028
  0
LINE
  5
2C2
100
AcDbEntity
  8
0
100
AcDbLine
 62
4
  6
CONTINUOUS
 10
9.6516660887
 20
5.489212605
 11
9.734459724
 21
5.4834708469
  0
LINE
  5
2C3
100
AcDbEntity
  8
0
100
AcDbLine
 62
4
  6
CONTINUOUS
 10
10.0601147236
 20
5.460886596
 11
10.1925845512
 21
5.4516997822
  0
LINE
  5
2C4
100
AcDbEntity
  8
0
100
AcDbLine
 62
4
  6
CONTINUOUS
 10
10.2588194926
 20
5.4471063735
 11
10.3581718771
 21
5.4402162622
  0
LINE
  5
2C5
100
AcDbEntity
  8
0
100
AcDbLine
 62
4
  6
CONTINUOUS
 10
10.639670309
 20
5.4206942796
 11
10.7059051952
 21
5.4161008747
  0
LINE
  5
2C6
100
AcDbEntity
  8
0
100
AcDbLine
 62
4
  6
CONTINUOUS
 10
10.832855412
 20
5.4072968472
 11
10.8825316319
 21
5.4038517897
  0
LINE
  5
2C7
100
AcDbEntity
  8
0
100
AcDbLine
 62
4
  6
CONTINUOUS
 10
10.9818839611
 20
5.3969616822
 11
11.0646776241
 21
5.3912199222
  0
LINE
  5
2C8
100
AcDbEntity
  8
0
100
AcDbLine
 62
4
  6
CONTINUOUS
 10
11.1916279515
 20
5.3824158871
 11
11.2909802807
 21
5.3755257797
  0
LINE
  5
2C9
100
AcDbEntity
  8
0
100
AcDbLine
 62
4
  6
CONTINUOUS
 10
10.242260763
 20
5.7264413797
 11
10.358171869
 21
5.7184029172
  0
LINE
  5
2CA
100
AcDbEntity
  8
0
100
AcDbLine
 62
4
  6
CONTINUOUS
 10
10.6065528026
 20
5.7011776409
 11
10.7224639087
 21
5.6931391784
  0
LINE
  5
2CB
100
AcDbEntity
  8
0
100
AcDbLine
 62
4
  6
CONTINUOUS
 10
9.734459724
 20
5.4834708469
 11
9.7675771809
 21
5.4480566866
  0
LINE
  5
2CC
100
AcDbEntity
  8
0
100
AcDbLine
 62
4
  6
CONTINUOUS
 10
10.242260763
 20
5.9582635917
 11
10.358171869
 21
5.9502251292
  0
LINE
  5
2CD
100
AcDbEntity
  8
0
100
AcDbLine
 62
4
  6
CONTINUOUS
 10
10.4244067828
 20
5.9456317224
 11
10.5403178888
 21
5.9375932599
  0
LINE
  5
2CE
100
AcDbEntity
  8
0
100
AcDbLine
 62
4
  6
CONTINUOUS
 10
10.6065528026
 20
5.932999853
 11
10.7224639087
 21
5.9249613905
  0
LINE
  5
2CF
100
AcDbEntity
  8
0
100
AcDbLine
 62
4
  6
CONTINUOUS
 10
11.3572151669
 20
5.2826191563
 11
11.4455283852
 21
5.2323379978
  0
LINE
  5
2D0
100
AcDbEntity
  8
0
100
AcDbLine
 62
4
  6
CONTINUOUS
 10
10.639670309
 20
5.1888720676
 11
10.606552866
 21
5.2242862304
  0
LINE
  5
2D1
100
AcDbEntity
  8
0
100
AcDbLine
 62
4
  6
CONTINUOUS
 10
10.832855412
 20
5.1754746352
 11
10.799737969
 21
5.210888798
  0
LINE
  5
2D2
100
AcDbEntity
  8
0
100
AcDbLine
 62
4
  6
CONTINUOUS
 10
6.9663921348
 20
6.8190928734
 11
6.9808810227
 21
6.837406592
  0
LINE
  5
2D3
100
AcDbEntity
  8
0
100
AcDbLine
 62
4
  6
CONTINUOUS
 10
7.0098587986
 20
6.7194858661
 11
6.9808810227
 21
6.6828584495
  0
LINE
  5
2D4
100
AcDbEntity
  8
0
100
AcDbLine
 62
4
  6
CONTINUOUS
 10
7.0823032382
 20
6.7724173858
 11
7.0678143503
 21
6.7541036671
  0
LINE
  5
2D5
100
AcDbEntity
  8
0
100
AcDbLine
 62
4
  6
CONTINUOUS
 10
10.4050882663
 20
6.2715225629
 11
10.3278141956
 21
6.2768815379
  0
LINE
  5
2D6
100
AcDbEntity
  8
0
100
AcDbLine
 62
4
  6
CONTINUOUS
 10
6.9663921348
 20
6.6259077056
 11
7.0823032382
 21
6.6178692432
  0
LINE
  5
2D7
100
AcDbEntity
  8
0
100
AcDbLine
 62
4
  6
CONTINUOUS
 10
13.7665104331
 20
6.1543178998
 11
13.8824215365
 21
6.1462794375
  0
LINE
  5
2D8
100
AcDbEntity
  8
0
100
AcDbLine
 62
4
  6
CONTINUOUS
 10
11.7187474679
 20
6.2963310939
 11
11.6028363619
 21
6.3043695564
  0
LINE
  5
2D9
100
AcDbEntity
  8
0
100
AcDbLine
 62
4
  6
CONTINUOUS
 10
10.9846437964
 20
6.3472413564
 11
10.8687326904
 21
6.3552798189
  0
LINE
  5
2DA
100
AcDbEntity
  8
0
100
AcDbLine
 62
4
  6
CONTINUOUS
 10
10.598273443
 20
6.3740362314
 11
10.482362337
 21
6.3820746939
  0
LINE
  5
2DB
100
AcDbEntity
  8
0
100
AcDbLine
 62
4
  6
CONTINUOUS
 10
10.4050882663
 20
6.3874336689
 11
10.2891771603
 21
6.3954721314
  0
LINE
  5
2DC
100
AcDbEntity
  8
0
100
AcDbLine
 62
4
  6
CONTINUOUS
 10
9.6729164466
 20
6.4382099571
 11
9.5570053406
 21
6.4462484196
  0
LINE
  5
2DD
100
AcDbEntity
  8
0
100
AcDbLine
 62
4
  6
CONTINUOUS
 10
9.4990497876
 20
6.4502676508
 11
9.3831386815
 21
6.4583061133
  0
LINE
  5
2DE
100
AcDbEntity
  8
0
100
AcDbLine
 62
4
  6
CONTINUOUS
 10
11.0619178671
 20
6.3418823814
 11
11.1778289731
 21
6.3338439189
  0
LINE
  5
2DF
100
AcDbEntity
  8
0
100
AcDbLine
 62
4
  6
CONTINUOUS
 10
11.4096511852
 20
6.3177669939
 11
11.5255622912
 21
6.3097285314
  0
LINE
  5
2E0
100
AcDbEntity
  8
0
100
AcDbLine
 62
4
  6
CONTINUOUS
 10
11.6028363619
 20
6.3623251094
 11
11.7187474679
 21
6.3542866469
  0
LINE
  5
2E1
100
AcDbEntity
  8
0
100
AcDbLine
 62
4
  6
CONTINUOUS
 10
10.8687326904
 20
6.4325538896
 11
10.9846437964
 21
6.4245154271
  0
LINE
  5
2E2
100
AcDbEntity
  8
0
100
AcDbLine
 62
4
  6
CONTINUOUS
 10
10.9846437964
 20
6.4631524624
 11
10.9073697257
 21
6.4685114374
  0
LINE
  5
2E3
100
AcDbEntity
  8
0
100
AcDbLine
 62
4
  6
CONTINUOUS
 10
10.1945164237
 20
6.5179479818
 11
10.0786053177
 21
6.5259864443
  0
LINE
  5
2E4
100
AcDbEntity
  8
0
100
AcDbLine
 62
4
  6
CONTINUOUS
 10
9.3831386815
 20
6.5742172194
 11
9.4990497876
 21
6.5661787569
  0
LINE
  5
2E5
100
AcDbEntity
  8
0
100
AcDbLine
 62
4
  6
CONTINUOUS
 10
10.482362337
 20
6.4979857999
 11
10.598273443
 21
6.4899473374
  0
LINE
  5
2E6
100
AcDbEntity
  8
0
100
AcDbLine
 62
4
  6
CONTINUOUS
 10
10.6755475137
 20
6.4845883624
 11
10.7914586197
 21
6.4765498999
  0
LINE
  5
2E7
100
AcDbEntity
  8
0
100
AcDbLine
 62
4
  6
CONTINUOUS
 10
11.4096511852
 20
6.4336780999
 11
11.5255622912
 21
6.4256396374
  0
LINE
  5
2E8
100
AcDbEntity
  8
0
100
AcDbLine
 62
4
  6
CONTINUOUS
 10
11.6028363619
 20
6.4202806624
 11
11.7187474679
 21
6.4122421999
  0
LINE
  5
2E9
100
AcDbEntity
  8
0
100
AcDbLine
 62
4
  6
CONTINUOUS
 10
11.3178882262
 20
6.4979974357
 11
11.3468660027
 21
6.4959878201
  0
LINE
  5
2EA
100
AcDbEntity
  8
0
100
AcDbLine
 62
4
  6
CONTINUOUS
 10
7.0098587986
 20
6.8547154891
 11
7.0388365744
 21
6.8527058735
  0
LINE
  5
2EB
100
AcDbEntity
  8
0
100
AcDbLine
 62
4
  6
CONTINUOUS
 10
13.8099770969
 20
6.3831256833
 11
13.8389548727
 21
6.3811160678
  0
LINE
  5
2EC
100
AcDbEntity
  8
0
100
AcDbLine
 62
4
  6
CONTINUOUS
 10
9.4990497876
 20
6.6820898629
 11
9.3831386815
 21
6.6901283254
  0
LINE
  5
2ED
100
AcDbEntity
  8
0
100
AcDbLine
 62
4
  6
CONTINUOUS
 10
9.7308719996
 20
6.6660129379
 11
9.8467831056
 21
6.6579744754
  0
LINE
  5
2EE
100
AcDbEntity
  8
0
100
AcDbLine
 62
4
  6
CONTINUOUS
 10
10.8825316319
 20
5.4038517897
 11
10.915649075
 21
5.3684376303
  0
LINE
  5
2EF
100
AcDbEntity
  8
0
100
AcDbLine
 62
4
  6
CONTINUOUS
 10
11.0646776241
 20
5.3912199222
 11
11.0977950672
 21
5.3558057628
  0
LINE
  5
2F0
100
AcDbEntity
  8
0
100
AcDbLine
 62
4
  6
CONTINUOUS
 10
9.3831386815
 20
6.6901283254
 11
9.3831386815
 21
6.5742172194
  0
LINE
  5
2F1
100
AcDbEntity
  8
0
100
AcDbLine
 62
4
  6
CONTINUOUS
 10
9.4990497876
 20
6.5661787569
 11
9.4990497876
 21
6.4502676508
  0
LINE
  5
2F2
100
AcDbEntity
  8
0
100
AcDbLine
 62
4
  6
CONTINUOUS
 10
9.9276448961
 20
5.4700734097
 11
9.9938798375
 21
5.2336577889
  0
LINE
  5
2F3
100
AcDbEntity
  8
0
100
AcDbLine
 62
4
  6
CONTINUOUS
 10
9.5309253423
 20
8.9594641039
 11
9.5309253423
 21
8.9401455913
  0
LINE
  5
2F4
100
AcDbEntity
  8
0
100
AcDbLine
 62
4
  6
CONTINUOUS
 10
9.5570053406
 20
6.4462484196
 11
9.5570053406
 21
6.6780706316
  0
LINE
  5
2F5
100
AcDbEntity
  8
0
100
AcDbLine
 62
4
  6
CONTINUOUS
 10
9.6468364457
 20
8.8355145451
 11
9.6468364457
 21
8.7968775094
  0
LINE
  5
2F6
100
AcDbEntity
  8
0
100
AcDbLine
 62
4
  6
CONTINUOUS
 10
9.6516660887
 20
5.257390393
 11
9.6516660887
 21
5.489212605
  0
LINE
  5
2F7
100
AcDbEntity
  8
0
100
AcDbLine
 62
4
  6
CONTINUOUS
 10
9.6729164466
 20
6.6700321691
 11
9.6729164466
 21
6.4382099571
  0
LINE
  5
2F8
100
AcDbEntity
  8
0
100
AcDbLine
 62
4
  6
CONTINUOUS
 10
9.7308719996
 20
6.6660129379
 11
9.7308719996
 21
6.4341907258
  0
LINE
  5
2F9
100
AcDbEntity
  8
0
100
AcDbLine
 62
4
  6
CONTINUOUS
 10
9.7675771809
 20
5.4480566866
 11
9.7675771809
 21
5.2824693918
  0
LINE
  5
2FA
100
AcDbEntity
  8
0
100
AcDbLine
 62
4
  6
CONTINUOUS
 10
9.8467831056
 20
6.6579744754
 11
9.8467831056
 21
6.4261522633
  0
LINE
  5
2FB
100
AcDbEntity
  8
0
100
AcDbLine
 62
4
  6
CONTINUOUS
 10
9.5454142302
 20
8.9777778226
 11
9.5309253423
 21
8.9594641039
  0
LINE
  5
2FC
100
AcDbEntity
  8
0
100
AcDbLine
 62
4
  6
CONTINUOUS
 10
9.6468364457
 20
8.7968775094
 11
9.6323475578
 21
8.7785637994
  0
LINE
  5
2FD
100
AcDbEntity
  8
0
100
AcDbLine
 62
4
  6
CONTINUOUS
 10
9.5743920061
 20
8.9950867196
 11
9.5454142302
 21
8.9777778226
  0
LINE
  5
2FE
100
AcDbEntity
  8
0
100
AcDbLine
 62
4
  6
CONTINUOUS
 10
11.5497106519
 20
7.0035203809
 11
11.5207328761
 21
7.0055299965
  0
LINE
  5
2FF
100
AcDbEntity
  8
0
100
AcDbLine
 62
4
  6
CONTINUOUS
 10
11.3178884451
 20
7.0195973055
 11
11.2889106692
 21
7.0216069211
  0
LINE
  5
300
100
AcDbEntity
  8
0
100
AcDbLine
 62
4
  6
CONTINUOUS
 10
11.7235773071
 20
7.0687367587
 11
11.8105106346
 21
7.0627079119
  0
LINE
  5
301
100
AcDbEntity
  8
0
100
AcDbLine
 62
4
  6
CONTINUOUS
 10
11.5497106519
 20
7.2353425878
 11
11.5207328761
 21
7.2373522033
  0
LINE
  5
302
100
AcDbEntity
  8
0
100
AcDbLine
 62
4
  6
CONTINUOUS
 10
11.2889106692
 20
7.253429128
 11
11.3178884451
 21
7.2514195124
  0
LINE
  5
303
100
AcDbEntity
  8
0
100
AcDbLine
 62
4
  6
CONTINUOUS
 10
10.0786053177
 20
6.4100753383
 11
10.0786053177
 21
6.6418975504
  0
LINE
  5
304
100
AcDbEntity
  8
0
100
AcDbLine
 62
4
  6
CONTINUOUS
 10
10.1263496651
 20
5.2244709751
 11
10.1263496651
 21
5.4562931872
  0
LINE
  5
305
100
AcDbEntity
  8
0
100
AcDbLine
 62
4
  6
CONTINUOUS
 10
10.1945164237
 20
6.4020368758
 11
10.1945164237
 21
6.5179479818
  0
LINE
  5
306
100
AcDbEntity
  8
0
100
AcDbLine
 62
4
  6
CONTINUOUS
 10
10.2588194926
 20
5.2152841614
 11
10.2588194926
 21
5.4471063735
  0
LINE
  5
307
100
AcDbEntity
  8
0
100
AcDbLine
 62
7
  6
CONTINUOUS
 10
9.6704935995
 20
8.3597254786
 11
9.9189416593
 21
8.5997078903
  0
LINE
  5
308
100
AcDbEntity
  8
0
100
AcDbLine
 62
7
  6
CONTINUOUS
 10
9.9728781028
 20
8.6271076054
 11
9.724430043
 21
8.3871251938
  0
LINE
  5
309
100
AcDbEntity
  8
0
100
AcDbLine
 62
4
  6
CONTINUOUS
 10
9.6323475578
 20
8.7785637994
 11
9.6033697819
 21
8.7612548972
  0
LINE
  5
30A
100
AcDbEntity
  8
0
100
AcDbLine
 62
4
  6
CONTINUOUS
 10
11.2889106692
 20
7.0216069211
 11
11.2599328933
 21
7.0429350545
  0
LINE
  5
30B
100
AcDbEntity
  8
0
100
AcDbLine
 62
4
  6
CONTINUOUS
 10
11.5207328761
 20
7.0055299965
 11
11.4917551002
 21
7.0268581299
  0
LINE
  5
30C
100
AcDbEntity
  8
0
100
AcDbLine
 62
4
  6
CONTINUOUS
 10
11.3178884451
 20
7.2514195124
 11
11.3468662209
 21
7.2300913842
  0
LINE
  5
30D
100
AcDbEntity
  8
0
100
AcDbLine
 62
4
  6
CONTINUOUS
 10
11.4917551002
 20
7.1620877546
 11
11.5786884278
 21
7.0981033492
  0
LINE
  5
30E
100
AcDbEntity
  8
0
100
AcDbLine
 62
4
  6
CONTINUOUS
 10
9.5454142302
 20
8.7845926462
 11
9.5164364544
 21
8.8252392956
  0
LINE
  5
30F
100
AcDbEntity
  8
0
100
AcDbLine
 62
4
  6
CONTINUOUS
 10
9.5309253423
 20
8.9401455913
 11
9.5454142302
 21
8.9198222709
  0
LINE
  5
310
100
AcDbEntity
  8
0
100
AcDbLine
 62
4
  6
CONTINUOUS
 10
9.6323475578
 20
8.8558378655
 11
9.6468364457
 21
8.8355145451
  0
LINE
  5
311
100
AcDbEntity
  8
0
100
AcDbLine
 62
4
  6
CONTINUOUS
 10
9.6468364457
 20
8.9514256416
 11
9.6323475578
 21
8.9717489758
  0
LINE
  5
312
100
AcDbEntity
  8
0
100
AcDbLine
 62
4
  6
CONTINUOUS
 10
10.2891771603
 20
6.3954721314
 11
10.2891771603
 21
6.5113832375
  0
LINE
  5
313
100
AcDbEntity
  8
0
100
AcDbLine
 62
4
  6
CONTINUOUS
 10
10.4050882663
 20
6.503344775
 11
10.4050882663
 21
6.2715225629
  0
LINE
  5
314
100
AcDbEntity
  8
0
100
AcDbLine
 62
4
  6
CONTINUOUS
 10
10.4244067828
 20
5.8959555301
 11
10.4244067828
 21
5.9456317224
  0
LINE
  5
315
100
AcDbEntity
  8
0
100
AcDbLine
 62
4
  6
CONTINUOUS
 10
10.482362337
 20
6.3820746939
 11
10.482362337
 21
6.4979857999
  0
LINE
  5
316
100
AcDbEntity
  8
0
100
AcDbLine
 62
4
  6
CONTINUOUS
 10
10.598273443
 20
6.6058584435
 11
10.598273443
 21
6.3740362314
  0
LINE
  5
317
100
AcDbEntity
  8
0
100
AcDbLine
 62
4
  6
CONTINUOUS
 10
10.606552866
 20
5.2242862304
 11
10.606552866
 21
5.3898735252
  0
LINE
  5
318
100
AcDbEntity
  8
0
100
AcDbLine
 62
7
  6
CONTINUOUS
 10
10.563643409
 20
7.5102432211
 11
10.5716482234
 21
7.5962780759
  0
LINE
  5
319
100
AcDbEntity
  8
0
100
AcDbLine
 62
4
  6
CONTINUOUS
 10
6.9808810227
 20
6.837406592
 11
7.0098587986
 21
6.8547154891
  0
LINE
  5
31A
100
AcDbEntity
  8
0
100
AcDbLine
 62
4
  6
CONTINUOUS
 10
7.0678143503
 20
6.7541036671
 11
7.0098587986
 21
6.7194858661
  0
LINE
  5
31B
100
AcDbEntity
  8
0
100
AcDbLine
 62
4
  6
CONTINUOUS
 10
11.5786884278
 20
7.2140144595
 11
11.5497106519
 21
7.2353425878
  0
LINE
  5
31C
100
AcDbEntity
  8
0
100
AcDbLine
 62
4
  6
CONTINUOUS
 10
9.5743920061
 20
8.7632645128
 11
9.5454142302
 21
8.7845926462
  0
LINE
  5
31D
100
AcDbEntity
  8
0
100
AcDbLine
 62
4
  6
CONTINUOUS
 10
9.5454142302
 20
8.9198222709
 11
9.6323475578
 21
8.8558378655
  0
LINE
  5
31E
100
AcDbEntity
  8
0
100
AcDbLine
 62
4
  6
CONTINUOUS
 10
9.6323475578
 20
8.9717489758
 11
9.6033697819
 21
8.993077104
  0
LINE
  5
31F
100
AcDbEntity
  8
0
100
AcDbLine
 62
4
  6
CONTINUOUS
 10
11.2599328933
 20
7.0429350545
 11
11.2309551175
 21
7.083581704
  0
LINE
  5
320
100
AcDbEntity
  8
0
100
AcDbLine
 62
4
  6
CONTINUOUS
 10
11.4917551002
 20
7.0268581299
 11
11.4627773243
 21
7.0675047794
  0
LINE
  5
321
100
AcDbEntity
  8
0
100
AcDbLine
 62
4
  6
CONTINUOUS
 10
11.3468662209
 20
7.2300913842
 11
11.3613551088
 21
7.20976805
  0
LINE
  5
322
100
AcDbEntity
  8
0
100
AcDbLine
 62
4
  6
CONTINUOUS
 10
11.4772662123
 20
7.182411075
 11
11.4917551002
 21
7.1620877546
  0
LINE
  5
323
100
AcDbEntity
  8
0
100
AcDbLine
 62
4
  6
CONTINUOUS
 10
11.5786884278
 20
7.0981033492
 11
11.5931773157
 21
7.0777800288
  0
LINE
  5
324
100
AcDbEntity
  8
0
100
AcDbLine
 62
4
  6
CONTINUOUS
 10
10.6755475137
 20
6.4845883624
 11
10.6755475137
 21
6.3686772564
  0
LINE
  5
325
100
AcDbEntity
  8
0
100
AcDbLine
 62
4
  6
CONTINUOUS
 10
10.799737969
 20
5.210888798
 11
10.799737969
 21
5.3764760928
  0
LINE
  5
326
100
AcDbEntity
  8
0
100
AcDbLine
 62
4
  6
CONTINUOUS
 10
10.8687326904
 20
6.3552798189
 11
10.8687326904
 21
6.4325538896
  0
LINE
  5
327
100
AcDbEntity
  8
0
100
AcDbLine
 62
4
  6
CONTINUOUS
 10
10.915649075
 20
5.3684376303
 11
10.915649075
 21
5.2028503355
  0
LINE
  5
328
100
AcDbEntity
  8
0
100
AcDbLine
 62
4
  6
CONTINUOUS
 10
10.9818839611
 20
5.1651394702
 11
10.9818839611
 21
5.3969616822
  0
LINE
  5
329
100
AcDbEntity
  8
0
100
AcDbLine
 62
4
  6
CONTINUOUS
 10
10.9846437964
 20
6.4631524624
 11
10.9846437964
 21
6.3472413564
  0
LINE
  5
32A
100
AcDbEntity
  8
0
100
AcDbLine
 62
4
  6
CONTINUOUS
 10
9.8614099823
 20
5.2428446046
 11
9.9276448961
 21
5.4700734097
  0
LINE
  5
32B
100
AcDbEntity
  8
0
100
AcDbLine
 62
7
  6
CONTINUOUS
 10
10.4890066001
 20
8.3341016295
 11
10.7374546599
 21
8.5740840411
  0
LINE
  5
32C
100
AcDbEntity
  8
0
100
AcDbLine
 62
7
  6
CONTINUOUS
 10
10.7913911034
 20
8.5392033158
 11
10.5429430436
 21
8.2992209042
  0
LINE
  5
32D
100
AcDbEntity
  8
0
100
AcDbLine
 62
4
  6
CONTINUOUS
 10
13.8389548727
 20
6.3811160678
 11
13.8679326486
 21
6.3597879395
  0
LINE
  5
32E
100
AcDbEntity
  8
0
100
AcDbLine
 62
4
  6
CONTINUOUS
 10
11.5931773157
 20
7.1936911253
 11
11.5786884278
 21
7.2140144595
  0
LINE
  5
32F
100
AcDbEntity
  8
0
100
AcDbLine
 62
4
  6
CONTINUOUS
 10
11.2309551175
 20
7.083581704
 11
11.2164662295
 21
7.1425420635
  0
LINE
  5
330
100
AcDbEntity
  8
0
100
AcDbLine
 62
4
  6
CONTINUOUS
 10
11.0619178671
 20
6.4577934874
 11
11.0619178671
 21
6.3418823814
  0
LINE
  5
331
100
AcDbEntity
  8
0
100
AcDbLine
 62
4
  6
CONTINUOUS
 10
11.0977950672
 20
5.3558057628
 11
11.0977950672
 21
5.190218468
  0
LINE
  5
332
100
AcDbEntity
  8
0
100
AcDbLine
 62
4
  6
CONTINUOUS
 10
11.1778289731
 20
6.3338439189
 11
11.1778289731
 21
6.4497550249
  0
LINE
  5
333
100
AcDbEntity
  8
0
100
AcDbLine
 62
4
  6
CONTINUOUS
 10
11.1916279515
 20
5.1505936751
 11
11.1916279515
 21
5.3824158871
  0
LINE
  5
334
100
AcDbEntity
  8
0
100
AcDbLine
 62
4
  6
CONTINUOUS
 10
11.2551030438
 20
6.3284849439
 11
11.2551030438
 21
6.5603071559
  0
LINE
  5
335
100
AcDbEntity
  8
0
100
AcDbLine
 62
4
  6
CONTINUOUS
 10
11.3323771145
 20
6.3231259689
 11
11.3323771145
 21
6.4390370749
  0
LINE
  5
336
100
AcDbEntity
  8
0
100
AcDbLine
 62
4
  6
CONTINUOUS
 10
11.4096511852
 20
6.4336780999
 11
11.4096511852
 21
6.3177669939
  0
LINE
  5
337
100
AcDbEntity
  8
0
100
AcDbLine
 62
4
  6
CONTINUOUS
 10
10.5403178888
 20
5.9375932599
 11
10.4740829751
 21
5.7103644547
  0
LINE
  5
338
100
AcDbEntity
  8
0
100
AcDbLine
 62
4
  6
CONTINUOUS
 10
9.6033697819
 20
8.7612548972
 11
9.5743920061
 21
8.7632645128
  0
LINE
  5
339
100
AcDbEntity
  8
0
100
AcDbLine
 62
4
  6
CONTINUOUS
 10
9.6033697819
 20
8.993077104
 11
9.5743920061
 21
8.9950867196
  0
LINE
  5
33A
100
AcDbEntity
  8
0
100
AcDbLine
 62
4
  6
CONTINUOUS
 10
11.7670439709
 20
7.2202704709
 11
11.8394884105
 21
6.9834242251
  0
LINE
  5
33B
100
AcDbEntity
  8
0
100
AcDbLine
 62
4
  6
CONTINUOUS
 10
11.4772662123
 20
7.2017295876
 11
11.4772662123
 21
7.182411075
  0
LINE
  5
33C
100
AcDbEntity
  8
0
100
AcDbLine
 62
4
  6
CONTINUOUS
 10
11.5931773157
 20
7.0777800288
 11
11.5931773157
 21
7.0391429932
  0
LINE
  5
33D
100
AcDbEntity
  8
0
100
AcDbLine
 62
4
  6
CONTINUOUS
 10
11.6028363619
 20
6.4202806624
 11
11.6028363619
 21
6.3623251094
  0
LINE
  5
33E
100
AcDbEntity
  8
0
100
AcDbLine
 62
4
  6
CONTINUOUS
 10
11.7187474679
 20
6.3542866469
 11
11.7187474679
 21
6.2963310939
  0
LINE
  5
33F
100
AcDbEntity
  8
0
100
AcDbLine
 62
4
  6
CONTINUOUS
 10
11.2164662295
 20
7.1425420635
 11
11.2309551175
 21
7.1994928074
  0
LINE
  5
340
100
AcDbEntity
  8
0
100
AcDbLine
 62
4
  6
CONTINUOUS
 10
10.358171869
 20
5.9502251292
 11
10.242260763
 21
5.7264413797
  0
LINE
  5
341
100
AcDbEntity
  8
0
100
AcDbLine
 62
7
  6
CONTINUOUS
 10
10.9252313222
 20
7.6105664005
 11
11.173679382
 21
7.8505488121
  0
LINE
  5
342
100
AcDbEntity
  8
0
100
AcDbLine
 62
7
  6
CONTINUOUS
 10
11.173679382
 20
7.7882683717
 11
10.9252313222
 21
7.5482859601
  0
LINE
  5
343
100
AcDbEntity
  8
0
100
AcDbLine
 62
7
  6
CONTINUOUS
 10
14.3460658711
 20
10.7505700189
 11
15.3813411971
 21
11.7505692528
  0
LINE
  5
344
100
AcDbEntity
  8
0
100
AcDbLine
 62
4
  6
CONTINUOUS
 10
11.9119328501
 20
7.210222393
 11
11.9553995139
 21
6.9753857628
  0
LINE
  5
345
100
AcDbEntity
  8
0
100
AcDbLine
 62
4
  6
CONTINUOUS
 10
11.9988661777
 20
7.2041935462
 11
12.0423328415
 21
6.969356916
  0
LINE
  5
346
100
AcDbEntity
  8
0
100
AcDbLine
 62
4
  6
CONTINUOUS
 10
11.6945995312
 20
6.993472303
 11
11.7670439709
 21
7.2202704709
  0
LINE
  5
347
100
AcDbEntity
  8
0
100
AcDbLine
 62
4
  6
CONTINUOUS
 10
10.7224639087
 20
5.9249613905
 11
10.6065528026
 21
5.7011776409
  0
LINE
  5
348
100
AcDbEntity
  8
0
100
AcDbLine
 62
4
  6
CONTINUOUS
 10
11.2309551175
 20
7.1994928074
 11
11.2599328933
 21
7.2361202309
  0
LINE
  5
349
100
AcDbEntity
  8
0
100
AcDbLine
 62
4
  6
CONTINUOUS
 10
11.4917551002
 20
7.2200433063
 11
11.4772662123
 21
7.2017295876
  0
LINE
  5
34A
100
AcDbEntity
  8
0
100
AcDbLine
 62
4
  6
CONTINUOUS
 10
11.3613551088
 20
7.0552199178
 11
11.3468662209
 21
7.0369062078
  0
LINE
  5
34B
100
AcDbEntity
  8
0
100
AcDbLine
 62
7
  6
CONTINUOUS
 10
10.5429430436
 20
6.9126550207
 11
10.7913911034
 21
7.1526374323
  0
LINE
  5
34C
100
AcDbEntity
  8
0
100
AcDbLine
 62
4
  6
CONTINUOUS
 10
13.8679326486
 20
6.3597879395
 11
13.8824215365
 21
6.3394646053
  0
LINE
  5
34D
100
AcDbEntity
  8
0
100
AcDbLine
 62
4
  6
CONTINUOUS
 10
11.9553995139
 20
6.9753857628
 11
11.9988661777
 21
7.2041935462
  0
LINE
  5
34E
100
AcDbEntity
  8
0
100
AcDbLine
 62
4
  6
CONTINUOUS
 10
12.0423328415
 20
6.969356916
 11
12.0857995053
 21
7.1981646995
  0
LINE
  5
34F
100
AcDbEntity
  8
0
100
AcDbLine
 62
4
  6
CONTINUOUS
 10
11.5931773157
 20
7.0391429932
 11
11.5786884278
 21
7.0208292831
  0
LINE
  5
350
100
AcDbEntity
  8
0
100
AcDbLine
 62
4
  6
CONTINUOUS
 10
9.7675771809
 20
5.2824693918
 11
9.734459724
 21
5.2516486349
  0
LINE
  5
351
100
AcDbEntity
  8
0
100
AcDbLine
 62
4
  6
CONTINUOUS
 10
11.2599328933
 20
7.2361202309
 11
11.2889106692
 21
7.253429128
  0
LINE
  5
352
100
AcDbEntity
  8
0
100
AcDbLine
 62
4
  6
CONTINUOUS
 10
11.5207328761
 20
7.2373522033
 11
11.4917551002
 21
7.2200433063
  0
LINE
  5
353
100
AcDbEntity
  8
0
100
AcDbLine
 62
4
  6
CONTINUOUS
 10
11.3468662209
 20
7.0369062078
 11
11.3178884451
 21
7.0195973055
  0
LINE
  5
354
100
AcDbEntity
  8
0
100
AcDbLine
 62
4
  6
CONTINUOUS
 10
11.5786884278
 20
7.0208292831
 11
11.5497106519
 21
7.0035203809
  0
LINE
  5
355
100
AcDbEntity
  8
0
100
AcDbLine
 62
4
  6
CONTINUOUS
 10
10.606552866
 20
5.3898735252
 11
10.639670309
 21
5.4206942796
  0
LINE
  5
356
100
AcDbEntity
  8
0
100
AcDbLine
 62
4
  6
CONTINUOUS
 10
10.799737969
 20
5.3764760928
 11
10.832855412
 21
5.4072968472
  0
LINE
  5
357
100
AcDbEntity
  8
0
100
AcDbLine
 62
4
  6
CONTINUOUS
 10
10.915649075
 20
5.2028503355
 11
10.8825316319
 21
5.1720295776
  0
LINE
  5
358
100
AcDbEntity
  8
0
100
AcDbLine
 62
4
  6
CONTINUOUS
 10
9.6075094726
 20
5.4039616584
 11
9.5191962473
 21
5.3659295853
  0
LINE
  5
359
100
AcDbEntity
  8
0
100
AcDbLine
 62
4
  6
CONTINUOUS
 10
11.0977950672
 20
5.190218468
 11
11.0646776241
 21
5.1593977102
  0
LINE
  5
35A
100
AcDbEntity
  8
0
100
AcDbLine
 62
7
  6
CONTINUOUS
 10
6.6186588029
 20
11.2864675192
 11
14.3460658711
 21
10.7505700189
  0
LINE
  5
35B
100
AcDbEntity
  8
0
100
AcDbLine
 62
4
  6
CONTINUOUS
 10
13.8824215365
 20
9.3917906359
 11
13.8824215365
 21
9.159968429
  0
LINE
  5
35C
100
AcDbEntity
  8
0
100
AcDbLine
 62
4
  6
CONTINUOUS
 10
13.8824215365
 20
6.3394646053
 11
13.8824215365
 21
6.30082758
  0
LINE
  5
35D
100
AcDbEntity
  8
0
100
AcDbLine
 62
7
  6
CONTINUOUS
 10
14.3460658711
 20
10.7505700189
 11
14.3460658711
 21
4.7135332468
  0
LINE
  5
35E
100
AcDbEntity
  8
0
100
AcDbLine
 62
4
  6
CONTINUOUS
 10
13.780999321
 20
6.2112686438
 11
13.7665104331
 21
6.1543178998
  0
LINE
  5
35F
100
AcDbEntity
  8
0
100
AcDbLine
 62
4
  6
CONTINUOUS
 10
13.7665104331
 20
6.3475030676
 11
13.780999321
 21
6.3658167863
  0
LINE
  5
360
100
AcDbEntity
  8
0
100
AcDbLine
 62
4
  6
CONTINUOUS
 10
13.780999321
 20
6.3658167863
 11
13.8099770969
 21
6.3831256833
  0
LINE
  5
361
100
AcDbEntity
  8
0
100
AcDbLine
 62
4
  6
CONTINUOUS
 10
13.8679326486
 20
6.2825138614
 11
13.8099770969
 21
6.2478960604
  0
LINE
  5
362
100
AcDbEntity
  8
0
100
AcDbLine
 62
4
  6
CONTINUOUS
 10
11.4455283852
 20
5.2323379978
 11
11.3572151669
 21
5.1943059276
  0
LINE
  5
363
100
AcDbEntity
  8
0
100
AcDbLine
 62
4
  6
CONTINUOUS
 10
13.8099770969
 20
6.2478960604
 11
13.780999321
 21
6.2112686438
  0
LINE
  5
364
100
AcDbEntity
  8
0
100
AcDbLine
 62
4
  6
CONTINUOUS
 10
13.8824215365
 20
6.30082758
 11
13.8679326486
 21
6.2825138614
  0
LINE
  5
365
100
AcDbEntity
  8
0
100
AcDbLine
 62
7
  6
CONTINUOUS
 10
7.6539341289
 20
12.2864667532
 11
15.3813411971
 21
11.7505692528
  0
LINE
  5
366
100
AcDbEntity
  8
0
100
AcDbLine
 62
7
  6
CONTINUOUS
 10
15.3813411971
 20
11.7505692528
 11
15.3813411971
 21
5.7135324808
  0
LINE
  5
367
100
AcDbEntity
  8
0
100
AcDbLine
 62
7
  6
CONTINUOUS
 10
14.3460658711
 20
4.7135332468
 11
15.3813411971
 21
5.7135324808
  0
ARC
  5
368
100
AcDbEntity
  8
0
100
AcDbCircle
 62
7
  6
CONTINUOUS
 10
13.038460228
 20
10.0172024379
 40
1.7580366268
100
AcDbArc
 50
359.9873623043
 51
1.3362350679
  0
ARC
  5
369
100
AcDbEntity
  8
0
100
AcDbCircle
 62
7
  6
CONTINUOUS
 10
13.038460228
 20
6.9977179657
 40
1.7580366267
100
AcDbArc
 50
359.9873623042
 51
1.336235068
  0
ARC
  5
36A
100
AcDbEntity
  8
0
100
AcDbCircle
 62
7
  6
CONTINUOUS
 10
13.0771226621
 20
9.981119363
 40
1.7168055638
100
AcDbArc
 50
350.729076058
 51
351.1240413701
  0
ARC
  5
36B
100
AcDbEntity
  8
0
100
AcDbCircle
 62
7
  6
CONTINUOUS
 10
13.0771226621
 20
6.9616348908
 40
1.7168055638
100
AcDbArc
 50
350.729076058
 51
351.1240413701
  0
ARC
  5
36C
100
AcDbEntity
  8
0
100
AcDbCircle
 62
7
  6
CONTINUOUS
 10
10.2765203407
 20
7.8021946911
 40
0.8990403858
100
AcDbArc
 50
55.0620310744
 51
59.1564303205
  0
ARC
  5
36D
100
AcDbEntity
  8
0
100
AcDbCircle
 62
7
  6
CONTINUOUS
 10
10.1847958318
 20
7.7092890952
 40
0.897994113
100
AcDbArc
 50
235.0596448196
 51
239.1588165753
  0
ARC
  5
36E
100
AcDbEntity
  8
0
100
AcDbCircle
 62
7
  6
CONTINUOUS
 10
10.0286408113
 20
7.5630914041
 40
0.897994113
100
AcDbArc
 50
55.0596448196
 51
59.1588165753
  0
ARC
  5
36F
100
AcDbEntity
  8
0
100
AcDbCircle
 62
7
  6
CONTINUOUS
 10
10.1105029453
 20
7.693026218
 40
0.8228897736
100
AcDbArc
 50
180.0021468494
 51
182.1737440875
  0
ARC
  5
370
100
AcDbEntity
  8
0
100
AcDbCircle
 62
7
  6
CONTINUOUS
 10
10.1029336978
 20
7.5793542813
 40
0.8228897736
100
AcDbArc
 50
0.0021468494
 51
2.1737440876
  0
ARC
  5
371
100
AcDbEntity
  8
0
100
AcDbCircle
 62
7
  6
CONTINUOUS
 10
10.3524636656
 20
7.8193572389
 40
0.821807865
100
AcDbArc
 50
0.000717226
 51
2.175173711
  0
ARC
  5
372
100
AcDbEntity
  8
0
100
AcDbCircle
 62
7
  6
CONTINUOUS
 10
10.1040223206
 20
7.6930056256
 40
0.8164091484
100
AcDbArc
 50
177.8176453237
 51
180.0007187083
  0
ARC
  5
373
100
AcDbEntity
  8
0
100
AcDbCircle
 62
7
  6
CONTINUOUS
 10
10.1094143225
 20
7.5793748737
 40
0.8164091484
100
AcDbArc
 50
357.8176453237
 51
0.0007187083
  0
ARC
  5
374
100
AcDbEntity
  8
0
100
AcDbCircle
 62
7
  6
CONTINUOUS
 10
10.3589385973
 20
7.8193367935
 40
0.8153329338
100
AcDbArc
 50
357.816204354
 51
0.002159678
  0
ARC
  5
375
100
AcDbEntity
  8
0
100
AcDbCircle
 62
7
  6
CONTINUOUS
 10
10.2859206718
 20
7.9440952119
 40
0.7513332015
100
AcDbArc
 50
114.6232335537
 51
119.2379085761
  0
ARC
  5
376
100
AcDbEntity
  8
0
100
AcDbCircle
 62
7
  6
CONTINUOUS
 10
10.1764676984
 20
7.5672762281
 40
0.7502220364
100
AcDbArc
 50
294.6198142689
 51
299.2413278609
  0
ARC
  5
377
100
AcDbEntity
  8
0
100
AcDbCircle
 62
7
  6
CONTINUOUS
 10
10.0369689448
 20
7.7051042712
 40
0.7502220364
100
AcDbArc
 50
114.6198142689
 51
119.2413278609
  0
ARC
  5
378
100
AcDbEntity
  8
0
100
AcDbCircle
 62
7
  6
CONTINUOUS
 10
10.4896204318
 20
7.9516841809
 40
0.6737196646
100
AcDbArc
 50
354.0497483967
 51
0.0105776796
  0
ARC
  5
379
100
AcDbEntity
  8
0
100
AcDbCircle
 62
7
  6
CONTINUOUS
 10
10.128304141
 20
7.6570224005
 40
0.4152927097
100
AcDbArc
 50
42.1564137933
 51
45.5988568173
  0
ARC
  5
37A
100
AcDbEntity
  8
0
100
AcDbCircle
 62
7
  6
CONTINUOUS
 10
10.1190738012
 20
7.7048928473
 40
0.4063093155
100
AcDbArc
 50
103.212508524
 51
107.341305776
  0
ARC
  5
37B
100
AcDbEntity
  8
0
100
AcDbCircle
 62
7
  6
CONTINUOUS
 10
10.1758683499
 20
7.6461236514
 40
0.4062424468
100
AcDbArc
 50
340.6337088721
 51
344.9952268178
  0
ARC
  5
37C
100
AcDbEntity
  8
0
100
AcDbCircle
 62
7
  6
CONTINUOUS
 10
10.4528928697
 20
7.9415715615
 40
0.167236203
100
AcDbArc
 50
293.7852064837
 51
294.4307632366
  0
ARC
  5
37D
100
AcDbEntity
  8
0
100
AcDbCircle
 62
7
  6
CONTINUOUS
 10
10.4235528948
 20
7.9717779177
 40
0.1668236192
100
AcDbArc
 50
153.683565729
 51
154.3061853594
  0
SPLINE
  5
37E
100
AcDbEntity
  8
0
100
AcDbSpline
 62
7
  6
CONTINUOUS
 70
0
 71
3
 72
11
 73
7
 74
0
 42
0.0000001
 43
0.0000001
 44
0.0000000001
 40
0.0
 40
0.0
 40
0.0
 40
0.0
 40
0.2472634638
 40
0.4962460639
 40
0.7472675544
 40
1.0
 40
1.0
 40
1.0
 40
1.0
 10
10.5203407429
 20
7.788539761
 30
0.0
 10
10.5139704413
 20
7.7857320846
 30
0.0
 10
10.5008187122
 20
7.7808932133
 30
0.0
 10
10.4802832756
 20
7.7760906514
 30
0.0
 10
10.4591648959
 20
7.7737987567
 30
0.0
 10
10.4449440191
 20
7.7739482099
 30
0.0
 10
10.437845498
 20
7.774440494
 30
0.0
  0
SPLINE
  5
37F
100
AcDbEntity
  8
0
100
AcDbSpline
 62
7
  6
CONTINUOUS
 70
0
 71
3
 72
15
 73
11
 74
0
 42
0.0000001
 43
0.0000001
 44
0.0000000001
 40
0.0
 40
0.0
 40
0.0
 40
0.0
 40
0.1234389364
 40
0.2470473381
 40
0.370987441
 40
0.4953935886
 40
0.620395394
 40
0.7461421851
 40
0.8727199755
 40
1.0
 40
1.0
 40
1.0
 40
1.0
 10
10.4361814236
 20
7.4149799603
 30
0.0
 10
10.444512078
 20
7.4230273617
 30
0.0
 10
10.4603666685
 20
7.440005328
 30
0.0
 10
10.481427962
 20
7.4677957667
 30
0.0
 10
10.4995802048
 20
7.4976777701
 30
0.0
 10
10.5146684255
 20
7.5293609807
 30
0.0
 10
10.5265413774
 20
7.5625632392
 30
0.0
 10
10.5351011303
 20
7.596979729
 30
0.0
 10
10.5402526629
 20
7.6322798787
 30
0.0
 10
10.5413990596
 20
7.6561164349
 30
0.0
 10
10.5413990596
 20
7.6680596256
 30
0.0
  0
SPLINE
  5
380
100
AcDbEntity
  8
0
100
AcDbSpline
 62
7
  6
CONTINUOUS
 70
0
 71
3
 72
20
 73
16
 74
0
 42
0.0000001
 43
0.0000001
 44
0.0000000001
 40
0.0
 40
0.0
 40
0.0
 40
0.0
 40
0.1234149148
 40
0.2469952189
 40
0.308919618
 40
0.3709464008
 40
0.433093818
 40
0.4953765837
 40
0.5578077259
 40
0.6204006566
 40
0.6831727187
 40
0.7461410539
 40
0.8093212433
 40
0.8727120777
 40
1.0
 40
1.0
 40
1.0
 40
1.0
 10
10.5578911847
 20
7.1376913623
 30
0.0
 10
10.5723201328
 20
7.1516290501
 30
0.0
 10
10.5997835047
 20
7.1810283226
 30
0.0
 10
10.6301624581
 20
7.2211270536
 30
0.0
 10
10.6519421704
 20
7.2549769503
 30
0.0
 10
10.6669977969
 20
7.2812305572
 30
0.0
 10
10.6807234201
 20
7.308267784
 30
0.0
 10
10.6930919899
 20
7.3360241391
 30
0.0
 10
10.7040742932
 20
7.3644351993
 30
0.0
 10
10.7136412433
 20
7.3934372432
 30
0.0
 10
10.7217738395
 20
7.4229642184
 30
0.0
 10
10.7284548838
 20
7.4529504741
 30
0.0
 10
10.7336648962
 20
7.4833303266
 30
0.0
 10
10.7386405227
 20
7.5243054922
 30
0.0
 10
10.7401304575
 20
7.5553286161
 30
0.0
 10
10.7401304575
 20
7.5760194267
 30
0.0
  0
SPLINE
  5
381
100
AcDbEntity
  8
0
100
AcDbSpline
 62
7
  6
CONTINUOUS
 70
0
 71
3
 72
15
 73
11
 74
0
 42
0.0000001
 43
0.0000001
 44
0.0000000001
 40
0.0
 40
0.0
 40
0.0
 40
0.0
 40
0.1341341199
 40
0.2671160695
 40
0.3982000469
 40
0.5265140366
 40
0.6512262464
 40
0.7717680025
 40
0.8879653785
 40
1.0
 40
1.0
 40
1.0
 40
1.0
 10
10.7913911034
 20
7.1526374323
 30
0.0
 10
10.8091713468
 20
7.1806374182
 30
0.0
 10
10.8444621729
 20
7.236471286
 30
0.0
 10
10.8966428664
 20
7.3199744751
 30
0.0
 10
10.9475556581
 20
7.4025709855
 30
0.0
 10
10.9968256425
 20
7.4837753634
 30
0.0
 10
11.0441361179
 20
7.5631164085
 30
0.0
 10
11.0893041368
 20
7.6402433183
 30
0.0
 10
11.1323148095
 20
7.714997606
 30
0.0
 10
11.1601119892
 20
7.7641143788
 30
0.0
 10
11.173679382
 20
7.7882683717
 30
0.0
  0
SPLINE
  5
382
100
AcDbEntity
  8
0
100
AcDbSpline
 62
7
  6
CONTINUOUS
 70
0
 71
3
 72
15
 73
11
 74
0
 42
0.0000001
 43
0.0000001
 44
0.0000000001
 40
0.0
 40
0.0
 40
0.0
 40
0.0
 40
0.1120346215
 40
0.2282319975
 40
0.3487737536
 40
0.4734859634
 40
0.6017999531
 40
0.7328839305
 40
0.8658658801
 40
1.0
 40
1.0
 40
1.0
 40
1.0
 10
9.288205321
 20
7.7240945392
 30
0.0
 10
9.3017727137
 20
7.7482485322
 30
0.0
 10
9.3295698934
 20
7.7973653049
 30
0.0
 10
9.3725805661
 20
7.8721195927
 30
0.0
 10
9.417748585
 20
7.9492465025
 30
0.0
 10
9.4650590604
 20
8.0285875475
 30
0.0
 10
9.5143290448
 20
8.1097919255
 30
0.0
 10
9.5652418365
 20
8.1923884359
 30
0.0
 10
9.61742253
 20
8.275891625
 30
0.0
 10
9.6527133561
 20
8.3317254928
 30
0.0
 10
9.6704935995
 20
8.3597254786
 30
0.0
  0
SPLINE
  5
383
100
AcDbEntity
  8
0
100
AcDbSpline
 62
7
  6
CONTINUOUS
 70
0
 71
3
 72
19
 73
15
 74
0
 42
0.0000001
 43
0.0000001
 44
0.0000000001
 40
0.0
 40
0.0
 40
0.0
 40
0.0
 40
0.1260751551
 40
0.2528170052
 40
0.3163306301
 40
0.3798607152
 40
0.4433283395
 40
0.5066528928
 40
0.5697504944
 40
0.6325395368
 40
0.6949540025
 40
0.7569344527
 40
0.8794635999
 40
1.0
 40
1.0
 40
1.0
 40
1.0
 10
11.173679382
 20
7.8505488121
 30
0.0
 10
11.1603058117
 20
7.8808861018
 30
0.0
 10
11.1329695906
 20
7.9414945589
 30
0.0
 10
11.0972373019
 20
8.0166232956
 30
0.0
 10
11.0675211114
 20
8.0763825534
 30
0.0
 10
11.0446603746
 20
8.1209633574
 30
0.0
 10
11.0212518541
 20
8.165202825
 30
0.0
 10
10.9973082093
 20
8.2090254864
 30
0.0
 10
10.9728671908
 20
8.2523679783
 30
0.0
 10
10.9479606556
 20
8.2951679329
 30
0.0
 10
10.9226413348
 20
8.3373827458
 30
0.0
 10
10.8885255017
 20
8.3926344335
 30
0.0
 10
10.8451229205
 20
8.4601066461
 30
0.0
 10
10.8093683031
 20
8.513096525
 30
0.0
 10
10.7913911034
 20
8.5392033158
 30
0.0
  0
SPLINE
  5
384
100
AcDbEntity
  8
0
100
AcDbSpline
 62
7
  6
CONTINUOUS
 70
0
 71
3
 72
18
 73
14
 74
0
 42
0.0000001
 43
0.0000001
 44
0.0000000001
 40
0.0
 40
0.0
 40
0.0
 40
0.0
 40
0.1158263358
 40
0.2348258924
 40
0.2955424589
 40
0.3570528973
 40
0.419310243
 40
0.4822564707
 40
0.5458074985
 40
0.6098733075
 40
0.7391597588
 40
0.86939402
 40
1.0
 40
1.0
 40
1.0
 40
1.0
 10
10.7374546599
 20
8.5740840411
 30
0.0
 10
10.7081619401
 20
8.5784754586
 30
0.0
 10
10.6486992968
 20
8.5868896321
 30
0.0
 10
10.5736767319
 20
8.5960829382
 30
0.0
 10
10.5123378314
 20
8.6026497314
 30
0.0
 10
10.4653766189
 20
8.6071753352
 30
0.0
 10
10.4178015103
 20
8.6112462908
 30
0.0
 10
10.3696646354
 20
8.6148395114
 30
0.0
 10
10.3210308745
 20
8.6179523475
 30
0.0
 10
10.2554263989
 20
8.6214643378
 30
0.0
 10
10.1727320953
 20
8.6246512939
 30
0.0
 10
10.0729832283
 20
8.6267303303
 30
0.0
 10
10.0062777328
 20
8.6271197699
 30
0.0
 10
9.9728781028
 20
8.6271076054
 30
0.0
  0
SPLINE
  5
385
100
AcDbEntity
  8
0
100
AcDbSpline
 62
7
  6
CONTINUOUS
 70
0
 71
3
 72
18
 73
14
 74
0
 42
0.0000001
 43
0.0000001
 44
0.0000000001
 40
0.0
 40
0.0
 40
0.0
 40
0.0
 40
0.13060598
 40
0.2608402412
 40
0.3901266925
 40
0.4541925015
 40
0.5177435293
 40
0.580689757
 40
0.6429471027
 40
0.7044575411
 40
0.7651741076
 40
0.8841736641
 40
1.0
 40
1.0
 40
1.0
 40
1.0
 10
10.4890066001
 20
6.8852553055
 30
0.0
 10
10.4556069701
 20
6.885243141
 30
0.0
 10
10.3889014746
 20
6.8856325806
 30
0.0
 10
10.2891526076
 20
6.887711617
 30
0.0
 10
10.206458304
 20
6.8908985732
 30
0.0
 10
10.1408538284
 20
6.8944105635
 30
0.0
 10
10.0922200675
 20
6.8975233996
 30
0.0
 10
10.0440831926
 20
6.9011166202
 30
0.0
 10
9.996508084
 20
6.9051875758
 30
0.0
 10
9.9495468715
 20
6.9097131795
 30
0.0
 10
9.888207971
 20
6.9162799728
 30
0.0
 10
9.8131854061
 20
6.9254732789
 30
0.0
 10
9.7537227628
 20
6.9338874524
 30
0.0
 10
9.724430043
 20
6.9382788699
 30
0.0
  0
SPLINE
  5
386
100
AcDbEntity
  8
0
100
AcDbSpline
 62
7
  6
CONTINUOUS
 70
0
 71
3
 72
19
 73
15
 74
0
 42
0.0000001
 43
0.0000001
 44
0.0000000001
 40
0.0
 40
0.0
 40
0.0
 40
0.0
 40
0.1205364001
 40
0.2430655473
 40
0.3050459975
 40
0.3674604632
 40
0.4302495056
 40
0.4933471072
 40
0.5566716605
 40
0.6201392848
 40
0.6836693699
 40
0.7471829948
 40
0.8739248449
 40
1.0
 40
1.0
 40
1.0
 40
1.0
 10
9.6704935995
 20
6.9731595951
 30
0.0
 10
9.6525163998
 20
6.999266386
 30
0.0
 10
9.6167617824
 20
7.0522562648
 30
0.0
 10
9.5733592012
 20
7.1197284775
 30
0.0
 10
9.5392433681
 20
7.1749801652
 30
0.0
 10
9.5139240473
 20
7.217194978
 30
0.0
 10
9.4890175121
 20
7.2599949326
 30
0.0
 10
9.4645764936
 20
7.3033374246
 30
0.0
 10
9.4406328488
 20
7.347160086
 30
0.0
 10
9.4172243283
 20
7.3913995536
 30
0.0
 10
9.3943635915
 20
7.4359803576
 30
0.0
 10
9.364647401
 20
7.4957396154
 30
0.0
 10
9.3289151123
 20
7.5708683521
 30
0.0
 10
9.3015788912
 20
7.6314768091
 30
0.0
 10
9.288205321
 20
7.6618140988
 30
0.0
  0
SPLINE
  5
387
100
AcDbEntity
  8
0
100
AcDbSpline
 62
7
  6
CONTINUOUS
 70
0
 71
3
 72
40
 73
36
 74
0
 42
0.0000001
 43
0.0000001
 44
0.0000000001
 40
0.0
 40
0.0
 40
0.0
 40
0.0
 40
0.0310620086
 40
0.0623049682
 40
0.0936958361
 40
0.1252229303
 40
0.1568824331
 40
0.1886628609
 40
0.2205451027
 40
0.2525097501
 40
0.2845369867
 40
0.3166060343
 40
0.3486941452
 40
0.3807781103
 40
0.4128353428
 40
0.4448433979
 40
0.4767813936
 40
0.5086292017
 40
0.5403690783
 40
0.5719850983
 40
0.6034640434
 40
0.634795663
 40
0.6659724738
 40
0.6969908504
 40
0.7278499445
 40
0.7585531441
 40
0.7738508481
 40
0.7891122135
 40
0.8195262038
 40
0.8498136397
 40
0.879990757
 40
0.9100762345
 40
0.940090949
 40
0.9700576571
 40
1.0
 40
1.0
 40
1.0
 40
1.0
 10
10.7401304575
 20
7.5760194267
 30
0.0
 10
10.7401304575
 20
7.5920986733
 30
0.0
 10
10.7389263454
 20
7.6243629774
 30
0.0
 10
10.7335741786
 20
7.6726095321
 30
0.0
 10
10.7246830912
 20
7.7205781254
 30
0.0
 10
10.7123104326
 20
7.76799011
 30
0.0
 10
10.6965222317
 20
7.8145893158
 30
0.0
 10
10.6774079256
 20
7.8601245364
 30
0.0
 10
10.6550736576
 20
7.9043466959
 30
0.0
 10
10.6296361076
 20
7.9470079614
 30
0.0
 10
10.6012436467
 20
7.9878799347
 30
0.0
 10
10.57004257
 20
8.0267320716
 30
0.0
 10
10.5362143939
 20
8.0633595242
 30
0.0
 10
10.4999351118
 20
8.0975520321
 30
0.0
 10
10.4614118917
 20
8.1291296306
 30
0.0
 10
10.4208507969
 20
8.1579131332
 30
0.0
 10
10.3784771479
 20
8.1837473455
 30
0.0
 10
10.3345231562
 20
8.2064908721
 30
0.0
 10
10.2892283259
 20
8.2260141684
 30
0.0
 10
10.2428442187
 20
8.2422176917
 30
0.0
 10
10.1956219138
 20
8.2550012016
 30
0.0
 10
10.1478240085
 20
8.2643067514
 30
0.0
 10
10.0997104187
 20
8.2700695316
 30
0.0
 10
10.0515468133
 20
8.2722694777
 30
0.0
 10
10.0035986838
 20
8.2708844845
 30
0.0
 10
9.9639863987
 20
8.2667472238
 30
0.0
 10
9.9326778218
 20
8.2616604903
 30
0.0
 10
9.9017334654
 20
8.2554100707
 30
0.0
 10
9.8636594073
 20
8.2454145565
 30
0.0
 10
9.8191729845
 20
8.2299745456
 30
0.0
 10
9.7761809372
 20
8.2111783373
 30
0.0
 10
9.7349171944
 20
8.1891400588
 30
0.0
 10
9.6956146536
 20
8.1639680752
 30
0.0
 10
9.6584857245
 20
8.1358152439
 30
0.0
 10
9.6353133864
 20
8.1151467589
 30
0.0
 10
9.6241653428
 20
8.1043782711
 30
0.0
  0
SPLINE
  5
388
100
AcDbEntity
  8
0
100
AcDbSpline
 62
7
  6
CONTINUOUS
 70
0
 71
3
 72
36
 73
32
 74
0
 42
0.0000001
 43
0.0000001
 44
0.0000000001
 40
0.0
 40
0.0
 40
0.0
 40
0.0
 40
0.0615011207
 40
0.0924627159
 40
0.1235309695
 40
0.1546981929
 40
0.1859623336
 40
0.2173203575
 40
0.2487660606
 40
0.2802885458
 40
0.3118758896
 40
0.3751770889
 40
0.4068892409
 40
0.4386191311
 40
0.4703542008
 40
0.502081097
 40
0.5337866803
 40
0.56545872
 40
0.6286319704
 40
0.6601324328
 40
0.6915546326
 40
0.7228889702
 40
0.754127103
 40
0.7852623501
 40
0.8162886543
 40
0.8472011344
 40
0.8779969924
 40
0.9086745073
 40
0.9392329915
 40
0.9696738368
 40
1.0
 40
1.0
 40
1.0
 40
1.0
 10
10.5716482234
 20
7.5962780759
 30
0.0
 10
10.5716482234
 20
7.6139448596
 30
0.0
 10
10.5701486445
 20
7.6405352902
 30
0.0
 10
10.5652494736
 20
7.6756925368
 30
0.0
 10
10.5601055346
 20
7.7019803279
 30
0.0
 10
10.5535195466
 20
7.7280321596
 30
0.0
 10
10.5455159365
 20
7.7537714408
 30
0.0
 10
10.5361162018
 20
7.7791195589
 30
0.0
 10
10.5253492174
 20
7.8039982633
 30
0.0
 10
10.5132522107
 20
7.8283327025
 30
0.0
 10
10.4953904153
 20
7.8599633473
 30
0.0
 10
10.4750176221
 20
7.8901850504
 30
0.0
 10
10.4523618256
 20
7.9187011128
 30
0.0
 10
10.4342492292
 20
7.9391990831
 30
0.0
 10
10.4150901305
 20
7.9587268139
 30
0.0
 10
10.3949456336
 20
7.9772260808
 30
0.0
 10
10.3738745609
 20
7.9946359924
 30
0.0
 10
10.3446663331
 20
8.0162994849
 30
0.0
 10
10.3138421495
 20
8.0356120904
 30
0.0
 10
10.2817050651
 20
8.0523509684
 30
0.0
 10
10.2570499035
 20
8.0635749701
 30
0.0
 10
10.2319026979
 20
8.0734416331
 30
0.0
 10
10.2063390331
 20
8.0819155767
 30
0.0
 10
10.1804406037
 20
8.0889738605
 30
0.0
 10
10.1542885531
 20
8.0945966548
 30
0.0
 10
10.1279635728
 20
8.0987614635
 30
0.0
 10
10.1015483312
 20
8.1014557814
 30
0.0
 10
10.0751257927
 20
8.1026755079
 30
0.0
 10
10.0487778953
 20
8.1024136242
 30
0.0
 10
10.0225885142
 20
8.1006679308
 30
0.0
 10
10.0052542321
 20
8.0985178849
 30
0.0
 10
9.9966433333
 20
8.0971979226
 30
0.0
  0
SPLINE
  5
389
100
AcDbEntity
  8
0
100
AcDbSpline
 62
7
  6
CONTINUOUS
 70
0
 71
3
 72
16
 73
12
 74
0
 42
0.0000001
 43
0.0000001
 44
0.0000000001
 40
0.0
 40
0.0
 40
0.0
 40
0.0
 40
0.122654279
 40
0.184359795
 40
0.2462655913
 40
0.3705563212
 40
0.4954963985
 40
0.6210366004
 40
0.7470619913
 40
0.8734303418
 40
1.0
 40
1.0
 40
1.0
 40
1.0
 10
10.5413990596
 20
7.6680596256
 30
0.0
 10
10.5413990596
 20
7.6800834578
 30
0.0
 10
10.5405234428
 20
7.6981711388
 30
0.0
 10
10.5376560238
 20
7.7221479189
 30
0.0
 10
10.5336393426
 20
7.746123899
 30
0.0
 10
10.526481298
 20
7.7758220534
 30
0.0
 10
10.5145992848
 20
7.8106400435
 30
0.0
 10
10.4995100795
 20
7.8443797354
 30
0.0
 10
10.4813657904
 20
7.8767400953
 30
0.0
 10
10.460320942
 20
7.9074122753
 30
0.0
 10
10.4444942867
 20
7.9265507692
 30
0.0
 10
10.4361670118
 20
7.9357489465
 30
0.0
  0
SPLINE
  5
38A
100
AcDbEntity
  8
0
100
AcDbSpline
 62
7
  6
CONTINUOUS
 70
0
 71
3
 72
32
 73
28
 74
0
 42
0.0000001
 43
0.0000001
 44
0.0000000001
 40
0.0
 40
0.0
 40
0.0
 40
0.0
 40
0.0646535663
 40
0.0969553392
 40
0.1292224927
 40
0.1936016356
 40
0.225712858
 40
0.2577558101
 40
0.3215933561
 40
0.35339229
 40
0.385098558
 40
0.4482011049
 40
0.4796088979
 40
0.5109126131
 40
0.5731898312
 40
0.6041831872
 40
0.6350761499
 40
0.6965575711
 40
0.7271742265
 40
0.7577092829
 40
0.8185443712
 40
0.8488796226
 40
0.8791648048
 40
0.9094096237
 40
0.9396238862
 40
0.9698173111
 40
1.0
 40
1.0
 40
1.0
 40
1.0
 10
10.4188751456
 20
7.9537318981
 30
0.0
 10
10.4099819941
 20
7.9624412237
 30
0.0
 10
10.3960489281
 20
7.9749127543
 30
0.0
 10
10.3764302852
 20
7.9902218574
 30
0.0
 10
10.3561820844
 20
8.0045983476
 30
0.0
 10
10.3350103117
 20
8.0175696213
 30
0.0
 10
10.3130712258
 20
8.0290323205
 30
0.0
 10
10.2907249665
 20
8.0394344192
 30
0.0
 10
10.2677410529
 20
8.0482677844
 30
0.0
 10
10.2442934802
 20
8.0554542053
 30
0.0
 10
10.2206730222
 20
8.061502201
 30
0.0
 10
10.1967252678
 20
8.0658697425
 30
0.0
 10
10.1726393353
 20
8.0685091509
 30
0.0
 10
10.148613423
 20
8.0699821609
 30
0.0
 10
10.1245865342
 20
8.0697201906
 30
0.0
 10
10.1007583367
 20
8.0677121973
 30
0.0
 10
10.0772097249
 20
8.0645554183
 30
0.0
 10
10.0539927016
 20
8.0596709577
 30
0.0
 10
10.0313097018
 20
8.0530903059
 30
0.0
 10
10.009104514
 20
8.0454168538
 30
0.0
 10
9.9875577349
 20
8.0360881501
 30
0.0
 10
9.9668644997
 20
8.0251825203
 30
0.0
 10
9.9518193229
 20
8.0162400405
 30
0.0
 10
9.9372738925
 20
8.0065489182
 30
0.0
 10
9.9232593453
 20
7.9961339155
 30
0.0
 10
9.9098086895
 20
7.9850197243
 30
0.0
 10
9.9012376178
 20
7.9771586509
 30
0.0
 10
9.8970582101
 20
7.9731213485
 30
0.0
  0
SPLINE
  5
38B
100
AcDbEntity
  8
0
100
AcDbSpline
 62
7
  6
CONTINUOUS
 70
0
 71
3
 72
31
 73
27
 74
0
 42
0.0000001
 43
0.0000001
 44
0.0000000001
 40
0.0
 40
0.0
 40
0.0
 40
0.0
 40
0.0619466993
 40
0.124472423
 40
0.1874115641
 40
0.2190325398
 40
0.2507358981
 40
0.2825084878
 40
0.3143334194
 40
0.346193453
 40
0.3780726524
 40
0.4417986014
 40
0.5054130871
 40
0.5687945326
 40
0.6318327055
 40
0.6632086818
 40
0.6944669158
 40
0.72560111
 40
0.7566061536
 40
0.7874781221
 40
0.818215905
 40
0.8488212535
 40
0.8792968233
 40
0.9096471622
 40
0.9398801288
 40
1.0
 40
1.0
 40
1.0
 40
1.0
 10
10.437845498
 20
7.774440494
 30
0.0
 10
10.430230556
 20
7.774968592
 30
0.0
 10
10.4149804733
 20
7.7769963329
 30
0.0
 10
10.3925784515
 20
7.782818045
 30
0.0
 10
10.3745227976
 20
7.7899358796
 30
0.0
 10
10.3606069002
 20
7.7969102568
 30
0.0
 10
10.3504551642
 20
7.8027775863
 30
0.0
 10
10.3406463356
 20
7.8092465007
 30
0.0
 10
10.3312178238
 20
7.8162904429
 30
0.0
 10
10.3222081417
 20
7.8238838175
 30
0.0
 10
10.3108078205
 20
7.8346985936
 30
0.0
 10
10.297775221
 20
7.8494292433
 30
0.0
 10
10.2843416524
 20
7.8687772305
 30
0.0
 10
10.2733064918
 20
7.8894912404
 30
0.0
 10
10.2662518221
 20
7.907664696
 30
0.0
 10
10.2619676467
 20
7.9225540263
 30
0.0
 10
10.2594513268
 20
7.9338387771
 30
0.0
 10
10.2576372353
 20
7.9452107933
 30
0.0
 10
10.2565294792
 20
7.956625537
 30
0.0
 10
10.2561334974
 20
7.9680383432
 30
0.0
 10
10.256454519
 20
7.9794043232
 30
0.0
 10
10.2574878733
 20
7.9906788133
 30
0.0
 10
10.2592283013
 20
8.0018175522
 30
0.0
 10
10.2616723974
 20
8.0127774276
 30
0.0
 10
10.2658469277
 20
8.027060066
 30
0.0
 10
10.2700122609
 20
8.0374306361
 30
0.0
 10
10.2732241558
 20
8.0441062674
 30
0.0
  0
SPLINE
  5
38C
100
AcDbEntity
  8
0
100
AcDbSpline
 62
7
  6
CONTINUOUS
 70
0
 71
3
 72
35
 73
31
 74
0
 42
0.0000001
 43
0.0000001
 44
0.0000000001
 40
0.0
 40
0.0
 40
0.0
 40
0.0
 40
0.0301284874
 40
0.0603666713
 40
0.0907218521
 40
0.1212003852
 40
0.1825120126
 40
0.2443392518
 40
0.2754540854
 40
0.3066872268
 40
0.3380319874
 40
0.3694792858
 40
0.4010189995
 40
0.4326403309
 40
0.4960503827
 40
0.5278375989
 40
0.5596517649
 40
0.5914773821
 40
0.6232994392
 40
0.6551033462
 40
0.6868741813
 40
0.718597675
 40
0.7502598533
 40
0.7818462099
 40
0.8133430945
 40
0.8447418435
 40
0.876038214
 40
0.9072292593
 40
0.9383066327
 40
1.0
 40
1.0
 40
1.0
 40
1.0
 10
10.5186900359
 20
7.5439447644
 30
0.0
 10
10.5116130812
 20
7.5416745846
 30
0.0
 10
10.4972846253
 20
7.5375758955
 30
0.0
 10
10.4754105051
 20
7.5327823517
 30
0.0
 10
10.4531928207
 20
7.5293503748
 30
0.0
 10
10.4231705826
 20
7.5266087087
 30
0.0
 10
10.3851750794
 20
7.5266522867
 30
0.0
 10
10.3473120949
 20
7.5313106529
 30
0.0
 10
10.3173467448
 20
7.5377361992
 30
0.0
 10
10.2950605278
 20
7.5439129704
 30
0.0
 10
10.2730979546
 20
7.5514114617
 30
0.0
 10
10.2515376093
 20
7.5602001321
 30
0.0
 10
10.2304594602
 20
7.5702514375
 30
0.0
 10
10.20308599
 20
7.5852967705
 30
0.0
 10
10.1769935995
 20
7.6027028435
 30
0.0
 10
10.1524978058
 20
7.6222579499
 30
0.0
 10
10.1349510688
 20
7.6379703978
 30
0.0
 10
10.118315549
 20
7.6546553099
 30
0.0
 10
10.102655341
 20
7.6722558743
 30
0.0
 10
10.0880249114
 20
7.6907038606
 30
0.0
 10
10.0744766128
 20
7.7099310155
 30
0.0
 10
10.0620653001
 20
7.7298699365
 30
0.0
 10
10.0508344762
 20
7.7504449781
 30
0.0
 10
10.0408222098
 20
7.7715780274
 30
0.0
 10
10.0320691655
 20
7.7931930268
 30
0.0
 10
10.0246083471
 20
7.8152120496
 30
0.0
 10
10.0184629394
 20
7.8375552425
 30
0.0
 10
10.0136589538
 20
7.8601456333
 30
0.0
 10
10.0090829055
 20
7.8903922209
 30
0.0
 10
10.0076790252
 20
7.9133069771
 30
0.0
 10
10.0076790252
 20
7.9285256298
 30
0.0
  0
SPLINE
  5
38D
100
AcDbEntity
  8
0
100
AcDbSpline
 62
7
  6
CONTINUOUS
 70
0
 71
3
 72
25
 73
21
 74
0
 42
0.0000001
 43
0.0000001
 44
0.0000000001
 40
0.0
 40
0.0
 40
0.0
 40
0.0
 40
0.06304816
 40
0.1257757927
 40
0.1882205491
 40
0.2504291623
 40
0.3124558257
 40
0.3743599507
 40
0.4362046686
 40
0.498053879
 40
0.5599745826
 40
0.5909897923
 40
0.6220468482
 40
0.6842966975
 40
0.7155162682
 40
0.7468012058
 40
0.8095807738
 40
0.872706529
 40
0.936199224
 40
1.0
 40
1.0
 40
1.0
 40
1.0
 10
9.9966433333
 20
8.0971979226
 30
0.0
 10
9.9836993991
 20
8.0952137505
 30
0.0
 10
9.9580339827
 20
8.0901363443
 30
0.0
 10
9.9204494981
 20
8.0792063878
 30
0.0
 10
9.8841336167
 20
8.0650679421
 30
0.0
 10
9.8493553879
 20
8.0478091933
 30
0.0
 10
9.8163556078
 20
8.0275668055
 30
0.0
 10
9.7853797034
 20
8.0044713181
 30
0.0
 10
9.7566400396
 20
7.978700663
 30
0.0
 10
9.7303518631
 20
7.9504306766
 30
0.0
 10
9.7106452149
 20
7.9249699906
 30
0.0
 10
9.6962890284
 20
7.903580014
 30
0.0
 10
9.6828759084
 20
7.8815071224
 30
0.0
 10
9.6709410515
 20
7.8585151519
 30
0.0
 10
9.6605580857
 20
7.834767533
 30
0.0
 10
9.6511995382
 20
7.8104789824
 30
0.0
 10
9.6414911991
 20
7.7792597121
 30
0.0
 10
9.633124354
 20
7.7407713556
 30
0.0
 10
9.6280921722
 20
7.7014956277
 30
0.0
 10
9.6269727093
 20
7.6750429917
 30
0.0
 10
9.6269727093
 20
7.6617915453
 30
0.0
  0
SPLINE
  5
38E
100
AcDbEntity
  8
0
100
AcDbSpline
 62
7
  6
CONTINUOUS
 70
0
 71
3
 72
39
 73
35
 74
0
 42
0.0000001
 43
0.0000001
 44
0.0000000001
 40
0.0
 40
0.0
 40
0.0
 40
0.0
 40
0.029936775
 40
0.0599035411
 40
0.0899232094
 40
0.1200179771
 40
0.1502077568
 40
0.1805105816
 40
0.2109416742
 40
0.241513297
 40
0.2722347601
 40
0.3031115989
 40
0.3341465183
 40
0.3653380986
 40
0.3966822898
 40
0.4281711728
 40
0.4597943304
 40
0.4915383064
 40
0.5233872338
 40
0.5553233596
 40
0.58732676
 40
0.6193767763
 40
0.6514512496
 40
0.683527974
 40
0.7155840454
 40
0.7475972505
 40
0.779547216
 40
0.8114145118
 40
0.8431799399
 40
0.8748248004
 40
0.9063383564
 40
0.9377170025
 40
0.9689485373
 40
1.0
 40
1.0
 40
1.0
 40
1.0
 10
10.5578174816
 20
7.1377772196
 30
0.0
 10
10.5465461584
 20
7.1273100968
 30
0.0
 10
10.523154066
 20
7.1072476321
 30
0.0
 10
10.4857855348
 20
7.079997532
 30
0.0
 10
10.4463237674
 20
7.0557173916
 30
0.0
 10
10.4049809864
 20
7.0345502815
 30
0.0
 10
10.3619866546
 20
7.0165982303
 30
0.0
 10
10.3175690378
 20
7.0019713404
 30
0.0
 10
10.2719733955
 20
6.9907359734
 30
0.0
 10
10.2254441465
 20
6.9829625432
 30
0.0
 10
10.1782351253
 20
6.9786859479
 30
0.0
 10
10.1306012405
 20
6.9779310839
 30
0.0
 10
10.0828009696
 20
6.9807035292
 30
0.0
 10
10.0350920401
 20
6.9869814387
 30
0.0
 10
9.9877342475
 20
6.9967399766
 30
0.0
 10
9.9409808935
 20
7.0099139651
 30
0.0
 10
9.8950883876
 20
7.0264444448
 30
0.0
 10
9.8503005075
 20
7.0462296521
 30
0.0
 10
9.8068633221
 20
7.0691722771
 30
0.0
 10
9.7650083021
 20
7.0951410892
 30
0.0
 10
9.7249630458
 20
7.1239989813
 30
0.0
 10
9.6869446646
 20
7.1555900452
 30
0.0
 10
9.6511551569
 20
7.1897402029
 30
0.0
 10
9.6177943291
 20
7.2262706685
 30
0.0
 10
9.5870337888
 20
7.2649760496
 30
0.0
 10
9.5590498777
 20
7.3056552634
 30
0.0
 10
9.5339836598
 20
7.3480820683
 30
0.0
 10
9.5119807242
 20
7.39203349
 30
0.0
 10
9.4931521764
 20
7.4372659606
 30
0.0
 10
9.4776030601
 20
7.4835369211
 30
0.0
 10
9.4654184796
 20
7.5306004597
 30
0.0
 10
9.4566638534
 20
7.5782064753
 30
0.0
 10
9.4513938683
 20
7.6260818342
 30
0.0
 10
9.4502082726
 20
7.6580955417
 30
0.0
 10
9.4502082726
 20
7.6740502006
 30
0.0
  0
SPLINE
  5
38F
100
AcDbEntity
  8
0
100
AcDbSpline
 62
7
  6
CONTINUOUS
 70
0
 71
3
 72
20
 73
16
 74
0
 42
0.0000001
 43
0.0000001
 44
0.0000000001
 40
0.0
 40
0.0
 40
0.0
 40
0.0
 40
0.1234149148
 40
0.2469952189
 40
0.308919618
 40
0.3709464008
 40
0.433093818
 40
0.4953765837
 40
0.5578077259
 40
0.6204006566
 40
0.6831727187
 40
0.7461410539
 40
0.8093212433
 40
0.8727120777
 40
1.0
 40
1.0
 40
1.0
 40
1.0
 10
9.6241653428
 20
8.1043782711
 30
0.0
 10
9.6097363947
 20
8.0904405832
 30
0.0
 10
9.5822730228
 20
8.0610413108
 30
0.0
 10
9.5518940694
 20
8.0209425798
 30
0.0
 10
9.5301143571
 20
7.9870926831
 30
0.0
 10
9.5150587307
 20
7.9608390762
 30
0.0
 10
9.5013331074
 20
7.9338018494
 30
0.0
 10
9.4889645376
 20
7.9060454943
 30
0.0
 10
9.4779822343
 20
7.8776344341
 30
0.0
 10
9.4684152842
 20
7.8486323902
 30
0.0
 10
9.460282688
 20
7.819105415
 30
0.0
 10
9.4536016437
 20
7.7891191593
 30
0.0
 10
9.4483916313
 20
7.7587393068
 30
0.0
 10
9.4434160048
 20
7.7177641412
 30
0.0
 10
9.44192607
 20
7.6867410173
 30
0.0
 10
9.44192607
 20
7.6660502067
 30
0.0
  0
SPLINE
  5
390
100
AcDbEntity
  8
0
100
AcDbSpline
 62
7
  6
CONTINUOUS
 70
0
 71
3
 72
19
 73
15
 74
0
 42
0.0000001
 43
0.0000001
 44
0.0000000001
 40
0.0
 40
0.0
 40
0.0
 40
0.0
 40
0.1260751551
 40
0.2528170052
 40
0.3163306301
 40
0.3798607152
 40
0.4433283395
 40
0.5066528929
 40
0.5697504944
 40
0.6325395368
 40
0.6949540025
 40
0.7569344527
 40
0.8794635999
 40
1.0
 40
1.0
 40
1.0
 40
1.0
 10
10.5429430436
 20
8.2992209042
 30
0.0
 10
10.5563166139
 20
8.2688836145
 30
0.0
 10
10.583652835
 20
8.2082751574
 30
0.0
 10
10.6193851237
 20
8.1331464207
 30
0.0
 10
10.6491013142
 20
8.0733871629
 30
0.0
 10
10.671962051
 20
8.0288063589
 30
0.0
 10
10.6953705716
 20
7.9845668913
 30
0.0
 10
10.7193142163
 20
7.9407442299
 30
0.0
 10
10.7437552349
 20
7.897401738
 30
0.0
 10
10.76866177
 20
7.8546017833
 30
0.0
 10
10.7939810908
 20
7.8123869705
 30
0.0
 10
10.8280969239
 20
7.7571352828
 30
0.0
 10
10.8714995051
 20
7.6896630702
 30
0.0
 10
10.9072541225
 20
7.6366731913
 30
0.0
 10
10.9252313222
 20
7.6105664005
 30
0.0
  0
SPLINE
  5
391
100
AcDbEntity
  8
0
100
AcDbSpline
 62
7
  6
CONTINUOUS
 70
0
 71
3
 72
18
 73
14
 74
0
 42
0.0000001
 43
0.0000001
 44
0.0000000001
 40
0.0
 40
0.0
 40
0.0
 40
0.0
 40
0.1158263358
 40
0.2348258924
 40
0.2955424589
 40
0.3570528973
 40
0.4193102431
 40
0.4822564708
 40
0.5458074985
 40
0.6098733075
 40
0.7391597588
 40
0.86939402
 40
1.0
 40
1.0
 40
1.0
 40
1.0
 10
9.724430043
 20
8.3871251938
 30
0.0
 10
9.7537227628
 20
8.3827337763
 30
0.0
 10
9.8131854061
 20
8.3743196028
 30
0.0
 10
9.888207971
 20
8.3651262967
 30
0.0
 10
9.9495468715
 20
8.3585595034
 30
0.0
 10
9.996508084
 20
8.3540338997
 30
0.0
 10
10.0440831926
 20
8.3499629441
 30
0.0
 10
10.0922200675
 20
8.3463697235
 30
0.0
 10
10.1408538284
 20
8.3432568874
 30
0.0
 10
10.2064583041
 20
8.3397448971
 30
0.0
 10
10.2891526076
 20
8.3365579409
 30
0.0
 10
10.3889014746
 20
8.3344789046
 30
0.0
 10
10.4556069701
 20
8.3340894649
 30
0.0
 10
10.4890066001
 20
8.3341016295
 30
0.0
  0
SPLINE
  5
392
100
AcDbEntity
  8
0
100
AcDbSpline
 62
7
  6
CONTINUOUS
 70
0
 71
3
 72
15
 73
11
 74
0
 42
0.0000001
 43
0.0000001
 44
0.0000000001
 40
0.0
 40
0.0
 40
0.0
 40
0.0
 40
0.1341341199
 40
0.2671160695
 40
0.3982000469
 40
0.5265140367
 40
0.6512262464
 40
0.7717680025
 40
0.8879653785
 40
1.0
 40
1.0
 40
1.0
 40
1.0
 10
10.9252313222
 20
7.5482859601
 30
0.0
 10
10.9074510788
 20
7.5202859742
 30
0.0
 10
10.8721602527
 20
7.4644521064
 30
0.0
 10
10.8199795592
 20
7.3809489173
 30
0.0
 10
10.7690667675
 20
7.2983524069
 30
0.0
 10
10.719796783
 20
7.2171480289
 30
0.0
 10
10.6724863077
 20
7.1378069839
 30
0.0
 10
10.6273182888
 20
7.0606800741
 30
0.0
 10
10.5843076161
 20
6.9859257864
 30
0.0
 10
10.5565104364
 20
6.9368090136
 30
0.0
 10
10.5429430436
 20
6.9126550207
 30
0.0
  0
SPLINE
  5
393
100
AcDbEntity
  8
0
100
AcDbSpline
 62
7
  6
CONTINUOUS
 70
0
 71
3
 72
60
 73
56
 74
0
 42
0.0000001
 43
0.0000001
 44
0.0000000001
 40
0.0
 40
0.0
 40
0.0
 40
0.0
 40
0.0311013591
 40
0.0465884113
 40
0.0620225757
 40
0.0774042146
 40
0.0927373722
 40
0.1080264514
 40
0.1232757087
 40
0.1536579131
 40
0.1839242246
 40
0.1990311071
 40
0.2141239772
 40
0.2292082614
 40
0.2442891845
 40
0.2593719565
 40
0.2744619919
 40
0.3046745556
 40
0.3198175606
 40
0.3349880954
 40
0.3501904927
 40
0.3654288461
 40
0.3807070263
 40
0.39602828
 40
0.4113954167
 40
0.4268109932
 40
0.4422769329
 40
0.45779455
 40
0.4889788672
 40
0.5203747454
 40
0.5361548214
 40
0.5519845863
 40
0.5678619051
 40
0.5837844122
 40
0.599749227
 40
0.6157529554
 40
0.6478538688
 40
0.68006331
 40
0.6962017217
 40
0.7123534143
 40
0.7285133748
 40
0.7446766467
 40
0.7608382123
 40
0.7769928645
 40
0.7931354818
 40
0.809261362
 40
0.8414363816
 40
0.8574855141
 40
0.8735004405
 40
0.8894768193
 40
0.905410842
 40
0.9371365301
 40
0.9529357704
 40
0.9686861165
 40
1.0
 40
1.0
 40
1.0
 40
1.0
 10
9.3733453323
 20
7.670806297
 30
0.0
 10
9.3733453323
 20
7.6941969763
 30
0.0
 10
9.375067387
 20
7.7292683267
 30
0.0
 10
9.3808188551
 20
7.775571484
 30
0.0
 10
9.3868411731
 20
7.8098863942
 30
0.0
 10
9.3945619553
 20
7.8437393103
 30
0.0
 10
9.4039583948
 20
7.8770528419
 30
0.0
 10
9.4150111485
 20
7.9097500411
 30
0.0
 10
9.4318990246
 20
7.952359102
 30
0.0
 10
9.4570042518
 20
8.0037439708
 30
0.0
 10
9.48726874
 20
8.0521458829
 30
0.0
 10
9.5143378067
 20
8.0887088116
 30
0.0
 10
9.5360222646
 20
8.1149917254
 30
0.0
 10
9.5590452216
 20
8.1400828624
 30
0.0
 10
9.5833481636
 20
8.1639253012
 30
0.0
 10
9.6088755418
 20
8.1864604841
 30
0.0
 10
9.6444692925
 20
8.2146915946
 30
0.0
 10
9.6822802035
 20
8.2401085251
 30
0.0
 10
9.7219466161
 20
8.2624711841
 30
0.0
 10
9.7526152687
 20
8.2777145843
 30
0.0
 10
9.7840967324
 20
8.2913770908
 30
0.0
 10
9.8163181508
 20
8.3034233518
 30
0.0
 10
9.8492016738
 20
8.3138226793
 30
0.0
 10
9.8826665503
 20
8.3225549357
 30
0.0
 10
9.9166327783
 20
8.3295979553
 30
0.0
 10
9.9510190338
 20
8.3349301172
 30
0.0
 10
9.9857424457
 20
8.3385434171
 30
0.0
 10
10.0324459075
 20
8.3410637496
 30
0.0
 10
10.0912705837
 20
8.3398515823
 30
0.0
 10
10.1498898498
 20
8.3328896129
 30
0.0
 10
10.1964327846
 20
8.3239144664
 30
0.0
 10
10.2311512031
 20
8.3154801326
 30
0.0
 10
10.2655313812
 20
8.3053747281
 30
0.0
 10
10.2994898651
 20
8.2936179721
 30
0.0
 10
10.3329466148
 20
8.2802418694
 30
0.0
 10
10.3768173452
 20
8.2602768025
 30
0.0
 10
10.4299893627
 20
8.2314253704
 30
0.0
 10
10.4803566019
 20
8.1977372358
 30
0.0
 10
10.518733076
 20
8.168043348
 30
0.0
 10
10.5465100474
 20
8.1444391809
 30
0.0
 10
10.573190742
 20
8.1195761079
 30
0.0
 10
10.5987081287
 20
8.0935098529
 30
0.0
 10
10.6230030951
 20
8.066306054
 30
0.0
 10
10.6460187069
 20
8.0380319874
 30
0.0
 10
10.6676970878
 20
8.0087519353
 30
0.0
 10
10.6947224649
 20
7.9685043913
 30
0.0
 10
10.7189114004
 20
7.9264911777
 30
0.0
 10
10.7400474777
 20
7.8830322685
 30
0.0
 10
10.754328361
 20
7.8498293416
 30
0.0
 10
10.7670136321
 20
7.8160768607
 30
0.0
 10
10.7817296773
 20
7.7705222553
 30
0.0
 10
10.793174588
 20
7.72410056
 30
0.0
 10
10.8012203504
 20
7.677181881
 30
0.0
 10
10.8069601112
 20
7.6302401809
 30
0.0
 10
10.8087111952
 20
7.5948138508
 30
0.0
 10
10.8087111952
 20
7.5712633364
 30
0.0
  0
SPLINE
  5
394
100
AcDbEntity
  8
0
100
AcDbSpline
 62
7
  6
CONTINUOUS
 70
0
 71
3
 72
60
 73
56
 74
0
 42
0.0000001
 43
0.0000001
 44
0.0000000001
 40
0.0
 40
0.0
 40
0.0
 40
0.0
 40
0.0311013591
 40
0.0465884113
 40
0.0620225757
 40
0.0774042146
 40
0.0927373722
 40
0.1080264514
 40
0.1232757087
 40
0.1536579131
 40
0.1839242246
 40
0.1990311071
 40
0.2141239772
 40
0.2292082614
 40
0.2442891845
 40
0.2593719565
 40
0.2744619919
 40
0.3046745556
 40
0.3198175606
 40
0.3349880954
 40
0.3501904927
 40
0.3654288461
 40
0.3807070263
 40
0.39602828
 40
0.4113954167
 40
0.4268109932
 40
0.4422769329
 40
0.45779455
 40
0.4889788672
 40
0.5203747454
 40
0.5361548214
 40
0.5519845863
 40
0.5678619051
 40
0.5837844122
 40
0.599749227
 40
0.6157529554
 40
0.6478538688
 40
0.68006331
 40
0.6962017217
 40
0.7123534143
 40
0.7285133748
 40
0.7446766467
 40
0.7608382123
 40
0.7769928645
 40
0.7931354818
 40
0.809261362
 40
0.8414363816
 40
0.8574855141
 40
0.8735004405
 40
0.8894768193
 40
0.905410842
 40
0.9371365301
 40
0.9529357704
 40
0.9686861165
 40
1.0
 40
1.0
 40
1.0
 40
1.0
 10
10.8087111952
 20
7.5712633364
 30
0.0
 10
10.8087111952
 20
7.5478726571
 30
0.0
 10
10.8069891405
 20
7.5128013067
 30
0.0
 10
10.8012376724
 20
7.4664981494
 30
0.0
 10
10.7952153544
 20
7.4321832392
 30
0.0
 10
10.7874945722
 20
7.3983303231
 30
0.0
 10
10.7780981327
 20
7.3650167915
 30
0.0
 10
10.767045379
 20
7.3323195923
 30
0.0
 10
10.750157503
 20
7.2897105314
 30
0.0
 10
10.7250522757
 20
7.2383256626
 30
0.0
 10
10.6947877875
 20
7.1899237505
 30
0.0
 10
10.6677187208
 20
7.1533608218
 30
0.0
 10
10.6460342629
 20
7.127077908
 30
0.0
 10
10.6230113059
 20
7.101986771
 30
0.0
 10
10.5987083639
 20
7.0781443322
 30
0.0
 10
10.5731809857
 20
7.0556091493
 30
0.0
 10
10.537587235
 20
7.0273780388
 30
0.0
 10
10.4997763241
 20
7.0019611083
 30
0.0
 10
10.4601099114
 20
6.9795984493
 30
0.0
 10
10.4294412588
 20
6.9643550491
 30
0.0
 10
10.3979597951
 20
6.9506925425
 30
0.0
 10
10.3657383767
 20
6.9386462816
 30
0.0
 10
10.3328548537
 20
6.9282469541
 30
0.0
 10
10.2993899772
 20
6.9195146977
 30
0.0
 10
10.2654237492
 20
6.912471678
 30
0.0
 10
10.2310374937
 20
6.9071395162
 30
0.0
 10
10.1963140819
 20
6.9035262163
 30
0.0
 10
10.14961062
 20
6.9010058838
 30
0.0
 10
10.0907859438
 20
6.9022180511
 30
0.0
 10
10.0321666778
 20
6.9091800205
 30
0.0
 10
9.9856237429
 20
6.918155167
 30
0.0
 10
9.9509053244
 20
6.9265895008
 30
0.0
 10
9.9165251464
 20
6.9366949053
 30
0.0
 10
9.8825666624
 20
6.9484516613
 30
0.0
 10
9.8491099127
 20
6.961827764
 30
0.0
 10
9.8052391823
 20
6.9817928309
 30
0.0
 10
9.7520671648
 20
7.010644263
 30
0.0
 10
9.7016999256
 20
7.0443323976
 30
0.0
 10
9.6633234515
 20
7.0740262854
 30
0.0
 10
9.6355464801
 20
7.0976304525
 30
0.0
 10
9.6088657855
 20
7.1224935255
 30
0.0
 10
9.5833483988
 20
7.1485597805
 30
0.0
 10
9.5590534324
 20
7.1757635794
 30
0.0
 10
9.5360378206
 20
7.2040376459
 30
0.0
 10
9.5143594397
 20
7.2333176981
 30
0.0
 10
9.4873340626
 20
7.2735652421
 30
0.0
 10
9.4631451271
 20
7.3155784557
 30
0.0
 10
9.4420090498
 20
7.3590373649
 30
0.0
 10
9.4277281665
 20
7.3922402918
 30
0.0
 10
9.4150428954
 20
7.4259927727
 30
0.0
 10
9.4003268502
 20
7.4715473781
 30
0.0
 10
9.3888819395
 20
7.5179690734
 30
0.0
 10
9.3808361771
 20
7.5648877524
 30
0.0
 10
9.3750964163
 20
7.6118294524
 30
0.0
 10
9.3733453323
 20
7.6472557826
 30
0.0
 10
9.3733453323
 20
7.670806297
 30
0.0
  0
SPLINE
  5
395
100
AcDbEntity
  8
0
100
AcDbSpline
 62
7
  6
CONTINUOUS
 70
0
 71
3
 72
40
 73
36
 74
0
 42
0.0000001
 43
0.0000001
 44
0.0000000001
 40
0.0
 40
0.0
 40
0.0
 40
0.0
 40
0.0310620086
 40
0.0623049682
 40
0.0936958361
 40
0.1252229303
 40
0.1568824331
 40
0.1886628609
 40
0.2205451027
 40
0.2525097501
 40
0.2845369867
 40
0.3166060343
 40
0.3486941452
 40
0.3807781103
 40
0.4128353428
 40
0.4448433979
 40
0.4767813936
 40
0.5086292017
 40
0.5403690783
 40
0.5719850983
 40
0.6034640434
 40
0.634795663
 40
0.6659724738
 40
0.6969908504
 40
0.7278499445
 40
0.7585531441
 40
0.7738508481
 40
0.7891122135
 40
0.8195262038
 40
0.8498136397
 40
0.879990757
 40
0.9100762345
 40
0.940090949
 40
0.9700576571
 40
1.0
 40
1.0
 40
1.0
 40
1.0
 10
9.44192607
 20
7.6660502067
 30
0.0
 10
9.44192607
 20
7.6499709601
 30
0.0
 10
9.4431301821
 20
7.617706656
 30
0.0
 10
9.448482349
 20
7.5694601013
 30
0.0
 10
9.4573734363
 20
7.521491508
 30
0.0
 10
9.4697460949
 20
7.4740795234
 30
0.0
 10
9.4855342958
 20
7.4274803176
 30
0.0
 10
9.5046486019
 20
7.3819450969
 30
0.0
 10
9.5269828699
 20
7.3377229375
 30
0.0
 10
9.5524204199
 20
7.295061672
 30
0.0
 10
9.5808128808
 20
7.2541896987
 30
0.0
 10
9.6120139576
 20
7.2153375618
 30
0.0
 10
9.6458421336
 20
7.1787101092
 30
0.0
 10
9.6821214157
 20
7.1445176013
 30
0.0
 10
9.7206446358
 20
7.1129400028
 30
0.0
 10
9.7612057306
 20
7.0841565002
 30
0.0
 10
9.8035793796
 20
7.0583222879
 30
0.0
 10
9.8475333713
 20
7.0355787613
 30
0.0
 10
9.8928282016
 20
7.016055465
 30
0.0
 10
9.9392123088
 20
6.9998519417
 30
0.0
 10
9.9864346137
 20
6.9870684318
 30
0.0
 10
10.034232519
 20
6.977762882
 30
0.0
 10
10.0823461088
 20
6.9720001018
 30
0.0
 10
10.1305097142
 20
6.9698001557
 30
0.0
 10
10.1784578437
 20
6.9711851489
 30
0.0
 10
10.2180701288
 20
6.9753224096
 30
0.0
 10
10.2493787057
 20
6.9804091431
 30
0.0
 10
10.2803230621
 20
6.9866595627
 30
0.0
 10
10.3183971202
 20
6.9966550769
 30
0.0
 10
10.362883543
 20
7.0120950877
 30
0.0
 10
10.4058755903
 20
7.0308912961
 30
0.0
 10
10.4471393331
 20
7.0529295746
 30
0.0
 10
10.4864418739
 20
7.0781015582
 30
0.0
 10
10.523570803
 20
7.1062543895
 30
0.0
 10
10.5467431411
 20
7.1269228745
 30
0.0
 10
10.5578911847
 20
7.1376913623
 30
0.0
  0
SPLINE
  5
396
100
AcDbEntity
  8
0
100
AcDbSpline
 62
7
  6
CONTINUOUS
 70
0
 71
3
 72
18
 73
14
 74
0
 42
0.0000001
 43
0.0000001
 44
0.0000000001
 40
0.0
 40
0.0
 40
0.0
 40
0.0
 40
0.127266302
 40
0.2537984796
 40
0.3795172855
 40
0.4421215388
 40
0.5045655201
 40
0.566862383
 40
0.6290243506
 40
0.6910649515
 40
0.7530008108
 40
0.8765946026
 40
1.0
 40
1.0
 40
1.0
 40
1.0
 10
9.4502082726
 20
7.6740502006
 30
0.0
 10
9.4502082726
 20
7.6942490174
 30
0.0
 10
9.4520968888
 20
7.7345568166
 30
0.0
 10
9.4606045288
 20
7.7942731831
 30
0.0
 10
9.4724003933
 20
7.8429216321
 30
0.0
 10
9.4845789076
 20
7.8808261015
 30
0.0
 10
9.4950539912
 20
7.9086673247
 30
0.0
 10
9.506855126
 20
7.935895674
 30
0.0
 10
9.5199553428
 20
7.9624521504
 30
0.0
 10
9.5343292913
 20
7.9882766422
 30
0.0
 10
9.5551328259
 20
8.0216263736
 30
0.0
 10
9.5841665945
 20
8.0612437152
 30
0.0
 10
9.6104463454
 20
8.0904353036
 30
0.0
 10
9.6242638715
 20
8.1043165491
 30
0.0
  0
SPLINE
  5
397
100
AcDbEntity
  8
0
100
AcDbSpline
 62
7
  6
CONTINUOUS
 70
0
 71
3
 72
40
 73
36
 74
0
 42
0.0000001
 43
0.0000001
 44
0.0000000001
 40
0.0
 40
0.0
 40
0.0
 40
0.0
 40
0.031293454
 40
0.0628109413
 40
0.0945048442
 40
0.1263618569
 40
0.1583703991
 40
0.1905028887
 40
0.2227267173
 40
0.2550094841
 40
0.2873174755
 40
0.319614672
 40
0.3518652557
 40
0.3840354763
 40
0.4160939241
 40
0.4320763664
 40
0.448020696
 40
0.4797765366
 40
0.5113513093
 40
0.5427324741
 40
0.5739144775
 40
0.6048979262
 40
0.6356908392
 40
0.6663073927
 40
0.6967685384
 40
0.7271004687
 40
0.7573345762
 40
0.7875055922
 40
0.8176502739
 40
0.8478064648
 40
0.8780128402
 40
0.9083059916
 40
0.938715695
 40
0.9692695074
 40
1.0
 40
1.0
 40
1.0
 40
1.0
 10
9.6269727093
 20
7.6617915453
 30
0.0
 10
9.6269727093
 20
7.6472066152
 30
0.0
 10
9.6283364131
 20
7.617915477
 30
0.0
 10
9.6343772334
 20
7.5742280413
 30
0.0
 10
9.644395635
 20
7.5310050994
 30
0.0
 10
9.6582873143
 20
7.4886284304
 30
0.0
 10
9.6759440354
 20
7.4474554205
 30
0.0
 10
9.6972010854
 20
7.407827123
 30
0.0
 10
9.7218933278
 20
7.3700907972
 30
0.0
 10
9.7497961216
 20
7.334558798
 30
0.0
 10
9.7806844146
 20
7.3015423998
 30
0.0
 10
9.8142832291
 20
7.271311139
 30
0.0
 10
9.8503186563
 20
7.2441353919
 30
0.0
 10
9.8884716819
 20
7.2202341741
 30
0.0
 10
9.9218105522
 20
7.2032053961
 30
0.0
 10
9.9492113305
 20
7.1914146903
 30
0.0
 10
9.9769737242
 20
7.1808942799
 30
0.0
 10
10.0123698652
 20
7.1701160069
 30
0.0
 10
10.0556359501
 20
7.1610732023
 30
0.0
 10
10.0992818083
 20
7.1560298839
 30
0.0
 10
10.1429314503
 20
7.155014051
 30
0.0
 10
10.1862135313
 20
7.1580525713
 30
0.0
 10
10.2287594458
 20
7.1651037939
 30
0.0
 10
10.2702027723
 20
7.1761258167
 30
0.0
 10
10.3101932465
 20
7.1910088359
 30
0.0
 10
10.348382341
 20
7.2096429067
 30
0.0
 10
10.3844502905
 20
7.2318538013
 30
0.0
 10
10.418078317
 20
7.2574668193
 30
0.0
 10
10.44898878
 20
7.2862480534
 30
0.0
 10
10.476904965
 20
7.3179638048
 30
0.0
 10
10.5016004137
 20
7.3523319359
 30
0.0
 10
10.5228492965
 20
7.3890668917
 30
0.0
 10
10.5404876969
 20
7.4278436684
 30
0.0
 10
10.5543499623
 20
7.4683355746
 30
0.0
 10
10.5609855743
 20
7.4961694403
 30
0.0
 10
10.5636433718
 20
7.5102432306
 30
0.0
  0
SPLINE
  5
398
100
AcDbEntity
  8
0
100
AcDbSpline
 62
7
  6
CONTINUOUS
 70
0
 71
3
 72
43
 73
39
 74
0
 42
0.0000001
 43
0.0000001
 44
0.0000000001
 40
0.0
 40
0.0
 40
0.0
 40
0.0
 40
0.0626737677
 40
0.0943178315
 40
0.1261176288
 40
0.1580646486
 40
0.1901371318
 40
0.2223057665
 40
0.2545413487
 40
0.2706780344
 40
0.2868199514
 40
0.3190966177
 40
0.3352298684
 40
0.351352196
 40
0.3835421383
 40
0.3996089824
 40
0.4156500531
 40
0.4476353394
 40
0.4794806646
 40
0.5111663811
 40
0.5426771167
 40
0.5740028584
 40
0.6051391801
 40
0.6360872502
 40
0.6668544856
 40
0.6974535326
 40
0.7279030842
 40
0.7582260459
 40
0.7884502943
 40
0.8186062727
 40
0.8487274135
 40
0.8637895554
 40
0.8788558505
 40
0.9090099097
 40
0.9241142925
 40
0.9392396341
 40
0.9695587486
 40
1.0
 40
1.0
 40
1.0
 40
1.0
 10
9.720727518
 20
7.7094153162
 30
0.0
 10
9.720727518
 20
7.6840630304
 30
0.0
 10
9.7241169037
 20
7.6458074356
 30
0.0
 10
9.735093442
 20
7.5959453452
 30
0.0
 10
9.7465624784
 20
7.55904975
 30
0.0
 10
9.7611553036
 20
7.5230942336
 30
0.0
 10
9.7787503738
 20
7.4883399299
 30
0.0
 10
9.7992208424
 20
7.4550627617
 30
0.0
 10
9.8185371739
 20
7.4287776247
 30
0.0
 10
9.8352579394
 20
7.4087328526
 30
0.0
 10
9.8527987163
 20
7.3893799528
 30
0.0
 10
9.8715132733
 20
7.3711203514
 30
0.0
 10
9.8912863949
 20
7.3540687125
 30
0.0
 10
9.9117167491
 20
7.3378667781
 30
0.0
 10
9.9331076312
 20
7.3229522132
 30
0.0
 10
9.9553274947
 20
7.3094219028
 30
0.0
 10
9.978017917
 20
7.2968654478
 30
0.0
 10
10.0072426196
 20
7.2829941216
 30
0.0
 10
10.0434529374
 20
7.2693879291
 30
0.0
 10
10.0805016452
 20
7.2589459433
 30
0.0
 10
10.1180997602
 20
7.2517397336
 30
0.0
 10
10.1559603043
 20
7.2478376189
 30
0.0
 10
10.193790267
 20
7.2472569224
 30
0.0
 10
10.2312981676
 20
7.2500177708
 30
0.0
 10
10.26819569
 20
7.2560845588
 30
0.0
 10
10.3041954056
 20
7.2654267173
 30
0.0
 10
10.339022712
 20
7.2779581313
 30
0.0
 10
10.3724033265
 20
7.2935964433
 30
0.0
 10
10.404084606
 20
7.3122093614
 30
0.0
 10
10.4338140548
 20
7.3336624683
 30
0.0
 10
10.4567810184
 20
7.3537686183
 30
0.0
 10
10.4739454543
 20
7.3710818648
 30
0.0
 10
10.4902831841
 20
7.3891942133
 30
0.0
 10
10.5053369465
 20
7.4084537239
 30
0.0
 10
10.5189944876
 20
7.4287131136
 30
0.0
 10
10.5317230408
 20
7.4496482173
 30
0.0
 10
10.5458208972
 20
7.4769674761
 30
0.0
 10
10.5550408871
 20
7.4997942348
 30
0.0
 10
10.5591247522
 20
7.5114111587
 30
0.0
  0
SPLINE
  5
399
100
AcDbEntity
  8
0
100
AcDbSpline
 62
7
  6
CONTINUOUS
 70
0
 71
3
 72
23
 73
19
 74
0
 42
0.0000001
 43
0.0000001
 44
0.0000000001
 40
0.0
 40
0.0
 40
0.0
 40
0.0
 40
0.0638706192
 40
0.1274726225
 40
0.1907522723
 40
0.2537090024
 40
0.3163847242
 40
0.3788242622
 40
0.4410644925
 40
0.5031441026
 40
0.5651108072
 40
0.6270151254
 40
0.6889101896
 40
0.7508477345
 40
0.8128784067
 40
0.8750515812
 40
0.9374115768
 40
1.0
 40
1.0
 40
1.0
 40
1.0
 10
9.720727518
 20
7.7094153162
 30
0.0
 10
9.720727518
 20
7.7202055459
 30
0.0
 10
9.721541398
 20
7.7417495775
 30
0.0
 10
9.7251999015
 20
7.7737967544
 30
0.0
 10
9.7312838921
 20
7.8053186203
 30
0.0
 10
9.7397601631
 20
7.8361205543
 30
0.0
 10
9.7505737705
 20
7.8660314957
 30
0.0
 10
9.763671698
 20
7.8948823935
 30
0.0
 10
9.7789697113
 20
7.9225147697
 30
0.0
 10
9.7963904552
 20
7.9487652013
 30
0.0
 10
9.8158307059
 20
7.9734849944
 30
0.0
 10
9.8371780618
 20
7.9965358277
 30
0.0
 10
9.8603167727
 20
8.0177804579
 30
0.0
 10
9.8851072833
 20
8.0371066903
 30
0.0
 10
9.9114153356
 20
8.0543955794
 30
0.0
 10
9.9390871068
 20
8.0695545826
 30
0.0
 10
9.9679634467
 20
8.0824968063
 30
0.0
 10
9.9878750749
 20
8.0895819372
 30
0.0
 10
9.9979679852
 20
8.0927338471
 30
0.0
  0
SPLINE
  5
39A
100
AcDbEntity
  8
0
100
AcDbSpline
 62
7
  6
CONTINUOUS
 70
0
 71
3
 72
38
 73
34
 74
0
 42
0.0000001
 43
0.0000001
 44
0.0000000001
 40
0.0
 40
0.0
 40
0.0
 40
0.0
 40
0.0310541863
 40
0.0622996765
 40
0.0937001149
 40
0.1252324483
 40
0.1568913713
 40
0.1886701778
 40
0.2205538637
 40
0.2525211035
 40
0.2845505261
 40
0.3166207552
 40
0.3487094159
 40
0.3807944621
 40
0.4128527755
 40
0.4448618794
 40
0.5086110611
 40
0.5403521109
 40
0.5719696856
 40
0.603449941
 40
0.6347830465
 40
0.665961603
 40
0.6969812773
 40
0.7278422256
 40
0.758546911
 40
0.789102005
 40
0.8195177095
 40
0.8498065716
 40
0.879985287
 40
0.910072301
 40
0.9400884015
 40
0.970056597
 40
1.0
 40
1.0
 40
1.0
 40
1.0
 10
9.791840574
 20
7.7200416832
 30
0.0
 10
9.791840574
 20
7.7107605416
 30
0.0
 10
9.7925367984
 20
7.6921340732
 30
0.0
 10
9.7956279065
 20
7.6642775046
 30
0.0
 10
9.8007579704
 20
7.6365765216
 30
0.0
 10
9.807904834
 20
7.6091992958
 30
0.0
 10
9.8170183605
 20
7.5822933148
 30
0.0
 10
9.8280563625
 20
7.5560042281
 30
0.0
 10
9.8409532686
 20
7.5304726376
 30
0.0
 10
9.8556367174
 20
7.5058377014
 30
0.0
 10
9.8720340822
 20
7.4822410349
 30
0.0
 10
9.8900463707
 20
7.4598065696
 30
0.0
 10
9.909579303
 20
7.4386597835
 30
0.0
 10
9.9305261378
 20
7.4189188043
 30
0.0
 10
9.9527688836
 20
7.4006843971
 30
0.0
 10
9.9839412296
 20
7.3785643796
 30
0.0
 10
10.017273502
 20
7.3597912831
 30
0.0
 10
10.0521829301
 20
7.3447480236
 30
0.0
 10
10.0789654776
 20
7.3353915805
 30
0.0
 10
10.1062301211
 20
7.3280086909
 30
0.0
 10
10.1338287797
 20
7.3226399944
 30
0.0
 10
10.1616083099
 20
7.3193078613
 30
0.0
 10
10.1894175468
 20
7.3180414125
 30
0.0
 10
10.2171026217
 20
7.3188404867
 30
0.0
 10
10.2445121484
 20
7.3217009378
 30
0.0
 10
10.2714939022
 20
7.3266150855
 30
0.0
 10
10.2979012392
 20
7.3335455126
 30
0.0
 10
10.3235872795
 20
7.3424621325
 30
0.0
 10
10.3484098813
 20
7.3533152645
 30
0.0
 10
10.3722354656
 20
7.3660391422
 30
0.0
 10
10.394927729
 20
7.3805739742
 30
0.0
 10
10.416364075
 20
7.3968304426
 30
0.0
 10
10.4297449317
 20
7.4087623174
 30
0.0
 10
10.4361814236
 20
7.4149799603
 30
0.0
  0
SPLINE
  5
39B
100
AcDbEntity
  8
0
100
AcDbSpline
 62
7
  6
CONTINUOUS
 70
0
 71
3
 72
11
 73
7
 74
0
 42
0.0000001
 43
0.0000001
 44
0.0000000001
 40
0.0
 40
0.0
 40
0.0
 40
0.0
 40
0.2519725934
 40
0.5027459012
 40
0.7520693467
 40
1.0
 40
1.0
 40
1.0
 40
1.0
 10
10.0076790252
 20
7.9285256298
 30
0.0
 10
10.0076790252
 20
7.9391502387
 30
0.0
 10
10.008586653
 20
7.9603600604
 30
0.0
 10
10.0126644607
 20
7.9918470984
 30
0.0
 10
10.0194424749
 20
8.0226915863
 30
0.0
 10
10.0257443458
 20
8.0427233074
 30
0.0
 10
10.0293237422
 20
8.0525456161
 30
0.0
  0
SPLINE
  5
39C
100
AcDbEntity
  8
0
100
AcDbSpline
 62
7
  6
CONTINUOUS
 70
0
 71
3
 72
23
 73
19
 74
0
 42
0.0000001
 43
0.0000001
 44
0.0000000001
 40
0.0
 40
0.0
 40
0.0
 40
0.0
 40
0.0612544175
 40
0.1230015615
 40
0.1851192151
 40
0.2475547012
 40
0.3102832758
 40
0.373257443
 40
0.4363996216
 40
0.4996320162
 40
0.5628783093
 40
0.6260617667
 40
0.6891030802
 40
0.7519223271
 40
0.8144688211
 40
0.8767138857
 40
0.9386001607
 40
1.0
 40
1.0
 40
1.0
 40
1.0
 10
10.2147342613
 20
7.9285256417
 30
0.0
 10
10.2147342613
 20
7.9225699153
 30
0.0
 10
10.215327775
 20
7.9106028784
 30
0.0
 10
10.2179472905
 20
7.8927689842
 30
0.0
 10
10.2222886929
 20
7.8751544314
 30
0.0
 10
10.2283044152
 20
7.857939279
 30
0.0
 10
10.2359359587
 20
7.8412855162
 30
0.0
 10
10.2451106949
 20
7.8253507921
 30
0.0
 10
10.2557360591
 20
7.8102843944
 30
0.0
 10
10.2677183379
 20
7.7962384175
 30
0.0
 10
10.2809335657
 20
7.7833399761
 30
0.0
 10
10.295263156
 20
7.7717212697
 30
0.0
 10
10.3105615354
 20
7.7614860378
 30
0.0
 10
10.3266858048
 20
7.7527367361
 30
0.0
 10
10.3434833588
 20
7.7455565298
 30
0.0
 10
10.3607962675
 20
7.740014832
 30
0.0
 10
10.3784478124
 20
7.7361714262
 30
0.0
 10
10.3903727661
 20
7.7347510039
 30
0.0
 10
10.3963283274
 20
7.7343379843
 30
0.0
  0
SPLINE
  5
39D
100
AcDbEntity
  8
0
100
AcDbSpline
 62
7
  6
CONTINUOUS
 70
0
 71
3
 72
15
 73
11
 74
0
 42
0.0000001
 43
0.0000001
 44
0.0000000001
 40
0.0
 40
0.0
 40
0.0
 40
0.0
 40
0.1273582742
 40
0.254046594
 40
0.3798939519
 40
0.5049354596
 40
0.6293207811
 40
0.7532026554
 40
0.87671158
 40
1.0
 40
1.0
 40
1.0
 40
1.0
 10
10.3963283274
 20
7.7343379843
 30
0.0
 10
10.4021797639
 20
7.7339321858
 30
0.0
 10
10.4138990872
 20
7.7336887015
 30
0.0
 10
10.4313706088
 20
7.7350300433
 30
0.0
 10
10.4485200707
 20
7.7380813658
 30
0.0
 10
10.4651741324
 20
7.7428110753
 30
0.0
 10
10.4811786073
 20
7.7491732875
 30
0.0
 10
10.4963841472
 20
7.7571110506
 30
0.0
 10
10.5106493422
 20
7.7665419279
 30
0.0
 10
10.5194453067
 20
7.7737791358
 30
0.0
 10
10.5236368782
 20
7.7776094124
 30
0.0
  0
SPLINE
  5
39E
100
AcDbEntity
  8
0
100
AcDbSpline
 62
7
  6
CONTINUOUS
 70
0
 71
3
 72
15
 73
11
 74
0
 42
0.0000001
 43
0.0000001
 44
0.0000000001
 40
0.0
 40
0.0
 40
0.0
 40
0.0
 40
0.1234131278
 40
0.2470291401
 40
0.3709828308
 40
0.4954013941
 40
0.6204363073
 40
0.7462298719
 40
0.872802417
 40
1.0
 40
1.0
 40
1.0
 40
1.0
 10
10.2626347129
 20
8.0480947828
 30
0.0
 10
10.2588283932
 20
8.0442183647
 30
0.0
 10
10.2515911364
 20
8.0360734108
 30
0.0
 10
10.2419981506
 20
8.022825537
 30
0.0
 10
10.2337322894
 20
8.0086585372
 30
0.0
 10
10.2268749669
 20
7.9936906054
 30
0.0
 10
10.2214783503
 20
7.9780510241
 30
0.0
 10
10.2175940888
 20
7.9618712997
 30
0.0
 10
10.2152556067
 20
7.9453031709
 30
0.0
 10
10.2147342613
 20
7.9341249785
 30
0.0
 10
10.2147342613
 20
7.9285256417
 30
0.0
  0
SPLINE
  5
39F
100
AcDbEntity
  8
0
100
AcDbSpline
 62
7
  6
CONTINUOUS
 70
0
 71
3
 72
15
 73
11
 74
0
 42
0.0000001
 43
0.0000001
 44
0.0000000001
 40
0.0
 40
0.0
 40
0.0
 40
0.0
 40
0.1234389364
 40
0.2470473381
 40
0.370987441
 40
0.4953935886
 40
0.620395394
 40
0.7461421851
 40
0.8727199755
 40
1.0
 40
1.0
 40
1.0
 40
1.0
 10
9.8970582101
 20
7.9731213485
 30
0.0
 10
9.8887275557
 20
7.9650739471
 30
0.0
 10
9.8728729652
 20
7.9480959808
 30
0.0
 10
9.8518116717
 20
7.9203055421
 30
0.0
 10
9.8336594289
 20
7.8904235387
 30
0.0
 10
9.8185712082
 20
7.8587403281
 30
0.0
 10
9.8066982563
 20
7.8255380696
 30
0.0
 10
9.7981385034
 20
7.7911215798
 30
0.0
 10
9.7929869708
 20
7.7558214301
 30
0.0
 10
9.791840574
 20
7.7319848739
 30
0.0
 10
9.791840574
 20
7.7200416832
 30
0.0
  0
SPLINE
  5
3A0
100
AcDbEntity
  8
0
100
AcDbSpline
 62
7
  6
CONTINUOUS
 70
0
 71
3
 72
23
 73
19
 74
0
 42
0.0000001
 43
0.0000001
 44
0.0000000001
 40
0.0
 40
0.0
 40
0.0
 40
0.0
 40
0.0637757517
 40
0.1273453038
 40
0.1907021142
 40
0.2538559682
 40
0.3168132565
 40
0.3795821027
 40
0.442173382
 40
0.5045993411
 40
0.5668738656
 40
0.6290123776
 40
0.6910316412
 40
0.7529496359
 40
0.8147853464
 40
0.8765585919
 40
0.9382898467
 40
1.0
 40
1.0
 40
1.0
 40
1.0
 10
7.5536750706
 20
8.2021396789
 30
0.0
 10
7.5536750706
 20
8.1968322603
 30
0.0
 10
7.5534209797
 20
8.1862327863
 30
0.0
 10
7.552274432
 20
8.1703980889
 30
0.0
 10
7.5503653085
 20
8.1546888307
 30
0.0
 10
7.5476981777
 20
8.1391421074
 30
0.0
 10
7.5442791487
 20
8.1237932992
 30
0.0
 10
7.5401160413
 20
8.1086778889
 30
0.0
 10
7.5352183636
 20
8.0938307649
 30
0.0
 10
7.5295974417
 20
8.0792861254
 30
0.0
 10
7.5232662255
 20
8.0650775048
 30
0.0
 10
7.5162391886
 20
8.0512377239
 30
0.0
 10
7.5085325862
 20
8.0377986779
 30
0.0
 10
7.5001641914
 20
8.0247913407
 30
0.0
 10
7.4911532223
 20
8.0122458106
 30
0.0
 10
7.4815204035
 20
8.0001909
 30
0.0
 10
7.4712883773
 20
7.9886547449
 30
0.0
 10
7.4640818243
 20
7.9813262999
 30
0.0
 10
7.4603880675
 20
7.9777584265
 30
0.0
  0
SPLINE
  5
3A1
100
AcDbEntity
  8
0
100
AcDbSpline
 62
7
  6
CONTINUOUS
 70
0
 71
3
 72
23
 73
19
 74
0
 42
0.0000001
 43
0.0000001
 44
0.0000000001
 40
0.0
 40
0.0
 40
0.0
 40
0.0
 40
0.0637757517
 40
0.1273453038
 40
0.1907021142
 40
0.2538559682
 40
0.3168132565
 40
0.3795821027
 40
0.442173382
 40
0.5045993411
 40
0.5668738656
 40
0.6290123776
 40
0.6910316412
 40
0.7529496359
 40
0.8147853464
 40
0.8765585919
 40
0.9382898467
 40
1.0
 40
1.0
 40
1.0
 40
1.0
 10
14.0756065537
 20
7.7498421943
 30
0.0
 10
14.0756065537
 20
7.7445347758
 30
0.0
 10
14.0753524628
 20
7.7339353018
 30
0.0
 10
14.0742059151
 20
7.7181006043
 30
0.0
 10
14.0722967916
 20
7.7023913461
 30
0.0
 10
14.0696296608
 20
7.6868446228
 30
0.0
 10
14.0662106318
 20
7.6714958146
 30
0.0
 10
14.0620475244
 20
7.6563804044
 30
0.0
 10
14.0571498467
 20
7.6415332804
 30
0.0
 10
14.0515289248
 20
7.6269886409
 30
0.0
 10
14.0451977086
 20
7.6127800203
 30
0.0
 10
14.0381706716
 20
7.5989402393
 30
0.0
 10
14.0304640693
 20
7.5855011933
 30
0.0
 10
14.0220956745
 20
7.5724938561
 30
0.0
 10
14.0130847054
 20
7.559948326
 30
0.0
 10
14.0034518866
 20
7.5478934154
 30
0.0
 10
13.9932198604
 20
7.5363572603
 30
0.0
 10
13.9860133074
 20
7.5290288153
 30
0.0
 10
13.9823195505
 20
7.5254609419
 30
0.0
  0
SPLINE
  5
3A2
100
AcDbEntity
  8
0
100
AcDbSpline
 62
7
  6
CONTINUOUS
 70
0
 71
3
 72
51
 73
47
 74
0
 42
0.0000001
 43
0.0000001
 44
0.0000000001
 40
0.0
 40
0.0
 40
0.0
 40
0.0
 40
0.0481977053
 40
0.095830135
 40
0.1428201362
 40
0.1890981738
 40
0.2345933851
 40
0.2792370546
 40
0.3229625179
 40
0.3657049562
 40
0.4074018956
 40
0.4479933021
 40
0.4874217525
 40
0.5256327531
 40
0.5625750279
 40
0.5982007274
 40
0.6324657774
 40
0.6653303865
 40
0.6967594376
 40
0.7267230069
 40
0.755197147
 40
0.7688706186
 40
0.7821659217
 40
0.7950822342
 40
0.8076192537
 40
0.8197772583
 40
0.831557354
 40
0.8429613076
 40
0.8539917351
 40
0.8646522838
 40
0.8749475169
 40
0.8848832127
 40
0.8944664754
 40
0.9037057278
 40
0.9126110859
 40
0.9211944161
 40
0.9294694595
 40
0.9374522112
 40
0.9451609368
 40
0.9598350083
 40
0.9668568308
 40
0.9737036631
 40
0.9804068758
 40
0.9870000868
 40
0.9935188331
 40
1.0
 40
1.0
 40
1.0
 40
1.0
 10
12.6769152301
 20
11.1382942112
 30
0.0
 10
12.6656360664
 20
11.1390764239
 30
0.0
 10
12.6432185355
 20
11.1407575986
 30
0.0
 10
12.6098398885
 20
11.1436482727
 30
0.0
 10
12.5769458522
 20
11.146889531
 30
0.0
 10
12.5445919895
 20
11.1504758027
 30
0.0
 10
12.5128319853
 20
11.1544011422
 30
0.0
 10
12.4817190472
 20
11.1586589232
 30
0.0
 10
12.4513051836
 20
11.1632419835
 30
0.0
 10
12.42164121
 20
11.1681426512
 30
0.0
 10
12.3927766927
 20
11.1733526655
 30
0.0
 10
12.3647598387
 20
11.178863258
 30
0.0
 10
12.3376374363
 20
11.1846651804
 30
0.0
 10
12.311454753
 20
11.1907486798
 30
0.0
 10
12.2862554477
 20
11.1971035031
 30
0.0
 10
12.2620815198
 20
11.2037189656
 30
0.0
 10
12.2389732202
 20
11.210583974
 30
0.0
 10
12.2169689735
 20
11.2176869724
 30
0.0
 10
12.1961052192
 20
11.2250160394
 30
0.0
 10
12.1764167178
 20
11.2325588948
 30
0.0
 10
12.1608120264
 20
11.239097604
 30
0.0
 10
12.1489516583
 20
11.2444360683
 30
0.0
 10
12.1404907029
 20
11.2484313932
 30
0.0
 10
12.1323471171
 20
11.2524705929
 30
0.0
 10
12.1245242662
 20
11.2565520172
 30
0.0
 10
12.1170254261
 20
11.2606740248
 30
0.0
 10
12.1098536682
 20
11.2648348414
 30
0.0
 10
12.1030119713
 20
11.269032781
 30
0.0
 10
12.0965031842
 20
11.2732661545
 30
0.0
 10
12.0903299494
 20
11.2775331587
 30
0.0
 10
12.0844948459
 20
11.2818321194
 30
0.0
 10
12.0790002823
 20
11.2861613017
 30
0.0
 10
12.0738484797
 20
11.290518914
 30
0.0
 10
12.0690416266
 20
11.2949033109
 30
0.0
 10
12.0645816995
 20
11.2993127232
 30
0.0
 10
12.0604705146
 20
11.3037454481
 30
0.0
 10
12.0567099809
 20
11.3081997315
 30
0.0
 10
12.0533014155
 20
11.3126742752
 30
0.0
 10
12.0492947949
 20
11.3185664602
 30
0.0
 10
12.0459050697
 20
11.3245979188
 30
0.0
 10
12.0432193904
 20
11.3307359502
 30
0.0
 10
12.0415932975
 20
11.3352839309
 30
0.0
 10
12.0403273175
 20
11.3398408085
 30
0.0
 10
12.0394223564
 20
11.3444048068
 30
0.0
 10
12.0388791264
 20
11.34897324
 30
0.0
 10
12.0387582405
 20
11.3520241299
 30
0.0
 10
12.0387582463
 20
11.3535444869
 30
0.0
  0
SPLINE
  5
3A3
100
AcDbEntity
  8
0
100
AcDbSpline
 62
7
  6
CONTINUOUS
 70
0
 71
3
 72
59
 73
55
 74
0
 42
0.0000001
 43
0.0000001
 44
0.0000000001
 40
0.0
 40
0.0
 40
0.0
 40
0.0
 40
0.0417736767
 40
0.0840362765
 40
0.1266574811
 40
0.1695051262
 40
0.2124463914
 40
0.2553479967
 40
0.2980768488
 40
0.3405005256
 40
0.3824878146
 40
0.4239092383
 40
0.464637589
 40
0.5045484688
 40
0.5435208413
 40
0.5814375992
 40
0.6181861539
 40
0.6360888024
 40
0.6536595531
 40
0.6708859017
 40
0.6877557363
 40
0.7042573867
 40
0.720379648
 40
0.7361117919
 40
0.7514436399
 40
0.7663655339
 40
0.7808684645
 40
0.7949440033
 40
0.8085844873
 40
0.8217829218
 40
0.83453322
 40
0.8468300923
 40
0.8586693371
 40
0.8700477415
 40
0.8809634199
 40
0.8914157604
 40
0.9014058112
 40
0.9109363168
 40
0.9200121632
 40
0.9286405545
 40
0.9368315416
 40
0.9445983908
 40
0.9519582219
 40
0.9589325919
 40
0.9655482195
 40
0.9718376843
 40
0.9778400275
 40
0.9836011664
 40
0.9864084736
 40
0.9891757902
 40
0.9919106587
 40
0.9946209114
 40
0.9973146138
 40
1.0
 40
1.0
 40
1.0
 40
1.0
 10
14.7384352196
 20
9.6207934635
 30
0.0
 10
14.7384352196
 20
9.6391508364
 30
0.0
 10
14.7387216141
 20
9.6760810156
 30
0.0
 10
14.7399877121
 20
9.731727966
 30
0.0
 10
14.7420891239
 20
9.7878220117
 30
0.0
 10
14.7450189607
 20
9.8441774674
 30
0.0
 10
14.7487675407
 20
9.9006078807
 30
0.0
 10
14.7533224732
 20
9.956926566
 30
0.0
 10
14.7586686693
 20
10.012947196
 30
0.0
 10
14.7647884064
 20
10.0684844417
 30
0.0
 10
14.7716613804
 20
10.1233545827
 30
0.0
 10
14.7792647744
 20
10.1773761206
 30
0.0
 10
14.7875733316
 20
10.2303703907
 30
0.0
 10
14.7965594398
 20
10.2821621388
 30
0.0
 10
14.8061932125
 20
10.3325801861
 30
0.0
 10
14.8164426163
 20
10.3814577332
 30
0.0
 10
14.8255456288
 20
10.4211079319
 30
0.0
 10
14.8331214672
 20
10.4519288127
 30
0.0
 10
14.8388861906
 20
10.4743591507
 30
0.0
 10
14.8447783055
 20
10.496286734
 30
0.0
 10
14.8507929685
 20
10.5176934479
 30
0.0
 10
14.8569251797
 20
10.5385615913
 30
0.0
 10
14.8631698489
 20
10.5588739169
 30
0.0
 10
14.8695218161
 20
10.578613638
 30
0.0
 10
14.875975782
 20
10.5977644511
 30
0.0
 10
14.88252644
 20
10.6163105365
 30
0.0
 10
14.889168301
 20
10.6342365943
 30
0.0
 10
14.8958959305
 20
10.6515278253
 30
0.0
 10
14.9027036714
 20
10.6681699898
 30
0.0
 10
14.90958598
 20
10.6841493614
 30
0.0
 10
14.9165370578
 20
10.6994528153
 30
0.0
 10
14.9235512724
 20
10.7140677479
 30
0.0
 10
14.9306227171
 20
10.7279822017
 30
0.0
 10
14.9377456941
 20
10.7411847455
 30
0.0
 10
14.9449142334
 20
10.7536646378
 30
0.0
 10
14.9521226033
 20
10.7654116671
 30
0.0
 10
14.9593648316
 20
10.7764163489
 30
0.0
 10
14.9666352023
 20
10.7866697323
 30
0.0
 10
14.973927827
 20
10.7961636125
 30
0.0
 10
14.9812370857
 20
10.8048903153
 30
0.0
 10
14.988557293
 20
10.8128428909
 30
0.0
 10
14.9958830421
 20
10.82001489
 30
0.0
 10
15.0032089862
 20
10.8264004763
 30
0.0
 10
15.010530049
 20
10.8319942173
 30
0.0
 10
15.0178412171
 20
10.8367910233
 30
0.0
 10
15.0251377737
 20
10.840786052
 30
0.0
 10
15.0324140727
 20
10.8439743376
 30
0.0
 10
15.0385099401
 20
10.8459723019
 30
0.0
 10
15.0433526099
 20
10.8471485604
 30
0.0
 10
15.046943818
 20
10.8478200179
 30
0.0
 10
15.0505241391
 20
10.8482879612
 30
0.0
 10
15.0540928909
 20
10.8485522701
 30
0.0
 10
15.0576490676
 20
10.8486127822
 30
0.0
 10
15.060012509
 20
10.8485171634
 30
0.0
 10
15.0611897701
 20
10.848435523
 30
0.0
  0
SPLINE
  5
3A4
100
AcDbEntity
  8
0
100
AcDbSpline
 62
7
  6
CONTINUOUS
 70
0
 71
3
 72
59
 73
55
 74
0
 42
0.0000001
 43
0.0000001
 44
0.0000000001
 40
0.0
 40
0.0
 40
0.0
 40
0.0
 40
0.0417736767
 40
0.0840362765
 40
0.1266574811
 40
0.1695051262
 40
0.2124463914
 40
0.2553479967
 40
0.2980768488
 40
0.3405005256
 40
0.3824878146
 40
0.4239092383
 40
0.464637589
 40
0.5045484688
 40
0.5435208413
 40
0.5814375992
 40
0.6181861539
 40
0.6360888024
 40
0.6536595531
 40
0.6708859017
 40
0.6877557363
 40
0.7042573867
 40
0.720379648
 40
0.7361117919
 40
0.7514436399
 40
0.7663655339
 40
0.7808684645
 40
0.7949440033
 40
0.8085844873
 40
0.8217829218
 40
0.83453322
 40
0.8468300923
 40
0.8586693371
 40
0.8700477415
 40
0.8809634199
 40
0.8914157604
 40
0.9014058112
 40
0.9109363168
 40
0.9200121632
 40
0.9286405545
 40
0.9368315416
 40
0.9445983908
 40
0.9519582219
 40
0.9589325919
 40
0.9655482195
 40
0.9718376843
 40
0.9778400275
 40
0.9836011664
 40
0.9864084736
 40
0.9891757902
 40
0.9919106587
 40
0.9946209114
 40
0.9973146138
 40
1.0
 40
1.0
 40
1.0
 40
1.0
 10
14.7384352196
 20
6.6013089913
 30
0.0
 10
14.7384352196
 20
6.6196663642
 30
0.0
 10
14.7387216141
 20
6.6565965434
 30
0.0
 10
14.7399877121
 20
6.7122434938
 30
0.0
 10
14.7420891239
 20
6.7683375395
 30
0.0
 10
14.7450189607
 20
6.8246929952
 30
0.0
 10
14.7487675407
 20
6.8811234085
 30
0.0
 10
14.7533224732
 20
6.9374420938
 30
0.0
 10
14.7586686693
 20
6.9934627238
 30
0.0
 10
14.7647884064
 20
7.0489999695
 30
0.0
 10
14.7716613804
 20
7.1038701105
 30
0.0
 10
14.7792647744
 20
7.1578916485
 30
0.0
 10
14.7875733316
 20
7.2108859186
 30
0.0
 10
14.7965594398
 20
7.2626776666
 30
0.0
 10
14.8061932125
 20
7.3130957139
 30
0.0
 10
14.8164426163
 20
7.361973261
 30
0.0
 10
14.8255456288
 20
7.4016234597
 30
0.0
 10
14.8331214672
 20
7.4324443405
 30
0.0
 10
14.8388861906
 20
7.4548746785
 30
0.0
 10
14.8447783055
 20
7.4768022618
 30
0.0
 10
14.8507929685
 20
7.4982089757
 30
0.0
 10
14.8569251797
 20
7.5190771191
 30
0.0
 10
14.8631698489
 20
7.5393894447
 30
0.0
 10
14.8695218161
 20
7.5591291658
 30
0.0
 10
14.875975782
 20
7.5782799789
 30
0.0
 10
14.88252644
 20
7.5968260644
 30
0.0
 10
14.889168301
 20
7.6147521221
 30
0.0
 10
14.8958959305
 20
7.6320433531
 30
0.0
 10
14.9027036714
 20
7.6486855176
 30
0.0
 10
14.90958598
 20
7.6646648892
 30
0.0
 10
14.9165370578
 20
7.6799683431
 30
0.0
 10
14.9235512724
 20
7.6945832757
 30
0.0
 10
14.9306227171
 20
7.7084977295
 30
0.0
 10
14.9377456941
 20
7.7217002734
 30
0.0
 10
14.9449142334
 20
7.7341801656
 30
0.0
 10
14.9521226033
 20
7.7459271949
 30
0.0
 10
14.9593648316
 20
7.7569318768
 30
0.0
 10
14.9666352023
 20
7.7671852601
 30
0.0
 10
14.973927827
 20
7.7766791403
 30
0.0
 10
14.9812370857
 20
7.7854058431
 30
0.0
 10
14.988557293
 20
7.7933584188
 30
0.0
 10
14.9958830421
 20
7.8005304178
 30
0.0
 10
15.0032089862
 20
7.8069160041
 30
0.0
 10
15.010530049
 20
7.8125097452
 30
0.0
 10
15.0178412171
 20
7.8173065511
 30
0.0
 10
15.0251377737
 20
7.8213015798
 30
0.0
 10
15.0324140727
 20
7.8244898654
 30
0.0
 10
15.0385099401
 20
7.8264878297
 30
0.0
 10
15.0433526099
 20
7.8276640883
 30
0.0
 10
15.046943818
 20
7.8283355457
 30
0.0
 10
15.0505241391
 20
7.828803489
 30
0.0
 10
15.0540928909
 20
7.8290677979
 30
0.0
 10
15.0576490676
 20
7.82912831
 30
0.0
 10
15.060012509
 20
7.8290326912
 30
0.0
 10
15.0611897701
 20
7.8289510508
 30
0.0
  0
SPLINE
  5
3A5
100
AcDbEntity
  8
0
100
AcDbSpline
 62
7
  6
CONTINUOUS
 70
0
 71
3
 72
52
 73
48
 74
0
 42
0.0000001
 43
0.0000001
 44
0.0000000001
 40
0.0
 40
0.0
 40
0.0
 40
0.0
 40
0.0409426911
 40
0.0823550391
 40
0.1241150094
 40
0.1661020256
 40
0.2081930367
 40
0.2502652723
 40
0.2921958081
 40
0.3338623059
 40
0.375143394
 40
0.4159191461
 40
0.4560715409
 40
0.4954849272
 40
0.5340464995
 40
0.5716467837
 40
0.6081801409
 40
0.6435452952
 40
0.6776459053
 40
0.7103911794
 40
0.7416965545
 40
0.7567851177
 40
0.7714852069
 40
0.7857884613
 40
0.7996869447
 40
0.8131734314
 40
0.8262413119
 40
0.8388846647
 40
0.8510984375
 40
0.862878286
 40
0.8742209829
 40
0.8851241701
 40
0.8955868058
 40
0.9056090722
 40
0.9151926728
 40
0.9243410672
 40
0.9330595749
 40
0.94135595
 40
0.9492404259
 40
0.9567264882
 40
0.9638311001
 40
0.9705754653
 40
0.9769855661
 40
0.9830927275
 40
0.9889342506
 40
0.9945535052
 40
1.0
 40
1.0
 40
1.0
 40
1.0
 10
14.771343654
 20
9.7165805735
 30
0.0
 10
14.771343654
 20
9.7277639045
 30
0.0
 10
14.7715128924
 20
9.7502591829
 30
0.0
 10
14.7722613954
 20
9.7841535435
 30
0.0
 10
14.773504024
 20
9.8183188813
 30
0.0
 10
14.775236848
 20
9.8526484383
 30
0.0
 10
14.7774545464
 20
9.8870355545
 30
0.0
 10
14.7801501838
 20
9.921373034
 30
0.0
 10
14.7833153744
 20
9.9555539811
 30
0.0
 10
14.7869402402
 20
9.9894719402
 30
0.0
 10
14.7910134672
 20
10.0230212941
 30
0.0
 10
14.795522328
 20
10.056097579
 30
0.0
 10
14.8004527286
 20
10.0885978169
 30
0.0
 10
14.8057892504
 20
10.1204208373
 30
0.0
 10
14.8115151975
 20
10.1514675968
 30
0.0
 10
14.8176126475
 20
10.1816414896
 30
0.0
 10
14.8240625056
 20
10.210848661
 30
0.0
 10
14.8308445657
 20
10.2389982885
 30
0.0
 10
14.837937564
 20
10.2660029568
 30
0.0
 10
14.8453192633
 20
10.2917786751
 30
0.0
 10
14.8517685704
 20
10.3124134079
 30
0.0
 10
14.8570652826
 20
10.3282385592
 30
0.0
 10
14.8610467297
 20
10.339605387
 30
0.0
 10
14.8650826762
 20
10.3506073786
 30
0.0
 10
14.869170073
 20
10.3612359883
 30
0.0
 10
14.8733056849
 20
10.3714829687
 30
0.0
 10
14.8774862888
 20
10.3813403744
 30
0.0
 10
14.881708672
 20
10.3908005532
 30
0.0
 10
14.8859694644
 20
10.3998562045
 30
0.0
 10
14.8902654659
 20
10.4085002948
 30
0.0
 10
14.8945932218
 20
10.4167261904
 30
0.0
 10
14.8989494944
 20
10.4245275192
 30
0.0
 10
14.9033308431
 20
10.4318983151
 30
0.0
 10
14.9077339427
 20
10.4388329203
 30
0.0
 10
14.9121554532
 20
10.4453260276
 30
0.0
 10
14.9165919654
 20
10.4513727366
 30
0.0
 10
14.9210402822
 20
10.4569683941
 30
0.0
 10
14.9254969959
 20
10.4621088576
 30
0.0
 10
14.9299590466
 20
10.4667901356
 30
0.0
 10
14.9344231822
 20
10.4710087535
 30
0.0
 10
14.9388864536
 20
10.4747613696
 30
0.0
 10
14.9433458878
 20
10.4780449635
 30
0.0
 10
14.9477986132
 20
10.4808567254
 30
0.0
 10
14.952241796
 20
10.4831937737
 30
0.0
 10
14.9566725879
 20
10.4850536074
 30
0.0
 10
14.9610871622
 20
10.4864332568
 30
0.0
 10
14.9640550676
 20
10.4870390468
 30
0.0
 10
14.9655266741
 20
10.487257199
 30
0.0
  0
SPLINE
  5
3A6
100
AcDbEntity
  8
0
100
AcDbSpline
 62
7
  6
CONTINUOUS
 70
0
 71
3
 72
47
 73
43
 74
0
 42
0.0000001
 43
0.0000001
 44
0.0000000001
 40
0.0
 40
0.0
 40
0.0
 40
0.0
 40
0.0940035512
 40
0.1401227149
 40
0.1855673444
 40
0.2302752077
 40
0.2741840521
 40
0.3172340914
 40
0.3593671889
 40
0.4005268768
 40
0.4406588661
 40
0.4797108883
 40
0.5176332008
 40
0.5543785542
 40
0.5899024321
 40
0.6241635447
 40
0.6571237105
 40
0.6887486
 40
0.7190079118
 40
0.7478757869
 40
0.7753317541
 40
0.8013609927
 40
0.8259556726
 40
0.8377154212
 40
0.8491173899
 40
0.860163026
 40
0.8708546519
 40
0.8811953528
 40
0.8911889775
 40
0.9008404511
 40
0.9101558361
 40
0.9191422842
 40
0.9278083116
 40
0.9361640463
 40
0.9442211758
 40
0.951993168
 40
0.9594956187
 40
0.973758979
 40
0.9805682417
 40
0.9871929457
 40
0.9936603439
 40
1.0
 40
1.0
 40
1.0
 40
1.0
 10
14.771343654
 20
9.7165805735
 30
0.0
 10
14.771343654
 20
9.7012644052
 30
0.0
 10
14.7715785585
 20
9.6784328665
 30
0.0
 10
14.7723870401
 20
9.6482084167
 30
0.0
 10
14.7732298653
 20
9.6260209169
 30
0.0
 10
14.7743115499
 20
9.6042043652
 30
0.0
 10
14.7756305543
 20
9.5827917162
 30
0.0
 10
14.777184791
 20
9.5618154648
 30
0.0
 10
14.7789719013
 20
9.5413073164
 30
0.0
 10
14.7809891827
 20
9.5212982821
 30
0.0
 10
14.7832334956
 20
9.5018186307
 30
0.0
 10
14.7857014785
 20
9.4828978103
 30
0.0
 10
14.7883893132
 20
9.4645644142
 30
0.0
 10
14.7912928992
 20
9.4468461376
 30
0.0
 10
14.794407844
 20
9.4297697315
 30
0.0
 10
14.7977293169
 20
9.4133609537
 30
0.0
 10
14.8012523213
 20
9.3976445357
 30
0.0
 10
14.8049714412
 20
9.3826441288
 30
0.0
 10
14.808880996
 20
9.3683822594
 30
0.0
 10
14.812975108
 20
9.3548803281
 30
0.0
 10
14.8172474841
 20
9.3421584292
 30
0.0
 10
14.8216917502
 20
9.3302356925
 30
0.0
 10
14.8255890603
 20
9.3208451722
 30
0.0
 10
14.8287956924
 20
9.3137550279
 30
0.0
 10
14.831203433
 20
9.3087279276
 30
0.0
 10
14.8336490673
 20
9.3039135352
 30
0.0
 10
14.8361316724
 20
9.299313621
 30
0.0
 10
14.8386503015
 20
9.2949298876
 30
0.0
 10
14.8412040763
 20
9.2907640014
 30
0.0
 10
14.8437920568
 20
9.2868175125
 30
0.0
 10
14.8464132628
 20
9.2830918563
 30
0.0
 10
14.8490667852
 20
9.2795884428
 30
0.0
 10
14.8517517066
 20
9.2763086134
 30
0.0
 10
14.8544670516
 20
9.2732535362
 30
0.0
 10
14.8572118154
 20
9.2704244271
 30
0.0
 10
14.8599853714
 20
9.2678222473
 30
0.0
 10
14.8636576798
 20
9.2647096787
 30
0.0
 10
14.8674481195
 20
9.2619846717
 30
0.0
 10
14.8713453051
 20
9.2597042427
 30
0.0
 10
14.8742471822
 20
9.2582516864
 30
0.0
 10
14.8771714103
 20
9.2570317131
 30
0.0
 10
14.8791521381
 20
9.2563682163
 30
0.0
 10
14.8801432116
 20
9.2560771475
 30
0.0
  0
SPLINE
  5
3A7
100
AcDbEntity
  8
0
100
AcDbSpline
 62
7
  6
CONTINUOUS
 70
0
 71
3
 72
52
 73
48
 74
0
 42
0.0000001
 43
0.0000001
 44
0.0000000001
 40
0.0
 40
0.0
 40
0.0
 40
0.0
 40
0.0409426911
 40
0.0823550391
 40
0.1241150094
 40
0.1661020256
 40
0.2081930367
 40
0.2502652723
 40
0.2921958081
 40
0.3338623059
 40
0.375143394
 40
0.4159191461
 40
0.4560715409
 40
0.4954849272
 40
0.5340464995
 40
0.5716467837
 40
0.6081801409
 40
0.6435452952
 40
0.6776459053
 40
0.7103911794
 40
0.7416965545
 40
0.7567851177
 40
0.7714852069
 40
0.7857884613
 40
0.7996869447
 40
0.8131734314
 40
0.8262413119
 40
0.8388846647
 40
0.8510984375
 40
0.862878286
 40
0.8742209829
 40
0.8851241701
 40
0.8955868058
 40
0.9056090722
 40
0.9151926728
 40
0.9243410672
 40
0.9330595749
 40
0.94135595
 40
0.9492404259
 40
0.9567264882
 40
0.9638311001
 40
0.9705754653
 40
0.9769855661
 40
0.9830927275
 40
0.9889342506
 40
0.9945535052
 40
1.0
 40
1.0
 40
1.0
 40
1.0
 10
14.771343654
 20
6.6970961013
 30
0.0
 10
14.771343654
 20
6.7082794323
 30
0.0
 10
14.7715128924
 20
6.7307747107
 30
0.0
 10
14.7722613954
 20
6.7646690713
 30
0.0
 10
14.773504024
 20
6.7988344092
 30
0.0
 10
14.775236848
 20
6.8331639662
 30
0.0
 10
14.7774545464
 20
6.8675510823
 30
0.0
 10
14.7801501838
 20
6.9018885619
 30
0.0
 10
14.7833153744
 20
6.9360695089
 30
0.0
 10
14.7869402402
 20
6.969987468
 30
0.0
 10
14.7910134672
 20
7.0035368219
 30
0.0
 10
14.795522328
 20
7.0366131069
 30
0.0
 10
14.8004527286
 20
7.0691133447
 30
0.0
 10
14.8057892504
 20
7.1009363652
 30
0.0
 10
14.8115151975
 20
7.1319831246
 30
0.0
 10
14.8176126475
 20
7.1621570174
 30
0.0
 10
14.8240625056
 20
7.1913641889
 30
0.0
 10
14.8308445657
 20
7.2195138163
 30
0.0
 10
14.837937564
 20
7.2465184847
 30
0.0
 10
14.8453192633
 20
7.2722942029
 30
0.0
 10
14.8517685704
 20
7.2929289357
 30
0.0
 10
14.8570652826
 20
7.308754087
 30
0.0
 10
14.8610467297
 20
7.3201209149
 30
0.0
 10
14.8650826762
 20
7.3311229064
 30
0.0
 10
14.869170073
 20
7.3417515161
 30
0.0
 10
14.8733056849
 20
7.3519984966
 30
0.0
 10
14.8774862888
 20
7.3618559022
 30
0.0
 10
14.881708672
 20
7.371316081
 30
0.0
 10
14.8859694644
 20
7.3803717324
 30
0.0
 10
14.8902654659
 20
7.3890158226
 30
0.0
 10
14.8945932218
 20
7.3972417182
 30
0.0
 10
14.8989494944
 20
7.405043047
 30
0.0
 10
14.9033308431
 20
7.4124138429
 30
0.0
 10
14.9077339427
 20
7.4193484481
 30
0.0
 10
14.9121554532
 20
7.4258415555
 30
0.0
 10
14.9165919654
 20
7.4318882644
 30
0.0
 10
14.9210402822
 20
7.4374839219
 30
0.0
 10
14.9254969959
 20
7.4426243854
 30
0.0
 10
14.9299590466
 20
7.4473056634
 30
0.0
 10
14.9344231822
 20
7.4515242814
 30
0.0
 10
14.9388864536
 20
7.4552768974
 30
0.0
 10
14.9433458878
 20
7.4585604913
 30
0.0
 10
14.9477986132
 20
7.4613722532
 30
0.0
 10
14.952241796
 20
7.4637093015
 30
0.0
 10
14.9566725879
 20
7.4655691353
 30
0.0
 10
14.9610871622
 20
7.4669487847
 30
0.0
 10
14.9640550676
 20
7.4675545746
 30
0.0
 10
14.9655266741
 20
7.4677727268
 30
0.0
  0
SPLINE
  5
3A8
100
AcDbEntity
  8
0
100
AcDbSpline
 62
7
  6
CONTINUOUS
 70
0
 71
3
 72
47
 73
43
 74
0
 42
0.0000001
 43
0.0000001
 44
0.0000000001
 40
0.0
 40
0.0
 40
0.0
 40
0.0
 40
0.0940035512
 40
0.1401227149
 40
0.1855673444
 40
0.2302752077
 40
0.2741840521
 40
0.3172340914
 40
0.3593671889
 40
0.4005268768
 40
0.4406588661
 40
0.4797108883
 40
0.5176332008
 40
0.5543785542
 40
0.5899024321
 40
0.6241635447
 40
0.6571237105
 40
0.6887486
 40
0.7190079118
 40
0.7478757869
 40
0.7753317541
 40
0.8013609927
 40
0.8259556726
 40
0.8377154212
 40
0.8491173899
 40
0.860163026
 40
0.8708546519
 40
0.8811953528
 40
0.8911889775
 40
0.9008404511
 40
0.9101558361
 40
0.9191422842
 40
0.9278083116
 40
0.9361640463
 40
0.9442211758
 40
0.951993168
 40
0.9594956187
 40
0.973758979
 40
0.9805682417
 40
0.9871929457
 40
0.9936603439
 40
1.0
 40
1.0
 40
1.0
 40
1.0
 10
14.771343654
 20
6.6970961013
 30
0.0
 10
14.771343654
 20
6.681779933
 30
0.0
 10
14.7715785585
 20
6.6589483943
 30
0.0
 10
14.7723870401
 20
6.6287239445
 30
0.0
 10
14.7732298653
 20
6.6065364448
 30
0.0
 10
14.7743115499
 20
6.584719893
 30
0.0
 10
14.7756305543
 20
6.563307244
 30
0.0
 10
14.777184791
 20
6.5423309926
 30
0.0
 10
14.7789719013
 20
6.5218228442
 30
0.0
 10
14.7809891827
 20
6.50181381
 30
0.0
 10
14.7832334956
 20
6.4823341585
 30
0.0
 10
14.7857014785
 20
6.4634133381
 30
0.0
 10
14.7883893132
 20
6.4450799421
 30
0.0
 10
14.7912928992
 20
6.4273616654
 30
0.0
 10
14.794407844
 20
6.4102852593
 30
0.0
 10
14.7977293169
 20
6.3938764815
 30
0.0
 10
14.8012523213
 20
6.3781600636
 30
0.0
 10
14.8049714412
 20
6.3631596566
 30
0.0
 10
14.808880996
 20
6.3488977873
 30
0.0
 10
14.812975108
 20
6.3353958559
 30
0.0
 10
14.8172474841
 20
6.322673957
 30
0.0
 10
14.8216917502
 20
6.3107512203
 30
0.0
 10
14.8255890603
 20
6.3013607
 30
0.0
 10
14.8287956924
 20
6.2942705557
 30
0.0
 10
14.831203433
 20
6.2892434554
 30
0.0
 10
14.8336490673
 20
6.284429063
 30
0.0
 10
14.8361316724
 20
6.2798291488
 30
0.0
 10
14.8386503015
 20
6.2754454154
 30
0.0
 10
14.8412040763
 20
6.2712795293
 30
0.0
 10
14.8437920568
 20
6.2673330403
 30
0.0
 10
14.8464132628
 20
6.2636073841
 30
0.0
 10
14.8490667852
 20
6.2601039706
 30
0.0
 10
14.8517517066
 20
6.2568241412
 30
0.0
 10
14.8544670516
 20
6.253769064
 30
0.0
 10
14.8572118154
 20
6.2509399549
 30
0.0
 10
14.8599853714
 20
6.2483377751
 30
0.0
 10
14.8636576798
 20
6.2452252065
 30
0.0
 10
14.8674481195
 20
6.2425001996
 30
0.0
 10
14.8713453051
 20
6.2402197706
 30
0.0
 10
14.8742471822
 20
6.2387672142
 30
0.0
 10
14.8771714103
 20
6.2375472409
 30
0.0
 10
14.8791521381
 20
6.2368837441
 30
0.0
 10
14.8801432116
 20
6.2365926753
 30
0.0
  0
SPLINE
  5
3A9
100
AcDbEntity
  8
0
100
AcDbSpline
 62
7
  6
CONTINUOUS
 70
0
 71
3
 72
39
 73
35
 74
0
 42
0.0000001
 43
0.0000001
 44
0.0000000001
 40
0.0
 40
0.0
 40
0.0
 40
0.0
 40
0.0299424689
 40
0.059909316
 40
0.0899243238
 40
0.120010106
 40
0.150187569
 40
0.1804754262
 40
0.2108897768
 40
0.2414437599
 40
0.2721472906
 40
0.3030068794
 40
0.3340255372
 40
0.3652027613
 40
0.3965346002
 40
0.4280137884
 40
0.4596299473
 40
0.4913698423
 40
0.5232176895
 40
0.5551555049
 40
0.5871634868
 40
0.6192204263
 40
0.6513041383
 40
0.683391905
 40
0.7154609283
 40
0.7474887827
 40
0.7794538622
 40
0.8113358179
 40
0.8431159726
 40
0.8747777271
 40
0.9063068788
 40
0.9376920781
 40
0.9689247389
 40
1.0
 40
1.0
 40
1.0
 40
1.0
 10
6.9824050659
 20
8.4726081163
 30
0.0
 10
6.9881119146
 20
8.4781204753
 30
0.0
 10
6.9999744066
 20
8.4887002613
 30
0.0
 10
7.0189799006
 20
8.5031133792
 30
0.0
 10
7.0391000662
 20
8.5159977439
 30
0.0
 10
7.0602224662
 20
8.5272810935
 30
0.0
 10
7.0822309759
 20
8.53690178
 30
0.0
 10
7.1050041321
 20
8.5448069195
 30
0.0
 10
7.1284164421
 20
8.5509532593
 30
0.0
 10
7.1523389208
 20
8.5553072431
 30
0.0
 10
7.1766398558
 20
8.5578452207
 30
0.0
 10
7.2011855241
 20
8.5585535478
 30
0.0
 10
7.2258409313
 20
8.5574286466
 30
0.0
 10
7.2504705488
 20
8.5544770077
 30
0.0
 10
7.2749390523
 20
8.5497151413
 30
0.0
 10
7.2991120565
 20
8.5431694745
 30
0.0
 10
7.3228568434
 20
8.534876198
 30
0.0
 10
7.3460430808
 20
8.5248810615
 30
0.0
 10
7.3685435269
 20
8.5132391186
 30
0.0
 10
7.3902347197
 20
8.5000144236
 30
0.0
 10
7.4109976448
 20
8.4852796802
 30
0.0
 10
7.4307183803
 20
8.4691158441
 30
0.0
 10
7.4492887146
 20
8.4516116818
 30
0.0
 10
7.4666067333
 20
8.4328632876
 30
0.0
 10
7.4825773728
 20
8.412973561
 30
0.0
 10
7.4971129367
 20
8.3920516475
 30
0.0
 10
7.5101335739
 20
8.3702123474
 30
0.0
 10
7.5215677107
 20
8.347575489
 30
0.0
 10
7.53135245
 20
8.3242652943
 30
0.0
 10
7.5394338944
 20
8.3004096517
 30
0.0
 10
7.5457674942
 20
8.2761396213
 30
0.0
 10
7.5503181879
 20
8.2515879905
 30
0.0
 10
7.5530607881
 20
8.2268913594
 30
0.0
 10
7.5536750706
 20
8.2103742241
 30
0.0
 10
7.5536750706
 20
8.2021396789
 30
0.0
  0
SPLINE
  5
3AA
100
AcDbEntity
  8
0
100
AcDbSpline
 62
7
  6
CONTINUOUS
 70
0
 71
3
 72
39
 73
35
 74
0
 42
0.0000001
 43
0.0000001
 44
0.0000000001
 40
0.0
 40
0.0
 40
0.0
 40
0.0
 40
0.0299424689
 40
0.059909316
 40
0.0899243238
 40
0.120010106
 40
0.150187569
 40
0.1804754262
 40
0.2108897768
 40
0.2414437599
 40
0.2721472906
 40
0.3030068794
 40
0.3340255372
 40
0.3652027613
 40
0.3965346002
 40
0.4280137884
 40
0.4596299473
 40
0.4913698423
 40
0.5232176895
 40
0.5551555049
 40
0.5871634868
 40
0.6192204263
 40
0.6513041383
 40
0.683391905
 40
0.7154609283
 40
0.7474887827
 40
0.7794538622
 40
0.8113358179
 40
0.8431159726
 40
0.8747777271
 40
0.9063068788
 40
0.9376920781
 40
0.9689247389
 40
1.0
 40
1.0
 40
1.0
 40
1.0
 10
13.504336549
 20
8.0203106318
 30
0.0
 10
13.5100433977
 20
8.0258229908
 30
0.0
 10
13.5219058897
 20
8.0364027767
 30
0.0
 10
13.5409113837
 20
8.0508158947
 30
0.0
 10
13.5610315493
 20
8.0637002593
 30
0.0
 10
13.5821539493
 20
8.0749836089
 30
0.0
 10
13.604162459
 20
8.0846042954
 30
0.0
 10
13.6269356152
 20
8.092509435
 30
0.0
 10
13.6503479252
 20
8.0986557748
 30
0.0
 10
13.6742704039
 20
8.1030097586
 30
0.0
 10
13.6985713389
 20
8.1055477361
 30
0.0
 10
13.7231170072
 20
8.1062560633
 30
0.0
 10
13.7477724144
 20
8.105131162
 30
0.0
 10
13.7724020319
 20
8.1021795232
 30
0.0
 10
13.7968705354
 20
8.0974176567
 30
0.0
 10
13.8210435396
 20
8.0908719899
 30
0.0
 10
13.8447883265
 20
8.0825787135
 30
0.0
 10
13.8679745639
 20
8.0725835769
 30
0.0
 10
13.89047501
 20
8.060941634
 30
0.0
 10
13.9121662028
 20
8.047716939
 30
0.0
 10
13.9329291279
 20
8.0329821956
 30
0.0
 10
13.9526498634
 20
8.0168183595
 30
0.0
 10
13.9712201977
 20
7.9993141973
 30
0.0
 10
13.9885382164
 20
7.9805658031
 30
0.0
 10
14.0045088559
 20
7.9606760765
 30
0.0
 10
14.0190444198
 20
7.9397541629
 30
0.0
 10
14.032065057
 20
7.9179148629
 30
0.0
 10
14.0434991938
 20
7.8952780045
 30
0.0
 10
14.0532839331
 20
7.8719678097
 30
0.0
 10
14.0613653775
 20
7.8481121671
 30
0.0
 10
14.0676989773
 20
7.8238421368
 30
0.0
 10
14.072249671
 20
7.799290506
 30
0.0
 10
14.0749922712
 20
7.7745938749
 30
0.0
 10
14.0756065537
 20
7.7580767395
 30
0.0
 10
14.0756065537
 20
7.7498421943
 30
0.0
  0
SPLINE
  5
3AB
100
AcDbEntity
  8
0
100
AcDbSpline
 62
7
  6
CONTINUOUS
 70
0
 71
3
 72
43
 73
39
 74
0
 42
0.0000001
 43
0.0000001
 44
0.0000000001
 40
0.0
 40
0.0
 40
0.0
 40
0.0
 40
0.014999742
 40
0.0300222933
 40
0.045069289
 40
0.0601422483
 40
0.0903673873
 40
0.1207117554
 40
0.1359332073
 40
0.1511871887
 40
0.1664743278
 40
0.1817951128
 40
0.2125348752
 40
0.2434115897
 40
0.2744240785
 40
0.3055689614
 40
0.3368407387
 40
0.3682319033
 40
0.3997330815
 40
0.4313331978
 40
0.4630196611
 40
0.4947785687
 40
0.5265949253
 40
0.5584528745
 40
0.5903359394
 40
0.6222272691
 40
0.6541098903
 40
0.6859669588
 40
0.7177820109
 40
0.7495392099
 40
0.7812235863
 40
0.8128212694
 40
0.8443197034
 40
0.8757078621
 40
0.9069763946
 40
0.938117919
 40
0.9691267954
 40
1.0
 40
1.0
 40
1.0
 40
1.0
 10
10.1666682224
 20
8.6243083981
 30
0.0
 10
10.1731238416
 20
8.6272383351
 30
0.0
 10
10.1861454049
 20
8.6328840507
 30
0.0
 10
10.2059673912
 20
8.6406940486
 30
0.0
 10
10.2260741583
 20
8.6478438831
 30
0.0
 10
10.2532566
 20
8.6564941278
 30
0.0
 10
10.287852953
 20
8.6656192339
 30
0.0
 10
10.3230468701
 20
8.6724419972
 30
0.0
 10
10.3515066894
 20
8.6765153619
 30
0.0
 10
10.3730103681
 20
8.6788769025
 30
0.0
 10
10.3946264472
 20
8.6805390171
 30
0.0
 10
10.4235973079
 20
8.6818216615
 30
0.0
 10
10.4599876795
 20
8.6816638125
 30
0.0
 10
10.5036936579
 20
8.6786661514
 30
0.0
 10
10.5473113188
 20
8.6728729971
 30
0.0
 10
10.5906601245
 20
8.6643083629
 30
0.0
 10
10.6335622375
 20
8.6530077453
 30
0.0
 10
10.6758412764
 20
8.6390178266
 30
0.0
 10
10.7173235635
 20
8.6223963174
 30
0.0
 10
10.7578386884
 20
8.6032117064
 30
0.0
 10
10.7972202381
 20
8.5815429799
 30
0.0
 10
10.835306464
 20
8.5574792963
 30
0.0
 10
10.8719409423
 20
8.531119621
 30
0.0
 10
10.9069732109
 20
8.5025723228
 30
0.0
 10
10.9402593813
 20
8.471954729
 30
0.0
 10
10.9716627241
 20
8.4393926465
 30
0.0
 10
11.0010542267
 20
8.4050198485
 30
0.0
 10
11.0283131191
 20
8.3689775294
 30
0.0
 10
11.0533273665
 20
8.3314137292
 30
0.0
 10
11.0759941267
 20
8.2924827302
 30
0.0
 10
11.0962201712
 20
8.2523444307
 30
0.0
 10
11.1139222634
 20
8.2111636886
 30
0.0
 10
11.1290275112
 20
8.1691096702
 30
0.0
 10
11.1414736369
 20
8.126355094
 30
0.0
 10
11.1512093091
 20
8.0830757774
 30
0.0
 10
11.1581941959
 20
8.0394489855
 30
0.0
 10
11.1623994246
 20
7.9956563527
 30
0.0
 10
11.1633400849
 20
7.9664003045
 30
0.0
 10
11.1633400849
 20
7.9518085599
 30
0.0
  0
SPLINE
  5
3AC
100
AcDbEntity
  8
0
100
AcDbSpline
 62
7
  6
CONTINUOUS
 70
0
 71
3
 72
60
 73
56
 74
0
 42
0.0000001
 43
0.0000001
 44
0.0000000001
 40
0.0
 40
0.0
 40
0.0
 40
0.0
 40
0.0027758442
 40
0.0055595974
 40
0.0083590905
 40
0.0111820121
 40
0.0140358493
 40
0.0169278177
 40
0.022851653
 40
0.0290063909
 40
0.0354367419
 40
0.0387681448
 40
0.0421823378
 40
0.0492731305
 40
0.0567371465
 40
0.0645961914
 40
0.0728678354
 40
0.0815658032
 40
0.090700695
 40
0.10028023
 40
0.1103098407
 40
0.120792778
 40
0.1317305986
 40
0.143123166
 40
0.1549690593
 40
0.167265505
 40
0.1800087299
 40
0.1931938481
 40
0.206815175
 40
0.2208660874
 40
0.235339308
 40
0.250226751
 40
0.2655197837
 40
0.2812090655
 40
0.2972847914
 40
0.3137365292
 40
0.3305534468
 40
0.347724153
 40
0.3652369092
 40
0.3830794766
 40
0.4197029569
 40
0.4574901813
 40
0.496331037
 40
0.5361108622
 40
0.5767110374
 40
0.6180095499
 40
0.6598815424
 40
0.7021998488
 40
0.744835522
 40
0.7876583565
 40
0.8305374083
 40
0.8733415093
 40
0.9159397945
 40
0.9582021934
 40
1.0
 40
1.0
 40
1.0
 40
1.0
 10
13.7607582418
 20
11.3535436058
 30
0.0
 10
13.7607582377
 20
11.3524797439
 30
0.0
 10
13.7606991871
 20
11.3503485207
 30
0.0
 10
13.760433676
 20
11.3471543203
 30
0.0
 10
13.7599913007
 20
11.343961484
 30
0.0
 10
13.7593721995
 20
11.3407708798
 30
0.0
 10
13.7585764541
 20
11.3375831194
 30
0.0
 10
13.7572701211
 20
11.333303937
 30
0.0
 10
13.7551796536
 20
11.3279499829
 30
0.0
 10
13.751987972
 20
11.3216046974
 30
0.0
 10
13.7487840036
 20
11.3164050118
 30
0.0
 10
13.7458885874
 20
11.3122666159
 30
0.0
 10
13.7426873742
 20
11.3080375676
 30
0.0
 10
13.7382365361
 20
11.302774716
 30
0.0
 10
13.7322760081
 20
11.296581755
 30
0.0
 10
13.7256350496
 20
11.2904373289
 30
0.0
 10
13.7183191618
 20
11.2843462348
 30
0.0
 10
13.710334235
 20
11.2783127505
 30
0.0
 10
13.7016865616
 20
11.2723416098
 30
0.0
 10
13.6923831007
 20
11.2664372828
 30
0.0
 10
13.6824312212
 20
11.260604549
 30
0.0
 10
13.6718389567
 20
11.2548479112
 30
0.0
 10
13.6606147794
 20
11.2491721222
 30
0.0
 10
13.6487677895
 20
11.2435816387
 30
0.0
 10
13.6363075375
 20
11.2380811256
 30
0.0
 10
13.6232441615
 20
11.2326749428
 30
0.0
 10
13.6095882506
 20
11.2273676263
 30
0.0
 10
13.5953509429
 20
11.2221634042
 30
0.0
 10
13.5805438218
 20
11.2170666555
 30
0.0
 10
13.5651789836
 20
11.2120814514
 30
0.0
 10
13.5492689601
 20
11.2072119924
 30
0.0
 10
13.5328267621
 20
11.2024621731
 30
0.0
 10
13.5158658222
 20
11.1978359989
 30
0.0
 10
13.49840002
 20
11.1933371711
 30
0.0
 10
13.4804436401
 20
11.1889694856
 30
0.0
 10
13.4620113838
 20
11.1847364367
 30
0.0
 10
13.4431183362
 20
11.1806415963
 30
0.0
 10
13.4237799746
 20
11.1766882444
 30
0.0
 10
13.4040121173
 20
11.172879696
 30
0.0
 10
13.3768682054
 20
11.1679561169
 30
0.0
 10
13.3419807048
 20
11.1621985188
 30
0.0
 10
13.2990225878
 20
11.1559722101
 30
0.0
 10
13.254756475
 20
11.1503908537
 30
0.0
 10
13.2093274244
 20
11.1454728715
 30
0.0
 10
13.1628841486
 20
11.1412345268
 30
0.0
 10
13.1155787716
 20
11.1376898199
 30
0.0
 10
13.0675662518
 20
11.1348504594
 30
0.0
 10
13.0190038873
 20
11.132725821
 30
0.0
 10
12.97005079
 20
11.1313229193
 30
0.0
 10
12.9208673621
 20
11.1306463853
 30
0.0
 10
12.8716147625
 20
11.1306984524
 30
0.0
 10
12.8224543906
 20
11.1314789477
 30
0.0
 10
12.7735472918
 20
11.1329852981
 30
0.0
 10
12.7250538729
 20
11.1352125209
 30
0.0
 10
12.6928961506
 20
11.1371859306
 30
0.0
 10
12.6769152301
 20
11.1382942112
 30
0.0
  0
SPLINE
  5
3AD
100
AcDbEntity
  8
0
100
AcDbSpline
 62
7
  6
CONTINUOUS
 70
0
 71
3
 72
52
 73
48
 74
0
 42
0.0000001
 43
0.0000001
 44
0.0000000001
 40
0.0
 40
0.0
 40
0.0
 40
0.0
 40
0.0063158568
 40
0.0126706178
 40
0.0191024266
 40
0.0256479345
 40
0.0323417789
 40
0.0392160908
 40
0.0536138298
 40
0.0611945069
 40
0.0690562056
 40
0.0772172859
 40
0.0856936163
 40
0.094498959
 40
0.1036450353
 40
0.1131417384
 40
0.1229974561
 40
0.1332190303
 40
0.1438120572
 40
0.1547810415
 40
0.1661293353
 40
0.1778594655
 40
0.1899731041
 40
0.2024710934
 40
0.2153537091
 40
0.2286205088
 40
0.2422704818
 40
0.2563021821
 40
0.2707135511
 40
0.3006644045
 40
0.3320995118
 40
0.364988637
 40
0.399296387
 40
0.4349827261
 40
0.4720035166
 40
0.5103109065
 40
0.549853604
 40
0.5905771631
 40
0.632424299
 40
0.6753351168
 40
0.7192472758
 40
0.7640961515
 40
0.8098152405
 40
0.8563361104
 40
0.9035880427
 40
0.9515014724
 40
1.0
 40
1.0
 40
1.0
 40
1.0
 10
14.9250361296
 20
5.8656665549
 30
0.0
 10
14.9233729839
 20
5.8657818904
 30
0.0
 10
14.9200443061
 20
5.8661493869
 30
0.0
 10
14.9150885863
 20
5.8671073048
 30
0.0
 10
14.9101660057
 20
5.8684719082
 30
0.0
 10
14.9052794112
 20
5.8702420106
 30
0.0
 10
14.9004307524
 20
5.8724166903
 30
0.0
 10
14.8939203049
 20
5.8759066147
 30
0.0
 10
14.887586646
 20
5.8801788019
 30
0.0
 10
14.881457289
 20
5.8851296169
 30
0.0
 10
14.8768275421
 20
5.8893037311
 30
0.0
 10
14.8722472655
 20
5.893872338
 30
0.0
 10
14.8677175399
 20
5.8988337507
 30
0.0
 10
14.8632402721
 20
5.9041858762
 30
0.0
 10
14.8588170996
 20
5.9099265277
 30
0.0
 10
14.8544496726
 20
5.9160533259
 30
0.0
 10
14.8501397751
 20
5.9225638443
 30
0.0
 10
14.8458890338
 20
5.9294553998
 30
0.0
 10
14.8416991342
 20
5.9367252029
 30
0.0
 10
14.8375718185
 20
5.9443703333
 30
0.0
 10
14.8335086627
 20
5.9523876432
 30
0.0
 10
14.8295113625
 20
5.9607738912
 30
0.0
 10
14.8255815575
 20
5.9695256598
 30
0.0
 10
14.8217207866
 20
5.9786393526
 30
0.0
 10
14.8179307052
 20
5.9881112671
 30
0.0
 10
14.8142128296
 20
5.9979375113
 30
0.0
 10
14.8105686716
 20
6.008114049
 30
0.0
 10
14.806999772
 20
6.0186367367
 30
0.0
 10
14.80228288
 20
6.0333115643
 30
0.0
 10
14.7965993919
 20
6.0524981033
 30
0.0
 10
14.790186579
 20
6.0765453724
 30
0.0
 10
14.7841072099
 20
6.1018632048
 30
0.0
 10
14.7783713917
 20
6.1284099416
 30
0.0
 10
14.772988654
 20
6.1561420761
 30
0.0
 10
14.7679679615
 20
6.1850140282
 30
0.0
 10
14.7633176957
 20
6.2149783288
 30
0.0
 10
14.7590456089
 20
6.2459856592
 30
0.0
 10
14.755158803
 20
6.2779849465
 30
0.0
 10
14.7516637567
 20
6.3109234688
 30
0.0
 10
14.7485663118
 20
6.344746947
 30
0.0
 10
14.7458716286
 20
6.3793996091
 30
0.0
 10
14.7435841806
 20
6.4148243205
 30
0.0
 10
14.741707792
 20
6.4509626718
 30
0.0
 10
14.7402456249
 20
6.487754924
 30
0.0
 10
14.7392000562
 20
6.5251407938
 30
0.0
 10
14.7385729351
 20
6.5630580399
 30
0.0
 10
14.7384352196
 20
6.5885072708
 30
0.0
 10
14.7384352196
 20
6.6013089913
 30
0.0
  0
SPLINE
  5
3AE
100
AcDbEntity
  8
0
100
AcDbSpline
 62
7
  6
CONTINUOUS
 70
0
 71
3
 72
52
 73
48
 74
0
 42
0.0000001
 43
0.0000001
 44
0.0000000001
 40
0.0
 40
0.0
 40
0.0
 40
0.0
 40
0.0063158568
 40
0.0126706178
 40
0.0191024266
 40
0.0256479345
 40
0.0323417789
 40
0.0392160908
 40
0.0536138298
 40
0.0611945069
 40
0.0690562056
 40
0.0772172859
 40
0.0856936163
 40
0.094498959
 40
0.1036450353
 40
0.1131417384
 40
0.1229974561
 40
0.1332190303
 40
0.1438120572
 40
0.1547810415
 40
0.1661293353
 40
0.1778594655
 40
0.1899731041
 40
0.2024710934
 40
0.2153537091
 40
0.2286205088
 40
0.2422704818
 40
0.2563021821
 40
0.2707135511
 40
0.3006644045
 40
0.3320995118
 40
0.364988637
 40
0.399296387
 40
0.4349827261
 40
0.4720035166
 40
0.5103109065
 40
0.549853604
 40
0.5905771631
 40
0.632424299
 40
0.6753351168
 40
0.7192472758
 40
0.7640961515
 40
0.8098152405
 40
0.8563361104
 40
0.9035880427
 40
0.9515014724
 40
1.0
 40
1.0
 40
1.0
 40
1.0
 10
14.9250361296
 20
8.8851510271
 30
0.0
 10
14.9233729839
 20
8.8852663625
 30
0.0
 10
14.9200443061
 20
8.8856338591
 30
0.0
 10
14.9150885863
 20
8.8865917769
 30
0.0
 10
14.9101660057
 20
8.8879563804
 30
0.0
 10
14.9052794112
 20
8.8897264828
 30
0.0
 10
14.9004307524
 20
8.8919011624
 30
0.0
 10
14.8939203049
 20
8.8953910868
 30
0.0
 10
14.887586646
 20
8.8996632741
 30
0.0
 10
14.881457289
 20
8.9046140891
 30
0.0
 10
14.8768275421
 20
8.9087882033
 30
0.0
 10
14.8722472655
 20
8.9133568102
 30
0.0
 10
14.8677175399
 20
8.9183182229
 30
0.0
 10
14.8632402721
 20
8.9236703484
 30
0.0
 10
14.8588170996
 20
8.9294109998
 30
0.0
 10
14.8544496726
 20
8.935537798
 30
0.0
 10
14.8501397751
 20
8.9420483165
 30
0.0
 10
14.8458890338
 20
8.9489398719
 30
0.0
 10
14.8416991342
 20
8.9562096751
 30
0.0
 10
14.8375718185
 20
8.9638548055
 30
0.0
 10
14.8335086627
 20
8.9718721154
 30
0.0
 10
14.8295113625
 20
8.9802583633
 30
0.0
 10
14.8255815575
 20
8.9890101319
 30
0.0
 10
14.8217207866
 20
8.9981238248
 30
0.0
 10
14.8179307052
 20
9.0075957392
 30
0.0
 10
14.8142128296
 20
9.0174219835
 30
0.0
 10
14.8105686716
 20
9.0275985211
 30
0.0
 10
14.806999772
 20
9.0381212089
 30
0.0
 10
14.80228288
 20
9.0527960365
 30
0.0
 10
14.7965993919
 20
9.0719825755
 30
0.0
 10
14.790186579
 20
9.0960298446
 30
0.0
 10
14.7841072099
 20
9.121347677
 30
0.0
 10
14.7783713917
 20
9.1478944137
 30
0.0
 10
14.772988654
 20
9.1756265483
 30
0.0
 10
14.7679679615
 20
9.2044985003
 30
0.0
 10
14.7633176957
 20
9.2344628009
 30
0.0
 10
14.7590456089
 20
9.2654701314
 30
0.0
 10
14.755158803
 20
9.2974694186
 30
0.0
 10
14.7516637567
 20
9.330407941
 30
0.0
 10
14.7485663118
 20
9.3642314192
 30
0.0
 10
14.7458716286
 20
9.3988840813
 30
0.0
 10
14.7435841806
 20
9.4343087927
 30
0.0
 10
14.741707792
 20
9.4704471439
 30
0.0
 10
14.7402456249
 20
9.5072393962
 30
0.0
 10
14.7392000562
 20
9.544625266
 30
0.0
 10
14.7385729351
 20
9.5825425121
 30
0.0
 10
14.7384352196
 20
9.6079917429
 30
0.0
 10
14.7384352196
 20
9.6207934635
 30
0.0
  0
SPLINE
  5
3AF
100
AcDbEntity
  8
0
100
AcDbSpline
 62
7
  6
CONTINUOUS
 70
0
 71
3
 72
59
 73
55
 74
0
 42
0.0000001
 43
0.0000001
 44
0.0000000001
 40
0.0
 40
0.0
 40
0.0
 40
0.0
 40
0.0417736767
 40
0.0840362765
 40
0.1266574811
 40
0.1695051262
 40
0.2124463914
 40
0.2553479967
 40
0.2980768488
 40
0.3405005256
 40
0.3824878146
 40
0.4239092383
 40
0.464637589
 40
0.5045484688
 40
0.5435208413
 40
0.5814375992
 40
0.6181861539
 40
0.6360888024
 40
0.6536595531
 40
0.6708859017
 40
0.6877557363
 40
0.7042573867
 40
0.720379648
 40
0.7361117919
 40
0.7514436399
 40
0.7663655339
 40
0.7808684645
 40
0.7949440033
 40
0.8085844873
 40
0.8217829218
 40
0.83453322
 40
0.8468300923
 40
0.8586693371
 40
0.8700477415
 40
0.8809634199
 40
0.8914157604
 40
0.9014058112
 40
0.9109363168
 40
0.9200121632
 40
0.9286405545
 40
0.9368315416
 40
0.9445983908
 40
0.9519582219
 40
0.9589325919
 40
0.9655482195
 40
0.9718376843
 40
0.9778400275
 40
0.9836011664
 40
0.9864084736
 40
0.9891757902
 40
0.9919106587
 40
0.9946209114
 40
0.9973146138
 40
1.0
 40
1.0
 40
1.0
 40
1.0
 10
15.24779068
 20
7.0933086144
 30
0.0
 10
15.24779068
 20
7.0749512415
 30
0.0
 10
15.2475042855
 20
7.0380210622
 30
0.0
 10
15.2462381876
 20
6.9823741119
 30
0.0
 10
15.2441367758
 20
6.9262800662
 30
0.0
 10
15.2412069389
 20
6.8699246105
 30
0.0
 10
15.237458359
 20
6.8134941972
 30
0.0
 10
15.2329034265
 20
6.7571755119
 30
0.0
 10
15.2275572304
 20
6.7011548819
 30
0.0
 10
15.2214374933
 20
6.6456176362
 30
0.0
 10
15.2145645193
 20
6.5907474952
 30
0.0
 10
15.2069611252
 20
6.5367259572
 30
0.0
 10
15.1986525681
 20
6.4837316871
 30
0.0
 10
15.1896664599
 20
6.4319399391
 30
0.0
 10
15.1800326872
 20
6.3815218917
 30
0.0
 10
15.1697832834
 20
6.3326443447
 30
0.0
 10
15.1606802708
 20
6.292994146
 30
0.0
 10
15.1531044325
 20
6.2621732652
 30
0.0
 10
15.1473397091
 20
6.2397429272
 30
0.0
 10
15.1414475942
 20
6.2178153439
 30
0.0
 10
15.1354329312
 20
6.19640863
 30
0.0
 10
15.12930072
 20
6.1755404865
 30
0.0
 10
15.1230560508
 20
6.155228161
 30
0.0
 10
15.1167040836
 20
6.1354884399
 30
0.0
 10
15.1102501177
 20
6.1163376268
 30
0.0
 10
15.1036994597
 20
6.0977915413
 30
0.0
 10
15.0970575986
 20
6.0798654836
 30
0.0
 10
15.0903299692
 20
6.0625742526
 30
0.0
 10
15.0835222283
 20
6.0459320881
 30
0.0
 10
15.0766399197
 20
6.0299527165
 30
0.0
 10
15.0696888419
 20
6.0146492626
 30
0.0
 10
15.0626746273
 20
6.00003433
 30
0.0
 10
15.0556031826
 20
5.9861198762
 30
0.0
 10
15.0484802056
 20
5.9729173323
 30
0.0
 10
15.0413116663
 20
5.9604374401
 30
0.0
 10
15.0341032964
 20
5.9486904108
 30
0.0
 10
15.0268610681
 20
5.9376857289
 30
0.0
 10
15.0195906973
 20
5.9274323456
 30
0.0
 10
15.0122980727
 20
5.9179384654
 30
0.0
 10
15.004988814
 20
5.9092117626
 30
0.0
 10
14.9976686067
 20
5.9012591869
 30
0.0
 10
14.9903428576
 20
5.8940871879
 30
0.0
 10
14.9830169134
 20
5.8877016016
 30
0.0
 10
14.9756958507
 20
5.8821078605
 30
0.0
 10
14.9683846826
 20
5.8773110546
 30
0.0
 10
14.961088126
 20
5.8733160258
 30
0.0
 10
14.953811827
 20
5.8701277403
 30
0.0
 10
14.9477159596
 20
5.868129776
 30
0.0
 10
14.9428732898
 20
5.8669535174
 30
0.0
 10
14.9392820817
 20
5.8662820599
 30
0.0
 10
14.9357017605
 20
5.8658141166
 30
0.0
 10
14.9321330088
 20
5.8655498078
 30
0.0
 10
14.9285768321
 20
5.8654892957
 30
0.0
 10
14.9262133907
 20
5.8655849144
 30
0.0
 10
14.9250361296
 20
5.8656665549
 30
0.0
  0
SPLINE
  5
3B0
100
AcDbEntity
  8
0
100
AcDbSpline
 62
7
  6
CONTINUOUS
 70
0
 71
3
 72
39
 73
35
 74
0
 42
0.0000001
 43
0.0000001
 44
0.0000000001
 40
0.0
 40
0.0
 40
0.0
 40
0.0
 40
0.0299424689
 40
0.059909316
 40
0.0899243238
 40
0.120010106
 40
0.150187569
 40
0.1804754262
 40
0.2108897768
 40
0.2414437599
 40
0.2721472906
 40
0.3030068794
 40
0.3340255372
 40
0.3652027613
 40
0.3965346002
 40
0.4280137884
 40
0.4596299473
 40
0.4913698423
 40
0.5232176895
 40
0.5551555049
 40
0.5871634868
 40
0.6192204263
 40
0.6513041383
 40
0.683391905
 40
0.7154609283
 40
0.7474887827
 40
0.7794538622
 40
0.8113358179
 40
0.8431159726
 40
0.8747777271
 40
0.9063068788
 40
0.9376920781
 40
0.9689247389
 40
1.0
 40
1.0
 40
1.0
 40
1.0
 10
7.4603880675
 20
7.9777584265
 30
0.0
 10
7.4546812187
 20
7.9722460675
 30
0.0
 10
7.4428187267
 20
7.9616662816
 30
0.0
 10
7.4238132328
 20
7.9472531636
 30
0.0
 10
7.4036930671
 20
7.934368799
 30
0.0
 10
7.3825706671
 20
7.9230854494
 30
0.0
 10
7.3605621574
 20
7.9134647629
 30
0.0
 10
7.3377890012
 20
7.9055596233
 30
0.0
 10
7.3143766912
 20
7.8994132835
 30
0.0
 10
7.2904542125
 20
7.8950592997
 30
0.0
 10
7.2661532775
 20
7.8925213221
 30
0.0
 10
7.2416076092
 20
7.891812995
 30
0.0
 10
7.216952202
 20
7.8929378963
 30
0.0
 10
7.1923225845
 20
7.8958895351
 30
0.0
 10
7.167854081
 20
7.9006514016
 30
0.0
 10
7.1436810768
 20
7.9071970683
 30
0.0
 10
7.1199362899
 20
7.9154903448
 30
0.0
 10
7.0967500525
 20
7.9254854813
 30
0.0
 10
7.0742496064
 20
7.9371274243
 30
0.0
 10
7.0525584136
 20
7.9503521193
 30
0.0
 10
7.0317954885
 20
7.9650868627
 30
0.0
 10
7.012074753
 20
7.9812506988
 30
0.0
 10
6.9935044187
 20
7.998754861
 30
0.0
 10
6.9761864
 20
8.0175032552
 30
0.0
 10
6.9602157605
 20
8.0373929818
 30
0.0
 10
6.9456801966
 20
8.0583148953
 30
0.0
 10
6.9326595594
 20
8.0801541954
 30
0.0
 10
6.9212254226
 20
8.1027910538
 30
0.0
 10
6.9114406833
 20
8.1261012485
 30
0.0
 10
6.9033592389
 20
8.1499568911
 30
0.0
 10
6.8970256391
 20
8.1742269215
 30
0.0
 10
6.8924749454
 20
8.1987785523
 30
0.0
 10
6.8897323452
 20
8.2234751834
 30
0.0
 10
6.8891180627
 20
8.2399923187
 30
0.0
 10
6.8891180627
 20
8.2482268639
 30
0.0
  0
SPLINE
  5
3B1
100
AcDbEntity
  8
0
100
AcDbSpline
 62
7
  6
CONTINUOUS
 70
0
 71
3
 72
39
 73
35
 74
0
 42
0.0000001
 43
0.0000001
 44
0.0000000001
 40
0.0
 40
0.0
 40
0.0
 40
0.0
 40
0.0299424689
 40
0.059909316
 40
0.0899243238
 40
0.120010106
 40
0.150187569
 40
0.1804754262
 40
0.2108897768
 40
0.2414437599
 40
0.2721472906
 40
0.3030068794
 40
0.3340255372
 40
0.3652027613
 40
0.3965346002
 40
0.4280137884
 40
0.4596299473
 40
0.4913698423
 40
0.5232176895
 40
0.5551555049
 40
0.5871634868
 40
0.6192204263
 40
0.6513041383
 40
0.683391905
 40
0.7154609283
 40
0.7474887827
 40
0.7794538622
 40
0.8113358179
 40
0.8431159726
 40
0.8747777271
 40
0.9063068788
 40
0.9376920781
 40
0.9689247389
 40
1.0
 40
1.0
 40
1.0
 40
1.0
 10
13.9823195505
 20
7.5254609419
 30
0.0
 10
13.9766127018
 20
7.5199485829
 30
0.0
 10
13.9647502098
 20
7.509368797
 30
0.0
 10
13.9457447159
 20
7.494955679
 30
0.0
 10
13.9256245502
 20
7.4820713144
 30
0.0
 10
13.9045021502
 20
7.4707879648
 30
0.0
 10
13.8824936405
 20
7.4611672783
 30
0.0
 10
13.8597204843
 20
7.4532621387
 30
0.0
 10
13.8363081743
 20
7.4471157989
 30
0.0
 10
13.8123856956
 20
7.4427618152
 30
0.0
 10
13.7880847606
 20
7.4402238376
 30
0.0
 10
13.7635390923
 20
7.4395155104
 30
0.0
 10
13.7388836851
 20
7.4406404117
 30
0.0
 10
13.7142540676
 20
7.4435920506
 30
0.0
 10
13.6897855641
 20
7.448353917
 30
0.0
 10
13.6656125599
 20
7.4548995838
 30
0.0
 10
13.641867773
 20
7.4631928602
 30
0.0
 10
13.6186815356
 20
7.4731879968
 30
0.0
 10
13.5961810895
 20
7.4848299397
 30
0.0
 10
13.5744898967
 20
7.4980546347
 30
0.0
 10
13.5537269716
 20
7.5127893781
 30
0.0
 10
13.5340062361
 20
7.5289532142
 30
0.0
 10
13.5154359018
 20
7.5464573764
 30
0.0
 10
13.4981178831
 20
7.5652057706
 30
0.0
 10
13.4821472436
 20
7.5850954972
 30
0.0
 10
13.4676116797
 20
7.6060174108
 30
0.0
 10
13.4545910425
 20
7.6278567108
 30
0.0
 10
13.4431569057
 20
7.6504935693
 30
0.0
 10
13.4333721664
 20
7.673803764
 30
0.0
 10
13.425290722
 20
7.6976594066
 30
0.0
 10
13.4189571222
 20
7.7219294369
 30
0.0
 10
13.4144064285
 20
7.7464810677
 30
0.0
 10
13.4116638283
 20
7.7711776988
 30
0.0
 10
13.4110495458
 20
7.7876948342
 30
0.0
 10
13.4110495458
 20
7.7959293794
 30
0.0
  0
SPLINE
  5
3B2
100
AcDbEntity
  8
0
100
AcDbSpline
 62
7
  6
CONTINUOUS
 70
0
 71
3
 72
59
 73
55
 74
0
 42
0.0000001
 43
0.0000001
 44
0.0000000001
 40
0.0
 40
0.0
 40
0.0
 40
0.0
 40
0.0417736767
 40
0.0840362765
 40
0.1266574811
 40
0.1695051262
 40
0.2124463914
 40
0.2553479967
 40
0.2980768488
 40
0.3405005256
 40
0.3824878146
 40
0.4239092383
 40
0.464637589
 40
0.5045484688
 40
0.5435208413
 40
0.5814375992
 40
0.6181861539
 40
0.6360888024
 40
0.6536595531
 40
0.6708859017
 40
0.6877557363
 40
0.7042573867
 40
0.720379648
 40
0.7361117919
 40
0.7514436399
 40
0.7663655339
 40
0.7808684645
 40
0.7949440033
 40
0.8085844873
 40
0.8217829218
 40
0.83453322
 40
0.8468300923
 40
0.8586693371
 40
0.8700477415
 40
0.8809634199
 40
0.8914157604
 40
0.9014058112
 40
0.9109363168
 40
0.9200121632
 40
0.9286405545
 40
0.9368315416
 40
0.9445983908
 40
0.9519582219
 40
0.9589325919
 40
0.9655482195
 40
0.9718376843
 40
0.9778400275
 40
0.9836011664
 40
0.9864084736
 40
0.9891757902
 40
0.9919106587
 40
0.9946209114
 40
0.9973146138
 40
1.0
 40
1.0
 40
1.0
 40
1.0
 10
15.24779068
 20
10.1127930866
 30
0.0
 10
15.24779068
 20
10.0944357137
 30
0.0
 10
15.2475042855
 20
10.0575055344
 30
0.0
 10
15.2462381876
 20
10.0018585841
 30
0.0
 10
15.2441367758
 20
9.9457645384
 30
0.0
 10
15.2412069389
 20
9.8894090827
 30
0.0
 10
15.237458359
 20
9.8329786693
 30
0.0
 10
15.2329034265
 20
9.776659984
 30
0.0
 10
15.2275572304
 20
9.7206393541
 30
0.0
 10
15.2214374933
 20
9.6651021084
 30
0.0
 10
15.2145645193
 20
9.6102319674
 30
0.0
 10
15.2069611252
 20
9.5562104294
 30
0.0
 10
15.1986525681
 20
9.5032161593
 30
0.0
 10
15.1896664599
 20
9.4514244113
 30
0.0
 10
15.1800326872
 20
9.4010063639
 30
0.0
 10
15.1697832834
 20
9.3521288168
 30
0.0
 10
15.1606802708
 20
9.3124786182
 30
0.0
 10
15.1531044325
 20
9.2816577374
 30
0.0
 10
15.1473397091
 20
9.2592273993
 30
0.0
 10
15.1414475942
 20
9.2372998161
 30
0.0
 10
15.1354329312
 20
9.2158931021
 30
0.0
 10
15.12930072
 20
9.1950249587
 30
0.0
 10
15.1230560508
 20
9.1747126332
 30
0.0
 10
15.1167040836
 20
9.1549729121
 30
0.0
 10
15.1102501177
 20
9.135822099
 30
0.0
 10
15.1036994597
 20
9.1172760135
 30
0.0
 10
15.0970575986
 20
9.0993499558
 30
0.0
 10
15.0903299692
 20
9.0820587248
 30
0.0
 10
15.0835222283
 20
9.0654165602
 30
0.0
 10
15.0766399197
 20
9.0494371886
 30
0.0
 10
15.0696888419
 20
9.0341337348
 30
0.0
 10
15.0626746273
 20
9.0195188022
 30
0.0
 10
15.0556031826
 20
9.0056043484
 30
0.0
 10
15.0484802056
 20
8.9924018045
 30
0.0
 10
15.0413116663
 20
8.9799219123
 30
0.0
 10
15.0341032964
 20
8.9681748829
 30
0.0
 10
15.0268610681
 20
8.9571702011
 30
0.0
 10
15.0195906973
 20
8.9469168178
 30
0.0
 10
15.0122980727
 20
8.9374229376
 30
0.0
 10
15.004988814
 20
8.9286962348
 30
0.0
 10
14.9976686067
 20
8.9207436591
 30
0.0
 10
14.9903428576
 20
8.91357166
 30
0.0
 10
14.9830169134
 20
8.9071860738
 30
0.0
 10
14.9756958507
 20
8.9015923327
 30
0.0
 10
14.9683846826
 20
8.8967955267
 30
0.0
 10
14.961088126
 20
8.892800498
 30
0.0
 10
14.953811827
 20
8.8896122125
 30
0.0
 10
14.9477159596
 20
8.8876142481
 30
0.0
 10
14.9428732898
 20
8.8864379896
 30
0.0
 10
14.9392820817
 20
8.8857665321
 30
0.0
 10
14.9357017605
 20
8.8852985888
 30
0.0
 10
14.9321330088
 20
8.88503428
 30
0.0
 10
14.9285768321
 20
8.8849737679
 30
0.0
 10
14.9262133907
 20
8.8850693866
 30
0.0
 10
14.9250361296
 20
8.8851510271
 30
0.0
  0
SPLINE
  5
3B3
100
AcDbEntity
  8
0
100
AcDbSpline
 62
7
  6
CONTINUOUS
 70
0
 71
3
 72
60
 73
56
 74
0
 42
0.0000001
 43
0.0000001
 44
0.0000000001
 40
0.0
 40
0.0
 40
0.0
 40
0.0
 40
0.0027758442
 40
0.0055595974
 40
0.0083590905
 40
0.0111820121
 40
0.0140358493
 40
0.0169278177
 40
0.022851653
 40
0.0290063909
 40
0.0354367419
 40
0.0387681448
 40
0.0421823378
 40
0.0492731305
 40
0.0567371465
 40
0.0645961914
 40
0.0728678354
 40
0.0815658032
 40
0.090700695
 40
0.10028023
 40
0.1103098407
 40
0.120792778
 40
0.1317305986
 40
0.143123166
 40
0.1549690593
 40
0.167265505
 40
0.1800087299
 40
0.1931938481
 40
0.206815175
 40
0.2208660874
 40
0.235339308
 40
0.250226751
 40
0.2655197837
 40
0.2812090655
 40
0.2972847914
 40
0.3137365292
 40
0.3305534468
 40
0.347724153
 40
0.3652369092
 40
0.3830794766
 40
0.4197029569
 40
0.4574901813
 40
0.496331037
 40
0.5361108622
 40
0.5767110374
 40
0.6180095499
 40
0.6598815424
 40
0.7021998488
 40
0.744835522
 40
0.7876583565
 40
0.8305374083
 40
0.8733415093
 40
0.9159397945
 40
0.9582021934
 40
1.0
 40
1.0
 40
1.0
 40
1.0
 10
12.0387582463
 20
11.3535444869
 30
0.0
 10
12.0387582503
 20
11.3546083488
 30
0.0
 10
12.038817301
 20
11.356739572
 30
0.0
 10
12.0390828121
 20
11.3599337724
 30
0.0
 10
12.0395251874
 20
11.3631266087
 30
0.0
 10
12.0401442886
 20
11.3663172129
 30
0.0
 10
12.040940034
 20
11.3695049733
 30
0.0
 10
12.042246367
 20
11.3737841557
 30
0.0
 10
12.0443368344
 20
11.3791381098
 30
0.0
 10
12.047528516
 20
11.3854833953
 30
0.0
 10
12.0507324845
 20
11.3906830809
 30
0.0
 10
12.0536279007
 20
11.3948214768
 30
0.0
 10
12.0568291138
 20
11.3990505251
 30
0.0
 10
12.0612799519
 20
11.4043133767
 30
0.0
 10
12.0672404799
 20
11.4105063377
 30
0.0
 10
12.0738814384
 20
11.4166507638
 30
0.0
 10
12.0811973263
 20
11.4227418579
 30
0.0
 10
12.089182253
 20
11.4287753422
 30
0.0
 10
12.0978299265
 20
11.4347464829
 30
0.0
 10
12.1071333873
 20
11.4406508099
 30
0.0
 10
12.1170852669
 20
11.4464835437
 30
0.0
 10
12.1276775314
 20
11.4522401815
 30
0.0
 10
12.1389017087
 20
11.4579159705
 30
0.0
 10
12.1507486986
 20
11.463506454
 30
0.0
 10
12.1632089506
 20
11.4690069671
 30
0.0
 10
12.1762723266
 20
11.4744131499
 30
0.0
 10
12.1899282374
 20
11.4797204664
 30
0.0
 10
12.2041655452
 20
11.4849246885
 30
0.0
 10
12.2189726663
 20
11.4900214372
 30
0.0
 10
12.2343375044
 20
11.4950066413
 30
0.0
 10
12.250247528
 20
11.4998761003
 30
0.0
 10
12.2666897259
 20
11.5046259196
 30
0.0
 10
12.2836506659
 20
11.5092520938
 30
0.0
 10
12.3011164681
 20
11.5137509216
 30
0.0
 10
12.319072848
 20
11.5181186071
 30
0.0
 10
12.3375051043
 20
11.522351656
 30
0.0
 10
12.3563981519
 20
11.5264464964
 30
0.0
 10
12.3757365134
 20
11.5303998483
 30
0.0
 10
12.3955043708
 20
11.5342083967
 30
0.0
 10
12.4226482827
 20
11.5391319758
 30
0.0
 10
12.4575357832
 20
11.5448895739
 30
0.0
 10
12.5004939003
 20
11.5511158826
 30
0.0
 10
12.5447600131
 20
11.556697239
 30
0.0
 10
12.5901890637
 20
11.5616152212
 30
0.0
 10
12.6366323395
 20
11.5658535659
 30
0.0
 10
12.6839377165
 20
11.5693982728
 30
0.0
 10
12.7319502363
 20
11.5722376333
 30
0.0
 10
12.7805126008
 20
11.5743622717
 30
0.0
 10
12.8294656981
 20
11.5757651734
 30
0.0
 10
12.8786491259
 20
11.5764417075
 30
0.0
 10
12.9279017256
 20
11.5763896403
 30
0.0
 10
12.9770620974
 20
11.575609145
 30
0.0
 10
13.0259691963
 20
11.5741027946
 30
0.0
 10
13.0744626152
 20
11.5718755718
 30
0.0
 10
13.1066203375
 20
11.5699021621
 30
0.0
 10
13.122601258
 20
11.5687938815
 30
0.0
  0
SPLINE
  5
3B4
100
AcDbEntity
  8
0
100
AcDbSpline
 62
7
  6
CONTINUOUS
 70
0
 71
3
 72
52
 73
48
 74
0
 42
0.0000001
 43
0.0000001
 44
0.0000000001
 40
0.0
 40
0.0
 40
0.0
 40
0.0
 40
0.0060374451
 40
0.0123407665
 40
0.0189382332
 40
0.025853747
 40
0.0331071982
 40
0.0407150037
 40
0.0486903792
 40
0.0570439358
 40
0.0657837996
 40
0.074916164
 40
0.0844453164
 40
0.0943740687
 40
0.104703787
 40
0.1154346506
 40
0.1265657542
 40
0.1380951853
 40
0.1500202233
 40
0.1623372605
 40
0.17504208
 40
0.1881296788
 40
0.2015945678
 40
0.2154305805
 40
0.2296311204
 40
0.2441890343
 40
0.259096751
 40
0.2743462625
 40
0.3058360848
 40
0.3385873397
 40
0.3725228505
 40
0.407560598
 40
0.443614234
 40
0.4805935502
 40
0.5184049143
 40
0.5569516832
 40
0.5961345996
 40
0.6358521776
 40
0.6760010801
 40
0.7164764915
 40
0.7571724802
 40
0.7979823792
 40
0.8387990941
 40
0.8795156363
 40
0.9200249995
 40
0.9602217187
 40
1.0
 40
1.0
 40
1.0
 40
1.0
 10
12.0466396459
 20
11.3237394117
 30
0.0
 10
12.0476880237
 20
11.3257310302
 30
0.0
 10
12.0500015571
 20
11.3297140271
 30
0.0
 10
12.0539995224
 20
11.3355398282
 30
0.0
 10
12.0585913688
 20
11.3413335527
 30
0.0
 10
12.0637732272
 20
11.3470911544
 30
0.0
 10
12.0695413137
 20
11.3528094025
 30
0.0
 10
12.0758916046
 20
11.358484616
 30
0.0
 10
12.0828196027
 20
11.3641133579
 30
0.0
 10
12.0903206416
 20
11.3696918297
 30
0.0
 10
12.0983894842
 20
11.3752165122
 30
0.0
 10
12.1070206724
 20
11.3806835547
 30
0.0
 10
12.1162082073
 20
11.3860893773
 30
0.0
 10
12.1259457964
 20
11.3914301793
 30
0.0
 10
12.1362266783
 20
11.3967023389
 30
0.0
 10
12.1470437361
 20
11.4019021734
 30
0.0
 10
12.1583894533
 20
11.4070260477
 30
0.0
 10
12.1702559194
 20
11.4120704284
 30
0.0
 10
12.1826348752
 20
11.4170317045
 30
0.0
 10
12.1955176551
 20
11.4219064948
 30
0.0
 10
12.208895273
 20
11.4266912595
 30
0.0
 10
12.2227583468
 20
11.4313827531
 30
0.0
 10
12.2370971846
 20
11.4359775596
 30
0.0
 10
12.2519017233
 20
11.440472544
 30
0.0
 10
12.2671615933
 20
11.4448644621
 30
0.0
 10
12.2828660791
 20
11.4491502676
 30
0.0
 10
12.2990041806
 20
11.4533269401
 30
0.0
 10
12.3213236554
 20
11.4588049345
 30
0.0
 10
12.3502294503
 20
11.4653439646
 30
0.0
 10
12.386098972
 20
11.4726292204
 30
0.0
 10
12.4234115548
 20
11.479413667
 30
0.0
 10
12.4620623819
 20
11.4856780902
 30
0.0
 10
12.5019430467
 20
11.4914047255
 30
0.0
 10
12.5429415754
 20
11.4965773474
 30
0.0
 10
12.5849428353
 20
11.501181303
 30
0.0
 10
12.6278288422
 20
11.5052035546
 30
0.0
 10
12.6714791045
 20
11.5086327155
 30
0.0
 10
12.715770965
 20
11.5114590812
 30
0.0
 10
12.7605799511
 20
11.5136746552
 30
0.0
 10
12.8057801266
 20
11.515273169
 30
0.0
 10
12.8512444536
 20
11.5162501028
 30
0.0
 10
12.8968451342
 20
11.5166026891
 30
0.0
 10
12.9424540259
 20
11.5163299402
 30
0.0
 10
12.9879428498
 20
11.5154326086
 30
0.0
 10
13.0331839398
 20
11.5139132622
 30
0.0
 10
13.0780498246
 20
11.5117761608
 30
0.0
 10
13.1078078538
 20
11.5099324037
 30
0.0
 10
13.122601258
 20
11.5089064777
 30
0.0
  0
SPLINE
  5
3B5
100
AcDbEntity
  8
0
100
AcDbSpline
 62
7
  6
CONTINUOUS
 70
0
 71
3
 72
55
 73
51
 74
0
 42
0.0000001
 43
0.0000001
 44
0.0000000001
 40
0.0
 40
0.0
 40
0.0
 40
0.0
 40
0.0055583057
 40
0.0112281018
 40
0.0170646316
 40
0.0231181162
 40
0.0294328959
 40
0.0360473386
 40
0.0429938998
 40
0.0502996816
 40
0.0579868788
 40
0.0660734531
 40
0.0745736313
 40
0.0834984409
 40
0.0928561594
 40
0.1026526466
 40
0.1128917484
 40
0.1235754416
 40
0.1347042146
 40
0.1462770636
 40
0.1582918664
 40
0.1707452716
 40
0.1836330669
 40
0.1969500033
 40
0.2106901473
 40
0.2248466797
 40
0.2394122137
 40
0.2543786043
 40
0.2697372135
 40
0.2854787569
 40
0.3015935039
 40
0.3180711778
 40
0.3349010844
 40
0.3520720738
 40
0.3873902386
 40
0.42392937
 40
0.46158717
 40
0.5002565267
 40
0.539826096
 40
0.5801808516
 40
0.6212026138
 40
0.662770562
 40
0.7047617381
 40
0.7470515388
 40
0.7895142163
 40
0.8320233345
 40
0.874452348
 40
0.9166748341
 40
0.9585655956
 40
1.0
 40
1.0
 40
1.0
 40
1.0
 10
12.0650066914
 20
11.2989279159
 30
0.0
 10
12.0651996657
 20
11.3009749825
 30
0.0
 10
12.0658159523
 20
11.3050920747
 30
0.0
 10
12.0674057801
 20
11.3112121342
 30
0.0
 10
12.0696639002
 20
11.3173138448
 30
0.0
 10
12.0725868063
 20
11.323390913
 30
0.0
 10
12.0761703574
 20
11.3294391635
 30
0.0
 10
12.0804106663
 20
11.3354542631
 30
0.0
 10
12.0853034385
 20
11.3414323761
 30
0.0
 10
12.0908444575
 20
11.3473694673
 30
0.0
 10
12.0970290714
 20
11.3532616132
 30
0.0
 10
12.1038524015
 20
11.3591046741
 30
0.0
 10
12.1113090902
 20
11.3648944981
 30
0.0
 10
12.119393352
 20
11.3706268339
 30
0.0
 10
12.1280989232
 20
11.3762973605
 30
0.0
 10
12.1374190155
 20
11.3819018001
 30
0.0
 10
12.1473463856
 20
11.3874357583
 30
0.0
 10
12.1578732326
 20
11.3928950055
 30
0.0
 10
12.1689913242
 20
11.3982751535
 30
0.0
 10
12.180691873
 20
11.4035720693
 30
0.0
 10
12.1929656765
 20
11.408781431
 30
0.0
 10
12.2058029984
 20
11.4138992291
 30
0.0
 10
12.2191936976
 20
11.4189212536
 30
0.0
 10
12.2331271289
 20
11.4238436335
 30
0.0
 10
12.2475922497
 20
11.4286623069
 30
0.0
 10
12.2625775467
 20
11.4333735492
 30
0.0
 10
12.2780711163
 20
11.4379734766
 30
0.0
 10
12.294060618
 20
11.4424585168
 30
0.0
 10
12.3105333302
 20
11.4468249877
 30
0.0
 10
12.3274761263
 20
11.4510694763
 30
0.0
 10
12.3448755131
 20
11.4551885214
 30
0.0
 10
12.3627176166
 20
11.4591788724
 30
0.0
 10
12.3809882344
 20
11.4630373238
 30
0.0
 10
12.4061368932
 20
11.4680488775
 30
0.0
 10
12.4385405275
 20
11.4739483428
 30
0.0
 10
12.4785396977
 20
11.480390529
 30
0.0
 10
12.5198822268
 20
11.486239389
 30
0.0
 10
12.5624362377
 20
11.4914761209
 30
0.0
 10
12.6060661463
 20
11.4960838649
 30
0.0
 10
12.6506328419
 20
11.5000478009
 30
0.0
 10
12.6959942131
 20
11.5033551811
 30
0.0
 10
12.7420055881
 20
11.505995373
 30
0.0
 10
12.7885202056
 20
11.5079598903
 30
0.0
 10
12.8353896898
 20
11.5092424208
 30
0.0
 10
12.8824645173
 20
11.5098388409
 30
0.0
 10
12.9295945288
 20
11.5097472396
 30
0.0
 10
12.9766293217
 20
11.5089679009
 30
0.0
 10
13.0234189682
 20
11.5075033443
 30
0.0
 10
13.0698139611
 20
11.5053582594
 30
0.0
 10
13.1005811772
 20
11.5034669026
 30
0.0
 10
13.1158719683
 20
11.5024064826
 30
0.0
  0
SPLINE
  5
3B6
100
AcDbEntity
  8
0
100
AcDbSpline
 62
7
  6
CONTINUOUS
 70
0
 71
3
 72
52
 73
48
 74
0
 42
0.0000001
 43
0.0000001
 44
0.0000000001
 40
0.0
 40
0.0
 40
0.0
 40
0.0
 40
0.0057769004
 40
0.0117750131
 40
0.0180322083
 40
0.0245812214
 40
0.031449724
 40
0.0386609329
 40
0.0462338731
 40
0.0541840725
 40
0.06252384
 40
0.0712628188
 40
0.0804082654
 40
0.08996538
 40
0.0999376187
 40
0.1103268016
 40
0.1211334745
 40
0.132356842
 40
0.1439951584
 40
0.1560455644
 40
0.168504452
 40
0.1813673001
 40
0.1946289461
 40
0.2082834977
 40
0.2223244699
 40
0.2367448104
 40
0.2515368946
 40
0.2666926654
 40
0.2980598882
 40
0.3307735216
 40
0.3647536988
 40
0.3999150076
 40
0.4361670915
 40
0.4734151916
 40
0.5115606465
 40
0.5505013629
 40
0.5901322641
 40
0.6303457265
 40
0.6710320033
 40
0.7120796424
 40
0.7533758938
 40
0.7948071345
 40
0.8362592192
 40
0.8776180571
 40
0.9187695369
 40
0.9596011088
 40
1.0
 40
1.0
 40
1.0
 40
1.0
 10
12.0893164767
 20
11.2782001798
 30
0.0
 10
12.0900165521
 20
11.2801317051
 30
0.0
 10
12.0916319312
 20
11.284002647
 30
0.0
 10
12.0946126167
 20
11.2896887752
 30
0.0
 10
12.0981878613
 20
11.2953483631
 30
0.0
 10
12.102354125
 20
11.3009769854
 30
0.0
 10
12.1071076985
 20
11.3065715295
 30
0.0
 10
12.1124449487
 20
11.3121283006
 30
0.0
 10
12.1183617157
 20
11.3176439344
 30
0.0
 10
12.1248537643
 20
11.3231146976
 30
0.0
 10
12.1319163276
 20
11.3285370232
 30
0.0
 10
12.1395443651
 20
11.333907136
 30
0.0
 10
12.1477323746
 20
11.3392213073
 30
0.0
 10
12.1564744488
 20
11.3444757945
 30
0.0
 10
12.1657642907
 20
11.3496667766
 30
0.0
 10
12.1755951334
 20
11.354790594
 30
0.0
 10
12.1859598674
 20
11.359843407
 30
0.0
 10
12.1968508986
 20
11.3648216553
 30
0.0
 10
12.2082603096
 20
11.3697215522
 30
0.0
 10
12.2201797177
 20
11.374539629
 30
0.0
 10
12.2326004145
 20
11.3792722173
 30
0.0
 10
12.2455132651
 20
11.3839159257
 30
0.0
 10
12.2589087985
 20
11.3884672523
 30
0.0
 10
12.2727771582
 20
11.3929228782
 30
0.0
 10
12.2871081462
 20
11.3972794965
 30
0.0
 10
12.3018912093
 20
11.4015338632
 30
0.0
 10
12.3171154755
 20
11.4056829014
 30
0.0
 10
12.3382299799
 20
11.4111327136
 30
0.0
 10
12.3656501544
 20
11.4176439406
 30
0.0
 10
12.399763202
 20
11.424903774
 30
0.0
 10
12.4353509007
 20
11.4316750238
 30
0.0
 10
12.4723083185
 20
11.4379375424
 30
0.0
 10
12.5105266633
 20
11.4436726743
 30
0.0
 10
12.5498932956
 20
11.4488633494
 30
0.0
 10
12.5902921649
 20
11.4534941218
 30
0.0
 10
12.6316041359
 20
11.4575512173
 30
0.0
 10
12.6737073545
 20
11.4610225729
 30
0.0
 10
12.7164776117
 20
11.46389787
 30
0.0
 10
12.759788716
 20
11.4661685639
 30
0.0
 10
12.8035128681
 20
11.4678279072
 30
0.0
 10
12.8475210462
 20
11.4688709719
 30
0.0
 10
12.8916833726
 20
11.4692946552
 30
0.0
 10
12.9358695503
 20
11.4690977079
 30
0.0
 10
12.9799491048
 20
11.4682806965
 30
0.0
 10
13.0237921373
 20
11.4668460768
 30
0.0
 10
13.0672689651
 20
11.4647980746
 30
0.0
 10
13.0961038416
 20
11.463016792
 30
0.0
 10
13.1104367729
 20
11.4620227998
 30
0.0
  0
SPLINE
  5
3B7
100
AcDbEntity
  8
0
100
AcDbSpline
 62
7
  6
CONTINUOUS
 70
0
 71
3
 72
23
 73
19
 74
0
 42
0.0000001
 43
0.0000001
 44
0.0000000001
 40
0.0
 40
0.0
 40
0.0
 40
0.0
 40
0.0554383549
 40
0.1125762417
 40
0.1712654434
 40
0.2313517264
 40
0.292675566
 40
0.3550728389
 40
0.4183754953
 40
0.4824122156
 40
0.5470090567
 40
0.6119900804
 40
0.6771780129
 40
0.7423947819
 40
0.8074624249
 40
0.8722029222
 40
0.9364407763
 40
1.0
 40
1.0
 40
1.0
 40
1.0
 10
12.4374411483
 20
11.1656884385
 30
0.0
 10
12.4497246718
 20
11.167882269
 30
0.0
 10
12.4747141339
 20
11.1720837906
 30
0.0
 10
12.5128436264
 20
11.1777615128
 30
0.0
 10
12.5521050367
 20
11.1828984639
 30
0.0
 10
12.5923833929
 20
11.1874794556
 30
0.0
 10
12.633560983
 20
11.1914909878
 30
0.0
 10
12.6755173644
 20
11.1949212321
 30
0.0
 10
12.7181298175
 20
11.1977600807
 30
0.0
 10
12.7612736837
 20
11.1999991695
 30
0.0
 10
12.8048227397
 20
11.2016319022
 30
0.0
 10
12.8486495732
 20
11.2026534713
 30
0.0
 10
12.8926259413
 20
11.2030608639
 30
0.0
 10
12.936623201
 20
11.2028528898
 30
0.0
 10
12.9805125364
 20
11.2020301425
 30
0.0
 10
13.0241657189
 20
11.200595075
 30
0.0
 10
13.0674547145
 20
11.1985518759
 30
0.0
 10
13.0961653363
 20
11.1967773385
 30
0.0
 10
13.1104367729
 20
11.195787611
 30
0.0
  0
SPLINE
  5
3B8
100
AcDbEntity
  8
0
100
AcDbSpline
 62
7
  6
CONTINUOUS
 70
0
 71
3
 72
45
 73
41
 74
0
 42
0.0000001
 43
0.0000001
 44
0.0000000001
 40
0.0
 40
0.0
 40
0.0
 40
0.0
 40
0.0139953023
 40
0.0213176987
 40
0.0288755297
 40
0.0366821724
 40
0.0447493701
 40
0.0530874928
 40
0.0617056198
 40
0.070611517
 40
0.0798119025
 40
0.0893125532
 40
0.099118226
 40
0.1092328822
 40
0.119659815
 40
0.1304015372
 40
0.1414599354
 40
0.1645307071
 40
0.1888781702
 40
0.2145001224
 40
0.2413882017
 40
0.269528816
 40
0.2989039098
 40
0.3294912217
 40
0.3612649722
 40
0.3941961483
 40
0.428252666
 40
0.4633998794
 40
0.4996006001
 40
0.536815334
 40
0.5750025926
 40
0.6141188238
 40
0.6541187372
 40
0.6949554176
 40
0.7365802656
 40
0.7789434385
 40
0.821993839
 40
0.8656785258
 40
0.9099442307
 40
1.0
 40
1.0
 40
1.0
 40
1.0
 10
13.7529131134
 20
11.3236704261
 30
0.0
 10
13.7514546153
 20
11.3264476428
 30
0.0
 10
13.7489848589
 20
11.3305519224
 30
0.0
 10
13.745244118
 20
11.3358351842
 30
0.0
 10
13.7421115692
 20
11.3398433483
 30
0.0
 10
13.7386960827
 20
11.3438350593
 30
0.0
 10
13.7349986909
 20
11.347809498
 30
0.0
 10
13.7310206934
 20
11.3517652955
 30
0.0
 10
13.7267633728
 20
11.3557011834
 30
0.0
 10
13.722228218
 20
11.3596159547
 30
0.0
 10
13.7174167334
 20
11.3635083508
 30
0.0
 10
13.7123304761
 20
11.3673770572
 30
0.0
 10
13.7069711783
 20
11.3712208614
 30
0.0
 10
13.7013406276
 20
11.375038518
 30
0.0
 10
13.6954406601
 20
11.3788287084
 30
0.0
 10
13.6892732518
 20
11.3825902442
 30
0.0
 10
13.6805730688
 20
11.3876370894
 30
0.0
 10
13.6690302919
 20
11.3938543836
 30
0.0
 10
13.6543358944
 20
11.4010790951
 30
0.0
 10
13.6386283579
 20
11.4081598797
 30
0.0
 10
13.6219286848
 20
11.4150873028
 30
0.0
 10
13.6042589538
 20
11.4218521417
 30
0.0
 10
13.5856426721
 20
11.428445238
 30
0.0
 10
13.5661046793
 20
11.4348577835
 30
0.0
 10
13.5456710781
 20
11.4410811118
 30
0.0
 10
13.5243692043
 20
11.4471067882
 30
0.0
 10
13.5022276063
 20
11.4529267377
 30
0.0
 10
13.4792759644
 20
11.4585330474
 30
0.0
 10
13.455545075
 20
11.4639181503
 30
0.0
 10
13.4310667996
 20
11.4690748064
 30
0.0
 10
13.4058740066
 20
11.4739959899
 30
0.0
 10
13.3800005454
 20
11.4786750944
 30
0.0
 10
13.3534811837
 20
11.4831057989
 30
0.0
 10
13.3263515679
 20
11.4872820752
 30
0.0
 10
13.2986481719
 20
11.4911983396
 30
0.0
 10
13.2704082075
 20
11.4948492764
 30
0.0
 10
13.2416697307
 20
11.4982299193
 30
0.0
 10
13.2124713592
 20
11.5013357992
 30
0.0
 10
13.1727530701
 20
11.5051264288
 30
0.0
 10
13.1427379557
 20
11.5075099929
 30
0.0
 10
13.122601258
 20
11.5089064777
 30
0.0
  0
SPLINE
  5
3B9
100
AcDbEntity
  8
0
100
AcDbSpline
 62
7
  6
CONTINUOUS
 70
0
 71
3
 72
51
 73
47
 74
0
 42
0.0000001
 43
0.0000001
 44
0.0000000001
 40
0.0
 40
0.0
 40
0.0
 40
0.0
 40
0.0064578767
 40
0.0129939098
 40
0.0196417201
 40
0.0264330517
 40
0.0333974818
 40
0.0405622154
 40
0.0479518619
 40
0.0555885531
 40
0.0634920095
 40
0.0716795187
 40
0.0801662613
 40
0.088965451
 40
0.0980883561
 40
0.1075446737
 40
0.1173426314
 40
0.1274889872
 40
0.1379893876
 40
0.1488484021
 40
0.1600694972
 40
0.1716553628
 40
0.1836078864
 40
0.1959281126
 40
0.2086165403
 40
0.2216730487
 40
0.2488857883
 40
0.2775559793
 40
0.3076649684
 40
0.3391879807
 40
0.3720950018
 40
0.406351214
 40
0.4419175041
 40
0.4787510246
 40
0.5168054073
 40
0.5560310434
 40
0.5963754983
 40
0.6377836445
 40
0.6801978448
 40
0.723558248
 40
0.7678029233
 40
0.8128681866
 40
0.8586882058
 40
0.9051956149
 40
0.9523244147
 40
1.0
 40
1.0
 40
1.0
 40
1.0
 10
13.7345127061
 20
11.2988970265
 30
0.0
 10
13.73437667
 20
11.3003485292
 30
0.0
 10
13.733989806
 20
11.3032596882
 30
0.0
 10
13.7330743417
 20
11.3076022588
 30
0.0
 10
13.7318216867
 20
11.3119382977
 30
0.0
 10
13.7302328434
 20
11.3162655729
 30
0.0
 10
13.7283087638
 20
11.3205823773
 30
0.0
 10
13.7260504392
 20
11.3248869151
 30
0.0
 10
13.7234591586
 20
11.3291776033
 30
0.0
 10
13.7205361451
 20
11.3334528345
 30
0.0
 10
13.7172826574
 20
11.3377109793
 30
0.0
 10
13.7137002054
 20
11.3419505473
 30
0.0
 10
13.7097902625
 20
11.3461699604
 30
0.0
 10
13.7055543843
 20
11.3503676002
 30
0.0
 10
13.7009943597
 20
11.3545419704
 30
0.0
 10
13.6961119847
 20
11.3586914642
 30
0.0
 10
13.6909091717
 20
11.3628144492
 30
0.0
 10
13.685388048
 20
11.3669094105
 30
0.0
 10
13.6795507786
 20
11.3709747228
 30
0.0
 10
13.6733996605
 20
11.3750087569
 30
0.0
 10
13.6669371852
 20
11.3790099965
 30
0.0
 10
13.6601659003
 20
11.3829768205
 30
0.0
 10
13.6530884895
 20
11.3869076268
 30
0.0
 10
13.6457078155
 20
11.390800908
 30
0.0
 10
13.6380267928
 20
11.3946550988
 30
0.0
 10
13.6272398697
 20
11.3998109892
 30
0.0
 10
13.613015834
 20
11.4061348929
 30
0.0
 10
13.5950278481
 20
11.4134422503
 30
0.0
 10
13.5759213826
 20
11.4205576676
 30
0.0
 10
13.5557270814
 20
11.4274696908
 30
0.0
 10
13.5344770999
 20
11.4341671331
 30
0.0
 10
13.5122054534
 20
11.4406391666
 30
0.0
 10
13.4889478366
 20
11.4468753532
 30
0.0
 10
13.4647415557
 20
11.4528655625
 30
0.0
 10
13.4396254817
 20
11.4586000853
 30
0.0
 10
13.4136399881
 20
11.4640696696
 30
0.0
 10
13.3868268533
 20
11.469265432
 30
0.0
 10
13.359229205
 20
11.4741789431
 30
0.0
 10
13.3308914626
 20
11.4788022815
 30
0.0
 10
13.3018592435
 20
11.4831279449
 30
0.0
 10
13.272179255
 20
11.4871489178
 30
0.0
 10
13.2418993249
 20
11.4908587085
 30
0.0
 10
13.2110683128
 20
11.4942513092
 30
0.0
 10
13.1797354196
 20
11.497321268
 30
0.0
 10
13.1479517439
 20
11.5000635063
 30
0.0
 10
13.1266089267
 20
11.5016618721
 30
0.0
 10
13.1158719683
 20
11.5024064826
 30
0.0
  0
SPLINE
  5
3BA
100
AcDbEntity
  8
0
100
AcDbSpline
 62
7
  6
CONTINUOUS
 70
0
 71
3
 72
48
 73
44
 74
0
 42
0.0000001
 43
0.0000001
 44
0.0000000001
 40
0.0
 40
0.0
 40
0.0
 40
0.0
 40
0.0066400755
 40
0.0134484724
 40
0.020448001
 40
0.0276593425
 40
0.0427856017
 40
0.050736538
 40
0.0589624028
 40
0.0674746049
 40
0.0762829467
 40
0.0853959334
 40
0.0948208778
 40
0.1045638464
 40
0.1146299466
 40
0.1250234364
 40
0.135747615
 40
0.1468050628
 40
0.1581977627
 40
0.1699269542
 40
0.1819933163
 40
0.2071369944
 40
0.2336257831
 40
0.2614490281
 40
0.2905903015
 40
0.3210281345
 40
0.3527367948
 40
0.3856864952
 40
0.4198439299
 40
0.4551726856
 40
0.4916332811
 40
0.5291836335
 40
0.5677792328
 40
0.6073731772
 40
0.6479165793
 40
0.6893585989
 40
0.7316464984
 40
0.7747260626
 40
0.8185416313
 40
0.8630355327
 40
0.9081494737
 40
0.953826216
 40
1.0
 40
1.0
 40
1.0
 40
1.0
 10
13.7102296478
 20
11.2781182268
 30
0.0
 10
13.7097447393
 20
11.2794617262
 30
0.0
 10
13.7086721548
 20
11.2821509457
 30
0.0
 10
13.7067893367
 20
11.2861289299
 30
0.0
 10
13.704614943
 20
11.2900961549
 30
0.0
 10
13.7012756845
 20
11.2954540163
 30
0.0
 10
13.6973906127
 20
11.3007001128
 30
0.0
 10
13.6930239549
 20
11.3058275116
 30
0.0
 10
13.6894082613
 20
11.3097197721
 30
0.0
 10
13.6855081158
 20
11.3135928818
 30
0.0
 10
13.6813247811
 20
11.3174458394
 30
0.0
 10
13.676859803
 20
11.3212772497
 30
0.0
 10
13.6721147176
 20
11.3250857627
 30
0.0
 10
13.6670912739
 20
11.3288701119
 30
0.0
 10
13.6617912557
 20
11.3326289773
 30
0.0
 10
13.6562165113
 20
11.3363609825
 30
0.0
 10
13.6503690658
 20
11.3400648608
 30
0.0
 10
13.6442510097
 20
11.3437393115
 30
0.0
 10
13.6378644955
 20
11.3473829641
 30
0.0
 10
13.631211821
 20
11.3509945865
 30
0.0
 10
13.6218612801
 20
11.3558320965
 30
0.0
 10
13.6095133452
 20
11.3617789383
 30
0.0
 10
13.5938705442
 20
11.3686723046
 30
0.0
 10
13.5772277308
 20
11.3754074873
 30
0.0
 10
13.5596087985
 20
11.3819747877
 30
0.0
 10
13.5410388458
 20
11.3883647937
 30
0.0
 10
13.5215444449
 20
11.3945682035
 30
0.0
 10
13.5011535488
 20
11.400576074
 30
0.0
 10
13.4798954376
 20
11.4063797203
 30
0.0
 10
13.4578006547
 20
11.4119706733
 30
0.0
 10
13.4349009945
 20
11.4173408784
 30
0.0
 10
13.4112294201
 20
11.422482541
 30
0.0
 10
13.3868200188
 20
11.4273881669
 30
0.0
 10
13.3617079672
 20
11.4320506978
 30
0.0
 10
13.3359294546
 20
11.4364633457
 30
0.0
 10
13.3095216479
 20
11.4406196973
 30
0.0
 10
13.2825226303
 20
11.4445137771
 30
0.0
 10
13.2549713057
 20
11.448139904
 30
0.0
 10
13.2269074714
 20
11.451492813
 30
0.0
 10
13.1983716646
 20
11.4545676956
 30
0.0
 10
13.1694046132
 20
11.4573600923
 30
0.0
 10
13.1400487312
 20
11.4598658646
 30
0.0
 10
13.1203453014
 20
11.461335641
 30
0.0
 10
13.1104367729
 20
11.4620227998
 30
0.0
  0
SPLINE
  5
3BB
100
AcDbEntity
  8
0
100
AcDbSpline
 62
7
  6
CONTINUOUS
 70
0
 71
3
 72
15
 73
11
 74
0
 42
0.0000001
 43
0.0000001
 44
0.0000000001
 40
0.0
 40
0.0
 40
0.0
 40
0.0
 40
0.1163233699
 40
0.2355257924
 40
0.3574146917
 40
0.4817914897
 40
0.6084511672
 40
0.7371817845
 40
0.8677750034
 40
1.0
 40
1.0
 40
1.0
 40
1.0
 10
13.3620745969
 20
11.1656885747
 30
0.0
 10
13.3523964951
 20
11.1674170714
 30
0.0
 10
13.3327724184
 20
11.170759902
 30
0.0
 10
13.3029200503
 20
11.1753845218
 30
0.0
 10
13.2723303644
 20
11.1796750508
 30
0.0
 10
13.2410593664
 20
11.1836235673
 30
0.0
 10
13.2091643144
 20
11.187222783
 30
0.0
 10
13.1767030993
 20
11.190466173
 30
0.0
 10
13.1437356608
 20
11.1933476367
 30
0.0
 10
13.1215851898
 20
11.1950144657
 30
0.0
 10
13.1104367729
 20
11.195787611
 30
0.0
  0
SPLINE
  5
3BC
100
AcDbEntity
  8
0
100
AcDbSpline
 62
7
  6
CONTINUOUS
 70
0
 71
3
 72
23
 73
19
 74
0
 42
0.0000001
 43
0.0000001
 44
0.0000000001
 40
0.0
 40
0.0
 40
0.0
 40
0.0
 40
0.0637757517
 40
0.1273453038
 40
0.1907021142
 40
0.2538559682
 40
0.3168132565
 40
0.3795821027
 40
0.442173382
 40
0.5045993411
 40
0.5668738656
 40
0.6290123776
 40
0.6910316412
 40
0.7529496359
 40
0.8147853464
 40
0.8765585919
 40
0.9382898467
 40
1.0
 40
1.0
 40
1.0
 40
1.0
 10
6.8891180627
 20
8.2482268639
 30
0.0
 10
6.8891180627
 20
8.2535342825
 30
0.0
 10
6.8893721536
 20
8.2641337565
 30
0.0
 10
6.8905187013
 20
8.279968454
 30
0.0
 10
6.8924278248
 20
8.2956777122
 30
0.0
 10
6.8950949556
 20
8.3112244354
 30
0.0
 10
6.8985139846
 20
8.3265732437
 30
0.0
 10
6.902677092
 20
8.3416886539
 30
0.0
 10
6.9075747697
 20
8.3565357779
 30
0.0
 10
6.9131956916
 20
8.3710804174
 30
0.0
 10
6.9195269078
 20
8.385289038
 30
0.0
 10
6.9265539448
 20
8.3991288189
 30
0.0
 10
6.9342605471
 20
8.4125678649
 30
0.0
 10
6.9426289419
 20
8.4255752021
 30
0.0
 10
6.951639911
 20
8.4381207323
 30
0.0
 10
6.9612727298
 20
8.4501756429
 30
0.0
 10
6.971504756
 20
8.461711798
 30
0.0
 10
6.978711309
 20
8.4690402429
 30
0.0
 10
6.9824050659
 20
8.4726081163
 30
0.0
  0
SPLINE
  5
3BD
100
AcDbEntity
  8
0
100
AcDbSpline
 62
7
  6
CONTINUOUS
 70
0
 71
3
 72
23
 73
19
 74
0
 42
0.0000001
 43
0.0000001
 44
0.0000000001
 40
0.0
 40
0.0
 40
0.0
 40
0.0
 40
0.0637757517
 40
0.1273453038
 40
0.1907021142
 40
0.2538559682
 40
0.3168132565
 40
0.3795821027
 40
0.442173382
 40
0.5045993411
 40
0.5668738656
 40
0.6290123776
 40
0.6910316412
 40
0.7529496359
 40
0.8147853464
 40
0.8765585919
 40
0.9382898467
 40
1.0
 40
1.0
 40
1.0
 40
1.0
 10
13.4110495458
 20
7.7959293794
 30
0.0
 10
13.4110495458
 20
7.8012367979
 30
0.0
 10
13.4113036367
 20
7.8118362719
 30
0.0
 10
13.4124501844
 20
7.8276709694
 30
0.0
 10
13.4143593079
 20
7.8433802276
 30
0.0
 10
13.4170264387
 20
7.8589269509
 30
0.0
 10
13.4204454677
 20
7.8742757591
 30
0.0
 10
13.4246085751
 20
7.8893911693
 30
0.0
 10
13.4295062528
 20
7.9042382934
 30
0.0
 10
13.4351271747
 20
7.9187829328
 30
0.0
 10
13.4414583909
 20
7.9329915534
 30
0.0
 10
13.4484854279
 20
7.9468313344
 30
0.0
 10
13.4561920302
 20
7.9602703804
 30
0.0
 10
13.464560425
 20
7.9732777176
 30
0.0
 10
13.4735713941
 20
7.9858232477
 30
0.0
 10
13.4832042129
 20
7.9978781583
 30
0.0
 10
13.4934362391
 20
8.0094143134
 30
0.0
 10
13.5006427921
 20
8.0167427584
 30
0.0
 10
13.504336549
 20
8.0203106318
 30
0.0
  0
SPLINE
  5
3BE
100
AcDbEntity
  8
0
100
AcDbSpline
 62
7
  6
CONTINUOUS
 70
0
 71
3
 72
15
 73
11
 74
0
 42
0.0000001
 43
0.0000001
 44
0.0000000001
 40
0.0
 40
0.0
 40
0.0
 40
0.0
 40
0.1217359557
 40
0.2457282641
 40
0.3713240986
 40
0.497859789
 40
0.6246651749
 40
0.7510688841
 40
0.8764003488
 40
1.0
 40
1.0
 40
1.0
 40
1.0
 10
14.7733689564
 20
6.6967389622
 30
0.0
 10
14.7752585987
 20
6.7088375547
 30
0.0
 10
14.7788158702
 20
6.7332998049
 30
0.0
 10
14.7834528434
 20
6.7703641754
 30
0.0
 10
14.7874228689
 20
6.8079915006
 30
0.0
 10
14.7907034005
 20
6.8459691289
 30
0.0
 10
14.7932758895
 20
6.8840827142
 30
0.0
 10
14.7951257838
 20
6.9221169857
 30
0.0
 10
14.7962427405
 20
6.9598571286
 30
0.0
 10
14.796496812
 20
6.9848974576
 30
0.0
 10
14.796496812
 20
6.9973301966
 30
0.0
  0
SPLINE
  5
3BF
100
AcDbEntity
  8
0
100
AcDbSpline
 62
7
  6
CONTINUOUS
 70
0
 71
3
 72
28
 73
24
 74
0
 42
0.0000001
 43
0.0000001
 44
0.0000000001
 40
0.0
 40
0.0
 40
0.0
 40
0.0
 40
0.0238227089
 40
0.0484340766
 40
0.0738110083
 40
0.0999286426
 40
0.1267609019
 40
0.1542801593
 40
0.1824577517
 40
0.2112636887
 40
0.2406670562
 40
0.2706358356
 40
0.3321363805
 40
0.3954933059
 40
0.4604220351
 40
0.5266284149
 40
0.5938106375
 40
0.6616611114
 40
0.7298683454
 40
0.7981186795
 40
0.8660984715
 40
0.9334949169
 40
1.0
 40
1.0
 40
1.0
 40
1.0
 10
14.7910044345
 20
6.4297424285
 30
0.0
 10
14.7925902573
 20
6.4341324057
 30
0.0
 10
14.7957301019
 20
6.4430883421
 30
0.0
 10
14.8002772401
 20
6.4568174814
 30
0.0
 10
14.8047342091
 20
6.4710480582
 30
0.0
 10
14.8090956127
 20
6.4857625834
 30
0.0
 10
14.813355986
 20
6.5009430737
 30
0.0
 10
14.8175101864
 20
6.5165709259
 30
0.0
 10
14.8215530155
 20
6.5326270054
 30
0.0
 10
14.8254795722
 20
6.5490916306
 30
0.0
 10
14.8292849908
 20
6.5659446437
 30
0.0
 10
14.834233695
 20
6.5891050897
 30
0.0
 10
14.8400721399
 20
6.6188759817
 30
0.0
 10
14.8464661965
 20
6.6555097696
 30
0.0
 10
14.8522754278
 20
6.69317397
 30
0.0
 10
14.8574712003
 20
6.7316839438
 30
0.0
 10
14.862027894
 20
6.7708510492
 30
0.0
 10
14.8659230761
 20
6.8104833368
 30
0.0
 10
14.8691375857
 20
6.8503865607
 30
0.0
 10
14.8716556539
 20
6.8903651524
 30
0.0
 10
14.8734649296
 20
6.930223128
 30
0.0
 10
14.8745566282
 20
6.9697650359
 30
0.0
 10
14.8748045505
 20
6.9960011988
 30
0.0
 10
14.8748045505
 20
7.0090316592
 30
0.0
  0
SPLINE
  5
3C0
100
AcDbEntity
  8
0
100
AcDbSpline
 62
7
  6
CONTINUOUS
 70
0
 71
3
 72
55
 73
51
 74
0
 42
0.0000001
 43
0.0000001
 44
0.0000000001
 40
0.0
 40
0.0
 40
0.0
 40
0.0
 40
0.0055377852
 40
0.0110145043
 40
0.0165017791
 40
0.022070784
 40
0.0277893609
 40
0.0337197221
 40
0.0399170211
 40
0.0464287234
 40
0.0532948218
 40
0.0605482085
 40
0.0682156641
 40
0.0763183836
 40
0.0848730752
 40
0.0938923137
 40
0.1033854662
 40
0.1133588936
 40
0.1238166101
 40
0.1347604463
 40
0.1461904268
 40
0.1581049861
 40
0.1705010855
 40
0.1833745232
 40
0.196719838
 40
0.2105307042
 40
0.2247996964
 40
0.2395187175
 40
0.2546787172
 40
0.2702700778
 40
0.2862823804
 40
0.3027046803
 40
0.3195253838
 40
0.3367323781
 40
0.3722536782
 40
0.4091625339
 40
0.4473454263
 40
0.4866828046
 40
0.5270498214
 40
0.568317024
 40
0.6103510133
 40
0.65301508
 40
0.6961698296
 40
0.7396737898
 40
0.7833840372
 40
0.8271567381
 40
0.8708479408
 40
0.9143136448
 40
0.9574117015
 40
1.0
 40
1.0
 40
1.0
 40
1.0
 10
14.8801432116
 20
6.2365926753
 30
0.0
 10
14.8816247928
 20
6.2361575491
 30
0.0
 10
14.8846235149
 20
6.2354573106
 30
0.0
 10
14.8892067066
 20
6.2349449264
 30
0.0
 10
14.8938275386
 20
6.2349808084
 30
0.0
 10
14.8984788032
 20
6.2355646905
 30
0.0
 10
14.9031548005
 20
6.2366944266
 30
0.0
 10
14.9078504736
 20
6.2383671368
 30
0.0
 10
14.9125616261
 20
6.2405795669
 30
0.0
 10
14.9172846925
 20
6.2433282461
 30
0.0
 10
14.9220162287
 20
6.2466099284
 30
0.0
 10
14.9267530461
 20
6.2504210458
 30
0.0
 10
14.9314916061
 20
6.2547581769
 30
0.0
 10
14.9362285459
 20
6.2596173399
 30
0.0
 10
14.9409600422
 20
6.2649944925
 30
0.0
 10
14.9456824742
 20
6.2708849501
 30
0.0
 10
14.9503918356
 20
6.2772838014
 30
0.0
 10
14.9550843031
 20
6.2841855339
 30
0.0
 10
14.9597558174
 20
6.2915842924
 30
0.0
 10
14.964402422
 20
6.2994737015
 30
0.0
 10
14.9690200914
 20
6.307846971
 30
0.0
 10
14.9736047948
 20
6.3166968649
 30
0.0
 10
14.9781525859
 20
6.3260156958
 30
0.0
 10
14.9826594115
 20
6.3357953846
 30
0.0
 10
14.987121421
 20
6.3460273922
 30
0.0
 10
14.991534588
 20
6.3567028211
 30
0.0
 10
14.9958951565
 20
6.3678123265
 30
0.0
 10
15.0001991756
 20
6.3793462217
 30
0.0
 10
15.0044429741
 20
6.3912944
 30
0.0
 10
15.0086227209
 20
6.4036464199
 30
0.0
 10
15.0127348228
 20
6.4163914553
 30
0.0
 10
15.0167755967
 20
6.4295183469
 30
0.0
 10
15.02074155
 20
6.443015599
 30
0.0
 10
15.0259805103
 20
6.4616880129
 30
0.0
 10
15.0323052457
 20
6.4858713898
 30
0.0
 10
15.0394648226
 20
6.5158744536
 30
0.0
 10
15.0462470536
 20
6.5470548009
 30
0.0
 10
15.0526280007
 20
6.5793030839
 30
0.0
 10
15.0585851328
 20
6.6125063406
 30
0.0
 10
15.0640974341
 20
6.6465481658
 30
0.0
 10
15.0691454674
 20
6.6813091966
 30
0.0
 10
15.073711444
 20
6.7166675201
 30
0.0
 10
15.0777792825
 20
6.7524991108
 30
0.0
 10
15.0813346678
 20
6.7886782734
 30
0.0
 10
15.0843650921
 20
6.8250780735
 30
0.0
 10
15.0868599195
 20
6.8615708299
 30
0.0
 10
15.0888103762
 20
6.8980284415
 30
0.0
 10
15.0902096729
 20
6.9343231548
 30
0.0
 10
15.09105288
 20
6.9703273655
 30
0.0
 10
15.0912437297
 20
6.9942205435
 30
0.0
 10
15.0912437297
 20
7.0060958646
 30
0.0
  0
SPLINE
  5
3C1
100
AcDbEntity
  8
0
100
AcDbSpline
 62
7
  6
CONTINUOUS
 70
0
 71
3
 72
53
 73
49
 74
0
 42
0.0000001
 43
0.0000001
 44
0.0000000001
 40
0.0
 40
0.0
 40
0.0
 40
0.0
 40
0.0058219041
 40
0.0119107549
 40
0.0182973377
 40
0.0250076003
 40
0.0320630087
 40
0.0394811555
 40
0.047276178
 40
0.0554592759
 40
0.0640390829
 40
0.0730220202
 40
0.0824126192
 40
0.0922137143
 40
0.1024267382
 40
0.1130517811
 40
0.1240878794
 40
0.1355329717
 40
0.1473841886
 40
0.1596377371
 40
0.1722891899
 40
0.1853333263
 40
0.1987644114
 40
0.2125760231
 40
0.2267613048
 40
0.2413128044
 40
0.2562226872
 40
0.271482605
 40
0.2870838595
 40
0.3030173136
 40
0.335842134
 40
0.3698776586
 40
0.4050390116
 40
0.4412368806
 40
0.478377997
 40
0.5163655853
 40
0.5550997885
 40
0.5944780777
 40
0.6343956512
 40
0.6747458245
 40
0.7154204162
 40
0.7563101273
 40
0.7973049283
 40
0.8382944111
 40
0.8791682422
 40
0.9198163324
 40
0.9601297174
 40
1.0
 40
1.0
 40
1.0
 40
1.0
 10
14.8946106973
 20
5.8756030959
 30
0.0
 10
14.8969096987
 20
5.8765749066
 30
0.0
 10
14.9015269943
 20
5.8787720553
 30
0.0
 10
14.9083261174
 20
5.8826985456
 30
0.0
 10
14.9151382754
 20
5.8873201239
 30
0.0
 10
14.9219585397
 20
5.8926327349
 30
0.0
 10
14.928783076
 20
5.8986322701
 30
0.0
 10
14.9356075076
 20
5.9053143878
 30
0.0
 10
14.9424275357
 20
5.9126742972
 30
0.0
 10
14.9492386489
 20
5.9207068554
 30
0.0
 10
14.956036287
 20
5.9294064393
 30
0.0
 10
14.9628158224
 20
5.9387669609
 30
0.0
 10
14.9695725319
 20
5.9487818748
 30
0.0
 10
14.9763017441
 20
5.959444117
 30
0.0
 10
14.9829986505
 20
5.9707461959
 30
0.0
 10
14.9896585897
 20
5.9826800854
 30
0.0
 10
14.9962767275
 20
5.9952373557
 30
0.0
 10
15.002848446
 20
6.0084090491
 30
0.0
 10
15.0093689304
 20
6.02218582
 30
0.0
 10
15.0158336263
 20
6.0365578138
 30
0.0
 10
15.0222377745
 20
6.0515147986
 30
0.0
 10
15.0285768967
 20
6.0670460588
 30
0.0
 10
15.0348463196
 20
6.0831405089
 30
0.0
 10
15.0410416487
 20
6.0997866089
 30
0.0
 10
15.0471583234
 20
6.1169724549
 30
0.0
 10
15.05319204
 20
6.1346857189
 30
0.0
 10
15.0591383739
 20
6.1529137173
 30
0.0
 10
15.0649931141
 20
6.1716433675
 30
0.0
 10
15.0707520149
 20
6.1908612597
 30
0.0
 10
15.0783727415
 20
6.2173806639
 30
0.0
 10
15.0876147055
 20
6.2516546278
 30
0.0
 10
15.098151954
 20
6.2941077424
 30
0.0
 10
15.1082125152
 20
6.3381608161
 30
0.0
 10
15.1177673549
 20
6.3836874057
 30
0.0
 10
15.1267888853
 20
6.4305570069
 30
0.0
 10
15.135251077
 20
6.4786351539
 30
0.0
 10
15.1431295229
 20
6.5277838958
 30
0.0
 10
15.1504015103
 20
6.5778621772
 30
0.0
 10
15.1570460835
 20
6.6287262548
 30
0.0
 10
15.1630441037
 20
6.680230114
 30
0.0
 10
15.1683783021
 20
6.7322258906
 30
0.0
 10
15.1730333313
 20
6.7845643018
 30
0.0
 10
15.1769958037
 20
6.8370950682
 30
0.0
 10
15.1802543418
 20
6.8896673763
 30
0.0
 10
15.1827995846
 20
6.9421302315
 30
0.0
 10
15.1846242658
 20
6.9943331127
 30
0.0
 10
15.1857231517
 20
7.0461259055
 30
0.0
 10
15.185971422
 20
7.0805026433
 30
0.0
 10
15.185971422
 20
7.0975957945
 30
0.0
  0
SPLINE
  5
3C2
100
AcDbEntity
  8
0
100
AcDbSpline
 62
7
  6
CONTINUOUS
 70
0
 71
3
 72
51
 73
47
 74
0
 42
0.0000001
 43
0.0000001
 44
0.0000000001
 40
0.0
 40
0.0
 40
0.0
 40
0.0
 40
0.0481977053
 40
0.095830135
 40
0.1428201362
 40
0.1890981738
 40
0.2345933851
 40
0.2792370546
 40
0.3229625179
 40
0.3657049562
 40
0.4074018956
 40
0.4479933021
 40
0.4874217525
 40
0.5256327531
 40
0.5625750279
 40
0.5982007274
 40
0.6324657774
 40
0.6653303865
 40
0.6967594376
 40
0.7267230069
 40
0.755197147
 40
0.7688706186
 40
0.7821659217
 40
0.7950822342
 40
0.8076192537
 40
0.8197772583
 40
0.831557354
 40
0.8429613076
 40
0.8539917351
 40
0.8646522838
 40
0.8749475169
 40
0.8848832127
 40
0.8944664754
 40
0.9037057278
 40
0.9126110859
 40
0.9211944161
 40
0.9294694595
 40
0.9374522112
 40
0.9451609368
 40
0.9598350083
 40
0.9668568308
 40
0.9737036631
 40
0.9804068758
 40
0.9870000868
 40
0.9935188331
 40
1.0
 40
1.0
 40
1.0
 40
1.0
 10
13.122601258
 20
11.5687938815
 30
0.0
 10
13.1338804217
 20
11.5680116688
 30
0.0
 10
13.1562979525
 20
11.5663304941
 30
0.0
 10
13.1896765996
 20
11.56343982
 30
0.0
 10
13.2225706358
 20
11.5601985617
 30
0.0
 10
13.2549244985
 20
11.55661229
 30
0.0
 10
13.2866845028
 20
11.5526869505
 30
0.0
 10
13.3177974409
 20
11.5484291695
 30
0.0
 10
13.3482113045
 20
11.5438461093
 30
0.0
 10
13.3778752781
 20
11.5389454415
 30
0.0
 10
13.4067397954
 20
11.5337354272
 30
0.0
 10
13.4347566493
 20
11.5282248347
 30
0.0
 10
13.4618790518
 20
11.5224229123
 30
0.0
 10
13.4880617351
 20
11.5163394129
 30
0.0
 10
13.5132610404
 20
11.5099845896
 30
0.0
 10
13.5374349683
 20
11.5033691271
 30
0.0
 10
13.5605432679
 20
11.4965041187
 30
0.0
 10
13.5825475146
 20
11.4894011203
 30
0.0
 10
13.6034112689
 20
11.4820720533
 30
0.0
 10
13.6230997703
 20
11.4745291979
 30
0.0
 10
13.6387044617
 20
11.4679904887
 30
0.0
 10
13.6505648298
 20
11.4626520244
 30
0.0
 10
13.6590257851
 20
11.4586566995
 30
0.0
 10
13.6671693709
 20
11.4546174998
 30
0.0
 10
13.6749922218
 20
11.4505360755
 30
0.0
 10
13.6824910619
 20
11.4464140679
 30
0.0
 10
13.6896628199
 20
11.4422532513
 30
0.0
 10
13.6965045168
 20
11.4380553117
 30
0.0
 10
13.7030133039
 20
11.4338219382
 30
0.0
 10
13.7091865387
 20
11.429554934
 30
0.0
 10
13.7150216422
 20
11.4252559733
 30
0.0
 10
13.7205162058
 20
11.420926791
 30
0.0
 10
13.7256680084
 20
11.4165691787
 30
0.0
 10
13.7304748614
 20
11.4121847818
 30
0.0
 10
13.7349347886
 20
11.4077753695
 30
0.0
 10
13.7390459735
 20
11.4033426446
 30
0.0
 10
13.7428065071
 20
11.3988883612
 30
0.0
 10
13.7462150725
 20
11.3944138175
 30
0.0
 10
13.7502216932
 20
11.3885216325
 30
0.0
 10
13.7536114184
 20
11.3824901739
 30
0.0
 10
13.7562970977
 20
11.3763521425
 30
0.0
 10
13.7579231906
 20
11.3718041618
 30
0.0
 10
13.7591891706
 20
11.3672472842
 30
0.0
 10
13.7600941317
 20
11.3626832859
 30
0.0
 10
13.7606373617
 20
11.3581148527
 30
0.0
 10
13.7607582476
 20
11.3550639628
 30
0.0
 10
13.7607582418
 20
11.3535436058
 30
0.0
  0
SPLINE
  5
3C3
100
AcDbEntity
  8
0
100
AcDbSpline
 62
7
  6
CONTINUOUS
 70
0
 71
3
 72
20
 73
16
 74
0
 42
0.0000001
 43
0.0000001
 44
0.0000000001
 40
0.0
 40
0.0
 40
0.0
 40
0.0
 40
0.0515275073
 40
0.104816428
 40
0.1598129803
 40
0.2164596617
 40
0.274695436
 40
0.3344563574
 40
0.3956752421
 40
0.4582825646
 40
0.5222058315
 40
0.5873706659
 40
0.7211143556
 40
0.8588777678
 40
1.0
 40
1.0
 40
1.0
 40
1.0
 10
14.8505831288
 20
7.2887549443
 30
0.0
 10
14.8515813083
 20
7.2840286887
 30
0.0
 10
14.853517856
 20
7.2743945677
 30
0.0
 10
14.8562067294
 20
7.2596552458
 30
0.0
 10
14.8587258896
 20
7.2443993639
 30
0.0
 10
14.8610719711
 20
7.2286469638
 30
0.0
 10
14.8632419221
 20
7.2124186515
 30
0.0
 10
14.8652328026
 20
7.1957356952
 30
0.0
 10
14.867042066
 20
7.1786199463
 30
0.0
 10
14.8686672222
 20
7.1610938569
 30
0.0
 10
14.8701062333
 20
7.143180376
 30
0.0
 10
14.8717885296
 20
7.1185978936
 30
0.0
 10
14.8734010892
 20
7.0870745109
 30
0.0
 10
14.8745537799
 20
7.0484066669
 30
0.0
 10
14.8748045505
 20
7.0222613455
 30
0.0
 10
14.8748045505
 20
7.0090316592
 30
0.0
  0
SPLINE
  5
3C4
100
AcDbEntity
  8
0
100
AcDbSpline
 62
7
  6
CONTINUOUS
 70
0
 71
3
 72
51
 73
47
 74
0
 42
0.0000001
 43
0.0000001
 44
0.0000000001
 40
0.0
 40
0.0
 40
0.0
 40
0.0
 40
0.0065609194
 40
0.0130532569
 40
0.0195198617
 40
0.0260041321
 40
0.0325490928
 40
0.0391964588
 40
0.0459859207
 40
0.0529544779
 40
0.0675531394
 40
0.0752493085
 40
0.083240474
 40
0.0915477068
 40
0.1001891892
 40
0.1091804308
 40
0.11853474
 40
0.1282632784
 40
0.1383752402
 40
0.148878304
 40
0.1597786198
 40
0.1710809067
 40
0.1827888612
 40
0.1949050852
 40
0.2074311119
 40
0.2203677771
 40
0.2337151135
 40
0.2616369586
 40
0.2911850577
 40
0.3223375864
 40
0.3550652518
 40
0.3893324209
 40
0.4250975831
 40
0.462314148
 40
0.5009310729
 40
0.5408930132
 40
0.5821408823
 40
0.6246122518
 40
0.6682414102
 40
0.7129597554
 40
0.7586961496
 40
0.8053771432
 40
0.8529264548
 40
0.9012662006
 40
0.9503198342
 40
1.0
 40
1.0
 40
1.0
 40
1.0
 10
14.9655266741
 20
7.4677727268
 30
0.0
 10
14.9666210652
 20
7.4679349603
 30
0.0
 10
14.9688125557
 20
7.468170112
 30
0.0
 10
14.9721069557
 20
7.4682471777
 30
0.0
 10
14.9753834326
 20
7.4680460434
 30
0.0
 10
14.9786397638
 20
7.4675666632
 30
0.0
 10
14.9818741278
 20
7.4668094461
 30
0.0
 10
14.9850847033
 20
7.4657751409
 30
0.0
 10
14.9882699556
 20
7.4644643534
 30
0.0
 10
14.9925463264
 20
7.4623167408
 30
0.0
 10
14.9967064198
 20
7.4596303311
 30
0.0
 10
15.0007272275
 20
7.4564786448
 30
0.0
 10
15.0037646818
 20
7.4538020691
 30
0.0
 10
15.0067685267
 20
7.4508561602
 30
0.0
 10
15.0097379627
 20
7.4476420613
 30
0.0
 10
15.0126717536
 20
7.4441613498
 30
0.0
 10
15.0155686807
 20
7.4404155064
 30
0.0
 10
15.0184275318
 20
7.436406194
 30
0.0
 10
15.0212471726
 20
7.4321352186
 30
0.0
 10
15.0240263501
 20
7.4276044191
 30
0.0
 10
15.0267638608
 20
7.4228157862
 30
0.0
 10
15.0294585785
 20
7.417771463
 30
0.0
 10
15.0321092765
 20
7.4124736461
 30
0.0
 10
15.0347147786
 20
7.4069246724
 30
0.0
 10
15.0372739859
 20
7.401127029
 30
0.0
 10
15.0397857475
 20
7.3950832557
 30
0.0
 10
15.0431201405
 20
7.3865719713
 30
0.0
 10
15.0471499916
 20
7.3753276273
 30
0.0
 10
15.0517093112
 20
7.361093338
 30
0.0
 10
15.056053924
 20
7.3459473283
 30
0.0
 10
15.060176033
 20
7.3299165866
 30
0.0
 10
15.0640681453
 20
7.3130294885
 30
0.0
 10
15.0677232537
 20
7.295316102
 30
0.0
 10
15.0711347618
 20
7.2768079979
 30
0.0
 10
15.0742964407
 20
7.257538204
 30
0.0
 10
15.0772025955
 20
7.2375411539
 30
0.0
 10
15.079847975
 20
7.2168526052
 30
0.0
 10
15.0822277418
 20
7.1955095639
 30
0.0
 10
15.0843376156
 20
7.1735502369
 30
0.0
 10
15.0861737842
 20
7.1510139463
 30
0.0
 10
15.087732883
 20
7.12794102
 30
0.0
 10
15.0890121014
 20
7.1043728311
 30
0.0
 10
15.0900091411
 20
7.080351676
 30
0.0
 10
15.0907221743
 20
7.0559201697
 30
0.0
 10
15.0911498441
 20
7.0311226868
 30
0.0
 10
15.0912437297
 20
7.0144733002
 30
0.0
 10
15.0912437297
 20
7.0060958646
 30
0.0
  0
SPLINE
  5
3C5
100
AcDbEntity
  8
0
100
AcDbSpline
 62
7
  6
CONTINUOUS
 70
0
 71
3
 72
48
 73
44
 74
0
 42
0.0000001
 43
0.0000001
 44
0.0000000001
 40
0.0
 40
0.0
 40
0.0
 40
0.0
 40
0.0136078983
 40
0.0207378743
 40
0.0281055472
 40
0.0357251457
 40
0.0436092652
 40
0.0517689697
 40
0.0602137983
 40
0.0689520469
 40
0.0779908706
 40
0.0873362504
 40
0.0969932569
 40
0.1069661398
 40
0.1172582472
 40
0.1278722608
 40
0.1388102754
 40
0.1500736812
 40
0.1616633695
 40
0.173579809
 40
0.1858229047
 40
0.2112860132
 40
0.2380454381
 40
0.2660876373
 40
0.2953942954
 40
0.3259430829
 40
0.3577079846
 40
0.3906596028
 40
0.4247656504
 40
0.4599910681
 40
0.4962982396
 40
0.5336473373
 40
0.5719963425
 40
0.6113012388
 40
0.6515162655
 40
0.6925939085
 40
0.7344850496
 40
0.7771392185
 40
0.820504686
 40
0.8645280048
 40
0.9091549729
 40
0.9543324938
 40
1.0
 40
1.0
 40
1.0
 40
1.0
 10
15.0297873047
 20
7.8232479885
 30
0.0
 10
15.0327427792
 20
7.8214771038
 30
0.0
 10
15.0370860698
 20
7.8185012169
 30
0.0
 10
15.0426281979
 20
7.8140350967
 30
0.0
 10
15.0468121268
 20
7.8103093743
 30
0.0
 10
15.050956184
 20
7.8062619182
 30
0.0
 10
15.0550595173
 20
7.8018938064
 30
0.0
 10
15.0591206876
 20
7.7972065648
 30
0.0
 10
15.0631385313
 20
7.7922018067
 30
0.0
 10
15.0671117601
 20
7.7868811918
 30
0.0
 10
15.0710390575
 20
7.7812464469
 30
0.0
 10
15.0749192269
 20
7.775299489
 30
0.0
 10
15.0787510057
 20
7.7690422803
 30
0.0
 10
15.0825330877
 20
7.7624768613
 30
0.0
 10
15.0862642929
 20
7.7556054474
 30
0.0
 10
15.0899433913
 20
7.7484303179
 30
0.0
 10
15.0935691078
 20
7.7409538301
 30
0.0
 10
15.0971402936
 20
7.7331785005
 30
0.0
 10
15.1006557584
 20
7.7251069253
 30
0.0
 10
15.1041142986
 20
7.7167417594
 30
0.0
 10
15.1087084348
 20
7.705047175
 30
0.0
 10
15.1142884988
 20
7.6897051617
 30
0.0
 10
15.1206548203
 20
7.6704028575
 30
0.0
 10
15.1267674699
 20
7.6500008641
 30
0.0
 10
15.1326182674
 20
7.6285265222
 30
0.0
 10
15.1381992804
 20
7.6060083914
 30
0.0
 10
15.143502942
 20
7.5824765633
 30
0.0
 10
15.1485221207
 20
7.5579625218
 30
0.0
 10
15.1532499772
 20
7.5324990937
 30
0.0
 10
15.1576801003
 20
7.5061204122
 30
0.0
 10
15.1618065243
 20
7.4788618666
 30
0.0
 10
15.1656236141
 20
7.450760037
 30
0.0
 10
15.169126203
 20
7.4218526562
 30
0.0
 10
15.1723095728
 20
7.3921785527
 30
0.0
 10
15.1751693662
 20
7.3617775876
 30
0.0
 10
15.1777017216
 20
7.330690617
 30
0.0
 10
15.1799032282
 20
7.2989594249
 30
0.0
 10
15.1817708621
 20
7.2666266292
 30
0.0
 10
15.1833020979
 20
7.2337357452
 30
0.0
 10
15.184494887
 20
7.2003310604
 30
0.0
 10
15.1853475854
 20
7.1664570361
 30
0.0
 10
15.1858589795
 20
7.1321598545
 30
0.0
 10
15.185971422
 20
7.1091584446
 30
0.0
 10
15.185971422
 20
7.0975957945
 30
0.0
  0
SPLINE
  5
3C6
100
AcDbEntity
  8
0
100
AcDbSpline
 62
7
  6
CONTINUOUS
 70
0
 71
3
 72
52
 73
48
 74
0
 42
0.0000001
 43
0.0000001
 44
0.0000000001
 40
0.0
 40
0.0
 40
0.0
 40
0.0
 40
0.0063158568
 40
0.0126706178
 40
0.0191024266
 40
0.0256479345
 40
0.0323417789
 40
0.0392160908
 40
0.0536138298
 40
0.0611945069
 40
0.0690562056
 40
0.0772172859
 40
0.0856936163
 40
0.094498959
 40
0.1036450353
 40
0.1131417384
 40
0.1229974561
 40
0.1332190303
 40
0.1438120572
 40
0.1547810415
 40
0.1661293353
 40
0.1778594655
 40
0.1899731041
 40
0.2024710934
 40
0.2153537091
 40
0.2286205088
 40
0.2422704818
 40
0.2563021821
 40
0.2707135511
 40
0.3006644045
 40
0.3320995118
 40
0.364988637
 40
0.399296387
 40
0.4349827261
 40
0.4720035166
 40
0.5103109065
 40
0.549853604
 40
0.5905771631
 40
0.632424299
 40
0.6753351168
 40
0.7192472758
 40
0.7640961515
 40
0.8098152405
 40
0.8563361104
 40
0.9035880427
 40
0.9515014724
 40
1.0
 40
1.0
 40
1.0
 40
1.0
 10
15.0611897701
 20
7.8289510508
 30
0.0
 10
15.0628529157
 20
7.8288357153
 30
0.0
 10
15.0661815936
 20
7.8284682188
 30
0.0
 10
15.0711373134
 20
7.8275103009
 30
0.0
 10
15.076059894
 20
7.8261456975
 30
0.0
 10
15.0809464885
 20
7.8243755951
 30
0.0
 10
15.0857951473
 20
7.8222009154
 30
0.0
 10
15.0923055948
 20
7.818710991
 30
0.0
 10
15.0986392537
 20
7.8144388038
 30
0.0
 10
15.1047686107
 20
7.8094879888
 30
0.0
 10
15.1093983575
 20
7.8053138746
 30
0.0
 10
15.1139786342
 20
7.8007452677
 30
0.0
 10
15.1185083598
 20
7.795783855
 30
0.0
 10
15.1229856276
 20
7.7904317295
 30
0.0
 10
15.1274088001
 20
7.784691078
 30
0.0
 10
15.1317762271
 20
7.7785642798
 30
0.0
 10
15.1360861246
 20
7.7720537614
 30
0.0
 10
15.1403368659
 20
7.7651622059
 30
0.0
 10
15.1445267654
 20
7.7578924028
 30
0.0
 10
15.1486540812
 20
7.7502472723
 30
0.0
 10
15.152717237
 20
7.7422299625
 30
0.0
 10
15.1567145372
 20
7.7338437145
 30
0.0
 10
15.1606443422
 20
7.7250919459
 30
0.0
 10
15.1645051131
 20
7.7159782531
 30
0.0
 10
15.1682951945
 20
7.7065063386
 30
0.0
 10
15.1720130701
 20
7.6966800944
 30
0.0
 10
15.1756572281
 20
7.6865035567
 30
0.0
 10
15.1792261277
 20
7.675980869
 30
0.0
 10
15.1839430197
 20
7.6613060414
 30
0.0
 10
15.1896265078
 20
7.6421195023
 30
0.0
 10
15.1960393207
 20
7.6180722333
 30
0.0
 10
15.2021186898
 20
7.5927544009
 30
0.0
 10
15.207854508
 20
7.5662076641
 30
0.0
 10
15.2132372457
 20
7.5384755296
 30
0.0
 10
15.2182579382
 20
7.5096035775
 30
0.0
 10
15.222908204
 20
7.4796392769
 30
0.0
 10
15.2271802908
 20
7.4486319465
 30
0.0
 10
15.2310670967
 20
7.4166326592
 30
0.0
 10
15.234562143
 20
7.3836941369
 30
0.0
 10
15.2376595879
 20
7.3498706587
 30
0.0
 10
15.2403542711
 20
7.3152179966
 30
0.0
 10
15.2426417191
 20
7.2797932851
 30
0.0
 10
15.2445181077
 20
7.2436549339
 30
0.0
 10
15.2459802748
 20
7.2068626817
 30
0.0
 10
15.2470258435
 20
7.1694768119
 30
0.0
 10
15.2476529645
 20
7.1315595658
 30
0.0
 10
15.24779068
 20
7.1061103349
 30
0.0
 10
15.24779068
 20
7.0933086144
 30
0.0
  0
SPLINE
  5
3C7
100
AcDbEntity
  8
0
100
AcDbSpline
 62
7
  6
CONTINUOUS
 70
0
 71
3
 72
15
 73
11
 74
0
 42
0.0000001
 43
0.0000001
 44
0.0000000001
 40
0.0
 40
0.0
 40
0.0
 40
0.0
 40
0.1217359557
 40
0.2457282641
 40
0.3713240986
 40
0.497859789
 40
0.6246651749
 40
0.7510688841
 40
0.8764003488
 40
1.0
 40
1.0
 40
1.0
 40
1.0
 10
14.7733689564
 20
9.7162234344
 30
0.0
 10
14.7752585987
 20
9.7283220269
 30
0.0
 10
14.7788158702
 20
9.7527842771
 30
0.0
 10
14.7834528434
 20
9.7898486476
 30
0.0
 10
14.7874228689
 20
9.8274759728
 30
0.0
 10
14.7907034005
 20
9.8654536011
 30
0.0
 10
14.7932758895
 20
9.9035671864
 30
0.0
 10
14.7951257838
 20
9.9416014579
 30
0.0
 10
14.7962427405
 20
9.9793416008
 30
0.0
 10
14.796496812
 20
10.0043819298
 30
0.0
 10
14.796496812
 20
10.0168146688
 30
0.0
  0
SPLINE
  5
3C8
100
AcDbEntity
  8
0
100
AcDbSpline
 62
7
  6
CONTINUOUS
 70
0
 71
3
 72
28
 73
24
 74
0
 42
0.0000001
 43
0.0000001
 44
0.0000000001
 40
0.0
 40
0.0
 40
0.0
 40
0.0
 40
0.0238227089
 40
0.0484340766
 40
0.0738110083
 40
0.0999286426
 40
0.1267609019
 40
0.1542801593
 40
0.1824577517
 40
0.2112636887
 40
0.2406670562
 40
0.2706358356
 40
0.3321363805
 40
0.3954933059
 40
0.4604220351
 40
0.5266284149
 40
0.5938106375
 40
0.6616611114
 40
0.7298683454
 40
0.7981186795
 40
0.8660984715
 40
0.9334949169
 40
1.0
 40
1.0
 40
1.0
 40
1.0
 10
14.7910044345
 20
9.4492269007
 30
0.0
 10
14.7925902573
 20
9.4536168779
 30
0.0
 10
14.7957301019
 20
9.4625728142
 30
0.0
 10
14.8002772401
 20
9.4763019535
 30
0.0
 10
14.8047342091
 20
9.4905325304
 30
0.0
 10
14.8090956127
 20
9.5052470556
 30
0.0
 10
14.813355986
 20
9.5204275458
 30
0.0
 10
14.8175101864
 20
9.5360553981
 30
0.0
 10
14.8215530155
 20
9.5521114776
 30
0.0
 10
14.8254795722
 20
9.5685761028
 30
0.0
 10
14.8292849908
 20
9.5854291159
 30
0.0
 10
14.834233695
 20
9.6085895619
 30
0.0
 10
14.8400721399
 20
9.6383604538
 30
0.0
 10
14.8464661965
 20
9.6749942418
 30
0.0
 10
14.8522754278
 20
9.7126584421
 30
0.0
 10
14.8574712003
 20
9.751168416
 30
0.0
 10
14.862027894
 20
9.7903355214
 30
0.0
 10
14.8659230761
 20
9.829967809
 30
0.0
 10
14.8691375857
 20
9.8698710329
 30
0.0
 10
14.8716556539
 20
9.9098496245
 30
0.0
 10
14.8734649296
 20
9.9497076002
 30
0.0
 10
14.8745566282
 20
9.9892495081
 30
0.0
 10
14.8748045505
 20
10.015485671
 30
0.0
 10
14.8748045505
 20
10.0285161314
 30
0.0
  0
SPLINE
  5
3C9
100
AcDbEntity
  8
0
100
AcDbSpline
 62
7
  6
CONTINUOUS
 70
0
 71
3
 72
55
 73
51
 74
0
 42
0.0000001
 43
0.0000001
 44
0.0000000001
 40
0.0
 40
0.0
 40
0.0
 40
0.0
 40
0.0055377852
 40
0.0110145043
 40
0.0165017791
 40
0.022070784
 40
0.0277893609
 40
0.0337197221
 40
0.0399170211
 40
0.0464287234
 40
0.0532948218
 40
0.0605482085
 40
0.0682156641
 40
0.0763183836
 40
0.0848730752
 40
0.0938923137
 40
0.1033854662
 40
0.1133588936
 40
0.1238166101
 40
0.1347604463
 40
0.1461904268
 40
0.1581049861
 40
0.1705010855
 40
0.1833745232
 40
0.196719838
 40
0.2105307042
 40
0.2247996964
 40
0.2395187175
 40
0.2546787172
 40
0.2702700778
 40
0.2862823804
 40
0.3027046803
 40
0.3195253838
 40
0.3367323781
 40
0.3722536782
 40
0.4091625339
 40
0.4473454263
 40
0.4866828046
 40
0.5270498214
 40
0.568317024
 40
0.6103510133
 40
0.65301508
 40
0.6961698296
 40
0.7396737898
 40
0.7833840372
 40
0.8271567381
 40
0.8708479408
 40
0.9143136448
 40
0.9574117015
 40
1.0
 40
1.0
 40
1.0
 40
1.0
 10
14.8801432116
 20
9.2560771475
 30
0.0
 10
14.8816247928
 20
9.2556420213
 30
0.0
 10
14.8846235149
 20
9.2549417828
 30
0.0
 10
14.8892067066
 20
9.2544293986
 30
0.0
 10
14.8938275386
 20
9.2544652805
 30
0.0
 10
14.8984788032
 20
9.2550491627
 30
0.0
 10
14.9031548005
 20
9.2561788988
 30
0.0
 10
14.9078504736
 20
9.257851609
 30
0.0
 10
14.9125616261
 20
9.2600640391
 30
0.0
 10
14.9172846925
 20
9.2628127183
 30
0.0
 10
14.9220162287
 20
9.2660944005
 30
0.0
 10
14.9267530461
 20
9.269905518
 30
0.0
 10
14.9314916061
 20
9.2742426491
 30
0.0
 10
14.9362285459
 20
9.279101812
 30
0.0
 10
14.9409600422
 20
9.2844789646
 30
0.0
 10
14.9456824742
 20
9.2903694223
 30
0.0
 10
14.9503918356
 20
9.2967682736
 30
0.0
 10
14.9550843031
 20
9.303670006
 30
0.0
 10
14.9597558174
 20
9.3110687645
 30
0.0
 10
14.964402422
 20
9.3189581737
 30
0.0
 10
14.9690200914
 20
9.3273314432
 30
0.0
 10
14.9736047948
 20
9.3361813371
 30
0.0
 10
14.9781525859
 20
9.3455001679
 30
0.0
 10
14.9826594115
 20
9.3552798567
 30
0.0
 10
14.987121421
 20
9.3655118644
 30
0.0
 10
14.991534588
 20
9.3761872933
 30
0.0
 10
14.9958951565
 20
9.3872967987
 30
0.0
 10
15.0001991756
 20
9.3988306939
 30
0.0
 10
15.0044429741
 20
9.4107788721
 30
0.0
 10
15.0086227209
 20
9.4231308921
 30
0.0
 10
15.0127348228
 20
9.4358759275
 30
0.0
 10
15.0167755967
 20
9.4490028191
 30
0.0
 10
15.02074155
 20
9.4625000712
 30
0.0
 10
15.0259805103
 20
9.4811724851
 30
0.0
 10
15.0323052457
 20
9.5053558619
 30
0.0
 10
15.0394648226
 20
9.5353589258
 30
0.0
 10
15.0462470536
 20
9.566539273
 30
0.0
 10
15.0526280007
 20
9.598787556
 30
0.0
 10
15.0585851328
 20
9.6319908128
 30
0.0
 10
15.0640974341
 20
9.666032638
 30
0.0
 10
15.0691454674
 20
9.7007936688
 30
0.0
 10
15.073711444
 20
9.7361519922
 30
0.0
 10
15.0777792825
 20
9.771983583
 30
0.0
 10
15.0813346678
 20
9.8081627455
 30
0.0
 10
15.0843650921
 20
9.8445625456
 30
0.0
 10
15.0868599195
 20
9.8810553021
 30
0.0
 10
15.0888103762
 20
9.9175129137
 30
0.0
 10
15.0902096729
 20
9.953807627
 30
0.0
 10
15.09105288
 20
9.9898118377
 30
0.0
 10
15.0912437297
 20
10.0137050156
 30
0.0
 10
15.0912437297
 20
10.0255803368
 30
0.0
  0
SPLINE
  5
3CA
100
AcDbEntity
  8
0
100
AcDbSpline
 62
7
  6
CONTINUOUS
 70
0
 71
3
 72
53
 73
49
 74
0
 42
0.0000001
 43
0.0000001
 44
0.0000000001
 40
0.0
 40
0.0
 40
0.0
 40
0.0
 40
0.0058219041
 40
0.0119107549
 40
0.0182973377
 40
0.0250076003
 40
0.0320630087
 40
0.0394811555
 40
0.047276178
 40
0.0554592759
 40
0.0640390829
 40
0.0730220202
 40
0.0824126192
 40
0.0922137143
 40
0.1024267382
 40
0.1130517811
 40
0.1240878794
 40
0.1355329717
 40
0.1473841886
 40
0.1596377371
 40
0.1722891899
 40
0.1853333263
 40
0.1987644114
 40
0.2125760231
 40
0.2267613048
 40
0.2413128044
 40
0.2562226872
 40
0.271482605
 40
0.2870838595
 40
0.3030173136
 40
0.335842134
 40
0.3698776586
 40
0.4050390116
 40
0.4412368806
 40
0.478377997
 40
0.5163655853
 40
0.5550997885
 40
0.5944780777
 40
0.6343956512
 40
0.6747458245
 40
0.7154204162
 40
0.7563101273
 40
0.7973049283
 40
0.8382944111
 40
0.8791682422
 40
0.9198163324
 40
0.9601297174
 40
1.0
 40
1.0
 40
1.0
 40
1.0
 10
14.8946106973
 20
8.8950875681
 30
0.0
 10
14.8969096987
 20
8.8960593788
 30
0.0
 10
14.9015269943
 20
8.8982565274
 30
0.0
 10
14.9083261174
 20
8.9021830178
 30
0.0
 10
14.9151382754
 20
8.9068045961
 30
0.0
 10
14.9219585397
 20
8.9121172071
 30
0.0
 10
14.928783076
 20
8.9181167423
 30
0.0
 10
14.9356075076
 20
8.9247988599
 30
0.0
 10
14.9424275357
 20
8.9321587694
 30
0.0
 10
14.9492386489
 20
8.9401913276
 30
0.0
 10
14.956036287
 20
8.9488909115
 30
0.0
 10
14.9628158224
 20
8.9582514331
 30
0.0
 10
14.9695725319
 20
8.968266347
 30
0.0
 10
14.9763017441
 20
8.9789285892
 30
0.0
 10
14.9829986505
 20
8.9902306681
 30
0.0
 10
14.9896585897
 20
9.0021645576
 30
0.0
 10
14.9962767275
 20
9.0147218279
 30
0.0
 10
15.002848446
 20
9.0278935212
 30
0.0
 10
15.0093689304
 20
9.0416702922
 30
0.0
 10
15.0158336263
 20
9.056042286
 30
0.0
 10
15.0222377745
 20
9.0709992708
 30
0.0
 10
15.0285768967
 20
9.086530531
 30
0.0
 10
15.0348463196
 20
9.1026249811
 30
0.0
 10
15.0410416487
 20
9.1192710811
 30
0.0
 10
15.0471583234
 20
9.1364569271
 30
0.0
 10
15.05319204
 20
9.154170191
 30
0.0
 10
15.0591383739
 20
9.1723981894
 30
0.0
 10
15.0649931141
 20
9.1911278396
 30
0.0
 10
15.0707520149
 20
9.2103457319
 30
0.0
 10
15.0783727415
 20
9.2368651361
 30
0.0
 10
15.0876147055
 20
9.2711391
 30
0.0
 10
15.098151954
 20
9.3135922146
 30
0.0
 10
15.1082125152
 20
9.3576452882
 30
0.0
 10
15.1177673549
 20
9.4031718779
 30
0.0
 10
15.1267888853
 20
9.4500414791
 30
0.0
 10
15.135251077
 20
9.4981196261
 30
0.0
 10
15.1431295229
 20
9.547268368
 30
0.0
 10
15.1504015103
 20
9.5973466493
 30
0.0
 10
15.1570460835
 20
9.648210727
 30
0.0
 10
15.1630441037
 20
9.6997145862
 30
0.0
 10
15.1683783021
 20
9.7517103628
 30
0.0
 10
15.1730333313
 20
9.804048774
 30
0.0
 10
15.1769958037
 20
9.8565795403
 30
0.0
 10
15.1802543418
 20
9.9091518485
 30
0.0
 10
15.1827995846
 20
9.9616147037
 30
0.0
 10
15.1846242658
 20
10.0138175849
 30
0.0
 10
15.1857231517
 20
10.0656103777
 30
0.0
 10
15.185971422
 20
10.0999871155
 30
0.0
 10
15.185971422
 20
10.1170802667
 30
0.0
  0
SPLINE
  5
3CB
100
AcDbEntity
  8
0
100
AcDbSpline
 62
7
  6
CONTINUOUS
 70
0
 71
3
 72
20
 73
16
 74
0
 42
0.0000001
 43
0.0000001
 44
0.0000000001
 40
0.0
 40
0.0
 40
0.0
 40
0.0
 40
0.0515275073
 40
0.104816428
 40
0.1598129803
 40
0.2164596617
 40
0.274695436
 40
0.3344563574
 40
0.3956752421
 40
0.4582825646
 40
0.5222058315
 40
0.5873706659
 40
0.7211143556
 40
0.8588777678
 40
1.0
 40
1.0
 40
1.0
 40
1.0
 10
14.8505831288
 20
10.3082394165
 30
0.0
 10
14.8515813083
 20
10.3035131609
 30
0.0
 10
14.853517856
 20
10.2938790399
 30
0.0
 10
14.8562067294
 20
10.279139718
 30
0.0
 10
14.8587258896
 20
10.2638838361
 30
0.0
 10
14.8610719711
 20
10.2481314359
 30
0.0
 10
14.8632419221
 20
10.2319031237
 30
0.0
 10
14.8652328026
 20
10.2152201673
 30
0.0
 10
14.867042066
 20
10.1981044185
 30
0.0
 10
14.8686672222
 20
10.1805783291
 30
0.0
 10
14.8701062333
 20
10.1626648482
 30
0.0
 10
14.8717885296
 20
10.1380823657
 30
0.0
 10
14.8734010892
 20
10.1065589831
 30
0.0
 10
14.8745537799
 20
10.0678911391
 30
0.0
 10
14.8748045505
 20
10.0417458177
 30
0.0
 10
14.8748045505
 20
10.0285161314
 30
0.0
  0
SPLINE
  5
3CC
100
AcDbEntity
  8
0
100
AcDbSpline
 62
7
  6
CONTINUOUS
 70
0
 71
3
 72
51
 73
47
 74
0
 42
0.0000001
 43
0.0000001
 44
0.0000000001
 40
0.0
 40
0.0
 40
0.0
 40
0.0
 40
0.0065609194
 40
0.0130532569
 40
0.0195198617
 40
0.0260041321
 40
0.0325490928
 40
0.0391964588
 40
0.0459859207
 40
0.0529544779
 40
0.0675531394
 40
0.0752493085
 40
0.083240474
 40
0.0915477068
 40
0.1001891892
 40
0.1091804308
 40
0.11853474
 40
0.1282632784
 40
0.1383752402
 40
0.148878304
 40
0.1597786198
 40
0.1710809067
 40
0.1827888612
 40
0.1949050852
 40
0.2074311119
 40
0.2203677771
 40
0.2337151135
 40
0.2616369586
 40
0.2911850577
 40
0.3223375864
 40
0.3550652518
 40
0.3893324209
 40
0.4250975831
 40
0.462314148
 40
0.5009310729
 40
0.5408930132
 40
0.5821408823
 40
0.6246122518
 40
0.6682414102
 40
0.7129597554
 40
0.7586961496
 40
0.8053771432
 40
0.8529264548
 40
0.9012662006
 40
0.9503198342
 40
1.0
 40
1.0
 40
1.0
 40
1.0
 10
14.9655266741
 20
10.487257199
 30
0.0
 10
14.9666210652
 20
10.4874194325
 30
0.0
 10
14.9688125557
 20
10.4876545842
 30
0.0
 10
14.9721069557
 20
10.4877316499
 30
0.0
 10
14.9753834326
 20
10.4875305156
 30
0.0
 10
14.9786397638
 20
10.4870511354
 30
0.0
 10
14.9818741278
 20
10.4862939183
 30
0.0
 10
14.9850847033
 20
10.4852596131
 30
0.0
 10
14.9882699556
 20
10.4839488256
 30
0.0
 10
14.9925463264
 20
10.481801213
 30
0.0
 10
14.9967064198
 20
10.4791148032
 30
0.0
 10
15.0007272275
 20
10.4759631169
 30
0.0
 10
15.0037646818
 20
10.4732865413
 30
0.0
 10
15.0067685267
 20
10.4703406324
 30
0.0
 10
15.0097379627
 20
10.4671265334
 30
0.0
 10
15.0126717536
 20
10.463645822
 30
0.0
 10
15.0155686807
 20
10.4598999786
 30
0.0
 10
15.0184275318
 20
10.4558906662
 30
0.0
 10
15.0212471726
 20
10.4516196907
 30
0.0
 10
15.0240263501
 20
10.4470888913
 30
0.0
 10
15.0267638608
 20
10.4423002584
 30
0.0
 10
15.0294585785
 20
10.4372559351
 30
0.0
 10
15.0321092765
 20
10.4319581183
 30
0.0
 10
15.0347147786
 20
10.4264091446
 30
0.0
 10
15.0372739859
 20
10.4206115012
 30
0.0
 10
15.0397857475
 20
10.4145677279
 30
0.0
 10
15.0431201405
 20
10.4060564435
 30
0.0
 10
15.0471499916
 20
10.3948120995
 30
0.0
 10
15.0517093112
 20
10.3805778102
 30
0.0
 10
15.056053924
 20
10.3654318005
 30
0.0
 10
15.060176033
 20
10.3494010587
 30
0.0
 10
15.0640681453
 20
10.3325139607
 30
0.0
 10
15.0677232537
 20
10.3148005742
 30
0.0
 10
15.0711347618
 20
10.2962924701
 30
0.0
 10
15.0742964407
 20
10.2770226762
 30
0.0
 10
15.0772025955
 20
10.2570256261
 30
0.0
 10
15.079847975
 20
10.2363370774
 30
0.0
 10
15.0822277418
 20
10.2149940361
 30
0.0
 10
15.0843376156
 20
10.193034709
 30
0.0
 10
15.0861737842
 20
10.1704984185
 30
0.0
 10
15.087732883
 20
10.1474254922
 30
0.0
 10
15.0890121014
 20
10.1238573033
 30
0.0
 10
15.0900091411
 20
10.0998361481
 30
0.0
 10
15.0907221743
 20
10.0754046419
 30
0.0
 10
15.0911498441
 20
10.0506071589
 30
0.0
 10
15.0912437297
 20
10.0339577724
 30
0.0
 10
15.0912437297
 20
10.0255803368
 30
0.0
  0
SPLINE
  5
3CD
100
AcDbEntity
  8
0
100
AcDbSpline
 62
7
  6
CONTINUOUS
 70
0
 71
3
 72
48
 73
44
 74
0
 42
0.0000001
 43
0.0000001
 44
0.0000000001
 40
0.0
 40
0.0
 40
0.0
 40
0.0
 40
0.0136078983
 40
0.0207378743
 40
0.0281055472
 40
0.0357251457
 40
0.0436092652
 40
0.0517689697
 40
0.0602137983
 40
0.0689520469
 40
0.0779908706
 40
0.0873362504
 40
0.0969932569
 40
0.1069661398
 40
0.1172582472
 40
0.1278722608
 40
0.1388102754
 40
0.1500736812
 40
0.1616633695
 40
0.173579809
 40
0.1858229047
 40
0.2112860132
 40
0.2380454381
 40
0.2660876373
 40
0.2953942954
 40
0.3259430829
 40
0.3577079846
 40
0.3906596028
 40
0.4247656504
 40
0.4599910681
 40
0.4962982396
 40
0.5336473373
 40
0.5719963425
 40
0.6113012388
 40
0.6515162655
 40
0.6925939085
 40
0.7344850496
 40
0.7771392185
 40
0.820504686
 40
0.8645280048
 40
0.9091549729
 40
0.9543324938
 40
1.0
 40
1.0
 40
1.0
 40
1.0
 10
15.0297873047
 20
10.8427324607
 30
0.0
 10
15.0327427792
 20
10.840961576
 30
0.0
 10
15.0370860698
 20
10.8379856891
 30
0.0
 10
15.0426281979
 20
10.8335195688
 30
0.0
 10
15.0468121268
 20
10.8297938465
 30
0.0
 10
15.050956184
 20
10.8257463904
 30
0.0
 10
15.0550595173
 20
10.8213782785
 30
0.0
 10
15.0591206876
 20
10.8166910369
 30
0.0
 10
15.0631385313
 20
10.8116862789
 30
0.0
 10
15.0671117601
 20
10.8063656639
 30
0.0
 10
15.0710390575
 20
10.800730919
 30
0.0
 10
15.0749192269
 20
10.7947839612
 30
0.0
 10
15.0787510057
 20
10.7885267525
 30
0.0
 10
15.0825330877
 20
10.7819613335
 30
0.0
 10
15.0862642929
 20
10.7750899195
 30
0.0
 10
15.0899433913
 20
10.7679147901
 30
0.0
 10
15.0935691078
 20
10.7604383023
 30
0.0
 10
15.0971402936
 20
10.7526629727
 30
0.0
 10
15.1006557584
 20
10.7445913974
 30
0.0
 10
15.1041142986
 20
10.7362262315
 30
0.0
 10
15.1087084348
 20
10.7245316472
 30
0.0
 10
15.1142884988
 20
10.7091896338
 30
0.0
 10
15.1206548203
 20
10.6898873297
 30
0.0
 10
15.1267674699
 20
10.6694853363
 30
0.0
 10
15.1326182674
 20
10.6480109944
 30
0.0
 10
15.1381992804
 20
10.6254928636
 30
0.0
 10
15.143502942
 20
10.6019610355
 30
0.0
 10
15.1485221207
 20
10.577446994
 30
0.0
 10
15.1532499772
 20
10.5519835659
 30
0.0
 10
15.1576801003
 20
10.5256048843
 30
0.0
 10
15.1618065243
 20
10.4983463388
 30
0.0
 10
15.1656236141
 20
10.4702445092
 30
0.0
 10
15.169126203
 20
10.4413371284
 30
0.0
 10
15.1723095728
 20
10.4116630249
 30
0.0
 10
15.1751693662
 20
10.3812620598
 30
0.0
 10
15.1777017216
 20
10.3501750891
 30
0.0
 10
15.1799032282
 20
10.3184438971
 30
0.0
 10
15.1817708621
 20
10.2861111013
 30
0.0
 10
15.1833020979
 20
10.2532202173
 30
0.0
 10
15.184494887
 20
10.2198155326
 30
0.0
 10
15.1853475854
 20
10.1859415082
 30
0.0
 10
15.1858589795
 20
10.1516443267
 30
0.0
 10
15.185971422
 20
10.1286429167
 30
0.0
 10
15.185971422
 20
10.1170802667
 30
0.0
  0
SPLINE
  5
3CE
100
AcDbEntity
  8
0
100
AcDbSpline
 62
7
  6
CONTINUOUS
 70
0
 71
3
 72
52
 73
48
 74
0
 42
0.0000001
 43
0.0000001
 44
0.0000000001
 40
0.0
 40
0.0
 40
0.0
 40
0.0
 40
0.0063158568
 40
0.0126706178
 40
0.0191024266
 40
0.0256479345
 40
0.0323417789
 40
0.0392160908
 40
0.0536138298
 40
0.0611945069
 40
0.0690562056
 40
0.0772172859
 40
0.0856936163
 40
0.094498959
 40
0.1036450353
 40
0.1131417384
 40
0.1229974561
 40
0.1332190303
 40
0.1438120572
 40
0.1547810415
 40
0.1661293353
 40
0.1778594655
 40
0.1899731041
 40
0.2024710934
 40
0.2153537091
 40
0.2286205088
 40
0.2422704818
 40
0.2563021821
 40
0.2707135511
 40
0.3006644045
 40
0.3320995118
 40
0.364988637
 40
0.399296387
 40
0.4349827261
 40
0.4720035166
 40
0.5103109065
 40
0.549853604
 40
0.5905771631
 40
0.632424299
 40
0.6753351168
 40
0.7192472758
 40
0.7640961515
 40
0.8098152405
 40
0.8563361104
 40
0.9035880427
 40
0.9515014724
 40
1.0
 40
1.0
 40
1.0
 40
1.0
 10
15.0611897701
 20
10.848435523
 30
0.0
 10
15.0628529157
 20
10.8483201875
 30
0.0
 10
15.0661815936
 20
10.847952691
 30
0.0
 10
15.0711373134
 20
10.8469947731
 30
0.0
 10
15.076059894
 20
10.8456301696
 30
0.0
 10
15.0809464885
 20
10.8438600672
 30
0.0
 10
15.0857951473
 20
10.8416853876
 30
0.0
 10
15.0923055948
 20
10.8381954632
 30
0.0
 10
15.0986392537
 20
10.833923276
 30
0.0
 10
15.1047686107
 20
10.828972461
 30
0.0
 10
15.1093983575
 20
10.8247983467
 30
0.0
 10
15.1139786342
 20
10.8202297399
 30
0.0
 10
15.1185083598
 20
10.8152683272
 30
0.0
 10
15.1229856276
 20
10.8099162016
 30
0.0
 10
15.1274088001
 20
10.8041755502
 30
0.0
 10
15.1317762271
 20
10.798048752
 30
0.0
 10
15.1360861246
 20
10.7915382336
 30
0.0
 10
15.1403368659
 20
10.7846466781
 30
0.0
 10
15.1445267654
 20
10.7773768749
 30
0.0
 10
15.1486540812
 20
10.7697317445
 30
0.0
 10
15.152717237
 20
10.7617144347
 30
0.0
 10
15.1567145372
 20
10.7533281867
 30
0.0
 10
15.1606443422
 20
10.7445764181
 30
0.0
 10
15.1645051131
 20
10.7354627253
 30
0.0
 10
15.1682951945
 20
10.7259908108
 30
0.0
 10
15.1720130701
 20
10.7161645666
 30
0.0
 10
15.1756572281
 20
10.7059880289
 30
0.0
 10
15.1792261277
 20
10.6954653412
 30
0.0
 10
15.1839430197
 20
10.6807905135
 30
0.0
 10
15.1896265078
 20
10.6616039745
 30
0.0
 10
15.1960393207
 20
10.6375567055
 30
0.0
 10
15.2021186898
 20
10.612238873
 30
0.0
 10
15.207854508
 20
10.5856921363
 30
0.0
 10
15.2132372457
 20
10.5579600017
 30
0.0
 10
15.2182579382
 20
10.5290880497
 30
0.0
 10
15.222908204
 20
10.4991237491
 30
0.0
 10
15.2271802908
 20
10.4681164186
 30
0.0
 10
15.2310670967
 20
10.4361171314
 30
0.0
 10
15.234562143
 20
10.4031786091
 30
0.0
 10
15.2376595879
 20
10.3693551309
 30
0.0
 10
15.2403542711
 20
10.3347024687
 30
0.0
 10
15.2426417191
 20
10.2992777573
 30
0.0
 10
15.2445181077
 20
10.2631394061
 30
0.0
 10
15.2459802748
 20
10.2263471539
 30
0.0
 10
15.2470258435
 20
10.1889612841
 30
0.0
 10
15.2476529645
 20
10.1510440379
 30
0.0
 10
15.24779068
 20
10.1255948071
 30
0.0
 10
15.24779068
 20
10.1127930866
 30
0.0
  0
SPLINE
  5
3CF
100
AcDbEntity
  8
0
100
AcDbSpline
 62
4
  6
CONTINUOUS
 70
0
 71
3
 72
343
 73
339
 74
0
 42
0.0000001
 43
0.0000001
 44
0.0000000001
 40
0.0
 40
0.0
 40
0.0
 40
0.0
 40
0.015625
 40
0.0234375
 40
0.03125
 40
0.0390625
 40
0.04296875
 40
0.046875
 40
0.05078125
 40
0.0546875
 40
0.056640625
 40
0.05859375
 40
0.060546875
 40
0.0615234375
 40
0.0620117188
 40
0.0625
 40
0.0629882812
 40
0.0634765625
 40
0.064453125
 40
0.06640625
 40
0.068359375
 40
0.0703125
 40
0.07421875
 40
0.078125
 40
0.08203125
 40
0.0859375
 40
0.09375
 40
0.1015625
 40
0.10546875
 40
0.109375
 40
0.11328125
 40
0.1171875
 40
0.119140625
 40
0.12109375
 40
0.123046875
 40
0.1240234375
 40
0.1245117188
 40
0.125
 40
0.1254882812
 40
0.1259765625
 40
0.126953125
 40
0.12890625
 40
0.130859375
 40
0.1328125
 40
0.13671875
 40
0.140625
 40
0.14453125
 40
0.1484375
 40
0.15625
 40
0.1640625
 40
0.16796875
 40
0.171875
 40
0.17578125
 40
0.1796875
 40
0.181640625
 40
0.18359375
 40
0.1845703125
 40
0.185546875
 40
0.1865234375
 40
0.1870117188
 40
0.1875
 40
0.1879882812
 40
0.1884765625
 40
0.189453125
 40
0.1904296875
 40
0.19140625
 40
0.193359375
 40
0.1953125
 40
0.19921875
 40
0.203125
 40
0.20703125
 40
0.2109375
 40
0.21875
 40
0.2265625
 40
0.23046875
 40
0.234375
 40
0.23828125
 40
0.2421875
 40
0.244140625
 40
0.24609375
 40
0.2470703125
 40
0.248046875
 40
0.2490234375
 40
0.2495117188
 40
0.25
 40
0.2504882812
 40
0.2509765625
 40
0.251953125
 40
0.2529296875
 40
0.25390625
 40
0.255859375
 40
0.2578125
 40
0.26171875
 40
0.265625
 40
0.26953125
 40
0.2734375
 40
0.28125
 40
0.2890625
 40
0.29296875
 40
0.296875
 40
0.30078125
 40
0.3046875
 40
0.306640625
 40
0.30859375
 40
0.310546875
 40
0.3115234375
 40
0.3120117188
 40
0.3125
 40
0.3129882812
 40
0.3134765625
 40
0.314453125
 40
0.31640625
 40
0.318359375
 40
0.3203125
 40
0.32421875
 40
0.328125
 40
0.33203125
 40
0.3359375
 40
0.34375
 40
0.3515625
 40
0.35546875
 40
0.359375
 40
0.36328125
 40
0.3671875
 40
0.369140625
 40
0.37109375
 40
0.373046875
 40
0.3740234375
 40
0.3745117188
 40
0.375
 40
0.3754882812
 40
0.3759765625
 40
0.376953125
 40
0.37890625
 40
0.380859375
 40
0.3828125
 40
0.38671875
 40
0.390625
 40
0.39453125
 40
0.3984375
 40
0.40625
 40
0.4140625
 40
0.41796875
 40
0.421875
 40
0.42578125
 40
0.4296875
 40
0.431640625
 40
0.43359375
 40
0.4345703125
 40
0.435546875
 40
0.4365234375
 40
0.4370117188
 40
0.4375
 40
0.4379882812
 40
0.4384765625
 40
0.439453125
 40
0.4404296875
 40
0.44140625
 40
0.443359375
 40
0.4453125
 40
0.44921875
 40
0.453125
 40
0.45703125
 40
0.4609375
 40
0.46875
 40
0.4765625
 40
0.48046875
 40
0.484375
 40
0.48828125
 40
0.4921875
 40
0.494140625
 40
0.49609375
 40
0.498046875
 40
0.4990234375
 40
0.4995117188
 40
0.5
 40
0.5004882812
 40
0.5009765625
 40
0.501953125
 40
0.50390625
 40
0.505859375
 40
0.5078125
 40
0.51171875
 40
0.515625
 40
0.51953125
 40
0.5234375
 40
0.53125
 40
0.5390625
 40
0.54296875
 40
0.546875
 40
0.55078125
 40
0.5546875
 40
0.556640625
 40
0.55859375
 40
0.560546875
 40
0.5615234375
 40
0.5620117188
 40
0.5625
 40
0.5629882812
 40
0.5634765625
 40
0.564453125
 40
0.56640625
 40
0.568359375
 40
0.5703125
 40
0.57421875
 40
0.578125
 40
0.58203125
 40
0.5859375
 40
0.59375
 40
0.6015625
 40
0.609375
 40
0.61328125
 40
0.6171875
 40
0.619140625
 40
0.62109375
 40
0.623046875
 40
0.6240234375
 40
0.6245117188
 40
0.625
 40
0.6254882812
 40
0.6259765625
 40
0.626953125
 40
0.62890625
 40
0.630859375
 40
0.6328125
 40
0.63671875
 40
0.640625
 40
0.6484375
 40
0.65625
 40
0.6640625
 40
0.66796875
 40
0.671875
 40
0.67578125
 40
0.6796875
 40
0.681640625
 40
0.68359375
 40
0.685546875
 40
0.6865234375
 40
0.6870117188
 40
0.6875
 40
0.6879882812
 40
0.6884765625
 40
0.689453125
 40
0.69140625
 40
0.693359375
 40
0.6953125
 40
0.69921875
 40
0.703125
 40
0.70703125
 40
0.7109375
 40
0.71875
 40
0.7265625
 40
0.73046875
 40
0.734375
 40
0.73828125
 40
0.7421875
 40
0.744140625
 40
0.74609375
 40
0.748046875
 40
0.7490234375
 40
0.7495117188
 40
0.75
 40
0.7504882812
 40
0.7509765625
 40
0.751953125
 40
0.75390625
 40
0.755859375
 40
0.7578125
 40
0.76171875
 40
0.765625
 40
0.76953125
 40
0.7734375
 40
0.78125
 40
0.7890625
 40
0.796875
 40
0.80078125
 40
0.8046875
 40
0.806640625
 40
0.80859375
 40
0.810546875
 40
0.8115234375
 40
0.8120117188
 40
0.8125
 40
0.8129882812
 40
0.8134765625
 40
0.814453125
 40
0.81640625
 40
0.818359375
 40
0.8203125
 40
0.82421875
 40
0.828125
 40
0.8359375
 40
0.84375
 40
0.8515625
 40
0.859375
 40
0.86328125
 40
0.8671875
 40
0.869140625
 40
0.87109375
 40
0.873046875
 40
0.8740234375
 40
0.8745117188
 40
0.875
 40
0.8754882812
 40
0.8759765625
 40
0.876953125
 40
0.87890625
 40
0.880859375
 40
0.8828125
 40
0.88671875
 40
0.890625
 40
0.8984375
 40
0.90625
 40
0.9140625
 40
0.91796875
 40
0.921875
 40
0.92578125
 40
0.9296875
 40
0.931640625
 40
0.93359375
 40
0.935546875
 40
0.9365234375
 40
0.9370117188
 40
0.9375
 40
0.9379882812
 40
0.9384765625
 40
0.939453125
 40
0.94140625
 40
0.943359375
 40
0.9453125
 40
0.94921875
 40
0.953125
 40
0.95703125
 40
0.9609375
 40
0.96875
 40
0.9765625
 40
0.984375
 40
1.0
 40
1.0
 40
1.0
 40
1.0
 10
9.6149608936
 20
6.9058736124
 30
0.0
 10
9.609332414
 20
6.9057120716
 30
0.0
 10
9.6008896946
 20
6.9054697601
 30
0.0
 10
9.5896327353
 20
6.9051466787
 30
0.0
 10
9.581190016
 20
6.9049043665
 30
0.0
 10
9.5741544159
 20
6.9047024434
 30
0.0
 10
9.5685259375
 20
6.9045408964
 30
0.0
 10
9.5643045741
 20
6.9044197594
 30
0.0
 10
9.5600832281
 20
6.9042985337
 30
0.0
 10
9.5565653857
 20
6.9041977888
 30
0.0
 10
9.5537512328
 20
6.9041165735
 30
0.0
 10
9.5516402876
 20
6.9040573541
 30
0.0
 10
9.5498822179
 20
6.9040026227
 30
0.0
 10
9.5486495061
 20
6.9039748724
 30
0.0
 10
9.5479483204
 20
6.9039425239
 30
0.0
 10
9.5474133573
 20
6.9039647184
 30
0.0
 10
9.5469130793
 20
6.9038093348
 30
0.0
 10
9.5462339434
 20
6.9036640979
 30
0.0
 10
9.5450510925
 20
6.9033810738
 30
0.0
 10
9.5433583585
 20
6.9029918417
 30
0.0
 10
9.5413283391
 20
6.9025183049
 30
0.0
 10
9.5386212059
 20
6.9018891786
 30
0.0
 10
9.5352374407
 20
6.9011019965
 30
0.0
 10
9.5311768575
 20
6.9001577099
 30
0.0
 10
9.5271162917
 20
6.8992133344
 30
0.0
 10
9.5217021979
 20
6.8979541983
 30
0.0
 10
9.5149345831
 20
6.8963802666
 30
0.0
 10
9.5081669661
 20
6.8948063424
 30
0.0
 10
9.5027528759
 20
6.8935471941
 30
0.0
 10
9.4986922993
 20
6.8926028553
 30
0.0
 10
9.4946317567
 20
6.8916584315
 30
0.0
 10
9.4912478653
 20
6.8908716761
 30
0.0
 10
9.4885409894
 20
6.8902416796
 30
0.0
 10
9.4865101842
 20
6.8897708002
 30
0.0
 10
9.4848199088
 20
6.889373254
 30
0.0
 10
9.4836326688
 20
6.8891050719
 30
0.0
 10
9.4829605654
 20
6.8889360544
 30
0.0
 10
9.4824386857
 20
6.8888537173
 30
0.0
 10
9.4819848551
 20
6.8886015613
 30
0.0
 10
9.4813560113
 20
6.8883245882
 30
0.0
 10
9.4802665939
 20
6.8878122865
 30
0.0
 10
9.4787045014
 20
6.8870948559
 30
0.0
 10
9.4768324653
 20
6.8862277631
 30
0.0
 10
9.4743355526
 20
6.8850737967
 30
0.0
 10
9.4712147084
 20
6.8836305985
 30
0.0
 10
9.4674695682
 20
6.8818990779
 30
0.0
 10
9.4637244621
 20
6.8801674725
 30
0.0
 10
9.4587309753
 20
6.8778586949
 30
0.0
 10
9.4524891208
 20
6.8749727129
 30
0.0
 10
9.4462472653
 20
6.8720867336
 30
0.0
 10
9.4412537801
 20
6.8697779516
 30
0.0
 10
9.4375086692
 20
6.8680463594
 30
0.0
 10
9.4337635466
 20
6.8663147895
 30
0.0
 10
9.4306426478
 20
6.8648717447
 30
0.0
 10
9.4281458466
 20
6.8637174654
 30
0.0
 10
9.4265855328
 20
6.8629956844
 30
0.0
 10
9.4253368536
 20
6.8624190761
 30
0.0
 10
9.4244015166
 20
6.8619843841
 30
0.0
 10
9.4236183394
 20
6.8616292531
 30
0.0
 10
9.4230001628
 20
6.8613291966
 30
0.0
 10
9.4225136726
 20
6.8611477419
 30
0.0
 10
9.4221144306
 20
6.8607999124
 30
0.0
 10
9.4215516309
 20
6.8603942566
 30
0.0
 10
9.4208585878
 20
6.8598672472
 30
0.0
 10
9.4200224604
 20
6.8592433708
 30
0.0
 10
9.4189091871
 20
6.8584085546
 30
0.0
 10
9.4175170602
 20
6.8573660549
 30
0.0
 10
9.4152899564
 20
6.8556974851
 30
0.0
 10
9.412505974
 20
6.8536119685
 30
0.0
 10
9.409165239
 20
6.8511092647
 30
0.0
 10
9.4058244923
 20
6.8486065834
 30
0.0
 10
9.4013701675
 20
6.8452696671
 30
0.0
 10
9.3958022599
 20
6.8410985245
 30
0.0
 10
9.3902343536
 20
6.8369273803
 30
0.0
 10
9.3857800266
 20
6.8335904667
 30
0.0
 10
9.3824392864
 20
6.8310877771
 30
0.0
 10
9.3790985273
 20
6.8285851045
 30
0.0
 10
9.3763146201
 20
6.8264994907
 30
0.0
 10
9.3740873627
 20
6.8248311192
 30
0.0
 10
9.3726956267
 20
6.8237881149
 30
0.0
 10
9.3715815511
 20
6.8229543345
 30
0.0
 10
9.3707478747
 20
6.8223272936
 30
0.0
 10
9.3700471631
 20
6.8218101851
 30
0.0
 10
9.3695000087
 20
6.8213843296
 30
0.0
 10
9.369052987
 20
6.8210981888
 30
0.0
 10
9.3687458813
 20
6.8206851289
 30
0.0
 10
9.3682875325
 20
6.8201787169
 30
0.0
 10
9.3677313651
 20
6.8195304909
 30
0.0
 10
9.3670567867
 20
6.8187591304
 30
0.0
 10
9.3661598559
 20
6.8177283758
 30
0.0
 10
9.3650378339
 20
6.8164407111
 30
0.0
 10
9.3632430785
 20
6.8143800125
 30
0.0
 10
9.3609994697
 20
6.8118042885
 30
0.0
 10
9.3583072096
 20
6.8087133557
 30
0.0
 10
9.3556149307
 20
6.80562244
 30
0.0
 10
9.3520252319
 20
6.8015012131
 30
0.0
 10
9.3475381071
 20
6.796349681
 30
0.0
 10
9.3430509798
 20
6.7911981506
 30
0.0
 10
9.3394612849
 20
6.7870769211
 30
0.0
 10
9.3367689943
 20
6.7839860133
 30
0.0
 10
9.3340767779
 20
6.7808950508
 30
0.0
 10
9.3318330332
 20
6.7783194194
 30
0.0
 10
9.3300385549
 20
6.7762585319
 30
0.0
 10
9.3286912823
 20
6.7747139109
 30
0.0
 10
9.3275730525
 20
6.7734234041
 30
0.0
 10
9.3267814658
 20
6.7725265698
 30
0.0
 10
9.3263429113
 20
6.7720039119
 30
0.0
 10
9.3259751748
 20
6.7716405989
 30
0.0
 10
9.3257558303
 20
6.771167655
 30
0.0
 10
9.3254116102
 20
6.7705753037
 30
0.0
 10
9.3248333413
 20
6.7695208719
 30
0.0
 10
9.3239946345
 20
6.7680238558
 30
0.0
 10
9.3229935832
 20
6.7662234493
 30
0.0
 10
9.321656963
 20
6.7638243
 30
0.0
 10
9.3199868345
 20
6.7608248855
 30
0.0
 10
9.3179824031
 20
6.757225793
 30
0.0
 10
9.3159780459
 20
6.7536266456
 30
0.0
 10
9.3133055436
 20
6.7488278017
 30
0.0
 10
9.3099649255
 20
6.7428292398
 30
0.0
 10
9.3066243006
 20
6.736830682
 30
0.0
 10
9.3039518093
 20
6.7320318314
 30
0.0
 10
9.3019474191
 20
6.7284327041
 30
0.0
 10
9.2999431114
 20
6.7248335367
 30
0.0
 10
9.2982725982
 20
6.7218343551
 30
0.0
 10
9.2969367626
 20
6.7194347307
 30
0.0
 10
9.2959333151
 20
6.7176357752
 30
0.0
 10
9.2951021053
 20
6.7161342193
 30
0.0
 10
9.2945104531
 20
6.7150878917
 30
0.0
 10
9.2941876763
 20
6.7144825555
 30
0.0
 10
9.2939024647
 20
6.7140494972
 30
0.0
 10
9.2937821141
 20
6.7135363807
 30
0.0
 10
9.2935641413
 20
6.7128801506
 30
0.0
 10
9.2932094817
 20
6.7117187371
 30
0.0
 10
9.2926888175
 20
6.7100663771
 30
0.0
 10
9.2920700162
 20
6.7080806335
 30
0.0
 10
9.2912428534
 20
6.7054339925
 30
0.0
 10
9.2902096186
 20
6.7021253422
 30
0.0
 10
9.2889694288
 20
6.6981551114
 30
0.0
 10
9.2877293213
 20
6.6941848406
 30
0.0
 10
9.286075816
 20
6.6888911602
 30
0.0
 10
9.284008944
 20
6.682274055
 30
0.0
 10
9.2819420694
 20
6.6756569512
 30
0.0
 10
9.2802885682
 20
6.6703632686
 30
0.0
 10
9.2790484484
 20
6.6663930044
 30
0.0
 10
9.277808305
 20
6.6624227489
 30
0.0
 10
9.2767749257
 20
6.6591141757
 30
0.0
 10
9.2759480575
 20
6.6564673773
 30
0.0
 10
9.2754316401
 20
6.6548129915
 30
0.0
 10
9.2750176469
 20
6.6534897961
 30
0.0
 10
9.2747095045
 20
6.652496542
 30
0.0
 10
9.2744452356
 20
6.6516715582
 30
0.0
 10
9.2742506049
 20
6.6510054529
 30
0.0
 10
9.2740587688
 20
6.6505225919
 30
0.0
 10
9.2740419926
 20
6.6499759179
 30
0.0
 10
9.2739584737
 20
6.64926931
 30
0.0
 10
9.2738750556
 20
6.6483784023
 30
0.0
 10
9.2737659735
 20
6.6473125865
 30
0.0
 10
9.2736236674
 20
6.6458903554
 30
0.0
 10
9.2734447107
 20
6.644112958
 30
0.0
 10
9.2731589803
 20
6.6412689034
 30
0.0
 10
9.2728016114
 20
6.6377139103
 30
0.0
 10
9.2723728569
 20
6.6334478863
 30
0.0
 10
9.2719440788
 20
6.629181871
 30
0.0
 10
9.2713723828
 20
6.6234938475
 30
0.0
 10
9.2706577611
 20
6.6163838192
 30
0.0
 10
9.2699431363
 20
6.6092737905
 30
0.0
 10
9.2693714451
 20
6.6035857677
 30
0.0
 10
9.2689426529
 20
6.5993197502
 30
0.0
 10
9.2685139515
 20
6.5950537344
 30
0.0
 10
9.2681564173
 20
6.5914987159
 30
0.0
 10
9.2678710239
 20
6.5886547131
 30
0.0
 10
9.2676552468
 20
6.5865216782
 30
0.0
 10
9.2674809418
 20
6.5847442534
 30
0.0
 10
9.2673481167
 20
6.5834998514
 30
0.0
 10
9.267289098
 20
6.5827890841
 30
0.0
 10
9.2671972788
 20
6.5822551083
 30
0.0
 10
9.2672872399
 20
6.5817245739
 30
0.0
 10
9.267343781
 20
6.5810159943
 30
0.0
 10
9.2674722704
 20
6.5797765392
 30
0.0
 10
9.2676403816
 20
6.5780055967
 30
0.0
 10
9.2678487261
 20
6.5758805908
 30
0.0
 10
9.2681242094
 20
6.573047206
 30
0.0
 10
9.268469356
 20
6.56950549
 30
0.0
 10
9.2688831921
 20
6.5652554243
 30
0.0
 10
9.2692971192
 20
6.5610053603
 30
0.0
 10
9.2698489901
 20
6.5553386077
 30
0.0
 10
9.2705388406
 20
6.5482551674
 30
0.0
 10
9.2712286833
 20
6.5411717264
 30
0.0
 10
9.2717805667
 20
6.5355049748
 30
0.0
 10
9.2721944562
 20
6.5312549081
 30
0.0
 10
9.2726084333
 20
6.5270048526
 30
0.0
 10
9.2729531414
 20
6.5234631047
 30
0.0
 10
9.2732295188
 20
6.5206297849
 30
0.0
 10
9.2734351328
 20
6.5185045804
 30
0.0
 10
9.2736117868
 20
6.5167342596
 30
0.0
 10
9.2737250259
 20
6.5154936946
 30
0.0
 10
9.2738060018
 20
6.5147868933
 30
0.0
 10
9.2738209071
 20
6.5142508965
 30
0.0
 10
9.2740109851
 20
6.5137374365
 30
0.0
 10
9.2742033202
 20
6.5130449621
 30
0.0
 10
9.2745683754
 20
6.5118367946
 30
0.0
 10
9.2750749989
 20
6.5101089261
 30
0.0
 10
9.275689318
 20
6.5080363035
 30
0.0
 10
9.2765061847
 20
6.5052725205
 30
0.0
 10
9.2775280317
 20
6.5018178899
 30
0.0
 10
9.2787539207
 20
6.4976722911
 30
0.0
 10
9.2799798973
 20
6.4935267035
 30
0.0
 10
9.2816145026
 20
6.4879992496
 30
0.0
 10
9.2836577661
 20
6.4810899324
 30
0.0
 10
9.2861096941
 20
6.4727987567
 30
0.0
 10
9.2881529192
 20
6.4658894269
 30
0.0
 10
9.2897876092
 20
6.4603620008
 30
0.0
 10
9.2908090397
 20
6.4569072735
 30
0.0
 10
9.2916267585
 20
6.4541436886
 30
0.0
 10
9.2922384747
 20
6.4520704607
 30
0.0
 10
9.2927532418
 20
6.4503444861
 30
0.0
 10
9.2931037594
 20
6.4491329376
 30
0.0
 10
9.2933193874
 20
6.4484458804
 30
0.0
 10
9.293437917
 20
6.4479157806
 30
0.0
 10
9.2937215462
 20
6.4474422803
 30
0.0
 10
9.2940421299
 20
6.4467912039
 30
0.0
 10
9.2946299828
 20
6.4456610188
 30
0.0
 10
9.295455745
 20
6.4440416595
 30
0.0
 10
9.2964526639
 20
6.4421004868
 30
0.0
 10
9.2977797919
 20
6.4395115376
 30
0.0
 10
9.29943942
 20
6.4362755972
 30
0.0
 10
9.3020944237
 20
6.431097955
 30
0.0
 10
9.3054133158
 20
6.4246259494
 30
0.0
 10
9.3093959282
 20
6.4168595229
 30
0.0
 10
9.312714782
 20
6.4103875039
 30
0.0
 10
9.3153698699
 20
6.4052098913
 30
0.0
 10
9.3173611652
 20
6.4013266721
 30
0.0
 10
9.3193525405
 20
6.3974434908
 30
0.0
 10
9.3210117704
 20
6.3942073879
 30
0.0
 10
9.3223397133
 20
6.391618771
 30
0.0
 10
9.3233341432
 20
6.3896765832
 30
0.0
 10
9.3241676927
 20
6.3880604
 30
0.0
 10
9.3247416439
 20
6.3869245449
 30
0.0
 10
9.3250845017
 20
6.3862825533
 30
0.0
 10
9.325299712
 20
6.3857811477
 30
0.0
 10
9.3256752116
 20
6.3853558552
 30
0.0
 10
9.3261199671
 20
6.3847622495
 30
0.0
 10
9.3269243391
 20
6.3837358091
 30
0.0
 10
9.3280598228
 20
6.3822629986
 30
0.0
 10
9.3294282326
 20
6.3804983942
 30
0.0
 10
9.3312507428
 20
6.3781446214
 30
0.0
 10
9.3335295792
 20
6.3752027372
 30
0.0
 10
9.3362638834
 20
6.3716723339
 30
0.0
 10
9.3389982677
 20
6.3681419686
 30
0.0
 10
9.3426440854
 20
6.3634348016
 30
0.0
 10
9.3472013678
 20
6.3575508481
 30
0.0
 10
9.3517586441
 20
6.3516668901
 30
0.0
 10
9.3554044716
 20
6.3469597303
 30
0.0
 10
9.3581388267
 20
6.3434293432
 30
0.0
 10
9.3608732404
 20
6.339899022
 30
0.0
 10
9.363151736
 20
6.3369568824
 30
0.0
 10
9.3649749412
 20
6.3346036303
 30
0.0
 10
9.3663412285
 20
6.3328374358
 30
0.0
 10
9.367483353
 20
6.3313696002
 30
0.0
 10
9.36827587
 20
6.3303342788
 30
0.0
 10
9.3687396201
 20
6.3297549027
 30
0.0
 10
9.3690567746
 20
6.3292859014
 30
0.0
 10
9.3694911197
 20
6.3289486586
 30
0.0
 10
9.3700293691
 20
6.3284530427
 30
0.0
 10
9.370990351
 20
6.3276071279
 30
0.0
 10
9.3723532252
 20
6.3263874832
 30
0.0
 10
9.3739929362
 20
6.3249287014
 30
0.0
 10
9.3761777288
 20
6.3229819851
 30
0.0
 10
9.3789092304
 20
6.3205491642
 30
0.0
 10
9.3821868133
 20
6.3176295329
 30
0.0
 10
9.3854644548
 20
6.3147099673
 30
0.0
 10
9.3898346233
 20
6.3108171907
 30
0.0
 10
9.3952973387
 20
6.3059512248
 30
0.0
 10
9.401852604
 20
6.3001120762
 30
0.0
 10
9.4073152961
 20
6.2952460775
 30
0.0
 10
9.411685516
 20
6.2913533729
 30
0.0
 10
9.4144167525
 20
6.2889202175
 30
0.0
 10
9.4166020873
 20
6.2869741856
 30
0.0
 10
9.4182401421
 20
6.2855133136
 30
0.0
 10
9.4196081983
 20
6.2843002087
 30
0.0
 10
9.4205599294
 20
6.2834426192
 30
0.0
 10
9.4211130011
 20
6.2829657091
 30
0.0
 10
9.4215018168
 20
6.2825710082
 30
0.0
 10
9.4219899722
 20
6.2823178099
 30
0.0
 10
9.4226061953
 20
6.2819308546
 30
0.0
 10
9.4237007301
 20
6.2812766794
 30
0.0
 10
9.4252559108
 20
6.2803301205
 30
0.0
 10
9.4271257404
 20
6.2791993961
 30
0.0
 10
9.4296175847
 20
6.277689966
 30
0.0
 10
9.4327328222
 20
6.2758037939
 30
0.0
 10
9.4377169606
 20
6.2727855744
 30
0.0
 10
9.4439472168
 20
6.2690129189
 30
0.0
 10
9.451423487
 20
6.2644856776
 30
0.0
 10
9.4588997732
 20
6.2599584652
 30
0.0
 10
9.4651299892
 20
6.2561857374
 30
0.0
 10
9.4701142082
 20
6.2531676626
 30
0.0
 10
9.4732292407
 20
6.2512811226
 30
0.0
 10
9.4757215056
 20
6.2497724477
 30
0.0
 10
9.4775900504
 20
6.2486394162
 30
0.0
 10
9.4791492509
 20
6.2477000754
 30
0.0
 10
9.4802366097
 20
6.2470330147
 30
0.0
 10
9.4808643306
 20
6.2466667053
 30
0.0
 10
9.4813171684
 20
6.2463500893
 30
0.0
 10
9.4818386312
 20
6.2461935751
 30
0.0
 10
9.4825099778
 20
6.2459290443
 30
0.0
 10
9.4836959871
 20
6.2454921346
 30
0.0
 10
9.4853844553
 20
6.2448543748
 30
0.0
 10
9.4874131128
 20
6.2440948856
 30
0.0
 10
9.4901171179
 20
6.2430801996
 30
0.0
 10
9.4934974227
 20
6.2418125384
 30
0.0
 10
9.4989057435
 20
6.2397838914
 30
0.0
 10
9.5056662018
 20
6.237248216
 30
0.0
 10
9.5137787274
 20
6.2342053494
 30
0.0
 10
9.52053917
 20
6.2316696366
 30
0.0
 10
9.5259475254
 20
6.2296410718
 30
0.0
 10
9.5300037853
 20
6.2281196261
 30
0.0
 10
9.534060071
 20
6.2265982661
 30
0.0
 10
9.5374402286
 20
6.2253301991
 30
0.0
 10
9.5401445349
 20
6.2243163434
 30
0.0
 10
9.5421722723
 20
6.2235543181
 30
0.0
 10
9.5438636193
 20
6.2229244929
 30
0.0
 10
9.5450444895
 20
6.2224734186
 30
0.0
 10
9.5457240701
 20
6.222231583
 30
0.0
 10
9.5462202405
 20
6.2220053563
 30
0.0
 10
9.5467680726
 20
6.221950569
 30
0.0
 10
9.5474804953
 20
6.2218177192
 30
0.0
 10
9.5487356309
 20
6.221613094
 30
0.0
 10
9.5505242922
 20
6.2213062057
 30
0.0
 10
9.5526725647
 20
6.2209441747
 30
0.0
 10
9.5555362717
 20
6.2204592888
 30
0.0
 10
9.5591161306
 20
6.2198539288
 30
0.0
 10
9.5634118648
 20
6.2191271764
 30
0.0
 10
9.5677076248
 20
6.2184005097
 30
0.0
 10
9.5734352958
 20
6.2174315909
 30
0.0
 10
9.5805948876
 20
6.2162204526
 30
0.0
 10
9.5891863965
 20
6.2147670823
 30
0.0
 10
9.6006417421
 20
6.2128292567
 30
0.0
 10
9.6092332512
 20
6.2113758871
 30
0.0
 10
9.614960924
 20
6.2104069742
 30
0.0
  0
SPLINE
  5
3D0
100
AcDbEntity
  8
0
100
AcDbSpline
 62
4
  6
CONTINUOUS
 70
0
 71
3
 72
343
 73
339
 74
0
 42
0.0000001
 43
0.0000001
 44
0.0000000001
 40
0.0
 40
0.0
 40
0.0
 40
0.0
 40
0.015625
 40
0.0234375
 40
0.03125
 40
0.0390625
 40
0.04296875
 40
0.046875
 40
0.05078125
 40
0.0546875
 40
0.056640625
 40
0.05859375
 40
0.060546875
 40
0.0615234375
 40
0.0620117188
 40
0.0625
 40
0.0629882812
 40
0.0634765625
 40
0.064453125
 40
0.06640625
 40
0.068359375
 40
0.0703125
 40
0.07421875
 40
0.078125
 40
0.08203125
 40
0.0859375
 40
0.09375
 40
0.1015625
 40
0.10546875
 40
0.109375
 40
0.11328125
 40
0.1171875
 40
0.119140625
 40
0.12109375
 40
0.123046875
 40
0.1240234375
 40
0.1245117188
 40
0.125
 40
0.1254882812
 40
0.1259765625
 40
0.126953125
 40
0.12890625
 40
0.130859375
 40
0.1328125
 40
0.13671875
 40
0.140625
 40
0.14453125
 40
0.1484375
 40
0.15625
 40
0.1640625
 40
0.16796875
 40
0.171875
 40
0.17578125
 40
0.1796875
 40
0.181640625
 40
0.18359375
 40
0.1845703125
 40
0.185546875
 40
0.1865234375
 40
0.1870117188
 40
0.1875
 40
0.1879882812
 40
0.1884765625
 40
0.189453125
 40
0.1904296875
 40
0.19140625
 40
0.193359375
 40
0.1953125
 40
0.19921875
 40
0.203125
 40
0.20703125
 40
0.2109375
 40
0.21875
 40
0.2265625
 40
0.23046875
 40
0.234375
 40
0.23828125
 40
0.2421875
 40
0.244140625
 40
0.24609375
 40
0.2470703125
 40
0.248046875
 40
0.2490234375
 40
0.2495117188
 40
0.25
 40
0.2504882812
 40
0.2509765625
 40
0.251953125
 40
0.2529296875
 40
0.25390625
 40
0.255859375
 40
0.2578125
 40
0.26171875
 40
0.265625
 40
0.26953125
 40
0.2734375
 40
0.28125
 40
0.2890625
 40
0.29296875
 40
0.296875
 40
0.30078125
 40
0.3046875
 40
0.306640625
 40
0.30859375
 40
0.310546875
 40
0.3115234375
 40
0.3120117188
 40
0.3125
 40
0.3129882812
 40
0.3134765625
 40
0.314453125
 40
0.31640625
 40
0.318359375
 40
0.3203125
 40
0.32421875
 40
0.328125
 40
0.33203125
 40
0.3359375
 40
0.34375
 40
0.3515625
 40
0.35546875
 40
0.359375
 40
0.36328125
 40
0.3671875
 40
0.369140625
 40
0.37109375
 40
0.373046875
 40
0.3740234375
 40
0.3745117188
 40
0.375
 40
0.3754882812
 40
0.3759765625
 40
0.376953125
 40
0.37890625
 40
0.380859375
 40
0.3828125
 40
0.38671875
 40
0.390625
 40
0.39453125
 40
0.3984375
 40
0.40625
 40
0.4140625
 40
0.41796875
 40
0.421875
 40
0.42578125
 40
0.4296875
 40
0.431640625
 40
0.43359375
 40
0.4345703125
 40
0.435546875
 40
0.4365234375
 40
0.4370117188
 40
0.4375
 40
0.4379882812
 40
0.4384765625
 40
0.439453125
 40
0.4404296875
 40
0.44140625
 40
0.443359375
 40
0.4453125
 40
0.44921875
 40
0.453125
 40
0.45703125
 40
0.4609375
 40
0.46875
 40
0.4765625
 40
0.48046875
 40
0.484375
 40
0.48828125
 40
0.4921875
 40
0.494140625
 40
0.49609375
 40
0.498046875
 40
0.4990234375
 40
0.4995117188
 40
0.5
 40
0.5004882812
 40
0.5009765625
 40
0.501953125
 40
0.50390625
 40
0.505859375
 40
0.5078125
 40
0.51171875
 40
0.515625
 40
0.51953125
 40
0.5234375
 40
0.53125
 40
0.5390625
 40
0.54296875
 40
0.546875
 40
0.55078125
 40
0.5546875
 40
0.556640625
 40
0.55859375
 40
0.560546875
 40
0.5615234375
 40
0.5620117188
 40
0.5625
 40
0.5629882812
 40
0.5634765625
 40
0.564453125
 40
0.56640625
 40
0.568359375
 40
0.5703125
 40
0.57421875
 40
0.578125
 40
0.58203125
 40
0.5859375
 40
0.59375
 40
0.6015625
 40
0.609375
 40
0.61328125
 40
0.6171875
 40
0.619140625
 40
0.62109375
 40
0.623046875
 40
0.6240234375
 40
0.6245117188
 40
0.625
 40
0.6254882812
 40
0.6259765625
 40
0.626953125
 40
0.62890625
 40
0.630859375
 40
0.6328125
 40
0.63671875
 40
0.640625
 40
0.6484375
 40
0.65625
 40
0.6640625
 40
0.66796875
 40
0.671875
 40
0.67578125
 40
0.6796875
 40
0.681640625
 40
0.68359375
 40
0.685546875
 40
0.6865234375
 40
0.6870117188
 40
0.6875
 40
0.6879882812
 40
0.6884765625
 40
0.689453125
 40
0.69140625
 40
0.693359375
 40
0.6953125
 40
0.69921875
 40
0.703125
 40
0.70703125
 40
0.7109375
 40
0.71875
 40
0.7265625
 40
0.73046875
 40
0.734375
 40
0.73828125
 40
0.7421875
 40
0.744140625
 40
0.74609375
 40
0.748046875
 40
0.7490234375
 40
0.7495117188
 40
0.75
 40
0.7504882812
 40
0.7509765625
 40
0.751953125
 40
0.75390625
 40
0.755859375
 40
0.7578125
 40
0.76171875
 40
0.765625
 40
0.76953125
 40
0.7734375
 40
0.78125
 40
0.7890625
 40
0.796875
 40
0.80078125
 40
0.8046875
 40
0.806640625
 40
0.80859375
 40
0.810546875
 40
0.8115234375
 40
0.8120117188
 40
0.8125
 40
0.8129882812
 40
0.8134765625
 40
0.814453125
 40
0.81640625
 40
0.818359375
 40
0.8203125
 40
0.82421875
 40
0.828125
 40
0.8359375
 40
0.84375
 40
0.8515625
 40
0.859375
 40
0.86328125
 40
0.8671875
 40
0.869140625
 40
0.87109375
 40
0.873046875
 40
0.8740234375
 40
0.8745117188
 40
0.875
 40
0.8754882812
 40
0.8759765625
 40
0.876953125
 40
0.87890625
 40
0.880859375
 40
0.8828125
 40
0.88671875
 40
0.890625
 40
0.8984375
 40
0.90625
 40
0.9140625
 40
0.91796875
 40
0.921875
 40
0.92578125
 40
0.9296875
 40
0.931640625
 40
0.93359375
 40
0.935546875
 40
0.9365234375
 40
0.9370117188
 40
0.9375
 40
0.9379882812
 40
0.9384765625
 40
0.939453125
 40
0.94140625
 40
0.943359375
 40
0.9453125
 40
0.94921875
 40
0.953125
 40
0.95703125
 40
0.9609375
 40
0.96875
 40
0.9765625
 40
0.984375
 40
1.0
 40
1.0
 40
1.0
 40
1.0
 10
9.6149608936
 20
6.2104069763
 30
0.0
 10
9.6205893732
 20
6.2105685172
 30
0.0
 10
9.6290320926
 20
6.2108108286
 30
0.0
 10
9.6402890519
 20
6.21113391
 30
0.0
 10
9.6487317712
 20
6.2113762222
 30
0.0
 10
9.6557673713
 20
6.2115781453
 30
0.0
 10
9.6613958497
 20
6.2117396923
 30
0.0
 10
9.6656172131
 20
6.2118608293
 30
0.0
 10
9.6698385591
 20
6.211982055
 30
0.0
 10
9.6733564014
 20
6.2120828
 30
0.0
 10
9.6761705544
 20
6.2121640152
 30
0.0
 10
9.6782814995
 20
6.2122232346
 30
0.0
 10
9.6800395693
 20
6.2122779661
 30
0.0
 10
9.6812722811
 20
6.2123057164
 30
0.0
 10
9.6819734667
 20
6.2123380649
 30
0.0
 10
9.6825084299
 20
6.2123158703
 30
0.0
 10
9.6830087079
 20
6.2124712539
 30
0.0
 10
9.6836878438
 20
6.2126164908
 30
0.0
 10
9.6848706947
 20
6.212899515
 30
0.0
 10
9.6865634287
 20
6.213288747
 30
0.0
 10
9.6885934481
 20
6.2137622838
 30
0.0
 10
9.6913005813
 20
6.2143914101
 30
0.0
 10
9.6946843465
 20
6.2151785922
 30
0.0
 10
9.6987449296
 20
6.2161228788
 30
0.0
 10
9.7028054954
 20
6.2170672543
 30
0.0
 10
9.7082195892
 20
6.2183263904
 30
0.0
 10
9.714987204
 20
6.2199003222
 30
0.0
 10
9.7217548211
 20
6.2214742463
 30
0.0
 10
9.7271689113
 20
6.2227333946
 30
0.0
 10
9.7312294879
 20
6.2236777335
 30
0.0
 10
9.7352900305
 20
6.2246221572
 30
0.0
 10
9.7386739219
 20
6.2254089126
 30
0.0
 10
9.7413807978
 20
6.2260389091
 30
0.0
 10
9.743411603
 20
6.2265097885
 30
0.0
 10
9.7451018784
 20
6.2269073347
 30
0.0
 10
9.7462891184
 20
6.2271755168
 30
0.0
 10
9.7469612218
 20
6.2273445343
 30
0.0
 10
9.7474831015
 20
6.2274268715
 30
0.0
 10
9.7479369321
 20
6.2276790274
 30
0.0
 10
9.7485657759
 20
6.2279560006
 30
0.0
 10
9.7496551933
 20
6.2284683022
 30
0.0
 10
9.7512172858
 20
6.2291857328
 30
0.0
 10
9.7530893219
 20
6.2300528256
 30
0.0
 10
9.7555862346
 20
6.231206792
 30
0.0
 10
9.7587070788
 20
6.2326499902
 30
0.0
 10
9.7624522189
 20
6.2343815108
 30
0.0
 10
9.7661973251
 20
6.2361131162
 30
0.0
 10
9.7711908119
 20
6.2384218939
 30
0.0
 10
9.7774326664
 20
6.2413078758
 30
0.0
 10
9.7836745219
 20
6.2441938551
 30
0.0
 10
9.7886680071
 20
6.2465026371
 30
0.0
 10
9.7924131179
 20
6.2482342294
 30
0.0
 10
9.7961582406
 20
6.2499657992
 30
0.0
 10
9.7992791394
 20
6.251408844
 30
0.0
 10
9.8017759406
 20
6.2525631233
 30
0.0
 10
9.8033362544
 20
6.2532849044
 30
0.0
 10
9.8045849336
 20
6.2538615127
 30
0.0
 10
9.8055202706
 20
6.2542962047
 30
0.0
 10
9.8063034478
 20
6.2546513357
 30
0.0
 10
9.8069216244
 20
6.2549513921
 30
0.0
 10
9.8074081145
 20
6.2551328468
 30
0.0
 10
9.8078073566
 20
6.2554806763
 30
0.0
 10
9.8083701563
 20
6.2558863321
 30
0.0
 10
9.8090631994
 20
6.2564133415
 30
0.0
 10
9.8098993268
 20
6.2570372179
 30
0.0
 10
9.8110126001
 20
6.2578720342
 30
0.0
 10
9.8124047269
 20
6.2589145338
 30
0.0
 10
9.8146318308
 20
6.2605831036
 30
0.0
 10
9.8174158132
 20
6.2626686202
 30
0.0
 10
9.8207565481
 20
6.265171324
 30
0.0
 10
9.8240972949
 20
6.2676740053
 30
0.0
 10
9.8285516197
 20
6.2710109217
 30
0.0
 10
9.8341195273
 20
6.2751820642
 30
0.0
 10
9.8396874336
 20
6.2793532084
 30
0.0
 10
9.8441417605
 20
6.282690122
 30
0.0
 10
9.8474825008
 20
6.2851928117
 30
0.0
 10
9.8508232599
 20
6.2876954842
 30
0.0
 10
9.8536071671
 20
6.289781098
 30
0.0
 10
9.8558344245
 20
6.2914494696
 30
0.0
 10
9.8572261605
 20
6.2924924738
 30
0.0
 10
9.858340236
 20
6.2933262543
 30
0.0
 10
9.8591739125
 20
6.2939532952
 30
0.0
 10
9.8598746241
 20
6.2944704036
 30
0.0
 10
9.8604217785
 20
6.2948962591
 30
0.0
 10
9.8608688002
 20
6.2951823999
 30
0.0
 10
9.8611759059
 20
6.2955954598
 30
0.0
 10
9.8616342547
 20
6.2961018718
 30
0.0
 10
9.8621904221
 20
6.2967500978
 30
0.0
 10
9.8628650004
 20
6.2975214583
 30
0.0
 10
9.8637619313
 20
6.2985522129
 30
0.0
 10
9.8648839533
 20
6.2998398776
 30
0.0
 10
9.8666787086
 20
6.3019005763
 30
0.0
 10
9.8689223175
 20
6.3044763003
 30
0.0
 10
9.8716145776
 20
6.3075672331
 30
0.0
 10
9.8743068565
 20
6.3106581488
 30
0.0
 10
9.8778965552
 20
6.3147793756
 30
0.0
 10
9.8823836801
 20
6.3199309077
 30
0.0
 10
9.8868708074
 20
6.3250824381
 30
0.0
 10
9.8904605023
 20
6.3292036676
 30
0.0
 10
9.8931527928
 20
6.3322945754
 30
0.0
 10
9.8958450092
 20
6.3353855379
 30
0.0
 10
9.898088754
 20
6.3379611694
 30
0.0
 10
9.8998832322
 20
6.3400220568
 30
0.0
 10
9.9012305048
 20
6.3415666779
 30
0.0
 10
9.9023487347
 20
6.3428571846
 30
0.0
 10
9.9031403214
 20
6.3437540189
 30
0.0
 10
9.9035788759
 20
6.3442766768
 30
0.0
 10
9.9039466123
 20
6.3446399899
 30
0.0
 10
9.9041659569
 20
6.3451129337
 30
0.0
 10
9.904510177
 20
6.345705285
 30
0.0
 10
9.9050884459
 20
6.3467597168
 30
0.0
 10
9.9059271526
 20
6.3482567329
 30
0.0
 10
9.906928204
 20
6.3500571395
 30
0.0
 10
9.9082648242
 20
6.3524562887
 30
0.0
 10
9.9099349526
 20
6.3554557032
 30
0.0
 10
9.911939384
 20
6.3590547957
 30
0.0
 10
9.9139437413
 20
6.3626539431
 30
0.0
 10
9.9166162436
 20
6.367452787
 30
0.0
 10
9.9199568616
 20
6.3734513489
 30
0.0
 10
9.9232974866
 20
6.3794499067
 30
0.0
 10
9.9259699779
 20
6.3842487573
 30
0.0
 10
9.9279743681
 20
6.3878478847
 30
0.0
 10
9.9299786758
 20
6.3914470521
 30
0.0
 10
9.931649189
 20
6.3944462336
 30
0.0
 10
9.9329850246
 20
6.396845858
 30
0.0
 10
9.9339884721
 20
6.3986448135
 30
0.0
 10
9.9348196819
 20
6.4001463694
 30
0.0
 10
9.9354113341
 20
6.401192697
 30
0.0
 10
9.9357341109
 20
6.4017980332
 30
0.0
 10
9.9360193225
 20
6.4022310915
 30
0.0
 10
9.9361396731
 20
6.402744208
 30
0.0
 10
9.9363576459
 20
6.4034004381
 30
0.0
 10
9.9367123055
 20
6.4045618517
 30
0.0
 10
9.9372329697
 20
6.4062142116
 30
0.0
 10
9.937851771
 20
6.4081999552
 30
0.0
 10
9.9386789338
 20
6.4108465963
 30
0.0
 10
9.9397121686
 20
6.4141552466
 30
0.0
 10
9.9409523584
 20
6.4181254773
 30
0.0
 10
9.9421924658
 20
6.4220957481
 30
0.0
 10
9.9438459712
 20
6.4273894285
 30
0.0
 10
9.9459128432
 20
6.4340065337
 30
0.0
 10
9.9479797178
 20
6.4406236375
 30
0.0
 10
9.949633219
 20
6.4459173201
 30
0.0
 10
9.9508733388
 20
6.4498875843
 30
0.0
 10
9.9521134822
 20
6.4538578399
 30
0.0
 10
9.9531468615
 20
6.457166413
 30
0.0
 10
9.9539737296
 20
6.4598132114
 30
0.0
 10
9.9544901471
 20
6.4614675972
 30
0.0
 10
9.9549041403
 20
6.4627907926
 30
0.0
 10
9.9552122826
 20
6.4637840467
 30
0.0
 10
9.9554765516
 20
6.4646090305
 30
0.0
 10
9.9556711823
 20
6.4652751358
 30
0.0
 10
9.9558630184
 20
6.4657579968
 30
0.0
 10
9.9558797945
 20
6.4663046708
 30
0.0
 10
9.9559633135
 20
6.4670112787
 30
0.0
 10
9.9560467316
 20
6.4679021865
 30
0.0
 10
9.9561558137
 20
6.4689680023
 30
0.0
 10
9.9562981198
 20
6.4703902333
 30
0.0
 10
9.9564770765
 20
6.4721676307
 30
0.0
 10
9.9567628069
 20
6.4750116853
 30
0.0
 10
9.9571201758
 20
6.4785666784
 30
0.0
 10
9.9575489303
 20
6.4828327024
 30
0.0
 10
9.9579777084
 20
6.4870987177
 30
0.0
 10
9.9585494043
 20
6.4927867412
 30
0.0
 10
9.9592640261
 20
6.4998967695
 30
0.0
 10
9.9599786508
 20
6.5070067982
 30
0.0
 10
9.9605503421
 20
6.512694821
 30
0.0
 10
9.9609791343
 20
6.5169608385
 30
0.0
 10
9.9614078357
 20
6.5212268543
 30
0.0
 10
9.9617653699
 20
6.5247818728
 30
0.0
 10
9.9620507633
 20
6.5276258756
 30
0.0
 10
9.9622665404
 20
6.5297589105
 30
0.0
 10
9.9624408454
 20
6.5315363353
 30
0.0
 10
9.9625736705
 20
6.5327807374
 30
0.0
 10
9.9626326891
 20
6.5334915047
 30
0.0
 10
9.9627245084
 20
6.5340254804
 30
0.0
 10
9.9626345473
 20
6.5345560148
 30
0.0
 10
9.9625780062
 20
6.5352645945
 30
0.0
 10
9.9624495167
 20
6.5365040495
 30
0.0
 10
9.9622814056
 20
6.538274992
 30
0.0
 10
9.9620730611
 20
6.5403999979
 30
0.0
 10
9.9617975778
 20
6.5432333827
 30
0.0
 10
9.9614524312
 20
6.5467750988
 30
0.0
 10
9.9610385951
 20
6.5510251644
 30
0.0
 10
9.960624668
 20
6.5552752284
 30
0.0
 10
9.9600727971
 20
6.560941981
 30
0.0
 10
9.9593829466
 20
6.5680254214
 30
0.0
 10
9.9586931039
 20
6.5751088623
 30
0.0
 10
9.9581412205
 20
6.580775614
 30
0.0
 10
9.957727331
 20
6.5850256807
 30
0.0
 10
9.9573133539
 20
6.5892757361
 30
0.0
 10
9.9569686458
 20
6.592817484
 30
0.0
 10
9.9566922684
 20
6.5956508038
 30
0.0
 10
9.9564866544
 20
6.5977760084
 30
0.0
 10
9.9563100004
 20
6.5995463291
 30
0.0
 10
9.9561967612
 20
6.6007868941
 30
0.0
 10
9.9561157853
 20
6.6014936954
 30
0.0
 10
9.9561008801
 20
6.6020296922
 30
0.0
 10
9.9559108021
 20
6.6025431522
 30
0.0
 10
9.955718467
 20
6.6032356266
 30
0.0
 10
9.9553534118
 20
6.6044437941
 30
0.0
 10
9.9548467882
 20
6.6061716626
 30
0.0
 10
9.9542324692
 20
6.6082442852
 30
0.0
 10
9.9534156025
 20
6.6110080683
 30
0.0
 10
9.9523937555
 20
6.6144626988
 30
0.0
 10
9.9511678664
 20
6.6186082977
 30
0.0
 10
9.9499418899
 20
6.6227538852
 30
0.0
 10
9.9483072846
 20
6.6282813391
 30
0.0
 10
9.946264021
 20
6.6351906563
 30
0.0
 10
9.9438120931
 20
6.643481832
 30
0.0
 10
9.941768868
 20
6.6503911618
 30
0.0
 10
9.940134178
 20
6.6559185879
 30
0.0
 10
9.9391127475
 20
6.6593733152
 30
0.0
 10
9.9382950287
 20
6.6621369001
 30
0.0
 10
9.9376833125
 20
6.664210128
 30
0.0
 10
9.9371685453
 20
6.6659361026
 30
0.0
 10
9.9368180278
 20
6.6671476511
 30
0.0
 10
9.9366023998
 20
6.6678347083
 30
0.0
 10
9.9364838702
 20
6.6683648081
 30
0.0
 10
9.936200241
 20
6.6688383085
 30
0.0
 10
9.9358796573
 20
6.6694893848
 30
0.0
 10
9.9352918043
 20
6.67061957
 30
0.0
 10
9.9344660422
 20
6.6722389292
 30
0.0
 10
9.9334691233
 20
6.6741801019
 30
0.0
 10
9.9321419953
 20
6.6767690512
 30
0.0
 10
9.9304823672
 20
6.6800049915
 30
0.0
 10
9.9278273635
 20
6.6851826337
 30
0.0
 10
9.9245084714
 20
6.6916546393
 30
0.0
 10
9.9205258589
 20
6.6994210658
 30
0.0
 10
9.9172070052
 20
6.7058930848
 30
0.0
 10
9.9145519173
 20
6.7110706974
 30
0.0
 10
9.912560622
 20
6.7149539167
 30
0.0
 10
9.9105692466
 20
6.7188370979
 30
0.0
 10
9.9089100168
 20
6.7220732008
 30
0.0
 10
9.9075820739
 20
6.7246618177
 30
0.0
 10
9.906587644
 20
6.7266040055
 30
0.0
 10
9.9057540945
 20
6.7282201887
 30
0.0
 10
9.9051801432
 20
6.7293560438
 30
0.0
 10
9.9048372855
 20
6.7299980354
 30
0.0
 10
9.9046220752
 20
6.730499441
 30
0.0
 10
9.9042465755
 20
6.7309247335
 30
0.0
 10
9.90380182
 20
6.7315183393
 30
0.0
 10
9.9029974481
 20
6.7325447797
 30
0.0
 10
9.9018619644
 20
6.7340175901
 30
0.0
 10
9.9004935546
 20
6.7357821945
 30
0.0
 10
9.8986710444
 20
6.7381359673
 30
0.0
 10
9.896392208
 20
6.7410778515
 30
0.0
 10
9.8936579038
 20
6.7446082548
 30
0.0
 10
9.8909235195
 20
6.7481386201
 30
0.0
 10
9.8872777018
 20
6.7528457871
 30
0.0
 10
9.8827204194
 20
6.7587297406
 30
0.0
 10
9.878163143
 20
6.7646136987
 30
0.0
 10
9.8745173156
 20
6.7693208584
 30
0.0
 10
9.8717829605
 20
6.7728512455
 30
0.0
 10
9.8690485467
 20
6.7763815668
 30
0.0
 10
9.8667700511
 20
6.7793237063
 30
0.0
 10
9.8649468459
 20
6.7816769585
 30
0.0
 10
9.8635805586
 20
6.783443153
 30
0.0
 10
9.8624384342
 20
6.7849109885
 30
0.0
 10
9.8616459171
 20
6.7859463099
 30
0.0
 10
9.8611821671
 20
6.7865256861
 30
0.0
 10
9.8608650126
 20
6.7869946873
 30
0.0
 10
9.8604306675
 20
6.7873319301
 30
0.0
 10
9.8598924181
 20
6.787827546
 30
0.0
 10
9.8589314361
 20
6.7886734608
 30
0.0
 10
9.857568562
 20
6.7898931055
 30
0.0
 10
9.855928851
 20
6.7913518873
 30
0.0
 10
9.8537440584
 20
6.7932986036
 30
0.0
 10
9.8510125568
 20
6.7957314245
 30
0.0
 10
9.8477349738
 20
6.7986510558
 30
0.0
 10
9.8444573324
 20
6.8015706214
 30
0.0
 10
9.8400871639
 20
6.805463398
 30
0.0
 10
9.8346244484
 20
6.8103293639
 30
0.0
 10
9.8280691831
 20
6.8161685125
 30
0.0
 10
9.822606491
 20
6.8210345112
 30
0.0
 10
9.8182362712
 20
6.8249272158
 30
0.0
 10
9.8155050347
 20
6.8273603712
 30
0.0
 10
9.8133196998
 20
6.8293064031
 30
0.0
 10
9.8116816451
 20
6.8307672752
 30
0.0
 10
9.8103135888
 20
6.83198038
 30
0.0
 10
9.8093618578
 20
6.8328379695
 30
0.0
 10
9.8088087861
 20
6.8333148797
 30
0.0
 10
9.8084199704
 20
6.8337095806
 30
0.0
 10
9.807931815
 20
6.8339627788
 30
0.0
 10
9.8073155919
 20
6.8343497341
 30
0.0
 10
9.8062210571
 20
6.8350039093
 30
0.0
 10
9.8046658764
 20
6.8359504682
 30
0.0
 10
9.8027960468
 20
6.8370811926
 30
0.0
 10
9.8003042025
 20
6.8385906227
 30
0.0
 10
9.797188965
 20
6.8404767948
 30
0.0
 10
9.7922048266
 20
6.8434950143
 30
0.0
 10
9.7859745704
 20
6.8472676698
 30
0.0
 10
9.7784983002
 20
6.8517949111
 30
0.0
 10
9.7710220139
 20
6.8563221235
 30
0.0
 10
9.764791798
 20
6.8600948513
 30
0.0
 10
9.759807579
 20
6.8631129261
 30
0.0
 10
9.7566925464
 20
6.8649994661
 30
0.0
 10
9.7542002816
 20
6.8665081411
 30
0.0
 10
9.7523317367
 20
6.8676411726
 30
0.0
 10
9.7507725362
 20
6.8685805133
 30
0.0
 10
9.7496851774
 20
6.8692475741
 30
0.0
 10
9.7490574565
 20
6.8696138834
 30
0.0
 10
9.7486046188
 20
6.8699304994
 30
0.0
 10
9.7480831559
 20
6.8700870136
 30
0.0
 10
9.7474118094
 20
6.8703515445
 30
0.0
 10
9.7462258001
 20
6.8707884541
 30
0.0
 10
9.7445373319
 20
6.8714262139
 30
0.0
 10
9.7425086743
 20
6.8721857032
 30
0.0
 10
9.7398046693
 20
6.8732003891
 30
0.0
 10
9.7364243645
 20
6.8744680503
 30
0.0
 10
9.7310160436
 20
6.8764966973
 30
0.0
 10
9.7242555854
 20
6.8790323727
 30
0.0
 10
9.7161430597
 20
6.8820752394
 30
0.0
 10
9.7093826172
 20
6.8846109522
 30
0.0
 10
9.7039742618
 20
6.8866395169
 30
0.0
 10
9.6999180019
 20
6.8881609626
 30
0.0
 10
9.6958617162
 20
6.8896823226
 30
0.0
 10
9.6924815586
 20
6.8909503896
 30
0.0
 10
9.6897772523
 20
6.8919642453
 30
0.0
 10
9.6877495148
 20
6.8927262706
 30
0.0
 10
9.6860581679
 20
6.8933560958
 30
0.0
 10
9.6848772977
 20
6.8938071701
 30
0.0
 10
9.684197717
 20
6.8940490057
 30
0.0
 10
9.6837015467
 20
6.8942752324
 30
0.0
 10
9.6831537145
 20
6.8943300198
 30
0.0
 10
9.6824412919
 20
6.8944628695
 30
0.0
 10
9.6811861563
 20
6.8946674948
 30
0.0
 10
9.679397495
 20
6.894974383
 30
0.0
 10
9.6772492225
 20
6.895336414
 30
0.0
 10
9.6743855155
 20
6.8958212999
 30
0.0
 10
9.6708056566
 20
6.8964266599
 30
0.0
 10
9.6665099224
 20
6.8971534123
 30
0.0
 10
9.6622141624
 20
6.897880079
 30
0.0
 10
9.6564864914
 20
6.8988489978
 30
0.0
 10
9.6493268996
 20
6.9000601361
 30
0.0
 10
9.6407353907
 20
6.9015135065
 30
0.0
 10
9.6292800451
 20
6.9034513321
 30
0.0
 10
9.620688536
 20
6.9049047016
 30
0.0
 10
9.6149608632
 20
6.9058736145
 30
0.0
  0
ENDSEC
  0
SECTION
  2
OBJECTS
  0
DICTIONARY
  5
C
100
AcDbDictionary
280
0
281
1
  3
ACAD_GROUP
350
D
  3
ACAD_MLINESTYLE
350
17
  3
ACAD_LAYOUT
350
1A
  3
ACAD_PLOTSETTINGS
350
19
  3
ACAD_PLOTSTYLENAME
350
E
  3
ACAD_IMAGE_DICT
350
       3D2
  3
ACAD_IMAGE_VARS
350
       3D3
  3
ACAD_TABLESTYLE
350
       3D4
  0
IMAGEDEF_REACTOR
  5
3D1
100
AcDbRasterImageDefReactor
 90
2
330
2A6
  0
DICTIONARY
  5
D
102
{ACAD_REACTORS
330
C
102
}
100
AcDbDictionary
280
0
281
1
  0
ACDBDICTIONARYWDFLT
  5
E
102
{ACAD_REACTORS
330
C
102
}
100
AcDbDictionary
281
1
  3
Normal
350
F
100
AcDbDictionaryWithDefault
340
F
  0
DICTIONARY
  5
3D2
330
C
100
AcDbDictionary
281
1
  3
Z7Z_assy_2_img_1
350
       3D7
  0
RASTERVARIABLES
  5
3D3
330
C
100
AcDbRasterVariables
 90
0
 70
0
 71
1
 72
5
  0
DICTIONARY
  5
17
102
{ACAD_REACTORS
330
C
102
}
100
AcDbDictionary
280
0
281
1
  3
Standard
350
18
  0
DICTIONARY
  5
3D4
330
C
100
AcDbDictionary
281
1
  3
Standard
350
       3D8
  3
Standard1
350
       3D9
  0
DICTIONARY
  5
19
102
{ACAD_REACTORS
330
C
102
}
100
AcDbDictionary
281
1
  0
DICTIONARY
  5
1A
102
{ACAD_REACTORS
330
C
102
}
100
AcDbDictionary
281
1
  3
Model
350
3D5
  3
Layout1
350
3D6
  0
ACDBPLACEHOLDER
  5
F
102
{ACAD_REACTORS
330
E
102
}
  0
MLINESTYLE
  5
18
102
{ACAD_REACTORS
330
17
102
}
100
AcDbMlineStyle
  2
STANDARD
 70
0
  3

 62
256
 51
90.0
 52
90.0
 71
2
 49
0.5
 62
256
  6
BYLAYER
 49
-0.5
 62
256
  6
BYLAYER
  0
LAYOUT
  5
3D5
102
{ACAD_REACTORS
330
1A
102
}
100
AcDbPlotSettings
  1

  2
none_device
  4
ANSI_C_(22.00_x_17.00_Inches)
  6

 40
0.0
 41
0.0
 42
0.0
 43
0.0
 44
558.8
 45
431.8
 46
0.0
 47
0.0
 48
0.0
 49
0.0
140
0.0
141
0.0
142
1.0
143
1.0
 70
1024
 72
0
 73
0
 74
0
  7

 75
0
147
1.0
148
0.0
149
0.0
100
AcDbLayout
  1
Model
 70
0
 71
0
 10
0.0
 20
0.0
 11
22.0
 21
17.0
 12
0.0
 22
0.0
 32
0.0
 14
0.0
 24
0.0
 34
0.0
 15
0.0
 25
0.0
 35
0.0
146
0.0
 13
0.0
 23
0.0
 33
0.0
 16
1.0
 26
0.0
 36
0.0
 17
0.0
 27
1.0
 37
0.0
 76
0
330
224
345
0
346
0
  0
LAYOUT
  5
3D6
102
{ACAD_REACTORS
330
1A
102
}
100
AcDbPlotSettings
  1

  2
none_device
  4
ANSI_C_(22.00_x_17.00_Inches)
  6

 40
0.0
 41
0.0
 42
0.0
 43
0.0
 44
558.8
 45
431.8
 46
0.0
 47
0.0
 48
0.0
 49
0.0
140
0.0
141
0.0
142
1.0
143
1.0
 70
0
 72
0
 73
0
 74
0
  7

 75
0
147
1.0
148
0.0
149
0.0
100
AcDbLayout
  1
Layout1
 70
0
 71
1
 10
0.0
 20
0.0
 11
22.0
 21
17.0
 12
0.0
 22
0.0
 32
0.0
 14
0.0
 24
0.0
 34
0.0
 15
0.0
 25
0.0
 35
0.0
146
0.0
 13
0.0
 23
0.0
 33
0.0
 16
1.0
 26
0.0
 36
0.0
 17
0.0
 27
1.0
 37
0.0
 76
0
330
225
345
0
346
0
  0
IMAGEDEF
  5
3D7
102
{ACAD_REACTORS
330
3D2
330
3D1
102
}
100
AcDbRasterImageDef
 90
0
  1
Z7Z_assy_2_img_1.png
 10
369.0
 20
92.0
 11
0.0066666667
 21
0.0066666667
280
1
281
0
  0
TABLESTYLE
  5
3D8
102
{ACAD_REACTORS
330
3D4
330
2A9
330
2AA
102
}
330
3D4
100
AcDbTableStyle
  3
Standard
 70
0
 71
0
 40
0.06
 41
0.06
280
1
281
1
  7
Standard
140
0.18
170
1
 62
0
 63
7
283
0
  7
Standard
140
0.18
170
1
 62
0
 63
7
283
0
  7
Standard
140
0.18
170
1
 62
0
 63
7
283
0
  0
TABLESTYLE
  5
3D9
102
{ACAD_REACTORS
330
3D4
330
2A8
102
}
330
3D4
100
AcDbTableStyle
  3
Standard1
 70
1
 71
0
 40
0.06
 41
0.06
280
1
281
1
  7
Standard
140
0.18
170
1
 62
0
 63
7
283
0
  7
Standard
140
0.18
170
1
 62
0
 63
7
283
0
  7
Standard
140
0.18
170
1
 62
0
 63
7
283
0
  0
ENDSEC
  0
EOF
