999
DXF file: Z6F_assy_2.dxf
999
Pro/ENGINEER 2014200 by Parametric Technology Corporation
  0
SECTION
  2
HEADER
  9
$ACADVER
  1
AC1021
  9
$DWGCODEPAGE
  3
ANSI_1252
  9
$EXTMAX
 10
22.0
 20
17.0
 30
0.0
  9
$EXTMIN
 10
0.0
 20
0.0
 30
0.0
  9
$LIMMIN
 10
0.0
 20
0.0
  9
$LIMMAX
 10
22.0
 20
17.0
  9
$VIEWCTR
 10
11.0
 20
8.5
  9
$VIEWSIZE
 40
17.0
  9
$CLAYER
  8
0
  9
$LTSCALE
 40
1.21
  9
$CELTYPE
  6
BYLAYER
  9
$DIMSCALE
 40
1.0
  9
$DIMASZ
 40
0.1875
  9
$DIMEXO
 40
0.0625
  9
$DIMDLI
 40
0.836
  9
$DIMEXE
 40
0.125
  9
$DIMCEN
 40
0.198
  9
$DIMLFAC
 40
1.0
  9
$DIMBLK
  1
_FILLED
  9
$DIMTXT
 40
0.1
  9
$DIMTOL
 70
0
  9
$DIMLIM
 70
0
  9
$DIMTFAC
 40
1.0
  9
$DIMGAP
 40
0.09
  9
$DIMDSEP
 70
46
  9
$AUNITS
 70
0
  9
$PDMODE
 70
3
  9
$PDSIZE
 40
0.3125
  9
$HANDSEED
  5
3B4
  9
$TILEMODE
 70
1
  9
$MEASUREMENT
 70
0
  9
$INSUNITS
 70
1
  0
ENDSEC
  0
SECTION
  2
CLASSES
  0
CLASS
  1
ACDBDICTIONARYWDFLT
  2
AcDbDictionaryWithDefault
  3
AutoCAD 2000
 90
0
 91
1
280
0
281
0
  0
CLASS
  1
ACDBPLACEHOLDER
  2
AcDbPlaceHolder
  3
AutoCAD 2000
 90
0
 91
1
280
0
281
0
  0
CLASS
  1
LAYOUT
  2
AcDbLayout
  3
AutoCAD 2000
 90
0
 91
0
280
0
281
0
  0
CLASS
  1
RASTERVARIABLES
  2
AcDbRasterVariables
  3
ISM
 90
0
 91
1
280
0
281
0
  0
CLASS
  1
IMAGEDEF
  2
AcDbRasterImageDef
  3
ISM
 90
0
 91
1
280
0
281
0
  0
CLASS
  1
IMAGEDEF_REACTOR
  2
AcDbRasterImageDefReactor
  3
ISM
 90
0
 91
1
280
0
281
0
  0
CLASS
  1
IMAGE
  2
AcDbRasterImage
  3
ISM
 90
127
 91
1
280
0
281
1
  0
CLASS
  1
TABLESTYLE
  2
AcDbTableStyle
  3
ObjectDBX Classes
 90
2047
 91
1
280
0
281
0
  0
CLASS
  1
ACAD_TABLE
  2
AcDbTable
  3
ObjectDBX Classes
 90
1025
 91
2
280
0
281
1
  0
ENDSEC
  0
SECTION
  2
TABLES
  0
TABLE
  2
VPORT
  5
8
100
AcDbSymbolTable
 70
2
  0
VPORT
  5
1F4
100
AcDbSymbolTableRecord
100
AcDbViewportTableRecord
  2
*ACTIVE
 70
0
 10
0.0
 20
0.0
 11
1.0
 21
1.0
 12
11.0
 22
8.5
 13
0.0
 23
0.0
 14
1.0
 24
1.0
 15
0.0
 25
0.0
 16
0.0
 26
0.0
 36
1.0
 17
0.0
 27
0.0
 37
0.0
 40
17.0
 41
1.2941176471
 42
50.0
 43
0.0
 44
0.0
 50
0.0
 51
0.0
 71
0
 72
100
 73
1
 74
1
 75
0
 76
0
 77
0
 78
0
  0
ENDTAB
  0
TABLE
  2
LTYPE
  5
5
100
AcDbSymbolTable
 70
6
  0
LTYPE
  5
14
100
AcDbSymbolTableRecord
100
AcDbLinetypeTableRecord
  2
BYBLOCK
 70
0
  3

 72
65
 73
0
 40
0.0
  0
LTYPE
  5
15
100
AcDbSymbolTableRecord
100
AcDbLinetypeTableRecord
  2
BYLAYER
 70
0
  3

 72
65
 73
0
 40
0.0
  0
LTYPE
  5
16
100
AcDbSymbolTableRecord
100
AcDbLinetypeTableRecord
  2
CONTINUOUS
 70
64
  3
Solid line
 72
65
 73
0
 40
0.0
  0
LTYPE
  5
1F5
100
AcDbSymbolTableRecord
100
AcDbLinetypeTableRecord
  2
CENTER
 70
64
  3
____ _ ____ _ ____ _ ____ _ ____ _ ____ _ ____
 72
65
 73
4
 40
0.6
 49
0.375
 74
0
 49
-0.075
 74
0
 49
0.075
 74
0
 49
-0.075
 74
0
  0
LTYPE
  5
1F6
100
AcDbSymbolTableRecord
100
AcDbLinetypeTableRecord
  2
HIDDEN
 70
64
  3
- - - - - - - - - - - - - - - - - - - -
 72
65
 73
2
 40
0.2
 49
0.1
 74
0
 49
-0.1
 74
0
  0
LTYPE
  5
1F7
100
AcDbSymbolTableRecord
100
AcDbLinetypeTableRecord
  2
PHANTOM
 70
64
  3
_____ _ _ _____ _ _ _____ _ _ _____
 72
65
 73
6
 40
0.8
 49
0.45
 74
0
 49
-0.05
 74
0
 49
0.1
 74
0
 49
-0.05
 74
0
 49
0.1
 74
0
 49
-0.05
 74
0
  0
LTYPE
  5
1F8
100
AcDbSymbolTableRecord
100
AcDbLinetypeTableRecord
  2
DOT
 70
64
  3
. . . . . . . . . . . . . . . . . . . .
 72
65
 73
2
 40
0.2
 49
0.1
 74
0
 49
-0.1
 74
0
  0
LTYPE
  5
1F9
100
AcDbSymbolTableRecord
100
AcDbLinetypeTableRecord
  2
DASHED
 70
64
  3
- - - - - - - - - - - - - - - - - - - -
 72
65
 73
2
 40
0.2
 49
0.1
 74
0
 49
-0.1
 74
0
  0
ENDTAB
  0
TABLE
  2
LAYER
  5
2
100
AcDbSymbolTable
 70
36
  0
LAYER
  5
10
100
AcDbSymbolTableRecord
100
AcDbLayerTableRecord
  2
0
 70
0
 62
7
  6
CONTINUOUS
370
-3
390
F
  0
LAYER
  5
1FA
100
AcDbSymbolTableRecord
100
AcDbLayerTableRecord
  2
DEFAULT_1
 70
0
 62
7
  6
CENTER
370
-3
390
F
  0
LAYER
  5
1FB
100
AcDbSymbolTableRecord
100
AcDbLayerTableRecord
  2
DEFAULT_2
 70
0
 62
8
  6
HIDDEN
370
-3
390
F
  0
LAYER
  5
1FC
100
AcDbSymbolTableRecord
100
AcDbLayerTableRecord
  2
DEFAULT_3
 70
0
 62
7
  6
PHANTOM
370
-3
390
F
  0
LAYER
  5
1FD
100
AcDbSymbolTableRecord
100
AcDbLayerTableRecord
  2
DATUM_PLANES
 70
0
 62
7
  6
CONTINUOUS
370
-3
390
F
  0
LAYER
  5
1FE
100
AcDbSymbolTableRecord
100
AcDbLayerTableRecord
  2
DIMENSIONS
 70
0
 62
7
  6
CONTINUOUS
370
-3
390
F
  0
LAYER
  5
1FF
100
AcDbSymbolTableRecord
100
AcDbLayerTableRecord
  2
DTM_500001
 70
0
 62
7
  6
CONTINUOUS
370
-3
390
F
  0
LAYER
  5
200
100
AcDbSymbolTableRecord
100
AcDbLayerTableRecord
  2
PARAMETERDIMENSIONS
 70
0
 62
7
  6
CONTINUOUS
370
-3
390
F
  0
LAYER
  5
201
100
AcDbSymbolTableRecord
100
AcDbLayerTableRecord
  2
PLANE
 70
0
 62
7
  6
CONTINUOUS
370
-3
390
F
  0
LAYER
  5
202
100
AcDbSymbolTableRecord
100
AcDbLayerTableRecord
  2
PORT_AREAS
 70
0
 62
7
  6
CONTINUOUS
370
-3
390
F
  0
LAYER
  5
203
100
AcDbSymbolTableRecord
100
AcDbLayerTableRecord
  2
SUNNBOMCOSMETIC
 70
0
 62
7
  6
CONTINUOUS
370
-3
390
F
  0
LAYER
  5
204
100
AcDbSymbolTableRecord
100
AcDbLayerTableRecord
  2
SUNNBOMSTAMPING
 70
0
 62
7
  6
CONTINUOUS
370
-3
390
F
  0
LAYER
  5
205
100
AcDbSymbolTableRecord
100
AcDbLayerTableRecord
  2
THREADS
 70
0
 62
7
  6
CONTINUOUS
370
-3
390
F
  0
ENDTAB
  0
TABLE
  2
STYLE
  5
3
100
AcDbSymbolTable
 70
1
  0
STYLE
  5
11
100
AcDbSymbolTableRecord
100
AcDbTextStyleTableRecord
  2
STANDARD
 70
0
 40
0.0
 41
0.8
 50
0.0
 71
0
 42
0.2
  3
txt
  4

  0
STYLE
  5
206
100
AcDbSymbolTableRecord
100
AcDbTextStyleTableRecord
  2
TEXTSTYLE_1
 70
0
 40
0.0
 41
0.8
 50
0.0
 71
0
 42
0.2
  3
gdt
  4

  0
ENDTAB
  0
TABLE
  2
VIEW
  5
6
100
AcDbSymbolTable
 70
0
  0
ENDTAB
  0
TABLE
  2
UCS
  5
7
100
AcDbSymbolTable
 70
0
  0
ENDTAB
  0
TABLE
  2
APPID
  5
9
100
AcDbSymbolTable
 70
1
  0
APPID
  5
207
100
AcDbSymbolTableRecord
100
AcDbRegAppTableRecord
  2
ACAD
 70
0
  0
ENDTAB
  0
TABLE
  2
BLOCK_RECORD
  5
1
100
AcDbSymbolTable
 70
0
  0
BLOCK_RECORD
  5
208
100
AcDbSymbolTableRecord
100
AcDbBlockTableRecord
  2
*Model_Space
  0
BLOCK_RECORD
  5
209
100
AcDbSymbolTableRecord
100
AcDbBlockTableRecord
  2
*Paper_Space
  0
BLOCK_RECORD
  5
20A
100
AcDbSymbolTableRecord
100
AcDbBlockTableRecord
  2
SUN_FIRST_THIRD_ANGLE_BL0
  0
BLOCK_RECORD
  5
20B
100
AcDbSymbolTableRecord
100
AcDbBlockTableRecord
  2
*T1
  0
BLOCK_RECORD
  5
20C
100
AcDbSymbolTableRecord
100
AcDbBlockTableRecord
  2
*T2
  0
ENDTAB
  0
TABLE
  2
DIMSTYLE
  5
A
100
AcDbSymbolTable
 70
1
100
AcDbDimStyleTable
 71
0
  0
DIMSTYLE
105
20D
100
AcDbSymbolTableRecord
100
AcDbDimStyleTableRecord
  2
STANDARD
 70
0
  3

  4

 40
1.0
 41
0.1875
 42
0.0625
 43
0.38
 44
0.125
 45
0.0
 46
0.0
 47
0.001
 48
0.001
140
0.1
141
0.09
142
0.0
143
25.4
144
1.0
145
0.0
146
1.0
147
0.09
 71
0.0
 72
0.0
 73
1
 74
1
 75
0
 76
0
 77
0
 78
4
170
0
171
2
172
0
173
0
174
0
175
0
176
0
177
0
178
0
270
2
271
3
272
3
273
2
274
2
275
0
280
0
281
0
282
0
283
1
284
4
285
0
286
0
287
3
288
0
340
11
278
46
  0
ENDTAB
  0
ENDSEC
  0
SECTION
  2
BLOCKS
  0
BLOCK
  5
20
100
AcDbEntity
  8
0
100
AcDbBlockBegin
  2
*Model_Space
 70
0
 10
0.0
 20
0.0
 30
0.0
  3
*Model_Space
  1

  0
ENDBLK
  5
21
100
AcDbEntity
  8
0
100
AcDbBlockEnd
  0
BLOCK
  5
1C
100
AcDbEntity
  8
0
100
AcDbBlockBegin
  2
*Paper_Space
 70
0
 10
0.0
 20
0.0
 30
0.0
  3
*Paper_Space
  1

  0
ENDBLK
  5
1D
100
AcDbEntity
  8
0
100
AcDbBlockEnd
  0
BLOCK
  5
20E
100
AcDbEntity
  8
0
100
AcDbBlockBegin
 62
2
  6
CONTINUOUS
  2
SUN_FIRST_THIRD_ANGLE_BL0
 70
64
 10
20.4816717061
 20
1.2289683772
  3
SUN_FIRST_THIRD_ANGLE_BL0
  1

  0
TEXT
  5
20F
100
AcDbEntity
  8
0
100
AcDbText
 62
2
  6
CONTINUOUS
 10
19.4750896608
 20
1.4136269581
  7
STANDARD
 40
0.08
  1
FIRST ANGLE
 41
0.8
 72
0
100
AcDbText
  0
TEXT
  5
210
100
AcDbEntity
  8
0
100
AcDbText
 62
2
  6
CONTINUOUS
 10
20.7842537513
 20
1.4047600029
  7
STANDARD
 40
0.08
  1
THIRD ANGLE
 41
0.8
 72
0
100
AcDbText
  0
LINE
  5
211
100
AcDbEntity
  8
0
100
AcDbLine
 62
7
  6
CONTINUOUS
 10
19.4767170086
 20
1.1727031207
 11
19.6334271527
 21
1.1717972817
  0
LINE
  5
212
100
AcDbEntity
  8
0
100
AcDbLine
 62
7
  6
CONTINUOUS
 10
19.6596964832
 20
1.1717972817
 11
19.6950230232
 21
1.171593082
  0
LINE
  5
213
100
AcDbEntity
  8
0
100
AcDbLine
 62
7
  6
CONTINUOUS
 10
19.7194818561
 20
1.1708914427
 11
19.8852396156
 21
1.1699333054
  0
LINE
  5
214
100
AcDbEntity
  8
0
100
AcDbLine
 62
7
  6
CONTINUOUS
 10
19.4758111696
 20
1.2723454088
 11
19.88525039
 21
1.3511534004
  0
LINE
  5
215
100
AcDbEntity
  8
0
100
AcDbLine
 62
7
  6
CONTINUOUS
 10
19.88525039
 20
1.3511534004
 11
19.8831348489
 21
0.9851647912
  0
LINE
  5
216
100
AcDbEntity
  8
0
100
AcDbLine
 62
7
  6
CONTINUOUS
 10
19.8831348489
 20
0.9851647912
 11
19.4767170086
 21
1.0658141206
  0
LINE
  5
217
100
AcDbEntity
  8
0
100
AcDbLine
 62
7
  6
CONTINUOUS
 10
19.4767170086
 20
1.0658141206
 11
19.4779056764
 21
1.2714536432
  0
CIRCLE
  5
218
100
AcDbEntity
  8
0
100
AcDbCircle
 62
7
  6
CONTINUOUS
 10
20.2068232291
 20
1.1717972817
 40
0.175742101
  0
CIRCLE
  5
219
100
AcDbEntity
  8
0
100
AcDbCircle
 62
7
  6
CONTINUOUS
 10
20.2068232291
 20
1.1717972817
 40
0.1005522074
  0
LINE
  5
21A
100
AcDbEntity
  8
0
100
AcDbLine
 62
7
  6
CONTINUOUS
 10
20.2077290681
 20
1.3756110529
 11
20.2071171714
 21
1.2379342989
  0
LINE
  5
21B
100
AcDbEntity
  8
0
100
AcDbLine
 62
7
  6
CONTINUOUS
 10
20.2077290681
 20
1.2016899681
 11
20.2074674401
 21
1.1428236749
  0
LINE
  5
21C
100
AcDbEntity
  8
0
100
AcDbLine
 62
7
  6
CONTINUOUS
 10
20.208634907
 20
1.101141841
 11
20.2080230104
 21
0.963465087
  0
LINE
  5
21D
100
AcDbEntity
  8
0
100
AcDbLine
 62
7
  6
CONTINUOUS
 10
20.0066328138
 20
1.1745147986
 11
20.1443095678
 21
1.1739029019
  0
LINE
  5
21E
100
AcDbEntity
  8
0
100
AcDbLine
 62
7
  6
CONTINUOUS
 10
20.1832714155
 20
1.1727031207
 11
20.238153505
 21
1.172335442
  0
LINE
  5
21F
100
AcDbEntity
  8
0
100
AcDbLine
 62
7
  6
CONTINUOUS
 10
20.2756669918
 20
1.1717972817
 11
20.407916871
 21
1.1712095044
  0
CIRCLE
  5
220
100
AcDbEntity
  8
0
100
AcDbCircle
 62
7
  6
CONTINUOUS
 10
20.7509457401
 20
1.1693297793
 40
0.1722024983
  0
CIRCLE
  5
221
100
AcDbEntity
  8
0
100
AcDbCircle
 62
7
  6
CONTINUOUS
 10
20.7509457401
 20
1.1693297793
 40
0.0985164967
  0
LINE
  5
222
100
AcDbEntity
  8
0
100
AcDbLine
 62
7
  6
CONTINUOUS
 10
20.7169767782
 20
1.170462078
 11
20.7825395137
 21
1.1682766535
  0
LINE
  5
223
100
AcDbEntity
  8
0
100
AcDbLine
 62
7
  6
CONTINUOUS
 10
20.8177513651
 20
1.1693297793
 11
20.947965719
 21
1.1693297793
  0
LINE
  5
224
100
AcDbEntity
  8
0
100
AcDbLine
 62
7
  6
CONTINUOUS
 10
20.6875370113
 20
1.170462078
 11
20.5573226574
 21
1.170462078
  0
LINE
  5
225
100
AcDbEntity
  8
0
100
AcDbLine
 62
7
  6
CONTINUOUS
 10
20.7486811426
 20
1.1987695462
 11
20.7486811426
 21
1.1432869085
  0
LINE
  5
226
100
AcDbEntity
  8
0
100
AcDbLine
 62
7
  6
CONTINUOUS
 10
20.7498134414
 20
1.1059210505
 11
20.7498134414
 21
0.9757066966
  0
LINE
  5
227
100
AcDbEntity
  8
0
100
AcDbLine
 62
7
  6
CONTINUOUS
 10
20.7486811426
 20
1.2338708068
 11
20.7486811426
 21
1.3640851607
  0
LINE
  5
228
100
AcDbEntity
  8
0
100
AcDbLine
 62
7
  6
CONTINUOUS
 10
21.0702539817
 20
1.2701043662
 11
21.4790138229
 21
1.3448360823
  0
LINE
  5
229
100
AcDbEntity
  8
0
100
AcDbLine
 62
7
  6
CONTINUOUS
 10
21.4790138229
 20
1.3448360823
 11
21.4790138229
 21
0.9779712941
  0
LINE
  5
22A
100
AcDbEntity
  8
0
100
AcDbLine
 62
7
  6
CONTINUOUS
 10
21.4790138229
 20
0.9779712941
 11
21.069121683
 21
1.0617614
  0
LINE
  5
22B
100
AcDbEntity
  8
0
100
AcDbLine
 62
7
  6
CONTINUOUS
 10
21.0702539817
 20
1.2701043662
 11
21.069121683
 21
1.0617614
  0
LINE
  5
22C
100
AcDbEntity
  8
0
100
AcDbLine
 62
7
  6
CONTINUOUS
 10
21.4790138229
 20
1.1693297793
 11
21.3159628059
 21
1.1693297793
  0
LINE
  5
22D
100
AcDbEntity
  8
0
100
AcDbLine
 62
7
  6
CONTINUOUS
 10
21.2876553377
 20
1.1693297793
 11
21.2502894796
 21
1.1693297793
  0
LINE
  5
22E
100
AcDbEntity
  8
0
100
AcDbLine
 62
7
  6
CONTINUOUS
 10
21.2208497126
 20
1.1659328831
 11
21.0713862804
 21
1.1659328831
  0
LINE
  5
22F
100
AcDbEntity
  8
0
100
AcDbLine
 62
7
  6
CONTINUOUS
 10
20.4796138713
 20
1.5284908897
 11
20.4766766948
 21
0.9294458646
  0
ENDBLK
  5
230
100
AcDbEntity
  8
0
  6
BYBLOCK
 62
0
100
AcDbBlockEnd
  0
BLOCK
  5
231
100
AcDbEntity
  8
0
100
AcDbBlockBegin
  2
*T1
 70
1
 10
0.0
 20
0.0
  3
*T1
  1

  0
LINE
  5
232
100
AcDbEntity
  8
0
100
AcDbLine
 62
2
  6
CONTINUOUS
 10
9.275
 20
0.0
 11
-0.0
 21
0.0
  0
LINE
  5
233
100
AcDbEntity
  8
0
100
AcDbLine
 62
2
  6
CONTINUOUS
 10
9.275
 20
0.0
 11
9.275
 21
1.25
  0
LINE
  5
234
100
AcDbEntity
  8
0
100
AcDbLine
 62
2
  6
CONTINUOUS
 10
9.275
 20
0.625
 11
-0.0
 21
0.625
  0
LINE
  5
235
100
AcDbEntity
  8
0
100
AcDbLine
 62
2
  6
CONTINUOUS
 10
9.275
 20
1.25
 11
-0.0
 21
1.25
  0
LINE
  5
236
100
AcDbEntity
  8
0
100
AcDbLine
 62
2
  6
CONTINUOUS
 10
6.8
 20
0.0
 11
6.8
 21
1.25
  0
LINE
  5
237
100
AcDbEntity
  8
0
100
AcDbLine
 62
2
  6
CONTINUOUS
 10
6.4
 20
0.0
 11
6.4
 21
0.625
  0
LINE
  5
238
100
AcDbEntity
  8
0
100
AcDbLine
 62
2
  6
CONTINUOUS
 10
5.9
 20
0.0
 11
5.9
 21
0.625
  0
LINE
  5
239
100
AcDbEntity
  8
0
100
AcDbLine
 62
2
  6
CONTINUOUS
 10
5.2
 20
0.0
 11
5.2
 21
0.625
  0
LINE
  5
23A
100
AcDbEntity
  8
0
100
AcDbLine
 62
2
  6
CONTINUOUS
 10
4.1
 20
0.0
 11
4.1
 21
1.25
  0
LINE
  5
23B
100
AcDbEntity
  8
0
100
AcDbLine
 62
2
  6
CONTINUOUS
 10
-0.0
 20
0.0
 11
-0.0
 21
1.25
  0
MTEXT
  5
23C
100
AcDbEntity
  8
0
100
AcDbMText
 62
2
  6
CONTINUOUS
  7
STANDARD
 71
2
 72
1
 10
6.6
 20
0.325
 30
0.0
 11
1.0
 21
0.0
 31
0.0
 44
0.9
  1
2
 40
0.125
 41
0.2
  0
MTEXT
  5
23D
100
AcDbEntity
  8
0
100
AcDbMText
 62
2
  6
CONTINUOUS
  7
STANDARD
 71
2
 72
1
 10
6.15
 20
0.325
 30
0.0
 11
1.0
 21
0.0
 31
0.0
 44
0.9
  1
C
 40
0.125
 41
0.2
  0
MTEXT
  5
23E
100
AcDbEntity
  8
0
100
AcDbMText
 62
2
  6
CONTINUOUS
  7
STANDARD
 71
2
 72
1
 10
5.55
 20
0.325
 30
0.0
 11
1.0
 21
0.0
 31
0.0
 44
0.9
  1
2.000
 40
0.125
 41
1.0
  0
MTEXT
  5
23F
100
AcDbEntity
  8
0
100
AcDbMText
 62
2
  6
CONTINUOUS
  7
STANDARD
 71
2
 72
1
 10
4.65
 20
0.325
 30
0.0
 11
1.0
 21
0.0
 31
0.0
 44
0.9
  1
Jun-03-21
 40
0.125
 41
1.8
  0
MTEXT
  5
240
100
AcDbEntity
  8
0
100
AcDbMText
 62
2
  6
CONTINUOUS
  7
STANDARD
 71
2
 72
1
 10
2.05
 20
0.4625
 30
0.0
 11
1.0
 21
0.0
 31
0.0
 44
0.9
  1
T-162A Sandwich ISO 03\PA to T, PO check on A, port 3 to B
 40
0.125
 41
6.8
  0
MTEXT
  5
241
100
AcDbEntity
  8
0
100
AcDbMText
 62
2
  6
CONTINUOUS
  7
STANDARD
 71
1
 72
1
 10
6.45
 20
0.5625
 30
0.0
 11
1.0
 21
0.0
 31
0.0
 44
0.9
  1
SHEET
 40
0.06
 41
0.48
  0
MTEXT
  5
242
100
AcDbEntity
  8
0
100
AcDbMText
 62
2
  6
CONTINUOUS
  7
STANDARD
 71
1
 72
1
 10
5.95
 20
0.5625
 30
0.0
 11
1.0
 21
0.0
 31
0.0
 44
0.9
  1
DWG SIZE
 40
0.06
 41
0.768
  0
MTEXT
  5
243
100
AcDbEntity
  8
0
100
AcDbMText
 62
2
  6
CONTINUOUS
  7
STANDARD
 71
1
 72
1
 10
5.25
 20
0.5625
 30
0.0
 11
1.0
 21
0.0
 31
0.0
 44
0.9
  1
SCALE
 40
0.06
 41
0.48
  0
MTEXT
  5
244
100
AcDbEntity
  8
0
100
AcDbMText
 62
2
  6
CONTINUOUS
  7
STANDARD
 71
1
 72
1
 10
4.15
 20
0.5625
 30
0.0
 11
1.0
 21
0.0
 31
0.0
 44
0.9
  1
DATE
 40
0.06
 41
0.384
  0
MTEXT
  5
245
100
AcDbEntity
  8
0
100
AcDbMText
 62
2
  6
CONTINUOUS
  7
STANDARD
 71
1
 72
1
 10
0.05
 20
0.5625
 30
0.0
 11
1.0
 21
0.0
 31
0.0
 44
0.9
  1
DESCRIPTION
 40
0.06
 41
1.056
  0
MTEXT
  5
246
100
AcDbEntity
  8
0
100
AcDbMText
 62
2
  6
CONTINUOUS
  7
STANDARD
 71
2
 72
1
 10
5.45
 20
1.0375
 30
0.0
 11
1.0
 21
0.0
 31
0.0
 44
0.9
  1
ALL DIMENSIONS IN INCH\PVIEWS ARE THIRD ANGLE
 40
0.12
 41
4.224
  0
MTEXT
  5
247
100
AcDbEntity
  8
0
100
AcDbMText
 62
2
  6
CONTINUOUS
  7
STANDARD
 71
2
 72
1
 10
2.05
 20
0.95
 30
0.0
 11
1.0
 21
0.0
 31
0.0
 44
0.9
  1
Z6F
 40
0.125
 41
0.6
  0
MTEXT
  5
248
100
AcDbEntity
  8
0
100
AcDbMText
 62
2
  6
CONTINUOUS
  7
STANDARD
 71
1
 72
1
 10
0.05
 20
1.1875
 30
0.0
 11
1.0
 21
0.0
 31
0.0
 44
0.9
  1
MODEL
 40
0.06
 41
0.48
  0
ENDBLK
  5
249
100
AcDbEntity
  8
0
  6
BYBLOCK
 62
0
100
AcDbBlockEnd
  0
BLOCK
  5
24A
100
AcDbEntity
  8
0
100
AcDbBlockBegin
  2
*T2
 70
1
 10
0.0
 20
0.0
  3
*T2
  1

  0
LINE
  5
24B
100
AcDbEntity
  8
0
100
AcDbLine
 62
2
  6
CONTINUOUS
 10
0.0
 20
0.0
 11
9.055
 21
0.0
  0
LINE
  5
24C
100
AcDbEntity
  8
0
100
AcDbLine
 62
2
  6
CONTINUOUS
 10
0.0
 20
0.0
 11
0.0
 21
-1.844
  0
LINE
  5
24D
100
AcDbEntity
  8
0
100
AcDbLine
 62
2
  6
CONTINUOUS
 10
0.0
 20
-0.344
 11
9.055
 21
-0.344
  0
LINE
  5
24E
100
AcDbEntity
  8
0
100
AcDbLine
 62
2
  6
CONTINUOUS
 10
0.0
 20
-0.594
 11
9.055
 21
-0.594
  0
LINE
  5
24F
100
AcDbEntity
  8
0
100
AcDbLine
 62
2
  6
CONTINUOUS
 10
0.0
 20
-0.844
 11
9.055
 21
-0.844
  0
LINE
  5
250
100
AcDbEntity
  8
0
100
AcDbLine
 62
2
  6
CONTINUOUS
 10
0.0
 20
-1.094
 11
9.055
 21
-1.094
  0
LINE
  5
251
100
AcDbEntity
  8
0
100
AcDbLine
 62
2
  6
CONTINUOUS
 10
0.0
 20
-1.344
 11
9.055
 21
-1.344
  0
LINE
  5
252
100
AcDbEntity
  8
0
100
AcDbLine
 62
2
  6
CONTINUOUS
 10
0.0
 20
-1.594
 11
9.055
 21
-1.594
  0
LINE
  5
253
100
AcDbEntity
  8
0
100
AcDbLine
 62
2
  6
CONTINUOUS
 10
0.0
 20
-1.844
 11
9.055
 21
-1.844
  0
LINE
  5
254
100
AcDbEntity
  8
0
100
AcDbLine
 62
2
  6
CONTINUOUS
 10
3.055
 20
0.0
 11
3.055
 21
-1.844
  0
LINE
  5
255
100
AcDbEntity
  8
0
100
AcDbLine
 62
2
  6
CONTINUOUS
 10
9.055
 20
0.0
 11
9.055
 21
-1.844
  0
MTEXT
  5
256
100
AcDbEntity
  8
0
100
AcDbMText
 62
2
  6
CONTINUOUS
  7
STANDARD
 71
2
 72
1
 10
1.5275
 20
-0.0995
 30
0.0
 11
1.0
 21
0.0
 31
0.0
 44
0.9
  1
Technical Data
 40
0.145
 41
3.248
  0
MTEXT
  5
257
100
AcDbEntity
  8
0
100
AcDbMText
 62
2
  6
CONTINUOUS
  7
STANDARD
 71
2
 72
1
 10
4.555
 20
-0.0995
 30
0.0
 11
1.0
 21
0.0
 31
0.0
 44
0.9
  1
U.S. Units
 40
0.145
 41
2.32
  0
MTEXT
  5
258
100
AcDbEntity
  8
0
100
AcDbMText
 62
2
  6
CONTINUOUS
  7
STANDARD
 71
2
 72
1
 10
7.555
 20
-0.0995
 30
0.0
 11
1.0
 21
0.0
 31
0.0
 44
0.9
  1
Metric Units
 40
0.145
 41
2.784
  0
MTEXT
  5
259
100
AcDbEntity
  8
0
100
AcDbMText
 62
2
  6
CONTINUOUS
  7
STANDARD
 71
2
 72
1
 10
1.5275
 20
-0.4065
 30
0.0
 11
1.0
 21
0.0
 31
0.0
 44
0.9
  1
Cavity
 40
0.125
 41
1.2
  0
MTEXT
  5
25A
100
AcDbEntity
  8
0
100
AcDbMText
 62
2
  6
CONTINUOUS
  7
STANDARD
 71
2
 72
1
 10
6.055
 20
-0.4065
 30
0.0
 11
1.0
 21
0.0
 31
0.0
 44
0.9
  1
T-162A
 40
0.125
 41
1.2
  0
MTEXT
  5
25B
100
AcDbEntity
  8
0
100
AcDbMText
 62
2
  6
CONTINUOUS
  7
STANDARD
 71
2
 72
1
 10
1.5275
 20
-0.6565
 30
0.0
 11
1.0
 21
0.0
 31
0.0
 44
0.9
  1
Body Features
 40
0.125
 41
2.6
  0
MTEXT
  5
25C
100
AcDbEntity
  8
0
100
AcDbMText
 62
2
  6
CONTINUOUS
  7
STANDARD
 71
2
 72
1
 10
6.055
 20
-0.6565
 30
0.0
 11
1.0
 21
0.0
 31
0.0
 44
0.9
  1
A to T, PO check on A, port 3 to B
 40
0.125
 41
6.8
  0
MTEXT
  5
25D
100
AcDbEntity
  8
0
100
AcDbMText
 62
2
  6
CONTINUOUS
  7
STANDARD
 71
2
 72
1
 10
1.5275
 20
-0.9065
 30
0.0
 11
1.0
 21
0.0
 31
0.0
 44
0.9
  1
Body Type
 40
0.125
 41
1.8
  0
MTEXT
  5
25E
100
AcDbEntity
  8
0
100
AcDbMText
 62
2
  6
CONTINUOUS
  7
STANDARD
 71
2
 72
1
 10
6.055
 20
-0.9065
 30
0.0
 11
1.0
 21
0.0
 31
0.0
 44
0.9
  1
Sandwich
 40
0.125
 41
1.6
  0
MTEXT
  5
25F
100
AcDbEntity
  8
0
100
AcDbMText
 62
2
  6
CONTINUOUS
  7
STANDARD
 71
2
 72
1
 10
1.5275
 20
-1.1565
 30
0.0
 11
1.0
 21
0.0
 31
0.0
 44
0.9
  1
Interface
 40
0.125
 41
1.8
  0
MTEXT
  5
260
100
AcDbEntity
  8
0
100
AcDbMText
 62
2
  6
CONTINUOUS
  7
STANDARD
 71
2
 72
1
 10
6.055
 20
-1.1565
 30
0.0
 11
1.0
 21
0.0
 31
0.0
 44
0.9
  1
ISO 03
 40
0.125
 41
1.2
  0
MTEXT
  5
261
100
AcDbEntity
  8
0
100
AcDbMText
 62
2
  6
CONTINUOUS
  7
STANDARD
 71
2
 72
1
 10
1.5275
 20
-1.4065
 30
0.0
 11
1.0
 21
0.0
 31
0.0
 44
0.9
  1
Open Cavity Quantity
 40
0.125
 41
4.0
  0
MTEXT
  5
262
100
AcDbEntity
  8
0
100
AcDbMText
 62
2
  6
CONTINUOUS
  7
STANDARD
 71
2
 72
1
 10
6.055
 20
-1.4065
 30
0.0
 11
1.0
 21
0.0
 31
0.0
 44
0.9
  1
1
 40
0.125
 41
0.2
  0
MTEXT
  5
263
100
AcDbEntity
  8
0
100
AcDbMText
 62
2
  6
CONTINUOUS
  7
STANDARD
 71
2
 72
1
 10
1.5275
 20
-1.6565
 30
0.0
 11
1.0
 21
0.0
 31
0.0
 44
0.9
  1
Weight
 40
0.125
 41
1.2
  0
MTEXT
  5
264
100
AcDbEntity
  8
0
100
AcDbMText
 62
2
  6
CONTINUOUS
  7
STANDARD
 71
2
 72
1
 10
4.555
 20
-1.6565
 30
0.0
 11
1.0
 21
0.0
 31
0.0
 44
0.9
  1
1.170 lb.
 40
0.125
 41
1.8
  0
MTEXT
  5
265
100
AcDbEntity
  8
0
100
AcDbMText
 62
2
  6
CONTINUOUS
  7
STANDARD
 71
2
 72
1
 10
7.555
 20
-1.6565
 30
0.0
 11
1.0
 21
0.0
 31
0.0
 44
0.9
  1
0,531 kg.
 40
0.125
 41
1.8
  0
ENDBLK
  5
266
100
AcDbEntity
  8
0
  6
BYBLOCK
 62
0
100
AcDbBlockEnd
  0
ENDSEC
  0
SECTION
  2
ENTITIES
  0
IMAGE
  5
267
100
AcDbEntity
  8
0
100
AcDbRasterImage
 62
7
  6
CONTINUOUS
 10
19.2297077316
 20
0.3094318264
 30
0.0
 11
0.0066666667
 21
0.0
 31
0.0
 12
0.0
 22
0.0066666667
 32
0.0
 13
369.0
 23
92.0
340
       3B1
 70
9
280
0
281
50
282
50
283
0
360
       3AB
 71
1
 91
2
 14
-0.5
 24
-0.5
 14
368.5
 24
91.5
  0
INSERT
  5
268
100
AcDbEntity
  8
0
100
AcDbBlockReference
 62
2
  6
CONTINUOUS
  2
SUN_FIRST_THIRD_ANGLE_BL0
 10
20.4816717061
 20
1.2289683772
  0
ACAD_TABLE
  5
269
100
AcDbEntity
  8
0
 62
2
  6
CONTINUOUS
100
AcDbBlockReference
  2
*T1
 10
12.42375
 20
0.30125
 30
0.0
100
AcDbTable
342
       3B3
343
20B
 11
1.0
 21
0.0
 31
0.0
 90
6
 91
4
 92
6
 93
20
 94
0
 95
0
 96
0
 70
1
 41
0.0
141
0.525
141
0.1
141
0.525
141
0.1
142
4.1
142
1.1
142
0.7
142
0.5
142
0.4
142
2.475
171
1
172
0
173
0
174
0
175
1
176
1
 91
33
178
0
145
0.0
301
CELL_VALUE
 90
4
  1
T-162A Sandwich ISO 03\PA to T, PO check on A, port 3 to B
304
ACVALUE_END
170
2
140
0.125
171
1
172
0
173
0
174
0
175
1
176
1
 91
33
178
0
145
0.0
301
CELL_VALUE
 90
4
  1
Jun-03-21
304
ACVALUE_END
170
5
140
0.125
171
1
172
0
173
0
174
0
175
1
176
1
 91
33
178
0
145
0.0
301
CELL_VALUE
 90
4
  1
2.000
304
ACVALUE_END
170
5
140
0.125
171
1
172
0
173
0
174
0
175
1
176
1
 91
33
178
0
145
0.0
301
CELL_VALUE
 90
4
  1
C
304
ACVALUE_END
170
5
140
0.125
171
1
172
0
173
0
174
0
175
1
176
1
 91
33
178
0
145
0.0
301
CELL_VALUE
 90
4
  1
2
304
ACVALUE_END
170
5
140
0.125
171
1
172
0
173
0
174
0
175
1
176
1
 91
33
178
0
145
0.0
301
CELL_VALUE
 90
4
  1
 
304
ACVALUE_END
170
1
140
0.125
171
1
172
0
173
0
174
0
175
1
176
1
 91
33
178
0
145
0.0
301
CELL_VALUE
 90
4
  1
DESCRIPTION
304
ACVALUE_END
170
1
140
0.06
171
1
172
0
173
0
174
0
175
1
176
1
 91
33
178
0
145
0.0
301
CELL_VALUE
 90
4
  1
DATE
304
ACVALUE_END
170
1
140
0.06
171
1
172
0
173
0
174
0
175
1
176
1
 91
33
178
0
145
0.0
301
CELL_VALUE
 90
4
  1
SCALE
304
ACVALUE_END
170
1
140
0.06
171
1
172
0
173
0
174
0
175
1
176
1
 91
33
178
0
145
0.0
301
CELL_VALUE
 90
4
  1
DWG SIZE
304
ACVALUE_END
170
1
140
0.06
171
1
172
0
173
0
174
0
175
1
176
1
 91
33
178
0
145
0.0
301
CELL_VALUE
 90
4
  1
SHEET
304
ACVALUE_END
170
1
140
0.06
171
1
172
0
173
0
174
0
175
1
176
1
 91
33
178
0
145
0.0
301
CELL_VALUE
 90
4
  1
 
304
ACVALUE_END
170
1
140
0.125
171
1
172
0
173
0
174
0
175
1
176
1
 91
33
178
0
145
0.0
301
CELL_VALUE
 90
4
  1
Z6F
304
ACVALUE_END
170
5
140
0.125
171
1
172
0
173
0
174
0
175
4
176
1
 91
33
178
0
145
0.0
301
CELL_VALUE
 90
4
  1
ALL DIMENSIONS IN INCH\PVIEWS ARE THIRD ANGLE
304
ACVALUE_END
170
5
140
0.12
171
1
172
0
173
1
174
0
175
1
176
1
 91
1
178
0
145
0.0
170
1
171
1
172
0
173
1
174
0
175
1
176
1
 91
1
178
0
145
0.0
170
1
171
1
172
0
173
1
174
0
175
1
176
1
 91
1
178
0
145
0.0
170
5
171
1
172
0
173
0
174
0
175
1
176
1
 91
33
178
0
145
0.0
301
CELL_VALUE
 90
4
  1
 
304
ACVALUE_END
170
1
140
0.125
171
1
172
0
173
0
174
0
175
1
176
1
 91
33
178
0
145
0.0
301
CELL_VALUE
 90
4
  1
MODEL
304
ACVALUE_END
170
1
140
0.06
171
1
172
0
173
0
174
0
175
1
176
1
 91
33
178
0
145
0.0
301
CELL_VALUE
 90
4
  1
 
304
ACVALUE_END
170
1
140
0.125
171
1
172
0
173
0
174
0
175
1
176
1
 91
33
178
0
145
0.0
301
CELL_VALUE
 90
4
  1
 
304
ACVALUE_END
170
1
140
0.125
171
1
172
0
173
0
174
0
175
1
176
1
 91
33
178
0
145
0.0
301
CELL_VALUE
 90
4
  1
 
304
ACVALUE_END
170
1
140
0.125
171
1
172
0
173
0
174
0
175
1
176
1
 91
33
178
0
145
0.0
301
CELL_VALUE
 90
4
  1
 
304
ACVALUE_END
170
1
140
0.125
171
1
172
0
173
0
174
0
175
1
176
1
 91
33
178
0
145
0.0
301
CELL_VALUE
 90
4
  1
 
304
ACVALUE_END
170
1
140
0.125
  0
ACAD_TABLE
  5
26A
100
AcDbEntity
  8
0
 62
2
  6
CONTINUOUS
100
AcDbBlockReference
  2
*T2
 10
12.4237499994
 20
16.47875
 30
0.0
100
AcDbTable
342
       3B2
343
20C
 11
1.0
 21
0.0
 31
0.0
 90
22
 91
7
 92
3
 93
16
 94
0
 95
0
 96
0
 41
0.028
141
0.344
141
0.25
141
0.25
141
0.25
141
0.25
141
0.25
141
0.25
142
3.055
142
3.0
142
3.0
171
1
172
0
173
0
174
0
175
1
176
1
 91
33
178
0
145
0.0
301
CELL_VALUE
 90
4
  1
Technical Data
304
ACVALUE_END
170
5
140
0.145
171
1
172
0
173
0
174
0
175
1
176
1
 91
33
178
0
145
0.0
301
CELL_VALUE
 90
4
  1
U.S. Units
304
ACVALUE_END
170
5
140
0.145
171
1
172
0
173
0
174
0
175
1
176
1
 91
33
178
0
145
0.0
301
CELL_VALUE
 90
4
  1
Metric Units
304
ACVALUE_END
170
5
140
0.145
171
1
172
0
173
0
174
0
175
1
176
1
 91
33
178
0
145
0.0
301
CELL_VALUE
 90
4
  1
Cavity
304
ACVALUE_END
170
5
140
0.125
171
1
172
0
173
0
174
0
175
2
176
1
 91
33
178
0
145
0.0
301
CELL_VALUE
 90
4
  1
T-162A
304
ACVALUE_END
170
5
140
0.125
171
1
172
0
173
1
174
0
175
1
176
1
 91
1
178
0
145
0.0
170
1
171
1
172
0
173
0
174
0
175
1
176
1
 91
33
178
0
145
0.0
301
CELL_VALUE
 90
4
  1
Body Features
304
ACVALUE_END
170
5
140
0.125
171
1
172
0
173
0
174
0
175
2
176
1
 91
33
178
0
145
0.0
301
CELL_VALUE
 90
4
  1
A to T, PO check on A, port 3 to B
304
ACVALUE_END
170
5
140
0.125
171
1
172
0
173
1
174
0
175
1
176
1
 91
1
178
0
145
0.0
170
1
171
1
172
0
173
0
174
0
175
1
176
1
 91
33
178
0
145
0.0
301
CELL_VALUE
 90
4
  1
Body Type
304
ACVALUE_END
170
5
140
0.125
171
1
172
0
173
0
174
0
175
2
176
1
 91
33
178
0
145
0.0
301
CELL_VALUE
 90
4
  1
Sandwich
304
ACVALUE_END
170
5
140
0.125
171
1
172
0
173
1
174
0
175
1
176
1
 91
1
178
0
145
0.0
170
1
171
1
172
0
173
0
174
0
175
1
176
1
 91
33
178
0
145
0.0
301
CELL_VALUE
 90
4
  1
Interface
304
ACVALUE_END
170
5
140
0.125
171
1
172
0
173
0
174
0
175
2
176
1
 91
33
178
0
145
0.0
301
CELL_VALUE
 90
4
  1
ISO 03
304
ACVALUE_END
170
5
140
0.125
171
1
172
0
173
1
174
0
175
1
176
1
 91
1
178
0
145
0.0
170
1
171
1
172
0
173
0
174
0
175
1
176
1
 91
33
178
0
145
0.0
301
CELL_VALUE
 90
4
  1
Open Cavity Quantity
304
ACVALUE_END
170
5
140
0.125
171
1
172
0
173
0
174
0
175
2
176
1
 91
33
178
0
145
0.0
301
CELL_VALUE
 90
4
  1
1
304
ACVALUE_END
170
5
140
0.125
171
1
172
0
173
1
174
0
175
1
176
1
 91
1
178
0
145
0.0
170
1
171
1
172
0
173
0
174
0
175
1
176
1
 91
33
178
0
145
0.0
301
CELL_VALUE
 90
4
  1
Weight
304
ACVALUE_END
170
5
140
0.125
171
1
172
0
173
0
174
0
175
1
176
1
 91
33
178
0
145
0.0
301
CELL_VALUE
 90
4
  1
1.170 lb.
304
ACVALUE_END
170
5
140
0.125
171
1
172
0
173
0
174
0
175
1
176
1
 91
33
178
0
145
0.0
301
CELL_VALUE
 90
4
  1
0,531 kg.
304
ACVALUE_END
170
5
140
0.125
  0
MTEXT
  5
26B
100
AcDbEntity
  8
0
100
AcDbMText
 62
2
  6
CONTINUOUS
  7
STANDARD
 71
1
 72
1
 10
0.52125
 20
5.75995
 30
0.0
 11
1.0
 21
0.0
 31
0.0
 44
0.6
  3
Notes\P \P1. Important: Carefully consider\P   the maximum system pressure. The\P   pressure rating of the manifold is\P   dependent on the manifold material,\P   with the port type/size a secondary\P   consideration. Manifolds\P   constructed of alu
  1
minum are not\P   rated for pressures higher than\P   3000 psi (210 bar), regardless of\P   the port type/size specified.
 40
0.1
 41
3.04
  0
LINE
  5
26C
100
AcDbEntity
  8
0
100
AcDbLine
 62
7
  6
CONTINUOUS
 10
0.30125
 20
0.30125
 11
0.30125
 21
16.69875
  0
LINE
  5
26D
100
AcDbEntity
  8
0
100
AcDbLine
 62
7
  6
CONTINUOUS
 10
0.30125
 20
0.30125
 11
21.69875
 21
0.30125
  0
LINE
  5
26E
100
AcDbEntity
  8
0
100
AcDbLine
 62
7
  6
CONTINUOUS
 10
0.30125
 20
16.69875
 11
21.69875
 21
16.69875
  0
LINE
  5
26F
100
AcDbEntity
  8
0
100
AcDbLine
 62
7
  6
CONTINUOUS
 10
21.69875
 20
0.30125
 11
21.69875
 21
16.69875
  0
LINE
  5
270
100
AcDbEntity
  8
0
100
AcDbLine
 62
7
  6
CONTINUOUS
 10
6.7540556879
 20
9.6038970799
 11
6.7376442458
 21
9.5760717297
  0
LINE
  5
271
100
AcDbEntity
  8
0
100
AcDbLine
 62
7
  6
CONTINUOUS
 10
6.6542342202
 20
7.9860261082
 11
6.6312104348
 21
8.0413428251
  0
LINE
  5
272
100
AcDbEntity
  8
0
100
AcDbLine
 62
7
  6
CONTINUOUS
 10
7.3240199869
 20
6.6388319894
 11
7.3240199869
 21
10.0195725818
  0
LINE
  5
273
100
AcDbEntity
  8
0
100
AcDbLine
 62
7
  6
CONTINUOUS
 10
7.3240199869
 20
10.0195725818
 11
8.1977923433
 21
10.8635719171
  0
LINE
  5
274
100
AcDbEntity
  8
0
100
AcDbLine
 62
7
  6
CONTINUOUS
 10
14.5684641133
 20
6.1364280829
 11
7.3240199869
 21
6.6388319894
  0
LINE
  5
275
100
AcDbEntity
  8
0
100
AcDbLine
 62
4
  6
CONTINUOUS
 10
10.3408298876
 20
10.3064444443
 11
10.3497036754
 21
10.3150158656
  0
LINE
  5
276
100
AcDbEntity
  8
0
100
AcDbLine
 62
4
  6
CONTINUOUS
 10
10.4212458371
 20
10.2641202941
 11
10.4301196258
 21
10.2726917163
  0
LINE
  5
277
100
AcDbEntity
  8
0
100
AcDbLine
 62
4
  6
CONTINUOUS
 10
10.5407234789
 20
10.3109554178
 11
10.4874807494
 21
10.2595268873
  0
LINE
  5
278
100
AcDbEntity
  8
0
100
AcDbLine
 62
4
  6
CONTINUOUS
 10
10.233567239
 20
9.9399795134
 11
10.2956837572
 21
9.9999794661
  0
LINE
  5
279
100
AcDbEntity
  8
0
100
AcDbLine
 62
4
  6
CONTINUOUS
 10
10.6033918528
 20
10.251488425
 11
10.6566345823
 21
10.3029169555
  0
LINE
  5
27A
100
AcDbEntity
  8
0
100
AcDbLine
 62
4
  6
CONTINUOUS
 10
10.6607529764
 20
10.238323596
 11
10.7228694946
 21
10.2983235487
  0
LINE
  5
27B
100
AcDbEntity
  8
0
100
AcDbLine
 62
4
  6
CONTINUOUS
 10
10.402721059
 20
9.9833695835
 11
10.3583521173
 21
9.9405124743
  0
LINE
  5
27C
100
AcDbEntity
  8
0
100
AcDbLine
 62
4
  6
CONTINUOUS
 10
10.7766640799
 20
10.2302851337
 11
10.838780598
 21
10.2902850864
  0
LINE
  5
27D
100
AcDbEntity
  8
0
100
AcDbLine
 62
4
  6
CONTINUOUS
 10
10.4433111279
 20
9.9254337253
 11
10.5716625584
 21
9.9808402713
  0
LINE
  5
27E
100
AcDbEntity
  8
0
100
AcDbLine
 62
4
  6
CONTINUOUS
 10
11.2089601252
 20
10.1849939326
 11
11.3343535997
 21
10.2375433409
  0
LINE
  5
27F
100
AcDbEntity
  8
0
100
AcDbLine
 62
4
  6
CONTINUOUS
 10
11.147125173
 20
10.0824088487
 11
10.9690975514
 21
10.0304473583
  0
LINE
  5
280
100
AcDbEntity
  8
0
100
AcDbLine
 62
4
  6
CONTINUOUS
 10
11.2331668579
 20
10.0626616048
 11
11.1823018262
 21
10.0478154656
  0
LINE
  5
281
100
AcDbEntity
  8
0
100
AcDbLine
 62
4
  6
CONTINUOUS
 10
11.0250450079
 20
10.2130598579
 11
11.0871615261
 21
10.2730598106
  0
LINE
  5
282
100
AcDbEntity
  8
0
100
AcDbLine
 62
4
  6
CONTINUOUS
 10
10.7082508048
 20
9.9070600964
 11
10.7703673229
 21
9.9670600491
  0
LINE
  5
283
100
AcDbEntity
  8
0
100
AcDbLine
 62
4
  6
CONTINUOUS
 10
11.164329437
 20
10.2447411444
 11
11.1243973902
 21
10.2061697467
  0
LINE
  5
284
100
AcDbEntity
  8
0
100
AcDbLine
 62
4
  6
CONTINUOUS
 10
10.8407206294
 20
9.8978732828
 11
10.9028371475
 21
9.9578732355
  0
LINE
  5
285
100
AcDbEntity
  8
0
100
AcDbLine
 62
4
  6
CONTINUOUS
 10
11.1823018262
 20
10.0478154656
 11
11.1601173558
 21
10.0263869114
  0
LINE
  5
286
100
AcDbEntity
  8
0
100
AcDbLine
 62
4
  6
CONTINUOUS
 10
11.3385782149
 20
10.1959096669
 11
11.3740733674
 21
10.2301953534
  0
LINE
  5
287
100
AcDbEntity
  8
0
100
AcDbLine
 62
4
  6
CONTINUOUS
 10
12.1965963416
 20
10.1961202448
 11
12.1866398906
 21
10.1922173148
  0
LINE
  5
288
100
AcDbEntity
  8
0
100
AcDbLine
 62
4
  6
CONTINUOUS
 10
11.4956101657
 20
10.2447338012
 11
11.4334936475
 21
10.1847338485
  0
LINE
  5
289
100
AcDbEntity
  8
0
100
AcDbLine
 62
4
  6
CONTINUOUS
 10
11.2760284593
 20
10.0183484491
 11
11.2937760358
 21
10.0354912926
  0
LINE
  5
28A
100
AcDbEntity
  8
0
100
AcDbLine
 62
4
  6
CONTINUOUS
 10
11.4997286428
 20
10.180140436
 11
11.5440975854
 21
10.2229975461
  0
LINE
  5
28B
100
AcDbEntity
  8
0
100
AcDbLine
 62
4
  6
CONTINUOUS
 10
11.1973277836
 20
9.8823293142
 11
11.2416967253
 21
9.9251864234
  0
LINE
  5
28C
100
AcDbEntity
  8
0
100
AcDbLine
 62
4
  6
CONTINUOUS
 10
11.3333895829
 20
10.0051836201
 11
11.395506101
 21
10.0651835728
  0
LINE
  5
28D
100
AcDbEntity
  8
0
100
AcDbLine
 62
4
  6
CONTINUOUS
 10
11.6169346849
 20
10.2133528638
 11
11.6080608971
 21
10.2047814425
  0
LINE
  5
28E
100
AcDbEntity
  8
0
100
AcDbLine
 62
4
  6
CONTINUOUS
 10
11.6531940829
 20
10.1740909823
 11
11.6665047659
 21
10.1869481156
  0
LINE
  5
28F
100
AcDbEntity
  8
0
100
AcDbLine
 62
4
  6
CONTINUOUS
 10
11.3905128823
 20
9.8689318821
 11
11.434881824
 21
9.9117889913
  0
LINE
  5
290
100
AcDbEntity
  8
0
100
AcDbLine
 62
4
  6
CONTINUOUS
 10
11.7481095155
 20
10.1629151639
 11
11.7836046703
 21
10.1972008527
  0
LINE
  5
291
100
AcDbEntity
  8
0
100
AcDbLine
 62
4
  6
CONTINUOUS
 10
11.8587133428
 20
10.2011788692
 11
11.8187812945
 21
10.1626074702
  0
LINE
  5
292
100
AcDbEntity
  8
0
100
AcDbLine
 62
4
  6
CONTINUOUS
 10
11.5507929274
 20
9.903750529
 11
11.5064239858
 21
9.8608934198
  0
LINE
  5
293
100
AcDbEntity
  8
0
100
AcDbLine
 62
7
  6
CONTINUOUS
 10
7.3240199869
 20
7.8020924996
 11
6.7330990532
 21
7.8430730055
  0
LINE
  5
294
100
AcDbEntity
  8
0
100
AcDbLine
 62
7
  6
CONTINUOUS
 10
7.3240199869
 20
7.8318143572
 11
6.7065480807
 21
7.8746361793
  0
LINE
  5
295
100
AcDbEntity
  8
0
100
AcDbLine
 62
4
  6
CONTINUOUS
 10
10.5716625584
 20
9.9808402713
 11
10.5757809802
 21
9.9162469099
  0
LINE
  5
296
100
AcDbEntity
  8
0
100
AcDbLine
 62
4
  6
CONTINUOUS
 10
11.5637850817
 20
9.8477285927
 11
11.6259015999
 21
9.9077285454
  0
LINE
  5
297
100
AcDbEntity
  8
0
100
AcDbLine
 62
4
  6
CONTINUOUS
 10
11.9136968377
 20
10.1514316441
 11
11.9580657803
 21
10.1942887542
  0
LINE
  5
298
100
AcDbEntity
  8
0
100
AcDbLine
 62
4
  6
CONTINUOUS
 10
11.9843686167
 20
10.1511239504
 11
12.0420482405
 21
10.206838192
  0
LINE
  5
299
100
AcDbEntity
  8
0
100
AcDbLine
 62
4
  6
CONTINUOUS
 10
11.7329389155
 20
9.8911186618
 11
11.6885699739
 21
9.8482615526
  0
LINE
  5
29A
100
AcDbEntity
  8
0
100
AcDbLine
 62
4
  6
CONTINUOUS
 10
11.7735290674
 20
9.8331827979
 11
11.8356455856
 21
9.8931827506
  0
LINE
  5
29B
100
AcDbEntity
  8
0
100
AcDbLine
 62
4
  6
CONTINUOUS
 10
12.1289602681
 20
10.1365030745
 11
12.1733292107
 21
10.1793601846
  0
LINE
  5
29C
100
AcDbEntity
  8
0
100
AcDbLine
 62
4
  6
CONTINUOUS
 10
12.1866398906
 20
10.1922173148
 11
12.1910767863
 21
10.1965030272
  0
LINE
  5
29D
100
AcDbEntity
  8
0
100
AcDbLine
 62
4
  6
CONTINUOUS
 10
12.2217103789
 20
10.1346642433
 11
12.2572055314
 21
10.1689499298
  0
LINE
  5
29E
100
AcDbEntity
  8
0
100
AcDbLine
 62
4
  6
CONTINUOUS
 10
15.3542381037
 20
8.3249978745
 11
15.3387089741
 21
8.3244867742
  0
LINE
  5
29F
100
AcDbEntity
  8
0
100
AcDbLine
 62
7
  6
CONTINUOUS
 10
7.3149170973
 20
8.4462001235
 11
6.5934934553
 21
8.496231023
  0
LINE
  5
2A0
100
AcDbEntity
  8
0
100
AcDbLine
 62
4
  6
CONTINUOUS
 10
12.392923506
 20
10.1457576255
 11
12.4062341877
 21
10.1586147574
  0
LINE
  5
2A1
100
AcDbEntity
  8
0
100
AcDbLine
 62
4
  6
CONTINUOUS
 10
12.4700912516
 20
10.1174389712
 11
12.4834019347
 21
10.1302961045
  0
LINE
  5
2A2
100
AcDbEntity
  8
0
100
AcDbLine
 62
7
  6
CONTINUOUS
 10
7.3149170973
 20
8.5606190144
 11
6.5934934553
 21
8.6106499139
  0
LINE
  5
2A3
100
AcDbEntity
  8
0
100
AcDbLine
 62
7
  6
CONTINUOUS
 10
12.7244014573
 20
9.3016784756
 11
12.6238432161
 21
9.2045466677
  0
LINE
  5
2A4
100
AcDbEntity
  8
0
100
AcDbLine
 62
4
  6
CONTINUOUS
 10
15.281768791
 20
9.2112644938
 11
15.2972979205
 21
9.2117755941
  0
LINE
  5
2A5
100
AcDbEntity
  8
0
100
AcDbLine
 62
7
  6
CONTINUOUS
 10
7.3240199869
 20
9.4078277131
 11
6.7065480807
 21
9.4506495352
  0
LINE
  5
2A6
100
AcDbEntity
  8
0
100
AcDbLine
 62
4
  6
CONTINUOUS
 10
15.3387089741
 20
8.1071534553
 11
15.4008254923
 21
8.0947089684
  0
LINE
  5
2A7
100
AcDbEntity
  8
0
100
AcDbLine
 62
4
  6
CONTINUOUS
 10
11.2350012727
 20
10.2444334481
 11
11.2403085489
 21
10.1981312806
  0
LINE
  5
2A8
100
AcDbEntity
  8
0
100
AcDbLine
 62
7
  6
CONTINUOUS
 10
12.8978250468
 20
9.1216107318
 11
12.7975298691
 21
9.0247330237
  0
LINE
  5
2A9
100
AcDbEntity
  8
0
100
AcDbLine
 62
7
  6
CONTINUOUS
 10
7.3240199869
 20
9.4925247463
 11
6.7330990532
 21
9.5335052523
  0
LINE
  5
2AA
100
AcDbEntity
  8
0
100
AcDbLine
 62
7
  6
CONTINUOUS
 10
7.3240199869
 20
9.7266102538
 11
6.9592083038
 21
9.75191003
  0
LINE
  5
2AB
100
AcDbEntity
  8
0
100
AcDbLine
 62
4
  6
CONTINUOUS
 10
15.2507105319
 20
8.6306867762
 11
15.3128270501
 21
8.6182422892
  0
LINE
  5
2AC
100
AcDbEntity
  8
0
100
AcDbLine
 62
4
  6
CONTINUOUS
 10
10.7228694946
 20
10.2983235487
 11
10.7766640799
 21
10.2302851337
  0
LINE
  5
2AD
100
AcDbEntity
  8
0
100
AcDbLine
 62
4
  6
CONTINUOUS
 10
11.6885699739
 20
9.8482615526
 11
11.6465787428
 21
9.8419868328
  0
LINE
  5
2AE
100
AcDbEntity
  8
0
100
AcDbLine
 62
4
  6
CONTINUOUS
 10
11.5064239858
 20
9.8608934198
 11
11.4644327547
 21
9.8546187
  0
LINE
  5
2AF
100
AcDbEntity
  8
0
100
AcDbLine
 62
4
  6
CONTINUOUS
 10
11.434881824
 20
9.9117889913
 11
11.4768730541
 21
9.9180637102
  0
LINE
  5
2B0
100
AcDbEntity
  8
0
100
AcDbLine
 62
4
  6
CONTINUOUS
 10
11.2416967253
 20
9.9251864234
 11
11.2836879554
 21
9.9314611423
  0
LINE
  5
2B1
100
AcDbEntity
  8
0
100
AcDbLine
 62
4
  6
CONTINUOUS
 10
12.4490956914
 20
10.1143016075
 11
12.4700912516
 21
10.1174389712
  0
LINE
  5
2B2
100
AcDbEntity
  8
0
100
AcDbLine
 62
4
  6
CONTINUOUS
 10
12.0540508606
 20
9.8412890091
 11
11.9539059263
 21
9.8359849889
  0
LINE
  5
2B3
100
AcDbEntity
  8
0
100
AcDbLine
 62
7
  6
CONTINUOUS
 10
7.3240199869
 20
10.0195725818
 11
14.5684641133
 21
9.5171686752
  0
LINE
  5
2B4
100
AcDbEntity
  8
0
100
AcDbLine
 62
4
  6
CONTINUOUS
 10
11.6465787428
 20
9.8419868328
 11
11.5637850817
 21
9.8477285927
  0
LINE
  5
2B5
100
AcDbEntity
  8
0
100
AcDbLine
 62
4
  6
CONTINUOUS
 10
11.4644327547
 20
9.8546187
 11
11.414756536
 21
9.8580637575
  0
LINE
  5
2B6
100
AcDbEntity
  8
0
100
AcDbLine
 62
4
  6
CONTINUOUS
 10
11.2878063219
 20
9.8668677847
 11
11.2215714373
 21
9.8714611896
  0
LINE
  5
2B7
100
AcDbEntity
  8
0
100
AcDbLine
 62
4
  6
CONTINUOUS
 10
10.3163608725
 20
9.9342377555
 11
10.233567239
 21
9.9399795134
  0
LINE
  5
2B8
100
AcDbEntity
  8
0
100
AcDbLine
 62
4
  6
CONTINUOUS
 10
10.8407206294
 20
9.8978732828
 11
10.9400730116
 21
9.8909831717
  0
LINE
  5
2B9
100
AcDbEntity
  8
0
100
AcDbLine
 62
4
  6
CONTINUOUS
 10
11.7735290674
 20
9.8331827979
 11
11.8728813944
 21
9.8262926906
  0
LINE
  5
2BA
100
AcDbEntity
  8
0
100
AcDbLine
 62
4
  6
CONTINUOUS
 10
15.2507105319
 20
8.9349534227
 11
15.3128270501
 21
8.9225089358
  0
LINE
  5
2BB
100
AcDbEntity
  8
0
100
AcDbLine
 62
4
  6
CONTINUOUS
 10
10.1277187658
 20
9.9748805936
 11
10.2042002711
 21
9.9573274882
  0
LINE
  5
2BC
100
AcDbEntity
  8
0
100
AcDbLine
 62
4
  6
CONTINUOUS
 10
10.3784773906
 20
9.9942377082
 11
10.402721059
 21
9.9833695835
  0
LINE
  5
2BD
100
AcDbEntity
  8
0
100
AcDbLine
 62
4
  6
CONTINUOUS
 10
10.3008978393
 20
10.2678730453
 11
10.3130196748
 21
10.2624389824
  0
LINE
  5
2BE
100
AcDbEntity
  8
0
100
AcDbLine
 62
4
  6
CONTINUOUS
 10
11.2215714373
 20
9.8714611896
 11
11.1973277836
 21
9.8823293142
  0
LINE
  5
2BF
100
AcDbEntity
  8
0
100
AcDbLine
 62
4
  6
CONTINUOUS
 10
12.4062341877
 20
10.1586147574
 11
12.4272297493
 21
10.1617521225
  0
LINE
  5
2C0
100
AcDbEntity
  8
0
100
AcDbLine
 62
4
  6
CONTINUOUS
 10
11.2340372282
 20
10.0120737293
 11
11.2760284593
 21
10.0183484491
  0
LINE
  5
2C1
100
AcDbEntity
  8
0
100
AcDbLine
 62
4
  6
CONTINUOUS
 10
12.2572055314
 20
10.1689499298
 11
12.278201093
 21
10.1720872949
  0
LINE
  5
2C2
100
AcDbEntity
  8
0
100
AcDbLine
 62
4
  6
CONTINUOUS
 10
11.2961537464
 20
10.072073682
 11
11.2331668579
 21
10.0626616048
  0
LINE
  5
2C3
100
AcDbEntity
  8
0
100
AcDbLine
 62
4
  6
CONTINUOUS
 10
10.3583521173
 20
9.9405124743
 11
10.3163608725
 21
9.9342377555
  0
LINE
  5
2C4
100
AcDbEntity
  8
0
100
AcDbLine
 62
4
  6
CONTINUOUS
 10
10.227863708
 20
9.9801846143
 11
10.1277187658
 21
9.9748805936
  0
LINE
  5
2C5
100
AcDbEntity
  8
0
100
AcDbLine
 62
4
  6
CONTINUOUS
 10
11.6665047659
 20
10.1869481156
 11
11.7040591022
 21
10.1889371238
  0
LINE
  5
2C6
100
AcDbEntity
  8
0
100
AcDbLine
 62
4
  6
CONTINUOUS
 10
11.3740733674
 20
10.2301953534
 11
11.4116277055
 21
10.2321843634
  0
LINE
  5
2C7
100
AcDbEntity
  8
0
100
AcDbLine
 62
4
  6
CONTINUOUS
 10
10.4831370094
 20
9.9410454342
 11
10.5714502258
 21
9.9349208918
  0
LINE
  5
2C8
100
AcDbEntity
  8
0
100
AcDbLine
 62
4
  6
CONTINUOUS
 10
11.8752591069
 20
9.8628750819
 11
11.8090242222
 21
9.8674684867
  0
LINE
  5
2C9
100
AcDbEntity
  8
0
100
AcDbLine
 62
4
  6
CONTINUOUS
 10
10.9424507241
 20
9.9275655629
 11
10.8762157842
 21
9.9321589716
  0
LINE
  5
2CA
100
AcDbEntity
  8
0
100
AcDbLine
 62
4
  6
CONTINUOUS
 10
10.2956837572
 20
9.9999794661
 11
10.3784773906
 21
9.9942377082
  0
LINE
  5
2CB
100
AcDbEntity
  8
0
100
AcDbLine
 62
4
  6
CONTINUOUS
 10
10.704132383
 20
9.9716534577
 11
10.8366022076
 21
9.9624666442
  0
LINE
  5
2CC
100
AcDbEntity
  8
0
100
AcDbLine
 62
4
  6
CONTINUOUS
 10
10.9028371475
 20
9.9578732355
 11
11.0021895298
 21
9.9509831244
  0
LINE
  5
2CD
100
AcDbEntity
  8
0
100
AcDbLine
 62
4
  6
CONTINUOUS
 10
11.2836879554
 20
9.9314611423
 11
11.3499228401
 21
9.9268677374
  0
LINE
  5
2CE
100
AcDbEntity
  8
0
100
AcDbLine
 62
4
  6
CONTINUOUS
 10
11.4768730541
 20
9.9180637102
 11
11.5265492729
 21
9.9146186527
  0
LINE
  5
2CF
100
AcDbEntity
  8
0
100
AcDbLine
 62
4
  6
CONTINUOUS
 10
11.6259015999
 20
9.9077285454
 11
11.708695261
 21
9.9019867855
  0
LINE
  5
2D0
100
AcDbEntity
  8
0
100
AcDbLine
 62
4
  6
CONTINUOUS
 10
11.8356455856
 20
9.8931827506
 11
11.9349979126
 21
9.8862926433
  0
LINE
  5
2D1
100
AcDbEntity
  8
0
100
AcDbLine
 62
4
  6
CONTINUOUS
 10
10.9690975514
 20
10.0304473583
 11
11.0850086548
 21
10.022408896
  0
LINE
  5
2D2
100
AcDbEntity
  8
0
100
AcDbLine
 62
4
  6
CONTINUOUS
 10
11.1843610233
 20
10.0155187859
 11
11.2340372282
 21
10.0120737293
  0
LINE
  5
2D3
100
AcDbEntity
  8
0
100
AcDbLine
 62
4
  6
CONTINUOUS
 10
11.46823712
 20
10.0325791978
 11
11.3688847377
 21
10.0394693089
  0
LINE
  5
2D4
100
AcDbEntity
  8
0
100
AcDbLine
 62
4
  6
CONTINUOUS
 10
11.2695323831
 20
10.0463594181
 11
11.197777874
 21
10.0513356102
  0
LINE
  5
2D5
100
AcDbEntity
  8
0
100
AcDbLine
 62
4
  6
CONTINUOUS
 10
11.0312140696
 20
10.090447311
 11
11.147125173
 21
10.0824088487
  0
LINE
  5
2D6
100
AcDbEntity
  8
0
100
AcDbLine
 62
4
  6
CONTINUOUS
 10
11.395506101
 20
10.0651835728
 11
11.4948584833
 21
10.0582934617
  0
LINE
  5
2D7
100
AcDbEntity
  8
0
100
AcDbLine
 62
4
  6
CONTINUOUS
 10
11.1758426829
 20
10.187290635
 11
11.2089601252
 21
10.1849939326
  0
LINE
  5
2D8
100
AcDbEntity
  8
0
100
AcDbLine
 62
4
  6
CONTINUOUS
 10
12.3000672562
 20
10.1246367646
 11
12.2338321504
 21
10.1292301848
  0
LINE
  5
2D9
100
AcDbEntity
  8
0
100
AcDbLine
 62
4
  6
CONTINUOUS
 10
12.0296079411
 20
10.1433931818
 11
11.9964904988
 21
10.1456898842
  0
LINE
  5
2DA
100
AcDbEntity
  8
0
100
AcDbLine
 62
4
  6
CONTINUOUS
 10
11.7481095155
 20
10.1629151639
 11
11.6818746308
 21
10.1675085688
  0
LINE
  5
2DB
100
AcDbEntity
  8
0
100
AcDbLine
 62
4
  6
CONTINUOUS
 10
11.4334936475
 20
10.1847338485
 11
11.3672587629
 21
10.1893272533
  0
LINE
  5
2DC
100
AcDbEntity
  8
0
100
AcDbLine
 62
4
  6
CONTINUOUS
 10
10.3130196748
 20
10.2624389824
 11
10.3792545922
 21
10.2578455753
  0
LINE
  5
2DD
100
AcDbEntity
  8
0
100
AcDbLine
 62
4
  6
CONTINUOUS
 10
10.5117244168
 20
10.2486587618
 11
10.5614006218
 21
10.2452137052
  0
LINE
  5
2DE
100
AcDbEntity
  8
0
100
AcDbLine
 62
4
  6
CONTINUOUS
 10
11.8309031766
 20
10.157173404
 11
11.9136968377
 21
10.1514316441
  0
LINE
  5
2DF
100
AcDbEntity
  8
0
100
AcDbLine
 62
4
  6
CONTINUOUS
 10
12.3828608067
 20
10.1188950124
 11
12.4490956914
 21
10.1143016075
  0
LINE
  5
2E0
100
AcDbEntity
  8
0
100
AcDbLine
 62
4
  6
CONTINUOUS
 10
11.9775693631
 20
9.858842115
 11
12.0540508606
 21
9.8412890091
  0
LINE
  5
2E1
100
AcDbEntity
  8
0
100
AcDbLine
 62
4
  6
CONTINUOUS
 10
10.4301196258
 20
10.2726917163
 11
10.3408298876
 21
10.3064444443
  0
LINE
  5
2E2
100
AcDbEntity
  8
0
100
AcDbLine
 62
4
  6
CONTINUOUS
 10
15.3594144808
 20
8.4603978625
 11
15.3490617275
 21
8.464886758
  0
LINE
  5
2E3
100
AcDbEntity
  8
0
100
AcDbLine
 62
4
  6
CONTINUOUS
 10
10.4874807494
 20
10.2595268873
 11
10.5117244168
 21
10.2486587618
  0
LINE
  5
2E4
100
AcDbEntity
  8
0
100
AcDbLine
 62
4
  6
CONTINUOUS
 10
11.414756536
 20
9.8580637575
 11
11.3905128823
 21
9.8689318821
  0
LINE
  5
2E5
100
AcDbEntity
  8
0
100
AcDbLine
 62
4
  6
CONTINUOUS
 10
10.4579298385
 20
10.3166971763
 11
10.4700516708
 21
10.3112631122
  0
LINE
  5
2E6
100
AcDbEntity
  8
0
100
AcDbLine
 62
4
  6
CONTINUOUS
 10
11.1601173558
 20
10.0263869114
 11
11.1843610233
 21
10.0155187859
  0
LINE
  5
2E7
100
AcDbEntity
  8
0
100
AcDbLine
 62
4
  6
CONTINUOUS
 10
11.5265492729
 20
9.9146186527
 11
11.5507929274
 21
9.903750529
  0
LINE
  5
2E8
100
AcDbEntity
  8
0
100
AcDbLine
 62
4
  6
CONTINUOUS
 10
11.2937760358
 20
10.0354912926
 11
11.2695323831
 21
10.0463594181
  0
LINE
  5
2E9
100
AcDbEntity
  8
0
100
AcDbLine
 62
4
  6
CONTINUOUS
 10
11.708695261
 20
9.9019867855
 11
11.7329389155
 21
9.8911186618
  0
LINE
  5
2EA
100
AcDbEntity
  8
0
100
AcDbLine
 62
4
  6
CONTINUOUS
 10
11.1522076116
 20
10.250175208
 11
11.164329437
 21
10.2447411444
  0
LINE
  5
2EB
100
AcDbEntity
  8
0
100
AcDbLine
 62
4
  6
CONTINUOUS
 10
11.7836046703
 20
10.1972008527
 11
11.7759197922
 21
10.2069206214
  0
LINE
  5
2EC
100
AcDbEntity
  8
0
100
AcDbLine
 62
7
  6
CONTINUOUS
 10
14.5684641133
 20
9.5171686752
 11
15.4422364697
 21
10.3611680106
  0
LINE
  5
2ED
100
AcDbEntity
  8
0
100
AcDbLine
 62
4
  6
CONTINUOUS
 10
10.5614006218
 20
10.2452137052
 11
10.6033918528
 21
10.251488425
  0
LINE
  5
2EE
100
AcDbEntity
  8
0
100
AcDbLine
 62
4
  6
CONTINUOUS
 10
10.3792545922
 20
10.2578455753
 11
10.4212458371
 21
10.2641202941
  0
LINE
  5
2EF
100
AcDbEntity
  8
0
100
AcDbLine
 62
4
  6
CONTINUOUS
 10
10.3497036754
 20
10.3150158656
 11
10.3916949227
 21
10.3212905833
  0
LINE
  5
2F0
100
AcDbEntity
  8
0
100
AcDbLine
 62
4
  6
CONTINUOUS
 10
11.7040591022
 20
10.1889371238
 11
11.7702939868
 21
10.184343719
  0
LINE
  5
2F1
100
AcDbEntity
  8
0
100
AcDbLine
 62
4
  6
CONTINUOUS
 10
11.7759197922
 20
10.2069206214
 11
11.6931261311
 21
10.2126623813
  0
LINE
  5
2F2
100
AcDbEntity
  8
0
100
AcDbLine
 62
4
  6
CONTINUOUS
 10
11.0694139505
 20
10.2559169679
 11
11.1522076116
 21
10.250175208
  0
LINE
  5
2F3
100
AcDbEntity
  8
0
100
AcDbLine
 62
4
  6
CONTINUOUS
 10
11.4116277055
 20
10.2321843634
 11
11.4778625902
 21
10.2275909586
  0
LINE
  5
2F4
100
AcDbEntity
  8
0
100
AcDbLine
 62
4
  6
CONTINUOUS
 10
11.5440975854
 20
10.2229975461
 11
11.61033247
 21
10.2184041412
  0
LINE
  5
2F5
100
AcDbEntity
  8
0
100
AcDbLine
 62
4
  6
CONTINUOUS
 10
12.278201093
 20
10.1720872949
 11
12.3444361988
 21
10.1674938747
  0
LINE
  5
2F6
100
AcDbEntity
  8
0
100
AcDbLine
 62
4
  6
CONTINUOUS
 10
12.4272297493
 20
10.1617521225
 11
12.493464634
 21
10.1571587176
  0
LINE
  5
2F7
100
AcDbEntity
  8
0
100
AcDbLine
 62
4
  6
CONTINUOUS
 10
10.3916949227
 20
10.3212905833
 11
10.4579298385
 21
10.3166971763
  0
LINE
  5
2F8
100
AcDbEntity
  8
0
100
AcDbLine
 62
4
  6
CONTINUOUS
 10
12.1910767863
 20
10.1965030272
 11
12.1965963416
 21
10.1961202448
  0
LINE
  5
2F9
100
AcDbEntity
  8
0
100
AcDbLine
 62
4
  6
CONTINUOUS
 10
12.4698011981
 20
10.1343015924
 11
12.4065242427
 21
10.1417521376
  0
LINE
  5
2FA
100
AcDbEntity
  8
0
100
AcDbLine
 62
4
  6
CONTINUOUS
 10
11.3672587629
 20
10.1893272533
 11
11.3385782149
 21
10.1959096669
  0
LINE
  5
2FB
100
AcDbEntity
  8
0
100
AcDbLine
 62
4
  6
CONTINUOUS
 10
11.6818746308
 20
10.1675085688
 11
11.6531940829
 21
10.1740909823
  0
LINE
  5
2FC
100
AcDbEntity
  8
0
100
AcDbLine
 62
4
  6
CONTINUOUS
 10
12.4065242427
 20
10.1417521376
 11
12.392923506
 21
10.1457576255
  0
LINE
  5
2FD
100
AcDbEntity
  8
0
100
AcDbLine
 62
4
  6
CONTINUOUS
 10
12.4834019347
 20
10.1302961045
 11
12.4698011981
 21
10.1343015924
  0
LINE
  5
2FE
100
AcDbEntity
  8
0
100
AcDbLine
 62
4
  6
CONTINUOUS
 10
15.3594144808
 20
8.5763089659
 11
15.3697672332
 21
8.5718200695
  0
LINE
  5
2FF
100
AcDbEntity
  8
0
100
AcDbLine
 62
4
  6
CONTINUOUS
 10
15.3801199875
 20
8.5963089508
 11
15.390472738
 21
8.5918200526
  0
LINE
  5
300
100
AcDbEntity
  8
0
100
AcDbLine
 62
4
  6
CONTINUOUS
 10
11.8187812945
 20
10.1626074702
 11
11.8309031766
 21
10.157173404
  0
LINE
  5
301
100
AcDbEntity
  8
0
100
AcDbLine
 62
4
  6
CONTINUOUS
 10
11.9964904988
 20
10.1456898842
 11
11.9843686167
 21
10.1511239504
  0
LINE
  5
302
100
AcDbEntity
  8
0
100
AcDbLine
 62
4
  6
CONTINUOUS
 10
12.2338321504
 20
10.1292301848
 11
12.2217103789
 21
10.1346642433
  0
LINE
  5
303
100
AcDbEntity
  8
0
100
AcDbLine
 62
4
  6
CONTINUOUS
 10
12.3707390352
 20
10.1243290709
 11
12.3828608067
 21
10.1188950124
  0
LINE
  5
304
100
AcDbEntity
  8
0
100
AcDbLine
 62
4
  6
CONTINUOUS
 10
11.61033247
 20
10.2184041412
 11
11.6169346849
 21
10.2133528638
  0
LINE
  5
305
100
AcDbEntity
  8
0
100
AcDbLine
 62
7
  6
CONTINUOUS
 10
8.1977923433
 20
10.8635719171
 11
15.4422364697
 21
10.3611680106
  0
LINE
  5
306
100
AcDbEntity
  8
0
100
AcDbLine
 62
4
  6
CONTINUOUS
 10
12.493464634
 20
10.1571587176
 11
12.5055864042
 21
10.1517246578
  0
LINE
  5
307
100
AcDbEntity
  8
0
100
AcDbLine
 62
4
  6
CONTINUOUS
 10
15.4008254923
 20
9.2538200027
 11
15.3387089741
 21
9.19382005
  0
LINE
  5
308
100
AcDbEntity
  8
0
100
AcDbLine
 62
4
  6
CONTINUOUS
 10
15.281768791
 20
7.965220132
 11
15.3128270501
 21
7.9372645566
  0
LINE
  5
309
100
AcDbEntity
  8
0
100
AcDbLine
 62
4
  6
CONTINUOUS
 10
15.4008254923
 20
8.790175589
 11
15.3387089741
 21
8.7301756363
  0
LINE
  5
30A
100
AcDbEntity
  8
0
100
AcDbLine
 62
4
  6
CONTINUOUS
 10
15.3594144808
 20
8.5763089659
 11
15.3801199875
 21
8.5963089508
  0
LINE
  5
30B
100
AcDbEntity
  8
0
100
AcDbLine
 62
4
  6
CONTINUOUS
 10
15.3128270501
 20
8.458864522
 11
15.2507105319
 21
8.3988645693
  0
LINE
  5
30C
100
AcDbEntity
  8
0
100
AcDbLine
 62
4
  6
CONTINUOUS
 10
15.3128270501
 20
8.2270423152
 11
15.2507105319
 21
8.1670423625
  0
LINE
  5
30D
100
AcDbEntity
  8
0
100
AcDbLine
 62
4
  6
CONTINUOUS
 10
15.390472738
 20
8.2585756302
 11
15.3801199875
 21
8.2485756405
  0
LINE
  5
30E
100
AcDbEntity
  8
0
100
AcDbLine
 62
4
  6
CONTINUOUS
 10
15.281768791
 20
7.965220132
 11
15.2507105319
 21
7.9352201556
  0
LINE
  5
30F
100
AcDbEntity
  8
0
100
AcDbLine
 62
7
  6
CONTINUOUS
 10
14.5684641133
 20
9.5171686752
 11
14.5684641133
 21
6.1364280829
  0
LINE
  5
310
100
AcDbEntity
  8
0
100
AcDbLine
 62
4
  6
CONTINUOUS
 10
15.3128270501
 20
8.9225089358
 11
15.2507105319
 21
8.7900645434
  0
LINE
  5
311
100
AcDbEntity
  8
0
100
AcDbLine
 62
4
  6
CONTINUOUS
 10
15.2662396615
 20
9.1817756177
 11
15.281768791
 21
9.2112644938
  0
LINE
  5
312
100
AcDbEntity
  8
0
100
AcDbLine
 62
4
  6
CONTINUOUS
 10
15.3801199875
 20
8.2485756405
 11
15.3749436085
 21
8.25806453
  0
LINE
  5
313
100
AcDbEntity
  8
0
100
AcDbLine
 62
4
  6
CONTINUOUS
 10
15.2558869086
 20
9.1427978499
 11
15.2662396615
 21
9.1817756177
  0
LINE
  5
314
100
AcDbEntity
  8
0
100
AcDbLine
 62
4
  6
CONTINUOUS
 10
15.3076506748
 20
9.105864484
 11
15.3024742958
 21
9.0863755976
  0
LINE
  5
315
100
AcDbEntity
  8
0
100
AcDbLine
 62
4
  6
CONTINUOUS
 10
15.3490617275
 20
8.5518200856
 11
15.3594144808
 21
8.5763089659
  0
LINE
  5
316
100
AcDbEntity
  8
0
100
AcDbLine
 62
4
  6
CONTINUOUS
 10
15.3697672332
 20
8.484886742
 11
15.3594144808
 21
8.4603978625
  0
LINE
  5
317
100
AcDbEntity
  8
0
100
AcDbLine
 62
4
  6
CONTINUOUS
 10
15.3128270501
 20
8.7631311685
 11
15.2507105319
 21
8.6306867762
  0
LINE
  5
318
100
AcDbEntity
  8
0
100
AcDbLine
 62
4
  6
CONTINUOUS
 10
15.3645908561
 20
8.3060200902
 11
15.3542381037
 21
8.3249978745
  0
LINE
  5
319
100
AcDbEntity
  8
0
100
AcDbLine
 62
4
  6
CONTINUOUS
 10
15.390472738
 20
8.3744867336
 11
15.395649117
 21
8.3649978442
  0
LINE
  5
31A
100
AcDbEntity
  8
0
100
AcDbLine
 62
4
  6
CONTINUOUS
 10
15.3490617275
 20
8.464886758
 11
15.3438853508
 21
8.4743756497
  0
LINE
  5
31B
100
AcDbEntity
  8
0
100
AcDbLine
 62
4
  6
CONTINUOUS
 10
15.390472738
 20
8.5918200526
 11
15.395649117
 21
8.5823311631
  0
LINE
  5
31C
100
AcDbEntity
  8
0
100
AcDbLine
 62
4
  6
CONTINUOUS
 10
15.2610632853
 20
9.0463756306
 11
15.2558869086
 21
9.0558645223
  0
LINE
  5
31D
100
AcDbEntity
  8
0
100
AcDbLine
 62
4
  6
CONTINUOUS
 10
15.2507105319
 20
9.079842302
 11
15.2507105319
 21
9.1088200779
  0
LINE
  5
31E
100
AcDbEntity
  8
0
100
AcDbLine
 62
4
  6
CONTINUOUS
 10
15.2714160386
 20
8.9259756317
 11
15.2714160386
 21
8.8390423041
  0
LINE
  5
31F
100
AcDbEntity
  8
0
100
AcDbLine
 62
4
  6
CONTINUOUS
 10
15.3128270501
 20
9.1688200306
 11
15.3128270501
 21
9.1398422547
  0
LINE
  5
320
100
AcDbEntity
  8
0
100
AcDbLine
 62
4
  6
CONTINUOUS
 10
15.3128270501
 20
8.2994867548
 11
15.3128270501
 21
8.1545978755
  0
LINE
  5
321
100
AcDbEntity
  8
0
100
AcDbLine
 62
4
  6
CONTINUOUS
 10
15.3387089741
 20
8.3244867742
 11
15.3387089741
 21
8.2085756708
  0
LINE
  5
322
100
AcDbEntity
  8
0
100
AcDbLine
 62
4
  6
CONTINUOUS
 10
15.3594144808
 20
8.0981756643
 11
15.3594144808
 21
8.0112423367
  0
LINE
  5
323
100
AcDbEntity
  8
0
100
AcDbLine
 62
4
  6
CONTINUOUS
 10
15.3697672332
 20
9.0354644833
 11
15.3697672332
 21
8.9485311557
  0
LINE
  5
324
100
AcDbEntity
  8
0
100
AcDbLine
 62
4
  6
CONTINUOUS
 10
15.4008254923
 20
9.3262644423
 11
15.4008254923
 21
9.181375563
  0
LINE
  5
325
100
AcDbEntity
  8
0
100
AcDbLine
 62
4
  6
CONTINUOUS
 10
15.4008254923
 20
8.3410200632
 11
15.4008254923
 21
8.3120422873
  0
LINE
  5
326
100
AcDbEntity
  8
0
100
AcDbLine
 62
4
  6
CONTINUOUS
 10
15.3749436085
 20
8.5333534006
 11
15.3697672332
 21
8.484886742
  0
LINE
  5
327
100
AcDbEntity
  8
0
100
AcDbLine
 62
4
  6
CONTINUOUS
 10
15.2507105319
 20
9.1088200779
 11
15.2558869086
 21
9.1427978499
  0
LINE
  5
328
100
AcDbEntity
  8
0
100
AcDbLine
 62
4
  6
CONTINUOUS
 10
15.3128270501
 20
9.1398422547
 11
15.3076506748
 21
9.105864484
  0
LINE
  5
329
100
AcDbEntity
  8
0
100
AcDbLine
 62
4
  6
CONTINUOUS
 10
15.3387089741
 20
8.4983534294
 11
15.3438853508
 21
8.5323312015
  0
LINE
  5
32A
100
AcDbEntity
  8
0
100
AcDbLine
 62
4
  6
CONTINUOUS
 10
15.4008254923
 20
8.5583533821
 11
15.395649117
 21
8.5243756114
  0
LINE
  5
32B
100
AcDbEntity
  8
0
100
AcDbLine
 62
4
  6
CONTINUOUS
 10
15.4008254923
 20
8.3120422873
 11
15.395649117
 21
8.2780645166
  0
LINE
  5
32C
100
AcDbEntity
  8
0
100
AcDbLine
 62
4
  6
CONTINUOUS
 10
15.3438853508
 20
8.5323312015
 11
15.3490617275
 21
8.5518200856
  0
LINE
  5
32D
100
AcDbEntity
  8
0
100
AcDbLine
 62
4
  6
CONTINUOUS
 10
15.395649117
 20
8.5243756114
 11
15.390472738
 21
8.504886725
  0
LINE
  5
32E
100
AcDbEntity
  8
0
100
AcDbLine
 62
4
  6
CONTINUOUS
 10
15.395649117
 20
8.2780645166
 11
15.390472738
 21
8.2585756302
  0
LINE
  5
32F
100
AcDbEntity
  8
0
100
AcDbLine
 62
4
  6
CONTINUOUS
 10
15.3128270501
 20
8.05317566
 11
15.281768791
 21
7.965220132
  0
LINE
  5
330
100
AcDbEntity
  8
0
100
AcDbLine
 62
4
  6
CONTINUOUS
 10
15.4008254923
 20
8.0947089684
 11
15.3387089741
 21
7.962264576
  0
LINE
  5
331
100
AcDbEntity
  8
0
100
AcDbLine
 62
7
  6
CONTINUOUS
 10
14.5684641133
 20
6.1364280829
 11
15.4422364697
 21
6.9804274182
  0
LINE
  5
332
100
AcDbEntity
  8
0
100
AcDbLine
 62
4
  6
CONTINUOUS
 10
15.2972979205
 20
9.2117755941
 11
15.3076506748
 21
9.1927978115
  0
LINE
  5
333
100
AcDbEntity
  8
0
100
AcDbLine
 62
4
  6
CONTINUOUS
 10
15.3749436085
 20
8.25806453
 11
15.3645908561
 21
8.3060200902
  0
LINE
  5
334
100
AcDbEntity
  8
0
100
AcDbLine
 62
4
  6
CONTINUOUS
 10
15.3438853508
 20
8.4743756497
 11
15.3387089741
 21
8.4983534294
  0
LINE
  5
335
100
AcDbEntity
  8
0
100
AcDbLine
 62
4
  6
CONTINUOUS
 10
15.395649117
 20
8.3649978442
 11
15.4008254923
 21
8.3410200632
  0
LINE
  5
336
100
AcDbEntity
  8
0
100
AcDbLine
 62
4
  6
CONTINUOUS
 10
15.2558869086
 20
9.0558645223
 11
15.2507105319
 21
9.079842302
  0
LINE
  5
337
100
AcDbEntity
  8
0
100
AcDbLine
 62
4
  6
CONTINUOUS
 10
15.395649117
 20
8.5823311631
 11
15.4008254923
 21
8.5583533821
  0
LINE
  5
338
100
AcDbEntity
  8
0
100
AcDbLine
 62
4
  6
CONTINUOUS
 10
15.3076506748
 20
9.1927978115
 11
15.3128270501
 21
9.1688200306
  0
LINE
  5
339
100
AcDbEntity
  8
0
100
AcDbLine
 62
4
  6
CONTINUOUS
 10
15.3697672332
 20
8.5718200695
 11
15.3749436085
 21
8.5333534006
  0
LINE
  5
33A
100
AcDbEntity
  8
0
100
AcDbLine
 62
7
  6
CONTINUOUS
 10
15.4422364697
 20
10.3611680106
 11
15.4422364697
 21
6.9804274182
  0
ARC
  5
33B
100
AcDbEntity
  8
0
100
AcDbCircle
 62
7
  6
CONTINUOUS
 10
10.9055530825
 20
8.5028556779
 40
3.5911005808
100
AcDbArc
 50
179.0783499239
 51
179.9983226951
  0
ARC
  5
33C
100
AcDbEntity
  8
0
100
AcDbCircle
 62
7
  6
CONTINUOUS
 10
10.1841294406
 20
8.5528865774
 40
3.5911005808
100
AcDbArc
 50
179.0783499239
 51
179.9983226951
  0
ARC
  5
33D
100
AcDbEntity
  8
0
100
AcDbCircle
 62
7
  6
CONTINUOUS
 10
10.7674320283
 20
8.5028416784
 40
3.4529795271
100
AcDbArc
 50
179.9980233072
 51
180.9399035171
  0
ARC
  5
33E
100
AcDbEntity
  8
0
100
AcDbCircle
 62
7
  6
CONTINUOUS
 10
10.0158798293
 20
8.5526259715
 40
3.4228509876
100
AcDbArc
 50
179.9938779146
 51
180.9440489097
  0
ARC
  5
33F
100
AcDbEntity
  8
0
100
AcDbCircle
 62
7
  6
CONTINUOUS
 10
5.9022525983
 20
9.4110875948
 40
1.6489141254
100
AcDbArc
 50
328.9507330166
 51
329.5906824271
  0
ARC
  5
340
100
AcDbEntity
  8
0
100
AcDbCircle
 62
7
  6
CONTINUOUS
 10
6.1952597308
 20
7.5991538338
 40
1.4039658241
100
AcDbArc
 50
36.4670160328
 51
37.1083350532
  0
ARC
  5
341
100
AcDbEntity
  8
0
100
AcDbCircle
 62
7
  6
CONTINUOUS
 10
7.7383432011
 20
8.4378551603
 40
1.1744963145
100
AcDbArc
 50
199.7035532103
 51
202.6179347897
  0
ARC
  5
342
100
AcDbEntity
  8
0
100
AcDbCircle
 62
7
  6
CONTINUOUS
 10
12.6467888063
 20
7.9431776529
 40
0.4356814094
100
AcDbArc
 50
309.3752007778
 51
311.5012590417
  0
ARC
  5
343
100
AcDbEntity
  8
0
100
AcDbCircle
 62
7
  6
CONTINUOUS
 10
11.9822316031
 20
7.2049330567
 40
0.4356814094
100
AcDbArc
 50
309.3752007777
 51
311.5012590417
  0
ARC
  5
344
100
AcDbEntity
  8
0
100
AcDbCircle
 62
7
  6
CONTINUOUS
 10
11.3176744
 20
8.0353520501
 40
0.4356814094
100
AcDbArc
 50
309.3752007777
 51
311.5012590417
  0
ARC
  5
345
100
AcDbEntity
  8
0
100
AcDbCircle
 62
7
  6
CONTINUOUS
 10
11.9822316031
 20
8.7735967039
 40
0.4356814093
100
AcDbArc
 50
309.3752007777
 51
311.5012590417
  0
ARC
  5
346
100
AcDbEntity
  8
0
100
AcDbCircle
 62
7
  6
CONTINUOUS
 10
12.5574080591
 20
8.0357097881
 40
0.4356683433
100
AcDbArc
 50
136.3332048871
 51
138.6399361664
  0
ARC
  5
347
100
AcDbEntity
  8
0
100
AcDbCircle
 62
7
  6
CONTINUOUS
 10
11.892850856
 20
7.2974651918
 40
0.4356683433
100
AcDbArc
 50
136.3332048871
 51
138.6399361664
  0
ARC
  5
348
100
AcDbEntity
  8
0
100
AcDbCircle
 62
7
  6
CONTINUOUS
 10
11.2282936528
 20
8.1278841853
 40
0.4356683433
100
AcDbArc
 50
136.3332048871
 51
138.6399361664
  0
ARC
  5
349
100
AcDbEntity
  8
0
100
AcDbCircle
 62
7
  6
CONTINUOUS
 10
11.8928508559
 20
8.8661288391
 40
0.4356683433
100
AcDbArc
 50
136.3332048871
 51
138.6399361665
  0
ARC
  5
34A
100
AcDbEntity
  8
0
100
AcDbCircle
 62
7
  6
CONTINUOUS
 10
12.3637256871
 20
7.3046448787
 40
0.2265382152
100
AcDbArc
 50
184.8985672533
 51
197.7457340195
  0
ARC
  5
34B
100
AcDbEntity
  8
0
100
AcDbCircle
 62
7
  6
CONTINUOUS
 10
12.3057151589
 20
7.3293797093
 40
0.1845224794
100
AcDbArc
 50
181.3038636658
 51
183.9168690475
  0
ARC
  5
34C
100
AcDbEntity
  8
0
100
AcDbCircle
 62
7
  6
CONTINUOUS
 10
12.7986285466
 20
9.1769655447
 40
0.1137311002
100
AcDbArc
 50
296.96243143
 51
313.9863866655
  0
ARC
  5
34D
100
AcDbEntity
  8
0
100
AcDbCircle
 62
7
  6
CONTINUOUS
 10
12.7760122906
 20
9.2003776501
 40
0.1137179833
100
AcDbArc
 50
134.025686647
 51
150.8745723644
  0
SPLINE
  5
34E
100
AcDbEntity
  8
0
100
AcDbSpline
 62
7
  6
CONTINUOUS
 70
0
 71
3
 72
39
 73
35
 74
0
 42
0.0000001
 43
0.0000001
 44
0.0000000001
 40
0.0
 40
0.0
 40
0.0
 40
0.0
 40
0.031052973
 40
0.0622972423
 40
0.0936964537
 40
0.1252275551
 40
0.156885241
 40
0.1886628059
 40
0.2205452459
 40
0.2525112366
 40
0.2845394077
 40
0.3166083838
 40
0.3486957907
 40
0.3807795832
 40
0.412836644
 40
0.4448444971
 40
0.4767824671
 40
0.5086302612
 40
0.5403700708
 40
0.5719864102
 40
0.6034654355
 40
0.6347973167
 40
0.665974655
 40
0.6969931172
 40
0.7278528597
 40
0.7585563454
 40
0.7891102455
 40
0.8195247615
 40
0.8498124401
 40
0.8799899763
 40
0.9100758147
 40
0.9400907425
 40
0.9700577669
 40
1.0
 40
1.0
 40
1.0
 40
1.0
 10
12.5899458072
 20
9.1230132441
 30
0.0
 10
12.5899458072
 20
9.1200231856
 30
0.0
 10
12.5901701063
 20
9.1140223904
 30
0.0
 10
12.5911659529
 20
9.1050479804
 30
0.0
 10
12.5928186797
 20
9.0961236946
 30
0.0
 10
12.5951211487
 20
9.0873037121
 30
0.0
 10
12.5980572074
 20
9.0786355481
 30
0.0
 10
12.6016132648
 20
9.0701661258
 30
0.0
 10
12.6057681958
 20
9.0619407424
 30
0.0
 10
12.6104986889
 20
9.0540042291
 30
0.0
 10
12.6157813427
 20
9.0464022116
 30
0.0
 10
12.6215842797
 20
9.0391746082
 30
0.0
 10
12.6278770721
 20
9.0323618737
 30
0.0
 10
12.6346255339
 20
9.0260019522
 30
0.0
 10
12.6417908978
 20
9.020127726
 30
0.0
 10
12.6493359515
 20
9.0147739958
 30
0.0
 10
12.6572179782
 20
9.0099686696
 30
0.0
 10
12.6653936809
 20
9.0057376132
 30
0.0
 10
12.6738193253
 20
9.0021065896
 30
0.0
 10
12.6824472974
 20
8.9990925147
 30
0.0
 10
12.6912311232
 20
8.9967139418
 30
0.0
 10
12.7001224135
 20
8.9949843531
 30
0.0
 10
12.7090720124
 20
8.9939108521
 30
0.0
 10
12.7180311716
 20
8.9935028479
 30
0.0
 10
12.7269503329
 20
8.9937602813
 30
0.0
 10
12.7357807216
 20
8.9946818184
 30
0.0
 10
12.7444732969
 20
8.9962649846
 30
0.0
 10
12.7529808153
 20
8.9984977252
 30
0.0
 10
12.7612559571
 20
9.0013703476
 30
0.0
 10
12.7692529294
 20
9.0048668463
 30
0.0
 10
12.7769286975
 20
9.0089660338
 30
0.0
 10
12.7842393494
 20
9.0136486471
 30
0.0
 10
12.7911453887
 20
9.0188859115
 30
0.0
 10
12.7954562317
 20
9.0227299433
 30
0.0
 10
12.7975298437
 20
9.0247330499
 30
0.0
  0
SPLINE
  5
34F
100
AcDbEntity
  8
0
100
AcDbSpline
 62
7
  6
CONTINUOUS
 70
0
 71
3
 72
15
 73
11
 74
0
 42
0.0000001
 43
0.0000001
 44
0.0000000001
 40
0.0
 40
0.0
 40
0.0
 40
0.0
 40
0.1272800245
 40
0.2538578149
 40
0.379604606
 40
0.5046064114
 40
0.629012559
 40
0.7529526619
 40
0.8765610636
 40
1.0
 40
1.0
 40
1.0
 40
1.0
 10
12.5899458072
 20
9.1230132441
 30
0.0
 10
12.5899458072
 20
9.1268609215
 30
0.0
 10
12.590315136
 20
9.1345402244
 30
0.0
 10
12.5919747792
 20
9.1459126954
 30
0.0
 10
12.5947324316
 20
9.157000482
 30
0.0
 10
12.5985574806
 20
9.1676970859
 30
0.0
 10
12.6034183764
 20
9.1779043058
 30
0.0
 10
12.6092663928
 20
9.1875312399
 30
0.0
 10
12.6160516033
 20
9.1964843451
 30
0.0
 10
12.6211593966
 20
9.2019540508
 30
0.0
 10
12.6238432415
 20
9.2045466414
 30
0.0
  0
SPLINE
  5
350
100
AcDbEntity
  8
0
100
AcDbSpline
 62
7
  6
CONTINUOUS
 70
0
 71
3
 72
15
 73
11
 74
0
 42
0.0000001
 43
0.0000001
 44
0.0000000001
 40
0.0
 40
0.0
 40
0.0
 40
0.0
 40
0.1234389364
 40
0.2470473381
 40
0.370987441
 40
0.4953935886
 40
0.620395394
 40
0.7461421851
 40
0.8727199755
 40
1.0
 40
1.0
 40
1.0
 40
1.0
 10
12.7975298437
 20
9.0247330499
 30
0.0
 10
12.8002136886
 20
9.0273256406
 30
0.0
 10
12.8053214819
 20
9.0327953462
 30
0.0
 10
12.8121066925
 20
9.0417484514
 30
0.0
 10
12.8179547088
 20
9.0513753855
 30
0.0
 10
12.8228156047
 20
9.0615826054
 30
0.0
 10
12.8266406536
 20
9.0722792093
 30
0.0
 10
12.829398306
 20
9.083366996
 30
0.0
 10
12.8310579492
 20
9.0947394669
 30
0.0
 10
12.831427278
 20
9.1024187698
 30
0.0
 10
12.831427278
 20
9.1062664472
 30
0.0
  0
SPLINE
  5
351
100
AcDbEntity
  8
0
100
AcDbSpline
 62
7
  6
CONTINUOUS
 70
0
 71
3
 72
53
 73
49
 74
0
 42
0.0000001
 43
0.0000001
 44
0.0000000001
 40
0.0
 40
0.0
 40
0.0
 40
0.0
 40
0.0313041153
 40
0.0470567589
 40
0.0628625042
 40
0.0945982077
 40
0.1264996374
 40
0.1585539205
 40
0.1907323133
 40
0.2068600129
 40
0.2230041193
 40
0.2391599002
 40
0.2553223468
 40
0.2714864126
 40
0.2876472596
 40
0.3038000459
 40
0.319939713
 40
0.3360612399
 40
0.3521599324
 40
0.3842632888
 40
0.4162252851
 40
0.4480185945
 40
0.4796216269
 40
0.5110196976
 40
0.5422062894
 40
0.5731821078
 40
0.6039571965
 40
0.6192792312
 40
0.6345582438
 40
0.6649908279
 40
0.6801620739
 40
0.6953058919
 40
0.7104271196
 40
0.7255305534
 40
0.7406211915
 40
0.755704483
 40
0.770786026
 40
0.7858711759
 40
0.800965253
 40
0.816073731
 40
0.8463431443
 40
0.8615227459
 40
0.8767341965
 40
0.907262381
 40
0.922599162
 40
0.9379872792
 40
0.9689083072
 40
1.0
 40
1.0
 40
1.0
 40
1.0
 10
12.6033067593
 20
9.1135122924
 30
0.0
 10
12.6033067593
 20
9.1102616675
 30
0.0
 10
12.6035490219
 20
9.1053711005
 30
0.0
 10
12.6043416046
 20
9.09889
 30
0.0
 10
12.6054515997
 20
9.092409587
 30
0.0
 10
12.6074296679
 20
9.0843869866
 30
0.0
 10
12.6107118068
 20
9.0749928499
 30
0.0
 10
12.6148769584
 20
9.0659051188
 30
0.0
 10
12.6190461519
 20
9.0586617982
 30
0.0
 10
12.6227777881
 20
9.0531038613
 30
0.0
 10
12.6257715058
 20
9.0490610293
 30
0.0
 10
12.6289494912
 20
9.0451568949
 30
0.0
 10
12.632304047
 20
9.0414005714
 30
0.0
 10
12.6358272999
 20
9.0378012588
 30
0.0
 10
12.6395114404
 20
9.0343682732
 30
0.0
 10
12.6433470214
 20
9.0311092773
 30
0.0
 10
12.6473245383
 20
9.0280318232
 30
0.0
 10
12.6514346213
 20
9.0251433236
 30
0.0
 10
12.6570726986
 20
9.0215583466
 30
0.0
 10
12.664401045
 20
9.0175828253
 30
0.0
 10
12.6735667121
 20
9.0136641393
 30
0.0
 10
12.6830117847
 20
9.0106417061
 30
0.0
 10
12.6926437869
 20
9.0085405048
 30
0.0
 10
12.7023713456
 20
9.0073862359
 30
0.0
 10
12.7121003716
 20
9.0071848024
 30
0.0
 10
12.7217368075
 20
9.0079439821
 30
0.0
 10
12.7296270613
 20
9.0093697771
 30
0.0
 10
12.7357962618
 20
9.0109796599
 30
0.0
 10
12.741840811
 20
9.0128921987
 30
0.0
 10
12.7477165994
 20
9.015261523
 30
0.0
 10
12.753367284
 20
9.0180702055
 30
0.0
 10
12.7574788658
 20
9.0203890439
 30
0.0
 10
12.7614577745
 20
9.0229153689
 30
0.0
 10
12.7652947166
 20
9.0256430803
 30
0.0
 10
12.7689801537
 20
9.0285659418
 30
0.0
 10
12.7725046189
 20
9.0316775887
 30
0.0
 10
12.7758602681
 20
9.0349697647
 30
0.0
 10
12.7790392131
 20
9.0384343266
 30
0.0
 10
12.7820337798
 20
9.0420633108
 30
0.0
 10
12.7857712719
 20
9.0471120627
 30
0.0
 10
12.7891113669
 20
9.0524560056
 30
0.0
 10
12.7920256469
 20
9.0580428445
 30
0.0
 10
12.7946576053
 20
9.0637977543
 30
0.0
 10
12.796844916
 20
9.0697649229
 30
0.0
 10
12.7985725481
 20
9.0758885428
 30
0.0
 10
12.7999959267
 20
9.082132228
 30
0.0
 10
12.8011848726
 20
9.0900951875
 30
0.0
 10
12.8015019207
 20
9.0965388443
 30
0.0
 10
12.8015019207
 20
9.0997674112
 30
0.0
  0
SPLINE
  5
352
100
AcDbEntity
  8
0
100
AcDbSpline
 62
7
  6
CONTINUOUS
 70
0
 71
3
 72
53
 73
49
 74
0
 42
0.0000001
 43
0.0000001
 44
0.0000000001
 40
0.0
 40
0.0
 40
0.0
 40
0.0
 40
0.0310916928
 40
0.0620127208
 40
0.077400838
 40
0.092737619
 40
0.1232658035
 40
0.1384772541
 40
0.1536568557
 40
0.183926269
 40
0.199034747
 40
0.2141288241
 40
0.229213974
 40
0.244295517
 40
0.2593788085
 40
0.2744694466
 40
0.2895728804
 40
0.3046941081
 40
0.3198379261
 40
0.3350091721
 40
0.3654417562
 40
0.3807207688
 40
0.3960428035
 40
0.4268178922
 40
0.4577937106
 40
0.4889803024
 40
0.5203783731
 40
0.5519814055
 40
0.5837747149
 40
0.6157367112
 40
0.6478400676
 40
0.6639387601
 40
0.680060287
 40
0.6961999541
 40
0.7123527404
 40
0.7285135874
 40
0.7446776532
 40
0.7608400998
 40
0.7769958807
 40
0.7931399871
 40
0.8092676867
 40
0.8414460795
 40
0.8735003626
 40
0.9054017923
 40
0.9371374958
 40
0.9529432411
 40
0.9686958847
 40
1.0
 40
1.0
 40
1.0
 40
1.0
 10
12.6033067593
 20
9.1135122924
 30
0.0
 10
12.6033067593
 20
9.1167408593
 30
0.0
 10
12.6036238074
 20
9.1231845161
 30
0.0
 10
12.6048127533
 20
9.1311474756
 30
0.0
 10
12.6062361319
 20
9.1373911608
 30
0.0
 10
12.607963764
 20
9.1435147807
 30
0.0
 10
12.6101510747
 20
9.1494819493
 30
0.0
 10
12.612783033
 20
9.1552368591
 30
0.0
 10
12.6156973131
 20
9.160823698
 30
0.0
 10
12.6190374081
 20
9.1661676409
 30
0.0
 10
12.6227749002
 20
9.1712163928
 30
0.0
 10
12.6257694669
 20
9.174845377
 30
0.0
 10
12.6289484119
 20
9.1783099389
 30
0.0
 10
12.6323040611
 20
9.1816021149
 30
0.0
 10
12.6358285263
 20
9.1847137618
 30
0.0
 10
12.6395139634
 20
9.1876366233
 30
0.0
 10
12.6433509055
 20
9.1903643347
 30
0.0
 10
12.6473298141
 20
9.1928906597
 30
0.0
 10
12.651441396
 20
9.1952094981
 30
0.0
 10
12.6570920806
 20
9.1980181806
 30
0.0
 10
12.662967869
 20
9.2003875049
 30
0.0
 10
12.6690124182
 20
9.2023000437
 30
0.0
 10
12.6751816187
 20
9.2039099265
 30
0.0
 10
12.6830718725
 20
9.2053357215
 30
0.0
 10
12.6927083084
 20
9.2060949012
 30
0.0
 10
12.7024373344
 20
9.2058934677
 30
0.0
 10
12.7121648931
 20
9.2047391988
 30
0.0
 10
12.7217968953
 20
9.2026379975
 30
0.0
 10
12.7312419679
 20
9.1996155643
 30
0.0
 10
12.740407635
 20
9.1956968783
 30
0.0
 10
12.7477359814
 20
9.191721357
 30
0.0
 10
12.7533740587
 20
9.18813638
 30
0.0
 10
12.7574841417
 20
9.1852478804
 30
0.0
 10
12.7614616586
 20
9.1821704263
 30
0.0
 10
12.7652972396
 20
9.1789114304
 30
0.0
 10
12.7689813801
 20
9.1754784448
 30
0.0
 10
12.772504633
 20
9.1718791322
 30
0.0
 10
12.7758591888
 20
9.1681228087
 30
0.0
 10
12.7790371742
 20
9.1642186743
 30
0.0
 10
12.7820308919
 20
9.1601758423
 30
0.0
 10
12.7857625281
 20
9.1546179054
 30
0.0
 10
12.7899317216
 20
9.1473745848
 30
0.0
 10
12.7940968732
 20
9.1382868537
 30
0.0
 10
12.7973790121
 20
9.128892717
 30
0.0
 10
12.7993570803
 20
9.1208701166
 30
0.0
 10
12.8004670754
 20
9.1143897036
 30
0.0
 10
12.8012596581
 20
9.1079086031
 30
0.0
 10
12.8015019207
 20
9.1030180361
 30
0.0
 10
12.8015019207
 20
9.0997674112
 30
0.0
  0
SPLINE
  5
353
100
AcDbEntity
  8
0
100
AcDbSpline
 62
7
  6
CONTINUOUS
 70
0
 71
3
 72
39
 73
35
 74
0
 42
0.0000001
 43
0.0000001
 44
0.0000000001
 40
0.0
 40
0.0
 40
0.0
 40
0.0
 40
0.0299422331
 40
0.0599092575
 40
0.0899241853
 40
0.1200100237
 40
0.1501875599
 40
0.1804752385
 40
0.2108897545
 40
0.2414436546
 40
0.2721471403
 40
0.3030068828
 40
0.334025345
 40
0.3652026833
 40
0.3965345645
 40
0.4280135898
 40
0.4596299292
 40
0.4913697388
 40
0.5232175329
 40
0.5551555029
 40
0.587163356
 40
0.6192204168
 40
0.6513042093
 40
0.6833916162
 40
0.7154605923
 40
0.7474887634
 40
0.7794547541
 40
0.8113371941
 40
0.843114759
 40
0.8747724449
 40
0.9063035463
 40
0.9377027577
 40
0.968947027
 40
1.0
 40
1.0
 40
1.0
 40
1.0
 10
12.6238432415
 20
9.2045466414
 30
0.0
 10
12.6259168536
 20
9.206549748
 30
0.0
 10
12.6302276966
 20
9.2103937799
 30
0.0
 10
12.6371337359
 20
9.2156310442
 30
0.0
 10
12.6444443877
 20
9.2203136576
 30
0.0
 10
12.6521201559
 20
9.224412845
 30
0.0
 10
12.6601171281
 20
9.2279093437
 30
0.0
 10
12.6683922699
 20
9.2307819661
 30
0.0
 10
12.6768997883
 20
9.2330147068
 30
0.0
 10
12.6855923636
 20
9.2345978729
 30
0.0
 10
12.6944227523
 20
9.2355194101
 30
0.0
 10
12.7033419136
 20
9.2357768435
 30
0.0
 10
12.7123010728
 20
9.2353688392
 30
0.0
 10
12.7212506717
 20
9.2342953382
 30
0.0
 10
12.730141962
 20
9.2325657496
 30
0.0
 10
12.7389257879
 20
9.2301871766
 30
0.0
 10
12.7475537599
 20
9.2271731017
 30
0.0
 10
12.7559794043
 20
9.2235420781
 30
0.0
 10
12.764155107
 20
9.2193110217
 30
0.0
 10
12.7720371338
 20
9.2145056956
 30
0.0
 10
12.7795821874
 20
9.2091519653
 30
0.0
 10
12.7867475513
 20
9.2032777391
 30
0.0
 10
12.7934960131
 20
9.1969178176
 30
0.0
 10
12.7997888055
 20
9.1901050831
 30
0.0
 10
12.8055917425
 20
9.1828774798
 30
0.0
 10
12.8108743963
 20
9.1752754623
 30
0.0
 10
12.8156048895
 20
9.167338949
 30
0.0
 10
12.8197598204
 20
9.1591135655
 30
0.0
 10
12.8233158778
 20
9.1506441432
 30
0.0
 10
12.8262519366
 20
9.1419759793
 30
0.0
 10
12.8285544055
 20
9.1331559967
 30
0.0
 10
12.8302071323
 20
9.1242317109
 30
0.0
 10
12.831202979
 20
9.115257301
 30
0.0
 10
12.831427278
 20
9.1092565057
 30
0.0
 10
12.831427278
 20
9.1062664472
 30
0.0
  0
SPLINE
  5
354
100
AcDbEntity
  8
0
100
AcDbSpline
 62
7
  6
CONTINUOUS
 70
0
 71
3
 72
69
 73
65
 74
0
 42
0.0000001
 43
0.0000001
 44
0.0000000001
 40
0.0
 40
0.0
 40
0.0
 40
0.0
 40
0.0312903911
 40
0.0470006543
 40
0.0627445771
 40
0.0785223289
 40
0.0943340764
 40
0.1101786947
 40
0.126053634
 40
0.1419560655
 40
0.157883293
 40
0.1738324649
 40
0.1898005499
 40
0.2217715222
 40
0.2377758016
 40
0.253784915
 40
0.2697950952
 40
0.2858026601
 40
0.3018038922
 40
0.3177951034
 40
0.333772802
 40
0.3497335464
 40
0.3656740664
 40
0.3815913678
 40
0.3974825851
 40
0.4133451574
 40
0.4291768396
 40
0.4449755982
 40
0.4607398103
 40
0.4764681644
 40
0.4921596439
 40
0.5078136996
 40
0.5234300536
 40
0.5390088005
 40
0.5545504881
 40
0.5700558896
 40
0.5855262037
 40
0.6009629988
 40
0.6163680341
 40
0.631743502
 40
0.6470918309
 40
0.6624156163
 40
0.6777178363
 40
0.6930015641
 40
0.7082700105
 40
0.7235266729
 40
0.7387750246
 40
0.7540186258
 40
0.7692612029
 40
0.7845063491
 40
0.7997576767
 40
0.8150188128
 40
0.8302931311
 40
0.8455839876
 40
0.8608947335
 40
0.876228419
 40
0.8915878381
 40
0.906975194
 40
0.9223922944
 40
0.9378417982
 40
0.9533270585
 40
0.9688506682
 40
0.9844102238
 40
1.0
 40
1.0
 40
1.0
 40
1.0
 10
11.4611126694
 20
7.2606101125
 30
0.0
 10
11.4611128617
 20
7.2455831405
 30
0.0
 10
11.4622264799
 20
7.2229916088
 30
0.0
 10
11.4658882559
 20
7.1930745849
 30
0.0
 10
11.4697285288
 20
7.1707095564
 30
0.0
 10
11.4746451444
 20
7.1485074939
 30
0.0
 10
11.480626796
 20
7.1265180308
 30
0.0
 10
11.4876579561
 20
7.1047924491
 30
0.0
 10
11.4957193477
 20
7.0833812172
 30
0.0
 10
11.5047932888
 20
7.0623358429
 30
0.0
 10
11.5148563245
 20
7.0417057126
 30
0.0
 10
11.525883519
 20
7.0215377358
 30
0.0
 10
11.5418417595
 20
6.9953229394
 30
0.0
 10
11.5596205459
 20
6.9702203519
 30
0.0
 10
11.5790775195
 20
6.9464267695
 30
0.0
 10
11.5944888762
 20
6.9292572854
 30
0.0
 10
11.6106749222
 20
6.9128148184
 30
0.0
 10
11.6275989756
 20
6.8971383176
 30
0.0
 10
11.6452195759
 20
6.8822632305
 30
0.0
 10
11.66349658
 20
6.8682259
 30
0.0
 10
11.6823873042
 20
6.8550600323
 30
0.0
 10
11.7018464621
 20
6.8427953677
 30
0.0
 10
11.7218297528
 20
6.8314631798
 30
0.0
 10
11.7422899734
 20
6.8210902637
 30
0.0
 10
11.7631787264
 20
6.8117006211
 30
0.0
 10
11.7844480773
 20
6.8033195805
 30
0.0
 10
11.8060474131
 20
6.7959664166
 30
0.0
 10
11.8279259606
 20
6.7896592063
 30
0.0
 10
11.850032758
 20
6.7844163643
 30
0.0
 10
11.8723149889
 20
6.7802493525
 30
0.0
 10
11.8947201238
 20
6.7771701085
 30
0.0
 10
11.917195008
 20
6.7751890544
 30
0.0
 10
11.9396857924
 20
6.7743099012
 30
0.0
 10
11.9621387603
 20
6.7745380168
 30
0.0
 10
11.9844997325
 20
6.7758749234
 30
0.0
 10
12.0067148565
 20
6.7783167706
 30
0.0
 10
12.0287299404
 20
6.7818617256
 30
0.0
 10
12.0504912512
 20
6.7865018421
 30
0.0
 10
12.0719458513
 20
6.7922259505
 30
0.0
 10
12.0930401148
 20
6.7990242194
 30
0.0
 10
12.1137224044
 20
6.8068791935
 30
0.0
 10
12.1339415492
 20
6.8157726484
 30
0.0
 10
12.153646054
 20
6.8256858972
 30
0.0
 10
12.1727879294
 20
6.8365926769
 30
0.0
 10
12.1913187081
 20
6.8484678597
 30
0.0
 10
12.2091911033
 20
6.8612834674
 30
0.0
 10
12.2263619541
 20
6.8750057212
 30
0.0
 10
12.2427867446
 20
6.8896026273
 30
0.0
 10
12.2584245076
 20
6.9050374661
 30
0.0
 10
12.2732376976
 20
6.9212703621
 30
0.0
 10
12.2871872681
 20
6.9382626825
 30
0.0
 10
12.3002401788
 20
6.9559704152
 30
0.0
 10
12.3123650081
 20
6.9743488388
 30
0.0
 10
12.3235299768
 20
6.9933532844
 30
0.0
 10
12.333710594
 20
7.0129347599
 30
0.0
 10
12.3428818615
 20
7.0330449755
 30
0.0
 10
12.3510207414
 20
7.0536341713
 30
0.0
 10
12.3581112075
 20
7.0746497078
 30
0.0
 10
12.3641355722
 20
7.0960402094
 30
0.0
 10
12.3690802976
 20
7.1177538806
 30
0.0
 10
12.372936702
 20
7.1397388283
 30
0.0
 10
12.3756940472
 20
7.1619418056
 30
0.0
 10
12.3773492593
 20
7.1843036537
 30
0.0
 10
12.3777169657
 20
7.199265508
 30
0.0
 10
12.3777170545
 20
7.2067523793
 30
0.0
  0
SPLINE
  5
355
100
AcDbEntity
  8
0
100
AcDbSpline
 62
7
  6
CONTINUOUS
 70
0
 71
3
 72
65
 73
61
 74
0
 42
0.0000001
 43
0.0000001
 44
0.0000000001
 40
0.0
 40
0.0
 40
0.0
 40
0.0
 40
0.0310480609
 40
0.0464649293
 40
0.0618007306
 40
0.0922348384
 40
0.1223994854
 40
0.1373982457
 40
0.1523450303
 40
0.1672467788
 40
0.1821108896
 40
0.1969449801
 40
0.2117572324
 40
0.2265559705
 40
0.2413496115
 40
0.2561467331
 40
0.2709558136
 40
0.2857852993
 40
0.3006433297
 40
0.3155375112
 40
0.3304753141
 40
0.3454636475
 40
0.3605084679
 40
0.3756154841
 40
0.3907897567
 40
0.4060350812
 40
0.4213548941
 40
0.4367520191
 40
0.4522278894
 40
0.4677834902
 40
0.4834192865
 40
0.4991344099
 40
0.5149274995
 40
0.5307967793
 40
0.5467393109
 40
0.5627516699
 40
0.5788301256
 40
0.6111574632
 40
0.6274047439
 40
0.6436971146
 40
0.6600282604
 40
0.676391787
 40
0.7091799709
 40
0.7255990813
 40
0.7420225206
 40
0.7584429769
 40
0.7748532848
 40
0.7912463688
 40
0.8076151029
 40
0.8239526465
 40
0.8402526437
 40
0.8565088432
 40
0.8727152724
 40
0.8888661846
 40
0.9049558761
 40
0.9369254192
 40
0.9528102449
 40
0.9686226826
 40
0.984355545
 40
1.0
 40
1.0
 40
1.0
 40
1.0
 10
12.237717045
 20
7.2067526401
 30
0.0
 10
12.237716829
 20
7.196393776
 30
0.0
 10
12.2369569672
 20
7.1808765506
 30
0.0
 10
12.2344126966
 20
7.16040864
 30
0.0
 10
12.2308782945
 20
7.1402946801
 30
0.0
 10
12.2246108217
 20
7.1156998049
 30
0.0
 10
12.2158968001
 20
7.0919796208
 30
0.0
 10
12.207537025
 20
7.0737415674
 30
0.0
 10
12.200598789
 20
7.0604765886
 30
0.0
 10
12.1929998989
 20
7.0476312839
 30
0.0
 10
12.1847589888
 20
7.0352330668
 30
0.0
 10
12.1758941867
 20
7.0233101558
 30
0.0
 10
12.16642681
 20
7.0118881799
 30
0.0
 10
12.1563789645
 20
7.0009916677
 30
0.0
 10
12.1457720831
 20
6.9906457378
 30
0.0
 10
12.1346302378
 20
6.9808730789
 30
0.0
 10
12.1229786793
 20
6.9716947736
 30
0.0
 10
12.1108421257
 20
6.9631327898
 30
0.0
 10
12.0982474351
 20
6.9552068765
 30
0.0
 10
12.0852229826
 20
6.9479346023
 30
0.0
 10
12.071796836
 20
6.9413346339
 30
0.0
 10
12.0579988156
 20
6.935423617
 30
0.0
 10
12.0438604248
 20
6.930215171
 30
0.0
 10
12.0294131019
 20
6.9257241128
 30
0.0
 10
12.0146896915
 20
6.9219634717
 30
0.0
 10
11.999724586
 20
6.9189422943
 30
0.0
 10
11.9845523333
 20
6.916670792
 30
0.0
 10
11.9692085688
 20
6.9151576574
 30
0.0
 10
11.9537299944
 20
6.9144067043
 30
0.0
 10
11.9381536172
 20
6.9144227624
 30
0.0
 10
11.9225172559
 20
6.9152094266
 30
0.0
 10
11.9068590229
 20
6.9167647744
 30
0.0
 10
11.8912174086
 20
6.9190876789
 30
0.0
 10
11.8756314451
 20
6.9221760542
 30
0.0
 10
11.8601397323
 20
6.9260219076
 30
0.0
 10
11.8447804958
 20
6.9306181534
 30
0.0
 10
11.8244984763
 20
6.9377471737
 30
0.0
 10
11.8046668471
 20
6.9463278535
 30
0.0
 10
11.7854446875
 20
6.9562848549
 30
0.0
 10
11.7713225875
 20
6.9644472575
 30
0.0
 10
11.7575580529
 20
6.9732712
 30
0.0
 10
11.7397214913
 20
6.9858977559
 30
0.0
 10
11.7227452446
 20
6.999754493
 30
0.0
 10
11.706764268
 20
7.0147323217
 30
0.0
 10
11.6952913659
 20
7.0265101242
 30
0.0
 10
11.6843685053
 20
7.0387952215
 30
0.0
 10
11.6740241212
 20
7.0515583662
 30
0.0
 10
11.6642825103
 20
7.0647658135
 30
0.0
 10
11.6551676548
 20
7.0783842077
 30
0.0
 10
11.6467036729
 20
7.0923801394
 30
0.0
 10
11.6389094557
 20
7.1067170849
 30
0.0
 10
11.6318036054
 20
7.1213588821
 30
0.0
 10
11.6254049994
 20
7.1362690503
 30
0.0
 10
11.6197264619
 20
7.1514093044
 30
0.0
 10
11.6131473053
 20
7.171803166
 30
0.0
 10
11.6080365052
 20
7.1925557798
 30
0.0
 10
11.6044461568
 20
7.2134981708
 30
0.0
 10
11.6025251735
 20
7.2292123775
 30
0.0
 10
11.6013713232
 20
7.2449201691
 30
0.0
 10
11.6011127984
 20
7.2553906609
 30
0.0
 10
11.6011126805
 20
7.2606102714
 30
0.0
  0
SPLINE
  5
356
100
AcDbEntity
  8
0
100
AcDbSpline
 62
7
  6
CONTINUOUS
 70
0
 71
3
 72
69
 73
65
 74
0
 42
0.0000001
 43
0.0000001
 44
0.0000000001
 40
0.0
 40
0.0
 40
0.0
 40
0.0
 40
0.0312903904
 40
0.0470006528
 40
0.0627445756
 40
0.0785223279
 40
0.0943340764
 40
0.110178696
 40
0.1260536366
 40
0.1419560695
 40
0.1578832983
 40
0.1738324715
 40
0.1898005575
 40
0.2217715317
 40
0.2377758121
 40
0.2537849262
 40
0.2697951068
 40
0.2858026717
 40
0.3018039038
 40
0.3177951149
 40
0.3337728137
 40
0.3497335585
 40
0.3656740791
 40
0.3815913812
 40
0.3974825997
 40
0.4133451737
 40
0.4291768584
 40
0.4449756206
 40
0.4607398374
 40
0.4764681958
 40
0.4921596776
 40
0.5078137322
 40
0.5234300822
 40
0.5390088225
 40
0.5545505019
 40
0.5700558957
 40
0.585526204
 40
0.6009629954
 40
0.616368028
 40
0.6317434933
 40
0.6470918197
 40
0.6624156028
 40
0.6777178217
 40
0.6930015504
 40
0.7082700017
 40
0.7235266723
 40
0.7387750315
 40
0.7540186351
 40
0.7692612099
 40
0.784506353
 40
0.7997576804
 40
0.8150188192
 40
0.8302931417
 40
0.8455840027
 40
0.860894753
 40
0.8762284425
 40
0.8915878651
 40
0.9069752245
 40
0.9223923275
 40
0.9378418307
 40
0.9533270851
 40
0.9688506846
 40
0.9844102313
 40
1.0
 40
1.0
 40
1.0
 40
1.0
 10
12.3777170524
 20
7.2067525768
 30
0.0
 10
12.3777168601
 20
7.2217795484
 30
0.0
 10
12.3766032422
 20
7.2443710795
 30
0.0
 10
12.3729414661
 20
7.2742881027
 30
0.0
 10
12.3691011932
 20
7.2966531311
 30
0.0
 10
12.3641845777
 20
7.3188551943
 30
0.0
 10
12.3582029257
 20
7.3408446587
 30
0.0
 10
12.3511717649
 20
7.362570242
 30
0.0
 10
12.3431103725
 20
7.3839814756
 30
0.0
 10
12.3340364306
 20
7.4050268517
 30
0.0
 10
12.3239733935
 20
7.4256569836
 30
0.0
 10
12.3129461979
 20
7.4458249618
 30
0.0
 10
12.296987956
 20
7.4720397597
 30
0.0
 10
12.2792091676
 20
7.4971423481
 30
0.0
 10
12.2597521925
 20
7.5209359314
 30
0.0
 10
12.2443408341
 20
7.5381054153
 30
0.0
 10
12.2281547876
 20
7.5545478827
 30
0.0
 10
12.2112307334
 20
7.5702243831
 30
0.0
 10
12.1936101323
 20
7.585099469
 30
0.0
 10
12.1753331281
 20
7.5991367996
 30
0.0
 10
12.156442403
 20
7.6123026664
 30
0.0
 10
12.1369832441
 20
7.6245673304
 30
0.0
 10
12.1169999527
 20
7.6358995186
 30
0.0
 10
12.0965397302
 20
7.6462724339
 30
0.0
 10
12.0756509753
 20
7.6556620762
 30
0.0
 10
12.0543816218
 20
7.6640431176
 30
0.0
 10
12.0327822817
 20
7.6713962805
 30
0.0
 10
12.0109037291
 20
7.6777034916
 30
0.0
 10
11.9887969252
 20
7.6829463332
 30
0.0
 10
11.9665146883
 20
7.6871133422
 30
0.0
 10
11.9441095509
 20
7.6901925869
 30
0.0
 10
11.9216346677
 20
7.6921736384
 30
0.0
 10
11.8991438888
 20
7.6930527872
 30
0.0
 10
11.8766909299
 20
7.6928246721
 30
0.0
 10
11.8543299685
 20
7.6914877649
 30
0.0
 10
11.8321148551
 20
7.689045917
 30
0.0
 10
11.8100997795
 20
7.6855009629
 30
0.0
 10
11.7883384743
 20
7.6808608479
 30
0.0
 10
11.7668838783
 20
7.6751367409
 30
0.0
 10
11.7457896183
 20
7.6683384735
 30
0.0
 10
11.7251073315
 20
7.6604835019
 30
0.0
 10
11.7048881893
 20
7.6515900483
 30
0.0
 10
11.6851836848
 20
7.6416768012
 30
0.0
 10
11.6660418064
 20
7.6307700222
 30
0.0
 10
11.6475110226
 20
7.6188948348
 30
0.0
 10
11.6296386201
 20
7.6060792206
 30
0.0
 10
11.6124677621
 20
7.5923569618
 30
0.0
 10
11.5960429676
 20
7.5777600547
 30
0.0
 10
11.5804052059
 20
7.5623252164
 30
0.0
 10
11.5655920191
 20
7.5460923211
 30
0.0
 10
11.5516424494
 20
7.5291000004
 30
0.0
 10
11.5385895375
 20
7.5113922646
 30
0.0
 10
11.5264647048
 20
7.4930138367
 30
0.0
 10
11.5152997338
 20
7.474009385
 30
0.0
 10
11.505119116
 20
7.4544279028
 30
0.0
 10
11.4959478458
 20
7.4343176821
 30
0.0
 10
11.4878089664
 20
7.4137284805
 30
0.0
 10
11.4807185025
 20
7.3927129384
 30
0.0
 10
11.4746941374
 20
7.3713224342
 30
0.0
 10
11.4697494161
 20
7.3496087639
 30
0.0
 10
11.4658930151
 20
7.3276238238
 30
0.0
 10
11.4631356696
 20
7.3054208586
 30
0.0
 10
11.461480461
 20
7.283059023
 30
0.0
 10
11.461112756
 20
7.2680971766
 30
0.0
 10
11.4611126673
 20
7.2606103089
 30
0.0
  0
SPLINE
  5
357
100
AcDbEntity
  8
0
100
AcDbSpline
 62
7
  6
CONTINUOUS
 70
0
 71
3
 72
65
 73
61
 74
0
 42
0.0000001
 43
0.0000001
 44
0.0000000001
 40
0.0
 40
0.0
 40
0.0
 40
0.0
 40
0.0310480611
 40
0.0464649297
 40
0.061800731
 40
0.0922348386
 40
0.1223994853
 40
0.1373982455
 40
0.1523450299
 40
0.1672467782
 40
0.1821108888
 40
0.1969449792
 40
0.2117572313
 40
0.2265559693
 40
0.2413496102
 40
0.2561467317
 40
0.2709558122
 40
0.285785298
 40
0.3006433284
 40
0.3155375101
 40
0.3304753132
 40
0.3454636469
 40
0.3605084676
 40
0.375615484
 40
0.3907897569
 40
0.4060350815
 40
0.4213548945
 40
0.4367520193
 40
0.4522278892
 40
0.4677834893
 40
0.4834192846
 40
0.4991344067
 40
0.5149274953
 40
0.5307967742
 40
0.5467393053
 40
0.5627516644
 40
0.578830121
 40
0.6111574611
 40
0.6274047431
 40
0.643697115
 40
0.6600282616
 40
0.6763917887
 40
0.7091799725
 40
0.7255990827
 40
0.7420225216
 40
0.7584429775
 40
0.774853285
 40
0.7912463688
 40
0.8076151028
 40
0.8239526467
 40
0.8402526445
 40
0.8565088447
 40
0.8727152748
 40
0.8888661881
 40
0.9049558805
 40
0.9369254242
 40
0.952810249
 40
0.9686226856
 40
0.9843555469
 40
1.0
 40
1.0
 40
1.0
 40
1.0
 10
11.6011126768
 20
7.260610049
 30
0.0
 10
11.6011128928
 20
7.2709689132
 30
0.0
 10
11.6018727547
 20
7.2864861387
 30
0.0
 10
11.6044170253
 20
7.3069540494
 30
0.0
 10
11.6079514274
 20
7.3270680094
 30
0.0
 10
11.6142189001
 20
7.3516628844
 30
0.0
 10
11.6229329217
 20
7.3753830683
 30
0.0
 10
11.6312926967
 20
7.3936211216
 30
0.0
 10
11.6382309326
 20
7.4068861002
 30
0.0
 10
11.6458298226
 20
7.4197314047
 30
0.0
 10
11.6540707325
 20
7.4321296217
 30
0.0
 10
11.6629355345
 20
7.4440525326
 30
0.0
 10
11.6724029111
 20
7.4554745084
 30
0.0
 10
11.6824507565
 20
7.4663710207
 30
0.0
 10
11.6930576378
 20
7.4767169504
 30
0.0
 10
11.704199483
 20
7.4864896094
 30
0.0
 10
11.7158510414
 20
7.4956679148
 30
0.0
 10
11.7279875951
 20
7.5042298986
 30
0.0
 10
11.7405822857
 20
7.5121558121
 30
0.0
 10
11.7536067383
 20
7.5194280864
 30
0.0
 10
11.7670328851
 20
7.5260280549
 30
0.0
 10
11.7808309057
 20
7.531939072
 30
0.0
 10
11.7949692968
 20
7.5371475181
 30
0.0
 10
11.8094166199
 20
7.5416385763
 30
0.0
 10
11.8241400305
 20
7.5453992175
 30
0.0
 10
11.8391051362
 20
7.5484203949
 30
0.0
 10
11.8542773889
 20
7.5506918972
 30
0.0
 10
11.8696211532
 20
7.5522050318
 30
0.0
 10
11.8850997273
 20
7.5529559848
 30
0.0
 10
11.9006761037
 20
7.5529399268
 30
0.0
 10
11.9163124641
 20
7.5521532627
 30
0.0
 10
11.931970696
 20
7.5505979152
 30
0.0
 10
11.9476123092
 20
7.5482750108
 30
0.0
 10
11.963198272
 20
7.545186636
 30
0.0
 10
11.9786899845
 20
7.5413407831
 30
0.0
 10
11.9940492212
 20
7.5367445373
 30
0.0
 10
12.0143312419
 20
7.5296155167
 30
0.0
 10
12.0341628726
 20
7.5210348367
 30
0.0
 10
12.0533850336
 20
7.5110778345
 30
0.0
 10
12.0675071346
 20
7.5029154313
 30
0.0
 10
12.0812716699
 20
7.4940914884
 30
0.0
 10
12.0991082319
 20
7.4814649323
 30
0.0
 10
12.1160844785
 20
7.4676081949
 30
0.0
 10
12.1320654549
 20
7.4526303664
 30
0.0
 10
12.1435383567
 20
7.4408525641
 30
0.0
 10
12.154461217
 20
7.428567467
 30
0.0
 10
12.1648056009
 20
7.4158043226
 30
0.0
 10
12.1745472117
 20
7.4025968754
 30
0.0
 10
12.1836620671
 20
7.3889784812
 30
0.0
 10
12.1921260492
 20
7.3749825493
 30
0.0
 10
12.1999202665
 20
7.3606456033
 30
0.0
 10
12.2070261172
 20
7.3460038054
 30
0.0
 10
12.2134247234
 20
7.3310936363
 30
0.0
 10
12.219103261
 20
7.3159533811
 30
0.0
 10
12.2256824177
 20
7.2955595187
 30
0.0
 10
12.2307932175
 20
7.2748069047
 30
0.0
 10
12.2343835657
 20
7.2538645141
 30
0.0
 10
12.2363045489
 20
7.2381503084
 30
0.0
 10
12.2374583987
 20
7.2224425181
 30
0.0
 10
12.2377169234
 20
7.2119720273
 30
0.0
 10
12.2377170413
 20
7.2067524175
 30
0.0
  0
SPLINE
  5
358
100
AcDbEntity
  8
0
100
AcDbSpline
 62
7
  6
CONTINUOUS
 70
0
 71
3
 72
69
 73
65
 74
0
 42
0.0000001
 43
0.0000001
 44
0.0000000001
 40
0.0
 40
0.0
 40
0.0
 40
0.0
 40
0.0312903911
 40
0.0470006543
 40
0.0627445771
 40
0.0785223289
 40
0.0943340764
 40
0.1101786947
 40
0.126053634
 40
0.1419560655
 40
0.157883293
 40
0.1738324649
 40
0.1898005499
 40
0.2217715222
 40
0.2377758016
 40
0.253784915
 40
0.2697950952
 40
0.2858026601
 40
0.3018038922
 40
0.3177951034
 40
0.333772802
 40
0.3497335464
 40
0.3656740664
 40
0.3815913678
 40
0.3974825851
 40
0.4133451574
 40
0.4291768396
 40
0.4449755982
 40
0.4607398103
 40
0.4764681644
 40
0.4921596439
 40
0.5078136996
 40
0.5234300536
 40
0.5390088005
 40
0.5545504881
 40
0.5700558896
 40
0.5855262037
 40
0.6009629988
 40
0.6163680341
 40
0.631743502
 40
0.6470918309
 40
0.6624156163
 40
0.6777178363
 40
0.6930015641
 40
0.7082700105
 40
0.7235266729
 40
0.7387750246
 40
0.7540186258
 40
0.7692612029
 40
0.7845063491
 40
0.7997576767
 40
0.8150188128
 40
0.8302931311
 40
0.8455839876
 40
0.8608947335
 40
0.876228419
 40
0.8915878381
 40
0.906975194
 40
0.9223922944
 40
0.9378417982
 40
0.9533270585
 40
0.9688506682
 40
0.9844102238
 40
1.0
 40
1.0
 40
1.0
 40
1.0
 10
10.7965554663
 20
8.0910291059
 30
0.0
 10
10.7965556586
 20
8.0760021339
 30
0.0
 10
10.7976692767
 20
8.0534106022
 30
0.0
 10
10.8013310528
 20
8.0234935783
 30
0.0
 10
10.8051713257
 20
8.0011285498
 30
0.0
 10
10.8100879412
 20
7.9789264873
 30
0.0
 10
10.8160695928
 20
7.9569370242
 30
0.0
 10
10.8231007529
 20
7.9352114425
 30
0.0
 10
10.8311621445
 20
7.9138002107
 30
0.0
 10
10.8402360857
 20
7.8927548364
 30
0.0
 10
10.8502991213
 20
7.872124706
 30
0.0
 10
10.8613263159
 20
7.8519567292
 30
0.0
 10
10.8772845564
 20
7.8257419328
 30
0.0
 10
10.8950633428
 20
7.8006393453
 30
0.0
 10
10.9145203163
 20
7.7768457629
 30
0.0
 10
10.929931673
 20
7.7596762789
 30
0.0
 10
10.9461177191
 20
7.7432338119
 30
0.0
 10
10.9630417725
 20
7.727557311
 30
0.0
 10
10.9806623727
 20
7.7126822239
 30
0.0
 10
10.9989393769
 20
7.6986448934
 30
0.0
 10
11.0178301011
 20
7.6854790257
 30
0.0
 10
11.0372892589
 20
7.6732143611
 30
0.0
 10
11.0572725496
 20
7.6618821732
 30
0.0
 10
11.0777327703
 20
7.6515092571
 30
0.0
 10
11.0986215232
 20
7.6421196146
 30
0.0
 10
11.1198908741
 20
7.6337385739
 30
0.0
 10
11.14149021
 20
7.62638541
 30
0.0
 10
11.1633687574
 20
7.6200781997
 30
0.0
 10
11.1854755549
 20
7.6148353577
 30
0.0
 10
11.2077577858
 20
7.6106683459
 30
0.0
 10
11.2301629206
 20
7.6075891019
 30
0.0
 10
11.2526378049
 20
7.6056080478
 30
0.0
 10
11.2751285893
 20
7.6047288946
 30
0.0
 10
11.2975815571
 20
7.6049570103
 30
0.0
 10
11.3199425293
 20
7.6062939168
 30
0.0
 10
11.3421576534
 20
7.6087357641
 30
0.0
 10
11.3641727372
 20
7.6122807191
 30
0.0
 10
11.385934048
 20
7.6169208355
 30
0.0
 10
11.4073886481
 20
7.6226449439
 30
0.0
 10
11.4284829117
 20
7.6294432128
 30
0.0
 10
11.4491652013
 20
7.6372981869
 30
0.0
 10
11.469384346
 20
7.6461916418
 30
0.0
 10
11.4890888508
 20
7.6561048906
 30
0.0
 10
11.5082307262
 20
7.6670116703
 30
0.0
 10
11.526761505
 20
7.6788868531
 30
0.0
 10
11.5446339001
 20
7.6917024608
 30
0.0
 10
11.5618047509
 20
7.7054247147
 30
0.0
 10
11.5782295414
 20
7.7200216207
 30
0.0
 10
11.5938673045
 20
7.7354564595
 30
0.0
 10
11.6086804944
 20
7.7516893556
 30
0.0
 10
11.622630065
 20
7.7686816759
 30
0.0
 10
11.6356829756
 20
7.7863894086
 30
0.0
 10
11.6478078049
 20
7.8047678322
 30
0.0
 10
11.6589727736
 20
7.8237722778
 30
0.0
 10
11.6691533909
 20
7.8433537533
 30
0.0
 10
11.6783246583
 20
7.863463969
 30
0.0
 10
11.6864635382
 20
7.8840531647
 30
0.0
 10
11.6935540044
 20
7.9050687012
 30
0.0
 10
11.699578369
 20
7.9264592028
 30
0.0
 10
11.7045230944
 20
7.948172874
 30
0.0
 10
11.7083794989
 20
7.9701578217
 30
0.0
 10
11.7111368441
 20
7.992360799
 30
0.0
 10
11.7127920562
 20
8.0147226471
 30
0.0
 10
11.7131597625
 20
8.0296845014
 30
0.0
 10
11.7131598514
 20
8.0371713727
 30
0.0
  0
SPLINE
  5
359
100
AcDbEntity
  8
0
100
AcDbSpline
 62
7
  6
CONTINUOUS
 70
0
 71
3
 72
65
 73
61
 74
0
 42
0.0000001
 43
0.0000001
 44
0.0000000001
 40
0.0
 40
0.0
 40
0.0
 40
0.0
 40
0.0310480609
 40
0.0464649293
 40
0.0618007306
 40
0.0922348384
 40
0.1223994854
 40
0.1373982457
 40
0.1523450303
 40
0.1672467788
 40
0.1821108896
 40
0.1969449801
 40
0.2117572324
 40
0.2265559705
 40
0.2413496115
 40
0.2561467331
 40
0.2709558136
 40
0.2857852993
 40
0.3006433297
 40
0.3155375112
 40
0.3304753141
 40
0.3454636475
 40
0.3605084679
 40
0.3756154841
 40
0.3907897567
 40
0.4060350812
 40
0.4213548941
 40
0.4367520191
 40
0.4522278894
 40
0.4677834902
 40
0.4834192865
 40
0.4991344099
 40
0.5149274995
 40
0.5307967793
 40
0.5467393109
 40
0.5627516699
 40
0.5788301256
 40
0.6111574632
 40
0.6274047439
 40
0.6436971146
 40
0.6600282604
 40
0.676391787
 40
0.7091799709
 40
0.7255990813
 40
0.7420225206
 40
0.7584429769
 40
0.7748532848
 40
0.7912463688
 40
0.8076151029
 40
0.8239526465
 40
0.8402526437
 40
0.8565088432
 40
0.8727152724
 40
0.8888661846
 40
0.9049558761
 40
0.9369254192
 40
0.9528102449
 40
0.9686226826
 40
0.984355545
 40
1.0
 40
1.0
 40
1.0
 40
1.0
 10
11.5731598418
 20
8.0371716335
 30
0.0
 10
11.5731596258
 20
8.0268127694
 30
0.0
 10
11.572399764
 20
8.011295544
 30
0.0
 10
11.5698554934
 20
7.9908276334
 30
0.0
 10
11.5663210913
 20
7.9707136735
 30
0.0
 10
11.5600536186
 20
7.9461187984
 30
0.0
 10
11.5513395969
 20
7.9223986142
 30
0.0
 10
11.5429798219
 20
7.9041605608
 30
0.0
 10
11.5360415859
 20
7.890895582
 30
0.0
 10
11.5284426957
 20
7.8780502773
 30
0.0
 10
11.5202017857
 20
7.8656520602
 30
0.0
 10
11.5113369835
 20
7.8537291492
 30
0.0
 10
11.5018696069
 20
7.8423071734
 30
0.0
 10
11.4918217613
 20
7.8314106611
 30
0.0
 10
11.48121488
 20
7.8210647313
 30
0.0
 10
11.4700730347
 20
7.8112920723
 30
0.0
 10
11.4584214761
 20
7.802113767
 30
0.0
 10
11.4462849225
 20
7.7935517832
 30
0.0
 10
11.4336902319
 20
7.7856258699
 30
0.0
 10
11.4206657795
 20
7.7783535958
 30
0.0
 10
11.4072396328
 20
7.7717536273
 30
0.0
 10
11.3934416125
 20
7.7658426104
 30
0.0
 10
11.3793032217
 20
7.7606341644
 30
0.0
 10
11.3648558988
 20
7.7561431062
 30
0.0
 10
11.3501324884
 20
7.7523824652
 30
0.0
 10
11.3351673828
 20
7.7493612877
 30
0.0
 10
11.3199951302
 20
7.7470897854
 30
0.0
 10
11.3046513657
 20
7.7455766508
 30
0.0
 10
11.2891727912
 20
7.7448256977
 30
0.0
 10
11.273596414
 20
7.7448417558
 30
0.0
 10
11.2579600527
 20
7.74562842
 30
0.0
 10
11.2423018197
 20
7.7471837679
 30
0.0
 10
11.2266602055
 20
7.7495066723
 30
0.0
 10
11.2110742419
 20
7.7525950476
 30
0.0
 10
11.1955825292
 20
7.756440901
 30
0.0
 10
11.1802232926
 20
7.7610371468
 30
0.0
 10
11.1599412731
 20
7.7681661672
 30
0.0
 10
11.140109644
 20
7.776746847
 30
0.0
 10
11.1208874844
 20
7.7867038484
 30
0.0
 10
11.1067653844
 20
7.794866251
 30
0.0
 10
11.0930008498
 20
7.8036901935
 30
0.0
 10
11.0751642881
 20
7.8163167493
 30
0.0
 10
11.0581880414
 20
7.8301734864
 30
0.0
 10
11.0422070649
 20
7.8451513151
 30
0.0
 10
11.0307341627
 20
7.8569291176
 30
0.0
 10
11.0198113021
 20
7.869214215
 30
0.0
 10
11.0094669181
 20
7.8819773596
 30
0.0
 10
10.9997253071
 20
7.8951848069
 30
0.0
 10
10.9906104516
 20
7.9088032011
 30
0.0
 10
10.9821464697
 20
7.9227991328
 30
0.0
 10
10.9743522526
 20
7.9371360783
 30
0.0
 10
10.9672464023
 20
7.9517778755
 30
0.0
 10
10.9608477962
 20
7.9666880437
 30
0.0
 10
10.9551692587
 20
7.9818282979
 30
0.0
 10
10.9485901022
 20
8.0022221594
 30
0.0
 10
10.943479302
 20
8.0229747732
 30
0.0
 10
10.9398889536
 20
8.0439171642
 30
0.0
 10
10.9379679703
 20
8.0596313709
 30
0.0
 10
10.9368141201
 20
8.0753391625
 30
0.0
 10
10.9365555953
 20
8.0858096543
 30
0.0
 10
10.9365554773
 20
8.0910292648
 30
0.0
  0
SPLINE
  5
35A
100
AcDbEntity
  8
0
100
AcDbSpline
 62
7
  6
CONTINUOUS
 70
0
 71
3
 72
69
 73
65
 74
0
 42
0.0000001
 43
0.0000001
 44
0.0000000001
 40
0.0
 40
0.0
 40
0.0
 40
0.0
 40
0.0312903904
 40
0.0470006528
 40
0.0627445756
 40
0.0785223279
 40
0.0943340764
 40
0.110178696
 40
0.1260536366
 40
0.1419560695
 40
0.1578832983
 40
0.1738324715
 40
0.1898005575
 40
0.2217715317
 40
0.2377758121
 40
0.2537849262
 40
0.2697951068
 40
0.2858026717
 40
0.3018039038
 40
0.3177951149
 40
0.3337728137
 40
0.3497335585
 40
0.3656740791
 40
0.3815913812
 40
0.3974825997
 40
0.4133451737
 40
0.4291768584
 40
0.4449756206
 40
0.4607398374
 40
0.4764681958
 40
0.4921596776
 40
0.5078137322
 40
0.5234300822
 40
0.5390088225
 40
0.5545505019
 40
0.5700558957
 40
0.585526204
 40
0.6009629954
 40
0.616368028
 40
0.6317434933
 40
0.6470918197
 40
0.6624156028
 40
0.6777178217
 40
0.6930015504
 40
0.7082700017
 40
0.7235266723
 40
0.7387750315
 40
0.7540186351
 40
0.7692612099
 40
0.784506353
 40
0.7997576804
 40
0.8150188192
 40
0.8302931417
 40
0.8455840027
 40
0.860894753
 40
0.8762284425
 40
0.8915878651
 40
0.9069752245
 40
0.9223923275
 40
0.9378418307
 40
0.9533270851
 40
0.9688506846
 40
0.9844102313
 40
1.0
 40
1.0
 40
1.0
 40
1.0
 10
11.7131598492
 20
8.0371715702
 30
0.0
 10
11.7131596569
 20
8.0521985419
 30
0.0
 10
11.712046039
 20
8.0747900729
 30
0.0
 10
11.7083842629
 20
8.1047070961
 30
0.0
 10
11.7045439901
 20
8.1270721245
 30
0.0
 10
11.6996273745
 20
8.1492741877
 30
0.0
 10
11.6936457226
 20
8.1712636521
 30
0.0
 10
11.6866145617
 20
8.1929892354
 30
0.0
 10
11.6785531694
 20
8.214400469
 30
0.0
 10
11.6694792274
 20
8.2354458452
 30
0.0
 10
11.6594161903
 20
8.256075977
 30
0.0
 10
11.6483889947
 20
8.2762439552
 30
0.0
 10
11.6324307528
 20
8.3024587531
 30
0.0
 10
11.6146519645
 20
8.3275613415
 30
0.0
 10
11.5951949893
 20
8.3513549248
 30
0.0
 10
11.5797836309
 20
8.3685244087
 30
0.0
 10
11.5635975845
 20
8.3849668761
 30
0.0
 10
11.5466735303
 20
8.4006433765
 30
0.0
 10
11.5290529292
 20
8.4155184625
 30
0.0
 10
11.510775925
 20
8.4295557931
 30
0.0
 10
11.4918851998
 20
8.4427216599
 30
0.0
 10
11.4724260409
 20
8.4549863238
 30
0.0
 10
11.4524427495
 20
8.4663185121
 30
0.0
 10
11.431982527
 20
8.4766914273
 30
0.0
 10
11.4110937721
 20
8.4860810697
 30
0.0
 10
11.3898244187
 20
8.494462111
 30
0.0
 10
11.3682250786
 20
8.5018152739
 30
0.0
 10
11.3463465259
 20
8.508122485
 30
0.0
 10
11.3242397221
 20
8.5133653266
 30
0.0
 10
11.3019574851
 20
8.5175323356
 30
0.0
 10
11.2795523478
 20
8.5206115804
 30
0.0
 10
11.2570774645
 20
8.5225926318
 30
0.0
 10
11.2345866856
 20
8.5234717806
 30
0.0
 10
11.2121337267
 20
8.5232436655
 30
0.0
 10
11.1897727654
 20
8.5219067583
 30
0.0
 10
11.1675576519
 20
8.5194649104
 30
0.0
 10
11.1455425763
 20
8.5159199563
 30
0.0
 10
11.1237812712
 20
8.5112798414
 30
0.0
 10
11.1023266752
 20
8.5055557344
 30
0.0
 10
11.0812324151
 20
8.4987574669
 30
0.0
 10
11.0605501283
 20
8.4909024954
 30
0.0
 10
11.0403309861
 20
8.4820090417
 30
0.0
 10
11.0206264817
 20
8.4720957947
 30
0.0
 10
11.0014846032
 20
8.4611890156
 30
0.0
 10
10.9829538194
 20
8.4493138283
 30
0.0
 10
10.9650814169
 20
8.436498214
 30
0.0
 10
10.947910559
 20
8.4227759552
 30
0.0
 10
10.9314857644
 20
8.4081790482
 30
0.0
 10
10.9158480028
 20
8.3927442098
 30
0.0
 10
10.9010348159
 20
8.3765113146
 30
0.0
 10
10.8870852463
 20
8.3595189938
 30
0.0
 10
10.8740323344
 20
8.341811258
 30
0.0
 10
10.8619075017
 20
8.3234328301
 30
0.0
 10
10.8507425306
 20
8.3044283784
 30
0.0
 10
10.8405619128
 20
8.2848468962
 30
0.0
 10
10.8313906426
 20
8.2647366755
 30
0.0
 10
10.8232517633
 20
8.2441474739
 30
0.0
 10
10.8161612993
 20
8.2231319318
 30
0.0
 10
10.8101369342
 20
8.2017414276
 30
0.0
 10
10.8051922129
 20
8.1800277573
 30
0.0
 10
10.8013358119
 20
8.1580428172
 30
0.0
 10
10.7985784664
 20
8.135839852
 30
0.0
 10
10.7969232579
 20
8.1134780164
 30
0.0
 10
10.7965555529
 20
8.09851617
 30
0.0
 10
10.7965554641
 20
8.0910293023
 30
0.0
  0
SPLINE
  5
35B
100
AcDbEntity
  8
0
100
AcDbSpline
 62
7
  6
CONTINUOUS
 70
0
 71
3
 72
65
 73
61
 74
0
 42
0.0000001
 43
0.0000001
 44
0.0000000001
 40
0.0
 40
0.0
 40
0.0
 40
0.0
 40
0.0310480611
 40
0.0464649297
 40
0.061800731
 40
0.0922348386
 40
0.1223994853
 40
0.1373982455
 40
0.1523450299
 40
0.1672467782
 40
0.1821108888
 40
0.1969449792
 40
0.2117572313
 40
0.2265559693
 40
0.2413496102
 40
0.2561467317
 40
0.2709558122
 40
0.285785298
 40
0.3006433284
 40
0.3155375101
 40
0.3304753132
 40
0.3454636469
 40
0.3605084676
 40
0.375615484
 40
0.3907897569
 40
0.4060350815
 40
0.4213548945
 40
0.4367520193
 40
0.4522278892
 40
0.4677834893
 40
0.4834192846
 40
0.4991344067
 40
0.5149274953
 40
0.5307967742
 40
0.5467393053
 40
0.5627516644
 40
0.578830121
 40
0.6111574611
 40
0.6274047431
 40
0.643697115
 40
0.6600282616
 40
0.6763917887
 40
0.7091799725
 40
0.7255990827
 40
0.7420225216
 40
0.7584429775
 40
0.774853285
 40
0.7912463688
 40
0.8076151028
 40
0.8239526467
 40
0.8402526445
 40
0.8565088447
 40
0.8727152748
 40
0.8888661881
 40
0.9049558805
 40
0.9369254242
 40
0.952810249
 40
0.9686226856
 40
0.9843555469
 40
1.0
 40
1.0
 40
1.0
 40
1.0
 10
10.9365554737
 20
8.0910290425
 30
0.0
 10
10.9365556896
 20
8.1013879066
 30
0.0
 10
10.9373155515
 20
8.1169051321
 30
0.0
 10
10.9398598221
 20
8.1373730429
 30
0.0
 10
10.9433942242
 20
8.1574870028
 30
0.0
 10
10.949661697
 20
8.1820818778
 30
0.0
 10
10.9583757185
 20
8.2058020618
 30
0.0
 10
10.9667354935
 20
8.224040115
 30
0.0
 10
10.9736737294
 20
8.2373050936
 30
0.0
 10
10.9812726194
 20
8.2501503982
 30
0.0
 10
10.9895135294
 20
8.2625486152
 30
0.0
 10
10.9983783314
 20
8.2744715261
 30
0.0
 10
11.0078457079
 20
8.2858935018
 30
0.0
 10
11.0178935533
 20
8.2967900141
 30
0.0
 10
11.0285004346
 20
8.3071359438
 30
0.0
 10
11.0396422798
 20
8.3169086028
 30
0.0
 10
11.0512938383
 20
8.3260869082
 30
0.0
 10
11.0634303919
 20
8.3346488921
 30
0.0
 10
11.0760250826
 20
8.3425748055
 30
0.0
 10
11.0890495351
 20
8.3498470798
 30
0.0
 10
11.1024756819
 20
8.3564470483
 30
0.0
 10
11.1162737025
 20
8.3623580654
 30
0.0
 10
11.1304120936
 20
8.3675665115
 30
0.0
 10
11.1448594168
 20
8.3720575698
 30
0.0
 10
11.1595828274
 20
8.3758182109
 30
0.0
 10
11.1745479331
 20
8.3788393883
 30
0.0
 10
11.1897201857
 20
8.3811108906
 30
0.0
 10
11.20506395
 20
8.3826240252
 30
0.0
 10
11.2205425241
 20
8.3833749782
 30
0.0
 10
11.2361189006
 20
8.3833589202
 30
0.0
 10
11.2517552609
 20
8.3825722562
 30
0.0
 10
11.2674134928
 20
8.3810169086
 30
0.0
 10
11.283055106
 20
8.3786940042
 30
0.0
 10
11.2986410689
 20
8.3756056294
 30
0.0
 10
11.3141327813
 20
8.3717597765
 30
0.0
 10
11.329492018
 20
8.3671635307
 30
0.0
 10
11.3497740387
 20
8.3600345101
 30
0.0
 10
11.3696056695
 20
8.3514538301
 30
0.0
 10
11.3888278305
 20
8.3414968279
 30
0.0
 10
11.4029499315
 20
8.3333344247
 30
0.0
 10
11.4167144667
 20
8.3245104818
 30
0.0
 10
11.4345510287
 20
8.3118839257
 30
0.0
 10
11.4515272754
 20
8.2980271884
 30
0.0
 10
11.4675082517
 20
8.2830493598
 30
0.0
 10
11.4789811536
 20
8.2712715575
 30
0.0
 10
11.4899040139
 20
8.2589864604
 30
0.0
 10
11.5002483977
 20
8.246223316
 30
0.0
 10
11.5099900085
 20
8.2330158688
 30
0.0
 10
11.519104864
 20
8.2193974746
 30
0.0
 10
11.527568846
 20
8.2054015427
 30
0.0
 10
11.5353630634
 20
8.1910645967
 30
0.0
 10
11.542468914
 20
8.1764227988
 30
0.0
 10
11.5488675203
 20
8.1615126297
 30
0.0
 10
11.5545460578
 20
8.1463723745
 30
0.0
 10
11.5611252146
 20
8.1259785122
 30
0.0
 10
11.5662360143
 20
8.1052258981
 30
0.0
 10
11.5698263625
 20
8.0842835075
 30
0.0
 10
11.5717473457
 20
8.0685693018
 30
0.0
 10
11.5729011956
 20
8.0528615115
 30
0.0
 10
11.5731597202
 20
8.0423910207
 30
0.0
 10
11.5731598381
 20
8.0371714109
 30
0.0
  0
SPLINE
  5
35C
100
AcDbEntity
  8
0
100
AcDbSpline
 62
7
  6
CONTINUOUS
 70
0
 71
3
 72
69
 73
65
 74
0
 42
0.0000001
 43
0.0000001
 44
0.0000000001
 40
0.0
 40
0.0
 40
0.0
 40
0.0
 40
0.0312903911
 40
0.0470006543
 40
0.0627445771
 40
0.0785223289
 40
0.0943340764
 40
0.1101786947
 40
0.126053634
 40
0.1419560655
 40
0.157883293
 40
0.1738324649
 40
0.1898005499
 40
0.2217715222
 40
0.2377758016
 40
0.253784915
 40
0.2697950952
 40
0.2858026601
 40
0.3018038922
 40
0.3177951034
 40
0.333772802
 40
0.3497335464
 40
0.3656740664
 40
0.3815913678
 40
0.3974825851
 40
0.4133451574
 40
0.4291768396
 40
0.4449755982
 40
0.4607398103
 40
0.4764681644
 40
0.4921596439
 40
0.5078136996
 40
0.5234300536
 40
0.5390088005
 40
0.5545504881
 40
0.5700558896
 40
0.5855262037
 40
0.6009629988
 40
0.6163680341
 40
0.631743502
 40
0.6470918309
 40
0.6624156163
 40
0.6777178363
 40
0.6930015641
 40
0.7082700105
 40
0.7235266729
 40
0.7387750246
 40
0.7540186258
 40
0.7692612029
 40
0.7845063491
 40
0.7997576767
 40
0.8150188128
 40
0.8302931311
 40
0.8455839876
 40
0.8608947335
 40
0.876228419
 40
0.8915878381
 40
0.906975194
 40
0.9223922944
 40
0.9378417982
 40
0.9533270585
 40
0.9688506682
 40
0.9844102238
 40
1.0
 40
1.0
 40
1.0
 40
1.0
 10
12.1256698726
 20
7.9988547087
 30
0.0
 10
12.1256700649
 20
7.9838277368
 30
0.0
 10
12.1267836831
 20
7.9612362051
 30
0.0
 10
12.1304454591
 20
7.9313191811
 30
0.0
 10
12.134285732
 20
7.9089541526
 30
0.0
 10
12.1392023475
 20
7.8867520902
 30
0.0
 10
12.1451839991
 20
7.8647626271
 30
0.0
 10
12.1522151592
 20
7.8430370454
 30
0.0
 10
12.1602765508
 20
7.8216258135
 30
0.0
 10
12.169350492
 20
7.8005804392
 30
0.0
 10
12.1794135276
 20
7.7799503089
 30
0.0
 10
12.1904407222
 20
7.7597823321
 30
0.0
 10
12.2063989627
 20
7.7335675357
 30
0.0
 10
12.2241777491
 20
7.7084649482
 30
0.0
 10
12.2436347226
 20
7.6846713658
 30
0.0
 10
12.2590460793
 20
7.6675018817
 30
0.0
 10
12.2752321254
 20
7.6510594147
 30
0.0
 10
12.2921561788
 20
7.6353829138
 30
0.0
 10
12.309776779
 20
7.6205078268
 30
0.0
 10
12.3280537832
 20
7.6064704962
 30
0.0
 10
12.3469445074
 20
7.5933046286
 30
0.0
 10
12.3664036652
 20
7.5810399639
 30
0.0
 10
12.3863869559
 20
7.5697077761
 30
0.0
 10
12.4068471766
 20
7.55933486
 30
0.0
 10
12.4277359295
 20
7.5499452174
 30
0.0
 10
12.4490052804
 20
7.5415641768
 30
0.0
 10
12.4706046163
 20
7.5342110129
 30
0.0
 10
12.4924831637
 20
7.5279038025
 30
0.0
 10
12.5145899612
 20
7.5226609606
 30
0.0
 10
12.5368721921
 20
7.5184939488
 30
0.0
 10
12.5592773269
 20
7.5154147048
 30
0.0
 10
12.5817522112
 20
7.5134336506
 30
0.0
 10
12.6042429956
 20
7.5125544975
 30
0.0
 10
12.6266959634
 20
7.5127826131
 30
0.0
 10
12.6490569356
 20
7.5141195196
 30
0.0
 10
12.6712720597
 20
7.5165613669
 30
0.0
 10
12.6932871435
 20
7.5201063219
 30
0.0
 10
12.7150484543
 20
7.5247464384
 30
0.0
 10
12.7365030544
 20
7.5304705468
 30
0.0
 10
12.757597318
 20
7.5372688157
 30
0.0
 10
12.7782796076
 20
7.5451237897
 30
0.0
 10
12.7984987523
 20
7.5540172446
 30
0.0
 10
12.8182032571
 20
7.5639304935
 30
0.0
 10
12.8373451325
 20
7.5748372732
 30
0.0
 10
12.8558759113
 20
7.5867124559
 30
0.0
 10
12.8737483064
 20
7.5995280636
 30
0.0
 10
12.8909191572
 20
7.6132503175
 30
0.0
 10
12.9073439477
 20
7.6278472236
 30
0.0
 10
12.9229817108
 20
7.6432820624
 30
0.0
 10
12.9377949008
 20
7.6595149584
 30
0.0
 10
12.9517444713
 20
7.6765072788
 30
0.0
 10
12.9647973819
 20
7.6942150115
 30
0.0
 10
12.9769222113
 20
7.7125934351
 30
0.0
 10
12.9880871799
 20
7.7315978807
 30
0.0
 10
12.9982677972
 20
7.7511793562
 30
0.0
 10
13.0074390646
 20
7.7712895718
 30
0.0
 10
13.0155779445
 20
7.7918787676
 30
0.0
 10
13.0226684107
 20
7.8128943041
 30
0.0
 10
13.0286927753
 20
7.8342848057
 30
0.0
 10
13.0336375007
 20
7.8559984769
 30
0.0
 10
13.0374939052
 20
7.8779834246
 30
0.0
 10
13.0402512504
 20
7.9001864019
 30
0.0
 10
13.0419064625
 20
7.9225482499
 30
0.0
 10
13.0422741688
 20
7.9375101043
 30
0.0
 10
13.0422742577
 20
7.9449969756
 30
0.0
  0
SPLINE
  5
35D
100
AcDbEntity
  8
0
100
AcDbSpline
 62
7
  6
CONTINUOUS
 70
0
 71
3
 72
65
 73
61
 74
0
 42
0.0000001
 43
0.0000001
 44
0.0000000001
 40
0.0
 40
0.0
 40
0.0
 40
0.0
 40
0.0310480609
 40
0.0464649293
 40
0.0618007306
 40
0.0922348384
 40
0.1223994854
 40
0.1373982457
 40
0.1523450303
 40
0.1672467788
 40
0.1821108896
 40
0.1969449801
 40
0.2117572324
 40
0.2265559705
 40
0.2413496115
 40
0.2561467331
 40
0.2709558136
 40
0.2857852993
 40
0.3006433297
 40
0.3155375112
 40
0.3304753141
 40
0.3454636475
 40
0.3605084679
 40
0.3756154841
 40
0.3907897567
 40
0.4060350812
 40
0.4213548941
 40
0.4367520191
 40
0.4522278894
 40
0.4677834902
 40
0.4834192865
 40
0.4991344099
 40
0.5149274995
 40
0.5307967793
 40
0.5467393109
 40
0.5627516699
 40
0.5788301256
 40
0.6111574632
 40
0.6274047439
 40
0.6436971146
 40
0.6600282604
 40
0.676391787
 40
0.7091799709
 40
0.7255990813
 40
0.7420225206
 40
0.7584429769
 40
0.7748532848
 40
0.7912463688
 40
0.8076151029
 40
0.8239526465
 40
0.8402526437
 40
0.8565088432
 40
0.8727152724
 40
0.8888661846
 40
0.9049558761
 40
0.9369254192
 40
0.9528102449
 40
0.9686226826
 40
0.984355545
 40
1.0
 40
1.0
 40
1.0
 40
1.0
 10
12.9022742481
 20
7.9449972364
 30
0.0
 10
12.9022740321
 20
7.9346383722
 30
0.0
 10
12.9015141703
 20
7.9191211468
 30
0.0
 10
12.8989698997
 20
7.8986532363
 30
0.0
 10
12.8954354976
 20
7.8785392763
 30
0.0
 10
12.8891680249
 20
7.8539444012
 30
0.0
 10
12.8804540033
 20
7.8302242171
 30
0.0
 10
12.8720942282
 20
7.8119861636
 30
0.0
 10
12.8651559922
 20
7.7987211849
 30
0.0
 10
12.857557102
 20
7.7858758802
 30
0.0
 10
12.849316192
 20
7.7734776631
 30
0.0
 10
12.8404513899
 20
7.7615547521
 30
0.0
 10
12.8309840132
 20
7.7501327762
 30
0.0
 10
12.8209361676
 20
7.7392362639
 30
0.0
 10
12.8103292863
 20
7.7288903341
 30
0.0
 10
12.799187441
 20
7.7191176752
 30
0.0
 10
12.7875358824
 20
7.7099393698
 30
0.0
 10
12.7753993288
 20
7.701377386
 30
0.0
 10
12.7628046382
 20
7.6934514728
 30
0.0
 10
12.7497801858
 20
7.6861791986
 30
0.0
 10
12.7363540392
 20
7.6795792302
 30
0.0
 10
12.7225560188
 20
7.6736682133
 30
0.0
 10
12.708417628
 20
7.6684597672
 30
0.0
 10
12.6939703051
 20
7.6639687091
 30
0.0
 10
12.6792468947
 20
7.660208068
 30
0.0
 10
12.6642817891
 20
7.6571868905
 30
0.0
 10
12.6491095365
 20
7.6549153883
 30
0.0
 10
12.633765772
 20
7.6534022537
 30
0.0
 10
12.6182871975
 20
7.6526513006
 30
0.0
 10
12.6027108203
 20
7.6526673586
 30
0.0
 10
12.587074459
 20
7.6534540229
 30
0.0
 10
12.571416226
 20
7.6550093707
 30
0.0
 10
12.5557746118
 20
7.6573322752
 30
0.0
 10
12.5401886482
 20
7.6604206504
 30
0.0
 10
12.5246969355
 20
7.6642665039
 30
0.0
 10
12.5093376989
 20
7.6688627497
 30
0.0
 10
12.4890556794
 20
7.67599177
 30
0.0
 10
12.4692240503
 20
7.6845724498
 30
0.0
 10
12.4500018907
 20
7.6945294512
 30
0.0
 10
12.4358797907
 20
7.7026918538
 30
0.0
 10
12.4221152561
 20
7.7115157963
 30
0.0
 10
12.4042786944
 20
7.7241423522
 30
0.0
 10
12.3873024477
 20
7.7379990893
 30
0.0
 10
12.3713214712
 20
7.752976918
 30
0.0
 10
12.359848569
 20
7.7647547205
 30
0.0
 10
12.3489257084
 20
7.7770398178
 30
0.0
 10
12.3385813244
 20
7.7898029625
 30
0.0
 10
12.3288397134
 20
7.8030104098
 30
0.0
 10
12.3197248579
 20
7.816628804
 30
0.0
 10
12.311260876
 20
7.8306247357
 30
0.0
 10
12.3034666589
 20
7.8449616811
 30
0.0
 10
12.2963608086
 20
7.8596034784
 30
0.0
 10
12.2899622025
 20
7.8745136466
 30
0.0
 10
12.284283665
 20
7.8896539007
 30
0.0
 10
12.2777045085
 20
7.9100477623
 30
0.0
 10
12.2725937083
 20
7.930800376
 30
0.0
 10
12.2690033599
 20
7.9517427671
 30
0.0
 10
12.2670823767
 20
7.9674569737
 30
0.0
 10
12.2659285264
 20
7.9831647654
 30
0.0
 10
12.2656700016
 20
7.9936352572
 30
0.0
 10
12.2656698837
 20
7.9988548677
 30
0.0
  0
SPLINE
  5
35E
100
AcDbEntity
  8
0
100
AcDbSpline
 62
7
  6
CONTINUOUS
 70
0
 71
3
 72
69
 73
65
 74
0
 42
0.0000001
 43
0.0000001
 44
0.0000000001
 40
0.0
 40
0.0
 40
0.0
 40
0.0
 40
0.0312903904
 40
0.0470006528
 40
0.0627445756
 40
0.0785223279
 40
0.0943340764
 40
0.110178696
 40
0.1260536366
 40
0.1419560695
 40
0.1578832983
 40
0.1738324715
 40
0.1898005575
 40
0.2217715317
 40
0.2377758121
 40
0.2537849262
 40
0.2697951068
 40
0.2858026717
 40
0.3018039038
 40
0.3177951149
 40
0.3337728137
 40
0.3497335585
 40
0.3656740791
 40
0.3815913812
 40
0.3974825997
 40
0.4133451737
 40
0.4291768584
 40
0.4449756206
 40
0.4607398374
 40
0.4764681958
 40
0.4921596776
 40
0.5078137322
 40
0.5234300822
 40
0.5390088225
 40
0.5545505019
 40
0.5700558957
 40
0.585526204
 40
0.6009629954
 40
0.616368028
 40
0.6317434933
 40
0.6470918197
 40
0.6624156028
 40
0.6777178217
 40
0.6930015504
 40
0.7082700017
 40
0.7235266723
 40
0.7387750315
 40
0.7540186351
 40
0.7692612099
 40
0.784506353
 40
0.7997576804
 40
0.8150188192
 40
0.8302931417
 40
0.8455840027
 40
0.860894753
 40
0.8762284425
 40
0.8915878651
 40
0.9069752245
 40
0.9223923275
 40
0.9378418307
 40
0.9533270851
 40
0.9688506846
 40
0.9844102313
 40
1.0
 40
1.0
 40
1.0
 40
1.0
 10
13.0422742555
 20
7.9449971731
 30
0.0
 10
13.0422740632
 20
7.9600241447
 30
0.0
 10
13.0411604454
 20
7.9826156757
 30
0.0
 10
13.0374986692
 20
8.012532699
 30
0.0
 10
13.0336583964
 20
8.0348977274
 30
0.0
 10
13.0287417808
 20
8.0570997906
 30
0.0
 10
13.0227601289
 20
8.079089255
 30
0.0
 10
13.0157289681
 20
8.1008148382
 30
0.0
 10
13.0076675757
 20
8.1222260719
 30
0.0
 10
12.9985936337
 20
8.143271448
 30
0.0
 10
12.9885305966
 20
8.1639015798
 30
0.0
 10
12.977503401
 20
8.1840695581
 30
0.0
 10
12.9615451591
 20
8.2102843559
 30
0.0
 10
12.9437663708
 20
8.2353869444
 30
0.0
 10
12.9243093956
 20
8.2591805277
 30
0.0
 10
12.9088980372
 20
8.2763500115
 30
0.0
 10
12.8927119908
 20
8.292792479
 30
0.0
 10
12.8757879366
 20
8.3084689793
 30
0.0
 10
12.8581673355
 20
8.3233440653
 30
0.0
 10
12.8398903313
 20
8.3373813959
 30
0.0
 10
12.8209996061
 20
8.3505472627
 30
0.0
 10
12.8015404472
 20
8.3628119267
 30
0.0
 10
12.7815571558
 20
8.3741441149
 30
0.0
 10
12.7610969333
 20
8.3845170301
 30
0.0
 10
12.7402081784
 20
8.3939066725
 30
0.0
 10
12.718938825
 20
8.4022877139
 30
0.0
 10
12.6973394849
 20
8.4096408768
 30
0.0
 10
12.6754609322
 20
8.4159480879
 30
0.0
 10
12.6533541284
 20
8.4211909295
 30
0.0
 10
12.6310718914
 20
8.4253579385
 30
0.0
 10
12.6086667541
 20
8.4284371832
 30
0.0
 10
12.5861918709
 20
8.4304182347
 30
0.0
 10
12.5637010919
 20
8.4312973835
 30
0.0
 10
12.5412481331
 20
8.4310692684
 30
0.0
 10
12.5188871717
 20
8.4297323612
 30
0.0
 10
12.4966720582
 20
8.4272905132
 30
0.0
 10
12.4746569826
 20
8.4237455592
 30
0.0
 10
12.4528956775
 20
8.4191054442
 30
0.0
 10
12.4314410815
 20
8.4133813372
 30
0.0
 10
12.4103468214
 20
8.4065830698
 30
0.0
 10
12.3896645346
 20
8.3987280982
 30
0.0
 10
12.3694453924
 20
8.3898346446
 30
0.0
 10
12.349740888
 20
8.3799213975
 30
0.0
 10
12.3305990096
 20
8.3690146185
 30
0.0
 10
12.3120682257
 20
8.3571394311
 30
0.0
 10
12.2941958232
 20
8.3443238168
 30
0.0
 10
12.2770249653
 20
8.330601558
 30
0.0
 10
12.2606001707
 20
8.316004651
 30
0.0
 10
12.2449624091
 20
8.3005698127
 30
0.0
 10
12.2301492222
 20
8.2843369174
 30
0.0
 10
12.2161996526
 20
8.2673445966
 30
0.0
 10
12.2031467407
 20
8.2496368609
 30
0.0
 10
12.191021908
 20
8.2312584329
 30
0.0
 10
12.1798569369
 20
8.2122539813
 30
0.0
 10
12.1696763191
 20
8.1926724991
 30
0.0
 10
12.1605050489
 20
8.1725622784
 30
0.0
 10
12.1523661696
 20
8.1519730767
 30
0.0
 10
12.1452757056
 20
8.1309575346
 30
0.0
 10
12.1392513406
 20
8.1095670305
 30
0.0
 10
12.1343066193
 20
8.0878533601
 30
0.0
 10
12.1304502182
 20
8.0658684201
 30
0.0
 10
12.1276928727
 20
8.0436654548
 30
0.0
 10
12.1260376642
 20
8.0213036193
 30
0.0
 10
12.1256699592
 20
8.0063417728
 30
0.0
 10
12.1256698704
 20
7.9988549052
 30
0.0
  0
SPLINE
  5
35F
100
AcDbEntity
  8
0
100
AcDbSpline
 62
7
  6
CONTINUOUS
 70
0
 71
3
 72
65
 73
61
 74
0
 42
0.0000001
 43
0.0000001
 44
0.0000000001
 40
0.0
 40
0.0
 40
0.0
 40
0.0
 40
0.0310480611
 40
0.0464649297
 40
0.061800731
 40
0.0922348386
 40
0.1223994853
 40
0.1373982455
 40
0.1523450299
 40
0.1672467782
 40
0.1821108888
 40
0.1969449792
 40
0.2117572313
 40
0.2265559693
 40
0.2413496102
 40
0.2561467317
 40
0.2709558122
 40
0.285785298
 40
0.3006433284
 40
0.3155375101
 40
0.3304753132
 40
0.3454636469
 40
0.3605084676
 40
0.375615484
 40
0.3907897569
 40
0.4060350815
 40
0.4213548945
 40
0.4367520193
 40
0.4522278892
 40
0.4677834893
 40
0.4834192846
 40
0.4991344067
 40
0.5149274953
 40
0.5307967742
 40
0.5467393053
 40
0.5627516644
 40
0.578830121
 40
0.6111574611
 40
0.6274047431
 40
0.643697115
 40
0.6600282616
 40
0.6763917887
 40
0.7091799725
 40
0.7255990827
 40
0.7420225216
 40
0.7584429775
 40
0.774853285
 40
0.7912463688
 40
0.8076151028
 40
0.8239526467
 40
0.8402526445
 40
0.8565088447
 40
0.8727152748
 40
0.8888661881
 40
0.9049558805
 40
0.9369254242
 40
0.952810249
 40
0.9686226856
 40
0.9843555469
 40
1.0
 40
1.0
 40
1.0
 40
1.0
 10
12.26566988
 20
7.9988546453
 30
0.0
 10
12.265670096
 20
8.0092135095
 30
0.0
 10
12.2664299578
 20
8.024730735
 30
0.0
 10
12.2689742284
 20
8.0451986457
 30
0.0
 10
12.2725086305
 20
8.0653126057
 30
0.0
 10
12.2787761033
 20
8.0899074807
 30
0.0
 10
12.2874901248
 20
8.1136276646
 30
0.0
 10
12.2958498998
 20
8.1318657179
 30
0.0
 10
12.3027881357
 20
8.1451306965
 30
0.0
 10
12.3103870258
 20
8.157976001
 30
0.0
 10
12.3186279357
 20
8.170374218
 30
0.0
 10
12.3274927377
 20
8.1822971289
 30
0.0
 10
12.3369601142
 20
8.1937191047
 30
0.0
 10
12.3470079596
 20
8.2046156169
 30
0.0
 10
12.3576148409
 20
8.2149615467
 30
0.0
 10
12.3687566861
 20
8.2247342057
 30
0.0
 10
12.3804082446
 20
8.2339125111
 30
0.0
 10
12.3925447982
 20
8.2424744949
 30
0.0
 10
12.4051394889
 20
8.2504004083
 30
0.0
 10
12.4181639414
 20
8.2576726826
 30
0.0
 10
12.4315900882
 20
8.2642726512
 30
0.0
 10
12.4453881088
 20
8.2701836682
 30
0.0
 10
12.4595264999
 20
8.2753921144
 30
0.0
 10
12.4739738231
 20
8.2798831726
 30
0.0
 10
12.4886972337
 20
8.2836438137
 30
0.0
 10
12.5036623394
 20
8.2866649912
 30
0.0
 10
12.518834592
 20
8.2889364935
 30
0.0
 10
12.5341783563
 20
8.290449628
 30
0.0
 10
12.5496569304
 20
8.2912005811
 30
0.0
 10
12.5652333069
 20
8.2911845231
 30
0.0
 10
12.5808696672
 20
8.290397859
 30
0.0
 10
12.5965278991
 20
8.2888425115
 30
0.0
 10
12.6121695123
 20
8.2865196071
 30
0.0
 10
12.6277554752
 20
8.2834312323
 30
0.0
 10
12.6432471877
 20
8.2795853794
 30
0.0
 10
12.6586064244
 20
8.2749891335
 30
0.0
 10
12.678888445
 20
8.2678601129
 30
0.0
 10
12.6987200758
 20
8.259279433
 30
0.0
 10
12.7179422368
 20
8.2493224307
 30
0.0
 10
12.7320643378
 20
8.2411600276
 30
0.0
 10
12.745828873
 20
8.2323360847
 30
0.0
 10
12.763665435
 20
8.2197095286
 30
0.0
 10
12.7806416817
 20
8.2058527912
 30
0.0
 10
12.796622658
 20
8.1908749627
 30
0.0
 10
12.8080955599
 20
8.1790971604
 30
0.0
 10
12.8190184202
 20
8.1668120633
 30
0.0
 10
12.829362804
 20
8.1540489189
 30
0.0
 10
12.8391044148
 20
8.1408414717
 30
0.0
 10
12.8482192703
 20
8.1272230775
 30
0.0
 10
12.8566832523
 20
8.1132271455
 30
0.0
 10
12.8644774697
 20
8.0988901996
 30
0.0
 10
12.8715833203
 20
8.0842484017
 30
0.0
 10
12.8779819266
 20
8.0693382326
 30
0.0
 10
12.8836604641
 20
8.0541979774
 30
0.0
 10
12.8902396209
 20
8.033804115
 30
0.0
 10
12.8953504206
 20
8.0130515009
 30
0.0
 10
12.8989407688
 20
7.9921091103
 30
0.0
 10
12.9008617521
 20
7.9763949047
 30
0.0
 10
12.9020156019
 20
7.9606871143
 30
0.0
 10
12.9022741265
 20
7.9502166235
 30
0.0
 10
12.9022742444
 20
7.9449970137
 30
0.0
  0
SPLINE
  5
360
100
AcDbEntity
  8
0
100
AcDbSpline
 62
7
  6
CONTINUOUS
 70
0
 71
3
 72
69
 73
65
 74
0
 42
0.0000001
 43
0.0000001
 44
0.0000000001
 40
0.0
 40
0.0
 40
0.0
 40
0.0
 40
0.0312903911
 40
0.0470006543
 40
0.0627445771
 40
0.0785223289
 40
0.0943340764
 40
0.1101786947
 40
0.126053634
 40
0.1419560655
 40
0.157883293
 40
0.1738324649
 40
0.1898005499
 40
0.2217715222
 40
0.2377758016
 40
0.253784915
 40
0.2697950952
 40
0.2858026601
 40
0.3018038922
 40
0.3177951034
 40
0.333772802
 40
0.3497335464
 40
0.3656740664
 40
0.3815913678
 40
0.3974825851
 40
0.4133451574
 40
0.4291768396
 40
0.4449755982
 40
0.4607398103
 40
0.4764681644
 40
0.4921596439
 40
0.5078136996
 40
0.5234300536
 40
0.5390088005
 40
0.5545504881
 40
0.5700558896
 40
0.5855262037
 40
0.6009629988
 40
0.6163680341
 40
0.631743502
 40
0.6470918309
 40
0.6624156163
 40
0.6777178363
 40
0.6930015641
 40
0.7082700105
 40
0.7235266729
 40
0.7387750246
 40
0.7540186258
 40
0.7692612029
 40
0.7845063491
 40
0.7997576767
 40
0.8150188128
 40
0.8302931311
 40
0.8455839876
 40
0.8608947335
 40
0.876228419
 40
0.8915878381
 40
0.906975194
 40
0.9223922944
 40
0.9378417982
 40
0.9533270585
 40
0.9688506682
 40
0.9844102238
 40
1.0
 40
1.0
 40
1.0
 40
1.0
 10
11.4611126694
 20
8.8292737597
 30
0.0
 10
11.4611128617
 20
8.8142467878
 30
0.0
 10
11.4622264799
 20
8.7916552561
 30
0.0
 10
11.4658882559
 20
8.7617382321
 30
0.0
 10
11.4697285288
 20
8.7393732036
 30
0.0
 10
11.4746451444
 20
8.7171711412
 30
0.0
 10
11.480626796
 20
8.6951816781
 30
0.0
 10
11.4876579561
 20
8.6734560964
 30
0.0
 10
11.4957193477
 20
8.6520448645
 30
0.0
 10
11.5047932888
 20
8.6309994902
 30
0.0
 10
11.5148563245
 20
8.6103693599
 30
0.0
 10
11.525883519
 20
8.590201383
 30
0.0
 10
11.5418417595
 20
8.5639865867
 30
0.0
 10
11.5596205459
 20
8.5388839992
 30
0.0
 10
11.5790775195
 20
8.5150904168
 30
0.0
 10
11.5944888762
 20
8.4979209327
 30
0.0
 10
11.6106749222
 20
8.4814784657
 30
0.0
 10
11.6275989756
 20
8.4658019648
 30
0.0
 10
11.6452195759
 20
8.4509268778
 30
0.0
 10
11.66349658
 20
8.4368895472
 30
0.0
 10
11.6823873042
 20
8.4237236796
 30
0.0
 10
11.7018464621
 20
8.4114590149
 30
0.0
 10
11.7218297528
 20
8.4001268271
 30
0.0
 10
11.7422899734
 20
8.389753911
 30
0.0
 10
11.7631787264
 20
8.3803642684
 30
0.0
 10
11.7844480773
 20
8.3719832278
 30
0.0
 10
11.8060474131
 20
8.3646300639
 30
0.0
 10
11.8279259606
 20
8.3583228535
 30
0.0
 10
11.850032758
 20
8.3530800116
 30
0.0
 10
11.8723149889
 20
8.3489129998
 30
0.0
 10
11.8947201238
 20
8.3458337558
 30
0.0
 10
11.917195008
 20
8.3438527016
 30
0.0
 10
11.9396857924
 20
8.3429735484
 30
0.0
 10
11.9621387603
 20
8.3432016641
 30
0.0
 10
11.9844997325
 20
8.3445385706
 30
0.0
 10
12.0067148565
 20
8.3469804179
 30
0.0
 10
12.0287299404
 20
8.3505253729
 30
0.0
 10
12.0504912512
 20
8.3551654893
 30
0.0
 10
12.0719458513
 20
8.3608895978
 30
0.0
 10
12.0930401148
 20
8.3676878667
 30
0.0
 10
12.1137224044
 20
8.3755428407
 30
0.0
 10
12.1339415492
 20
8.3844362956
 30
0.0
 10
12.153646054
 20
8.3943495445
 30
0.0
 10
12.1727879294
 20
8.4052563242
 30
0.0
 10
12.1913187081
 20
8.4171315069
 30
0.0
 10
12.2091911033
 20
8.4299471146
 30
0.0
 10
12.2263619541
 20
8.4436693685
 30
0.0
 10
12.2427867446
 20
8.4582662746
 30
0.0
 10
12.2584245076
 20
8.4737011134
 30
0.0
 10
12.2732376976
 20
8.4899340094
 30
0.0
 10
12.2871872681
 20
8.5069263298
 30
0.0
 10
12.3002401788
 20
8.5246340625
 30
0.0
 10
12.3123650081
 20
8.5430124861
 30
0.0
 10
12.3235299768
 20
8.5620169317
 30
0.0
 10
12.333710594
 20
8.5815984072
 30
0.0
 10
12.3428818615
 20
8.6017086228
 30
0.0
 10
12.3510207414
 20
8.6222978186
 30
0.0
 10
12.3581112075
 20
8.6433133551
 30
0.0
 10
12.3641355722
 20
8.6647038567
 30
0.0
 10
12.3690802976
 20
8.6864175279
 30
0.0
 10
12.372936702
 20
8.7084024756
 30
0.0
 10
12.3756940472
 20
8.7306054529
 30
0.0
 10
12.3773492593
 20
8.7529673009
 30
0.0
 10
12.3777169657
 20
8.7679291553
 30
0.0
 10
12.3777170545
 20
8.7754160266
 30
0.0
  0
SPLINE
  5
361
100
AcDbEntity
  8
0
100
AcDbSpline
 62
7
  6
CONTINUOUS
 70
0
 71
3
 72
65
 73
61
 74
0
 42
0.0000001
 43
0.0000001
 44
0.0000000001
 40
0.0
 40
0.0
 40
0.0
 40
0.0
 40
0.0310480609
 40
0.0464649293
 40
0.0618007306
 40
0.0922348384
 40
0.1223994854
 40
0.1373982457
 40
0.1523450303
 40
0.1672467788
 40
0.1821108896
 40
0.1969449801
 40
0.2117572324
 40
0.2265559705
 40
0.2413496115
 40
0.2561467331
 40
0.2709558136
 40
0.2857852993
 40
0.3006433297
 40
0.3155375112
 40
0.3304753141
 40
0.3454636475
 40
0.3605084679
 40
0.3756154841
 40
0.3907897567
 40
0.4060350812
 40
0.4213548941
 40
0.4367520191
 40
0.4522278894
 40
0.4677834902
 40
0.4834192865
 40
0.4991344099
 40
0.5149274995
 40
0.5307967793
 40
0.5467393109
 40
0.5627516699
 40
0.5788301256
 40
0.6111574632
 40
0.6274047439
 40
0.6436971146
 40
0.6600282604
 40
0.676391787
 40
0.7091799709
 40
0.7255990813
 40
0.7420225206
 40
0.7584429769
 40
0.7748532848
 40
0.7912463688
 40
0.8076151029
 40
0.8239526465
 40
0.8402526437
 40
0.8565088432
 40
0.8727152724
 40
0.8888661846
 40
0.9049558761
 40
0.9369254192
 40
0.9528102449
 40
0.9686226826
 40
0.984355545
 40
1.0
 40
1.0
 40
1.0
 40
1.0
 10
12.237717045
 20
8.7754162874
 30
0.0
 10
12.237716829
 20
8.7650574232
 30
0.0
 10
12.2369569672
 20
8.7495401978
 30
0.0
 10
12.2344126966
 20
8.7290722873
 30
0.0
 10
12.2308782945
 20
8.7089583273
 30
0.0
 10
12.2246108217
 20
8.6843634522
 30
0.0
 10
12.2158968001
 20
8.6606432681
 30
0.0
 10
12.207537025
 20
8.6424052146
 30
0.0
 10
12.200598789
 20
8.6291402359
 30
0.0
 10
12.1929998989
 20
8.6162949312
 30
0.0
 10
12.1847589888
 20
8.6038967141
 30
0.0
 10
12.1758941867
 20
8.5919738031
 30
0.0
 10
12.16642681
 20
8.5805518272
 30
0.0
 10
12.1563789645
 20
8.5696553149
 30
0.0
 10
12.1457720831
 20
8.5593093851
 30
0.0
 10
12.1346302378
 20
8.5495367262
 30
0.0
 10
12.1229786793
 20
8.5403584208
 30
0.0
 10
12.1108421257
 20
8.531796437
 30
0.0
 10
12.0982474351
 20
8.5238705238
 30
0.0
 10
12.0852229826
 20
8.5165982496
 30
0.0
 10
12.071796836
 20
8.5099982812
 30
0.0
 10
12.0579988156
 20
8.5040872642
 30
0.0
 10
12.0438604248
 20
8.4988788182
 30
0.0
 10
12.0294131019
 20
8.4943877601
 30
0.0
 10
12.0146896915
 20
8.490627119
 30
0.0
 10
11.999724586
 20
8.4876059415
 30
0.0
 10
11.9845523333
 20
8.4853344393
 30
0.0
 10
11.9692085688
 20
8.4838213047
 30
0.0
 10
11.9537299944
 20
8.4830703516
 30
0.0
 10
11.9381536172
 20
8.4830864096
 30
0.0
 10
11.9225172559
 20
8.4838730739
 30
0.0
 10
11.9068590229
 20
8.4854284217
 30
0.0
 10
11.8912174086
 20
8.4877513262
 30
0.0
 10
11.8756314451
 20
8.4908397014
 30
0.0
 10
11.8601397323
 20
8.4946855549
 30
0.0
 10
11.8447804958
 20
8.4992818007
 30
0.0
 10
11.8244984763
 20
8.506410821
 30
0.0
 10
11.8046668471
 20
8.5149915008
 30
0.0
 10
11.7854446875
 20
8.5249485022
 30
0.0
 10
11.7713225875
 20
8.5331109048
 30
0.0
 10
11.7575580529
 20
8.5419348473
 30
0.0
 10
11.7397214913
 20
8.5545614031
 30
0.0
 10
11.7227452446
 20
8.5684181403
 30
0.0
 10
11.706764268
 20
8.583395969
 30
0.0
 10
11.6952913659
 20
8.5951737714
 30
0.0
 10
11.6843685053
 20
8.6074588688
 30
0.0
 10
11.6740241212
 20
8.6202220135
 30
0.0
 10
11.6642825103
 20
8.6334294608
 30
0.0
 10
11.6551676548
 20
8.647047855
 30
0.0
 10
11.6467036729
 20
8.6610437867
 30
0.0
 10
11.6389094557
 20
8.6753807321
 30
0.0
 10
11.6318036054
 20
8.6900225294
 30
0.0
 10
11.6254049994
 20
8.7049326976
 30
0.0
 10
11.6197264619
 20
8.7200729517
 30
0.0
 10
11.6131473053
 20
8.7404668133
 30
0.0
 10
11.6080365052
 20
8.761219427
 30
0.0
 10
11.6044461568
 20
8.7821618181
 30
0.0
 10
11.6025251735
 20
8.7978760247
 30
0.0
 10
11.6013713232
 20
8.8135838164
 30
0.0
 10
11.6011127984
 20
8.8240543082
 30
0.0
 10
11.6011126805
 20
8.8292739187
 30
0.0
  0
SPLINE
  5
362
100
AcDbEntity
  8
0
100
AcDbSpline
 62
7
  6
CONTINUOUS
 70
0
 71
3
 72
69
 73
65
 74
0
 42
0.0000001
 43
0.0000001
 44
0.0000000001
 40
0.0
 40
0.0
 40
0.0
 40
0.0
 40
0.0312903904
 40
0.0470006528
 40
0.0627445756
 40
0.0785223279
 40
0.0943340764
 40
0.110178696
 40
0.1260536366
 40
0.1419560695
 40
0.1578832983
 40
0.1738324715
 40
0.1898005575
 40
0.2217715317
 40
0.2377758121
 40
0.2537849262
 40
0.2697951068
 40
0.2858026717
 40
0.3018039038
 40
0.3177951149
 40
0.3337728137
 40
0.3497335585
 40
0.3656740791
 40
0.3815913812
 40
0.3974825997
 40
0.4133451737
 40
0.4291768584
 40
0.4449756206
 40
0.4607398374
 40
0.4764681958
 40
0.4921596776
 40
0.5078137322
 40
0.5234300822
 40
0.5390088225
 40
0.5545505019
 40
0.5700558957
 40
0.585526204
 40
0.6009629954
 40
0.616368028
 40
0.6317434933
 40
0.6470918197
 40
0.6624156028
 40
0.6777178217
 40
0.6930015504
 40
0.7082700017
 40
0.7235266723
 40
0.7387750315
 40
0.7540186351
 40
0.7692612099
 40
0.784506353
 40
0.7997576804
 40
0.8150188192
 40
0.8302931417
 40
0.8455840027
 40
0.860894753
 40
0.8762284425
 40
0.8915878651
 40
0.9069752245
 40
0.9223923275
 40
0.9378418307
 40
0.9533270851
 40
0.9688506846
 40
0.9844102313
 40
1.0
 40
1.0
 40
1.0
 40
1.0
 10
12.3777170524
 20
8.7754162241
 30
0.0
 10
12.3777168601
 20
8.7904431957
 30
0.0
 10
12.3766032422
 20
8.8130347267
 30
0.0
 10
12.3729414661
 20
8.84295175
 30
0.0
 10
12.3691011932
 20
8.8653167784
 30
0.0
 10
12.3641845777
 20
8.8875188416
 30
0.0
 10
12.3582029257
 20
8.909508306
 30
0.0
 10
12.3511717649
 20
8.9312338892
 30
0.0
 10
12.3431103725
 20
8.9526451229
 30
0.0
 10
12.3340364306
 20
8.973690499
 30
0.0
 10
12.3239733935
 20
8.9943206308
 30
0.0
 10
12.3129461979
 20
9.0144886091
 30
0.0
 10
12.296987956
 20
9.0407034069
 30
0.0
 10
12.2792091676
 20
9.0658059954
 30
0.0
 10
12.2597521925
 20
9.0895995787
 30
0.0
 10
12.2443408341
 20
9.1067690625
 30
0.0
 10
12.2281547876
 20
9.12321153
 30
0.0
 10
12.2112307334
 20
9.1388880303
 30
0.0
 10
12.1936101323
 20
9.1537631163
 30
0.0
 10
12.1753331281
 20
9.1678004469
 30
0.0
 10
12.156442403
 20
9.1809663137
 30
0.0
 10
12.1369832441
 20
9.1932309777
 30
0.0
 10
12.1169999527
 20
9.2045631659
 30
0.0
 10
12.0965397302
 20
9.2149360811
 30
0.0
 10
12.0756509753
 20
9.2243257235
 30
0.0
 10
12.0543816218
 20
9.2327067649
 30
0.0
 10
12.0327822817
 20
9.2400599278
 30
0.0
 10
12.0109037291
 20
9.2463671389
 30
0.0
 10
11.9887969252
 20
9.2516099805
 30
0.0
 10
11.9665146883
 20
9.2557769895
 30
0.0
 10
11.9441095509
 20
9.2588562342
 30
0.0
 10
11.9216346677
 20
9.2608372857
 30
0.0
 10
11.8991438888
 20
9.2617164345
 30
0.0
 10
11.8766909299
 20
9.2614883194
 30
0.0
 10
11.8543299685
 20
9.2601514122
 30
0.0
 10
11.8321148551
 20
9.2577095642
 30
0.0
 10
11.8100997795
 20
9.2541646102
 30
0.0
 10
11.7883384743
 20
9.2495244952
 30
0.0
 10
11.7668838783
 20
9.2438003882
 30
0.0
 10
11.7457896183
 20
9.2370021208
 30
0.0
 10
11.7251073315
 20
9.2291471492
 30
0.0
 10
11.7048881893
 20
9.2202536955
 30
0.0
 10
11.6851836848
 20
9.2103404485
 30
0.0
 10
11.6660418064
 20
9.1994336695
 30
0.0
 10
11.6475110226
 20
9.1875584821
 30
0.0
 10
11.6296386201
 20
9.1747428678
 30
0.0
 10
11.6124677621
 20
9.161020609
 30
0.0
 10
11.5960429676
 20
9.146423702
 30
0.0
 10
11.5804052059
 20
9.1309888637
 30
0.0
 10
11.5655920191
 20
9.1147559684
 30
0.0
 10
11.5516424494
 20
9.0977636476
 30
0.0
 10
11.5385895375
 20
9.0800559119
 30
0.0
 10
11.5264647048
 20
9.0616774839
 30
0.0
 10
11.5152997338
 20
9.0426730323
 30
0.0
 10
11.505119116
 20
9.0230915501
 30
0.0
 10
11.4959478458
 20
9.0029813294
 30
0.0
 10
11.4878089664
 20
8.9823921277
 30
0.0
 10
11.4807185025
 20
8.9613765856
 30
0.0
 10
11.4746941374
 20
8.9399860815
 30
0.0
 10
11.4697494161
 20
8.9182724111
 30
0.0
 10
11.4658930151
 20
8.8962874711
 30
0.0
 10
11.4631356696
 20
8.8740845058
 30
0.0
 10
11.461480461
 20
8.8517226703
 30
0.0
 10
11.461112756
 20
8.8367608238
 30
0.0
 10
11.4611126673
 20
8.8292739562
 30
0.0
  0
SPLINE
  5
363
100
AcDbEntity
  8
0
100
AcDbSpline
 62
7
  6
CONTINUOUS
 70
0
 71
3
 72
65
 73
61
 74
0
 42
0.0000001
 43
0.0000001
 44
0.0000000001
 40
0.0
 40
0.0
 40
0.0
 40
0.0
 40
0.0310480611
 40
0.0464649297
 40
0.061800731
 40
0.0922348386
 40
0.1223994853
 40
0.1373982455
 40
0.1523450299
 40
0.1672467782
 40
0.1821108888
 40
0.1969449792
 40
0.2117572313
 40
0.2265559693
 40
0.2413496102
 40
0.2561467317
 40
0.2709558122
 40
0.285785298
 40
0.3006433284
 40
0.3155375101
 40
0.3304753132
 40
0.3454636469
 40
0.3605084676
 40
0.375615484
 40
0.3907897569
 40
0.4060350815
 40
0.4213548945
 40
0.4367520193
 40
0.4522278892
 40
0.4677834893
 40
0.4834192846
 40
0.4991344067
 40
0.5149274953
 40
0.5307967742
 40
0.5467393053
 40
0.5627516644
 40
0.578830121
 40
0.6111574611
 40
0.6274047431
 40
0.643697115
 40
0.6600282616
 40
0.6763917887
 40
0.7091799725
 40
0.7255990827
 40
0.7420225216
 40
0.7584429775
 40
0.774853285
 40
0.7912463688
 40
0.8076151028
 40
0.8239526467
 40
0.8402526445
 40
0.8565088447
 40
0.8727152748
 40
0.8888661881
 40
0.9049558805
 40
0.9369254242
 40
0.952810249
 40
0.9686226856
 40
0.9843555469
 40
1.0
 40
1.0
 40
1.0
 40
1.0
 10
11.6011126768
 20
8.8292736963
 30
0.0
 10
11.6011128928
 20
8.8396325605
 30
0.0
 10
11.6018727547
 20
8.855149786
 30
0.0
 10
11.6044170253
 20
8.8756176967
 30
0.0
 10
11.6079514274
 20
8.8957316567
 30
0.0
 10
11.6142189001
 20
8.9203265317
 30
0.0
 10
11.6229329217
 20
8.9440467156
 30
0.0
 10
11.6312926967
 20
8.9622847688
 30
0.0
 10
11.6382309326
 20
8.9755497475
 30
0.0
 10
11.6458298226
 20
8.988395052
 30
0.0
 10
11.6540707325
 20
9.000793269
 30
0.0
 10
11.6629355345
 20
9.0127161799
 30
0.0
 10
11.6724029111
 20
9.0241381557
 30
0.0
 10
11.6824507565
 20
9.0350346679
 30
0.0
 10
11.6930576378
 20
9.0453805977
 30
0.0
 10
11.704199483
 20
9.0551532567
 30
0.0
 10
11.7158510414
 20
9.0643315621
 30
0.0
 10
11.7279875951
 20
9.0728935459
 30
0.0
 10
11.7405822857
 20
9.0808194593
 30
0.0
 10
11.7536067383
 20
9.0880917336
 30
0.0
 10
11.7670328851
 20
9.0946917022
 30
0.0
 10
11.7808309057
 20
9.1006027192
 30
0.0
 10
11.7949692968
 20
9.1058111654
 30
0.0
 10
11.8094166199
 20
9.1103022236
 30
0.0
 10
11.8241400305
 20
9.1140628647
 30
0.0
 10
11.8391051362
 20
9.1170840422
 30
0.0
 10
11.8542773889
 20
9.1193555445
 30
0.0
 10
11.8696211532
 20
9.120868679
 30
0.0
 10
11.8850997273
 20
9.1216196321
 30
0.0
 10
11.9006761037
 20
9.1216035741
 30
0.0
 10
11.9163124641
 20
9.12081691
 30
0.0
 10
11.931970696
 20
9.1192615625
 30
0.0
 10
11.9476123092
 20
9.1169386581
 30
0.0
 10
11.963198272
 20
9.1138502833
 30
0.0
 10
11.9786899845
 20
9.1100044304
 30
0.0
 10
11.9940492212
 20
9.1054081845
 30
0.0
 10
12.0143312419
 20
9.0982791639
 30
0.0
 10
12.0341628726
 20
9.089698484
 30
0.0
 10
12.0533850336
 20
9.0797414817
 30
0.0
 10
12.0675071346
 20
9.0715790786
 30
0.0
 10
12.0812716699
 20
9.0627551357
 30
0.0
 10
12.0991082319
 20
9.0501285796
 30
0.0
 10
12.1160844785
 20
9.0362718422
 30
0.0
 10
12.1320654549
 20
9.0212940137
 30
0.0
 10
12.1435383567
 20
9.0095162114
 30
0.0
 10
12.154461217
 20
8.9972311143
 30
0.0
 10
12.1648056009
 20
8.9844679699
 30
0.0
 10
12.1745472117
 20
8.9712605227
 30
0.0
 10
12.1836620671
 20
8.9576421285
 30
0.0
 10
12.1921260492
 20
8.9436461965
 30
0.0
 10
12.1999202665
 20
8.9293092506
 30
0.0
 10
12.2070261172
 20
8.9146674527
 30
0.0
 10
12.2134247234
 20
8.8997572836
 30
0.0
 10
12.219103261
 20
8.8846170284
 30
0.0
 10
12.2256824177
 20
8.864223166
 30
0.0
 10
12.2307932175
 20
8.8434705519
 30
0.0
 10
12.2343835657
 20
8.8225281613
 30
0.0
 10
12.2363045489
 20
8.8068139557
 30
0.0
 10
12.2374583987
 20
8.7911061653
 30
0.0
 10
12.2377169234
 20
8.7806356745
 30
0.0
 10
12.2377170413
 20
8.7754160647
 30
0.0
  0
SPLINE
  5
364
100
AcDbEntity
  8
0
100
AcDbSpline
 62
7
  6
CONTINUOUS
 70
0
 71
3
 72
32
 73
28
 74
0
 42
0.0000001
 43
0.0000001
 44
0.0000000001
 40
0.0
 40
0.0
 40
0.0
 40
0.0
 40
0.0712705005
 40
0.1436241733
 40
0.2165535994
 40
0.2895567216
 40
0.3621245975
 40
0.4337547553
 40
0.5039521244
 40
0.5383628366
 40
0.5722360062
 40
0.6055139108
 40
0.638140778
 40
0.6700617661
 40
0.7012243113
 40
0.7315773242
 40
0.7610719405
 40
0.7896617033
 40
0.8173021522
 40
0.8439522628
 40
0.8695730506
 40
0.894129795
 40
0.9175905645
 40
0.9399281084
 40
0.9611195596
 40
0.981147186
 40
1.0
 40
1.0
 40
1.0
 40
1.0
 10
6.5577635303
 20
8.5870553408
 30
0.0
 10
6.5577635303
 20
8.611136017
 30
0.0
 10
6.5583278087
 20
8.6596649717
 30
0.0
 10
6.5607992857
 20
8.7327972532
 30
0.0
 10
6.5648868054
 20
8.806443634
 30
0.0
 10
6.5705596204
 20
8.8800573309
 30
0.0
 10
6.5777760955
 20
8.9530948445
 30
0.0
 10
6.5864824238
 20
9.0250149166
 30
0.0
 10
6.59498021
 20
9.0839583231
 30
0.0
 10
6.6024899313
 20
9.1301423788
 30
0.0
 10
6.6084137122
 20
9.163943561
 30
0.0
 10
6.6146555965
 20
9.1970743218
 30
0.0
 10
6.6212034391
 20
9.2294733792
 30
0.0
 10
6.6280455933
 20
9.2610807128
 30
0.0
 10
6.6351689418
 20
9.2918378267
 30
0.0
 10
6.6425604221
 20
9.3216878009
 30
0.0
 10
6.650206344
 20
9.3505753999
 30
0.0
 10
6.658092172
 20
9.3784472467
 30
0.0
 10
6.6662037667
 20
9.4052517722
 30
0.0
 10
6.6745253367
 20
9.430939555
 30
0.0
 10
6.6830421529
 20
9.4554631029
 30
0.0
 10
6.6917376672
 20
9.4787773333
 30
0.0
 10
6.7005962575
 20
9.5008393129
 30
0.0
 10
6.7096011894
 20
9.5216085708
 30
0.0
 10
6.718735821
 20
9.5410473242
 30
0.0
 10
6.7279834611
 20
9.5591195902
 30
0.0
 10
6.7344073236
 20
9.5705835539
 30
0.0
 10
6.7376433837
 20
9.5760702648
 30
0.0
  0
SPLINE
  5
365
100
AcDbEntity
  8
0
100
AcDbSpline
 62
7
  6
CONTINUOUS
 70
0
 71
3
 72
11
 73
7
 74
0
 42
0.0000001
 43
0.0000001
 44
0.0000000001
 40
0.0
 40
0.0
 40
0.0
 40
0.0
 40
0.2292230575
 40
0.4717687876
 40
0.7284756865
 40
1.0
 40
1.0
 40
1.0
 40
1.0
 10
6.7330990532
 20
7.8430730055
 30
0.0
 10
6.7307474376
 20
7.845182615
 30
0.0
 10
6.7260805511
 20
7.8497201112
 30
0.0
 10
6.7193834544
 20
7.8572092405
 30
0.0
 10
6.7128052468
 20
7.8655581403
 30
0.0
 10
6.7086223122
 20
7.8715214298
 30
0.0
 10
6.7065480807
 20
7.8746361793
 30
0.0
  0
SPLINE
  5
366
100
AcDbEntity
  8
0
100
AcDbSpline
 62
7
  6
CONTINUOUS
 70
0
 71
3
 72
9
 73
5
 74
0
 42
0.0000001
 43
0.0000001
 44
0.0000000001
 40
0.0
 40
0.0
 40
0.0
 40
0.0
 40
0.5037870669
 40
1.0
 40
1.0
 40
1.0
 40
1.0
 10
6.7065480807
 20
7.8746361793
 30
0.0
 10
6.6970098777
 20
7.8930022675
 30
0.0
 10
6.6787287786
 20
7.929801923
 30
0.0
 10
6.6620112629
 20
7.9673436724
 30
0.0
 10
6.6541775398
 20
7.9861623313
 30
0.0
  0
SPLINE
  5
367
100
AcDbEntity
  8
0
100
AcDbSpline
 62
7
  6
CONTINUOUS
 70
0
 71
3
 72
27
 73
23
 74
0
 42
0.0000001
 43
0.0000001
 44
0.0000000001
 40
0.0
 40
0.0
 40
0.0
 40
0.0
 40
0.0207059008
 40
0.0422069699
 40
0.0645006196
 40
0.0875817017
 40
0.1114437157
 40
0.1360792562
 40
0.1614794813
 40
0.1876336879
 40
0.2421563378
 40
0.2995466757
 40
0.359686744
 40
0.4224467812
 40
0.4876850228
 40
0.5552503457
 40
0.6249829322
 40
0.6967125428
 40
0.7702617685
 40
0.8454542418
 40
0.9221072878
 40
1.0
 40
1.0
 40
1.0
 40
1.0
 10
6.6312111072
 20
8.0413414807
 30
0.0
 10
6.6297430702
 20
8.0448685416
 30
0.0
 10
6.6268461124
 20
8.0520981741
 30
0.0
 10
6.6226873679
 20
8.0632497585
 30
0.0
 10
6.6186362795
 20
8.0749058634
 30
0.0
 10
6.6146954078
 20
8.0870583588
 30
0.0
 10
6.6108673955
 20
8.0996989748
 30
0.0
 10
6.607155004
 20
8.1128192225
 30
0.0
 10
6.603560831
 20
8.1264102443
 30
0.0
 10
6.5988640841
 20
8.1454110143
 30
0.0
 10
6.5933261759
 20
8.1702801878
 30
0.0
 10
6.5872774178
 20
8.2014470391
 30
0.0
 10
6.5817531168
 20
8.2342531378
 30
0.0
 10
6.5767688517
 20
8.2686090034
 30
0.0
 10
6.5723383057
 20
8.3044212398
 30
0.0
 10
6.5684737768
 20
8.3415923871
 30
0.0
 10
6.5651862159
 20
8.3800210182
 30
0.0
 10
6.5624844123
 20
8.4196018211
 30
0.0
 10
6.5603761338
 20
8.4602273088
 30
0.0
 10
6.5588669874
 20
8.5017883962
 30
0.0
 10
6.5579618787
 20
8.544168436
 30
0.0
 10
6.5577635303
 20
8.5726836097
 30
0.0
 10
6.5577635303
 20
8.5870553408
 30
0.0
  0
SPLINE
  5
368
100
AcDbEntity
  8
0
100
AcDbSpline
 62
7
  6
CONTINUOUS
 70
0
 71
3
 72
23
 73
19
 74
0
 42
0.0000001
 43
0.0000001
 44
0.0000000001
 40
0.0
 40
0.0
 40
0.0
 40
0.0
 40
0.0451313148
 40
0.092131657
 40
0.1412062592
 40
0.1925313828
 40
0.2462467886
 40
0.3024542518
 40
0.3612171111
 40
0.4225601237
 40
0.4864751204
 40
0.5529219327
 40
0.6218365914
 40
0.6931332079
 40
0.7667115222
 40
0.8424614309
 40
0.9202652281
 40
1.0
 40
1.0
 40
1.0
 40
1.0
 10
6.7536577719
 20
9.6032221379
 30
0.0
 10
6.7556221638
 20
9.6065562407
 30
0.0
 10
6.7598728933
 20
9.6132233699
 30
0.0
 10
6.7670432102
 20
9.622989107
 30
0.0
 10
6.7751421972
 20
9.6327018159
 30
0.0
 10
6.7841774381
 20
9.6423539481
 30
0.0
 10
6.7941492018
 20
9.6519397683
 30
0.0
 10
6.8050501747
 20
9.6614539122
 30
0.0
 10
6.8168661275
 20
9.670891335
 30
0.0
 10
6.8295754245
 20
9.6802486354
 30
0.0
 10
6.8431511412
 20
9.6895220764
 30
0.0
 10
6.8575604198
 20
9.6987101649
 30
0.0
 10
6.8727670956
 20
9.7078109054
 30
0.0
 10
6.8887313277
 20
9.7168244278
 30
0.0
 10
6.9054119845
 20
9.7257506419
 30
0.0
 10
6.9227666413
 20
9.734590945
 30
0.0
 10
6.940752786
 20
9.7433467927
 30
0.0
 10
6.9529929096
 20
9.7490620453
 30
0.0
 10
6.9592083038
 20
9.75191003
 30
0.0
  0
SPLINE
  5
369
100
AcDbEntity
  8
0
100
AcDbSpline
 62
7
  6
CONTINUOUS
 70
0
 71
3
 72
11
 73
7
 74
0
 42
0.0000001
 43
0.0000001
 44
0.0000000001
 40
0.0
 40
0.0
 40
0.0
 40
0.0
 40
0.2464369184
 40
0.4944390096
 40
0.7451834725
 40
1.0
 40
1.0
 40
1.0
 40
1.0
 10
6.7330990532
 20
9.5335052523
 30
0.0
 10
6.7332185826
 20
9.5367852291
 30
0.0
 10
6.7336659221
 20
9.5433605481
 30
0.0
 10
6.7349965573
 20
9.5532031196
 30
0.0
 10
6.7370280405
 20
9.5630397763
 30
0.0
 10
6.7388579076
 20
9.5695267563
 30
0.0
 10
6.7398955126
 20
9.5727580044
 30
0.0
  0
SPLINE
  5
36A
100
AcDbEntity
  8
0
100
AcDbSpline
 62
7
  6
CONTINUOUS
 70
0
 71
3
 72
11
 73
7
 74
0
 42
0.0000001
 43
0.0000001
 44
0.0000000001
 40
0.0
 40
0.0
 40
0.0
 40
0.0
 40
0.2417916764
 40
0.4884640661
 40
0.7409060817
 40
1.0
 40
1.0
 40
1.0
 40
1.0
 10
6.7398955126
 20
9.5727580044
 30
0.0
 10
6.7407208425
 20
9.5753281979
 30
0.0
 10
6.7425362561
 20
9.5804741682
 30
0.0
 10
6.7457246326
 20
9.5881112885
 30
0.0
 10
6.7494188494
 20
9.5957322476
 30
0.0
 10
6.752189401
 20
9.6007299166
 30
0.0
 10
6.7536577719
 20
9.6032221379
 30
0.0
  0
SPLINE
  5
36B
100
AcDbEntity
  8
0
100
AcDbSpline
 62
7
  6
CONTINUOUS
 70
0
 71
3
 72
22
 73
18
 74
0
 42
0.0000001
 43
0.0000001
 44
0.0000000001
 40
0.0
 40
0.0
 40
0.0
 40
0.0
 40
0.0663157149
 40
0.132011485
 40
0.1970891827
 40
0.2615583494
 40
0.3254376815
 40
0.3887530869
 40
0.4515388612
 40
0.5138341593
 40
0.5756835809
 40
0.6371336674
 40
0.698232294
 40
0.7590265307
 40
0.8195609647
 40
0.8798786283
 40
1.0
 40
1.0
 40
1.0
 40
1.0
 10
6.6326140709
 20
8.0418694489
 30
0.0
 10
6.6291836476
 20
8.0514761944
 30
0.0
 10
6.622624211
 20
8.0706975021
 30
0.0
 10
6.6136964396
 20
8.0996747059
 30
0.0
 10
6.6057598038
 20
8.1286451827
 30
0.0
 10
6.5988430165
 20
8.1575890076
 30
0.0
 10
6.5929635264
 20
8.1864849447
 30
0.0
 10
6.588133455
 20
8.2153123413
 30
0.0
 10
6.5843503216
 20
8.2440500377
 30
0.0
 10
6.5816070355
 20
8.2726789949
 30
0.0
 10
6.5798826037
 20
8.3011813429
 30
0.0
 10
6.5791514272
 20
8.3295420599
 30
0.0
 10
6.579378362
 20
8.3577486638
 30
0.0
 10
6.5805238619
 20
8.3857914771
 30
0.0
 10
6.5825438521
 20
8.4136643681
 30
0.0
 10
6.5863346734
 20
8.4505411739
 30
0.0
 10
6.5903547257
 20
8.4780221871
 30
0.0
 10
6.5934934553
 20
8.496231023
 30
0.0
  0
SPLINE
  5
36C
100
AcDbEntity
  8
0
100
AcDbSpline
 62
7
  6
CONTINUOUS
 70
0
 71
3
 72
9
 73
5
 74
0
 42
0.0000001
 43
0.0000001
 44
0.0000000001
 40
0.0
 40
0.0
 40
0.0
 40
0.0
 40
0.5131620777
 40
1.0
 40
1.0
 40
1.0
 40
1.0
 10
6.7065480807
 20
9.4506495352
 30
0.0
 10
6.7107101446
 20
9.4649399484
 30
0.0
 10
6.7191652483
 20
9.4926889149
 30
0.0
 10
6.7283929308
 20
9.5201919088
 30
0.0
 10
6.7330990532
 20
9.5335052523
 30
0.0
  0
SPLINE
  5
36D
100
AcDbEntity
  8
0
100
AcDbSpline
 62
7
  6
CONTINUOUS
 70
0
 71
3
 72
26
 73
22
 74
0
 42
0.0000001
 43
0.0000001
 44
0.0000000001
 40
0.0
 40
0.0
 40
0.0
 40
0.0
 40
0.1232094174
 40
0.1849745086
 40
0.2468573045
 40
0.3088673115
 40
0.3399237268
 40
0.3710151144
 40
0.4021419355
 40
0.4333048834
 40
0.4957378498
 40
0.5583173034
 40
0.5896625766
 40
0.6210433665
 40
0.6524589847
 40
0.6839083828
 40
0.7469028116
 40
0.8100195826
 40
0.8732481922
 40
0.9365791369
 40
1.0
 40
1.0
 40
1.0
 40
1.0
 10
6.5934934553
 20
8.6106499139
 30
0.0
 10
6.589219045
 20
8.6456108141
 30
0.0
 10
6.5840819779
 20
8.6982716883
 30
0.0
 10
6.5802626939
 20
8.7687442835
 30
0.0
 10
6.5790259949
 20
8.8218121081
 30
0.0
 10
6.5794459084
 20
8.8661136869
 30
0.0
 10
6.580695504
 20
8.9015855412
 30
0.0
 10
6.5821009531
 20
8.9282138241
 30
0.0
 10
6.5839804052
 20
8.9548434369
 30
0.0
 10
6.5871299628
 20
8.9903595076
 30
0.0
 10
6.592281216
 20
9.0347169229
 30
0.0
 10
6.5990505954
 20
9.0789089837
 30
0.0
 10
6.6054242477
 20
9.1141594092
 30
0.0
 10
6.6106817857
 20
9.1405541087
 30
0.0
 10
6.6164041658
 20
9.1668823414
 30
0.0
 10
6.6246467484
 20
9.2019057219
 30
0.0
 10
6.6360628173
 20
9.2454850364
 30
0.0
 10
6.6514296581
 20
9.2973919105
 30
0.0
 10
6.6683522972
 20
9.3489130899
 30
0.0
 10
6.6867055947
 20
9.400032947
 30
0.0
 10
6.6998026917
 20
9.4338213143
 30
0.0
 10
6.7065480807
 20
9.4506495352
 30
0.0
  0
SPLINE
  5
36E
100
AcDbEntity
  8
0
100
AcDbSpline
 62
7
  6
CONTINUOUS
 70
0
 71
3
 72
41
 73
37
 74
0
 42
0.0000001
 43
0.0000001
 44
0.0000000001
 40
0.0
 40
0.0
 40
0.0
 40
0.0
 40
0.0311445023
 40
0.0624426262
 40
0.0938874266
 40
0.1254698196
 40
0.1571774021
 40
0.173076041
 40
0.1890002642
 40
0.2209118757
 40
0.2528982414
 40
0.2689155192
 40
0.2849438007
 40
0.3170178868
 40
0.3491032421
 40
0.3811777079
 40
0.4132193358
 40
0.4452068114
 40
0.4771198707
 40
0.5089397015
 40
0.540649324
 40
0.5722339448
 40
0.6036812775
 40
0.6349818227
 40
0.6661291006
 40
0.6971198291
 40
0.7279540411
 40
0.7586351339
 40
0.7891698461
 40
0.8195681577
 40
0.8498431118
 40
0.8800105574
 40
0.9100888178
 40
0.9400982893
 40
0.9700609798
 40
1.0
 40
1.0
 40
1.0
 40
1.0
 10
10.2816850772
 20
9.5140548889
 30
0.0
 10
10.2868505961
 20
9.513696659
 30
0.0
 10
10.2971847375
 20
9.5126003176
 30
0.0
 10
10.3125606179
 20
9.5098386935
 30
0.0
 10
10.327771927
 20
9.5059703461
 30
0.0
 10
10.3427360159
 20
9.5010164182
 30
0.0
 10
10.3549247148
 20
9.4960092054
 30
0.0
 10
10.3644739233
 20
9.4914912538
 30
0.0
 10
10.3738910169
 20
9.4866294882
 30
0.0
 10
10.3853612173
 20
9.4799327405
 30
0.0
 10
10.3963568698
 20
9.4724550783
 30
0.0
 10
10.4048425203
 20
9.4660237701
 30
0.0
 10
10.4131146625
 20
9.4592969806
 30
0.0
 10
10.4230221732
 20
9.4503598123
 30
0.0
 10
10.4341527926
 20
9.4388499743
 30
0.0
 10
10.4444701674
 20
9.4266124017
 30
0.0
 10
10.4539189166
 20
9.4137125955
 30
0.0
 10
10.4624487444
 20
9.4002192161
 30
0.0
 10
10.4700141059
 20
9.3862041805
 30
0.0
 10
10.4765746092
 20
9.3717421609
 30
0.0
 10
10.4820951874
 20
9.3569102242
 30
0.0
 10
10.4865462965
 20
9.3417874184
 30
0.0
 10
10.4899040717
 20
9.3264543589
 30
0.0
 10
10.4921504579
 20
9.3109928039
 30
0.0
 10
10.4932733091
 20
9.2954852247
 30
0.0
 10
10.4932664593
 20
9.2800143713
 30
0.0
 10
10.4921297623
 20
9.2646628349
 30
0.0
 10
10.4898691009
 20
9.2495126108
 30
0.0
 10
10.4864963655
 20
9.2346446624
 30
0.0
 10
10.4820293986
 20
9.2201384863
 30
0.0
 10
10.4764919172
 20
9.2060716911
 30
0.0
 10
10.469913369
 20
9.192519551
 30
0.0
 10
10.462328884
 20
9.1795546914
 30
0.0
 10
10.4537787174
 20
9.1672463289
 30
0.0
 10
10.4443094326
 20
9.1556612319
 30
0.0
 10
10.4374145379
 20
9.1484583612
 30
0.0
 10
10.4338344406
 20
9.1450002558
 30
0.0
  0
SPLINE
  5
36F
100
AcDbEntity
  8
0
100
AcDbSpline
 62
7
  6
CONTINUOUS
 70
0
 71
3
 72
41
 73
37
 74
0
 42
0.0000001
 43
0.0000001
 44
0.0000000001
 40
0.0
 40
0.0
 40
0.0
 40
0.0
 40
0.0311445023
 40
0.0624426262
 40
0.0938874266
 40
0.1254698196
 40
0.1571774021
 40
0.173076041
 40
0.1890002642
 40
0.2209118757
 40
0.2528982414
 40
0.2689155192
 40
0.2849438007
 40
0.3170178868
 40
0.3491032421
 40
0.3811777079
 40
0.4132193358
 40
0.4452068114
 40
0.4771198707
 40
0.5089397015
 40
0.540649324
 40
0.5722339448
 40
0.6036812775
 40
0.6349818227
 40
0.6661291006
 40
0.6971198291
 40
0.7279540411
 40
0.7586351339
 40
0.7891698461
 40
0.8195681577
 40
0.8498431118
 40
0.8800105574
 40
0.9100888178
 40
0.9400982893
 40
0.9700609798
 40
1.0
 40
1.0
 40
1.0
 40
1.0
 10
13.3610567589
 20
9.3603871773
 30
0.0
 10
13.3662222778
 20
9.3600289473
 30
0.0
 10
13.3765564192
 20
9.3589326059
 30
0.0
 10
13.3919322996
 20
9.3561709818
 30
0.0
 10
13.4071436087
 20
9.3523026344
 30
0.0
 10
13.4221076976
 20
9.3473487066
 30
0.0
 10
13.4342963965
 20
9.3423414937
 30
0.0
 10
13.443845605
 20
9.3378235421
 30
0.0
 10
13.4532626986
 20
9.3329617765
 30
0.0
 10
13.464732899
 20
9.3262650288
 30
0.0
 10
13.4757285514
 20
9.3187873666
 30
0.0
 10
13.4842142019
 20
9.3123560584
 30
0.0
 10
13.4924863442
 20
9.3056292689
 30
0.0
 10
13.5023938548
 20
9.2966921007
 30
0.0
 10
13.5135244742
 20
9.2851822626
 30
0.0
 10
13.523841849
 20
9.27294469
 30
0.0
 10
13.5332905983
 20
9.2600448838
 30
0.0
 10
13.5418204261
 20
9.2465515044
 30
0.0
 10
13.5493857875
 20
9.2325364688
 30
0.0
 10
13.5559462909
 20
9.2180744492
 30
0.0
 10
13.561466869
 20
9.2032425126
 30
0.0
 10
13.5659179782
 20
9.1881197068
 30
0.0
 10
13.5692757534
 20
9.1727866472
 30
0.0
 10
13.5715221395
 20
9.1573250922
 30
0.0
 10
13.5726449908
 20
9.1418175131
 30
0.0
 10
13.572638141
 20
9.1263466596
 30
0.0
 10
13.5715014439
 20
9.1109951232
 30
0.0
 10
13.5692407826
 20
9.0958448991
 30
0.0
 10
13.5658680472
 20
9.0809769507
 30
0.0
 10
13.5614010802
 20
9.0664707746
 30
0.0
 10
13.5558635988
 20
9.0524039795
 30
0.0
 10
13.5492850507
 20
9.0388518394
 30
0.0
 10
13.5417005657
 20
9.0258869797
 30
0.0
 10
13.5331503991
 20
9.0135786172
 30
0.0
 10
13.5236811143
 20
9.0019935202
 30
0.0
 10
13.5167862196
 20
8.9947906495
 30
0.0
 10
13.5132061222
 20
8.9913325441
 30
0.0
  0
SPLINE
  5
370
100
AcDbEntity
  8
0
100
AcDbSpline
 62
7
  6
CONTINUOUS
 70
0
 71
3
 72
41
 73
37
 74
0
 42
0.0000001
 43
0.0000001
 44
0.0000000001
 40
0.0
 40
0.0
 40
0.0
 40
0.0
 40
0.0311445023
 40
0.0624426262
 40
0.0938874266
 40
0.1254698196
 40
0.1571774021
 40
0.173076041
 40
0.1890002642
 40
0.2209118757
 40
0.2528982414
 40
0.2689155192
 40
0.2849438007
 40
0.3170178868
 40
0.3491032421
 40
0.3811777079
 40
0.4132193358
 40
0.4452068114
 40
0.4771198707
 40
0.5089397015
 40
0.540649324
 40
0.5722339448
 40
0.6036812775
 40
0.6349818227
 40
0.6661291006
 40
0.6971198291
 40
0.7279540411
 40
0.7586351339
 40
0.7891698461
 40
0.8195681577
 40
0.8498431118
 40
0.8800105574
 40
0.9100888178
 40
0.9400982893
 40
0.9700609798
 40
1.0
 40
1.0
 40
1.0
 40
1.0
 10
13.3610567589
 20
6.8856849999
 30
0.0
 10
13.3662222778
 20
6.8853267699
 30
0.0
 10
13.3765564192
 20
6.8842304286
 30
0.0
 10
13.3919322996
 20
6.8814688044
 30
0.0
 10
13.4071436087
 20
6.8776004571
 30
0.0
 10
13.4221076976
 20
6.8726465292
 30
0.0
 10
13.4342963965
 20
6.8676393163
 30
0.0
 10
13.443845605
 20
6.8631213647
 30
0.0
 10
13.4532626986
 20
6.8582595991
 30
0.0
 10
13.464732899
 20
6.8515628514
 30
0.0
 10
13.4757285514
 20
6.8440851893
 30
0.0
 10
13.4842142019
 20
6.8376538811
 30
0.0
 10
13.4924863442
 20
6.8309270915
 30
0.0
 10
13.5023938548
 20
6.8219899233
 30
0.0
 10
13.5135244742
 20
6.8104800853
 30
0.0
 10
13.523841849
 20
6.7982425126
 30
0.0
 10
13.5332905983
 20
6.7853427064
 30
0.0
 10
13.5418204261
 20
6.771849327
 30
0.0
 10
13.5493857875
 20
6.7578342914
 30
0.0
 10
13.5559462909
 20
6.7433722718
 30
0.0
 10
13.561466869
 20
6.7285403352
 30
0.0
 10
13.5659179782
 20
6.7134175294
 30
0.0
 10
13.5692757534
 20
6.6980844698
 30
0.0
 10
13.5715221395
 20
6.6826229148
 30
0.0
 10
13.5726449908
 20
6.6671153357
 30
0.0
 10
13.572638141
 20
6.6516444822
 30
0.0
 10
13.5715014439
 20
6.6362929458
 30
0.0
 10
13.5692407826
 20
6.6211427217
 30
0.0
 10
13.5658680472
 20
6.6062747734
 30
0.0
 10
13.5614010802
 20
6.5917685972
 30
0.0
 10
13.5558635988
 20
6.5777018021
 30
0.0
 10
13.5492850507
 20
6.564149662
 30
0.0
 10
13.5417005657
 20
6.5511848023
 30
0.0
 10
13.5331503991
 20
6.5388764398
 30
0.0
 10
13.5236811143
 20
6.5272913429
 30
0.0
 10
13.5167862196
 20
6.5200884721
 30
0.0
 10
13.5132061222
 20
6.5166303668
 30
0.0
  0
SPLINE
  5
371
100
AcDbEntity
  8
0
100
AcDbSpline
 62
7
  6
CONTINUOUS
 70
0
 71
3
 72
41
 73
37
 74
0
 42
0.0000001
 43
0.0000001
 44
0.0000000001
 40
0.0
 40
0.0
 40
0.0
 40
0.0
 40
0.0311445023
 40
0.0624426262
 40
0.0938874266
 40
0.1254698196
 40
0.1571774021
 40
0.173076041
 40
0.1890002642
 40
0.2209118757
 40
0.2528982414
 40
0.2689155192
 40
0.2849438007
 40
0.3170178868
 40
0.3491032421
 40
0.3811777079
 40
0.4132193358
 40
0.4452068114
 40
0.4771198707
 40
0.5089397015
 40
0.540649324
 40
0.5722339448
 40
0.6036812775
 40
0.6349818227
 40
0.6661291006
 40
0.6971198291
 40
0.7279540411
 40
0.7586351339
 40
0.7891698461
 40
0.8195681577
 40
0.8498431118
 40
0.8800105574
 40
0.9100888178
 40
0.9400982893
 40
0.9700609798
 40
1.0
 40
1.0
 40
1.0
 40
1.0
 10
10.2816850772
 20
7.1591275624
 30
0.0
 10
10.2868505961
 20
7.1587693324
 30
0.0
 10
10.2971847375
 20
7.157672991
 30
0.0
 10
10.3125606179
 20
7.1549113669
 30
0.0
 10
10.327771927
 20
7.1510430195
 30
0.0
 10
10.3427360159
 20
7.1460890916
 30
0.0
 10
10.3549247148
 20
7.1410818788
 30
0.0
 10
10.3644739233
 20
7.1365639272
 30
0.0
 10
10.3738910169
 20
7.1317021616
 30
0.0
 10
10.3853612173
 20
7.1250054139
 30
0.0
 10
10.3963568698
 20
7.1175277517
 30
0.0
 10
10.4048425203
 20
7.1110964435
 30
0.0
 10
10.4131146625
 20
7.104369654
 30
0.0
 10
10.4230221732
 20
7.0954324857
 30
0.0
 10
10.4341527926
 20
7.0839226477
 30
0.0
 10
10.4444701674
 20
7.0716850751
 30
0.0
 10
10.4539189166
 20
7.0587852689
 30
0.0
 10
10.4624487444
 20
7.0452918895
 30
0.0
 10
10.4700141059
 20
7.0312768539
 30
0.0
 10
10.4765746092
 20
7.0168148343
 30
0.0
 10
10.4820951874
 20
7.0019828976
 30
0.0
 10
10.4865462965
 20
6.9868600918
 30
0.0
 10
10.4899040717
 20
6.9715270323
 30
0.0
 10
10.4921504579
 20
6.9560654773
 30
0.0
 10
10.4932733091
 20
6.9405578981
 30
0.0
 10
10.4932664593
 20
6.9250870447
 30
0.0
 10
10.4921297623
 20
6.9097355083
 30
0.0
 10
10.4898691009
 20
6.8945852842
 30
0.0
 10
10.4864963655
 20
6.8797173358
 30
0.0
 10
10.4820293986
 20
6.8652111597
 30
0.0
 10
10.4764919172
 20
6.8511443645
 30
0.0
 10
10.469913369
 20
6.8375922244
 30
0.0
 10
10.462328884
 20
6.8246273648
 30
0.0
 10
10.4537787174
 20
6.8123190023
 30
0.0
 10
10.4443094326
 20
6.8007339053
 30
0.0
 10
10.4374145379
 20
6.7935310346
 30
0.0
 10
10.4338344406
 20
6.7900729292
 30
0.0
  0
SPLINE
  5
372
100
AcDbEntity
  8
0
100
AcDbSpline
 62
7
  6
CONTINUOUS
 70
0
 71
3
 72
41
 73
37
 74
0
 42
0.0000001
 43
0.0000001
 44
0.0000000001
 40
0.0
 40
0.0
 40
0.0
 40
0.0
 40
0.0311439396
 40
0.0624428097
 40
0.0938871647
 40
0.1254696323
 40
0.1571771283
 40
0.1889951623
 40
0.2209067281
 40
0.2528930425
 40
0.2849338644
 40
0.3170078945
 40
0.3490931957
 40
0.3811676104
 40
0.4132091867
 40
0.4451966058
 40
0.4771096033
 40
0.5089293702
 40
0.54063893
 40
0.5722234904
 40
0.6036707613
 40
0.6349712393
 40
0.6661184457
 40
0.697109102
 40
0.727943245
 40
0.7586242732
 40
0.7891589224
 40
0.8195571689
 40
0.8498320561
 40
0.8649308943
 40
0.8800050489
 40
0.9100832479
 40
0.9400926639
 40
0.9550812659
 40
0.9700610282
 40
1.0
 40
1.0
 40
1.0
 40
1.0
 10
12.7872969167
 20
9.3142101538
 30
0.0
 10
12.790363169
 20
9.3139975085
 30
0.0
 10
12.7964976379
 20
9.3133466785
 30
0.0
 10
12.805624921
 20
9.3117073934
 30
0.0
 10
12.8146544967
 20
9.3094110513
 30
0.0
 10
12.8235374623
 20
9.3064703087
 30
0.0
 10
12.8322267405
 20
9.3029007159
 30
0.0
 10
12.8406759386
 20
9.2987214626
 30
0.0
 10
12.8488400474
 20
9.2939548326
 30
0.0
 10
12.8566755644
 20
9.2886262974
 30
0.0
 10
12.8641407473
 20
9.2827642963
 30
0.0
 10
12.8711958212
 20
9.2764000956
 30
0.0
 10
12.8778031897
 20
9.2695676243
 30
0.0
 10
12.8839276314
 20
9.2623032956
 30
0.0
 10
12.8895364812
 20
9.2546458145
 30
0.0
 10
12.8945998265
 20
9.2466359896
 30
0.0
 10
12.899090657
 20
9.2383165065
 30
0.0
 10
12.9029849956
 20
9.2297316955
 30
0.0
 10
12.9062620277
 20
9.2209273022
 30
0.0
 10
12.9089042116
 20
9.2119502482
 30
0.0
 10
12.9108973676
 20
9.2028483856
 30
0.0
 10
12.9122307784
 20
9.1936702501
 30
0.0
 10
12.9128972478
 20
9.1844648
 30
0.0
 10
12.9128931216
 20
9.175281157
 30
0.0
 10
12.9122183105
 20
9.1661683406
 30
0.0
 10
12.9108763144
 20
9.1571750451
 30
0.0
 10
12.9088741351
 20
9.1483492535
 30
0.0
 10
12.9062225236
 20
9.139738459
 30
0.0
 10
12.9034803074
 20
9.1327728483
 30
0.0
 10
12.9009779579
 20
9.1273559878
 30
0.0
 10
12.8982773724
 20
9.1220569432
 30
0.0
 10
12.8945278344
 20
9.1156474501
 30
0.0
 10
12.8902960586
 20
9.1095557971
 30
0.0
 10
12.8866391285
 20
9.1048995403
 30
0.0
 10
12.882807838
 20
9.1003951986
 30
0.0
 10
12.8797382349
 20
9.0971885582
 30
0.0
 10
12.8776130434
 20
9.095135804
 30
0.0
  0
SPLINE
  5
373
100
AcDbEntity
  8
0
100
AcDbSpline
 62
7
  6
CONTINUOUS
 70
0
 71
3
 72
46
 73
42
 74
0
 42
0.0000001
 43
0.0000001
 44
0.0000000001
 40
0.0
 40
0.0
 40
0.0
 40
0.0
 40
0.0311438108
 40
0.0624406334
 40
0.0938846344
 40
0.1254660256
 40
0.1571726665
 40
0.1889897835
 40
0.2209004356
 40
0.2528858386
 40
0.2849257504
 40
0.3169988721
 40
0.3490832635
 40
0.3811567665
 40
0.4131974329
 40
0.4451839486
 40
0.4770960506
 40
0.5089149273
 40
0.5406235996
 40
0.5722072746
 40
0.6036536653
 40
0.6349532727
 40
0.6660996176
 40
0.6970894187
 40
0.7279227089
 40
0.7586028853
 40
0.7891366854
 40
0.8043544234
 40
0.8195395717
 40
0.8346938558
 40
0.8498191719
 40
0.8649175898
 40
0.8799913266
 40
0.8950427483
 40
0.9100743483
 40
0.9250887347
 40
0.9400886209
 40
0.9550767999
 40
0.9700561391
 40
0.9850295553
 40
1.0
 40
1.0
 40
1.0
 40
1.0
 10
12.5767251368
 20
8.447888888
 30
0.0
 10
12.5885186277
 20
8.4470710066
 30
0.0
 10
12.612112463
 20
8.4445679967
 30
0.0
 10
12.6472171777
 20
8.4382628104
 30
0.0
 10
12.6819458862
 20
8.4294311792
 30
0.0
 10
12.7161110416
 20
8.4181205399
 30
0.0
 10
12.7495311236
 20
8.4043915514
 30
0.0
 10
12.7820278644
 20
8.3883176272
 30
0.0
 10
12.8134281406
 20
8.3699846601
 30
0.0
 10
12.8435646371
 20
8.3494905436
 30
0.0
 10
12.872276793
 20
8.3269446419
 30
0.0
 10
12.8994116212
 20
8.3024672028
 30
0.0
 10
12.9248245201
 20
8.276188725
 30
0.0
 10
12.948380034
 20
8.2482492698
 30
0.0
 10
12.9699525635
 20
8.2187977205
 30
0.0
 10
12.9894270545
 20
8.1879910162
 30
0.0
 10
13.0066995945
 20
8.1559933093
 30
0.0
 10
13.0216779528
 20
8.1229750964
 30
0.0
 10
13.0342820719
 20
8.0891123236
 30
0.0
 10
13.0444444948
 20
8.0545854635
 30
0.0
 10
13.0521107212
 20
8.019578563
 30
0.0
 10
13.0572395347
 20
7.9842782937
 30
0.0
 10
13.0598032105
 20
7.9488729212
 30
0.0
 10
13.0597877051
 20
7.9135514627
 30
0.0
 10
13.0571925756
 20
7.8785021346
 30
0.0
 10
13.0520316481
 20
7.8439134171
 30
0.0
 10
13.0456066073
 20
7.8155904799
 30
0.0
 10
13.0392158514
 20
7.7933552606
 30
0.0
 10
13.0338099813
 20
7.7769243729
 30
0.0
 10
13.027793673
 20
7.7607447081
 30
0.0
 10
13.0211748563
 20
7.7448375929
 30
0.0
 10
13.0139624948
 20
7.7292243139
 30
0.0
 10
13.0061660453
 20
7.7139257894
 30
0.0
 10
12.9977960853
 20
7.6989623849
 30
0.0
 10
12.9888636615
 20
7.6843541631
 30
0.0
 10
12.9793807621
 20
7.6701206173
 30
0.0
 10
12.9693600701
 20
7.6562807446
 30
0.0
 10
12.9588148928
 20
7.6428531319
 30
0.0
 10
12.9477593928
 20
7.6298555468
 30
0.0
 10
12.9362084311
 20
7.6173057323
 30
0.0
 10
12.9281869957
 20
7.6092479277
 30
0.0
 10
12.9240997671
 20
7.605299951
 30
0.0
  0
SPLINE
  5
374
100
AcDbEntity
  8
0
100
AcDbSpline
 62
7
  6
CONTINUOUS
 70
0
 71
3
 72
46
 73
42
 74
0
 42
0.0000001
 43
0.0000001
 44
0.0000000001
 40
0.0
 40
0.0
 40
0.0
 40
0.0
 40
0.0311438108
 40
0.0624406334
 40
0.0938846344
 40
0.1254660256
 40
0.1571726665
 40
0.1889897835
 40
0.2209004356
 40
0.2528858386
 40
0.2849257504
 40
0.3169988721
 40
0.3490832635
 40
0.3811567665
 40
0.4131974329
 40
0.4451839486
 40
0.4770960506
 40
0.5089149273
 40
0.5406235996
 40
0.5722072746
 40
0.6036536653
 40
0.6349532727
 40
0.6660996176
 40
0.6970894187
 40
0.7279227089
 40
0.7586028853
 40
0.7891366854
 40
0.8043544234
 40
0.8195395717
 40
0.8346938558
 40
0.8498191719
 40
0.8649175898
 40
0.8799913266
 40
0.8950427483
 40
0.9100743483
 40
0.9250887347
 40
0.9400886209
 40
0.9550767999
 40
0.9700561391
 40
0.9850295553
 40
1.0
 40
1.0
 40
1.0
 40
1.0
 10
11.9121679336
 20
7.7096442917
 30
0.0
 10
11.9239614246
 20
7.7088264103
 30
0.0
 10
11.9475552599
 20
7.7063234004
 30
0.0
 10
11.9826599746
 20
7.7000182141
 30
0.0
 10
12.0173886831
 20
7.6911865829
 30
0.0
 10
12.0515538384
 20
7.6798759436
 30
0.0
 10
12.0849739205
 20
7.6661469552
 30
0.0
 10
12.1174706613
 20
7.6500730309
 30
0.0
 10
12.1488709374
 20
7.6317400638
 30
0.0
 10
12.179007434
 20
7.6112459473
 30
0.0
 10
12.2077195898
 20
7.5887000456
 30
0.0
 10
12.234854418
 20
7.5642226065
 30
0.0
 10
12.2602673169
 20
7.5379441287
 30
0.0
 10
12.2838228308
 20
7.5100046735
 30
0.0
 10
12.3053953603
 20
7.4805531242
 30
0.0
 10
12.3248698514
 20
7.4497464199
 30
0.0
 10
12.3421423914
 20
7.417748713
 30
0.0
 10
12.3571207497
 20
7.3847305001
 30
0.0
 10
12.3697248688
 20
7.3508677274
 30
0.0
 10
12.3798872917
 20
7.3163408672
 30
0.0
 10
12.387553518
 20
7.2813339668
 30
0.0
 10
12.3926823315
 20
7.2460336974
 30
0.0
 10
12.3952460074
 20
7.210628325
 30
0.0
 10
12.3952305019
 20
7.1753068664
 30
0.0
 10
12.3926353725
 20
7.1402575383
 30
0.0
 10
12.387474445
 20
7.1056688209
 30
0.0
 10
12.3810494042
 20
7.0773458836
 30
0.0
 10
12.3746586483
 20
7.0551106643
 30
0.0
 10
12.3692527782
 20
7.0386797767
 30
0.0
 10
12.3632364699
 20
7.0225001118
 30
0.0
 10
12.3566176531
 20
7.0065929967
 30
0.0
 10
12.3494052917
 20
6.9909797176
 30
0.0
 10
12.3416088421
 20
6.9756811931
 30
0.0
 10
12.3332388821
 20
6.9607177887
 30
0.0
 10
12.3243064584
 20
6.9461095668
 30
0.0
 10
12.3148235589
 20
6.931876021
 30
0.0
 10
12.3048028669
 20
6.9180361483
 30
0.0
 10
12.2942576896
 20
6.9046085356
 30
0.0
 10
12.2832021896
 20
6.8916109505
 30
0.0
 10
12.271651228
 20
6.879061136
 30
0.0
 10
12.2636297925
 20
6.8710033314
 30
0.0
 10
12.2595425639
 20
6.8670553548
 30
0.0
  0
SPLINE
  5
375
100
AcDbEntity
  8
0
100
AcDbSpline
 62
7
  6
CONTINUOUS
 70
0
 71
3
 72
46
 73
42
 74
0
 42
0.0000001
 43
0.0000001
 44
0.0000000001
 40
0.0
 40
0.0
 40
0.0
 40
0.0
 40
0.0311438108
 40
0.0624406334
 40
0.0938846344
 40
0.1254660256
 40
0.1571726665
 40
0.1889897835
 40
0.2209004356
 40
0.2528858386
 40
0.2849257504
 40
0.3169988721
 40
0.3490832635
 40
0.3811567665
 40
0.4131974329
 40
0.4451839486
 40
0.4770960506
 40
0.5089149273
 40
0.5406235996
 40
0.5722072746
 40
0.6036536653
 40
0.6349532727
 40
0.6660996176
 40
0.6970894187
 40
0.7279227089
 40
0.7586028853
 40
0.7891366854
 40
0.8043544234
 40
0.8195395717
 40
0.8346938558
 40
0.8498191719
 40
0.8649175898
 40
0.8799913266
 40
0.8950427483
 40
0.9100743483
 40
0.9250887347
 40
0.9400886209
 40
0.9550767999
 40
0.9700561391
 40
0.9850295553
 40
1.0
 40
1.0
 40
1.0
 40
1.0
 10
11.2476107305
 20
8.5400632851
 30
0.0
 10
11.2594042214
 20
8.5392454037
 30
0.0
 10
11.2829980567
 20
8.5367423939
 30
0.0
 10
11.3181027714
 20
8.5304372075
 30
0.0
 10
11.3528314799
 20
8.5216055763
 30
0.0
 10
11.3869966353
 20
8.5102949371
 30
0.0
 10
11.4204167173
 20
8.4965659486
 30
0.0
 10
11.4529134581
 20
8.4804920244
 30
0.0
 10
11.4843137343
 20
8.4621590572
 30
0.0
 10
11.5144502308
 20
8.4416649408
 30
0.0
 10
11.5431623867
 20
8.419119039
 30
0.0
 10
11.5702972149
 20
8.3946415999
 30
0.0
 10
11.5957101138
 20
8.3683631221
 30
0.0
 10
11.6192656277
 20
8.3404236669
 30
0.0
 10
11.6408381571
 20
8.3109721177
 30
0.0
 10
11.6603126482
 20
8.2801654133
 30
0.0
 10
11.6775851882
 20
8.2481677064
 30
0.0
 10
11.6925635465
 20
8.2151494935
 30
0.0
 10
11.7051676656
 20
8.1812867208
 30
0.0
 10
11.7153300885
 20
8.1467598606
 30
0.0
 10
11.7229963149
 20
8.1117529602
 30
0.0
 10
11.7281251283
 20
8.0764526908
 30
0.0
 10
11.7306888042
 20
8.0410473184
 30
0.0
 10
11.7306732988
 20
8.0057258598
 30
0.0
 10
11.7280781693
 20
7.9706765317
 30
0.0
 10
11.7229172418
 20
7.9360878143
 30
0.0
 10
11.716492201
 20
7.907764877
 30
0.0
 10
11.7101014451
 20
7.8855296577
 30
0.0
 10
11.704695575
 20
7.8690987701
 30
0.0
 10
11.6986792667
 20
7.8529191052
 30
0.0
 10
11.69206045
 20
7.8370119901
 30
0.0
 10
11.6848480885
 20
7.821398711
 30
0.0
 10
11.6770516389
 20
7.8061001865
 30
0.0
 10
11.668681679
 20
7.7911367821
 30
0.0
 10
11.6597492552
 20
7.7765285602
 30
0.0
 10
11.6502663558
 20
7.7622950145
 30
0.0
 10
11.6402456637
 20
7.7484551417
 30
0.0
 10
11.6297004865
 20
7.735027529
 30
0.0
 10
11.6186449865
 20
7.7220299439
 30
0.0
 10
11.6070940248
 20
7.7094801294
 30
0.0
 10
11.5990725894
 20
7.7014223249
 30
0.0
 10
11.5949853608
 20
7.6974743482
 30
0.0
  0
SPLINE
  5
376
100
AcDbEntity
  8
0
100
AcDbSpline
 62
7
  6
CONTINUOUS
 70
0
 71
3
 72
46
 73
42
 74
0
 42
0.0000001
 43
0.0000001
 44
0.0000000001
 40
0.0
 40
0.0
 40
0.0
 40
0.0
 40
0.0311438108
 40
0.0624406334
 40
0.0938846344
 40
0.1254660256
 40
0.1571726665
 40
0.1889897835
 40
0.2209004356
 40
0.2528858386
 40
0.2849257504
 40
0.3169988721
 40
0.3490832635
 40
0.3811567665
 40
0.4131974329
 40
0.4451839486
 40
0.4770960506
 40
0.5089149273
 40
0.5406235996
 40
0.5722072746
 40
0.6036536653
 40
0.6349532727
 40
0.6660996176
 40
0.6970894187
 40
0.7279227089
 40
0.7586028853
 40
0.7891366854
 40
0.8043544234
 40
0.8195395717
 40
0.8346938558
 40
0.8498191719
 40
0.8649175898
 40
0.8799913266
 40
0.8950427483
 40
0.9100743483
 40
0.9250887347
 40
0.9400886209
 40
0.9550767999
 40
0.9700561391
 40
0.9850295553
 40
1.0
 40
1.0
 40
1.0
 40
1.0
 10
11.9121679336
 20
9.278307939
 30
0.0
 10
11.9239614246
 20
9.2774900576
 30
0.0
 10
11.9475552599
 20
9.2749870477
 30
0.0
 10
11.9826599746
 20
9.2686818614
 30
0.0
 10
12.0173886831
 20
9.2598502302
 30
0.0
 10
12.0515538384
 20
9.2485395909
 30
0.0
 10
12.0849739205
 20
9.2348106024
 30
0.0
 10
12.1174706613
 20
9.2187366782
 30
0.0
 10
12.1488709374
 20
9.2004037111
 30
0.0
 10
12.179007434
 20
9.1799095946
 30
0.0
 10
12.2077195898
 20
9.1573636929
 30
0.0
 10
12.234854418
 20
9.1328862538
 30
0.0
 10
12.2602673169
 20
9.106607776
 30
0.0
 10
12.2838228308
 20
9.0786683208
 30
0.0
 10
12.3053953603
 20
9.0492167715
 30
0.0
 10
12.3248698514
 20
9.0184100672
 30
0.0
 10
12.3421423914
 20
8.9864123603
 30
0.0
 10
12.3571207497
 20
8.9533941474
 30
0.0
 10
12.3697248688
 20
8.9195313746
 30
0.0
 10
12.3798872917
 20
8.8850045145
 30
0.0
 10
12.387553518
 20
8.849997614
 30
0.0
 10
12.3926823315
 20
8.8146973446
 30
0.0
 10
12.3952460074
 20
8.7792919722
 30
0.0
 10
12.3952305019
 20
8.7439705137
 30
0.0
 10
12.3926353725
 20
8.7089211856
 30
0.0
 10
12.387474445
 20
8.6743324681
 30
0.0
 10
12.3810494042
 20
8.6460095309
 30
0.0
 10
12.3746586483
 20
8.6237743116
 30
0.0
 10
12.3692527782
 20
8.6073434239
 30
0.0
 10
12.3632364699
 20
8.5911637591
 30
0.0
 10
12.3566176531
 20
8.5752566439
 30
0.0
 10
12.3494052917
 20
8.5596433649
 30
0.0
 10
12.3416088421
 20
8.5443448404
 30
0.0
 10
12.3332388821
 20
8.5293814359
 30
0.0
 10
12.3243064584
 20
8.5147732141
 30
0.0
 10
12.3148235589
 20
8.5005396683
 30
0.0
 10
12.3048028669
 20
8.4866997956
 30
0.0
 10
12.2942576896
 20
8.4732721829
 30
0.0
 10
12.2832021896
 20
8.4602745978
 30
0.0
 10
12.271651228
 20
8.4477247832
 30
0.0
 10
12.2636297925
 20
8.4396669787
 30
0.0
 10
12.2595425639
 20
8.435719002
 30
0.0
  0
SPLINE
  5
377
100
AcDbEntity
  8
0
100
AcDbSpline
 62
7
  6
CONTINUOUS
 70
0
 71
3
 72
18
 73
14
 74
0
 42
0.0000001
 43
0.0000001
 44
0.0000000001
 40
0.0
 40
0.0
 40
0.0
 40
0.0
 40
0.1504660016
 40
0.2917105222
 40
0.4244368723
 40
0.5495624665
 40
0.668214014
 40
0.7255497707
 40
0.7817912017
 40
0.8371401776
 40
0.891809274
 40
0.9460199962
 40
1.0
 40
1.0
 40
1.0
 40
1.0
 10
14.9887858836
 20
8.9137758042
 30
0.0
 10
14.9907789927
 20
8.9157009999
 30
0.0
 10
14.9947624472
 20
8.9193131884
 30
0.0
 10
15.0009307582
 20
8.9241270903
 30
0.0
 10
15.0070918699
 20
8.92815316
 30
0.0
 10
15.0132393334
 20
8.9313847785
 30
0.0
 10
15.018406185
 20
8.9334339967
 30
0.0
 10
15.0225084542
 20
8.9346514928
 30
0.0
 10
15.0255414644
 20
8.9353531928
 30
0.0
 10
15.0285643958
 20
8.9358533556
 30
0.0
 10
15.0315764251
 20
8.9361517063
 30
0.0
 10
15.034576346
 20
8.9362480658
 30
0.0
 10
15.0365694045
 20
8.9361775503
 30
0.0
 10
15.0375611516
 20
8.936108767
 30
0.0
  0
SPLINE
  5
378
100
AcDbEntity
  8
0
100
AcDbSpline
 62
7
  6
CONTINUOUS
 70
0
 71
3
 72
23
 73
19
 74
0
 42
0.0000001
 43
0.0000001
 44
0.0000000001
 40
0.0
 40
0.0
 40
0.0
 40
0.0
 40
0.061648204
 40
0.1233194452
 40
0.1850364756
 40
0.2468215591
 40
0.308696212
 40
0.3706809269
 40
0.4327950009
 40
0.4950563329
 40
0.557481203
 40
0.6200840606
 40
0.6828775398
 40
0.7458725787
 40
0.8090767404
 40
0.8724961897
 40
0.9361405028
 40
1.0
 40
1.0
 40
1.0
 40
1.0
 10
10.1295357139
 20
7.1051066585
 30
0.0
 10
10.1319933433
 20
7.1074805441
 30
0.0
 10
10.1370382778
 20
7.1120979542
 30
0.0
 10
10.1449685267
 20
7.1186086674
 30
0.0
 10
10.1532431573
 20
7.1246890041
 30
0.0
 10
10.1618409825
 20
7.130323457
 30
0.0
 10
10.1707404648
 20
7.1354978322
 30
0.0
 10
10.1799191386
 20
7.1401991042
 30
0.0
 10
10.189353849
 20
7.1444155202
 30
0.0
 10
10.1990208667
 20
7.1481363816
 30
0.0
 10
10.2088958132
 20
7.1513523775
 30
0.0
 10
10.2189537973
 20
7.1540554923
 30
0.0
 10
10.2291695299
 20
7.1562388483
 30
0.0
 10
10.2395172505
 20
7.1578970002
 30
0.0
 10
10.2499708342
 20
7.1590258898
 30
0.0
 10
10.2605043216
 20
7.1596226266
 30
0.0
 10
10.2710905118
 20
7.1596856339
 30
0.0
 10
10.2781540849
 20
7.1593724375
 30
0.0
 10
10.2816850772
 20
7.1591275624
 30
0.0
  0
SPLINE
  5
379
100
AcDbEntity
  8
0
100
AcDbSpline
 62
7
  6
CONTINUOUS
 70
0
 71
3
 72
23
 73
19
 74
0
 42
0.0000001
 43
0.0000001
 44
0.0000000001
 40
0.0
 40
0.0
 40
0.0
 40
0.0
 40
0.061648204
 40
0.1233194452
 40
0.1850364756
 40
0.2468215591
 40
0.308696212
 40
0.3706809269
 40
0.4327950009
 40
0.4950563329
 40
0.557481203
 40
0.6200840606
 40
0.6828775398
 40
0.7458725787
 40
0.8090767404
 40
0.8724961897
 40
0.9361405028
 40
1.0
 40
1.0
 40
1.0
 40
1.0
 10
13.2089073955
 20
6.8316640961
 30
0.0
 10
13.2113650249
 20
6.8340379816
 30
0.0
 10
13.2164099594
 20
6.8386553918
 30
0.0
 10
13.2243402084
 20
6.845166105
 30
0.0
 10
13.2326148389
 20
6.8512464416
 30
0.0
 10
13.2412126641
 20
6.8568808946
 30
0.0
 10
13.2501121464
 20
6.8620552698
 30
0.0
 10
13.2592908202
 20
6.8667565418
 30
0.0
 10
13.2687255306
 20
6.8709729578
 30
0.0
 10
13.2783925484
 20
6.8746938192
 30
0.0
 10
13.2882674949
 20
6.877909815
 30
0.0
 10
13.298325479
 20
6.8806129298
 30
0.0
 10
13.3085412116
 20
6.8827962859
 30
0.0
 10
13.3188889322
 20
6.8844544378
 30
0.0
 10
13.3293425159
 20
6.8855833273
 30
0.0
 10
13.3398760033
 20
6.8861800642
 30
0.0
 10
13.3504621934
 20
6.8862430715
 30
0.0
 10
13.3575257666
 20
6.885929875
 30
0.0
 10
13.3610567589
 20
6.8856849999
 30
0.0
  0
SPLINE
  5
37A
100
AcDbEntity
  8
0
100
AcDbSpline
 62
7
  6
CONTINUOUS
 70
0
 71
3
 72
23
 73
19
 74
0
 42
0.0000001
 43
0.0000001
 44
0.0000000001
 40
0.0
 40
0.0
 40
0.0
 40
0.0
 40
0.061648204
 40
0.1233194452
 40
0.1850364756
 40
0.2468215591
 40
0.308696212
 40
0.3706809269
 40
0.4327950009
 40
0.4950563329
 40
0.557481203
 40
0.6200840606
 40
0.6828775398
 40
0.7458725787
 40
0.8090767404
 40
0.8724961897
 40
0.9361405028
 40
1.0
 40
1.0
 40
1.0
 40
1.0
 10
13.2089073955
 20
9.3063662734
 30
0.0
 10
13.2113650249
 20
9.308740159
 30
0.0
 10
13.2164099594
 20
9.3133575692
 30
0.0
 10
13.2243402084
 20
9.3198682823
 30
0.0
 10
13.2326148389
 20
9.325948619
 30
0.0
 10
13.2412126641
 20
9.331583072
 30
0.0
 10
13.2501121464
 20
9.3367574472
 30
0.0
 10
13.2592908202
 20
9.3414587191
 30
0.0
 10
13.2687255306
 20
9.3456751352
 30
0.0
 10
13.2783925484
 20
9.3493959966
 30
0.0
 10
13.2882674949
 20
9.3526119924
 30
0.0
 10
13.298325479
 20
9.3553151072
 30
0.0
 10
13.3085412116
 20
9.3574984632
 30
0.0
 10
13.3188889322
 20
9.3591566151
 30
0.0
 10
13.3293425159
 20
9.3602855047
 30
0.0
 10
13.3398760033
 20
9.3608822415
 30
0.0
 10
13.3504621934
 20
9.3609452489
 30
0.0
 10
13.3575257666
 20
9.3606320524
 30
0.0
 10
13.3610567589
 20
9.3603871773
 30
0.0
  0
SPLINE
  5
37B
100
AcDbEntity
  8
0
100
AcDbSpline
 62
7
  6
CONTINUOUS
 70
0
 71
3
 72
23
 73
19
 74
0
 42
0.0000001
 43
0.0000001
 44
0.0000000001
 40
0.0
 40
0.0
 40
0.0
 40
0.0
 40
0.061648204
 40
0.1233194452
 40
0.1850364756
 40
0.2468215591
 40
0.308696212
 40
0.3706809269
 40
0.4327950009
 40
0.4950563329
 40
0.557481203
 40
0.6200840606
 40
0.6828775398
 40
0.7458725787
 40
0.8090767404
 40
0.8724961897
 40
0.9361405028
 40
1.0
 40
1.0
 40
1.0
 40
1.0
 10
10.1295357139
 20
9.4600339851
 30
0.0
 10
10.1319933433
 20
9.4624078707
 30
0.0
 10
10.1370382778
 20
9.4670252808
 30
0.0
 10
10.1449685267
 20
9.473535994
 30
0.0
 10
10.1532431573
 20
9.4796163307
 30
0.0
 10
10.1618409825
 20
9.4852507836
 30
0.0
 10
10.1707404648
 20
9.4904251588
 30
0.0
 10
10.1799191386
 20
9.4951264308
 30
0.0
 10
10.189353849
 20
9.4993428468
 30
0.0
 10
10.1990208667
 20
9.5030637082
 30
0.0
 10
10.2088958132
 20
9.5062797041
 30
0.0
 10
10.2189537973
 20
9.5089828189
 30
0.0
 10
10.2291695299
 20
9.5111661749
 30
0.0
 10
10.2395172505
 20
9.5128243268
 30
0.0
 10
10.2499708342
 20
9.5139532164
 30
0.0
 10
10.2605043216
 20
9.5145499532
 30
0.0
 10
10.2710905118
 20
9.5146129605
 30
0.0
 10
10.2781540849
 20
9.5142997641
 30
0.0
 10
10.2816850772
 20
9.5140548889
 30
0.0
  0
SPLINE
  5
37C
100
AcDbEntity
  8
0
100
AcDbSpline
 62
7
  6
CONTINUOUS
 70
0
 71
3
 72
94
 73
90
 74
0
 42
0.0000001
 43
0.0000001
 44
0.0000000001
 40
0.0
 40
0.0
 40
0.0
 40
0.0
 40
0.002716411
 40
0.0054532011
 40
0.0082302517
 40
0.0110665327
 40
0.0139797269
 40
0.0169860181
 40
0.0200999739
 40
0.0233344715
 40
0.0267008148
 40
0.0302087551
 40
0.0338666474
 40
0.0376816061
 40
0.0416595573
 40
0.0458054685
 40
0.0501233829
 40
0.0546165457
 40
0.0592875464
 40
0.0641382929
 40
0.0691701949
 40
0.0743841527
 40
0.0797806066
 40
0.0853596564
 40
0.091120982
 40
0.097063984
 40
0.1031877628
 40
0.1094911152
 40
0.1159726478
 40
0.1226306791
 40
0.1364682673
 40
0.1509869912
 40
0.1661667922
 40
0.1819851405
 40
0.1984172778
 40
0.2154364407
 40
0.2330140607
 40
0.2511199271
 40
0.269722328
 40
0.2887881727
 40
0.3082831309
 40
0.3281717535
 40
0.3484175824
 40
0.3689832519
 40
0.389830592
 40
0.4109207417
 40
0.4322142489
 40
0.4536711676
 40
0.4752511532
 40
0.4969135656
 40
0.5186175702
 40
0.5403222325
 40
0.561986614
 40
0.5835698734
 40
0.6050313662
 40
0.6263307396
 40
0.6474280293
 40
0.6682837608
 40
0.6888590562
 40
0.7091157293
 40
0.7290163859
 40
0.7485245265
 40
0.7676046664
 40
0.7862224473
 40
0.804344745
 40
0.8219397924
 40
0.8389773151
 40
0.8554286959
 40
0.8712671248
 40
0.8864677785
 40
0.9010080353
 40
0.9080242659
 40
0.9148680726
 40
0.9215373706
 40
0.9280302616
 40
0.9343451056
 40
0.9404804307
 40
0.9464350605
 40
0.95220807
 40
0.9577988039
 40
0.9632069895
 40
0.9684326468
 40
0.9734762099
 40
0.9783385336
 40
0.9830209473
 40
0.9875254668
 40
0.9918546708
 40
0.9960116289
 40
1.0
 40
1.0
 40
1.0
 40
1.0
 10
14.9400106155
 20
7.5294873457
 30
0.0
 10
14.9386948212
 20
7.5295786035
 30
0.0
 10
14.9360600988
 20
7.5298809045
 30
0.0
 10
14.9321415733
 20
7.5306898735
 30
0.0
 10
14.9282526448
 20
7.5318541116
 30
0.0
 10
14.9243961196
 20
7.5333726186
 30
0.0
 10
14.9205739703
 20
7.5352439653
 30
0.0
 10
14.9167881399
 20
7.5374666842
 30
0.0
 10
14.9130404318
 20
7.5400392699
 30
0.0
 10
14.909332427
 20
7.5429599811
 30
0.0
 10
14.9056658068
 20
7.5462272102
 30
0.0
 10
14.9020421118
 20
7.5498391197
 30
0.0
 10
14.8984629053
 20
7.5537938192
 30
0.0
 10
14.894929847
 20
7.5580893549
 30
0.0
 10
14.8914444443
 20
7.5627235194
 30
0.0
 10
14.8880083805
 20
7.5676940736
 30
0.0
 10
14.884623244
 20
7.5729985501
 30
0.0
 10
14.8812906144
 20
7.5786343256
 30
0.0
 10
14.8780121767
 20
7.5845986588
 30
0.0
 10
14.8747894426
 20
7.5908885677
 30
0.0
 10
14.8716240501
 20
7.5975009647
 30
0.0
 10
14.868517558
 20
7.6044325668
 30
0.0
 10
14.865471463
 20
7.6116799186
 30
0.0
 10
14.8624873583
 20
7.6192394351
 30
0.0
 10
14.8595666645
 20
7.6271073277
 30
0.0
 10
14.8567108805
 20
7.6352796787
 30
0.0
 10
14.8539214503
 20
7.6437524061
 30
0.0
 10
14.8511997295
 20
7.6525212597
 30
0.0
 10
14.848547133
 20
7.6615818729
 30
0.0
 10
14.8450594006
 20
7.6742082255
 30
0.0
 10
14.840893806
 20
7.6906937218
 30
0.0
 10
14.83625307
 20
7.7113191783
 30
0.0
 10
14.8319177493
 20
7.7329925322
 30
0.0
 10
14.82789665
 20
7.7556702929
 30
0.0
 10
14.8241979587
 20
7.7793070891
 30
0.0
 10
14.8208291947
 20
7.8038555146
 30
0.0
 10
14.8177972158
 20
7.8292663178
 30
0.0
 10
14.8151081969
 20
7.8554884888
 30
0.0
 10
14.8127676209
 20
7.8824693642
 30
0.0
 10
14.8107802458
 20
7.9101547317
 30
0.0
 10
14.8091501165
 20
7.9384889483
 30
0.0
 10
14.8078805568
 20
7.9674150609
 30
0.0
 10
14.8069741649
 20
7.9968749203
 30
0.0
 10
14.8064328014
 20
8.0268092938
 30
0.0
 10
14.8062575749
 20
8.0571579858
 30
0.0
 10
14.8064488605
 20
8.0878599645
 30
0.0
 10
14.8070062943
 20
8.1188534876
 30
0.0
 10
14.8079287786
 20
8.1500762229
 30
0.0
 10
14.809214468
 20
8.1814653736
 30
0.0
 10
14.8108607786
 20
8.2129578068
 30
0.0
 10
14.8128644036
 20
8.2444901825
 30
0.0
 10
14.8152213179
 20
8.2759990796
 30
0.0
 10
14.817926787
 20
8.3074211233
 30
0.0
 10
14.8209753575
 20
8.3386931155
 30
0.0
 10
14.8243608864
 20
8.3697521623
 30
0.0
 10
14.8280765531
 20
8.4005357988
 30
0.0
 10
14.8321148749
 20
8.4309821136
 30
0.0
 10
14.8364677146
 20
8.4610298778
 30
0.0
 10
14.8411262872
 20
8.4906186719
 30
0.0
 10
14.8460811955
 20
8.5196890048
 30
0.0
 10
14.8513224441
 20
8.5481824291
 30
0.0
 10
14.8568394644
 20
8.5760416623
 30
0.0
 10
14.8626211182
 20
8.6032107115
 30
0.0
 10
14.8686557263
 20
8.6296349877
 30
0.0
 10
14.8749311015
 20
8.655261411
 30
0.0
 10
14.8814345692
 20
8.6800385144
 30
0.0
 10
14.8881529978
 20
8.7039165644
 30
0.0
 10
14.8950728027
 20
8.726847658
 30
0.0
 10
14.9021799954
 20
8.7487858825
 30
0.0
 10
14.9094602153
 20
8.7696871861
 30
0.0
 10
14.9157312148
 20
8.7863988566
 30
0.0
 10
14.9208312416
 20
8.7992112649
 30
0.0
 10
14.9246448483
 20
8.8084213055
 30
0.0
 10
14.9284906116
 20
8.8173419173
 30
0.0
 10
14.9323666547
 20
8.8259686253
 30
0.0
 10
14.9362709631
 20
8.8342971249
 30
0.0
 10
14.9402016383
 20
8.8423232283
 30
0.0
 10
14.9441566718
 20
8.850042931
 30
0.0
 10
14.9481340698
 20
8.8574523806
 30
0.0
 10
14.9521318944
 20
8.8645478588
 30
0.0
 10
14.9561480825
 20
8.8713258627
 30
0.0
 10
14.9601806957
 20
8.8777829911
 30
0.0
 10
14.9642276961
 20
8.883916034
 30
0.0
 10
14.9682870353
 20
8.889721957
 30
0.0
 10
14.9723568025
 20
8.8951978707
 30
0.0
 10
14.9764349896
 20
8.9003411562
 30
0.0
 10
14.9805197268
 20
8.9051492668
 30
0.0
 10
14.9846087713
 20
8.909619593
 30
0.0
 10
14.9873930066
 20
8.9124303883
 30
0.0
 10
14.9887858836
 20
8.9137758042
 30
0.0
  0
SPLINE
  5
37D
100
AcDbEntity
  8
0
100
AcDbSpline
 62
7
  6
CONTINUOUS
 70
0
 71
3
 72
26
 73
22
 74
0
 42
0.0000001
 43
0.0000001
 44
0.0000000001
 40
0.0
 40
0.0
 40
0.0
 40
0.0
 40
0.0616472087
 40
0.0924807976
 40
0.1233230054
 40
0.1850390322
 40
0.2468231106
 40
0.2777501846
 40
0.3087022546
 40
0.3706859579
 40
0.4327990268
 40
0.4950593387
 40
0.5574831658
 40
0.6200850367
 40
0.6828775384
 40
0.7143512564
 40
0.7458764573
 40
0.8090800689
 40
0.8724988264
 40
0.9361396051
 40
1.0
 40
1.0
 40
1.0
 40
1.0
 10
11.5647933033
 20
9.1549709924
 30
0.0
 10
11.5704043497
 20
9.1603908704
 30
0.0
 10
11.5790428335
 20
9.1682973676
 30
0.0
 10
11.5909713735
 20
9.17836216
 30
0.0
 10
11.6031729575
 20
9.1881087263
 30
0.0
 10
11.6189199522
 20
9.1996800838
 30
0.0
 10
11.6352733134
 20
9.2103969466
 30
0.0
 10
11.6486967975
 20
9.2184440136
 30
0.0
 10
11.6623522053
 20
9.2261424266
 30
0.0
 10
11.6798244665
 20
9.2350918379
 30
0.0
 10
11.7013648175
 20
9.2447182646
 30
0.0
 10
11.7234357752
 20
9.2532135425
 30
0.0
 10
11.7459814687
 20
9.2605561421
 30
0.0
 10
11.768944817
 20
9.2667276118
 30
0.0
 10
11.7883668677
 20
9.2708786371
 30
0.0
 10
11.8040523194
 20
9.2736008653
 30
0.0
 10
11.8198541255
 20
9.2759260955
 30
0.0
 10
11.8397608198
 20
9.2780757506
 30
0.0
 10
11.8638095565
 20
9.2794381708
 30
0.0
 10
11.887979127
 20
9.2795822014
 30
0.0
 10
11.9041060143
 20
9.278867035
 30
0.0
 10
11.9121679336
 20
9.278307939
 30
0.0
  0
SPLINE
  5
37E
100
AcDbEntity
  8
0
100
AcDbSpline
 62
7
  6
CONTINUOUS
 70
0
 71
3
 72
15
 73
11
 74
0
 42
0.0000001
 43
0.0000001
 44
0.0000000001
 40
0.0
 40
0.0
 40
0.0
 40
0.0
 40
0.1233171148
 40
0.2468171822
 40
0.3706750007
 40
0.4950496181
 40
0.6200773069
 40
0.7458672043
 40
0.8724928123
 40
1.0
 40
1.0
 40
1.0
 40
1.0
 10
12.6969807901
 20
9.2821437739
 30
0.0
 10
12.6998979944
 20
9.284961545
 30
0.0
 10
12.7060455211
 20
9.2902912951
 30
0.0
 10
12.7160788069
 20
9.2972558721
 30
0.0
 10
12.7268298141
 20
9.3031268832
 30
0.0
 10
12.7381884601
 20
9.3078440354
 30
0.0
 10
12.7500401847
 20
9.3113605005
 30
0.0
 10
12.7622656083
 20
9.313641086
 30
0.0
 10
12.7747399365
 20
9.3146636219
 30
0.0
 10
12.7831133059
 20
9.3145002882
 30
0.0
 10
12.7872969167
 20
9.3142101538
 30
0.0
  0
SPLINE
  5
37F
100
AcDbEntity
  8
0
100
AcDbSpline
 62
7
  6
CONTINUOUS
 70
0
 71
3
 72
26
 73
22
 74
0
 42
0.0000001
 43
0.0000001
 44
0.0000000001
 40
0.0
 40
0.0
 40
0.0
 40
0.0
 40
0.0616472087
 40
0.0924807976
 40
0.1233230054
 40
0.1850390322
 40
0.2468231106
 40
0.2777501846
 40
0.3087022546
 40
0.3706859579
 40
0.4327990268
 40
0.4950593387
 40
0.5574831658
 40
0.6200850367
 40
0.6828775384
 40
0.7143512564
 40
0.7458764573
 40
0.8090800689
 40
0.8724988264
 40
0.9361396051
 40
1.0
 40
1.0
 40
1.0
 40
1.0
 10
10.9002361002
 20
8.4167263385
 30
0.0
 10
10.9058471466
 20
8.4221462165
 30
0.0
 10
10.9144856303
 20
8.4300527138
 30
0.0
 10
10.9264141703
 20
8.4401175062
 30
0.0
 10
10.9386157543
 20
8.4498640724
 30
0.0
 10
10.9543627491
 20
8.46143543
 30
0.0
 10
10.9707161102
 20
8.4721522928
 30
0.0
 10
10.9841395944
 20
8.4801993598
 30
0.0
 10
10.9977950022
 20
8.4878977728
 30
0.0
 10
11.0152672633
 20
8.496847184
 30
0.0
 10
11.0368076144
 20
8.5064736108
 30
0.0
 10
11.0588785721
 20
8.5149688886
 30
0.0
 10
11.0814242656
 20
8.5223114883
 30
0.0
 10
11.1043876139
 20
8.5284829579
 30
0.0
 10
11.1238096645
 20
8.5326339832
 30
0.0
 10
11.1394951163
 20
8.5353562114
 30
0.0
 10
11.1552969224
 20
8.5376814416
 30
0.0
 10
11.1752036166
 20
8.5398310968
 30
0.0
 10
11.1992523533
 20
8.541193517
 30
0.0
 10
11.2234219239
 20
8.5413375476
 30
0.0
 10
11.2395488112
 20
8.5406223811
 30
0.0
 10
11.2476107305
 20
8.5400632851
 30
0.0
  0
SPLINE
  5
380
100
AcDbEntity
  8
0
100
AcDbSpline
 62
7
  6
CONTINUOUS
 70
0
 71
3
 72
26
 73
22
 74
0
 42
0.0000001
 43
0.0000001
 44
0.0000000001
 40
0.0
 40
0.0
 40
0.0
 40
0.0
 40
0.0616472087
 40
0.0924807976
 40
0.1233230054
 40
0.1850390322
 40
0.2468231106
 40
0.2777501846
 40
0.3087022546
 40
0.3706859579
 40
0.4327990268
 40
0.4950593387
 40
0.5574831658
 40
0.6200850367
 40
0.6828775384
 40
0.7143512564
 40
0.7458764573
 40
0.8090800689
 40
0.8724988264
 40
0.9361396051
 40
1.0
 40
1.0
 40
1.0
 40
1.0
 10
11.5647933033
 20
7.5863073451
 30
0.0
 10
11.5704043497
 20
7.5917272231
 30
0.0
 10
11.5790428335
 20
7.5996337203
 30
0.0
 10
11.5909713735
 20
7.6096985127
 30
0.0
 10
11.6031729575
 20
7.619445079
 30
0.0
 10
11.6189199522
 20
7.6310164365
 30
0.0
 10
11.6352733134
 20
7.6417332994
 30
0.0
 10
11.6486967975
 20
7.6497803664
 30
0.0
 10
11.6623522053
 20
7.6574787793
 30
0.0
 10
11.6798244665
 20
7.6664281906
 30
0.0
 10
11.7013648175
 20
7.6760546174
 30
0.0
 10
11.7234357752
 20
7.6845498952
 30
0.0
 10
11.7459814687
 20
7.6918924948
 30
0.0
 10
11.768944817
 20
7.6980639645
 30
0.0
 10
11.7883668677
 20
7.7022149898
 30
0.0
 10
11.8040523194
 20
7.704937218
 30
0.0
 10
11.8198541255
 20
7.7072624482
 30
0.0
 10
11.8397608198
 20
7.7094121033
 30
0.0
 10
11.8638095565
 20
7.7107745235
 30
0.0
 10
11.887979127
 20
7.7109185541
 30
0.0
 10
11.9041060143
 20
7.7102033877
 30
0.0
 10
11.9121679336
 20
7.7096442917
 30
0.0
  0
SPLINE
  5
381
100
AcDbEntity
  8
0
100
AcDbSpline
 62
7
  6
CONTINUOUS
 70
0
 71
3
 72
26
 73
22
 74
0
 42
0.0000001
 43
0.0000001
 44
0.0000000001
 40
0.0
 40
0.0
 40
0.0
 40
0.0
 40
0.0616472087
 40
0.0924807976
 40
0.1233230054
 40
0.1850390322
 40
0.2468231106
 40
0.2777501846
 40
0.3087022546
 40
0.3706859579
 40
0.4327990268
 40
0.4950593387
 40
0.5574831658
 40
0.6200850367
 40
0.6828775384
 40
0.7143512564
 40
0.7458764573
 40
0.8090800689
 40
0.8724988264
 40
0.9361396051
 40
1.0
 40
1.0
 40
1.0
 40
1.0
 10
12.2293505065
 20
8.3245519414
 30
0.0
 10
12.2349615529
 20
8.3299718194
 30
0.0
 10
12.2436000366
 20
8.3378783166
 30
0.0
 10
12.2555285766
 20
8.347943109
 30
0.0
 10
12.2677301607
 20
8.3576896753
 30
0.0
 10
12.2834771554
 20
8.3692610328
 30
0.0
 10
12.2998305165
 20
8.3799778956
 30
0.0
 10
12.3132540007
 20
8.3880249626
 30
0.0
 10
12.3269094085
 20
8.3957233756
 30
0.0
 10
12.3443816697
 20
8.4046727869
 30
0.0
 10
12.3659220207
 20
8.4142992136
 30
0.0
 10
12.3879929784
 20
8.4227944915
 30
0.0
 10
12.4105386719
 20
8.4301370911
 30
0.0
 10
12.4335020202
 20
8.4363085608
 30
0.0
 10
12.4529240708
 20
8.4404595861
 30
0.0
 10
12.4686095226
 20
8.4431818143
 30
0.0
 10
12.4844113287
 20
8.4455070445
 30
0.0
 10
12.5043180229
 20
8.4476566996
 30
0.0
 10
12.5283667596
 20
8.4490191198
 30
0.0
 10
12.5525363302
 20
8.4491631504
 30
0.0
 10
12.5686632175
 20
8.448447984
 30
0.0
 10
12.5767251368
 20
8.447888888
 30
0.0
  0
SPLINE
  5
382
100
AcDbEntity
  8
0
100
AcDbSpline
 62
7
  6
CONTINUOUS
 70
0
 71
3
 72
23
 73
19
 74
0
 42
0.0000001
 43
0.0000001
 44
0.0000000001
 40
0.0
 40
0.0
 40
0.0
 40
0.0
 40
0.061648204
 40
0.1233194452
 40
0.1850364756
 40
0.2468215591
 40
0.308696212
 40
0.3706809269
 40
0.4327950009
 40
0.4950563329
 40
0.557481203
 40
0.6200840606
 40
0.6828775398
 40
0.7458725787
 40
0.8090767404
 40
0.8724961897
 40
0.9361405028
 40
1.0
 40
1.0
 40
1.0
 40
1.0
 10
10.4338344406
 20
9.1450002558
 30
0.0
 10
10.4313768112
 20
9.1426263702
 30
0.0
 10
10.4263318767
 20
9.1380089601
 30
0.0
 10
10.4184016277
 20
9.1314982469
 30
0.0
 10
10.4101269972
 20
9.1254179103
 30
0.0
 10
10.401529172
 20
9.1197834573
 30
0.0
 10
10.3926296897
 20
9.1146090821
 30
0.0
 10
10.3834510159
 20
9.1099078101
 30
0.0
 10
10.3740163055
 20
9.1056913941
 30
0.0
 10
10.3643492877
 20
9.1019705327
 30
0.0
 10
10.3544743412
 20
9.0987545368
 30
0.0
 10
10.3444163572
 20
9.096051422
 30
0.0
 10
10.3342006246
 20
9.093868066
 30
0.0
 10
10.3238529039
 20
9.0922099141
 30
0.0
 10
10.3133993202
 20
9.0910810245
 30
0.0
 10
10.3028658329
 20
9.0904842877
 30
0.0
 10
10.2922796427
 20
9.0904212804
 30
0.0
 10
10.2852160695
 20
9.0907344768
 30
0.0
 10
10.2816850772
 20
9.090979352
 30
0.0
  0
SPLINE
  5
383
100
AcDbEntity
  8
0
100
AcDbSpline
 62
7
  6
CONTINUOUS
 70
0
 71
3
 72
46
 73
42
 74
0
 42
0.0000001
 43
0.0000001
 44
0.0000000001
 40
0.0
 40
0.0
 40
0.0
 40
0.0
 40
0.0311438108
 40
0.0624406334
 40
0.0938846344
 40
0.1254660256
 40
0.1571726665
 40
0.1889897835
 40
0.2209004356
 40
0.2528858386
 40
0.2849257504
 40
0.3169988721
 40
0.3490832635
 40
0.3811567665
 40
0.4131974329
 40
0.4451839486
 40
0.4770960506
 40
0.5089149273
 40
0.5406235996
 40
0.5722072746
 40
0.6036536653
 40
0.6349532727
 40
0.6660996176
 40
0.6970894187
 40
0.7279227089
 40
0.7586028853
 40
0.7891366854
 40
0.8043544234
 40
0.8195395717
 40
0.8346938558
 40
0.8498191719
 40
0.8649175898
 40
0.8799913266
 40
0.8950427483
 40
0.9100743483
 40
0.9250887347
 40
0.9400886209
 40
0.9550767999
 40
0.9700561391
 40
0.9850295553
 40
1.0
 40
1.0
 40
1.0
 40
1.0
 10
11.9121679336
 20
6.7437184082
 30
0.0
 10
11.9003744426
 20
6.7445362895
 30
0.0
 10
11.8767806074
 20
6.7470392994
 30
0.0
 10
11.8416758927
 20
6.7533444858
 30
0.0
 10
11.8069471841
 20
6.762176117
 30
0.0
 10
11.7727820288
 20
6.7734867562
 30
0.0
 10
11.7393619468
 20
6.7872157447
 30
0.0
 10
11.7068652059
 20
6.8032896689
 30
0.0
 10
11.6754649298
 20
6.8216226361
 30
0.0
 10
11.6453284333
 20
6.8421167525
 30
0.0
 10
11.6166162774
 20
6.8646626543
 30
0.0
 10
11.5894814492
 20
6.8891400933
 30
0.0
 10
11.5640685503
 20
6.9154185711
 30
0.0
 10
11.5405130364
 20
6.9433580264
 30
0.0
 10
11.5189405069
 20
6.9728095756
 30
0.0
 10
11.4994660159
 20
7.00361628
 30
0.0
 10
11.4821934759
 20
7.0356139869
 30
0.0
 10
11.4672151175
 20
7.0686321998
 30
0.0
 10
11.4546109985
 20
7.1024949725
 30
0.0
 10
11.4444485755
 20
7.1370218326
 30
0.0
 10
11.4367823492
 20
7.1720287331
 30
0.0
 10
11.4316535357
 20
7.2073290025
 30
0.0
 10
11.4290898599
 20
7.2427343749
 30
0.0
 10
11.4291053653
 20
7.2780558335
 30
0.0
 10
11.4317004948
 20
7.3131051616
 30
0.0
 10
11.4368614222
 20
7.347693879
 30
0.0
 10
11.4432864631
 20
7.3760168163
 30
0.0
 10
11.4496772189
 20
7.3982520355
 30
0.0
 10
11.455083089
 20
7.4146829232
 30
0.0
 10
11.4610993974
 20
7.4308625881
 30
0.0
 10
11.4677182141
 20
7.4467697032
 30
0.0
 10
11.4749305755
 20
7.4623829823
 30
0.0
 10
11.4827270251
 20
7.4776815068
 30
0.0
 10
11.4910969851
 20
7.4926449112
 30
0.0
 10
11.5000294088
 20
7.5072531331
 30
0.0
 10
11.5095123083
 20
7.5214866788
 30
0.0
 10
11.5195330003
 20
7.5353265515
 30
0.0
 10
11.5300781776
 20
7.5487541642
 30
0.0
 10
11.5411336776
 20
7.5617517494
 30
0.0
 10
11.5526846392
 20
7.5743015639
 30
0.0
 10
11.5607060747
 20
7.5823593684
 30
0.0
 10
11.5647933033
 20
7.5863073451
 30
0.0
  0
SPLINE
  5
384
100
AcDbEntity
  8
0
100
AcDbSpline
 62
7
  6
CONTINUOUS
 70
0
 71
3
 72
41
 73
37
 74
0
 42
0.0000001
 43
0.0000001
 44
0.0000000001
 40
0.0
 40
0.0
 40
0.0
 40
0.0
 40
0.0311445023
 40
0.0624426262
 40
0.0938874266
 40
0.1254698196
 40
0.1571774021
 40
0.173076041
 40
0.1890002642
 40
0.2209118757
 40
0.2528982414
 40
0.2689155192
 40
0.2849438007
 40
0.3170178868
 40
0.3491032421
 40
0.3811777079
 40
0.4132193358
 40
0.4452068114
 40
0.4771198707
 40
0.5089397015
 40
0.540649324
 40
0.5722339448
 40
0.6036812775
 40
0.6349818227
 40
0.6661291006
 40
0.6971198291
 40
0.7279540411
 40
0.7586351339
 40
0.7891698461
 40
0.8195681577
 40
0.8498431118
 40
0.8800105574
 40
0.9100888178
 40
0.9400982893
 40
0.9700609798
 40
1.0
 40
1.0
 40
1.0
 40
1.0
 10
13.3610567589
 20
6.4626094629
 30
0.0
 10
13.35589124
 20
6.4629676929
 30
0.0
 10
13.3455570986
 20
6.4640640343
 30
0.0
 10
13.3301812182
 20
6.4668256584
 30
0.0
 10
13.3149699091
 20
6.4706940058
 30
0.0
 10
13.3000058202
 20
6.4756479336
 30
0.0
 10
13.2878171213
 20
6.4806551465
 30
0.0
 10
13.2782679128
 20
6.4851730981
 30
0.0
 10
13.2688508192
 20
6.4900348637
 30
0.0
 10
13.2573806188
 20
6.4967316114
 30
0.0
 10
13.2463849664
 20
6.5042092736
 30
0.0
 10
13.2378993159
 20
6.5106405818
 30
0.0
 10
13.2296271736
 20
6.5173673713
 30
0.0
 10
13.219719663
 20
6.5263045395
 30
0.0
 10
13.2085890436
 20
6.5378143776
 30
0.0
 10
13.1982716688
 20
6.5500519502
 30
0.0
 10
13.1888229195
 20
6.5629517564
 30
0.0
 10
13.1802930917
 20
6.5764451358
 30
0.0
 10
13.1727277303
 20
6.5904601714
 30
0.0
 10
13.1661672269
 20
6.604922191
 30
0.0
 10
13.1606466487
 20
6.6197541276
 30
0.0
 10
13.1561955396
 20
6.6348769334
 30
0.0
 10
13.1528377644
 20
6.650209993
 30
0.0
 10
13.1505913783
 20
6.665671548
 30
0.0
 10
13.149468527
 20
6.6811791271
 30
0.0
 10
13.1494753768
 20
6.6966499806
 30
0.0
 10
13.1506120739
 20
6.712001517
 30
0.0
 10
13.1528727352
 20
6.7271517411
 30
0.0
 10
13.1562454706
 20
6.7420196894
 30
0.0
 10
13.1607124375
 20
6.7565258656
 30
0.0
 10
13.166249919
 20
6.7705926607
 30
0.0
 10
13.1728284671
 20
6.7841448008
 30
0.0
 10
13.1804129521
 20
6.7971096605
 30
0.0
 10
13.1889631187
 20
6.809418023
 30
0.0
 10
13.1984324035
 20
6.82100312
 30
0.0
 10
13.2053272982
 20
6.8282059907
 30
0.0
 10
13.2089073955
 20
6.8316640961
 30
0.0
  0
SPLINE
  5
385
100
AcDbEntity
  8
0
100
AcDbSpline
 62
7
  6
CONTINUOUS
 70
0
 71
3
 72
67
 73
63
 74
0
 42
0.0000001
 43
0.0000001
 44
0.0000000001
 40
0.0
 40
0.0
 40
0.0
 40
0.0
 40
0.0042009258
 40
0.0085401737
 40
0.0130188798
 40
0.0176377945
 40
0.0223974358
 40
0.0272980995
 40
0.0375220832
 40
0.0483084756
 40
0.0596526964
 40
0.0715478278
 40
0.0839849265
 40
0.096953173
 40
0.1104401626
 40
0.1244320491
 40
0.138913615
 40
0.1538684767
 40
0.1692791481
 40
0.1851270873
 40
0.2013928541
 40
0.2180561335
 40
0.2350957837
 40
0.2524899602
 40
0.2702161209
 40
0.2882510846
 40
0.3065711265
 40
0.3251519805
 40
0.3439689065
 40
0.3629967628
 40
0.3822100144
 40
0.4210885383
 40
0.4603950718
 40
0.4999167464
 40
0.5394392068
 40
0.5787480958
 40
0.6176305225
 40
0.6558765584
 40
0.6746967633
 40
0.6932812559
 40
0.7116052897
 40
0.7296446114
 40
0.7473754627
 40
0.7647746628
 40
0.7818196777
 40
0.7984886198
 40
0.8147603568
 40
0.8306145728
 40
0.8460317771
 40
0.8609934465
 40
0.8754820809
 40
0.8894812414
 40
0.9029757363
 40
0.9159516885
 40
0.9283966356
 40
0.9402997856
 40
0.9516521424
 40
0.9624467305
 40
0.9726789911
 40
0.9823470724
 40
0.9914523234
 40
1.0
 40
1.0
 40
1.0
 40
1.0
 10
14.8821128402
 20
7.5770973111
 30
0.0
 10
14.8832850271
 20
7.5785912205
 30
0.0
 10
14.8856261026
 20
7.5816613089
 30
0.0
 10
14.8890743621
 20
7.5864306362
 30
0.0
 10
14.8925146544
 20
7.591436723
 30
0.0
 10
14.8959457555
 20
7.5966777034
 30
0.0
 10
14.899366444
 20
7.6021517216
 30
0.0
 10
14.9039769399
 20
7.6098677539
 30
0.0
 10
14.90969647
 20
7.62009165
 30
0.0
 10
14.9164052116
 20
7.6330896391
 30
0.0
 10
14.9230432421
 20
7.646966027
 30
0.0
 10
14.9296009585
 20
7.661700864
 30
0.0
 10
14.936068863
 20
7.6772731422
 30
0.0
 10
14.9424376319
 20
7.6936605005
 30
0.0
 10
14.9486980235
 20
7.7108393995
 30
0.0
 10
14.9548409246
 20
7.7287851247
 30
0.0
 10
14.96085746
 20
7.7474718076
 30
0.0
 10
14.9667388781
 20
7.7668725041
 30
0.0
 10
14.9724766193
 20
7.7869592223
 30
0.0
 10
14.9780623907
 20
7.80770295
 30
0.0
 10
14.9834880614
 20
7.8290737274
 30
0.0
 10
14.988745745
 20
7.8510406769
 30
0.0
 10
14.9938278435
 20
7.8735720419
 30
0.0
 10
14.9987269564
 20
7.8966352539
 30
0.0
 10
15.003435974
 20
7.9201969667
 30
0.0
 10
15.0079480923
 20
7.944223103
 30
0.0
 10
15.0122567381
 20
7.9686789183
 30
0.0
 10
15.0163556707
 20
7.9935290417
 30
0.0
 10
15.0202389627
 20
8.0187375168
 30
0.0
 10
15.0239009749
 20
8.044267909
 30
0.0
 10
15.0284994087
 20
8.0788231838
 30
0.0
 10
15.033651112
 20
8.1225495868
 30
0.0
 10
15.0388509825
 20
8.175503553
 30
0.0
 10
15.0430623233
 20
8.2288373407
 30
0.0
 10
15.0462607914
 20
8.2822424666
 30
0.0
 10
15.048427943
 20
8.3354102829
 30
0.0
 10
15.049551297
 20
8.3880332675
 30
0.0
 10
15.0496128465
 20
8.4314069658
 30
0.0
 10
15.0491269126
 20
8.4655994821
 30
0.0
 10
15.0485012792
 20
8.4907825672
 30
0.0
 10
15.0476135007
 20
8.5156045754
 30
0.0
 10
15.0464648885
 20
8.5400296323
 30
0.0
 10
15.0450571046
 20
8.5640224017
 30
0.0
 10
15.0433921991
 20
8.587548187
 30
0.0
 10
15.0414726331
 20
8.610572969
 30
0.0
 10
15.0393011798
 20
8.6330634563
 30
0.0
 10
15.0368810119
 20
8.6549871383
 30
0.0
 10
15.0342156885
 20
8.6763123321
 30
0.0
 10
15.0313090645
 20
8.6970082248
 30
0.0
 10
15.0281653943
 20
8.7170449289
 30
0.0
 10
15.024789289
 20
8.7363935239
 30
0.0
 10
15.0211856344
 20
8.7550260931
 30
0.0
 10
15.0173597105
 20
8.7729157844
 30
0.0
 10
15.0133171138
 20
8.7900368447
 30
0.0
 10
15.0090636882
 20
8.8063646513
 30
0.0
 10
15.0046056545
 20
8.8218757851
 30
0.0
 10
14.9999494934
 20
8.8365480494
 30
0.0
 10
14.9951018792
 20
8.8503605187
 30
0.0
 10
14.9900698405
 20
8.8632935621
 30
0.0
 10
14.9848604622
 20
8.8753290773
 30
0.0
 10
14.9794812315
 20
8.8864497357
 30
0.0
 10
14.9756671921
 20
8.8934633238
 30
0.0
 10
14.9737272
 20
8.8968046692
 30
0.0
  0
SPLINE
  5
386
100
AcDbEntity
  8
0
100
AcDbSpline
 62
7
  6
CONTINUOUS
 70
0
 71
3
 72
77
 73
73
 74
0
 42
0.0000001
 43
0.0000001
 44
0.0000000001
 40
0.0
 40
0.0
 40
0.0
 40
0.0
 40
0.0039410451
 40
0.0080240841
 40
0.0122511747
 40
0.0166240526
 40
0.0211441094
 40
0.0258122896
 40
0.0306292121
 40
0.0355952615
 40
0.0407105308
 40
0.0459748942
 40
0.0569490888
 40
0.0685133281
 40
0.0806599883
 40
0.0933791184
 40
0.106658662
 40
0.1204847797
 40
0.1348419988
 40
0.149713321
 40
0.1650804401
 40
0.1809238197
 40
0.1972227521
 40
0.2139555246
 40
0.2310994667
 40
0.248630991
 40
0.2665257295
 40
0.2847585686
 40
0.3033036868
 40
0.3221346691
 40
0.3412245397
 40
0.3605458018
 40
0.3800705358
 40
0.3997704322
 40
0.4196168386
 40
0.4596328024
 40
0.4998852805
 40
0.5401388506
 40
0.5801580812
 40
0.6197092854
 40
0.639237522
 40
0.6585628129
 40
0.6776572216
 40
0.696493246
 40
0.7150439076
 40
0.7332827686
 40
0.7511840001
 40
0.7687224843
 40
0.7858738234
 40
0.8026144209
 40
0.8189215995
 40
0.8347736096
 40
0.8501497319
 40
0.8650304191
 40
0.8793973206
 40
0.8932334216
 40
0.9065232325
 40
0.9192528595
 40
0.9314102214
 40
0.9429853373
 40
0.9485522239
 40
0.9539708965
 40
0.9592407886
 40
0.9643615803
 40
0.969333157
 40
0.9741555924
 40
0.9788292651
 40
0.9833548254
 40
0.9877331879
 40
0.9919656579
 40
0.9960539109
 40
1.0
 40
1.0
 40
1.0
 40
1.0
 10
14.8733086587
 20
7.5937372395
 30
0.0
 10
14.8744826306
 20
7.5950270678
 30
0.0
 10
14.8768283814
 20
7.5976939912
 30
0.0
 10
14.8802812727
 20
7.6018749936
 30
0.0
 10
14.883728873
 20
7.6063051363
 30
0.0
 10
14.8871698733
 20
7.6109826714
 30
0.0
 10
14.890602974
 20
7.6159058907
 30
0.0
 10
14.8940269016
 20
7.6210728833
 30
0.0
 10
14.8974403449
 20
7.6264816416
 30
0.0
 10
14.9008419159
 20
7.6321300946
 30
0.0
 10
14.904230353
 20
7.6380160374
 30
0.0
 10
14.908792299
 20
7.6462925601
 30
0.0
 10
14.9144434514
 20
7.6572248882
 30
0.0
 10
14.921060971
 20
7.6710773411
 30
0.0
 10
14.927595016
 20
7.6858180556
 30
0.0
 10
14.9340353631
 20
7.7014241527
 30
0.0
 10
14.9403720037
 20
7.7178715429
 30
0.0
 10
14.9465950086
 20
7.7351347408
 30
0.0
 10
14.9526946173
 20
7.753186971
 30
0.0
 10
14.9586613164
 20
7.7720001738
 30
0.0
 10
14.9644857456
 20
7.7915450986
 30
0.0
 10
14.970158763
 20
7.8117913351
 30
0.0
 10
14.9756715189
 20
7.832707349
 30
0.0
 10
14.9810153668
 20
7.8542605617
 30
0.0
 10
14.9861819213
 20
7.8764173923
 30
0.0
 10
14.9911631272
 20
7.8991432974
 30
0.0
 10
14.9959511755
 20
7.9224028491
 30
0.0
 10
15.0005385558
 20
7.9461597832
 30
0.0
 10
15.0049181217
 20
7.9703770447
 30
0.0
 10
15.0090830103
 20
7.9950168643
 30
0.0
 10
15.0130266901
 20
8.0200408115
 30
0.0
 10
15.0167430252
 20
8.0454098482
 30
0.0
 10
15.0202261884
 20
8.0710843915
 30
0.0
 10
15.0234707382
 20
8.0970244201
 30
0.0
 10
15.0274826786
 20
8.1320056005
 30
0.0
 10
15.0318622609
 20
8.1760973191
 30
0.0
 10
15.0360815415
 20
8.229270113
 30
0.0
 10
15.039252297
 20
8.2825173242
 30
0.0
 10
15.041354799
 20
8.3355067139
 30
0.0
 10
15.0422095963
 20
8.379357501
 30
0.0
 10
15.0423425682
 20
8.4140555049
 30
0.0
 10
15.0421687196
 20
8.4397000724
 30
0.0
 10
15.0417220622
 20
8.4650349484
 30
0.0
 10
15.0410032686
 20
8.490020643
 30
0.0
 10
15.040013512
 20
8.5146181732
 30
0.0
 10
15.0387543434
 20
8.5387891731
 30
0.0
 10
15.0372277298
 20
8.5624959438
 30
0.0
 10
15.0354361087
 20
8.5857015177
 30
0.0
 10
15.0333822918
 20
8.6083697112
 30
0.0
 10
15.0310694931
 20
8.6304651848
 30
0.0
 10
15.0285013886
 20
8.6519535056
 30
0.0
 10
15.0256820111
 20
8.6728011921
 30
0.0
 10
15.0226157779
 20
8.6929757724
 30
0.0
 10
15.0193075538
 20
8.712445848
 30
0.0
 10
15.0157625361
 20
8.7311811289
 30
0.0
 10
15.0119862804
 20
8.7491524956
 30
0.0
 10
15.0079847679
 20
8.7663320465
 30
0.0
 10
15.0037642784
 20
8.7826931935
 30
0.0
 10
14.9993314004
 20
8.7982104815
 30
0.0
 10
14.9954170239
 20
8.8105741003
 30
0.0
 10
14.9921769684
 20
8.8200182942
 30
0.0
 10
14.989729811
 20
8.8267834391
 30
0.0
 10
14.98723484
 20
8.8333202278
 30
0.0
 10
14.9846930337
 20
8.8396261454
 30
0.0
 10
14.9821054064
 20
8.8456987575
 30
0.0
 10
14.9794729061
 20
8.8515356932
 30
0.0
 10
14.9767965792
 20
8.8571347084
 30
0.0
 10
14.9740774792
 20
8.8624936579
 30
0.0
 10
14.9713165961
 20
8.8676104432
 30
0.0
 10
14.9685150007
 20
8.87248313
 30
0.0
 10
14.9656738269
 20
8.8771097951
 30
0.0
 10
14.9637197299
 20
8.8800811216
 30
0.0
 10
14.9627355663
 20
8.8815237167
 30
0.0
  0
SPLINE
  5
387
100
AcDbEntity
  8
0
100
AcDbSpline
 62
7
  6
CONTINUOUS
 70
0
 71
3
 72
61
 73
57
 74
0
 42
0.0000001
 43
0.0000001
 44
0.0000000001
 40
0.0
 40
0.0
 40
0.0
 40
0.0
 40
0.0090753425
 40
0.0186818017
 40
0.0288199229
 40
0.0394876495
 40
0.0506805018
 40
0.0623920203
 40
0.0746139988
 40
0.0873365979
 40
0.1005486415
 40
0.1142376365
 40
0.1283899339
 40
0.1429908712
 40
0.1580247467
 40
0.1734750123
 40
0.1893242759
 40
0.2055543495
 40
0.2221463827
 40
0.2390808148
 40
0.2563374976
 40
0.27389573
 40
0.2917342554
 40
0.3098313814
 40
0.3467119687
 40
0.3843563861
 40
0.4225780268
 40
0.4611865723
 40
0.4999892372
 40
0.538792001
 40
0.5774008413
 40
0.6156229709
 40
0.6532680704
 40
0.6901495297
 40
0.708247154
 40
0.7260862305
 40
0.7436450533
 40
0.7609023673
 40
0.7778374799
 40
0.7944302226
 40
0.810661054
 40
0.8265111126
 40
0.8419622002
 40
0.8569969454
 40
0.8715987734
 40
0.8857519978
 40
0.8994419542
 40
0.9126549706
 40
0.9253785825
 40
0.9376015876
 40
0.9493141477
 40
0.960508068
 40
0.9711768579
 40
0.9813160679
 40
0.9909235999
 40
1.0
 40
1.0
 40
1.0
 40
1.0
 10
14.8567277003
 20
7.6353815006
 30
0.0
 10
14.8588434286
 20
7.6384675675
 30
0.0
 10
14.8630546017
 20
7.6449199436
 30
0.0
 10
14.8691540272
 20
7.655120088
 30
0.0
 10
14.8752076266
 20
7.6661033642
 30
0.0
 10
14.881207207
 20
7.6778552033
 30
0.0
 10
14.8871449466
 20
7.6903602689
 30
0.0
 10
14.893012932
 20
7.7036020883
 30
0.0
 10
14.8988033168
 20
7.7175631995
 30
0.0
 10
14.9045084318
 20
7.732225115
 30
0.0
 10
14.910120601
 20
7.7475684163
 30
0.0
 10
14.9156323403
 20
7.7635727342
 30
0.0
 10
14.9210362969
 20
7.7802168022
 30
0.0
 10
14.9263251898
 20
7.7974784987
 30
0.0
 10
14.9314919945
 20
7.8153348474
 30
0.0
 10
14.9365297691
 20
7.8337620817
 30
0.0
 10
14.9414317648
 20
7.8527356635
 30
0.0
 10
14.9461914615
 20
7.8722303126
 30
0.0
 10
14.950802444
 20
7.8922200588
 30
0.0
 10
14.9552585787
 20
7.9126782571
 30
0.0
 10
14.9595539056
 20
7.9335776387
 30
0.0
 10
14.9636826457
 20
7.9548903401
 30
0.0
 10
14.9676393473
 20
7.9765879637
 30
0.0
 10
14.9727101869
 20
8.0061784951
 30
0.0
 10
14.9785716686
 20
8.0439160456
 30
0.0
 10
14.9847979467
 20
8.0899843301
 30
0.0
 10
14.990226701
 20
8.1368706307
 30
0.0
 10
14.9948288801
 20
8.1843249501
 30
0.0
 10
14.9985798625
 20
8.2320944272
 30
0.0
 10
15.00145962
 20
8.279924454
 30
0.0
 10
15.0034528333
 20
8.3275600948
 30
0.0
 10
15.0045489856
 20
8.3747475089
 30
0.0
 10
15.0047423363
 20
8.4212350802
 30
0.0
 10
15.0041469083
 20
8.4594213313
 30
0.0
 10
15.003209791
 20
8.4894293691
 30
0.0
 10
15.0022864959
 20
8.5114661498
 30
0.0
 10
15.0011396627
 20
8.5331455004
 30
0.0
 10
14.9997707785
 20
8.5544385416
 30
0.0
 10
14.9981817367
 20
8.5753168762
 30
0.0
 10
14.9963746409
 20
8.5957526744
 30
0.0
 10
14.9943519238
 20
8.615718698
 30
0.0
 10
14.9921163358
 20
8.6351883382
 30
0.0
 10
14.9896708328
 20
8.6541356552
 30
0.0
 10
14.9870187465
 20
8.6725354127
 30
0.0
 10
14.9841636296
 20
8.6903631122
 30
0.0
 10
14.9811092955
 20
8.7075950268
 30
0.0
 10
14.9778599021
 20
8.7242082396
 30
0.0
 10
14.9744197633
 20
8.7401806682
 30
0.0
 10
14.9707935275
 20
8.7554911086
 30
0.0
 10
14.9669860787
 20
8.7701192633
 30
0.0
 10
14.9630024664
 20
8.7840457598
 30
0.0
 10
14.9588480819
 20
8.7972522248
 30
0.0
 10
14.9545284329
 20
8.8097212401
 30
0.0
 10
14.9500491998
 20
8.8214365387
 30
0.0
 10
14.9454164748
 20
8.8323825573
 30
0.0
 10
14.942136492
 20
8.8393555318
 30
0.0
 10
14.9404671107
 20
8.8427046429
 30
0.0
  0
SPLINE
  5
388
100
AcDbEntity
  8
0
100
AcDbSpline
 62
7
  6
CONTINUOUS
 70
0
 71
3
 72
46
 73
42
 74
0
 42
0.0000001
 43
0.0000001
 44
0.0000000001
 40
0.0
 40
0.0
 40
0.0
 40
0.0
 40
0.0311438108
 40
0.0624406334
 40
0.0938846344
 40
0.1254660256
 40
0.1571726665
 40
0.1889897835
 40
0.2209004356
 40
0.2528858386
 40
0.2849257504
 40
0.3169988721
 40
0.3490832635
 40
0.3811567665
 40
0.4131974329
 40
0.4451839486
 40
0.4770960506
 40
0.5089149273
 40
0.5406235996
 40
0.5722072746
 40
0.6036536653
 40
0.6349532727
 40
0.6660996176
 40
0.6970894187
 40
0.7279227089
 40
0.7586028853
 40
0.7891366854
 40
0.8043544234
 40
0.8195395717
 40
0.8346938558
 40
0.8498191719
 40
0.8649175898
 40
0.8799913266
 40
0.8950427483
 40
0.9100743483
 40
0.9250887347
 40
0.9400886209
 40
0.9550767999
 40
0.9700561391
 40
0.9850295553
 40
1.0
 40
1.0
 40
1.0
 40
1.0
 10
11.9121679336
 20
8.3123820554
 30
0.0
 10
11.9003744426
 20
8.3131999368
 30
0.0
 10
11.8767806074
 20
8.3157029467
 30
0.0
 10
11.8416758927
 20
8.322008133
 30
0.0
 10
11.8069471841
 20
8.3308397642
 30
0.0
 10
11.7727820288
 20
8.3421504035
 30
0.0
 10
11.7393619468
 20
8.355879392
 30
0.0
 10
11.7068652059
 20
8.3719533162
 30
0.0
 10
11.6754649298
 20
8.3902862833
 30
0.0
 10
11.6453284333
 20
8.4107803998
 30
0.0
 10
11.6166162774
 20
8.4333263016
 30
0.0
 10
11.5894814492
 20
8.4578037406
 30
0.0
 10
11.5640685503
 20
8.4840822184
 30
0.0
 10
11.5405130364
 20
8.5120216736
 30
0.0
 10
11.5189405069
 20
8.5414732229
 30
0.0
 10
11.4994660159
 20
8.5722799272
 30
0.0
 10
11.4821934759
 20
8.6042776342
 30
0.0
 10
11.4672151175
 20
8.6372958471
 30
0.0
 10
11.4546109985
 20
8.6711586198
 30
0.0
 10
11.4444485755
 20
8.7056854799
 30
0.0
 10
11.4367823492
 20
8.7406923804
 30
0.0
 10
11.4316535357
 20
8.7759926498
 30
0.0
 10
11.4290898599
 20
8.8113980222
 30
0.0
 10
11.4291053653
 20
8.8467194807
 30
0.0
 10
11.4317004948
 20
8.8817688089
 30
0.0
 10
11.4368614222
 20
8.9163575263
 30
0.0
 10
11.4432864631
 20
8.9446804635
 30
0.0
 10
11.4496772189
 20
8.9669156828
 30
0.0
 10
11.455083089
 20
8.9833465705
 30
0.0
 10
11.4610993974
 20
8.9995262354
 30
0.0
 10
11.4677182141
 20
9.0154333505
 30
0.0
 10
11.4749305755
 20
9.0310466296
 30
0.0
 10
11.4827270251
 20
9.0463451541
 30
0.0
 10
11.4910969851
 20
9.0613085585
 30
0.0
 10
11.5000294088
 20
9.0759167804
 30
0.0
 10
11.5095123083
 20
9.0901503261
 30
0.0
 10
11.5195330003
 20
9.1039901988
 30
0.0
 10
11.5300781776
 20
9.1174178115
 30
0.0
 10
11.5411336776
 20
9.1304153966
 30
0.0
 10
11.5526846392
 20
9.1429652112
 30
0.0
 10
11.5607060747
 20
9.1510230157
 30
0.0
 10
11.5647933033
 20
9.1549709924
 30
0.0
  0
SPLINE
  5
389
100
AcDbEntity
  8
0
100
AcDbSpline
 62
7
  6
CONTINUOUS
 70
0
 71
3
 72
41
 73
37
 74
0
 42
0.0000001
 43
0.0000001
 44
0.0000000001
 40
0.0
 40
0.0
 40
0.0
 40
0.0
 40
0.0311445023
 40
0.0624426262
 40
0.0938874266
 40
0.1254698196
 40
0.1571774021
 40
0.173076041
 40
0.1890002642
 40
0.2209118757
 40
0.2528982414
 40
0.2689155192
 40
0.2849438007
 40
0.3170178868
 40
0.3491032421
 40
0.3811777079
 40
0.4132193358
 40
0.4452068114
 40
0.4771198707
 40
0.5089397015
 40
0.540649324
 40
0.5722339448
 40
0.6036812775
 40
0.6349818227
 40
0.6661291006
 40
0.6971198291
 40
0.7279540411
 40
0.7586351339
 40
0.7891698461
 40
0.8195681577
 40
0.8498431118
 40
0.8800105574
 40
0.9100888178
 40
0.9400982893
 40
0.9700609798
 40
1.0
 40
1.0
 40
1.0
 40
1.0
 10
10.2816850772
 20
6.7360520254
 30
0.0
 10
10.2765195583
 20
6.7364102553
 30
0.0
 10
10.2661854169
 20
6.7375065967
 30
0.0
 10
10.2508095365
 20
6.7402682208
 30
0.0
 10
10.2355982274
 20
6.7441365682
 30
0.0
 10
10.2206341385
 20
6.7490904961
 30
0.0
 10
10.2084454397
 20
6.7540977089
 30
0.0
 10
10.1988962312
 20
6.7586156606
 30
0.0
 10
10.1894791375
 20
6.7634774262
 30
0.0
 10
10.1780089371
 20
6.7701741739
 30
0.0
 10
10.1670132847
 20
6.777651836
 30
0.0
 10
10.1585276342
 20
6.7840831442
 30
0.0
 10
10.150255492
 20
6.7908099337
 30
0.0
 10
10.1403479813
 20
6.799747102
 30
0.0
 10
10.1292173619
 20
6.81125694
 30
0.0
 10
10.1188999871
 20
6.8234945126
 30
0.0
 10
10.1094512378
 20
6.8363943188
 30
0.0
 10
10.1009214101
 20
6.8498876982
 30
0.0
 10
10.0933560486
 20
6.8639027338
 30
0.0
 10
10.0867955452
 20
6.8783647535
 30
0.0
 10
10.0812749671
 20
6.8931966901
 30
0.0
 10
10.076823858
 20
6.9083194959
 30
0.0
 10
10.0734660827
 20
6.9236525554
 30
0.0
 10
10.0712196966
 20
6.9391141105
 30
0.0
 10
10.0700968454
 20
6.9546216896
 30
0.0
 10
10.0701036952
 20
6.9700925431
 30
0.0
 10
10.0712403922
 20
6.9854440795
 30
0.0
 10
10.0735010535
 20
7.0005943035
 30
0.0
 10
10.0768737889
 20
7.0154622519
 30
0.0
 10
10.0813407559
 20
7.029968428
 30
0.0
 10
10.0868782373
 20
7.0440352232
 30
0.0
 10
10.0934567855
 20
7.0575873633
 30
0.0
 10
10.1010412704
 20
7.0705522229
 30
0.0
 10
10.1095914371
 20
7.0828605854
 30
0.0
 10
10.1190607219
 20
7.0944456824
 30
0.0
 10
10.1259556166
 20
7.1016485531
 30
0.0
 10
10.1295357139
 20
7.1051066585
 30
0.0
  0
SPLINE
  5
38A
100
AcDbEntity
  8
0
100
AcDbSpline
 62
7
  6
CONTINUOUS
 70
0
 71
3
 72
46
 73
42
 74
0
 42
0.0000001
 43
0.0000001
 44
0.0000000001
 40
0.0
 40
0.0
 40
0.0
 40
0.0
 40
0.0311438108
 40
0.0624406334
 40
0.0938846344
 40
0.1254660256
 40
0.1571726665
 40
0.1889897835
 40
0.2209004356
 40
0.2528858386
 40
0.2849257504
 40
0.3169988721
 40
0.3490832635
 40
0.3811567665
 40
0.4131974329
 40
0.4451839486
 40
0.4770960506
 40
0.5089149273
 40
0.5406235996
 40
0.5722072746
 40
0.6036536653
 40
0.6349532727
 40
0.6660996176
 40
0.6970894187
 40
0.7279227089
 40
0.7586028853
 40
0.7891366854
 40
0.8043544234
 40
0.8195395717
 40
0.8346938558
 40
0.8498191719
 40
0.8649175898
 40
0.8799913266
 40
0.8950427483
 40
0.9100743483
 40
0.9250887347
 40
0.9400886209
 40
0.9550767999
 40
0.9700561391
 40
0.9850295553
 40
1.0
 40
1.0
 40
1.0
 40
1.0
 10
12.5767251368
 20
7.4819630044
 30
0.0
 10
12.5649316458
 20
7.4827808858
 30
0.0
 10
12.5413378105
 20
7.4852838957
 30
0.0
 10
12.5062330958
 20
7.491589082
 30
0.0
 10
12.4715043873
 20
7.5004207132
 30
0.0
 10
12.437339232
 20
7.5117313525
 30
0.0
 10
12.4039191499
 20
7.525460341
 30
0.0
 10
12.3714224091
 20
7.5415342652
 30
0.0
 10
12.340022133
 20
7.5598672324
 30
0.0
 10
12.3098856364
 20
7.5803613488
 30
0.0
 10
12.2811734806
 20
7.6029072506
 30
0.0
 10
12.2540386524
 20
7.6273846896
 30
0.0
 10
12.2286257535
 20
7.6536631674
 30
0.0
 10
12.2050702395
 20
7.6816026226
 30
0.0
 10
12.1834977101
 20
7.7110541719
 30
0.0
 10
12.164023219
 20
7.7418608762
 30
0.0
 10
12.146750679
 20
7.7738585832
 30
0.0
 10
12.1317723207
 20
7.8068767961
 30
0.0
 10
12.1191682016
 20
7.8407395688
 30
0.0
 10
12.1090057787
 20
7.8752664289
 30
0.0
 10
12.1013395524
 20
7.9102733294
 30
0.0
 10
12.0962107389
 20
7.9455735988
 30
0.0
 10
12.093647063
 20
7.9809789712
 30
0.0
 10
12.0936625684
 20
8.0163004297
 30
0.0
 10
12.0962576979
 20
8.0513497579
 30
0.0
 10
12.1014186254
 20
8.0859384753
 30
0.0
 10
12.1078436662
 20
8.1142614125
 30
0.0
 10
12.1142344221
 20
8.1364966318
 30
0.0
 10
12.1196402922
 20
8.1529275195
 30
0.0
 10
12.1256566005
 20
8.1691071844
 30
0.0
 10
12.1322754172
 20
8.1850142995
 30
0.0
 10
12.1394877787
 20
8.2006275786
 30
0.0
 10
12.1472842283
 20
8.2159261031
 30
0.0
 10
12.1556541882
 20
8.2308895075
 30
0.0
 10
12.164586612
 20
8.2454977294
 30
0.0
 10
12.1740695115
 20
8.2597312751
 30
0.0
 10
12.1840902035
 20
8.2735711478
 30
0.0
 10
12.1946353807
 20
8.2869987605
 30
0.0
 10
12.2056908807
 20
8.2999963456
 30
0.0
 10
12.2172418424
 20
8.3125461602
 30
0.0
 10
12.2252632779
 20
8.3206039647
 30
0.0
 10
12.2293505065
 20
8.3245519414
 30
0.0
  0
SPLINE
  5
38B
100
AcDbEntity
  8
0
100
AcDbSpline
 62
7
  6
CONTINUOUS
 70
0
 71
3
 72
23
 73
19
 74
0
 42
0.0000001
 43
0.0000001
 44
0.0000000001
 40
0.0
 40
0.0
 40
0.0
 40
0.0
 40
0.0637814505
 40
0.1273658703
 40
0.1907477151
 40
0.253933757
 40
0.3169277385
 40
0.3797356541
 40
0.4423655141
 40
0.5048265656
 40
0.5671296213
 40
0.629286897
 40
0.6913118739
 40
0.7532192239
 40
0.8150246872
 40
0.8767449191
 40
0.9383973406
 40
1.0
 40
1.0
 40
1.0
 40
1.0
 10
12.6020893816
 20
7.506462985
 30
0.0
 10
12.6093947987
 20
7.5059563526
 30
0.0
 10
12.6240081178
 20
7.5052740957
 30
0.0
 10
12.6459157405
 20
7.5052491776
 30
0.0
 10
12.6677337572
 20
7.5062246373
 30
0.0
 10
12.6894160841
 20
7.508198299
 30
0.0
 10
12.7109184003
 20
7.5111662324
 30
0.0
 10
12.7321961432
 20
7.5151222889
 30
0.0
 10
12.7532053457
 20
7.5200583272
 30
0.0
 10
12.7739025729
 20
7.525964263
 30
0.0
 10
12.7942450503
 20
7.5328278454
 30
0.0
 10
12.814190728
 20
7.5406349139
 30
0.0
 10
12.8336983313
 20
7.5493694298
 30
0.0
 10
12.852727538
 20
7.5590133382
 30
0.0
 10
12.8712389801
 20
7.5695466525
 30
0.0
 10
12.8891944921
 20
7.5809477625
 30
0.0
 10
12.9065563883
 20
7.5931927353
 30
0.0
 10
12.917716014
 20
7.6019053673
 30
0.0
 10
12.9231833466
 20
7.6063923377
 30
0.0
  0
SPLINE
  5
38C
100
AcDbEntity
  8
0
100
AcDbSpline
 62
7
  6
CONTINUOUS
 70
0
 71
3
 72
11
 73
7
 74
0
 42
0.0000001
 43
0.0000001
 44
0.0000000001
 40
0.0
 40
0.0
 40
0.0
 40
0.0
 40
0.2479863835
 40
0.4973693008
 40
0.7480784378
 40
1.0
 40
1.0
 40
1.0
 40
1.0
 10
12.6020893816
 20
7.506462985
 30
0.0
 10
12.5884881485
 20
7.5074062338
 30
0.0
 10
12.5612755026
 20
7.5104469855
 30
0.0
 10
12.5208764272
 20
7.5183925012
 30
0.0
 10
12.4810558283
 20
7.5296777579
 30
0.0
 10
12.4551344007
 20
7.5393558752
 30
0.0
 10
12.4423637706
 20
7.5447168885
 30
0.0
  0
SPLINE
  5
38D
100
AcDbEntity
  8
0
100
AcDbSpline
 62
7
  6
CONTINUOUS
 70
0
 71
3
 72
27
 73
23
 74
0
 42
0.0000001
 43
0.0000001
 44
0.0000000001
 40
0.0
 40
0.0
 40
0.0
 40
0.0
 40
0.0322614609
 40
0.0644666269
 40
0.0966124454
 40
0.1286960987
 40
0.1926584119
 40
0.2563452648
 40
0.2880858773
 40
0.3197535572
 40
0.3513476129
 40
0.3828676896
 40
0.4456770272
 40
0.5081945173
 40
0.5704295427
 40
0.6323968284
 40
0.694116231
 40
0.7556124186
 40
0.8169144423
 40
0.8780552057
 40
0.9390708402
 40
1.0
 40
1.0
 40
1.0
 40
1.0
 10
12.1556744047
 20
7.8360839264
 30
0.0
 10
12.1535949202
 20
7.8412650952
 30
0.0
 10
12.1496061764
 20
7.8516861794
 30
0.0
 10
12.1441376571
 20
7.8674884097
 30
0.0
 10
12.139194446
 20
7.8834309333
 30
0.0
 10
12.1333184731
 20
7.9048257648
 30
0.0
 10
12.1273094772
 20
7.9318284606
 30
0.0
 10
12.1231053703
 20
7.9591107328
 30
0.0
 10
12.1208466972
 20
7.9809919402
 30
0.0
 10
12.1197067101
 20
7.9973958642
 30
0.0
 10
12.1191203327
 20
8.0137907623
 30
0.0
 10
12.119077546
 20
8.0355853745
 30
0.0
 10
12.1204053719
 20
8.06271845
 30
0.0
 10
12.1242116341
 20
8.0949776332
 30
0.0
 10
12.1302116682
 20
8.1267544784
 30
0.0
 10
12.1383782384
 20
8.1579020538
 30
0.0
 10
12.148674095
 20
8.1882774601
 30
0.0
 10
12.1610522154
 20
8.2177410066
 30
0.0
 10
12.1754558294
 20
8.2461570798
 30
0.0
 10
12.1918192952
 20
8.273395386
 30
0.0
 10
12.210066084
 20
8.2993289286
 30
0.0
 10
12.2234403717
 20
8.3156806414
 30
0.0
 10
12.2304076719
 20
8.3235945778
 30
0.0
  0
SPLINE
  5
38E
100
AcDbEntity
  8
0
100
AcDbSpline
 62
7
  6
CONTINUOUS
 70
0
 71
3
 72
23
 73
19
 74
0
 42
0.0000001
 43
0.0000001
 44
0.0000000001
 40
0.0
 40
0.0
 40
0.0
 40
0.0
 40
0.0637814505
 40
0.1273658703
 40
0.1907477151
 40
0.253933757
 40
0.3169277385
 40
0.3797356541
 40
0.4423655141
 40
0.5048265656
 40
0.5671296213
 40
0.629286897
 40
0.6913118739
 40
0.7532192239
 40
0.8150246872
 40
0.8767449191
 40
0.9383973406
 40
1.0
 40
1.0
 40
1.0
 40
1.0
 10
11.9375321784
 20
6.7682183888
 30
0.0
 10
11.9448375955
 20
6.7677117564
 30
0.0
 10
11.9594509146
 20
6.7670294994
 30
0.0
 10
11.9813585374
 20
6.7670045814
 30
0.0
 10
12.003176554
 20
6.767980041
 30
0.0
 10
12.0248588809
 20
6.7699537028
 30
0.0
 10
12.0463611972
 20
6.7729216361
 30
0.0
 10
12.0676389401
 20
6.7768776927
 30
0.0
 10
12.0886481425
 20
6.7818137309
 30
0.0
 10
12.1093453698
 20
6.7877196667
 30
0.0
 10
12.1296878471
 20
6.7945832491
 30
0.0
 10
12.1496335249
 20
6.8023903176
 30
0.0
 10
12.1691411282
 20
6.8111248335
 30
0.0
 10
12.1881703348
 20
6.8207687419
 30
0.0
 10
12.206681777
 20
6.8313020562
 30
0.0
 10
12.2246372889
 20
6.8427031662
 30
0.0
 10
12.2419991851
 20
6.854948139
 30
0.0
 10
12.2531588108
 20
6.863660771
 30
0.0
 10
12.2586261434
 20
6.8681477414
 30
0.0
  0
SPLINE
  5
38F
100
AcDbEntity
  8
0
100
AcDbSpline
 62
7
  6
CONTINUOUS
 70
0
 71
3
 72
11
 73
7
 74
0
 42
0.0000001
 43
0.0000001
 44
0.0000000001
 40
0.0
 40
0.0
 40
0.0
 40
0.0
 40
0.2479863835
 40
0.4973693008
 40
0.7480784378
 40
1.0
 40
1.0
 40
1.0
 40
1.0
 10
11.9375321784
 20
6.7682183888
 30
0.0
 10
11.9239309453
 20
6.7691616375
 30
0.0
 10
11.8967182994
 20
6.7722023892
 30
0.0
 10
11.856319224
 20
6.7801479049
 30
0.0
 10
11.8164986252
 20
6.7914331616
 30
0.0
 10
11.7905771975
 20
6.801111279
 30
0.0
 10
11.7778065675
 20
6.8064722922
 30
0.0
  0
SPLINE
  5
390
100
AcDbEntity
  8
0
100
AcDbSpline
 62
7
  6
CONTINUOUS
 70
0
 71
3
 72
27
 73
23
 74
0
 42
0.0000001
 43
0.0000001
 44
0.0000000001
 40
0.0
 40
0.0
 40
0.0
 40
0.0
 40
0.0322614609
 40
0.0644666269
 40
0.0966124454
 40
0.1286960987
 40
0.1926584119
 40
0.2563452648
 40
0.2880858773
 40
0.3197535572
 40
0.3513476129
 40
0.3828676896
 40
0.4456770272
 40
0.5081945173
 40
0.5704295427
 40
0.6323968284
 40
0.694116231
 40
0.7556124186
 40
0.8169144423
 40
0.8780552057
 40
0.9390708402
 40
1.0
 40
1.0
 40
1.0
 40
1.0
 10
11.4911172015
 20
7.0978393302
 30
0.0
 10
11.4890377171
 20
7.1030204989
 30
0.0
 10
11.4850489733
 20
7.1134415831
 30
0.0
 10
11.4795804539
 20
7.1292438134
 30
0.0
 10
11.4746372429
 20
7.145186337
 30
0.0
 10
11.4687612699
 20
7.1665811685
 30
0.0
 10
11.4627522741
 20
7.1935838643
 30
0.0
 10
11.4585481671
 20
7.2208661365
 30
0.0
 10
11.456289494
 20
7.242747344
 30
0.0
 10
11.4551495069
 20
7.259151268
 30
0.0
 10
11.4545631295
 20
7.275546166
 30
0.0
 10
11.4545203429
 20
7.2973407782
 30
0.0
 10
11.4558481688
 20
7.3244738537
 30
0.0
 10
11.459654431
 20
7.3567330369
 30
0.0
 10
11.465654465
 20
7.3885098821
 30
0.0
 10
11.4738210353
 20
7.4196574576
 30
0.0
 10
11.4841168919
 20
7.4500328638
 30
0.0
 10
11.4964950122
 20
7.4794964103
 30
0.0
 10
11.5108986262
 20
7.5079124835
 30
0.0
 10
11.5272620921
 20
7.5351507898
 30
0.0
 10
11.5455088809
 20
7.5610843324
 30
0.0
 10
11.5588831685
 20
7.5774360451
 30
0.0
 10
11.5658504687
 20
7.5853499816
 30
0.0
  0
SPLINE
  5
391
100
AcDbEntity
  8
0
100
AcDbSpline
 62
7
  6
CONTINUOUS
 70
0
 71
3
 72
23
 73
19
 74
0
 42
0.0000001
 43
0.0000001
 44
0.0000000001
 40
0.0
 40
0.0
 40
0.0
 40
0.0
 40
0.0637814505
 40
0.1273658703
 40
0.1907477151
 40
0.253933757
 40
0.3169277385
 40
0.3797356541
 40
0.4423655141
 40
0.5048265656
 40
0.5671296213
 40
0.629286897
 40
0.6913118739
 40
0.7532192239
 40
0.8150246872
 40
0.8767449191
 40
0.9383973406
 40
1.0
 40
1.0
 40
1.0
 40
1.0
 10
11.2729749753
 20
7.5986373822
 30
0.0
 10
11.2802803923
 20
7.5981307498
 30
0.0
 10
11.2948937115
 20
7.5974484928
 30
0.0
 10
11.3168013342
 20
7.5974235748
 30
0.0
 10
11.3386193509
 20
7.5983990345
 30
0.0
 10
11.3603016778
 20
7.6003726962
 30
0.0
 10
11.381803994
 20
7.6033406295
 30
0.0
 10
11.4030817369
 20
7.6072966861
 30
0.0
 10
11.4240909394
 20
7.6122327243
 30
0.0
 10
11.4447881666
 20
7.6181386601
 30
0.0
 10
11.465130644
 20
7.6250022425
 30
0.0
 10
11.4850763217
 20
7.632809311
 30
0.0
 10
11.504583925
 20
7.6415438269
 30
0.0
 10
11.5236131317
 20
7.6511877353
 30
0.0
 10
11.5421245738
 20
7.6617210496
 30
0.0
 10
11.5600800858
 20
7.6731221596
 30
0.0
 10
11.5774419819
 20
7.6853671324
 30
0.0
 10
11.5886016077
 20
7.6940797644
 30
0.0
 10
11.5940689403
 20
7.6985667349
 30
0.0
  0
SPLINE
  5
392
100
AcDbEntity
  8
0
100
AcDbSpline
 62
7
  6
CONTINUOUS
 70
0
 71
3
 72
11
 73
7
 74
0
 42
0.0000001
 43
0.0000001
 44
0.0000000001
 40
0.0
 40
0.0
 40
0.0
 40
0.0
 40
0.2479863835
 40
0.4973693008
 40
0.7480784378
 40
1.0
 40
1.0
 40
1.0
 40
1.0
 10
11.2729749753
 20
7.5986373822
 30
0.0
 10
11.2593737422
 20
7.5995806309
 30
0.0
 10
11.2321610963
 20
7.6026213827
 30
0.0
 10
11.1917620208
 20
7.6105668984
 30
0.0
 10
11.151941422
 20
7.621852155
 30
0.0
 10
11.1260199943
 20
7.6315302724
 30
0.0
 10
11.1132493643
 20
7.6368912857
 30
0.0
  0
SPLINE
  5
393
100
AcDbEntity
  8
0
100
AcDbSpline
 62
7
  6
CONTINUOUS
 70
0
 71
3
 72
27
 73
23
 74
0
 42
0.0000001
 43
0.0000001
 44
0.0000000001
 40
0.0
 40
0.0
 40
0.0
 40
0.0
 40
0.0322614609
 40
0.0644666269
 40
0.0966124454
 40
0.1286960987
 40
0.1926584119
 40
0.2563452648
 40
0.2880858773
 40
0.3197535572
 40
0.3513476129
 40
0.3828676896
 40
0.4456770272
 40
0.5081945173
 40
0.5704295427
 40
0.6323968284
 40
0.694116231
 40
0.7556124186
 40
0.8169144423
 40
0.8780552057
 40
0.9390708402
 40
1.0
 40
1.0
 40
1.0
 40
1.0
 10
10.8265599983
 20
7.9282583236
 30
0.0
 10
10.8244805139
 20
7.9334394923
 30
0.0
 10
10.8204917701
 20
7.9438605766
 30
0.0
 10
10.8150232508
 20
7.9596628068
 30
0.0
 10
10.8100800397
 20
7.9756053305
 30
0.0
 10
10.8042040668
 20
7.997000162
 30
0.0
 10
10.7981950709
 20
8.0240028577
 30
0.0
 10
10.793990964
 20
8.0512851299
 30
0.0
 10
10.7917322909
 20
8.0731663374
 30
0.0
 10
10.7905923038
 20
8.0895702614
 30
0.0
 10
10.7900059264
 20
8.1059651594
 30
0.0
 10
10.7899631397
 20
8.1277597716
 30
0.0
 10
10.7912909656
 20
8.1548928471
 30
0.0
 10
10.7950972278
 20
8.1871520303
 30
0.0
 10
10.8010972619
 20
8.2189288756
 30
0.0
 10
10.8092638321
 20
8.250076451
 30
0.0
 10
10.8195596887
 20
8.2804518572
 30
0.0
 10
10.831937809
 20
8.3099154037
 30
0.0
 10
10.8463414231
 20
8.3383314769
 30
0.0
 10
10.8627048889
 20
8.3655697832
 30
0.0
 10
10.8809516777
 20
8.3915033258
 30
0.0
 10
10.8943259654
 20
8.4078550386
 30
0.0
 10
10.9012932656
 20
8.415768975
 30
0.0
  0
SPLINE
  5
394
100
AcDbEntity
  8
0
100
AcDbSpline
 62
7
  6
CONTINUOUS
 70
0
 71
3
 72
94
 73
90
 74
0
 42
0.0000001
 43
0.0000001
 44
0.0000000001
 40
0.0
 40
0.0
 40
0.0
 40
0.0
 40
0.002716411
 40
0.0054532011
 40
0.0082302517
 40
0.0110665327
 40
0.0139797269
 40
0.0169860181
 40
0.0200999739
 40
0.0233344715
 40
0.0267008148
 40
0.0302087551
 40
0.0338666474
 40
0.0376816061
 40
0.0416595573
 40
0.0458054685
 40
0.0501233829
 40
0.0546165457
 40
0.0592875464
 40
0.0641382929
 40
0.0691701949
 40
0.0743841527
 40
0.0797806066
 40
0.0853596564
 40
0.091120982
 40
0.097063984
 40
0.1031877628
 40
0.1094911152
 40
0.1159726478
 40
0.1226306791
 40
0.1364682673
 40
0.1509869912
 40
0.1661667922
 40
0.1819851405
 40
0.1984172778
 40
0.2154364407
 40
0.2330140607
 40
0.2511199271
 40
0.269722328
 40
0.2887881727
 40
0.3082831309
 40
0.3281717535
 40
0.3484175824
 40
0.3689832519
 40
0.389830592
 40
0.4109207417
 40
0.4322142489
 40
0.4536711676
 40
0.4752511532
 40
0.4969135656
 40
0.5186175702
 40
0.5403222325
 40
0.561986614
 40
0.5835698734
 40
0.6050313662
 40
0.6263307396
 40
0.6474280293
 40
0.6682837608
 40
0.6888590562
 40
0.7091157293
 40
0.7290163859
 40
0.7485245265
 40
0.7676046664
 40
0.7862224473
 40
0.804344745
 40
0.8219397924
 40
0.8389773151
 40
0.8554286959
 40
0.8712671248
 40
0.8864677785
 40
0.9010080353
 40
0.9080242659
 40
0.9148680726
 40
0.9215373706
 40
0.9280302616
 40
0.9343451056
 40
0.9404804307
 40
0.9464350605
 40
0.95220807
 40
0.9577988039
 40
0.9632069895
 40
0.9684326468
 40
0.9734762099
 40
0.9783385336
 40
0.9830209473
 40
0.9875254668
 40
0.9918546708
 40
0.9960116289
 40
1.0
 40
1.0
 40
1.0
 40
1.0
 10
15.0375611516
 20
8.936108767
 30
0.0
 10
15.038876946
 20
8.9360175092
 30
0.0
 10
15.0415116684
 20
8.9357152082
 30
0.0
 10
15.0454301938
 20
8.9349062392
 30
0.0
 10
15.0493191223
 20
8.9337420011
 30
0.0
 10
15.0531756475
 20
8.9322234941
 30
0.0
 10
15.0569977968
 20
8.9303521474
 30
0.0
 10
15.0607836272
 20
8.9281294285
 30
0.0
 10
15.0645313353
 20
8.9255568428
 30
0.0
 10
15.0682393401
 20
8.9226361316
 30
0.0
 10
15.0719059604
 20
8.9193689025
 30
0.0
 10
15.0755296554
 20
8.915756993
 30
0.0
 10
15.0791088618
 20
8.9118022935
 30
0.0
 10
15.0826419202
 20
8.9075067578
 30
0.0
 10
15.0861273228
 20
8.9028725934
 30
0.0
 10
15.0895633867
 20
8.8979020391
 30
0.0
 10
15.0929485232
 20
8.8925975626
 30
0.0
 10
15.0962811527
 20
8.8869617871
 30
0.0
 10
15.0995595905
 20
8.8809974539
 30
0.0
 10
15.1027823246
 20
8.874707545
 30
0.0
 10
15.1059477171
 20
8.868095148
 30
0.0
 10
15.1090542092
 20
8.8611635459
 30
0.0
 10
15.1121003041
 20
8.8539161941
 30
0.0
 10
15.1150844088
 20
8.8463566776
 30
0.0
 10
15.1180051026
 20
8.838488785
 30
0.0
 10
15.1208608866
 20
8.830316434
 30
0.0
 10
15.1236503169
 20
8.8218437066
 30
0.0
 10
15.1263720376
 20
8.813074853
 30
0.0
 10
15.1290246342
 20
8.8040142398
 30
0.0
 10
15.1325123665
 20
8.7913878872
 30
0.0
 10
15.1366779611
 20
8.7749023909
 30
0.0
 10
15.1413186971
 20
8.7542769344
 30
0.0
 10
15.1456540178
 20
8.7326035805
 30
0.0
 10
15.1496751171
 20
8.7099258198
 30
0.0
 10
15.1533738084
 20
8.6862890236
 30
0.0
 10
15.1567425724
 20
8.6617405981
 30
0.0
 10
15.1597745513
 20
8.636329795
 30
0.0
 10
15.1624635703
 20
8.6101076239
 30
0.0
 10
15.1648041463
 20
8.5831267485
 30
0.0
 10
15.1667915213
 20
8.555441381
 30
0.0
 10
15.1684216506
 20
8.5271071644
 30
0.0
 10
15.1696912103
 20
8.4981810519
 30
0.0
 10
15.1705976022
 20
8.4687211924
 30
0.0
 10
15.1711389658
 20
8.4387868189
 30
0.0
 10
15.1713141922
 20
8.4084381269
 30
0.0
 10
15.1711229066
 20
8.3777361482
 30
0.0
 10
15.1705654729
 20
8.3467426251
 30
0.0
 10
15.1696429885
 20
8.3155198898
 30
0.0
 10
15.1683572991
 20
8.2841307391
 30
0.0
 10
15.1667109886
 20
8.2526383059
 30
0.0
 10
15.1647073635
 20
8.2211059302
 30
0.0
 10
15.1623504492
 20
8.1895970331
 30
0.0
 10
15.1596449802
 20
8.1581749894
 30
0.0
 10
15.1565964096
 20
8.1269029972
 30
0.0
 10
15.1532108807
 20
8.0958439504
 30
0.0
 10
15.149495214
 20
8.0650603139
 30
0.0
 10
15.1454568923
 20
8.0346139991
 30
0.0
 10
15.1411040526
 20
8.0045662349
 30
0.0
 10
15.13644548
 20
7.9749774408
 30
0.0
 10
15.1314905717
 20
7.9459071079
 30
0.0
 10
15.126249323
 20
7.9174136837
 30
0.0
 10
15.1207323027
 20
7.8895544504
 30
0.0
 10
15.1149506489
 20
7.8623854012
 30
0.0
 10
15.1089160408
 20
7.835961125
 30
0.0
 10
15.1026406657
 20
7.8103347017
 30
0.0
 10
15.0961371979
 20
7.7855575983
 30
0.0
 10
15.0894187693
 20
7.7616795483
 30
0.0
 10
15.0824989645
 20
7.7387484547
 30
0.0
 10
15.0753917718
 20
7.7168102302
 30
0.0
 10
15.0681115519
 20
7.6959089266
 30
0.0
 10
15.0618405523
 20
7.6791972561
 30
0.0
 10
15.0567405256
 20
7.6663848478
 30
0.0
 10
15.0529269188
 20
7.6571748072
 30
0.0
 10
15.0490811556
 20
7.6482541954
 30
0.0
 10
15.0452051125
 20
7.6396274874
 30
0.0
 10
15.0413008041
 20
7.6312989878
 30
0.0
 10
15.0373701288
 20
7.6232728844
 30
0.0
 10
15.0334150953
 20
7.6155531817
 30
0.0
 10
15.0294376973
 20
7.6081437321
 30
0.0
 10
15.0254398727
 20
7.6010482539
 30
0.0
 10
15.0214236847
 20
7.59427025
 30
0.0
 10
15.0173910714
 20
7.5878131216
 30
0.0
 10
15.013344071
 20
7.5816800787
 30
0.0
 10
15.0092847319
 20
7.5758741557
 30
0.0
 10
15.0052149647
 20
7.570398242
 30
0.0
 10
15.0011367775
 20
7.5652549565
 30
0.0
 10
14.9970520403
 20
7.5604468459
 30
0.0
 10
14.9929629958
 20
7.5559765197
 30
0.0
 10
14.9901787605
 20
7.5531657244
 30
0.0
 10
14.9887858836
 20
7.5518203085
 30
0.0
  0
SPLINE
  5
395
100
AcDbEntity
  8
0
100
AcDbSpline
 62
7
  6
CONTINUOUS
 70
0
 71
3
 72
23
 73
19
 74
0
 42
0.0000001
 43
0.0000001
 44
0.0000000001
 40
0.0
 40
0.0
 40
0.0
 40
0.0
 40
0.0637814505
 40
0.1273658703
 40
0.1907477151
 40
0.253933757
 40
0.3169277385
 40
0.3797356541
 40
0.4423655141
 40
0.5048265656
 40
0.5671296213
 40
0.629286897
 40
0.6913118739
 40
0.7532192239
 40
0.8150246872
 40
0.8767449191
 40
0.9383973406
 40
1.0
 40
1.0
 40
1.0
 40
1.0
 10
11.9375321784
 20
8.336882036
 30
0.0
 10
11.9448375955
 20
8.3363754036
 30
0.0
 10
11.9594509146
 20
8.3356931467
 30
0.0
 10
11.9813585374
 20
8.3356682286
 30
0.0
 10
12.003176554
 20
8.3366436883
 30
0.0
 10
12.0248588809
 20
8.33861735
 30
0.0
 10
12.0463611972
 20
8.3415852834
 30
0.0
 10
12.0676389401
 20
8.3455413399
 30
0.0
 10
12.0886481425
 20
8.3504773782
 30
0.0
 10
12.1093453698
 20
8.356383314
 30
0.0
 10
12.1296878471
 20
8.3632468964
 30
0.0
 10
12.1496335249
 20
8.3710539649
 30
0.0
 10
12.1691411282
 20
8.3797884808
 30
0.0
 10
12.1881703348
 20
8.3894323892
 30
0.0
 10
12.206681777
 20
8.3999657035
 30
0.0
 10
12.2246372889
 20
8.4113668134
 30
0.0
 10
12.2419991851
 20
8.4236117863
 30
0.0
 10
12.2531588108
 20
8.4323244183
 30
0.0
 10
12.2586261434
 20
8.4368113887
 30
0.0
  0
SPLINE
  5
396
100
AcDbEntity
  8
0
100
AcDbSpline
 62
7
  6
CONTINUOUS
 70
0
 71
3
 72
11
 73
7
 74
0
 42
0.0000001
 43
0.0000001
 44
0.0000000001
 40
0.0
 40
0.0
 40
0.0
 40
0.0
 40
0.2479863835
 40
0.4973693008
 40
0.7480784378
 40
1.0
 40
1.0
 40
1.0
 40
1.0
 10
11.9375321784
 20
8.336882036
 30
0.0
 10
11.9239309453
 20
8.3378252848
 30
0.0
 10
11.8967182994
 20
8.3408660365
 30
0.0
 10
11.856319224
 20
8.3488115522
 30
0.0
 10
11.8164986252
 20
8.3600968089
 30
0.0
 10
11.7905771975
 20
8.3697749262
 30
0.0
 10
11.7778065675
 20
8.3751359395
 30
0.0
  0
SPLINE
  5
397
100
AcDbEntity
  8
0
100
AcDbSpline
 62
7
  6
CONTINUOUS
 70
0
 71
3
 72
27
 73
23
 74
0
 42
0.0000001
 43
0.0000001
 44
0.0000000001
 40
0.0
 40
0.0
 40
0.0
 40
0.0
 40
0.0322614609
 40
0.0644666269
 40
0.0966124454
 40
0.1286960987
 40
0.1926584119
 40
0.2563452648
 40
0.2880858773
 40
0.3197535572
 40
0.3513476129
 40
0.3828676896
 40
0.4456770272
 40
0.5081945173
 40
0.5704295427
 40
0.6323968284
 40
0.694116231
 40
0.7556124186
 40
0.8169144423
 40
0.8780552057
 40
0.9390708402
 40
1.0
 40
1.0
 40
1.0
 40
1.0
 10
11.4911172015
 20
8.6665029774
 30
0.0
 10
11.4890377171
 20
8.6716841462
 30
0.0
 10
11.4850489733
 20
8.6821052304
 30
0.0
 10
11.4795804539
 20
8.6979074607
 30
0.0
 10
11.4746372429
 20
8.7138499843
 30
0.0
 10
11.4687612699
 20
8.7352448158
 30
0.0
 10
11.4627522741
 20
8.7622475116
 30
0.0
 10
11.4585481671
 20
8.7895297838
 30
0.0
 10
11.456289494
 20
8.8114109912
 30
0.0
 10
11.4551495069
 20
8.8278149152
 30
0.0
 10
11.4545631295
 20
8.8442098133
 30
0.0
 10
11.4545203429
 20
8.8660044255
 30
0.0
 10
11.4558481688
 20
8.893137501
 30
0.0
 10
11.459654431
 20
8.9253966842
 30
0.0
 10
11.465654465
 20
8.9571735294
 30
0.0
 10
11.4738210353
 20
8.9883211048
 30
0.0
 10
11.4841168919
 20
9.0186965111
 30
0.0
 10
11.4964950122
 20
9.0481600576
 30
0.0
 10
11.5108986262
 20
9.0765761308
 30
0.0
 10
11.5272620921
 20
9.103814437
 30
0.0
 10
11.5455088809
 20
9.1297479796
 30
0.0
 10
11.5588831685
 20
9.1460996924
 30
0.0
 10
11.5658504687
 20
9.1540136288
 30
0.0
  0
SPLINE
  5
398
100
AcDbEntity
  8
0
100
AcDbSpline
 62
7
  6
CONTINUOUS
 70
0
 71
3
 72
46
 73
42
 74
0
 42
0.0000001
 43
0.0000001
 44
0.0000000001
 40
0.0
 40
0.0
 40
0.0
 40
0.0
 40
0.0311438108
 40
0.0624406334
 40
0.0938846344
 40
0.1254660256
 40
0.1571726665
 40
0.1889897835
 40
0.2209004356
 40
0.2528858386
 40
0.2849257504
 40
0.3169988721
 40
0.3490832635
 40
0.3811567665
 40
0.4131974329
 40
0.4451839486
 40
0.4770960506
 40
0.5089149273
 40
0.5406235996
 40
0.5722072746
 40
0.6036536653
 40
0.6349532727
 40
0.6660996176
 40
0.6970894187
 40
0.7279227089
 40
0.7586028853
 40
0.7891366854
 40
0.8043544234
 40
0.8195395717
 40
0.8346938558
 40
0.8498191719
 40
0.8649175898
 40
0.8799913266
 40
0.8950427483
 40
0.9100743483
 40
0.9250887347
 40
0.9400886209
 40
0.9550767999
 40
0.9700561391
 40
0.9850295553
 40
1.0
 40
1.0
 40
1.0
 40
1.0
 10
11.2476107305
 20
7.5741374016
 30
0.0
 10
11.2358172395
 20
7.574955283
 30
0.0
 10
11.2122234042
 20
7.5774582928
 30
0.0
 10
11.1771186895
 20
7.5837634792
 30
0.0
 10
11.142389981
 20
7.5925951104
 30
0.0
 10
11.1082248257
 20
7.6039057496
 30
0.0
 10
11.0748047436
 20
7.6176347381
 30
0.0
 10
11.0423080028
 20
7.6337086623
 30
0.0
 10
11.0109077267
 20
7.6520416295
 30
0.0
 10
10.9807712301
 20
7.6725357459
 30
0.0
 10
10.9520590743
 20
7.6950816477
 30
0.0
 10
10.924924246
 20
7.7195590868
 30
0.0
 10
10.8995113471
 20
7.7458375646
 30
0.0
 10
10.8759558332
 20
7.7737770198
 30
0.0
 10
10.8543833038
 20
7.803228569
 30
0.0
 10
10.8349088127
 20
7.8340352734
 30
0.0
 10
10.8176362727
 20
7.8660329803
 30
0.0
 10
10.8026579144
 20
7.8990511932
 30
0.0
 10
10.7900537953
 20
7.9329139659
 30
0.0
 10
10.7798913724
 20
7.9674408261
 30
0.0
 10
10.7722251461
 20
8.0024477265
 30
0.0
 10
10.7670963326
 20
8.0377479959
 30
0.0
 10
10.7645326567
 20
8.0731533683
 30
0.0
 10
10.7645481621
 20
8.1084748269
 30
0.0
 10
10.7671432916
 20
8.143524155
 30
0.0
 10
10.7723042191
 20
8.1781128724
 30
0.0
 10
10.7787292599
 20
8.2064358097
 30
0.0
 10
10.7851200158
 20
8.228671029
 30
0.0
 10
10.7905258859
 20
8.2451019166
 30
0.0
 10
10.7965421942
 20
8.2612815815
 30
0.0
 10
10.8031610109
 20
8.2771886966
 30
0.0
 10
10.8103733724
 20
8.2928019757
 30
0.0
 10
10.818169822
 20
8.3081005002
 30
0.0
 10
10.8265397819
 20
8.3230639046
 30
0.0
 10
10.8354722057
 20
8.3376721265
 30
0.0
 10
10.8449551051
 20
8.3519056722
 30
0.0
 10
10.8549757972
 20
8.365745545
 30
0.0
 10
10.8655209744
 20
8.3791731577
 30
0.0
 10
10.8765764744
 20
8.3921707428
 30
0.0
 10
10.8881274361
 20
8.4047205573
 30
0.0
 10
10.8961488716
 20
8.4127783618
 30
0.0
 10
10.9002361002
 20
8.4167263385
 30
0.0
  0
SPLINE
  5
399
100
AcDbEntity
  8
0
100
AcDbSpline
 62
7
  6
CONTINUOUS
 70
0
 71
3
 72
23
 73
19
 74
0
 42
0.0000001
 43
0.0000001
 44
0.0000000001
 40
0.0
 40
0.0
 40
0.0
 40
0.0
 40
0.061648204
 40
0.1233194452
 40
0.1850364756
 40
0.2468215591
 40
0.308696212
 40
0.3706809269
 40
0.4327950009
 40
0.4950563329
 40
0.557481203
 40
0.6200840606
 40
0.6828775398
 40
0.7458725787
 40
0.8090767404
 40
0.8724961897
 40
0.9361405028
 40
1.0
 40
1.0
 40
1.0
 40
1.0
 10
10.4338344406
 20
6.7900729292
 30
0.0
 10
10.4313768112
 20
6.7876990436
 30
0.0
 10
10.4263318767
 20
6.7830816335
 30
0.0
 10
10.4184016277
 20
6.7765709203
 30
0.0
 10
10.4101269972
 20
6.7704905837
 30
0.0
 10
10.401529172
 20
6.7648561307
 30
0.0
 10
10.3926296897
 20
6.7596817555
 30
0.0
 10
10.3834510159
 20
6.7549804835
 30
0.0
 10
10.3740163055
 20
6.7507640675
 30
0.0
 10
10.3643492877
 20
6.7470432061
 30
0.0
 10
10.3544743412
 20
6.7438272102
 30
0.0
 10
10.3444163572
 20
6.7411240954
 30
0.0
 10
10.3342006246
 20
6.7389407394
 30
0.0
 10
10.3238529039
 20
6.7372825875
 30
0.0
 10
10.3133993202
 20
6.7361536979
 30
0.0
 10
10.3028658329
 20
6.7355569611
 30
0.0
 10
10.2922796427
 20
6.7354939538
 30
0.0
 10
10.2852160695
 20
6.7358071502
 30
0.0
 10
10.2816850772
 20
6.7360520254
 30
0.0
  0
LINE
  5
39A
100
AcDbEntity
  8
0
100
AcDbLine
 62
7
  6
CONTINUOUS
 10
12.1216236852
 20
7.3167751584
 11
12.1243560528
 21
7.3192903644
  0
SPLINE
  5
39B
100
AcDbEntity
  8
0
100
AcDbSpline
 62
7
  6
CONTINUOUS
 70
0
 71
3
 72
41
 73
37
 74
0
 42
0.0000001
 43
0.0000001
 44
0.0000000001
 40
0.0
 40
0.0
 40
0.0
 40
0.0
 40
0.0311445023
 40
0.0624426262
 40
0.0938874266
 40
0.1254698196
 40
0.1571774021
 40
0.173076041
 40
0.1890002642
 40
0.2209118757
 40
0.2528982414
 40
0.2689155192
 40
0.2849438007
 40
0.3170178868
 40
0.3491032421
 40
0.3811777079
 40
0.4132193358
 40
0.4452068114
 40
0.4771198707
 40
0.5089397015
 40
0.540649324
 40
0.5722339448
 40
0.6036812775
 40
0.6349818227
 40
0.6661291006
 40
0.6971198291
 40
0.7279540411
 40
0.7586351339
 40
0.7891698461
 40
0.8195681577
 40
0.8498431118
 40
0.8800105574
 40
0.9100888178
 40
0.9400982893
 40
0.9700609798
 40
1.0
 40
1.0
 40
1.0
 40
1.0
 10
10.2816850772
 20
9.090979352
 30
0.0
 10
10.2765195583
 20
9.0913375819
 30
0.0
 10
10.2661854169
 20
9.0924339233
 30
0.0
 10
10.2508095365
 20
9.0951955474
 30
0.0
 10
10.2355982274
 20
9.0990638948
 30
0.0
 10
10.2206341385
 20
9.1040178227
 30
0.0
 10
10.2084454397
 20
9.1090250355
 30
0.0
 10
10.1988962312
 20
9.1135429872
 30
0.0
 10
10.1894791375
 20
9.1184047528
 30
0.0
 10
10.1780089371
 20
9.1251015005
 30
0.0
 10
10.1670132847
 20
9.1325791626
 30
0.0
 10
10.1585276342
 20
9.1390104708
 30
0.0
 10
10.150255492
 20
9.1457372603
 30
0.0
 10
10.1403479813
 20
9.1546744286
 30
0.0
 10
10.1292173619
 20
9.1661842666
 30
0.0
 10
10.1188999871
 20
9.1784218392
 30
0.0
 10
10.1094512378
 20
9.1913216454
 30
0.0
 10
10.1009214101
 20
9.2048150248
 30
0.0
 10
10.0933560486
 20
9.2188300604
 30
0.0
 10
10.0867955452
 20
9.23329208
 30
0.0
 10
10.0812749671
 20
9.2481240167
 30
0.0
 10
10.076823858
 20
9.2632468225
 30
0.0
 10
10.0734660827
 20
9.278579882
 30
0.0
 10
10.0712196966
 20
9.2940414371
 30
0.0
 10
10.0700968454
 20
9.3095490162
 30
0.0
 10
10.0701036952
 20
9.3250198697
 30
0.0
 10
10.0712403922
 20
9.3403714061
 30
0.0
 10
10.0735010535
 20
9.3555216301
 30
0.0
 10
10.0768737889
 20
9.3703895785
 30
0.0
 10
10.0813407559
 20
9.3848957546
 30
0.0
 10
10.0868782373
 20
9.3989625498
 30
0.0
 10
10.0934567855
 20
9.4125146899
 30
0.0
 10
10.1010412704
 20
9.4254795495
 30
0.0
 10
10.1095914371
 20
9.437787912
 30
0.0
 10
10.1190607219
 20
9.449373009
 30
0.0
 10
10.1259556166
 20
9.4565758797
 30
0.0
 10
10.1295357139
 20
9.4600339851
 30
0.0
  0
SPLINE
  5
39C
100
AcDbEntity
  8
0
100
AcDbSpline
 62
7
  6
CONTINUOUS
 70
0
 71
3
 72
23
 73
19
 74
0
 42
0.0000001
 43
0.0000001
 44
0.0000000001
 40
0.0
 40
0.0
 40
0.0
 40
0.0
 40
0.061648204
 40
0.1233194452
 40
0.1850364756
 40
0.2468215591
 40
0.308696212
 40
0.3706809269
 40
0.4327950009
 40
0.4950563329
 40
0.557481203
 40
0.6200840606
 40
0.6828775398
 40
0.7458725787
 40
0.8090767404
 40
0.8724961897
 40
0.9361405028
 40
1.0
 40
1.0
 40
1.0
 40
1.0
 10
13.5132061222
 20
6.5166303668
 30
0.0
 10
13.5107484928
 20
6.5142564812
 30
0.0
 10
13.5057035584
 20
6.509639071
 30
0.0
 10
13.4977733094
 20
6.5031283578
 30
0.0
 10
13.4894986789
 20
6.4970480212
 30
0.0
 10
13.4809008536
 20
6.4914135682
 30
0.0
 10
13.4720013714
 20
6.486239193
 30
0.0
 10
13.4628226976
 20
6.4815379211
 30
0.0
 10
13.4533879871
 20
6.477321505
 30
0.0
 10
13.4437209694
 20
6.4736006436
 30
0.0
 10
13.4338460229
 20
6.4703846478
 30
0.0
 10
13.4237880388
 20
6.467681533
 30
0.0
 10
13.4135723062
 20
6.465498177
 30
0.0
 10
13.4032245856
 20
6.463840025
 30
0.0
 10
13.3927710019
 20
6.4627111355
 30
0.0
 10
13.3822375145
 20
6.4621143987
 30
0.0
 10
13.3716513244
 20
6.4620513913
 30
0.0
 10
13.3645877512
 20
6.4623645878
 30
0.0
 10
13.3610567589
 20
6.4626094629
 30
0.0
  0
SPLINE
  5
39D
100
AcDbEntity
  8
0
100
AcDbSpline
 62
7
  6
CONTINUOUS
 70
0
 71
3
 72
18
 73
14
 74
0
 42
0.0000001
 43
0.0000001
 44
0.0000000001
 40
0.0
 40
0.0
 40
0.0
 40
0.0
 40
0.1504660016
 40
0.2917105222
 40
0.4244368723
 40
0.5495624665
 40
0.668214014
 40
0.7255497707
 40
0.7817912017
 40
0.8371401776
 40
0.891809274
 40
0.9460199962
 40
1.0
 40
1.0
 40
1.0
 40
1.0
 10
14.9887858836
 20
7.5518203085
 30
0.0
 10
14.9867927744
 20
7.5498951128
 30
0.0
 10
14.9828093199
 20
7.5462829243
 30
0.0
 10
14.976641009
 20
7.5414690224
 30
0.0
 10
14.9704798973
 20
7.5374429528
 30
0.0
 10
14.9643324338
 20
7.5342113342
 30
0.0
 10
14.9591655822
 20
7.532162116
 30
0.0
 10
14.9550633129
 20
7.5309446199
 30
0.0
 10
14.9520303027
 20
7.5302429199
 30
0.0
 10
14.9490073713
 20
7.5297427571
 30
0.0
 10
14.9459953421
 20
7.5294444064
 30
0.0
 10
14.9429954211
 20
7.5293480469
 30
0.0
 10
14.9410023626
 20
7.5294185624
 30
0.0
 10
14.9400106155
 20
7.5294873457
 30
0.0
  0
SPLINE
  5
39E
100
AcDbEntity
  8
0
100
AcDbSpline
 62
7
  6
CONTINUOUS
 70
0
 71
3
 72
23
 73
19
 74
0
 42
0.0000001
 43
0.0000001
 44
0.0000000001
 40
0.0
 40
0.0
 40
0.0
 40
0.0
 40
0.061648204
 40
0.1233194452
 40
0.1850364756
 40
0.2468215591
 40
0.308696212
 40
0.3706809269
 40
0.4327950009
 40
0.4950563329
 40
0.557481203
 40
0.6200840606
 40
0.6828775398
 40
0.7458725787
 40
0.8090767404
 40
0.8724961897
 40
0.9361405028
 40
1.0
 40
1.0
 40
1.0
 40
1.0
 10
13.5132061222
 20
8.9913325441
 30
0.0
 10
13.5107484928
 20
8.9889586586
 30
0.0
 10
13.5057035584
 20
8.9843412484
 30
0.0
 10
13.4977733094
 20
8.9778305352
 30
0.0
 10
13.4894986789
 20
8.9717501986
 30
0.0
 10
13.4809008536
 20
8.9661157456
 30
0.0
 10
13.4720013714
 20
8.9609413704
 30
0.0
 10
13.4628226976
 20
8.9562400984
 30
0.0
 10
13.4533879871
 20
8.9520236824
 30
0.0
 10
13.4437209694
 20
8.948302821
 30
0.0
 10
13.4338460229
 20
8.9450868251
 30
0.0
 10
13.4237880388
 20
8.9423837104
 30
0.0
 10
13.4135723062
 20
8.9402003543
 30
0.0
 10
13.4032245856
 20
8.9385422024
 30
0.0
 10
13.3927710019
 20
8.9374133128
 30
0.0
 10
13.3822375145
 20
8.936816576
 30
0.0
 10
13.3716513244
 20
8.9367535687
 30
0.0
 10
13.3645877512
 20
8.9370667651
 30
0.0
 10
13.3610567589
 20
8.9373116403
 30
0.0
  0
SPLINE
  5
39F
100
AcDbEntity
  8
0
100
AcDbSpline
 62
7
  6
CONTINUOUS
 70
0
 71
3
 72
31
 73
27
 74
0
 42
0.0000001
 43
0.0000001
 44
0.0000000001
 40
0.0
 40
0.0
 40
0.0
 40
0.0
 40
0.1628861356
 40
0.3221879796
 40
0.4000640913
 40
0.4764287151
 40
0.5509290832
 40
0.6230945954
 40
0.6922878392
 40
0.7575923205
 40
0.7884083137
 40
0.8177331388
 40
0.8453377559
 40
0.8709293445
 40
0.8942227253
 40
0.9149082319
 40
0.9327625709
 40
0.9406233401
 40
0.9478079762
 40
0.9604805799
 40
0.9663572564
 40
0.9722184421
 40
0.9783221367
 40
0.9848892135
 40
0.9920794747
 40
1.0
 40
1.0
 40
1.0
 40
1.0
 10
12.1195828505
 20
7.3282592685
 30
0.0
 10
12.1195819502
 20
7.3275848229
 30
0.0
 10
12.119593378
 20
7.3262507118
 30
0.0
 10
12.1196454101
 20
7.3245948324
 30
0.0
 10
12.1197133342
 20
7.3232983135
 30
0.0
 10
12.1197777158
 20
7.3223533337
 30
0.0
 10
12.1198571574
 20
7.3214332194
 30
0.0
 10
12.119953156
 20
7.3205445167
 30
0.0
 10
12.1200674598
 20
7.3196963653
 30
0.0
 10
12.1201818494
 20
7.3190212782
 30
0.0
 10
12.1202869059
 20
7.3185125376
 30
0.0
 10
12.1203706468
 20
7.3181589394
 30
0.0
 10
12.1204611083
 20
7.3178293501
 30
0.0
 10
12.120558811
 20
7.3175279442
 30
0.0
 10
12.120663951
 20
7.3172594856
 30
0.0
 10
12.1207767842
 20
7.317029293
 30
0.0
 10
12.1208816321
 20
7.3168673185
 30
0.0
 10
12.1209714233
 20
7.3167644623
 30
0.0
 10
12.1210564022
 20
7.3166872194
 30
0.0
 10
12.1211509737
 20
7.3166325423
 30
0.0
 10
12.1212506283
 20
7.316611617
 30
0.0
 10
12.1213251078
 20
7.3166126208
 30
0.0
 10
12.1214003259
 20
7.3166302948
 30
0.0
 10
12.121475839
 20
7.316663848
 30
0.0
 10
12.1215515275
 20
7.3167126138
 30
0.0
 10
12.1215995977
 20
7.3167529019
 30
0.0
 10
12.1216236852
 20
7.3167751584
 30
0.0
  0
SPLINE
  5
3A0
100
AcDbEntity
  8
0
100
AcDbSpline
 62
7
  6
CONTINUOUS
 70
0
 71
3
 72
41
 73
37
 74
0
 42
0.0000001
 43
0.0000001
 44
0.0000000001
 40
0.0
 40
0.0
 40
0.0
 40
0.0
 40
0.0311445023
 40
0.0624426262
 40
0.0938874266
 40
0.1254698196
 40
0.1571774021
 40
0.173076041
 40
0.1890002642
 40
0.2209118757
 40
0.2528982414
 40
0.2689155192
 40
0.2849438007
 40
0.3170178868
 40
0.3491032421
 40
0.3811777079
 40
0.4132193358
 40
0.4452068114
 40
0.4771198707
 40
0.5089397015
 40
0.540649324
 40
0.5722339448
 40
0.6036812775
 40
0.6349818227
 40
0.6661291006
 40
0.6971198291
 40
0.7279540411
 40
0.7586351339
 40
0.7891698461
 40
0.8195681577
 40
0.8498431118
 40
0.8800105574
 40
0.9100888178
 40
0.9400982893
 40
0.9700609798
 40
1.0
 40
1.0
 40
1.0
 40
1.0
 10
13.3610567589
 20
8.9373116403
 30
0.0
 10
13.35589124
 20
8.9376698702
 30
0.0
 10
13.3455570986
 20
8.9387662116
 30
0.0
 10
13.3301812182
 20
8.9415278358
 30
0.0
 10
13.3149699091
 20
8.9453961831
 30
0.0
 10
13.3000058202
 20
8.950350111
 30
0.0
 10
13.2878171213
 20
8.9553573239
 30
0.0
 10
13.2782679128
 20
8.9598752755
 30
0.0
 10
13.2688508192
 20
8.9647370411
 30
0.0
 10
13.2573806188
 20
8.9714337888
 30
0.0
 10
13.2463849664
 20
8.9789114509
 30
0.0
 10
13.2378993159
 20
8.9853427591
 30
0.0
 10
13.2296271736
 20
8.9920695487
 30
0.0
 10
13.219719663
 20
9.0010067169
 30
0.0
 10
13.2085890436
 20
9.0125165549
 30
0.0
 10
13.1982716688
 20
9.0247541275
 30
0.0
 10
13.1888229195
 20
9.0376539338
 30
0.0
 10
13.1802930917
 20
9.0511473132
 30
0.0
 10
13.1727277303
 20
9.0651623487
 30
0.0
 10
13.1661672269
 20
9.0796243684
 30
0.0
 10
13.1606466487
 20
9.094456305
 30
0.0
 10
13.1561955396
 20
9.1095791108
 30
0.0
 10
13.1528377644
 20
9.1249121704
 30
0.0
 10
13.1505913783
 20
9.1403737254
 30
0.0
 10
13.149468527
 20
9.1558813045
 30
0.0
 10
13.1494753768
 20
9.171352158
 30
0.0
 10
13.1506120739
 20
9.1867036944
 30
0.0
 10
13.1528727352
 20
9.2018539185
 30
0.0
 10
13.1562454706
 20
9.2167218668
 30
0.0
 10
13.1607124375
 20
9.231228043
 30
0.0
 10
13.166249919
 20
9.2452948381
 30
0.0
 10
13.1728284671
 20
9.2588469782
 30
0.0
 10
13.1804129521
 20
9.2718118379
 30
0.0
 10
13.1889631187
 20
9.2841202004
 30
0.0
 10
13.1984324035
 20
9.2957052973
 30
0.0
 10
13.2053272982
 20
9.3029081681
 30
0.0
 10
13.2089073955
 20
9.3063662734
 30
0.0
  0
SPLINE
  5
3A1
100
AcDbEntity
  8
0
100
AcDbSpline
 62
7
  6
CONTINUOUS
 70
0
 71
3
 72
26
 73
22
 74
0
 42
0.0000001
 43
0.0000001
 44
0.0000000001
 40
0.0
 40
0.0
 40
0.0
 40
0.0
 40
0.0616472087
 40
0.0924807976
 40
0.1233230054
 40
0.1850390322
 40
0.2468231106
 40
0.2777501846
 40
0.3087022546
 40
0.3706859579
 40
0.4327990268
 40
0.4950593387
 40
0.5574831658
 40
0.6200850367
 40
0.6828775384
 40
0.7143512564
 40
0.7458764573
 40
0.8090800689
 40
0.8724988264
 40
0.9361396051
 40
1.0
 40
1.0
 40
1.0
 40
1.0
 10
12.2595425639
 20
8.435719002
 30
0.0
 10
12.2539315175
 20
8.430299124
 30
0.0
 10
12.2452930337
 20
8.4223926268
 30
0.0
 10
12.2333644937
 20
8.4123278344
 30
0.0
 10
12.2211629097
 20
8.4025812681
 30
0.0
 10
12.205415915
 20
8.3910099106
 30
0.0
 10
12.1890625539
 20
8.3802930478
 30
0.0
 10
12.1756390697
 20
8.3722459808
 30
0.0
 10
12.1619836619
 20
8.3645475678
 30
0.0
 10
12.1445114007
 20
8.3555981566
 30
0.0
 10
12.1229710497
 20
8.3459717298
 30
0.0
 10
12.100900092
 20
8.3374764519
 30
0.0
 10
12.0783543985
 20
8.3301338523
 30
0.0
 10
12.0553910502
 20
8.3239623826
 30
0.0
 10
12.0359689995
 20
8.3198113574
 30
0.0
 10
12.0202835478
 20
8.3170891291
 30
0.0
 10
12.0044817417
 20
8.3147638989
 30
0.0
 10
11.9845750474
 20
8.3126142438
 30
0.0
 10
11.9605263108
 20
8.3112518236
 30
0.0
 10
11.9363567402
 20
8.311107793
 30
0.0
 10
11.9202298529
 20
8.3118229594
 30
0.0
 10
11.9121679336
 20
8.3123820554
 30
0.0
  0
SPLINE
  5
3A2
100
AcDbEntity
  8
0
100
AcDbSpline
 62
7
  6
CONTINUOUS
 70
0
 71
3
 72
26
 73
22
 74
0
 42
0.0000001
 43
0.0000001
 44
0.0000000001
 40
0.0
 40
0.0
 40
0.0
 40
0.0
 40
0.0616472087
 40
0.0924807976
 40
0.1233230054
 40
0.1850390322
 40
0.2468231106
 40
0.2777501846
 40
0.3087022546
 40
0.3706859579
 40
0.4327990268
 40
0.4950593387
 40
0.5574831658
 40
0.6200850367
 40
0.6828775384
 40
0.7143512564
 40
0.7458764573
 40
0.8090800689
 40
0.8724988264
 40
0.9361396051
 40
1.0
 40
1.0
 40
1.0
 40
1.0
 10
11.5949853608
 20
7.6974743482
 30
0.0
 10
11.5893743143
 20
7.6920544702
 30
0.0
 10
11.5807358306
 20
7.6841479729
 30
0.0
 10
11.5688072906
 20
7.6740831805
 30
0.0
 10
11.5566057066
 20
7.6643366143
 30
0.0
 10
11.5408587118
 20
7.6527652568
 30
0.0
 10
11.5245053507
 20
7.6420483939
 30
0.0
 10
11.5110818665
 20
7.6340013269
 30
0.0
 10
11.4974264588
 20
7.6263029139
 30
0.0
 10
11.4799541976
 20
7.6173535027
 30
0.0
 10
11.4584138466
 20
7.6077270759
 30
0.0
 10
11.4363428889
 20
7.5992317981
 30
0.0
 10
11.4137971954
 20
7.5918891984
 30
0.0
 10
11.3908338471
 20
7.5857177288
 30
0.0
 10
11.3714117964
 20
7.5815667035
 30
0.0
 10
11.3557263446
 20
7.5788444753
 30
0.0
 10
11.3399245386
 20
7.5765192451
 30
0.0
 10
11.3200178443
 20
7.57436959
 30
0.0
 10
11.2959691076
 20
7.5730071697
 30
0.0
 10
11.271799537
 20
7.5728631392
 30
0.0
 10
11.2556726497
 20
7.5735783056
 30
0.0
 10
11.2476107305
 20
7.5741374016
 30
0.0
  0
SPLINE
  5
3A3
100
AcDbEntity
  8
0
100
AcDbSpline
 62
7
  6
CONTINUOUS
 70
0
 71
3
 72
26
 73
22
 74
0
 42
0.0000001
 43
0.0000001
 44
0.0000000001
 40
0.0
 40
0.0
 40
0.0
 40
0.0
 40
0.0616472087
 40
0.0924807976
 40
0.1233230054
 40
0.1850390322
 40
0.2468231106
 40
0.2777501846
 40
0.3087022546
 40
0.3706859579
 40
0.4327990268
 40
0.4950593387
 40
0.5574831658
 40
0.6200850367
 40
0.6828775384
 40
0.7143512564
 40
0.7458764573
 40
0.8090800689
 40
0.8724988264
 40
0.9361396051
 40
1.0
 40
1.0
 40
1.0
 40
1.0
 10
12.2595425639
 20
6.8670553548
 30
0.0
 10
12.2539315175
 20
6.8616354768
 30
0.0
 10
12.2452930337
 20
6.8537289795
 30
0.0
 10
12.2333644937
 20
6.8436641871
 30
0.0
 10
12.2211629097
 20
6.8339176208
 30
0.0
 10
12.205415915
 20
6.8223462633
 30
0.0
 10
12.1890625539
 20
6.8116294005
 30
0.0
 10
12.1756390697
 20
6.8035823335
 30
0.0
 10
12.1619836619
 20
6.7958839205
 30
0.0
 10
12.1445114007
 20
6.7869345093
 30
0.0
 10
12.1229710497
 20
6.7773080825
 30
0.0
 10
12.100900092
 20
6.7688128047
 30
0.0
 10
12.0783543985
 20
6.761470205
 30
0.0
 10
12.0553910502
 20
6.7552987354
 30
0.0
 10
12.0359689995
 20
6.7511477101
 30
0.0
 10
12.0202835478
 20
6.7484254819
 30
0.0
 10
12.0044817417
 20
6.7461002517
 30
0.0
 10
11.9845750474
 20
6.7439505965
 30
0.0
 10
11.9605263108
 20
6.7425881763
 30
0.0
 10
11.9363567402
 20
6.7424441457
 30
0.0
 10
11.9202298529
 20
6.7431593122
 30
0.0
 10
11.9121679336
 20
6.7437184082
 30
0.0
  0
SPLINE
  5
3A4
100
AcDbEntity
  8
0
100
AcDbSpline
 62
7
  6
CONTINUOUS
 70
0
 71
3
 72
26
 73
22
 74
0
 42
0.0000001
 43
0.0000001
 44
0.0000000001
 40
0.0
 40
0.0
 40
0.0
 40
0.0
 40
0.0616472087
 40
0.0924807976
 40
0.1233230054
 40
0.1850390322
 40
0.2468231106
 40
0.2777501846
 40
0.3087022546
 40
0.3706859579
 40
0.4327990268
 40
0.4950593387
 40
0.5574831658
 40
0.6200850367
 40
0.6828775384
 40
0.7143512564
 40
0.7458764573
 40
0.8090800689
 40
0.8724988264
 40
0.9361396051
 40
1.0
 40
1.0
 40
1.0
 40
1.0
 10
12.9240997671
 20
7.605299951
 30
0.0
 10
12.9184887206
 20
7.599880073
 30
0.0
 10
12.9098502369
 20
7.5919735758
 30
0.0
 10
12.8979216969
 20
7.5819087834
 30
0.0
 10
12.8857201129
 20
7.5721622171
 30
0.0
 10
12.8699731182
 20
7.5605908596
 30
0.0
 10
12.853619757
 20
7.5498739968
 30
0.0
 10
12.8401962729
 20
7.5418269298
 30
0.0
 10
12.8265408651
 20
7.5341285168
 30
0.0
 10
12.8090686039
 20
7.5251791056
 30
0.0
 10
12.7875282529
 20
7.5155526788
 30
0.0
 10
12.7654572952
 20
7.5070574009
 30
0.0
 10
12.7429116017
 20
7.4997148013
 30
0.0
 10
12.7199482534
 20
7.4935433317
 30
0.0
 10
12.7005262027
 20
7.4893923064
 30
0.0
 10
12.6848407509
 20
7.4866700782
 30
0.0
 10
12.6690389449
 20
7.4843448479
 30
0.0
 10
12.6491322506
 20
7.4821951928
 30
0.0
 10
12.6250835139
 20
7.4808327726
 30
0.0
 10
12.6009139433
 20
7.480688742
 30
0.0
 10
12.5847870561
 20
7.4814039084
 30
0.0
 10
12.5767251368
 20
7.4819630044
 30
0.0
  0
SPLINE
  5
3A5
100
AcDbEntity
  8
0
100
AcDbSpline
 62
4
  6
CONTINUOUS
 70
0
 71
3
 72
383
 73
379
 74
0
 42
0.0000001
 43
0.0000001
 44
0.0000000001
 40
0.0
 40
0.0
 40
0.0
 40
0.0
 40
0.015625
 40
0.0234375
 40
0.03125
 40
0.0390625
 40
0.04296875
 40
0.046875
 40
0.05078125
 40
0.052734375
 40
0.0546875
 40
0.056640625
 40
0.05859375
 40
0.0595703125
 40
0.060546875
 40
0.0615234375
 40
0.0620117188
 40
0.0622558594
 40
0.0625
 40
0.0627441406
 40
0.0629882812
 40
0.0634765625
 40
0.064453125
 40
0.0654296875
 40
0.06640625
 40
0.068359375
 40
0.0703125
 40
0.072265625
 40
0.07421875
 40
0.078125
 40
0.08203125
 40
0.0859375
 40
0.09375
 40
0.1015625
 40
0.10546875
 40
0.109375
 40
0.11328125
 40
0.115234375
 40
0.1171875
 40
0.119140625
 40
0.12109375
 40
0.1220703125
 40
0.123046875
 40
0.1240234375
 40
0.1245117188
 40
0.1247558594
 40
0.125
 40
0.1252441406
 40
0.1254882812
 40
0.1259765625
 40
0.126953125
 40
0.1279296875
 40
0.12890625
 40
0.130859375
 40
0.1328125
 40
0.134765625
 40
0.13671875
 40
0.140625
 40
0.14453125
 40
0.1484375
 40
0.15625
 40
0.1640625
 40
0.16796875
 40
0.171875
 40
0.17578125
 40
0.177734375
 40
0.1796875
 40
0.181640625
 40
0.18359375
 40
0.1845703125
 40
0.185546875
 40
0.1865234375
 40
0.1870117188
 40
0.1872558594
 40
0.1875
 40
0.1877441406
 40
0.1879882812
 40
0.1884765625
 40
0.189453125
 40
0.1904296875
 40
0.19140625
 40
0.193359375
 40
0.1953125
 40
0.197265625
 40
0.19921875
 40
0.203125
 40
0.20703125
 40
0.2109375
 40
0.21875
 40
0.2265625
 40
0.23046875
 40
0.234375
 40
0.23828125
 40
0.2421875
 40
0.244140625
 40
0.24609375
 40
0.2470703125
 40
0.248046875
 40
0.2490234375
 40
0.2495117188
 40
0.2497558594
 40
0.25
 40
0.2502441406
 40
0.2504882812
 40
0.2509765625
 40
0.251953125
 40
0.2529296875
 40
0.25390625
 40
0.255859375
 40
0.2578125
 40
0.26171875
 40
0.265625
 40
0.26953125
 40
0.2734375
 40
0.28125
 40
0.2890625
 40
0.29296875
 40
0.296875
 40
0.30078125
 40
0.3046875
 40
0.306640625
 40
0.30859375
 40
0.3095703125
 40
0.310546875
 40
0.3115234375
 40
0.3120117188
 40
0.3122558594
 40
0.3125
 40
0.3127441406
 40
0.3129882812
 40
0.3134765625
 40
0.314453125
 40
0.3154296875
 40
0.31640625
 40
0.318359375
 40
0.3203125
 40
0.32421875
 40
0.328125
 40
0.33203125
 40
0.3359375
 40
0.34375
 40
0.3515625
 40
0.35546875
 40
0.359375
 40
0.36328125
 40
0.3671875
 40
0.369140625
 40
0.37109375
 40
0.3720703125
 40
0.373046875
 40
0.3740234375
 40
0.3745117188
 40
0.3747558594
 40
0.375
 40
0.3752441406
 40
0.3754882812
 40
0.3759765625
 40
0.376953125
 40
0.3779296875
 40
0.37890625
 40
0.380859375
 40
0.3828125
 40
0.38671875
 40
0.390625
 40
0.39453125
 40
0.3984375
 40
0.40625
 40
0.4140625
 40
0.41796875
 40
0.421875
 40
0.42578125
 40
0.4296875
 40
0.431640625
 40
0.43359375
 40
0.4345703125
 40
0.435546875
 40
0.4365234375
 40
0.4370117188
 40
0.4372558594
 40
0.4375
 40
0.4377441406
 40
0.4379882812
 40
0.4384765625
 40
0.439453125
 40
0.4404296875
 40
0.44140625
 40
0.443359375
 40
0.4453125
 40
0.44921875
 40
0.453125
 40
0.45703125
 40
0.4609375
 40
0.46875
 40
0.4765625
 40
0.484375
 40
0.48828125
 40
0.4921875
 40
0.494140625
 40
0.49609375
 40
0.498046875
 40
0.4990234375
 40
0.4995117188
 40
0.5
 40
0.5004882812
 40
0.5009765625
 40
0.501953125
 40
0.50390625
 40
0.505859375
 40
0.5078125
 40
0.51171875
 40
0.515625
 40
0.5234375
 40
0.53125
 40
0.5390625
 40
0.546875
 40
0.55078125
 40
0.5546875
 40
0.556640625
 40
0.55859375
 40
0.560546875
 40
0.5615234375
 40
0.5625
 40
0.5634765625
 40
0.564453125
 40
0.56640625
 40
0.568359375
 40
0.5703125
 40
0.57421875
 40
0.578125
 40
0.5859375
 40
0.59375
 40
0.6015625
 40
0.609375
 40
0.61328125
 40
0.6171875
 40
0.619140625
 40
0.62109375
 40
0.623046875
 40
0.6240234375
 40
0.6245117188
 40
0.625
 40
0.6254882812
 40
0.6259765625
 40
0.626953125
 40
0.62890625
 40
0.630859375
 40
0.6328125
 40
0.63671875
 40
0.640625
 40
0.6484375
 40
0.65625
 40
0.6640625
 40
0.671875
 40
0.67578125
 40
0.6796875
 40
0.681640625
 40
0.68359375
 40
0.685546875
 40
0.6865234375
 40
0.6870117188
 40
0.6875
 40
0.6879882812
 40
0.6884765625
 40
0.689453125
 40
0.69140625
 40
0.693359375
 40
0.6953125
 40
0.69921875
 40
0.703125
 40
0.7109375
 40
0.71875
 40
0.7265625
 40
0.73046875
 40
0.734375
 40
0.73828125
 40
0.7421875
 40
0.744140625
 40
0.74609375
 40
0.7470703125
 40
0.748046875
 40
0.7490234375
 40
0.7495117188
 40
0.7497558594
 40
0.75
 40
0.7502441406
 40
0.7504882812
 40
0.7509765625
 40
0.751953125
 40
0.7529296875
 40
0.75390625
 40
0.755859375
 40
0.7578125
 40
0.76171875
 40
0.765625
 40
0.76953125
 40
0.7734375
 40
0.78125
 40
0.7890625
 40
0.79296875
 40
0.796875
 40
0.80078125
 40
0.8046875
 40
0.806640625
 40
0.80859375
 40
0.8095703125
 40
0.810546875
 40
0.8115234375
 40
0.8120117188
 40
0.8122558594
 40
0.8125
 40
0.8127441406
 40
0.8129882812
 40
0.8134765625
 40
0.814453125
 40
0.8154296875
 40
0.81640625
 40
0.818359375
 40
0.8203125
 40
0.82421875
 40
0.828125
 40
0.83203125
 40
0.8359375
 40
0.84375
 40
0.8515625
 40
0.85546875
 40
0.859375
 40
0.86328125
 40
0.8671875
 40
0.869140625
 40
0.87109375
 40
0.8720703125
 40
0.873046875
 40
0.8740234375
 40
0.8745117188
 40
0.8747558594
 40
0.875
 40
0.8752441406
 40
0.8754882812
 40
0.8759765625
 40
0.876953125
 40
0.8779296875
 40
0.87890625
 40
0.880859375
 40
0.8828125
 40
0.88671875
 40
0.890625
 40
0.89453125
 40
0.8984375
 40
0.90625
 40
0.9140625
 40
0.91796875
 40
0.921875
 40
0.92578125
 40
0.9296875
 40
0.931640625
 40
0.93359375
 40
0.9345703125
 40
0.935546875
 40
0.9365234375
 40
0.9370117188
 40
0.9372558594
 40
0.9375
 40
0.9377441406
 40
0.9379882812
 40
0.9384765625
 40
0.939453125
 40
0.9404296875
 40
0.94140625
 40
0.943359375
 40
0.9453125
 40
0.94921875
 40
0.953125
 40
0.95703125
 40
0.9609375
 40
0.96875
 40
0.9765625
 40
0.984375
 40
1.0
 40
1.0
 40
1.0
 40
1.0
 10
10.1741853498
 20
10.3042210495
 30
0.0
 10
10.1731207048
 20
10.3025565835
 30
0.0
 10
10.1715237373
 20
10.3000598846
 30
0.0
 10
10.1693944473
 20
10.2967309527
 30
0.0
 10
10.1677974798
 20
10.2942342538
 30
0.0
 10
10.1664666736
 20
10.2921536713
 30
0.0
 10
10.1654020285
 20
10.2904892053
 30
0.0
 10
10.1646035453
 20
10.2892408559
 30
0.0
 10
10.1639381404
 20
10.2882005647
 30
0.0
 10
10.1634058215
 20
10.2873683316
 30
0.0
 10
10.1630065688
 20
10.2867441571
 30
0.0
 10
10.1626073674
 20
10.2861199817
 30
0.0
 10
10.1622745398
 20
10.2855998382
 30
0.0
 10
10.1620086357
 20
10.2851837173
 30
0.0
 10
10.1618082293
 20
10.2848716434
 30
0.0
 10
10.1616443361
 20
10.2846115284
 30
0.0
 10
10.1615235034
 20
10.2844295528
 30
0.0
 10
10.1614639923
 20
10.2843254029
 30
0.0
 10
10.1613924954
 20
10.2842477522
 30
0.0
 10
10.1614236849
 20
10.2841683363
 30
0.0
 10
10.1614294528
 20
10.2840630642
 30
0.0
 10
10.1614562348
 20
10.283878551
 30
0.0
 10
10.16148577
 20
10.2836151108
 30
0.0
 10
10.1615249468
 20
10.2832989183
 30
0.0
 10
10.161575878
 20
10.2828773508
 30
0.0
 10
10.1616399897
 20
10.2823503837
 30
0.0
 10
10.1617167318
 20
10.2817180265
 30
0.0
 10
10.1617935252
 20
10.2810856684
 30
0.0
 10
10.1618958985
 20
10.2802425246
 30
0.0
 10
10.1620238712
 20
10.2791885947
 30
0.0
 10
10.1621774359
 20
10.2779238789
 30
0.0
 10
10.1623821898
 20
10.2762375911
 30
0.0
 10
10.1626381317
 20
10.2741297314
 30
0.0
 10
10.1628940739
 20
10.2720218717
 30
0.0
 10
10.1630988274
 20
10.2703355839
 30
0.0
 10
10.1632523932
 20
10.2690708681
 30
0.0
 10
10.1633803625
 20
10.2680169382
 30
0.0
 10
10.1634827428
 20
10.2671737944
 30
0.0
 10
10.1635595147
 20
10.2665414361
 30
0.0
 10
10.1636363376
 20
10.2659090796
 30
0.0
 10
10.1637001978
 20
10.2653821104
 30
0.0
 10
10.1637516418
 20
10.2649605471
 30
0.0
 10
10.1637892525
 20
10.2646443419
 30
0.0
 10
10.1638236877
 20
10.2643809415
 30
0.0
 10
10.1638417224
 20
10.2641963572
 30
0.0
 10
10.1638615056
 20
10.2640911991
 30
0.0
 10
10.1638496444
 20
10.264011433
 30
0.0
 10
10.1639398388
 20
10.2639350975
 30
0.0
 10
10.1640244998
 20
10.2638321202
 30
0.0
 10
10.1641892423
 20
10.2636524675
 30
0.0
 10
10.1644159176
 20
10.2633955292
 30
0.0
 10
10.1646916395
 20
10.263087328
 30
0.0
 10
10.1650579722
 20
10.2626763496
 30
0.0
 10
10.1655163329
 20
10.2621626415
 30
0.0
 10
10.1660661751
 20
10.2615461854
 30
0.0
 10
10.1666160683
 20
10.260929731
 30
0.0
 10
10.1673492415
 20
10.2601077911
 30
0.0
 10
10.168265714
 20
10.2590803666
 30
0.0
 10
10.1693654784
 20
10.257847457
 30
0.0
 10
10.1708318319
 20
10.2562035776
 30
0.0
 10
10.1726647734
 20
10.2541487283
 30
0.0
 10
10.1744977152
 20
10.2520938791
 30
0.0
 10
10.1759640683
 20
10.2504499997
 30
0.0
 10
10.1770638338
 20
10.2492170901
 30
0.0
 10
10.1779803029
 20
10.2481896654
 30
0.0
 10
10.1787134831
 20
10.2473677259
 30
0.0
 10
10.1792633548
 20
10.2467512705
 30
0.0
 10
10.1798132777
 20
10.2461348182
 30
0.0
 10
10.1802713875
 20
10.2456210981
 30
0.0
 10
10.1806382319
 20
10.2452101442
 30
0.0
 10
10.1809123911
 20
10.244901868
 30
0.0
 10
10.1811439556
 20
10.2446451645
 30
0.0
 10
10.18129997
 20
10.2444650926
 30
0.0
 10
10.1813986157
 20
10.2443627869
 30
0.0
 10
10.1814458535
 20
10.2442843886
 30
0.0
 10
10.18159533
 20
10.24421237
 30
0.0
 10
10.18175897
 20
10.2441141198
 30
0.0
 10
10.1820619555
 20
10.2439432189
 30
0.0
 10
10.1824861052
 20
10.2436985326
 30
0.0
 10
10.1829988031
 20
10.2434051411
 30
0.0
 10
10.1836811014
 20
10.2430138714
 30
0.0
 10
10.18453442
 20
10.2425248121
 30
0.0
 10
10.1855582113
 20
10.241937929
 30
0.0
 10
10.1865820537
 20
10.241351049
 30
0.0
 10
10.187947159
 20
10.2405685414
 30
0.0
 10
10.1896535468
 20
10.2395904071
 30
0.0
 10
10.1917012095
 20
10.2384166459
 30
0.0
 10
10.1944314274
 20
10.236851631
 30
0.0
 10
10.1978441994
 20
10.2348953623
 30
0.0
 10
10.2012569713
 20
10.2329390936
 30
0.0
 10
10.2039871895
 20
10.2313740788
 30
0.0
 10
10.2060348511
 20
10.2302003173
 30
0.0
 10
10.2080825208
 20
10.2290265573
 30
0.0
 10
10.2097888867
 20
10.2280484193
 30
0.0
 10
10.2111540368
 20
10.2272659193
 30
0.0
 10
10.2120071248
 20
10.2267768331
 30
0.0
 10
10.2126898948
 20
10.2263856185
 30
0.0
 10
10.213201152
 20
10.2260920586
 30
0.0
 10
10.2136298091
 20
10.2258478991
 30
0.0
 10
10.2139247481
 20
10.2256760578
 30
0.0
 10
10.2141012807
 20
10.2255793143
 30
0.0
 10
10.2142111553
 20
10.2255026678
 30
0.0
 10
10.2144071311
 20
10.2254416512
 30
0.0
 10
10.2146383991
 20
10.2253548439
 30
0.0
 10
10.2150571111
 20
10.2252054712
 30
0.0
 10
10.2156479555
 20
10.2249907536
 30
0.0
 10
10.2163601
 20
10.2247336609
 30
0.0
 10
10.2173085323
 20
10.2243906721
 30
0.0
 10
10.2184944472
 20
10.2239620041
 30
0.0
 10
10.2203917018
 20
10.2232760974
 30
0.0
 10
10.2227633418
 20
10.222418727
 30
0.0
 10
10.225609279
 20
10.2213898768
 30
0.0
 10
10.2284552244
 20
10.2203610282
 30
0.0
 10
10.2322498155
 20
10.2189892296
 30
0.0
 10
10.2369930553
 20
10.2172744814
 30
0.0
 10
10.2417362945
 20
10.2155597332
 30
0.0
 10
10.2455308867
 20
10.2141879347
 30
0.0
 10
10.2483768288
 20
10.2131590854
 30
0.0
 10
10.2512227784
 20
10.2121302379
 30
0.0
 10
10.2535943799
 20
10.2112728596
 30
0.0
 10
10.2554917129
 20
10.2105869688
 30
0.0
 10
10.2566774283
 20
10.2101582603
 30
0.0
 10
10.2576262701
 20
10.2098153546
 30
0.0
 10
10.2583371637
 20
10.2095580082
 30
0.0
 10
10.2589319218
 20
10.2093440845
 30
0.0
 10
10.259343647
 20
10.2091932945
 30
0.0
 10
10.2595861096
 20
10.2091087581
 30
0.0
 10
10.2597476994
 20
10.2090407659
 30
0.0
 10
10.2599867222
 20
10.2089903185
 30
0.0
 10
10.2602784098
 20
10.2089169354
 30
0.0
 10
10.2608014472
 20
10.2087913664
 30
0.0
 10
10.2615420644
 20
10.2086104913
 30
0.0
 10
10.2624336212
 20
10.2083940793
 30
0.0
 10
10.2636213799
 20
10.2081053071
 30
0.0
 10
10.2651064151
 20
10.2077444182
 30
0.0
 10
10.2674822832
 20
10.2071669533
 30
0.0
 10
10.2704521828
 20
10.2064451368
 30
0.0
 10
10.2740160348
 20
10.2055789507
 30
0.0
 10
10.2775798941
 20
10.2047127663
 30
0.0
 10
10.2823317039
 20
10.2035578531
 30
0.0
 10
10.2882714672
 20
10.2021142119
 30
0.0
 10
10.2942112299
 20
10.2006705705
 30
0.0
 10
10.2989630407
 20
10.1995156576
 30
0.0
 10
10.3025268972
 20
10.1986494724
 30
0.0
 10
10.3060907597
 20
10.1977832893
 30
0.0
 10
10.3090606264
 20
10.1970614637
 30
0.0
 10
10.3114365617
 20
10.1964840173
 30
0.0
 10
10.3129214258
 20
10.1961230812
 30
0.0
 10
10.3141095356
 20
10.1958344058
 30
0.0
 10
10.3150000198
 20
10.1956176982
 30
0.0
 10
10.3157439929
 20
10.1954377481
 30
0.0
 10
10.3162610395
 20
10.1953105278
 30
0.0
 10
10.316562326
 20
10.1952397904
 30
0.0
 10
10.316771864
 20
10.1951812165
 30
0.0
 10
10.3170441937
 20
10.1951437458
 30
0.0
 10
10.3173853975
 20
10.1950864239
 30
0.0
 10
10.3179927089
 20
10.1949895402
 30
0.0
 10
10.3188549615
 20
10.1948493418
 30
0.0
 10
10.3198919482
 20
10.1946818713
 30
0.0
 10
10.3212737995
 20
10.1944583091
 30
0.0
 10
10.3230013867
 20
10.1941789482
 30
0.0
 10
10.3257653737
 20
10.1937319195
 30
0.0
 10
10.3292204098
 20
10.1931731512
 30
0.0
 10
10.3333664306
 20
10.1925026217
 30
0.0
 10
10.3375124575
 20
10.1918320942
 30
0.0
 10
10.3430404912
 20
10.1909380569
 30
0.0
 10
10.3499505341
 20
10.1898205104
 30
0.0
 10
10.3568605766
 20
10.1887029638
 30
0.0
 10
10.3623886111
 20
10.1878089267
 30
0.0
 10
10.3665346356
 20
10.1871383984
 30
0.0
 10
10.3706806653
 20
10.1864678722
 30
0.0
 10
10.3741356737
 20
10.1859090935
 30
0.0
 10
10.3768997171
 20
10.185462086
 30
0.0
 10
10.3786271608
 20
10.1851826711
 30
0.0
 10
10.3800093067
 20
10.1849592199
 30
0.0
 10
10.3810453935
 20
10.1847914103
 30
0.0
 10
10.3819104618
 20
10.1846522727
 30
0.0
 10
10.3825127466
 20
10.1845534953
 30
0.0
 10
10.3828620044
 20
10.1844992076
 30
0.0
 10
10.3831095948
 20
10.1844524167
 30
0.0
 10
10.3834120494
 20
10.1844288479
 30
0.0
 10
10.3837961849
 20
10.1843893228
 30
0.0
 10
10.3844773385
 20
10.1843239277
 30
0.0
 10
10.3854457535
 20
10.1842285331
 30
0.0
 10
10.3866098468
 20
10.1841149041
 30
0.0
 10
10.3881612742
 20
10.1839631039
 30
0.0
 10
10.3901007972
 20
10.1837734545
 30
0.0
 10
10.3932039005
 20
10.1834699591
 30
0.0
 10
10.3970828254
 20
10.1830906092
 30
0.0
 10
10.4017375157
 20
10.182635381
 30
0.0
 10
10.4063922113
 20
10.182180155
 30
0.0
 10
10.4125984702
 20
10.1815731865
 30
0.0
 10
10.4203562938
 20
10.1808144748
 30
0.0
 10
10.4296656854
 20
10.1799040261
 30
0.0
 10
10.437423501
 20
10.1791453027
 30
0.0
 10
10.4436297776
 20
10.1785383599
 30
0.0
 10
10.4475086453
 20
10.1781589391
 30
0.0
 10
10.450611866
 20
10.1778555891
 30
0.0
 10
10.4529389351
 20
10.1776275657
 30
0.0
 10
10.4548792613
 20
10.1774391713
 30
0.0
 10
10.456235327
 20
10.1773041061
 30
0.0
 10
10.4570135985
 20
10.1772319055
 30
0.0
 10
10.4575877897
 20
10.1771637278
 30
0.0
 10
10.4581983423
 20
10.1771491694
 30
0.0
 10
10.4589997292
 20
10.1771110551
 30
0.0
 10
10.4604080657
 20
10.1770530694
 30
0.0
 10
10.4624168855
 20
10.1769656767
 30
0.0
 10
10.4648287916
 20
10.1768627555
 30
0.0
 10
10.4680442045
 20
10.1767248462
 30
0.0
 10
10.4720636288
 20
10.1765526927
 30
0.0
 10
10.4784946193
 20
10.1762771169
 30
0.0
 10
10.4865333876
 20
10.1759326911
 30
0.0
 10
10.4961798975
 20
10.1755193648
 30
0.0
 10
10.5058264072
 20
10.1751060293
 30
0.0
 10
10.513865176
 20
10.1747616266
 30
0.0
 10
10.5202961655
 20
10.1744860046
 30
0.0
 10
10.5243155924
 20
10.1743139686
 30
0.0
 10
10.527531
 20
10.174175818
 30
0.0
 10
10.5299429224
 20
10.174073634
 30
0.0
 10
10.5319516912
 20
10.173983935
 30
0.0
 10
10.5335613225
 20
10.1739223708
 30
0.0
 10
10.5347613971
 20
10.1738483403
 30
0.0
 10
10.5359887592
 20
10.1738806415
 30
0.0
 10
10.5376157101
 20
10.1738865668
 30
0.0
 10
10.5396526691
 20
10.1739067169
 30
0.0
 10
10.54209562
 20
10.1739254424
 30
0.0
 10
10.5453533769
 20
10.173952315
 30
0.0
 10
10.5494254056
 20
10.1739852534
 30
0.0
 10
10.5559407451
 20
10.1740383193
 30
0.0
 10
10.5640848871
 20
10.174104527
 30
0.0
 10
10.5738578721
 20
10.1741840284
 30
0.0
 10
10.5836308508
 20
10.1742635205
 30
0.0
 10
10.5917750085
 20
10.1743297514
 30
0.0
 10
10.5982903168
 20
10.1743827708
 30
0.0
 10
10.6023624248
 20
10.1744158276
 30
0.0
 10
10.6056200189
 20
10.174442457
 30
0.0
 10
10.608063467
 20
10.1744619257
 30
0.0
 10
10.6100988704
 20
10.1744797506
 30
0.0
 10
10.6115252295
 20
10.1744890861
 30
0.0
 10
10.6123378299
 20
10.1744993266
 30
0.0
 10
10.6129542154
 20
10.1744931868
 30
0.0
 10
10.6135440913
 20
10.1745398748
 30
0.0
 10
10.6143398395
 20
10.1745836985
 30
0.0
 10
10.6157280904
 20
10.1746689755
 30
0.0
 10
10.6177135585
 20
10.1747863111
 30
0.0
 10
10.620095156
 20
10.1749290352
 30
0.0
 10
10.6232709561
 20
10.1751186628
 30
0.0
 10
10.627240591
 20
10.1753559272
 30
0.0
 10
10.6335920713
 20
10.1757354217
 30
0.0
 10
10.6415313992
 20
10.1762098341
 30
0.0
 10
10.6510586036
 20
10.1767791088
 30
0.0
 10
10.6605858006
 20
10.1773483937
 30
0.0
 10
10.6685251467
 20
10.1778227808
 30
0.0
 10
10.6748765906
 20
10.178202326
 30
0.0
 10
10.678846318
 20
10.1784394614
 30
0.0
 10
10.6820219283
 20
10.1786293538
 30
0.0
 10
10.6844041057
 20
10.178771269
 30
0.0
 10
10.6863877595
 20
10.1788911355
 30
0.0
 10
10.6877792492
 20
10.1789718944
 30
0.0
 10
10.688569808
 20
10.1790229571
 30
0.0
 10
10.6891756239
 20
10.1790474092
 30
0.0
 10
10.6897321417
 20
10.1791247838
 30
0.0
 10
10.6904913611
 20
10.1792094901
 30
0.0
 10
10.6918119833
 20
10.1793663268
 30
0.0
 10
10.6937027751
 20
10.1795858827
 30
0.0
 10
10.6959699324
 20
10.1798512744
 30
0.0
 10
10.698993435
 20
10.1802044577
 30
0.0
 10
10.7027725988
 20
10.1806461671
 30
0.0
 10
10.7088193808
 20
10.1813527735
 30
0.0
 10
10.7163778171
 20
10.1822360757
 30
0.0
 10
10.7254479583
 20
10.1832960193
 30
0.0
 10
10.7330064055
 20
10.1841793099
 30
0.0
 10
10.7390531636
 20
10.1848859416
 30
0.0
 10
10.7435882335
 20
10.185415915
 30
0.0
 10
10.7481232977
 20
10.1859458905
 30
0.0
 10
10.7519025359
 20
10.1863875301
 30
0.0
 10
10.7549258861
 20
10.1867408567
 30
0.0
 10
10.7568155717
 20
10.1869616519
 30
0.0
 10
10.7583271101
 20
10.1871383657
 30
0.0
 10
10.7594613392
 20
10.1872706886
 30
0.0
 10
10.7604046999
 20
10.1873816332
 30
0.0
 10
10.7610686442
 20
10.187457969
 30
0.0
 10
10.7614424327
 20
10.1875036589
 30
0.0
 10
10.7617385725
 20
10.1875320965
 30
0.0
 10
10.7619743226
 20
10.1875828188
 30
0.0
 10
10.7623097207
 20
10.1876426753
 30
0.0
 10
10.762886853
 20
10.1877510458
 30
0.0
 10
10.7637164587
 20
10.1879039675
 30
0.0
 10
10.7647097893
 20
10.1880882839
 30
0.0
 10
10.7660349973
 20
10.188333756
 30
0.0
 10
10.7676912446
 20
10.1886406931
 30
0.0
 10
10.770341387
 20
10.1891317383
 30
0.0
 10
10.7736540147
 20
10.1897455634
 30
0.0
 10
10.7776291895
 20
10.1904821456
 30
0.0
 10
10.7816043586
 20
10.1912187299
 30
0.0
 10
10.786904586
 20
10.1922008415
 30
0.0
 10
10.7935298695
 20
10.1934284813
 30
0.0
 10
10.8001551535
 20
10.1946561209
 30
0.0
 10
10.8054553801
 20
10.1956382328
 30
0.0
 10
10.8094305517
 20
10.1963748162
 30
0.0
 10
10.8134057169
 20
10.1971114016
 30
0.0
 10
10.8167183747
 20
10.1977252167
 30
0.0
 10
10.8193684557
 20
10.1982162822
 30
0.0
 10
10.8210248593
 20
10.1985231677
 30
0.0
 10
10.8223497463
 20
10.1987687458
 30
0.0
 10
10.8233440574
 20
10.1989527385
 30
0.0
 10
10.8241705956
 20
10.1991066731
 30
0.0
 10
10.824753204
 20
10.1992132353
 30
0.0
 10
10.8250798279
 20
10.1992759892
 30
0.0
 10
10.8253425296
 20
10.1993178117
 30
0.0
 10
10.8255374438
 20
10.1993796753
 30
0.0
 10
10.8258209744
 20
10.1994551695
 30
0.0
 10
10.8263061363
 20
10.1995905414
 30
0.0
 10
10.8270049844
 20
10.1997822271
 30
0.0
 10
10.8278411368
 20
10.2000129788
 30
0.0
 10
10.8289568678
 20
10.2003203931
 30
0.0
 10
10.8303512367
 20
10.2007047482
 30
0.0
 10
10.8325823916
 20
10.2013196676
 30
0.0
 10
10.8353712788
 20
10.2020883336
 30
0.0
 10
10.8387179677
 20
10.2030107255
 30
0.0
 10
10.84206465
 20
10.2039331195
 30
0.0
 10
10.8465268954
 20
10.2051629773
 30
0.0
 10
10.8521047014
 20
10.2067002999
 30
0.0
 10
10.8576825079
 20
10.2082376223
 30
0.0
 10
10.8621447523
 20
10.2094674805
 30
0.0
 10
10.8654914377
 20
10.2103898736
 30
0.0
 10
10.8688381153
 20
10.2113122684
 30
0.0
 10
10.8716270375
 20
10.2120809258
 30
0.0
 10
10.8738581209
 20
10.2126958626
 30
0.0
 10
10.8752526719
 20
10.2130801734
 30
0.0
 10
10.876368029
 20
10.2133876786
 30
0.0
 10
10.8772053237
 20
10.2136181527
 30
0.0
 10
10.8779005981
 20
10.2138107069
 30
0.0
 10
10.8783921396
 20
10.2139445283
 30
0.0
 10
10.8786654485
 20
10.2140225069
 30
0.0
 10
10.8788917607
 20
10.2140767393
 30
0.0
 10
10.8790365364
 20
10.2141472234
 30
0.0
 10
10.8792580115
 20
10.2142355333
 30
0.0
 10
10.8796323417
 20
10.214392717
 30
0.0
 10
10.8801740271
 20
10.2146158842
 30
0.0
 10
10.8808210841
 20
10.2148842758
 30
0.0
 10
10.8816848626
 20
10.215241925
 30
0.0
 10
10.8827642311
 20
10.2156890571
 30
0.0
 10
10.8844914189
 20
10.216404429
 30
0.0
 10
10.8866503356
 20
10.2172986574
 30
0.0
 10
10.8892410648
 20
10.2183717257
 30
0.0
 10
10.8918317862
 20
10.2194447955
 30
0.0
 10
10.8952860842
 20
10.2208755547
 30
0.0
 10
10.8996039556
 20
10.2226640039
 30
0.0
 10
10.9039218277
 20
10.2244524531
 30
0.0
 10
10.9073761245
 20
10.2258832125
 30
0.0
 10
10.9099668494
 20
10.2269562817
 30
0.0
 10
10.9125575656
 20
10.2280293523
 30
0.0
 10
10.9147165226
 20
10.2289235735
 30
0.0
 10
10.9164436283
 20
10.22963896
 30
0.0
 10
10.9175232057
 20
10.230086055
 30
0.0
 10
10.9183865554
 20
10.2304437803
 30
0.0
 10
10.9190349225
 20
10.2307119391
 30
0.0
 10
10.9195725091
 20
10.2309358351
 30
0.0
 10
10.9199541562
 20
10.2310917177
 30
0.0
 10
10.9201639079
 20
10.2311821122
 30
0.0
 10
10.920344694
 20
10.2312461933
 30
0.0
 10
10.920435757
 20
10.2313244743
 30
0.0
 10
10.9205884707
 20
10.2314238958
 30
0.0
 10
10.9208411381
 20
10.2316001913
 30
0.0
 10
10.9212097149
 20
10.2318508354
 30
0.0
 10
10.9216487441
 20
10.2321521248
 30
0.0
 10
10.922235256
 20
10.2325536636
 30
0.0
 10
10.9229680057
 20
10.2330556489
 30
0.0
 10
10.9241406232
 20
10.2338587909
 30
0.0
 10
10.9256063204
 20
10.2348627301
 30
0.0
 10
10.927365189
 20
10.2360674522
 30
0.0
 10
10.929124049
 20
10.2372721756
 30
0.0
 10
10.9314691988
 20
10.238878473
 30
0.0
 10
10.9344006349
 20
10.2408863449
 30
0.0
 10
10.9379183587
 20
10.2432957912
 30
0.0
 10
10.9426086569
 20
10.2465083862
 30
0.0
 10
10.9461263807
 20
10.2489178324
 30
0.0
 10
10.9484715298
 20
10.2505241299
 30
0.0
  0
SPLINE
  5
3A6
100
AcDbEntity
  8
0
100
AcDbSpline
 62
4
  6
CONTINUOUS
 70
0
 71
3
 72
383
 73
379
 74
0
 42
0.0000001
 43
0.0000001
 44
0.0000000001
 40
0.0
 40
0.0
 40
0.0
 40
0.0
 40
0.015625
 40
0.0234375
 40
0.03125
 40
0.0390625
 40
0.04296875
 40
0.046875
 40
0.05078125
 40
0.052734375
 40
0.0546875
 40
0.056640625
 40
0.05859375
 40
0.0595703125
 40
0.060546875
 40
0.0615234375
 40
0.0620117188
 40
0.0622558594
 40
0.0625
 40
0.0627441406
 40
0.0629882812
 40
0.0634765625
 40
0.064453125
 40
0.0654296875
 40
0.06640625
 40
0.068359375
 40
0.0703125
 40
0.072265625
 40
0.07421875
 40
0.078125
 40
0.08203125
 40
0.0859375
 40
0.09375
 40
0.1015625
 40
0.10546875
 40
0.109375
 40
0.11328125
 40
0.115234375
 40
0.1171875
 40
0.119140625
 40
0.12109375
 40
0.1220703125
 40
0.123046875
 40
0.1240234375
 40
0.1245117188
 40
0.1247558594
 40
0.125
 40
0.1252441406
 40
0.1254882812
 40
0.1259765625
 40
0.126953125
 40
0.1279296875
 40
0.12890625
 40
0.130859375
 40
0.1328125
 40
0.134765625
 40
0.13671875
 40
0.140625
 40
0.14453125
 40
0.1484375
 40
0.15625
 40
0.1640625
 40
0.16796875
 40
0.171875
 40
0.17578125
 40
0.177734375
 40
0.1796875
 40
0.181640625
 40
0.18359375
 40
0.1845703125
 40
0.185546875
 40
0.1865234375
 40
0.1870117188
 40
0.1872558594
 40
0.1875
 40
0.1877441406
 40
0.1879882812
 40
0.1884765625
 40
0.189453125
 40
0.1904296875
 40
0.19140625
 40
0.193359375
 40
0.1953125
 40
0.197265625
 40
0.19921875
 40
0.203125
 40
0.20703125
 40
0.2109375
 40
0.21875
 40
0.2265625
 40
0.23046875
 40
0.234375
 40
0.23828125
 40
0.2421875
 40
0.244140625
 40
0.24609375
 40
0.2470703125
 40
0.248046875
 40
0.2490234375
 40
0.2495117188
 40
0.2497558594
 40
0.25
 40
0.2502441406
 40
0.2504882812
 40
0.2509765625
 40
0.251953125
 40
0.2529296875
 40
0.25390625
 40
0.255859375
 40
0.2578125
 40
0.26171875
 40
0.265625
 40
0.26953125
 40
0.2734375
 40
0.28125
 40
0.2890625
 40
0.29296875
 40
0.296875
 40
0.30078125
 40
0.3046875
 40
0.306640625
 40
0.30859375
 40
0.3095703125
 40
0.310546875
 40
0.3115234375
 40
0.3120117188
 40
0.3122558594
 40
0.3125
 40
0.3127441406
 40
0.3129882812
 40
0.3134765625
 40
0.314453125
 40
0.3154296875
 40
0.31640625
 40
0.318359375
 40
0.3203125
 40
0.32421875
 40
0.328125
 40
0.33203125
 40
0.3359375
 40
0.34375
 40
0.3515625
 40
0.35546875
 40
0.359375
 40
0.36328125
 40
0.3671875
 40
0.369140625
 40
0.37109375
 40
0.3720703125
 40
0.373046875
 40
0.3740234375
 40
0.3745117188
 40
0.3747558594
 40
0.375
 40
0.3752441406
 40
0.3754882812
 40
0.3759765625
 40
0.376953125
 40
0.3779296875
 40
0.37890625
 40
0.380859375
 40
0.3828125
 40
0.38671875
 40
0.390625
 40
0.39453125
 40
0.3984375
 40
0.40625
 40
0.4140625
 40
0.41796875
 40
0.421875
 40
0.42578125
 40
0.4296875
 40
0.431640625
 40
0.43359375
 40
0.4345703125
 40
0.435546875
 40
0.4365234375
 40
0.4370117188
 40
0.4372558594
 40
0.4375
 40
0.4377441406
 40
0.4379882812
 40
0.4384765625
 40
0.439453125
 40
0.4404296875
 40
0.44140625
 40
0.443359375
 40
0.4453125
 40
0.44921875
 40
0.453125
 40
0.45703125
 40
0.4609375
 40
0.46875
 40
0.4765625
 40
0.484375
 40
0.48828125
 40
0.4921875
 40
0.494140625
 40
0.49609375
 40
0.498046875
 40
0.4990234375
 40
0.4995117188
 40
0.5
 40
0.5004882812
 40
0.5009765625
 40
0.501953125
 40
0.50390625
 40
0.505859375
 40
0.5078125
 40
0.51171875
 40
0.515625
 40
0.5234375
 40
0.53125
 40
0.5390625
 40
0.546875
 40
0.55078125
 40
0.5546875
 40
0.556640625
 40
0.55859375
 40
0.560546875
 40
0.5615234375
 40
0.5625
 40
0.5634765625
 40
0.564453125
 40
0.56640625
 40
0.568359375
 40
0.5703125
 40
0.57421875
 40
0.578125
 40
0.5859375
 40
0.59375
 40
0.6015625
 40
0.609375
 40
0.61328125
 40
0.6171875
 40
0.619140625
 40
0.62109375
 40
0.623046875
 40
0.6240234375
 40
0.6245117188
 40
0.625
 40
0.6254882812
 40
0.6259765625
 40
0.626953125
 40
0.62890625
 40
0.630859375
 40
0.6328125
 40
0.63671875
 40
0.640625
 40
0.6484375
 40
0.65625
 40
0.6640625
 40
0.671875
 40
0.67578125
 40
0.6796875
 40
0.681640625
 40
0.68359375
 40
0.685546875
 40
0.6865234375
 40
0.6870117188
 40
0.6875
 40
0.6879882812
 40
0.6884765625
 40
0.689453125
 40
0.69140625
 40
0.693359375
 40
0.6953125
 40
0.69921875
 40
0.703125
 40
0.7109375
 40
0.71875
 40
0.7265625
 40
0.73046875
 40
0.734375
 40
0.73828125
 40
0.7421875
 40
0.744140625
 40
0.74609375
 40
0.7470703125
 40
0.748046875
 40
0.7490234375
 40
0.7495117188
 40
0.7497558594
 40
0.75
 40
0.7502441406
 40
0.7504882812
 40
0.7509765625
 40
0.751953125
 40
0.7529296875
 40
0.75390625
 40
0.755859375
 40
0.7578125
 40
0.76171875
 40
0.765625
 40
0.76953125
 40
0.7734375
 40
0.78125
 40
0.7890625
 40
0.79296875
 40
0.796875
 40
0.80078125
 40
0.8046875
 40
0.806640625
 40
0.80859375
 40
0.8095703125
 40
0.810546875
 40
0.8115234375
 40
0.8120117188
 40
0.8122558594
 40
0.8125
 40
0.8127441406
 40
0.8129882812
 40
0.8134765625
 40
0.814453125
 40
0.8154296875
 40
0.81640625
 40
0.818359375
 40
0.8203125
 40
0.82421875
 40
0.828125
 40
0.83203125
 40
0.8359375
 40
0.84375
 40
0.8515625
 40
0.85546875
 40
0.859375
 40
0.86328125
 40
0.8671875
 40
0.869140625
 40
0.87109375
 40
0.8720703125
 40
0.873046875
 40
0.8740234375
 40
0.8745117188
 40
0.8747558594
 40
0.875
 40
0.8752441406
 40
0.8754882812
 40
0.8759765625
 40
0.876953125
 40
0.8779296875
 40
0.87890625
 40
0.880859375
 40
0.8828125
 40
0.88671875
 40
0.890625
 40
0.89453125
 40
0.8984375
 40
0.90625
 40
0.9140625
 40
0.91796875
 40
0.921875
 40
0.92578125
 40
0.9296875
 40
0.931640625
 40
0.93359375
 40
0.9345703125
 40
0.935546875
 40
0.9365234375
 40
0.9370117188
 40
0.9372558594
 40
0.9375
 40
0.9377441406
 40
0.9379882812
 40
0.9384765625
 40
0.939453125
 40
0.9404296875
 40
0.94140625
 40
0.943359375
 40
0.9453125
 40
0.94921875
 40
0.953125
 40
0.95703125
 40
0.9609375
 40
0.96875
 40
0.9765625
 40
0.984375
 40
1.0
 40
1.0
 40
1.0
 40
1.0
 10
10.9484715207
 20
10.2505241212
 30
0.0
 10
10.9495361657
 20
10.2521885871
 30
0.0
 10
10.9511331332
 20
10.254685286
 30
0.0
 10
10.9532624232
 20
10.258014218
 30
0.0
 10
10.9548593907
 20
10.2605109169
 30
0.0
 10
10.9561901969
 20
10.2625914993
 30
0.0
 10
10.9572548421
 20
10.2642559653
 30
0.0
 10
10.9580533253
 20
10.2655043148
 30
0.0
 10
10.9587187301
 20
10.266544606
 30
0.0
 10
10.9592510491
 20
10.267376839
 30
0.0
 10
10.9596503018
 20
10.2680010136
 30
0.0
 10
10.9600495031
 20
10.268625189
 30
0.0
 10
10.9603823308
 20
10.2691453324
 30
0.0
 10
10.9606482348
 20
10.2695614533
 30
0.0
 10
10.9608486412
 20
10.2698735272
 30
0.0
 10
10.9610125345
 20
10.2701336423
 30
0.0
 10
10.9611333671
 20
10.2703156178
 30
0.0
 10
10.9611928782
 20
10.2704197678
 30
0.0
 10
10.9612643751
 20
10.2704974184
 30
0.0
 10
10.9612331856
 20
10.2705768343
 30
0.0
 10
10.9612274178
 20
10.2706821065
 30
0.0
 10
10.9612006357
 20
10.2708666196
 30
0.0
 10
10.9611711005
 20
10.2711300598
 30
0.0
 10
10.9611319237
 20
10.2714462523
 30
0.0
 10
10.9610809925
 20
10.2718678198
 30
0.0
 10
10.9610168809
 20
10.2723947869
 30
0.0
 10
10.9609401388
 20
10.2730271441
 30
0.0
 10
10.9608633454
 20
10.2736595022
 30
0.0
 10
10.9607609721
 20
10.2745026461
 30
0.0
 10
10.9606329993
 20
10.275556576
 30
0.0
 10
10.9604794346
 20
10.2768212918
 30
0.0
 10
10.9602746808
 20
10.2785075795
 30
0.0
 10
10.9600187388
 20
10.2806154393
 30
0.0
 10
10.9597627966
 20
10.282723299
 30
0.0
 10
10.9595580432
 20
10.2844095867
 30
0.0
 10
10.9594044774
 20
10.2856743026
 30
0.0
 10
10.9592765081
 20
10.2867282325
 30
0.0
 10
10.9591741277
 20
10.2875713762
 30
0.0
 10
10.9590973558
 20
10.2882037345
 30
0.0
 10
10.9590205329
 20
10.2888360911
 30
0.0
 10
10.9589566728
 20
10.2893630602
 30
0.0
 10
10.9589052287
 20
10.2897846236
 30
0.0
 10
10.9588676181
 20
10.2901008288
 30
0.0
 10
10.9588331829
 20
10.2903642291
 30
0.0
 10
10.9588151481
 20
10.2905488134
 30
0.0
 10
10.9587953649
 20
10.2906539716
 30
0.0
 10
10.9588072261
 20
10.2907337376
 30
0.0
 10
10.9587170318
 20
10.2908100731
 30
0.0
 10
10.9586323708
 20
10.2909130504
 30
0.0
 10
10.9584676282
 20
10.2910927032
 30
0.0
 10
10.958240953
 20
10.2913496414
 30
0.0
 10
10.9579652311
 20
10.2916578426
 30
0.0
 10
10.9575988984
 20
10.292068821
 30
0.0
 10
10.9571405376
 20
10.2925825291
 30
0.0
 10
10.9565906954
 20
10.2931989853
 30
0.0
 10
10.9560408022
 20
10.2938154397
 30
0.0
 10
10.955307629
 20
10.2946373795
 30
0.0
 10
10.9543911565
 20
10.2956648041
 30
0.0
 10
10.9532913921
 20
10.2968977137
 30
0.0
 10
10.9518250386
 20
10.2985415931
 30
0.0
 10
10.9499920971
 20
10.3005964423
 30
0.0
 10
10.9481591553
 20
10.3026512916
 30
0.0
 10
10.9466928022
 20
10.304295171
 30
0.0
 10
10.9455930367
 20
10.3055280805
 30
0.0
 10
10.9446765676
 20
10.3065555052
 30
0.0
 10
10.9439433874
 20
10.3073774447
 30
0.0
 10
10.9433935157
 20
10.3079939002
 30
0.0
 10
10.9428435929
 20
10.3086103524
 30
0.0
 10
10.942385483
 20
10.3091240726
 30
0.0
 10
10.9420186386
 20
10.3095350265
 30
0.0
 10
10.9417444794
 20
10.3098433026
 30
0.0
 10
10.9415129149
 20
10.3101000061
 30
0.0
 10
10.9413569005
 20
10.310280078
 30
0.0
 10
10.9412582548
 20
10.3103823837
 30
0.0
 10
10.941211017
 20
10.310460782
 30
0.0
 10
10.9410615405
 20
10.3105328007
 30
0.0
 10
10.9408979006
 20
10.3106310508
 30
0.0
 10
10.940594915
 20
10.3108019518
 30
0.0
 10
10.9401707653
 20
10.311046638
 30
0.0
 10
10.9396580674
 20
10.3113400295
 30
0.0
 10
10.9389757691
 20
10.3117312992
 30
0.0
 10
10.9381224505
 20
10.3122203586
 30
0.0
 10
10.9370986592
 20
10.3128072417
 30
0.0
 10
10.9360748168
 20
10.3133941216
 30
0.0
 10
10.9347097115
 20
10.3141766293
 30
0.0
 10
10.9330033238
 20
10.3151547635
 30
0.0
 10
10.930955661
 20
10.3163285247
 30
0.0
 10
10.9282254432
 20
10.3178935396
 30
0.0
 10
10.9248126711
 20
10.3198498083
 30
0.0
 10
10.9213998992
 20
10.321806077
 30
0.0
 10
10.918669681
 20
10.3233710918
 30
0.0
 10
10.9166220195
 20
10.3245448533
 30
0.0
 10
10.9145743497
 20
10.3257186133
 30
0.0
 10
10.9128679839
 20
10.3266967514
 30
0.0
 10
10.9115028338
 20
10.3274792513
 30
0.0
 10
10.9106497458
 20
10.3279683376
 30
0.0
 10
10.9099669758
 20
10.3283595521
 30
0.0
 10
10.9094557186
 20
10.328653112
 30
0.0
 10
10.9090270614
 20
10.3288972715
 30
0.0
 10
10.9087321224
 20
10.3290691128
 30
0.0
 10
10.9085555899
 20
10.3291658563
 30
0.0
 10
10.9084457152
 20
10.3292425029
 30
0.0
 10
10.9082497394
 20
10.3293035194
 30
0.0
 10
10.9080184714
 20
10.3293903268
 30
0.0
 10
10.9075997594
 20
10.3295396995
 30
0.0
 10
10.9070089151
 20
10.3297544171
 30
0.0
 10
10.9062967705
 20
10.3300115097
 30
0.0
 10
10.9053483382
 20
10.3303544985
 30
0.0
 10
10.9041624233
 20
10.3307831665
 30
0.0
 10
10.9022651688
 20
10.3314690733
 30
0.0
 10
10.8998935288
 20
10.3323264437
 30
0.0
 10
10.8970475916
 20
10.3333552938
 30
0.0
 10
10.8942016461
 20
10.3343841424
 30
0.0
 10
10.8904070551
 20
10.3357559411
 30
0.0
 10
10.8856638152
 20
10.3374706892
 30
0.0
 10
10.880920576
 20
10.3391854375
 30
0.0
 10
10.8771259839
 20
10.3405572359
 30
0.0
 10
10.8742800417
 20
10.3415860852
 30
0.0
 10
10.8714340922
 20
10.3426149328
 30
0.0
 10
10.8690624906
 20
10.343472311
 30
0.0
 10
10.8671651577
 20
10.3441582019
 30
0.0
 10
10.8659794422
 20
10.3445869103
 30
0.0
 10
10.8650306005
 20
10.3449298161
 30
0.0
 10
10.8643197068
 20
10.3451871625
 30
0.0
 10
10.8637249487
 20
10.3454010861
 30
0.0
 10
10.8633132235
 20
10.3455518762
 30
0.0
 10
10.8630707609
 20
10.3456364126
 30
0.0
 10
10.8629091711
 20
10.3457044047
 30
0.0
 10
10.8626701483
 20
10.3457548522
 30
0.0
 10
10.8623784608
 20
10.3458282352
 30
0.0
 10
10.8618554233
 20
10.3459538043
 30
0.0
 10
10.8611148061
 20
10.3461346793
 30
0.0
 10
10.8602232494
 20
10.3463510913
 30
0.0
 10
10.8590354906
 20
10.3466398635
 30
0.0
 10
10.8575504554
 20
10.3470007524
 30
0.0
 10
10.8551745874
 20
10.3475782174
 30
0.0
 10
10.8522046877
 20
10.3483000339
 30
0.0
 10
10.8486408358
 20
10.34916622
 30
0.0
 10
10.8450769764
 20
10.3500324044
 30
0.0
 10
10.8403251666
 20
10.3511873175
 30
0.0
 10
10.8343854033
 20
10.3526309587
 30
0.0
 10
10.8284456407
 20
10.3540746001
 30
0.0
 10
10.8236938299
 20
10.355229513
 30
0.0
 10
10.8201299734
 20
10.3560956982
 30
0.0
 10
10.8165661108
 20
10.3569618814
 30
0.0
 10
10.8135962441
 20
10.357683707
 30
0.0
 10
10.8112203089
 20
10.3582611534
 30
0.0
 10
10.8097354447
 20
10.3586220894
 30
0.0
 10
10.8085473349
 20
10.3589107649
 30
0.0
 10
10.8076568508
 20
10.3591274725
 30
0.0
 10
10.8069128776
 20
10.3593074226
 30
0.0
 10
10.8063958311
 20
10.3594346428
 30
0.0
 10
10.8060945446
 20
10.3595053803
 30
0.0
 10
10.8058850065
 20
10.3595639542
 30
0.0
 10
10.8056126769
 20
10.3596014248
 30
0.0
 10
10.8052714731
 20
10.3596587467
 30
0.0
 10
10.8046641616
 20
10.3597556305
 30
0.0
 10
10.8038019091
 20
10.3598958288
 30
0.0
 10
10.8027649224
 20
10.3600632994
 30
0.0
 10
10.8013830711
 20
10.3602868615
 30
0.0
 10
10.7996554838
 20
10.3605662224
 30
0.0
 10
10.7968914968
 20
10.3610132511
 30
0.0
 10
10.7934364607
 20
10.3615720194
 30
0.0
 10
10.7892904399
 20
10.3622425489
 30
0.0
 10
10.785144413
 20
10.3629130764
 30
0.0
 10
10.7796163793
 20
10.3638071138
 30
0.0
 10
10.7727063364
 20
10.3649246602
 30
0.0
 10
10.765796294
 20
10.3660422068
 30
0.0
 10
10.7602682595
 20
10.3669362439
 30
0.0
 10
10.756122235
 20
10.3676067723
 30
0.0
 10
10.7519762052
 20
10.3682772984
 30
0.0
 10
10.7485211968
 20
10.3688360772
 30
0.0
 10
10.7457571534
 20
10.3692830846
 30
0.0
 10
10.7440297097
 20
10.3695624996
 30
0.0
 10
10.7426475638
 20
10.3697859508
 30
0.0
 10
10.7416114771
 20
10.3699537604
 30
0.0
 10
10.7407464087
 20
10.3700928979
 30
0.0
 10
10.740144124
 20
10.3701916754
 30
0.0
 10
10.7397948662
 20
10.3702459631
 30
0.0
 10
10.7395472757
 20
10.3702927539
 30
0.0
 10
10.7392448212
 20
10.3703163227
 30
0.0
 10
10.7388606856
 20
10.3703558479
 30
0.0
 10
10.738179532
 20
10.3704212429
 30
0.0
 10
10.737211117
 20
10.3705166375
 30
0.0
 10
10.7360470238
 20
10.3706302665
 30
0.0
 10
10.7344955963
 20
10.3707820668
 30
0.0
 10
10.7325560734
 20
10.3709717161
 30
0.0
 10
10.72945297
 20
10.3712752116
 30
0.0
 10
10.7255740451
 20
10.3716545614
 30
0.0
 10
10.7209193548
 20
10.3721097896
 30
0.0
 10
10.7162646593
 20
10.3725650156
 30
0.0
 10
10.7100584003
 20
10.3731719842
 30
0.0
 10
10.7023005767
 20
10.3739306958
 30
0.0
 10
10.6929911851
 20
10.3748411446
 30
0.0
 10
10.6852333696
 20
10.3755998679
 30
0.0
 10
10.6790270929
 20
10.3762068108
 30
0.0
 10
10.6751482252
 20
10.3765862315
 30
0.0
 10
10.6720450045
 20
10.3768895816
 30
0.0
 10
10.6697179355
 20
10.3771176049
 30
0.0
 10
10.6677776092
 20
10.3773059993
 30
0.0
 10
10.6664215435
 20
10.3774410645
 30
0.0
 10
10.665643272
 20
10.3775132651
 30
0.0
 10
10.6650690809
 20
10.3775814429
 30
0.0
 10
10.6644585282
 20
10.3775960013
 30
0.0
 10
10.6636571413
 20
10.3776341155
 30
0.0
 10
10.6622488048
 20
10.3776921013
 30
0.0
 10
10.6602399851
 20
10.377779494
 30
0.0
 10
10.657828079
 20
10.3778824151
 30
0.0
 10
10.654612666
 20
10.3780203245
 30
0.0
 10
10.6505932417
 20
10.3781924779
 30
0.0
 10
10.6441622512
 20
10.3784680537
 30
0.0
 10
10.636123483
 20
10.3788124796
 30
0.0
 10
10.626476973
 20
10.3792258058
 30
0.0
 10
10.6168304633
 20
10.3796391413
 30
0.0
 10
10.6087916945
 20
10.3799835441
 30
0.0
 10
10.602360705
 20
10.3802591661
 30
0.0
 10
10.5983412781
 20
10.380431202
 30
0.0
 10
10.5951258705
 20
10.3805693526
 30
0.0
 10
10.5927139482
 20
10.3806715367
 30
0.0
 10
10.5907051793
 20
10.3807612356
 30
0.0
 10
10.589095548
 20
10.3808227999
 30
0.0
 10
10.5878954734
 20
10.3808968304
 30
0.0
 10
10.5866681113
 20
10.3808645291
 30
0.0
 10
10.5850411604
 20
10.3808586039
 30
0.0
 10
10.5830042015
 20
10.3808384537
 30
0.0
 10
10.5805612505
 20
10.3808197282
 30
0.0
 10
10.5773034936
 20
10.3807928556
 30
0.0
 10
10.5732314649
 20
10.3807599173
 30
0.0
 10
10.5667161255
 20
10.3807068513
 30
0.0
 10
10.5585719834
 20
10.3806406437
 30
0.0
 10
10.5487989984
 20
10.3805611423
 30
0.0
 10
10.5390260197
 20
10.3804816502
 30
0.0
 10
10.530881862
 20
10.3804154192
 30
0.0
 10
10.5243665537
 20
10.3803623999
 30
0.0
 10
10.5202944458
 20
10.380329343
 30
0.0
 10
10.5170368516
 20
10.3803027137
 30
0.0
 10
10.5145934035
 20
10.380283245
 30
0.0
 10
10.5125580001
 20
10.38026542
 30
0.0
 10
10.5111316411
 20
10.3802560846
 30
0.0
 10
10.5103190406
 20
10.380245844
 30
0.0
 10
10.5097026552
 20
10.3802519838
 30
0.0
 10
10.5091127792
 20
10.3802052958
 30
0.0
 10
10.5083170311
 20
10.3801614721
 30
0.0
 10
10.5069287801
 20
10.3800761952
 30
0.0
 10
10.5049433121
 20
10.3799588595
 30
0.0
 10
10.5025617145
 20
10.3798161355
 30
0.0
 10
10.4993859144
 20
10.3796265078
 30
0.0
 10
10.4954162795
 20
10.3793892435
 30
0.0
 10
10.4890647992
 20
10.379009749
 30
0.0
 10
10.4811254713
 20
10.3785353365
 30
0.0
 10
10.471598267
 20
10.3779660618
 30
0.0
 10
10.4620710699
 20
10.377396777
 30
0.0
 10
10.4541317238
 20
10.3769223898
 30
0.0
 10
10.4477802799
 20
10.3765428446
 30
0.0
 10
10.4438105526
 20
10.3763057092
 30
0.0
 10
10.4406349422
 20
10.3761158168
 30
0.0
 10
10.4382527648
 20
10.3759739017
 30
0.0
 10
10.436269111
 20
10.3758540352
 30
0.0
 10
10.4348776213
 20
10.3757732762
 30
0.0
 10
10.4340870625
 20
10.3757222135
 30
0.0
 10
10.4334812466
 20
10.3756977615
 30
0.0
 10
10.4329247288
 20
10.3756203868
 30
0.0
 10
10.4321655094
 20
10.3755356806
 30
0.0
 10
10.4308448872
 20
10.3753788438
 30
0.0
 10
10.4289540954
 20
10.375159288
 30
0.0
 10
10.4266869381
 20
10.3748938963
 30
0.0
 10
10.4236634355
 20
10.3745407129
 30
0.0
 10
10.4198842717
 20
10.3740990035
 30
0.0
 10
10.4138374897
 20
10.3733923971
 30
0.0
 10
10.4062790534
 20
10.372509095
 30
0.0
 10
10.3972089122
 20
10.3714491514
 30
0.0
 10
10.389650465
 20
10.3705658608
 30
0.0
 10
10.383603707
 20
10.369859229
 30
0.0
 10
10.379068637
 20
10.3693292556
 30
0.0
 10
10.3745335728
 20
10.3687992801
 30
0.0
 10
10.3707543347
 20
10.3683576405
 30
0.0
 10
10.3677309845
 20
10.368004314
 30
0.0
 10
10.3658412988
 20
10.3677835187
 30
0.0
 10
10.3643297604
 20
10.367606805
 30
0.0
 10
10.3631955313
 20
10.367474482
 30
0.0
 10
10.3622521706
 20
10.3673635375
 30
0.0
 10
10.3615882264
 20
10.3672872017
 30
0.0
 10
10.3612144379
 20
10.3672415117
 30
0.0
 10
10.360918298
 20
10.3672130741
 30
0.0
 10
10.3606825479
 20
10.3671623519
 30
0.0
 10
10.3603471498
 20
10.3671024954
 30
0.0
 10
10.3597700176
 20
10.3669941248
 30
0.0
 10
10.3589404118
 20
10.3668412032
 30
0.0
 10
10.3579470812
 20
10.3666568868
 30
0.0
 10
10.3566218732
 20
10.3664114146
 30
0.0
 10
10.354965626
 20
10.3661044775
 30
0.0
 10
10.3523154835
 20
10.3656134323
 30
0.0
 10
10.3490028558
 20
10.3649996072
 30
0.0
 10
10.345027681
 20
10.3642630251
 30
0.0
 10
10.341052512
 20
10.3635264408
 30
0.0
 10
10.3357522845
 20
10.3625443292
 30
0.0
 10
10.329127001
 20
10.3613166894
 30
0.0
 10
10.322501717
 20
10.3600890497
 30
0.0
 10
10.3172014904
 20
10.3591069378
 30
0.0
 10
10.3132263188
 20
10.3583703544
 30
0.0
 10
10.3092511537
 20
10.3576337691
 30
0.0
 10
10.3059384959
 20
10.3570199539
 30
0.0
 10
10.3032884149
 20
10.3565288884
 30
0.0
 10
10.3016320112
 20
10.356222003
 30
0.0
 10
10.3003071242
 20
10.3559764248
 30
0.0
 10
10.2993128131
 20
10.3557924322
 30
0.0
 10
10.298486275
 20
10.3556384976
 30
0.0
 10
10.2979036665
 20
10.3555319353
 30
0.0
 10
10.2975770426
 20
10.3554691815
 30
0.0
 10
10.2973143409
 20
10.355427359
 30
0.0
 10
10.2971194268
 20
10.3553654954
 30
0.0
 10
10.2968358961
 20
10.3552900011
 30
0.0
 10
10.2963507342
 20
10.3551546292
 30
0.0
 10
10.2956518861
 20
10.3549629435
 30
0.0
 10
10.2948157337
 20
10.3547321918
 30
0.0
 10
10.2937000027
 20
10.3544247775
 30
0.0
 10
10.2923056339
 20
10.3540404225
 30
0.0
 10
10.2900744789
 20
10.3534255031
 30
0.0
 10
10.2872855917
 20
10.3526568371
 30
0.0
 10
10.2839389029
 20
10.3517344451
 30
0.0
 10
10.2805922205
 20
10.3508120512
 30
0.0
 10
10.2761299751
 20
10.3495821933
 30
0.0
 10
10.2705521692
 20
10.3480448707
 30
0.0
 10
10.2649743626
 20
10.3465075483
 30
0.0
 10
10.2605121182
 20
10.3452776902
 30
0.0
 10
10.2571654328
 20
10.344355297
 30
0.0
 10
10.2538187553
 20
10.3434329023
 30
0.0
 10
10.251029833
 20
10.3426642448
 30
0.0
 10
10.2487987496
 20
10.342049308
 30
0.0
 10
10.2474041986
 20
10.3416649972
 30
0.0
 10
10.2462888415
 20
10.3413574921
 30
0.0
 10
10.2454515469
 20
10.341127018
 30
0.0
 10
10.2447562725
 20
10.3409344637
 30
0.0
 10
10.2442647309
 20
10.3408006423
 30
0.0
 10
10.2439914221
 20
10.3407226637
 30
0.0
 10
10.2437651098
 20
10.3406684313
 30
0.0
 10
10.2436203342
 20
10.3405979473
 30
0.0
 10
10.2433988591
 20
10.3405096373
 30
0.0
 10
10.2430245288
 20
10.3403524537
 30
0.0
 10
10.2424828435
 20
10.3401292865
 30
0.0
 10
10.2418357864
 20
10.3398608948
 30
0.0
 10
10.2409720079
 20
10.3395032457
 30
0.0
 10
10.2398926394
 20
10.3390561135
 30
0.0
 10
10.2381654516
 20
10.3383407417
 30
0.0
 10
10.2360065349
 20
10.3374465133
 30
0.0
 10
10.2334158057
 20
10.336373445
 30
0.0
 10
10.2308250843
 20
10.3353003752
 30
0.0
 10
10.2273707864
 20
10.3338696159
 30
0.0
 10
10.2230529149
 20
10.3320811667
 30
0.0
 10
10.2187350428
 20
10.3302927176
 30
0.0
 10
10.215280746
 20
10.3288619582
 30
0.0
 10
10.2126900212
 20
10.3277888889
 30
0.0
 10
10.2100993049
 20
10.3267158184
 30
0.0
 10
10.2079403479
 20
10.3258215971
 30
0.0
 10
10.2062132422
 20
10.3251062107
 30
0.0
 10
10.2051336648
 20
10.3246591157
 30
0.0
 10
10.2042703151
 20
10.3243013903
 30
0.0
 10
10.2036219481
 20
10.3240332315
 30
0.0
 10
10.2030843614
 20
10.3238093356
 30
0.0
 10
10.2027027143
 20
10.3236534529
 30
0.0
 10
10.2024929626
 20
10.3235630584
 30
0.0
 10
10.2023121765
 20
10.3234989774
 30
0.0
 10
10.2022211136
 20
10.3234206964
 30
0.0
 10
10.2020683999
 20
10.3233212748
 30
0.0
 10
10.2018157325
 20
10.3231449794
 30
0.0
 10
10.2014471556
 20
10.3228943352
 30
0.0
 10
10.2010081265
 20
10.3225930458
 30
0.0
 10
10.2004216145
 20
10.322191507
 30
0.0
 10
10.1996888649
 20
10.3216895217
 30
0.0
 10
10.1985162473
 20
10.3208863798
 30
0.0
 10
10.1970505502
 20
10.3198824405
 30
0.0
 10
10.1952916815
 20
10.3186777184
 30
0.0
 10
10.1935328215
 20
10.317472995
 30
0.0
 10
10.1911876718
 20
10.3158666976
 30
0.0
 10
10.1882562356
 20
10.3138588257
 30
0.0
 10
10.1847385118
 20
10.3114493795
 30
0.0
 10
10.1800482136
 20
10.3082367845
 30
0.0
 10
10.1765304899
 20
10.3058273382
 30
0.0
 10
10.1741853407
 20
10.3042210407
 30
0.0
  0
ELLIPSE
  5
3A7
100
AcDbEntity
  8
0
100
AcDbEllipse
 62
7
  6
CONTINUOUS
 10
11.9375321784
 20
8.8365362192
 30
0.0
 11
-0.1351658165
 21
0.1746059688
 31
0.0
 40
0.9319380116
 41
0.0
 42
6.2831853072
  0
ELLIPSE
  5
3A8
100
AcDbEntity
  8
0
100
AcDbEllipse
 62
7
  6
CONTINUOUS
 10
11.313156073
 20
8.0788137554
 30
0.0
 11
0.2166029239
 21
-0.0856913371
 31
0.0
 40
0.8959242888
 41
0.0
 42
6.2831853072
  0
ELLIPSE
  5
3A9
100
AcDbEntity
  8
0
100
AcDbEllipse
 62
7
  6
CONTINUOUS
 10
12.6020893816
 20
8.0485765184
 30
0.0
 11
-0.0421403519
 21
0.2473636469
 31
0.0
 40
0.8380289501
 41
0.1260075476
 42
5.4866401894
  0
ELLIPSE
  5
3AA
100
AcDbEntity
  8
0
100
AcDbEllipse
 62
7
  6
CONTINUOUS
 10
11.9375321784
 20
7.2310605704
 30
0.0
 11
-0.12746594
 21
0.181432753
 31
0.0
 40
0.9304901512
 41
0.0
 42
6.2831853072
  0
ENDSEC
  0
SECTION
  2
OBJECTS
  0
DICTIONARY
  5
C
100
AcDbDictionary
280
0
281
1
  3
ACAD_GROUP
350
D
  3
ACAD_MLINESTYLE
350
17
  3
ACAD_LAYOUT
350
1A
  3
ACAD_PLOTSETTINGS
350
19
  3
ACAD_PLOTSTYLENAME
350
E
  3
ACAD_IMAGE_DICT
350
       3AC
  3
ACAD_IMAGE_VARS
350
       3AD
  3
ACAD_TABLESTYLE
350
       3AE
  0
IMAGEDEF_REACTOR
  5
3AB
100
AcDbRasterImageDefReactor
 90
2
330
267
  0
DICTIONARY
  5
D
102
{ACAD_REACTORS
330
C
102
}
100
AcDbDictionary
280
0
281
1
  0
ACDBDICTIONARYWDFLT
  5
E
102
{ACAD_REACTORS
330
C
102
}
100
AcDbDictionary
281
1
  3
Normal
350
F
100
AcDbDictionaryWithDefault
340
F
  0
DICTIONARY
  5
3AC
330
C
100
AcDbDictionary
281
1
  3
Z6F_assy_2_img_1
350
       3B1
  0
RASTERVARIABLES
  5
3AD
330
C
100
AcDbRasterVariables
 90
0
 70
0
 71
1
 72
5
  0
DICTIONARY
  5
17
102
{ACAD_REACTORS
330
C
102
}
100
AcDbDictionary
280
0
281
1
  3
Standard
350
18
  0
DICTIONARY
  5
3AE
330
C
100
AcDbDictionary
281
1
  3
Standard
350
       3B2
  3
Standard1
350
       3B3
  0
DICTIONARY
  5
19
102
{ACAD_REACTORS
330
C
102
}
100
AcDbDictionary
281
1
  0
DICTIONARY
  5
1A
102
{ACAD_REACTORS
330
C
102
}
100
AcDbDictionary
281
1
  3
Model
350
3AF
  3
Layout1
350
3B0
  0
ACDBPLACEHOLDER
  5
F
102
{ACAD_REACTORS
330
E
102
}
  0
MLINESTYLE
  5
18
102
{ACAD_REACTORS
330
17
102
}
100
AcDbMlineStyle
  2
STANDARD
 70
0
  3

 62
256
 51
90.0
 52
90.0
 71
2
 49
0.5
 62
256
  6
BYLAYER
 49
-0.5
 62
256
  6
BYLAYER
  0
LAYOUT
  5
3AF
102
{ACAD_REACTORS
330
1A
102
}
100
AcDbPlotSettings
  1

  2
none_device
  4
ANSI_C_(22.00_x_17.00_Inches)
  6

 40
0.0
 41
0.0
 42
0.0
 43
0.0
 44
558.8
 45
431.8
 46
0.0
 47
0.0
 48
0.0
 49
0.0
140
0.0
141
0.0
142
1.0
143
1.0
 70
1024
 72
0
 73
0
 74
0
  7

 75
0
147
1.0
148
0.0
149
0.0
100
AcDbLayout
  1
Model
 70
0
 71
0
 10
0.0
 20
0.0
 11
22.0
 21
17.0
 12
0.0
 22
0.0
 32
0.0
 14
0.0
 24
0.0
 34
0.0
 15
0.0
 25
0.0
 35
0.0
146
0.0
 13
0.0
 23
0.0
 33
0.0
 16
1.0
 26
0.0
 36
0.0
 17
0.0
 27
1.0
 37
0.0
 76
0
330
208
345
0
346
0
  0
LAYOUT
  5
3B0
102
{ACAD_REACTORS
330
1A
102
}
100
AcDbPlotSettings
  1

  2
none_device
  4
ANSI_C_(22.00_x_17.00_Inches)
  6

 40
0.0
 41
0.0
 42
0.0
 43
0.0
 44
558.8
 45
431.8
 46
0.0
 47
0.0
 48
0.0
 49
0.0
140
0.0
141
0.0
142
1.0
143
1.0
 70
0
 72
0
 73
0
 74
0
  7

 75
0
147
1.0
148
0.0
149
0.0
100
AcDbLayout
  1
Layout1
 70
0
 71
1
 10
0.0
 20
0.0
 11
22.0
 21
17.0
 12
0.0
 22
0.0
 32
0.0
 14
0.0
 24
0.0
 34
0.0
 15
0.0
 25
0.0
 35
0.0
146
0.0
 13
0.0
 23
0.0
 33
0.0
 16
1.0
 26
0.0
 36
0.0
 17
0.0
 27
1.0
 37
0.0
 76
0
330
209
345
0
346
0
  0
IMAGEDEF
  5
3B1
102
{ACAD_REACTORS
330
3AC
330
3AB
102
}
100
AcDbRasterImageDef
 90
0
  1
Z6F_assy_2_img_1.png
 10
369.0
 20
92.0
 11
0.0066666667
 21
0.0066666667
280
1
281
0
  0
TABLESTYLE
  5
3B2
102
{ACAD_REACTORS
330
3AE
330
26A
102
}
330
3AE
100
AcDbTableStyle
  3
Standard
 70
0
 71
0
 40
0.06
 41
0.06
280
1
281
1
  7
Standard
140
0.18
170
1
 62
0
 63
7
283
0
  7
Standard
140
0.18
170
1
 62
0
 63
7
283
0
  7
Standard
140
0.18
170
1
 62
0
 63
7
283
0
  0
TABLESTYLE
  5
3B3
102
{ACAD_REACTORS
330
3AE
330
269
102
}
330
3AE
100
AcDbTableStyle
  3
Standard1
 70
1
 71
0
 40
0.06
 41
0.06
280
1
281
1
  7
Standard
140
0.18
170
1
 62
0
 63
7
283
0
  7
Standard
140
0.18
170
1
 62
0
 63
7
283
0
  7
Standard
140
0.18
170
1
 62
0
 63
7
283
0
  0
ENDSEC
  0
EOF
