999
DXF file: Z6D_assy_2.dxf
999
Pro/ENGINEER 2014200 by Parametric Technology Corporation
  0
SECTION
  2
HEADER
  9
$ACADVER
  1
AC1021
  9
$DWGCODEPAGE
  3
ANSI_1252
  9
$EXTMAX
 10
22.0
 20
17.0
 30
0.0
  9
$EXTMIN
 10
0.0
 20
0.0
 30
0.0
  9
$LIMMIN
 10
0.0
 20
0.0
  9
$LIMMAX
 10
22.0
 20
17.0
  9
$VIEWCTR
 10
11.0
 20
8.5
  9
$VIEWSIZE
 40
17.0
  9
$CLAYER
  8
0
  9
$LTSCALE
 40
1.21
  9
$CELTYPE
  6
BYLAYER
  9
$DIMSCALE
 40
1.0
  9
$DIMASZ
 40
0.1875
  9
$DIMEXO
 40
0.0625
  9
$DIMDLI
 40
0.836
  9
$DIMEXE
 40
0.125
  9
$DIMCEN
 40
0.198
  9
$DIMLFAC
 40
1.0
  9
$DIMBLK
  1
_FILLED
  9
$DIMTXT
 40
0.1
  9
$DIMTOL
 70
0
  9
$DIMLIM
 70
0
  9
$DIMTFAC
 40
1.0
  9
$DIMGAP
 40
0.09
  9
$DIMDSEP
 70
46
  9
$AUNITS
 70
0
  9
$PDMODE
 70
3
  9
$PDSIZE
 40
0.3125
  9
$HANDSEED
  5
3E1
  9
$TILEMODE
 70
1
  9
$MEASUREMENT
 70
0
  9
$INSUNITS
 70
1
  0
ENDSEC
  0
SECTION
  2
CLASSES
  0
CLASS
  1
ACDBDICTIONARYWDFLT
  2
AcDbDictionaryWithDefault
  3
AutoCAD 2000
 90
0
 91
1
280
0
281
0
  0
CLASS
  1
ACDBPLACEHOLDER
  2
AcDbPlaceHolder
  3
AutoCAD 2000
 90
0
 91
1
280
0
281
0
  0
CLASS
  1
LAYOUT
  2
AcDbLayout
  3
AutoCAD 2000
 90
0
 91
0
280
0
281
0
  0
CLASS
  1
RASTERVARIABLES
  2
AcDbRasterVariables
  3
ISM
 90
0
 91
1
280
0
281
0
  0
CLASS
  1
IMAGEDEF
  2
AcDbRasterImageDef
  3
ISM
 90
0
 91
1
280
0
281
0
  0
CLASS
  1
IMAGEDEF_REACTOR
  2
AcDbRasterImageDefReactor
  3
ISM
 90
0
 91
1
280
0
281
0
  0
CLASS
  1
IMAGE
  2
AcDbRasterImage
  3
ISM
 90
127
 91
1
280
0
281
1
  0
CLASS
  1
TABLESTYLE
  2
AcDbTableStyle
  3
ObjectDBX Classes
 90
2047
 91
1
280
0
281
0
  0
CLASS
  1
ACAD_TABLE
  2
AcDbTable
  3
ObjectDBX Classes
 90
1025
 91
2
280
0
281
1
  0
ENDSEC
  0
SECTION
  2
TABLES
  0
TABLE
  2
VPORT
  5
8
100
AcDbSymbolTable
 70
2
  0
VPORT
  5
1F4
100
AcDbSymbolTableRecord
100
AcDbViewportTableRecord
  2
*ACTIVE
 70
0
 10
0.0
 20
0.0
 11
1.0
 21
1.0
 12
11.0
 22
8.5
 13
0.0
 23
0.0
 14
1.0
 24
1.0
 15
0.0
 25
0.0
 16
0.0
 26
0.0
 36
1.0
 17
0.0
 27
0.0
 37
0.0
 40
17.0
 41
1.2941176471
 42
50.0
 43
0.0
 44
0.0
 50
0.0
 51
0.0
 71
0
 72
100
 73
1
 74
1
 75
0
 76
0
 77
0
 78
0
  0
ENDTAB
  0
TABLE
  2
LTYPE
  5
5
100
AcDbSymbolTable
 70
6
  0
LTYPE
  5
14
100
AcDbSymbolTableRecord
100
AcDbLinetypeTableRecord
  2
BYBLOCK
 70
0
  3

 72
65
 73
0
 40
0.0
  0
LTYPE
  5
15
100
AcDbSymbolTableRecord
100
AcDbLinetypeTableRecord
  2
BYLAYER
 70
0
  3

 72
65
 73
0
 40
0.0
  0
LTYPE
  5
16
100
AcDbSymbolTableRecord
100
AcDbLinetypeTableRecord
  2
CONTINUOUS
 70
64
  3
Solid line
 72
65
 73
0
 40
0.0
  0
LTYPE
  5
1F5
100
AcDbSymbolTableRecord
100
AcDbLinetypeTableRecord
  2
CENTER
 70
64
  3
____ _ ____ _ ____ _ ____ _ ____ _ ____ _ ____
 72
65
 73
4
 40
0.6
 49
0.375
 74
0
 49
-0.075
 74
0
 49
0.075
 74
0
 49
-0.075
 74
0
  0
LTYPE
  5
1F6
100
AcDbSymbolTableRecord
100
AcDbLinetypeTableRecord
  2
HIDDEN
 70
64
  3
- - - - - - - - - - - - - - - - - - - -
 72
65
 73
2
 40
0.2
 49
0.1
 74
0
 49
-0.1
 74
0
  0
LTYPE
  5
1F7
100
AcDbSymbolTableRecord
100
AcDbLinetypeTableRecord
  2
PHANTOM
 70
64
  3
_____ _ _ _____ _ _ _____ _ _ _____
 72
65
 73
6
 40
0.8
 49
0.45
 74
0
 49
-0.05
 74
0
 49
0.1
 74
0
 49
-0.05
 74
0
 49
0.1
 74
0
 49
-0.05
 74
0
  0
LTYPE
  5
1F8
100
AcDbSymbolTableRecord
100
AcDbLinetypeTableRecord
  2
DOT
 70
64
  3
. . . . . . . . . . . . . . . . . . . .
 72
65
 73
2
 40
0.2
 49
0.1
 74
0
 49
-0.1
 74
0
  0
LTYPE
  5
1F9
100
AcDbSymbolTableRecord
100
AcDbLinetypeTableRecord
  2
DASHED
 70
64
  3
- - - - - - - - - - - - - - - - - - - -
 72
65
 73
2
 40
0.2
 49
0.1
 74
0
 49
-0.1
 74
0
  0
ENDTAB
  0
TABLE
  2
LAYER
  5
2
100
AcDbSymbolTable
 70
36
  0
LAYER
  5
10
100
AcDbSymbolTableRecord
100
AcDbLayerTableRecord
  2
0
 70
0
 62
7
  6
CONTINUOUS
370
-3
390
F
  0
LAYER
  5
1FA
100
AcDbSymbolTableRecord
100
AcDbLayerTableRecord
  2
DEFAULT_1
 70
0
 62
7
  6
CENTER
370
-3
390
F
  0
LAYER
  5
1FB
100
AcDbSymbolTableRecord
100
AcDbLayerTableRecord
  2
DEFAULT_2
 70
0
 62
8
  6
HIDDEN
370
-3
390
F
  0
LAYER
  5
1FC
100
AcDbSymbolTableRecord
100
AcDbLayerTableRecord
  2
DEFAULT_3
 70
0
 62
7
  6
PHANTOM
370
-3
390
F
  0
LAYER
  5
1FD
100
AcDbSymbolTableRecord
100
AcDbLayerTableRecord
  2
01___PRT_ALL_DTM_PLN
 70
0
 62
7
  6
CONTINUOUS
370
-3
390
F
  0
LAYER
  5
1FE
100
AcDbSymbolTableRecord
100
AcDbLayerTableRecord
  2
01___PRT_DEF_DTM_PLN
 70
0
 62
7
  6
CONTINUOUS
370
-3
390
F
  0
LAYER
  5
1FF
100
AcDbSymbolTableRecord
100
AcDbLayerTableRecord
  2
02___PRT_ALL_AXES
 70
0
 62
7
  6
CONTINUOUS
370
-3
390
F
  0
LAYER
  5
200
100
AcDbSymbolTableRecord
100
AcDbLayerTableRecord
  2
03___PRT_ALL_CURVES
 70
0
 62
7
  6
CONTINUOUS
370
-3
390
F
  0
LAYER
  5
201
100
AcDbSymbolTableRecord
100
AcDbLayerTableRecord
  2
04___PRT_ALL_DTM_PNT
 70
0
 62
7
  6
CONTINUOUS
370
-3
390
F
  0
LAYER
  5
202
100
AcDbSymbolTableRecord
100
AcDbLayerTableRecord
  2
05___PRT_ALL_DTM_CSYS
 70
0
 62
7
  6
CONTINUOUS
370
-3
390
F
  0
LAYER
  5
203
100
AcDbSymbolTableRecord
100
AcDbLayerTableRecord
  2
05___PRT_DEF_DTM_CSYS
 70
0
 62
7
  6
CONTINUOUS
370
-3
390
F
  0
LAYER
  5
204
100
AcDbSymbolTableRecord
100
AcDbLayerTableRecord
  2
06___PRT_ALL_SURFS
 70
0
 62
7
  6
CONTINUOUS
370
-3
390
F
  0
LAYER
  5
205
100
AcDbSymbolTableRecord
100
AcDbLayerTableRecord
  2
DATUM_PLANES
 70
0
 62
7
  6
CONTINUOUS
370
-3
390
F
  0
LAYER
  5
206
100
AcDbSymbolTableRecord
100
AcDbLayerTableRecord
  2
DIMENSIONS
 70
0
 62
7
  6
CONTINUOUS
370
-3
390
F
  0
LAYER
  5
207
100
AcDbSymbolTableRecord
100
AcDbLayerTableRecord
  2
PARAMETERDIMENSIONS
 70
0
 62
7
  6
CONTINUOUS
370
-3
390
F
  0
LAYER
  5
208
100
AcDbSymbolTableRecord
100
AcDbLayerTableRecord
  2
PLANE
 70
0
 62
7
  6
CONTINUOUS
370
-3
390
F
  0
LAYER
  5
209
100
AcDbSymbolTableRecord
100
AcDbLayerTableRecord
  2
PORT_AREAS
 70
0
 62
7
  6
CONTINUOUS
370
-3
390
F
  0
LAYER
  5
20A
100
AcDbSymbolTableRecord
100
AcDbLayerTableRecord
  2
SUNNBOMCOSMETIC
 70
0
 62
7
  6
CONTINUOUS
370
-3
390
F
  0
LAYER
  5
20B
100
AcDbSymbolTableRecord
100
AcDbLayerTableRecord
  2
SUNNBOMSTAMPING
 70
0
 62
7
  6
CONTINUOUS
370
-3
390
F
  0
LAYER
  5
20C
100
AcDbSymbolTableRecord
100
AcDbLayerTableRecord
  2
THREADS
 70
0
 62
7
  6
CONTINUOUS
370
-3
390
F
  0
ENDTAB
  0
TABLE
  2
STYLE
  5
3
100
AcDbSymbolTable
 70
1
  0
STYLE
  5
11
100
AcDbSymbolTableRecord
100
AcDbTextStyleTableRecord
  2
STANDARD
 70
0
 40
0.0
 41
0.8
 50
0.0
 71
0
 42
0.2
  3
txt
  4

  0
STYLE
  5
20D
100
AcDbSymbolTableRecord
100
AcDbTextStyleTableRecord
  2
TEXTSTYLE_1
 70
0
 40
0.0
 41
0.8
 50
0.0
 71
0
 42
0.2
  3
gdt
  4

  0
ENDTAB
  0
TABLE
  2
VIEW
  5
6
100
AcDbSymbolTable
 70
0
  0
ENDTAB
  0
TABLE
  2
UCS
  5
7
100
AcDbSymbolTable
 70
0
  0
ENDTAB
  0
TABLE
  2
APPID
  5
9
100
AcDbSymbolTable
 70
1
  0
APPID
  5
20E
100
AcDbSymbolTableRecord
100
AcDbRegAppTableRecord
  2
ACAD
 70
0
  0
ENDTAB
  0
TABLE
  2
BLOCK_RECORD
  5
1
100
AcDbSymbolTable
 70
0
  0
BLOCK_RECORD
  5
20F
100
AcDbSymbolTableRecord
100
AcDbBlockTableRecord
  2
*Model_Space
  0
BLOCK_RECORD
  5
210
100
AcDbSymbolTableRecord
100
AcDbBlockTableRecord
  2
*Paper_Space
  0
BLOCK_RECORD
  5
211
100
AcDbSymbolTableRecord
100
AcDbBlockTableRecord
  2
SUN_FIRST_THIRD_ANGLE_BL0
  0
BLOCK_RECORD
  5
212
100
AcDbSymbolTableRecord
100
AcDbBlockTableRecord
  2
*T1
  0
BLOCK_RECORD
  5
213
100
AcDbSymbolTableRecord
100
AcDbBlockTableRecord
  2
*T2
  0
ENDTAB
  0
TABLE
  2
DIMSTYLE
  5
A
100
AcDbSymbolTable
 70
1
100
AcDbDimStyleTable
 71
0
  0
DIMSTYLE
105
214
100
AcDbSymbolTableRecord
100
AcDbDimStyleTableRecord
  2
STANDARD
 70
0
  3

  4

 40
1.0
 41
0.1875
 42
0.0625
 43
0.38
 44
0.125
 45
0.0
 46
0.0
 47
0.001
 48
0.001
140
0.1
141
0.09
142
0.0
143
25.4
144
1.0
145
0.0
146
1.0
147
0.09
 71
0.0
 72
0.0
 73
1
 74
1
 75
0
 76
0
 77
0
 78
4
170
0
171
2
172
0
173
0
174
0
175
0
176
0
177
0
178
0
270
2
271
3
272
3
273
2
274
2
275
0
280
0
281
0
282
0
283
1
284
4
285
0
286
0
287
3
288
0
340
11
278
46
  0
ENDTAB
  0
ENDSEC
  0
SECTION
  2
BLOCKS
  0
BLOCK
  5
20
100
AcDbEntity
  8
0
100
AcDbBlockBegin
  2
*Model_Space
 70
0
 10
0.0
 20
0.0
 30
0.0
  3
*Model_Space
  1

  0
ENDBLK
  5
21
100
AcDbEntity
  8
0
100
AcDbBlockEnd
  0
BLOCK
  5
1C
100
AcDbEntity
  8
0
100
AcDbBlockBegin
  2
*Paper_Space
 70
0
 10
0.0
 20
0.0
 30
0.0
  3
*Paper_Space
  1

  0
ENDBLK
  5
1D
100
AcDbEntity
  8
0
100
AcDbBlockEnd
  0
BLOCK
  5
215
100
AcDbEntity
  8
0
100
AcDbBlockBegin
 62
2
  6
CONTINUOUS
  2
SUN_FIRST_THIRD_ANGLE_BL0
 70
64
 10
20.4816717061
 20
1.2289683772
  3
SUN_FIRST_THIRD_ANGLE_BL0
  1

  0
TEXT
  5
216
100
AcDbEntity
  8
0
100
AcDbText
 62
2
  6
CONTINUOUS
 10
19.4750896608
 20
1.4136269581
  7
STANDARD
 40
0.08
  1
FIRST ANGLE
 41
0.8
 72
0
100
AcDbText
  0
TEXT
  5
217
100
AcDbEntity
  8
0
100
AcDbText
 62
2
  6
CONTINUOUS
 10
20.7842537513
 20
1.4047600029
  7
STANDARD
 40
0.08
  1
THIRD ANGLE
 41
0.8
 72
0
100
AcDbText
  0
LINE
  5
218
100
AcDbEntity
  8
0
100
AcDbLine
 62
7
  6
CONTINUOUS
 10
19.4767170086
 20
1.1727031207
 11
19.6334271527
 21
1.1717972817
  0
LINE
  5
219
100
AcDbEntity
  8
0
100
AcDbLine
 62
7
  6
CONTINUOUS
 10
19.6596964832
 20
1.1717972817
 11
19.6950230232
 21
1.171593082
  0
LINE
  5
21A
100
AcDbEntity
  8
0
100
AcDbLine
 62
7
  6
CONTINUOUS
 10
19.7194818561
 20
1.1708914427
 11
19.8852396156
 21
1.1699333054
  0
LINE
  5
21B
100
AcDbEntity
  8
0
100
AcDbLine
 62
7
  6
CONTINUOUS
 10
19.4758111696
 20
1.2723454088
 11
19.88525039
 21
1.3511534004
  0
LINE
  5
21C
100
AcDbEntity
  8
0
100
AcDbLine
 62
7
  6
CONTINUOUS
 10
19.88525039
 20
1.3511534004
 11
19.8831348489
 21
0.9851647912
  0
LINE
  5
21D
100
AcDbEntity
  8
0
100
AcDbLine
 62
7
  6
CONTINUOUS
 10
19.8831348489
 20
0.9851647912
 11
19.4767170086
 21
1.0658141206
  0
LINE
  5
21E
100
AcDbEntity
  8
0
100
AcDbLine
 62
7
  6
CONTINUOUS
 10
19.4767170086
 20
1.0658141206
 11
19.4779056764
 21
1.2714536432
  0
CIRCLE
  5
21F
100
AcDbEntity
  8
0
100
AcDbCircle
 62
7
  6
CONTINUOUS
 10
20.2068232291
 20
1.1717972817
 40
0.175742101
  0
CIRCLE
  5
220
100
AcDbEntity
  8
0
100
AcDbCircle
 62
7
  6
CONTINUOUS
 10
20.2068232291
 20
1.1717972817
 40
0.1005522074
  0
LINE
  5
221
100
AcDbEntity
  8
0
100
AcDbLine
 62
7
  6
CONTINUOUS
 10
20.2077290681
 20
1.3756110529
 11
20.2071171714
 21
1.2379342989
  0
LINE
  5
222
100
AcDbEntity
  8
0
100
AcDbLine
 62
7
  6
CONTINUOUS
 10
20.2077290681
 20
1.2016899681
 11
20.2074674401
 21
1.1428236749
  0
LINE
  5
223
100
AcDbEntity
  8
0
100
AcDbLine
 62
7
  6
CONTINUOUS
 10
20.208634907
 20
1.101141841
 11
20.2080230104
 21
0.963465087
  0
LINE
  5
224
100
AcDbEntity
  8
0
100
AcDbLine
 62
7
  6
CONTINUOUS
 10
20.0066328138
 20
1.1745147986
 11
20.1443095678
 21
1.1739029019
  0
LINE
  5
225
100
AcDbEntity
  8
0
100
AcDbLine
 62
7
  6
CONTINUOUS
 10
20.1832714155
 20
1.1727031207
 11
20.238153505
 21
1.172335442
  0
LINE
  5
226
100
AcDbEntity
  8
0
100
AcDbLine
 62
7
  6
CONTINUOUS
 10
20.2756669918
 20
1.1717972817
 11
20.407916871
 21
1.1712095044
  0
CIRCLE
  5
227
100
AcDbEntity
  8
0
100
AcDbCircle
 62
7
  6
CONTINUOUS
 10
20.7509457401
 20
1.1693297793
 40
0.1722024983
  0
CIRCLE
  5
228
100
AcDbEntity
  8
0
100
AcDbCircle
 62
7
  6
CONTINUOUS
 10
20.7509457401
 20
1.1693297793
 40
0.0985164967
  0
LINE
  5
229
100
AcDbEntity
  8
0
100
AcDbLine
 62
7
  6
CONTINUOUS
 10
20.7169767782
 20
1.170462078
 11
20.7825395137
 21
1.1682766535
  0
LINE
  5
22A
100
AcDbEntity
  8
0
100
AcDbLine
 62
7
  6
CONTINUOUS
 10
20.8177513651
 20
1.1693297793
 11
20.947965719
 21
1.1693297793
  0
LINE
  5
22B
100
AcDbEntity
  8
0
100
AcDbLine
 62
7
  6
CONTINUOUS
 10
20.6875370113
 20
1.170462078
 11
20.5573226574
 21
1.170462078
  0
LINE
  5
22C
100
AcDbEntity
  8
0
100
AcDbLine
 62
7
  6
CONTINUOUS
 10
20.7486811426
 20
1.1987695462
 11
20.7486811426
 21
1.1432869085
  0
LINE
  5
22D
100
AcDbEntity
  8
0
100
AcDbLine
 62
7
  6
CONTINUOUS
 10
20.7498134414
 20
1.1059210505
 11
20.7498134414
 21
0.9757066966
  0
LINE
  5
22E
100
AcDbEntity
  8
0
100
AcDbLine
 62
7
  6
CONTINUOUS
 10
20.7486811426
 20
1.2338708068
 11
20.7486811426
 21
1.3640851607
  0
LINE
  5
22F
100
AcDbEntity
  8
0
100
AcDbLine
 62
7
  6
CONTINUOUS
 10
21.0702539817
 20
1.2701043662
 11
21.4790138229
 21
1.3448360823
  0
LINE
  5
230
100
AcDbEntity
  8
0
100
AcDbLine
 62
7
  6
CONTINUOUS
 10
21.4790138229
 20
1.3448360823
 11
21.4790138229
 21
0.9779712941
  0
LINE
  5
231
100
AcDbEntity
  8
0
100
AcDbLine
 62
7
  6
CONTINUOUS
 10
21.4790138229
 20
0.9779712941
 11
21.069121683
 21
1.0617614
  0
LINE
  5
232
100
AcDbEntity
  8
0
100
AcDbLine
 62
7
  6
CONTINUOUS
 10
21.0702539817
 20
1.2701043662
 11
21.069121683
 21
1.0617614
  0
LINE
  5
233
100
AcDbEntity
  8
0
100
AcDbLine
 62
7
  6
CONTINUOUS
 10
21.4790138229
 20
1.1693297793
 11
21.3159628059
 21
1.1693297793
  0
LINE
  5
234
100
AcDbEntity
  8
0
100
AcDbLine
 62
7
  6
CONTINUOUS
 10
21.2876553377
 20
1.1693297793
 11
21.2502894796
 21
1.1693297793
  0
LINE
  5
235
100
AcDbEntity
  8
0
100
AcDbLine
 62
7
  6
CONTINUOUS
 10
21.2208497126
 20
1.1659328831
 11
21.0713862804
 21
1.1659328831
  0
LINE
  5
236
100
AcDbEntity
  8
0
100
AcDbLine
 62
7
  6
CONTINUOUS
 10
20.4796138713
 20
1.5284908897
 11
20.4766766948
 21
0.9294458646
  0
ENDBLK
  5
237
100
AcDbEntity
  8
0
  6
BYBLOCK
 62
0
100
AcDbBlockEnd
  0
BLOCK
  5
238
100
AcDbEntity
  8
0
100
AcDbBlockBegin
  2
*T1
 70
1
 10
0.0
 20
0.0
  3
*T1
  1

  0
LINE
  5
239
100
AcDbEntity
  8
0
100
AcDbLine
 62
2
  6
CONTINUOUS
 10
9.275
 20
0.0
 11
-0.0
 21
0.0
  0
LINE
  5
23A
100
AcDbEntity
  8
0
100
AcDbLine
 62
2
  6
CONTINUOUS
 10
9.275
 20
0.0
 11
9.275
 21
1.25
  0
LINE
  5
23B
100
AcDbEntity
  8
0
100
AcDbLine
 62
2
  6
CONTINUOUS
 10
9.275
 20
0.625
 11
-0.0
 21
0.625
  0
LINE
  5
23C
100
AcDbEntity
  8
0
100
AcDbLine
 62
2
  6
CONTINUOUS
 10
9.275
 20
1.25
 11
-0.0
 21
1.25
  0
LINE
  5
23D
100
AcDbEntity
  8
0
100
AcDbLine
 62
2
  6
CONTINUOUS
 10
6.8
 20
0.0
 11
6.8
 21
1.25
  0
LINE
  5
23E
100
AcDbEntity
  8
0
100
AcDbLine
 62
2
  6
CONTINUOUS
 10
6.4
 20
0.0
 11
6.4
 21
0.625
  0
LINE
  5
23F
100
AcDbEntity
  8
0
100
AcDbLine
 62
2
  6
CONTINUOUS
 10
5.9
 20
0.0
 11
5.9
 21
0.625
  0
LINE
  5
240
100
AcDbEntity
  8
0
100
AcDbLine
 62
2
  6
CONTINUOUS
 10
5.2
 20
0.0
 11
5.2
 21
0.625
  0
LINE
  5
241
100
AcDbEntity
  8
0
100
AcDbLine
 62
2
  6
CONTINUOUS
 10
4.1
 20
0.0
 11
4.1
 21
1.25
  0
LINE
  5
242
100
AcDbEntity
  8
0
100
AcDbLine
 62
2
  6
CONTINUOUS
 10
-0.0
 20
0.0
 11
-0.0
 21
1.25
  0
MTEXT
  5
243
100
AcDbEntity
  8
0
100
AcDbMText
 62
2
  6
CONTINUOUS
  7
STANDARD
 71
2
 72
1
 10
6.6
 20
0.325
 30
0.0
 11
1.0
 21
0.0
 31
0.0
 44
0.9
  1
2
 40
0.125
 41
0.2
  0
MTEXT
  5
244
100
AcDbEntity
  8
0
100
AcDbMText
 62
2
  6
CONTINUOUS
  7
STANDARD
 71
2
 72
1
 10
6.15
 20
0.325
 30
0.0
 11
1.0
 21
0.0
 31
0.0
 44
0.9
  1
C
 40
0.125
 41
0.2
  0
MTEXT
  5
245
100
AcDbEntity
  8
0
100
AcDbMText
 62
2
  6
CONTINUOUS
  7
STANDARD
 71
2
 72
1
 10
5.55
 20
0.325
 30
0.0
 11
1.0
 21
0.0
 31
0.0
 44
0.9
  1
1.000
 40
0.125
 41
1.0
  0
MTEXT
  5
246
100
AcDbEntity
  8
0
100
AcDbMText
 62
2
  6
CONTINUOUS
  7
STANDARD
 71
2
 72
1
 10
4.65
 20
0.325
 30
0.0
 11
1.0
 21
0.0
 31
0.0
 44
0.9
  1
May-13-20
 40
0.125
 41
1.8
  0
MTEXT
  5
247
100
AcDbEntity
  8
0
100
AcDbMText
 62
2
  6
CONTINUOUS
  7
STANDARD
 71
2
 72
1
 10
2.05
 20
0.4625
 30
0.0
 11
1.0
 21
0.0
 31
0.0
 44
0.9
  1
T-17A Sandwich ISO 07\POn P, port 3 to T and check on T
 40
0.125
 41
6.4
  0
MTEXT
  5
248
100
AcDbEntity
  8
0
100
AcDbMText
 62
2
  6
CONTINUOUS
  7
STANDARD
 71
1
 72
1
 10
6.45
 20
0.5625
 30
0.0
 11
1.0
 21
0.0
 31
0.0
 44
0.9
  1
SHEET
 40
0.06
 41
0.48
  0
MTEXT
  5
249
100
AcDbEntity
  8
0
100
AcDbMText
 62
2
  6
CONTINUOUS
  7
STANDARD
 71
1
 72
1
 10
5.95
 20
0.5625
 30
0.0
 11
1.0
 21
0.0
 31
0.0
 44
0.9
  1
DWG SIZE
 40
0.06
 41
0.768
  0
MTEXT
  5
24A
100
AcDbEntity
  8
0
100
AcDbMText
 62
2
  6
CONTINUOUS
  7
STANDARD
 71
1
 72
1
 10
5.25
 20
0.5625
 30
0.0
 11
1.0
 21
0.0
 31
0.0
 44
0.9
  1
SCALE
 40
0.06
 41
0.48
  0
MTEXT
  5
24B
100
AcDbEntity
  8
0
100
AcDbMText
 62
2
  6
CONTINUOUS
  7
STANDARD
 71
1
 72
1
 10
4.15
 20
0.5625
 30
0.0
 11
1.0
 21
0.0
 31
0.0
 44
0.9
  1
DATE
 40
0.06
 41
0.384
  0
MTEXT
  5
24C
100
AcDbEntity
  8
0
100
AcDbMText
 62
2
  6
CONTINUOUS
  7
STANDARD
 71
1
 72
1
 10
0.05
 20
0.5625
 30
0.0
 11
1.0
 21
0.0
 31
0.0
 44
0.9
  1
DESCRIPTION
 40
0.06
 41
1.056
  0
MTEXT
  5
24D
100
AcDbEntity
  8
0
100
AcDbMText
 62
2
  6
CONTINUOUS
  7
STANDARD
 71
2
 72
1
 10
5.45
 20
1.0375
 30
0.0
 11
1.0
 21
0.0
 31
0.0
 44
0.9
  1
ALL DIMENSIONS IN INCH\PVIEWS ARE THIRD ANGLE
 40
0.12
 41
4.224
  0
MTEXT
  5
24E
100
AcDbEntity
  8
0
100
AcDbMText
 62
2
  6
CONTINUOUS
  7
STANDARD
 71
2
 72
1
 10
2.05
 20
0.95
 30
0.0
 11
1.0
 21
0.0
 31
0.0
 44
0.9
  1
Z6D
 40
0.125
 41
0.6
  0
MTEXT
  5
24F
100
AcDbEntity
  8
0
100
AcDbMText
 62
2
  6
CONTINUOUS
  7
STANDARD
 71
1
 72
1
 10
0.05
 20
1.1875
 30
0.0
 11
1.0
 21
0.0
 31
0.0
 44
0.9
  1
MODEL
 40
0.06
 41
0.48
  0
ENDBLK
  5
250
100
AcDbEntity
  8
0
  6
BYBLOCK
 62
0
100
AcDbBlockEnd
  0
BLOCK
  5
251
100
AcDbEntity
  8
0
100
AcDbBlockBegin
  2
*T2
 70
1
 10
0.0
 20
0.0
  3
*T2
  1

  0
LINE
  5
252
100
AcDbEntity
  8
0
100
AcDbLine
 62
2
  6
CONTINUOUS
 10
0.0
 20
0.0
 11
9.055
 21
0.0
  0
LINE
  5
253
100
AcDbEntity
  8
0
100
AcDbLine
 62
2
  6
CONTINUOUS
 10
0.0
 20
0.0
 11
0.0
 21
-2.094
  0
LINE
  5
254
100
AcDbEntity
  8
0
100
AcDbLine
 62
2
  6
CONTINUOUS
 10
0.0
 20
-0.344
 11
9.055
 21
-0.344
  0
LINE
  5
255
100
AcDbEntity
  8
0
100
AcDbLine
 62
2
  6
CONTINUOUS
 10
0.0
 20
-0.594
 11
9.055
 21
-0.594
  0
LINE
  5
256
100
AcDbEntity
  8
0
100
AcDbLine
 62
2
  6
CONTINUOUS
 10
0.0
 20
-0.844
 11
9.055
 21
-0.844
  0
LINE
  5
257
100
AcDbEntity
  8
0
100
AcDbLine
 62
2
  6
CONTINUOUS
 10
0.0
 20
-1.094
 11
9.055
 21
-1.094
  0
LINE
  5
258
100
AcDbEntity
  8
0
100
AcDbLine
 62
2
  6
CONTINUOUS
 10
0.0
 20
-1.344
 11
9.055
 21
-1.344
  0
LINE
  5
259
100
AcDbEntity
  8
0
100
AcDbLine
 62
2
  6
CONTINUOUS
 10
0.0
 20
-1.594
 11
9.055
 21
-1.594
  0
LINE
  5
25A
100
AcDbEntity
  8
0
100
AcDbLine
 62
2
  6
CONTINUOUS
 10
0.0
 20
-1.844
 11
9.055
 21
-1.844
  0
LINE
  5
25B
100
AcDbEntity
  8
0
100
AcDbLine
 62
2
  6
CONTINUOUS
 10
0.0
 20
-2.094
 11
9.055
 21
-2.094
  0
LINE
  5
25C
100
AcDbEntity
  8
0
100
AcDbLine
 62
2
  6
CONTINUOUS
 10
3.055
 20
0.0
 11
3.055
 21
-2.094
  0
LINE
  5
25D
100
AcDbEntity
  8
0
100
AcDbLine
 62
2
  6
CONTINUOUS
 10
9.055
 20
0.0
 11
9.055
 21
-2.094
  0
MTEXT
  5
25E
100
AcDbEntity
  8
0
100
AcDbMText
 62
2
  6
CONTINUOUS
  7
STANDARD
 71
2
 72
1
 10
1.5275
 20
-0.0995
 30
0.0
 11
1.0
 21
0.0
 31
0.0
 44
0.9
  1
Technical Data
 40
0.145
 41
3.248
  0
MTEXT
  5
25F
100
AcDbEntity
  8
0
100
AcDbMText
 62
2
  6
CONTINUOUS
  7
STANDARD
 71
2
 72
1
 10
4.555
 20
-0.0995
 30
0.0
 11
1.0
 21
0.0
 31
0.0
 44
0.9
  1
U.S. Units
 40
0.145
 41
2.32
  0
MTEXT
  5
260
100
AcDbEntity
  8
0
100
AcDbMText
 62
2
  6
CONTINUOUS
  7
STANDARD
 71
2
 72
1
 10
7.555
 20
-0.0995
 30
0.0
 11
1.0
 21
0.0
 31
0.0
 44
0.9
  1
Metric Units
 40
0.145
 41
2.784
  0
MTEXT
  5
261
100
AcDbEntity
  8
0
100
AcDbMText
 62
2
  6
CONTINUOUS
  7
STANDARD
 71
2
 72
1
 10
1.5275
 20
-0.4065
 30
0.0
 11
1.0
 21
0.0
 31
0.0
 44
0.9
  1
Cavity
 40
0.125
 41
1.2
  0
MTEXT
  5
262
100
AcDbEntity
  8
0
100
AcDbMText
 62
2
  6
CONTINUOUS
  7
STANDARD
 71
2
 72
1
 10
6.055
 20
-0.4065
 30
0.0
 11
1.0
 21
0.0
 31
0.0
 44
0.9
  1
T-17A
 40
0.125
 41
1.0
  0
MTEXT
  5
263
100
AcDbEntity
  8
0
100
AcDbMText
 62
2
  6
CONTINUOUS
  7
STANDARD
 71
2
 72
1
 10
1.5275
 20
-0.6565
 30
0.0
 11
1.0
 21
0.0
 31
0.0
 44
0.9
  1
Body Features
 40
0.125
 41
2.6
  0
MTEXT
  5
264
100
AcDbEntity
  8
0
100
AcDbMText
 62
2
  6
CONTINUOUS
  7
STANDARD
 71
2
 72
1
 10
6.055
 20
-0.6565
 30
0.0
 11
1.0
 21
0.0
 31
0.0
 44
0.9
  1
On P, port 3 to T and check on T
 40
0.125
 41
6.4
  0
MTEXT
  5
265
100
AcDbEntity
  8
0
100
AcDbMText
 62
2
  6
CONTINUOUS
  7
STANDARD
 71
2
 72
1
 10
1.5275
 20
-0.9065
 30
0.0
 11
1.0
 21
0.0
 31
0.0
 44
0.9
  1
Body Type
 40
0.125
 41
1.8
  0
MTEXT
  5
266
100
AcDbEntity
  8
0
100
AcDbMText
 62
2
  6
CONTINUOUS
  7
STANDARD
 71
2
 72
1
 10
6.055
 20
-0.9065
 30
0.0
 11
1.0
 21
0.0
 31
0.0
 44
0.9
  1
Sandwich
 40
0.125
 41
1.6
  0
MTEXT
  5
267
100
AcDbEntity
  8
0
100
AcDbMText
 62
2
  6
CONTINUOUS
  7
STANDARD
 71
2
 72
1
 10
1.5275
 20
-1.1565
 30
0.0
 11
1.0
 21
0.0
 31
0.0
 44
0.9
  1
Interface
 40
0.125
 41
1.8
  0
MTEXT
  5
268
100
AcDbEntity
  8
0
100
AcDbMText
 62
2
  6
CONTINUOUS
  7
STANDARD
 71
2
 72
1
 10
6.055
 20
-1.1565
 30
0.0
 11
1.0
 21
0.0
 31
0.0
 44
0.9
  1
ISO 07
 40
0.125
 41
1.2
  0
MTEXT
  5
269
100
AcDbEntity
  8
0
100
AcDbMText
 62
2
  6
CONTINUOUS
  7
STANDARD
 71
2
 72
1
 10
1.5275
 20
-1.4065
 30
0.0
 11
1.0
 21
0.0
 31
0.0
 44
0.9
  1
Open Cavity Quantity
 40
0.125
 41
4.0
  0
MTEXT
  5
26A
100
AcDbEntity
  8
0
100
AcDbMText
 62
2
  6
CONTINUOUS
  7
STANDARD
 71
2
 72
1
 10
6.055
 20
-1.4065
 30
0.0
 11
1.0
 21
0.0
 31
0.0
 44
0.9
  1
1
 40
0.125
 41
0.2
  0
MTEXT
  5
26B
100
AcDbEntity
  8
0
100
AcDbMText
 62
2
  6
CONTINUOUS
  7
STANDARD
 71
2
 72
1
 10
1.5275
 20
-1.6565
 30
0.0
 11
1.0
 21
0.0
 31
0.0
 44
0.9
  1
Stack Height
 40
0.125
 41
2.4
  0
MTEXT
  5
26C
100
AcDbEntity
  8
0
100
AcDbMText
 62
2
  6
CONTINUOUS
  7
STANDARD
 71
2
 72
1
 10
4.555
 20
-1.6565
 30
0.0
 11
1.0
 21
0.0
 31
0.0
 44
0.9
  1
3.52 in.
 40
0.125
 41
1.6
  0
MTEXT
  5
26D
100
AcDbEntity
  8
0
100
AcDbMText
 62
2
  6
CONTINUOUS
  7
STANDARD
 71
2
 72
1
 10
7.555
 20
-1.6565
 30
0.0
 11
1.0
 21
0.0
 31
0.0
 44
0.9
  1
90 mm
 40
0.125
 41
1.0
  0
MTEXT
  5
26E
100
AcDbEntity
  8
0
100
AcDbMText
 62
2
  6
CONTINUOUS
  7
STANDARD
 71
2
 72
1
 10
1.5275
 20
-1.9065
 30
0.0
 11
1.0
 21
0.0
 31
0.0
 44
0.9
  1
Weight
 40
0.125
 41
1.2
  0
MTEXT
  5
26F
100
AcDbEntity
  8
0
100
AcDbMText
 62
2
  6
CONTINUOUS
  7
STANDARD
 71
2
 72
1
 10
4.555
 20
-1.9065
 30
0.0
 11
1.0
 21
0.0
 31
0.0
 44
0.9
  1
7.859 lb.
 40
0.125
 41
1.8
  0
MTEXT
  5
270
100
AcDbEntity
  8
0
100
AcDbMText
 62
2
  6
CONTINUOUS
  7
STANDARD
 71
2
 72
1
 10
7.555
 20
-1.9065
 30
0.0
 11
1.0
 21
0.0
 31
0.0
 44
0.9
  1
3,565 kg.
 40
0.125
 41
1.8
  0
ENDBLK
  5
271
100
AcDbEntity
  8
0
  6
BYBLOCK
 62
0
100
AcDbBlockEnd
  0
ENDSEC
  0
SECTION
  2
ENTITIES
  0
IMAGE
  5
272
100
AcDbEntity
  8
0
100
AcDbRasterImage
 62
7
  6
CONTINUOUS
 10
19.2297077316
 20
0.3094318264
 30
0.0
 11
0.0066666667
 21
0.0
 31
0.0
 12
0.0
 22
0.0066666667
 32
0.0
 13
369.0
 23
92.0
340
       3DE
 70
9
280
0
281
50
282
50
283
0
360
       3D8
 71
1
 91
2
 14
-0.5
 24
-0.5
 14
368.5
 24
91.5
  0
INSERT
  5
273
100
AcDbEntity
  8
0
100
AcDbBlockReference
 62
2
  6
CONTINUOUS
  2
SUN_FIRST_THIRD_ANGLE_BL0
 10
20.4816717061
 20
1.2289683772
  0
ACAD_TABLE
  5
274
100
AcDbEntity
  8
0
 62
2
  6
CONTINUOUS
100
AcDbBlockReference
  2
*T1
 10
12.42375
 20
0.30125
 30
0.0
100
AcDbTable
342
       3E0
343
212
 11
1.0
 21
0.0
 31
0.0
 90
6
 91
4
 92
6
 93
20
 94
0
 95
0
 96
0
 70
1
 41
0.0
141
0.525
141
0.1
141
0.525
141
0.1
142
4.1
142
1.1
142
0.7
142
0.5
142
0.4
142
2.475
171
1
172
0
173
0
174
0
175
1
176
1
 91
33
178
0
145
0.0
301
CELL_VALUE
 90
4
  1
T-17A Sandwich ISO 07\POn P, port 3 to T and check on T
304
ACVALUE_END
170
2
140
0.125
171
1
172
0
173
0
174
0
175
1
176
1
 91
33
178
0
145
0.0
301
CELL_VALUE
 90
4
  1
May-13-20
304
ACVALUE_END
170
5
140
0.125
171
1
172
0
173
0
174
0
175
1
176
1
 91
33
178
0
145
0.0
301
CELL_VALUE
 90
4
  1
1.000
304
ACVALUE_END
170
5
140
0.125
171
1
172
0
173
0
174
0
175
1
176
1
 91
33
178
0
145
0.0
301
CELL_VALUE
 90
4
  1
C
304
ACVALUE_END
170
5
140
0.125
171
1
172
0
173
0
174
0
175
1
176
1
 91
33
178
0
145
0.0
301
CELL_VALUE
 90
4
  1
2
304
ACVALUE_END
170
5
140
0.125
171
1
172
0
173
0
174
0
175
1
176
1
 91
33
178
0
145
0.0
301
CELL_VALUE
 90
4
  1
 
304
ACVALUE_END
170
1
140
0.125
171
1
172
0
173
0
174
0
175
1
176
1
 91
33
178
0
145
0.0
301
CELL_VALUE
 90
4
  1
DESCRIPTION
304
ACVALUE_END
170
1
140
0.06
171
1
172
0
173
0
174
0
175
1
176
1
 91
33
178
0
145
0.0
301
CELL_VALUE
 90
4
  1
DATE
304
ACVALUE_END
170
1
140
0.06
171
1
172
0
173
0
174
0
175
1
176
1
 91
33
178
0
145
0.0
301
CELL_VALUE
 90
4
  1
SCALE
304
ACVALUE_END
170
1
140
0.06
171
1
172
0
173
0
174
0
175
1
176
1
 91
33
178
0
145
0.0
301
CELL_VALUE
 90
4
  1
DWG SIZE
304
ACVALUE_END
170
1
140
0.06
171
1
172
0
173
0
174
0
175
1
176
1
 91
33
178
0
145
0.0
301
CELL_VALUE
 90
4
  1
SHEET
304
ACVALUE_END
170
1
140
0.06
171
1
172
0
173
0
174
0
175
1
176
1
 91
33
178
0
145
0.0
301
CELL_VALUE
 90
4
  1
 
304
ACVALUE_END
170
1
140
0.125
171
1
172
0
173
0
174
0
175
1
176
1
 91
33
178
0
145
0.0
301
CELL_VALUE
 90
4
  1
Z6D
304
ACVALUE_END
170
5
140
0.125
171
1
172
0
173
0
174
0
175
4
176
1
 91
33
178
0
145
0.0
301
CELL_VALUE
 90
4
  1
ALL DIMENSIONS IN INCH\PVIEWS ARE THIRD ANGLE
304
ACVALUE_END
170
5
140
0.12
171
1
172
0
173
1
174
0
175
1
176
1
 91
1
178
0
145
0.0
170
1
171
1
172
0
173
1
174
0
175
1
176
1
 91
1
178
0
145
0.0
170
1
171
1
172
0
173
1
174
0
175
1
176
1
 91
1
178
0
145
0.0
170
5
171
1
172
0
173
0
174
0
175
1
176
1
 91
33
178
0
145
0.0
301
CELL_VALUE
 90
4
  1
 
304
ACVALUE_END
170
1
140
0.125
171
1
172
0
173
0
174
0
175
1
176
1
 91
33
178
0
145
0.0
301
CELL_VALUE
 90
4
  1
MODEL
304
ACVALUE_END
170
1
140
0.06
171
1
172
0
173
0
174
0
175
1
176
1
 91
33
178
0
145
0.0
301
CELL_VALUE
 90
4
  1
 
304
ACVALUE_END
170
1
140
0.125
171
1
172
0
173
0
174
0
175
1
176
1
 91
33
178
0
145
0.0
301
CELL_VALUE
 90
4
  1
 
304
ACVALUE_END
170
1
140
0.125
171
1
172
0
173
0
174
0
175
1
176
1
 91
33
178
0
145
0.0
301
CELL_VALUE
 90
4
  1
 
304
ACVALUE_END
170
1
140
0.125
171
1
172
0
173
0
174
0
175
1
176
1
 91
33
178
0
145
0.0
301
CELL_VALUE
 90
4
  1
 
304
ACVALUE_END
170
1
140
0.125
171
1
172
0
173
0
174
0
175
1
176
1
 91
33
178
0
145
0.0
301
CELL_VALUE
 90
4
  1
 
304
ACVALUE_END
170
1
140
0.125
  0
ACAD_TABLE
  5
275
100
AcDbEntity
  8
0
 62
2
  6
CONTINUOUS
100
AcDbBlockReference
  2
*T2
 10
12.4237499994
 20
16.47875
 30
0.0
100
AcDbTable
342
       3DF
343
213
 11
1.0
 21
0.0
 31
0.0
 90
22
 91
8
 92
3
 93
16
 94
0
 95
0
 96
0
 41
0.028
141
0.344
141
0.25
141
0.25
141
0.25
141
0.25
141
0.25
141
0.25
141
0.25
142
3.055
142
3.0
142
3.0
171
1
172
0
173
0
174
0
175
1
176
1
 91
33
178
0
145
0.0
301
CELL_VALUE
 90
4
  1
Technical Data
304
ACVALUE_END
170
5
140
0.145
171
1
172
0
173
0
174
0
175
1
176
1
 91
33
178
0
145
0.0
301
CELL_VALUE
 90
4
  1
U.S. Units
304
ACVALUE_END
170
5
140
0.145
171
1
172
0
173
0
174
0
175
1
176
1
 91
33
178
0
145
0.0
301
CELL_VALUE
 90
4
  1
Metric Units
304
ACVALUE_END
170
5
140
0.145
171
1
172
0
173
0
174
0
175
1
176
1
 91
33
178
0
145
0.0
301
CELL_VALUE
 90
4
  1
Cavity
304
ACVALUE_END
170
5
140
0.125
171
1
172
0
173
0
174
0
175
2
176
1
 91
33
178
0
145
0.0
301
CELL_VALUE
 90
4
  1
T-17A
304
ACVALUE_END
170
5
140
0.125
171
1
172
0
173
1
174
0
175
1
176
1
 91
1
178
0
145
0.0
170
1
171
1
172
0
173
0
174
0
175
1
176
1
 91
33
178
0
145
0.0
301
CELL_VALUE
 90
4
  1
Body Features
304
ACVALUE_END
170
5
140
0.125
171
1
172
0
173
0
174
0
175
2
176
1
 91
33
178
0
145
0.0
301
CELL_VALUE
 90
4
  1
On P, port 3 to T and check on T
304
ACVALUE_END
170
5
140
0.125
171
1
172
0
173
1
174
0
175
1
176
1
 91
1
178
0
145
0.0
170
1
171
1
172
0
173
0
174
0
175
1
176
1
 91
33
178
0
145
0.0
301
CELL_VALUE
 90
4
  1
Body Type
304
ACVALUE_END
170
5
140
0.125
171
1
172
0
173
0
174
0
175
2
176
1
 91
33
178
0
145
0.0
301
CELL_VALUE
 90
4
  1
Sandwich
304
ACVALUE_END
170
5
140
0.125
171
1
172
0
173
1
174
0
175
1
176
1
 91
1
178
0
145
0.0
170
1
171
1
172
0
173
0
174
0
175
1
176
1
 91
33
178
0
145
0.0
301
CELL_VALUE
 90
4
  1
Interface
304
ACVALUE_END
170
5
140
0.125
171
1
172
0
173
0
174
0
175
2
176
1
 91
33
178
0
145
0.0
301
CELL_VALUE
 90
4
  1
ISO 07
304
ACVALUE_END
170
5
140
0.125
171
1
172
0
173
1
174
0
175
1
176
1
 91
1
178
0
145
0.0
170
1
171
1
172
0
173
0
174
0
175
1
176
1
 91
33
178
0
145
0.0
301
CELL_VALUE
 90
4
  1
Open Cavity Quantity
304
ACVALUE_END
170
5
140
0.125
171
1
172
0
173
0
174
0
175
2
176
1
 91
33
178
0
145
0.0
301
CELL_VALUE
 90
4
  1
1
304
ACVALUE_END
170
5
140
0.125
171
1
172
0
173
1
174
0
175
1
176
1
 91
1
178
0
145
0.0
170
1
171
1
172
0
173
0
174
0
175
1
176
1
 91
33
178
0
145
0.0
301
CELL_VALUE
 90
4
  1
Stack Height
304
ACVALUE_END
170
5
140
0.125
171
1
172
0
173
0
174
0
175
1
176
1
 91
33
178
0
145
0.0
301
CELL_VALUE
 90
4
  1
3.52 in.
304
ACVALUE_END
170
5
140
0.125
171
1
172
0
173
0
174
0
175
1
176
1
 91
33
178
0
145
0.0
301
CELL_VALUE
 90
4
  1
90 mm
304
ACVALUE_END
170
5
140
0.125
171
1
172
0
173
0
174
0
175
1
176
1
 91
33
178
0
145
0.0
301
CELL_VALUE
 90
4
  1
Weight
304
ACVALUE_END
170
5
140
0.125
171
1
172
0
173
0
174
0
175
1
176
1
 91
33
178
0
145
0.0
301
CELL_VALUE
 90
4
  1
7.859 lb.
304
ACVALUE_END
170
5
140
0.125
171
1
172
0
173
0
174
0
175
1
176
1
 91
33
178
0
145
0.0
301
CELL_VALUE
 90
4
  1
3,565 kg.
304
ACVALUE_END
170
5
140
0.125
  0
MTEXT
  5
276
100
AcDbEntity
  8
0
100
AcDbMText
 62
2
  6
CONTINUOUS
  7
STANDARD
 71
1
 72
1
 10
0.52125
 20
5.75995
 30
0.0
 11
1.0
 21
0.0
 31
0.0
 44
0.6
  3
Notes\P \P1. Important: Carefully consider\P   the maximum system pressure. The\P   pressure rating of the manifold is\P   dependent on the manifold material,\P   with the port type/size a secondary\P   consideration. Manifolds\P   constructed of alu
  1
minum are not\P   rated for pressures higher than\P   3000 psi (210 bar), regardless of\P   the port type/size specified.\P2. Items without balloons are\P   shipped loose.
 40
0.1
 41
3.04
  0
LINE
  5
277
100
AcDbEntity
  8
0
100
AcDbLine
 62
7
  6
CONTINUOUS
 10
0.30125
 20
0.30125
 11
0.30125
 21
16.69875
  0
LINE
  5
278
100
AcDbEntity
  8
0
100
AcDbLine
 62
7
  6
CONTINUOUS
 10
0.30125
 20
0.30125
 11
21.69875
 21
0.30125
  0
LINE
  5
279
100
AcDbEntity
  8
0
100
AcDbLine
 62
7
  6
CONTINUOUS
 10
0.30125
 20
16.69875
 11
21.69875
 21
16.69875
  0
LINE
  5
27A
100
AcDbEntity
  8
0
100
AcDbLine
 62
7
  6
CONTINUOUS
 10
21.69875
 20
0.30125
 11
21.69875
 21
16.69875
  0
LINE
  5
27B
100
AcDbEntity
  8
0
100
AcDbLine
 62
7
  6
CONTINUOUS
 10
6.747131911
 20
9.5983544703
 11
6.7383584593
 21
9.5834792165
  0
LINE
  5
27C
100
AcDbEntity
  8
0
100
AcDbLine
 62
7
  6
CONTINUOUS
 10
6.6760297339
 20
8.4424431431
 11
6.6616271071
 21
8.4770467503
  0
LINE
  5
27D
100
AcDbEntity
  8
0
100
AcDbLine
 62
7
  6
CONTINUOUS
 10
7.3703738564
 20
9.4246203835
 11
7.3703738564
 21
7.3111745503
  0
LINE
  5
27E
100
AcDbEntity
  8
0
100
AcDbLine
 62
7
  6
CONTINUOUS
 10
7.392294175
 20
9.4147937866
 11
7.392294175
 21
7.3013479534
  0
LINE
  5
27F
100
AcDbEntity
  8
0
100
AcDbLine
 62
7
  6
CONTINUOUS
 10
7.4639973474
 20
6.9027149553
 11
7.4381218716
 21
6.9345302051
  0
LINE
  5
280
100
AcDbEntity
  8
0
100
AcDbLine
 62
7
  6
CONTINUOUS
 10
8.1002429613
 20
10.6425264876
 11
7.5078066559
 21
10.0702769259
  0
LINE
  5
281
100
AcDbEntity
  8
0
100
AcDbLine
 62
7
  6
CONTINUOUS
 10
8.1301866636
 20
10.6703935871
 11
7.5377503583
 21
10.0981440255
  0
LINE
  5
282
100
AcDbEntity
  8
0
100
AcDbLine
 62
7
  6
CONTINUOUS
 10
8.1315597466
 20
10.6716956961
 11
8.1301866636
 21
10.6703935871
  0
LINE
  5
283
100
AcDbEntity
  8
0
100
AcDbLine
 62
7
  6
CONTINUOUS
 10
8.1015417734
 20
10.6437579084
 11
8.1002429613
 21
10.6425264876
  0
LINE
  5
284
100
AcDbEntity
  8
0
100
AcDbLine
 62
7
  6
CONTINUOUS
 10
8.1002429613
 20
10.6425264876
 11
8.1301746005
 21
10.6704065485
  0
LINE
  5
285
100
AcDbEntity
  8
0
100
AcDbLine
 62
7
  6
CONTINUOUS
 10
7.5078066559
 20
10.0702769259
 11
7.5377503583
 21
10.0981440255
  0
LINE
  5
286
100
AcDbEntity
  8
0
100
AcDbLine
 62
7
  6
CONTINUOUS
 10
7.3703738564
 20
8.33811525
 11
7.3660946076
 21
8.3483965306
  0
LINE
  5
287
100
AcDbEntity
  8
0
100
AcDbLine
 62
7
  6
CONTINUOUS
 10
10.0908949981
 20
10.7800895324
 11
9.1992641408
 21
9.9188402088
  0
LINE
  5
288
100
AcDbEntity
  8
0
100
AcDbLine
 62
7
  6
CONTINUOUS
 10
7.3703738564
 20
7.3111745503
 11
7.392294175
 21
7.3013479534
  0
LINE
  5
289
100
AcDbEntity
  8
0
100
AcDbLine
 62
7
  6
CONTINUOUS
 10
14.5240210824
 20
6.8150674302
 11
14.4860539963
 21
6.8093940389
  0
LINE
  5
28A
100
AcDbEntity
  8
0
100
AcDbLine
 62
7
  6
CONTINUOUS
 10
9.1992641408
 20
6.5380996165
 11
13.7874122027
 21
6.2199104676
  0
LINE
  5
28B
100
AcDbEntity
  8
0
100
AcDbLine
 62
7
  6
CONTINUOUS
 10
9.1992641408
 20
6.5380996165
 11
9.1992641408
 21
9.9188402088
  0
LINE
  5
28C
100
AcDbEntity
  8
0
100
AcDbLine
 62
7
  6
CONTINUOUS
 10
10.6859299775
 20
10.6096788681
 11
10.6867874916
 21
10.6104917566
  0
LINE
  5
28D
100
AcDbEntity
  8
0
100
AcDbLine
 62
7
  6
CONTINUOUS
 10
10.7013847916
 20
10.6240618872
 11
10.7022101306
 21
10.6248420159
  0
LINE
  5
28E
100
AcDbEntity
  8
0
100
AcDbLine
 62
7
  6
CONTINUOUS
 10
10.7022024214
 20
10.624836967
 11
10.6867874916
 21
10.6104917566
  0
LINE
  5
28F
100
AcDbEntity
  8
0
100
AcDbLine
 62
7
  6
CONTINUOUS
 10
9.1992641408
 20
6.7632716378
 11
7.4988689131
 21
6.8811944473
  0
LINE
  5
290
100
AcDbEntity
  8
0
100
AcDbLine
 62
7
  6
CONTINUOUS
 10
13.8981280241
 20
6.4374043207
 11
14.5926287343
 21
6.3892405328
  0
LINE
  5
291
100
AcDbEntity
  8
0
100
AcDbLine
 62
7
  6
CONTINUOUS
 10
11.161273255
 20
10.5917884493
 11
11.1616484751
 21
10.5921424924
  0
LINE
  5
292
100
AcDbEntity
  8
0
100
AcDbLine
 62
7
  6
CONTINUOUS
 10
14.4860539963
 20
6.8093940389
 11
13.791553286
 21
6.8575578268
  0
LINE
  5
293
100
AcDbEntity
  8
0
100
AcDbLine
 62
7
  6
CONTINUOUS
 10
7.392294175
 20
7.3013479534
 11
9.1992641408
 21
7.1760341607
  0
LINE
  5
294
100
AcDbEntity
  8
0
100
AcDbLine
 62
7
  6
CONTINUOUS
 10
7.3703738564
 20
9.4246203835
 11
7.392294175
 21
9.4147937866
  0
LINE
  5
295
100
AcDbEntity
  8
0
100
AcDbLine
 62
7
  6
CONTINUOUS
 10
10.6742084814
 20
10.5866352756
 11
10.6742084814
 21
10.5265894266
  0
LINE
  5
296
100
AcDbEntity
  8
0
100
AcDbLine
 62
7
  6
CONTINUOUS
 10
7.3703738564
 20
8.2903680285
 11
6.7321440831
 21
8.3346294136
  0
LINE
  5
297
100
AcDbEntity
  8
0
100
AcDbLine
 62
7
  6
CONTINUOUS
 10
7.3703738564
 20
8.3017204657
 11
6.722002784
 21
8.3466851523
  0
LINE
  5
298
100
AcDbEntity
  8
0
100
AcDbLine
 62
4
  6
CONTINUOUS
 10
15.3118656011
 20
7.6392661088
 11
15.270454589
 21
7.6434227485
  0
LINE
  5
299
100
AcDbEntity
  8
0
100
AcDbLine
 62
7
  6
CONTINUOUS
 10
10.9161463862
 20
10.6244850688
 11
10.9161463862
 21
10.574273523
  0
LINE
  5
29A
100
AcDbEntity
  8
0
100
AcDbLine
 62
7
  6
CONTINUOUS
 10
14.5240210824
 20
8.9285132633
 11
14.4860539963
 21
8.9228398721
  0
LINE
  5
29B
100
AcDbEntity
  8
0
100
AcDbLine
 62
7
  6
CONTINUOUS
 10
7.3056370469
 20
8.7765308495
 11
6.6353688747
 21
8.8230141051
  0
LINE
  5
29C
100
AcDbEntity
  8
0
100
AcDbLine
 62
4
  6
CONTINUOUS
 10
15.1105292041
 20
7.7538863491
 11
15.0710901442
 21
7.7599477301
  0
LINE
  5
29D
100
AcDbEntity
  8
0
100
AcDbLine
 62
7
  6
CONTINUOUS
 10
11.0555657619
 20
10.6341538524
 11
11.0555657619
 21
10.5649159544
  0
LINE
  5
29E
100
AcDbEntity
  8
0
100
AcDbLine
 62
7
  6
CONTINUOUS
 10
11.3622084814
 20
10.5866352756
 11
11.3622084814
 21
10.5265894267
  0
LINE
  5
29F
100
AcDbEntity
  8
0
100
AcDbLine
 62
7
  6
CONTINUOUS
 10
11.4630129425
 20
8.8151360911
 11
11.4647423177
 21
8.8178147152
  0
LINE
  5
2A0
100
AcDbEntity
  8
0
100
AcDbLine
 62
7
  6
CONTINUOUS
 10
7.3056370469
 20
8.8202338136
 11
6.6353688747
 21
8.8667170692
  0
LINE
  5
2A1
100
AcDbEntity
  8
0
100
AcDbLine
 62
7
  6
CONTINUOUS
 10
14.4860539963
 20
8.9228398721
 11
13.791553286
 21
8.9710036599
  0
LINE
  5
2A2
100
AcDbEntity
  8
0
100
AcDbLine
 62
7
  6
CONTINUOUS
 10
7.392294175
 20
9.4147937866
 11
9.1992641408
 21
9.2894799938
  0
LINE
  5
2A3
100
AcDbEntity
  8
0
100
AcDbLine
 62
7
  6
CONTINUOUS
 10
7.3708472769
 20
9.4654123742
 11
6.722002784
 21
9.5104098926
  0
LINE
  5
2A4
100
AcDbEntity
  8
0
100
AcDbLine
 62
7
  6
CONTINUOUS
 10
7.3717615575
 20
9.4976994955
 11
6.7321440831
 21
9.542057118
  0
LINE
  5
2A5
100
AcDbEntity
  8
0
100
AcDbLine
 62
7
  6
CONTINUOUS
 10
7.3859226143
 20
9.6760974576
 11
6.9054119016
 21
9.7094209887
  0
LINE
  5
2A6
100
AcDbEntity
  8
0
100
AcDbLine
 62
4
  6
CONTINUOUS
 10
15.0592584272
 20
8.3115159459
 11
15.0622163577
 21
8.310693384
  0
LINE
  5
2A7
100
AcDbEntity
  8
0
100
AcDbLine
 62
7
  6
CONTINUOUS
 10
14.67904306
 20
10.4619003835
 11
13.7874122027
 21
9.60065106
  0
LINE
  5
2A8
100
AcDbEntity
  8
0
100
AcDbLine
 62
7
  6
CONTINUOUS
 10
13.9370094693
 20
9.6543538988
 11
14.5294457746
 21
10.2266034605
  0
LINE
  5
2A9
100
AcDbEntity
  8
0
100
AcDbLine
 62
7
  6
CONTINUOUS
 10
13.7874122027
 20
9.60065106
 11
9.1992641408
 21
9.9188402088
  0
LINE
  5
2AA
100
AcDbEntity
  8
0
100
AcDbLine
 62
7
  6
CONTINUOUS
 10
14.6315101796
 20
9.606190111
 11
13.9370094693
 21
9.6543538988
  0
LINE
  5
2AB
100
AcDbEntity
  8
0
100
AcDbLine
 62
7
  6
CONTINUOUS
 10
7.5377503583
 20
10.0981440255
 11
9.2611582031
 21
9.9786252855
  0
LINE
  5
2AC
100
AcDbEntity
  8
0
100
AcDbLine
 62
7
  6
CONTINUOUS
 10
14.6315101796
 20
9.606190111
 11
15.2239464849
 21
10.1784396726
  0
LINE
  5
2AD
100
AcDbEntity
  8
0
100
AcDbLine
 62
7
  6
CONTINUOUS
 10
14.661453882
 20
9.5741698058
 11
15.2538901873
 21
10.1464193674
  0
LINE
  5
2AE
100
AcDbEntity
  8
0
100
AcDbLine
 62
7
  6
CONTINUOUS
 10
15.2239464849
 20
10.1784396726
 11
14.5294457746
 21
10.2266034605
  0
LINE
  5
2AF
100
AcDbEntity
  8
0
100
AcDbLine
 62
7
  6
CONTINUOUS
 10
8.1301866636
 20
10.6703935871
 11
9.8535945084
 21
10.5508748472
  0
LINE
  5
2B0
100
AcDbEntity
  8
0
100
AcDbLine
 62
7
  6
CONTINUOUS
 10
9.8733954957
 20
10.5700011333
 11
8.1690681089
 21
10.6881966391
  0
LINE
  5
2B1
100
AcDbEntity
  8
0
100
AcDbLine
 62
7
  6
CONTINUOUS
 10
14.5683272199
 20
10.2444065124
 11
15.2628279301
 21
10.1962427246
  0
LINE
  5
2B2
100
AcDbEntity
  8
0
100
AcDbLine
 62
7
  6
CONTINUOUS
 10
11.3342145415
 20
10.624836967
 11
11.3496294712
 21
10.6104917566
  0
LINE
  5
2B3
100
AcDbEntity
  8
0
100
AcDbLine
 62
7
  6
CONTINUOUS
 10
14.7988866911
 20
9.2229908983
 11
14.8008720967
 21
9.2248734579
  0
LINE
  5
2B4
100
AcDbEntity
  8
0
100
AcDbLine
 62
7
  6
CONTINUOUS
 10
14.67904306
 20
10.4619003835
 11
10.0908949981
 21
10.7800895324
  0
LINE
  5
2B5
100
AcDbEntity
  8
0
100
AcDbLine
 62
4
  6
CONTINUOUS
 10
15.1793503623
 20
7.8424407658
 11
15.2207613744
 21
7.8051666653
  0
LINE
  5
2B6
100
AcDbEntity
  8
0
100
AcDbLine
 62
4
  6
CONTINUOUS
 10
15.1882241513
 20
7.9172471006
 11
15.2000558684
 21
7.9065973582
  0
LINE
  5
2B7
100
AcDbEntity
  8
0
100
AcDbLine
 62
7
  6
CONTINUOUS
 10
13.7874122027
 20
6.2199104676
 11
13.7874122027
 21
9.60065106
  0
LINE
  5
2B8
100
AcDbEntity
  8
0
100
AcDbLine
 62
7
  6
CONTINUOUS
 10
13.791553286
 20
6.8575578268
 11
13.791553286
 21
8.9710036599
  0
LINE
  5
2B9
100
AcDbEntity
  8
0
100
AcDbLine
 62
4
  6
CONTINUOUS
 10
15.0977115097
 20
8.5694417962
 11
15.088837721
 21
8.560870374
  0
LINE
  5
2BA
100
AcDbEntity
  8
0
100
AcDbLine
 62
4
  6
CONTINUOUS
 10
15.0829218625
 20
8.4889212822
 11
15.0740480747
 21
8.4803498609
  0
LINE
  5
2BB
100
AcDbEntity
  8
0
100
AcDbLine
 62
4
  6
CONTINUOUS
 10
15.0977115097
 20
8.4038545477
 11
15.0740480747
 21
8.3809974234
  0
LINE
  5
2BC
100
AcDbEntity
  8
0
100
AcDbLine
 62
4
  6
CONTINUOUS
 10
15.1006694393
 20
8.3478362109
 11
15.0710901442
 21
8.3192648041
  0
LINE
  5
2BD
100
AcDbEntity
  8
0
100
AcDbLine
 62
4
  6
CONTINUOUS
 10
15.0622163577
 20
8.310693384
 11
15.0592584272
 21
8.3078362424
  0
LINE
  5
2BE
100
AcDbEntity
  8
0
100
AcDbLine
 62
4
  6
CONTINUOUS
 10
15.3118656011
 20
8.5260780684
 11
15.270454589
 21
8.4860780999
  0
LINE
  5
2BF
100
AcDbEntity
  8
0
100
AcDbLine
 62
4
  6
CONTINUOUS
 10
15.2763704475
 20
8.429237126
 11
15.3059497419
 21
8.4578085321
  0
LINE
  5
2C0
100
AcDbEntity
  8
0
100
AcDbLine
 62
4
  6
CONTINUOUS
 10
15.0977115097
 20
8.2456267063
 11
15.0592584272
 21
8.2084838785
  0
LINE
  5
2C1
100
AcDbEntity
  8
0
100
AcDbLine
 62
4
  6
CONTINUOUS
 10
15.1006694393
 20
8.2043272572
 11
15.0710901442
 21
8.1757558505
  0
LINE
  5
2C2
100
AcDbEntity
  8
0
100
AcDbLine
 62
4
  6
CONTINUOUS
 10
15.3118656011
 20
8.3862487446
 11
15.270454589
 21
8.3462487761
  0
LINE
  5
2C3
100
AcDbEntity
  8
0
100
AcDbLine
 62
4
  6
CONTINUOUS
 10
15.0710901442
 20
8.1095208922
 11
15.0977115097
 21
8.1352351581
  0
LINE
  5
2C4
100
AcDbEntity
  8
0
100
AcDbLine
 62
4
  6
CONTINUOUS
 10
15.2763704475
 20
8.3078064672
 11
15.3059497419
 21
8.3363778734
  0
LINE
  5
2C5
100
AcDbEntity
  8
0
100
AcDbLine
 62
4
  6
CONTINUOUS
 10
15.1006694393
 20
8.0939357091
 11
15.0770060027
 21
8.0710785832
  0
LINE
  5
2C6
100
AcDbEntity
  8
0
100
AcDbLine
 62
4
  6
CONTINUOUS
 10
15.3059497419
 20
8.2591038044
 11
15.2763704475
 21
8.2305323983
  0
LINE
  5
2C7
100
AcDbEntity
  8
0
100
AcDbLine
 62
4
  6
CONTINUOUS
 10
15.0977115097
 20
8.0248436837
 11
15.088837721
 21
8.0162722615
  0
LINE
  5
2C8
100
AcDbEntity
  8
0
100
AcDbLine
 62
4
  6
CONTINUOUS
 10
15.1852662208
 20
8.091016401
 11
15.2148455153
 21
8.1195878071
  0
LINE
  5
2C9
100
AcDbEntity
  8
0
100
AcDbLine
 62
4
  6
CONTINUOUS
 10
15.0740480747
 20
7.9541501923
 11
15.0799639332
 21
7.9598644732
  0
LINE
  5
2CA
100
AcDbEntity
  8
0
100
AcDbLine
 62
4
  6
CONTINUOUS
 10
15.3059497419
 20
8.1303137386
 11
15.2763704475
 21
8.1017423325
  0
LINE
  5
2CB
100
AcDbEntity
  8
0
100
AcDbLine
 62
4
  6
CONTINUOUS
 10
15.2207613744
 20
8.0480280196
 11
15.1793503623
 21
8.0080280512
  0
LINE
  5
2CC
100
AcDbEntity
  8
0
100
AcDbLine
 62
4
  6
CONTINUOUS
 10
15.1006694393
 20
7.9283484606
 11
15.0710901442
 21
7.8997770539
  0
LINE
  5
2CD
100
AcDbEntity
  8
0
100
AcDbLine
 62
4
  6
CONTINUOUS
 10
15.2148455153
 20
7.99815713
 11
15.2030137976
 21
7.9867285676
  0
LINE
  5
2CE
100
AcDbEntity
  8
0
100
AcDbLine
 62
4
  6
CONTINUOUS
 10
15.0592584272
 20
7.8441918287
 11
15.1006694393
 21
7.8841917971
  0
LINE
  5
2CF
100
AcDbEntity
  8
0
100
AcDbLine
 62
4
  6
CONTINUOUS
 10
15.0977115097
 20
7.8150997717
 11
15.0740480747
 21
7.7922426474
  0
LINE
  5
2D0
100
AcDbEntity
  8
0
100
AcDbLine
 62
7
  6
CONTINUOUS
 10
14.4860539963
 20
6.8093940389
 11
14.4860539963
 21
8.9228398721
  0
LINE
  5
2D1
100
AcDbEntity
  8
0
100
AcDbLine
 62
7
  6
CONTINUOUS
 10
14.5240210824
 20
6.8150674302
 11
14.5240210824
 21
8.9285132633
  0
LINE
  5
2D2
100
AcDbEntity
  8
0
100
AcDbLine
 62
4
  6
CONTINUOUS
 10
15.2000558684
 20
7.9065973582
 11
15.2148455153
 21
7.920883061
  0
LINE
  5
2D3
100
AcDbEntity
  8
0
100
AcDbLine
 62
4
  6
CONTINUOUS
 10
15.3118656011
 20
7.9042057764
 11
15.270454589
 21
7.8642058079
  0
LINE
  5
2D4
100
AcDbEntity
  8
0
100
AcDbLine
 62
4
  6
CONTINUOUS
 10
15.0740480747
 20
7.6524133604
 11
15.1006694393
 21
7.6781276255
  0
LINE
  5
2D5
100
AcDbEntity
  8
0
100
AcDbLine
 62
4
  6
CONTINUOUS
 10
15.3118656011
 20
7.81589256
 11
15.270454589
 21
7.7758925915
  0
LINE
  5
2D6
100
AcDbEntity
  8
0
100
AcDbLine
 62
4
  6
CONTINUOUS
 10
15.1006694393
 20
7.611892704
 11
15.0592584272
 21
7.5718927356
  0
LINE
  5
2D7
100
AcDbEntity
  8
0
100
AcDbLine
 62
7
  6
CONTINUOUS
 10
14.0049116864
 20
6.4299988485
 11
13.7874122027
 21
6.2199104676
  0
LINE
  5
2D8
100
AcDbEntity
  8
0
100
AcDbLine
 62
4
  6
CONTINUOUS
 10
15.1006694393
 20
7.4463054187
 11
15.0592584272
 21
7.4063054502
  0
LINE
  5
2D9
100
AcDbEntity
  8
0
100
AcDbLine
 62
4
  6
CONTINUOUS
 10
15.2763704475
 20
7.5424252216
 11
15.3059497419
 21
7.5709966277
  0
LINE
  5
2DA
100
AcDbEntity
  8
0
100
AcDbLine
 62
4
  6
CONTINUOUS
 10
15.1006694393
 20
7.3690313497
 11
15.0592584272
 21
7.3290313812
  0
LINE
  5
2DB
100
AcDbEntity
  8
0
100
AcDbLine
 62
7
  6
CONTINUOUS
 10
14.661453882
 20
9.5741698058
 11
14.6315101796
 21
9.606190111
  0
LINE
  5
2DC
100
AcDbEntity
  8
0
100
AcDbLine
 62
4
  6
CONTINUOUS
 10
15.0651742857
 20
7.0918843078
 11
15.0592584272
 21
7.1082483333
  0
LINE
  5
2DD
100
AcDbEntity
  8
0
100
AcDbLine
 62
4
  6
CONTINUOUS
 10
15.1006694393
 20
7.1813657603
 11
15.0947535802
 21
7.1977297829
  0
LINE
  5
2DE
100
AcDbEntity
  8
0
100
AcDbLine
 62
4
  6
CONTINUOUS
 10
15.1006694393
 20
7.3027964466
 11
15.0947535802
 21
7.31916046
  0
LINE
  5
2DF
100
AcDbEntity
  8
0
100
AcDbLine
 62
7
  6
CONTINUOUS
 10
14.67904306
 20
10.2367283428
 11
14.67904306
 21
10.4619003835
  0
LINE
  5
2E0
100
AcDbEntity
  8
0
100
AcDbLine
 62
4
  6
CONTINUOUS
 10
15.0710901442
 20
8.5326884196
 11
15.0740480747
 21
8.5465846719
  0
LINE
  5
2E1
100
AcDbEntity
  8
0
100
AcDbLine
 62
4
  6
CONTINUOUS
 10
15.0770060027
 20
8.0710785832
 11
15.0710901442
 21
8.0543251918
  0
LINE
  5
2E2
100
AcDbEntity
  8
0
100
AcDbLine
 62
4
  6
CONTINUOUS
 10
15.0947535802
 20
7.31916046
 11
15.0592584272
 21
7.284874773
  0
LINE
  5
2E3
100
AcDbEntity
  8
0
100
AcDbLine
 62
4
  6
CONTINUOUS
 10
15.3118656011
 20
7.4994368495
 11
15.270454589
 21
7.459436881
  0
LINE
  5
2E4
100
AcDbEntity
  8
0
100
AcDbLine
 62
4
  6
CONTINUOUS
 10
15.0592584272
 20
7.2076007041
 11
15.0947535802
 21
7.2418863911
  0
LINE
  5
2E5
100
AcDbEntity
  8
0
100
AcDbLine
 62
4
  6
CONTINUOUS
 10
15.0947535802
 20
7.1977297829
 11
15.088837721
 21
7.1920155014
  0
LINE
  5
2E6
100
AcDbEntity
  8
0
100
AcDbLine
 62
4
  6
CONTINUOUS
 10
15.0710901442
 20
7.0975985887
 11
15.0651742857
 21
7.0918843078
  0
LINE
  5
2E7
100
AcDbEntity
  8
0
100
AcDbLine
 62
4
  6
CONTINUOUS
 10
15.3059497419
 20
7.5709966277
 11
15.3118656011
 21
7.5546326051
  0
LINE
  5
2E8
100
AcDbEntity
  8
0
100
AcDbLine
 62
4
  6
CONTINUOUS
 10
15.1793503623
 20
7.9417931481
 11
15.1882241513
 21
7.9172471006
  0
LINE
  5
2E9
100
AcDbEntity
  8
0
100
AcDbLine
 62
4
  6
CONTINUOUS
 10
15.0740480747
 20
8.3809974234
 11
15.0710901442
 21
8.3891793923
  0
LINE
  5
2EA
100
AcDbEntity
  8
0
100
AcDbLine
 62
4
  6
CONTINUOUS
 10
15.2207613744
 20
7.9817931165
 11
15.2148455153
 21
7.99815713
  0
LINE
  5
2EB
100
AcDbEntity
  8
0
100
AcDbLine
 62
4
  6
CONTINUOUS
 10
15.0740480747
 20
8.4803498609
 11
15.0710901442
 21
8.4885318299
  0
LINE
  5
2EC
100
AcDbEntity
  8
0
100
AcDbLine
 62
4
  6
CONTINUOUS
 10
15.2148455153
 20
8.1195878071
 11
15.2207613744
 21
8.1032237937
  0
LINE
  5
2ED
100
AcDbEntity
  8
0
100
AcDbLine
 62
4
  6
CONTINUOUS
 10
15.1006694393
 20
8.5612598264
 11
15.0977115097
 21
8.5694417962
  0
LINE
  5
2EE
100
AcDbEntity
  8
0
100
AcDbLine
 62
4
  6
CONTINUOUS
 10
15.2763704475
 20
8.1017423325
 11
15.270454589
 21
8.1181063465
  0
LINE
  5
2EF
100
AcDbEntity
  8
0
100
AcDbLine
 62
4
  6
CONTINUOUS
 10
15.2763704475
 20
8.2305323983
 11
15.270454589
 21
8.2468964123
  0
LINE
  5
2F0
100
AcDbEntity
  8
0
100
AcDbLine
 62
4
  6
CONTINUOUS
 10
15.3059497419
 20
8.3363778734
 11
15.3118656011
 21
8.3200138599
  0
LINE
  5
2F1
100
AcDbEntity
  8
0
100
AcDbLine
 62
4
  6
CONTINUOUS
 10
15.0740480747
 20
7.7922426474
 11
15.0710901442
 21
7.8114638006
  0
LINE
  5
2F2
100
AcDbEntity
  8
0
100
AcDbLine
 62
4
  6
CONTINUOUS
 10
15.088837721
 20
8.0162722615
 11
15.0858797918
 21
8.035493416
  0
LINE
  5
2F3
100
AcDbEntity
  8
0
100
AcDbLine
 62
4
  6
CONTINUOUS
 10
15.0592584272
 20
7.1082483333
 11
15.0592584272
 21
7.1524049438
  0
LINE
  5
2F4
100
AcDbEntity
  8
0
100
AcDbLine
 62
4
  6
CONTINUOUS
 10
15.0592584272
 20
8.3078362424
 11
15.0592584272
 21
8.3115159459
  0
LINE
  5
2F5
100
AcDbEntity
  8
0
100
AcDbLine
 62
4
  6
CONTINUOUS
 10
15.0710901442
 20
8.0543251918
 11
15.0710901442
 21
7.9991294177
  0
LINE
  5
2F6
100
AcDbEntity
  8
0
100
AcDbLine
 62
4
  6
CONTINUOUS
 10
15.0710901442
 20
7.5833212973
 11
15.0710901442
 21
7.6385170714
  0
LINE
  5
2F7
100
AcDbEntity
  8
0
100
AcDbLine
 62
4
  6
CONTINUOUS
 10
15.0710901442
 20
7.8114638006
 11
15.0710901442
 21
7.8556203904
  0
LINE
  5
2F8
100
AcDbEntity
  8
0
100
AcDbLine
 62
4
  6
CONTINUOUS
 10
15.0710901442
 20
7.8997770539
 11
15.0710901442
 21
7.9439336436
  0
LINE
  5
2F9
100
AcDbEntity
  8
0
100
AcDbLine
 62
4
  6
CONTINUOUS
 10
15.0710901442
 20
8.3891793923
 11
15.0710901442
 21
8.4333361295
  0
LINE
  5
2FA
100
AcDbEntity
  8
0
100
AcDbLine
 62
4
  6
CONTINUOUS
 10
15.0710901442
 20
8.4885318299
 11
15.0710901442
 21
8.5326884196
  0
LINE
  5
2FB
100
AcDbEntity
  8
0
100
AcDbLine
 62
4
  6
CONTINUOUS
 10
15.0858797918
 20
8.035493416
 11
15.0858797918
 21
8.0796500057
  0
LINE
  5
2FC
100
AcDbEntity
  8
0
100
AcDbLine
 62
4
  6
CONTINUOUS
 10
15.1006694393
 20
8.4619075362
 11
15.1006694393
 21
8.4177507991
  0
LINE
  5
2FD
100
AcDbEntity
  8
0
100
AcDbLine
 62
4
  6
CONTINUOUS
 10
15.1006694393
 20
8.2816013262
 11
15.1006694393
 21
8.2595230313
  0
LINE
  5
2FE
100
AcDbEntity
  8
0
100
AcDbLine
 62
4
  6
CONTINUOUS
 10
15.1006694393
 20
8.0939357091
 11
15.1006694393
 21
8.0497791193
  0
LINE
  5
2FF
100
AcDbEntity
  8
0
100
AcDbLine
 62
4
  6
CONTINUOUS
 10
15.1006694393
 20
7.8841917971
 11
15.1006694393
 21
7.8400352074
  0
LINE
  5
300
100
AcDbEntity
  8
0
100
AcDbLine
 62
4
  6
CONTINUOUS
 10
15.1006694393
 20
7.1372091486
 11
15.1006694393
 21
7.1813657603
  0
LINE
  5
301
100
AcDbEntity
  8
0
100
AcDbLine
 62
4
  6
CONTINUOUS
 10
15.1006694393
 20
7.2696789767
 11
15.1006694393
 21
7.3027964466
  0
LINE
  5
302
100
AcDbEntity
  8
0
100
AcDbLine
 62
4
  6
CONTINUOUS
 10
15.1006694393
 20
8.1491314832
 11
15.1006694393
 21
8.2043272572
  0
LINE
  5
303
100
AcDbEntity
  8
0
100
AcDbLine
 62
4
  6
CONTINUOUS
 10
15.1006694393
 20
8.5171032366
 11
15.1006694393
 21
8.5612598264
  0
LINE
  5
304
100
AcDbEntity
  8
0
100
AcDbLine
 62
4
  6
CONTINUOUS
 10
15.1105292041
 20
7.7318080542
 11
15.1105292041
 21
7.7538863491
  0
LINE
  5
305
100
AcDbEntity
  8
0
100
AcDbLine
 62
4
  6
CONTINUOUS
 10
15.1793503623
 20
7.7651666969
 11
15.1793503623
 21
7.8424407658
  0
LINE
  5
306
100
AcDbEntity
  8
0
100
AcDbLine
 62
4
  6
CONTINUOUS
 10
15.1793503623
 20
8.0080280512
 11
15.1793503623
 21
8.0632238252
  0
LINE
  5
307
100
AcDbEntity
  8
0
100
AcDbLine
 62
4
  6
CONTINUOUS
 10
15.1970979379
 20
7.9589359907
 11
15.1970979379
 21
7.9110996513
  0
LINE
  5
308
100
AcDbEntity
  8
0
100
AcDbLine
 62
4
  6
CONTINUOUS
 10
15.2207613744
 20
8.1032237937
 11
15.2207613744
 21
8.0480280196
  0
LINE
  5
309
100
AcDbEntity
  8
0
100
AcDbLine
 62
4
  6
CONTINUOUS
 10
15.2207613744
 20
7.8051666653
 11
15.2207613744
 21
7.8824407343
  0
LINE
  5
30A
100
AcDbEntity
  8
0
100
AcDbLine
 62
4
  6
CONTINUOUS
 10
15.2207613744
 20
7.9486756466
 11
15.2207613744
 21
7.9817931165
  0
LINE
  5
30B
100
AcDbEntity
  8
0
100
AcDbLine
 62
4
  6
CONTINUOUS
 10
15.270454589
 20
7.459436881
 11
15.270454589
 21
7.5146326366
  0
LINE
  5
30C
100
AcDbEntity
  8
0
100
AcDbLine
 62
4
  6
CONTINUOUS
 10
15.270454589
 20
7.7317359649
 11
15.270454589
 21
7.8200491813
  0
LINE
  5
30D
100
AcDbEntity
  8
0
100
AcDbLine
 62
4
  6
CONTINUOUS
 10
15.270454589
 20
7.8642058079
 11
15.270454589
 21
7.9304407294
  0
LINE
  5
30E
100
AcDbEntity
  8
0
100
AcDbLine
 62
4
  6
CONTINUOUS
 10
15.270454589
 20
8.1181063465
 11
15.270454589
 21
8.1622629363
  0
LINE
  5
30F
100
AcDbEntity
  8
0
100
AcDbLine
 62
4
  6
CONTINUOUS
 10
15.270454589
 20
8.2468964123
 11
15.270454589
 21
8.2800138915
  0
LINE
  5
310
100
AcDbEntity
  8
0
100
AcDbLine
 62
4
  6
CONTINUOUS
 10
15.270454589
 20
8.3462487761
 11
15.270454589
 21
8.4014445502
  0
LINE
  5
311
100
AcDbEntity
  8
0
100
AcDbLine
 62
4
  6
CONTINUOUS
 10
15.270454589
 20
8.4860780999
 11
15.270454589
 21
8.5523129846
  0
LINE
  5
312
100
AcDbEntity
  8
0
100
AcDbLine
 62
4
  6
CONTINUOUS
 10
15.2882021645
 20
8.5473775323
 11
15.2882021645
 21
8.5032209425
  0
LINE
  5
313
100
AcDbEntity
  8
0
100
AcDbLine
 62
4
  6
CONTINUOUS
 10
15.2882021645
 20
7.9255052771
 11
15.2882021645
 21
7.8813486505
  0
LINE
  5
314
100
AcDbEntity
  8
0
100
AcDbLine
 62
4
  6
CONTINUOUS
 10
15.3000338828
 20
7.6425564152
 11
15.3000338828
 21
7.7014318928
  0
LINE
  5
315
100
AcDbEntity
  8
0
100
AcDbLine
 62
4
  6
CONTINUOUS
 10
15.3118656011
 20
8.4414445187
 11
15.3118656011
 21
8.3862487446
  0
LINE
  5
316
100
AcDbEntity
  8
0
100
AcDbLine
 62
4
  6
CONTINUOUS
 10
15.3118656011
 20
8.3200138599
 11
15.3118656011
 21
8.2868963808
  0
LINE
  5
317
100
AcDbEntity
  8
0
100
AcDbLine
 62
4
  6
CONTINUOUS
 10
15.3118656011
 20
8.2022629047
 11
15.3118656011
 21
8.158106315
  0
LINE
  5
318
100
AcDbEntity
  8
0
100
AcDbLine
 62
4
  6
CONTINUOUS
 10
15.3118656011
 20
7.5546326051
 11
15.3118656011
 21
7.4994368495
  0
LINE
  5
319
100
AcDbEntity
  8
0
100
AcDbLine
 62
4
  6
CONTINUOUS
 10
15.3118656011
 20
7.9042057764
 11
15.3118656011
 21
7.9704406979
  0
LINE
  5
31A
100
AcDbEntity
  8
0
100
AcDbLine
 62
4
  6
CONTINUOUS
 10
15.3118656011
 20
8.5260780684
 11
15.3118656011
 21
8.592312953
  0
LINE
  5
31B
100
AcDbEntity
  8
0
100
AcDbLine
 62
4
  6
CONTINUOUS
 10
15.0868657682
 20
8.5479265031
 11
15.0848938153
 21
8.5018651531
  0
LINE
  5
31C
100
AcDbEntity
  8
0
100
AcDbLine
 62
4
  6
CONTINUOUS
 10
15.1006694393
 20
8.0497791193
 11
15.0977115097
 21
8.0248436837
  0
LINE
  5
31D
100
AcDbEntity
  8
0
100
AcDbLine
 62
4
  6
CONTINUOUS
 10
15.1006694393
 20
7.8400352074
 11
15.0977115097
 21
7.8150997717
  0
LINE
  5
31E
100
AcDbEntity
  8
0
100
AcDbLine
 62
4
  6
CONTINUOUS
 10
15.2862302117
 20
8.6117076567
 11
15.2941180243
 21
8.6782021766
  0
LINE
  5
31F
100
AcDbEntity
  8
0
100
AcDbLine
 62
4
  6
CONTINUOUS
 10
15.088837721
 20
8.560870374
 11
15.0868657682
 21
8.5479265031
  0
LINE
  5
320
100
AcDbEntity
  8
0
100
AcDbLine
 62
4
  6
CONTINUOUS
 10
15.0848938153
 20
8.5018651531
 11
15.0829218625
 21
8.4889212822
  0
LINE
  5
321
100
AcDbEntity
  8
0
100
AcDbLine
 62
4
  6
CONTINUOUS
 10
15.088837721
 20
7.1920155014
 11
15.0710901442
 21
7.0975985887
  0
LINE
  5
322
100
AcDbEntity
  8
0
100
AcDbLine
 62
4
  6
CONTINUOUS
 10
15.0977115097
 20
8.5032069853
 11
15.1006694393
 21
8.5171032366
  0
LINE
  5
323
100
AcDbEntity
  8
0
100
AcDbLine
 62
4
  6
CONTINUOUS
 10
15.1006694393
 20
8.4177507991
 11
15.0977115097
 21
8.4038545477
  0
LINE
  5
324
100
AcDbEntity
  8
0
100
AcDbLine
 62
4
  6
CONTINUOUS
 10
15.1006694393
 20
8.2595230313
 11
15.0977115097
 21
8.2456267063
  0
LINE
  5
325
100
AcDbEntity
  8
0
100
AcDbLine
 62
4
  6
CONTINUOUS
 10
15.0977115097
 20
8.1352351581
 11
15.1006694393
 21
8.1491314832
  0
LINE
  5
326
100
AcDbEntity
  8
0
100
AcDbLine
 62
4
  6
CONTINUOUS
 10
15.0710901442
 20
7.6385170714
 11
15.0740480747
 21
7.6524133604
  0
LINE
  5
327
100
AcDbEntity
  8
0
100
AcDbLine
 62
4
  6
CONTINUOUS
 10
15.1793503623
 20
8.0632238252
 11
15.1852662208
 21
8.091016401
  0
LINE
  5
328
100
AcDbEntity
  8
0
100
AcDbLine
 62
4
  6
CONTINUOUS
 10
15.270454589
 20
8.4014445502
 11
15.2763704475
 21
8.429237126
  0
LINE
  5
329
100
AcDbEntity
  8
0
100
AcDbLine
 62
4
  6
CONTINUOUS
 10
15.2030137976
 20
7.9867285676
 11
15.1970979379
 21
7.9589359907
  0
LINE
  5
32A
100
AcDbEntity
  8
0
100
AcDbLine
 62
4
  6
CONTINUOUS
 10
15.270454589
 20
8.2800138915
 11
15.2763704475
 21
8.3078064672
  0
LINE
  5
32B
100
AcDbEntity
  8
0
100
AcDbLine
 62
4
  6
CONTINUOUS
 10
15.2148455153
 20
7.920883061
 11
15.2207613744
 21
7.9486756466
  0
LINE
  5
32C
100
AcDbEntity
  8
0
100
AcDbLine
 62
4
  6
CONTINUOUS
 10
15.0592584272
 20
7.1524049438
 11
15.0622163577
 21
7.1663012375
  0
LINE
  5
32D
100
AcDbEntity
  8
0
100
AcDbLine
 62
4
  6
CONTINUOUS
 10
15.3118656011
 20
8.2868963808
 11
15.3059497419
 21
8.2591038044
  0
LINE
  5
32E
100
AcDbEntity
  8
0
100
AcDbLine
 62
4
  6
CONTINUOUS
 10
15.0947535802
 20
7.2418863911
 11
15.1006694393
 21
7.2696789767
  0
LINE
  5
32F
100
AcDbEntity
  8
0
100
AcDbLine
 62
4
  6
CONTINUOUS
 10
15.3118656011
 20
8.158106315
 11
15.3059497419
 21
8.1303137386
  0
LINE
  5
330
100
AcDbEntity
  8
0
100
AcDbLine
 62
4
  6
CONTINUOUS
 10
15.0977115097
 20
7.1233128547
 11
15.1006694393
 21
7.1372091486
  0
LINE
  5
331
100
AcDbEntity
  8
0
100
AcDbLine
 62
4
  6
CONTINUOUS
 10
15.0710901442
 20
7.9439336436
 11
15.0740480747
 21
7.9541501923
  0
LINE
  5
332
100
AcDbEntity
  8
0
100
AcDbLine
 62
4
  6
CONTINUOUS
 10
15.0592584272
 20
7.3290313812
 11
15.1006694393
 21
7.4463054187
  0
LINE
  5
333
100
AcDbEntity
  8
0
100
AcDbLine
 62
4
  6
CONTINUOUS
 10
15.0710901442
 20
7.6937128454
 11
15.1006694393
 21
7.7554017313
  0
LINE
  5
334
100
AcDbEntity
  8
0
100
AcDbLine
 62
4
  6
CONTINUOUS
 10
15.270454589
 20
7.6434227485
 11
15.3118656011
 21
7.7275793436
  0
LINE
  5
335
100
AcDbEntity
  8
0
100
AcDbLine
 62
7
  6
CONTINUOUS
 10
15.2538901873
 20
7.007160246
 11
14.661453882
 21
6.4349106843
  0
LINE
  5
336
100
AcDbEntity
  8
0
100
AcDbLine
 62
7
  6
CONTINUOUS
 10
14.661453882
 20
6.4349106843
 11
14.6601550698
 21
6.4336792635
  0
LINE
  5
337
100
AcDbEntity
  8
0
100
AcDbLine
 62
7
  6
CONTINUOUS
 10
14.6301370966
 20
6.4057414757
 11
14.6601565384
 21
6.4336803998
  0
LINE
  5
338
100
AcDbEntity
  8
0
100
AcDbLine
 62
7
  6
CONTINUOUS
 10
15.2538901873
 20
10.1464193674
 11
15.2239464849
 21
10.1784396726
  0
LINE
  5
339
100
AcDbEntity
  8
0
100
AcDbLine
 62
4
  6
CONTINUOUS
 10
15.3059497419
 20
8.4578085321
 11
15.3118656011
 21
8.4414445187
  0
LINE
  5
33A
100
AcDbEntity
  8
0
100
AcDbLine
 62
4
  6
CONTINUOUS
 10
15.2862302117
 20
7.4452372199
 11
15.2941180243
 21
7.39398078
  0
LINE
  5
33B
100
AcDbEntity
  8
0
100
AcDbLine
 62
4
  6
CONTINUOUS
 10
15.2941180243
 20
8.6782021766
 11
15.3020058363
 21
8.6269457408
  0
LINE
  5
33C
100
AcDbEntity
  8
0
100
AcDbLine
 62
7
  6
CONTINUOUS
 10
15.3913229868
 20
9.7662626216
 11
15.3913229868
 21
7.6528167884
  0
LINE
  5
33D
100
AcDbEntity
  8
0
100
AcDbLine
 62
4
  6
CONTINUOUS
 10
15.2941180243
 20
7.39398078
 11
15.3020058363
 21
7.460475304
  0
LINE
  5
33E
100
AcDbEntity
  8
0
100
AcDbLine
 62
4
  6
CONTINUOUS
 10
15.270454589
 20
7.5146326366
 11
15.2763704475
 21
7.5424252216
  0
LINE
  5
33F
100
AcDbEntity
  8
0
100
AcDbLine
 62
7
  6
CONTINUOUS
 10
15.2976994958
 20
10.1747222166
 11
15.3235749716
 21
10.1429069668
  0
ARC
  5
340
100
AcDbEntity
  8
0
100
AcDbCircle
 62
7
  6
CONTINUOUS
 10
9.8971085003
 20
8.7982275557
 40
2.5915648881
100
AcDbArc
 50
179.5134673813
 51
179.9985734312
  0
ARC
  5
341
100
AcDbEntity
  8
0
100
AcDbCircle
 62
7
  6
CONTINUOUS
 10
9.2168109076
 20
8.8447535193
 40
2.5815354668
100
AcDbArc
 50
179.5125250425
 51
179.99951577
  0
ARC
  5
342
100
AcDbEntity
  8
0
100
AcDbCircle
 62
7
  6
CONTINUOUS
 10
9.8232520899
 20
8.7982212817
 40
2.5177084779
100
AcDbArc
 50
179.9983888061
 51
180.4936177515
  0
ARC
  5
343
100
AcDbEntity
  8
0
100
AcDbCircle
 62
7
  6
CONTINUOUS
 10
9.1529839177
 20
8.8447045374
 40
2.5177084779
100
AcDbArc
 50
179.9983888061
 51
180.4936177515
  0
ARC
  5
344
100
AcDbEntity
  8
0
100
AcDbCircle
 62
7
  6
CONTINUOUS
 10
7.8115708118
 20
9.1787081789
 40
1.1389400837
100
AcDbArc
 50
161.3961041614
 51
163.0679604749
  0
ARC
  5
345
100
AcDbEntity
  8
0
100
AcDbCircle
 62
7
  6
CONTINUOUS
 10
7.4564969997
 20
8.7680957654
 40
0.8456820998
100
AcDbArc
 50
200.1074676161
 51
202.6225491273
  0
ARC
  5
346
100
AcDbEntity
  8
0
100
AcDbCircle
 62
7
  6
CONTINUOUS
 10
10.2418113738
 20
9.4531239729
 40
0.8134333092
100
AcDbArc
 50
288.8851565268
 51
291.2280349123
  0
ARC
  5
347
100
AcDbEntity
  8
0
100
AcDbCircle
 62
7
  6
CONTINUOUS
 10
11.6412966026
 20
8.9504291534
 40
0.357125647
100
AcDbArc
 50
252.1591082748
 51
266.0146358241
  0
ARC
  5
348
100
AcDbEntity
  8
0
100
AcDbCircle
 62
7
  6
CONTINUOUS
 10
11.4876146629
 20
7.4801646068
 40
0.3558073152
100
AcDbArc
 50
178.1943467692
 51
211.659796128
  0
ARC
  5
349
100
AcDbEntity
  8
0
100
AcDbCircle
 62
7
  6
CONTINUOUS
 10
12.6969529002
 20
7.3962963796
 40
0.3558064517
100
AcDbArc
 50
178.1943812442
 51
211.6598280664
  0
ARC
  5
34A
100
AcDbEntity
  8
0
100
AcDbCircle
 62
7
  6
CONTINUOUS
 10
10.5323408672
 20
9.1442563016
 40
0.3548983247
100
AcDbArc
 50
153.2556356324
 51
158.6770715762
  0
ARC
  5
34B
100
AcDbEntity
  8
0
100
AcDbCircle
 62
7
  6
CONTINUOUS
 10
11.6406623296
 20
8.9417791118
 40
0.3484515842
100
AcDbArc
 50
266.0198230822
 51
269.5221727955
  0
ARC
  5
34C
100
AcDbEntity
  8
0
100
AcDbCircle
 62
7
  6
CONTINUOUS
 10
11.6409892585
 20
8.9410933967
 40
0.3477678894
100
AcDbArc
 50
269.4673701575
 51
286.2951478954
  0
ARC
  5
34D
100
AcDbEntity
  8
0
100
AcDbCircle
 62
7
  6
CONTINUOUS
 10
11.254301852
 20
10.2717464574
 40
0.280699307
100
AcDbArc
 50
66.2587057183
 51
67.3625670661
  0
ARC
  5
34E
100
AcDbEntity
  8
0
100
AcDbCircle
 62
7
  6
CONTINUOUS
 10
10.7804146929
 20
10.2757133159
 40
0.2763835582
100
AcDbArc
 50
112.639505798
 51
113.7455351575
  0
SPLINE
  5
34F
100
AcDbEntity
  8
0
100
AcDbSpline
 62
7
  6
CONTINUOUS
 70
0
 71
3
 72
45
 73
41
 74
0
 42
0.0000001
 43
0.0000001
 44
0.0000000001
 40
0.0
 40
0.0
 40
0.0
 40
0.0
 40
0.0077403233
 40
0.0160534965
 40
0.0249587331
 40
0.034469023
 40
0.044592014
 40
0.0553286898
 40
0.0666760766
 40
0.0786288154
 40
0.1043146889
 40
0.1322902343
 40
0.162428977
 40
0.1945760059
 40
0.228556689
 40
0.264178482
 40
0.3012328991
 40
0.339500774
 40
0.3787504303
 40
0.4187445195
 40
0.4999769
 40
0.5812101416
 40
0.6212052962
 40
0.6604564282
 40
0.6987261851
 40
0.7357828962
 40
0.7714073331
 40
0.8053909289
 40
0.8375411939
 40
0.8676837507
 40
0.8956634203
 40
0.921352635
 40
0.9333066263
 40
0.9446555247
 40
0.9553945274
 40
0.9655212369
 40
0.9750366842
 40
0.983946747
 40
0.9922622034
 40
1.0
 40
1.0
 40
1.0
 40
1.0
 10
10.875137053
 20
10.591793079
 30
0.0
 10
10.8756955507
 20
10.5912732769
 30
0.0
 10
10.8768978967
 20
10.5902419282
 30
0.0
 10
10.8788701895
 20
10.5887688886
 30
0.0
 10
10.8810709254
 20
10.5873179396
 30
0.0
 10
10.8834966963
 20
10.5858914499
 30
0.0
 10
10.8861439536
 20
10.5844918482
 30
0.0
 10
10.8890082497
 20
10.5831211006
 30
0.0
 10
10.8920848388
 20
10.5817813147
 30
0.0
 10
10.8965720493
 20
10.5799962316
 30
0.0
 10
10.9026850094
 20
10.5778736016
 30
0.0
 10
10.9106111969
 20
10.5755396253
 30
0.0
 10
10.9192440118
 20
10.5733782542
 30
0.0
 10
10.9285269752
 20
10.5714031899
 30
0.0
 10
10.9383996476
 20
10.5696281621
 30
0.0
 10
10.9487972842
 20
10.5680649759
 30
0.0
 10
10.9596516969
 20
10.5667239612
 30
0.0
 10
10.9708914907
 20
10.5656145216
 30
0.0
 10
10.9824428403
 20
10.5647434323
 30
0.0
 10
10.9982397919
 20
10.5639044715
 30
0.0
 10
11.0181982273
 20
10.5634890513
 30
0.0
 10
11.0381567823
 20
10.563903759
 30
0.0
 10
11.0539540999
 20
10.5647421493
 30
0.0
 10
11.0655059181
 20
10.5656128208
 30
0.0
 10
11.0767463113
 20
10.5667218574
 30
0.0
 10
11.0876014487
 20
10.568062488
 30
0.0
 10
11.0979999224
 20
10.5696253084
 30
0.0
 10
11.1078735419
 20
10.5713999622
 30
0.0
 10
11.1171575839
 20
10.5733746748
 30
0.0
 10
11.1257915989
 20
10.5755357897
 30
0.0
 10
11.1337190029
 20
10.5778695649
 30
0.0
 10
11.1398329843
 20
10.5799918561
 30
0.0
 10
11.1443209999
 20
10.5817765418
 30
0.0
 10
11.1473982348
 20
10.5831161027
 30
0.0
 10
11.1502633737
 20
10.5844868167
 30
0.0
 10
11.1529117437
 20
10.5858866807
 30
0.0
 10
11.1553387768
 20
10.5873136892
 30
0.0
 10
11.1575406897
 20
10.588765044
 30
0.0
 10
11.1595136556
 20
10.590237928
 30
0.0
 10
11.1607163078
 20
10.5912688788
 30
0.0
 10
11.1612747833
 20
10.5917883392
 30
0.0
  0
SPLINE
  5
350
100
AcDbEntity
  8
0
100
AcDbSpline
 62
7
  6
CONTINUOUS
 70
0
 71
3
 72
11
 73
7
 74
0
 42
0.0000001
 43
0.0000001
 44
0.0000000001
 40
0.0
 40
0.0
 40
0.0
 40
0.0
 40
0.2257938108
 40
0.4695146249
 40
0.7284256372
 40
1.0
 40
1.0
 40
1.0
 40
1.0
 10
11.1474362226
 20
10.583300734
 30
0.0
 10
11.1483601051
 20
10.5850681294
 30
0.0
 10
11.1501693434
 20
10.5888020338
 30
0.0
 10
11.1527215059
 20
10.5947093386
 30
0.0
 10
11.155225592
 20
10.6010735093
 30
0.0
 10
11.1568291902
 20
10.6054764848
 30
0.0
 10
11.1576278571
 20
10.6077382719
 30
0.0
  0
SPLINE
  5
351
100
AcDbEntity
  8
0
100
AcDbSpline
 62
7
  6
CONTINUOUS
 70
0
 71
3
 72
52
 73
48
 74
0
 42
0.0000001
 43
0.0000001
 44
0.0000000001
 40
0.0
 40
0.0
 40
0.0
 40
0.0
 40
0.0077387223
 40
0.0160539521
 40
0.024962965
 40
0.0344768859
 40
0.0446016061
 40
0.0553386983
 40
0.0666866828
 40
0.0786412572
 40
0.091193383
 40
0.1043314041
 40
0.1180424256
 40
0.1323116939
 40
0.1471215533
 40
0.1624533379
 40
0.1946023933
 40
0.2285843148
 40
0.264207331
 40
0.3012625655
 40
0.3395308301
 40
0.378780781
 40
0.4187745662
 40
0.4592671292
 40
0.500010293
 40
0.540753239
 40
0.581245724
 40
0.6212388443
 40
0.6604885582
 40
0.6987556413
 40
0.7358105213
 40
0.7714319254
 40
0.8054132247
 40
0.8375605374
 40
0.8676997949
 40
0.881967701
 40
0.8956782168
 40
0.9088158324
 40
0.9213666357
 40
0.9333203307
 40
0.9446687486
 40
0.9554056403
 40
0.9655284678
 40
0.9750398662
 40
0.9839464413
 40
0.9922598492
 40
1.0
 40
1.0
 40
1.0
 40
1.0
 10
10.7022080589
 20
10.6248421651
 30
0.0
 10
10.703441677
 20
10.6259897623
 30
0.0
 10
10.7060979599
 20
10.6282672695
 30
0.0
 10
10.7104554819
 20
10.6315208652
 30
0.0
 10
10.7153184127
 20
10.6347264298
 30
0.0
 10
10.7206785791
 20
10.6378774743
 30
0.0
 10
10.7265271743
 20
10.6409689465
 30
0.0
 10
10.7328545295
 20
10.6439964575
 30
0.0
 10
10.7396509121
 20
10.6469552579
 30
0.0
 10
10.7469057924
 20
10.6498402862
 30
0.0
 10
10.7546072458
 20
10.6526472394
 30
0.0
 10
10.76274252
 20
10.6553715697
 30
0.0
 10
10.7712984588
 20
10.6580084878
 30
0.0
 10
10.780261146
 20
10.6605532967
 30
0.0
 10
10.7896156675
 20
10.6630022829
 30
0.0
 10
10.8027995938
 20
10.6661847825
 30
0.0
 10
10.8201513488
 20
10.6698749739
 30
0.0
 10
10.841958767
 20
10.6737954505
 30
0.0
 10
10.8649257953
 20
10.6772472057
 30
0.0
 10
10.8889013965
 20
10.68020864
 30
0.0
 10
10.9137280631
 20
10.6826584754
 30
0.0
 10
10.9392425379
 20
10.6845815897
 30
0.0
 10
10.9652768673
 20
10.6859640465
 30
0.0
 10
10.991659741
 20
10.6867974056
 30
0.0
 10
11.0182173908
 20
10.6870756034
 30
0.0
 10
11.0447750153
 20
10.6867969474
 30
0.0
 10
11.0711576797
 20
10.6859634685
 30
0.0
 10
11.0971917505
 20
10.6845802391
 30
0.0
 10
11.1227057894
 20
10.6826573099
 30
0.0
 10
11.1475319611
 20
10.6802064754
 30
0.0
 10
11.1715069406
 20
10.6772454234
 30
0.0
 10
11.1944731699
 20
10.6737925878
 30
0.0
 10
11.216280022
 20
10.6698726179
 30
0.0
 10
11.2367842502
 20
10.6655103412
 30
0.0
 10
11.2529572331
 20
10.6614618041
 30
0.0
 10
11.2651301047
 20
10.6580048117
 30
0.0
 10
11.2736855618
 20
10.6553679694
 30
0.0
 10
11.2818204075
 20
10.6526438943
 30
0.0
 10
11.2895211308
 20
10.6498365759
 30
0.0
 10
11.2967753936
 20
10.6469510483
 30
0.0
 10
11.3035716005
 20
10.6439922077
 30
0.0
 10
11.3098985302
 20
10.6409646258
 30
0.0
 10
11.3157458468
 20
10.637872882
 30
0.0
 10
11.3211046043
 20
10.6347224197
 30
0.0
 10
11.3259665868
 20
10.6315180991
 30
0.0
 10
11.3303233773
 20
10.6282645059
 30
0.0
 10
11.3329790096
 20
10.6259863717
 30
0.0
 10
11.3342126725
 20
10.6248383661
 30
0.0
  0
SPLINE
  5
352
100
AcDbEntity
  8
0
100
AcDbSpline
 62
7
  6
CONTINUOUS
 70
0
 71
3
 72
15
 73
11
 74
0
 42
0.0000001
 43
0.0000001
 44
0.0000000001
 40
0.0
 40
0.0
 40
0.0
 40
0.0
 40
0.1492632538
 40
0.2897091991
 40
0.4220366375
 40
0.5471358952
 40
0.666101153
 40
0.7802218941
 40
0.8909758692
 40
1.0
 40
1.0
 40
1.0
 40
1.0
 10
11.3496291155
 20
10.610491731
 30
0.0
 10
11.350639566
 20
10.6095513761
 30
0.0
 10
11.3525438778
 20
10.6076633705
 30
0.0
 10
11.3551079572
 20
10.6047159227
 30
0.0
 10
11.3572859436
 20
10.6017444735
 30
0.0
 10
11.3590743941
 20
10.5987517605
 30
0.0
 10
11.3604707343
 20
10.5957408589
 30
0.0
 10
11.3614718234
 20
10.5927148175
 30
0.0
 10
11.3620742847
 20
10.5896783484
 30
0.0
 10
11.3622085315
 20
10.5876434806
 30
0.0
 10
11.3622085082
 20
10.5866352756
 30
0.0
  0
SPLINE
  5
353
100
AcDbEntity
  8
0
100
AcDbSpline
 62
7
  6
CONTINUOUS
 70
0
 71
3
 72
15
 73
11
 74
0
 42
0.0000001
 43
0.0000001
 44
0.0000000001
 40
0.0
 40
0.0
 40
0.0
 40
0.0
 40
0.1098818339
 40
0.2213890443
 40
0.3360729859
 40
0.4553559627
 40
0.5804641769
 40
0.712410792
 40
0.8520301999
 40
1.0
 40
1.0
 40
1.0
 40
1.0
 10
10.6742084546
 20
10.5866352756
 30
0.0
 10
10.6742084771
 20
10.5876081637
 30
0.0
 10
10.6743334514
 20
10.5895705256
 30
0.0
 10
10.6748935289
 20
10.5925001582
 30
0.0
 10
10.6758250653
 20
10.5954209994
 30
0.0
 10
10.6771262211
 20
10.5983284326
 30
0.0
 10
10.6787935578
 20
10.6012193882
 30
0.0
 10
10.6808231909
 20
10.6040911503
 30
0.0
 10
10.6832116342
 20
10.6069407082
 30
0.0
 10
10.6849876698
 20
10.6087686687
 30
0.0
 10
10.6859299775
 20
10.6096788681
 30
0.0
  0
SPLINE
  5
354
100
AcDbEntity
  8
0
100
AcDbSpline
 62
7
  6
CONTINUOUS
 70
0
 71
3
 72
23
 73
19
 74
0
 42
0.0000001
 43
0.0000001
 44
0.0000000001
 40
0.0
 40
0.0
 40
0.0
 40
0.0
 40
0.0719240594
 40
0.1428116053
 40
0.2124921432
 40
0.2807800157
 40
0.3475231953
 40
0.3802799048
 40
0.4126066776
 40
0.4759503853
 40
0.5376180996
 40
0.597767042
 40
0.6566679339
 40
0.7146307127
 40
0.7719844443
 40
0.8290064616
 40
0.885932776
 40
1.0
 40
1.0
 40
1.0
 40
1.0
 10
11.0555657619
 20
10.6341538524
 30
0.0
 10
11.0575393196
 20
10.632295094
 30
0.0
 10
11.061515962
 20
10.6286650823
 30
0.0
 10
11.0676312685
 20
10.6234891466
 30
0.0
 10
11.0738610795
 20
10.6186710502
 30
0.0
 10
11.0802053501
 20
10.6142719455
 30
0.0
 10
11.0856185448
 20
10.6109913916
 30
0.0
 10
11.0900008563
 20
10.6086468154
 30
0.0
 10
11.0943537895
 20
10.6065265404
 30
0.0
 10
11.0998411549
 20
10.6042564883
 30
0.0
 10
11.1065130007
 20
10.6021732574
 30
0.0
 10
11.1131931171
 20
10.6007839371
 30
0.0
 10
11.1198390308
 20
10.6000779463
 30
0.0
 10
11.1264160509
 20
10.6000349098
 30
0.0
 10
11.1328963601
 20
10.6005980364
 30
0.0
 10
11.1392642788
 20
10.60171071
 30
0.0
 10
11.1475984811
 20
10.6038360859
 30
0.0
 10
11.1536696572
 20
10.6060592277
 30
0.0
 10
11.1576278571
 20
10.6077382719
 30
0.0
  0
SPLINE
  5
355
100
AcDbEntity
  8
0
100
AcDbSpline
 62
7
  6
CONTINUOUS
 70
0
 71
3
 72
20
 73
16
 74
0
 42
0.0000001
 43
0.0000001
 44
0.0000000001
 40
0.0
 40
0.0
 40
0.0
 40
0.0
 40
0.1216809826
 40
0.1827587803
 40
0.2440176172
 40
0.3055086226
 40
0.3672635946
 40
0.4293200961
 40
0.4916939656
 40
0.5543929365
 40
0.6174038291
 40
0.7441722973
 40
0.8079132546
 40
0.8718302902
 40
1.0
 40
1.0
 40
1.0
 40
1.0
 10
10.9161463862
 20
10.6244850688
 30
0.0
 10
10.9215827794
 20
10.6221438877
 30
0.0
 10
10.9298851027
 20
10.6189249626
 30
0.0
 10
10.9412374137
 20
10.615442825
 30
0.0
 10
10.9499216248
 20
10.6132888861
 30
0.0
 10
10.95875474
 20
10.6116648369
 30
0.0
 10
10.9677162593
 20
10.6106285703
 30
0.0
 10
10.9767729805
 20
10.6102404437
 30
0.0
 10
10.9858798186
 20
10.6105267898
 30
0.0
 10
10.994985195
 20
10.6115069976
 30
0.0
 10
11.0070773392
 20
10.6137067548
 30
0.0
 10
11.0189532475
 20
10.6171742501
 30
0.0
 10
11.0304988356
 20
10.6216415969
 30
0.0
 10
11.0418700831
 20
10.6267084282
 30
0.0
 10
11.0501476667
 20
10.6310690576
 30
0.0
 10
11.0555657619
 20
10.6341538524
 30
0.0
  0
SPLINE
  5
356
100
AcDbEntity
  8
0
100
AcDbSpline
 62
7
  6
CONTINUOUS
 70
0
 71
3
 72
16
 73
12
 74
0
 42
0.0000001
 43
0.0000001
 44
0.0000000001
 40
0.0
 40
0.0
 40
0.0
 40
0.0
 40
0.1551181726
 40
0.3039289234
 40
0.4453140715
 40
0.5780383877
 40
0.7008416296
 40
0.812546707
 40
0.9123298023
 40
0.9576662592
 40
1.0
 40
1.0
 40
1.0
 40
1.0
 10
10.9161463862
 20
10.6244850688
 30
0.0
 10
10.9154321758
 20
10.6224624583
 30
0.0
 10
10.9139978704
 20
10.6185116438
 30
0.0
 10
10.9117677053
 20
10.6127711324
 30
0.0
 10
10.9094986601
 20
10.6073799834
 30
0.0
 10
10.907190539
 20
10.6023987458
 30
0.0
 10
10.9048461661
 20
10.5978913958
 30
0.0
 10
10.9024691463
 20
10.5939230118
 30
0.0
 10
10.9004045536
 20
10.5910259199
 30
0.0
 10
10.8987291366
 20
10.5890463124
 30
0.0
 10
10.8978887973
 20
10.5881709343
 30
0.0
 10
10.897467746
 20
10.5877642299
 30
0.0
  0
SPLINE
  5
357
100
AcDbEntity
  8
0
100
AcDbSpline
 62
7
  6
CONTINUOUS
 70
0
 71
3
 72
15
 73
11
 74
0
 42
0.0000001
 43
0.0000001
 44
0.0000000001
 40
0.0
 40
0.0
 40
0.0
 40
0.0
 40
0.1512144383
 40
0.2924950649
 40
0.4247804906
 40
0.5492351465
 40
0.6673534989
 40
0.7807552135
 40
0.8910929821
 40
1.0
 40
1.0
 40
1.0
 40
1.0
 10
10.897467746
 20
10.5877642299
 30
0.0
 10
10.8970850373
 20
10.5873945617
 30
0.0
 10
10.8963197609
 20
10.5867046149
 30
0.0
 10
10.895131198
 20
10.5857953651
 30
0.0
 10
10.8939440997
 20
10.5850480139
 30
0.0
 10
10.8927593459
 20
10.5844623955
 30
0.0
 10
10.8915790057
 20
10.5840349376
 30
0.0
 10
10.8904045899
 20
10.5837611904
 30
0.0
 10
10.8892378885
 20
10.5836366506
 30
0.0
 10
10.888464355
 20
10.5836485395
 30
0.0
 10
10.8880821765
 20
10.5836767752
 30
0.0
  0
SPLINE
  5
358
100
AcDbEntity
  8
0
100
AcDbSpline
 62
7
  6
CONTINUOUS
 70
0
 71
3
 72
54
 73
50
 74
0
 42
0.0000001
 43
0.0000001
 44
0.0000000001
 40
0.0
 40
0.0
 40
0.0
 40
0.0
 40
0.0078439085
 40
0.0150417694
 40
0.0216901491
 40
0.0279174114
 40
0.0338877893
 40
0.0397917412
 40
0.0458258134
 40
0.0521737182
 40
0.0589898551
 40
0.0663949559
 40
0.0744798335
 40
0.0833086858
 40
0.0929226568
 40
0.1033479798
 40
0.1145998044
 40
0.1266810266
 40
0.1395863631
 40
0.1533060296
 40
0.1678248694
 40
0.1831207474
 40
0.2159400176
 40
0.2515324755
 40
0.2896167215
 40
0.3298767915
 40
0.3719684783
 40
0.4155229506
 40
0.4601556579
 40
0.5054672561
 40
0.5510520906
 40
0.5965001291
 40
0.6414039436
 40
0.6853612513
 40
0.727982695
 40
0.7688924464
 40
0.80773916
 40
0.8441945664
 40
0.8779676196
 40
0.8937680542
 40
0.9088075779
 40
0.9230617934
 40
0.936510441
 40
0.9491413812
 40
0.960947106
 40
0.9719251961
 40
0.9820812601
 40
0.9914305534
 40
1.0
 40
1.0
 40
1.0
 40
1.0
 10
11.1616484751
 20
10.5921424924
 30
0.0
 10
11.1622496098
 20
10.5927231439
 30
0.0
 10
11.1633514963
 20
10.5938918358
 30
0.0
 10
11.1647345251
 20
10.5957508687
 30
0.0
 10
11.1657670955
 20
10.5976330541
 30
0.0
 10
11.166441161
 20
10.5995350808
 30
0.0
 10
11.1667489143
 20
10.6014505936
 30
0.0
 10
11.1666871363
 20
10.6033694622
 30
0.0
 10
11.1662568181
 20
10.6052809317
 30
0.0
 10
11.1654628815
 20
10.6071761708
 30
0.0
 10
11.1643132342
 20
10.6090506664
 30
0.0
 10
11.1628139327
 20
10.6109021099
 30
0.0
 10
11.1609692001
 20
10.6127279588
 30
0.0
 10
11.158783522
 20
10.6145254307
 30
0.0
 10
11.1562623694
 20
10.616292006
 30
0.0
 10
11.1534111527
 20
10.6180241085
 30
0.0
 10
11.1502359107
 20
10.6197175284
 30
0.0
 10
11.1467441462
 20
10.6213687822
 30
0.0
 10
11.1429441107
 20
10.6229741968
 30
0.0
 10
11.1388444889
 20
10.6245296833
 30
0.0
 10
11.1344548443
 20
10.6260313275
 30
0.0
 10
11.1280784961
 20
10.6280039381
 30
0.0
 10
11.1194533106
 20
10.6302905191
 30
0.0
 10
11.1083635302
 20
10.6327080627
 30
0.0
 10
11.09640866
 20
10.6348358012
 30
0.0
 10
11.0837031859
 20
10.6366530061
 30
0.0
 10
11.0703685899
 20
10.6381411156
 30
0.0
 10
11.0565328165
 20
10.6392863305
 30
0.0
 10
11.0423287184
 20
10.6400763702
 30
0.0
 10
11.0278927503
 20
10.6405044623
 30
0.0
 10
11.0133637144
 20
10.6405655797
 30
0.0
 10
10.9988812212
 20
10.6402596606
 30
0.0
 10
10.9845845463
 20
10.6395895325
 30
0.0
 10
10.9706110129
 20
10.6385615679
 30
0.0
 10
10.9570948838
 20
10.6371864694
 30
0.0
 10
10.9441658495
 20
10.6354768518
 30
0.0
 10
10.9319476938
 20
10.633450771
 30
0.0
 10
10.920557476
 20
10.6311269626
 30
0.0
 10
10.9116577954
 20
10.6289163273
 30
0.0
 10
10.9050443172
 20
10.6270008112
 30
0.0
 10
10.90046724
 20
10.62553683
 30
0.0
 10
10.8961732411
 20
10.6240170189
 30
0.0
 10
10.892172616
 20
10.6224446077
 30
0.0
 10
10.8884744464
 20
10.6208235934
 30
0.0
 10
10.8850870389
 20
10.6191577315
 30
0.0
 10
10.8820185772
 20
10.6174503797
 30
0.0
 10
10.8792762548
 20
10.6157056684
 30
0.0
 10
10.8768667064
 20
10.613928721
 30
0.0
 10
10.8754252255
 20
10.6126720471
 30
0.0
 10
10.8747684877
 20
10.6120376871
 30
0.0
  0
SPLINE
  5
359
100
AcDbEntity
  8
0
100
AcDbSpline
 62
7
  6
CONTINUOUS
 70
0
 71
3
 72
21
 73
17
 74
0
 42
0.0000001
 43
0.0000001
 44
0.0000000001
 40
0.0
 40
0.0
 40
0.0
 40
0.0
 40
0.1429603741
 40
0.2085141546
 40
0.2706367519
 40
0.3298565278
 40
0.3868029358
 40
0.4422139972
 40
0.4968996533
 40
0.5517008014
 40
0.6074520327
 40
0.6649453631
 40
0.7248938616
 40
0.7879105525
 40
0.8545117361
 40
1.0
 40
1.0
 40
1.0
 40
1.0
 10
10.8747684877
 20
10.6120376871
 30
0.0
 10
10.8739652388
 20
10.6112618082
 30
0.0
 10
10.8728603967
 20
10.61005352
 30
0.0
 10
10.8716454872
 20
10.6083204139
 30
0.0
 10
10.8709224986
 20
10.6070491454
 30
0.0
 10
10.8703631465
 20
10.6057706068
 30
0.0
 10
10.8699693893
 20
10.6044860899
 30
0.0
 10
10.8697423362
 20
10.6031975855
 30
0.0
 10
10.8696824307
 20
10.6019072394
 30
0.0
 10
10.8697897873
 20
10.6006173324
 30
0.0
 10
10.8700640146
 20
10.5993301005
 30
0.0
 10
10.8705044607
 20
10.5980475943
 30
0.0
 10
10.8711097619
 20
10.5967715009
 30
0.0
 10
10.8718783092
 20
10.5955029202
 30
0.0
 10
10.8731564523
 20
10.5937724361
 30
0.0
 10
10.8743051031
 20
10.5925673872
 30
0.0
 10
10.875137053
 20
10.591793079
 30
0.0
  0
SPLINE
  5
35A
100
AcDbEntity
  8
0
100
AcDbSpline
 62
7
  6
CONTINUOUS
 70
0
 71
3
 72
23
 73
19
 74
0
 42
0.0000001
 43
0.0000001
 44
0.0000000001
 40
0.0
 40
0.0
 40
0.0
 40
0.0
 40
0.0749650755
 40
0.1455758403
 40
0.2121687193
 40
0.2751706844
 40
0.3351061761
 40
0.3925926274
 40
0.4483378715
 40
0.5031275476
 40
0.5577974487
 40
0.613188277
 40
0.6701067998
 40
0.7292949901
 40
0.7913951851
 40
0.856936773
 40
0.9263544307
 40
1.0
 40
1.0
 40
1.0
 40
1.0
 10
11.3342126725
 20
10.6248383661
 30
0.0
 10
11.3351599033
 20
10.6239569047
 30
0.0
 10
11.3369468637
 20
10.6221872487
 30
0.0
 10
11.3393582335
 20
10.6194265261
 30
0.0
 10
11.3414142645
 20
10.6166437373
 30
0.0
 10
11.343111808
 20
10.6138413594
 30
0.0
 10
11.3444485952
 20
10.6110221466
 30
0.0
 10
11.3454218541
 20
10.6081889966
 30
0.0
 10
11.3460286328
 20
10.6053454592
 30
0.0
 10
11.346266084
 20
10.602495969
 30
0.0
 10
11.3461337701
 20
10.5996457567
 30
0.0
 10
11.3456323911
 20
10.5967998815
 30
0.0
 10
11.3447635415
 20
10.5939628568
 30
0.0
 10
11.3435291021
 20
10.591138757
 30
0.0
 10
11.341932418
 20
10.5883309439
 30
0.0
 10
11.339977492
 20
10.5855420597
 30
0.0
 10
11.3376678596
 20
10.5827751193
 30
0.0
 10
11.3359464457
 20
10.5810014135
 30
0.0
 10
11.3350321712
 20
10.5801182922
 30
0.0
  0
SPLINE
  5
35B
100
AcDbEntity
  8
0
100
AcDbSpline
 62
7
  6
CONTINUOUS
 70
0
 71
3
 72
63
 73
59
 74
0
 42
0.0000001
 43
0.0000001
 44
0.0000000001
 40
0.0
 40
0.0
 40
0.0
 40
0.0
 40
0.008571002
 40
0.0179203037
 40
0.0280753657
 40
0.0390518509
 40
0.0508556907
 40
0.063485848
 40
0.0769355137
 40
0.0911894353
 40
0.1062278646
 40
0.1220282917
 40
0.1385630343
 40
0.1558016512
 40
0.173712137
 40
0.1922584298
 40
0.231103165
 40
0.2720118649
 40
0.3146315966
 40
0.3585875008
 40
0.4034896149
 40
0.4489361941
 40
0.4945192807
 40
0.5398295298
 40
0.5844603158
 40
0.6280136454
 40
0.6701036404
 40
0.7103622766
 40
0.7296971775
 40
0.7484470144
 40
0.7665730973
 40
0.7840398815
 40
0.8008128899
 40
0.8168606864
 40
0.8321561393
 40
0.8466740298
 40
0.8603932387
 40
0.873298736
 40
0.8853792569
 40
0.8966299801
 40
0.9070557169
 40
0.9166695976
 40
0.9254972075
 40
0.9335821302
 40
0.9409875524
 40
0.9478029947
 40
0.9541507289
 40
0.9571992795
 40
0.960191379
 40
0.9631506421
 40
0.9661016595
 40
0.9690692003
 40
0.9720775799
 40
0.9751501025
 40
0.9783086148
 40
0.9849558097
 40
0.9921541706
 40
1.0
 40
1.0
 40
1.0
 40
1.0
 10
11.3350321712
 20
10.5801182922
 30
0.0
 10
11.3335812839
 20
10.5787168426
 30
0.0
 10
11.3303971669
 20
10.5759406556
 30
0.0
 10
11.3250749344
 20
10.5720153588
 30
0.0
 10
11.3190179665
 20
10.5681621233
 30
0.0
 10
11.3122408096
 20
10.564392049
 30
0.0
 10
11.3047596279
 20
10.5607126423
 30
0.0
 10
11.2965913871
 20
10.5571321238
 30
0.0
 10
11.2877545221
 20
10.5536593701
 30
0.0
 10
11.2782700458
 20
10.5503019248
 30
0.0
 10
11.2681605149
 20
10.547067916
 30
0.0
 10
11.2574498304
 20
10.5439660374
 30
0.0
 10
11.2461638012
 20
10.5410032005
 30
0.0
 10
11.2343294727
 20
10.5381864334
 30
0.0
 10
11.2219749962
 20
10.5355231771
 30
0.0
 10
11.2045789682
 20
10.5321325023
 30
0.0
 10
11.1817503874
 20
10.5283466044
 30
0.0
 10
11.153193532
 20
10.5245709558
 30
0.0
 10
11.1233396208
 20
10.5215334076
 30
0.0
 10
11.0924755499
 20
10.5192630754
 30
0.0
 10
11.0608976651
 20
10.5177827501
 30
0.0
 10
11.0289094082
 20
10.5171071335
 30
0.0
 10
10.9968182774
 20
10.5172422957
 30
0.0
 10
10.9649327928
 20
10.5181873526
 30
0.0
 10
10.9335594129
 20
10.5199331097
 30
0.0
 10
10.9029995002
 20
10.5224618376
 30
0.0
 10
10.873546859
 20
10.5257492759
 30
0.0
 10
10.8498517196
 20
10.5291378564
 30
0.0
 10
10.8316721767
 20
10.5322212711
 30
0.0
 10
10.8186706685
 20
10.534670415
 30
0.0
 10
10.8061494621
 20
10.5372815109
 30
0.0
 10
10.7941384517
 20
10.5400476345
 30
0.0
 10
10.7826665492
 20
10.5429624287
 30
0.0
 10
10.7717613179
 20
10.5460191476
 30
0.0
 10
10.7614486131
 20
10.549209665
 30
0.0
 10
10.7517531218
 20
10.5525265904
 30
0.0
 10
10.7426980449
 20
10.5559623735
 30
0.0
 10
10.734304444
 20
10.5595079499
 30
0.0
 10
10.7265920783
 20
10.5631551888
 30
0.0
 10
10.7195791535
 20
10.5668961827
 30
0.0
 10
10.7132811595
 20
10.5707214898
 30
0.0
 10
10.7077122474
 20
10.5746230876
 30
0.0
 10
10.7028853698
 20
10.5785940725
 30
0.0
 10
10.6988105511
 20
10.5826264836
 30
0.0
 10
10.6954978439
 20
10.5867153955
 30
0.0
 10
10.6929594725
 20
10.5908556636
 30
0.0
 10
10.6914793333
 20
10.5943930682
 30
0.0
 10
10.6907177251
 20
10.5972110582
 30
0.0
 10
10.690352396
 20
10.5993006174
 30
0.0
 10
10.6901864043
 20
10.6013923549
 30
0.0
 10
10.6902196385
 20
10.6034846649
 30
0.0
 10
10.6904519828
 20
10.6055758757
 30
0.0
 10
10.6908831056
 20
10.6076643732
 30
0.0
 10
10.6915126352
 20
10.6097487512
 30
0.0
 10
10.6926346142
 20
10.6125677705
 30
0.0
 10
10.6945669915
 20
10.6160915327
 30
0.0
 10
10.6976222154
 20
10.6201971171
 30
0.0
 10
10.7000566605
 20
10.622779011
 30
0.0
 10
10.7013847916
 20
10.6240618872
 30
0.0
  0
SPLINE
  5
35C
100
AcDbEntity
  8
0
100
AcDbSpline
 62
7
  6
CONTINUOUS
 70
0
 71
3
 72
59
 73
55
 74
0
 42
0.0000001
 43
0.0000001
 44
0.0000000001
 40
0.0
 40
0.0
 40
0.0
 40
0.0
 40
0.0081190485
 40
0.0169139379
 40
0.0264079425
 40
0.0366153449
 40
0.0475429449
 40
0.0591917082
 40
0.0715584865
 40
0.0846348615
 40
0.0984066964
 40
0.112857639
 40
0.1279690737
 40
0.1437183287
 40
0.160081036
 40
0.1770317796
 40
0.1945421284
 40
0.2125816802
 40
0.2501218981
 40
0.2893857948
 40
0.3300881344
 40
0.3719271912
 40
0.414591044
 40
0.4577588631
 40
0.5011052014
 40
0.5443027388
 40
0.5870256722
 40
0.6289529323
 40
0.6697708531
 40
0.7091779804
 40
0.7468858727
 40
0.7826259555
 40
0.7996803121
 40
0.8161524676
 40
0.8320150821
 40
0.8472435356
 40
0.8618162899
 40
0.8757131138
 40
0.8889164169
 40
0.9014134826
 40
0.913194411
 40
0.9242527644
 40
0.9345890698
 40
0.944210126
 40
0.9531294056
 40
0.9613713118
 40
0.9689737183
 40
0.9759892806
 40
0.9824904411
 40
0.9885738369
 40
0.9914979005
 40
0.9943645582
 40
0.9971921535
 40
1.0
 40
1.0
 40
1.0
 40
1.0
 10
11.3504869853
 20
10.5635916831
 30
0.0
 10
11.3490972432
 20
10.5622492952
 30
0.0
 10
11.3460706585
 20
10.5595871371
 30
0.0
 10
11.3410464977
 20
10.5558038256
 30
0.0
 10
11.3353721058
 20
10.5520823563
 30
0.0
 10
11.3290590792
 20
10.5484319096
 30
0.0
 10
11.3221201141
 20
10.5448592454
 30
0.0
 10
11.3145689095
 20
10.5413706742
 30
0.0
 10
11.3064196203
 20
10.537973251
 30
0.0
 10
11.2976881594
 20
10.5346737423
 30
0.0
 10
11.288392199
 20
10.5314782515
 30
0.0
 10
11.2785502918
 20
10.5283935666
 30
0.0
 10
11.2681820236
 20
10.5254265619
 30
0.0
 10
11.2573084914
 20
10.5225826649
 30
0.0
 10
11.2459516107
 20
10.5198675997
 30
0.0
 10
11.2341340646
 20
10.5172874156
 30
0.0
 10
11.2218797411
 20
10.5148470454
 30
0.0
 10
11.2047636657
 20
10.5117447693
 30
0.0
 10
11.1824574133
 20
10.5082702225
 30
0.0
 10
11.1547078579
 20
10.5047804729
 30
0.0
 10
11.1258556034
 20
10.5019474169
 30
0.0
 10
11.0961337447
 20
10.4997932559
 30
0.0
 10
11.0657822777
 20
10.4983363288
 30
0.0
 10
11.0350463562
 20
10.497588706
 30
0.0
 10
11.0041743826
 20
10.4975558804
 30
0.0
 10
10.9734158246
 20
10.4982390973
 30
0.0
 10
10.9430192007
 20
10.4996318503
 30
0.0
 10
10.9132301309
 20
10.5017230892
 30
0.0
 10
10.8842891495
 20
10.504495822
 30
0.0
 10
10.8564297631
 20
10.5079263264
 30
0.0
 10
10.8298769351
 20
10.5119875743
 30
0.0
 10
10.8086975094
 20
10.5159273088
 30
0.0
 10
10.7925798349
 20
10.5193886469
 30
0.0
 10
10.7811373362
 20
10.5220793334
 30
0.0
 10
10.7701742961
 20
10.52490019
 30
0.0
 10
10.7597128035
 20
10.5278456221
 30
0.0
 10
10.7497736733
 20
10.5309091011
 30
0.0
 10
10.7403769543
 20
10.5340845721
 30
0.0
 10
10.7315416792
 20
10.5373661294
 30
0.0
 10
10.723285163
 20
10.5407465185
 30
0.0
 10
10.7156236862
 20
10.5442188378
 30
0.0
 10
10.7085727442
 20
10.5477769388
 30
0.0
 10
10.7021458482
 20
10.5514134517
 30
0.0
 10
10.6963549714
 20
10.555121056
 30
0.0
 10
10.6912115353
 20
10.5588936561
 30
0.0
 10
10.6867254169
 20
10.5627250917
 30
0.0
 10
10.6829045381
 20
10.5666088684
 30
0.0
 10
10.6797571208
 20
10.5705406715
 30
0.0
 10
10.6772927884
 20
10.574515717
 30
0.0
 10
10.6757956567
 20
10.5779056614
 30
0.0
 10
10.6749681668
 20
10.580610441
 30
0.0
 10
10.6745299294
 20
10.582616624
 30
0.0
 10
10.6742669174
 20
10.5846251857
 30
0.0
 10
10.6742084392
 20
10.5859670551
 30
0.0
 10
10.6742084546
 20
10.5866352756
 30
0.0
  0
SPLINE
  5
35D
100
AcDbEntity
  8
0
100
AcDbSpline
 62
7
  6
CONTINUOUS
 70
0
 71
3
 72
15
 73
11
 74
0
 42
0.0000001
 43
0.0000001
 44
0.0000000001
 40
0.0
 40
0.0
 40
0.0
 40
0.0
 40
0.1098818339
 40
0.2213890443
 40
0.3360729859
 40
0.4553559627
 40
0.5804641769
 40
0.712410792
 40
0.8520301999
 40
1.0
 40
1.0
 40
1.0
 40
1.0
 10
11.3622085082
 20
10.5866352756
 30
0.0
 10
11.3622084858
 20
10.5856623875
 30
0.0
 10
11.3620835115
 20
10.5837000255
 30
0.0
 10
11.361523434
 20
10.580770393
 30
0.0
 10
11.3605918975
 20
10.5778495518
 30
0.0
 10
11.3592907417
 20
10.5749421185
 30
0.0
 10
11.357623405
 20
10.5720511629
 30
0.0
 10
11.355593772
 20
10.5691794009
 30
0.0
 10
11.3532053287
 20
10.5663298429
 30
0.0
 10
11.351429293
 20
10.5645018824
 30
0.0
 10
11.3504869853
 20
10.5635916831
 30
0.0
  0
SPLINE
  5
35E
100
AcDbEntity
  8
0
100
AcDbSpline
 62
7
  6
CONTINUOUS
 70
0
 71
3
 72
28
 73
24
 74
0
 42
0.0000001
 43
0.0000001
 44
0.0000000001
 40
0.0
 40
0.0
 40
0.0
 40
0.0
 40
0.0712707117
 40
0.1436257982
 40
0.2165555552
 40
0.2895594655
 40
0.3621279971
 40
0.4337587842
 40
0.5039567415
 40
0.5722398169
 40
0.6381435505
 40
0.7012258312
 40
0.7610719173
 40
0.7896617692
 40
0.8173024186
 40
0.8439524006
 40
0.8695734981
 40
0.8941300332
 40
0.9175910232
 40
0.9399284349
 40
0.9611198263
 40
0.9811475129
 40
1.0
 40
1.0
 40
1.0
 40
1.0
 10
6.6086770132
 20
8.8704674012
 30
0.0
 10
6.6086770132
 20
8.8878278989
 30
0.0
 10
6.6090838458
 20
8.9228142014
 30
0.0
 10
6.6108655973
 20
8.9755378266
 30
0.0
 10
6.6138124967
 20
9.0286322129
 30
0.0
 10
6.6179022219
 20
9.0817028677
 30
0.0
 10
6.6231048766
 20
9.1343581545
 30
0.0
 10
6.6293815582
 20
9.1862079788
 30
0.0
 10
6.6366855804
 20
9.2368689171
 30
0.0
 10
6.6449623812
 20
9.2859662462
 30
0.0
 10
6.6541499696
 20
9.3331373074
 30
0.0
 10
6.6641796218
 20
9.3780333876
 30
0.0
 10
6.6733100433
 20
9.4138010703
 30
0.0
 10
6.6810079058
 20
9.4410088984
 30
0.0
 10
6.6868557673
 20
9.4603331258
 30
0.0
 10
6.6928553187
 20
9.4788521733
 30
0.0
 10
6.6989951451
 20
9.49653196
 30
0.0
 10
6.7052643376
 20
9.5133398069
 30
0.0
 10
6.7116506261
 20
9.5292449328
 30
0.0
 10
6.7181427173
 20
9.5442180167
 30
0.0
 10
6.7247282556
 20
9.5582318707
 30
0.0
 10
6.7313950256
 20
9.5712606588
 30
0.0
 10
6.736026422
 20
9.5795251419
 30
0.0
 10
6.7383593626
 20
9.5834805919
 30
0.0
  0
SPLINE
  5
35F
100
AcDbEntity
  8
0
100
AcDbSpline
 62
7
  6
CONTINUOUS
 70
0
 71
3
 72
9
 73
5
 74
0
 42
0.0000001
 43
0.0000001
 44
0.0000000001
 40
0.0
 40
0.0
 40
0.0
 40
0.0
 40
0.4850642138
 40
1.0
 40
1.0
 40
1.0
 40
1.0
 10
6.7321440831
 20
8.3346294136
 30
0.0
 10
6.7303712538
 20
8.3364603869
 30
0.0
 10
6.7268594341
 20
8.3403751658
 30
0.0
 10
6.7236127322
 20
8.3445107343
 30
0.0
 10
6.722002784
 20
8.3466851523
 30
0.0
  0
SPLINE
  5
360
100
AcDbEntity
  8
0
100
AcDbSpline
 62
7
  6
CONTINUOUS
 70
0
 71
3
 72
9
 73
5
 74
0
 42
0.0000001
 43
0.0000001
 44
0.0000000001
 40
0.0
 40
0.0
 40
0.0
 40
0.0
 40
0.5044673503
 40
1.0
 40
1.0
 40
1.0
 40
1.0
 10
6.722002784
 20
8.3466851523
 30
0.0
 10
6.7135057523
 20
8.3624757961
 30
0.0
 10
6.6972927797
 20
8.39412264
 30
0.0
 10
6.6826542523
 20
8.4265364725
 30
0.0
 10
6.6758826078
 20
8.4427968489
 30
0.0
  0
SPLINE
  5
361
100
AcDbEntity
  8
0
100
AcDbSpline
 62
7
  6
CONTINUOUS
 70
0
 71
3
 72
17
 73
13
 74
0
 42
0.0000001
 43
0.0000001
 44
0.0000000001
 40
0.0
 40
0.0
 40
0.0
 40
0.0
 40
0.1282140168
 40
0.2581318983
 40
0.3884338592
 40
0.5177897599
 40
0.6448846442
 40
0.7684319358
 40
0.8284877358
 40
0.8871970135
 40
0.9444145849
 40
1.0
 40
1.0
 40
1.0
 40
1.0
 10
7.3056370469
 20
8.8202338136
 30
0.0
 10
7.3058427204
 20
8.8444768918
 30
0.0
 10
7.3069333143
 20
8.8932817962
 30
0.0
 10
7.3105130964
 20
8.966651269
 30
0.0
 10
7.3160145875
 20
9.0401187314
 30
0.0
 10
7.3233780858
 20
9.1128866122
 30
0.0
 10
7.3325230763
 20
9.1841646914
 30
0.0
 10
7.3416283079
 20
9.2422138289
 30
0.0
 10
7.3497542283
 20
9.2873078524
 30
0.0
 10
7.3561690935
 20
9.3199617248
 30
0.0
 10
7.3629434116
 20
9.3516789867
 30
0.0
 10
7.3677607871
 20
9.3724591472
 30
0.0
 10
7.3702304028
 20
9.3826755231
 30
0.0
  0
SPLINE
  5
362
100
AcDbEntity
  8
0
100
AcDbSpline
 62
7
  6
CONTINUOUS
 70
0
 71
3
 72
22
 73
18
 74
0
 42
0.0000001
 43
0.0000001
 44
0.0000000001
 40
0.0
 40
0.0
 40
0.0
 40
0.0
 40
0.0444944164
 40
0.0909393538
 40
0.1395587317
 40
0.1905379553
 40
0.2440243171
 40
0.3001166053
 40
0.3588736008
 40
0.4203072628
 40
0.4843959004
 40
0.5510815257
 40
0.6202826151
 40
0.6918950815
 40
0.7658017149
 40
0.8418771334
 40
1.0
 40
1.0
 40
1.0
 40
1.0
 10
6.7468904688
 20
9.5979449865
 30
0.0
 10
6.7483704961
 20
9.600456743
 30
0.0
 10
6.7515871844
 20
9.605479508
 30
0.0
 10
6.7570414998
 20
9.6128269028
 30
0.0
 10
6.7632336117
 20
9.620130694
 30
0.0
 10
6.7701677379
 20
9.6273858064
 30
0.0
 10
6.7778438687
 20
9.6345864516
 30
0.0
 10
6.7862534902
 20
9.6417294201
 30
0.0
 10
6.7953836389
 20
9.6488098158
 30
0.0
 10
6.8052139118
 20
9.6558258784
 30
0.0
 10
6.8157203616
 20
9.6627742548
 30
0.0
 10
6.8268737059
 20
9.6696544946
 30
0.0
 10
6.8386425215
 20
9.6764650903
 30
0.0
 10
6.8509925136
 20
9.6832066754
 30
0.0
 10
6.8638888531
 20
9.689879623
 30
0.0
 10
6.881998837
 20
9.6988021253
 30
0.0
 10
6.8959422405
 20
9.7052178024
 30
0.0
 10
6.9054119016
 20
9.7094209887
 30
0.0
  0
SPLINE
  5
363
100
AcDbEntity
  8
0
100
AcDbSpline
 62
7
  6
CONTINUOUS
 70
0
 71
3
 72
23
 73
19
 74
0
 42
0.0000001
 43
0.0000001
 44
0.0000000001
 40
0.0
 40
0.0
 40
0.0
 40
0.0
 40
0.0422054472
 40
0.0875785823
 40
0.1360754938
 40
0.1876289237
 40
0.24215275
 40
0.2995436082
 40
0.3596845865
 40
0.4224449499
 40
0.487683794
 40
0.5552494873
 40
0.6249825983
 40
0.6967120159
 40
0.7702611798
 40
0.8454545562
 40
0.9221084144
 40
1.0
 40
1.0
 40
1.0
 40
1.0
 10
6.6616249502
 20
8.4770520615
 30
0.0
 10
6.6594678047
 20
8.4822349455
 30
0.0
 10
6.6552814565
 20
8.4931116717
 30
0.0
 10
6.6495388294
 20
8.5102813477
 30
0.0
 10
6.6441202299
 20
8.5288546815
 30
0.0
 10
6.6390405381
 20
8.5487813083
 30
0.0
 10
6.634313957
 20
8.5700078403
 30
0.0
 10
6.6299533004
 20
8.5924768281
 30
0.0
 10
6.6259710127
 20
8.6161273587
 30
0.0
 10
6.6223777555
 20
8.6408951361
 30
0.0
 10
6.6191839116
 20
8.6667127738
 30
0.0
 10
6.6163979111
 20
8.6935100688
 30
0.0
 10
6.6140280138
 20
8.7212138056
 30
0.0
 10
6.6120802375
 20
8.7497480843
 30
0.0
 10
6.6105604279
 20
8.7790355441
 30
0.0
 10
6.6094724784
 20
8.808997618
 30
0.0
 10
6.6088200201
 20
8.8395499429
 30
0.0
 10
6.6086770132
 20
8.860106809
 30
0.0
 10
6.6086770132
 20
8.8704674012
 30
0.0
  0
SPLINE
  5
364
100
AcDbEntity
  8
0
100
AcDbSpline
 62
7
  6
CONTINUOUS
 70
0
 71
3
 72
23
 73
19
 74
0
 42
0.0000001
 43
0.0000001
 44
0.0000000001
 40
0.0
 40
0.0
 40
0.0
 40
0.0
 40
0.0425665436
 40
0.088212325
 40
0.1368972257
 40
0.1885596666
 40
0.2431219684
 40
0.3004897739
 40
0.3605567343
 40
0.4232032468
 40
0.4883007421
 40
0.555710338
 40
0.6252860469
 40
0.696870733
 40
0.7703025572
 40
0.8454203909
 40
0.9220548461
 40
1.0
 40
1.0
 40
1.0
 40
1.0
 10
7.3660926173
 20
8.3484012883
 30
0.0
 10
7.3637233634
 20
8.3540938495
 30
0.0
 10
7.3591190155
 20
8.3660193228
 30
0.0
 10
7.3527803716
 20
8.3848142369
 30
0.0
 10
7.3467836441
 20
8.4050985999
 30
0.0
 10
7.3411438021
 20
8.4268213246
 30
0.0
 10
7.3358756157
 20
8.4499285521
 30
0.0
 10
7.330992056
 20
8.4743624341
 30
0.0
 10
7.3265061948
 20
8.5000616866
 30
0.0
 10
7.3224289855
 20
8.5269616684
 30
0.0
 10
7.3187714227
 20
8.5549946682
 30
0.0
 10
7.3155423501
 20
8.5840901683
 30
0.0
 10
7.3127506603
 20
8.614174597
 30
0.0
 10
7.3104028865
 20
8.6451717085
 30
0.0
 10
7.3085055373
 20
8.6770038009
 30
0.0
 10
7.3070631071
 20
8.7095918919
 30
0.0
 10
7.306079942
 20
8.7428509989
 30
0.0
 10
7.305734427
 20
8.7652406208
 30
0.0
 10
7.3056370469
 20
8.7765308495
 30
0.0
  0
SPLINE
  5
365
100
AcDbEntity
  8
0
100
AcDbSpline
 62
7
  6
CONTINUOUS
 70
0
 71
3
 72
11
 73
7
 74
0
 42
0.0000001
 43
0.0000001
 44
0.0000000001
 40
0.0
 40
0.0
 40
0.0
 40
0.0
 40
0.2449615194
 40
0.4915752079
 40
0.7422856151
 40
1.0
 40
1.0
 40
1.0
 40
1.0
 10
6.7321440831
 20
9.542057118
 30
0.0
 10
6.7320871817
 20
9.5454735542
 30
0.0
 10
6.7322716797
 20
9.5523389823
 30
0.0
 10
6.7335351139
 20
9.5626321013
 30
0.0
 10
6.7358756309
 20
9.5729192708
 30
0.0
 10
6.738172955
 20
9.5796452439
 30
0.0
 10
6.7395094274
 20
9.5829823692
 30
0.0
  0
SPLINE
  5
366
100
AcDbEntity
  8
0
100
AcDbSpline
 62
7
  6
CONTINUOUS
 70
0
 71
3
 72
9
 73
5
 74
0
 42
0.0000001
 43
0.0000001
 44
0.0000000001
 40
0.0
 40
0.0
 40
0.0
 40
0.0
 40
0.4914164864
 40
1.0
 40
1.0
 40
1.0
 40
1.0
 10
6.7395094274
 20
9.5829823692
 30
0.0
 10
6.7405262145
 20
9.5855212513
 30
0.0
 10
6.7427997129
 20
9.5906079091
 30
0.0
 10
6.7454535492
 20
9.5955063881
 30
0.0
 10
6.7468904688
 20
9.5979449865
 30
0.0
  0
SPLINE
  5
367
100
AcDbEntity
  8
0
100
AcDbSpline
 62
7
  6
CONTINUOUS
 70
0
 71
3
 72
21
 73
17
 74
0
 42
0.0000001
 43
0.0000001
 44
0.0000000001
 40
0.0
 40
0.0
 40
0.0
 40
0.0
 40
0.1231153359
 40
0.184837322
 40
0.2466817013
 40
0.3086598058
 40
0.3707815459
 40
0.4330548007
 40
0.4954844141
 40
0.558071395
 40
0.6208128987
 40
0.6837027994
 40
0.7467321283
 40
0.809889664
 40
0.8731630859
 40
1.0
 40
1.0
 40
1.0
 40
1.0
 10
6.6353688747
 20
8.8667170692
 30
0.0
 10
6.6317122625
 20
8.8934778243
 30
0.0
 10
6.6272192223
 20
8.9338054283
 30
0.0
 10
6.6236375918
 20
8.9878114549
 30
0.0
 10
6.6222577401
 20
9.0285013712
 30
0.0
 10
6.6222876007
 20
9.069302926
 30
0.0
 10
6.6238131986
 20
9.1101711242
 30
0.0
 10
6.6268997199
 20
9.1510510911
 30
0.0
 10
6.6315857599
 20
9.1918817728
 30
0.0
 10
6.6378793008
 20
9.2325996136
 30
0.0
 10
6.6457552257
 20
9.2731435845
 30
0.0
 10
6.6551591468
 20
9.3134595275
 30
0.0
 10
6.6660123912
 20
9.3535031528
 30
0.0
 10
6.6782184985
 20
9.3932426811
 30
0.0
 10
6.6961659385
 20
9.4458337238
 30
0.0
 10
6.7113081304
 20
9.4847213046
 30
0.0
 10
6.722002784
 20
9.5104098926
 30
0.0
  0
SPLINE
  5
368
100
AcDbEntity
  8
0
100
AcDbSpline
 62
7
  6
CONTINUOUS
 70
0
 71
3
 72
20
 73
16
 74
0
 42
0.0000001
 43
0.0000001
 44
0.0000000001
 40
0.0
 40
0.0
 40
0.0
 40
0.0
 40
0.1323645687
 40
0.1975638323
 40
0.2621124007
 40
0.3260314053
 40
0.3893506663
 40
0.4521100623
 40
0.5143552623
 40
0.5761378589
 40
0.6375115404
 40
0.698530557
 40
0.7592478208
 40
0.8799564522
 40
1.0
 40
1.0
 40
1.0
 40
1.0
 10
6.6623596862
 20
8.4773654073
 30
0.0
 10
6.6570410813
 20
8.4919246853
 30
0.0
 10
6.6497411995
 20
8.5138999115
 30
0.0
 10
6.6415423752
 20
8.5434835644
 30
0.0
 10
6.6362515382
 20
8.5655420125
 30
0.0
 10
6.6318041112
 20
8.5875611864
 30
0.0
 10
6.6282104793
 20
8.6095236746
 30
0.0
 10
6.6254674246
 20
8.6314110131
 30
0.0
 10
6.6235673572
 20
8.6532069004
 30
0.0
 10
6.6224904104
 20
8.6748962853
 30
0.0
 10
6.6222120839
 20
8.6964667125
 30
0.0
 10
6.6227002
 20
8.7179084472
 30
0.0
 10
6.6243209205
 20
8.7462579878
 30
0.0
 10
6.6280687792
 20
8.7813862658
 30
0.0
 10
6.6327034298
 20
8.8092116212
 30
0.0
 10
6.6353688747
 20
8.8230141051
 30
0.0
  0
SPLINE
  5
369
100
AcDbEntity
  8
0
100
AcDbSpline
 62
7
  6
CONTINUOUS
 70
0
 71
3
 72
15
 73
11
 74
0
 42
0.0000001
 43
0.0000001
 44
0.0000000001
 40
0.0
 40
0.0
 40
0.0
 40
0.0
 40
0.1198802173
 40
0.2428590743
 40
0.3681359302
 40
0.494890352
 40
0.6222912539
 40
0.7494967889
 40
0.8756800337
 40
1.0
 40
1.0
 40
1.0
 40
1.0
 10
7.3702652559
 20
9.2878500728
 30
0.0
 10
7.3667112941
 20
9.2676858862
 30
0.0
 10
7.3600159991
 20
9.2267459336
 30
0.0
 10
7.3512942207
 20
9.1644728738
 30
0.0
 10
7.3438053821
 20
9.1008570831
 30
0.0
 10
7.3376023078
 20
9.0363445601
 30
0.0
 10
7.3327288594
 20
8.971387721
 30
0.0
 10
7.3292187776
 20
8.90644055
 30
0.0
 10
7.3270972057
 20
8.8419599253
 30
0.0
 10
7.326613154
 20
8.7991737773
 30
0.0
 10
7.326613154
 20
8.7779405023
 30
0.0
  0
SPLINE
  5
36A
100
AcDbEntity
  8
0
100
AcDbSpline
 62
7
  6
CONTINUOUS
 70
0
 71
3
 72
19
 73
15
 74
0
 42
0.0000001
 43
0.0000001
 44
0.0000000001
 40
0.0
 40
0.0
 40
0.0
 40
0.0
 40
0.0485489712
 40
0.0993298824
 40
0.1522828825
 40
0.2073388517
 40
0.2644241625
 40
0.3234579152
 40
0.3843543948
 40
0.4470235549
 40
0.5772927707
 40
0.7134576758
 40
0.8546676602
 40
1.0
 40
1.0
 40
1.0
 40
1.0
 10
7.3702652559
 20
8.352360322
 30
0.0
 10
7.3684732351
 20
8.3590658289
 30
0.0
 10
7.3649957967
 20
8.3728361657
 30
0.0
 10
7.3601839687
 20
8.3940708821
 30
0.0
 10
7.3556663009
 20
8.4163201545
 30
0.0
 10
7.3514501804
 20
8.4395449283
 30
0.0
 10
7.3475436429
 20
8.4637046866
 30
0.0
 10
7.3439532628
 20
8.4887571143
 30
0.0
 10
7.3406854292
 20
8.5146584125
 30
0.0
 10
7.3367152834
 20
8.5507315182
 30
0.0
 10
7.332633564
 20
8.5976117222
 30
0.0
 10
7.3291566529
 20
8.655793392
 30
0.0
 10
7.3270665979
 20
8.7161955874
 30
0.0
 10
7.326613154
 20
8.7571629768
 30
0.0
 10
7.326613154
 20
8.7779405023
 30
0.0
  0
SPLINE
  5
36B
100
AcDbEntity
  8
0
100
AcDbSpline
 62
7
  6
CONTINUOUS
 70
0
 71
3
 72
24
 73
20
 74
0
 42
0.0000001
 43
0.0000001
 44
0.0000000001
 40
0.0
 40
0.0
 40
0.0
 40
0.0
 40
0.0191466509
 40
0.0392934336
 40
0.0604350901
 40
0.0825627609
 40
0.1297253124
 40
0.1806551883
 40
0.2351858086
 40
0.2931153252
 40
0.3542179581
 40
0.4182413342
 40
0.4849155879
 40
0.553951429
 40
0.6250457963
 40
0.697882501
 40
0.7721347276
 40
0.8474677718
 40
1.0
 40
1.0
 40
1.0
 40
1.0
 10
10.1344781109
 20
9.187621626
 30
0.0
 10
10.1354959021
 20
9.18529223
 30
0.0
 10
10.1374950347
 20
9.1804722297
 30
0.0
 10
10.1403233213
 20
9.1729621414
 30
0.0
 10
10.1430547066
 20
9.1649966828
 30
0.0
 10
10.14663932
 20
9.1535366282
 30
0.0
 10
10.1508239876
 20
9.1381271673
 30
0.0
 10
10.1553104231
 20
9.1183618269
 30
0.0
 10
10.1593390603
 20
9.0970420368
 30
0.0
 10
10.162891043
 20
9.0742705156
 30
0.0
 10
10.1659475446
 20
9.0501567194
 30
0.0
 10
10.1684942571
 20
9.024817027
 30
0.0
 10
10.1705177394
 20
8.9983740069
 30
0.0
 10
10.1720083307
 20
8.9709556063
 30
0.0
 10
10.1729584018
 20
8.9426946721
 30
0.0
 10
10.1733630049
 20
8.913728213
 30
0.0
 10
10.1732204779
 20
8.8841964458
 30
0.0
 10
10.1722967944
 20
8.8440943655
 30
0.0
 10
10.1707939151
 20
8.8138704856
 30
0.0
 10
10.1694390554
 20
8.7936646115
 30
0.0
  0
SPLINE
  5
36C
100
AcDbEntity
  8
0
100
AcDbSpline
 62
7
  6
CONTINUOUS
 70
0
 71
3
 72
15
 73
11
 74
0
 42
0.0000001
 43
0.0000001
 44
0.0000000001
 40
0.0
 40
0.0
 40
0.0
 40
0.0
 40
0.1042833609
 40
0.2156771442
 40
0.3336501639
 40
0.4576121792
 40
0.5869258463
 40
0.7209104813
 40
0.8588498344
 40
1.0
 40
1.0
 40
1.0
 40
1.0
 10
10.095792518
 20
9.0860635985
 30
0.0
 10
10.0972415711
 20
9.079161606
 30
0.0
 10
10.0999410976
 20
9.0648235965
 30
0.0
 10
10.1033400978
 20
9.0425132696
 30
0.0
 10
10.1062075836
 20
9.0187875424
 30
0.0
 10
10.1085263985
 20
8.9937851591
 30
0.0
 10
10.1102822398
 20
8.9676518803
 30
0.0
 10
10.1114644448
 20
8.9405404282
 30
0.0
 10
10.112066035
 20
8.9126095188
 30
0.0
 10
10.1120771299
 20
8.8937337255
 30
0.0
 10
10.1119876075
 20
8.8841884563
 30
0.0
  0
SPLINE
  5
36D
100
AcDbEntity
  8
0
100
AcDbSpline
 62
7
  6
CONTINUOUS
 70
0
 71
3
 72
15
 73
11
 74
0
 42
0.0000001
 43
0.0000001
 44
0.0000000001
 40
0.0
 40
0.0
 40
0.0
 40
0.0
 40
0.127348315
 40
0.2538606239
 40
0.3795878599
 40
0.5046051181
 40
0.6290174391
 40
0.7529533757
 40
0.8765605793
 40
1.0
 40
1.0
 40
1.0
 40
1.0
 10
9.7595012279
 20
9.5177654285
 30
0.0
 10
9.7595012279
 20
9.5112670626
 30
0.0
 10
9.7588807625
 20
9.4983040068
 30
0.0
 10
9.75607479
 20
9.4791087471
 30
0.0
 10
9.7514220096
 20
9.4603957903
 30
0.0
 10
9.7449644604
 20
9.4423401384
 30
0.0
 10
9.7367613466
 20
9.4251083147
 30
0.0
 10
9.7268874914
 20
9.4088594256
 30
0.0
 10
9.7154357373
 20
9.3937457077
 30
0.0
 10
9.7068131466
 20
9.3845133814
 30
0.0
 10
9.7022826366
 20
9.3801372367
 30
0.0
  0
SPLINE
  5
36E
100
AcDbEntity
  8
0
100
AcDbSpline
 62
7
  6
CONTINUOUS
 70
0
 71
3
 72
15
 73
11
 74
0
 42
0.0000001
 43
0.0000001
 44
0.0000000001
 40
0.0
 40
0.0
 40
0.0
 40
0.0
 40
0.127348315
 40
0.2538606239
 40
0.3795878599
 40
0.5046051181
 40
0.6290174391
 40
0.7529533757
 40
0.8765605793
 40
1.0
 40
1.0
 40
1.0
 40
1.0
 10
13.623204762
 20
9.2498166783
 30
0.0
 10
13.623204762
 20
9.2433183124
 30
0.0
 10
13.6225842966
 20
9.2303552566
 30
0.0
 10
13.6197783241
 20
9.2111599969
 30
0.0
 10
13.6151255437
 20
9.1924470402
 30
0.0
 10
13.6086679945
 20
9.1743913882
 30
0.0
 10
13.6004648807
 20
9.1571595645
 30
0.0
 10
13.5905910255
 20
9.1409106754
 30
0.0
 10
13.5791392713
 20
9.1257969575
 30
0.0
 10
13.5705166807
 20
9.1165646313
 30
0.0
 10
13.5659861707
 20
9.1121884866
 30
0.0
  0
SPLINE
  5
36F
100
AcDbEntity
  8
0
100
AcDbSpline
 62
7
  6
CONTINUOUS
 70
0
 71
3
 72
15
 73
11
 74
0
 42
0.0000001
 43
0.0000001
 44
0.0000000001
 40
0.0
 40
0.0
 40
0.0
 40
0.0
 40
0.127348315
 40
0.2538606239
 40
0.3795878599
 40
0.5046051181
 40
0.6290174391
 40
0.7529533757
 40
0.8765605793
 40
1.0
 40
1.0
 40
1.0
 40
1.0
 10
13.623204762
 20
6.5915885566
 30
0.0
 10
13.623204762
 20
6.5850901907
 30
0.0
 10
13.6225842966
 20
6.5721271349
 30
0.0
 10
13.6197783241
 20
6.5529318752
 30
0.0
 10
13.6151255437
 20
6.5342189184
 30
0.0
 10
13.6086679945
 20
6.5161632665
 30
0.0
 10
13.6004648807
 20
6.4989314428
 30
0.0
 10
13.5905910255
 20
6.4826825537
 30
0.0
 10
13.5791392713
 20
6.4675688358
 30
0.0
 10
13.5705166807
 20
6.4583365095
 30
0.0
 10
13.5659861707
 20
6.4539603648
 30
0.0
  0
SPLINE
  5
370
100
AcDbEntity
  8
0
100
AcDbSpline
 62
7
  6
CONTINUOUS
 70
0
 71
3
 72
15
 73
11
 74
0
 42
0.0000001
 43
0.0000001
 44
0.0000000001
 40
0.0
 40
0.0
 40
0.0
 40
0.0
 40
0.127348315
 40
0.2538606239
 40
0.3795878599
 40
0.5046051181
 40
0.6290174391
 40
0.7529533757
 40
0.8765605793
 40
1.0
 40
1.0
 40
1.0
 40
1.0
 10
9.7595012279
 20
6.8595373068
 30
0.0
 10
9.7595012279
 20
6.8530389408
 30
0.0
 10
9.7588807625
 20
6.8400758851
 30
0.0
 10
9.75607479
 20
6.8208806253
 30
0.0
 10
9.7514220096
 20
6.8021676686
 30
0.0
 10
9.7449644604
 20
6.7841120167
 30
0.0
 10
9.7367613466
 20
6.766880193
 30
0.0
 10
9.7268874914
 20
6.7506313038
 30
0.0
 10
9.7154357373
 20
6.735517586
 30
0.0
 10
9.7068131466
 20
6.7262852597
 30
0.0
 10
9.7022826366
 20
6.721909115
 30
0.0
  0
SPLINE
  5
371
100
AcDbEntity
  8
0
100
AcDbSpline
 62
7
  6
CONTINUOUS
 70
0
 71
3
 72
15
 73
11
 74
0
 42
0.0000001
 43
0.0000001
 44
0.0000000001
 40
0.0
 40
0.0
 40
0.0
 40
0.0
 40
0.1273482228
 40
0.253860527
 40
0.3795879206
 40
0.5046050801
 40
0.6290174363
 40
0.7529533709
 40
0.8765605784
 40
1.0
 40
1.0
 40
1.0
 40
1.0
 10
10.988641852
 20
9.4933775612
 30
0.0
 10
10.988641852
 20
9.4890504667
 30
0.0
 10
10.9882287056
 20
9.4804186988
 30
0.0
 10
10.9863602813
 20
9.4676370584
 30
0.0
 10
10.9832621171
 20
9.4551765703
 30
0.0
 10
10.9789621905
 20
9.4431537684
 30
0.0
 10
10.9734999808
 20
9.4316795191
 30
0.0
 10
10.966925259
 20
9.4208597751
 30
0.0
 10
10.9592998444
 20
9.4107959183
 30
0.0
 10
10.9535582948
 20
9.4046483309
 30
0.0
 10
10.9505415464
 20
9.4017343629
 30
0.0
  0
SPLINE
  5
372
100
AcDbEntity
  8
0
100
AcDbSpline
 62
7
  6
CONTINUOUS
 70
0
 71
3
 72
15
 73
11
 74
0
 42
0.0000001
 43
0.0000001
 44
0.0000000001
 40
0.0
 40
0.0
 40
0.0
 40
0.0
 40
0.1273482228
 40
0.253860527
 40
0.3795879206
 40
0.5046050801
 40
0.6290174363
 40
0.7529533709
 40
0.8765605784
 40
1.0
 40
1.0
 40
1.0
 40
1.0
 10
11.5933113851
 20
6.6715088448
 30
0.0
 10
11.5933113851
 20
6.6671817504
 30
0.0
 10
11.5928982387
 20
6.6585499824
 30
0.0
 10
11.5910298144
 20
6.6457683421
 30
0.0
 10
11.5879316502
 20
6.6333078539
 30
0.0
 10
11.5836317236
 20
6.621285052
 30
0.0
 10
11.5781695139
 20
6.6098108028
 30
0.0
 10
11.571594792
 20
6.5989910587
 30
0.0
 10
11.5639693775
 20
6.588927202
 30
0.0
 10
11.5582278278
 20
6.5827796145
 30
0.0
 10
11.5552110795
 20
6.5798656465
 30
0.0
  0
SPLINE
  5
373
100
AcDbEntity
  8
0
100
AcDbSpline
 62
7
  6
CONTINUOUS
 70
0
 71
3
 72
15
 73
11
 74
0
 42
0.0000001
 43
0.0000001
 44
0.0000000001
 40
0.0
 40
0.0
 40
0.0
 40
0.0
 40
0.127347002
 40
0.2538611168
 40
0.379587791
 40
0.5046051628
 40
0.6290174373
 40
0.7529533687
 40
0.8765605638
 40
1.0
 40
1.0
 40
1.0
 40
1.0
 10
12.5442653511
 20
9.3246413806
 30
0.0
 10
12.5442653511
 20
9.3222391149
 30
0.0
 10
12.5440359648
 20
9.3174469753
 30
0.0
 10
12.5429986769
 20
9.3103509451
 30
0.0
 10
12.5412785871
 20
9.3034332018
 30
0.0
 10
12.538891341
 20
9.2967584854
 30
0.0
 10
12.5358587853
 20
9.2903883188
 30
0.0
 10
12.5322085862
 20
9.2843815378
 30
0.0
 10
12.5279750694
 20
9.2787944129
 30
0.0
 10
12.5247874226
 20
9.2753815202
 30
0.0
 10
12.5231125869
 20
9.2737637788
 30
0.0
  0
SPLINE
  5
374
100
AcDbEntity
  8
0
100
AcDbSpline
 62
7
  6
CONTINUOUS
 70
0
 71
3
 72
15
 73
11
 74
0
 42
0.0000001
 43
0.0000001
 44
0.0000000001
 40
0.0
 40
0.0
 40
0.0
 40
0.0
 40
0.127347002
 40
0.2538611168
 40
0.379587791
 40
0.5046051628
 40
0.6290174373
 40
0.7529533687
 40
0.8765605638
 40
1.0
 40
1.0
 40
1.0
 40
1.0
 10
10.327465605
 20
6.8201488434
 30
0.0
 10
10.327465605
 20
6.8177465777
 30
0.0
 10
10.3272362187
 20
6.8129544381
 30
0.0
 10
10.3261989308
 20
6.8058584079
 30
0.0
 10
10.324478841
 20
6.7989406646
 30
0.0
 10
10.3220915949
 20
6.7922659483
 30
0.0
 10
10.3190590393
 20
6.7858957817
 30
0.0
 10
10.3154088401
 20
6.7798890007
 30
0.0
 10
10.3111753233
 20
6.7743018757
 30
0.0
 10
10.3079876765
 20
6.770888983
 30
0.0
 10
10.3063128408
 20
6.7692712416
 30
0.0
  0
SPLINE
  5
375
100
AcDbEntity
  8
0
100
AcDbSpline
 62
7
  6
CONTINUOUS
 70
0
 71
3
 72
39
 73
35
 74
0
 42
0.0000001
 43
0.0000001
 44
0.0000000001
 40
0.0
 40
0.0
 40
0.0
 40
0.0
 40
0.0312475331
 40
0.0626613476
 40
0.0942340301
 40
0.1259532125
 40
0.1578035231
 40
0.1897663894
 40
0.2218206689
 40
0.2539431545
 40
0.2861091365
 40
0.3182929825
 40
0.350468724
 40
0.3826106441
 40
0.4146938545
 40
0.4466948508
 40
0.4785920406
 40
0.5103662357
 40
0.5420011015
 40
0.573483556
 40
0.6048041068
 40
0.6359571182
 40
0.6669410004
 40
0.6977583125
 40
0.7284157705
 40
0.7589241531
 40
0.789298098
 40
0.8195557892
 40
0.8497185359
 40
0.879810251
 40
0.9098568388
 40
0.9398855085
 40
0.9699240363
 40
1.0
 40
1.0
 40
1.0
 40
1.0
 10
10.2521239354
 20
9.3033914874
 30
0.0
 10
10.2617032223
 20
9.3027271616
 30
0.0
 10
10.2808682762
 20
9.3006323144
 30
0.0
 10
10.3093481325
 20
9.2952411166
 30
0.0
 10
10.3374674275
 20
9.2876268089
 30
0.0
 10
10.3650471428
 20
9.2778384948
 30
0.0
 10
10.391914844
 20
9.2659390815
 30
0.0
 10
10.4179022317
 20
9.252004739
 30
0.0
 10
10.4428471666
 20
9.2361244335
 30
0.0
 10
10.4665944331
 20
9.2183992135
 30
0.0
 10
10.4889967515
 20
9.1989414587
 30
0.0
 10
10.5099156363
 20
9.1778740836
 30
0.0
 10
10.5292221986
 20
9.1553296818
 30
0.0
 10
10.5467978698
 20
9.1314496368
 30
0.0
 10
10.5625350692
 20
9.1063832081
 30
0.0
 10
10.5763377316
 20
9.0802865492
 30
0.0
 10
10.588121792
 20
9.053321745
 30
0.0
 10
10.5978155961
 20
9.0256558343
 30
0.0
 10
10.6053602342
 20
8.9974598274
 30
0.0
 10
10.6107098483
 20
8.9689077309
 30
0.0
 10
10.6138318391
 20
8.9401755558
 30
0.0
 10
10.6147069986
 20
8.9114403328
 30
0.0
 10
10.6133296154
 20
8.8828791355
 30
0.0
 10
10.60970752
 20
8.8546681021
 30
0.0
 10
10.6038620752
 20
8.8269814572
 30
0.0
 10
10.5958281521
 20
8.7999905184
 30
0.0
 10
10.585653971
 20
8.7738627111
 30
0.0
 10
10.5734009051
 20
8.7487605803
 30
0.0
 10
10.559143242
 20
8.724840812
 30
0.0
 10
10.5429677758
 20
8.7022532082
 30
0.0
 10
10.524973658
 20
8.6811398615
 30
0.0
 10
10.5052709576
 20
8.6616335871
 30
0.0
 10
10.4839835417
 20
8.6438592383
 30
0.0
 10
10.4688319227
 20
8.6332458545
 30
0.0
 10
10.461045325
 20
8.6282670464
 30
0.0
  0
SPLINE
  5
376
100
AcDbEntity
  8
0
100
AcDbSpline
 62
7
  6
CONTINUOUS
 70
0
 71
3
 72
39
 73
35
 74
0
 42
0.0000001
 43
0.0000001
 44
0.0000000001
 40
0.0
 40
0.0
 40
0.0
 40
0.0
 40
0.0312475348
 40
0.06266135
 40
0.0942340335
 40
0.1259532166
 40
0.1578035279
 40
0.1897663947
 40
0.2218206746
 40
0.2539431604
 40
0.2861091425
 40
0.3182929885
 40
0.3504687298
 40
0.3826106497
 40
0.4146938598
 40
0.4466948557
 40
0.4785920451
 40
0.5103662398
 40
0.5420011051
 40
0.573483559
 40
0.6048041094
 40
0.6359571204
 40
0.6669410021
 40
0.6977583139
 40
0.7284157715
 40
0.7589241538
 40
0.7892980985
 40
0.8195557895
 40
0.8497185361
 40
0.8798102511
 40
0.9098568389
 40
0.9398855086
 40
0.9699240363
 40
1.0
 40
1.0
 40
1.0
 40
1.0
 10
11.4575995313
 20
9.219791477
 30
0.0
 10
11.4671788168
 20
9.2191271513
 30
0.0
 10
11.4863438648
 20
9.2170322768
 30
0.0
 10
11.5148237151
 20
9.2116410762
 30
0.0
 10
11.5429430013
 20
9.2040267537
 30
0.0
 10
11.5705227077
 20
9.1942384303
 30
0.0
 10
11.5973903991
 20
9.1823390077
 30
0.0
 10
11.6233777765
 20
9.1684046576
 30
0.0
 10
11.6483227006
 20
9.1525243455
 30
0.0
 10
11.6720699562
 20
9.1347991203
 30
0.0
 10
11.6944722634
 20
9.1153413615
 30
0.0
 10
11.7153911371
 20
9.0942739838
 30
0.0
 10
11.7346976883
 20
9.0717295804
 30
0.0
 10
11.7522733487
 20
9.047849535
 30
0.0
 10
11.7680105376
 20
9.0227831069
 30
0.0
 10
11.7818131899
 20
8.9966864498
 30
0.0
 10
11.7935972408
 20
8.9697216482
 30
0.0
 10
11.8032910359
 20
8.9420557411
 30
0.0
 10
11.8108356658
 20
8.9138597384
 30
0.0
 10
11.8161852724
 20
8.8853076468
 30
0.0
 10
11.8193072565
 20
8.8565754773
 30
0.0
 10
11.8201824102
 20
8.8278402602
 30
0.0
 10
11.8188050221
 20
8.7992790692
 30
0.0
 10
11.8151829228
 20
8.7710680423
 30
0.0
 10
11.8093374749
 20
8.7433814042
 30
0.0
 10
11.8013035497
 20
8.7163904721
 30
0.0
 10
11.7911293675
 20
8.6902626715
 30
0.0
 10
11.7788763014
 20
8.6651605472
 30
0.0
 10
11.764618639
 20
8.641240785
 30
0.0
 10
11.7484431744
 20
8.618653187
 30
0.0
 10
11.730449059
 20
8.5975398456
 30
0.0
 10
11.7107463616
 20
8.5780335759
 30
0.0
 10
11.6894589496
 20
8.5602592312
 30
0.0
 10
11.6743073335
 20
8.5496458497
 30
0.0
 10
11.6665207374
 20
8.5446670426
 30
0.0
  0
SPLINE
  5
377
100
AcDbEntity
  8
0
100
AcDbSpline
 62
7
  6
CONTINUOUS
 70
0
 71
3
 72
47
 73
43
 74
0
 42
0.0000001
 43
0.0000001
 44
0.0000000001
 40
0.0
 40
0.0
 40
0.0
 40
0.0
 40
0.0313651977
 40
0.0629214078
 40
0.0946571893
 40
0.1265542563
 40
0.1585896678
 40
0.1907363598
 40
0.2229641775
 40
0.2552409473
 40
0.2875335107
 40
0.3198087248
 40
0.3520344285
 40
0.3841803032
 40
0.4162186383
 40
0.4481250294
 40
0.4798789814
 40
0.5114643961
 40
0.5428699877
 40
0.5740896123
 40
0.6051224841
 40
0.6359732885
 40
0.666652183
 40
0.6971746565
 40
0.7275612385
 40
0.7578370489
 40
0.7729465266
 40
0.7880395122
 40
0.8031201184
 40
0.8181926051
 40
0.8332613189
 40
0.8483306773
 40
0.8634051345
 40
0.8784891146
 40
0.8935869998
 40
0.9087030853
 40
0.9238415143
 40
0.9390062705
 40
0.9542011279
 40
0.9694295932
 40
0.9846949084
 40
1.0
 40
1.0
 40
1.0
 40
1.0
 10
10.8529292836
 20
7.6660219412
 30
0.0
 10
10.8629105124
 20
7.6653297407
 30
0.0
 10
10.8828817316
 20
7.6630243959
 30
0.0
 10
10.9124823339
 20
7.6568735137
 30
0.0
 10
10.9415854906
 20
7.6480741416
 30
0.0
 10
10.9699476348
 20
7.6367057869
 30
0.0
 10
10.997337928
 20
7.6228705273
 30
0.0
 10
11.0235354505
 20
7.6066911094
 30
0.0
 10
11.0483324857
 20
7.5883090172
 30
0.0
 10
11.0715359049
 20
7.5678826008
 30
0.0
 10
11.0929684334
 20
7.5455847556
 30
0.0
 10
11.1124694697
 20
7.5216007738
 30
0.0
 10
11.1298958208
 20
7.4961264229
 30
0.0
 10
11.1451219946
 20
7.4693659689
 30
0.0
 10
11.158040228
 20
7.4415303803
 30
0.0
 10
11.1685605151
 20
7.4128358076
 30
0.0
 10
11.1766105809
 20
7.3835022126
 30
0.0
 10
11.1821355798
 20
7.3537520824
 30
0.0
 10
11.1850979315
 20
7.3238093667
 30
0.0
 10
11.1854773185
 20
7.293898507
 30
0.0
 10
11.1832705936
 20
7.2642435048
 30
0.0
 10
11.1784916998
 20
7.2350669853
 30
0.0
 10
11.1711719186
 20
7.2065894506
 30
0.0
 10
11.1613597376
 20
7.1790276471
 30
0.0
 10
11.1491225801
 20
7.1525956773
 30
0.0
 10
11.1369618896
 20
7.131662876
 30
0.0
 10
11.1261201455
 20
7.1156984426
 30
0.0
 10
11.1174486609
 20
7.1041389673
 30
0.0
 10
11.1082486402
 20
7.0930112123
 30
0.0
 10
11.0985365743
 20
7.0823377403
 30
0.0
 10
11.0883304294
 20
7.0721407555
 30
0.0
 10
11.0776492007
 20
7.0624415624
 30
0.0
 10
11.0665128861
 20
7.0532607873
 30
0.0
 10
11.0549426857
 20
7.044617999
 30
0.0
 10
11.0429607995
 20
7.0365318494
 30
0.0
 10
11.0305903799
 20
7.0290200748
 30
0.0
 10
11.0178556808
 20
7.0220991438
 30
0.0
 10
11.004781829
 20
7.0157844509
 30
0.0
 10
10.9913948514
 20
7.0100902778
 30
0.0
 10
10.9777215633
 20
7.0050294095
 30
0.0
 10
10.9637900378
 20
7.0006135228
 30
0.0
 10
10.9543608577
 20
6.9981096236
 30
0.0
 10
10.9496140043
 20
6.9969681056
 30
0.0
  0
SPLINE
  5
378
100
AcDbEntity
  8
0
100
AcDbSpline
 62
7
  6
CONTINUOUS
 70
0
 71
3
 72
30
 73
26
 74
0
 42
0.0000001
 43
0.0000001
 44
0.0000000001
 40
0.0
 40
0.0
 40
0.0
 40
0.0
 40
0.0309036708
 40
0.0619642281
 40
0.0931702302
 40
0.1245134662
 40
0.1559791044
 40
0.1875513611
 40
0.2192127617
 40
0.2509450877
 40
0.2827298699
 40
0.3145487546
 40
0.3781932156
 40
0.4417804519
 40
0.4735296494
 40
0.5052254078
 40
0.5683963823
 40
0.6312492679
 40
0.6625502746
 40
0.6937544983
 40
0.7558403837
 40
0.8175070435
 40
0.8787486416
 40
0.9395725146
 40
1.0
 40
1.0
 40
1.0
 40
1.0
 10
12.4689231322
 20
8.8632461441
 30
0.0
 10
12.4715540977
 20
8.863063686
 30
0.0
 10
12.4768177783
 20
8.8625012229
 30
0.0
 10
12.4846472369
 20
8.8610782656
 30
0.0
 10
12.4923902022
 20
8.8590847666
 30
0.0
 10
12.500005071
 20
8.8565373174
 30
0.0
 10
12.5074537072
 20
8.8534562774
 30
0.0
 10
12.514700656
 20
8.8498659499
 30
0.0
 10
12.5217140504
 20
8.8457934363
 30
0.0
 10
12.5284655254
 20
8.841268004
 30
0.0
 10
12.5349305849
 20
8.836319966
 30
0.0
 10
12.5431391593
 20
8.8292020915
 30
0.0
 10
12.5525833121
 20
8.8194074262
 30
0.0
 10
12.5608534372
 20
8.8086155113
 30
0.0
 10
12.5667289643
 20
8.7994997327
 30
0.0
 10
12.5720939509
 20
8.7901153227
 30
0.0
 10
12.5778504694
 20
8.7779206843
 30
0.0
 10
12.5823282161
 20
8.7652380886
 30
0.0
 10
12.5851260511
 20
8.7549085103
 30
0.0
 10
12.5873945046
 20
8.7445170378
 30
0.0
 10
12.5892554703
 20
8.7314011937
 30
0.0
 10
12.5899211934
 20
8.7156028272
 30
0.0
 10
12.5890155523
 20
8.6999224419
 30
0.0
 10
12.5865392964
 20
8.6845204479
 30
0.0
 10
12.5838325459
 20
8.6745092082
 30
0.0
 10
12.5822181853
 20
8.6696115996
 30
0.0
  0
SPLINE
  5
379
100
AcDbEntity
  8
0
100
AcDbSpline
 62
7
  6
CONTINUOUS
 70
0
 71
3
 72
40
 73
36
 74
0
 42
0.0000001
 43
0.0000001
 44
0.0000000001
 40
0.0
 40
0.0
 40
0.0
 40
0.0
 40
0.0312468616
 40
0.0626611822
 40
0.094233349
 40
0.1259524382
 40
0.1578025071
 40
0.1897651735
 40
0.2218192392
 40
0.2539415144
 40
0.2861072855
 40
0.3182909204
 40
0.35046645
 40
0.3826081565
 40
0.4146911503
 40
0.4466919268
 40
0.478588894
 40
0.5103628656
 40
0.5419975094
 40
0.5734797444
 40
0.6048000784
 40
0.6359528747
 40
0.6669365431
 40
0.697753642
 40
0.7284108874
 40
0.758919058
 40
0.7892927914
 40
0.8195502719
 40
0.8497128097
 40
0.8798043185
 40
0.9098507028
 40
0.9398791725
 40
0.9548987354
 40
0.9699242297
 40
1.0
 40
1.0
 40
1.0
 40
1.0
 10
12.9064876283
 20
7.2454579461
 30
0.0
 10
12.9096806782
 20
7.2452365073
 30
0.0
 10
12.9160690573
 20
7.2445382258
 30
0.0
 10
12.9255623552
 20
7.2427412195
 30
0.0
 10
12.9349355008
 20
7.2402030648
 30
0.0
 10
12.9441287332
 20
7.2369403299
 30
0.0
 10
12.9530846443
 20
7.2329738433
 30
0.0
 10
12.9617471174
 20
7.2283290765
 30
0.0
 10
12.970062109
 20
7.2230356494
 30
0.0
 10
12.9779778788
 20
7.2171272524
 30
0.0
 10
12.9854453309
 20
7.2106413391
 30
0.0
 10
12.992418303
 20
7.2036188827
 30
0.0
 10
12.9988538327
 20
7.1961040822
 30
0.0
 10
13.0047123988
 20
7.1881440675
 30
0.0
 10
13.0099581382
 20
7.1797885902
 30
0.0
 10
13.0145590286
 20
7.171089702
 30
0.0
 10
13.0184870496
 20
7.162101432
 30
0.0
 10
13.021718319
 20
7.1528794607
 30
0.0
 10
13.0242332065
 20
7.1434807924
 30
0.0
 10
13.0260164251
 20
7.1339634276
 30
0.0
 10
13.0270571023
 20
7.124386035
 30
0.0
 10
13.0273488323
 20
7.114807625
 30
0.0
 10
13.0268897094
 20
7.1052872229
 30
0.0
 10
13.0256823435
 20
7.0958835427
 30
0.0
 10
13.023733864
 20
7.0866546585
 30
0.0
 10
13.0210558918
 20
7.0776576757
 30
0.0
 10
13.0176644998
 20
7.0689484048
 30
0.0
 10
13.0135801413
 20
7.0605810229
 30
0.0
 10
13.0088275977
 20
7.0526077745
 30
0.0
 10
13.003435738
 20
7.0450785292
 30
0.0
 10
12.9974378597
 20
7.0380408773
 30
0.0
 10
12.9919644086
 20
7.0326220102
 30
0.0
 10
12.9873242007
 20
7.0285779113
 30
0.0
 10
12.9825136377
 20
7.0247307976
 30
0.0
 10
12.9787238261
 20
7.0220760762
 30
0.0
 10
12.9761282924
 20
7.0204164711
 30
0.0
  0
SPLINE
  5
37A
100
AcDbEntity
  8
0
100
AcDbSpline
 62
7
  6
CONTINUOUS
 70
0
 71
3
 72
63
 73
59
 74
0
 42
0.0000001
 43
0.0000001
 44
0.0000000001
 40
0.0
 40
0.0
 40
0.0
 40
0.0
 40
0.008122433
 40
0.0169167297
 40
0.0264084315
 40
0.0366140652
 40
0.0475411844
 40
0.0591906606
 40
0.0715579996
 40
0.0846340377
 40
0.0984057131
 40
0.1128566773
 40
0.1279676304
 40
0.1437166494
 40
0.1600795537
 40
0.1770300848
 40
0.1945400562
 40
0.2125796162
 40
0.2311173775
 40
0.2501204939
 40
0.2893842647
 40
0.3300860245
 40
0.371924834
 40
0.4145882567
 40
0.4577557121
 40
0.5011016668
 40
0.5442988521
 40
0.5870214418
 40
0.6289482728
 40
0.6697660413
 40
0.7091726074
 40
0.728256715
 40
0.7468815648
 40
0.7650140847
 40
0.7826226244
 40
0.79967702
 40
0.8161487725
 40
0.832011282
 40
0.847239953
 40
0.8618124228
 40
0.8757089246
 40
0.8889125265
 40
0.9014095129
 40
0.9131900065
 40
0.9242485698
 40
0.934585022
 40
0.9442056938
 40
0.9531249449
 40
0.9613671278
 40
0.9689693244
 40
0.9759846737
 40
0.982486019
 40
0.9855749496
 40
0.9885734976
 40
0.991497503
 40
0.994364179
 40
0.9971919325
 40
1.0
 40
1.0
 40
1.0
 40
1.0
 10
11.4094084642
 20
10.5546758352
 30
0.0
 10
11.4077715898
 20
10.5530947358
 30
0.0
 10
11.4042080604
 20
10.5499595649
 30
0.0
 10
11.3982928508
 20
10.5455051728
 30
0.0
 10
11.3916127649
 20
10.5411252623
 30
0.0
 10
11.3841812515
 20
10.5368282559
 30
0.0
 10
11.3760122559
 20
10.5326220108
 30
0.0
 10
11.3671217231
 20
10.5285147621
 30
0.0
 10
11.3575270837
 20
10.5245146507
 30
0.0
 10
11.3472473297
 20
10.5206296942
 30
0.0
 10
11.3363029393
 20
10.5168677149
 30
0.0
 10
11.3247157879
 20
10.5132363641
 30
0.0
 10
11.3125091165
 20
10.5097430273
 30
0.0
 10
11.2997074754
 20
10.5063947883
 30
0.0
 10
11.2863366377
 20
10.5031984801
 30
0.0
 10
11.2724235568
 20
10.5001606304
 30
0.0
 10
11.2579963143
 20
10.497287398
 30
0.0
 10
11.2430840481
 20
10.4945846517
 30
0.0
 10
11.2277168539
 20
10.4920578761
 30
0.0
 10
11.2064300859
 20
10.4888960291
 30
0.0
 10
11.1789129871
 20
10.4854361276
 30
0.0
 10
11.1449447247
 20
10.4821002709
 30
0.0
 10
11.1099524077
 20
10.4795643187
 30
0.0
 10
11.0742188663
 20
10.4778490467
 30
0.0
 10
11.0380327093
 20
10.476968632
 30
0.0
 10
11.0016863564
 20
10.4769302983
 30
0.0
 10
10.965473515
 20
10.4777343474
 30
0.0
 10
10.9296868249
 20
10.4793742037
 30
0.0
 10
10.8946153319
 20
10.4818363125
 30
0.0
 10
10.8605425143
 20
10.4851004826
 30
0.0
 10
10.8329222182
 20
10.4885016859
 30
0.0
 10
10.8115406855
 20
10.4916177647
 30
0.0
 10
10.7960940912
 20
10.4941119837
 30
0.0
 10
10.781096844
 20
10.4967831308
 30
0.0
 10
10.7665792128
 20
10.4996257847
 30
0.0
 10
10.7525705259
 20
10.5026341546
 30
0.0
 10
10.7390990588
 20
10.505802133
 30
0.0
 10
10.7261919692
 20
10.5091232396
 30
0.0
 10
10.713875255
 20
10.5125907118
 30
0.0
 10
10.7021736961
 20
10.5161975194
 30
0.0
 10
10.6911107664
 20
10.5199363032
 30
0.0
 10
10.6807085982
 20
10.5237994704
 30
0.0
 10
10.6709879365
 20
10.5277792459
 30
0.0
 10
10.6619680369
 20
10.5318676198
 30
0.0
 10
10.6536666244
 20
10.536056451
 30
0.0
 10
10.6460998716
 20
10.5403376011
 30
0.0
 10
10.6392823166
 20
10.5447029463
 30
0.0
 10
10.6332268403
 20
10.5491445984
 30
0.0
 10
10.6279448868
 20
10.5536550675
 30
0.0
 10
10.6234465038
 20
10.5582279314
 30
0.0
 10
10.619741544
 20
10.5628563767
 30
0.0
 10
10.6172821029
 20
10.5668230523
 30
0.0
 10
10.6157495548
 20
10.5700029701
 30
0.0
 10
10.6148236313
 20
10.5723546416
 30
0.0
 10
10.614102531
 20
10.5747120535
 30
0.0
 10
10.6135869739
 20
10.577074054
 30
0.0
 10
10.613277405
 20
10.5794389359
 30
0.0
 10
10.6132084821
 20
10.5810188646
 30
0.0
 10
10.6132084814
 20
10.5818056461
 30
0.0
  0
SPLINE
  5
37B
100
AcDbEntity
  8
0
100
AcDbSpline
 62
7
  6
CONTINUOUS
 70
0
 71
3
 72
11
 73
7
 74
0
 42
0.0000001
 43
0.0000001
 44
0.0000000001
 40
0.0
 40
0.0
 40
0.0
 40
0.0
 40
0.2491599951
 40
0.4987653926
 40
0.7490040441
 40
1.0
 40
1.0
 40
1.0
 40
1.0
 10
10.5050972099
 20
8.683478394
 30
0.0
 10
10.4973322477
 20
8.6818810878
 30
0.0
 10
10.4816727457
 20
8.6792196856
 30
0.0
 10
10.4579422953
 20
8.6768447802
 30
0.0
 10
10.4340471001
 20
8.6760866826
 30
0.0
 10
10.4180953419
 20
8.6766579379
 30
0.0
 10
10.4101285135
 20
8.6772104393
 30
0.0
  0
SPLINE
  5
37C
100
AcDbEntity
  8
0
100
AcDbSpline
 62
7
  6
CONTINUOUS
 70
0
 71
3
 72
43
 73
39
 74
0
 42
0.0000001
 43
0.0000001
 44
0.0000000001
 40
0.0
 40
0.0
 40
0.0
 40
0.0
 40
0.0364832685
 40
0.0731100786
 40
0.1098693738
 40
0.1467405259
 40
0.1836981962
 40
0.2207137953
 40
0.2577565907
 40
0.2947933078
 40
0.3317866083
 40
0.3686925781
 40
0.4054582226
 40
0.4420194394
 40
0.4783005014
 40
0.5142154381
 40
0.549671313
 40
0.5845728995
 40
0.6188271346
 40
0.6523462283
 40
0.6850493739
 40
0.7168618714
 40
0.7477129143
 40
0.777532638
 40
0.8062488884
 40
0.8337842733
 40
0.8600539127
 40
0.8849641954
 40
0.9084128524
 40
0.9302909321
 40
0.9406068531
 40
0.9504885031
 40
0.9599225053
 40
0.9688966028
 40
0.9773994288
 40
0.9854220643
 40
0.9929572058
 40
1.0
 40
1.0
 40
1.0
 40
1.0
 10
10.4101285135
 20
8.6772104393
 30
0.0
 10
10.4003466716
 20
8.6778888123
 30
0.0
 10
10.380791105
 20
8.6800545571
 30
0.0
 10
10.3517731726
 20
8.6856878094
 30
0.0
 10
10.3232050906
 20
8.6936838877
 30
0.0
 10
10.2952976054
 20
8.7040046475
 30
0.0
 10
10.26826397
 20
8.7166015161
 30
0.0
 10
10.24232343
 20
8.7314135708
 30
0.0
 10
10.217699595
 20
8.7483640766
 30
0.0
 10
10.1946192767
 20
8.7673556171
 30
0.0
 10
10.1733093344
 20
8.7882639425
 30
0.0
 10
10.1539906772
 20
8.8109310643
 30
0.0
 10
10.1368690128
 20
8.8351595017
 30
0.0
 10
10.1221227958
 20
8.8607096842
 30
0.0
 10
10.109888368
 20
8.8873016304
 30
0.0
 10
10.1002465219
 20
8.9146234774
 30
0.0
 10
10.0932132123
 20
8.9423457583
 30
0.0
 10
10.0887352832
 20
8.9701388852
 30
0.0
 10
10.0866957101
 20
8.9976913007
 30
0.0
 10
10.0869238934
 20
9.0247237649
 30
0.0
 10
10.0892096913
 20
9.0509981306
 30
0.0
 10
10.0933186595
 20
9.0763200214
 30
0.0
 10
10.0990048775
 20
9.1005363781
 30
0.0
 10
10.106020815
 20
9.1235298366
 30
0.0
 10
10.1141239101
 20
9.1452115869
 30
0.0
 10
10.1230803407
 20
9.1655140723
 30
0.0
 10
10.1326667825
 20
9.1843843075
 30
0.0
 10
10.142671134
 20
9.2017785723
 30
0.0
 10
10.1528926823
 20
9.2176576499
 30
0.0
 10
10.1615978641
 20
9.2298256808
 30
0.0
 10
10.1685225001
 20
9.2387672343
 30
0.0
 10
10.1735578034
 20
9.2449383985
 30
0.0
 10
10.17851759
 20
9.2507023539
 30
0.0
 10
10.1833841875
 20
9.2560541091
 30
0.0
 10
10.1881406683
 20
9.260989489
 30
0.0
 10
10.192772394
 20
9.2655038084
 30
0.0
 10
10.1972655096
 20
9.2695931063
 30
0.0
 10
10.2002625142
 20
9.2721187505
 30
0.0
 10
10.2017368275
 20
9.2733058651
 30
0.0
  0
SPLINE
  5
37D
100
AcDbEntity
  8
0
100
AcDbSpline
 62
7
  6
CONTINUOUS
 70
0
 71
3
 72
15
 73
11
 74
0
 42
0.0000001
 43
0.0000001
 44
0.0000000001
 40
0.0
 40
0.0
 40
0.0
 40
0.0
 40
0.107720493
 40
0.2181014096
 40
0.3324843951
 40
0.4520749411
 40
0.5778869868
 40
0.7107437139
 40
0.8512884299
 40
1.0
 40
1.0
 40
1.0
 40
1.0
 10
10.2017368275
 20
9.2733058651
 30
0.0
 10
10.2032259243
 20
9.2745048832
 30
0.0
 10
10.2063992161
 20
9.2767422749
 30
0.0
 10
10.211611827
 20
9.2795358377
 30
0.0
 10
10.2173043836
 20
9.2817938467
 30
0.0
 10
10.2234635538
 20
9.283517867
 30
0.0
 10
10.2300784671
 20
9.2847136374
 30
0.0
 10
10.2371387543
 20
9.2853888159
 30
0.0
 10
10.2446342692
 20
9.2855531559
 30
0.0
 10
10.2497669662
 20
9.2853364897
 30
0.0
 10
10.2523999583
 20
9.2851537255
 30
0.0
  0
SPLINE
  5
37E
100
AcDbEntity
  8
0
100
AcDbSpline
 62
7
  6
CONTINUOUS
 70
0
 71
3
 72
31
 73
27
 74
0
 42
0.0000001
 43
0.0000001
 44
0.0000000001
 40
0.0
 40
0.0
 40
0.0
 40
0.0
 40
0.0557335559
 40
0.1134910733
 40
0.1732715618
 40
0.2350455994
 40
0.2987370539
 40
0.3642110911
 40
0.4312538285
 40
0.4995466915
 40
0.5686359653
 40
0.6032947781
 40
0.6379039068
 40
0.6723534566
 40
0.7065192645
 40
0.7402630026
 40
0.773433136
 40
0.8058671844
 40
0.8373960071
 40
0.8678509587
 40
0.8970748979
 40
0.9249383176
 40
0.9513613125
 40
0.964032772
 40
0.9763522584
 40
1.0
 40
1.0
 40
1.0
 40
1.0
 10
11.5318821351
 20
8.6104767581
 30
0.0
 10
11.5291672754
 20
8.6136498153
 30
0.0
 10
11.5237743594
 20
8.6202281812
 30
0.0
 10
11.5159493099
 20
8.6305917777
 30
0.0
 10
11.5082757581
 20
8.6416243632
 30
0.0
 10
11.5007933975
 20
8.6533189663
 30
0.0
 10
11.4935522715
 20
8.6656619251
 30
0.0
 10
11.4866156121
 20
8.6786283361
 30
0.0
 10
11.4800627169
 20
8.6921774967
 30
0.0
 10
11.4739925716
 20
8.7062457212
 30
0.0
 10
11.4694413502
 20
8.7183123233
 30
0.0
 10
11.4661629912
 20
8.7281481935
 30
0.0
 10
11.4639111719
 20
8.7355872391
 30
0.0
 10
11.4618920083
 20
8.7430546467
 30
0.0
 10
11.4601303512
 20
8.7505205897
 30
0.0
 10
11.4586526515
 20
8.7579504488
 30
0.0
 10
11.4574867615
 20
8.7653045988
 30
0.0
 10
11.4566616078
 20
8.772538207
 30
0.0
 10
11.4562067561
 20
8.7796013193
 30
0.0
 10
11.4561518663
 20
8.7864391733
 30
0.0
 10
11.4565261126
 20
8.7929932871
 30
0.0
 10
11.4573574977
 20
8.7992018155
 30
0.0
 10
11.4584685847
 20
8.8041033918
 30
0.0
 10
11.4596227797
 20
8.8077809533
 30
0.0
 10
11.460914701
 20
8.8111898612
 30
0.0
 10
11.4621060031
 20
8.8136194138
 30
0.0
 10
11.4630032921
 20
8.8151472811
 30
0.0
  0
SPLINE
  5
37F
100
AcDbEntity
  8
0
100
AcDbSpline
 62
7
  6
CONTINUOUS
 70
0
 71
3
 72
23
 73
19
 74
0
 42
0.0000001
 43
0.0000001
 44
0.0000000001
 40
0.0
 40
0.0
 40
0.0
 40
0.0
 40
0.0765319591
 40
0.1519054177
 40
0.2259446321
 40
0.29848691
 40
0.3693693011
 40
0.4384356745
 40
0.5055355435
 40
0.5705249005
 40
0.6332670218
 40
0.6936331613
 40
0.7515035433
 40
0.8067683804
 40
0.8593290191
 40
0.909099406
 40
0.9560079492
 40
1.0
 40
1.0
 40
1.0
 40
1.0
 10
10.1991357884
 20
8.9215844669
 30
0.0
 10
10.1991357884
 20
8.9295042231
 30
0.0
 10
10.1990322584
 20
8.9452240673
 30
0.0
 10
10.1985595905
 20
8.96860143
 30
0.0
 10
10.1977717239
 20
8.9915572736
 30
0.0
 10
10.1966707204
 20
9.014034974
 30
0.0
 10
10.1952592634
 20
9.0359797369
 30
0.0
 10
10.1935408875
 20
9.0573377036
 30
0.0
 10
10.1915198736
 20
9.0780566083
 30
0.0
 10
10.18920125
 20
9.0980857437
 30
0.0
 10
10.1865907857
 20
9.1173761104
 30
0.0
 10
10.1836949641
 20
9.1358805533
 30
0.0
 10
10.1805209894
 20
9.1535538868
 30
0.0
 10
10.1770767589
 20
9.170353039
 30
0.0
 10
10.173370841
 20
9.1862371107
 30
0.0
 10
10.1694123908
 20
9.2011676807
 30
0.0
 10
10.1652113019
 20
9.2151083044
 30
0.0
 10
10.1621566407
 20
9.2240084753
 30
0.0
 10
10.1605826878
 20
9.2282801592
 30
0.0
  0
SPLINE
  5
380
100
AcDbEntity
  8
0
100
AcDbSpline
 62
7
  6
CONTINUOUS
 70
0
 71
3
 72
39
 73
35
 74
0
 42
0.0000001
 43
0.0000001
 44
0.0000000001
 40
0.0
 40
0.0
 40
0.0
 40
0.0
 40
0.0071625678
 40
0.0146567179
 40
0.0224900413
 40
0.0306687017
 40
0.0391977329
 40
0.0480809761
 40
0.0573207983
 40
0.0669183965
 40
0.0768741435
 40
0.0871874377
 40
0.1088799456
 40
0.131978928
 40
0.1564568622
 40
0.182278431
 40
0.2094015018
 40
0.2377780607
 40
0.2673549092
 40
0.2980741881
 40
0.3298737896
 40
0.3626878448
 40
0.3964471028
 40
0.4310792359
 40
0.4665091073
 40
0.5026591244
 40
0.5394495258
 40
0.5767986285
 40
0.6146230679
 40
0.6913563402
 40
0.7689609431
 40
0.8467367595
 40
0.9239813805
 40
1.0
 40
1.0
 40
1.0
 40
1.0
 10
7.5078066559
 20
10.0702769259
 30
0.0
 10
7.5066564473
 20
10.0691659097
 30
0.0
 10
7.5043575466
 20
10.0668352042
 30
0.0
 10
7.5009880794
 20
10.0631105032
 30
0.0
 10
7.4976228419
 20
10.0590816505
 30
0.0
 10
7.4942640863
 20
10.054751247
 30
0.0
 10
7.490913634
 20
10.0501218858
 30
0.0
 10
7.4875734592
 20
10.0451962018
 30
0.0
 10
7.484245455
 20
10.0399771023
 30
0.0
 10
7.4809315892
 20
10.0344676983
 30
0.0
 10
7.4776338911
 20
10.0286712348
 30
0.0
 10
7.4731859727
 20
10.0204250244
 30
0.0
 10
7.4676937469
 20
10.009411865
 30
0.0
 10
7.461304669
 20
9.9953244507
 30
0.0
 10
7.4550261602
 20
9.9801845512
 30
0.0
 10
7.448873384
 20
9.9640283467
 30
0.0
 10
7.4428611875
 20
9.9468942628
 30
0.0
 10
7.43700412
 20
9.9288232724
 30
0.0
 10
7.4313163695
 20
9.9098586313
 30
0.0
 10
7.4258117276
 20
9.8900458114
 30
0.0
 10
7.4205035076
 20
9.8694323849
 30
0.0
 10
7.4154045577
 20
9.8480678824
 30
0.0
 10
7.4105272237
 20
9.8260036554
 30
0.0
 10
7.4058833209
 20
9.8032927613
 30
0.0
 10
7.4014840665
 20
9.7799898439
 30
0.0
 10
7.3973400906
 20
9.7561509797
 30
0.0
 10
7.3934614246
 20
9.7318335502
 30
0.0
 10
7.3898574132
 20
9.7070960448
 30
0.0
 10
7.3854089239
 20
9.6734724093
 30
0.0
 10
7.3806033931
 20
9.6308337886
 30
0.0
 10
7.3760772047
 20
9.5792033507
 30
0.0
 10
7.3728081915
 20
9.5273634336
 30
0.0
 10
7.3708277159
 20
9.4758130029
 30
0.0
 10
7.3703738564
 20
9.4415928597
 30
0.0
 10
7.3703738564
 20
9.4246203835
 30
0.0
  0
SPLINE
  5
381
100
AcDbEntity
  8
0
100
AcDbSpline
 62
7
  6
CONTINUOUS
 70
0
 71
3
 72
31
 73
27
 74
0
 42
0.0000001
 43
0.0000001
 44
0.0000000001
 40
0.0
 40
0.0
 40
0.0
 40
0.0
 40
0.0851788837
 40
0.1685813066
 40
0.2498840119
 40
0.3287751356
 40
0.4049557415
 40
0.4781421254
 40
0.5480679845
 40
0.6144869819
 40
0.6463115569
 40
0.6771777789
 40
0.707061738
 40
0.7359417808
 40
0.7637980324
 40
0.7906132552
 40
0.8163724294
 40
0.8410636987
 40
0.8646780573
 40
0.8872104235
 40
0.9086595085
 40
0.9290290893
 40
0.948328174
 40
0.9665725896
 40
0.9837856077
 40
1.0
 40
1.0
 40
1.0
 40
1.0
 10
7.3703738564
 20
7.3111745503
 30
0.0
 10
7.3703738564
 20
7.3001724258
 30
0.0
 10
7.3705613383
 20
7.2783971027
 30
0.0
 10
7.3714212114
 20
7.2461305591
 30
0.0
 10
7.3728533618
 20
7.2146970835
 30
0.0
 10
7.3748515631
 20
7.1842290966
 30
0.0
 10
7.3774071758
 20
7.1548547332
 30
0.0
 10
7.380509131
 20
7.1266974036
 30
0.0
 10
7.384144111
 20
7.0998755587
 30
0.0
 10
7.3876522869
 20
7.0784356665
 30
0.0
 10
7.3907289444
 20
7.0620448453
 30
0.0
 10
7.3931266659
 20
7.0503297053
 30
0.0
 10
7.3956449922
 20
7.0390292116
 30
0.0
 10
7.3982811928
 20
7.0281552095
 30
0.0
 10
7.4010325705
 20
7.0177191115
 30
0.0
 10
7.4038961094
 20
7.0077318408
 30
0.0
 10
7.4068688938
 20
6.998203851
 30
0.0
 10
7.4099476789
 20
6.989145071
 30
0.0
 10
7.4131293456
 20
6.9805649455
 30
0.0
 10
7.4164104533
 20
6.9724723501
 30
0.0
 10
7.4197877166
 20
6.9648756704
 30
0.0
 10
7.4232575555
 20
6.9577826678
 30
0.0
 10
7.4268165665
 20
6.9512006472
 30
0.0
 10
7.430461184
 20
6.945136144
 30
0.0
 10
7.4341877843
 20
6.9395956322
 30
0.0
 10
7.4368008629
 20
6.9361544471
 30
0.0
 10
7.4381223256
 20
6.9345296523
 30
0.0
  0
SPLINE
  5
382
100
AcDbEntity
  8
0
100
AcDbSpline
 62
7
  6
CONTINUOUS
 70
0
 71
3
 72
39
 73
35
 74
0
 42
0.0000001
 43
0.0000001
 44
0.0000000001
 40
0.0
 40
0.0
 40
0.0
 40
0.0
 40
0.0760186195
 40
0.1532632405
 40
0.2310390569
 40
0.3086436598
 40
0.3853769321
 40
0.4232013715
 40
0.4605504742
 40
0.4973408756
 40
0.5334908927
 40
0.5689207641
 40
0.6035528972
 40
0.6373121552
 40
0.6701262104
 40
0.7019258119
 40
0.7326450908
 40
0.7622219393
 40
0.7905984982
 40
0.817721569
 40
0.8435431378
 40
0.868021072
 40
0.8911200544
 40
0.9128125623
 40
0.9231258565
 40
0.9330816035
 40
0.9426792017
 40
0.9519190239
 40
0.9608022671
 40
0.9693312983
 40
0.9775099587
 40
0.9853432821
 40
0.9928374322
 40
1.0
 40
1.0
 40
1.0
 40
1.0
 10
15.3913229868
 20
7.6528167884
 30
0.0
 10
15.3913229868
 20
7.6358443122
 30
0.0
 10
15.3908691273
 20
7.601624169
 30
0.0
 10
15.3888886517
 20
7.5500737383
 30
0.0
 10
15.3856196385
 20
7.4982338212
 30
0.0
 10
15.3810934501
 20
7.4466033833
 30
0.0
 10
15.3762879193
 20
7.4039647626
 30
0.0
 10
15.37183943
 20
7.3703411271
 30
0.0
 10
15.3682354186
 20
7.3456036217
 30
0.0
 10
15.3643567526
 20
7.3212861922
 30
0.0
 10
15.3602127767
 20
7.297447328
 30
0.0
 10
15.3558135223
 20
7.2741444106
 30
0.0
 10
15.3511696195
 20
7.2514335165
 30
0.0
 10
15.3462922855
 20
7.2293692895
 30
0.0
 10
15.3411933356
 20
7.208004787
 30
0.0
 10
15.3358851156
 20
7.1873913605
 30
0.0
 10
15.3303804737
 20
7.1675785406
 30
0.0
 10
15.3246927232
 20
7.1486138994
 30
0.0
 10
15.3188356557
 20
7.1305429091
 30
0.0
 10
15.3128234592
 20
7.1134088252
 30
0.0
 10
15.306670683
 20
7.0972526207
 30
0.0
 10
15.3003921742
 20
7.0821127212
 30
0.0
 10
15.2940030963
 20
7.0680253069
 30
0.0
 10
15.2885108705
 20
7.0570121475
 30
0.0
 10
15.2840629521
 20
7.0487659371
 30
0.0
 10
15.280765254
 20
7.0429694736
 30
0.0
 10
15.2774513882
 20
7.0374600695
 30
0.0
 10
15.274123384
 20
7.0322409701
 30
0.0
 10
15.2707832092
 20
7.0273152861
 30
0.0
 10
15.2674327569
 20
7.0226859249
 30
0.0
 10
15.2640740013
 20
7.0183555214
 30
0.0
 10
15.2607087638
 20
7.0143266687
 30
0.0
 10
15.2573392966
 20
7.0106019677
 30
0.0
 10
15.2550403959
 20
7.0082712622
 30
0.0
 10
15.2538901873
 20
7.007160246
 30
0.0
  0
SPLINE
  5
383
100
AcDbEntity
  8
0
100
AcDbSpline
 62
7
  6
CONTINUOUS
 70
0
 71
3
 72
41
 73
37
 74
0
 42
0.0000001
 43
0.0000001
 44
0.0000000001
 40
0.0
 40
0.0
 40
0.0
 40
0.0
 40
0.0299421238
 40
0.0449237703
 40
0.059914519
 40
0.0899291762
 40
0.1200146048
 40
0.1350933663
 40
0.1501974853
 40
0.1804849834
 40
0.2108989722
 40
0.2414525913
 40
0.2721557558
 40
0.3030149766
 40
0.3340332647
 40
0.365210118
 40
0.396541585
 40
0.4280204007
 40
0.4596361866
 40
0.4913757084
 40
0.5232231826
 40
0.5551606251
 40
0.5871682346
 40
0.6192248024
 40
0.6513081434
 40
0.68339554
 40
0.7154641944
 40
0.7474916807
 40
0.7794563937
 40
0.8113379827
 40
0.8431177771
 40
0.8747791563
 40
0.9063079829
 40
0.9376927254
 40
0.9689252285
 40
1.0
 40
1.0
 40
1.0
 40
1.0
 10
9.4090990964
 20
9.6836622134
 30
0.0
 10
9.4125995156
 20
9.687043365
 30
0.0
 10
9.4180564392
 20
9.6919102588
 30
0.0
 10
9.4256988035
 20
9.6979489539
 30
0.0
 10
9.4335844954
 20
9.7036872157
 30
0.0
 10
9.4438740728
 20
9.7102765585
 30
0.0
 10
9.4546639307
 20
9.7160403532
 30
0.0
 10
9.4635627759
 20
9.7201407235
 30
0.0
 10
9.4726454462
 20
9.7239026098
 30
0.0
 10
9.4842981072
 20
9.7279477081
 30
0.0
 10
9.4986582533
 20
9.7317176574
 30
0.0
 10
9.5133317475
 20
9.7343883992
 30
0.0
 10
9.528237271
 20
9.7359451997
 30
0.0
 10
9.5432929441
 20
9.7363797504
 30
0.0
 10
9.5584159259
 20
9.7356898398
 30
0.0
 10
9.5735230965
 20
9.7338794531
 30
0.0
 10
9.5885314483
 20
9.7309587156
 30
0.0
 10
9.603358553
 20
9.7269438371
 30
0.0
 10
9.6179230042
 20
9.7218570156
 30
0.0
 10
9.6321448589
 20
9.7157263125
 30
0.0
 10
9.6459460697
 20
9.7085854962
 30
0.0
 10
9.6592509076
 20
9.700473856
 30
0.0
 10
9.6719863717
 20
9.6914359863
 30
0.0
 10
9.6840825846
 20
9.6815215433
 30
0.0
 10
9.6954731716
 20
9.6707849744
 30
0.0
 10
9.7060956206
 20
9.6592852213
 30
0.0
 10
9.7158916212
 20
9.6470854002
 30
0.0
 10
9.7248073828
 20
9.6342524586
 30
0.0
 10
9.7327939252
 20
9.620856812
 30
0.0
 10
9.7398073494
 20
9.6069719608
 30
0.0
 10
9.7458090682
 20
9.5926741
 30
0.0
 10
9.7507660395
 20
9.5780416707
 30
0.0
 10
9.7546509003
 20
9.5631550754
 30
0.0
 10
9.7574422122
 20
9.5480957254
 30
0.0
 10
9.7591244313
 20
9.5329474551
 30
0.0
 10
9.7595012279
 20
9.5228162631
 30
0.0
 10
9.7595012279
 20
9.5177654285
 30
0.0
  0
SPLINE
  5
384
100
AcDbEntity
  8
0
100
AcDbSpline
 62
7
  6
CONTINUOUS
 70
0
 71
3
 72
41
 73
37
 74
0
 42
0.0000001
 43
0.0000001
 44
0.0000000001
 40
0.0
 40
0.0
 40
0.0
 40
0.0
 40
0.0299421238
 40
0.0449237703
 40
0.059914519
 40
0.0899291762
 40
0.1200146048
 40
0.1350933663
 40
0.1501974853
 40
0.1804849834
 40
0.2108989722
 40
0.2414525913
 40
0.2721557558
 40
0.3030149766
 40
0.3340332647
 40
0.365210118
 40
0.396541585
 40
0.4280204007
 40
0.4596361866
 40
0.4913757084
 40
0.5232231826
 40
0.5551606251
 40
0.5871682346
 40
0.6192248024
 40
0.6513081434
 40
0.68339554
 40
0.7154641944
 40
0.7474916807
 40
0.7794563937
 40
0.8113379827
 40
0.8431177771
 40
0.8747791563
 40
0.9063079829
 40
0.9376927254
 40
0.9689252285
 40
1.0
 40
1.0
 40
1.0
 40
1.0
 10
13.2728026305
 20
9.4157134633
 30
0.0
 10
13.2763030497
 20
9.4190946149
 30
0.0
 10
13.2817599733
 20
9.4239615086
 30
0.0
 10
13.2894023376
 20
9.4300002037
 30
0.0
 10
13.2972880295
 20
9.4357384656
 30
0.0
 10
13.3075776069
 20
9.4423278083
 30
0.0
 10
13.3183674648
 20
9.4480916031
 30
0.0
 10
13.32726631
 20
9.4521919733
 30
0.0
 10
13.3363489803
 20
9.4559538596
 30
0.0
 10
13.3480016413
 20
9.4599989579
 30
0.0
 10
13.3623617874
 20
9.4637689072
 30
0.0
 10
13.3770352816
 20
9.466439649
 30
0.0
 10
13.3919408051
 20
9.4679964495
 30
0.0
 10
13.4069964782
 20
9.4684310002
 30
0.0
 10
13.42211946
 20
9.4677410896
 30
0.0
 10
13.4372266306
 20
9.465930703
 30
0.0
 10
13.4522349824
 20
9.4630099655
 30
0.0
 10
13.4670620871
 20
9.4589950869
 30
0.0
 10
13.4816265383
 20
9.4539082654
 30
0.0
 10
13.495848393
 20
9.4477775623
 30
0.0
 10
13.5096496038
 20
9.440636746
 30
0.0
 10
13.5229544417
 20
9.4325251058
 30
0.0
 10
13.5356899057
 20
9.4234872361
 30
0.0
 10
13.5477861187
 20
9.4135727932
 30
0.0
 10
13.5591767057
 20
9.4028362242
 30
0.0
 10
13.5697991547
 20
9.3913364712
 30
0.0
 10
13.5795951553
 20
9.3791366501
 30
0.0
 10
13.5885109169
 20
9.3663037084
 30
0.0
 10
13.5964974593
 20
9.3529080618
 30
0.0
 10
13.6035108835
 20
9.3390232106
 30
0.0
 10
13.6095126023
 20
9.3247253499
 30
0.0
 10
13.6144695736
 20
9.3100929206
 30
0.0
 10
13.6183544344
 20
9.2952063252
 30
0.0
 10
13.6211457463
 20
9.2801469753
 30
0.0
 10
13.6228279654
 20
9.264998705
 30
0.0
 10
13.623204762
 20
9.2548675129
 30
0.0
 10
13.623204762
 20
9.2498166783
 30
0.0
  0
SPLINE
  5
385
100
AcDbEntity
  8
0
100
AcDbSpline
 62
7
  6
CONTINUOUS
 70
0
 71
3
 72
41
 73
37
 74
0
 42
0.0000001
 43
0.0000001
 44
0.0000000001
 40
0.0
 40
0.0
 40
0.0
 40
0.0
 40
0.0299421238
 40
0.0449237703
 40
0.059914519
 40
0.0899291762
 40
0.1200146048
 40
0.1350933663
 40
0.1501974853
 40
0.1804849834
 40
0.2108989722
 40
0.2414525913
 40
0.2721557558
 40
0.3030149766
 40
0.3340332647
 40
0.365210118
 40
0.396541585
 40
0.4280204007
 40
0.4596361866
 40
0.4913757084
 40
0.5232231826
 40
0.5551606251
 40
0.5871682346
 40
0.6192248024
 40
0.6513081434
 40
0.68339554
 40
0.7154641944
 40
0.7474916807
 40
0.7794563937
 40
0.8113379827
 40
0.8431177771
 40
0.8747791563
 40
0.9063079829
 40
0.9376927254
 40
0.9689252285
 40
1.0
 40
1.0
 40
1.0
 40
1.0
 10
13.2728026305
 20
6.7574853415
 30
0.0
 10
13.2763030497
 20
6.7608664931
 30
0.0
 10
13.2817599733
 20
6.7657333869
 30
0.0
 10
13.2894023376
 20
6.771772082
 30
0.0
 10
13.2972880295
 20
6.7775103438
 30
0.0
 10
13.3075776069
 20
6.7840996866
 30
0.0
 10
13.3183674648
 20
6.7898634813
 30
0.0
 10
13.32726631
 20
6.7939638516
 30
0.0
 10
13.3363489803
 20
6.7977257379
 30
0.0
 10
13.3480016413
 20
6.8017708362
 30
0.0
 10
13.3623617874
 20
6.8055407855
 30
0.0
 10
13.3770352816
 20
6.8082115273
 30
0.0
 10
13.3919408051
 20
6.8097683278
 30
0.0
 10
13.4069964782
 20
6.8102028785
 30
0.0
 10
13.42211946
 20
6.8095129679
 30
0.0
 10
13.4372266306
 20
6.8077025812
 30
0.0
 10
13.4522349824
 20
6.8047818437
 30
0.0
 10
13.4670620871
 20
6.8007669652
 30
0.0
 10
13.4816265383
 20
6.7956801437
 30
0.0
 10
13.495848393
 20
6.7895494406
 30
0.0
 10
13.5096496038
 20
6.7824086243
 30
0.0
 10
13.5229544417
 20
6.7742969841
 30
0.0
 10
13.5356899057
 20
6.7652591144
 30
0.0
 10
13.5477861187
 20
6.7553446714
 30
0.0
 10
13.5591767057
 20
6.7446081025
 30
0.0
 10
13.5697991547
 20
6.7331083494
 30
0.0
 10
13.5795951553
 20
6.7209085283
 30
0.0
 10
13.5885109169
 20
6.7080755867
 30
0.0
 10
13.5964974593
 20
6.6946799401
 30
0.0
 10
13.6035108835
 20
6.6807950889
 30
0.0
 10
13.6095126023
 20
6.6664972281
 30
0.0
 10
13.6144695736
 20
6.6518647988
 30
0.0
 10
13.6183544344
 20
6.6369782035
 30
0.0
 10
13.6211457463
 20
6.6219188535
 30
0.0
 10
13.6228279654
 20
6.6067705833
 30
0.0
 10
13.623204762
 20
6.5966393912
 30
0.0
 10
13.623204762
 20
6.5915885566
 30
0.0
  0
SPLINE
  5
386
100
AcDbEntity
  8
0
100
AcDbSpline
 62
7
  6
CONTINUOUS
 70
0
 71
3
 72
41
 73
37
 74
0
 42
0.0000001
 43
0.0000001
 44
0.0000000001
 40
0.0
 40
0.0
 40
0.0
 40
0.0
 40
0.0299421238
 40
0.0449237703
 40
0.059914519
 40
0.0899291762
 40
0.1200146048
 40
0.1350933663
 40
0.1501974853
 40
0.1804849834
 40
0.2108989722
 40
0.2414525913
 40
0.2721557558
 40
0.3030149766
 40
0.3340332647
 40
0.365210118
 40
0.396541585
 40
0.4280204007
 40
0.4596361866
 40
0.4913757084
 40
0.5232231826
 40
0.5551606251
 40
0.5871682346
 40
0.6192248024
 40
0.6513081434
 40
0.68339554
 40
0.7154641944
 40
0.7474916807
 40
0.7794563937
 40
0.8113379827
 40
0.8431177771
 40
0.8747791563
 40
0.9063079829
 40
0.9376927254
 40
0.9689252285
 40
1.0
 40
1.0
 40
1.0
 40
1.0
 10
9.4090990964
 20
7.0254340917
 30
0.0
 10
9.4125995156
 20
7.0288152433
 30
0.0
 10
9.4180564392
 20
7.0336821371
 30
0.0
 10
9.4256988035
 20
7.0397208321
 30
0.0
 10
9.4335844954
 20
7.045459094
 30
0.0
 10
9.4438740728
 20
7.0520484367
 30
0.0
 10
9.4546639307
 20
7.0578122315
 30
0.0
 10
9.4635627759
 20
7.0619126017
 30
0.0
 10
9.4726454462
 20
7.0656744881
 30
0.0
 10
9.4842981072
 20
7.0697195864
 30
0.0
 10
9.4986582533
 20
7.0734895356
 30
0.0
 10
9.5133317475
 20
7.0761602775
 30
0.0
 10
9.528237271
 20
7.0777170779
 30
0.0
 10
9.5432929441
 20
7.0781516287
 30
0.0
 10
9.5584159259
 20
7.0774617181
 30
0.0
 10
9.5735230965
 20
7.0756513314
 30
0.0
 10
9.5885314483
 20
7.0727305939
 30
0.0
 10
9.603358553
 20
7.0687157154
 30
0.0
 10
9.6179230042
 20
7.0636288938
 30
0.0
 10
9.6321448589
 20
7.0574981907
 30
0.0
 10
9.6459460697
 20
7.0503573745
 30
0.0
 10
9.6592509076
 20
7.0422457342
 30
0.0
 10
9.6719863717
 20
7.0332078645
 30
0.0
 10
9.6840825846
 20
7.0232934216
 30
0.0
 10
9.6954731716
 20
7.0125568527
 30
0.0
 10
9.7060956206
 20
7.0010570996
 30
0.0
 10
9.7158916212
 20
6.9888572785
 30
0.0
 10
9.7248073828
 20
6.9760243368
 30
0.0
 10
9.7327939252
 20
6.9626286903
 30
0.0
 10
9.7398073494
 20
6.9487438391
 30
0.0
 10
9.7458090682
 20
6.9344459783
 30
0.0
 10
9.7507660395
 20
6.919813549
 30
0.0
 10
9.7546509003
 20
6.9049269537
 30
0.0
 10
9.7574422122
 20
6.8898676037
 30
0.0
 10
9.7591244313
 20
6.8747193334
 30
0.0
 10
9.7595012279
 20
6.8645881414
 30
0.0
 10
9.7595012279
 20
6.8595373068
 30
0.0
  0
SPLINE
  5
387
100
AcDbEntity
  8
0
100
AcDbSpline
 62
7
  6
CONTINUOUS
 70
0
 71
3
 72
39
 73
35
 74
0
 42
0.0000001
 43
0.0000001
 44
0.0000000001
 40
0.0
 40
0.0
 40
0.0
 40
0.0
 40
0.0299424756
 40
0.0599093253
 40
0.0899243308
 40
0.1200101061
 40
0.1501875593
 40
0.1804754054
 40
0.2108897454
 40
0.2414437198
 40
0.2721472437
 40
0.3030068255
 40
0.3340254745
 40
0.3652026886
 40
0.3965345175
 40
0.4280136976
 40
0.4596298523
 40
0.4913697474
 40
0.5232175981
 40
0.5551554173
 40
0.5871634018
 40
0.6192203434
 40
0.6513040581
 40
0.68339183
 40
0.7154608619
 40
0.7474887274
 40
0.7794538181
 40
0.8113357796
 40
0.8431159521
 40
0.8747776664
 40
0.9063069638
 40
0.937691791
 40
0.9689252156
 40
1.0
 40
1.0
 40
1.0
 40
1.0
 10
10.7553169844
 20
9.6038441591
 30
0.0
 10
10.7576478318
 20
9.6060955947
 30
0.0
 10
10.7624927907
 20
9.6104167842
 30
0.0
 10
10.7702551937
 20
9.616303624
 30
0.0
 10
10.7784728612
 20
9.6215660823
 30
0.0
 10
10.78709988
 20
9.6261746355
 30
0.0
 10
10.7960888179
 20
9.6301041091
 30
0.0
 10
10.8053900675
 20
9.6333329025
 30
0.0
 10
10.8149523746
 20
9.6358433476
 30
0.0
 10
10.8247230589
 20
9.6376217348
 30
0.0
 10
10.8346483246
 20
9.6386583965
 30
0.0
 10
10.8446735528
 20
9.6389477628
 30
0.0
 10
10.8547436059
 20
9.6384883777
 30
0.0
 10
10.8648031297
 20
9.6372828948
 30
0.0
 10
10.8747968541
 20
9.6353380583
 30
0.0
 10
10.8846698926
 20
9.6326646608
 30
0.0
 10
10.8943680384
 20
9.629277481
 30
0.0
 10
10.903838058
 20
9.6251952004
 30
0.0
 10
10.9130279776
 20
9.6204402989
 30
0.0
 10
10.921887371
 20
9.6150389429
 30
0.0
 10
10.9303676309
 20
9.6090208317
 30
0.0
 10
10.9384222292
 20
9.6024190325
 30
0.0
 10
10.9460069701
 20
9.5952698007
 30
0.0
 10
10.9530802282
 20
9.5876123833
 30
0.0
 10
10.9596031748
 20
9.5794888056
 30
0.0
 10
10.9655399883
 20
9.5709436442
 30
0.0
 10
10.9708580471
 20
9.5620237848
 30
0.0
 10
10.9755281266
 20
9.5527781738
 30
0.0
 10
10.9795245262
 20
9.5432575511
 30
0.0
 10
10.9828252761
 20
9.5335141428
 30
0.0
 10
10.9854120891
 20
9.5236015127
 30
0.0
 10
10.9872708171
 20
9.5135738005
 30
0.0
 10
10.9883909293
 20
9.5034869125
 30
0.0
 10
10.988641852
 20
9.4967407599
 30
0.0
 10
10.988641852
 20
9.4933775612
 30
0.0
  0
SPLINE
  5
388
100
AcDbEntity
  8
0
100
AcDbSpline
 62
7
  6
CONTINUOUS
 70
0
 71
3
 72
39
 73
35
 74
0
 42
0.0000001
 43
0.0000001
 44
0.0000000001
 40
0.0
 40
0.0
 40
0.0
 40
0.0
 40
0.0299424756
 40
0.0599093253
 40
0.0899243308
 40
0.1200101061
 40
0.1501875593
 40
0.1804754054
 40
0.2108897454
 40
0.2414437198
 40
0.2721472437
 40
0.3030068255
 40
0.3340254745
 40
0.3652026886
 40
0.3965345175
 40
0.4280136976
 40
0.4596298523
 40
0.4913697474
 40
0.5232175981
 40
0.5551554173
 40
0.5871634018
 40
0.6192203434
 40
0.6513040581
 40
0.68339183
 40
0.7154608619
 40
0.7474887274
 40
0.7794538181
 40
0.8113357796
 40
0.8431159521
 40
0.8747776664
 40
0.9063069638
 40
0.937691791
 40
0.9689252156
 40
1.0
 40
1.0
 40
1.0
 40
1.0
 10
11.3599865175
 20
6.7819754427
 30
0.0
 10
11.3623173649
 20
6.7842268784
 30
0.0
 10
11.3671623238
 20
6.7885480678
 30
0.0
 10
11.3749247268
 20
6.7944349076
 30
0.0
 10
11.3831423943
 20
6.7996973659
 30
0.0
 10
11.3917694131
 20
6.8043059191
 30
0.0
 10
11.400758351
 20
6.8082353927
 30
0.0
 10
11.4100596005
 20
6.8114641861
 30
0.0
 10
11.4196219077
 20
6.8139746312
 30
0.0
 10
11.4293925919
 20
6.8157530184
 30
0.0
 10
11.4393178577
 20
6.8167896802
 30
0.0
 10
11.4493430858
 20
6.8170790465
 30
0.0
 10
11.4594131389
 20
6.8166196614
 30
0.0
 10
11.4694726628
 20
6.8154141785
 30
0.0
 10
11.4794663872
 20
6.8134693419
 30
0.0
 10
11.4893394256
 20
6.8107959445
 30
0.0
 10
11.4990375714
 20
6.8074087646
 30
0.0
 10
11.5085075911
 20
6.803326484
 30
0.0
 10
11.5176975106
 20
6.7985715825
 30
0.0
 10
11.5265569041
 20
6.7931702265
 30
0.0
 10
11.535037164
 20
6.7871521153
 30
0.0
 10
11.5430917623
 20
6.7805503161
 30
0.0
 10
11.5506765032
 20
6.7734010843
 30
0.0
 10
11.5577497613
 20
6.7657436669
 30
0.0
 10
11.5642727078
 20
6.7576200892
 30
0.0
 10
11.5702095214
 20
6.7490749278
 30
0.0
 10
11.5755275802
 20
6.7401550684
 30
0.0
 10
11.5801976597
 20
6.7309094574
 30
0.0
 10
11.5841940592
 20
6.7213888347
 30
0.0
 10
11.5874948091
 20
6.7116454264
 30
0.0
 10
11.5900816222
 20
6.7017327964
 30
0.0
 10
11.5919403501
 20
6.6917050841
 30
0.0
 10
11.5930604623
 20
6.6816181962
 30
0.0
 10
11.5933113851
 20
6.6748720436
 30
0.0
 10
11.5933113851
 20
6.6715088448
 30
0.0
  0
SPLINE
  5
389
100
AcDbEntity
  8
0
100
AcDbSpline
 62
7
  6
CONTINUOUS
 70
0
 71
3
 72
34
 73
30
 74
0
 42
0.0000001
 43
0.0000001
 44
0.0000000001
 40
0.0
 40
0.0
 40
0.0
 40
0.0
 40
0.029948265
 40
0.059920911
 40
0.0899417355
 40
0.1200333579
 40
0.1502166746
 40
0.1805103996
 40
0.2109306468
 40
0.241490565
 40
0.2722000568
 40
0.303065626
 40
0.3340902961
 40
0.3652735746
 40
0.3966114954
 40
0.4280967817
 40
0.4597190652
 40
0.4914651189
 40
0.5552240134
 40
0.6192627273
 40
0.6834082032
 40
0.7474789322
 40
0.8112993139
 40
0.8430855846
 40
0.8747534858
 40
0.9062889405
 40
0.9376793031
 40
0.9689201346
 40
1.0
 40
1.0
 40
1.0
 40
1.0
 10
12.4147336775
 20
9.3859689837
 30
0.0
 10
12.4160276733
 20
9.3872188679
 30
0.0
 10
12.4187174574
 20
9.3896177152
 30
0.0
 10
12.4230268484
 20
9.3928857607
 30
0.0
 10
12.4275889793
 20
9.3958071786
 30
0.0
 10
12.4323783687
 20
9.3983655579
 30
0.0
 10
12.4373686774
 20
9.4005469272
 30
0.0
 10
12.4425323522
 20
9.4023393257
 30
0.0
 10
12.4478409441
 20
9.4037329462
 30
0.0
 10
12.4532652164
 20
9.4047201431
 30
0.0
 10
12.4587752989
 20
9.4052955576
 30
0.0
 10
12.4643408665
 20
9.4054561309
 30
0.0
 10
12.4699313169
 20
9.4052010508
 30
0.0
 10
12.4755159136
 20
9.4045317586
 30
0.0
 10
12.481063989
 20
9.4034519805
 30
0.0
 10
12.4865449988
 20
9.4019677976
 30
0.0
 10
12.4919291548
 20
9.4000872212
 30
0.0
 10
12.4989470343
 20
9.3970621253
 30
0.0
 10
12.5073283002
 20
9.3923430576
 30
0.0
 10
12.5165215305
 20
9.3853238315
 30
0.0
 10
12.5246728246
 20
9.3770894823
 30
0.0
 10
12.5316026311
 20
9.3678217139
 30
0.0
 10
12.5362426672
 20
9.3593873895
 30
0.0
 10
12.539203764
 20
9.3523326998
 30
0.0
 10
12.541036313
 20
9.3469233967
 30
0.0
 10
12.5424723169
 20
9.3414204077
 30
0.0
 10
12.5435042404
 20
9.3358534038
 30
0.0
 10
12.5441260153
 20
9.3302536135
 30
0.0
 10
12.5442653511
 20
9.3265084237
 30
0.0
 10
12.5442653511
 20
9.3246413806
 30
0.0
  0
SPLINE
  5
38A
100
AcDbEntity
  8
0
100
AcDbSpline
 62
7
  6
CONTINUOUS
 70
0
 71
3
 72
34
 73
30
 74
0
 42
0.0000001
 43
0.0000001
 44
0.0000000001
 40
0.0
 40
0.0
 40
0.0
 40
0.0
 40
0.029948265
 40
0.059920911
 40
0.0899417355
 40
0.1200333579
 40
0.1502166746
 40
0.1805103996
 40
0.2109306468
 40
0.241490565
 40
0.2722000568
 40
0.303065626
 40
0.3340902961
 40
0.3652735746
 40
0.3966114954
 40
0.4280967817
 40
0.4597190652
 40
0.4914651189
 40
0.5552240134
 40
0.6192627273
 40
0.6834082032
 40
0.7474789322
 40
0.8112993139
 40
0.8430855846
 40
0.8747534858
 40
0.9062889405
 40
0.9376793031
 40
0.9689201346
 40
1.0
 40
1.0
 40
1.0
 40
1.0
 10
10.1979339314
 20
6.8814764466
 30
0.0
 10
10.1992279272
 20
6.8827263307
 30
0.0
 10
10.2019177113
 20
6.885125178
 30
0.0
 10
10.2062271023
 20
6.8883932235
 30
0.0
 10
10.2107892333
 20
6.8913146415
 30
0.0
 10
10.2155786226
 20
6.8938730207
 30
0.0
 10
10.2205689313
 20
6.8960543901
 30
0.0
 10
10.2257326061
 20
6.8978467886
 30
0.0
 10
10.231041198
 20
6.899240409
 30
0.0
 10
10.2364654704
 20
6.9002276059
 30
0.0
 10
10.2419755528
 20
6.9008030204
 30
0.0
 10
10.2475411204
 20
6.9009635937
 30
0.0
 10
10.2531315708
 20
6.9007085136
 30
0.0
 10
10.2587161675
 20
6.9000392214
 30
0.0
 10
10.2642642429
 20
6.8989594433
 30
0.0
 10
10.2697452527
 20
6.8974752604
 30
0.0
 10
10.2751294087
 20
6.895594684
 30
0.0
 10
10.2821472882
 20
6.8925695881
 30
0.0
 10
10.2905285541
 20
6.8878505205
 30
0.0
 10
10.2997217844
 20
6.8808312943
 30
0.0
 10
10.3078730786
 20
6.8725969451
 30
0.0
 10
10.314802885
 20
6.8633291767
 30
0.0
 10
10.3194429211
 20
6.8548948523
 30
0.0
 10
10.3224040179
 20
6.8478401626
 30
0.0
 10
10.3242365669
 20
6.8424308595
 30
0.0
 10
10.3256725709
 20
6.8369278705
 30
0.0
 10
10.3267044943
 20
6.8313608666
 30
0.0
 10
10.3273262692
 20
6.8257610763
 30
0.0
 10
10.327465605
 20
6.8220158866
 30
0.0
 10
10.327465605
 20
6.8201488434
 30
0.0
  0
SPLINE
  5
38B
100
AcDbEntity
  8
0
100
AcDbSpline
 62
7
  6
CONTINUOUS
 70
0
 71
3
 72
15
 73
11
 74
0
 42
0.0000001
 43
0.0000001
 44
0.0000000001
 40
0.0
 40
0.0
 40
0.0
 40
0.0
 40
0.1232692229
 40
0.2468892351
 40
0.3709474383
 40
0.4955201602
 40
0.6206706294
 40
0.7464482023
 40
0.8728846888
 40
1.0
 40
1.0
 40
1.0
 40
1.0
 10
10.0432014472
 20
9.2513042952
 30
0.0
 10
10.0507816383
 20
9.2561511254
 30
0.0
 10
10.0663696981
 20
9.2652394535
 30
0.0
 10
10.090820025
 20
9.2769348337
 30
0.0
 10
10.1162287493
 20
9.2866430559
 30
0.0
 10
10.1424433653
 20
9.2943041463
 30
0.0
 10
10.1693087059
 20
9.2998721444
 30
0.0
 10
10.1966654429
 20
9.3033131541
 30
0.0
 10
10.2243488507
 20
9.3046067144
 30
0.0
 10
10.242868164
 20
9.3040333773
 30
0.0
 10
10.2521239354
 20
9.3033914874
 30
0.0
  0
SPLINE
  5
38C
100
AcDbEntity
  8
0
100
AcDbSpline
 62
7
  6
CONTINUOUS
 70
0
 71
3
 72
15
 73
11
 74
0
 42
0.0000001
 43
0.0000001
 44
0.0000000001
 40
0.0
 40
0.0
 40
0.0
 40
0.0
 40
0.1232692212
 40
0.2468892321
 40
0.3709474345
 40
0.4955201561
 40
0.6206706258
 40
0.7464481997
 40
0.8728846881
 40
1.0
 40
1.0
 40
1.0
 40
1.0
 10
11.2486768596
 20
9.1677042914
 30
0.0
 10
11.2562570569
 20
9.1725511256
 30
0.0
 10
11.27184513
 20
9.1816394607
 30
0.0
 10
11.2962954783
 20
9.1933348482
 30
0.0
 10
11.3217042254
 20
9.2030430742
 30
0.0
 10
11.3479188652
 20
9.210704165
 30
0.0
 10
11.3747842301
 20
9.2162721597
 30
0.0
 10
11.4021409915
 20
9.2197131631
 30
0.0
 10
11.4298244234
 20
9.2210067114
 30
0.0
 10
11.4483437521
 20
9.2204333675
 30
0.0
 10
11.4575995313
 20
9.219791477
 30
0.0
  0
SPLINE
  5
38D
100
AcDbEntity
  8
0
100
AcDbSpline
 62
7
  6
CONTINUOUS
 70
0
 71
3
 72
11
 73
7
 74
0
 42
0.0000001
 43
0.0000001
 44
0.0000000001
 40
0.0
 40
0.0
 40
0.0
 40
0.0
 40
0.2481239192
 40
0.4974626977
 40
0.7480758902
 40
1.0
 40
1.0
 40
1.0
 40
1.0
 10
10.7562445265
 20
7.6580804594
 30
0.0
 10
10.764074138
 20
7.6599633157
 30
0.0
 10
10.7799251728
 20
7.6631289906
 30
0.0
 10
10.8040517633
 20
7.6660403235
 30
0.0
 10
10.8284531346
 20
7.6671085048
 30
0.0
 10
10.8447727164
 20
7.6665876011
 30
0.0
 10
10.8529292836
 20
7.6660219412
 30
0.0
  0
SPLINE
  5
38E
100
AcDbEntity
  8
0
100
AcDbSpline
 62
7
  6
CONTINUOUS
 70
0
 71
3
 72
23
 73
19
 74
0
 42
0.0000001
 43
0.0000001
 44
0.0000000001
 40
0.0
 40
0.0
 40
0.0
 40
0.0
 40
0.0626678235
 40
0.1251258749
 40
0.1873992064
 40
0.2495180818
 40
0.3115180594
 40
0.3734401963
 40
0.4353311749
 40
0.4972428857
 40
0.559231536
 40
0.6213561916
 40
0.6836767209
 40
0.7462510705
 40
0.8091321823
 40
0.8723644759
 40
0.9359808657
 40
1.0
 40
1.0
 40
1.0
 40
1.0
 10
12.3556280791
 20
8.7807818665
 30
0.0
 10
12.3566164278
 20
8.7837802951
 30
0.0
 10
12.3587899203
 20
8.7897034241
 30
0.0
 10
12.362643489
 20
8.7983299758
 30
0.0
 10
12.3670809931
 20
8.806640823
 30
0.0
 10
12.3720960288
 20
8.8145896268
 30
0.0
 10
12.3776797627
 20
8.8221284666
 30
0.0
 10
12.3838198728
 20
8.8292070589
 30
0.0
 10
12.390499775
 20
8.8357732145
 30
0.0
 10
12.397697656
 20
8.8417732615
 30
0.0
 10
12.4053854969
 20
8.8471528338
 30
0.0
 10
12.4135281388
 20
8.8518579939
 30
0.0
 10
12.4220825093
 20
8.8558367203
 30
0.0
 10
12.4309971932
 20
8.8590407477
 30
0.0
 10
12.4402123123
 20
8.861427631
 30
0.0
 10
12.4496605469
 20
8.8629628934
 30
0.0
 10
12.4592666918
 20
8.8636221138
 30
0.0
 10
12.4657056628
 20
8.8634692763
 30
0.0
 10
12.4689231322
 20
8.8632461441
 30
0.0
  0
SPLINE
  5
38F
100
AcDbEntity
  8
0
100
AcDbSpline
 62
7
  6
CONTINUOUS
 70
0
 71
3
 72
16
 73
12
 74
0
 42
0.0000001
 43
0.0000001
 44
0.0000000001
 40
0.0
 40
0.0
 40
0.0
 40
0.0
 40
0.1098864251
 40
0.2213925505
 40
0.3360632443
 40
0.4553048854
 40
0.5170524264
 40
0.5803907344
 40
0.7123015689
 40
0.8519456354
 40
1.0
 40
1.0
 40
1.0
 40
1.0
 10
11.4232084814
 20
10.5818056462
 30
0.0
 10
11.4232084825
 20
10.5806601429
 30
0.0
 10
11.4230613364
 20
10.5783496706
 30
0.0
 10
11.4224018007
 20
10.5749004743
 30
0.0
 10
11.421305024
 20
10.5714623021
 30
0.0
 10
11.4200439844
 20
10.5686431433
 30
0.0
 10
11.4188305026
 20
10.5664028944
 30
0.0
 10
11.4174410256
 20
10.5641112264
 30
0.0
 10
11.4154234517
 20
10.5612561167
 30
0.0
 10
11.4126105934
 20
10.5579009726
 30
0.0
 10
11.410518549
 20
10.5557480948
 30
0.0
 10
11.4094084642
 20
10.5546758352
 30
0.0
  0
SPLINE
  5
390
100
AcDbEntity
  8
0
100
AcDbSpline
 62
7
  6
CONTINUOUS
 70
0
 71
3
 72
31
 73
27
 74
0
 42
0.0000001
 43
0.0000001
 44
0.0000000001
 40
0.0
 40
0.0
 40
0.0
 40
0.0
 40
0.0162143923
 40
0.0334274104
 40
0.051671826
 40
0.0709709107
 40
0.0913404915
 40
0.1127895765
 40
0.1353219427
 40
0.1589363013
 40
0.1836275706
 40
0.2093867448
 40
0.2362019676
 40
0.2640582192
 40
0.292938262
 40
0.3228222211
 40
0.3536884431
 40
0.3855130181
 40
0.4519320155
 40
0.5218578746
 40
0.5950442585
 40
0.6712248644
 40
0.7501159881
 40
0.8314186934
 40
0.9148211163
 40
1.0
 40
1.0
 40
1.0
 40
1.0
 10
15.3235745176
 20
10.1429075196
 30
0.0
 10
15.3248959803
 20
10.1412827248
 30
0.0
 10
15.3275090589
 20
10.1378415397
 30
0.0
 10
15.3312356592
 20
10.1323010279
 30
0.0
 10
15.3348802767
 20
10.1262365247
 30
0.0
 10
15.3384392877
 20
10.1196545041
 30
0.0
 10
15.3419091266
 20
10.1125615015
 30
0.0
 10
15.3452863899
 20
10.1049648218
 30
0.0
 10
15.3485674976
 20
10.0968722264
 30
0.0
 10
15.3517491643
 20
10.0882921009
 30
0.0
 10
15.3548279494
 20
10.0792333209
 30
0.0
 10
15.3578007338
 20
10.0697053311
 30
0.0
 10
15.3606642727
 20
10.0597180603
 30
0.0
 10
15.3634156504
 20
10.0492819624
 30
0.0
 10
15.366051851
 20
10.0384079603
 30
0.0
 10
15.3685701773
 20
10.0271074666
 30
0.0
 10
15.3709678988
 20
10.0153923266
 30
0.0
 10
15.3740445563
 20
9.9990015054
 30
0.0
 10
15.3775527322
 20
9.9775616131
 30
0.0
 10
15.3811877122
 20
9.9507397683
 30
0.0
 10
15.3842896674
 20
9.9225824387
 30
0.0
 10
15.3868452801
 20
9.8932080752
 30
0.0
 10
15.3888434814
 20
9.8627400884
 30
0.0
 10
15.3902756318
 20
9.8313066128
 30
0.0
 10
15.3911355049
 20
9.7990400692
 30
0.0
 10
15.3913229868
 20
9.7772647461
 30
0.0
 10
15.3913229868
 20
9.7662626216
 30
0.0
  0
SPLINE
  5
391
100
AcDbEntity
  8
0
100
AcDbSpline
 62
7
  6
CONTINUOUS
 70
0
 71
3
 72
15
 73
11
 74
0
 42
0.0000001
 43
0.0000001
 44
0.0000000001
 40
0.0
 40
0.0
 40
0.0
 40
0.0
 40
0.1232692307
 40
0.2468892318
 40
0.3709474745
 40
0.4955200049
 40
0.6206710499
 40
0.7464469802
 40
0.8728869751
 40
1.0
 40
1.0
 40
1.0
 40
1.0
 10
12.8368469551
 20
7.2280955304
 30
0.0
 10
12.8393736793
 20
7.2297111382
 30
0.0
 10
12.8445696928
 20
7.2327405661
 30
0.0
 10
12.8527197839
 20
7.2366390198
 30
0.0
 10
12.8611893371
 20
7.2398750819
 30
0.0
 10
12.8699275266
 20
7.242428802
 30
0.0
 10
12.8788825943
 20
7.2442847682
 30
0.0
 10
12.8880015369
 20
7.2454318498
 30
0.0
 10
12.8972293128
 20
7.2458629826
 30
0.0
 10
12.9034024333
 20
7.245671905
 30
0.0
 10
12.9064876283
 20
7.2454579461
 30
0.0
  0
SPLINE
  5
392
100
AcDbEntity
  8
0
100
AcDbSpline
 62
7
  6
CONTINUOUS
 70
0
 71
3
 72
17
 73
13
 74
0
 42
0.0000001
 43
0.0000001
 44
0.0000000001
 40
0.0
 40
0.0
 40
0.0
 40
0.0
 40
0.1492506635
 40
0.2896780469
 40
0.4219823974
 40
0.4853805152
 40
0.5471014468
 40
0.6660508601
 40
0.7801597401
 40
0.8909114747
 40
0.9455641552
 40
1.0
 40
1.0
 40
1.0
 40
1.0
 10
14.6301370966
 20
6.4057414875
 30
0.0
 10
14.6286021164
 20
6.4043129122
 30
0.0
 10
14.6255340608
 20
6.4016330077
 30
0.0
 10
14.6207899511
 20
6.3980681224
 30
0.0
 10
14.6167862589
 20
6.3955508042
 30
0.0
 10
14.6135943342
 20
6.3938473856
 30
0.0
 10
14.6104920678
 20
6.3923838463
 30
0.0
 10
14.6066130906
 20
6.3909075903
 30
0.0
 10
14.6019213001
 20
6.3897137941
 30
0.0
 10
14.5980137759
 20
6.3892198456
 30
0.0
 10
14.5949246593
 20
6.3891315949
 30
0.0
 10
14.5933917003
 20
6.3891876335
 30
0.0
 10
14.5926287356
 20
6.3892405506
 30
0.0
  0
SPLINE
  5
393
100
AcDbEntity
  8
0
100
AcDbSpline
 62
7
  6
CONTINUOUS
 70
0
 71
3
 72
17
 73
13
 74
0
 42
0.0000001
 43
0.0000001
 44
0.0000000001
 40
0.0
 40
0.0
 40
0.0
 40
0.0
 40
0.0544361239
 40
0.1090890654
 40
0.2198413957
 40
0.3339503404
 40
0.4529002993
 40
0.5146222749
 40
0.5780215285
 40
0.7103273933
 40
0.8507479293
 40
1.0
 40
1.0
 40
1.0
 40
1.0
 10
15.2628279289
 20
10.1962427068
 30
0.0
 10
15.2635908976
 20
10.1961897894
 30
0.0
 10
15.2651169213
 20
10.1960336612
 30
0.0
 10
15.2681643101
 20
10.1955198982
 30
0.0
 10
15.2719662463
 20
10.1944912414
 30
0.0
 10
15.2764483652
 20
10.1926612701
 30
0.0
 10
15.2800864473
 20
10.1906636746
 30
0.0
 10
15.282957
 20
10.1887858598
 30
0.0
 10
15.2858832991
 20
10.186658144
 30
0.0
 10
15.2895010782
 20
10.1836122353
 30
0.0
 10
15.2937077359
 20
10.1794267438
 30
0.0
 10
15.2963764035
 20
10.1763490049
 30
0.0
 10
15.2976994928
 20
10.1747221949
 30
0.0
  0
SPLINE
  5
394
100
AcDbEntity
  8
0
100
AcDbSpline
 62
7
  6
CONTINUOUS
 70
0
 71
3
 72
16
 73
12
 74
0
 42
0.0000001
 43
0.0000001
 44
0.0000000001
 40
0.0
 40
0.0
 40
0.0
 40
0.0
 40
0.0853580496
 40
0.1768015631
 40
0.225584254
 40
0.2768259989
 40
0.3881610291
 40
0.5140319998
 40
0.6571602236
 40
0.8188437475
 40
1.0
 40
1.0
 40
1.0
 40
1.0
 10
14.7034038696
 20
7.6614025781
 30
0.0
 10
14.7027558095
 20
7.6614475213
 30
0.0
 10
14.7014171878
 20
7.6616065392
 30
0.0
 10
14.6997382606
 20
7.6619786698
 30
0.0
 10
14.6983410372
 20
7.6623938365
 30
0.0
 10
14.6968213258
 20
7.6629226146
 30
0.0
 10
14.694801513
 20
7.6637909129
 30
0.0
 10
14.6922498914
 20
7.665164306
 30
0.0
 10
14.6894924738
 20
7.6669422386
 30
0.0
 10
14.686538285
 20
7.6691724475
 30
0.0
 10
14.6845669636
 20
7.6708850717
 30
0.0
 10
14.6835530264
 20
7.6718192623
 30
0.0
  0
SPLINE
  5
395
100
AcDbEntity
  8
0
100
AcDbSpline
 62
7
  6
CONTINUOUS
 70
0
 71
3
 72
66
 73
62
 74
0
 42
0.0000001
 43
0.0000001
 44
0.0000000001
 40
0.0
 40
0.0
 40
0.0
 40
0.0
 40
0.0036899316
 40
0.0075221025
 40
0.011499977
 40
0.0156264553
 40
0.0199039026
 40
0.0243341706
 40
0.0289187301
 40
0.0336586343
 40
0.0436064309
 40
0.0541803656
 40
0.0653783855
 40
0.0771949241
 40
0.089621432
 40
0.1026468019
 40
0.1162576792
 40
0.1304386878
 40
0.1451726622
 40
0.1604408343
 40
0.1762229709
 40
0.1924974764
 40
0.2092415324
 40
0.2264312038
 40
0.2440415174
 40
0.2620465329
 40
0.2804194459
 40
0.2991326643
 40
0.3181578667
 40
0.3374660691
 40
0.3768121103
 40
0.416929095
 40
0.4575684501
 40
0.4984774452
 40
0.539401211
 40
0.5800847596
 40
0.6202750099
 40
0.6597228056
 40
0.6981849718
 40
0.71697294
 40
0.7354271032
 40
0.7535196837
 40
0.7712236817
 40
0.7885129665
 40
0.805362335
 40
0.8217475885
 40
0.8376456394
 40
0.85303462
 40
0.8678939674
 40
0.8822045432
 40
0.8959488011
 40
0.9091109547
 40
0.9216771519
 40
0.9336357191
 40
0.9449774963
 40
0.9556961977
 40
0.9657889018
 40
0.9752566607
 40
0.9841052801
 40
0.9923468642
 40
1.0
 40
1.0
 40
1.0
 40
1.0
 10
14.6923250598
 20
7.6596987924
 30
0.0
 10
14.6910702952
 20
7.661241597
 30
0.0
 10
14.6885774345
 20
7.6644400505
 30
0.0
 10
14.6849539266
 20
7.6694697796
 30
0.0
 10
14.6813779044
 20
7.674818785
 30
0.0
 10
14.6778509055
 20
7.6804847968
 30
0.0
 10
14.6743743327
 20
7.6864655431
 30
0.0
 10
14.670949538
 20
7.6927585364
 30
0.0
 10
14.6675779312
 20
7.6993612476
 30
0.0
 10
14.6630826797
 20
7.7087255759
 30
0.0
 10
14.6576217171
 20
7.7212019107
 30
0.0
 10
14.6514037744
 20
7.7371301134
 30
0.0
 10
14.6454297775
 20
7.7542217325
 30
0.0
 10
14.6397096057
 20
7.772448636
 30
0.0
 10
14.6342527367
 20
7.791781101
 30
0.0
 10
14.6290682836
 20
7.8121873553
 30
0.0
 10
14.6241649384
 20
7.833633801
 30
0.0
 10
14.6195509057
 20
7.8560850227
 30
0.0
 10
14.6152339185
 20
7.8795038873
 30
0.0
 10
14.6112212269
 20
7.9038516264
 30
0.0
 10
14.6075195818
 20
7.9290878966
 30
0.0
 10
14.604135182
 20
7.9551708425
 30
0.0
 10
14.6010737052
 20
7.9820571829
 30
0.0
 10
14.5983402979
 20
8.0097022957
 30
0.0
 10
14.5959395602
 20
8.0380602823
 30
0.0
 10
14.593875509
 20
8.0670840413
 30
0.0
 10
14.5921516073
 20
8.0967253619
 30
0.0
 10
14.5907707703
 20
8.1269349931
 30
0.0
 10
14.5897352945
 20
8.1576627834
 30
0.0
 10
14.5888118439
 20
8.1995176422
 30
0.0
 10
14.5885446322
 20
8.252753124
 30
0.0
 10
14.5896149794
 20
8.3174764866
 30
0.0
 10
14.5920678844
 20
8.3830051514
 30
0.0
 10
14.5958872257
 20
8.4489037805
 30
0.0
 10
14.6010477118
 20
8.5147348738
 30
0.0
 10
14.6075150371
 20
8.5800612716
 30
0.0
 10
14.615246033
 20
8.6444493356
 30
0.0
 10
14.6241891012
 20
8.7074713701
 30
0.0
 10
14.6326663777
 20
8.7588964588
 30
0.0
 10
14.6400247417
 20
8.7990280768
 30
0.0
 10
14.6457641084
 20
8.8282932866
 30
0.0
 10
14.6517573698
 20
8.8569109625
 30
0.0
 10
14.6579945881
 20
8.8848336039
 30
0.0
 10
14.6644653358
 20
8.9120148381
 30
0.0
 10
14.6711588207
 20
8.9384095432
 30
0.0
 10
14.6780638845
 20
8.963973904
 30
0.0
 10
14.6851690107
 20
8.9886655064
 30
0.0
 10
14.6924623289
 20
9.012443417
 30
0.0
 10
14.6999316665
 20
9.0352682374
 30
0.0
 10
14.7075645729
 20
9.0571021712
 30
0.0
 10
14.7153483158
 20
9.0779091155
 30
0.0
 10
14.7232699078
 20
9.097654732
 30
0.0
 10
14.7313161606
 20
9.1163064931
 30
0.0
 10
14.7394737249
 20
9.1338337495
 30
0.0
 10
14.7477290968
 20
9.1502078272
 30
0.0
 10
14.7560686732
 20
9.1654020913
 30
0.0
 10
14.7644788941
 20
9.1793920101
 30
0.0
 10
14.7729462049
 20
9.1921550418
 30
0.0
 10
14.7814575912
 20
9.2036713872
 30
0.0
 10
14.7899994001
 20
9.213921943
 30
0.0
 10
14.7959200882
 20
9.2201253797
 30
0.0
 10
14.7988866911
 20
9.2229908983
 30
0.0
  0
SPLINE
  5
396
100
AcDbEntity
  8
0
100
AcDbSpline
 62
7
  6
CONTINUOUS
 70
0
 71
3
 72
16
 73
12
 74
0
 42
0.0000001
 43
0.0000001
 44
0.0000000001
 40
0.0
 40
0.0
 40
0.0
 40
0.0
 40
0.1814385209
 40
0.3433349962
 40
0.486591565
 40
0.6124986554
 40
0.7237608122
 40
0.7749342336
 40
0.8236328857
 40
0.9148735872
 40
1.0
 40
1.0
 40
1.0
 40
1.0
 10
14.7903520042
 20
9.2139691227
 30
0.0
 10
14.7914942949
 20
9.214765328
 30
0.0
 10
14.7937008051
 20
9.2162093635
 30
0.0
 10
14.7969611283
 20
9.218036287
 30
0.0
 10
14.7999619094
 20
9.2194363097
 30
0.0
 10
14.8026999837
 20
9.22045873
 30
0.0
 10
14.8048362703
 20
9.2210483904
 30
0.0
 10
14.8064255092
 20
9.2213668232
 30
0.0
 10
14.8078757824
 20
9.2215882572
 30
0.0
 10
14.8096002979
 20
9.2217273562
 30
0.0
 10
14.8109560365
 20
9.2217002927
 30
0.0
 10
14.8116077493
 20
9.2216550963
 30
0.0
  0
SPLINE
  5
397
100
AcDbEntity
  8
0
100
AcDbSpline
 62
7
  6
CONTINUOUS
 70
0
 71
3
 72
17
 73
13
 74
0
 42
0.0000001
 43
0.0000001
 44
0.0000000001
 40
0.0
 40
0.0
 40
0.0
 40
0.0
 40
0.1492520707
 40
0.2896726067
 40
0.4219784715
 40
0.4853777251
 40
0.5470997007
 40
0.6660496596
 40
0.7801586043
 40
0.8909109346
 40
0.9455638761
 40
1.0
 40
1.0
 40
1.0
 40
1.0
 10
7.4639973504
 20
6.902714977
 30
0.0
 10
7.4653204397
 20
6.901088167
 30
0.0
 10
7.4679891073
 20
6.8980104281
 30
0.0
 10
7.472195765
 20
6.8938249366
 30
0.0
 10
7.4758135441
 20
6.8907790279
 30
0.0
 10
7.4787398432
 20
6.888651312
 30
0.0
 10
7.4816103959
 20
6.8867734973
 30
0.0
 10
7.485248478
 20
6.8847759018
 30
0.0
 10
7.4897305969
 20
6.8829459305
 30
0.0
 10
7.4935325331
 20
6.8819172737
 30
0.0
 10
7.4965799219
 20
6.8814035107
 30
0.0
 10
7.4981059456
 20
6.8812473825
 30
0.0
 10
7.4988689143
 20
6.8811944651
 30
0.0
  0
SPLINE
  5
398
100
AcDbEntity
  8
0
100
AcDbSpline
 62
7
  6
CONTINUOUS
 70
0
 71
3
 72
11
 73
7
 74
0
 42
0.0000001
 43
0.0000001
 44
0.0000000001
 40
0.0
 40
0.0
 40
0.0
 40
0.0
 40
0.2524775561
 40
0.50423146
 40
0.7538639639
 40
1.0
 40
1.0
 40
1.0
 40
1.0
 10
10.1930555815
 20
8.7694044297
 30
0.0
 10
10.1940613352
 20
8.782185543
 30
0.0
 10
10.1958244618
 20
8.8077311284
 30
0.0
 10
10.1977259992
 20
8.845966827
 30
0.0
 10
10.1988744163
 20
8.8839104247
 30
0.0
 10
10.1991357884
 20
8.9090858607
 30
0.0
 10
10.1991357884
 20
8.9215844669
 30
0.0
  0
SPLINE
  5
399
100
AcDbEntity
  8
0
100
AcDbSpline
 62
7
  6
CONTINUOUS
 70
0
 71
3
 72
17
 73
13
 74
0
 42
0.0000001
 43
0.0000001
 44
0.0000000001
 40
0.0
 40
0.0
 40
0.0
 40
0.0
 40
0.0544358448
 40
0.1090885253
 40
0.2198402599
 40
0.3339491399
 40
0.4528985532
 40
0.5146194848
 40
0.5780176026
 40
0.7103219531
 40
0.8507493365
 40
1.0
 40
1.0
 40
1.0
 40
1.0
 10
8.1690681076
 20
10.6881966213
 30
0.0
 10
8.1683051429
 20
10.6882495384
 30
0.0
 10
8.1667721839
 20
10.688305577
 30
0.0
 10
8.1636830673
 20
10.6882173262
 30
0.0
 10
8.1597755431
 20
10.6877233778
 30
0.0
 10
8.1550837526
 20
10.6865295816
 30
0.0
 10
8.1512047754
 20
10.6850533256
 30
0.0
 10
8.148102509
 20
10.6835897863
 30
0.0
 10
8.1449105843
 20
10.6818863677
 30
0.0
 10
8.1409068921
 20
10.6793690495
 30
0.0
 10
8.1361627824
 20
10.6758041642
 30
0.0
 10
8.1330947269
 20
10.6731242597
 30
0.0
 10
8.1315597466
 20
10.6716956844
 30
0.0
  0
SPLINE
  5
39A
100
AcDbEntity
  8
0
100
AcDbSpline
 62
7
  6
CONTINUOUS
 70
0
 71
3
 72
47
 73
43
 74
0
 42
0.0000001
 43
0.0000001
 44
0.0000000001
 40
0.0
 40
0.0
 40
0.0
 40
0.0
 40
0.0313651975
 40
0.0629214076
 40
0.0946571889
 40
0.1265542558
 40
0.1585896673
 40
0.1907363592
 40
0.2229641769
 40
0.2552409467
 40
0.2875335101
 40
0.3198087242
 40
0.352034428
 40
0.3841803027
 40
0.4162186379
 40
0.4481250289
 40
0.479878981
 40
0.5114643958
 40
0.5428699874
 40
0.5740896121
 40
0.6051224839
 40
0.6359732883
 40
0.6666521829
 40
0.6971746564
 40
0.7275612385
 40
0.7578370489
 40
0.7729465266
 40
0.7880395122
 40
0.8031201184
 40
0.8181926051
 40
0.8332613189
 40
0.8483306773
 40
0.8634051345
 40
0.8784891146
 40
0.8935869998
 40
0.9087030854
 40
0.9238415143
 40
0.9390062705
 40
0.9542011279
 40
0.9694295932
 40
0.9846949084
 40
1.0
 40
1.0
 40
1.0
 40
1.0
 10
10.8529292654
 20
6.9890266232
 30
0.0
 10
10.8429480364
 20
6.9897188238
 30
0.0
 10
10.8229768167
 20
6.9920241655
 30
0.0
 10
10.7933762137
 20
6.9981750473
 30
0.0
 10
10.7642730561
 20
7.0069744179
 30
0.0
 10
10.7359109109
 20
7.0183427715
 30
0.0
 10
10.7085206166
 20
7.03217803
 30
0.0
 10
10.6823230929
 20
7.0483574471
 30
0.0
 10
10.6575260565
 20
7.0667395386
 30
0.0
 10
10.6343226361
 20
7.0871659545
 30
0.0
 10
10.6128901064
 20
7.1094637994
 30
0.0
 10
10.5933890689
 20
7.1334477809
 30
0.0
 10
10.5759627165
 20
7.1589221318
 30
0.0
 10
10.5607365415
 20
7.1856825858
 30
0.0
 10
10.547818307
 20
7.2135181746
 30
0.0
 10
10.5372980188
 20
7.2422127476
 30
0.0
 10
10.5292479521
 20
7.271546343
 30
0.0
 10
10.5237229523
 20
7.3012964736
 30
0.0
 10
10.5207605997
 20
7.3312391898
 30
0.0
 10
10.520381212
 20
7.3611500501
 30
0.0
 10
10.5225879363
 20
7.390805053
 30
0.0
 10
10.5273668296
 20
7.4199815732
 30
0.0
 10
10.5346866104
 20
7.4484591086
 30
0.0
 10
10.5444987911
 20
7.4760209128
 30
0.0
 10
10.5567359484
 20
7.5024528833
 30
0.0
 10
10.5688966389
 20
7.5233856852
 30
0.0
 10
10.5797383829
 20
7.5393501192
 30
0.0
 10
10.5884098676
 20
7.5509095948
 30
0.0
 10
10.5976098882
 20
7.5620373501
 30
0.0
 10
10.6073219542
 20
7.5727108224
 30
0.0
 10
10.6175280992
 20
7.5829078075
 30
0.0
 10
10.6282093281
 20
7.5926070009
 30
0.0
 10
10.6393456427
 20
7.6017877763
 30
0.0
 10
10.6509158433
 20
7.6104305648
 30
0.0
 10
10.6628977297
 20
7.6185167147
 30
0.0
 10
10.6752681495
 20
7.6260284895
 30
0.0
 10
10.6880028487
 20
7.6329494207
 30
0.0
 10
10.7010767008
 20
7.6392641138
 30
0.0
 10
10.7144636786
 20
7.6449582869
 30
0.0
 10
10.728136967
 20
7.6500191554
 30
0.0
 10
10.7420684928
 20
7.6544350422
 30
0.0
 10
10.7514976731
 20
7.6569389414
 30
0.0
 10
10.7562445265
 20
7.6580804594
 30
0.0
  0
SPLINE
  5
39B
100
AcDbEntity
  8
0
100
AcDbSpline
 62
7
  6
CONTINUOUS
 70
0
 71
3
 72
15
 73
11
 74
0
 42
0.0000001
 43
0.0000001
 44
0.0000000001
 40
0.0
 40
0.0
 40
0.0
 40
0.0
 40
0.127348315
 40
0.2538606239
 40
0.3795878599
 40
0.5046051181
 40
0.6290174391
 40
0.7529533757
 40
0.8765605793
 40
1.0
 40
1.0
 40
1.0
 40
1.0
 10
13.2155840391
 20
9.2780852715
 30
0.0
 10
13.2155840391
 20
9.2845836374
 30
0.0
 10
13.2162045046
 20
9.2975466932
 30
0.0
 10
13.2190104771
 20
9.3167419529
 30
0.0
 10
13.2236632574
 20
9.3354549097
 30
0.0
 10
13.2301208067
 20
9.3535105616
 30
0.0
 10
13.2383239205
 20
9.3707423853
 30
0.0
 10
13.2481977757
 20
9.3869912744
 30
0.0
 10
13.2596495298
 20
9.4021049923
 30
0.0
 10
13.2682721204
 20
9.4113373186
 30
0.0
 10
13.2728026305
 20
9.4157134633
 30
0.0
  0
SPLINE
  5
39C
100
AcDbEntity
  8
0
100
AcDbSpline
 62
7
  6
CONTINUOUS
 70
0
 71
3
 72
21
 73
17
 74
0
 42
0.0000001
 43
0.0000001
 44
0.0000000001
 40
0.0
 40
0.0
 40
0.0
 40
0.0
 40
0.0502184215
 40
0.1026142477
 40
0.1570913783
 40
0.2135462011
 40
0.2718683813
 40
0.3319414313
 40
0.3936432345
 40
0.4568466682
 40
0.5214201289
 40
0.5872279873
 40
0.6541309899
 40
0.7219867579
 40
0.8599714715
 40
1.0
 40
1.0
 40
1.0
 40
1.0
 10
11.7690153303
 20
9.0200830202
 30
0.0
 10
11.7701472588
 20
9.0144933589
 30
0.0
 10
11.7723162703
 20
9.0030421532
 30
0.0
 10
11.7752402872
 20
8.9854418049
 30
0.0
 10
11.7778989824
 20
8.9670835305
 30
0.0
 10
11.7802861142
 20
8.9480096564
 30
0.0
 10
11.7823961125
 20
8.9282639872
 30
0.0
 10
11.7842240319
 20
8.9078919524
 30
0.0
 10
11.7857656129
 20
8.8869404366
 30
0.0
 10
11.7870172548
 20
8.8654576798
 30
0.0
 10
11.7879760289
 20
8.8434931455
 30
0.0
 10
11.7886396667
 20
8.8210974277
 30
0.0
 10
11.7890066451
 20
8.7983220832
 30
0.0
 10
11.7890995978
 20
8.7673470029
 30
0.0
 10
11.7884620414
 20
8.7280688104
 30
0.0
 10
11.7871759507
 20
8.69651854
 30
0.0
 10
11.7863380255
 20
8.6806381107
 30
0.0
  0
SPLINE
  5
39D
100
AcDbEntity
  8
0
100
AcDbSpline
 62
7
  6
CONTINUOUS
 70
0
 71
3
 72
39
 73
35
 74
0
 42
0.0000001
 43
0.0000001
 44
0.0000000001
 40
0.0
 40
0.0
 40
0.0
 40
0.0
 40
0.0760185458
 40
0.1532632554
 40
0.2310390604
 40
0.3086436563
 40
0.3853769375
 40
0.42320137
 40
0.4605504649
 40
0.4973408779
 40
0.533490906
 40
0.5689207649
 40
0.6035528818
 40
0.6373121533
 40
0.6701262286
 40
0.7019258193
 40
0.7326450735
 40
0.7622219321
 40
0.790598514
 40
0.817721583
 40
0.8435431249
 40
0.868021063
 40
0.8911200625
 40
0.9128125786
 40
0.9231258585
 40
0.9330815931
 40
0.9426792004
 40
0.9519190187
 40
0.9608022954
 40
0.9693313294
 40
0.9775099463
 40
0.9853432204
 40
0.9928373695
 40
1.0
 40
1.0
 40
1.0
 40
1.0
 10
13.791553286
 20
8.9710036599
 30
0.0
 10
13.791553286
 20
8.9889669789
 30
0.0
 10
13.7920336411
 20
9.0251849119
 30
0.0
 10
13.7941297405
 20
9.0797448788
 30
0.0
 10
13.7975895912
 20
9.1346112491
 30
0.0
 10
13.8023800377
 20
9.1892558895
 30
0.0
 10
13.8074660969
 20
9.2343837718
 30
0.0
 10
13.8121743028
 20
9.2699703662
 30
0.0
 10
13.8159887238
 20
9.2961520557
 30
0.0
 10
13.8200938174
 20
9.3218891521
 30
0.0
 10
13.8244797144
 20
9.3471197426
 30
0.0
 10
13.8291358076
 20
9.3717830882
 30
0.0
 10
13.8340508323
 20
9.3958198482
 30
0.0
 10
13.8392128987
 20
9.4191722
 30
0.0
 10
13.8446095182
 20
9.4417839788
 30
0.0
 10
13.8502276397
 20
9.4636008207
 30
0.0
 10
13.8560536568
 20
9.4845703116
 30
0.0
 10
13.8620734542
 20
9.5046421202
 30
0.0
 10
13.8682724517
 20
9.5237681129
 30
0.0
 10
13.8746356422
 20
9.5419024907
 30
0.0
 10
13.8811476337
 20
9.5590018897
 30
0.0
 10
13.8877926799
 20
9.575025663
 30
0.0
 10
13.8945547486
 20
9.5899355167
 30
0.0
 10
13.9003676124
 20
9.6015916323
 30
0.0
 10
13.9050752072
 20
9.6103192522
 30
0.0
 10
13.9085654285
 20
9.6164541094
 30
0.0
 10
13.9120727425
 20
9.6222851629
 30
0.0
 10
13.9155950579
 20
9.6278089532
 30
0.0
 10
13.9191302332
 20
9.6330222099
 30
0.0
 10
13.9226762854
 20
9.6379218339
 30
0.0
 10
13.9262311169
 20
9.6425050284
 30
0.0
 10
13.9297927931
 20
9.6467690796
 30
0.0
 10
13.9333589761
 20
9.6507112298
 30
0.0
 10
13.9357921004
 20
9.6531780107
 30
0.0
 10
13.9370094693
 20
9.6543538988
 30
0.0
  0
SPLINE
  5
39E
100
AcDbEntity
  8
0
100
AcDbSpline
 62
7
  6
CONTINUOUS
 70
0
 71
3
 72
18
 73
14
 74
0
 42
0.0000001
 43
0.0000001
 44
0.0000000001
 40
0.0
 40
0.0
 40
0.0
 40
0.0
 40
0.150465277
 40
0.2917135888
 40
0.4244428697
 40
0.4879101177
 40
0.5496092744
 40
0.6682620957
 40
0.7817884661
 40
0.8371381947
 40
0.8918080597
 40
0.9460194495
 40
1.0
 40
1.0
 40
1.0
 40
1.0
 10
14.5294457746
 20
10.2266034605
 30
0.0
 10
14.531034547
 20
10.2281380968
 30
0.0
 10
14.5342099993
 20
10.2310175507
 30
0.0
 10
14.5391268136
 20
10.2348548527
 30
0.0
 10
14.5432799606
 20
10.2375687907
 30
0.0
 10
14.5465916914
 20
10.2394066011
 30
0.0
 10
14.5498059776
 20
10.2409844136
 30
0.0
 10
14.5538248877
 20
10.2425786933
 30
0.0
 10
14.5579152559
 20
10.2436667826
 30
0.0
 10
14.5611549833
 20
10.2442027283
 30
0.0
 10
14.5635560534
 20
10.2444406494
 30
0.0
 10
14.5659474142
 20
10.2445175447
 30
0.0
 10
14.5675361756
 20
10.2444613484
 30
0.0
 10
14.5683267421
 20
10.2444065277
 30
0.0
  0
SPLINE
  5
39F
100
AcDbEntity
  8
0
100
AcDbSpline
 62
7
  6
CONTINUOUS
 70
0
 71
3
 72
15
 73
11
 74
0
 42
0.0000001
 43
0.0000001
 44
0.0000000001
 40
0.0
 40
0.0
 40
0.0
 40
0.0
 40
0.127348315
 40
0.2538606239
 40
0.3795878599
 40
0.5046051181
 40
0.6290174391
 40
0.7529533757
 40
0.8765605793
 40
1.0
 40
1.0
 40
1.0
 40
1.0
 10
13.2155840391
 20
6.6198571498
 30
0.0
 10
13.2155840391
 20
6.6263555157
 30
0.0
 10
13.2162045046
 20
6.6393185715
 30
0.0
 10
13.2190104771
 20
6.6585138312
 30
0.0
 10
13.2236632574
 20
6.6772267879
 30
0.0
 10
13.2301208067
 20
6.6952824399
 30
0.0
 10
13.2383239205
 20
6.7125142636
 30
0.0
 10
13.2481977757
 20
6.7287631527
 30
0.0
 10
13.2596495298
 20
6.7438768706
 30
0.0
 10
13.2682721204
 20
6.7531091969
 30
0.0
 10
13.2728026305
 20
6.7574853415
 30
0.0
  0
SPLINE
  5
3A0
100
AcDbEntity
  8
0
100
AcDbSpline
 62
7
  6
CONTINUOUS
 70
0
 71
3
 72
28
 73
24
 74
0
 42
0.0000001
 43
0.0000001
 44
0.0000000001
 40
0.0
 40
0.0
 40
0.0
 40
0.0
 40
0.0755866975
 40
0.1466183099
 40
0.2134339436
 40
0.2764739714
 40
0.3362777568
 40
0.3934895668
 40
0.4213674672
 40
0.4488857431
 40
0.4761508838
 40
0.5032725981
 40
0.5303624663
 40
0.5575325387
 40
0.5848937538
 40
0.61255457
 40
0.6406197077
 40
0.6691888702
 40
0.7281861232
 40
0.7902480401
 40
0.8559432066
 40
0.9257365323
 40
1.0
 40
1.0
 40
1.0
 40
1.0
 10
14.7988866911
 20
7.6543272284
 30
0.0
 10
14.79662988
 20
7.6521473161
 30
0.0
 10
14.7921193386
 20
7.6480528054
 30
0.0
 10
14.785138765
 20
7.6425828811
 30
0.0
 10
14.7781665039
 20
7.6379888838
 30
0.0
 10
14.7712085703
 20
7.6342778111
 30
0.0
 10
14.7642717613
 20
7.6314562324
 30
0.0
 10
14.7584623036
 20
7.6298382549
 30
0.0
 10
14.7538589581
 20
7.6290104523
 30
0.0
 10
14.7504474961
 20
7.6286190428
 30
0.0
 10
14.7470491677
 20
7.6284521987
 30
0.0
 10
14.7436649576
 20
7.6285099285
 30
0.0
 10
14.7402960115
 20
7.6287923167
 30
0.0
 10
14.7369434449
 20
7.6292992707
 30
0.0
 10
14.7336083378
 20
7.6300305188
 30
0.0
 10
14.7302917741
 20
7.6309857617
 30
0.0
 10
14.7269947079
 20
7.6321647266
 30
0.0
 10
14.7225793905
 20
7.6340539892
 30
0.0
 10
14.717095733
 20
7.6370018202
 30
0.0
 10
14.7106876386
 20
7.641387463
 30
0.0
 10
14.7043851213
 20
7.6466518332
 30
0.0
 10
14.6981940045
 20
7.6527868281
 30
0.0
 10
14.6942701914
 20
7.6573071422
 30
0.0
 10
14.6923250598
 20
7.6596987924
 30
0.0
  0
SPLINE
  5
3A1
100
AcDbEntity
  8
0
100
AcDbSpline
 62
7
  6
CONTINUOUS
 70
0
 71
3
 72
15
 73
11
 74
0
 42
0.0000001
 43
0.0000001
 44
0.0000000001
 40
0.0
 40
0.0
 40
0.0
 40
0.0
 40
0.127347002
 40
0.2538611168
 40
0.379587791
 40
0.5046051628
 40
0.6290174373
 40
0.7529533687
 40
0.8765605638
 40
1.0
 40
1.0
 40
1.0
 40
1.0
 10
10.1767811672
 20
6.8305988447
 30
0.0
 10
10.1767811672
 20
6.8330011104
 30
0.0
 10
10.1770105535
 20
6.83779325
 30
0.0
 10
10.1780478414
 20
6.8448892802
 30
0.0
 10
10.1797679313
 20
6.8518070236
 30
0.0
 10
10.1821551774
 20
6.8584817399
 30
0.0
 10
10.185187733
 20
6.8648519065
 30
0.0
 10
10.1888379321
 20
6.8708586875
 30
0.0
 10
10.1930714489
 20
6.8764458125
 30
0.0
 10
10.1962590957
 20
6.8798587051
 30
0.0
 10
10.1979339314
 20
6.8814764466
 30
0.0
  0
SPLINE
  5
3A2
100
AcDbEntity
  8
0
100
AcDbSpline
 62
7
  6
CONTINUOUS
 70
0
 71
3
 72
39
 73
35
 74
0
 42
0.0000001
 43
0.0000001
 44
0.0000000001
 40
0.0
 40
0.0
 40
0.0
 40
0.0
 40
0.0760186195
 40
0.1532632405
 40
0.2310390569
 40
0.3086436598
 40
0.3853769321
 40
0.4232013715
 40
0.4605504742
 40
0.4973408756
 40
0.5334908927
 40
0.5689207641
 40
0.6035528972
 40
0.6373121552
 40
0.6701262104
 40
0.7019258119
 40
0.7326450908
 40
0.7622219393
 40
0.7905984982
 40
0.817721569
 40
0.8435431378
 40
0.868021072
 40
0.8911200544
 40
0.9128125623
 40
0.9231258565
 40
0.9330816035
 40
0.9426792017
 40
0.9519190239
 40
0.9608022671
 40
0.9693312983
 40
0.9775099587
 40
0.9853432821
 40
0.9928374322
 40
1.0
 40
1.0
 40
1.0
 40
1.0
 10
14.5240210824
 20
8.9285132633
 30
0.0
 10
14.5240210824
 20
8.9454857395
 30
0.0
 10
14.524474942
 20
8.9797058828
 30
0.0
 10
14.5264554175
 20
9.0312563135
 30
0.0
 10
14.5297244307
 20
9.0830962306
 30
0.0
 10
14.5342506191
 20
9.1347266684
 30
0.0
 10
14.5390561499
 20
9.1773652892
 30
0.0
 10
14.5435046392
 20
9.2109889247
 30
0.0
 10
14.5471086506
 20
9.23572643
 30
0.0
 10
14.5509873166
 20
9.2600438595
 30
0.0
 10
14.5551312925
 20
9.2838827238
 30
0.0
 10
14.5595305469
 20
9.3071856412
 30
0.0
 10
14.5641744497
 20
9.3298965353
 30
0.0
 10
14.5690517837
 20
9.3519607623
 30
0.0
 10
14.5741507336
 20
9.3733252648
 30
0.0
 10
14.5794589536
 20
9.3939386913
 30
0.0
 10
14.5849635955
 20
9.4137515112
 30
0.0
 10
14.590651346
 20
9.4327161523
 30
0.0
 10
14.5965084135
 20
9.4507871426
 30
0.0
 10
14.6025206101
 20
9.4679212265
 30
0.0
 10
14.6086733862
 20
9.4840774311
 30
0.0
 10
14.6149518951
 20
9.4992173306
 30
0.0
 10
14.6213409729
 20
9.5133047448
 30
0.0
 10
14.6268331987
 20
9.5243179043
 30
0.0
 10
14.6312811171
 20
9.5325641147
 30
0.0
 10
14.6345788152
 20
9.5383605782
 30
0.0
 10
14.637892681
 20
9.5438699822
 30
0.0
 10
14.6412206852
 20
9.5490890817
 30
0.0
 10
14.64456086
 20
9.5540147657
 30
0.0
 10
14.6479113123
 20
9.5586441269
 30
0.0
 10
14.6512700679
 20
9.5629745303
 30
0.0
 10
14.6546353054
 20
9.5670033831
 30
0.0
 10
14.6580047726
 20
9.570728084
 30
0.0
 10
14.6603036734
 20
9.5730587895
 30
0.0
 10
14.661453882
 20
9.5741698058
 30
0.0
  0
SPLINE
  5
3A3
100
AcDbEntity
  8
0
100
AcDbSpline
 62
7
  6
CONTINUOUS
 70
0
 71
3
 72
39
 73
35
 74
0
 42
0.0000001
 43
0.0000001
 44
0.0000000001
 40
0.0
 40
0.0
 40
0.0
 40
0.0
 40
0.0760185458
 40
0.1532632554
 40
0.2310390604
 40
0.3086436563
 40
0.3853769375
 40
0.42320137
 40
0.4605504649
 40
0.4973408779
 40
0.533490906
 40
0.5689207649
 40
0.6035528818
 40
0.6373121533
 40
0.6701262286
 40
0.7019258193
 40
0.7326450735
 40
0.7622219321
 40
0.790598514
 40
0.817721583
 40
0.8435431249
 40
0.868021063
 40
0.8911200625
 40
0.9128125786
 40
0.9231258585
 40
0.9330815931
 40
0.9426792004
 40
0.9519190187
 40
0.9608022954
 40
0.9693313294
 40
0.9775099463
 40
0.9853432204
 40
0.9928373695
 40
1.0
 40
1.0
 40
1.0
 40
1.0
 10
14.4860539963
 20
8.9228398721
 30
0.0
 10
14.4860539963
 20
8.9408031911
 30
0.0
 10
14.4865343513
 20
8.9770211241
 30
0.0
 10
14.4886304507
 20
9.0315810909
 30
0.0
 10
14.4920903015
 20
9.0864474613
 30
0.0
 10
14.496880748
 20
9.1410921017
 30
0.0
 10
14.5019668072
 20
9.1862199839
 30
0.0
 10
14.5066750131
 20
9.2218065784
 30
0.0
 10
14.5104894341
 20
9.2479882679
 30
0.0
 10
14.5145945276
 20
9.2737253642
 30
0.0
 10
14.5189804246
 20
9.2989559548
 30
0.0
 10
14.5236365178
 20
9.3236193004
 30
0.0
 10
14.5285515426
 20
9.3476560604
 30
0.0
 10
14.533713609
 20
9.3710084121
 30
0.0
 10
14.5391102285
 20
9.393620191
 30
0.0
 10
14.54472835
 20
9.4154370328
 30
0.0
 10
14.5505543671
 20
9.4364065237
 30
0.0
 10
14.5565741644
 20
9.4564783324
 30
0.0
 10
14.562773162
 20
9.475604325
 30
0.0
 10
14.5691363524
 20
9.4937387029
 30
0.0
 10
14.575648344
 20
9.5108381018
 30
0.0
 10
14.5822933902
 20
9.5268618751
 30
0.0
 10
14.5890554589
 20
9.5417717289
 30
0.0
 10
14.5948683226
 20
9.5534278444
 30
0.0
 10
14.5995759174
 20
9.5621554644
 30
0.0
 10
14.6030661387
 20
9.5682903216
 30
0.0
 10
14.6065734528
 20
9.5741213751
 30
0.0
 10
14.6100957681
 20
9.5796451654
 30
0.0
 10
14.6136309434
 20
9.5848584221
 30
0.0
 10
14.6171769957
 20
9.589758046
 30
0.0
 10
14.6207318272
 20
9.5943412406
 30
0.0
 10
14.6242935033
 20
9.5986052918
 30
0.0
 10
14.6278596864
 20
9.602547442
 30
0.0
 10
14.6302928107
 20
9.6050142228
 30
0.0
 10
14.6315101796
 20
9.606190111
 30
0.0
  0
SPLINE
  5
3A4
100
AcDbEntity
  8
0
100
AcDbSpline
 62
7
  6
CONTINUOUS
 70
0
 71
3
 72
23
 73
19
 74
0
 42
0.0000001
 43
0.0000001
 44
0.0000000001
 40
0.0
 40
0.0
 40
0.0
 40
0.0
 40
0.0755954479
 40
0.1466391714
 40
0.2134657403
 40
0.2765145402
 40
0.3363265376
 40
0.3935471486
 40
0.4489234403
 40
0.5032885643
 40
0.5575265067
 40
0.6125277807
 40
0.6691438784
 40
0.7281492575
 40
0.7902198463
 40
0.8559237775
 40
0.9257267722
 40
1.0
 40
1.0
 40
1.0
 40
1.0
 10
15.2538901873
 20
10.1464193674
 30
0.0
 10
15.2553659495
 20
10.1478448444
 30
0.0
 10
15.2583155629
 20
10.1505223491
 30
0.0
 10
15.2628803651
 20
10.1540993858
 30
0.0
 10
15.2674398602
 20
10.1571035847
 30
0.0
 10
15.2719897678
 20
10.1595304498
 30
0.0
 10
15.2765263486
 20
10.1613755028
 30
0.0
 10
15.2810448847
 20
10.1626343888
 30
0.0
 10
15.285539509
 20
10.1633024566
 30
0.0
 10
15.2900026852
 20
10.1633767639
 30
0.0
 10
15.294425846
 20
10.1628559744
 30
0.0
 10
15.2988004465
 20
10.1617418937
 30
0.0
 10
15.3031189997
 20
10.1600380345
 30
0.0
 10
15.3073758611
 20
10.1577495868
 30
0.0
 10
15.3115666188
 20
10.1548815952
 30
0.0
 10
15.3156880135
 20
10.1514392084
 30
0.0
 10
15.3197365767
 20
10.1474273567
 30
0.0
 10
15.3223025383
 20
10.1444714724
 30
0.0
 10
15.3235745176
 20
10.1429075196
 30
0.0
  0
SPLINE
  5
3A5
100
AcDbEntity
  8
0
100
AcDbSpline
 62
7
  6
CONTINUOUS
 70
0
 71
3
 72
18
 73
14
 74
0
 42
0.0000001
 43
0.0000001
 44
0.0000000001
 40
0.0
 40
0.0
 40
0.0
 40
0.0
 40
0.1504654776
 40
0.2917138659
 40
0.4244431221
 40
0.4879103299
 40
0.5496094336
 40
0.6682621302
 40
0.7817883943
 40
0.837138095
 40
0.8918079579
 40
0.9460193786
 40
1.0
 40
1.0
 40
1.0
 40
1.0
 10
15.2239464849
 20
10.1784396726
 30
0.0
 10
15.2255352766
 20
10.1799743276
 30
0.0
 10
15.2287107675
 20
10.1828538143
 30
0.0
 10
15.2336276436
 20
10.1866911533
 30
0.0
 10
15.2377808433
 20
10.1894051096
 30
0.0
 10
15.2410926158
 20
10.1912429259
 30
0.0
 10
15.2443069416
 20
10.1928207384
 30
0.0
 10
15.2483259017
 20
10.1944150089
 30
0.0
 10
15.2524163201
 20
10.1955030746
 30
0.0
 10
15.2556560861
 20
10.1960389931
 30
0.0
 10
15.258057185
 20
10.1962768899
 30
0.0
 10
15.2604485741
 20
10.1963537569
 30
0.0
 10
15.2620373535
 20
10.1962975389
 30
0.0
 10
15.2628279289
 20
10.1962427068
 30
0.0
  0
SPLINE
  5
3A6
100
AcDbEntity
  8
0
100
AcDbSpline
 62
7
  6
CONTINUOUS
 70
0
 71
3
 72
39
 73
35
 74
0
 42
0.0000001
 43
0.0000001
 44
0.0000000001
 40
0.0
 40
0.0
 40
0.0
 40
0.0
 40
0.031247528
 40
0.0626613404
 40
0.0942340199
 40
0.1259532001
 40
0.1578035088
 40
0.1897663736
 40
0.221820652
 40
0.2539431368
 40
0.2861091185
 40
0.3182929645
 40
0.3504687064
 40
0.3826106272
 40
0.4146938385
 40
0.446694836
 40
0.4785920271
 40
0.5103662236
 40
0.5420010908
 40
0.5734835468
 40
0.6048040991
 40
0.6359571118
 40
0.6669409953
 40
0.6977583085
 40
0.7284157674
 40
0.7589241508
 40
0.7892980965
 40
0.8195557881
 40
0.8497185352
 40
0.8798102506
 40
0.9098568386
 40
0.9398855084
 40
0.9699240362
 40
1.0
 40
1.0
 40
1.0
 40
1.0
 10
10.2521233861
 20
8.5761798345
 30
0.0
 10
10.2425440951
 20
8.5768441606
 30
0.0
 10
10.2233790236
 20
8.578938926
 30
0.0
 10
10.1948991493
 20
8.5843301154
 30
0.0
 10
10.1667798278
 20
8.5919443787
 30
0.0
 10
10.139200086
 20
8.6017326653
 30
0.0
 10
10.1123323553
 20
8.6136320506
 30
0.0
 10
10.0863449368
 20
8.6275663701
 30
0.0
 10
10.0613999699
 20
8.6434466561
 30
0.0
 10
10.0376526705
 20
8.6611718605
 30
0.0
 10
10.0152503189
 20
8.6806296035
 30
0.0
 10
9.9943314006
 20
8.7016969703
 30
0.0
 10
9.9750248053
 20
8.7242413675
 30
0.0
 10
9.9574491017
 20
8.7481214114
 30
0.0
 10
9.9417118707
 20
8.7731878422
 30
0.0
 10
9.9279091782
 20
8.7992845061
 30
0.0
 10
9.9161250892
 20
8.8262493183
 30
0.0
 10
9.9064312583
 20
8.8539152394
 30
0.0
 10
9.8988865955
 20
8.8821112591
 30
0.0
 10
9.893536959
 20
8.9106633704
 30
0.0
 10
9.8904149483
 20
8.939395562
 30
0.0
 10
9.8895397714
 20
8.9681308028
 30
0.0
 10
9.8909171399
 20
8.9966920191
 30
0.0
 10
9.8945392234
 20
9.0249030722
 30
0.0
 10
9.9003846592
 20
9.0525897371
 30
0.0
 10
9.9084185761
 20
9.0795806961
 30
0.0
 10
9.9185927538
 20
9.1057085232
 30
0.0
 10
9.9308458191
 20
9.1308106734
 30
0.0
 10
9.9451034843
 20
9.1547304602
 30
0.0
 10
9.9612789551
 20
9.1773180814
 30
0.0
 10
9.97927308
 20
9.1984314439
 30
0.0
 10
9.9989757898
 20
9.2179377326
 30
0.0
 10
10.020263217
 20
9.2357120937
 30
0.0
 10
10.0354148449
 20
9.2463254842
 30
0.0
 10
10.0432014472
 20
9.2513042952
 30
0.0
  0
SPLINE
  5
3A7
100
AcDbEntity
  8
0
100
AcDbSpline
 62
7
  6
CONTINUOUS
 70
0
 71
3
 72
31
 73
27
 74
0
 42
0.0000001
 43
0.0000001
 44
0.0000000001
 40
0.0
 40
0.0
 40
0.0
 40
0.0
 40
0.0157323405
 40
0.0325352857
 40
0.0504457888
 40
0.0694912012
 40
0.0896885147
 40
0.1110456379
 40
0.1335633954
 40
0.1572368957
 40
0.1820557147
 40
0.2080051893
 40
0.2350664623
 40
0.2632173099
 40
0.2924322953
 40
0.3226830711
 40
0.3539388479
 40
0.3861662421
 40
0.4533904268
 40
0.5240510537
 40
0.5978137245
 40
0.674320525
 40
0.7531935865
 40
0.8340383636
 40
0.9164467361
 40
1.0
 40
1.0
 40
1.0
 40
1.0
 10
10.6270084986
 20
10.6089354571
 30
0.0
 10
10.6283468626
 20
10.6102282175
 30
0.0
 10
10.6312173211
 20
10.6127967265
 30
0.0
 10
10.6359137535
 20
10.6164822562
 30
0.0
 10
10.6411328536
 20
10.6201194882
 30
0.0
 10
10.6468672611
 20
10.6237036036
 30
0.0
 10
10.653109606
 20
10.6272301786
 30
0.0
 10
10.6598516241
 20
10.6306945038
 30
0.0
 10
10.6670842828
 20
10.6340920045
 30
0.0
 10
10.6747978849
 20
10.6374180155
 30
0.0
 10
10.6829820008
 20
10.6406681016
 30
0.0
 10
10.6916255598
 20
10.6438377331
 30
0.0
 10
10.7007168026
 20
10.6469226228
 30
0.0
 10
10.7102433536
 20
10.6499184987
 30
0.0
 10
10.7201922171
 20
10.6528212378
 30
0.0
 10
10.7305497966
 20
10.655626862
 30
0.0
 10
10.7413019494
 20
10.6583314912
 30
0.0
 10
10.7563570444
 20
10.6618475337
 30
0.0
 10
10.7760588443
 20
10.6659466327
 30
0.0
 10
10.8007059425
 20
10.670341676
 30
0.0
 10
10.8265449216
 20
10.6742548159
 30
0.0
 10
10.8534342419
 20
10.6776643184
 30
0.0
 10
10.8812267695
 20
10.6805511844
 30
0.0
 10
10.9097702855
 20
10.6828993648
 30
0.0
 10
10.9389082313
 20
10.684695799
 30
0.0
 10
10.9585219827
 20
10.6855147083
 30
0.0
 10
10.9683992866
 20
10.6858315131
 30
0.0
  0
SPLINE
  5
3A8
100
AcDbEntity
  8
0
100
AcDbSpline
 62
7
  6
CONTINUOUS
 70
0
 71
3
 72
38
 73
34
 74
0
 42
0.0000001
 43
0.0000001
 44
0.0000000001
 40
0.0
 40
0.0
 40
0.0
 40
0.0
 40
0.0943082947
 40
0.1866634464
 40
0.2764068741
 40
0.362905373
 40
0.4047496816
 40
0.4455604807
 40
0.4852689348
 40
0.5238092316
 40
0.5611189642
 40
0.5971392448
 40
0.6318151781
 40
0.6650964
 40
0.6969373219
 40
0.7272978202
 40
0.7561441053
 40
0.7834493376
 40
0.8091948504
 40
0.8333717873
 40
0.8559827161
 40
0.8770442158
 40
0.8965903994
 40
0.9146770011
 40
0.9313870665
 40
0.9468380442
 40
0.9611891659
 40
0.9680194426
 40
0.9746570996
 40
0.9811360716
 40
0.9874931249
 40
0.993767469
 40
1.0
 40
1.0
 40
1.0
 40
1.0
 10
11.0836922416
 20
10.6852480122
 30
0.0
 10
11.0953261721
 20
10.6847546635
 30
0.0
 10
11.1183427888
 20
10.6835119476
 30
0.0
 10
11.1523706641
 20
10.6808516154
 30
0.0
 10
11.1853615286
 20
10.6774308757
 30
0.0
 10
11.2120646224
 20
10.6739317794
 30
0.0
 10
11.2327084519
 20
10.6707582426
 30
0.0
 10
11.2476049135
 20
10.6682325462
 30
0.0
 10
11.2620573813
 20
10.6655400295
 30
0.0
 10
11.2760379439
 20
10.6626858865
 30
0.0
 10
11.2895195933
 20
10.6596757166
 30
0.0
 10
11.3024763006
 20
10.6565153665
 30
0.0
 10
11.3148830705
 20
10.6532109794
 30
0.0
 10
11.3267160106
 20
10.6497690227
 30
0.0
 10
11.3379523579
 20
10.6461961821
 30
0.0
 10
11.3485705415
 20
10.6424993812
 30
0.0
 10
11.3585502588
 20
10.6386858239
 30
0.0
 10
11.3678724926
 20
10.634762862
 30
0.0
 10
11.3765195707
 20
10.6307379896
 30
0.0
 10
11.3844752597
 20
10.6266188765
 30
0.0
 10
11.3917247598
 20
10.6224131731
 30
0.0
 10
11.3982547282
 20
10.6181284382
 30
0.0
 10
11.4040533574
 20
10.6137720525
 30
0.0
 10
11.4091101421
 20
10.6093510199
 30
0.0
 10
11.4134157638
 20
10.6048713108
 30
0.0
 10
11.4169610573
 20
10.6003393615
 30
0.0
 10
11.4193124858
 20
10.5964593499
 30
0.0
 10
11.4207778043
 20
10.5933498675
 30
0.0
 10
11.4216635746
 20
10.5910492651
 30
0.0
 10
11.4223533472
 20
10.5887433176
 30
0.0
 10
11.4228464737
 20
10.586433106
 30
0.0
 10
11.4231425641
 20
10.5841202244
 30
0.0
 10
11.4232084807
 20
10.5825751861
 30
0.0
 10
11.4232084814
 20
10.5818056462
 30
0.0
  0
SPLINE
  5
3A9
100
AcDbEntity
  8
0
100
AcDbSpline
 62
7
  6
CONTINUOUS
 70
0
 71
3
 72
15
 73
11
 74
0
 42
0.0000001
 43
0.0000001
 44
0.0000000001
 40
0.0
 40
0.0
 40
0.0
 40
0.0
 40
0.127348315
 40
0.2538606239
 40
0.3795878599
 40
0.5046051181
 40
0.6290174391
 40
0.7529533757
 40
0.8765605793
 40
1.0
 40
1.0
 40
1.0
 40
1.0
 10
9.3518805051
 20
6.8878058999
 30
0.0
 10
9.3518805051
 20
6.8943042659
 30
0.0
 10
9.3525009705
 20
6.9072673216
 30
0.0
 10
9.355306943
 20
6.9264625814
 30
0.0
 10
9.3599597233
 20
6.9451755381
 30
0.0
 10
9.3664172726
 20
6.9632311901
 30
0.0
 10
9.3746203864
 20
6.9804630137
 30
0.0
 10
9.3844942416
 20
6.9967119029
 30
0.0
 10
9.3959459957
 20
7.0118256207
 30
0.0
 10
9.4045685864
 20
7.021057947
 30
0.0
 10
9.4090990964
 20
7.0254340917
 30
0.0
  0
SPLINE
  5
3AA
100
AcDbEntity
  8
0
100
AcDbSpline
 62
7
  6
CONTINUOUS
 70
0
 71
3
 72
39
 73
35
 74
0
 42
0.0000001
 43
0.0000001
 44
0.0000000001
 40
0.0
 40
0.0
 40
0.0
 40
0.0
 40
0.031247528
 40
0.0626613404
 40
0.0942340199
 40
0.1259532001
 40
0.1578035088
 40
0.1897663736
 40
0.221820652
 40
0.2539431368
 40
0.2861091185
 40
0.3182929645
 40
0.3504687064
 40
0.3826106272
 40
0.4146938385
 40
0.446694836
 40
0.4785920271
 40
0.5103662236
 40
0.5420010908
 40
0.5734835468
 40
0.6048040991
 40
0.6359571118
 40
0.6669409953
 40
0.6977583085
 40
0.7284157674
 40
0.7589241508
 40
0.7892980965
 40
0.8195557881
 40
0.8497185352
 40
0.8798102506
 40
0.9098568386
 40
0.9398855084
 40
0.9699240362
 40
1.0
 40
1.0
 40
1.0
 40
1.0
 10
11.4575987985
 20
8.4925798307
 30
0.0
 10
11.4480195075
 20
8.4932441568
 30
0.0
 10
11.428854436
 20
8.4953389222
 30
0.0
 10
11.4003745617
 20
8.5007301116
 30
0.0
 10
11.3722552401
 20
8.5083443749
 30
0.0
 10
11.3446754983
 20
8.5181326615
 30
0.0
 10
11.3178077677
 20
8.5300320468
 30
0.0
 10
11.2918203492
 20
8.5439663663
 30
0.0
 10
11.2668753823
 20
8.5598466523
 30
0.0
 10
11.2431280829
 20
8.5775718568
 30
0.0
 10
11.2207257312
 20
8.5970295997
 30
0.0
 10
11.199806813
 20
8.6180969666
 30
0.0
 10
11.1805002176
 20
8.6406413638
 30
0.0
 10
11.162924514
 20
8.6645214076
 30
0.0
 10
11.1471872831
 20
8.6895878384
 30
0.0
 10
11.1333845905
 20
8.7156845024
 30
0.0
 10
11.1216005015
 20
8.7426493145
 30
0.0
 10
11.1119066707
 20
8.7703152357
 30
0.0
 10
11.1043620079
 20
8.7985112553
 30
0.0
 10
11.0990123714
 20
8.8270633666
 30
0.0
 10
11.0958903606
 20
8.8557955582
 30
0.0
 10
11.0950151837
 20
8.884530799
 30
0.0
 10
11.0963925523
 20
8.9130920153
 30
0.0
 10
11.1000146358
 20
8.9413030684
 30
0.0
 10
11.1058600715
 20
8.9689897333
 30
0.0
 10
11.1138939885
 20
8.9959806923
 30
0.0
 10
11.1240681662
 20
9.0221085194
 30
0.0
 10
11.1363212314
 20
9.0472106696
 30
0.0
 10
11.1505788966
 20
9.0711304564
 30
0.0
 10
11.1667543675
 20
9.0937180776
 30
0.0
 10
11.1847484923
 20
9.1148314401
 30
0.0
 10
11.2044512021
 20
9.1343377288
 30
0.0
 10
11.2257386294
 20
9.1521120899
 30
0.0
 10
11.2408902572
 20
9.1627254804
 30
0.0
 10
11.2486768596
 20
9.1677042914
 30
0.0
  0
SPLINE
  5
3AB
100
AcDbEntity
  8
0
100
AcDbSpline
 62
7
  6
CONTINUOUS
 70
0
 71
3
 72
41
 73
37
 74
0
 42
0.0000001
 43
0.0000001
 44
0.0000000001
 40
0.0
 40
0.0
 40
0.0
 40
0.0
 40
0.0299421238
 40
0.0449237703
 40
0.059914519
 40
0.0899291762
 40
0.1200146048
 40
0.1350933663
 40
0.1501974853
 40
0.1804849834
 40
0.2108989722
 40
0.2414525913
 40
0.2721557558
 40
0.3030149766
 40
0.3340332647
 40
0.365210118
 40
0.396541585
 40
0.4280204007
 40
0.4596361866
 40
0.4913757084
 40
0.5232231826
 40
0.5551606251
 40
0.5871682346
 40
0.6192248024
 40
0.6513081434
 40
0.68339554
 40
0.7154641944
 40
0.7474916807
 40
0.7794563937
 40
0.8113379827
 40
0.8431177771
 40
0.8747791563
 40
0.9063079829
 40
0.9376927254
 40
0.9689252285
 40
1.0
 40
1.0
 40
1.0
 40
1.0
 10
9.7022826366
 20
9.3801372367
 30
0.0
 10
9.6987822173
 20
9.3767560851
 30
0.0
 10
9.6933252937
 20
9.3718891914
 30
0.0
 10
9.6856829294
 20
9.3658504963
 30
0.0
 10
9.6777972375
 20
9.3601122344
 30
0.0
 10
9.6675076602
 20
9.3535228917
 30
0.0
 10
9.6567178023
 20
9.3477590969
 30
0.0
 10
9.6478189571
 20
9.3436587267
 30
0.0
 10
9.6387362868
 20
9.3398968404
 30
0.0
 10
9.6270836257
 20
9.3358517421
 30
0.0
 10
9.6127234797
 20
9.3320817928
 30
0.0
 10
9.5980499855
 20
9.329411051
 30
0.0
 10
9.583144462
 20
9.3278542505
 30
0.0
 10
9.5680887888
 20
9.3274196998
 30
0.0
 10
9.552965807
 20
9.3281096104
 30
0.0
 10
9.5378586364
 20
9.329919997
 30
0.0
 10
9.5228502847
 20
9.3328407345
 30
0.0
 10
9.5080231799
 20
9.3368556131
 30
0.0
 10
9.4934587287
 20
9.3419424346
 30
0.0
 10
9.4792368741
 20
9.3480731377
 30
0.0
 10
9.4654356633
 20
9.355213954
 30
0.0
 10
9.4521308254
 20
9.3633255942
 30
0.0
 10
9.4393953613
 20
9.3723634639
 30
0.0
 10
9.4272991484
 20
9.3822779068
 30
0.0
 10
9.4159085613
 20
9.3930144758
 30
0.0
 10
9.4052861124
 20
9.4045142288
 30
0.0
 10
9.3954901117
 20
9.4167140499
 30
0.0
 10
9.3865743501
 20
9.4295469916
 30
0.0
 10
9.3785878078
 20
9.4429426382
 30
0.0
 10
9.3715743836
 20
9.4568274894
 30
0.0
 10
9.3655726648
 20
9.4711253501
 30
0.0
 10
9.3606156934
 20
9.4857577794
 30
0.0
 10
9.3567308326
 20
9.5006443748
 30
0.0
 10
9.3539395207
 20
9.5157037247
 30
0.0
 10
9.3522573016
 20
9.530851995
 30
0.0
 10
9.3518805051
 20
9.5409831871
 30
0.0
 10
9.3518805051
 20
9.5460340217
 30
0.0
  0
SPLINE
  5
3AC
100
AcDbEntity
  8
0
100
AcDbSpline
 62
7
  6
CONTINUOUS
 70
0
 71
3
 72
41
 73
37
 74
0
 42
0.0000001
 43
0.0000001
 44
0.0000000001
 40
0.0
 40
0.0
 40
0.0
 40
0.0
 40
0.0299421238
 40
0.0449237703
 40
0.059914519
 40
0.0899291762
 40
0.1200146048
 40
0.1350933663
 40
0.1501974853
 40
0.1804849834
 40
0.2108989722
 40
0.2414525913
 40
0.2721557558
 40
0.3030149766
 40
0.3340332647
 40
0.365210118
 40
0.396541585
 40
0.4280204007
 40
0.4596361866
 40
0.4913757084
 40
0.5232231826
 40
0.5551606251
 40
0.5871682346
 40
0.6192248024
 40
0.6513081434
 40
0.68339554
 40
0.7154641944
 40
0.7474916807
 40
0.7794563937
 40
0.8113379827
 40
0.8431177771
 40
0.8747791563
 40
0.9063079829
 40
0.9376927254
 40
0.9689252285
 40
1.0
 40
1.0
 40
1.0
 40
1.0
 10
13.5659861707
 20
9.1121884866
 30
0.0
 10
13.5624857514
 20
9.108807335
 30
0.0
 10
13.5570288278
 20
9.1039404412
 30
0.0
 10
13.5493864635
 20
9.0979017461
 30
0.0
 10
13.5415007716
 20
9.0921634843
 30
0.0
 10
13.5312111943
 20
9.0855741415
 30
0.0
 10
13.5204213364
 20
9.0798103468
 30
0.0
 10
13.5115224912
 20
9.0757099765
 30
0.0
 10
13.5024398209
 20
9.0719480902
 30
0.0
 10
13.4907871598
 20
9.0679029919
 30
0.0
 10
13.4764270138
 20
9.0641330426
 30
0.0
 10
13.4617535196
 20
9.0614623008
 30
0.0
 10
13.4468479961
 20
9.0599055004
 30
0.0
 10
13.4317923229
 20
9.0594709496
 30
0.0
 10
13.4166693411
 20
9.0601608602
 30
0.0
 10
13.4015621705
 20
9.0619712469
 30
0.0
 10
13.3865538188
 20
9.0648919844
 30
0.0
 10
13.371726714
 20
9.0689068629
 30
0.0
 10
13.3571622628
 20
9.0739936844
 30
0.0
 10
13.3429404082
 20
9.0801243875
 30
0.0
 10
13.3291391974
 20
9.0872652038
 30
0.0
 10
13.3158343594
 20
9.095376844
 30
0.0
 10
13.3030988954
 20
9.1044147137
 30
0.0
 10
13.2910026824
 20
9.1143291567
 30
0.0
 10
13.2796120954
 20
9.1250657256
 30
0.0
 10
13.2689896465
 20
9.1365654787
 30
0.0
 10
13.2591936458
 20
9.1487652998
 30
0.0
 10
13.2502778842
 20
9.1615982414
 30
0.0
 10
13.2422913418
 20
9.174993888
 30
0.0
 10
13.2352779177
 20
9.1888787392
 30
0.0
 10
13.2292761989
 20
9.2031766
 30
0.0
 10
13.2243192275
 20
9.2178090293
 30
0.0
 10
13.2204343667
 20
9.2326956246
 30
0.0
 10
13.2176430548
 20
9.2477549746
 30
0.0
 10
13.2159608357
 20
9.2629032449
 30
0.0
 10
13.2155840391
 20
9.2730344369
 30
0.0
 10
13.2155840391
 20
9.2780852715
 30
0.0
  0
SPLINE
  5
3AD
100
AcDbEntity
  8
0
100
AcDbSpline
 62
7
  6
CONTINUOUS
 70
0
 71
3
 72
41
 73
37
 74
0
 42
0.0000001
 43
0.0000001
 44
0.0000000001
 40
0.0
 40
0.0
 40
0.0
 40
0.0
 40
0.0299421238
 40
0.0449237703
 40
0.059914519
 40
0.0899291762
 40
0.1200146048
 40
0.1350933663
 40
0.1501974853
 40
0.1804849834
 40
0.2108989722
 40
0.2414525913
 40
0.2721557558
 40
0.3030149766
 40
0.3340332647
 40
0.365210118
 40
0.396541585
 40
0.4280204007
 40
0.4596361866
 40
0.4913757084
 40
0.5232231826
 40
0.5551606251
 40
0.5871682346
 40
0.6192248024
 40
0.6513081434
 40
0.68339554
 40
0.7154641944
 40
0.7474916807
 40
0.7794563937
 40
0.8113379827
 40
0.8431177771
 40
0.8747791563
 40
0.9063079829
 40
0.9376927254
 40
0.9689252285
 40
1.0
 40
1.0
 40
1.0
 40
1.0
 10
13.5659861707
 20
6.4539603648
 30
0.0
 10
13.5624857514
 20
6.4505792133
 30
0.0
 10
13.5570288278
 20
6.4457123195
 30
0.0
 10
13.5493864635
 20
6.4396736244
 30
0.0
 10
13.5415007716
 20
6.4339353625
 30
0.0
 10
13.5312111943
 20
6.4273460198
 30
0.0
 10
13.5204213364
 20
6.421582225
 30
0.0
 10
13.5115224912
 20
6.4174818548
 30
0.0
 10
13.5024398209
 20
6.4137199685
 30
0.0
 10
13.4907871598
 20
6.4096748702
 30
0.0
 10
13.4764270138
 20
6.4059049209
 30
0.0
 10
13.4617535196
 20
6.4032341791
 30
0.0
 10
13.4468479961
 20
6.4016773786
 30
0.0
 10
13.4317923229
 20
6.4012428279
 30
0.0
 10
13.4166693411
 20
6.4019327385
 30
0.0
 10
13.4015621705
 20
6.4037431251
 30
0.0
 10
13.3865538188
 20
6.4066638626
 30
0.0
 10
13.371726714
 20
6.4106787412
 30
0.0
 10
13.3571622628
 20
6.4157655627
 30
0.0
 10
13.3429404082
 20
6.4218962658
 30
0.0
 10
13.3291391974
 20
6.4290370821
 30
0.0
 10
13.3158343594
 20
6.4371487223
 30
0.0
 10
13.3030988954
 20
6.446186592
 30
0.0
 10
13.2910026824
 20
6.4561010349
 30
0.0
 10
13.2796120954
 20
6.4668376039
 30
0.0
 10
13.2689896465
 20
6.478337357
 30
0.0
 10
13.2591936458
 20
6.490537178
 30
0.0
 10
13.2502778842
 20
6.5033701197
 30
0.0
 10
13.2422913418
 20
6.5167657663
 30
0.0
 10
13.2352779177
 20
6.5306506175
 30
0.0
 10
13.2292761989
 20
6.5449484782
 30
0.0
 10
13.2243192275
 20
6.5595809075
 30
0.0
 10
13.2204343667
 20
6.5744675029
 30
0.0
 10
13.2176430548
 20
6.5895268529
 30
0.0
 10
13.2159608357
 20
6.6046751231
 30
0.0
 10
13.2155840391
 20
6.6148063152
 30
0.0
 10
13.2155840391
 20
6.6198571498
 30
0.0
  0
SPLINE
  5
3AE
100
AcDbEntity
  8
0
100
AcDbSpline
 62
7
  6
CONTINUOUS
 70
0
 71
3
 72
30
 73
26
 74
0
 42
0.0000001
 43
0.0000001
 44
0.0000000001
 40
0.0
 40
0.0
 40
0.0
 40
0.0
 40
0.0309036711
 40
0.0619642286
 40
0.0931702308
 40
0.124513467
 40
0.1559791053
 40
0.1875513621
 40
0.2192127627
 40
0.2509450888
 40
0.282729871
 40
0.3145487557
 40
0.3781932167
 40
0.4417804529
 40
0.4735296503
 40
0.5052254087
 40
0.568396383
 40
0.6312492684
 40
0.6625502751
 40
0.6937544987
 40
0.755840384
 40
0.8175070437
 40
0.8787486418
 40
0.9395725146
 40
1.0
 40
1.0
 40
1.0
 40
1.0
 10
12.4689231218
 20
8.5871473223
 30
0.0
 10
12.4662921564
 20
8.5873297803
 30
0.0
 10
12.4610284761
 20
8.5878922447
 30
0.0
 10
12.453199018
 20
8.5893152028
 30
0.0
 10
12.445456053
 20
8.5913087022
 30
0.0
 10
12.4378411847
 20
8.5938561519
 30
0.0
 10
12.4303925491
 20
8.5969371923
 30
0.0
 10
12.4231456007
 20
8.6005275203
 30
0.0
 10
12.4161322069
 20
8.6046000342
 30
0.0
 10
12.4093807325
 20
8.6091254667
 30
0.0
 10
12.4029156735
 20
8.614073505
 30
0.0
 10
12.3947070999
 20
8.6211913797
 30
0.0
 10
12.3852629479
 20
8.630986045
 30
0.0
 10
12.3769928236
 20
8.6417779598
 30
0.0
 10
12.3711172972
 20
8.6508937382
 30
0.0
 10
12.3657523112
 20
8.6602781481
 30
0.0
 10
12.3599957933
 20
8.6724727861
 30
0.0
 10
12.3555180471
 20
8.6851553814
 30
0.0
 10
12.3527202125
 20
8.6954849593
 30
0.0
 10
12.3504517593
 20
8.7058764314
 30
0.0
 10
12.3485907939
 20
8.718992275
 30
0.0
 10
12.3479250711
 20
8.7347906408
 30
0.0
 10
12.3488307123
 20
8.7504710255
 30
0.0
 10
12.3513069681
 20
8.7658730188
 30
0.0
 10
12.3540137186
 20
8.7758842581
 30
0.0
 10
12.3556280791
 20
8.7807818665
 30
0.0
  0
SPLINE
  5
3AF
100
AcDbEntity
  8
0
100
AcDbSpline
 62
7
  6
CONTINUOUS
 70
0
 71
3
 72
41
 73
37
 74
0
 42
0.0000001
 43
0.0000001
 44
0.0000000001
 40
0.0
 40
0.0
 40
0.0
 40
0.0
 40
0.0299421238
 40
0.0449237703
 40
0.059914519
 40
0.0899291762
 40
0.1200146048
 40
0.1350933663
 40
0.1501974853
 40
0.1804849834
 40
0.2108989722
 40
0.2414525913
 40
0.2721557558
 40
0.3030149766
 40
0.3340332647
 40
0.365210118
 40
0.396541585
 40
0.4280204007
 40
0.4596361866
 40
0.4913757084
 40
0.5232231826
 40
0.5551606251
 40
0.5871682346
 40
0.6192248024
 40
0.6513081434
 40
0.68339554
 40
0.7154641944
 40
0.7474916807
 40
0.7794563937
 40
0.8113379827
 40
0.8431177771
 40
0.8747791563
 40
0.9063079829
 40
0.9376927254
 40
0.9689252285
 40
1.0
 40
1.0
 40
1.0
 40
1.0
 10
9.7022826366
 20
6.721909115
 30
0.0
 10
9.6987822173
 20
6.7185279634
 30
0.0
 10
9.6933252937
 20
6.7136610696
 30
0.0
 10
9.6856829294
 20
6.7076223746
 30
0.0
 10
9.6777972375
 20
6.7018841127
 30
0.0
 10
9.6675076602
 20
6.69529477
 30
0.0
 10
9.6567178023
 20
6.6895309752
 30
0.0
 10
9.6478189571
 20
6.685430605
 30
0.0
 10
9.6387362868
 20
6.6816687187
 30
0.0
 10
9.6270836257
 20
6.6776236204
 30
0.0
 10
9.6127234797
 20
6.6738536711
 30
0.0
 10
9.5980499855
 20
6.6711829292
 30
0.0
 10
9.583144462
 20
6.6696261288
 30
0.0
 10
9.5680887888
 20
6.669191578
 30
0.0
 10
9.552965807
 20
6.6698814886
 30
0.0
 10
9.5378586364
 20
6.6716918753
 30
0.0
 10
9.5228502847
 20
6.6746126128
 30
0.0
 10
9.5080231799
 20
6.6786274914
 30
0.0
 10
9.4934587287
 20
6.6837143129
 30
0.0
 10
9.4792368741
 20
6.689845016
 30
0.0
 10
9.4654356633
 20
6.6969858322
 30
0.0
 10
9.4521308254
 20
6.7050974725
 30
0.0
 10
9.4393953613
 20
6.7141353422
 30
0.0
 10
9.4272991484
 20
6.7240497851
 30
0.0
 10
9.4159085613
 20
6.7347863541
 30
0.0
 10
9.4052861124
 20
6.7462861071
 30
0.0
 10
9.3954901117
 20
6.7584859282
 30
0.0
 10
9.3865743501
 20
6.7713188699
 30
0.0
 10
9.3785878078
 20
6.7847145164
 30
0.0
 10
9.3715743836
 20
6.7985993677
 30
0.0
 10
9.3655726648
 20
6.8128972284
 30
0.0
 10
9.3606156934
 20
6.8275296577
 30
0.0
 10
9.3567308326
 20
6.8424162531
 30
0.0
 10
9.3539395207
 20
6.857475603
 30
0.0
 10
9.3522573016
 20
6.8726238733
 30
0.0
 10
9.3518805051
 20
6.8827550653
 30
0.0
 10
9.3518805051
 20
6.8878058999
 30
0.0
  0
SPLINE
  5
3B0
100
AcDbEntity
  8
0
100
AcDbSpline
 62
7
  6
CONTINUOUS
 70
0
 71
3
 72
39
 73
35
 74
0
 42
0.0000001
 43
0.0000001
 44
0.0000000001
 40
0.0
 40
0.0
 40
0.0
 40
0.0
 40
0.0299424756
 40
0.0599093253
 40
0.0899243308
 40
0.1200101061
 40
0.1501875593
 40
0.1804754054
 40
0.2108897454
 40
0.2414437198
 40
0.2721472437
 40
0.3030068255
 40
0.3340254745
 40
0.3652026886
 40
0.3965345175
 40
0.4280136976
 40
0.4596298523
 40
0.4913697474
 40
0.5232175981
 40
0.5551554173
 40
0.5871634018
 40
0.6192203434
 40
0.6513040581
 40
0.68339183
 40
0.7154608619
 40
0.7474887274
 40
0.7794538181
 40
0.8113357796
 40
0.8431159521
 40
0.8747776664
 40
0.9063069638
 40
0.937691791
 40
0.9689252156
 40
1.0
 40
1.0
 40
1.0
 40
1.0
 10
10.9505415464
 20
9.4017343629
 30
0.0
 10
10.948210699
 20
9.3994829273
 30
0.0
 10
10.9433657401
 20
9.3951617378
 30
0.0
 10
10.9356033371
 20
9.389274898
 30
0.0
 10
10.9273856696
 20
9.3840124397
 30
0.0
 10
10.9187586508
 20
9.3794038865
 30
0.0
 10
10.9097697129
 20
9.3754744129
 30
0.0
 10
10.9004684633
 20
9.3722456195
 30
0.0
 10
10.8909061562
 20
9.3697351744
 30
0.0
 10
10.8811354719
 20
9.3679567872
 30
0.0
 10
10.8712102062
 20
9.3669201255
 30
0.0
 10
10.861184978
 20
9.3666307592
 30
0.0
 10
10.851114925
 20
9.3670901443
 30
0.0
 10
10.8410554011
 20
9.3682956272
 30
0.0
 10
10.8310616767
 20
9.3702404637
 30
0.0
 10
10.8211886383
 20
9.3729138612
 30
0.0
 10
10.8114904925
 20
9.376301041
 30
0.0
 10
10.8020204728
 20
9.3803833216
 30
0.0
 10
10.7928305533
 20
9.3851382231
 30
0.0
 10
10.7839711598
 20
9.3905395791
 30
0.0
 10
10.7754908999
 20
9.3965576903
 30
0.0
 10
10.7674363016
 20
9.4031594895
 30
0.0
 10
10.7598515607
 20
9.4103087213
 30
0.0
 10
10.7527783026
 20
9.4179661388
 30
0.0
 10
10.746255356
 20
9.4260897164
 30
0.0
 10
10.7403185425
 20
9.4346348778
 30
0.0
 10
10.7350004837
 20
9.4435547372
 30
0.0
 10
10.7303304042
 20
9.4528003482
 30
0.0
 10
10.7263340046
 20
9.4623209709
 30
0.0
 10
10.7230332547
 20
9.4720643792
 30
0.0
 10
10.7204464417
 20
9.4819770093
 30
0.0
 10
10.7185877137
 20
9.4920047215
 30
0.0
 10
10.7174676016
 20
9.5020916095
 30
0.0
 10
10.7172166788
 20
9.5088377621
 30
0.0
 10
10.7172166788
 20
9.5122009609
 30
0.0
  0
SPLINE
  5
3B1
100
AcDbEntity
  8
0
100
AcDbSpline
 62
7
  6
CONTINUOUS
 70
0
 71
3
 72
39
 73
35
 74
0
 42
0.0000001
 43
0.0000001
 44
0.0000000001
 40
0.0
 40
0.0
 40
0.0
 40
0.0
 40
0.0071626305
 40
0.0146567796
 40
0.0224900537
 40
0.0306686706
 40
0.0391977046
 40
0.0480809813
 40
0.0573207996
 40
0.0669184069
 40
0.0768741415
 40
0.0871874214
 40
0.1088799375
 40
0.131978937
 40
0.1564568751
 40
0.182278417
 40
0.209401486
 40
0.2377780679
 40
0.2673549265
 40
0.2980741807
 40
0.3298737714
 40
0.3626878467
 40
0.3964471182
 40
0.4310792351
 40
0.466509094
 40
0.5026591221
 40
0.5394495351
 40
0.57679863
 40
0.6146230625
 40
0.6913563437
 40
0.7689609396
 40
0.8467367446
 40
0.9239814542
 40
1.0
 40
1.0
 40
1.0
 40
1.0
 10
7.5377503583
 20
10.0981440255
 30
0.0
 10
7.5365329894
 20
10.0969681374
 30
0.0
 10
7.5340998652
 20
10.0945013565
 30
0.0
 10
7.5305336821
 20
10.0905592063
 30
0.0
 10
7.5269720059
 20
10.0862951551
 30
0.0
 10
7.5234171744
 20
10.0817119605
 30
0.0
 10
7.5198711222
 20
10.0768123366
 30
0.0
 10
7.5163359469
 20
10.0715990799
 30
0.0
 10
7.5128136316
 20
10.0660752896
 30
0.0
 10
7.5093063175
 20
10.0602442361
 30
0.0
 10
7.5058160962
 20
10.0541093789
 30
0.0
 10
7.5011085014
 20
10.045381759
 30
0.0
 10
7.4952956376
 20
10.0337256434
 30
0.0
 10
7.488533569
 20
10.0188157896
 30
0.0
 10
7.4818885227
 20
10.0027920163
 30
0.0
 10
7.4753765312
 20
9.9856926174
 30
0.0
 10
7.4690133407
 20
9.9675582395
 30
0.0
 10
7.4628143432
 20
9.9484322469
 30
0.0
 10
7.4567945459
 20
9.9283604382
 30
0.0
 10
7.4509685287
 20
9.9073909473
 30
0.0
 10
7.4453504072
 20
9.8855741055
 30
0.0
 10
7.4399537877
 20
9.8629623266
 30
0.0
 10
7.4347917213
 20
9.8396099749
 30
0.0
 10
7.4298766966
 20
9.8155732149
 30
0.0
 10
7.4252206034
 20
9.7909098693
 30
0.0
 10
7.4208347064
 20
9.7656792787
 30
0.0
 10
7.4167296128
 20
9.7399421824
 30
0.0
 10
7.4129151919
 20
9.7137604929
 30
0.0
 10
7.4082069859
 20
9.6781738984
 30
0.0
 10
7.4031209267
 20
9.6330460162
 30
0.0
 10
7.3983304802
 20
9.5784013758
 30
0.0
 10
7.3948706295
 20
9.5235350054
 30
0.0
 10
7.3927745301
 20
9.4689750386
 30
0.0
 10
7.392294175
 20
9.4327571056
 30
0.0
 10
7.392294175
 20
9.4147937866
 30
0.0
  0
SPLINE
  5
3B2
100
AcDbEntity
  8
0
100
AcDbSpline
 62
7
  6
CONTINUOUS
 70
0
 71
3
 72
39
 73
35
 74
0
 42
0.0000001
 43
0.0000001
 44
0.0000000001
 40
0.0
 40
0.0
 40
0.0
 40
0.0
 40
0.0299424756
 40
0.0599093253
 40
0.0899243308
 40
0.1200101061
 40
0.1501875593
 40
0.1804754054
 40
0.2108897454
 40
0.2414437198
 40
0.2721472437
 40
0.3030068255
 40
0.3340254745
 40
0.3652026886
 40
0.3965345175
 40
0.4280136976
 40
0.4596298523
 40
0.4913697474
 40
0.5232175981
 40
0.5551554173
 40
0.5871634018
 40
0.6192203434
 40
0.6513040581
 40
0.68339183
 40
0.7154608619
 40
0.7474887274
 40
0.7794538181
 40
0.8113357796
 40
0.8431159521
 40
0.8747776664
 40
0.9063069638
 40
0.937691791
 40
0.9689252156
 40
1.0
 40
1.0
 40
1.0
 40
1.0
 10
11.5552110795
 20
6.5798656465
 30
0.0
 10
11.5528802321
 20
6.5776142109
 30
0.0
 10
11.5480352732
 20
6.5732930215
 30
0.0
 10
11.5402728702
 20
6.5674061817
 30
0.0
 10
11.5320552027
 20
6.5621437233
 30
0.0
 10
11.5234281839
 20
6.5575351702
 30
0.0
 10
11.514439246
 20
6.5536056965
 30
0.0
 10
11.5051379964
 20
6.5503769032
 30
0.0
 10
11.4955756893
 20
6.547866458
 30
0.0
 10
11.485805005
 20
6.5460880709
 30
0.0
 10
11.4758797392
 20
6.5450514091
 30
0.0
 10
11.4658545111
 20
6.5447620428
 30
0.0
 10
11.455784458
 20
6.5452214279
 30
0.0
 10
11.4457249342
 20
6.5464269108
 30
0.0
 10
11.4357312098
 20
6.5483717473
 30
0.0
 10
11.4258581713
 20
6.5510451448
 30
0.0
 10
11.4161600255
 20
6.5544323247
 30
0.0
 10
11.4066900059
 20
6.5585146052
 30
0.0
 10
11.3975000863
 20
6.5632695068
 30
0.0
 10
11.3886406929
 20
6.5686708628
 30
0.0
 10
11.380160433
 20
6.5746889739
 30
0.0
 10
11.3721058346
 20
6.5812907731
 30
0.0
 10
11.3645210938
 20
6.5884400049
 30
0.0
 10
11.3574478357
 20
6.5960974224
 30
0.0
 10
11.3509248891
 20
6.604221
 30
0.0
 10
11.3449880756
 20
6.6127661614
 30
0.0
 10
11.3396700168
 20
6.6216860208
 30
0.0
 10
11.3349999373
 20
6.6309316319
 30
0.0
 10
11.3310035377
 20
6.6404522545
 30
0.0
 10
11.3277027878
 20
6.6501956628
 30
0.0
 10
11.3251159747
 20
6.6601082929
 30
0.0
 10
11.3232572468
 20
6.6701360052
 30
0.0
 10
11.3221371346
 20
6.6802228931
 30
0.0
 10
11.3218862118
 20
6.6869690457
 30
0.0
 10
11.3218862118
 20
6.6903322445
 30
0.0
  0
SPLINE
  5
3B3
100
AcDbEntity
  8
0
100
AcDbSpline
 62
7
  6
CONTINUOUS
 70
0
 71
3
 72
40
 73
36
 74
0
 42
0.0000001
 43
0.0000001
 44
0.0000000001
 40
0.0
 40
0.0
 40
0.0
 40
0.0
 40
0.0312468615
 40
0.0626611819
 40
0.0942333487
 40
0.1259524379
 40
0.1578025067
 40
0.1897651731
 40
0.2218192387
 40
0.2539415139
 40
0.286107285
 40
0.31829092
 40
0.3504664496
 40
0.3826081561
 40
0.4146911499
 40
0.4466919264
 40
0.4785888937
 40
0.5103628653
 40
0.5419975091
 40
0.5734797442
 40
0.6048000782
 40
0.6359528746
 40
0.666936543
 40
0.6977536419
 40
0.7284108873
 40
0.7589190579
 40
0.7892927913
 40
0.8195502719
 40
0.8497128097
 40
0.8798043185
 40
0.9098507028
 40
0.9398791725
 40
0.9548987354
 40
0.9699242297
 40
1.0
 40
1.0
 40
1.0
 40
1.0
 10
12.9064876238
 20
7.0030540553
 30
0.0
 10
12.9032945738
 20
7.0032754941
 30
0.0
 10
12.8969061945
 20
7.0039737749
 30
0.0
 10
12.8874128965
 20
7.005770781
 30
0.0
 10
12.8780397507
 20
7.0083089355
 30
0.0
 10
12.8688465181
 20
7.01157167
 30
0.0
 10
12.8598906068
 20
7.0155381564
 30
0.0
 10
12.8512281334
 20
7.020182923
 30
0.0
 10
12.8429131415
 20
7.02547635
 30
0.0
 10
12.8349973714
 20
7.0313847469
 30
0.0
 10
12.8275299191
 20
7.0378706601
 30
0.0
 10
12.8205569467
 20
7.0448931164
 30
0.0
 10
12.8141214167
 20
7.0524079169
 30
0.0
 10
12.8082628504
 20
7.0603679316
 30
0.0
 10
12.8030171107
 20
7.0687234089
 30
0.0
 10
12.79841622
 20
7.0774222971
 30
0.0
 10
12.7944881988
 20
7.0864105672
 30
0.0
 10
12.7912569292
 20
7.0956325386
 30
0.0
 10
12.7887420415
 20
7.105031207
 30
0.0
 10
12.7869588227
 20
7.1145485719
 30
0.0
 10
12.7859181454
 20
7.1241259647
 30
0.0
 10
12.7856264152
 20
7.1337043748
 30
0.0
 10
12.786085538
 20
7.143224777
 30
0.0
 10
12.7872929038
 20
7.1526284574
 30
0.0
 10
12.7892413833
 20
7.1618573418
 30
0.0
 10
12.7919193554
 20
7.1708543247
 30
0.0
 10
12.7953107473
 20
7.1795635958
 30
0.0
 10
12.7993951059
 20
7.1879309778
 30
0.0
 10
12.8041476495
 20
7.1959042264
 30
0.0
 10
12.8095395092
 20
7.2034334718
 30
0.0
 10
12.8155373876
 20
7.2104711238
 30
0.0
 10
12.8210108387
 20
7.215889991
 30
0.0
 10
12.8256510466
 20
7.21993409
 30
0.0
 10
12.8304616097
 20
7.2237812038
 30
0.0
 10
12.8342514214
 20
7.2264359252
 30
0.0
 10
12.8368469551
 20
7.2280955304
 30
0.0
  0
SPLINE
  5
3B4
100
AcDbEntity
  8
0
100
AcDbSpline
 62
7
  6
CONTINUOUS
 70
0
 71
3
 72
34
 73
30
 74
0
 42
0.0000001
 43
0.0000001
 44
0.0000000001
 40
0.0
 40
0.0
 40
0.0
 40
0.0
 40
0.029948265
 40
0.059920911
 40
0.0899417355
 40
0.1200333579
 40
0.1502166746
 40
0.1805103996
 40
0.2109306468
 40
0.241490565
 40
0.2722000568
 40
0.303065626
 40
0.3340902961
 40
0.3652735746
 40
0.3966114954
 40
0.4280967817
 40
0.4597190652
 40
0.4914651189
 40
0.5552240134
 40
0.6192627273
 40
0.6834082032
 40
0.7474789322
 40
0.8112993139
 40
0.8430855846
 40
0.8747534858
 40
0.9062889405
 40
0.9376793031
 40
0.9689201346
 40
1.0
 40
1.0
 40
1.0
 40
1.0
 10
12.5231125869
 20
9.2737637788
 30
0.0
 10
12.5218185911
 20
9.2725138947
 30
0.0
 10
12.519128807
 20
9.2701150473
 30
0.0
 10
12.514819416
 20
9.2668470018
 30
0.0
 10
12.5102572851
 20
9.2639255839
 30
0.0
 10
12.5054678958
 20
9.2613672046
 30
0.0
 10
12.500477587
 20
9.2591858353
 30
0.0
 10
12.4953139122
 20
9.2573934368
 30
0.0
 10
12.4900053203
 20
9.2559998163
 30
0.0
 10
12.484581048
 20
9.2550126194
 30
0.0
 10
12.4790709655
 20
9.2544372049
 30
0.0
 10
12.4735053979
 20
9.2542766316
 30
0.0
 10
12.4679149475
 20
9.2545317117
 30
0.0
 10
12.4623303508
 20
9.2552010039
 30
0.0
 10
12.4567822754
 20
9.256280782
 30
0.0
 10
12.4513012656
 20
9.257764965
 30
0.0
 10
12.4459171097
 20
9.2596455414
 30
0.0
 10
12.4388992301
 20
9.2626706372
 30
0.0
 10
12.4305179642
 20
9.2673897049
 30
0.0
 10
12.4213247339
 20
9.274408931
 30
0.0
 10
12.4131734398
 20
9.2826432802
 30
0.0
 10
12.4062436333
 20
9.2919110486
 30
0.0
 10
12.4016035972
 20
9.3003453731
 30
0.0
 10
12.3986425004
 20
9.3074000628
 30
0.0
 10
12.3968099514
 20
9.3128093659
 30
0.0
 10
12.3953739475
 20
9.3183123548
 30
0.0
 10
12.394342024
 20
9.3238793587
 30
0.0
 10
12.3937202491
 20
9.329479149
 30
0.0
 10
12.3935809133
 20
9.3332243388
 30
0.0
 10
12.3935809133
 20
9.3350913819
 30
0.0
  0
SPLINE
  5
3B5
100
AcDbEntity
  8
0
100
AcDbSpline
 62
7
  6
CONTINUOUS
 70
0
 71
3
 72
31
 73
27
 74
0
 42
0.0000001
 43
0.0000001
 44
0.0000000001
 40
0.0
 40
0.0
 40
0.0
 40
0.0
 40
0.0851788813
 40
0.1685809389
 40
0.249883622
 40
0.3287745949
 40
0.4049551209
 40
0.4781414285
 40
0.5480672398
 40
0.6144862131
 40
0.6463108357
 40
0.6771770133
 40
0.7070610423
 40
0.7359410463
 40
0.7637973898
 40
0.7906125804
 40
0.8163718673
 40
0.8410631119
 40
0.8646776016
 40
0.887209952
 40
0.9086591826
 40
0.9290287577
 40
0.948327997
 40
0.9665724178
 40
0.9837855919
 40
1.0
 40
1.0
 40
1.0
 40
1.0
 10
7.392294175
 20
7.3013479534
 30
0.0
 10
7.392294175
 20
7.2897035425
 30
0.0
 10
7.3924925984
 20
7.2666570607
 30
0.0
 10
7.3934026708
 20
7.2325069005
 30
0.0
 10
7.3949184139
 20
7.1992384612
 30
0.0
 10
7.3970332601
 20
7.1669918355
 30
0.0
 10
7.399738049
 20
7.1359026838
 30
0.0
 10
7.403021077
 20
7.1061016003
 30
0.0
 10
7.406868236
 20
7.0777139551
 30
0.0
 10
7.4105812116
 20
7.0550224393
 30
0.0
 10
7.4138374324
 20
7.0376747417
 30
0.0
 10
7.4163751479
 20
7.0252756841
 30
0.0
 10
7.4190404404
 20
7.013315476
 30
0.0
 10
7.4218305645
 20
7.001806656
 30
0.0
 10
7.4247425052
 20
6.9907612967
 30
0.0
 10
7.4277732455
 20
6.9801909699
 30
0.0
 10
7.4309195105
 20
6.9701067223
 30
0.0
 10
7.4341780692
 20
6.9605190869
 30
0.0
 10
7.4375454029
 20
6.9514380263
 30
0.0
 10
7.441018102
 20
6.9428729785
 30
0.0
 10
7.4445924438
 20
6.9348327615
 30
0.0
 10
7.4482648976
 20
6.9273256615
 30
0.0
 10
7.4520315919
 20
6.9203593219
 30
0.0
 10
7.4558890305
 20
6.9139407652
 30
0.0
 10
7.4598330987
 20
6.908076721
 30
0.0
 10
7.4625987493
 20
6.9044346328
 30
0.0
 10
7.4639973504
 20
6.902714977
 30
0.0
  0
SPLINE
  5
3B6
100
AcDbEntity
  8
0
100
AcDbSpline
 62
7
  6
CONTINUOUS
 70
0
 71
3
 72
34
 73
30
 74
0
 42
0.0000001
 43
0.0000001
 44
0.0000000001
 40
0.0
 40
0.0
 40
0.0
 40
0.0
 40
0.029948265
 40
0.059920911
 40
0.0899417355
 40
0.1200333579
 40
0.1502166746
 40
0.1805103996
 40
0.2109306468
 40
0.241490565
 40
0.2722000568
 40
0.303065626
 40
0.3340902961
 40
0.3652735746
 40
0.3966114954
 40
0.4280967817
 40
0.4597190652
 40
0.4914651189
 40
0.5552240134
 40
0.6192627273
 40
0.6834082032
 40
0.7474789322
 40
0.8112993139
 40
0.8430855846
 40
0.8747534858
 40
0.9062889405
 40
0.9376793031
 40
0.9689201346
 40
1.0
 40
1.0
 40
1.0
 40
1.0
 10
10.3063128408
 20
6.7692712416
 30
0.0
 10
10.3050188451
 20
6.7680213575
 30
0.0
 10
10.3023290609
 20
6.7656225101
 30
0.0
 10
10.2980196699
 20
6.7623544646
 30
0.0
 10
10.293457539
 20
6.7594330467
 30
0.0
 10
10.2886681497
 20
6.7568746674
 30
0.0
 10
10.2836778409
 20
6.7546932981
 30
0.0
 10
10.2785141661
 20
6.7529008996
 30
0.0
 10
10.2732055742
 20
6.7515072792
 30
0.0
 10
10.2677813019
 20
6.7505200822
 30
0.0
 10
10.2622712195
 20
6.7499446677
 30
0.0
 10
10.2567056518
 20
6.7497840944
 30
0.0
 10
10.2511152014
 20
6.7500391745
 30
0.0
 10
10.2455306047
 20
6.7507084667
 30
0.0
 10
10.2399825293
 20
6.7517882448
 30
0.0
 10
10.2345015196
 20
6.7532724278
 30
0.0
 10
10.2291173636
 20
6.7551530042
 30
0.0
 10
10.2220994841
 20
6.7581781
 30
0.0
 10
10.2137182181
 20
6.7628971677
 30
0.0
 10
10.2045249878
 20
6.7699163938
 30
0.0
 10
10.1963736937
 20
6.778150743
 30
0.0
 10
10.1894438872
 20
6.7874185114
 30
0.0
 10
10.1848038511
 20
6.7958528359
 30
0.0
 10
10.1818427543
 20
6.8029075256
 30
0.0
 10
10.1800102053
 20
6.8083168287
 30
0.0
 10
10.1785742014
 20
6.8138198176
 30
0.0
 10
10.1775422779
 20
6.8193868215
 30
0.0
 10
10.176920503
 20
6.8249866119
 30
0.0
 10
10.1767811672
 20
6.8287318016
 30
0.0
 10
10.1767811672
 20
6.8305988447
 30
0.0
  0
SPLINE
  5
3B7
100
AcDbEntity
  8
0
100
AcDbSpline
 62
7
  6
CONTINUOUS
 70
0
 71
3
 72
15
 73
11
 74
0
 42
0.0000001
 43
0.0000001
 44
0.0000000001
 40
0.0
 40
0.0
 40
0.0
 40
0.0
 40
0.1232692279
 40
0.246889244
 40
0.3709474498
 40
0.4955201723
 40
0.6206706404
 40
0.7464482099
 40
0.8728846911
 40
1.0
 40
1.0
 40
1.0
 40
1.0
 10
10.461045325
 20
8.6282670464
 30
0.0
 10
10.4534651526
 20
8.6234202282
 30
0.0
 10
10.4378771324
 20
8.6143319211
 30
0.0
 10
10.4134268698
 20
8.6026365625
 30
0.0
 10
10.3880182138
 20
8.5929283518
 30
0.0
 10
10.3618036689
 20
8.5852672626
 30
0.0
 10
10.3349384011
 20
8.5796992542
 30
0.0
 10
10.3075817372
 20
8.5762582256
 30
0.0
 10
10.2798984017
 20
8.5749646295
 30
0.0
 10
10.2613791341
 20
8.5755379462
 30
0.0
 10
10.2521233861
 20
8.5761798345
 30
0.0
  0
SPLINE
  5
3B8
100
AcDbEntity
  8
0
100
AcDbSpline
 62
7
  6
CONTINUOUS
 70
0
 71
3
 72
15
 73
11
 74
0
 42
0.0000001
 43
0.0000001
 44
0.0000000001
 40
0.0
 40
0.0
 40
0.0
 40
0.0
 40
0.1232692279
 40
0.246889244
 40
0.3709474498
 40
0.4955201723
 40
0.6206706404
 40
0.7464482099
 40
0.8728846911
 40
1.0
 40
1.0
 40
1.0
 40
1.0
 10
11.6665207374
 20
8.5446670426
 30
0.0
 10
11.658940565
 20
8.5398202244
 30
0.0
 10
11.6433525448
 20
8.5307319173
 30
0.0
 10
11.6189022821
 20
8.5190365587
 30
0.0
 10
11.5934936261
 20
8.509328348
 30
0.0
 10
11.5672790812
 20
8.5016672588
 30
0.0
 10
11.5404138135
 20
8.4960992504
 30
0.0
 10
11.5130571496
 20
8.4926582218
 30
0.0
 10
11.4853738141
 20
8.4913646257
 30
0.0
 10
11.4668545464
 20
8.4919379424
 30
0.0
 10
11.4575987985
 20
8.4925798307
 30
0.0
  0
SPLINE
  5
3B9
100
AcDbEntity
  8
0
100
AcDbSpline
 62
7
  6
CONTINUOUS
 70
0
 71
3
 72
27
 73
23
 74
0
 42
0.0000001
 43
0.0000001
 44
0.0000000001
 40
0.0
 40
0.0
 40
0.0
 40
0.0
 40
0.0611221834
 40
0.0917640487
 40
0.1224581715
 40
0.1839969352
 40
0.245753738
 40
0.2767192036
 40
0.3077389671
 40
0.3699286664
 40
0.4323243197
 40
0.4949132966
 40
0.5576790872
 40
0.6206016658
 40
0.6836579084
 40
0.7152329036
 40
0.7468314834
 40
0.8100756967
 40
0.8733707661
 40
0.9050320142
 40
0.9366949928
 40
1.0
 40
1.0
 40
1.0
 40
1.0
 10
11.420875861
 20
9.2203484467
 30
0.0
 10
11.4169609145
 20
9.2125804159
 30
0.0
 10
11.4115123438
 20
9.2006944952
 30
0.0
 10
11.4051312412
 20
9.1844737354
 30
0.0
 10
11.3993276188
 20
9.1679737504
 30
0.0
 10
11.3931920027
 20
9.146913302
 30
0.0
 10
11.3885884435
 20
9.1254265548
 30
0.0
 10
11.3858310943
 20
9.1080296746
 30
0.0
 10
11.3836909411
 20
9.0904841044
 30
0.0
 10
11.3821895588
 20
9.0683692231
 30
0.0
 10
11.3822730037
 20
9.0417093754
 30
0.0
 10
11.3842388899
 20
9.0150393416
 30
0.0
 10
11.3880770387
 20
8.9884982466
 30
0.0
 10
11.3937670694
 20
8.9622243796
 30
0.0
 10
11.4000255723
 20
8.9406724764
 30
0.0
 10
11.4059226498
 20
8.9236999021
 30
0.0
 10
11.4124110379
 20
8.906915695
 30
0.0
 10
11.4216068933
 20
8.8863535383
 30
0.0
 10
11.4321974477
 20
8.8664638124
 30
0.0
 10
11.4414756538
 20
8.8510119416
 30
0.0
 10
11.4512788443
 20
8.8358868782
 30
0.0
 10
11.4592120194
 20
8.8249271043
 30
0.0
 10
11.4647423177
 20
8.8178147152
 30
0.0
  0
SPLINE
  5
3BA
100
AcDbEntity
  8
0
100
AcDbSpline
 62
7
  6
CONTINUOUS
 70
0
 71
3
 72
11
 73
7
 74
0
 42
0.0000001
 43
0.0000001
 44
0.0000000001
 40
0.0
 40
0.0
 40
0.0
 40
0.0
 40
0.2481239195
 40
0.497462698
 40
0.7480758903
 40
1.0
 40
1.0
 40
1.0
 40
1.0
 10
10.9496140043
 20
6.9969681056
 30
0.0
 10
10.9417843942
 20
6.9950852498
 30
0.0
 10
10.9259333624
 20
6.9919195753
 30
0.0
 10
10.9018067765
 20
6.9890082425
 30
0.0
 10
10.8774054098
 20
6.9879400604
 30
0.0
 10
10.8610858311
 20
6.9884609635
 30
0.0
 10
10.8529292654
 20
6.9890266232
 30
0.0
  0
SPLINE
  5
3BB
100
AcDbEntity
  8
0
100
AcDbSpline
 62
7
  6
CONTINUOUS
 70
0
 71
3
 72
16
 73
12
 74
0
 42
0.0000001
 43
0.0000001
 44
0.0000000001
 40
0.0
 40
0.0
 40
0.0
 40
0.0
 40
0.1098864251
 40
0.2213925505
 40
0.3360632443
 40
0.4553048854
 40
0.5170524264
 40
0.5803907344
 40
0.7123015689
 40
0.8519456354
 40
1.0
 40
1.0
 40
1.0
 40
1.0
 10
10.6132084814
 20
10.5818056461
 30
0.0
 10
10.6132084804
 20
10.5829511494
 30
0.0
 10
10.6133556264
 20
10.5852616217
 30
0.0
 10
10.6140151621
 20
10.588710818
 30
0.0
 10
10.6151119388
 20
10.5921489902
 30
0.0
 10
10.6163729785
 20
10.594968149
 30
0.0
 10
10.6175864603
 20
10.5972083979
 30
0.0
 10
10.6189759373
 20
10.5995000659
 30
0.0
 10
10.6209935111
 20
10.6023551756
 30
0.0
 10
10.6238063694
 20
10.6057103197
 30
0.0
 10
10.6258984138
 20
10.6078631975
 30
0.0
 10
10.6270084986
 20
10.6089354571
 30
0.0
  0
SPLINE
  5
3BC
100
AcDbEntity
  8
0
100
AcDbSpline
 62
7
  6
CONTINUOUS
 70
0
 71
3
 72
23
 73
19
 74
0
 42
0.0000001
 43
0.0000001
 44
0.0000000001
 40
0.0
 40
0.0
 40
0.0
 40
0.0
 40
0.0626678233
 40
0.1251258746
 40
0.187399206
 40
0.2495180813
 40
0.3115180588
 40
0.3734401955
 40
0.4353311741
 40
0.4972428847
 40
0.559231535
 40
0.6213561906
 40
0.6836767199
 40
0.7462510697
 40
0.8091321816
 40
0.8723644755
 40
0.9359808656
 40
1.0
 40
1.0
 40
1.0
 40
1.0
 10
12.5822181853
 20
8.6696115996
 30
0.0
 10
12.5812298366
 20
8.6666131708
 30
0.0
 10
12.5790563439
 20
8.6606900414
 30
0.0
 10
12.5752027749
 20
8.6520634891
 30
0.0
 10
12.5707652704
 20
8.6437526415
 30
0.0
 10
12.5657502342
 20
8.6358038372
 30
0.0
 10
12.5601664998
 20
8.628264997
 30
0.0
 10
12.554026389
 20
8.6211864044
 30
0.0
 10
12.5473464862
 20
8.6146202487
 30
0.0
 10
12.5401486044
 20
8.6086202015
 30
0.0
 10
12.5324607627
 20
8.6032406292
 30
0.0
 10
12.52431812
 20
8.5985354693
 30
0.0
 10
12.5157637486
 20
8.5945567431
 30
0.0
 10
12.5068490639
 20
8.5913527161
 30
0.0
 10
12.497633944
 20
8.5889658333
 30
0.0
 10
12.4881857085
 20
8.5874305716
 30
0.0
 10
12.4785795629
 20
8.5867713521
 30
0.0
 10
12.4721405915
 20
8.58692419
 30
0.0
 10
12.4689231218
 20
8.5871473223
 30
0.0
  0
SPLINE
  5
3BD
100
AcDbEntity
  8
0
100
AcDbSpline
 62
7
  6
CONTINUOUS
 70
0
 71
3
 72
21
 73
17
 74
0
 42
0.0000001
 43
0.0000001
 44
0.0000000001
 40
0.0
 40
0.0
 40
0.0
 40
0.0
 40
0.0616285017
 40
0.1235851812
 40
0.1858401374
 40
0.2483565919
 40
0.3110912941
 40
0.3739948385
 40
0.4999922778
 40
0.6259907171
 40
0.688895511
 40
0.7516318943
 40
0.8141505396
 40
0.8764078488
 40
0.9383671893
 40
1.0
 40
1.0
 40
1.0
 40
1.0
 10
12.4756983641
 20
9.4043938067
 30
0.0
 10
12.4759644394
 20
9.4022609421
 30
0.0
 10
12.4766768383
 20
9.3980040723
 30
0.0
 10
12.4782702429
 20
9.3917144091
 30
0.0
 10
12.4803802314
 20
9.3855455703
 30
0.0
 10
12.4829914635
 20
9.3795423551
 30
0.0
 10
12.4860855228
 20
9.3737471048
 30
0.0
 10
12.4908253244
 20
9.366351698
 30
0.0
 10
12.4978368018
 20
9.3578351277
 30
0.0
 10
12.5061002726
 20
9.3505270002
 30
0.0
 10
12.5133236177
 20
9.3455286567
 30
0.0
 10
12.5190060107
 20
9.3422315549
 30
0.0
 10
12.5249133429
 20
9.3394096068
 30
0.0
 10
12.5310039428
 20
9.3370827041
 30
0.0
 10
12.5372336238
 20
9.3352677391
 30
0.0
 10
12.5414628694
 20
9.3344051709
 30
0.0
 10
12.5435851325
 20
9.3340637727
 30
0.0
  0
SPLINE
  5
3BE
100
AcDbEntity
  8
0
100
AcDbSpline
 62
7
  6
CONTINUOUS
 70
0
 71
3
 72
15
 73
11
 74
0
 42
0.0000001
 43
0.0000001
 44
0.0000000001
 40
0.0
 40
0.0
 40
0.0
 40
0.0
 40
0.1232692308
 40
0.246889232
 40
0.3709474747
 40
0.4955200052
 40
0.6206710501
 40
0.7464469803
 40
0.8728869751
 40
1.0
 40
1.0
 40
1.0
 40
1.0
 10
12.9761282924
 20
7.0204164711
 30
0.0
 10
12.9736015683
 20
7.0188008634
 30
0.0
 10
12.9684055553
 20
7.0157714356
 30
0.0
 10
12.9602554646
 20
7.0118729821
 30
0.0
 10
12.9517859119
 20
7.0086369201
 30
0.0
 10
12.943047723
 20
7.0060832
 30
0.0
 10
12.934092656
 20
7.0042272338
 30
0.0
 10
12.924973714
 20
7.0030801519
 30
0.0
 10
12.9157459387
 20
7.0026490189
 30
0.0
 10
12.9095728185
 20
7.0028400963
 30
0.0
 10
12.9064876238
 20
7.0030540553
 30
0.0
  0
SPLINE
  5
3BF
100
AcDbEntity
  8
0
100
AcDbSpline
 62
7
  6
CONTINUOUS
 70
0
 71
3
 72
53
 73
49
 74
0
 42
0.0000001
 43
0.0000001
 44
0.0000000001
 40
0.0
 40
0.0
 40
0.0
 40
0.0
 40
0.0095821603
 40
0.0187371838
 40
0.0274872302
 40
0.0358598335
 40
0.0515978114
 40
0.0590555925
 40
0.0662983352
 40
0.0733795061
 40
0.080356772
 40
0.0872905952
 40
0.0942426898
 40
0.1012742186
 40
0.1084441701
 40
0.1158078304
 40
0.1234158648
 40
0.131313715
 40
0.1395412652
 40
0.1481332074
 40
0.1571191227
 40
0.1665239627
 40
0.1763687164
 40
0.1866705196
 40
0.1974434102
 40
0.208698671
 40
0.2204449374
 40
0.2326889046
 40
0.2454352722
 40
0.2586870155
 40
0.2724458384
 40
0.3014825337
 40
0.3325362976
 40
0.365580377
 40
0.400575222
 40
0.4374705007
 40
0.4762065478
 40
0.5167153987
 40
0.558921816
 40
0.6027441125
 40
0.6480947745
 40
0.6948809482
 40
0.7430049461
 40
0.7923649942
 40
0.8428553916
 40
0.8943659478
 40
0.9467875089
 40
1.0
 40
1.0
 40
1.0
 40
1.0
 10
14.6601550692
 20
6.4336790448
 30
0.0
 10
14.659062809
 20
6.4326625453
 30
0.0
 10
14.6568791557
 20
6.4307252533
 30
0.0
 10
14.6535289206
 20
6.4280582198
 30
0.0
 10
14.6501816652
 20
6.4256996405
 30
0.0
 10
14.6458173514
 20
6.4230244844
 30
0.0
 10
14.6413649374
 20
6.420888471
 30
0.0
 10
14.6368652
 20
6.4193838781
 30
0.0
 10
14.6335626377
 20
6.4185910515
 30
0.0
 10
14.6302751541
 20
6.4181153024
 30
0.0
 10
14.6270050798
 20
6.4179571689
 30
0.0
 10
14.6237551299
 20
6.4181172303
 30
0.0
 10
14.6205280588
 20
6.4185953242
 30
0.0
 10
14.6173265174
 20
6.4193908042
 30
0.0
 10
14.6141530274
 20
6.4205028298
 30
0.0
 10
14.6110097436
 20
6.4219299348
 30
0.0
 10
14.6078986132
 20
6.4236706881
 30
0.0
 10
14.6048214094
 20
6.4257235561
 30
0.0
 10
14.6017796304
 20
6.4280867816
 30
0.0
 10
14.5987748704
 20
6.4307587836
 30
0.0
 10
14.5958085913
 20
6.4337377656
 30
0.0
 10
14.5928822312
 20
6.4370218472
 30
0.0
 10
14.589997397
 20
6.4406091427
 30
0.0
 10
14.5871555207
 20
6.4444974757
 30
0.0
 10
14.5843581644
 20
6.4486846088
 30
0.0
 10
14.5816069275
 20
6.4531681401
 30
0.0
 10
14.5789032626
 20
6.4579454197
 30
0.0
 10
14.5762487878
 20
6.4630137109
 30
0.0
 10
14.5736450262
 20
6.4683700444
 30
0.0
 10
14.571093398
 20
6.4740112824
 30
0.0
 10
14.5677018536
 20
6.482053566
 30
0.0
 10
14.5636194355
 20
6.4928084562
 30
0.0
 10
14.5590357662
 20
6.5065710297
 30
0.0
 10
14.5546940634
 20
6.521380942
 30
0.0
 10
14.550604691
 20
6.5372032992
 30
0.0
 10
14.5467774663
 20
6.5540010651
 30
0.0
 10
14.5432216251
 20
6.5717346419
 30
0.0
 10
14.5399457247
 20
6.5903621315
 30
0.0
 10
14.5369576593
 20
6.6098394267
 30
0.0
 10
14.5342646432
 20
6.6301203638
 30
0.0
 10
14.5318731932
 20
6.6511568298
 30
0.0
 10
14.5297890684
 20
6.6728988635
 30
0.0
 10
14.5280172855
 20
6.6952948158
 30
0.0
 10
14.5265621315
 20
6.718291481
 30
0.0
 10
14.5254271558
 20
6.7418340701
 30
0.0
 10
14.5246150274
 20
6.7658669675
 30
0.0
 10
14.5241278259
 20
6.7903325177
 30
0.0
 10
14.5240210824
 20
6.8067814796
 30
0.0
 10
14.5240210824
 20
6.8150674302
 30
0.0
  0
SPLINE
  5
3C0
100
AcDbEntity
  8
0
100
AcDbSpline
 62
7
  6
CONTINUOUS
 70
0
 71
3
 72
21
 73
17
 74
0
 42
0.0000001
 43
0.0000001
 44
0.0000000001
 40
0.0
 40
0.0
 40
0.0
 40
0.0
 40
0.0616285017
 40
0.1235851812
 40
0.1858401374
 40
0.2483565919
 40
0.3110912941
 40
0.3739948385
 40
0.4999922778
 40
0.6259907171
 40
0.688895511
 40
0.7516318943
 40
0.8141505396
 40
0.8764078488
 40
0.9383671893
 40
1.0
 40
1.0
 40
1.0
 40
1.0
 10
10.258898618
 20
6.8999012695
 30
0.0
 10
10.2591646933
 20
6.8977684049
 30
0.0
 10
10.2598770922
 20
6.8935115351
 30
0.0
 10
10.2614704968
 20
6.8872218719
 30
0.0
 10
10.2635804853
 20
6.8810530331
 30
0.0
 10
10.2661917174
 20
6.8750498179
 30
0.0
 10
10.2692857767
 20
6.8692545676
 30
0.0
 10
10.2740255783
 20
6.8618591608
 30
0.0
 10
10.2810370558
 20
6.8533425905
 30
0.0
 10
10.2893005266
 20
6.846034463
 30
0.0
 10
10.2965238716
 20
6.8410361195
 30
0.0
 10
10.3022062646
 20
6.8377390177
 30
0.0
 10
10.3081135968
 20
6.8349170697
 30
0.0
 10
10.3142041967
 20
6.8325901669
 30
0.0
 10
10.3204338777
 20
6.8307752019
 30
0.0
 10
10.3246631233
 20
6.8299126337
 30
0.0
 10
10.3267853865
 20
6.8295712355
 30
0.0
  0
SPLINE
  5
3C1
100
AcDbEntity
  8
0
100
AcDbSpline
 62
7
  6
CONTINUOUS
 70
0
 71
3
 72
39
 73
35
 74
0
 42
0.0000001
 43
0.0000001
 44
0.0000000001
 40
0.0
 40
0.0
 40
0.0
 40
0.0
 40
0.00631605
 40
0.0126710036
 40
0.0191030137
 40
0.0256487366
 40
0.0323427745
 40
0.0392173093
 40
0.0536154999
 40
0.0690527098
 40
0.0856860775
 40
0.103634432
 40
0.1229846057
 40
0.1437975285
 40
0.1661136281
 40
0.1899566057
 40
0.2153367
 40
0.2422532743
 40
0.2706963086
 40
0.3006480514
 40
0.3320841722
 40
0.3649743116
 40
0.3992830784
 40
0.4349705379
 40
0.4719924585
 40
0.5103010083
 40
0.5498449224
 40
0.5905696991
 40
0.6324181177
 40
0.6753302619
 40
0.7192436941
 40
0.8098127521
 40
0.903586456
 40
1.0
 40
1.0
 40
1.0
 40
1.0
 10
14.5926287356
 20
6.3892405506
 30
0.0
 10
14.5916788506
 20
6.389306432
 30
0.0
 10
14.58977772
 20
6.3895163458
 30
0.0
 10
14.5869473168
 20
6.3900634317
 30
0.0
 10
14.5841358463
 20
6.3908428254
 30
0.0
 10
14.5813449378
 20
6.3918538479
 30
0.0
 10
14.5785756912
 20
6.3930958431
 30
0.0
 10
14.5748572237
 20
6.3950891873
 30
0.0
 10
14.5702558977
 20
6.3981929496
 30
0.0
 10
14.564933785
 20
6.4027681635
 30
0.0
 10
14.5597301937
 20
6.4082406971
 30
0.0
 10
14.554651221
 20
6.4146005054
 30
0.0
 10
14.5497023539
 20
6.4218376171
 30
0.0
 10
14.5448900466
 20
6.429940851
 30
0.0
 10
14.540221184
 20
6.4388977933
 30
0.0
 10
14.5357027879
 20
6.4486944731
 30
0.0
 10
14.5313419056
 20
6.4593154248
 30
0.0
 10
14.5271456006
 20
6.4707437226
 30
0.0
 10
14.5231206622
 20
6.4829609546
 30
0.0
 10
14.5192737012
 20
6.495947329
 30
0.0
 10
14.5156111301
 20
6.5096817184
 30
0.0
 10
14.5121389743
 20
6.5241416772
 30
0.0
 10
14.5088630192
 20
6.5393035291
 30
0.0
 10
14.5057887522
 20
6.5551424039
 30
0.0
 10
14.5029212448
 20
6.5716322731
 30
0.0
 10
14.5002653005
 20
6.5887460201
 30
0.0
 10
14.4978253618
 20
6.6064554786
 30
0.0
 10
14.4956054508
 20
6.6247314825
 30
0.0
 10
14.4936093106
 20
6.6435439156
 30
0.0
 10
14.4918402299
 20
6.6628617989
 30
0.0
 10
14.4897669371
 20
6.6895248705
 30
0.0
 10
14.4877805741
 20
6.7238820079
 30
0.0
 10
14.4863618726
 20
6.7661867984
 30
0.0
 10
14.4860539963
 20
6.7948593565
 30
0.0
 10
14.4860539963
 20
6.8093940389
 30
0.0
  0
SPLINE
  5
3C2
100
AcDbEntity
  8
0
100
AcDbSpline
 62
7
  6
CONTINUOUS
 70
0
 71
3
 72
39
 73
35
 74
0
 42
0.0000001
 43
0.0000001
 44
0.0000000001
 40
0.0
 40
0.0
 40
0.0
 40
0.0
 40
0.0063160566
 40
0.0126710106
 40
0.0191030154
 40
0.0256487277
 40
0.0323427504
 40
0.039217266
 40
0.0536154085
 40
0.0690525617
 40
0.0856858679
 40
0.1036341595
 40
0.1229842714
 40
0.1437971352
 40
0.1661131805
 40
0.1899561089
 40
0.2153361604
 40
0.2422526985
 40
0.2706957037
 40
0.3006474247
 40
0.3320835311
 40
0.3649736636
 40
0.3992824308
 40
0.434969898
 40
0.4719918335
 40
0.5103004051
 40
0.5498443477
 40
0.5905691592
 40
0.6324176188
 40
0.6753298096
 40
0.7192432939
 40
0.8098124703
 40
0.9035863088
 40
1.0
 40
1.0
 40
1.0
 40
1.0
 10
13.8981285018
 20
6.4374043054
 30
0.0
 10
13.897178614
 20
6.437470174
 30
0.0
 10
13.8952774775
 20
6.4376800625
 30
0.0
 10
13.8924470638
 20
6.4382271118
 30
0.0
 10
13.8896355828
 20
6.4390064703
 30
0.0
 10
13.8868446635
 20
6.4400174589
 30
0.0
 10
13.8840754062
 20
6.4412594215
 30
0.0
 10
13.8803569248
 20
6.443252723
 30
0.0
 10
13.8757555803
 20
6.4463564355
 30
0.0
 10
13.8704334452
 20
6.4509315968
 30
0.0
 10
13.8652298318
 20
6.4564040831
 30
0.0
 10
13.8601508375
 20
6.4627638493
 30
0.0
 10
13.855201949
 20
6.4700009242
 30
0.0
 10
13.8503896205
 20
6.4781041266
 30
0.0
 10
13.8457207371
 20
6.4870610425
 30
0.0
 10
13.8412023207
 20
6.4968577012
 30
0.0
 10
13.8368414183
 20
6.507478637
 30
0.0
 10
13.8326450939
 20
6.5189069239
 30
0.0
 10
13.8286201366
 20
6.5311241502
 30
0.0
 10
13.8247731572
 20
6.5441105238
 30
0.0
 10
13.8211105686
 20
6.5578449173
 30
0.0
 10
13.8176383959
 20
6.572304885
 30
0.0
 10
13.8143624247
 20
6.5874667504
 30
0.0
 10
13.8112881424
 20
6.6033056431
 30
0.0
 10
13.8084206208
 20
6.6197955345
 30
0.0
 10
13.8057646632
 20
6.636909308
 30
0.0
 10
13.8033247121
 20
6.6546187967
 30
0.0
 10
13.8011047898
 20
6.6728948346
 30
0.0
 10
13.7991086394
 20
6.6917073054
 30
0.0
 10
13.7973395497
 20
6.7110252295
 30
0.0
 10
13.7952662461
 20
6.7376883614
 30
0.0
 10
13.7932798727
 20
6.7720455806
 30
0.0
 10
13.7918611639
 20
6.814350476
 30
0.0
 10
13.791553286
 20
6.8430231069
 30
0.0
 10
13.791553286
 20
6.8575578268
 30
0.0
  0
SPLINE
  5
3C3
100
AcDbEntity
  8
0
100
AcDbSpline
 62
7
  6
CONTINUOUS
 70
0
 71
3
 72
23
 73
19
 74
0
 42
0.0000001
 43
0.0000001
 44
0.0000000001
 40
0.0
 40
0.0
 40
0.0
 40
0.0
 40
0.0623963362
 40
0.1248240732
 40
0.1872766499
 40
0.2497567957
 40
0.3122605954
 40
0.3747848961
 40
0.4373257013
 40
0.4998783911
 40
0.5624378925
 40
0.6249985803
 40
0.6875543022
 40
0.7500984502
 40
0.8126237244
 40
0.8751219457
 40
0.9375840347
 40
1.0
 40
1.0
 40
1.0
 40
1.0
 10
14.6947956663
 20
8.5415323278
 30
0.0
 10
14.6946383753
 20
8.5368601086
 30
0.0
 10
14.6940525142
 20
8.5275201875
 30
0.0
 10
14.6923637588
 20
8.513583496
 30
0.0
 10
14.6898693692
 20
8.4997613583
 30
0.0
 10
14.686577031
 20
8.4861015328
 30
0.0
 10
14.6824963262
 20
8.4726504789
 30
0.0
 10
14.6776396995
 20
8.459454858
 30
0.0
 10
14.6720221846
 20
8.4465607239
 30
0.0
 10
14.6656615721
 20
8.4340135012
 30
0.0
 10
14.6585785414
 20
8.4218576973
 30
0.0
 10
14.6507967352
 20
8.4101366312
 30
0.0
 10
14.6423429612
 20
8.3988920134
 30
0.0
 10
14.6332471485
 20
8.3881635762
 30
0.0
 10
14.6235424003
 20
8.3779886942
 30
0.0
 10
14.6132646864
 20
8.3684018102
 30
0.0
 10
14.60245351
 20
8.3594345063
 30
0.0
 10
14.594913729
 20
8.3538844042
 30
0.0
 10
14.5910695886
 20
8.3512215657
 30
0.0
  0
SPLINE
  5
3C4
100
AcDbEntity
  8
0
100
AcDbSpline
 62
7
  6
CONTINUOUS
 70
0
 71
3
 72
15
 73
11
 74
0
 42
0.0000001
 43
0.0000001
 44
0.0000000001
 40
0.0
 40
0.0
 40
0.0
 40
0.0
 40
0.1273482228
 40
0.253860527
 40
0.3795879206
 40
0.5046050801
 40
0.6290174363
 40
0.7529533709
 40
0.8765605784
 40
1.0
 40
1.0
 40
1.0
 40
1.0
 10
10.7172166788
 20
9.5122009609
 30
0.0
 10
10.7172166788
 20
9.5165280553
 30
0.0
 10
10.7176298252
 20
9.5251598232
 30
0.0
 10
10.7194982495
 20
9.5379414636
 30
0.0
 10
10.7225964137
 20
9.5504019517
 30
0.0
 10
10.7268963403
 20
9.5624247536
 30
0.0
 10
10.73235855
 20
9.5738990029
 30
0.0
 10
10.7389332718
 20
9.5847187469
 30
0.0
 10
10.7465586864
 20
9.5947826037
 30
0.0
 10
10.7523002361
 20
9.6009301911
 30
0.0
 10
10.7553169844
 20
9.6038441591
 30
0.0
  0
SPLINE
  5
3C5
100
AcDbEntity
  8
0
100
AcDbSpline
 62
7
  6
CONTINUOUS
 70
0
 71
3
 72
21
 73
17
 74
0
 42
0.0000001
 43
0.0000001
 44
0.0000000001
 40
0.0
 40
0.0
 40
0.0
 40
0.0
 40
0.0627670811
 40
0.1254808821
 40
0.1881398087
 40
0.2507450142
 40
0.3132999764
 40
0.3758100417
 40
0.4382819899
 40
0.5007235531
 40
0.5631429019
 40
0.6255482522
 40
0.6879475511
 40
0.7503484635
 40
0.8751381518
 40
1.0
 40
1.0
 40
1.0
 40
1.0
 10
14.6262671145
 20
8.718424676
 30
0.0
 10
14.6290991935
 20
8.7154914125
 30
0.0
 10
14.6346203377
 20
8.7094896557
 30
0.0
 10
14.6424487791
 20
8.7000984081
 30
0.0
 10
14.6497994718
 20
8.6903413952
 30
0.0
 10
14.6566515095
 20
8.6802404426
 30
0.0
 10
14.6629861832
 20
8.6698184813
 30
0.0
 10
14.6687866078
 20
8.6590997999
 30
0.0
 10
14.6740375552
 20
8.6481096285
 30
0.0
 10
14.6787255752
 20
8.6368741697
 30
0.0
 10
14.6828390687
 20
8.6254204557
 30
0.0
 10
14.6863679485
 20
8.6137762718
 30
0.0
 10
14.6893037696
 20
8.601969577
 30
0.0
 10
14.6924179611
 20
8.5860521627
 30
0.0
 10
14.6947983697
 20
8.5658854696
 30
0.0
 10
14.6950685701
 20
8.5496387432
 30
0.0
 10
14.6947956663
 20
8.5415323278
 30
0.0
  0
SPLINE
  5
3C6
100
AcDbEntity
  8
0
100
AcDbSpline
 62
7
  6
CONTINUOUS
 70
0
 71
3
 72
15
 73
11
 74
0
 42
0.0000001
 43
0.0000001
 44
0.0000000001
 40
0.0
 40
0.0
 40
0.0
 40
0.0
 40
0.1273482228
 40
0.253860527
 40
0.3795879206
 40
0.5046050801
 40
0.6290174363
 40
0.7529533709
 40
0.8765605784
 40
1.0
 40
1.0
 40
1.0
 40
1.0
 10
11.3218862118
 20
6.6903322445
 30
0.0
 10
11.3218862118
 20
6.6946593389
 30
0.0
 10
11.3222993583
 20
6.7032911068
 30
0.0
 10
11.3241677826
 20
6.7160727472
 30
0.0
 10
11.3272659468
 20
6.7285332354
 30
0.0
 10
11.3315658733
 20
6.7405560372
 30
0.0
 10
11.3370280831
 20
6.7520302865
 30
0.0
 10
11.3436028049
 20
6.7628500305
 30
0.0
 10
11.3512282195
 20
6.7729138873
 30
0.0
 10
11.3569697691
 20
6.7790614748
 30
0.0
 10
11.3599865175
 20
6.7819754427
 30
0.0
  0
SPLINE
  5
3C7
100
AcDbEntity
  8
0
100
AcDbSpline
 62
7
  6
CONTINUOUS
 70
0
 71
3
 72
25
 73
21
 74
0
 42
0.0000001
 43
0.0000001
 44
0.0000000001
 40
0.0
 40
0.0
 40
0.0
 40
0.0
 40
0.0691891528
 40
0.1024039962
 40
0.1347598452
 40
0.1971010395
 40
0.2567261744
 40
0.3142154149
 40
0.3702232042
 40
0.4254623542
 40
0.4806782072
 40
0.5366170964
 40
0.5939946952
 40
0.653469984
 40
0.7156272559
 40
0.7478799142
 40
0.7809850872
 40
0.8499384907
 40
0.9228529045
 40
1.0
 40
1.0
 40
1.0
 40
1.0
 10
14.6836371687
 20
7.6714463862
 30
0.0
 10
14.6854109119
 20
7.6696904403
 30
0.0
 10
14.6881293835
 20
7.6671821216
 30
0.0
 10
14.6918988178
 20
7.6641105263
 30
0.0
 10
14.695597833
 20
7.6613502327
 30
0.0
 10
14.7002783522
 20
7.6583200968
 30
0.0
 10
14.7060437226
 20
7.6553510779
 30
0.0
 10
14.7118827846
 20
7.6530996702
 30
0.0
 10
14.7177890691
 20
7.651570985
 30
0.0
 10
14.7237548953
 20
7.6507686802
 30
0.0
 10
14.7297715086
 20
7.6506946301
 30
0.0
 10
14.7358299471
 20
7.6513483598
 30
0.0
 10
14.7419220702
 20
7.6527273132
 30
0.0
 10
14.7480406041
 20
7.6548275676
 30
0.0
 10
14.7530941115
 20
7.6571463135
 30
0.0
 10
14.7571381988
 20
7.6593406593
 30
0.0
 10
14.7612947681
 20
7.6618328131
 30
0.0
 10
14.7665029626
 20
7.6654109399
 30
0.0
 10
14.7726764511
 20
7.670350492
 30
0.0
 10
14.7766775405
 20
7.6740026499
 30
0.0
 10
14.7786792045
 20
7.675936109
 30
0.0
  0
SPLINE
  5
3C8
100
AcDbEntity
  8
0
100
AcDbSpline
 62
7
  6
CONTINUOUS
 70
0
 71
3
 72
15
 73
11
 74
0
 42
0.0000001
 43
0.0000001
 44
0.0000000001
 40
0.0
 40
0.0
 40
0.0
 40
0.0
 40
0.127347002
 40
0.2538611168
 40
0.379587791
 40
0.5046051628
 40
0.6290174373
 40
0.7529533687
 40
0.8765605638
 40
1.0
 40
1.0
 40
1.0
 40
1.0
 10
12.3935809133
 20
9.3350913819
 30
0.0
 10
12.3935809133
 20
9.3374936476
 30
0.0
 10
12.3938102996
 20
9.3422857872
 30
0.0
 10
12.3948475875
 20
9.3493818174
 30
0.0
 10
12.3965676773
 20
9.3562995607
 30
0.0
 10
12.3989549234
 20
9.3629742771
 30
0.0
 10
12.4019874791
 20
9.3693444437
 30
0.0
 10
12.4056376782
 20
9.3753512247
 30
0.0
 10
12.409871195
 20
9.3809383497
 30
0.0
 10
12.4130588418
 20
9.3843512423
 30
0.0
 10
12.4147336775
 20
9.3859689837
 30
0.0
  0
SPLINE
  5
3C9
100
AcDbEntity
  8
0
100
AcDbSpline
 62
7
  6
CONTINUOUS
 70
0
 71
3
 72
18
 73
14
 74
0
 42
0.0000001
 43
0.0000001
 44
0.0000000001
 40
0.0
 40
0.0
 40
0.0
 40
0.0
 40
0.0539806678
 40
0.1081920907
 40
0.1628619217
 40
0.2182116629
 40
0.3317374705
 40
0.4503907133
 40
0.5120902612
 40
0.5755576506
 40
0.7082858003
 40
0.84953215
 40
1.0
 40
1.0
 40
1.0
 40
1.0
 10
14.7034038706
 20
7.6614025919
 30
0.0
 10
14.7045039258
 20
7.6613263094
 30
0.0
 10
14.7067146488
 20
7.6612481197
 30
0.0
 10
14.7100421696
 20
7.6613550267
 30
0.0
 10
14.7133832053
 20
7.6616860291
 30
0.0
 10
14.7178911854
 20
7.6624318062
 30
0.0
 10
14.7235828645
 20
7.663945702
 30
0.0
 10
14.7291750651
 20
7.6661641522
 30
0.0
 10
14.7336476929
 20
7.6683596138
 30
0.0
 10
14.7382558878
 20
7.670916844
 30
0.0
 10
14.7440348325
 20
7.6746931876
 30
0.0
 10
14.7508764853
 20
7.6800326361
 30
0.0
 10
14.7552950358
 20
7.6840393528
 30
0.0
 10
14.7575058095
 20
7.6861747963
 30
0.0
  0
SPLINE
  5
3CA
100
AcDbEntity
  8
0
100
AcDbSpline
 62
7
  6
CONTINUOUS
 70
0
 71
3
 72
93
 73
89
 74
0
 42
0.0000001
 43
0.0000001
 44
0.0000000001
 40
0.0
 40
0.0
 40
0.0
 40
0.0
 40
0.0035580131
 40
0.0069652179
 40
0.0133775103
 40
0.0164196262
 40
0.0193760533
 40
0.0222681641
 40
0.0251189129
 40
0.0279523645
 40
0.0307930553
 40
0.0336653226
 40
0.0365926438
 40
0.0395970914
 40
0.0426989009
 40
0.0459162883
 40
0.0492652963
 40
0.0527598987
 40
0.0564120688
 40
0.0602319489
 40
0.0642280737
 40
0.0684074663
 40
0.0727759259
 40
0.0773380706
 40
0.0820975634
 40
0.0870571996
 40
0.0922189847
 40
0.0975843082
 40
0.1031538973
 40
0.1089280141
 40
0.114906403
 40
0.121088397
 40
0.1274729624
 40
0.1408433262
 40
0.1550031628
 40
0.1699331708
 40
0.1856102787
 40
0.2020081085
 40
0.2190973527
 40
0.2368460911
 40
0.2552200534
 40
0.2741828465
 40
0.2936961567
 40
0.3137199314
 40
0.3342125466
 40
0.3551309744
 40
0.3764309359
 40
0.398067049
 40
0.4199929716
 40
0.4421615417
 40
0.464524915
 40
0.4870347055
 40
0.5096421231
 40
0.5322981087
 40
0.5549534695
 40
0.577559013
 40
0.6000656835
 40
0.6224246995
 40
0.6445876891
 40
0.6665068261
 40
0.6881349668
 40
0.7094257887
 40
0.7303339325
 40
0.7508151507
 40
0.7708264527
 40
0.7903262575
 40
0.8092745532
 40
0.8276330677
 40
0.8453654535
 40
0.8624374975
 40
0.8788173483
 40
0.8944757753
 40
0.9093864805
 40
0.9235264758
 40
0.9303015222
 40
0.936877057
 40
0.943251339
 40
0.9494230113
 40
0.9553910229
 40
0.9611547317
 40
0.9667139446
 40
0.9720688904
 40
0.9772203691
 40
0.9821697169
 40
0.9869190871
 40
0.9914714135
 40
0.9958302815
 40
1.0
 40
1.0
 40
1.0
 40
1.0
 10
14.79117929
 20
9.2148335784
 30
0.0
 10
14.7927827883
 20
9.2160164085
 30
0.0
 10
14.7959892759
 20
9.2182433107
 30
0.0
 10
14.8024042658
 20
9.222118277
 30
0.0
 10
14.8089463588
 20
9.2252091341
 30
0.0
 10
14.8155550521
 20
9.2273839684
 30
0.0
 10
14.8204074076
 20
9.2285291133
 30
0.0
 10
14.825237678
 20
9.2292147825
 30
0.0
 10
14.8300426155
 20
9.229439816
 30
0.0
 10
14.8348183185
 20
9.2292038306
 30
0.0
 10
14.8395608977
 20
9.2285067901
 30
0.0
 10
14.8442665457
 20
9.2273495989
 30
0.0
 10
14.8489317582
 20
9.2257336636
 30
0.0
 10
14.853553337
 20
9.2236607296
 30
0.0
 10
14.8581285743
 20
9.2211330409
 30
0.0
 10
14.8626548814
 20
9.2181526737
 30
0.0
 10
14.8671300645
 20
9.2147220949
 30
0.0
 10
14.8715518767
 20
9.2108436094
 30
0.0
 10
14.875918194
 20
9.2065197369
 30
0.0
 10
14.8802269189
 20
9.2017531228
 30
0.0
 10
14.8844758009
 20
9.1965464867
 30
0.0
 10
14.8886627778
 20
9.1909028899
 30
0.0
 10
14.8927855277
 20
9.1848254564
 30
0.0
 10
14.8968419266
 20
9.1783176727
 30
0.0
 10
14.9008297173
 20
9.1713831896
 30
0.0
 10
14.9047466729
 20
9.1640259283
 30
0.0
 10
14.9085906655
 20
9.1562500847
 30
0.0
 10
14.9123594212
 20
9.1480600477
 30
0.0
 10
14.9160509025
 20
9.1394605225
 30
0.0
 10
14.9196629111
 20
9.1304563981
 30
0.0
 10
14.9231934128
 20
9.1210528512
 30
0.0
 10
14.9266404118
 20
9.111255259
 30
0.0
 10
14.9311924482
 20
9.0974609502
 30
0.0
 10
14.9366405354
 20
9.0792617432
 30
0.0
 10
14.942718287
 20
9.0562693392
 30
0.0
 10
14.9484184609
 20
9.0318522342
 30
0.0
 10
14.9537277292
 20
9.0060666935
 30
0.0
 10
14.9586336361
 20
8.9789719054
 30
0.0
 10
14.9631246751
 20
8.9506303058
 30
0.0
 10
14.9671903046
 20
8.9211072608
 30
0.0
 10
14.970820981
 20
8.8904709356
 30
0.0
 10
14.9740081798
 20
8.8587921125
 30
0.0
 10
14.9767444153
 20
8.8261440218
 30
0.0
 10
14.9790232582
 20
8.792602168
 30
0.0
 10
14.9808393574
 20
8.7582441491
 30
0.0
 10
14.9821884415
 20
8.7231494698
 30
0.0
 10
14.9830673292
 20
8.6873993506
 30
0.0
 10
14.9834739354
 20
8.6510765382
 30
0.0
 10
14.9834072753
 20
8.6142651129
 30
0.0
 10
14.9828674656
 20
8.5770502943
 30
0.0
 10
14.9818557316
 20
8.5395182422
 30
0.0
 10
14.9803743982
 20
8.5017558546
 30
0.0
 10
14.9784268821
 20
8.4638505638
 30
0.0
 10
14.9760176839
 20
8.4258901337
 30
0.0
 10
14.9731523778
 20
8.3879624567
 30
0.0
 10
14.9698375976
 20
8.3501553505
 30
0.0
 10
14.966081026
 20
8.3125563522
 30
0.0
 10
14.9618913788
 20
8.2752525136
 30
0.0
 10
14.9572783777
 20
8.2383301987
 30
0.0
 10
14.9522527295
 20
8.201874884
 30
0.0
 10
14.9468261016
 20
8.1659709606
 30
0.0
 10
14.9410110951
 20
8.1307015376
 30
0.0
 10
14.9348212164
 20
8.0961482456
 30
0.0
 10
14.928270854
 20
8.0623910421
 30
0.0
 10
14.9213752371
 20
8.0295080253
 30
0.0
 10
14.9141504014
 20
7.9975752521
 30
0.0
 10
14.9066131527
 20
7.9666665594
 30
0.0
 10
14.8987810286
 20
7.936853387
 30
0.0
 10
14.890672255
 20
7.908204605
 30
0.0
 10
14.8823057114
 20
7.8807863284
 30
0.0
 10
14.8737008795
 20
7.854661786
 30
0.0
 10
14.8648777908
 20
7.8298910414
 30
0.0
 10
14.8558569664
 20
7.8065312479
 30
0.0
 10
14.8480856297
 20
7.7880304642
 30
0.0
 10
14.8417730677
 20
7.77398817
 30
0.0
 10
14.8370698332
 20
7.7639924633
 30
0.0
 10
14.8323328865
 20
7.7543880204
 30
0.0
 10
14.8275649983
 20
7.745180336
 30
0.0
 10
14.8227688899
 20
7.7363747125
 30
0.0
 10
14.8179473096
 20
7.7279762018
 30
0.0
 10
14.8131030688
 20
7.7199895889
 30
0.0
 10
14.8082388559
 20
7.7124194877
 30
0.0
 10
14.8033575688
 20
7.705270183
 30
0.0
 10
14.7984618748
 20
7.6985457687
 30
0.0
 10
14.7935545227
 20
7.6922499886
 30
0.0
 10
14.7886381322
 20
7.6863863616
 30
0.0
 10
14.7837157042
 20
7.6809585411
 30
0.0
 10
14.7803587553
 20
7.6775584306
 30
0.0
 10
14.7786792045
 20
7.675936109
 30
0.0
  0
SPLINE
  5
3CB
100
AcDbEntity
  8
0
100
AcDbSpline
 62
7
  6
CONTINUOUS
 70
0
 71
3
 72
95
 73
91
 74
0
 42
0.0000001
 43
0.0000001
 44
0.0000000001
 40
0.0
 40
0.0
 40
0.0
 40
0.0
 40
0.00394881
 40
0.0077209191
 40
0.0113256466
 40
0.0147745618
 40
0.0212567286
 40
0.0243282669
 40
0.0273113531
 40
0.0302282235
 40
0.0331028085
 40
0.0359602029
 40
0.0388259928
 40
0.0417255201
 40
0.044683191
 40
0.0477218617
 40
0.0508624509
 40
0.0541236743
 40
0.0575219856
 40
0.0610716349
 40
0.0647847676
 40
0.0686716682
 40
0.0727408689
 40
0.0769994493
 40
0.0814531139
 40
0.0861064512
 40
0.090963012
 40
0.0960254677
 40
0.101295727
 40
0.1067749797
 40
0.1124638594
 40
0.1183623996
 40
0.1244702136
 40
0.130786423
 40
0.1373097996
 40
0.1440387315
 40
0.150971284
 40
0.1654376349
 40
0.1806882461
 40
0.1966981434
 40
0.2134389637
 40
0.2308793411
 40
0.2489852249
 40
0.2677201498
 40
0.2870454724
 40
0.306920582
 40
0.3273030931
 40
0.3481490254
 40
0.3694129718
 40
0.391048263
 40
0.4130071252
 40
0.4352408345
 40
0.4576998673
 40
0.4803340498
 40
0.5030927055
 40
0.5259248019
 40
0.548779097
 40
0.5716042852
 40
0.5943491443
 40
0.6169626815
 40
0.6393942792
 40
0.6615938427
 40
0.6835119471
 40
0.7050999876
 40
0.7263103299
 40
0.7470964652
 40
0.7674131697
 40
0.7872166678
 40
0.8064648025
 40
0.8251172162
 40
0.8431355458
 40
0.8604836369
 40
0.8771277834
 40
0.8930370036
 40
0.9081833669
 40
0.9225423907
 40
0.9294203063
 40
0.9360940444
 40
0.942561768
 40
0.9488219474
 40
0.9548734633
 40
0.9607155444
 40
0.9663479366
 40
0.9717708222
 40
0.9769849646
 40
0.9819917111
 40
0.9867932026
 40
0.9913924646
 40
0.9957932363
 40
1.0
 40
1.0
 40
1.0
 40
1.0
 10
14.8008720971
 20
9.2248736403
 30
0.0
 10
14.8025473462
 20
9.2264327227
 30
0.0
 10
14.8058964285
 20
9.2294036249
 30
0.0
 10
14.8110350523
 20
9.2334923185
 30
0.0
 10
14.8161690464
 20
9.237106409
 30
0.0
 10
14.8228626845
 20
9.2412030452
 30
0.0
 10
14.8296919417
 20
9.2444701403
 30
0.0
 10
14.8365935033
 20
9.2467652152
 30
0.0
 10
14.8416586705
 20
9.247970326
 30
0.0
 10
14.8467005498
 20
9.2486877173
 30
0.0
 10
14.8517155741
 20
9.2489162353
 30
0.0
 10
14.8566995103
 20
9.2486553687
 30
0.0
 10
14.8616481036
 20
9.2479051072
 30
0.0
 10
14.8665572523
 20
9.2466665748
 30
0.0
 10
14.871423104
 20
9.2449411566
 30
0.0
 10
14.8762423304
 20
9.2427310569
 30
0.0
 10
14.8810119093
 20
9.2400384757
 30
0.0
 10
14.8857292183
 20
9.2368659327
 30
0.0
 10
14.8903918245
 20
9.2332159584
 30
0.0
 10
14.8949973578
 20
9.2290911274
 30
0.0
 10
14.8995436054
 20
9.2244942246
 30
0.0
 10
14.9040281636
 20
9.2194280217
 30
0.0
 10
14.9084488318
 20
9.2138956543
 30
0.0
 10
14.9128031391
 20
9.207900304
 30
0.0
 10
14.9170888176
 20
9.2014455412
 30
0.0
 10
14.9213034073
 20
9.1945350877
 30
0.0
 10
14.92544456
 20
9.1871729982
 30
0.0
 10
14.9295098998
 20
9.1793635757
 30
0.0
 10
14.9334970275
 20
9.1711113891
 30
0.0
 10
14.9374036801
 20
9.1624213128
 30
0.0
 10
14.9412274631
 20
9.1532984464
 30
0.0
 10
14.9449662144
 20
9.1437482086
 30
0.0
 10
14.9486176134
 20
9.1337762348
 30
0.0
 10
14.9521795683
 20
9.1233884585
 30
0.0
 10
14.9556498841
 20
9.1125910459
 30
0.0
 10
14.9590265516
 20
9.1013904119
 30
0.0
 10
14.9634642114
 20
9.0857041794
 30
0.0
 10
14.9687448003
 20
9.0651274236
 30
0.0
 10
14.9745907964
 20
9.0392765069
 30
0.0
 10
14.9800184586
 20
9.0119895024
 30
0.0
 10
14.9850146575
 20
8.9833315345
 30
0.0
 10
14.9895672558
 20
8.9533707891
 30
0.0
 10
14.9936652039
 20
8.9221787429
 30
0.0
 10
14.9972985513
 20
8.8898298526
 30
0.0
 10
15.0004584759
 20
8.8564013978
 30
0.0
 10
15.0031373033
 20
8.8219732751
 30
0.0
 10
15.0053285245
 20
8.7866278022
 30
0.0
 10
15.0070268097
 20
8.7504495155
 30
0.0
 10
15.0082280229
 20
8.7135249627
 30
0.0
 10
15.0089292293
 20
8.6759424919
 30
0.0
 10
15.0091286999
 20
8.637792036
 30
0.0
 10
15.0088259155
 20
8.5991648949
 30
0.0
 10
15.0080215667
 20
8.5601535152
 30
0.0
 10
15.0067175524
 20
8.5208512678
 30
0.0
 10
15.0049169739
 20
8.4813522235
 30
0.0
 10
15.0026241279
 20
8.4417509265
 30
0.0
 10
14.9998444953
 20
8.4021421673
 30
0.0
 10
14.9965847307
 20
8.3626207547
 30
0.0
 10
14.9928526445
 20
8.3232812865
 30
0.0
 10
14.9886571835
 20
8.2842179227
 30
0.0
 10
14.9840084099
 20
8.245524159
 30
0.0
 10
14.9789174773
 20
8.2072926017
 30
0.0
 10
14.973396604
 20
8.1696147455
 30
0.0
 10
14.967459045
 20
8.1325807525
 30
0.0
 10
14.9611190599
 20
8.0962792352
 30
0.0
 10
14.9543918793
 20
8.0607970402
 30
0.0
 10
14.9472936718
 20
8.026219037
 30
0.0
 10
14.9398415031
 20
7.9926279102
 30
0.0
 10
14.9320532957
 20
7.9601039583
 30
0.0
 10
14.9239477863
 20
7.9287248943
 30
0.0
 10
14.9155444807
 20
7.8985656549
 30
0.0
 10
14.906863606
 20
7.8696982003
 30
0.0
 10
14.8979260597
 20
7.8421913628
 30
0.0
 10
14.8887533535
 20
7.8161105381
 30
0.0
 10
14.8793675542
 20
7.7915179353
 30
0.0
 10
14.8712754153
 20
7.7720428942
 30
0.0
 10
14.8646989441
 20
7.7572640619
 30
0.0
 10
14.8597982052
 20
7.7467471938
 30
0.0
 10
14.8548611806
 20
7.7366442712
 30
0.0
 10
14.8498907203
 20
7.726961311
 30
0.0
 10
14.8448898796
 20
7.7177040411
 30
0.0
 10
14.8398615374
 20
7.7088779811
 30
0.0
 10
14.8348087665
 20
7.7004883159
 30
0.0
 10
14.829734467
 20
7.6925400413
 30
0.0
 10
14.8246417118
 20
7.685037832
 30
0.0
 10
14.8195334556
 20
7.6779861018
 30
0.0
 10
14.8144126153
 20
7.6713889543
 30
0.0
 10
14.8092820556
 20
7.6652501601
 30
0.0
 10
14.8041449468
 20
7.6595736661
 30
0.0
 10
14.8006402243
 20
7.6560210115
 30
0.0
 10
14.7988866911
 20
7.6543272284
 30
0.0
  0
SPLINE
  5
3CC
100
AcDbEntity
  8
0
100
AcDbSpline
 62
7
  6
CONTINUOUS
 70
0
 71
3
 72
34
 73
30
 74
0
 42
0.0000001
 43
0.0000001
 44
0.0000000001
 40
0.0
 40
0.0
 40
0.0
 40
0.0
 40
0.0073244862
 40
0.0149941314
 40
0.0230192272
 40
0.0314076786
 40
0.0492906764
 40
0.0686535637
 40
0.089466857
 40
0.1116769746
 40
0.1352172636
 40
0.1600169923
 40
0.1860073203
 40
0.2131246524
 40
0.2413119026
 40
0.2705182926
 40
0.3006982969
 40
0.3318101672
 40
0.3638143701
 40
0.3966721646
 40
0.4303444483
 40
0.4647907522
 40
0.535825445
 40
0.6094112108
 40
0.6851326683
 40
0.7625374458
 40
0.8411472092
 40
0.9204688088
 40
1.0
 40
1.0
 40
1.0
 40
1.0
 10
11.4694792503
 20
8.8232189415
 30
0.0
 10
11.4701260775
 20
8.8238437286
 30
0.0
 10
11.471485627
 20
8.8250864594
 30
0.0
 10
11.4736622081
 20
8.8268908204
 30
0.0
 10
11.4760195424
 20
8.8286773186
 30
0.0
 10
11.4794721976
 20
8.83108947
 30
0.0
 10
11.4842280849
 20
8.8340587582
 30
0.0
 10
11.4904561324
 20
8.8375304516
 30
0.0
 10
11.497270684
 20
8.8410303343
 30
0.0
 10
11.5046165198
 20
8.844613052
 30
0.0
 10
11.5124374654
 20
8.8483367708
 30
0.0
 10
11.5206776755
 20
8.8522595745
 30
0.0
 10
11.5292830715
 20
8.856436794
 30
0.0
 10
11.5382019863
 20
8.8609190122
 30
0.0
 10
11.5473855028
 20
8.8657507243
 30
0.0
 10
11.5567875455
 20
8.870969524
 30
0.0
 10
11.5663648225
 20
8.8766057837
 30
0.0
 10
11.5760767373
 20
8.8826826173
 30
0.0
 10
11.5858853028
 20
8.8892161032
 30
0.0
 10
11.5957550344
 20
8.8962156381
 30
0.0
 10
11.6056529817
 20
8.9036845926
 30
0.0
 10
11.6189830962
 20
8.9143750651
 30
0.0
 10
11.6355193949
 20
8.928884136
 30
0.0
 10
11.6548353172
 20
8.9478444522
 30
0.0
 10
11.6736557085
 20
8.968369961
 30
0.0
 10
11.6918407839
 20
8.99026638
 30
0.0
 10
11.7092767939
 20
9.0133190488
 30
0.0
 10
11.7258712749
 20
9.0373009126
 30
0.0
 10
11.7363329557
 20
9.0537682723
 30
0.0
 10
11.7414163305
 20
9.0621056434
 30
0.0
  0
SPLINE
  5
3CD
100
AcDbEntity
  8
0
100
AcDbSpline
 62
7
  6
CONTINUOUS
 70
0
 71
3
 72
9
 73
5
 74
0
 42
0.0000001
 43
0.0000001
 44
0.0000000001
 40
0.0
 40
0.0
 40
0.0
 40
0.0
 40
0.2378840465
 40
1.0
 40
1.0
 40
1.0
 40
1.0
 10
11.4647423177
 20
8.8178147152
 30
0.0
 10
11.4650765231
 20
8.8182767912
 30
0.0
 10
11.4665296684
 20
8.8201842543
 30
0.0
 10
11.4681651799
 20
8.8219496469
 30
0.0
 10
11.4694792503
 20
8.8232189415
 30
0.0
  0
SPLINE
  5
3CE
100
AcDbEntity
  8
0
100
AcDbSpline
 62
7
  6
CONTINUOUS
 70
0
 71
3
 72
82
 73
78
 74
0
 42
0.0000001
 43
0.0000001
 44
0.0000000001
 40
0.0
 40
0.0
 40
0.0
 40
0.0
 40
0.0027164293
 40
0.0054532354
 40
0.0082302999
 40
0.0110665929
 40
0.0139797977
 40
0.0169860984
 40
0.0201000628
 40
0.0233345687
 40
0.02670092
 40
0.0302088685
 40
0.0338667693
 40
0.037681737
 40
0.041659698
 40
0.0458056198
 40
0.0501235458
 40
0.0546167213
 40
0.0592877359
 40
0.0641384976
 40
0.0691704163
 40
0.074384392
 40
0.0797808655
 40
0.0853599363
 40
0.0970637658
 40
0.1094904951
 40
0.1226297336
 40
0.1364673879
 40
0.1509861843
 40
0.1661660644
 40
0.1819844981
 40
0.1984167271
 40
0.2154359876
 40
0.2330137113
 40
0.2511196869
 40
0.2697222025
 40
0.2887881671
 40
0.3082832501
 40
0.3281720021
 40
0.3484179648
 40
0.3689837721
 40
0.3898312537
 40
0.4109215482
 40
0.4536715579
 40
0.4969135729
 40
0.5403218709
 40
0.5835691386
 40
0.6263296079
 40
0.6474270554
 40
0.6682829435
 40
0.6888583941
 40
0.7091152206
 40
0.7290160283
 40
0.7485243176
 40
0.7676046033
 40
0.7862225266
 40
0.8043449633
 40
0.8219401457
 40
0.8389777993
 40
0.8554293065
 40
0.8712678571
 40
0.8864686275
 40
0.9010089958
 40
0.9148688112
 40
0.9280307176
 40
0.9404805288
 40
0.9522077154
 40
0.9577984914
 40
0.9632067177
 40
0.9684324141
 40
0.9734760149
 40
0.9783383748
 40
0.9830208231
 40
0.9875253758
 40
0.9918546116
 40
0.9960116
 40
1.0
 40
1.0
 40
1.0
 40
1.0
 10
14.8116077483
 20
9.2216550826
 30
0.0
 10
14.8130672555
 20
9.2215538742
 30
0.0
 10
14.8159897459
 20
9.2212185892
 30
0.0
 10
14.8203362605
 20
9.2203213135
 30
0.0
 10
14.8246499458
 20
9.2190299654
 30
0.0
 10
14.828927689
 20
9.2173456541
 30
0.0
 10
14.833167302
 20
9.2152699651
 30
0.0
 10
14.8373666295
 20
9.2128045261
 30
0.0
 10
14.8415236711
 20
9.2099510068
 30
0.0
 10
14.8456366731
 20
9.2067113389
 30
0.0
 10
14.8497037708
 20
9.2030873055
 30
0.0
 10
14.8537232549
 20
9.1990809447
 30
0.0
 10
14.8576933916
 20
9.1946943534
 30
0.0
 10
14.86161234
 20
9.1899296988
 30
0.0
 10
14.8654784279
 20
9.1847894295
 30
0.0
 10
14.8692897882
 20
9.1792760288
 30
0.0
 10
14.8730446591
 20
9.173392234
 30
0.0
 10
14.8767412882
 20
9.1671409546
 30
0.0
 10
14.880377807
 20
9.1605252314
 30
0.0
 10
14.8839525376
 20
9.1535483723
 30
0.0
 10
14.8874636661
 20
9.1462138011
 30
0.0
 10
14.8909094525
 20
9.138525163
 30
0.0
 10
14.8942882794
 20
9.1304862769
 30
0.0
 10
14.898773412
 20
9.1191240189
 30
0.0
 10
14.9041828232
 20
9.1040604294
 30
0.0
 10
14.9102814059
 20
9.0849326984
 30
0.0
 10
14.916074495
 20
9.0645132595
 30
0.0
 10
14.9215503913
 20
9.0428429021
 30
0.0
 10
14.9266979946
 20
9.0199646595
 30
0.0
 10
14.9315068435
 20
8.9959242067
 30
0.0
 10
14.9359671463
 20
8.9707696006
 30
0.0
 10
14.9400698289
 20
8.9445512203
 30
0.0
 10
14.9438065488
 20
8.9173216351
 30
0.0
 10
14.9471696997
 20
8.88913548
 30
0.0
 10
14.9501524321
 20
8.860049335
 30
0.0
 10
14.9527486641
 20
8.830121616
 30
0.0
 10
14.954953118
 20
8.7994124563
 30
0.0
 10
14.9567613074
 20
8.7679835764
 30
0.0
 10
14.9581695446
 20
8.7358981505
 30
0.0
 10
14.9591749501
 20
8.7032206754
 30
0.0
 10
14.9597754506
 20
8.6700168678
 30
0.0
 10
14.9599698526
 20
8.6363534435
 30
0.0
 10
14.9596855785
 20
8.5907423593
 30
0.0
 10
14.9583062588
 20
8.533080917
 30
0.0
 10
14.9550555513
 20
8.4634587428
 30
0.0
 10
14.9502275578
 20
8.3936594705
 30
0.0
 10
14.9438610446
 20
8.3242443338
 30
0.0
 10
14.9372875757
 20
8.2669298144
 30
0.0
 10
14.931288532
 20
8.2216999377
 30
0.0
 10
14.9264602512
 20
8.1883702867
 30
0.0
 10
14.9212928792
 20
8.1555497724
 30
0.0
 10
14.9157967957
 20
8.1233043354
 30
0.0
 10
14.9099830994
 20
8.0916988195
 30
0.0
 10
14.9038635103
 20
8.0607967604
 30
0.0
 10
14.8974503837
 20
8.0306602678
 30
0.0
 10
14.8907566744
 20
8.0013498926
 30
0.0
 10
14.8837959008
 20
7.9729245129
 30
0.0
 10
14.8765821216
 20
7.9454412158
 30
0.0
 10
14.8691299029
 20
7.9189551706
 30
0.0
 10
14.8614543131
 20
7.8935195003
 30
0.0
 10
14.8535708679
 20
7.8691851742
 30
0.0
 10
14.8454954988
 20
7.8460009095
 30
0.0
 10
14.8372445107
 20
7.8240130476
 30
0.0
 10
14.8288345521
 20
7.8032654746
 30
0.0
 10
14.8202825649
 20
7.7837993465
 30
0.0
 10
14.811605755
 20
7.7656535264
 30
0.0
 10
14.8041717704
 20
7.7514439552
 30
0.0
 10
14.7981632057
 20
7.7407794832
 30
0.0
 10
14.7937083363
 20
7.7332611721
 30
0.0
 10
14.7892352847
 20
7.7260987884
 30
0.0
 10
14.7847462653
 20
7.719295886
 30
0.0
 10
14.7802435618
 20
7.7128558326
 30
0.0
 10
14.7757292906
 20
7.7067818327
 30
0.0
 10
14.77120568
 20
7.7010767912
 30
0.0
 10
14.7666748038
 20
7.6957435333
 30
0.0
 10
14.76213915
 20
7.6907849532
 30
0.0
 10
14.7590508178
 20
7.6876671599
 30
0.0
 10
14.7575058095
 20
7.6861747963
 30
0.0
  0
SPLINE
  5
3CF
100
AcDbEntity
  8
0
100
AcDbSpline
 62
7
  6
CONTINUOUS
 70
0
 71
3
 72
22
 73
18
 74
0
 42
0.0000001
 43
0.0000001
 44
0.0000000001
 40
0.0
 40
0.0
 40
0.0
 40
0.0
 40
0.0433032802
 40
0.0894199453
 40
0.1383802389
 40
0.1901767292
 40
0.2447710448
 40
0.3020993339
 40
0.3620766017
 40
0.4246002354
 40
0.4895528443
 40
0.5568044514
 40
0.6262138633
 40
0.6976296875
 40
0.770891206
 40
0.8458286646
 40
1.0
 40
1.0
 40
1.0
 40
1.0
 10
10.2523999583
 20
9.2851537255
 30
0.0
 10
10.2556858398
 20
9.2849256423
 30
0.0
 10
10.2624562894
 20
9.2842253804
 30
0.0
 10
10.2728543213
 20
9.2825651763
 30
0.0
 10
10.2837960077
 20
9.2802929947
 30
0.0
 10
10.2952661738
 20
9.2774430713
 30
0.0
 10
10.3072507837
 20
9.2740533691
 30
0.0
 10
10.3197359082
 20
9.2701655158
 30
0.0
 10
10.3327081218
 20
9.2658248441
 30
0.0
 10
10.3461543631
 20
9.2610802011
 30
0.0
 10
10.360061838
 20
9.2559837581
 30
0.0
 10
10.3744178273
 20
9.2505909436
 30
0.0
 10
10.3892094757
 20
9.2449605306
 30
0.0
 10
10.404423329
 20
9.2391544037
 30
0.0
 10
10.4200450043
 20
9.2332374305
 30
0.0
 10
10.4415995708
 20
9.2252147326
 30
0.0
 10
10.4580148076
 20
9.2193572888
 30
0.0
 10
10.4691171002
 20
9.2155815404
 30
0.0
  0
SPLINE
  5
3D0
100
AcDbEntity
  8
0
100
AcDbSpline
 62
7
  6
CONTINUOUS
 70
0
 71
3
 72
11
 73
7
 74
0
 42
0.0000001
 43
0.0000001
 44
0.0000000001
 40
0.0
 40
0.0
 40
0.0
 40
0.0
 40
0.2602343182
 40
0.5135106556
 40
0.7599598681
 40
1.0
 40
1.0
 40
1.0
 40
1.0
 10
11.1757718935
 20
7.3839301368
 30
0.0
 10
11.1703791332
 20
7.3922001493
 30
0.0
 10
11.1604743709
 20
7.4090159299
 30
0.0
 10
11.1483069252
 20
7.4352063819
 30
0.0
 10
11.1391414228
 20
7.4617860553
 30
0.0
 10
11.1350430409
 20
7.4798286518
 30
0.0
 10
11.1335426705
 20
7.4888110074
 30
0.0
  0
SPLINE
  5
3D1
100
AcDbEntity
  8
0
100
AcDbSpline
 62
7
  6
CONTINUOUS
 70
0
 71
3
 72
11
 73
7
 74
0
 42
0.0000001
 43
0.0000001
 44
0.0000000001
 40
0.0
 40
0.0
 40
0.0
 40
0.0
 40
0.2602343182
 40
0.5135106555
 40
0.759959868
 40
1.0
 40
1.0
 40
1.0
 40
1.0
 10
12.3851109589
 20
7.3000621889
 30
0.0
 10
12.3797181986
 20
7.3083322014
 30
0.0
 10
12.3698134364
 20
7.3251479819
 30
0.0
 10
12.3576459909
 20
7.3513384339
 30
0.0
 10
12.3484804886
 20
7.3779181074
 30
0.0
 10
12.3443821068
 20
7.3959607039
 30
0.0
 10
12.3428817365
 20
7.4049430594
 30
0.0
  0
SPLINE
  5
3D2
100
AcDbEntity
  8
0
100
AcDbSpline
 62
7
  6
CONTINUOUS
 70
0
 71
3
 72
15
 73
11
 74
0
 42
0.0000001
 43
0.0000001
 44
0.0000000001
 40
0.0
 40
0.0
 40
0.0
 40
0.0
 40
0.127348315
 40
0.2538606239
 40
0.3795878599
 40
0.5046051181
 40
0.6290174391
 40
0.7529533757
 40
0.8765605793
 40
1.0
 40
1.0
 40
1.0
 40
1.0
 10
9.3518805051
 20
9.5460340217
 30
0.0
 10
9.3518805051
 20
9.5525323876
 30
0.0
 10
9.3525009705
 20
9.5654954434
 30
0.0
 10
9.355306943
 20
9.5846907031
 30
0.0
 10
9.3599597233
 20
9.6034036598
 30
0.0
 10
9.3664172726
 20
9.6214593118
 30
0.0
 10
9.3746203864
 20
9.6386911355
 30
0.0
 10
9.3844942416
 20
9.6549400246
 30
0.0
 10
9.3959459957
 20
9.6700537425
 30
0.0
 10
9.4045685864
 20
9.6792860687
 30
0.0
 10
9.4090990964
 20
9.6836622134
 30
0.0
  0
SPLINE
  5
3D3
100
AcDbEntity
  8
0
100
AcDbSpline
 62
4
  6
CONTINUOUS
 70
0
 71
3
 72
338
 73
334
 74
0
 42
0.0000001
 43
0.0000001
 44
0.0000000001
 40
0.0
 40
0.0
 40
0.0
 40
0.0
 40
0.015625
 40
0.0234375
 40
0.03125
 40
0.0390625
 40
0.046875
 40
0.05078125
 40
0.0546875
 40
0.056640625
 40
0.05859375
 40
0.060546875
 40
0.0615234375
 40
0.0620117188
 40
0.0625
 40
0.0629882812
 40
0.0634765625
 40
0.064453125
 40
0.06640625
 40
0.068359375
 40
0.0703125
 40
0.07421875
 40
0.078125
 40
0.0859375
 40
0.09375
 40
0.1015625
 40
0.109375
 40
0.11328125
 40
0.1171875
 40
0.119140625
 40
0.12109375
 40
0.123046875
 40
0.1240234375
 40
0.1245117188
 40
0.125
 40
0.1254882812
 40
0.1259765625
 40
0.126953125
 40
0.12890625
 40
0.130859375
 40
0.1328125
 40
0.13671875
 40
0.140625
 40
0.1484375
 40
0.15625
 40
0.1640625
 40
0.171875
 40
0.17578125
 40
0.1796875
 40
0.181640625
 40
0.18359375
 40
0.185546875
 40
0.1865234375
 40
0.1870117188
 40
0.1875
 40
0.1879882812
 40
0.1884765625
 40
0.189453125
 40
0.19140625
 40
0.193359375
 40
0.1953125
 40
0.19921875
 40
0.203125
 40
0.2109375
 40
0.21875
 40
0.2265625
 40
0.23046875
 40
0.234375
 40
0.23828125
 40
0.2421875
 40
0.244140625
 40
0.24609375
 40
0.2470703125
 40
0.248046875
 40
0.2490234375
 40
0.2495117188
 40
0.2497558594
 40
0.25
 40
0.2502441406
 40
0.2504882812
 40
0.2509765625
 40
0.251953125
 40
0.2529296875
 40
0.25390625
 40
0.255859375
 40
0.2578125
 40
0.26171875
 40
0.265625
 40
0.26953125
 40
0.2734375
 40
0.28125
 40
0.2890625
 40
0.29296875
 40
0.296875
 40
0.30078125
 40
0.3046875
 40
0.306640625
 40
0.30859375
 40
0.3095703125
 40
0.310546875
 40
0.3115234375
 40
0.3120117188
 40
0.3122558594
 40
0.3125
 40
0.3127441406
 40
0.3129882812
 40
0.3134765625
 40
0.314453125
 40
0.3154296875
 40
0.31640625
 40
0.318359375
 40
0.3203125
 40
0.32421875
 40
0.328125
 40
0.33203125
 40
0.3359375
 40
0.34375
 40
0.3515625
 40
0.35546875
 40
0.359375
 40
0.36328125
 40
0.3671875
 40
0.369140625
 40
0.37109375
 40
0.3720703125
 40
0.373046875
 40
0.3740234375
 40
0.3745117188
 40
0.3747558594
 40
0.375
 40
0.3752441406
 40
0.3754882812
 40
0.3759765625
 40
0.376953125
 40
0.3779296875
 40
0.37890625
 40
0.380859375
 40
0.3828125
 40
0.38671875
 40
0.390625
 40
0.39453125
 40
0.3984375
 40
0.40625
 40
0.4140625
 40
0.41796875
 40
0.421875
 40
0.42578125
 40
0.4296875
 40
0.431640625
 40
0.43359375
 40
0.4345703125
 40
0.435546875
 40
0.4365234375
 40
0.4370117188
 40
0.4372558594
 40
0.4375
 40
0.4377441406
 40
0.4379882812
 40
0.4384765625
 40
0.439453125
 40
0.4404296875
 40
0.44140625
 40
0.443359375
 40
0.4453125
 40
0.44921875
 40
0.453125
 40
0.45703125
 40
0.4609375
 40
0.46875
 40
0.4765625
 40
0.48046875
 40
0.484375
 40
0.48828125
 40
0.4921875
 40
0.494140625
 40
0.49609375
 40
0.4970703125
 40
0.498046875
 40
0.4990234375
 40
0.4995117188
 40
0.4997558594
 40
0.5
 40
0.5002441406
 40
0.5004882812
 40
0.5009765625
 40
0.501953125
 40
0.5029296875
 40
0.50390625
 40
0.505859375
 40
0.5078125
 40
0.51171875
 40
0.515625
 40
0.51953125
 40
0.5234375
 40
0.53125
 40
0.5390625
 40
0.54296875
 40
0.546875
 40
0.55078125
 40
0.5546875
 40
0.556640625
 40
0.55859375
 40
0.5595703125
 40
0.560546875
 40
0.5615234375
 40
0.5620117188
 40
0.5622558594
 40
0.5625
 40
0.5627441406
 40
0.5629882812
 40
0.5634765625
 40
0.564453125
 40
0.5654296875
 40
0.56640625
 40
0.568359375
 40
0.5703125
 40
0.57421875
 40
0.578125
 40
0.58203125
 40
0.5859375
 40
0.59375
 40
0.6015625
 40
0.60546875
 40
0.609375
 40
0.61328125
 40
0.6171875
 40
0.619140625
 40
0.62109375
 40
0.623046875
 40
0.6240234375
 40
0.6245117188
 40
0.625
 40
0.6254882812
 40
0.6259765625
 40
0.626953125
 40
0.62890625
 40
0.630859375
 40
0.6328125
 40
0.63671875
 40
0.640625
 40
0.64453125
 40
0.6484375
 40
0.65625
 40
0.6640625
 40
0.671875
 40
0.67578125
 40
0.6796875
 40
0.681640625
 40
0.68359375
 40
0.685546875
 40
0.6865234375
 40
0.6870117188
 40
0.6875
 40
0.6879882812
 40
0.6884765625
 40
0.689453125
 40
0.69140625
 40
0.693359375
 40
0.6953125
 40
0.69921875
 40
0.703125
 40
0.7109375
 40
0.71875
 40
0.7265625
 40
0.734375
 40
0.73828125
 40
0.7421875
 40
0.744140625
 40
0.74609375
 40
0.748046875
 40
0.7490234375
 40
0.7495117188
 40
0.75
 40
0.7504882812
 40
0.7509765625
 40
0.751953125
 40
0.75390625
 40
0.755859375
 40
0.7578125
 40
0.76171875
 40
0.765625
 40
0.7734375
 40
0.78125
 40
0.7890625
 40
0.796875
 40
0.80078125
 40
0.8046875
 40
0.80859375
 40
0.810546875
 40
0.8115234375
 40
0.8125
 40
0.8134765625
 40
0.814453125
 40
0.81640625
 40
0.8203125
 40
0.82421875
 40
0.828125
 40
0.8359375
 40
0.84375
 40
0.8515625
 40
0.859375
 40
0.86328125
 40
0.8671875
 40
0.87109375
 40
0.873046875
 40
0.8740234375
 40
0.875
 40
0.8759765625
 40
0.876953125
 40
0.87890625
 40
0.8828125
 40
0.88671875
 40
0.890625
 40
0.8984375
 40
0.90625
 40
0.9140625
 40
0.921875
 40
0.92578125
 40
0.9296875
 40
0.93359375
 40
0.935546875
 40
0.9365234375
 40
0.9375
 40
0.9384765625
 40
0.939453125
 40
0.94140625
 40
0.9453125
 40
0.94921875
 40
0.953125
 40
0.9609375
 40
0.96875
 40
0.984375
 40
1.0
 40
1.0
 40
1.0
 40
1.0
 10
15.1491203235
 20
7.3288427793
 30
0.0
 10
15.1490105674
 20
7.3329143457
 30
0.0
 10
15.1488459334
 20
7.3390216953
 30
0.0
 10
15.1486264211
 20
7.3471648276
 30
0.0
 10
15.1484617877
 20
7.3532721783
 30
0.0
 10
15.1482971509
 20
7.3593795233
 30
0.0
 10
15.1481599641
 20
7.3644689952
 30
0.0
 10
15.1480501913
 20
7.3685405331
 30
0.0
 10
15.1479816363
 20
7.3710853345
 30
0.0
 10
15.147926671
 20
7.373120969
 30
0.0
 10
15.147885779
 20
7.3746482607
 30
0.0
 10
15.1478506464
 20
7.3759192037
 30
0.0
 10
15.1478281257
 20
7.3768123964
 30
0.0
 10
15.1478120214
 20
7.3773172763
 30
0.0
 10
15.1478090571
 20
7.3777114746
 30
0.0
 10
15.1477712548
 20
7.3780462778
 30
0.0
 10
15.1477330037
 20
7.3785133998
 30
0.0
 10
15.1476604023
 20
7.3793212105
 30
0.0
 10
15.1475596462
 20
7.3804802723
 30
0.0
 10
15.1474374719
 20
7.3818689864
 30
0.0
 10
15.1472750153
 20
7.3837213598
 30
0.0
 10
15.1470717931
 20
7.386036568
 30
0.0
 10
15.1467467222
 20
7.3897410458
 30
0.0
 10
15.1463403543
 20
7.3943715929
 30
0.0
 10
15.1458527262
 20
7.3999282729
 30
0.0
 10
15.1453650916
 20
7.4054849393
 30
0.0
 10
15.14495874
 20
7.4101155204
 30
0.0
 10
15.1446336367
 20
7.4138199302
 30
0.0
 10
15.144430497
 20
7.4161353112
 30
0.0
 10
15.1442678709
 20
7.4179873299
 30
0.0
 10
15.1441462142
 20
7.4193771273
 30
0.0
 10
15.1440438386
 20
7.4205327999
 30
0.0
 10
15.1439741285
 20
7.421346661
 30
0.0
 10
15.1439312449
 20
7.4218040887
 30
0.0
 10
15.143907672
 20
7.4221686698
 30
0.0
 10
15.1438512645
 20
7.4224510274
 30
0.0
 10
15.1437875075
 20
7.4228561848
 30
0.0
 10
15.1436705967
 20
7.4235518474
 30
0.0
 10
15.1435063711
 20
7.4245526373
 30
0.0
 10
15.1433081061
 20
7.4257505949
 30
0.0
 10
15.14304417
 20
7.4273489161
 30
0.0
 10
15.1427141071
 20
7.4293464601
 30
0.0
 10
15.1421860862
 20
7.4325427303
 30
0.0
 10
15.1415260325
 20
7.4365379989
 30
0.0
 10
15.1407339806
 20
7.4413323532
 30
0.0
 10
15.1399419225
 20
7.4461266905
 30
0.0
 10
15.1392818844
 20
7.4501220018
 30
0.0
 10
15.1387538324
 20
7.4533181867
 30
0.0
 10
15.1384238484
 20
7.4553159474
 30
0.0
 10
15.1381597502
 20
7.4569138236
 30
0.0
 10
15.1379619803
 20
7.4581131409
 30
0.0
 10
15.1377962059
 20
7.4591096766
 30
0.0
 10
15.1376820599
 20
7.4598129337
 30
0.0
 10
15.1376138731
 20
7.4602059228
 30
0.0
 10
15.1375710726
 20
7.4605256574
 30
0.0
 10
15.1374963941
 20
7.4607498569
 30
0.0
 10
15.1374079422
 20
7.4610821132
 30
0.0
 10
15.1372479705
 20
7.4616480357
 30
0.0
 10
15.1370221482
 20
7.4624646136
 30
0.0
 10
15.1367500021
 20
7.4634410326
 30
0.0
 10
15.1363875455
 20
7.4647441382
 30
0.0
 10
15.1359343361
 20
7.4663726047
 30
0.0
 10
15.1352092785
 20
7.4689783832
 30
0.0
 10
15.13430293
 20
7.4722355268
 30
0.0
 10
15.1332153232
 20
7.4761441332
 30
0.0
 10
15.1323089816
 20
7.4794012976
 30
0.0
 10
15.1315839088
 20
7.4820070302
 30
0.0
 10
15.1310401044
 20
7.483961331
 30
0.0
 10
15.1304962989
 20
7.4859156259
 30
0.0
 10
15.1300431311
 20
7.4875442237
 30
0.0
 10
15.1296805891
 20
7.4888470598
 30
0.0
 10
15.1294540181
 20
7.4896614284
 30
0.0
 10
15.1292727207
 20
7.4903127034
 30
0.0
 10
15.1291368587
 20
7.4908017615
 30
0.0
 10
15.1290232872
 20
7.4912073955
 30
0.0
 10
15.1289444802
 20
7.4914950963
 30
0.0
 10
15.1288983654
 20
7.4916536304
 30
0.0
 10
15.1288668279
 20
7.4917890566
 30
0.0
 10
15.1288236372
 20
7.4918613135
 30
0.0
 10
15.1287701143
 20
7.4919796902
 30
0.0
 10
15.1286745554
 20
7.4921765833
 30
0.0
 10
15.1285390327
 20
7.4924632264
 30
0.0
 10
15.1283759818
 20
7.4928049007
 30
0.0
 10
15.1281587286
 20
7.4932612689
 30
0.0
 10
15.1278871113
 20
7.4938314544
 30
0.0
 10
15.1274525521
 20
7.4947439048
 30
0.0
 10
15.1269093433
 20
7.4958844151
 30
0.0
 10
15.126257497
 20
7.49725305
 30
0.0
 10
15.1256056495
 20
7.4986216789
 30
0.0
 10
15.1247365199
 20
7.5004465195
 30
0.0
 10
15.1236501078
 20
7.5027275695
 30
0.0
 10
15.1225636958
 20
7.50500862
 30
0.0
 10
15.1216945661
 20
7.5068334597
 30
0.0
 10
15.121042719
 20
7.5082020912
 30
0.0
 10
15.120390871
 20
7.5095707165
 30
0.0
 10
15.1198476673
 20
7.5107112568
 30
0.0
 10
15.1194130978
 20
7.5116236459
 30
0.0
 10
15.1191415068
 20
7.5121939873
 30
0.0
 10
15.1189241997
 20
7.5126500355
 30
0.0
 10
15.1187613134
 20
7.5129926873
 30
0.0
 10
15.1186252755
 20
7.5132762723
 30
0.0
 10
15.1185306365
 20
7.5134786246
 30
0.0
 10
15.1184756397
 20
7.5135882542
 30
0.0
 10
15.1184369763
 20
7.5136873793
 30
0.0
 10
15.1183884347
 20
7.5137218929
 30
0.0
 10
15.1183271582
 20
7.5137904483
 30
0.0
 10
15.1182183189
 20
7.5138999196
 30
0.0
 10
15.1180636736
 20
7.5140617971
 30
0.0
 10
15.1178777399
 20
7.5142537002
 30
0.0
 10
15.1176299538
 20
7.5145103917
 30
0.0
 10
15.1173201782
 20
7.5148309752
 30
0.0
 10
15.1168245613
 20
7.5153440657
 30
0.0
 10
15.1162050319
 20
7.515985375
 30
0.0
 10
15.1154616002
 20
7.5167549692
 30
0.0
 10
15.1147181676
 20
7.5175245573
 30
0.0
 10
15.1137269243
 20
7.5185506769
 30
0.0
 10
15.1124878702
 20
7.5198333256
 30
0.0
 10
15.1112488161
 20
7.5211159748
 30
0.0
 10
15.1102575728
 20
7.5221420935
 30
0.0
 10
15.1095141405
 20
7.5229116842
 30
0.0
 10
15.1087707075
 20
7.5236812685
 30
0.0
 10
15.1081511821
 20
7.5243226089
 30
0.0
 10
15.1076555572
 20
7.524835636
 30
0.0
 10
15.107345802
 20
7.5251563809
 30
0.0
 10
15.107097974
 20
7.525412741
 30
0.0
 10
15.1069121681
 20
7.5256056567
 30
0.0
 10
15.106757123
 20
7.5257643659
 30
0.0
 10
15.1066489974
 20
7.5258794932
 30
0.0
 10
15.1065865775
 20
7.5259389863
 30
0.0
 10
15.1065415479
 20
7.5260013362
 30
0.0
 10
15.1064896942
 20
7.5259959128
 30
0.0
 10
15.1064229363
 20
7.5260123217
 30
0.0
 10
15.1063050009
 20
7.526030023
 30
0.0
 10
15.1061371016
 20
7.526061069
 30
0.0
 10
15.1059353743
 20
7.5260958594
 30
0.0
 10
15.1056664912
 20
7.5261431075
 30
0.0
 10
15.1053303576
 20
7.5262018728
 30
0.0
 10
15.1047925605
 20
7.526296062
 30
0.0
 10
15.1041203084
 20
7.5264137421
 30
0.0
 10
15.1033136084
 20
7.5265549824
 30
0.0
 10
15.1025069077
 20
7.5266962162
 30
0.0
 10
15.1014313069
 20
7.5268845302
 30
0.0
 10
15.100086806
 20
7.5271199219
 30
0.0
 10
15.098742305
 20
7.5273553141
 30
0.0
 10
15.0976667042
 20
7.5275436272
 30
0.0
 10
15.0968600038
 20
7.5276848638
 30
0.0
 10
15.0960533028
 20
7.5278260937
 30
0.0
 10
15.0953810535
 20
7.5279438061
 30
0.0
 10
15.0948432507
 20
7.5280379293
 30
0.0
 10
15.0945071317
 20
7.5280968626
 30
0.0
 10
15.0942382187
 20
7.5281437659
 30
0.0
 10
15.0940365828
 20
7.5281796095
 30
0.0
 10
15.0938683973
 20
7.5282073603
 30
0.0
 10
15.0937509729
 20
7.5282309441
 30
0.0
 10
15.0936833962
 20
7.5282379278
 30
0.0
 10
15.0936340576
 20
7.5282614558
 30
0.0
 10
15.0935795818
 20
7.5282150691
 30
0.0
 10
15.0935087394
 20
7.5281776072
 30
0.0
 10
15.0933839302
 20
7.5281006865
 30
0.0
 10
15.0932060679
 20
7.5279967402
 30
0.0
 10
15.0929924463
 20
7.527869462
 30
0.0
 10
15.0927076827
 20
7.5277006457
 30
0.0
 10
15.0923517059
 20
7.5274893214
 30
0.0
 10
15.0917821556
 20
7.5271513723
 30
0.0
 10
15.0910702133
 20
7.5267288777
 30
0.0
 10
15.0902158844
 20
7.5262219092
 30
0.0
 10
15.0893615551
 20
7.525714934
 30
0.0
 10
15.0882224494
 20
7.5250389693
 30
0.0
 10
15.0867985673
 20
7.5241940127
 30
0.0
 10
15.0853746852
 20
7.5233490566
 30
0.0
 10
15.0842355795
 20
7.5226730911
 30
0.0
 10
15.0833812503
 20
7.5221661186
 30
0.0
 10
15.0825269211
 20
7.5216591398
 30
0.0
 10
15.0818149797
 20
7.5212366771
 30
0.0
 10
15.0812454276
 20
7.520898663
 30
0.0
 10
15.0808894551
 20
7.5206875043
 30
0.0
 10
15.0806046827
 20
7.520518348
 30
0.0
 10
15.0803910882
 20
7.5203921088
 30
0.0
 10
15.0802131411
 20
7.5202849116
 30
0.0
 10
15.0800884833
 20
7.5202137942
 30
0.0
 10
15.0800173984
 20
7.520167034
 30
0.0
 10
15.0799636673
 20
7.5201492088
 30
0.0
 10
15.0799115319
 20
7.5200654644
 30
0.0
 10
15.0798414615
 20
7.5199767985
 30
0.0
 10
15.0797190976
 20
7.5198109202
 30
0.0
 10
15.0795441565
 20
7.5195795521
 30
0.0
 10
15.0793342851
 20
7.519299513
 30
0.0
 10
15.0790544364
 20
7.5189269649
 30
0.0
 10
15.0787046325
 20
7.5184609931
 30
0.0
 10
15.0781449423
 20
7.5177155984
 30
0.0
 10
15.0774453308
 20
7.5167838
 30
0.0
 10
15.0766057966
 20
7.5156656656
 30
0.0
 10
15.0757662624
 20
7.5145475248
 30
0.0
 10
15.0746468835
 20
7.5130566727
 30
0.0
 10
15.0732476599
 20
7.5111931067
 30
0.0
 10
15.0718484363
 20
7.5093295412
 30
0.0
 10
15.0707290575
 20
7.5078386882
 30
0.0
 10
15.0698895232
 20
7.50672055
 30
0.0
 10
15.0690499893
 20
7.5056024059
 30
0.0
 10
15.0683503767
 20
7.5046706375
 30
0.0
 10
15.0677906889
 20
7.5039251817
 30
0.0
 10
15.0674408788
 20
7.5034593655
 30
0.0
 10
15.0671610427
 20
7.5030864979
 30
0.0
 10
15.0669511328
 20
7.5028074348
 30
0.0
 10
15.0667763124
 20
7.502573013
 30
0.0
 10
15.066653733
 20
7.5024125861
 30
0.0
 10
15.0665840079
 20
7.5023151858
 30
0.0
 10
15.0665308118
 20
7.5022582708
 30
0.0
 10
15.0664810647
 20
7.5021396787
 30
0.0
 10
15.0664135323
 20
7.5020030696
 30
0.0
 10
15.066295911
 20
7.5017539802
 30
0.0
 10
15.0661275875
 20
7.5014033785
 30
0.0
 10
15.0659257247
 20
7.5009804134
 30
0.0
 10
15.0656565305
 20
7.5004172435
 30
0.0
 10
15.0653200528
 20
7.4997130127
 30
0.0
 10
15.0647816801
 20
7.4985863935
 30
0.0
 10
15.0641087172
 20
7.497178068
 30
0.0
 10
15.0633011603
 20
7.4954880995
 30
0.0
 10
15.0624936038
 20
7.4937981251
 30
0.0
 10
15.0614168617
 20
7.491544828
 30
0.0
 10
15.0600709342
 20
7.4887282053
 30
0.0
 10
15.0587250063
 20
7.4859115852
 30
0.0
 10
15.0576482647
 20
7.4836582838
 30
0.0
 10
15.0568407067
 20
7.4819683222
 30
0.0
 10
15.0560331555
 20
7.4802783058
 30
0.0
 10
15.0553601751
 20
7.4788701292
 30
0.0
 10
15.0548218379
 20
7.4777432063
 30
0.0
 10
15.0544179561
 20
7.476899057
 30
0.0
 10
15.0540817981
 20
7.4761922817
 30
0.0
 10
15.0538456826
 20
7.4757040497
 30
0.0
 10
15.0537120162
 20
7.475414894
 30
0.0
 10
15.053608226
 20
7.475226665
 30
0.0
 10
15.0535179692
 20
7.4749289678
 30
0.0
 10
15.0533929063
 20
7.4745702219
 30
0.0
 10
15.0531762455
 20
7.4739246261
 30
0.0
 10
15.0528655802
 20
7.4730116475
 30
0.0
 10
15.052493274
 20
7.4719120919
 30
0.0
 10
15.0519966938
 20
7.4704474085
 30
0.0
 10
15.0513760276
 20
7.4686160771
 30
0.0
 10
15.0506312029
 20
7.4664186839
 30
0.0
 10
15.0498863849
 20
7.4642212361
 30
0.0
 10
15.048893292
 20
7.4612913245
 30
0.0
 10
15.0476519262
 20
7.4576289305
 30
0.0
 10
15.0461622887
 20
7.4532340506
 30
0.0
 10
15.044920919
 20
7.4495716806
 30
0.0
 10
15.0439278348
 20
7.4466417164
 30
0.0
 10
15.0433071308
 20
7.4448106441
 30
0.0
 10
15.0428106279
 20
7.4433454306
 30
0.0
 10
15.0424380855
 20
7.4422474943
 30
0.0
 10
15.0421281593
 20
7.4413294496
 30
0.0
 10
15.0419101792
 20
7.4406928975
 30
0.0
 10
15.0417872301
 20
7.4403196613
 30
0.0
 10
15.04169048
 20
7.4400664739
 30
0.0
 10
15.0416110778
 20
7.4397110731
 30
0.0
 10
15.041499157
 20
7.4392728585
 30
0.0
 10
15.041306115
 20
7.4384893715
 30
0.0
 10
15.0410288667
 20
7.4373787891
 30
0.0
 10
15.0406967997
 20
7.4360423728
 30
0.0
 10
15.0402538234
 20
7.4342617828
 30
0.0
 10
15.0397001783
 20
7.4320356008
 30
0.0
 10
15.0388143041
 20
7.428473958
 30
0.0
 10
15.037706976
 20
7.424021819
 30
0.0
 10
15.0363781753
 20
7.4186792902
 30
0.0
 10
15.0350493789
 20
7.4133367459
 30
0.0
 10
15.03394204
 20
7.4088846458
 30
0.0
 10
15.0330561874
 20
7.4053229252
 30
0.0
 10
15.0325024873
 20
7.4030969411
 30
0.0
 10
15.032059624
 20
7.4013159447
 30
0.0
 10
15.0317272115
 20
7.3999807701
 30
0.0
 10
15.0314510442
 20
7.3988663029
 30
0.0
 10
15.0312560725
 20
7.3980897509
 30
0.0
 10
15.0311472437
 20
7.3976404247
 30
0.0
 10
15.0310583441
 20
7.3973191551
 30
0.0
 10
15.0309972646
 20
7.3969377763
 30
0.0
 10
15.0309061213
 20
7.396450238
 30
0.0
 10
15.0307511418
 20
7.3955872771
 30
0.0
 10
15.0305273788
 20
7.3943595832
 30
0.0
 10
15.0302598749
 20
7.3928841643
 30
0.0
 10
15.0299028496
 20
7.3909177027
 30
0.0
 10
15.0294566892
 20
7.3884593643
 30
0.0
 10
15.0287427645
 20
7.3845261693
 30
0.0
 10
15.0278503836
 20
7.3796096226
 30
0.0
 10
15.0267795085
 20
7.3737098006
 30
0.0
 10
15.0257086657
 20
7.3678099274
 30
0.0
 10
15.0248162041
 20
7.3628935086
 30
0.0
 10
15.0241024408
 20
7.3589600579
 30
0.0
 10
15.023566556
 20
7.3560108317
 30
0.0
 10
15.0231217741
 20
7.3535504019
 30
0.0
 10
15.0228069162
 20
7.3518334807
 30
0.0
 10
15.0226324789
 20
7.3508439829
 30
0.0
 10
15.0224862097
 20
7.3501255225
 30
0.0
 10
15.0223989643
 20
7.3493166103
 30
0.0
 10
15.0222620489
 20
7.3482696113
 30
0.0
 10
15.0220320393
 20
7.346422663
 30
0.0
 10
15.0216984392
 20
7.3437918508
 30
0.0
 10
15.0213002658
 20
7.3406315865
 30
0.0
 10
15.0207686178
 20
7.33641905
 30
0.0
 10
15.020104317
 20
7.331152984
 30
0.0
 10
15.0193070367
 20
7.3248338791
 30
0.0
 10
15.0185098189
 20
7.3185147095
 30
0.0
 10
15.0178453619
 20
7.3132488052
 30
0.0
 10
15.0173140263
 20
7.3090359453
 30
0.0
 10
15.0169148997
 20
7.3058766677
 30
0.0
 10
15.0165842816
 20
7.3032427686
 30
0.0
 10
15.0163489488
 20
7.3014013308
 30
0.0
 10
15.0162205626
 20
7.3003455025
 30
0.0
 10
15.0161071181
 20
7.2995637111
 30
0.0
 10
15.016059248
 20
7.2987433896
 30
0.0
 10
15.0159725482
 20
7.2976630673
 30
0.0
 10
15.0158314804
 20
7.2957662414
 30
0.0
 10
15.0156243835
 20
7.293059764
 30
0.0
 10
15.015378252
 20
7.2898105897
 30
0.0
 10
15.0150492434
 20
7.285478847
 30
0.0
 10
15.0146382705
 20
7.2800640002
 30
0.0
 10
15.014144971
 20
7.2735662575
 30
0.0
 10
15.0136517392
 20
7.2670684907
 30
0.0
 10
15.0132405968
 20
7.2616537041
 30
0.0
 10
15.0129119273
 20
7.257321841
 30
0.0
 10
15.0126647616
 20
7.2540730338
 30
0.0
 10
15.0124609001
 20
7.2513654082
 30
0.0
 10
15.0123140565
 20
7.249470632
 30
0.0
 10
15.012236611
 20
7.2483870256
 30
0.0
 10
15.0121603147
 20
7.2475767918
 30
0.0
 10
15.0121536344
 20
7.2467571127
 30
0.0
 10
15.0121204444
 20
7.2456675018
 30
0.0
 10
15.0120736758
 20
7.2437591478
 30
0.0
 10
15.0120009486
 20
7.2410337304
 30
0.0
 10
15.0119162077
 20
7.2377628859
 30
0.0
 10
15.0118023355
 20
7.2334018799
 30
0.0
 10
15.0116602981
 20
7.2279505814
 30
0.0
 10
15.011432869
 20
7.2192285267
 30
0.0
 10
15.011148641
 20
7.2083259504
 30
0.0
 10
15.0109212409
 20
7.1996038917
 30
0.0
 10
15.010807543
 20
7.1952428621
 30
0.0
  0
SPLINE
  5
3D4
100
AcDbEntity
  8
0
100
AcDbSpline
 62
4
  6
CONTINUOUS
 70
0
 71
3
 72
338
 73
334
 74
0
 42
0.0000001
 43
0.0000001
 44
0.0000000001
 40
0.0
 40
0.0
 40
0.0
 40
0.0
 40
0.015625
 40
0.0234375
 40
0.03125
 40
0.0390625
 40
0.046875
 40
0.05078125
 40
0.0546875
 40
0.056640625
 40
0.05859375
 40
0.060546875
 40
0.0615234375
 40
0.0620117188
 40
0.0625
 40
0.0629882812
 40
0.0634765625
 40
0.064453125
 40
0.06640625
 40
0.068359375
 40
0.0703125
 40
0.07421875
 40
0.078125
 40
0.0859375
 40
0.09375
 40
0.1015625
 40
0.109375
 40
0.11328125
 40
0.1171875
 40
0.119140625
 40
0.12109375
 40
0.123046875
 40
0.1240234375
 40
0.1245117188
 40
0.125
 40
0.1254882812
 40
0.1259765625
 40
0.126953125
 40
0.12890625
 40
0.130859375
 40
0.1328125
 40
0.13671875
 40
0.140625
 40
0.1484375
 40
0.15625
 40
0.1640625
 40
0.171875
 40
0.17578125
 40
0.1796875
 40
0.181640625
 40
0.18359375
 40
0.185546875
 40
0.1865234375
 40
0.1870117188
 40
0.1875
 40
0.1879882812
 40
0.1884765625
 40
0.189453125
 40
0.19140625
 40
0.193359375
 40
0.1953125
 40
0.19921875
 40
0.203125
 40
0.2109375
 40
0.21875
 40
0.2265625
 40
0.23046875
 40
0.234375
 40
0.23828125
 40
0.2421875
 40
0.244140625
 40
0.24609375
 40
0.2470703125
 40
0.248046875
 40
0.2490234375
 40
0.2495117188
 40
0.2497558594
 40
0.25
 40
0.2502441406
 40
0.2504882812
 40
0.2509765625
 40
0.251953125
 40
0.2529296875
 40
0.25390625
 40
0.255859375
 40
0.2578125
 40
0.26171875
 40
0.265625
 40
0.26953125
 40
0.2734375
 40
0.28125
 40
0.2890625
 40
0.29296875
 40
0.296875
 40
0.30078125
 40
0.3046875
 40
0.306640625
 40
0.30859375
 40
0.3095703125
 40
0.310546875
 40
0.3115234375
 40
0.3120117188
 40
0.3122558594
 40
0.3125
 40
0.3127441406
 40
0.3129882812
 40
0.3134765625
 40
0.314453125
 40
0.3154296875
 40
0.31640625
 40
0.318359375
 40
0.3203125
 40
0.32421875
 40
0.328125
 40
0.33203125
 40
0.3359375
 40
0.34375
 40
0.3515625
 40
0.35546875
 40
0.359375
 40
0.36328125
 40
0.3671875
 40
0.369140625
 40
0.37109375
 40
0.3720703125
 40
0.373046875
 40
0.3740234375
 40
0.3745117188
 40
0.3747558594
 40
0.375
 40
0.3752441406
 40
0.3754882812
 40
0.3759765625
 40
0.376953125
 40
0.3779296875
 40
0.37890625
 40
0.380859375
 40
0.3828125
 40
0.38671875
 40
0.390625
 40
0.39453125
 40
0.3984375
 40
0.40625
 40
0.4140625
 40
0.41796875
 40
0.421875
 40
0.42578125
 40
0.4296875
 40
0.431640625
 40
0.43359375
 40
0.4345703125
 40
0.435546875
 40
0.4365234375
 40
0.4370117188
 40
0.4372558594
 40
0.4375
 40
0.4377441406
 40
0.4379882812
 40
0.4384765625
 40
0.439453125
 40
0.4404296875
 40
0.44140625
 40
0.443359375
 40
0.4453125
 40
0.44921875
 40
0.453125
 40
0.45703125
 40
0.4609375
 40
0.46875
 40
0.4765625
 40
0.48046875
 40
0.484375
 40
0.48828125
 40
0.4921875
 40
0.494140625
 40
0.49609375
 40
0.4970703125
 40
0.498046875
 40
0.4990234375
 40
0.4995117188
 40
0.4997558594
 40
0.5
 40
0.5002441406
 40
0.5004882812
 40
0.5009765625
 40
0.501953125
 40
0.5029296875
 40
0.50390625
 40
0.505859375
 40
0.5078125
 40
0.51171875
 40
0.515625
 40
0.51953125
 40
0.5234375
 40
0.53125
 40
0.5390625
 40
0.54296875
 40
0.546875
 40
0.55078125
 40
0.5546875
 40
0.556640625
 40
0.55859375
 40
0.5595703125
 40
0.560546875
 40
0.5615234375
 40
0.5620117188
 40
0.5622558594
 40
0.5625
 40
0.5627441406
 40
0.5629882812
 40
0.5634765625
 40
0.564453125
 40
0.5654296875
 40
0.56640625
 40
0.568359375
 40
0.5703125
 40
0.57421875
 40
0.578125
 40
0.58203125
 40
0.5859375
 40
0.59375
 40
0.6015625
 40
0.60546875
 40
0.609375
 40
0.61328125
 40
0.6171875
 40
0.619140625
 40
0.62109375
 40
0.623046875
 40
0.6240234375
 40
0.6245117188
 40
0.625
 40
0.6254882812
 40
0.6259765625
 40
0.626953125
 40
0.62890625
 40
0.630859375
 40
0.6328125
 40
0.63671875
 40
0.640625
 40
0.64453125
 40
0.6484375
 40
0.65625
 40
0.6640625
 40
0.671875
 40
0.67578125
 40
0.6796875
 40
0.681640625
 40
0.68359375
 40
0.685546875
 40
0.6865234375
 40
0.6870117188
 40
0.6875
 40
0.6879882812
 40
0.6884765625
 40
0.689453125
 40
0.69140625
 40
0.693359375
 40
0.6953125
 40
0.69921875
 40
0.703125
 40
0.7109375
 40
0.71875
 40
0.7265625
 40
0.734375
 40
0.73828125
 40
0.7421875
 40
0.744140625
 40
0.74609375
 40
0.748046875
 40
0.7490234375
 40
0.7495117188
 40
0.75
 40
0.7504882812
 40
0.7509765625
 40
0.751953125
 40
0.75390625
 40
0.755859375
 40
0.7578125
 40
0.76171875
 40
0.765625
 40
0.7734375
 40
0.78125
 40
0.7890625
 40
0.796875
 40
0.80078125
 40
0.8046875
 40
0.80859375
 40
0.810546875
 40
0.8115234375
 40
0.8125
 40
0.8134765625
 40
0.814453125
 40
0.81640625
 40
0.8203125
 40
0.82421875
 40
0.828125
 40
0.8359375
 40
0.84375
 40
0.8515625
 40
0.859375
 40
0.86328125
 40
0.8671875
 40
0.87109375
 40
0.873046875
 40
0.8740234375
 40
0.875
 40
0.8759765625
 40
0.876953125
 40
0.87890625
 40
0.8828125
 40
0.88671875
 40
0.890625
 40
0.8984375
 40
0.90625
 40
0.9140625
 40
0.921875
 40
0.92578125
 40
0.9296875
 40
0.93359375
 40
0.935546875
 40
0.9365234375
 40
0.9375
 40
0.9384765625
 40
0.939453125
 40
0.94140625
 40
0.9453125
 40
0.94921875
 40
0.953125
 40
0.9609375
 40
0.96875
 40
0.984375
 40
1.0
 40
1.0
 40
1.0
 40
1.0
 10
15.010807543
 20
7.1952428846
 30
0.0
 10
15.0109172991
 20
7.1911713183
 30
0.0
 10
15.0110819331
 20
7.1850639687
 30
0.0
 10
15.0113014454
 20
7.1769208364
 30
0.0
 10
15.0114660788
 20
7.1708134857
 30
0.0
 10
15.0116307155
 20
7.1647061406
 30
0.0
 10
15.0117679024
 20
7.1596166688
 30
0.0
 10
15.0118776752
 20
7.1555451309
 30
0.0
 10
15.0119462302
 20
7.1530003295
 30
0.0
 10
15.0120011955
 20
7.150964695
 30
0.0
 10
15.0120420875
 20
7.1494374033
 30
0.0
 10
15.01207722
 20
7.1481664603
 30
0.0
 10
15.0120997408
 20
7.1472732676
 30
0.0
 10
15.0121158451
 20
7.1467683876
 30
0.0
 10
15.0121188094
 20
7.1463741894
 30
0.0
 10
15.0121566117
 20
7.1460393862
 30
0.0
 10
15.0121948628
 20
7.1455722642
 30
0.0
 10
15.0122674641
 20
7.1447644535
 30
0.0
 10
15.0123682202
 20
7.1436053917
 30
0.0
 10
15.0124903946
 20
7.1422166775
 30
0.0
 10
15.0126528512
 20
7.1403643042
 30
0.0
 10
15.0128560734
 20
7.1380490959
 30
0.0
 10
15.0131811443
 20
7.1343446182
 30
0.0
 10
15.0135875121
 20
7.1297140711
 30
0.0
 10
15.0140751402
 20
7.1241573911
 30
0.0
 10
15.0145627748
 20
7.1186007247
 30
0.0
 10
15.0149691265
 20
7.1139701436
 30
0.0
 10
15.0152942298
 20
7.1102657338
 30
0.0
 10
15.0154973695
 20
7.1079503528
 30
0.0
 10
15.0156599955
 20
7.106098334
 30
0.0
 10
15.0157816522
 20
7.1047085366
 30
0.0
 10
15.0158840279
 20
7.1035528641
 30
0.0
 10
15.015953738
 20
7.1027390029
 30
0.0
 10
15.0159966216
 20
7.1022815753
 30
0.0
 10
15.0160201945
 20
7.1019169942
 30
0.0
 10
15.016076602
 20
7.1016346365
 30
0.0
 10
15.0161403589
 20
7.1012294792
 30
0.0
 10
15.0162572698
 20
7.1005338166
 30
0.0
 10
15.0164214954
 20
7.0995330267
 30
0.0
 10
15.0166197603
 20
7.0983350691
 30
0.0
 10
15.0168836964
 20
7.0967367478
 30
0.0
 10
15.0172137594
 20
7.0947392039
 30
0.0
 10
15.0177417803
 20
7.0915429337
 30
0.0
 10
15.018401834
 20
7.087547665
 30
0.0
 10
15.0191938859
 20
7.0827533108
 30
0.0
 10
15.019985944
 20
7.0779589735
 30
0.0
 10
15.0206459821
 20
7.0739636622
 30
0.0
 10
15.0211740341
 20
7.0707674773
 30
0.0
 10
15.0215040181
 20
7.0687697165
 30
0.0
 10
15.0217681163
 20
7.0671718404
 30
0.0
 10
15.0219658862
 20
7.0659725231
 30
0.0
 10
15.0221316605
 20
7.0649759874
 30
0.0
 10
15.0222458066
 20
7.0642727303
 30
0.0
 10
15.0223139934
 20
7.0638797412
 30
0.0
 10
15.0223567939
 20
7.0635600065
 30
0.0
 10
15.0224314724
 20
7.0633358071
 30
0.0
 10
15.0225199243
 20
7.0630035508
 30
0.0
 10
15.0226798959
 20
7.0624376283
 30
0.0
 10
15.0229057183
 20
7.0616210504
 30
0.0
 10
15.0231778644
 20
7.0606446314
 30
0.0
 10
15.023540321
 20
7.0593415258
 30
0.0
 10
15.0239935304
 20
7.0577130593
 30
0.0
 10
15.024718588
 20
7.0551072807
 30
0.0
 10
15.0256249365
 20
7.0518501372
 30
0.0
 10
15.0267125433
 20
7.0479415308
 30
0.0
 10
15.0276188849
 20
7.0446843664
 30
0.0
 10
15.0283439577
 20
7.0420786338
 30
0.0
 10
15.0288877621
 20
7.0401243329
 30
0.0
 10
15.0294315676
 20
7.0381700381
 30
0.0
 10
15.0298847354
 20
7.0365414403
 30
0.0
 10
15.0302472774
 20
7.0352386041
 30
0.0
 10
15.0304738484
 20
7.0344242356
 30
0.0
 10
15.0306551458
 20
7.0337729606
 30
0.0
 10
15.0307910078
 20
7.0332839025
 30
0.0
 10
15.0309045793
 20
7.0328782685
 30
0.0
 10
15.0309833863
 20
7.0325905677
 30
0.0
 10
15.0310295011
 20
7.0324320336
 30
0.0
 10
15.0310610385
 20
7.0322966073
 30
0.0
 10
15.0311042293
 20
7.0322243504
 30
0.0
 10
15.0311577522
 20
7.0321059738
 30
0.0
 10
15.0312533111
 20
7.0319090807
 30
0.0
 10
15.0313888337
 20
7.0316224376
 30
0.0
 10
15.0315518847
 20
7.0312807633
 30
0.0
 10
15.0317691379
 20
7.030824395
 30
0.0
 10
15.0320407551
 20
7.0302542095
 30
0.0
 10
15.0324753144
 20
7.0293417592
 30
0.0
 10
15.0330185232
 20
7.0282012489
 30
0.0
 10
15.0336703695
 20
7.026832614
 30
0.0
 10
15.034322217
 20
7.0254639851
 30
0.0
 10
15.0351913466
 20
7.0236391445
 30
0.0
 10
15.0362777587
 20
7.0213580945
 30
0.0
 10
15.0373641707
 20
7.019077044
 30
0.0
 10
15.0382333004
 20
7.0172522042
 30
0.0
 10
15.0388851475
 20
7.0158835728
 30
0.0
 10
15.0395369954
 20
7.0145149475
 30
0.0
 10
15.0400801991
 20
7.0133744072
 30
0.0
 10
15.0405147687
 20
7.0124620181
 30
0.0
 10
15.0407863597
 20
7.0118916767
 30
0.0
 10
15.0410036668
 20
7.0114356284
 30
0.0
 10
15.0411665531
 20
7.0110929767
 30
0.0
 10
15.041302591
 20
7.0108093917
 30
0.0
 10
15.04139723
 20
7.0106070394
 30
0.0
 10
15.0414522268
 20
7.0104974098
 30
0.0
 10
15.0414908902
 20
7.0103982846
 30
0.0
 10
15.0415394318
 20
7.010363771
 30
0.0
 10
15.0416007083
 20
7.0102952157
 30
0.0
 10
15.0417095476
 20
7.0101857443
 30
0.0
 10
15.0418641929
 20
7.0100238669
 30
0.0
 10
15.0420501266
 20
7.0098319638
 30
0.0
 10
15.0422979127
 20
7.0095752722
 30
0.0
 10
15.0426076883
 20
7.0092546888
 30
0.0
 10
15.0431033052
 20
7.0087415983
 30
0.0
 10
15.0437228345
 20
7.008100289
 30
0.0
 10
15.0444662663
 20
7.0073306947
 30
0.0
 10
15.0452096989
 20
7.0065611067
 30
0.0
 10
15.0462009421
 20
7.0055349871
 30
0.0
 10
15.0474399963
 20
7.0042523384
 30
0.0
 10
15.0486790503
 20
7.0029696892
 30
0.0
 10
15.0496702937
 20
7.0019435705
 30
0.0
 10
15.050413726
 20
7.0011739797
 30
0.0
 10
15.051157159
 20
7.0004043955
 30
0.0
 10
15.0517766844
 20
6.9997630551
 30
0.0
 10
15.0522723093
 20
6.999250028
 30
0.0
 10
15.0525820645
 20
6.9989292831
 30
0.0
 10
15.0528298924
 20
6.998672923
 30
0.0
 10
15.0530156983
 20
6.9984800072
 30
0.0
 10
15.0531707434
 20
6.9983212981
 30
0.0
 10
15.0532788691
 20
6.9982061708
 30
0.0
 10
15.0533412889
 20
6.9981466777
 30
0.0
 10
15.0533863186
 20
6.9980843278
 30
0.0
 10
15.0534381723
 20
6.9980897512
 30
0.0
 10
15.0535049302
 20
6.9980733422
 30
0.0
 10
15.0536228656
 20
6.9980556409
 30
0.0
 10
15.0537907649
 20
6.998024595
 30
0.0
 10
15.0539924922
 20
6.9979898046
 30
0.0
 10
15.0542613753
 20
6.9979425565
 30
0.0
 10
15.0545975089
 20
6.9978837912
 30
0.0
 10
15.055135306
 20
6.9977896019
 30
0.0
 10
15.0558075581
 20
6.9976719219
 30
0.0
 10
15.0566142581
 20
6.9975306816
 30
0.0
 10
15.0574209588
 20
6.9973894478
 30
0.0
 10
15.0584965595
 20
6.9972011338
 30
0.0
 10
15.0598410605
 20
6.9969657421
 30
0.0
 10
15.0611855614
 20
6.9967303499
 30
0.0
 10
15.0622611622
 20
6.9965420368
 30
0.0
 10
15.0630678627
 20
6.9964008002
 30
0.0
 10
15.0638745637
 20
6.9962595703
 30
0.0
 10
15.0645468129
 20
6.9961418579
 30
0.0
 10
15.0650846158
 20
6.9960477346
 30
0.0
 10
15.0654207347
 20
6.9959888014
 30
0.0
 10
15.0656896478
 20
6.995941898
 30
0.0
 10
15.0658912836
 20
6.9959060544
 30
0.0
 10
15.0660594692
 20
6.9958783037
 30
0.0
 10
15.0661768936
 20
6.9958547199
 30
0.0
 10
15.0662444703
 20
6.9958477362
 30
0.0
 10
15.0662938089
 20
6.9958242082
 30
0.0
 10
15.0663482846
 20
6.9958705949
 30
0.0
 10
15.0664191271
 20
6.9959080568
 30
0.0
 10
15.0665439362
 20
6.9959849775
 30
0.0
 10
15.0667217986
 20
6.9960889238
 30
0.0
 10
15.0669354202
 20
6.996216202
 30
0.0
 10
15.0672201837
 20
6.9963850182
 30
0.0
 10
15.0675761605
 20
6.9965963426
 30
0.0
 10
15.0681457109
 20
6.9969342916
 30
0.0
 10
15.0688576532
 20
6.9973567862
 30
0.0
 10
15.069711982
 20
6.9978637548
 30
0.0
 10
15.0705663114
 20
6.99837073
 30
0.0
 10
15.071705417
 20
6.9990466946
 30
0.0
 10
15.0731292992
 20
6.9998916513
 30
0.0
 10
15.0745531813
 20
7.0007366073
 30
0.0
 10
15.0756922869
 20
7.0014125729
 30
0.0
 10
15.0765466162
 20
7.0019195454
 30
0.0
 10
15.0774009454
 20
7.0024265242
 30
0.0
 10
15.0781128868
 20
7.0028489868
 30
0.0
 10
15.0786824389
 20
7.003187001
 30
0.0
 10
15.0790384113
 20
7.0033981597
 30
0.0
 10
15.0793231838
 20
7.003567316
 30
0.0
 10
15.0795367783
 20
7.0036935552
 30
0.0
 10
15.0797147254
 20
7.0038007524
 30
0.0
 10
15.0798393832
 20
7.0038718697
 30
0.0
 10
15.0799104681
 20
7.00391863
 30
0.0
 10
15.0799641992
 20
7.0039364551
 30
0.0
 10
15.0800163345
 20
7.0040201996
 30
0.0
 10
15.080086405
 20
7.0041088654
 30
0.0
 10
15.0802087688
 20
7.0042747437
 30
0.0
 10
15.08038371
 20
7.0045061118
 30
0.0
 10
15.0805935813
 20
7.0047861509
 30
0.0
 10
15.08087343
 20
7.005158699
 30
0.0
 10
15.081223234
 20
7.0056246709
 30
0.0
 10
15.0817829242
 20
7.0063700656
 30
0.0
 10
15.0824825356
 20
7.0073018639
 30
0.0
 10
15.0833220699
 20
7.0084199984
 30
0.0
 10
15.084161604
 20
7.0095381392
 30
0.0
 10
15.0852809829
 20
7.0110289913
 30
0.0
 10
15.0866802065
 20
7.0128925573
 30
0.0
 10
15.0880794301
 20
7.0147561228
 30
0.0
 10
15.089198809
 20
7.0162469758
 30
0.0
 10
15.0900383432
 20
7.017365114
 30
0.0
 10
15.0908778771
 20
7.0184832581
 30
0.0
 10
15.0915774897
 20
7.0194150264
 30
0.0
 10
15.0921371775
 20
7.0201604823
 30
0.0
 10
15.0924869876
 20
7.0206262985
 30
0.0
 10
15.0927668237
 20
7.0209991661
 30
0.0
 10
15.0929767337
 20
7.0212782292
 30
0.0
 10
15.0931515541
 20
7.021512651
 30
0.0
 10
15.0932741335
 20
7.0216730779
 30
0.0
 10
15.0933438586
 20
7.0217704782
 30
0.0
 10
15.0933970547
 20
7.0218273932
 30
0.0
 10
15.0934468017
 20
7.0219459853
 30
0.0
 10
15.0935143342
 20
7.0220825943
 30
0.0
 10
15.0936319555
 20
7.0223316838
 30
0.0
 10
15.093800279
 20
7.0226822855
 30
0.0
 10
15.0940021418
 20
7.0231052505
 30
0.0
 10
15.0942713359
 20
7.0236684205
 30
0.0
 10
15.0946078136
 20
7.0243726512
 30
0.0
 10
15.0951461863
 20
7.0254992705
 30
0.0
 10
15.0958191493
 20
7.0269075959
 30
0.0
 10
15.0966267061
 20
7.0285975645
 30
0.0
 10
15.0974342626
 20
7.0302875389
 30
0.0
 10
15.0985110048
 20
7.032540836
 30
0.0
 10
15.0998569323
 20
7.0353574587
 30
0.0
 10
15.1012028601
 20
7.0381740788
 30
0.0
 10
15.1022796018
 20
7.0404273801
 30
0.0
 10
15.1030871598
 20
7.0421173418
 30
0.0
 10
15.103894711
 20
7.0438073582
 30
0.0
 10
15.1045676914
 20
7.0452155347
 30
0.0
 10
15.1051060285
 20
7.0463424577
 30
0.0
 10
15.1055099104
 20
7.0471866069
 30
0.0
 10
15.1058460684
 20
7.0478933823
 30
0.0
 10
15.1060821839
 20
7.0483816143
 30
0.0
 10
15.1062158502
 20
7.04867077
 30
0.0
 10
15.1063196405
 20
7.0488589989
 30
0.0
 10
15.1064098972
 20
7.0491566962
 30
0.0
 10
15.1065349602
 20
7.0495154421
 30
0.0
 10
15.106751621
 20
7.0501610379
 30
0.0
 10
15.1070622863
 20
7.0510740165
 30
0.0
 10
15.1074345925
 20
7.052173572
 30
0.0
 10
15.1079311726
 20
7.0536382554
 30
0.0
 10
15.1085518389
 20
7.0554695869
 30
0.0
 10
15.1092966636
 20
7.05766698
 30
0.0
 10
15.1100414816
 20
7.0598644279
 30
0.0
 10
15.1110345745
 20
7.0627943395
 30
0.0
 10
15.1122759403
 20
7.0664567334
 30
0.0
 10
15.1137655778
 20
7.0708516134
 30
0.0
 10
15.1150069475
 20
7.0745139834
 30
0.0
 10
15.1160000317
 20
7.0774439476
 30
0.0
 10
15.1166207357
 20
7.0792750199
 30
0.0
 10
15.1171172385
 20
7.0807402334
 30
0.0
 10
15.1174897809
 20
7.0818381697
 30
0.0
 10
15.1177997072
 20
7.0827562144
 30
0.0
 10
15.1180176873
 20
7.0833927664
 30
0.0
 10
15.1181406363
 20
7.0837660027
 30
0.0
 10
15.1182373865
 20
7.08401919
 30
0.0
 10
15.1183167887
 20
7.0843745909
 30
0.0
 10
15.1184287095
 20
7.0848128054
 30
0.0
 10
15.1186217515
 20
7.0855962924
 30
0.0
 10
15.1188989997
 20
7.0867068749
 30
0.0
 10
15.1192310667
 20
7.0880432912
 30
0.0
 10
15.1196740431
 20
7.0898238812
 30
0.0
 10
15.1202276881
 20
7.0920500632
 30
0.0
 10
15.1211135623
 20
7.095611706
 30
0.0
 10
15.1222208905
 20
7.100063845
 30
0.0
 10
15.1235496912
 20
7.1054063737
 30
0.0
 10
15.1248784875
 20
7.110748918
 30
0.0
 10
15.1259858265
 20
7.1152010181
 30
0.0
 10
15.126871679
 20
7.1187627388
 30
0.0
 10
15.1274253792
 20
7.1209887228
 30
0.0
 10
15.1278682424
 20
7.1227697192
 30
0.0
 10
15.1282006549
 20
7.1241048939
 30
0.0
 10
15.1284768222
 20
7.1252193611
 30
0.0
 10
15.128671794
 20
7.1259959131
 30
0.0
 10
15.1287806228
 20
7.1264452393
 30
0.0
 10
15.1288695224
 20
7.1267665088
 30
0.0
 10
15.1289306019
 20
7.1271478877
 30
0.0
 10
15.1290217452
 20
7.127635426
 30
0.0
 10
15.1291767247
 20
7.1284983868
 30
0.0
 10
15.1294004877
 20
7.1297260808
 30
0.0
 10
15.1296679916
 20
7.1312014997
 30
0.0
 10
15.1300250168
 20
7.1331679612
 30
0.0
 10
15.1304711773
 20
7.1356262997
 30
0.0
 10
15.131185102
 20
7.1395594947
 30
0.0
 10
15.1320774829
 20
7.1444760413
 30
0.0
 10
15.133148358
 20
7.1503758634
 30
0.0
 10
15.1342192008
 20
7.1562757366
 30
0.0
 10
15.1351116624
 20
7.1611921553
 30
0.0
 10
15.1358254257
 20
7.1651256061
 30
0.0
 10
15.1363613105
 20
7.1680748323
 30
0.0
 10
15.1368060924
 20
7.1705352621
 30
0.0
 10
15.1371209502
 20
7.1722521833
 30
0.0
 10
15.1372953876
 20
7.1732416811
 30
0.0
 10
15.1374416568
 20
7.1739601415
 30
0.0
 10
15.1375289022
 20
7.1747690537
 30
0.0
 10
15.1376658176
 20
7.1758160527
 30
0.0
 10
15.1378958271
 20
7.177663001
 30
0.0
 10
15.1382294272
 20
7.1802938132
 30
0.0
 10
15.1386276007
 20
7.1834540775
 30
0.0
 10
15.1391592487
 20
7.187666614
 30
0.0
 10
15.1398235495
 20
7.19293268
 30
0.0
 10
15.1406208298
 20
7.1992517849
 30
0.0
 10
15.1414180476
 20
7.2055709545
 30
0.0
 10
15.1420825046
 20
7.2108368588
 30
0.0
 10
15.1426138401
 20
7.2150497187
 30
0.0
 10
15.1430129668
 20
7.2182089963
 30
0.0
 10
15.1433435849
 20
7.2208428954
 30
0.0
 10
15.1435789177
 20
7.2226843331
 30
0.0
 10
15.1437073039
 20
7.2237401614
 30
0.0
 10
15.1438207483
 20
7.2245219529
 30
0.0
 10
15.1438686184
 20
7.2253422744
 30
0.0
 10
15.1439553183
 20
7.2264225967
 30
0.0
 10
15.144096386
 20
7.2283194226
 30
0.0
 10
15.144303483
 20
7.2310259
 30
0.0
 10
15.1445496145
 20
7.2342750742
 30
0.0
 10
15.1448786231
 20
7.238606817
 30
0.0
 10
15.1452895959
 20
7.2440216637
 30
0.0
 10
15.1457828955
 20
7.2505194065
 30
0.0
 10
15.1462761272
 20
7.2570171733
 30
0.0
 10
15.1466872696
 20
7.2624319599
 30
0.0
 10
15.1470159392
 20
7.266763823
 30
0.0
 10
15.1472631049
 20
7.2700126302
 30
0.0
 10
15.1474669664
 20
7.2727202558
 30
0.0
 10
15.1476138099
 20
7.274615032
 30
0.0
 10
15.1476912555
 20
7.2756986384
 30
0.0
 10
15.1477675518
 20
7.2765088722
 30
0.0
 10
15.1477742321
 20
7.2773285513
 30
0.0
 10
15.1478074221
 20
7.2784181621
 30
0.0
 10
15.1478541906
 20
7.2803265161
 30
0.0
 10
15.1479269179
 20
7.2830519336
 30
0.0
 10
15.1480116588
 20
7.2863227781
 30
0.0
 10
15.1481255309
 20
7.290683784
 30
0.0
 10
15.1482675683
 20
7.2961350826
 30
0.0
 10
15.1484949975
 20
7.3048571373
 30
0.0
 10
15.1487792254
 20
7.3157597136
 30
0.0
 10
15.1490066256
 20
7.3244817723
 30
0.0
 10
15.1491203235
 20
7.3288428019
 30
0.0
  0
SPLINE
  5
3D5
100
AcDbEntity
  8
0
100
AcDbSpline
 62
4
  6
CONTINUOUS
 70
0
 71
3
 72
69
 73
65
 74
0
 42
0.0000001
 43
0.0000001
 44
0.0000000001
 40
0.0
 40
0.0
 40
0.0
 40
0.0
 40
0.03125
 40
0.046875
 40
0.0625
 40
0.078125
 40
0.09375
 40
0.109375
 40
0.125
 40
0.140625
 40
0.15625
 40
0.171875
 40
0.1875
 40
0.203125
 40
0.21875
 40
0.234375
 40
0.25
 40
0.265625
 40
0.28125
 40
0.296875
 40
0.3125
 40
0.328125
 40
0.34375
 40
0.359375
 40
0.375
 40
0.390625
 40
0.40625
 40
0.421875
 40
0.4375
 40
0.453125
 40
0.46875
 40
0.484375
 40
0.5
 40
0.515625
 40
0.53125
 40
0.546875
 40
0.5625
 40
0.578125
 40
0.59375
 40
0.609375
 40
0.625
 40
0.640625
 40
0.65625
 40
0.671875
 40
0.6875
 40
0.703125
 40
0.71875
 40
0.734375
 40
0.75
 40
0.765625
 40
0.78125
 40
0.796875
 40
0.8125
 40
0.828125
 40
0.84375
 40
0.859375
 40
0.875
 40
0.890625
 40
0.90625
 40
0.921875
 40
0.9375
 40
0.953125
 40
0.96875
 40
1.0
 40
1.0
 40
1.0
 40
1.0
 10
9.5556908665
 20
9.5367293545
 30
0.0
 10
9.5555345198
 20
9.5367248673
 30
0.0
 10
9.5552995891
 20
9.5367202284
 30
0.0
 10
9.5549879911
 20
9.5367056753
 30
0.0
 10
9.5547501852
 20
9.5367156802
 30
0.0
 10
9.5545279873
 20
9.5366461901
 30
0.0
 10
9.5543010616
 20
9.5365993601
 30
0.0
 10
9.5540774391
 20
9.5365413845
 30
0.0
 10
9.5538453317
 20
9.5365053311
 30
0.0
 10
9.5536438609
 20
9.5363927347
 30
0.0
 10
9.5534334804
 20
9.5363019781
 30
0.0
 10
9.5532281019
 20
9.5362004052
 30
0.0
 10
9.5530116252
 20
9.5361202575
 30
0.0
 10
9.5528345393
 20
9.5359652252
 30
0.0
 10
9.5526457783
 20
9.5358312734
 30
0.0
 10
9.5524643269
 20
9.5356878841
 30
0.0
 10
9.5522653122
 20
9.5355611643
 30
0.0
 10
9.552129241
 20
9.5353772042
 30
0.0
 10
9.5519751154
 20
9.5352094581
 30
0.0
 10
9.5518302641
 20
9.5350340962
 30
0.0
 10
9.5516663699
 20
9.5348729836
 30
0.0
 10
9.551569373
 20
9.5346624893
 30
0.0
 10
9.5514531306
 20
9.5344658671
 30
0.0
 10
9.5513469728
 20
9.5342631382
 30
0.0
 10
9.551219722
 20
9.534070964
 30
0.0
 10
9.5511667586
 20
9.5338426779
 30
0.0
 10
9.5510924883
 20
9.5336245759
 30
0.0
 10
9.551029158
 20
9.5334018491
 30
0.0
 10
9.5509433744
 20
9.5331874375
 30
0.0
 10
9.5509364641
 20
9.5329443898
 30
0.0
 10
9.5509069646
 20
9.5327089867
 30
0.0
 10
9.5508889486
 20
9.532471641
 30
0.0
 10
9.5508475877
 20
9.532234421
 30
0.0
 10
9.550888123
 20
9.5319986409
 30
0.0
 10
9.5509053121
 20
9.5317622932
 30
0.0
 10
9.5509339896
 20
9.5315267762
 30
0.0
 10
9.5509400597
 20
9.5312885037
 30
0.0
 10
9.551025071
 20
9.5310604225
 30
0.0
 10
9.5510876084
 20
9.5308291566
 30
0.0
 10
9.5511611003
 20
9.5306004383
 30
0.0
 10
9.5512132482
 20
9.5303647141
 30
0.0
 10
9.5513398173
 20
9.5301544658
 30
0.0
 10
9.5514451637
 20
9.5299367795
 30
0.0
 10
9.5515609797
 20
9.5297233691
 30
0.0
 10
9.5516561401
 20
9.5295002931
 30
0.0
 10
9.5518234533
 20
9.5293116039
 30
0.0
 10
9.5519704957
 20
9.5291126455
 30
0.0
 10
9.5521264687
 20
9.5289203773
 30
0.0
 10
9.5522669902
 20
9.5287116174
 30
0.0
 10
9.5524603869
 20
9.5285621341
 30
0.0
 10
9.5526388217
 20
9.528395634
 30
0.0
 10
9.5528242291
 20
9.5282379247
 30
0.0
 10
9.5529967077
 20
9.528062069
 30
0.0
 10
9.5532139288
 20
9.5279500078
 30
0.0
 10
9.5534186124
 20
9.5278195706
 30
0.0
 10
9.5536287034
 20
9.5276988428
 30
0.0
 10
9.5538297025
 20
9.5275576533
 30
0.0
 10
9.5540616617
 20
9.5274886012
 30
0.0
 10
9.5542849142
 20
9.5273988563
 30
0.0
 10
9.5545120333
 20
9.5273197454
 30
0.0
 10
9.5547323928
 20
9.5272187915
 30
0.0
 10
9.5549759241
 20
9.5271945755
 30
0.0
 10
9.5552925021
 20
9.5271353618
 30
0.0
 10
9.5555317649
 20
9.5270970099
 30
0.0
 10
9.5556908669
 20
9.5270700956
 30
0.0
  0
SPLINE
  5
3D6
100
AcDbEntity
  8
0
100
AcDbSpline
 62
4
  6
CONTINUOUS
 70
0
 71
3
 72
69
 73
65
 74
0
 42
0.0000001
 43
0.0000001
 44
0.0000000001
 40
0.0
 40
0.0
 40
0.0
 40
0.0
 40
0.03125
 40
0.046875
 40
0.0625
 40
0.078125
 40
0.09375
 40
0.109375
 40
0.125
 40
0.140625
 40
0.15625
 40
0.171875
 40
0.1875
 40
0.203125
 40
0.21875
 40
0.234375
 40
0.25
 40
0.265625
 40
0.28125
 40
0.296875
 40
0.3125
 40
0.328125
 40
0.34375
 40
0.359375
 40
0.375
 40
0.390625
 40
0.40625
 40
0.421875
 40
0.4375
 40
0.453125
 40
0.46875
 40
0.484375
 40
0.5
 40
0.515625
 40
0.53125
 40
0.546875
 40
0.5625
 40
0.578125
 40
0.59375
 40
0.609375
 40
0.625
 40
0.640625
 40
0.65625
 40
0.671875
 40
0.6875
 40
0.703125
 40
0.71875
 40
0.734375
 40
0.75
 40
0.765625
 40
0.78125
 40
0.796875
 40
0.8125
 40
0.828125
 40
0.84375
 40
0.859375
 40
0.875
 40
0.890625
 40
0.90625
 40
0.921875
 40
0.9375
 40
0.953125
 40
0.96875
 40
1.0
 40
1.0
 40
1.0
 40
1.0
 10
9.5556908665
 20
9.5270700957
 30
0.0
 10
9.5558472131
 20
9.5270745829
 30
0.0
 10
9.5560821439
 20
9.5270792218
 30
0.0
 10
9.5563937419
 20
9.5270937749
 30
0.0
 10
9.5566315477
 20
9.52708377
 30
0.0
 10
9.5568537456
 20
9.5271532601
 30
0.0
 10
9.5570806713
 20
9.5272000901
 30
0.0
 10
9.5573042938
 20
9.5272580656
 30
0.0
 10
9.5575364013
 20
9.527294119
 30
0.0
 10
9.5577378721
 20
9.5274067155
 30
0.0
 10
9.5579482525
 20
9.5274974721
 30
0.0
 10
9.558153631
 20
9.527599045
 30
0.0
 10
9.5583701077
 20
9.5276791927
 30
0.0
 10
9.5585471936
 20
9.527834225
 30
0.0
 10
9.5587359546
 20
9.5279681768
 30
0.0
 10
9.5589174061
 20
9.528111566
 30
0.0
 10
9.5591164208
 20
9.5282382858
 30
0.0
 10
9.5592524919
 20
9.528422246
 30
0.0
 10
9.5594066176
 20
9.5285899921
 30
0.0
 10
9.5595514689
 20
9.528765354
 30
0.0
 10
9.5597153631
 20
9.5289264666
 30
0.0
 10
9.55981236
 20
9.5291369609
 30
0.0
 10
9.5599286024
 20
9.529333583
 30
0.0
 10
9.5600347602
 20
9.5295363119
 30
0.0
 10
9.5601620109
 20
9.5297284862
 30
0.0
 10
9.5602149744
 20
9.5299567723
 30
0.0
 10
9.5602892447
 20
9.5301748743
 30
0.0
 10
9.5603525749
 20
9.5303976011
 30
0.0
 10
9.5604383585
 20
9.5306120126
 30
0.0
 10
9.5604452688
 20
9.5308550604
 30
0.0
 10
9.5604747684
 20
9.5310904635
 30
0.0
 10
9.5604927843
 20
9.5313278091
 30
0.0
 10
9.5605341453
 20
9.5315650291
 30
0.0
 10
9.56049361
 20
9.5318008092
 30
0.0
 10
9.5604764209
 20
9.532037157
 30
0.0
 10
9.5604477433
 20
9.5322726739
 30
0.0
 10
9.5604416732
 20
9.5325109464
 30
0.0
 10
9.5603566619
 20
9.5327390276
 30
0.0
 10
9.5602941245
 20
9.5329702936
 30
0.0
 10
9.5602206327
 20
9.5331990119
 30
0.0
 10
9.5601684847
 20
9.5334347361
 30
0.0
 10
9.5600419156
 20
9.5336449844
 30
0.0
 10
9.5599365692
 20
9.5338626707
 30
0.0
 10
9.5598207532
 20
9.534076081
 30
0.0
 10
9.5597255929
 20
9.5342991571
 30
0.0
 10
9.5595582796
 20
9.5344878462
 30
0.0
 10
9.5594112372
 20
9.5346868047
 30
0.0
 10
9.5592552643
 20
9.5348790729
 30
0.0
 10
9.5591147427
 20
9.5350878328
 30
0.0
 10
9.558921346
 20
9.535237316
 30
0.0
 10
9.5587429113
 20
9.5354038162
 30
0.0
 10
9.5585575039
 20
9.5355615255
 30
0.0
 10
9.5583850252
 20
9.5357373811
 30
0.0
 10
9.5581678042
 20
9.5358494424
 30
0.0
 10
9.5579631205
 20
9.5359798796
 30
0.0
 10
9.5577530296
 20
9.5361006074
 30
0.0
 10
9.5575520305
 20
9.5362417969
 30
0.0
 10
9.5573200713
 20
9.5363108489
 30
0.0
 10
9.5570968188
 20
9.5364005938
 30
0.0
 10
9.5568696997
 20
9.5364797048
 30
0.0
 10
9.5566493401
 20
9.5365806587
 30
0.0
 10
9.5564058088
 20
9.5366048747
 30
0.0
 10
9.5560892309
 20
9.5366640883
 30
0.0
 10
9.5558499681
 20
9.5367024403
 30
0.0
 10
9.5556908661
 20
9.5367293545
 30
0.0
  0
ELLIPSE
  5
3D7
100
AcDbEntity
  8
0
100
AcDbEllipse
 62
7
  6
CONTINUOUS
 10
12.0622683316
 20
7.2436563335
 30
0.0
 11
-0.2065395243
 21
0.2794844428
 31
0.0
 40
0.9313188361
 41
0.0
 42
6.2831853072
  0
ENDSEC
  0
SECTION
  2
OBJECTS
  0
DICTIONARY
  5
C
100
AcDbDictionary
280
0
281
1
  3
ACAD_GROUP
350
D
  3
ACAD_MLINESTYLE
350
17
  3
ACAD_LAYOUT
350
1A
  3
ACAD_PLOTSETTINGS
350
19
  3
ACAD_PLOTSTYLENAME
350
E
  3
ACAD_IMAGE_DICT
350
       3D9
  3
ACAD_IMAGE_VARS
350
       3DA
  3
ACAD_TABLESTYLE
350
       3DB
  0
IMAGEDEF_REACTOR
  5
3D8
100
AcDbRasterImageDefReactor
 90
2
330
272
  0
DICTIONARY
  5
D
102
{ACAD_REACTORS
330
C
102
}
100
AcDbDictionary
280
0
281
1
  0
ACDBDICTIONARYWDFLT
  5
E
102
{ACAD_REACTORS
330
C
102
}
100
AcDbDictionary
281
1
  3
Normal
350
F
100
AcDbDictionaryWithDefault
340
F
  0
DICTIONARY
  5
3D9
330
C
100
AcDbDictionary
281
1
  3
Z6D_assy_2_img_1
350
       3DE
  0
RASTERVARIABLES
  5
3DA
330
C
100
AcDbRasterVariables
 90
0
 70
0
 71
1
 72
5
  0
DICTIONARY
  5
17
102
{ACAD_REACTORS
330
C
102
}
100
AcDbDictionary
280
0
281
1
  3
Standard
350
18
  0
DICTIONARY
  5
3DB
330
C
100
AcDbDictionary
281
1
  3
Standard
350
       3DF
  3
Standard1
350
       3E0
  0
DICTIONARY
  5
19
102
{ACAD_REACTORS
330
C
102
}
100
AcDbDictionary
281
1
  0
DICTIONARY
  5
1A
102
{ACAD_REACTORS
330
C
102
}
100
AcDbDictionary
281
1
  3
Model
350
3DC
  3
Layout1
350
3DD
  0
ACDBPLACEHOLDER
  5
F
102
{ACAD_REACTORS
330
E
102
}
  0
MLINESTYLE
  5
18
102
{ACAD_REACTORS
330
17
102
}
100
AcDbMlineStyle
  2
STANDARD
 70
0
  3

 62
256
 51
90.0
 52
90.0
 71
2
 49
0.5
 62
256
  6
BYLAYER
 49
-0.5
 62
256
  6
BYLAYER
  0
LAYOUT
  5
3DC
102
{ACAD_REACTORS
330
1A
102
}
100
AcDbPlotSettings
  1

  2
none_device
  4
ANSI_C_(22.00_x_17.00_Inches)
  6

 40
0.0
 41
0.0
 42
0.0
 43
0.0
 44
558.8
 45
431.8
 46
0.0
 47
0.0
 48
0.0
 49
0.0
140
0.0
141
0.0
142
1.0
143
1.0
 70
1024
 72
0
 73
0
 74
0
  7

 75
0
147
1.0
148
0.0
149
0.0
100
AcDbLayout
  1
Model
 70
0
 71
0
 10
0.0
 20
0.0
 11
22.0
 21
17.0
 12
0.0
 22
0.0
 32
0.0
 14
0.0
 24
0.0
 34
0.0
 15
0.0
 25
0.0
 35
0.0
146
0.0
 13
0.0
 23
0.0
 33
0.0
 16
1.0
 26
0.0
 36
0.0
 17
0.0
 27
1.0
 37
0.0
 76
0
330
20F
345
0
346
0
  0
LAYOUT
  5
3DD
102
{ACAD_REACTORS
330
1A
102
}
100
AcDbPlotSettings
  1

  2
none_device
  4
ANSI_C_(22.00_x_17.00_Inches)
  6

 40
0.0
 41
0.0
 42
0.0
 43
0.0
 44
558.8
 45
431.8
 46
0.0
 47
0.0
 48
0.0
 49
0.0
140
0.0
141
0.0
142
1.0
143
1.0
 70
0
 72
0
 73
0
 74
0
  7

 75
0
147
1.0
148
0.0
149
0.0
100
AcDbLayout
  1
Layout1
 70
0
 71
1
 10
0.0
 20
0.0
 11
22.0
 21
17.0
 12
0.0
 22
0.0
 32
0.0
 14
0.0
 24
0.0
 34
0.0
 15
0.0
 25
0.0
 35
0.0
146
0.0
 13
0.0
 23
0.0
 33
0.0
 16
1.0
 26
0.0
 36
0.0
 17
0.0
 27
1.0
 37
0.0
 76
0
330
210
345
0
346
0
  0
IMAGEDEF
  5
3DE
102
{ACAD_REACTORS
330
3D9
330
3D8
102
}
100
AcDbRasterImageDef
 90
0
  1
Z6D_assy_2_img_1.png
 10
369.0
 20
92.0
 11
0.0066666667
 21
0.0066666667
280
1
281
0
  0
TABLESTYLE
  5
3DF
102
{ACAD_REACTORS
330
3DB
330
275
102
}
330
3DB
100
AcDbTableStyle
  3
Standard
 70
0
 71
0
 40
0.06
 41
0.06
280
1
281
1
  7
Standard
140
0.18
170
1
 62
0
 63
7
283
0
  7
Standard
140
0.18
170
1
 62
0
 63
7
283
0
  7
Standard
140
0.18
170
1
 62
0
 63
7
283
0
  0
TABLESTYLE
  5
3E0
102
{ACAD_REACTORS
330
3DB
330
274
102
}
330
3DB
100
AcDbTableStyle
  3
Standard1
 70
1
 71
0
 40
0.06
 41
0.06
280
1
281
1
  7
Standard
140
0.18
170
1
 62
0
 63
7
283
0
  7
Standard
140
0.18
170
1
 62
0
 63
7
283
0
  7
Standard
140
0.18
170
1
 62
0
 63
7
283
0
  0
ENDSEC
  0
EOF
