999
DXF file: Z3P_assy_2.dxf
999
Pro/ENGINEER 2014200 by Parametric Technology Corporation
  0
SECTION
  2
HEADER
  9
$ACADVER
  1
AC1021
  9
$DWGCODEPAGE
  3
ANSI_1252
  9
$EXTMAX
 10
22.0
 20
17.0
 30
0.0
  9
$EXTMIN
 10
0.0
 20
0.0
 30
0.0
  9
$LIMMIN
 10
0.0
 20
0.0
  9
$LIMMAX
 10
22.0
 20
17.0
  9
$VIEWCTR
 10
11.0
 20
8.5
  9
$VIEWSIZE
 40
17.0
  9
$CLAYER
  8
0
  9
$LTSCALE
 40
1.21
  9
$CELTYPE
  6
BYLAYER
  9
$DIMSCALE
 40
1.0
  9
$DIMASZ
 40
0.1875
  9
$DIMEXO
 40
0.0625
  9
$DIMDLI
 40
0.836
  9
$DIMEXE
 40
0.125
  9
$DIMCEN
 40
0.198
  9
$DIMLFAC
 40
1.0
  9
$DIMBLK
  1
_FILLED
  9
$DIMTXT
 40
0.1
  9
$DIMTOL
 70
0
  9
$DIMLIM
 70
0
  9
$DIMTFAC
 40
1.0
  9
$DIMGAP
 40
0.09
  9
$DIMDSEP
 70
46
  9
$AUNITS
 70
0
  9
$PDMODE
 70
3
  9
$PDSIZE
 40
0.3125
  9
$HANDSEED
  5
31F
  9
$TILEMODE
 70
1
  9
$MEASUREMENT
 70
0
  9
$INSUNITS
 70
1
  0
ENDSEC
  0
SECTION
  2
CLASSES
  0
CLASS
  1
ACDBDICTIONARYWDFLT
  2
AcDbDictionaryWithDefault
  3
AutoCAD 2000
 90
0
 91
1
280
0
281
0
  0
CLASS
  1
ACDBPLACEHOLDER
  2
AcDbPlaceHolder
  3
AutoCAD 2000
 90
0
 91
1
280
0
281
0
  0
CLASS
  1
LAYOUT
  2
AcDbLayout
  3
AutoCAD 2000
 90
0
 91
0
280
0
281
0
  0
CLASS
  1
RASTERVARIABLES
  2
AcDbRasterVariables
  3
ISM
 90
0
 91
1
280
0
281
0
  0
CLASS
  1
IMAGEDEF
  2
AcDbRasterImageDef
  3
ISM
 90
0
 91
1
280
0
281
0
  0
CLASS
  1
IMAGEDEF_REACTOR
  2
AcDbRasterImageDefReactor
  3
ISM
 90
0
 91
1
280
0
281
0
  0
CLASS
  1
IMAGE
  2
AcDbRasterImage
  3
ISM
 90
127
 91
1
280
0
281
1
  0
CLASS
  1
TABLESTYLE
  2
AcDbTableStyle
  3
ObjectDBX Classes
 90
2047
 91
1
280
0
281
0
  0
CLASS
  1
ACAD_TABLE
  2
AcDbTable
  3
ObjectDBX Classes
 90
1025
 91
2
280
0
281
1
  0
ENDSEC
  0
SECTION
  2
TABLES
  0
TABLE
  2
VPORT
  5
8
100
AcDbSymbolTable
 70
2
  0
VPORT
  5
1F4
100
AcDbSymbolTableRecord
100
AcDbViewportTableRecord
  2
*ACTIVE
 70
0
 10
0.0
 20
0.0
 11
1.0
 21
1.0
 12
11.0
 22
8.5
 13
0.0
 23
0.0
 14
1.0
 24
1.0
 15
0.0
 25
0.0
 16
0.0
 26
0.0
 36
1.0
 17
0.0
 27
0.0
 37
0.0
 40
17.0
 41
1.2941176471
 42
50.0
 43
0.0
 44
0.0
 50
0.0
 51
0.0
 71
0
 72
100
 73
1
 74
1
 75
0
 76
0
 77
0
 78
0
  0
ENDTAB
  0
TABLE
  2
LTYPE
  5
5
100
AcDbSymbolTable
 70
6
  0
LTYPE
  5
14
100
AcDbSymbolTableRecord
100
AcDbLinetypeTableRecord
  2
BYBLOCK
 70
0
  3

 72
65
 73
0
 40
0.0
  0
LTYPE
  5
15
100
AcDbSymbolTableRecord
100
AcDbLinetypeTableRecord
  2
BYLAYER
 70
0
  3

 72
65
 73
0
 40
0.0
  0
LTYPE
  5
16
100
AcDbSymbolTableRecord
100
AcDbLinetypeTableRecord
  2
CONTINUOUS
 70
64
  3
Solid line
 72
65
 73
0
 40
0.0
  0
LTYPE
  5
1F5
100
AcDbSymbolTableRecord
100
AcDbLinetypeTableRecord
  2
CENTER
 70
64
  3
____ _ ____ _ ____ _ ____ _ ____ _ ____ _ ____
 72
65
 73
4
 40
0.6
 49
0.375
 74
0
 49
-0.075
 74
0
 49
0.075
 74
0
 49
-0.075
 74
0
  0
LTYPE
  5
1F6
100
AcDbSymbolTableRecord
100
AcDbLinetypeTableRecord
  2
HIDDEN
 70
64
  3
- - - - - - - - - - - - - - - - - - - -
 72
65
 73
2
 40
0.2
 49
0.1
 74
0
 49
-0.1
 74
0
  0
LTYPE
  5
1F7
100
AcDbSymbolTableRecord
100
AcDbLinetypeTableRecord
  2
PHANTOM
 70
64
  3
_____ _ _ _____ _ _ _____ _ _ _____
 72
65
 73
6
 40
0.8
 49
0.45
 74
0
 49
-0.05
 74
0
 49
0.1
 74
0
 49
-0.05
 74
0
 49
0.1
 74
0
 49
-0.05
 74
0
  0
LTYPE
  5
1F8
100
AcDbSymbolTableRecord
100
AcDbLinetypeTableRecord
  2
DOT
 70
64
  3
. . . . . . . . . . . . . . . . . . . .
 72
65
 73
2
 40
0.2
 49
0.1
 74
0
 49
-0.1
 74
0
  0
LTYPE
  5
1F9
100
AcDbSymbolTableRecord
100
AcDbLinetypeTableRecord
  2
DASHED
 70
64
  3
- - - - - - - - - - - - - - - - - - - -
 72
65
 73
2
 40
0.2
 49
0.1
 74
0
 49
-0.1
 74
0
  0
ENDTAB
  0
TABLE
  2
LAYER
  5
2
100
AcDbSymbolTable
 70
36
  0
LAYER
  5
10
100
AcDbSymbolTableRecord
100
AcDbLayerTableRecord
  2
0
 70
0
 62
7
  6
CONTINUOUS
370
-3
390
F
  0
LAYER
  5
1FA
100
AcDbSymbolTableRecord
100
AcDbLayerTableRecord
  2
DEFAULT_1
 70
0
 62
7
  6
CENTER
370
-3
390
F
  0
LAYER
  5
1FB
100
AcDbSymbolTableRecord
100
AcDbLayerTableRecord
  2
DEFAULT_2
 70
0
 62
8
  6
HIDDEN
370
-3
390
F
  0
LAYER
  5
1FC
100
AcDbSymbolTableRecord
100
AcDbLayerTableRecord
  2
DEFAULT_3
 70
0
 62
7
  6
PHANTOM
370
-3
390
F
  0
LAYER
  5
1FD
100
AcDbSymbolTableRecord
100
AcDbLayerTableRecord
  2
01___PRT_ALL_DTM_PLN
 70
0
 62
7
  6
CONTINUOUS
370
-3
390
F
  0
LAYER
  5
1FE
100
AcDbSymbolTableRecord
100
AcDbLayerTableRecord
  2
01___PRT_DEF_DTM_PLN
 70
0
 62
7
  6
CONTINUOUS
370
-3
390
F
  0
LAYER
  5
1FF
100
AcDbSymbolTableRecord
100
AcDbLayerTableRecord
  2
02___PRT_ALL_AXES
 70
0
 62
7
  6
CONTINUOUS
370
-3
390
F
  0
LAYER
  5
200
100
AcDbSymbolTableRecord
100
AcDbLayerTableRecord
  2
03___PRT_ALL_CURVES
 70
0
 62
7
  6
CONTINUOUS
370
-3
390
F
  0
LAYER
  5
201
100
AcDbSymbolTableRecord
100
AcDbLayerTableRecord
  2
04___PRT_ALL_DTM_PNT
 70
0
 62
7
  6
CONTINUOUS
370
-3
390
F
  0
LAYER
  5
202
100
AcDbSymbolTableRecord
100
AcDbLayerTableRecord
  2
05___PRT_ALL_DTM_CSYS
 70
0
 62
7
  6
CONTINUOUS
370
-3
390
F
  0
LAYER
  5
203
100
AcDbSymbolTableRecord
100
AcDbLayerTableRecord
  2
05___PRT_DEF_DTM_CSYS
 70
0
 62
7
  6
CONTINUOUS
370
-3
390
F
  0
LAYER
  5
204
100
AcDbSymbolTableRecord
100
AcDbLayerTableRecord
  2
06___PRT_ALL_SURFS
 70
0
 62
7
  6
CONTINUOUS
370
-3
390
F
  0
LAYER
  5
205
100
AcDbSymbolTableRecord
100
AcDbLayerTableRecord
  2
DATUM_PLANES
 70
0
 62
7
  6
CONTINUOUS
370
-3
390
F
  0
LAYER
  5
206
100
AcDbSymbolTableRecord
100
AcDbLayerTableRecord
  2
DIMENSIONS
 70
0
 62
7
  6
CONTINUOUS
370
-3
390
F
  0
LAYER
  5
207
100
AcDbSymbolTableRecord
100
AcDbLayerTableRecord
  2
DTM_500001
 70
0
 62
7
  6
CONTINUOUS
370
-3
390
F
  0
LAYER
  5
208
100
AcDbSymbolTableRecord
100
AcDbLayerTableRecord
  2
PARAMETERDIMENSIONS
 70
0
 62
7
  6
CONTINUOUS
370
-3
390
F
  0
LAYER
  5
209
100
AcDbSymbolTableRecord
100
AcDbLayerTableRecord
  2
PORT_AREAS
 70
0
 62
7
  6
CONTINUOUS
370
-3
390
F
  0
LAYER
  5
20A
100
AcDbSymbolTableRecord
100
AcDbLayerTableRecord
  2
SUNNBOMCOSMETIC
 70
0
 62
7
  6
CONTINUOUS
370
-3
390
F
  0
LAYER
  5
20B
100
AcDbSymbolTableRecord
100
AcDbLayerTableRecord
  2
SUNNBOMSTAMPING
 70
0
 62
7
  6
CONTINUOUS
370
-3
390
F
  0
LAYER
  5
20C
100
AcDbSymbolTableRecord
100
AcDbLayerTableRecord
  2
THREADS
 70
0
 62
7
  6
CONTINUOUS
370
-3
390
F
  0
ENDTAB
  0
TABLE
  2
STYLE
  5
3
100
AcDbSymbolTable
 70
1
  0
STYLE
  5
11
100
AcDbSymbolTableRecord
100
AcDbTextStyleTableRecord
  2
STANDARD
 70
0
 40
0.0
 41
0.8
 50
0.0
 71
0
 42
0.2
  3
txt
  4

  0
STYLE
  5
20D
100
AcDbSymbolTableRecord
100
AcDbTextStyleTableRecord
  2
TEXTSTYLE_1
 70
0
 40
0.0
 41
0.8
 50
0.0
 71
0
 42
0.2
  3
gdt
  4

  0
ENDTAB
  0
TABLE
  2
VIEW
  5
6
100
AcDbSymbolTable
 70
0
  0
ENDTAB
  0
TABLE
  2
UCS
  5
7
100
AcDbSymbolTable
 70
0
  0
ENDTAB
  0
TABLE
  2
APPID
  5
9
100
AcDbSymbolTable
 70
1
  0
APPID
  5
20E
100
AcDbSymbolTableRecord
100
AcDbRegAppTableRecord
  2
ACAD
 70
0
  0
ENDTAB
  0
TABLE
  2
BLOCK_RECORD
  5
1
100
AcDbSymbolTable
 70
0
  0
BLOCK_RECORD
  5
20F
100
AcDbSymbolTableRecord
100
AcDbBlockTableRecord
  2
*Model_Space
  0
BLOCK_RECORD
  5
210
100
AcDbSymbolTableRecord
100
AcDbBlockTableRecord
  2
*Paper_Space
  0
BLOCK_RECORD
  5
211
100
AcDbSymbolTableRecord
100
AcDbBlockTableRecord
  2
SUN_FIRST_THIRD_ANGLE_BL0
  0
BLOCK_RECORD
  5
212
100
AcDbSymbolTableRecord
100
AcDbBlockTableRecord
  2
*T1
  0
BLOCK_RECORD
  5
213
100
AcDbSymbolTableRecord
100
AcDbBlockTableRecord
  2
*T2
  0
ENDTAB
  0
TABLE
  2
DIMSTYLE
  5
A
100
AcDbSymbolTable
 70
1
100
AcDbDimStyleTable
 71
0
  0
DIMSTYLE
105
214
100
AcDbSymbolTableRecord
100
AcDbDimStyleTableRecord
  2
STANDARD
 70
0
  3

  4

 40
1.0
 41
0.1875
 42
0.0625
 43
0.38
 44
0.125
 45
0.0
 46
0.0
 47
0.001
 48
0.001
140
0.1
141
0.09
142
0.0
143
25.4
144
1.0
145
0.0
146
1.0
147
0.09
 71
0.0
 72
0.0
 73
1
 74
1
 75
0
 76
0
 77
0
 78
4
170
0
171
2
172
0
173
0
174
0
175
0
176
0
177
0
178
0
270
2
271
3
272
3
273
2
274
2
275
0
280
0
281
0
282
0
283
1
284
4
285
0
286
0
287
3
288
0
340
11
278
46
  0
ENDTAB
  0
ENDSEC
  0
SECTION
  2
BLOCKS
  0
BLOCK
  5
20
100
AcDbEntity
  8
0
100
AcDbBlockBegin
  2
*Model_Space
 70
0
 10
0.0
 20
0.0
 30
0.0
  3
*Model_Space
  1

  0
ENDBLK
  5
21
100
AcDbEntity
  8
0
100
AcDbBlockEnd
  0
BLOCK
  5
1C
100
AcDbEntity
  8
0
100
AcDbBlockBegin
  2
*Paper_Space
 70
0
 10
0.0
 20
0.0
 30
0.0
  3
*Paper_Space
  1

  0
ENDBLK
  5
1D
100
AcDbEntity
  8
0
100
AcDbBlockEnd
  0
BLOCK
  5
215
100
AcDbEntity
  8
0
100
AcDbBlockBegin
 62
2
  6
CONTINUOUS
  2
SUN_FIRST_THIRD_ANGLE_BL0
 70
64
 10
20.4816717061
 20
1.2289683772
  3
SUN_FIRST_THIRD_ANGLE_BL0
  1

  0
TEXT
  5
216
100
AcDbEntity
  8
0
100
AcDbText
 62
2
  6
CONTINUOUS
 10
19.4750896608
 20
1.4136269581
  7
STANDARD
 40
0.08
  1
FIRST ANGLE
 41
0.8
 72
0
100
AcDbText
  0
TEXT
  5
217
100
AcDbEntity
  8
0
100
AcDbText
 62
2
  6
CONTINUOUS
 10
20.7842537513
 20
1.4047600029
  7
STANDARD
 40
0.08
  1
THIRD ANGLE
 41
0.8
 72
0
100
AcDbText
  0
LINE
  5
218
100
AcDbEntity
  8
0
100
AcDbLine
 62
7
  6
CONTINUOUS
 10
19.4767170086
 20
1.1727031207
 11
19.6334271527
 21
1.1717972817
  0
LINE
  5
219
100
AcDbEntity
  8
0
100
AcDbLine
 62
7
  6
CONTINUOUS
 10
19.6596964832
 20
1.1717972817
 11
19.6950230232
 21
1.171593082
  0
LINE
  5
21A
100
AcDbEntity
  8
0
100
AcDbLine
 62
7
  6
CONTINUOUS
 10
19.7194818561
 20
1.1708914427
 11
19.8852396156
 21
1.1699333054
  0
LINE
  5
21B
100
AcDbEntity
  8
0
100
AcDbLine
 62
7
  6
CONTINUOUS
 10
19.4758111696
 20
1.2723454088
 11
19.88525039
 21
1.3511534004
  0
LINE
  5
21C
100
AcDbEntity
  8
0
100
AcDbLine
 62
7
  6
CONTINUOUS
 10
19.88525039
 20
1.3511534004
 11
19.8831348489
 21
0.9851647912
  0
LINE
  5
21D
100
AcDbEntity
  8
0
100
AcDbLine
 62
7
  6
CONTINUOUS
 10
19.8831348489
 20
0.9851647912
 11
19.4767170086
 21
1.0658141206
  0
LINE
  5
21E
100
AcDbEntity
  8
0
100
AcDbLine
 62
7
  6
CONTINUOUS
 10
19.4767170086
 20
1.0658141206
 11
19.4779056764
 21
1.2714536432
  0
CIRCLE
  5
21F
100
AcDbEntity
  8
0
100
AcDbCircle
 62
7
  6
CONTINUOUS
 10
20.2068232291
 20
1.1717972817
 40
0.175742101
  0
CIRCLE
  5
220
100
AcDbEntity
  8
0
100
AcDbCircle
 62
7
  6
CONTINUOUS
 10
20.2068232291
 20
1.1717972817
 40
0.1005522074
  0
LINE
  5
221
100
AcDbEntity
  8
0
100
AcDbLine
 62
7
  6
CONTINUOUS
 10
20.2077290681
 20
1.3756110529
 11
20.2071171714
 21
1.2379342989
  0
LINE
  5
222
100
AcDbEntity
  8
0
100
AcDbLine
 62
7
  6
CONTINUOUS
 10
20.2077290681
 20
1.2016899681
 11
20.2074674401
 21
1.1428236749
  0
LINE
  5
223
100
AcDbEntity
  8
0
100
AcDbLine
 62
7
  6
CONTINUOUS
 10
20.208634907
 20
1.101141841
 11
20.2080230104
 21
0.963465087
  0
LINE
  5
224
100
AcDbEntity
  8
0
100
AcDbLine
 62
7
  6
CONTINUOUS
 10
20.0066328138
 20
1.1745147986
 11
20.1443095678
 21
1.1739029019
  0
LINE
  5
225
100
AcDbEntity
  8
0
100
AcDbLine
 62
7
  6
CONTINUOUS
 10
20.1832714155
 20
1.1727031207
 11
20.238153505
 21
1.172335442
  0
LINE
  5
226
100
AcDbEntity
  8
0
100
AcDbLine
 62
7
  6
CONTINUOUS
 10
20.2756669918
 20
1.1717972817
 11
20.407916871
 21
1.1712095044
  0
CIRCLE
  5
227
100
AcDbEntity
  8
0
100
AcDbCircle
 62
7
  6
CONTINUOUS
 10
20.7509457401
 20
1.1693297793
 40
0.1722024983
  0
CIRCLE
  5
228
100
AcDbEntity
  8
0
100
AcDbCircle
 62
7
  6
CONTINUOUS
 10
20.7509457401
 20
1.1693297793
 40
0.0985164967
  0
LINE
  5
229
100
AcDbEntity
  8
0
100
AcDbLine
 62
7
  6
CONTINUOUS
 10
20.7169767782
 20
1.170462078
 11
20.7825395137
 21
1.1682766535
  0
LINE
  5
22A
100
AcDbEntity
  8
0
100
AcDbLine
 62
7
  6
CONTINUOUS
 10
20.8177513651
 20
1.1693297793
 11
20.947965719
 21
1.1693297793
  0
LINE
  5
22B
100
AcDbEntity
  8
0
100
AcDbLine
 62
7
  6
CONTINUOUS
 10
20.6875370113
 20
1.170462078
 11
20.5573226574
 21
1.170462078
  0
LINE
  5
22C
100
AcDbEntity
  8
0
100
AcDbLine
 62
7
  6
CONTINUOUS
 10
20.7486811426
 20
1.1987695462
 11
20.7486811426
 21
1.1432869085
  0
LINE
  5
22D
100
AcDbEntity
  8
0
100
AcDbLine
 62
7
  6
CONTINUOUS
 10
20.7498134414
 20
1.1059210505
 11
20.7498134414
 21
0.9757066966
  0
LINE
  5
22E
100
AcDbEntity
  8
0
100
AcDbLine
 62
7
  6
CONTINUOUS
 10
20.7486811426
 20
1.2338708068
 11
20.7486811426
 21
1.3640851607
  0
LINE
  5
22F
100
AcDbEntity
  8
0
100
AcDbLine
 62
7
  6
CONTINUOUS
 10
21.0702539817
 20
1.2701043662
 11
21.4790138229
 21
1.3448360823
  0
LINE
  5
230
100
AcDbEntity
  8
0
100
AcDbLine
 62
7
  6
CONTINUOUS
 10
21.4790138229
 20
1.3448360823
 11
21.4790138229
 21
0.9779712941
  0
LINE
  5
231
100
AcDbEntity
  8
0
100
AcDbLine
 62
7
  6
CONTINUOUS
 10
21.4790138229
 20
0.9779712941
 11
21.069121683
 21
1.0617614
  0
LINE
  5
232
100
AcDbEntity
  8
0
100
AcDbLine
 62
7
  6
CONTINUOUS
 10
21.0702539817
 20
1.2701043662
 11
21.069121683
 21
1.0617614
  0
LINE
  5
233
100
AcDbEntity
  8
0
100
AcDbLine
 62
7
  6
CONTINUOUS
 10
21.4790138229
 20
1.1693297793
 11
21.3159628059
 21
1.1693297793
  0
LINE
  5
234
100
AcDbEntity
  8
0
100
AcDbLine
 62
7
  6
CONTINUOUS
 10
21.2876553377
 20
1.1693297793
 11
21.2502894796
 21
1.1693297793
  0
LINE
  5
235
100
AcDbEntity
  8
0
100
AcDbLine
 62
7
  6
CONTINUOUS
 10
21.2208497126
 20
1.1659328831
 11
21.0713862804
 21
1.1659328831
  0
LINE
  5
236
100
AcDbEntity
  8
0
100
AcDbLine
 62
7
  6
CONTINUOUS
 10
20.4796138713
 20
1.5284908897
 11
20.4766766948
 21
0.9294458646
  0
ENDBLK
  5
237
100
AcDbEntity
  8
0
  6
BYBLOCK
 62
0
100
AcDbBlockEnd
  0
BLOCK
  5
238
100
AcDbEntity
  8
0
100
AcDbBlockBegin
  2
*T1
 70
1
 10
0.0
 20
0.0
  3
*T1
  1

  0
LINE
  5
239
100
AcDbEntity
  8
0
100
AcDbLine
 62
2
  6
CONTINUOUS
 10
9.275
 20
0.0
 11
-0.0
 21
0.0
  0
LINE
  5
23A
100
AcDbEntity
  8
0
100
AcDbLine
 62
2
  6
CONTINUOUS
 10
9.275
 20
0.0
 11
9.275
 21
1.25
  0
LINE
  5
23B
100
AcDbEntity
  8
0
100
AcDbLine
 62
2
  6
CONTINUOUS
 10
9.275
 20
0.625
 11
-0.0
 21
0.625
  0
LINE
  5
23C
100
AcDbEntity
  8
0
100
AcDbLine
 62
2
  6
CONTINUOUS
 10
9.275
 20
1.25
 11
-0.0
 21
1.25
  0
LINE
  5
23D
100
AcDbEntity
  8
0
100
AcDbLine
 62
2
  6
CONTINUOUS
 10
6.8
 20
0.0
 11
6.8
 21
1.25
  0
LINE
  5
23E
100
AcDbEntity
  8
0
100
AcDbLine
 62
2
  6
CONTINUOUS
 10
6.4
 20
0.0
 11
6.4
 21
0.625
  0
LINE
  5
23F
100
AcDbEntity
  8
0
100
AcDbLine
 62
2
  6
CONTINUOUS
 10
5.9
 20
0.0
 11
5.9
 21
0.625
  0
LINE
  5
240
100
AcDbEntity
  8
0
100
AcDbLine
 62
2
  6
CONTINUOUS
 10
5.2
 20
0.0
 11
5.2
 21
0.625
  0
LINE
  5
241
100
AcDbEntity
  8
0
100
AcDbLine
 62
2
  6
CONTINUOUS
 10
4.1
 20
0.0
 11
4.1
 21
1.25
  0
LINE
  5
242
100
AcDbEntity
  8
0
100
AcDbLine
 62
2
  6
CONTINUOUS
 10
-0.0
 20
0.0
 11
-0.0
 21
1.25
  0
MTEXT
  5
243
100
AcDbEntity
  8
0
100
AcDbMText
 62
2
  6
CONTINUOUS
  7
STANDARD
 71
2
 72
1
 10
6.6
 20
0.325
 30
0.0
 11
1.0
 21
0.0
 31
0.0
 44
0.9
  1
2
 40
0.125
 41
0.2
  0
MTEXT
  5
244
100
AcDbEntity
  8
0
100
AcDbMText
 62
2
  6
CONTINUOUS
  7
STANDARD
 71
2
 72
1
 10
6.15
 20
0.325
 30
0.0
 11
1.0
 21
0.0
 31
0.0
 44
0.9
  1
C
 40
0.125
 41
0.2
  0
MTEXT
  5
245
100
AcDbEntity
  8
0
100
AcDbMText
 62
2
  6
CONTINUOUS
  7
STANDARD
 71
2
 72
1
 10
5.55
 20
0.325
 30
0.0
 11
1.0
 21
0.0
 31
0.0
 44
0.9
  1
1.000
 40
0.125
 41
1.0
  0
MTEXT
  5
246
100
AcDbEntity
  8
0
100
AcDbMText
 62
2
  6
CONTINUOUS
  7
STANDARD
 71
2
 72
1
 10
4.65
 20
0.325
 30
0.0
 11
1.0
 21
0.0
 31
0.0
 44
0.9
  1
Oct-01-19
 40
0.125
 41
1.8
  0
MTEXT
  5
247
100
AcDbEntity
  8
0
100
AcDbMText
 62
2
  6
CONTINUOUS
  7
STANDARD
 71
2
 72
1
 10
2.05
 20
0.4625
 30
0.0
 11
1.0
 21
0.0
 31
0.0
 44
0.9
  1
T-2A Sandwich ISO 05\P(See Technical Data for Body Features)
 40
0.125
 41
7.6
  0
MTEXT
  5
248
100
AcDbEntity
  8
0
100
AcDbMText
 62
2
  6
CONTINUOUS
  7
STANDARD
 71
1
 72
1
 10
6.45
 20
0.5625
 30
0.0
 11
1.0
 21
0.0
 31
0.0
 44
0.9
  1
SHEET
 40
0.06
 41
0.48
  0
MTEXT
  5
249
100
AcDbEntity
  8
0
100
AcDbMText
 62
2
  6
CONTINUOUS
  7
STANDARD
 71
1
 72
1
 10
5.95
 20
0.5625
 30
0.0
 11
1.0
 21
0.0
 31
0.0
 44
0.9
  1
DWG SIZE
 40
0.06
 41
0.768
  0
MTEXT
  5
24A
100
AcDbEntity
  8
0
100
AcDbMText
 62
2
  6
CONTINUOUS
  7
STANDARD
 71
1
 72
1
 10
5.25
 20
0.5625
 30
0.0
 11
1.0
 21
0.0
 31
0.0
 44
0.9
  1
SCALE
 40
0.06
 41
0.48
  0
MTEXT
  5
24B
100
AcDbEntity
  8
0
100
AcDbMText
 62
2
  6
CONTINUOUS
  7
STANDARD
 71
1
 72
1
 10
4.15
 20
0.5625
 30
0.0
 11
1.0
 21
0.0
 31
0.0
 44
0.9
  1
DATE
 40
0.06
 41
0.384
  0
MTEXT
  5
24C
100
AcDbEntity
  8
0
100
AcDbMText
 62
2
  6
CONTINUOUS
  7
STANDARD
 71
1
 72
1
 10
0.05
 20
0.5625
 30
0.0
 11
1.0
 21
0.0
 31
0.0
 44
0.9
  1
DESCRIPTION
 40
0.06
 41
1.056
  0
MTEXT
  5
24D
100
AcDbEntity
  8
0
100
AcDbMText
 62
2
  6
CONTINUOUS
  7
STANDARD
 71
2
 72
1
 10
5.45
 20
1.0375
 30
0.0
 11
1.0
 21
0.0
 31
0.0
 44
0.9
  1
ALL DIMENSIONS IN INCH\PVIEWS ARE THIRD ANGLE
 40
0.12
 41
4.224
  0
MTEXT
  5
24E
100
AcDbEntity
  8
0
100
AcDbMText
 62
2
  6
CONTINUOUS
  7
STANDARD
 71
2
 72
1
 10
2.05
 20
0.95
 30
0.0
 11
1.0
 21
0.0
 31
0.0
 44
0.9
  1
Z3P
 40
0.125
 41
0.6
  0
MTEXT
  5
24F
100
AcDbEntity
  8
0
100
AcDbMText
 62
2
  6
CONTINUOUS
  7
STANDARD
 71
1
 72
1
 10
0.05
 20
1.1875
 30
0.0
 11
1.0
 21
0.0
 31
0.0
 44
0.9
  1
MODEL
 40
0.06
 41
0.48
  0
ENDBLK
  5
250
100
AcDbEntity
  8
0
  6
BYBLOCK
 62
0
100
AcDbBlockEnd
  0
BLOCK
  5
251
100
AcDbEntity
  8
0
100
AcDbBlockBegin
  2
*T2
 70
1
 10
0.0
 20
0.0
  3
*T2
  1

  0
LINE
  5
252
100
AcDbEntity
  8
0
100
AcDbLine
 62
2
  6
CONTINUOUS
 10
0.0
 20
0.0
 11
9.055
 21
0.0
  0
LINE
  5
253
100
AcDbEntity
  8
0
100
AcDbLine
 62
2
  6
CONTINUOUS
 10
0.0
 20
0.0
 11
0.0
 21
-2.094
  0
LINE
  5
254
100
AcDbEntity
  8
0
100
AcDbLine
 62
2
  6
CONTINUOUS
 10
0.0
 20
-0.344
 11
9.055
 21
-0.344
  0
LINE
  5
255
100
AcDbEntity
  8
0
100
AcDbLine
 62
2
  6
CONTINUOUS
 10
0.0
 20
-0.594
 11
9.055
 21
-0.594
  0
LINE
  5
256
100
AcDbEntity
  8
0
100
AcDbLine
 62
2
  6
CONTINUOUS
 10
0.0
 20
-0.844
 11
9.055
 21
-0.844
  0
LINE
  5
257
100
AcDbEntity
  8
0
100
AcDbLine
 62
2
  6
CONTINUOUS
 10
0.0
 20
-1.094
 11
9.055
 21
-1.094
  0
LINE
  5
258
100
AcDbEntity
  8
0
100
AcDbLine
 62
2
  6
CONTINUOUS
 10
0.0
 20
-1.344
 11
9.055
 21
-1.344
  0
LINE
  5
259
100
AcDbEntity
  8
0
100
AcDbLine
 62
2
  6
CONTINUOUS
 10
0.0
 20
-1.594
 11
9.055
 21
-1.594
  0
LINE
  5
25A
100
AcDbEntity
  8
0
100
AcDbLine
 62
2
  6
CONTINUOUS
 10
0.0
 20
-1.844
 11
9.055
 21
-1.844
  0
LINE
  5
25B
100
AcDbEntity
  8
0
100
AcDbLine
 62
2
  6
CONTINUOUS
 10
0.0
 20
-2.094
 11
9.055
 21
-2.094
  0
LINE
  5
25C
100
AcDbEntity
  8
0
100
AcDbLine
 62
2
  6
CONTINUOUS
 10
3.055
 20
0.0
 11
3.055
 21
-2.094
  0
LINE
  5
25D
100
AcDbEntity
  8
0
100
AcDbLine
 62
2
  6
CONTINUOUS
 10
9.055
 20
0.0
 11
9.055
 21
-2.094
  0
MTEXT
  5
25E
100
AcDbEntity
  8
0
100
AcDbMText
 62
2
  6
CONTINUOUS
  7
STANDARD
 71
2
 72
1
 10
1.5275
 20
-0.0995
 30
0.0
 11
1.0
 21
0.0
 31
0.0
 44
0.9
  1
Technical Data
 40
0.145
 41
3.248
  0
MTEXT
  5
25F
100
AcDbEntity
  8
0
100
AcDbMText
 62
2
  6
CONTINUOUS
  7
STANDARD
 71
2
 72
1
 10
4.555
 20
-0.0995
 30
0.0
 11
1.0
 21
0.0
 31
0.0
 44
0.9
  1
U.S. Units
 40
0.145
 41
2.32
  0
MTEXT
  5
260
100
AcDbEntity
  8
0
100
AcDbMText
 62
2
  6
CONTINUOUS
  7
STANDARD
 71
2
 72
1
 10
7.555
 20
-0.0995
 30
0.0
 11
1.0
 21
0.0
 31
0.0
 44
0.9
  1
Metric Units
 40
0.145
 41
2.784
  0
MTEXT
  5
261
100
AcDbEntity
  8
0
100
AcDbMText
 62
2
  6
CONTINUOUS
  7
STANDARD
 71
2
 72
1
 10
1.5275
 20
-0.4065
 30
0.0
 11
1.0
 21
0.0
 31
0.0
 44
0.9
  1
Cavity
 40
0.125
 41
1.2
  0
MTEXT
  5
262
100
AcDbEntity
  8
0
100
AcDbMText
 62
2
  6
CONTINUOUS
  7
STANDARD
 71
2
 72
1
 10
6.055
 20
-0.4065
 30
0.0
 11
1.0
 21
0.0
 31
0.0
 44
0.9
  1
T-2A
 40
0.125
 41
0.8
  0
MTEXT
  5
263
100
AcDbEntity
  8
0
100
AcDbMText
 62
2
  6
CONTINUOUS
  7
STANDARD
 71
2
 72
1
 10
1.5275
 20
-0.6565
 30
0.0
 11
1.0
 21
0.0
 31
0.0
 44
0.9
  1
Body Features
 40
0.125
 41
2.6
  0
MTEXT
  5
264
100
AcDbEntity
  8
0
100
AcDbMText
 62
2
  6
CONTINUOUS
  7
STANDARD
 71
2
 72
1
 10
6.055
 20
-0.6565
 30
0.0
 11
1.0
 21
0.0
 31
0.0
 44
0.9
  1
Priority flow control on A with reverse flow check
 40
0.125
 41
10.0
  0
MTEXT
  5
265
100
AcDbEntity
  8
0
100
AcDbMText
 62
2
  6
CONTINUOUS
  7
STANDARD
 71
2
 72
1
 10
1.5275
 20
-0.9065
 30
0.0
 11
1.0
 21
0.0
 31
0.0
 44
0.9
  1
Body Type
 40
0.125
 41
1.8
  0
MTEXT
  5
266
100
AcDbEntity
  8
0
100
AcDbMText
 62
2
  6
CONTINUOUS
  7
STANDARD
 71
2
 72
1
 10
6.055
 20
-0.9065
 30
0.0
 11
1.0
 21
0.0
 31
0.0
 44
0.9
  1
Sandwich
 40
0.125
 41
1.6
  0
MTEXT
  5
267
100
AcDbEntity
  8
0
100
AcDbMText
 62
2
  6
CONTINUOUS
  7
STANDARD
 71
2
 72
1
 10
1.5275
 20
-1.1565
 30
0.0
 11
1.0
 21
0.0
 31
0.0
 44
0.9
  1
Interface
 40
0.125
 41
1.8
  0
MTEXT
  5
268
100
AcDbEntity
  8
0
100
AcDbMText
 62
2
  6
CONTINUOUS
  7
STANDARD
 71
2
 72
1
 10
6.055
 20
-1.1565
 30
0.0
 11
1.0
 21
0.0
 31
0.0
 44
0.9
  1
ISO 05
 40
0.125
 41
1.2
  0
MTEXT
  5
269
100
AcDbEntity
  8
0
100
AcDbMText
 62
2
  6
CONTINUOUS
  7
STANDARD
 71
2
 72
1
 10
1.5275
 20
-1.4065
 30
0.0
 11
1.0
 21
0.0
 31
0.0
 44
0.9
  1
Open Cavity Quantity
 40
0.125
 41
4.0
  0
MTEXT
  5
26A
100
AcDbEntity
  8
0
100
AcDbMText
 62
2
  6
CONTINUOUS
  7
STANDARD
 71
2
 72
1
 10
6.055
 20
-1.4065
 30
0.0
 11
1.0
 21
0.0
 31
0.0
 44
0.9
  1
1
 40
0.125
 41
0.2
  0
MTEXT
  5
26B
100
AcDbEntity
  8
0
100
AcDbMText
 62
2
  6
CONTINUOUS
  7
STANDARD
 71
2
 72
1
 10
1.5275
 20
-1.6565
 30
0.0
 11
1.0
 21
0.0
 31
0.0
 44
0.9
  1
Stack Height
 40
0.125
 41
2.4
  0
MTEXT
  5
26C
100
AcDbEntity
  8
0
100
AcDbMText
 62
2
  6
CONTINUOUS
  7
STANDARD
 71
2
 72
1
 10
4.555
 20
-1.6565
 30
0.0
 11
1.0
 21
0.0
 31
0.0
 44
0.9
  1
2.44 in.
 40
0.125
 41
1.6
  0
MTEXT
  5
26D
100
AcDbEntity
  8
0
100
AcDbMText
 62
2
  6
CONTINUOUS
  7
STANDARD
 71
2
 72
1
 10
7.555
 20
-1.6565
 30
0.0
 11
1.0
 21
0.0
 31
0.0
 44
0.9
  1
62 mm
 40
0.125
 41
1.0
  0
MTEXT
  5
26E
100
AcDbEntity
  8
0
100
AcDbMText
 62
2
  6
CONTINUOUS
  7
STANDARD
 71
2
 72
1
 10
1.5275
 20
-1.9065
 30
0.0
 11
1.0
 21
0.0
 31
0.0
 44
0.9
  1
Weight
 40
0.125
 41
1.2
  0
MTEXT
  5
26F
100
AcDbEntity
  8
0
100
AcDbMText
 62
2
  6
CONTINUOUS
  7
STANDARD
 71
2
 72
1
 10
4.555
 20
-1.9065
 30
0.0
 11
1.0
 21
0.0
 31
0.0
 44
0.9
  1
2.821 lb.
 40
0.125
 41
1.8
  0
MTEXT
  5
270
100
AcDbEntity
  8
0
100
AcDbMText
 62
2
  6
CONTINUOUS
  7
STANDARD
 71
2
 72
1
 10
7.555
 20
-1.9065
 30
0.0
 11
1.0
 21
0.0
 31
0.0
 44
0.9
  1
1,279 kg.
 40
0.125
 41
1.8
  0
ENDBLK
  5
271
100
AcDbEntity
  8
0
  6
BYBLOCK
 62
0
100
AcDbBlockEnd
  0
ENDSEC
  0
SECTION
  2
ENTITIES
  0
IMAGE
  5
272
100
AcDbEntity
  8
0
100
AcDbRasterImage
 62
7
  6
CONTINUOUS
 10
19.2297077316
 20
0.3094318264
 30
0.0
 11
0.0066666667
 21
0.0
 31
0.0
 12
0.0
 22
0.0066666667
 32
0.0
 13
369.0
 23
92.0
340
       31C
 70
9
280
0
281
50
282
50
283
0
360
       316
 71
1
 91
2
 14
-0.5
 24
-0.5
 14
368.5
 24
91.5
  0
INSERT
  5
273
100
AcDbEntity
  8
0
100
AcDbBlockReference
 62
2
  6
CONTINUOUS
  2
SUN_FIRST_THIRD_ANGLE_BL0
 10
20.4816717061
 20
1.2289683772
  0
ACAD_TABLE
  5
274
100
AcDbEntity
  8
0
 62
2
  6
CONTINUOUS
100
AcDbBlockReference
  2
*T1
 10
12.42375
 20
0.30125
 30
0.0
100
AcDbTable
342
       31E
343
212
 11
1.0
 21
0.0
 31
0.0
 90
6
 91
4
 92
6
 93
20
 94
0
 95
0
 96
0
 70
1
 41
0.0
141
0.525
141
0.1
141
0.525
141
0.1
142
4.1
142
1.1
142
0.7
142
0.5
142
0.4
142
2.475
171
1
172
0
173
0
174
0
175
1
176
1
 91
33
178
0
145
0.0
301
CELL_VALUE
 90
4
  1
T-2A Sandwich ISO 05\P(See Technical Data for Body Features)
304
ACVALUE_END
170
2
140
0.125
171
1
172
0
173
0
174
0
175
1
176
1
 91
33
178
0
145
0.0
301
CELL_VALUE
 90
4
  1
Oct-01-19
304
ACVALUE_END
170
5
140
0.125
171
1
172
0
173
0
174
0
175
1
176
1
 91
33
178
0
145
0.0
301
CELL_VALUE
 90
4
  1
1.000
304
ACVALUE_END
170
5
140
0.125
171
1
172
0
173
0
174
0
175
1
176
1
 91
33
178
0
145
0.0
301
CELL_VALUE
 90
4
  1
C
304
ACVALUE_END
170
5
140
0.125
171
1
172
0
173
0
174
0
175
1
176
1
 91
33
178
0
145
0.0
301
CELL_VALUE
 90
4
  1
2
304
ACVALUE_END
170
5
140
0.125
171
1
172
0
173
0
174
0
175
1
176
1
 91
33
178
0
145
0.0
301
CELL_VALUE
 90
4
  1
 
304
ACVALUE_END
170
1
140
0.125
171
1
172
0
173
0
174
0
175
1
176
1
 91
33
178
0
145
0.0
301
CELL_VALUE
 90
4
  1
DESCRIPTION
304
ACVALUE_END
170
1
140
0.06
171
1
172
0
173
0
174
0
175
1
176
1
 91
33
178
0
145
0.0
301
CELL_VALUE
 90
4
  1
DATE
304
ACVALUE_END
170
1
140
0.06
171
1
172
0
173
0
174
0
175
1
176
1
 91
33
178
0
145
0.0
301
CELL_VALUE
 90
4
  1
SCALE
304
ACVALUE_END
170
1
140
0.06
171
1
172
0
173
0
174
0
175
1
176
1
 91
33
178
0
145
0.0
301
CELL_VALUE
 90
4
  1
DWG SIZE
304
ACVALUE_END
170
1
140
0.06
171
1
172
0
173
0
174
0
175
1
176
1
 91
33
178
0
145
0.0
301
CELL_VALUE
 90
4
  1
SHEET
304
ACVALUE_END
170
1
140
0.06
171
1
172
0
173
0
174
0
175
1
176
1
 91
33
178
0
145
0.0
301
CELL_VALUE
 90
4
  1
 
304
ACVALUE_END
170
1
140
0.125
171
1
172
0
173
0
174
0
175
1
176
1
 91
33
178
0
145
0.0
301
CELL_VALUE
 90
4
  1
Z3P
304
ACVALUE_END
170
5
140
0.125
171
1
172
0
173
0
174
0
175
4
176
1
 91
33
178
0
145
0.0
301
CELL_VALUE
 90
4
  1
ALL DIMENSIONS IN INCH\PVIEWS ARE THIRD ANGLE
304
ACVALUE_END
170
5
140
0.12
171
1
172
0
173
1
174
0
175
1
176
1
 91
1
178
0
145
0.0
170
1
171
1
172
0
173
1
174
0
175
1
176
1
 91
1
178
0
145
0.0
170
1
171
1
172
0
173
1
174
0
175
1
176
1
 91
1
178
0
145
0.0
170
5
171
1
172
0
173
0
174
0
175
1
176
1
 91
33
178
0
145
0.0
301
CELL_VALUE
 90
4
  1
 
304
ACVALUE_END
170
1
140
0.125
171
1
172
0
173
0
174
0
175
1
176
1
 91
33
178
0
145
0.0
301
CELL_VALUE
 90
4
  1
MODEL
304
ACVALUE_END
170
1
140
0.06
171
1
172
0
173
0
174
0
175
1
176
1
 91
33
178
0
145
0.0
301
CELL_VALUE
 90
4
  1
 
304
ACVALUE_END
170
1
140
0.125
171
1
172
0
173
0
174
0
175
1
176
1
 91
33
178
0
145
0.0
301
CELL_VALUE
 90
4
  1
 
304
ACVALUE_END
170
1
140
0.125
171
1
172
0
173
0
174
0
175
1
176
1
 91
33
178
0
145
0.0
301
CELL_VALUE
 90
4
  1
 
304
ACVALUE_END
170
1
140
0.125
171
1
172
0
173
0
174
0
175
1
176
1
 91
33
178
0
145
0.0
301
CELL_VALUE
 90
4
  1
 
304
ACVALUE_END
170
1
140
0.125
171
1
172
0
173
0
174
0
175
1
176
1
 91
33
178
0
145
0.0
301
CELL_VALUE
 90
4
  1
 
304
ACVALUE_END
170
1
140
0.125
  0
ACAD_TABLE
  5
275
100
AcDbEntity
  8
0
 62
2
  6
CONTINUOUS
100
AcDbBlockReference
  2
*T2
 10
12.4237499994
 20
16.47875
 30
0.0
100
AcDbTable
342
       31D
343
213
 11
1.0
 21
0.0
 31
0.0
 90
22
 91
8
 92
3
 93
16
 94
0
 95
0
 96
0
 41
0.028
141
0.344
141
0.25
141
0.25
141
0.25
141
0.25
141
0.25
141
0.25
141
0.25
142
3.055
142
3.0
142
3.0
171
1
172
0
173
0
174
0
175
1
176
1
 91
33
178
0
145
0.0
301
CELL_VALUE
 90
4
  1
Technical Data
304
ACVALUE_END
170
5
140
0.145
171
1
172
0
173
0
174
0
175
1
176
1
 91
33
178
0
145
0.0
301
CELL_VALUE
 90
4
  1
U.S. Units
304
ACVALUE_END
170
5
140
0.145
171
1
172
0
173
0
174
0
175
1
176
1
 91
33
178
0
145
0.0
301
CELL_VALUE
 90
4
  1
Metric Units
304
ACVALUE_END
170
5
140
0.145
171
1
172
0
173
0
174
0
175
1
176
1
 91
33
178
0
145
0.0
301
CELL_VALUE
 90
4
  1
Cavity
304
ACVALUE_END
170
5
140
0.125
171
1
172
0
173
0
174
0
175
2
176
1
 91
33
178
0
145
0.0
301
CELL_VALUE
 90
4
  1
T-2A
304
ACVALUE_END
170
5
140
0.125
171
1
172
0
173
1
174
0
175
1
176
1
 91
1
178
0
145
0.0
170
1
171
1
172
0
173
0
174
0
175
1
176
1
 91
33
178
0
145
0.0
301
CELL_VALUE
 90
4
  1
Body Features
304
ACVALUE_END
170
5
140
0.125
171
1
172
0
173
0
174
0
175
2
176
1
 91
33
178
0
145
0.0
301
CELL_VALUE
 90
4
  1
Priority flow control on A with reverse flow check
304
ACVALUE_END
170
5
140
0.125
171
1
172
0
173
1
174
0
175
1
176
1
 91
1
178
0
145
0.0
170
1
171
1
172
0
173
0
174
0
175
1
176
1
 91
33
178
0
145
0.0
301
CELL_VALUE
 90
4
  1
Body Type
304
ACVALUE_END
170
5
140
0.125
171
1
172
0
173
0
174
0
175
2
176
1
 91
33
178
0
145
0.0
301
CELL_VALUE
 90
4
  1
Sandwich
304
ACVALUE_END
170
5
140
0.125
171
1
172
0
173
1
174
0
175
1
176
1
 91
1
178
0
145
0.0
170
1
171
1
172
0
173
0
174
0
175
1
176
1
 91
33
178
0
145
0.0
301
CELL_VALUE
 90
4
  1
Interface
304
ACVALUE_END
170
5
140
0.125
171
1
172
0
173
0
174
0
175
2
176
1
 91
33
178
0
145
0.0
301
CELL_VALUE
 90
4
  1
ISO 05
304
ACVALUE_END
170
5
140
0.125
171
1
172
0
173
1
174
0
175
1
176
1
 91
1
178
0
145
0.0
170
1
171
1
172
0
173
0
174
0
175
1
176
1
 91
33
178
0
145
0.0
301
CELL_VALUE
 90
4
  1
Open Cavity Quantity
304
ACVALUE_END
170
5
140
0.125
171
1
172
0
173
0
174
0
175
2
176
1
 91
33
178
0
145
0.0
301
CELL_VALUE
 90
4
  1
1
304
ACVALUE_END
170
5
140
0.125
171
1
172
0
173
1
174
0
175
1
176
1
 91
1
178
0
145
0.0
170
1
171
1
172
0
173
0
174
0
175
1
176
1
 91
33
178
0
145
0.0
301
CELL_VALUE
 90
4
  1
Stack Height
304
ACVALUE_END
170
5
140
0.125
171
1
172
0
173
0
174
0
175
1
176
1
 91
33
178
0
145
0.0
301
CELL_VALUE
 90
4
  1
2.44 in.
304
ACVALUE_END
170
5
140
0.125
171
1
172
0
173
0
174
0
175
1
176
1
 91
33
178
0
145
0.0
301
CELL_VALUE
 90
4
  1
62 mm
304
ACVALUE_END
170
5
140
0.125
171
1
172
0
173
0
174
0
175
1
176
1
 91
33
178
0
145
0.0
301
CELL_VALUE
 90
4
  1
Weight
304
ACVALUE_END
170
5
140
0.125
171
1
172
0
173
0
174
0
175
1
176
1
 91
33
178
0
145
0.0
301
CELL_VALUE
 90
4
  1
2.821 lb.
304
ACVALUE_END
170
5
140
0.125
171
1
172
0
173
0
174
0
175
1
176
1
 91
33
178
0
145
0.0
301
CELL_VALUE
 90
4
  1
1,279 kg.
304
ACVALUE_END
170
5
140
0.125
  0
MTEXT
  5
276
100
AcDbEntity
  8
0
100
AcDbMText
 62
2
  6
CONTINUOUS
  7
STANDARD
 71
1
 72
1
 10
0.52125
 20
5.75995
 30
0.0
 11
1.0
 21
0.0
 31
0.0
 44
0.6
  3
Notes\P \P1. Important: Carefully consider\P   the maximum system pressure. The\P   pressure rating of the manifold is\P   dependent on the manifold material,\P   with the port type/size a secondary\P   consideration. Manifolds\P   constructed of alu
  1
minum are not\P   rated for pressures higher than\P   3000 psi (210 bar), regardless of\P   the port type/size specified.
 40
0.1
 41
3.04
  0
LINE
  5
277
100
AcDbEntity
  8
0
100
AcDbLine
 62
7
  6
CONTINUOUS
 10
0.30125
 20
0.30125
 11
0.30125
 21
16.69875
  0
LINE
  5
278
100
AcDbEntity
  8
0
100
AcDbLine
 62
7
  6
CONTINUOUS
 10
0.30125
 20
0.30125
 11
21.69875
 21
0.30125
  0
LINE
  5
279
100
AcDbEntity
  8
0
100
AcDbLine
 62
7
  6
CONTINUOUS
 10
0.30125
 20
16.69875
 11
21.69875
 21
16.69875
  0
LINE
  5
27A
100
AcDbEntity
  8
0
100
AcDbLine
 62
7
  6
CONTINUOUS
 10
21.69875
 20
0.30125
 11
21.69875
 21
16.69875
  0
LINE
  5
27B
100
AcDbEntity
  8
0
100
AcDbLine
 62
7
  6
CONTINUOUS
 10
10.2205737063
 20
5.5150441164
 11
10.2397915957
 21
5.505550847
  0
LINE
  5
27C
100
AcDbEntity
  8
0
100
AcDbLine
 62
7
  6
CONTINUOUS
 10
9.6381780579
 20
11.063374391
 11
10.0667820429
 21
11.4773740739
  0
LINE
  5
27D
100
AcDbEntity
  8
0
100
AcDbLine
 62
7
  6
CONTINUOUS
 10
9.6681217603
 20
11.0912414906
 11
10.0967257453
 21
11.5052411734
  0
LINE
  5
27E
100
AcDbEntity
  8
0
100
AcDbLine
 62
7
  6
CONTINUOUS
 10
10.0667820429
 20
11.4773740739
 11
10.067716833
 21
11.4782602169
  0
LINE
  5
27F
100
AcDbEntity
  8
0
100
AcDbLine
 62
7
  6
CONTINUOUS
 10
10.0967257453
 20
11.5052411734
 11
10.0975843959
 21
11.5060549701
  0
LINE
  5
280
100
AcDbEntity
  8
0
100
AcDbLine
 62
7
  6
CONTINUOUS
 10
10.0967183237
 20
11.5052491485
 11
10.0667820429
 21
11.4773740739
  0
LINE
  5
281
100
AcDbEntity
  8
0
100
AcDbLine
 62
7
  6
CONTINUOUS
 10
9.6681217603
 20
11.0912414906
 11
9.6381780579
 21
11.063374391
  0
LINE
  5
282
100
AcDbEntity
  8
0
100
AcDbLine
 62
7
  6
CONTINUOUS
 10
9.9113665862
 20
6.0617716459
 11
11.4809961469
 21
5.9529174662
  0
LINE
  5
283
100
AcDbEntity
  8
0
100
AcDbLine
 62
7
  6
CONTINUOUS
 10
9.9033432024
 20
6.0839653543
 11
11.4729727631
 21
5.9751111745
  0
LINE
  5
284
100
AcDbEntity
  8
0
100
AcDbLine
 62
7
  6
CONTINUOUS
 10
9.639112848
 20
6.1517089441
 11
9.6689792744
 21
6.123915099
  0
LINE
  5
285
100
AcDbEntity
  8
0
100
AcDbLine
 62
7
  6
CONTINUOUS
 10
9.4770924947
 20
9.7623703041
 11
9.6254002642
 21
9.9056246175
  0
LINE
  5
286
100
AcDbEntity
  8
0
100
AcDbLine
 62
7
  6
CONTINUOUS
 10
9.9113665862
 20
6.0617716459
 11
9.9033432024
 21
6.0839653543
  0
LINE
  5
287
100
AcDbEntity
  8
0
100
AcDbLine
 62
7
  6
CONTINUOUS
 10
9.9113665862
 20
10.9821979639
 11
9.9033432024
 21
10.9445042675
  0
LINE
  5
288
100
AcDbEntity
  8
0
100
AcDbLine
 62
7
  6
CONTINUOUS
 10
11.5013874726
 20
11.2990402735
 11
11.499962853
 21
11.2976899506
  0
LINE
  5
289
100
AcDbEntity
  8
0
100
AcDbLine
 62
7
  6
CONTINUOUS
 10
11.8919072035
 20
6.6971248574
 11
9.4770924947
 21
6.8645928263
  0
LINE
  5
28A
100
AcDbEntity
  8
0
100
AcDbLine
 62
7
  6
CONTINUOUS
 10
9.4770924947
 20
9.7623703041
 11
9.4770924947
 21
6.8645928263
  0
LINE
  5
28B
100
AcDbEntity
  8
0
100
AcDbLine
 62
7
  6
CONTINUOUS
 10
9.6254002642
 20
6.8543076475
 11
9.6254002642
 21
6.1777152824
  0
LINE
  5
28C
100
AcDbEntity
  8
0
100
AcDbLine
 62
7
  6
CONTINUOUS
 10
9.6254002642
 20
9.8308468238
 11
9.6254002642
 21
11.0382541957
  0
LINE
  5
28D
100
AcDbEntity
  8
0
100
AcDbLine
 62
7
  6
CONTINUOUS
 10
12.3309123138
 20
11.3502998087
 11
11.9023083289
 21
10.9363001258
  0
LINE
  5
28E
100
AcDbEntity
  8
0
100
AcDbLine
 62
7
  6
CONTINUOUS
 10
9.9033432024
 20
10.9445042675
 11
9.9033432024
 21
9.7370968956
  0
LINE
  5
28F
100
AcDbEntity
  8
0
100
AcDbLine
 62
7
  6
CONTINUOUS
 10
9.9033432024
 20
6.0839653543
 11
9.9033432024
 21
6.8350322393
  0
LINE
  5
290
100
AcDbEntity
  8
0
100
AcDbLine
 62
7
  6
CONTINUOUS
 10
10.1123734293
 20
6.0361272194
 11
10.1123734293
 21
5.6517237781
  0
LINE
  5
291
100
AcDbEntity
  8
0
100
AcDbLine
 62
7
  6
CONTINUOUS
 10
12.3608560162
 20
11.3182795035
 11
11.9322520313
 21
10.9042798206
  0
LINE
  5
292
100
AcDbEntity
  8
0
100
AcDbLine
 62
7
  6
CONTINUOUS
 10
10.2637933688
 20
5.8898670393
 11
10.2637933688
 21
5.505463598
  0
LINE
  5
293
100
AcDbEntity
  8
0
100
AcDbLine
 62
7
  6
CONTINUOUS
 10
10.3032661467
 20
5.8796507456
 11
10.3032661467
 21
5.4952473043
  0
LINE
  5
294
100
AcDbEntity
  8
0
100
AcDbLine
 62
7
  6
CONTINUOUS
 10
12.3608560162
 20
10.1108721316
 11
11.9322520313
 21
9.6968724487
  0
LINE
  5
295
100
AcDbEntity
  8
0
100
AcDbLine
 62
7
  6
CONTINUOUS
 10
11.4809961469
 20
5.9529174662
 11
11.4729727631
 21
5.9751111745
  0
LINE
  5
296
100
AcDbEntity
  8
0
100
AcDbLine
 62
7
  6
CONTINUOUS
 10
10.8683726212
 20
5.8404604785
 11
10.8683726212
 21
5.4560570372
  0
LINE
  5
297
100
AcDbEntity
  8
0
100
AcDbLine
 62
7
  6
CONTINUOUS
 10
10.9222934235
 20
5.8441999054
 11
10.9222934235
 21
5.4597964641
  0
LINE
  5
298
100
AcDbEntity
  8
0
100
AcDbLine
 62
7
  6
CONTINUOUS
 10
11.4809961469
 20
10.8733437842
 11
11.4729727631
 21
10.8356500877
  0
LINE
  5
299
100
AcDbEntity
  8
0
100
AcDbLine
 62
7
  6
CONTINUOUS
 10
12.5229075053
 20
10.2044018593
 11
11.8919072035
 21
9.5949023353
  0
LINE
  5
29A
100
AcDbEntity
  8
0
100
AcDbLine
 62
7
  6
CONTINUOUS
 10
11.3359799586
 20
5.9512698184
 11
11.3359799586
 21
5.5668663771
  0
LINE
  5
29B
100
AcDbEntity
  8
0
100
AcDbLine
 62
7
  6
CONTINUOUS
 10
11.3504279829
 20
5.9619723991
 11
11.3504279829
 21
5.5808220978
  0
LINE
  5
29C
100
AcDbEntity
  8
0
100
AcDbLine
 62
7
  6
CONTINUOUS
 10
11.4729727631
 20
10.8356500877
 11
11.4729727631
 21
9.6282427158
  0
LINE
  5
29D
100
AcDbEntity
  8
0
100
AcDbLine
 62
7
  6
CONTINUOUS
 10
11.4729727631
 20
5.9751111745
 11
11.4729727631
 21
6.7261780596
  0
LINE
  5
29E
100
AcDbEntity
  8
0
100
AcDbLine
 62
7
  6
CONTINUOUS
 10
11.8919072035
 20
9.5949023353
 11
11.8919072035
 21
6.6971248574
  0
LINE
  5
29F
100
AcDbEntity
  8
0
100
AcDbLine
 62
7
  6
CONTINUOUS
 10
11.9322520313
 20
10.9042798206
 11
11.9322520313
 21
9.6968724487
  0
LINE
  5
2A0
100
AcDbEntity
  8
0
100
AcDbLine
 62
7
  6
CONTINUOUS
 10
11.9322520313
 20
6.0437409074
 11
11.9322520313
 21
6.7360949708
  0
LINE
  5
2A1
100
AcDbEntity
  8
0
100
AcDbLine
 62
7
  6
CONTINUOUS
 10
11.8919072035
 20
9.5949023353
 11
9.4770924947
 21
9.7623703041
  0
LINE
  5
2A2
100
AcDbEntity
  8
0
100
AcDbLine
 62
7
  6
CONTINUOUS
 10
11.4729727631
 20
9.6282427158
 11
9.9033432024
 21
9.7370968956
  0
LINE
  5
2A3
100
AcDbEntity
  8
0
100
AcDbLine
 62
7
  6
CONTINUOUS
 10
12.3608560162
 20
11.3182795035
 11
12.3608560162
 21
10.1108721316
  0
LINE
  5
2A4
100
AcDbEntity
  8
0
100
AcDbLine
 62
7
  6
CONTINUOUS
 10
12.3608560162
 20
6.4577405902
 11
12.3608560162
 21
7.1500946537
  0
LINE
  5
2A5
100
AcDbEntity
  8
0
100
AcDbLine
 62
7
  6
CONTINUOUS
 10
12.3736338099
 20
7.1624370554
 11
12.3736338099
 21
6.4828607856
  0
LINE
  5
2A6
100
AcDbEntity
  8
0
100
AcDbLine
 62
7
  6
CONTINUOUS
 10
12.3736338099
 20
10.1359923269
 11
12.3736338099
 21
11.3433996988
  0
LINE
  5
2A7
100
AcDbEntity
  8
0
100
AcDbLine
 62
7
  6
CONTINUOUS
 10
12.5229075053
 20
10.2044018593
 11
12.5229075053
 21
7.3066243815
  0
LINE
  5
2A8
100
AcDbEntity
  8
0
100
AcDbLine
 62
7
  6
CONTINUOUS
 10
12.3736338099
 20
10.2147540253
 11
12.5229075053
 21
10.2044018593
  0
LINE
  5
2A9
100
AcDbEntity
  8
0
100
AcDbLine
 62
7
  6
CONTINUOUS
 10
12.5229075053
 20
7.3066243815
 11
11.8919072035
 21
6.6971248574
  0
LINE
  5
2AA
100
AcDbEntity
  8
0
100
AcDbLine
 62
7
  6
CONTINUOUS
 10
11.9322520313
 20
6.0437409074
 11
12.3608560162
 21
6.4577405902
  0
LINE
  5
2AB
100
AcDbEntity
  8
0
100
AcDbLine
 62
7
  6
CONTINUOUS
 10
11.9313172412
 20
6.0428547644
 11
11.9322520313
 21
6.0437409074
  0
LINE
  5
2AC
100
AcDbEntity
  8
0
100
AcDbLine
 62
7
  6
CONTINUOUS
 10
11.9313172412
 20
6.0428547644
 11
11.9014508147
 21
6.0150609193
  0
LINE
  5
2AD
100
AcDbEntity
  8
0
100
AcDbLine
 62
7
  6
CONTINUOUS
 10
11.4729727631
 20
10.8356500877
 11
9.9033432024
 21
10.9445042675
  0
LINE
  5
2AE
100
AcDbEntity
  8
0
100
AcDbLine
 62
7
  6
CONTINUOUS
 10
11.4809961469
 20
10.8733437842
 11
9.9113665862
 21
10.9821979639
  0
LINE
  5
2AF
100
AcDbEntity
  8
0
100
AcDbLine
 62
7
  6
CONTINUOUS
 10
11.9023083289
 20
10.9363001258
 11
11.9322520313
 21
10.9042798206
  0
LINE
  5
2B0
100
AcDbEntity
  8
0
100
AcDbLine
 62
7
  6
CONTINUOUS
 10
11.2536838269
 20
5.5207032209
 11
11.2230098164
 21
5.505550847
  0
LINE
  5
2B1
100
AcDbEntity
  8
0
100
AcDbLine
 62
7
  6
CONTINUOUS
 10
12.3309123138
 20
11.3502998087
 11
12.3608560162
 21
11.3182795035
  0
LINE
  5
2B2
100
AcDbEntity
  8
0
100
AcDbLine
 62
7
  6
CONTINUOUS
 10
10.5180379272
 20
11.5681975151
 11
12.0876674879
 21
11.4593433353
  0
LINE
  5
2B3
100
AcDbEntity
  8
0
100
AcDbLine
 62
7
  6
CONTINUOUS
 10
12.3599212261
 20
11.3694060371
 11
12.3300547997
 21
11.3971998822
  0
ARC
  5
2B4
100
AcDbEntity
  8
0
100
AcDbCircle
 62
7
  6
CONTINUOUS
 10
10.740754786
 20
8.0712766647
 40
2.234463508
100
AcDbArc
 50
273.2741391254
 51
274.6601229449
  0
ARC
  5
2B5
100
AcDbEntity
  8
0
100
AcDbCircle
 62
7
  6
CONTINUOUS
 10
10.7424402287
 20
7.6625699218
 40
2.210103635
100
AcDbArc
 50
273.2665005552
 51
274.6677615151
  0
ARC
  5
2B6
100
AcDbEntity
  8
0
100
AcDbCircle
 62
7
  6
CONTINUOUS
 10
10.5224656551
 20
6.8079374792
 40
0.9538158545
100
AcDbArc
 50
254.2644742826
 51
256.7139235525
  0
ARC
  5
2B7
100
AcDbEntity
  8
0
100
AcDbCircle
 62
7
  6
CONTINUOUS
 10
10.5224656551
 20
6.4235340379
 40
0.9538158545
100
AcDbArc
 50
254.2644742826
 51
256.7139235525
  0
ARC
  5
2B8
100
AcDbEntity
  8
0
100
AcDbCircle
 62
7
  6
CONTINUOUS
 10
9.5644333595
 20
8.950813089
 40
0.7793421078
100
AcDbArc
 50
313.2481712349
 51
313.468698418
  0
ARC
  5
2B9
100
AcDbEntity
  8
0
100
AcDbCircle
 62
7
  6
CONTINUOUS
 10
10.9148028253
 20
6.205598422
 40
0.7641475746
100
AcDbArc
 50
293.7608747297
 51
296.3085175792
  0
ARC
  5
2BA
100
AcDbEntity
  8
0
100
AcDbCircle
 62
7
  6
CONTINUOUS
 10
10.6909211303
 20
8.8148952228
 40
0.2375692424
100
AcDbArc
 50
307.1069065009
 51
307.2952278406
  0
ARC
  5
2BB
100
AcDbEntity
  8
0
100
AcDbCircle
 62
7
  6
CONTINUOUS
 10
10.1248531159
 20
8.5931539241
 40
0.2028683471
100
AcDbArc
 50
289.7334253863
 51
295.9453678331
  0
ARC
  5
2BC
100
AcDbEntity
  8
0
100
AcDbCircle
 62
7
  6
CONTINUOUS
 10
10.1261001521
 20
8.5905154754
 40
0.1999502304
100
AcDbArc
 50
295.9548264706
 51
299.2469129456
  0
ARC
  5
2BD
100
AcDbEntity
  8
0
100
AcDbCircle
 62
7
  6
CONTINUOUS
 10
10.082868969
 20
8.5783215288
 40
0.1993590486
100
AcDbArc
 50
217.4130425372
 51
240.4773185757
  0
ARC
  5
2BE
100
AcDbEntity
  8
0
100
AcDbCircle
 62
7
  6
CONTINUOUS
 10
10.2028405936
 20
5.9563049082
 40
0.120706442
100
AcDbArc
 50
131.2363002028
 51
133.9915261743
  0
ARC
  5
2BF
100
AcDbEntity
  8
0
100
AcDbCircle
 62
7
  6
CONTINUOUS
 10
11.2705493779
 20
6.0341708355
 40
0.105526769
100
AcDbArc
 50
313.9572074998
 51
316.9707585936
  0
SPLINE
  5
2C0
100
AcDbEntity
  8
0
100
AcDbSpline
 62
7
  6
CONTINUOUS
 70
0
 71
3
 72
56
 73
52
 74
0
 42
0.0000001
 43
0.0000001
 44
0.0000000001
 40
0.0
 40
0.0
 40
0.0
 40
0.0
 40
0.031072346
 40
0.0465152317
 40
0.0618873124
 40
0.0924244558
 40
0.1227285839
 40
0.1378086476
 40
0.152843805
 40
0.1678401144
 40
0.1828038429
 40
0.2126503375
 40
0.2275575076
 40
0.2424602021
 40
0.2573657768
 40
0.2722815596
 40
0.2872148075
 40
0.3021724288
 40
0.3171611944
 40
0.3321875086
 40
0.3472571497
 40
0.3623756664
 40
0.3927682644
 40
0.4234071833
 40
0.4388308412
 40
0.4543232404
 40
0.485507794
 40
0.5169699549
 40
0.5328065592
 40
0.5487076996
 40
0.5806824155
 40
0.6128739827
 40
0.6290441713
 40
0.6452543848
 40
0.6777639099
 40
0.7103643313
 40
0.7266873147
 40
0.7430142246
 40
0.7756456102
 40
0.791945892
 40
0.80822475
 40
0.8244760382
 40
0.8406940716
 40
0.8568734333
 40
0.8730088969
 40
0.8890954876
 40
0.905128265
 40
0.9370074718
 40
0.9528594107
 40
0.9686481654
 40
1.0
 40
1.0
 40
1.0
 40
1.0
 10
10.3005603361
 20
8.2567319088
 30
0.0
 10
10.3005602014
 20
8.2487182783
 30
0.0
 10
10.2999720853
 20
8.2367105381
 30
0.0
 10
10.2980026102
 20
8.2208667552
 30
0.0
 10
10.2952638125
 20
8.2052766044
 30
0.0
 10
10.2904024883
 20
8.1861948082
 30
0.0
 10
10.2836413684
 20
8.1677794013
 30
0.0
 10
10.2771496146
 20
8.1536072805
 30
0.0
 10
10.2717582188
 20
8.1432914217
 30
0.0
 10
10.2658513984
 20
8.1332963948
 30
0.0
 10
10.2573163022
 20
8.1204424912
 30
0.0
 10
10.2477916246
 20
8.1082961608
 30
0.0
 10
10.2373658007
 20
8.0969744157
 30
0.0
 10
10.2291125737
 20
8.0889116534
 30
0.0
 10
10.2204442288
 20
8.0812942765
 30
0.0
 10
10.2113795761
 20
8.0741401402
 30
0.0
 10
10.2019394164
 20
8.0674661802
 30
0.0
 10
10.1921459183
 20
8.0612871065
 30
0.0
 10
10.1820208166
 20
8.0556185402
 30
0.0
 10
10.1715874823
 20
8.0504741908
 30
0.0
 10
10.1608699895
 20
8.0458655391
 30
0.0
 10
10.1462108712
 20
8.040443376
 30
0.0
 10
10.1272842735
 20
8.0350644169
 30
0.0
 10
10.1078323467
 20
8.0316258176
 30
0.0
 10
10.0920305818
 20
8.0300424352
 30
0.0
 10
10.0760288244
 20
8.0292424416
 30
0.0
 10
10.0558478894
 20
8.0297355487
 30
0.0
 10
10.0357244001
 20
8.0322060308
 30
0.0
 10
10.0197257728
 20
8.035350934
 30
0.0
 10
10.0037675044
 20
8.0392894631
 30
0.0
 10
9.9840917006
 20
8.0456628964
 30
0.0
 10
9.965037641
 20
8.0538812109
 30
0.0
 10
9.950236358
 20
8.0615248683
 30
0.0
 10
9.9357337965
 20
8.0698866934
 30
0.0
 10
9.9183053266
 20
8.0816093032
 30
0.0
 10
9.9020010657
 20
8.0948964365
 30
0.0
 10
9.8897091712
 20
8.1063974774
 30
0.0
 10
9.8779500261
 20
8.1184529624
 30
0.0
 10
9.8670301528
 20
8.1312966112
 30
0.0
 10
9.8570385235
 20
8.1448302427
 30
0.0
 10
9.8500267523
 20
8.15529681
 30
0.0
 10
9.8435141683
 20
8.1660559005
 30
0.0
 10
9.8375162887
 20
8.1770810861
 30
0.0
 10
9.8320465187
 20
8.1883444219
 30
0.0
 10
9.8271192012
 20
8.1998184582
 30
0.0
 10
9.8227455476
 20
8.2114748093
 30
0.0
 10
9.8176749039
 20
8.2271867389
 30
0.0
 10
9.8137345713
 20
8.2431828319
 30
0.0
 10
9.8109652225
 20
8.2593343854
 30
0.0
 10
9.8089928152
 20
8.2754646422
 30
0.0
 10
9.8083916446
 20
8.2876327146
 30
0.0
 10
9.8083914973
 20
8.2957184259
 30
0.0
  0
SPLINE
  5
2C1
100
AcDbEntity
  8
0
100
AcDbSpline
 62
7
  6
CONTINUOUS
 70
0
 71
3
 72
56
 73
52
 74
0
 42
0.0000001
 43
0.0000001
 44
0.0000000001
 40
0.0
 40
0.0
 40
0.0
 40
0.0
 40
0.0310723444
 40
0.0465152282
 40
0.0618873079
 40
0.0924244521
 40
0.1227285817
 40
0.1378086463
 40
0.1528438045
 40
0.1678401149
 40
0.1828038444
 40
0.2126503405
 40
0.227557511
 40
0.2424602055
 40
0.2573657799
 40
0.272281562
 40
0.2872148089
 40
0.3021724291
 40
0.3171611937
 40
0.3321875071
 40
0.3472571476
 40
0.362375664
 40
0.3927682619
 40
0.4234071812
 40
0.4388308394
 40
0.454323239
 40
0.4855077933
 40
0.5169699546
 40
0.532806559
 40
0.5487076994
 40
0.5806824153
 40
0.6128739824
 40
0.6290441709
 40
0.6452543843
 40
0.6777639093
 40
0.7103643307
 40
0.7266873141
 40
0.7430142241
 40
0.7756456098
 40
0.7919458916
 40
0.8082247496
 40
0.8244760379
 40
0.8406940714
 40
0.8568734332
 40
0.8730088968
 40
0.8890954876
 40
0.905128265
 40
0.9370074719
 40
0.9528594107
 40
0.9686481654
 40
1.0
 40
1.0
 40
1.0
 40
1.0
 10
9.8083914952
 20
8.2957183252
 30
0.0
 10
9.8083916298
 20
8.3037319553
 30
0.0
 10
9.8089797455
 20
8.3157396946
 30
0.0
 10
9.8109492207
 20
8.3315834763
 30
0.0
 10
9.8136880182
 20
8.3471736266
 30
0.0
 10
9.8185493422
 20
8.3662554233
 30
0.0
 10
9.8253104622
 20
8.384670831
 30
0.0
 10
9.8318022162
 20
8.3988429526
 30
0.0
 10
9.8371936124
 20
8.409158812
 30
0.0
 10
9.8431004332
 20
8.4191538396
 30
0.0
 10
9.8516355298
 20
8.4320077438
 30
0.0
 10
9.8611602081
 20
8.4441540747
 30
0.0
 10
9.8715860323
 20
8.4554758201
 30
0.0
 10
9.8798392595
 20
8.4635385824
 30
0.0
 10
9.8885076043
 20
8.4711559589
 30
0.0
 10
9.8975722566
 20
8.4783100949
 30
0.0
 10
9.9070124158
 20
8.4849840544
 30
0.0
 10
9.9168059132
 20
8.4911631276
 30
0.0
 10
9.9269310143
 20
8.4968316935
 30
0.0
 10
9.937364348
 20
8.5019760427
 30
0.0
 10
9.9480818403
 20
8.5065846943
 30
0.0
 10
9.9627409585
 20
8.5120068573
 30
0.0
 10
9.981667556
 20
8.5173858167
 30
0.0
 10
10.001119483
 20
8.5208244161
 30
0.0
 10
10.0169212482
 20
8.5224077987
 30
0.0
 10
10.0329230059
 20
8.5232077923
 30
0.0
 10
10.0531039413
 20
8.5227146853
 30
0.0
 10
10.0732274309
 20
8.5202442032
 30
0.0
 10
10.0892260583
 20
8.5170993
 30
0.0
 10
10.1051843268
 20
8.5131607708
 30
0.0
 10
10.1248601306
 20
8.5067873376
 30
0.0
 10
10.1439141901
 20
8.4985690231
 30
0.0
 10
10.158715473
 20
8.4909253657
 30
0.0
 10
10.1732180344
 20
8.4825635407
 30
0.0
 10
10.1906465044
 20
8.470840931
 30
0.0
 10
10.2069507653
 20
8.4575537977
 30
0.0
 10
10.2192426598
 20
8.4460527568
 30
0.0
 10
10.2310018049
 20
8.4339972718
 30
0.0
 10
10.2419216783
 20
8.421153623
 30
0.0
 10
10.2519133076
 20
8.4076199915
 30
0.0
 10
10.2589250788
 20
8.3971534241
 30
0.0
 10
10.2654376628
 20
8.3863943336
 30
0.0
 10
10.2714355425
 20
8.375369148
 30
0.0
 10
10.2769053125
 20
8.3641058122
 30
0.0
 10
10.2818326301
 20
8.3526317758
 30
0.0
 10
10.2862062837
 20
8.3409754247
 30
0.0
 10
10.2912769274
 20
8.3252634951
 30
0.0
 10
10.2952172599
 20
8.309267402
 30
0.0
 10
10.2979866088
 20
8.2931158485
 30
0.0
 10
10.2999590161
 20
8.2769855917
 30
0.0
 10
10.3005601866
 20
8.2648175193
 30
0.0
 10
10.300560334
 20
8.2567318081
 30
0.0
  0
SPLINE
  5
2C2
100
AcDbEntity
  8
0
100
AcDbSpline
 62
7
  6
CONTINUOUS
 70
0
 71
3
 72
56
 73
52
 74
0
 42
0.0000001
 43
0.0000001
 44
0.0000000001
 40
0.0
 40
0.0
 40
0.0
 40
0.0
 40
0.031072346
 40
0.0465152317
 40
0.0618873124
 40
0.0924244558
 40
0.1227285839
 40
0.1378086476
 40
0.152843805
 40
0.1678401144
 40
0.1828038429
 40
0.2126503375
 40
0.2275575076
 40
0.2424602021
 40
0.2573657768
 40
0.2722815596
 40
0.2872148075
 40
0.3021724288
 40
0.3171611944
 40
0.3321875086
 40
0.3472571497
 40
0.3623756664
 40
0.3927682644
 40
0.4234071833
 40
0.4388308412
 40
0.4543232404
 40
0.485507794
 40
0.5169699549
 40
0.5328065592
 40
0.5487076996
 40
0.5806824155
 40
0.6128739827
 40
0.6290441713
 40
0.6452543848
 40
0.6777639099
 40
0.7103643313
 40
0.7266873147
 40
0.7430142246
 40
0.7756456102
 40
0.791945892
 40
0.80822475
 40
0.8244760382
 40
0.8406940716
 40
0.8568734333
 40
0.8730088969
 40
0.8890954876
 40
0.905128265
 40
0.9370074718
 40
0.9528594107
 40
0.9686481654
 40
1.0
 40
1.0
 40
1.0
 40
1.0
 10
11.2964299395
 20
7.2825955294
 30
0.0
 10
11.2964298048
 20
7.2745818989
 30
0.0
 10
11.2958416887
 20
7.2625741586
 30
0.0
 10
11.2938722136
 20
7.2467303758
 30
0.0
 10
11.291133416
 20
7.231140225
 30
0.0
 10
11.2862720917
 20
7.2120584287
 30
0.0
 10
11.2795109718
 20
7.1936430219
 30
0.0
 10
11.273019218
 20
7.1794709011
 30
0.0
 10
11.2676278222
 20
7.1691550423
 30
0.0
 10
11.2617210018
 20
7.1591600153
 30
0.0
 10
11.2531859056
 20
7.1463061118
 30
0.0
 10
11.243661228
 20
7.1341597813
 30
0.0
 10
11.2332354041
 20
7.1228380363
 30
0.0
 10
11.2249821771
 20
7.1147752739
 30
0.0
 10
11.2163138322
 20
7.1071578971
 30
0.0
 10
11.2072491795
 20
7.1000037607
 30
0.0
 10
11.1978090198
 20
7.0933298008
 30
0.0
 10
11.1880155217
 20
7.0871507271
 30
0.0
 10
11.17789042
 20
7.0814821608
 30
0.0
 10
11.1674570857
 20
7.0763378114
 30
0.0
 10
11.156739593
 20
7.0717291596
 30
0.0
 10
11.1420804746
 20
7.0663069965
 30
0.0
 10
11.1231538769
 20
7.0609280375
 30
0.0
 10
11.1037019501
 20
7.0574894382
 30
0.0
 10
11.0879001852
 20
7.0559060557
 30
0.0
 10
11.0718984278
 20
7.0551060621
 30
0.0
 10
11.0517174928
 20
7.0555991693
 30
0.0
 10
11.0315940035
 20
7.0580696514
 30
0.0
 10
11.0155953763
 20
7.0612145546
 30
0.0
 10
10.9996371078
 20
7.0651530837
 30
0.0
 10
10.979961304
 20
7.071526517
 30
0.0
 10
10.9609072444
 20
7.0797448315
 30
0.0
 10
10.9461059614
 20
7.0873884889
 30
0.0
 10
10.9316034
 20
7.095750314
 30
0.0
 10
10.91417493
 20
7.1074729237
 30
0.0
 10
10.8978706691
 20
7.1207600571
 30
0.0
 10
10.8855787746
 20
7.132261098
 30
0.0
 10
10.8738196295
 20
7.144316583
 30
0.0
 10
10.8628997562
 20
7.1571602318
 30
0.0
 10
10.8529081269
 20
7.1706938632
 30
0.0
 10
10.8458963557
 20
7.1811604306
 30
0.0
 10
10.8393837717
 20
7.191919521
 30
0.0
 10
10.8333858921
 20
7.2029447067
 30
0.0
 10
10.8279161221
 20
7.2142080424
 30
0.0
 10
10.8229888046
 20
7.2256820788
 30
0.0
 10
10.818615151
 20
7.2373384298
 30
0.0
 10
10.8135445073
 20
7.2530503594
 30
0.0
 10
10.8096041747
 20
7.2690464525
 30
0.0
 10
10.8068348259
 20
7.2851980059
 30
0.0
 10
10.8048624186
 20
7.3013282628
 30
0.0
 10
10.804261248
 20
7.3134963352
 30
0.0
 10
10.8042611007
 20
7.3215820464
 30
0.0
  0
SPLINE
  5
2C3
100
AcDbEntity
  8
0
100
AcDbSpline
 62
7
  6
CONTINUOUS
 70
0
 71
3
 72
56
 73
52
 74
0
 42
0.0000001
 43
0.0000001
 44
0.0000000001
 40
0.0
 40
0.0
 40
0.0
 40
0.0
 40
0.0310723444
 40
0.0465152282
 40
0.0618873079
 40
0.0924244521
 40
0.1227285817
 40
0.1378086463
 40
0.1528438045
 40
0.1678401149
 40
0.1828038444
 40
0.2126503405
 40
0.227557511
 40
0.2424602055
 40
0.2573657799
 40
0.272281562
 40
0.2872148089
 40
0.3021724291
 40
0.3171611937
 40
0.3321875071
 40
0.3472571476
 40
0.362375664
 40
0.3927682619
 40
0.4234071812
 40
0.4388308394
 40
0.454323239
 40
0.4855077933
 40
0.5169699546
 40
0.532806559
 40
0.5487076994
 40
0.5806824153
 40
0.6128739824
 40
0.6290441709
 40
0.6452543843
 40
0.6777639093
 40
0.7103643307
 40
0.7266873141
 40
0.7430142241
 40
0.7756456098
 40
0.7919458916
 40
0.8082247496
 40
0.8244760379
 40
0.8406940714
 40
0.8568734332
 40
0.8730088968
 40
0.8890954876
 40
0.905128265
 40
0.9370074719
 40
0.9528594107
 40
0.9686481654
 40
1.0
 40
1.0
 40
1.0
 40
1.0
 10
10.8042610986
 20
7.3215819458
 30
0.0
 10
10.8042612332
 20
7.3295955759
 30
0.0
 10
10.8048493489
 20
7.3416033152
 30
0.0
 10
10.8068188242
 20
7.3574470969
 30
0.0
 10
10.8095576216
 20
7.3730372471
 30
0.0
 10
10.8144189456
 20
7.3921190438
 30
0.0
 10
10.8211800656
 20
7.4105344515
 30
0.0
 10
10.8276718197
 20
7.4247065731
 30
0.0
 10
10.8330632158
 20
7.4350224326
 30
0.0
 10
10.8389700366
 20
7.4450174601
 30
0.0
 10
10.8475051332
 20
7.4578713644
 30
0.0
 10
10.8570298115
 20
7.4700176952
 30
0.0
 10
10.8674556357
 20
7.4813394407
 30
0.0
 10
10.8757088629
 20
7.4894022029
 30
0.0
 10
10.8843772078
 20
7.4970195795
 30
0.0
 10
10.89344186
 20
7.5041737155
 30
0.0
 10
10.9028820192
 20
7.510847675
 30
0.0
 10
10.9126755166
 20
7.5170267482
 30
0.0
 10
10.9228006177
 20
7.522695314
 30
0.0
 10
10.9332339514
 20
7.5278396632
 30
0.0
 10
10.9439514437
 20
7.5324483149
 30
0.0
 10
10.9586105619
 20
7.5378704779
 30
0.0
 10
10.9775371594
 20
7.5432494373
 30
0.0
 10
10.9969890864
 20
7.5466880367
 30
0.0
 10
11.0127908516
 20
7.5482714193
 30
0.0
 10
11.0287926093
 20
7.5490714129
 30
0.0
 10
11.0489735447
 20
7.5485783059
 30
0.0
 10
11.0690970343
 20
7.5461078238
 30
0.0
 10
11.0850956617
 20
7.5429629205
 30
0.0
 10
11.1010539302
 20
7.5390243914
 30
0.0
 10
11.120729734
 20
7.5326509581
 30
0.0
 10
11.1397837935
 20
7.5244326437
 30
0.0
 10
11.1545850764
 20
7.5167889863
 30
0.0
 10
11.1690876378
 20
7.5084271613
 30
0.0
 10
11.1865161078
 20
7.4967045515
 30
0.0
 10
11.2028203687
 20
7.4834174183
 30
0.0
 10
11.2151122632
 20
7.4719163774
 30
0.0
 10
11.2268714083
 20
7.4598608924
 30
0.0
 10
11.2377912817
 20
7.4470172435
 30
0.0
 10
11.247782911
 20
7.4334836121
 30
0.0
 10
11.2547946822
 20
7.4230170447
 30
0.0
 10
11.2613072663
 20
7.4122579542
 30
0.0
 10
11.2673051459
 20
7.4012327685
 30
0.0
 10
11.2727749159
 20
7.3899694327
 30
0.0
 10
11.2777022335
 20
7.3784953964
 30
0.0
 10
11.2820758871
 20
7.3668390453
 30
0.0
 10
11.2871465308
 20
7.3511271156
 30
0.0
 10
11.2910868634
 20
7.3351310226
 30
0.0
 10
11.2938562122
 20
7.3189794691
 30
0.0
 10
11.2958286195
 20
7.3028492122
 30
0.0
 10
11.29642979
 20
7.2906811399
 30
0.0
 10
11.2964299374
 20
7.2825954286
 30
0.0
  0
SPLINE
  5
2C4
100
AcDbEntity
  8
0
100
AcDbSpline
 62
7
  6
CONTINUOUS
 70
0
 71
3
 72
56
 73
52
 74
0
 42
0.0000001
 43
0.0000001
 44
0.0000000001
 40
0.0
 40
0.0
 40
0.0
 40
0.0
 40
0.031072346
 40
0.0465152317
 40
0.0618873124
 40
0.0924244558
 40
0.1227285839
 40
0.1378086476
 40
0.152843805
 40
0.1678401144
 40
0.1828038429
 40
0.2126503375
 40
0.2275575076
 40
0.2424602021
 40
0.2573657768
 40
0.2722815596
 40
0.2872148075
 40
0.3021724288
 40
0.3171611944
 40
0.3321875086
 40
0.3472571497
 40
0.3623756664
 40
0.3927682644
 40
0.4234071833
 40
0.4388308412
 40
0.4543232404
 40
0.485507794
 40
0.5169699549
 40
0.5328065592
 40
0.5487076996
 40
0.5806824155
 40
0.6128739827
 40
0.6290441713
 40
0.6452543848
 40
0.6777639099
 40
0.7103643313
 40
0.7266873147
 40
0.7430142246
 40
0.7756456102
 40
0.791945892
 40
0.80822475
 40
0.8244760382
 40
0.8406940716
 40
0.8568734333
 40
0.8730088969
 40
0.8890954876
 40
0.905128265
 40
0.9370074718
 40
0.9528594107
 40
0.9686481654
 40
1.0
 40
1.0
 40
1.0
 40
1.0
 10
10.8743202934
 20
7.8247757095
 30
0.0
 10
10.8743201587
 20
7.816762079
 30
0.0
 10
10.8737320426
 20
7.8047543388
 30
0.0
 10
10.8717625675
 20
7.788910556
 30
0.0
 10
10.8690237699
 20
7.7733204052
 30
0.0
 10
10.8641624456
 20
7.7542386089
 30
0.0
 10
10.8574013257
 20
7.7358232021
 30
0.0
 10
10.8509095719
 20
7.7216510812
 30
0.0
 10
10.8455181761
 20
7.7113352224
 30
0.0
 10
10.8396113557
 20
7.7013401955
 30
0.0
 10
10.8310762595
 20
7.688486292
 30
0.0
 10
10.8215515819
 20
7.6763399615
 30
0.0
 10
10.811125758
 20
7.6650182164
 30
0.0
 10
10.802872531
 20
7.6569554541
 30
0.0
 10
10.7942041861
 20
7.6493380772
 30
0.0
 10
10.7851395334
 20
7.6421839409
 30
0.0
 10
10.7756993737
 20
7.635509981
 30
0.0
 10
10.7659058756
 20
7.6293309072
 30
0.0
 10
10.7557807739
 20
7.623662341
 30
0.0
 10
10.7453474396
 20
7.6185179916
 30
0.0
 10
10.7346299469
 20
7.6139093398
 30
0.0
 10
10.7199708285
 20
7.6084871767
 30
0.0
 10
10.7010442308
 20
7.6031082176
 30
0.0
 10
10.681592304
 20
7.5996696183
 30
0.0
 10
10.6657905391
 20
7.5980862359
 30
0.0
 10
10.6497887817
 20
7.5972862423
 30
0.0
 10
10.6296078467
 20
7.5977793495
 30
0.0
 10
10.6094843574
 20
7.6002498315
 30
0.0
 10
10.5934857301
 20
7.6033947348
 30
0.0
 10
10.5775274617
 20
7.6073332639
 30
0.0
 10
10.5578516579
 20
7.6137066972
 30
0.0
 10
10.5387975983
 20
7.6219250117
 30
0.0
 10
10.5239963153
 20
7.6295686691
 30
0.0
 10
10.5094937539
 20
7.6379304942
 30
0.0
 10
10.4920652839
 20
7.6496531039
 30
0.0
 10
10.475761023
 20
7.6629402373
 30
0.0
 10
10.4634691285
 20
7.6744412781
 30
0.0
 10
10.4517099834
 20
7.6864967632
 30
0.0
 10
10.4407901101
 20
7.699340412
 30
0.0
 10
10.4307984808
 20
7.7128740434
 30
0.0
 10
10.4237867096
 20
7.7233406108
 30
0.0
 10
10.4172741256
 20
7.7340997012
 30
0.0
 10
10.411276246
 20
7.7451248869
 30
0.0
 10
10.405806476
 20
7.7563882226
 30
0.0
 10
10.4008791585
 20
7.7678622589
 30
0.0
 10
10.3965055049
 20
7.77951861
 30
0.0
 10
10.3914348612
 20
7.7952305396
 30
0.0
 10
10.3874945286
 20
7.8112266327
 30
0.0
 10
10.3847251798
 20
7.8273781861
 30
0.0
 10
10.3827527725
 20
7.843508443
 30
0.0
 10
10.3821516019
 20
7.8556765154
 30
0.0
 10
10.3821514546
 20
7.8637622266
 30
0.0
  0
SPLINE
  5
2C5
100
AcDbEntity
  8
0
100
AcDbSpline
 62
7
  6
CONTINUOUS
 70
0
 71
3
 72
56
 73
52
 74
0
 42
0.0000001
 43
0.0000001
 44
0.0000000001
 40
0.0
 40
0.0
 40
0.0
 40
0.0
 40
0.0310723444
 40
0.0465152282
 40
0.0618873079
 40
0.0924244521
 40
0.1227285817
 40
0.1378086463
 40
0.1528438045
 40
0.1678401149
 40
0.1828038444
 40
0.2126503405
 40
0.227557511
 40
0.2424602055
 40
0.2573657799
 40
0.272281562
 40
0.2872148089
 40
0.3021724291
 40
0.3171611937
 40
0.3321875071
 40
0.3472571476
 40
0.362375664
 40
0.3927682619
 40
0.4234071812
 40
0.4388308394
 40
0.454323239
 40
0.4855077933
 40
0.5169699546
 40
0.532806559
 40
0.5487076994
 40
0.5806824153
 40
0.6128739824
 40
0.6290441709
 40
0.6452543843
 40
0.6777639093
 40
0.7103643307
 40
0.7266873141
 40
0.7430142241
 40
0.7756456098
 40
0.7919458916
 40
0.8082247496
 40
0.8244760379
 40
0.8406940714
 40
0.8568734332
 40
0.8730088968
 40
0.8890954876
 40
0.905128265
 40
0.9370074719
 40
0.9528594107
 40
0.9686481654
 40
1.0
 40
1.0
 40
1.0
 40
1.0
 10
10.3821514525
 20
7.863762126
 30
0.0
 10
10.3821515871
 20
7.8717757561
 30
0.0
 10
10.3827397028
 20
7.8837834954
 30
0.0
 10
10.3847091781
 20
7.8996272771
 30
0.0
 10
10.3874479755
 20
7.9152174273
 30
0.0
 10
10.3923092995
 20
7.934299224
 30
0.0
 10
10.3990704195
 20
7.9527146317
 30
0.0
 10
10.4055621736
 20
7.9668867533
 30
0.0
 10
10.4109535697
 20
7.9772026127
 30
0.0
 10
10.4168603905
 20
7.9871976403
 30
0.0
 10
10.4253954871
 20
8.0000515446
 30
0.0
 10
10.4349201654
 20
8.0121978754
 30
0.0
 10
10.4453459896
 20
8.0235196209
 30
0.0
 10
10.4535992168
 20
8.0315823831
 30
0.0
 10
10.4622675617
 20
8.0391997597
 30
0.0
 10
10.4713322139
 20
8.0463538957
 30
0.0
 10
10.4807723731
 20
8.0530278552
 30
0.0
 10
10.4905658705
 20
8.0592069284
 30
0.0
 10
10.5006909716
 20
8.0648754942
 30
0.0
 10
10.5111243053
 20
8.0700198434
 30
0.0
 10
10.5218417976
 20
8.0746284951
 30
0.0
 10
10.5365009158
 20
8.0800506581
 30
0.0
 10
10.5554275133
 20
8.0854296175
 30
0.0
 10
10.5748794403
 20
8.0888682168
 30
0.0
 10
10.5906812055
 20
8.0904515995
 30
0.0
 10
10.6066829632
 20
8.0912515931
 30
0.0
 10
10.6268638986
 20
8.0907584861
 30
0.0
 10
10.6469873882
 20
8.0882880039
 30
0.0
 10
10.6629860156
 20
8.0851431007
 30
0.0
 10
10.6789442841
 20
8.0812045716
 30
0.0
 10
10.6986200879
 20
8.0748311383
 30
0.0
 10
10.7176741474
 20
8.0666128238
 30
0.0
 10
10.7324754303
 20
8.0589691665
 30
0.0
 10
10.7469779917
 20
8.0506073415
 30
0.0
 10
10.7644064617
 20
8.0388847317
 30
0.0
 10
10.7807107226
 20
8.0255975985
 30
0.0
 10
10.7930026171
 20
8.0140965576
 30
0.0
 10
10.8047617622
 20
8.0020410726
 30
0.0
 10
10.8156816356
 20
7.9891974237
 30
0.0
 10
10.8256732649
 20
7.9756637922
 30
0.0
 10
10.8326850361
 20
7.9651972249
 30
0.0
 10
10.8391976202
 20
7.9544381344
 30
0.0
 10
10.8451954998
 20
7.9434129487
 30
0.0
 10
10.8506652698
 20
7.9321496129
 30
0.0
 10
10.8555925874
 20
7.9206755766
 30
0.0
 10
10.859966241
 20
7.9090192255
 30
0.0
 10
10.8650368847
 20
7.8933072958
 30
0.0
 10
10.8689772173
 20
7.8773112027
 30
0.0
 10
10.8717465661
 20
7.8611596493
 30
0.0
 10
10.8737189734
 20
7.8450293924
 30
0.0
 10
10.8743201439
 20
7.8328613201
 30
0.0
 10
10.8743202913
 20
7.8247756088
 30
0.0
  0
SPLINE
  5
2C6
100
AcDbEntity
  8
0
100
AcDbSpline
 62
7
  6
CONTINUOUS
 70
0
 71
3
 72
56
 73
52
 74
0
 42
0.0000001
 43
0.0000001
 44
0.0000000001
 40
0.0
 40
0.0
 40
0.0
 40
0.0
 40
0.031072346
 40
0.0465152317
 40
0.0618873124
 40
0.0924244558
 40
0.1227285839
 40
0.1378086476
 40
0.152843805
 40
0.1678401144
 40
0.1828038429
 40
0.2126503375
 40
0.2275575076
 40
0.2424602021
 40
0.2573657768
 40
0.2722815596
 40
0.2872148075
 40
0.3021724288
 40
0.3171611944
 40
0.3321875086
 40
0.3472571497
 40
0.3623756664
 40
0.3927682644
 40
0.4234071833
 40
0.4388308412
 40
0.4543232404
 40
0.485507794
 40
0.5169699549
 40
0.5328065592
 40
0.5487076996
 40
0.5806824155
 40
0.6128739827
 40
0.6290441713
 40
0.6452543848
 40
0.6777639099
 40
0.7103643313
 40
0.7266873147
 40
0.7430142246
 40
0.7756456102
 40
0.791945892
 40
0.80822475
 40
0.8244760382
 40
0.8406940716
 40
0.8568734333
 40
0.8730088969
 40
0.8890954876
 40
0.905128265
 40
0.9370074718
 40
0.9528594107
 40
0.9686481654
 40
1.0
 40
1.0
 40
1.0
 40
1.0
 10
10.8743202934
 20
8.6100734178
 30
0.0
 10
10.8743201587
 20
8.6020597873
 30
0.0
 10
10.8737320426
 20
8.5900520471
 30
0.0
 10
10.8717625675
 20
8.5742082643
 30
0.0
 10
10.8690237699
 20
8.5586181135
 30
0.0
 10
10.8641624456
 20
8.5395363172
 30
0.0
 10
10.8574013257
 20
8.5211209104
 30
0.0
 10
10.8509095719
 20
8.5069487895
 30
0.0
 10
10.8455181761
 20
8.4966329307
 30
0.0
 10
10.8396113557
 20
8.4866379038
 30
0.0
 10
10.8310762595
 20
8.4737840003
 30
0.0
 10
10.8215515819
 20
8.4616376698
 30
0.0
 10
10.811125758
 20
8.4503159247
 30
0.0
 10
10.802872531
 20
8.4422531624
 30
0.0
 10
10.7942041861
 20
8.4346357855
 30
0.0
 10
10.7851395334
 20
8.4274816492
 30
0.0
 10
10.7756993737
 20
8.4208076892
 30
0.0
 10
10.7659058756
 20
8.4146286155
 30
0.0
 10
10.7557807739
 20
8.4089600493
 30
0.0
 10
10.7453474396
 20
8.4038156999
 30
0.0
 10
10.7346299469
 20
8.3992070481
 30
0.0
 10
10.7199708285
 20
8.393784885
 30
0.0
 10
10.7010442308
 20
8.3884059259
 30
0.0
 10
10.681592304
 20
8.3849673266
 30
0.0
 10
10.6657905391
 20
8.3833839442
 30
0.0
 10
10.6497887817
 20
8.3825839506
 30
0.0
 10
10.6296078467
 20
8.3830770578
 30
0.0
 10
10.6094843574
 20
8.3855475398
 30
0.0
 10
10.5934857301
 20
8.3886924431
 30
0.0
 10
10.5775274617
 20
8.3926309722
 30
0.0
 10
10.5578516579
 20
8.3990044055
 30
0.0
 10
10.5387975983
 20
8.40722272
 30
0.0
 10
10.5239963153
 20
8.4148663774
 30
0.0
 10
10.5094937539
 20
8.4232282025
 30
0.0
 10
10.4920652839
 20
8.4349508122
 30
0.0
 10
10.475761023
 20
8.4482379456
 30
0.0
 10
10.4634691285
 20
8.4597389864
 30
0.0
 10
10.4517099834
 20
8.4717944715
 30
0.0
 10
10.4407901101
 20
8.4846381203
 30
0.0
 10
10.4307984808
 20
8.4981717517
 30
0.0
 10
10.4237867096
 20
8.5086383191
 30
0.0
 10
10.4172741256
 20
8.5193974095
 30
0.0
 10
10.411276246
 20
8.5304225952
 30
0.0
 10
10.405806476
 20
8.5416859309
 30
0.0
 10
10.4008791585
 20
8.5531599672
 30
0.0
 10
10.3965055049
 20
8.5648163183
 30
0.0
 10
10.3914348612
 20
8.5805282479
 30
0.0
 10
10.3874945286
 20
8.596524341
 30
0.0
 10
10.3847251798
 20
8.6126758944
 30
0.0
 10
10.3827527725
 20
8.6288061513
 30
0.0
 10
10.3821516019
 20
8.6409742237
 30
0.0
 10
10.3821514546
 20
8.6490599349
 30
0.0
  0
SPLINE
  5
2C7
100
AcDbEntity
  8
0
100
AcDbSpline
 62
7
  6
CONTINUOUS
 70
0
 71
3
 72
56
 73
52
 74
0
 42
0.0000001
 43
0.0000001
 44
0.0000000001
 40
0.0
 40
0.0
 40
0.0
 40
0.0
 40
0.0310723444
 40
0.0465152282
 40
0.0618873079
 40
0.0924244521
 40
0.1227285817
 40
0.1378086463
 40
0.1528438045
 40
0.1678401149
 40
0.1828038444
 40
0.2126503405
 40
0.227557511
 40
0.2424602055
 40
0.2573657799
 40
0.272281562
 40
0.2872148089
 40
0.3021724291
 40
0.3171611937
 40
0.3321875071
 40
0.3472571476
 40
0.362375664
 40
0.3927682619
 40
0.4234071812
 40
0.4388308394
 40
0.454323239
 40
0.4855077933
 40
0.5169699546
 40
0.532806559
 40
0.5487076994
 40
0.5806824153
 40
0.6128739824
 40
0.6290441709
 40
0.6452543843
 40
0.6777639093
 40
0.7103643307
 40
0.7266873141
 40
0.7430142241
 40
0.7756456098
 40
0.7919458916
 40
0.8082247496
 40
0.8244760379
 40
0.8406940714
 40
0.8568734332
 40
0.8730088968
 40
0.8890954876
 40
0.905128265
 40
0.9370074719
 40
0.9528594107
 40
0.9686481654
 40
1.0
 40
1.0
 40
1.0
 40
1.0
 10
10.3821514525
 20
8.6490598343
 30
0.0
 10
10.3821515871
 20
8.6570734644
 30
0.0
 10
10.3827397028
 20
8.6690812037
 30
0.0
 10
10.3847091781
 20
8.6849249854
 30
0.0
 10
10.3874479755
 20
8.7005151356
 30
0.0
 10
10.3923092995
 20
8.7195969323
 30
0.0
 10
10.3990704195
 20
8.73801234
 30
0.0
 10
10.4055621736
 20
8.7521844616
 30
0.0
 10
10.4109535697
 20
8.762500321
 30
0.0
 10
10.4168603905
 20
8.7724953486
 30
0.0
 10
10.4253954871
 20
8.7853492529
 30
0.0
 10
10.4349201654
 20
8.7974955837
 30
0.0
 10
10.4453459896
 20
8.8088173292
 30
0.0
 10
10.4535992168
 20
8.8168800914
 30
0.0
 10
10.4622675617
 20
8.824497468
 30
0.0
 10
10.4713322139
 20
8.831651604
 30
0.0
 10
10.4807723731
 20
8.8383255635
 30
0.0
 10
10.4905658705
 20
8.8445046367
 30
0.0
 10
10.5006909716
 20
8.8501732025
 30
0.0
 10
10.5111243053
 20
8.8553175517
 30
0.0
 10
10.5218417976
 20
8.8599262034
 30
0.0
 10
10.5365009158
 20
8.8653483664
 30
0.0
 10
10.5554275133
 20
8.8707273258
 30
0.0
 10
10.5748794403
 20
8.8741659251
 30
0.0
 10
10.5906812055
 20
8.8757493078
 30
0.0
 10
10.6066829632
 20
8.8765493014
 30
0.0
 10
10.6268638986
 20
8.8760561944
 30
0.0
 10
10.6469873882
 20
8.8735857122
 30
0.0
 10
10.6629860156
 20
8.870440809
 30
0.0
 10
10.6789442841
 20
8.8665022799
 30
0.0
 10
10.6986200879
 20
8.8601288466
 30
0.0
 10
10.7176741474
 20
8.8519105321
 30
0.0
 10
10.7324754303
 20
8.8442668748
 30
0.0
 10
10.7469779917
 20
8.8359050497
 30
0.0
 10
10.7644064617
 20
8.82418244
 30
0.0
 10
10.7807107226
 20
8.8108953068
 30
0.0
 10
10.7930026171
 20
8.7993942659
 30
0.0
 10
10.8047617622
 20
8.7873387809
 30
0.0
 10
10.8156816356
 20
8.774495132
 30
0.0
 10
10.8256732649
 20
8.7609615005
 30
0.0
 10
10.8326850361
 20
8.7504949332
 30
0.0
 10
10.8391976202
 20
8.7397358427
 30
0.0
 10
10.8451954998
 20
8.728710657
 30
0.0
 10
10.8506652698
 20
8.7174473212
 30
0.0
 10
10.8555925874
 20
8.7059732849
 30
0.0
 10
10.859966241
 20
8.6943169337
 30
0.0
 10
10.8650368847
 20
8.6786050041
 30
0.0
 10
10.8689772173
 20
8.662608911
 30
0.0
 10
10.8717465661
 20
8.6464573576
 30
0.0
 10
10.8737189734
 20
8.6303271007
 30
0.0
 10
10.8743201439
 20
8.6181590284
 30
0.0
 10
10.8743202913
 20
8.6100733171
 30
0.0
  0
SPLINE
  5
2C8
100
AcDbEntity
  8
0
100
AcDbSpline
 62
7
  6
CONTINUOUS
 70
0
 71
3
 72
56
 73
52
 74
0
 42
0.0000001
 43
0.0000001
 44
0.0000000001
 40
0.0
 40
0.0
 40
0.0
 40
0.0
 40
0.031072346
 40
0.0465152317
 40
0.0618873124
 40
0.0924244558
 40
0.1227285839
 40
0.1378086476
 40
0.152843805
 40
0.1678401144
 40
0.1828038429
 40
0.2126503375
 40
0.2275575076
 40
0.2424602021
 40
0.2573657768
 40
0.2722815596
 40
0.2872148075
 40
0.3021724288
 40
0.3171611944
 40
0.3321875086
 40
0.3472571497
 40
0.3623756664
 40
0.3927682644
 40
0.4234071833
 40
0.4388308412
 40
0.4543232404
 40
0.485507794
 40
0.5169699549
 40
0.5328065592
 40
0.5487076996
 40
0.5806824155
 40
0.6128739827
 40
0.6290441713
 40
0.6452543848
 40
0.6777639099
 40
0.7103643313
 40
0.7266873147
 40
0.7430142246
 40
0.7756456102
 40
0.791945892
 40
0.80822475
 40
0.8244760382
 40
0.8406940716
 40
0.8568734333
 40
0.8730088969
 40
0.8890954876
 40
0.905128265
 40
0.9370074718
 40
0.9528594107
 40
0.9686481654
 40
1.0
 40
1.0
 40
1.0
 40
1.0
 10
11.2964299395
 20
9.0937066761
 30
0.0
 10
11.2964298048
 20
9.0856930456
 30
0.0
 10
11.2958416887
 20
9.0736853054
 30
0.0
 10
11.2938722136
 20
9.0578415225
 30
0.0
 10
11.291133416
 20
9.0422513718
 30
0.0
 10
11.2862720917
 20
9.0231695755
 30
0.0
 10
11.2795109718
 20
9.0047541687
 30
0.0
 10
11.273019218
 20
8.9905820478
 30
0.0
 10
11.2676278222
 20
8.980266189
 30
0.0
 10
11.2617210018
 20
8.9702711621
 30
0.0
 10
11.2531859056
 20
8.9574172586
 30
0.0
 10
11.243661228
 20
8.9452709281
 30
0.0
 10
11.2332354041
 20
8.933949183
 30
0.0
 10
11.2249821771
 20
8.9258864207
 30
0.0
 10
11.2163138322
 20
8.9182690438
 30
0.0
 10
11.2072491795
 20
8.9111149075
 30
0.0
 10
11.1978090198
 20
8.9044409475
 30
0.0
 10
11.1880155217
 20
8.8982618738
 30
0.0
 10
11.17789042
 20
8.8925933076
 30
0.0
 10
11.1674570857
 20
8.8874489581
 30
0.0
 10
11.156739593
 20
8.8828403064
 30
0.0
 10
11.1420804746
 20
8.8774181433
 30
0.0
 10
11.1231538769
 20
8.8720391842
 30
0.0
 10
11.1037019501
 20
8.8686005849
 30
0.0
 10
11.0879001852
 20
8.8670172025
 30
0.0
 10
11.0718984278
 20
8.8662172089
 30
0.0
 10
11.0517174928
 20
8.866710316
 30
0.0
 10
11.0315940035
 20
8.8691807981
 30
0.0
 10
11.0155953763
 20
8.8723257013
 30
0.0
 10
10.9996371078
 20
8.8762642304
 30
0.0
 10
10.979961304
 20
8.8826376637
 30
0.0
 10
10.9609072444
 20
8.8908559783
 30
0.0
 10
10.9461059614
 20
8.8984996357
 30
0.0
 10
10.9316034
 20
8.9068614607
 30
0.0
 10
10.91417493
 20
8.9185840705
 30
0.0
 10
10.8978706691
 20
8.9318712038
 30
0.0
 10
10.8855787746
 20
8.9433722447
 30
0.0
 10
10.8738196295
 20
8.9554277297
 30
0.0
 10
10.8628997562
 20
8.9682713785
 30
0.0
 10
10.8529081269
 20
8.98180501
 30
0.0
 10
10.8458963557
 20
8.9922715773
 30
0.0
 10
10.8393837717
 20
9.0030306678
 30
0.0
 10
10.8333858921
 20
9.0140558534
 30
0.0
 10
10.8279161221
 20
9.0253191892
 30
0.0
 10
10.8229888046
 20
9.0367932255
 30
0.0
 10
10.818615151
 20
9.0484495766
 30
0.0
 10
10.8135445073
 20
9.0641615062
 30
0.0
 10
10.8096041747
 20
9.0801575992
 30
0.0
 10
10.8068348259
 20
9.0963091527
 30
0.0
 10
10.8048624186
 20
9.1124394095
 30
0.0
 10
10.804261248
 20
9.1246074819
 30
0.0
 10
10.8042611007
 20
9.1326931932
 30
0.0
  0
SPLINE
  5
2C9
100
AcDbEntity
  8
0
100
AcDbSpline
 62
7
  6
CONTINUOUS
 70
0
 71
3
 72
56
 73
52
 74
0
 42
0.0000001
 43
0.0000001
 44
0.0000000001
 40
0.0
 40
0.0
 40
0.0
 40
0.0
 40
0.0310723444
 40
0.0465152282
 40
0.0618873079
 40
0.0924244521
 40
0.1227285817
 40
0.1378086463
 40
0.1528438045
 40
0.1678401149
 40
0.1828038444
 40
0.2126503405
 40
0.227557511
 40
0.2424602055
 40
0.2573657799
 40
0.272281562
 40
0.2872148089
 40
0.3021724291
 40
0.3171611937
 40
0.3321875071
 40
0.3472571476
 40
0.362375664
 40
0.3927682619
 40
0.4234071812
 40
0.4388308394
 40
0.454323239
 40
0.4855077933
 40
0.5169699546
 40
0.532806559
 40
0.5487076994
 40
0.5806824153
 40
0.6128739824
 40
0.6290441709
 40
0.6452543843
 40
0.6777639093
 40
0.7103643307
 40
0.7266873141
 40
0.7430142241
 40
0.7756456098
 40
0.7919458916
 40
0.8082247496
 40
0.8244760379
 40
0.8406940714
 40
0.8568734332
 40
0.8730088968
 40
0.8890954876
 40
0.905128265
 40
0.9370074719
 40
0.9528594107
 40
0.9686481654
 40
1.0
 40
1.0
 40
1.0
 40
1.0
 10
10.8042610986
 20
9.1326930925
 30
0.0
 10
10.8042612332
 20
9.1407067226
 30
0.0
 10
10.8048493489
 20
9.152714462
 30
0.0
 10
10.8068188242
 20
9.1685582436
 30
0.0
 10
10.8095576216
 20
9.1841483939
 30
0.0
 10
10.8144189456
 20
9.2032301906
 30
0.0
 10
10.8211800656
 20
9.2216455983
 30
0.0
 10
10.8276718197
 20
9.2358177199
 30
0.0
 10
10.8330632158
 20
9.2461335793
 30
0.0
 10
10.8389700366
 20
9.2561286069
 30
0.0
 10
10.8475051332
 20
9.2689825111
 30
0.0
 10
10.8570298115
 20
9.281128842
 30
0.0
 10
10.8674556357
 20
9.2924505875
 30
0.0
 10
10.8757088629
 20
9.3005133497
 30
0.0
 10
10.8843772078
 20
9.3081307262
 30
0.0
 10
10.89344186
 20
9.3152848623
 30
0.0
 10
10.9028820192
 20
9.3219588218
 30
0.0
 10
10.9126755166
 20
9.3281378949
 30
0.0
 10
10.9228006177
 20
9.3338064608
 30
0.0
 10
10.9332339514
 20
9.33895081
 30
0.0
 10
10.9439514437
 20
9.3435594616
 30
0.0
 10
10.9586105619
 20
9.3489816247
 30
0.0
 10
10.9775371594
 20
9.354360584
 30
0.0
 10
10.9969890864
 20
9.3577991834
 30
0.0
 10
11.0127908516
 20
9.359382566
 30
0.0
 10
11.0287926093
 20
9.3601825596
 30
0.0
 10
11.0489735447
 20
9.3596894526
 30
0.0
 10
11.0690970343
 20
9.3572189705
 30
0.0
 10
11.0850956617
 20
9.3540740673
 30
0.0
 10
11.1010539302
 20
9.3501355382
 30
0.0
 10
11.120729734
 20
9.3437621049
 30
0.0
 10
11.1397837935
 20
9.3355437904
 30
0.0
 10
11.1545850764
 20
9.327900133
 30
0.0
 10
11.1690876378
 20
9.319538308
 30
0.0
 10
11.1865161078
 20
9.3078156983
 30
0.0
 10
11.2028203687
 20
9.294528565
 30
0.0
 10
11.2151122632
 20
9.2830275241
 30
0.0
 10
11.2268714083
 20
9.2709720391
 30
0.0
 10
11.2377912817
 20
9.2581283903
 30
0.0
 10
11.247782911
 20
9.2445947588
 30
0.0
 10
11.2547946822
 20
9.2341281914
 30
0.0
 10
11.2613072663
 20
9.223369101
 30
0.0
 10
11.2673051459
 20
9.2123439153
 30
0.0
 10
11.2727749159
 20
9.2010805795
 30
0.0
 10
11.2777022335
 20
9.1896065431
 30
0.0
 10
11.2820758871
 20
9.177950192
 30
0.0
 10
11.2871465308
 20
9.1622382624
 30
0.0
 10
11.2910868634
 20
9.1462421693
 30
0.0
 10
11.2938562122
 20
9.1300906158
 30
0.0
 10
11.2958286195
 20
9.113960359
 30
0.0
 10
11.29642979
 20
9.1017922866
 30
0.0
 10
11.2964299374
 20
9.0937065754
 30
0.0
  0
SPLINE
  5
2CA
100
AcDbEntity
  8
0
100
AcDbSpline
 62
7
  6
CONTINUOUS
 70
0
 71
3
 72
9
 73
5
 74
0
 42
0.0000001
 43
0.0000001
 44
0.0000000001
 40
0.0
 40
0.0
 40
0.0
 40
0.0
 40
0.2575156145
 40
1.0
 40
1.0
 40
1.0
 40
1.0
 10
10.1190036959
 20
6.0431462562
 30
0.0
 10
10.1184074476
 20
6.0425703245
 30
0.0
 10
10.1161165602
 20
6.0403087274
 30
0.0
 10
10.1139265992
 20
6.0379439645
 30
0.0
 10
10.1123734293
 20
6.0361272194
 30
0.0
  0
SPLINE
  5
2CB
100
AcDbEntity
  8
0
100
AcDbSpline
 62
7
  6
CONTINUOUS
 70
0
 71
3
 72
9
 73
5
 74
0
 42
0.0000001
 43
0.0000001
 44
0.0000000001
 40
0.0
 40
0.0
 40
0.0
 40
0.0
 40
0.2426666479
 40
1.0
 40
1.0
 40
1.0
 40
1.0
 10
11.3504279829
 20
5.5808220978
 30
0.0
 10
11.3499203551
 20
5.5802283248
 30
0.0
 10
11.3477966593
 20
5.5778087404
 30
0.0
 10
11.3455512509
 20
5.5754968455
 30
0.0
 10
11.3437977162
 20
5.573803061
 30
0.0
  0
SPLINE
  5
2CC
100
AcDbEntity
  8
0
100
AcDbSpline
 62
7
  6
CONTINUOUS
 70
0
 71
3
 72
9
 73
5
 74
0
 42
0.0000001
 43
0.0000001
 44
0.0000000001
 40
0.0
 40
0.0
 40
0.0
 40
0.0
 40
0.2426770998
 40
1.0
 40
1.0
 40
1.0
 40
1.0
 10
11.3437977162
 20
5.573803061
 30
0.0
 10
11.3431895258
 20
5.5732155941
 30
0.0
 10
11.3406564744
 20
5.570822713
 30
0.0
 10
11.3380207607
 20
5.5685392434
 30
0.0
 10
11.3359799586
 20
5.5668663771
 30
0.0
  0
SPLINE
  5
2CD
100
AcDbEntity
  8
0
100
AcDbSpline
 62
7
  6
CONTINUOUS
 70
0
 71
3
 72
9
 73
5
 74
0
 42
0.0000001
 43
0.0000001
 44
0.0000000001
 40
0.0
 40
0.0
 40
0.0
 40
0.0
 40
0.504378312
 40
1.0
 40
1.0
 40
1.0
 40
1.0
 10
11.3359799586
 20
5.5668663771
 30
0.0
 10
11.3224762083
 20
5.5584575233
 30
0.0
 10
11.2953633709
 20
5.5423228673
 30
0.0
 10
11.2674905744
 20
5.5275256726
 30
0.0
 10
11.2534764365
 20
5.5206008302
 30
0.0
  0
SPLINE
  5
2CE
100
AcDbEntity
  8
0
100
AcDbSpline
 62
7
  6
CONTINUOUS
 70
0
 71
3
 72
47
 73
43
 74
0
 42
0.0000001
 43
0.0000001
 44
0.0000000001
 40
0.0
 40
0.0
 40
0.0
 40
0.0
 40
0.0099874638
 40
0.0204476834
 40
0.0313771515
 40
0.0427708334
 40
0.0546218702
 40
0.0669225517
 40
0.0796641282
 40
0.0928362942
 40
0.1204271347
 40
0.1495984091
 40
0.1802407165
 40
0.2122338314
 40
0.2454489836
 40
0.2797497839
 40
0.3149929168
 40
0.3510298084
 40
0.3877071885
 40
0.4248680172
 40
0.4623527228
 40
0.4999997959
 40
0.5376468789
 40
0.575131606
 40
0.6122924455
 40
0.6489698269
 40
0.6850067267
 40
0.7202498875
 40
0.7545507276
 40
0.7877659112
 40
0.8197590481
 40
0.8504013805
 40
0.8795726993
 40
0.9071635849
 40
0.9203357726
 40
0.933077377
 40
0.9453780958
 40
0.9572291635
 40
0.968622847
 40
0.9795522717
 40
0.9900124597
 40
1.0
 40
1.0
 40
1.0
 40
1.0
 10
11.2230137019
 20
5.5055528017
 30
0.0
 10
11.2200231675
 20
5.5040755239
 30
0.0
 10
11.2138494611
 20
5.5011536081
 30
0.0
 10
11.2042472627
 20
5.4969541644
 30
0.0
 10
11.1940990846
 20
5.4928413297
 30
0.0
 10
11.1834166366
 20
5.4888201199
 30
0.0
 10
11.172212261
 20
5.4848948147
 30
0.0
 10
11.1604987603
 20
5.4810700955
 30
0.0
 10
11.1482895044
 20
5.4773505248
 30
0.0
 10
11.1311016755
 20
5.472460993
 30
0.0
 10
11.1084713632
 20
5.4666655115
 30
0.0
 10
11.0799800849
 20
5.4602968392
 30
0.0
 10
11.0498800359
 20
5.4544413153
 30
0.0
 10
11.0183100297
 20
5.4491259736
 30
0.0
 10
10.9854153717
 20
5.4443758173
 30
0.0
 10
10.9513477207
 20
5.4402132851
 30
0.0
 10
10.9162642621
 20
5.4366575571
 30
0.0
 10
10.8803269413
 20
5.4337253868
 30
0.0
 10
10.8437016803
 20
5.4314306021
 30
0.0
 10
10.8065576478
 20
5.4297836547
 30
0.0
 10
10.7690664239
 20
5.4287924186
 30
0.0
 10
10.7314011836
 20
5.4284615621
 30
0.0
 10
10.6937359361
 20
5.428792402
 30
0.0
 10
10.6562446976
 20
5.4297836219
 30
0.0
 10
10.6191006532
 20
5.4314305526
 30
0.0
 10
10.5824753844
 20
5.4337253212
 30
0.0
 10
10.5465380497
 20
5.4366574746
 30
0.0
 10
10.5114545642
 20
5.4402131881
 30
0.0
 10
10.4773868779
 20
5.4443757055
 30
0.0
 10
10.4444921866
 20
5.4491258485
 30
0.0
 10
10.4129221512
 20
5.4544411744
 30
0.0
 10
10.3828220683
 20
5.460296684
 30
0.0
 10
10.3543307487
 20
5.4666653467
 30
0.0
 10
10.3317003947
 20
5.4724608147
 30
0.0
 10
10.3145125302
 20
5.477350337
 30
0.0
 10
10.3023032435
 20
5.4810699063
 30
0.0
 10
10.2905897114
 20
5.4848946327
 30
0.0
 10
10.279385312
 20
5.4888199405
 30
0.0
 10
10.2687028612
 20
5.4928411319
 30
0.0
 10
10.2585546892
 20
5.4969539158
 30
0.0
 10
10.2489524732
 20
5.5011533211
 30
0.0
 10
10.242778752
 20
5.5040752417
 30
0.0
 10
10.239788199
 20
5.5055525394
 30
0.0
  0
SPLINE
  5
2CF
100
AcDbEntity
  8
0
100
AcDbSpline
 62
7
  6
CONTINUOUS
 70
0
 71
3
 72
23
 73
19
 74
0
 42
0.0000001
 43
0.0000001
 44
0.0000000001
 40
0.0
 40
0.0
 40
0.0
 40
0.0
 40
0.0436203086
 40
0.0892268542
 40
0.137068591
 40
0.187353676
 40
0.2402538462
 40
0.2958872461
 40
0.3543311569
 40
0.4156094827
 40
0.4797102731
 40
0.5465788188
 40
0.6161346312
 40
0.6882694307
 40
0.7628606873
 40
0.8397744221
 40
0.9188692703
 40
1.0
 40
1.0
 40
1.0
 40
1.0
 10
10.2207819395
 20
5.5149412895
 30
0.0
 10
10.2184720039
 20
5.5160818581
 30
0.0
 10
10.2138348802
 20
5.5185969545
 30
0.0
 10
10.2070075907
 20
5.5229580066
 30
0.0
 10
10.2001712018
 20
5.5280002931
 30
0.0
 10
10.1933296521
 20
5.5337312254
 30
0.0
 10
10.1864885539
 20
5.5401548763
 30
0.0
 10
10.1796510134
 20
5.5472664487
 30
0.0
 10
10.1728227543
 20
5.5550572607
 30
0.0
 10
10.1660065101
 20
5.5635106631
 30
0.0
 10
10.1592073416
 20
5.572606569
 30
0.0
 10
10.1524274914
 20
5.582318951
 30
0.0
 10
10.1456708245
 20
5.5926194991
 30
0.0
 10
10.1389389375
 20
5.6034764531
 30
0.0
 10
10.1322342205
 20
5.6148573067
 30
0.0
 10
10.1255575713
 20
5.6267283891
 30
0.0
 10
10.1189100788
 20
5.6390562282
 30
0.0
 10
10.1145509608
 20
5.6474556452
 30
0.0
 10
10.1123734293
 20
5.6517237781
 30
0.0
  0
SPLINE
  5
2D0
100
AcDbEntity
  8
0
100
AcDbSpline
 62
7
  6
CONTINUOUS
 70
0
 71
3
 72
9
 73
5
 74
0
 42
0.0000001
 43
0.0000001
 44
0.0000000001
 40
0.0
 40
0.0
 40
0.0
 40
0.0
 40
0.257447327
 40
1.0
 40
1.0
 40
1.0
 40
1.0
 10
11.3359799586
 20
5.9512698184
 30
0.0
 10
11.3366737126
 20
5.9518384957
 30
0.0
 10
11.3393477723
 20
5.9540724097
 30
0.0
 10
11.3419367632
 20
5.9564089596
 30
0.0
 10
11.3437977162
 20
5.9582065024
 30
0.0
  0
SPLINE
  5
2D1
100
AcDbEntity
  8
0
100
AcDbSpline
 62
7
  6
CONTINUOUS
 70
0
 71
3
 72
21
 73
17
 74
0
 42
0.0000001
 43
0.0000001
 44
0.0000000001
 40
0.0
 40
0.0
 40
0.0
 40
0.0
 40
0.1230212981
 40
0.1847065752
 40
0.2465215318
 40
0.3084771567
 40
0.3705832678
 40
0.432847904
 40
0.4952752623
 40
0.5578663069
 40
0.6206183946
 40
0.6835249868
 40
0.7465773451
 40
0.8097643485
 40
0.8730733734
 40
1.0
 40
1.0
 40
1.0
 40
1.0
 10
10.8683726212
 20
5.4560570372
 30
0.0
 10
10.8452934402
 20
5.451509681
 30
0.0
 10
10.8104609987
 20
5.4455372747
 30
0.0
 10
10.7636897837
 20
5.4396271273
 30
0.0
 10
10.7283784751
 20
5.4362999133
 30
0.0
 10
10.6928940323
 20
5.4341655057
 30
0.0
 10
10.6572693113
 20
5.4332947693
 30
0.0
 10
10.6215460998
 20
5.4337436645
 30
0.0
 10
10.5857724781
 20
5.4355456633
 30
0.0
 10
10.5499999519
 20
5.4387089492
 30
0.0
 10
10.5142800119
 20
5.4432178998
 30
0.0
 10
10.4786603986
 20
5.4490321416
 30
0.0
 10
10.443182259
 20
5.4560898556
 30
0.0
 10
10.4078780683
 20
5.4643155453
 30
0.0
 10
10.3610341421
 20
5.4767350974
 30
0.0
 10
10.3262737324
 20
5.4875228917
 30
0.0
 10
10.3032661467
 20
5.4952473043
 30
0.0
  0
SPLINE
  5
2D2
100
AcDbEntity
  8
0
100
AcDbSpline
 62
7
  6
CONTINUOUS
 70
0
 71
3
 72
21
 73
17
 74
0
 42
0.0000001
 43
0.0000001
 44
0.0000000001
 40
0.0
 40
0.0
 40
0.0
 40
0.0
 40
0.1269266266
 40
0.1902356515
 40
0.253422655
 40
0.3164750132
 40
0.3793816055
 40
0.4421336932
 40
0.5047247377
 40
0.567152096
 40
0.6294167323
 40
0.6915228434
 40
0.7534784683
 40
0.8152934248
 40
0.8769787019
 40
1.0
 40
1.0
 40
1.0
 40
1.0
 10
10.8683726212
 20
5.8404604785
 30
0.0
 10
10.8453650354
 20
5.848184891
 30
0.0
 10
10.8106046257
 20
5.8589726854
 30
0.0
 10
10.7637606996
 20
5.8713922374
 30
0.0
 10
10.7284565088
 20
5.8796179271
 30
0.0
 10
10.6929783693
 20
5.8866756412
 30
0.0
 10
10.6573587559
 20
5.892489883
 30
0.0
 10
10.621638816
 20
5.8969988336
 30
0.0
 10
10.5858662898
 20
5.9001621195
 30
0.0
 10
10.5500926681
 20
5.9019641182
 30
0.0
 10
10.5143694566
 20
5.9024130134
 30
0.0
 10
10.4787447356
 20
5.9015422771
 30
0.0
 10
10.4432602928
 20
5.8994078695
 30
0.0
 10
10.4079489841
 20
5.8960806555
 30
0.0
 10
10.3611777692
 20
5.8901705081
 30
0.0
 10
10.3263453277
 20
5.8841981018
 30
0.0
 10
10.3032661467
 20
5.8796507456
 30
0.0
  0
SPLINE
  5
2D3
100
AcDbEntity
  8
0
100
AcDbSpline
 62
7
  6
CONTINUOUS
 70
0
 71
3
 72
11
 73
7
 74
0
 42
0.0000001
 43
0.0000001
 44
0.0000000001
 40
0.0
 40
0.0
 40
0.0
 40
0.0
 40
0.2465919593
 40
0.494712682
 40
0.7454424776
 40
1.0
 40
1.0
 40
1.0
 40
1.0
 10
10.2637933688
 20
5.505463598
 30
0.0
 10
10.2618509559
 20
5.5054087634
 30
0.0
 10
10.2579496462
 20
5.5054161098
 30
0.0
 10
10.2520839549
 20
5.5057996317
 30
0.0
 10
10.2461938829
 20
5.506577914
 30
0.0
 10
10.2422874258
 20
5.5073674619
 30
0.0
 10
10.2403359807
 20
5.5078319233
 30
0.0
  0
SPLINE
  5
2D4
100
AcDbEntity
  8
0
100
AcDbSpline
 62
7
  6
CONTINUOUS
 70
0
 71
3
 72
10
 73
6
 74
0
 42
0.0000001
 43
0.0000001
 44
0.0000000001
 40
0.0
 40
0.0
 40
0.0
 40
0.0
 40
0.2418255986
 40
0.4885199497
 40
1.0
 40
1.0
 40
1.0
 40
1.0
 10
10.2403359807
 20
5.5078319233
 30
0.0
 10
10.2387014632
 20
5.508220953
 30
0.0
 10
10.2354211529
 20
5.5091018136
 30
0.0
 10
10.2288222526
 20
5.5112841189
 30
0.0
 10
10.2239683742
 20
5.5133679352
 30
0.0
 10
10.2207819395
 20
5.5149412895
 30
0.0
  0
SPLINE
  5
2D5
100
AcDbEntity
  8
0
100
AcDbSpline
 62
7
  6
CONTINUOUS
 70
0
 71
3
 72
24
 73
20
 74
0
 42
0.0000001
 43
0.0000001
 44
0.0000000001
 40
0.0
 40
0.0
 40
0.0
 40
0.0
 40
0.0904093442
 40
0.1775324522
 40
0.261055269
 40
0.3406843232
 40
0.4161626246
 40
0.4872996212
 40
0.5212074966
 40
0.554003791
 40
0.6162841328
 40
0.674312422
 40
0.7283967603
 40
0.7789822486
 40
0.8266236806
 40
0.8719378747
 40
0.9155548406
 40
0.9580697821
 40
1.0
 40
1.0
 40
1.0
 40
1.0
 10
10.2637933688
 20
5.8898670393
 30
0.0
 10
10.2607578353
 20
5.8958169232
 30
0.0
 10
10.2546838533
 20
5.9074432462
 30
0.0
 10
10.2453583537
 20
5.9243280166
 30
0.0
 10
10.235978073
 20
5.9402656158
 30
0.0
 10
10.2265460441
 20
5.9551649025
 30
0.0
 10
10.2170671649
 20
5.9689379536
 30
0.0
 10
10.20901131
 20
5.9795749588
 30
0.0
 10
10.2025344045
 20
5.9874353758
 30
0.0
 10
10.1962618388
 20
5.9946106872
 30
0.0
 10
10.1884226363
 20
6.0027779994
 30
0.0
 10
10.1788361107
 20
6.0114057097
 30
0.0
 10
10.1692473922
 20
6.018680617
 30
0.0
 10
10.1596685667
 20
6.0246204828
 30
0.0
 10
10.1501129915
 20
6.0292655661
 30
0.0
 10
10.1405943877
 20
6.032674054
 30
0.0
 10
10.1311258984
 20
6.0349202712
 30
0.0
 10
10.1217197922
 20
6.0360905533
 30
0.0
 10
10.115470022
 20
6.0362146368
 30
0.0
 10
10.1123734293
 20
6.0361272194
 30
0.0
  0
SPLINE
  5
2D6
100
AcDbEntity
  8
0
100
AcDbSpline
 62
7
  6
CONTINUOUS
 70
0
 71
3
 72
52
 73
48
 74
0
 42
0.0000001
 43
0.0000001
 44
0.0000000001
 40
0.0
 40
0.0
 40
0.0
 40
0.0
 40
0.0056451068
 40
0.0116041166
 40
0.0179463232
 40
0.0247268517
 40
0.0319889287
 40
0.039765156
 40
0.0480790509
 40
0.0569475667
 40
0.0663813144
 40
0.0763860732
 40
0.0869641185
 40
0.098113667
 40
0.1098304344
 40
0.1221078573
 40
0.1349366083
 40
0.1483060303
 40
0.1622035975
 40
0.1766149489
 40
0.1915249123
 40
0.2069165999
 40
0.2390714478
 40
0.2729252375
 40
0.3083081894
 40
0.3450380191
 40
0.3829220394
 40
0.4217590968
 40
0.4613410881
 40
0.501454452
 40
0.5418819303
 40
0.5824040717
 40
0.6228007287
 40
0.6628526662
 40
0.7023430855
 40
0.7410590674
 40
0.7787933357
 40
0.8153458709
 40
0.8505253967
 40
0.8841511532
 40
0.916055214
 40
0.9313137543
 40
0.9460856563
 40
0.9603545774
 40
0.9741055951
 40
0.987324683
 40
1.0
 40
1.0
 40
1.0
 40
1.0
 10
10.1954714927
 20
6.0420083583
 30
0.0
 10
10.1960851529
 20
6.0402034538
 30
0.0
 10
10.1976013783
 20
6.0365761649
 30
0.0
 10
10.2006035981
 20
6.0312973336
 30
0.0
 10
10.2043780765
 20
6.0260608155
 30
0.0
 10
10.2089160774
 20
6.0208726605
 30
0.0
 10
10.214210817
 20
6.0157380933
 30
0.0
 10
10.2202544631
 20
6.0106629395
 30
0.0
 10
10.2270382698
 20
6.0056527356
 30
0.0
 10
10.2345532459
 20
6.000714434
 30
0.0
 10
10.2427887494
 20
5.9958543139
 30
0.0
 10
10.2517332282
 20
5.9910788945
 30
0.0
 10
10.2613742932
 20
5.9863953934
 30
0.0
 10
10.2716980456
 20
5.9818100086
 30
0.0
 10
10.2826898125
 20
5.9773294732
 30
0.0
 10
10.2943339015
 20
5.9729605513
 30
0.0
 10
10.3066134184
 20
5.968709138
 30
0.0
 10
10.3195107277
 20
5.9645817566
 30
0.0
 10
10.3330071723
 20
5.9605844366
 30
0.0
 10
10.3470831475
 20
5.9567227248
 30
0.0
 10
10.3617183425
 20
5.9530026115
 30
0.0
 10
10.3822494404
 20
5.9481677441
 30
0.0
 10
10.4091617689
 20
5.9425411889
 30
0.0
 10
10.4428741889
 20
5.9365272569
 30
0.0
 10
10.4782636941
 20
5.9311925935
 30
0.0
 10
10.5151246539
 20
5.9265685808
 30
0.0
 10
10.5532431084
 20
5.9226824918
 30
0.0
 10
10.5923975673
 20
5.9195573091
 30
0.0
 10
10.6323604588
 20
5.917211588
 30
0.0
 10
10.6728993957
 20
5.9156590379
 30
0.0
 10
10.7137785971
 20
5.9149087727
 30
0.0
 10
10.7547602951
 20
5.9149652976
 30
0.0
 10
10.7956061182
 20
5.9158283322
 30
0.0
 10
10.836078503
 20
5.9174926678
 30
0.0
 10
10.8759420684
 20
5.9199484868
 30
0.0
 10
10.9149650033
 20
5.9231814314
 30
0.0
 10
10.952920496
 20
5.9271723931
 30
0.0
 10
10.9895880398
 20
5.9318977154
 30
0.0
 10
11.0247548418
 20
5.9373294673
 30
0.0
 10
11.0582165707
 20
5.9434357381
 30
0.0
 10
11.0849018986
 20
5.9491374985
 30
0.0
 10
11.1052380675
 20
5.9540301305
 30
0.0
 10
11.1197187193
 20
5.9577905102
 30
0.0
 10
11.1336343597
 20
5.9616908097
 30
0.0
 10
11.1469649286
 20
5.9657251049
 30
0.0
 10
11.1596909151
 20
5.9698878615
 30
0.0
 10
11.1679352395
 20
5.9728066214
 30
0.0
 10
11.1719507567
 20
5.9742892914
 30
0.0
  0
LINE
  5
2D7
100
AcDbEntity
  8
0
100
AcDbLine
 62
7
  6
CONTINUOUS
 10
11.2226934782
 20
5.5062238003
 11
11.2219643642
 21
5.5059039126
  0
SPLINE
  5
2D8
100
AcDbEntity
  8
0
100
AcDbSpline
 62
7
  6
CONTINUOUS
 70
0
 71
3
 72
15
 73
11
 74
0
 42
0.0000001
 43
0.0000001
 44
0.0000000001
 40
0.0
 40
0.0
 40
0.0
 40
0.0
 40
0.1321602046
 40
0.2618009952
 40
0.3890353631
 40
0.5141096583
 40
0.6373677171
 40
0.75919507
 40
0.8799649792
 40
1.0
 40
1.0
 40
1.0
 40
1.0
 10
11.2219643642
 20
5.5059039126
 30
0.0
 10
11.2095832608
 20
5.5004801705
 30
0.0
 10
11.184742497
 20
5.4904331813
 30
0.0
 10
11.1469484338
 20
5.477899744
 30
0.0
 10
11.1090776644
 20
5.4681824544
 30
0.0
 10
11.0712512887
 20
5.4613139502
 30
0.0
 10
11.0335839028
 20
5.4572141218
 30
0.0
 10
10.9961683209
 20
5.4557074339
 30
0.0
 10
10.9590674842
 20
5.4565542816
 30
0.0
 10
10.9345030648
 20
5.4585136315
 30
0.0
 10
10.9222934235
 20
5.4597964641
 30
0.0
  0
SPLINE
  5
2D9
100
AcDbEntity
  8
0
100
AcDbSpline
 62
7
  6
CONTINUOUS
 70
0
 71
3
 72
23
 73
19
 74
0
 42
0.0000001
 43
0.0000001
 44
0.0000000001
 40
0.0
 40
0.0
 40
0.0
 40
0.0
 40
0.0584073772
 40
0.1170342735
 40
0.1759467791
 40
0.2352254393
 40
0.2949566481
 40
0.3552309857
 40
0.416138177
 40
0.4777587845
 40
0.5401587954
 40
0.6033848824
 40
0.6674604979
 40
0.7323867655
 40
0.7981445902
 40
0.864698137
 40
0.9320021467
 40
1.0
 40
1.0
 40
1.0
 40
1.0
 10
11.3359799586
 20
5.9512698184
 30
0.0
 10
11.3275329295
 20
5.9521573239
 30
0.0
 10
11.3105744845
 20
5.9536421387
 30
0.0
 10
11.285013442
 20
5.9549072736
 30
0.0
 10
11.259293906
 20
5.9551248954
 30
0.0
 10
11.2334281289
 20
5.9542072162
 30
0.0
 10
11.2074344392
 20
5.9520741896
 30
0.0
 10
11.1813383878
 20
5.9486587966
 30
0.0
 10
11.1551719785
 20
5.9439104244
 30
0.0
 10
11.1289717761
 20
5.9378020292
 30
0.0
 10
11.1027762932
 20
5.9303324321
 30
0.0
 10
11.0766238184
 20
5.9215243721
 30
0.0
 10
11.0505492132
 20
5.9114247462
 30
0.0
 10
11.0245816869
 20
5.9001006231
 30
0.0
 10
10.9987446027
 20
5.8876317457
 30
0.0
 10
10.9730541628
 20
5.8741066912
 30
0.0
 10
10.947520613
 20
5.8596182243
 30
0.0
 10
10.9306872121
 20
5.8494267602
 30
0.0
 10
10.9222934235
 20
5.8441999054
 30
0.0
  0
SPLINE
  5
2DA
100
AcDbEntity
  8
0
100
AcDbSpline
 62
7
  6
CONTINUOUS
 70
0
 71
3
 72
15
 73
11
 74
0
 42
0.0000001
 43
0.0000001
 44
0.0000000001
 40
0.0
 40
0.0
 40
0.0
 40
0.0
 40
0.1273483438
 40
0.2538606048
 40
0.3795878922
 40
0.5046051199
 40
0.6290174392
 40
0.7529533668
 40
0.8765605676
 40
1.0
 40
1.0
 40
1.0
 40
1.0
 10
11.6953411885
 20
9.1854587327
 30
0.0
 10
11.6953411885
 20
9.1811315685
 30
0.0
 10
11.6949280267
 20
9.1724996667
 30
0.0
 10
11.6930595454
 20
9.1597178368
 30
0.0
 10
11.6899612904
 20
9.1472571728
 30
0.0
 10
11.6856612532
 20
9.1352342064
 30
0.0
 10
11.6801988732
 20
9.1237598214
 30
0.0
 10
11.6736239405
 20
9.1129399826
 30
0.0
 10
11.665998307
 20
9.1028760485
 30
0.0
 10
11.6602565775
 20
9.0967284561
 30
0.0
 10
11.6572397646
 20
9.0938144626
 30
0.0
  0
SPLINE
  5
2DB
100
AcDbEntity
  8
0
100
AcDbSpline
 62
7
  6
CONTINUOUS
 70
0
 71
3
 72
15
 73
11
 74
0
 42
0.0000001
 43
0.0000001
 44
0.0000000001
 40
0.0
 40
0.0
 40
0.0
 40
0.0
 40
0.1273483438
 40
0.2538606048
 40
0.3795878922
 40
0.5046051199
 40
0.6290174392
 40
0.7529533668
 40
0.8765605676
 40
1.0
 40
1.0
 40
1.0
 40
1.0
 10
9.9450835965
 20
9.306839509
 30
0.0
 10
9.9450835965
 20
9.3025123448
 30
0.0
 10
9.9446704347
 20
9.293880443
 30
0.0
 10
9.9428019533
 20
9.281098613
 30
0.0
 10
9.9397036984
 20
9.2686379491
 30
0.0
 10
9.9354036612
 20
9.2566149827
 30
0.0
 10
9.9299412811
 20
9.2451405976
 30
0.0
 10
9.9233663485
 20
9.2343207589
 30
0.0
 10
9.915740715
 20
9.2242568247
 30
0.0
 10
9.9099989855
 20
9.2181092323
 30
0.0
 10
9.9069821726
 20
9.2151952389
 30
0.0
  0
SPLINE
  5
2DC
100
AcDbEntity
  8
0
100
AcDbSpline
 62
7
  6
CONTINUOUS
 70
0
 71
3
 72
15
 73
11
 74
0
 42
0.0000001
 43
0.0000001
 44
0.0000000001
 40
0.0
 40
0.0
 40
0.0
 40
0.0
 40
0.1273483438
 40
0.2538606048
 40
0.3795878922
 40
0.5046051199
 40
0.6290174392
 40
0.7529533668
 40
0.8765605676
 40
1.0
 40
1.0
 40
1.0
 40
1.0
 10
11.6953411885
 20
7.1328661151
 30
0.0
 10
11.6953411885
 20
7.1285389508
 30
0.0
 10
11.6949280267
 20
7.1199070491
 30
0.0
 10
11.6930595454
 20
7.1071252191
 30
0.0
 10
11.6899612904
 20
7.0946645552
 30
0.0
 10
11.6856612532
 20
7.0826415888
 30
0.0
 10
11.6801988732
 20
7.0711672037
 30
0.0
 10
11.6736239405
 20
7.060347365
 30
0.0
 10
11.665998307
 20
7.0502834308
 30
0.0
 10
11.6602565775
 20
7.0441358384
 30
0.0
 10
11.6572397646
 20
7.041221845
 30
0.0
  0
SPLINE
  5
2DD
100
AcDbEntity
  8
0
100
AcDbSpline
 62
7
  6
CONTINUOUS
 70
0
 71
3
 72
15
 73
11
 74
0
 42
0.0000001
 43
0.0000001
 44
0.0000000001
 40
0.0
 40
0.0
 40
0.0
 40
0.0
 40
0.1273483438
 40
0.2538606048
 40
0.3795878922
 40
0.5046051199
 40
0.6290174392
 40
0.7529533668
 40
0.8765605676
 40
1.0
 40
1.0
 40
1.0
 40
1.0
 10
9.9450835965
 20
7.2542468914
 30
0.0
 10
9.9450835965
 20
7.2499197271
 30
0.0
 10
9.9446704347
 20
7.2412878253
 30
0.0
 10
9.9428019533
 20
7.2285059954
 30
0.0
 10
9.9397036984
 20
7.2160453315
 30
0.0
 10
9.9354036612
 20
7.2040223651
 30
0.0
 10
9.9299412811
 20
7.19254798
 30
0.0
 10
9.9233663485
 20
7.1817281412
 30
0.0
 10
9.915740715
 20
7.1716642071
 30
0.0
 10
9.9099989855
 20
7.1655166147
 30
0.0
 10
9.9069821726
 20
7.1626026213
 30
0.0
  0
SPLINE
  5
2DE
100
AcDbEntity
  8
0
100
AcDbSpline
 62
7
  6
CONTINUOUS
 70
0
 71
3
 72
31
 73
27
 74
0
 42
0.0000001
 43
0.0000001
 44
0.0000000001
 40
0.0
 40
0.0
 40
0.0
 40
0.0
 40
0.0845018864
 40
0.1673015137
 40
0.2480803514
 40
0.3265309791
 40
0.4023585407
 40
0.4752830689
 40
0.5450416236
 40
0.6113908386
 40
0.6432179316
 40
0.6741119642
 40
0.7040492763
 40
0.7330084091
 40
0.7609696608
 40
0.7879158976
 40
0.8138321693
 40
0.8387065946
 40
0.8625300827
 40
0.8852973281
 40
0.9070067049
 40
0.9276614334
 40
0.9472697474
 40
0.9658463297
 40
0.9834128909
 40
1.0
 40
1.0
 40
1.0
 40
1.0
 10
12.0876674879
 20
11.4593433353
 30
0.0
 10
12.0947885053
 20
11.4588494911
 30
0.0
 10
12.1088787859
 20
11.4577467653
 30
0.0
 10
12.1297382794
 20
11.455724735
 30
0.0
 10
12.1500471024
 20
11.453358003
 30
0.0
 10
12.1697199202
 20
11.4506566359
 30
0.0
 10
12.1886742215
 20
11.4476321123
 30
0.0
 10
12.2068305907
 20
11.4442973135
 30
0.0
 10
12.2241128506
 20
11.4406663997
 30
0.0
 10
12.2379111041
 20
11.4373626879
 30
0.0
 10
12.248451771
 20
11.4345738487
 30
0.0
 10
12.2559848144
 20
11.4324470503
 30
0.0
 10
12.2632474348
 20
11.4302582727
 30
0.0
 10
12.2702320428
 20
11.428009861
 30
0.0
 10
12.2769313211
 20
11.425704125
 30
0.0
 10
12.2833382798
 20
11.4233435565
 30
0.0
 10
12.2894462228
 20
11.4209305693
 30
0.0
 10
12.2952488036
 20
11.4184677624
 30
0.0
 10
12.3007399788
 20
11.4159576418
 30
0.0
 10
12.3059140806
 20
11.4134028898
 30
0.0
 10
12.310765748
 20
11.41080608
 30
0.0
 10
12.3152900273
 20
11.4081699408
 30
0.0
 10
12.3194822512
 20
11.4054970841
 30
0.0
 10
12.3233382419
 20
11.4027901877
 30
0.0
 10
12.3268538776
 20
11.4000519808
 30
0.0
 10
12.329029457
 20
11.398154075
 30
0.0
 10
12.3300551745
 20
11.3971995295
 30
0.0
  0
SPLINE
  5
2DF
100
AcDbEntity
  8
0
100
AcDbSpline
 62
7
  6
CONTINUOUS
 70
0
 71
3
 72
21
 73
17
 74
0
 42
0.0000001
 43
0.0000001
 44
0.0000000001
 40
0.0
 40
0.0
 40
0.0
 40
0.0
 40
0.1273176366
 40
0.2537999756
 40
0.3167619475
 40
0.3795355041
 40
0.4421314991
 40
0.5045621439
 40
0.5668413432
 40
0.6289845283
 40
0.6910084528
 40
0.7529310935
 40
0.8147714495
 40
0.8765493365
 40
0.9382852194
 40
1.0
 40
1.0
 40
1.0
 40
1.0
 10
11.2709419463
 20
7.2961685364
 30
0.0
 10
11.2709419463
 20
7.2894237822
 30
0.0
 10
11.270298115
 20
7.2759698429
 30
0.0
 10
11.2678665732
 20
7.2593378669
 30
0.0
 10
11.2649603401
 20
7.2462915357
 30
0.0
 10
11.2623100116
 20
7.2366685572
 30
0.0
 10
11.2591920786
 20
7.227216563
 30
0.0
 10
11.255613685
 20
7.2179570904
 30
0.0
 10
11.2515831079
 20
7.2089115477
 30
0.0
 10
11.2471095856
 20
7.2001007952
 30
0.0
 10
11.2422034084
 20
7.1915451728
 30
0.0
 10
11.2368759195
 20
7.1832643856
 30
0.0
 10
11.2311393898
 20
7.1752775668
 30
0.0
 10
11.2250069476
 20
7.167603104
 30
0.0
 10
11.2184930236
 20
7.1602589052
 30
0.0
 10
11.2139052241
 20
7.1555933903
 30
0.0
 10
11.2115537004
 20
7.1533219924
 30
0.0
  0
SPLINE
  5
2E0
100
AcDbEntity
  8
0
100
AcDbSpline
 62
7
  6
CONTINUOUS
 70
0
 71
3
 72
32
 73
28
 74
0
 42
0.0000001
 43
0.0000001
 44
0.0000000001
 40
0.0
 40
0.0
 40
0.0
 40
0.0
 40
0.0326122167
 40
0.0650113018
 40
0.0971854699
 40
0.1291328992
 40
0.1608546633
 40
0.1923572207
 40
0.2236508331
 40
0.2547489441
 40
0.2856670831
 40
0.3164224582
 40
0.3470340129
 40
0.3775210696
 40
0.4381891594
 40
0.4986094745
 40
0.5287866749
 40
0.5589687125
 40
0.61943724
 40
0.6802480041
 40
0.7416732175
 40
0.8040599257
 40
0.8678329811
 40
0.9003671276
 40
0.9333410107
 40
0.9666486776
 40
1.0
 40
1.0
 40
1.0
 40
1.0
 10
10.6788604833
 20
8.5884559893
 30
0.0
 10
10.6758324718
 20
8.589204401
 30
0.0
 10
10.6698383174
 20
8.5908729534
 30
0.0
 10
10.6610387822
 20
8.5938827018
 30
0.0
 10
10.6524850479
 20
8.59736812
 30
0.0
 10
10.6442003461
 20
8.6013026193
 30
0.0
 10
10.6362026472
 20
8.6056587076
 30
0.0
 10
10.6285057857
 20
8.6104081751
 30
0.0
 10
10.6211195174
 20
8.6155230927
 30
0.0
 10
10.6140501724
 20
8.6209763516
 30
0.0
 10
10.6073011671
 20
8.6267421097
 30
0.0
 10
10.6008734655
 20
8.6327959503
 30
0.0
 10
10.5947659838
 20
8.6391153875
 30
0.0
 10
10.5870599698
 20
8.6478519585
 30
0.0
 10
10.5781974716
 20
8.6593488577
 30
0.0
 10
10.5703352509
 20
8.6715128867
 30
0.0
 10
10.5646407628
 20
8.6815662611
 30
0.0
 10
10.5593280721
 20
8.6918317102
 30
0.0
 10
10.5533826851
 20
8.7050564387
 30
0.0
 10
10.5473349988
 20
8.7214646436
 30
0.0
 10
10.5423254127
 20
8.7384096872
 30
0.0
 10
10.5383175361
 20
8.7559085154
 30
0.0
 10
10.535806466
 20
8.7708864394
 30
0.0
 10
10.5342707164
 20
8.7831567423
 30
0.0
 10
10.5333520645
 20
8.7925642477
 30
0.0
 10
10.5326781426
 20
8.8020706037
 30
0.0
 10
10.5323946047
 20
8.8084406525
 30
0.0
 10
10.5322956235
 20
8.811628937
 30
0.0
  0
SPLINE
  5
2E1
100
AcDbEntity
  8
0
100
AcDbSpline
 62
7
  6
CONTINUOUS
 70
0
 71
3
 72
37
 73
33
 74
0
 42
0.0000001
 43
0.0000001
 44
0.0000000001
 40
0.0
 40
0.0
 40
0.0
 40
0.0
 40
0.0761047954
 40
0.1533643129
 40
0.2310952202
 40
0.3086072327
 40
0.385212916
 40
0.4602353341
 40
0.4969469883
 40
0.5330178124
 40
0.5683697366
 40
0.6029268602
 40
0.6366157579
 40
0.6693658157
 40
0.7011094846
 40
0.7317825969
 40
0.7613247836
 40
0.7896799287
 40
0.8167965742
 40
0.8426284701
 40
0.8671353281
 40
0.8902837064
 40
0.9120479952
 40
0.9324118634
 40
0.9420673558
 40
0.951371926
 40
0.9603270976
 40
0.9689353879
 40
0.9772008527
 40
0.985128849
 40
0.9927259431
 40
1.0
 40
1.0
 40
1.0
 40
1.0
 10
11.4809961469
 20
5.9529174662
 30
0.0
 10
11.4919193168
 20
5.9521599418
 30
0.0
 10
11.5139531115
 20
5.9509321955
 30
0.0
 10
11.5471899863
 20
5.9499392939
 30
0.0
 10
11.5806439764
 20
5.9497854786
 30
0.0
 10
11.613997185
 20
5.9504722003
 30
0.0
 10
11.6469326858
 20
5.9519929052
 30
0.0
 10
11.6739620668
 20
5.9539565086
 30
0.0
 10
11.695134836
 20
5.9559424307
 30
0.0
 10
11.7106024972
 20
5.9576181747
 30
0.0
 10
11.7257357647
 20
5.9594868205
 30
0.0
 10
11.7404986863
 20
5.9615439309
 30
0.0
 10
11.7548561642
 20
5.9637845768
 30
0.0
 10
11.7687740912
 20
5.9662033804
 30
0.0
 10
11.782219414
 20
5.9687945426
 30
0.0
 10
11.795160213
 20
5.97155186
 30
0.0
 10
11.8075657933
 20
5.9744687264
 30
0.0
 10
11.8194067705
 20
5.9775381359
 30
0.0
 10
11.8306551325
 20
5.9807527295
 30
0.0
 10
11.8412843204
 20
5.9841048183
 30
0.0
 10
11.8512692924
 20
5.9875863882
 30
0.0
 10
11.860586712
 20
5.9911891389
 30
0.0
 10
11.8692146479
 20
5.994904505
 30
0.0
 10
11.8759278725
 20
5.9981422256
 30
0.0
 10
11.8809284807
 20
6.0007896972
 30
0.0
 10
11.8844273025
 20
6.0027626649
 30
0.0
 10
11.8877393004
 20
6.0047570877
 30
0.0
 10
11.8908625254
 20
6.0067719013
 30
0.0
 10
11.8937952067
 20
6.00880592
 30
0.0
 10
11.8965356662
 20
6.0108580536
 30
0.0
 10
11.8990821448
 20
6.0129270389
 30
0.0
 10
11.9006836795
 20
6.0143470687
 30
0.0
 10
11.9014498194
 20
6.015060001
 30
0.0
  0
SPLINE
  5
2E2
100
AcDbEntity
  8
0
100
AcDbSpline
 62
7
  6
CONTINUOUS
 70
0
 71
3
 72
17
 73
13
 74
0
 42
0.0000001
 43
0.0000001
 44
0.0000000001
 40
0.0
 40
0.0
 40
0.0
 40
0.0
 40
0.1480462993
 40
0.2876827587
 40
0.4195864073
 40
0.482921265
 40
0.5446654422
 40
0.6639005876
 40
0.7785650347
 40
0.8900650858
 40
0.9451345438
 40
1.0
 40
1.0
 40
1.0
 40
1.0
 10
12.3608560162
 20
6.4577405902
 30
0.0
 10
12.3618838725
 20
6.4587334232
 30
0.0
 10
12.3638209506
 20
6.4607268284
 30
0.0
 10
12.366425449
 20
6.4638334439
 30
0.0
 10
12.368293573
 20
6.4664770623
 30
0.0
 10
12.3695801257
 20
6.4685989804
 30
0.0
 10
12.3707037204
 20
6.4706732726
 30
0.0
 10
12.3718713469
 20
6.4732836938
 30
0.0
 10
12.372886892
 20
6.4764668356
 30
0.0
 10
12.3733979341
 20
6.4791406709
 30
0.0
 10
12.3736001698
 20
6.4812696661
 30
0.0
 10
12.3736338104
 20
6.4823311816
 30
0.0
 10
12.3736338099
 20
6.4828607856
 30
0.0
  0
SPLINE
  5
2E3
100
AcDbEntity
  8
0
100
AcDbSpline
 62
7
  6
CONTINUOUS
 70
0
 71
3
 72
15
 73
11
 74
0
 42
0.0000001
 43
0.0000001
 44
0.0000000001
 40
0.0
 40
0.0
 40
0.0
 40
0.0
 40
0.0685212876
 40
0.1464933809
 40
0.2368155775
 40
0.3426769816
 40
0.4680682379
 40
0.6174192306
 40
0.7942267556
 40
1.0
 40
1.0
 40
1.0
 40
1.0
 10
11.4898438106
 20
11.2949431838
 30
0.0
 10
11.4898438106
 20
11.2947529218
 30
0.0
 10
11.4898281256
 20
11.2943459753
 30
0.0
 10
11.4897484567
 20
11.2936925104
 30
0.0
 10
11.4895949807
 20
11.2929461176
 30
0.0
 10
11.4893502552
 20
11.2920865279
 30
0.0
 10
11.4889833274
 20
11.2910943896
 30
0.0
 10
11.4884655676
 20
11.2899514437
 30
0.0
 10
11.4877709237
 20
11.2886469389
 30
0.0
 10
11.4872143699
 20
11.2877411922
 30
0.0
 10
11.4869020165
 20
11.2872627614
 30
0.0
  0
SPLINE
  5
2E4
100
AcDbEntity
  8
0
100
AcDbSpline
 62
7
  6
CONTINUOUS
 70
0
 71
3
 72
62
 73
58
 74
0
 42
0.0000001
 43
0.0000001
 44
0.0000000001
 40
0.0
 40
0.0
 40
0.0
 40
0.0
 40
0.0077405004
 40
0.016054034
 40
0.0249601795
 40
0.0344716014
 40
0.0445948222
 40
0.0553316415
 40
0.0666798272
 40
0.0786337731
 40
0.0911849944
 40
0.1043224696
 40
0.1180329675
 40
0.1323013113
 40
0.1471105708
 40
0.1624422048
 40
0.178276234
 40
0.1945913737
 40
0.2113651303
 40
0.2285738846
 40
0.2461930095
 40
0.2641969548
 40
0.2825593093
 40
0.3012528727
 40
0.3395207187
 40
0.378770783
 40
0.4187645088
 40
0.4592573324
 40
0.5000006958
 40
0.5407440493
 40
0.5812368453
 40
0.6212305262
 40
0.6604805238
 40
0.6797521374
 40
0.6987489746
 40
0.7174424914
 40
0.7358047876
 40
0.7538086792
 40
0.7714277534
 40
0.7886364422
 40
0.805410124
 40
0.8217251992
 40
0.8375591643
 40
0.8528907156
 40
0.8676998882
 40
0.8819681596
 40
0.895678581
 40
0.9088159599
 40
0.921367088
 40
0.9333209569
 40
0.9446690552
 40
0.9554057731
 40
0.9655289029
 40
0.9750402302
 40
0.9839463414
 40
0.9922597014
 40
1.0
 40
1.0
 40
1.0
 40
1.0
 10
11.4999629808
 20
11.2976899414
 30
0.0
 10
11.4978152096
 20
11.2956912921
 30
0.0
 10
11.4931917527
 20
11.2917253486
 30
0.0
 10
11.4856070833
 20
11.2860611274
 30
0.0
 10
11.4771433019
 20
11.2804823043
 30
0.0
 10
11.4678142604
 20
11.2749976851
 30
0.0
 10
11.4576343796
 20
11.2696156216
 30
0.0
 10
11.4466199428
 20
11.2643446972
 30
0.0
 10
11.4347886041
 20
11.2591933902
 30
0.0
 10
11.4221594697
 20
11.2541701082
 30
0.0
 10
11.4087530293
 20
11.2492831069
 30
0.0
 10
11.3945911304
 20
11.2445404326
 30
0.0
 10
11.3796969185
 20
11.2399499153
 30
0.0
 10
11.364094776
 20
11.2355191551
 30
0.0
 10
11.3478102838
 20
11.2312555024
 30
0.0
 10
11.3308701843
 20
11.227166011
 30
0.0
 10
11.3133023199
 20
11.2232574559
 30
0.0
 10
11.2951355757
 20
11.2195363204
 30
0.0
 10
11.2763998396
 20
11.2160087796
 30
0.0
 10
11.257125956
 20
11.2126806682
 30
0.0
 10
11.23734566
 20
11.2095574971
 30
0.0
 10
11.2170915323
 20
11.2066444556
 30
0.0
 10
11.1963969069
 20
11.2039463405
 30
0.0
 10
11.1680414938
 20
11.2006155835
 30
0.0
 10
11.1317472892
 20
11.1970334428
 30
0.0
 10
11.087329545
 20
11.1936855461
 30
0.0
 10
11.0420064178
 20
11.1912781116
 30
0.0
 10
10.9960764837
 20
11.1898271963
 30
0.0
 10
10.9498420972
 20
11.1893425014
 30
0.0
 10
10.903607736
 20
11.1898272683
 30
0.0
 10
10.8576777938
 20
11.1912782496
 30
0.0
 10
10.812354873
 20
11.1936857841
 30
0.0
 10
10.7751170285
 20
11.1964924319
 30
0.0
 10
10.7458610855
 20
11.1992128065
 30
0.0
 10
10.7243885279
 20
11.2014680197
 30
0.0
 10
10.7032876084
 20
11.2039467346
 30
0.0
 10
10.6825930662
 20
11.2066448715
 30
0.0
 10
10.6623390006
 20
11.2095579475
 30
0.0
 10
10.6425587744
 20
11.2126811396
 30
0.0
 10
10.6232849697
 20
11.2160092846
 30
0.0
 10
10.6045493196
 20
11.2195368625
 30
0.0
 10
10.586382659
 20
11.2232580214
 30
0.0
 10
10.5688148809
 20
11.2271665961
 30
0.0
 10
10.5518748803
 20
11.2312561199
 30
0.0
 10
10.5355904915
 20
11.2355198049
 30
0.0
 10
10.5199884466
 20
11.2399505817
 30
0.0
 10
10.505094337
 20
11.2445411158
 30
0.0
 10
10.4909325546
 20
11.2492838211
 30
0.0
 10
10.4775262312
 20
11.2541708482
 30
0.0
 10
10.4648972058
 20
11.2591941397
 30
0.0
 10
10.4530659828
 20
11.2643454606
 30
0.0
 10
10.4420516772
 20
11.2696164142
 30
0.0
 10
10.4318719299
 20
11.2749984965
 30
0.0
 10
10.4225429836
 20
11.2804831134
 30
0.0
 10
10.414079354
 20
11.2860619609
 30
0.0
 10
10.4064948708
 20
11.2917261685
 30
0.0
 10
10.4018715368
 20
11.2956920387
 30
0.0
 10
10.399723856
 20
11.2976906729
 30
0.0
  0
SPLINE
  5
2E5
100
AcDbEntity
  8
0
100
AcDbSpline
 62
7
  6
CONTINUOUS
 70
0
 71
3
 72
15
 73
11
 74
0
 42
0.0000001
 43
0.0000001
 44
0.0000000001
 40
0.0
 40
0.0
 40
0.0
 40
0.0
 40
0.2070179057
 40
0.3847377243
 40
0.5345557835
 40
0.6601680488
 40
0.765899803
 40
0.8556322186
 40
0.9326509664
 40
1.0
 40
1.0
 40
1.0
 40
1.0
 10
10.4129493253
 20
11.287015053
 30
0.0
 10
10.4126194164
 20
11.2875105838
 30
0.0
 10
10.4120313562
 20
11.2884486652
 30
0.0
 10
10.4112963473
 20
11.2897998444
 30
0.0
 10
10.4107489648
 20
11.2909835269
 30
0.0
 10
10.4103621762
 20
11.2920102381
 30
0.0
 10
10.4101042827
 20
11.2928977003
 30
0.0
 10
10.4099429544
 20
11.2936653147
 30
0.0
 10
10.4098599519
 20
11.2943341715
 30
0.0
 10
10.4098438106
 20
11.2947495128
 30
0.0
 10
10.4098438106
 20
11.2949431838
 30
0.0
  0
SPLINE
  5
2E6
100
AcDbEntity
  8
0
100
AcDbSpline
 62
7
  6
CONTINUOUS
 70
0
 71
3
 72
17
 73
13
 74
0
 42
0.0000001
 43
0.0000001
 44
0.0000000001
 40
0.0
 40
0.0
 40
0.0
 40
0.0
 40
0.0548654562
 40
0.1099349142
 40
0.2214349653
 40
0.3360994124
 40
0.4553345578
 40
0.517078735
 40
0.5804135927
 40
0.7123172413
 40
0.8519537007
 40
1.0
 40
1.0
 40
1.0
 40
1.0
 10
9.6254002642
 20
11.0382541957
 30
0.0
 10
9.6254002637
 20
11.0387837996
 30
0.0
 10
9.6254339043
 20
11.0398453151
 30
0.0
 10
9.62563614
 20
11.0419743103
 30
0.0
 10
9.6261471822
 20
11.0446481456
 30
0.0
 10
9.6271627272
 20
11.0478312874
 30
0.0
 10
9.6283303537
 20
11.0504417086
 30
0.0
 10
9.6294539484
 20
11.0525160009
 30
0.0
 10
9.6307405011
 20
11.0546379189
 30
0.0
 10
9.6326086251
 20
11.0572815374
 30
0.0
 10
9.6352131235
 20
11.0603881528
 30
0.0
 10
9.6371502016
 20
11.062381558
 30
0.0
 10
9.6381780579
 20
11.063374391
 30
0.0
  0
SPLINE
  5
2E7
100
AcDbEntity
  8
0
100
AcDbSpline
 62
7
  6
CONTINUOUS
 70
0
 71
3
 72
37
 73
33
 74
0
 42
0.0000001
 43
0.0000001
 44
0.0000000001
 40
0.0
 40
0.0
 40
0.0
 40
0.0
 40
0.0072740569
 40
0.014871151
 40
0.0227991473
 40
0.0310646121
 40
0.0396729024
 40
0.048628074
 40
0.0579326442
 40
0.0675881366
 40
0.0879520048
 40
0.1097162936
 40
0.1328646719
 40
0.1573715299
 40
0.1832034258
 40
0.2103200713
 40
0.2386752164
 40
0.2682174031
 40
0.2988905154
 40
0.3306341843
 40
0.3633842421
 40
0.3970731398
 40
0.4316302634
 40
0.4669821876
 40
0.5030530117
 40
0.5397646659
 40
0.614787084
 40
0.6913927673
 40
0.7689047798
 40
0.8466356871
 40
0.9238952046
 40
1.0
 40
1.0
 40
1.0
 40
1.0
 10
10.0975842547
 20
11.5060549802
 30
0.0
 10
10.0983503946
 20
11.5067679125
 30
0.0
 10
10.0999519293
 20
11.5081879423
 30
0.0
 10
10.1024984079
 20
11.5102569277
 30
0.0
 10
10.1052388675
 20
11.5123090612
 30
0.0
 10
10.1081715487
 20
11.51434308
 30
0.0
 10
10.1112947737
 20
11.5163578936
 30
0.0
 10
10.1146067717
 20
11.5183523164
 30
0.0
 10
10.1181055934
 20
11.5203252841
 30
0.0
 10
10.1231062016
 20
11.5229727557
 30
0.0
 10
10.1298194262
 20
11.5262104762
 30
0.0
 10
10.1384473621
 20
11.5299258423
 30
0.0
 10
10.1477647817
 20
11.533528593
 30
0.0
 10
10.1577497537
 20
11.537010163
 30
0.0
 10
10.1683789416
 20
11.5403622517
 30
0.0
 10
10.1796273036
 20
11.5435768453
 30
0.0
 10
10.1914682808
 20
11.5466462549
 30
0.0
 10
10.2038738611
 20
11.5495631212
 30
0.0
 10
10.2168146601
 20
11.5523204386
 30
0.0
 10
10.230259983
 20
11.5549116009
 30
0.0
 10
10.24417791
 20
11.5573304045
 30
0.0
 10
10.2585353878
 20
11.5595710504
 30
0.0
 10
10.2732983094
 20
11.5616281608
 30
0.0
 10
10.2884315769
 20
11.5634968065
 30
0.0
 10
10.3038992381
 20
11.5651725506
 30
0.0
 10
10.3250720074
 20
11.5671584726
 30
0.0
 10
10.3521013883
 20
11.569122076
 30
0.0
 10
10.3850368891
 20
11.5706427809
 30
0.0
 10
10.4183900977
 20
11.5713295026
 30
0.0
 10
10.4518440878
 20
11.5711756873
 30
0.0
 10
10.4850809626
 20
11.5701827857
 30
0.0
 10
10.5071147573
 20
11.5689550395
 30
0.0
 10
10.5180379272
 20
11.5681975151
 30
0.0
  0
SPLINE
  5
2E8
100
AcDbEntity
  8
0
100
AcDbSpline
 62
7
  6
CONTINUOUS
 70
0
 71
3
 72
17
 73
13
 74
0
 42
0.0000001
 43
0.0000001
 44
0.0000000001
 40
0.0
 40
0.0
 40
0.0
 40
0.0
 40
0.1492456212
 40
0.2896712097
 40
0.4219849705
 40
0.485388646
 40
0.5471143004
 40
0.6660672791
 40
0.7801745569
 40
0.8909200468
 40
0.9455686518
 40
1.0
 40
1.0
 40
1.0
 40
1.0
 10
12.3599212219
 20
11.3694060368
 30
0.0
 10
12.3610227217
 20
11.3683809837
 30
0.0
 10
12.3630985542
 20
11.3663228321
 30
0.0
 10
12.3658932981
 20
11.3631098207
 30
0.0
 10
12.3678996938
 20
11.3603725107
 30
0.0
 10
12.3692816021
 20
11.3581743375
 30
0.0
 10
12.3704869419
 20
11.3560280244
 30
0.0
 10
12.371740099
 20
11.3533260816
 30
0.0
 10
12.3728311068
 20
11.3500277588
 30
0.0
 10
12.3733804434
 20
11.3472553954
 30
0.0
 10
12.3735976776
 20
11.34504857
 30
0.0
 10
12.3736338094
 20
11.3439484672
 30
0.0
 10
12.3736338099
 20
11.3433996988
 30
0.0
  0
SPLINE
  5
2E9
100
AcDbEntity
  8
0
100
AcDbSpline
 62
7
  6
CONTINUOUS
 70
0
 71
3
 72
41
 73
37
 74
0
 42
0.0000001
 43
0.0000001
 44
0.0000000001
 40
0.0
 40
0.0
 40
0.0
 40
0.0
 40
0.0299421187
 40
0.0449237623
 40
0.0599145134
 40
0.0899291701
 40
0.1200146003
 40
0.1350933624
 40
0.1501974867
 40
0.1804849896
 40
0.2108989845
 40
0.2414526108
 40
0.2721557833
 40
0.3030150127
 40
0.3340333098
 40
0.3652101722
 40
0.3965416482
 40
0.4280204722
 40
0.4596362655
 40
0.4913757931
 40
0.5232232712
 40
0.5551607155
 40
0.5871683244
 40
0.6192248896
 40
0.6513082259
 40
0.6833956162
 40
0.715464263
 40
0.7474917407
 40
0.779456445
 40
0.8113380241
 40
0.8431178121
 40
0.8747791755
 40
0.9063080162
 40
0.9376926983
 40
0.9689252995
 40
1.0
 40
1.0
 40
1.0
 40
1.0
 10
11.4620174392
 20
9.2959264025
 30
0.0
 10
11.4643482892
 20
9.2981778122
 30
0.0
 10
11.4679819714
 20
9.3014184851
 30
0.0
 10
11.4730708334
 20
9.3054394849
 30
0.0
 10
11.4783217769
 20
9.3092603574
 30
0.0
 10
11.485173366
 20
9.3136479925
 30
0.0
 10
11.4923581044
 20
9.3174858595
 30
0.0
 10
11.4982836158
 20
9.3202161938
 30
0.0
 10
11.504331577
 20
9.3227210329
 30
0.0
 10
11.5120907957
 20
9.3254145246
 30
0.0
 10
11.5216528715
 20
9.3279247562
 30
0.0
 10
11.5314235872
 20
9.3297030674
 30
0.0
 10
11.541348801
 20
9.3307396336
 30
0.0
 10
11.5513739904
 20
9.3310289265
 30
0.0
 10
11.5614439945
 20
9.3305694724
 30
0.0
 10
11.5715034663
 20
9.3293639252
 30
0.0
 10
11.5814971334
 20
9.327419027
 30
0.0
 10
11.5913701093
 20
9.3247455712
 30
0.0
 10
11.6010681875
 20
9.3213583388
 30
0.0
 10
11.6105381364
 20
9.3172760157
 30
0.0
 10
11.6197279867
 20
9.312521088
 30
0.0
 10
11.6285873129
 20
9.3071197177
 30
0.0
 10
11.6370675063
 20
9.3011015995
 30
0.0
 10
11.6451220379
 20
9.2944997983
 30
0.0
 10
11.6527067111
 20
9.287350569
 30
0.0
 10
11.6597799014
 20
9.2796931595
 30
0.0
 10
11.6663027821
 20
9.271569597
 30
0.0
 10
11.6722395359
 20
9.2630244596
 30
0.0
 10
11.6775575483
 20
9.254104635
 30
0.0
 10
11.6822275896
 20
9.2448590646
 30
0.0
 10
11.686223963
 20
9.2353384845
 30
0.0
 10
11.6895246737
 20
9.2255951246
 30
0.0
 10
11.6921114869
 20
9.2156825273
 30
0.0
 10
11.6939701527
 20
9.205654889
 30
0.0
 10
11.6950902865
 20
9.1955680481
 30
0.0
 10
11.6953411885
 20
9.1888219457
 30
0.0
 10
11.6953411885
 20
9.1854587327
 30
0.0
  0
SPLINE
  5
2EA
100
AcDbEntity
  8
0
100
AcDbSpline
 62
7
  6
CONTINUOUS
 70
0
 71
3
 72
41
 73
37
 74
0
 42
0.0000001
 43
0.0000001
 44
0.0000000001
 40
0.0
 40
0.0
 40
0.0
 40
0.0
 40
0.0299421187
 40
0.0449237623
 40
0.0599145134
 40
0.0899291701
 40
0.1200146003
 40
0.1350933624
 40
0.1501974867
 40
0.1804849896
 40
0.2108989845
 40
0.2414526108
 40
0.2721557833
 40
0.3030150127
 40
0.3340333098
 40
0.3652101722
 40
0.3965416482
 40
0.4280204722
 40
0.4596362655
 40
0.4913757931
 40
0.5232232712
 40
0.5551607155
 40
0.5871683244
 40
0.6192248896
 40
0.6513082259
 40
0.6833956162
 40
0.715464263
 40
0.7474917407
 40
0.779456445
 40
0.8113380241
 40
0.8431178121
 40
0.8747791755
 40
0.9063080162
 40
0.9376926983
 40
0.9689252995
 40
1.0
 40
1.0
 40
1.0
 40
1.0
 10
9.7117598472
 20
9.4173071788
 30
0.0
 10
9.7140906972
 20
9.4195585884
 30
0.0
 10
9.7177243794
 20
9.4227992614
 30
0.0
 10
9.7228132414
 20
9.4268202611
 30
0.0
 10
9.7280641849
 20
9.4306411336
 30
0.0
 10
9.7349157739
 20
9.4350287688
 30
0.0
 10
9.7421005124
 20
9.4388666357
 30
0.0
 10
9.7480260238
 20
9.4415969701
 30
0.0
 10
9.7540739849
 20
9.4441018091
 30
0.0
 10
9.7618332037
 20
9.4467953009
 30
0.0
 10
9.7713952794
 20
9.4493055325
 30
0.0
 10
9.7811659951
 20
9.4510838437
 30
0.0
 10
9.791091209
 20
9.4521204099
 30
0.0
 10
9.8011163984
 20
9.4524097028
 30
0.0
 10
9.8111864025
 20
9.4519502487
 30
0.0
 10
9.8212458743
 20
9.4507447015
 30
0.0
 10
9.8312395414
 20
9.4487998033
 30
0.0
 10
9.8411125172
 20
9.4461263475
 30
0.0
 10
9.8508105955
 20
9.4427391151
 30
0.0
 10
9.8602805443
 20
9.438656792
 30
0.0
 10
9.8694703947
 20
9.4339018643
 30
0.0
 10
9.8783297209
 20
9.428500494
 30
0.0
 10
9.8868099143
 20
9.4224823758
 30
0.0
 10
9.8948644459
 20
9.4158805745
 30
0.0
 10
9.9024491191
 20
9.4087313453
 30
0.0
 10
9.9095223094
 20
9.4010739358
 30
0.0
 10
9.9160451901
 20
9.3929503733
 30
0.0
 10
9.9219819439
 20
9.3844052359
 30
0.0
 10
9.9272999562
 20
9.3754854113
 30
0.0
 10
9.9319699976
 20
9.3662398409
 30
0.0
 10
9.935966371
 20
9.3567192607
 30
0.0
 10
9.9392670817
 20
9.3469759008
 30
0.0
 10
9.9418538949
 20
9.3370633036
 30
0.0
 10
9.9437125607
 20
9.3270356652
 30
0.0
 10
9.9448326945
 20
9.3169488244
 30
0.0
 10
9.9450835965
 20
9.310202722
 30
0.0
 10
9.9450835965
 20
9.306839509
 30
0.0
  0
SPLINE
  5
2EB
100
AcDbEntity
  8
0
100
AcDbSpline
 62
7
  6
CONTINUOUS
 70
0
 71
3
 72
41
 73
37
 74
0
 42
0.0000001
 43
0.0000001
 44
0.0000000001
 40
0.0
 40
0.0
 40
0.0
 40
0.0
 40
0.0299421187
 40
0.0449237623
 40
0.0599145134
 40
0.0899291701
 40
0.1200146003
 40
0.1350933624
 40
0.1501974867
 40
0.1804849896
 40
0.2108989845
 40
0.2414526108
 40
0.2721557833
 40
0.3030150127
 40
0.3340333098
 40
0.3652101722
 40
0.3965416482
 40
0.4280204722
 40
0.4596362655
 40
0.4913757931
 40
0.5232232712
 40
0.5551607155
 40
0.5871683244
 40
0.6192248896
 40
0.6513082259
 40
0.6833956162
 40
0.715464263
 40
0.7474917407
 40
0.779456445
 40
0.8113380241
 40
0.8431178121
 40
0.8747791755
 40
0.9063080162
 40
0.9376926983
 40
0.9689252995
 40
1.0
 40
1.0
 40
1.0
 40
1.0
 10
11.4620174392
 20
7.2433337849
 30
0.0
 10
11.4643482892
 20
7.2455851945
 30
0.0
 10
11.4679819714
 20
7.2488258675
 30
0.0
 10
11.4730708334
 20
7.2528468672
 30
0.0
 10
11.4783217769
 20
7.2566677397
 30
0.0
 10
11.485173366
 20
7.2610553748
 30
0.0
 10
11.4923581044
 20
7.2648932418
 30
0.0
 10
11.4982836158
 20
7.2676235762
 30
0.0
 10
11.504331577
 20
7.2701284152
 30
0.0
 10
11.5120907957
 20
7.2728219069
 30
0.0
 10
11.5216528715
 20
7.2753321386
 30
0.0
 10
11.5314235872
 20
7.2771104498
 30
0.0
 10
11.541348801
 20
7.278147016
 30
0.0
 10
11.5513739904
 20
7.2784363089
 30
0.0
 10
11.5614439945
 20
7.2779768548
 30
0.0
 10
11.5715034663
 20
7.2767713076
 30
0.0
 10
11.5814971334
 20
7.2748264094
 30
0.0
 10
11.5913701093
 20
7.2721529536
 30
0.0
 10
11.6010681875
 20
7.2687657212
 30
0.0
 10
11.6105381364
 20
7.2646833981
 30
0.0
 10
11.6197279867
 20
7.2599284704
 30
0.0
 10
11.6285873129
 20
7.2545271001
 30
0.0
 10
11.6370675063
 20
7.2485089819
 30
0.0
 10
11.6451220379
 20
7.2419071806
 30
0.0
 10
11.6527067111
 20
7.2347579514
 30
0.0
 10
11.6597799014
 20
7.2271005419
 30
0.0
 10
11.6663027821
 20
7.2189769794
 30
0.0
 10
11.6722395359
 20
7.210431842
 30
0.0
 10
11.6775575483
 20
7.2015120174
 30
0.0
 10
11.6822275896
 20
7.192266447
 30
0.0
 10
11.686223963
 20
7.1827458668
 30
0.0
 10
11.6895246737
 20
7.1730025069
 30
0.0
 10
11.6921114869
 20
7.1630899097
 30
0.0
 10
11.6939701527
 20
7.1530622713
 30
0.0
 10
11.6950902865
 20
7.1429754305
 30
0.0
 10
11.6953411885
 20
7.1362293281
 30
0.0
 10
11.6953411885
 20
7.1328661151
 30
0.0
  0
SPLINE
  5
2EC
100
AcDbEntity
  8
0
100
AcDbSpline
 62
7
  6
CONTINUOUS
 70
0
 71
3
 72
41
 73
37
 74
0
 42
0.0000001
 43
0.0000001
 44
0.0000000001
 40
0.0
 40
0.0
 40
0.0
 40
0.0
 40
0.0299421187
 40
0.0449237623
 40
0.0599145134
 40
0.0899291701
 40
0.1200146003
 40
0.1350933624
 40
0.1501974867
 40
0.1804849896
 40
0.2108989845
 40
0.2414526108
 40
0.2721557833
 40
0.3030150127
 40
0.3340333098
 40
0.3652101722
 40
0.3965416482
 40
0.4280204722
 40
0.4596362655
 40
0.4913757931
 40
0.5232232712
 40
0.5551607155
 40
0.5871683244
 40
0.6192248896
 40
0.6513082259
 40
0.6833956162
 40
0.715464263
 40
0.7474917407
 40
0.779456445
 40
0.8113380241
 40
0.8431178121
 40
0.8747791755
 40
0.9063080162
 40
0.9376926983
 40
0.9689252995
 40
1.0
 40
1.0
 40
1.0
 40
1.0
 10
9.7117598472
 20
7.3647145612
 30
0.0
 10
9.7140906972
 20
7.3669659708
 30
0.0
 10
9.7177243794
 20
7.3702066438
 30
0.0
 10
9.7228132414
 20
7.3742276435
 30
0.0
 10
9.7280641849
 20
7.378048516
 30
0.0
 10
9.7349157739
 20
7.3824361511
 30
0.0
 10
9.7421005124
 20
7.3862740181
 30
0.0
 10
9.7480260238
 20
7.3890043524
 30
0.0
 10
9.7540739849
 20
7.3915091915
 30
0.0
 10
9.7618332037
 20
7.3942026832
 30
0.0
 10
9.7713952794
 20
7.3967129148
 30
0.0
 10
9.7811659951
 20
7.398491226
 30
0.0
 10
9.791091209
 20
7.3995277923
 30
0.0
 10
9.8011163984
 20
7.3998170851
 30
0.0
 10
9.8111864025
 20
7.399357631
 30
0.0
 10
9.8212458743
 20
7.3981520839
 30
0.0
 10
9.8312395414
 20
7.3962071856
 30
0.0
 10
9.8411125172
 20
7.3935337298
 30
0.0
 10
9.8508105955
 20
7.3901464974
 30
0.0
 10
9.8602805443
 20
7.3860641744
 30
0.0
 10
9.8694703947
 20
7.3813092467
 30
0.0
 10
9.8783297209
 20
7.3759078764
 30
0.0
 10
9.8868099143
 20
7.3698897582
 30
0.0
 10
9.8948644459
 20
7.3632879569
 30
0.0
 10
9.9024491191
 20
7.3561387277
 30
0.0
 10
9.9095223094
 20
7.3484813182
 30
0.0
 10
9.9160451901
 20
7.3403577556
 30
0.0
 10
9.9219819439
 20
7.3318126183
 30
0.0
 10
9.9272999562
 20
7.3228927937
 30
0.0
 10
9.9319699976
 20
7.3136472233
 30
0.0
 10
9.935966371
 20
7.3041266431
 30
0.0
 10
9.9392670817
 20
7.2943832832
 30
0.0
 10
9.9418538949
 20
7.2844706859
 30
0.0
 10
9.9437125607
 20
7.2744430476
 30
0.0
 10
9.9448326945
 20
7.2643562068
 30
0.0
 10
9.9450835965
 20
7.2576101044
 30
0.0
 10
9.9450835965
 20
7.2542468914
 30
0.0
  0
SPLINE
  5
2ED
100
AcDbEntity
  8
0
100
AcDbSpline
 62
7
  6
CONTINUOUS
 70
0
 71
3
 72
31
 73
27
 74
0
 42
0.0000001
 43
0.0000001
 44
0.0000000001
 40
0.0
 40
0.0
 40
0.0
 40
0.0
 40
0.0165871091
 40
0.0341536703
 40
0.0527302526
 40
0.0723385666
 40
0.0929932951
 40
0.1147026719
 40
0.1374699173
 40
0.1612934054
 40
0.1861678307
 40
0.2120841024
 40
0.2390303392
 40
0.2669915909
 40
0.2959507237
 40
0.3258880358
 40
0.3567820684
 40
0.3886091614
 40
0.4549583764
 40
0.5247169311
 40
0.5976414593
 40
0.6734690209
 40
0.7519196486
 40
0.8326984863
 40
0.9154981136
 40
1.0
 40
1.0
 40
1.0
 40
1.0
 10
9.6689788996
 20
6.1239154517
 30
0.0
 10
9.6700046171
 20
6.1229609063
 30
0.0
 10
9.6721801966
 20
6.1210630004
 30
0.0
 10
9.6756958323
 20
6.1183247935
 30
0.0
 10
9.6795518229
 20
6.1156178971
 30
0.0
 10
9.6837440468
 20
6.1129450404
 30
0.0
 10
9.6882683261
 20
6.1103089012
 30
0.0
 10
9.6931199935
 20
6.1077120914
 30
0.0
 10
9.6982940954
 20
6.1051573395
 30
0.0
 10
9.7037852705
 20
6.1026472189
 30
0.0
 10
9.7095878513
 20
6.1001844119
 30
0.0
 10
9.7156957943
 20
6.0977714248
 30
0.0
 10
9.722102753
 20
6.0954108563
 30
0.0
 10
9.7288020313
 20
6.0931051203
 30
0.0
 10
9.7357866393
 20
6.0908567086
 30
0.0
 10
9.7430492597
 20
6.0886679309
 30
0.0
 10
9.7505823031
 20
6.0865411326
 30
0.0
 10
9.7611229701
 20
6.0837522933
 30
0.0
 10
9.7749212236
 20
6.0804485815
 30
0.0
 10
9.7922034834
 20
6.0768176677
 30
0.0
 10
9.8103598526
 20
6.0734828689
 30
0.0
 10
9.8293141539
 20
6.0704583454
 30
0.0
 10
9.8489869717
 20
6.0677569783
 30
0.0
 10
9.8692957947
 20
6.0653902462
 30
0.0
 10
9.8901552882
 20
6.0633682159
 30
0.0
 10
9.9042455688
 20
6.0622654902
 30
0.0
 10
9.9113665862
 20
6.0617716459
 30
0.0
  0
SPLINE
  5
2EE
100
AcDbEntity
  8
0
100
AcDbSpline
 62
7
  6
CONTINUOUS
 70
0
 71
3
 72
17
 73
13
 74
0
 42
0.0000001
 43
0.0000001
 44
0.0000000001
 40
0.0
 40
0.0
 40
0.0
 40
0.0
 40
0.0544313482
 40
0.1090799532
 40
0.2198254431
 40
0.3339327209
 40
0.4528856996
 40
0.514611354
 40
0.5780150295
 40
0.7103287903
 40
0.8507543788
 40
1.0
 40
1.0
 40
1.0
 40
1.0
 10
9.6254002642
 20
6.1777152824
 30
0.0
 10
9.6254002647
 20
6.177166514
 30
0.0
 10
9.6254363965
 20
6.1760664112
 30
0.0
 10
9.6256536307
 20
6.1738595858
 30
0.0
 10
9.6262029673
 20
6.1710872225
 30
0.0
 10
9.6272939752
 20
6.1677888996
 30
0.0
 10
9.6285471322
 20
6.1650869569
 30
0.0
 10
9.629752472
 20
6.1629406437
 30
0.0
 10
9.6311343803
 20
6.1607424705
 30
0.0
 10
9.633140776
 20
6.1580051605
 30
0.0
 10
9.63593552
 20
6.1547921491
 30
0.0
 10
9.6380113524
 20
6.1527339975
 30
0.0
 10
9.6391128522
 20
6.1517089444
 30
0.0
  0
SPLINE
  5
2EF
100
AcDbEntity
  8
0
100
AcDbSpline
 62
7
  6
CONTINUOUS
 70
0
 71
3
 72
21
 73
17
 74
0
 42
0.0000001
 43
0.0000001
 44
0.0000000001
 40
0.0
 40
0.0
 40
0.0
 40
0.0
 40
0.1215274605
 40
0.2447582296
 40
0.3069708682
 40
0.3695245985
 40
0.4323744172
 40
0.4954658155
 40
0.5587347861
 40
0.6221085946
 40
0.6855076463
 40
0.7488479166
 40
0.8120448292
 40
0.8750164343
 40
0.9376899261
 40
1.0
 40
1.0
 40
1.0
 40
1.0
 10
10.8342476342
 20
8.6254310884
 30
0.0
 10
10.8289116031
 20
8.6213944742
 30
0.0
 10
10.8178149532
 20
8.6137150373
 30
0.0
 10
10.8030792091
 20
8.6053845326
 30
0.0
 10
10.7907276785
 20
8.5995533757
 30
0.0
 10
10.7811694358
 20
8.5956243815
 30
0.0
 10
10.7713704695
 20
8.5921916484
 30
0.0
 10
10.761359422
 20
8.5892915323
 30
0.0
 10
10.7511712444
 20
8.5869585859
 30
0.0
 10
10.740846783
 20
8.5852239211
 30
0.0
 10
10.7304323705
 20
8.584113757
 30
0.0
 10
10.7199787911
 20
8.583647898
 30
0.0
 10
10.7095399429
 20
8.5838385765
 30
0.0
 10
10.6991706867
 20
8.5846895521
 30
0.0
 10
10.6889259416
 20
8.5861958359
 30
0.0
 10
10.682190828
 20
8.5876328521
 30
0.0
 10
10.6788604833
 20
8.5884559893
 30
0.0
  0
SPLINE
  5
2F0
100
AcDbEntity
  8
0
100
AcDbSpline
 62
7
  6
CONTINUOUS
 70
0
 71
3
 72
42
 73
38
 74
0
 42
0.0000001
 43
0.0000001
 44
0.0000000001
 40
0.0
 40
0.0
 40
0.0
 40
0.0
 40
0.0299419663
 40
0.0449235352
 40
0.0599142051
 40
0.0899287052
 40
0.1200139767
 40
0.135092661
 40
0.150196701
 40
0.1804840414
 40
0.210897872
 40
0.2414513324
 40
0.2721543376
 40
0.3030133986
 40
0.3340315263
 40
0.3652082187
 40
0.3965395244
 40
0.4280181782
 40
0.4596338019
 40
0.4913731609
 40
0.5232204716
 40
0.55515775
 40
0.5871651943
 40
0.6192215961
 40
0.6513047701
 40
0.6833919991
 40
0.7154604852
 40
0.7474878032
 40
0.7794523473
 40
0.8113337692
 40
0.8431133916
 40
0.8747746171
 40
0.9063032365
 40
0.9376879249
 40
0.9533258257
 40
0.968925233
 40
1.0
 40
1.0
 40
1.0
 40
1.0
 10
10.9072546552
 20
7.4683554686
 30
0.0
 10
10.9108877923
 20
7.4718648101
 30
0.0
 10
10.9165516275
 20
7.4769162072
 30
0.0
 10
10.9244837405
 20
7.4831838587
 30
0.0
 10
10.9326684345
 20
7.4891396488
 30
0.0
 10
10.9433481332
 20
7.495978817
 30
0.0
 10
10.9545470983
 20
7.5019611014
 30
0.0
 10
10.9637833233
 20
7.506216959
 30
0.0
 10
10.973210377
 20
7.5101214205
 30
0.0
 10
10.9853048351
 20
7.514319888
 30
0.0
 10
11.0002094401
 20
7.5182327465
 30
0.0
 10
11.0154392685
 20
7.5210047315
 30
0.0
 10
11.0309099229
 20
7.5226205404
 30
0.0
 10
11.0465364185
 20
7.5230715525
 30
0.0
 10
11.0622327738
 20
7.5223554716
 30
0.0
 10
11.0779127178
 20
7.5204764339
 30
0.0
 10
11.0934900958
 20
7.5174449484
 30
0.0
 10
11.1088793544
 20
7.5132778389
 30
0.0
 10
11.1239960006
 20
7.5079981448
 30
0.0
 10
11.1387570601
 20
7.501634991
 30
0.0
 10
11.1530815261
 20
7.4942234259
 30
0.0
 10
11.1668907985
 20
7.4858042289
 30
0.0
 10
11.1801091088
 20
7.4764236859
 30
0.0
 10
11.1926639305
 20
7.4661333362
 30
0.0
 10
11.2044863728
 20
7.4549896917
 30
0.0
 10
11.2155115535
 20
7.4430539291
 30
0.0
 10
11.2256789524
 20
7.4303915578
 30
0.0
 10
11.2349327391
 20
7.4170720627
 30
0.0
 10
11.2432220775
 20
7.4031685317
 30
0.0
 10
11.2505014026
 20
7.3887572427
 30
0.0
 10
11.2567306682
 20
7.3739173105
 30
0.0
 10
11.2618755757
 20
7.3587300379
 30
0.0
 10
11.2659077078
 20
7.3432792873
 30
0.0
 10
11.2683250565
 20
7.3302371732
 30
0.0
 10
11.2696811218
 20
7.3197580011
 30
0.0
 10
11.2706489101
 20
7.3092888542
 30
0.0
 10
11.2709419463
 20
7.3014108952
 30
0.0
 10
11.2709419463
 20
7.2961685364
 30
0.0
  0
SPLINE
  5
2F1
100
AcDbEntity
  8
0
100
AcDbSpline
 62
7
  6
CONTINUOUS
 70
0
 71
3
 72
39
 73
35
 74
0
 42
0.0000001
 43
0.0000001
 44
0.0000000001
 40
0.0
 40
0.0
 40
0.0
 40
0.0
 40
0.0761048505
 40
0.1533644273
 40
0.2310953879
 40
0.3086074378
 40
0.385213133
 40
0.4229647759
 40
0.4602372533
 40
0.4969488802
 40
0.5330196652
 40
0.5683715375
 40
0.6029285954
 40
0.6366174131
 40
0.6693673757
 40
0.7011109337
 40
0.731783919
 40
0.7613259621
 40
0.7896809469
 40
0.8167974154
 40
0.8426291179
 40
0.8671357663
 40
0.8902839198
 40
0.9120479695
 40
0.9224060488
 40
0.9324129352
 40
0.9420682978
 40
0.951372736
 40
0.9603277737
 40
0.9689359288
 40
0.9772012578
 40
0.9851291183
 40
0.992726077
 40
1.0
 40
1.0
 40
1.0
 40
1.0
 10
11.4729727631
 20
5.9751111745
 30
0.0
 10
11.4848803709
 20
5.9742853791
 30
0.0
 10
11.5088999386
 20
5.9729469852
 30
0.0
 10
11.5451322369
 20
5.9718646123
 30
0.0
 10
11.5816012671
 20
5.9716969382
 30
0.0
 10
11.6179602306
 20
5.9724456166
 30
0.0
 10
11.6480245329
 20
5.9738336166
 30
0.0
 10
11.6717547384
 20
5.9754032997
 30
0.0
 10
11.6892243407
 20
5.9767968337
 30
0.0
 10
11.7064103667
 20
5.9784089062
 30
0.0
 10
11.7232719809
 20
5.9802356742
 30
0.0
 10
11.7397690817
 20
5.9822727551
 30
0.0
 10
11.755862447
 20
5.9845152802
 30
0.0
 10
11.7715138227
 20
5.9869578842
 30
0.0
 10
11.7866860256
 20
5.9895947022
 30
0.0
 10
11.8013430237
 20
5.9924194131
 30
0.0
 10
11.8154500201
 20
5.995425254
 30
0.0
 10
11.8289735538
 20
5.9986050231
 30
0.0
 10
11.8418815901
 20
6.0019510832
 30
0.0
 10
11.8541435985
 20
6.0054554119
 30
0.0
 10
11.8657306043
 20
6.0091096262
 30
0.0
 10
11.8766153855
 20
6.0129049933
 30
0.0
 10
11.8867722382
 20
6.0168324519
 30
0.0
 10
11.8947364085
 20
6.0202618813
 30
0.0
 10
11.9007169803
 20
6.023072198
 30
0.0
 10
11.9049315489
 20
6.0251722764
 30
0.0
 10
11.9089470434
 20
6.0272983248
 30
0.0
 10
11.9127611097
 20
6.029449093
 30
0.0
 10
11.9163715159
 20
6.0316232749
 30
0.0
 10
11.9197761331
 20
6.0338196786
 30
0.0
 10
11.9229730321
 20
6.0360370195
 30
0.0
 10
11.9259603833
 20
6.038274107
 30
0.0
 10
11.9287362692
 20
6.0405295646
 30
0.0
 10
11.9304820772
 20
6.0420775781
 30
0.0
 10
11.9313172325
 20
6.042854765
 30
0.0
  0
SPLINE
  5
2F2
100
AcDbEntity
  8
0
100
AcDbSpline
 62
7
  6
CONTINUOUS
 70
0
 71
3
 72
94
 73
90
 74
0
 42
0.0000001
 43
0.0000001
 44
0.0000000001
 40
0.0
 40
0.0
 40
0.0
 40
0.0
 40
0.0041490762
 40
0.0084807704
 40
0.012999933
 40
0.0177106519
 40
0.0226163238
 40
0.0277195286
 40
0.0330219958
 40
0.0385248862
 40
0.044228762
 40
0.0501337364
 40
0.0562394522
 40
0.062545122
 40
0.0690496348
 40
0.0757514795
 40
0.089739343
 40
0.1044916305
 40
0.1199867704
 40
0.1361997512
 40
0.1531025244
 40
0.1706643345
 40
0.1888519928
 40
0.2076301162
 40
0.2269613451
 40
0.2468065352
 40
0.2671249324
 40
0.2878743367
 40
0.3090112571
 40
0.3304910592
 40
0.3522681155
 40
0.3742959484
 40
0.3965273693
 40
0.4189146165
 40
0.4414094907
 40
0.4639634913
 40
0.4865279538
 40
0.5090541857
 40
0.5314936009
 40
0.5537978548
 40
0.575918979
 40
0.5978095194
 40
0.6194226765
 40
0.6407124424
 40
0.6616337416
 40
0.6821425738
 40
0.702196162
 40
0.7217531064
 40
0.7407735511
 40
0.7592193512
 40
0.7770542544
 40
0.7942441033
 40
0.8107570605
 40
0.8265638703
 40
0.8416381711
 40
0.8559568631
 40
0.8695005604
 40
0.8759771763
 40
0.8822547747
 40
0.8883322781
 40
0.894208978
 40
0.8998845531
 40
0.9053591922
 40
0.9106335276
 40
0.915708825
 40
0.9205869441
 40
0.9252704833
 40
0.929762872
 40
0.9340684234
 40
0.9381925605
 40
0.9421418378
 40
0.9459242009
 40
0.949549079
 40
0.9530275683
 40
0.9563726074
 40
0.9595990278
 40
0.9627236809
 40
0.9657653232
 40
0.9687444968
 40
0.9716831971
 40
0.9746044261
 40
0.9775316394
 40
0.9804881391
 40
0.9834964788
 40
0.9865779685
 40
0.9897522657
 40
0.993037127
 40
0.9964483948
 40
1.0
 40
1.0
 40
1.0
 40
1.0
 10
10.4194735261
 20
11.352897883
 30
0.0
 10
10.4206375888
 20
11.3540222812
 30
0.0
 10
10.4230736191
 20
11.3562624756
 30
0.0
 10
10.4269546102
 20
11.3595283532
 30
0.0
 10
10.4311375234
 20
11.3627689091
 30
0.0
 10
10.4356197428
 20
11.3659821704
 30
0.0
 10
10.4403987669
 20
11.3691664415
 30
0.0
 10
10.4454719366
 20
11.3723199421
 30
0.0
 10
10.4508363528
 20
11.375440967
 30
0.0
 10
10.4564889812
 20
11.3785276548
 30
0.0
 10
10.4624265639
 20
11.3815783072
 30
0.0
 10
10.4686457225
 20
11.3845911479
 30
0.0
 10
10.4751428959
 20
11.3875644551
 30
0.0
 10
10.4819143491
 20
11.3904965405
 30
0.0
 10
10.4889562155
 20
11.3933856875
 30
0.0
 10
10.4988419348
 20
11.3972334128
 30
0.0
 10
10.5118538451
 20
11.4019122222
 30
0.0
 10
10.5282638656
 20
11.4072527094
 30
0.0
 10
10.5456473119
 20
11.4123838394
 30
0.0
 10
10.563964137
 20
11.4172936845
 30
0.0
 10
10.5831723043
 20
11.4219708086
 30
0.0
 10
10.6032275901
 20
11.4264043146
 30
0.0
 10
10.6240837844
 20
11.4305838724
 30
0.0
 10
10.6456927826
 20
11.4344997495
 30
0.0
 10
10.6680047151
 20
11.4381428269
 30
0.0
 10
10.6909680678
 20
11.4415046231
 30
0.0
 10
10.714529806
 20
11.4445773126
 30
0.0
 10
10.7386354985
 20
11.4473537439
 30
0.0
 10
10.7632294449
 20
11.4498274553
 30
0.0
 10
10.7882548053
 20
11.4519926961
 30
0.0
 10
10.8136537357
 20
11.4538444327
 30
0.0
 10
10.8393675248
 20
11.4553783603
 30
0.0
 10
10.86533673
 20
11.4565909129
 30
0.0
 10
10.8915013153
 20
11.4574792708
 30
0.0
 10
10.9178007899
 20
11.4580413665
 30
0.0
 10
10.9441743488
 20
11.4582758947
 30
0.0
 10
10.9705610153
 20
11.4581823126
 30
0.0
 10
10.9968997829
 20
11.4577608385
 30
0.0
 10
11.0231297566
 20
11.457012452
 30
0.0
 10
11.0491902938
 20
11.4559388916
 30
0.0
 10
11.075021144
 20
11.4545426502
 30
0.0
 10
11.1005625912
 20
11.4528269725
 30
0.0
 10
11.1257555933
 20
11.4507958501
 30
0.0
 10
11.1505419193
 20
11.4484540067
 30
0.0
 10
11.1748642842
 20
11.4458068889
 30
0.0
 10
11.1986664815
 20
11.4428606538
 30
0.0
 10
11.2218935152
 20
11.4396221549
 30
0.0
 10
11.2444917314
 20
11.4360989266
 30
0.0
 10
11.2664089479
 20
11.4322991734
 30
0.0
 10
11.2875945771
 20
11.428231745
 30
0.0
 10
11.307999747
 20
11.4239061157
 30
0.0
 10
11.3275774167
 20
11.4193323621
 30
0.0
 10
11.3462825022
 20
11.4145211388
 30
0.0
 10
11.3640719653
 20
11.409483649
 30
0.0
 10
11.3809050325
 20
11.4042316171
 30
0.0
 10
11.3967429657
 20
11.3987772546
 30
0.0
 10
11.4092619543
 20
11.3940054489
 30
0.0
 10
11.4187424795
 20
11.390086554
 30
0.0
 10
11.4254755807
 20
11.3871485507
 30
0.0
 10
11.4319338535
 20
11.3841695718
 30
0.0
 10
11.4381136103
 20
11.3811513157
 30
0.0
 10
11.4440112941
 20
11.3780954751
 30
0.0
 10
11.4496235594
 20
11.3750038619
 30
0.0
 10
11.454947176
 20
11.3718781633
 30
0.0
 10
11.4599791388
 20
11.3687202096
 30
0.0
 10
11.4647165765
 20
11.3655317429
 30
0.0
 10
11.4691567971
 20
11.3623145363
 30
0.0
 10
11.4732973118
 20
11.3590704037
 30
0.0
 10
11.4771357252
 20
11.3558010397
 30
0.0
 10
11.4806699099
 20
11.3525082761
 30
0.0
 10
11.4838977774
 20
11.3491937711
 30
0.0
 10
11.486817473
 20
11.3458592846
 30
0.0
 10
11.4894272245
 20
11.3425064998
 30
0.0
 10
11.4917253292
 20
11.33913708
 30
0.0
 10
11.4937102867
 20
11.3357527856
 30
0.0
 10
11.495380483
 20
11.3323553095
 30
0.0
 10
11.4967345999
 20
11.3289465767
 30
0.0
 10
11.4977712309
 20
11.3255285648
 30
0.0
 10
11.4984892592
 20
11.3221035155
 30
0.0
 10
11.498887823
 20
11.3186738582
 30
0.0
 10
11.4989662961
 20
11.3152421962
 30
0.0
 10
11.4987247054
 20
11.3118112202
 30
0.0
 10
11.4981632393
 20
11.3083835995
 30
0.0
 10
11.4972827394
 20
11.3049618421
 30
0.0
 10
11.4960841656
 20
11.3015482838
 30
0.0
 10
11.4945687915
 20
11.2981450667
 30
0.0
 10
11.4927380429
 20
11.2947540587
 30
0.0
 10
11.4905933958
 20
11.2913772441
 30
0.0
 10
11.4889893001
 20
11.2891829538
 30
0.0
 10
11.4881391084
 20
11.2880891371
 30
0.0
  0
SPLINE
  5
2F3
100
AcDbEntity
  8
0
100
AcDbSpline
 62
7
  6
CONTINUOUS
 70
0
 71
3
 72
83
 73
79
 74
0
 42
0.0000001
 43
0.0000001
 44
0.0000000001
 40
0.0
 40
0.0
 40
0.0
 40
0.0
 40
0.0039801392
 40
0.008124085
 40
0.0124359891
 40
0.0169193758
 40
0.0215772403
 40
0.0264119747
 40
0.0314252505
 40
0.0366182358
 40
0.0419916472
 40
0.0475457641
 40
0.0532805491
 40
0.0591955595
 40
0.0715625821
 40
0.0846382708
 40
0.0984095991
 40
0.1128601963
 40
0.127970756
 40
0.1437193797
 40
0.1600818675
 40
0.1770319494
 40
0.194541478
 40
0.2125805882
 40
0.2311178653
 40
0.2501204909
 40
0.2695543707
 40
0.2893842495
 40
0.3095738226
 40
0.3300858587
 40
0.3508823085
 40
0.3719244075
 40
0.4145867424
 40
0.4577530908
 40
0.5010979354
 40
0.5442940129
 40
0.5870155124
 40
0.6080980589
 40
0.6289420781
 40
0.6495086839
 40
0.6697596832
 40
0.6896576862
 40
0.7091662207
 40
0.7282498351
 40
0.746874209
 40
0.765006274
 40
0.7826143539
 40
0.7996683035
 40
0.8161396492
 40
0.8320017558
 40
0.8472300223
 40
0.8618021251
 40
0.8756982738
 40
0.8889015292
 40
0.901398207
 40
0.9131784013
 40
0.918798254
 40
0.9242373564
 40
0.9294958943
 40
0.9345743964
 40
0.9394738952
 40
0.9441958903
 40
0.9487424281
 40
0.9531162232
 40
0.9573206342
 40
0.9613598587
 40
0.9652389652
 40
0.9689640015
 40
0.9725421755
 40
0.9759818813
 40
0.9792929007
 40
0.9824864648
 40
0.985575317
 40
0.9885737931
 40
0.9914977171
 40
0.9943643215
 40
0.9971920038
 40
1.0
 40
1.0
 40
1.0
 40
1.0
 10
10.4282438335
 20
11.3311162651
 30
0.0
 10
10.4293133251
 20
11.3321493147
 30
0.0
 10
10.431544896
 20
11.3342081193
 30
0.0
 10
10.4350879609
 20
11.3372151782
 30
0.0
 10
10.4388912175
 20
11.3402007022
 30
0.0
 10
10.4429525779
 20
11.3431630423
 30
0.0
 10
10.4472700216
 20
11.3461008479
 30
0.0
 10
10.4518414679
 20
11.3490126616
 30
0.0
 10
10.4566646286
 20
11.3518971176
 30
0.0
 10
10.4617371029
 20
11.3547527446
 30
0.0
 10
10.4670563527
 20
11.3575780966
 30
0.0
 10
10.4726196941
 20
11.3603718026
 30
0.0
 10
10.478424371
 20
11.3631324326
 30
0.0
 10
10.4866036053
 20
11.3668222038
 30
0.0
 10
10.4974190981
 20
11.3713311777
 30
0.0
 10
10.5111253128
 20
11.3765111262
 30
0.0
 10
10.5257178675
 20
11.381527093
 30
0.0
 10
10.5411673949
 20
11.3863688904
 30
0.0
 10
10.557442959
 20
11.3910266821
 30
0.0
 10
10.5745118169
 20
11.3954909932
 30
0.0
 10
10.5923396002
 20
11.3997527319
 30
0.0
 10
10.610890369
 20
11.403803215
 30
0.0
 10
10.6301266932
 20
11.4076341842
 30
0.0
 10
10.6500097261
 20
11.4112378417
 30
0.0
 10
10.670499294
 20
11.4146068518
 30
0.0
 10
10.6915539863
 20
11.4177343549
 30
0.0
 10
10.7131312413
 20
11.4206139813
 30
0.0
 10
10.7351874273
 20
11.4232398655
 30
0.0
 10
10.7576779355
 20
11.4256066733
 30
0.0
 10
10.7805572604
 20
11.4277095836
 30
0.0
 10
10.8037791572
 20
11.4295443482
 30
0.0
 10
10.8352791322
 20
11.4316375792
 30
0.0
 10
10.8751634037
 20
11.4335519467
 30
0.0
 10
10.9234114693
 20
11.4347258816
 30
0.0
 10
10.9718733453
 20
11.43477699
 30
0.0
 10
11.0201569911
 20
11.4337048827
 30
0.0
 10
11.0600935803
 20
11.4318750035
 30
0.0
 10
11.091653034
 20
11.4298488303
 30
0.0
 10
11.1149321859
 20
11.4280632468
 30
0.0
 10
11.1378772599
 20
11.4260087979
 30
0.0
 10
11.1604418734
 20
11.4236896292
 30
0.0
 10
11.1825803709
 20
11.4211104631
 30
0.0
 10
11.2042479811
 20
11.4182765515
 30
0.0
 10
11.2254008898
 20
11.4151936633
 30
0.0
 10
11.245996329
 20
11.4118680731
 30
0.0
 10
11.2659926671
 20
11.4083065452
 30
0.0
 10
11.2853495025
 20
11.4045163337
 30
0.0
 10
11.3040277489
 20
11.4005051641
 30
0.0
 10
11.3219897119
 20
11.3962812076
 30
0.0
 10
11.3391991676
 20
11.3918530678
 30
0.0
 10
11.355621446
 20
11.3872297561
 30
0.0
 10
11.3712235285
 20
11.3824206884
 30
0.0
 10
11.3859740919
 20
11.377435648
 30
0.0
 10
11.3998436864
 20
11.372284741
 30
0.0
 10
11.4128044405
 20
11.3669784017
 30
0.0
 10
11.4229803685
 20
11.3623661795
 30
0.0
 10
11.4306362748
 20
11.358597781
 30
0.0
 10
11.4360446001
 20
11.3557837365
 30
0.0
 10
11.4412071149
 20
11.3529389799
 30
0.0
 10
11.44612122
 20
11.3500648388
 30
0.0
 10
11.4507844788
 20
11.3471627934
 30
0.0
 10
11.4551945672
 20
11.344234269
 30
0.0
 10
11.459349269
 20
11.3412806689
 30
0.0
 10
11.4632465554
 20
11.3383034916
 30
0.0
 10
11.4668844493
 20
11.335304108
 30
0.0
 10
11.4702611606
 20
11.3322839828
 30
0.0
 10
11.4733750053
 20
11.3292445383
 30
0.0
 10
11.4762243602
 20
11.3261871344
 30
0.0
 10
11.4788078145
 20
11.3231132308
 30
0.0
 10
11.481123929
 20
11.3200241548
 30
0.0
 10
11.4831714284
 20
11.316921321
 30
0.0
 10
11.4849491117
 20
11.313806145
 30
0.0
 10
11.4864557347
 20
11.3106800317
 30
0.0
 10
11.4876903009
 20
11.3075445456
 30
0.0
 10
11.4886517275
 20
11.3044012978
 30
0.0
 10
11.4893391582
 20
11.3012519772
 30
0.0
 10
11.4897519542
 20
11.2980988008
 30
0.0
 10
11.4898437984
 20
11.2959922261
 30
0.0
 10
11.4898437957
 20
11.2949431838
 30
0.0
  0
SPLINE
  5
2F4
100
AcDbEntity
  8
0
100
AcDbSpline
 62
7
  6
CONTINUOUS
 70
0
 71
3
 72
53
 73
49
 74
0
 42
0.0000001
 43
0.0000001
 44
0.0000000001
 40
0.0
 40
0.0
 40
0.0
 40
0.0
 40
0.0527848368
 40
0.1048063877
 40
0.1559447945
 40
0.2060908895
 40
0.2551345126
 40
0.3029700154
 40
0.3494956547
 40
0.3946138133
 40
0.4382317231
 40
0.4802619925
 40
0.5206231304
 40
0.5592401772
 40
0.5960455137
 40
0.6309799343
 40
0.6639937277
 40
0.6950481335
 40
0.7241173308
 40
0.7379047206
 40
0.7511934666
 40
0.7639854289
 40
0.7762837289
 40
0.7880933188
 40
0.799421028
 40
0.8102756762
 40
0.8206687401
 40
0.830614312
 40
0.8401296363
 40
0.8492356466
 40
0.8579570837
 40
0.8663232307
 40
0.8743681403
 40
0.8821308159
 40
0.8896555052
 40
0.8969912663
 40
0.9041915074
 40
0.9113130476
 40
0.918414751
 40
0.9255560501
 40
0.9327952996
 40
0.9401883408
 40
0.94778714
 40
0.9637757048
 40
0.9722567975
 40
0.9811039228
 40
0.9903442134
 40
1.0
 40
1.0
 40
1.0
 40
1.0
 10
9.9113665862
 20
10.9821979639
 30
0.0
 10
9.9059650536
 20
10.9825725615
 30
0.0
 10
9.8952449468
 20
10.9833885095
 30
0.0
 10
9.8793126567
 20
10.9848241885
 30
0.0
 10
9.8636717591
 20
10.9864602179
 30
0.0
 10
9.8483602177
 20
10.988292538
 30
0.0
 10
9.8334146482
 20
10.9903167773
 30
0.0
 10
9.8188710846
 20
10.9925280008
 30
0.0
 10
9.8047644902
 20
10.9949208414
 30
0.0
 10
9.7911287777
 20
10.9974895014
 30
0.0
 10
9.7779967193
 20
11.000227757
 30
0.0
 10
9.7653998396
 20
11.0031289524
 30
0.0
 10
9.7533683474
 20
11.0061860425
 30
0.0
 10
9.7419310665
 20
11.0093916106
 30
0.0
 10
9.7311153395
 20
11.0127378972
 30
0.0
 10
9.7209469626
 20
11.0162167857
 30
0.0
 10
9.7114500121
 20
11.0198198817
 30
0.0
 10
9.7026471318
 20
11.0235385093
 30
0.0
 10
9.6957907501
 20
11.0267810469
 30
0.0
 10
9.6906782246
 20
11.0294337672
 30
0.0
 10
9.6870981131
 20
11.0314114823
 30
0.0
 10
9.6837064317
 20
11.0334112978
 30
0.0
 10
9.6805052099
 20
11.0354321184
 30
0.0
 10
9.6774963326
 20
11.0374727353
 30
0.0
 10
9.6746815567
 20
11.0395319428
 30
0.0
 10
9.672062582
 20
11.0416086233
 30
0.0
 10
9.6696409155
 20
11.0437015473
 30
0.0
 10
9.6674180055
 20
11.0458095774
 30
0.0
 10
9.6653952163
 20
11.0479315946
 30
0.0
 10
9.6635737324
 20
11.0500664086
 30
0.0
 10
9.6619547748
 20
11.0522129565
 30
0.0
 10
9.6605394216
 20
11.0543700946
 30
0.0
 10
9.6593286776
 20
11.0565366664
 30
0.0
 10
9.6583236323
 20
11.0587115372
 30
0.0
 10
9.6575251442
 20
11.0608933914
 30
0.0
 10
9.6569341081
 20
11.0630808614
 30
0.0
 10
9.6565513015
 20
11.0652724109
 30
0.0
 10
9.6563771397
 20
11.0674663416
 30
0.0
 10
9.6564119797
 20
11.0696608805
 30
0.0
 10
9.6566557317
 20
11.0718542149
 30
0.0
 10
9.65710799
 20
11.0740445737
 30
0.0
 10
9.6577683401
 20
11.0762304107
 30
0.0
 10
9.6589444676
 20
11.0791860304
 30
0.0
 10
9.6605323432
 20
11.0820837422
 30
0.0
 10
9.6624717323
 20
11.0848993962
 30
0.0
 10
9.664158535
 20
11.0870424387
 30
0.0
 10
9.6660471911
 20
11.089173012
 30
0.0
 10
9.6674093667
 20
11.0905533712
 30
0.0
 10
9.6681217603
 20
11.0912414906
 30
0.0
  0
SPLINE
  5
2F5
100
AcDbEntity
  8
0
100
AcDbSpline
 62
7
  6
CONTINUOUS
 70
0
 71
3
 72
21
 73
17
 74
0
 42
0.0000001
 43
0.0000001
 44
0.0000000001
 40
0.0
 40
0.0
 40
0.0
 40
0.0
 40
0.0588690405
 40
0.1182214272
 40
0.178072118
 40
0.238438741
 40
0.2993279458
 40
0.3607415648
 40
0.4226751832
 40
0.4851184475
 40
0.6114249375
 40
0.7395136982
 40
0.804165538
 40
0.8691591043
 40
0.9344522642
 40
1.0
 40
1.0
 40
1.0
 40
1.0
 10
10.0984071969
 20
8.3831458784
 30
0.0
 10
10.0949164223
 20
8.3835112571
 30
0.0
 10
10.0879261194
 20
8.3844510447
 30
0.0
 10
10.0774973094
 20
8.3864695087
 30
0.0
 10
10.0671126095
 20
8.3890966985
 30
0.0
 10
10.0568028648
 20
8.3923245878
 30
0.0
 10
10.0465978108
 20
8.3961438762
 30
0.0
 10
10.036527273
 20
8.4005432535
 30
0.0
 10
10.0266202469
 20
8.4055100087
 30
0.0
 10
10.0136202618
 20
8.4128960514
 30
0.0
 10
9.9979334221
 20
8.4234821764
 30
0.0
 10
9.9832729175
 20
8.4356529327
 30
0.0
 10
9.9721858115
 20
8.4462996123
 30
0.0
 10
9.9641938247
 20
8.4547446346
 30
0.0
 10
9.95657609
 20
8.4635985243
 30
0.0
 10
9.9517693502
 20
8.46974685
 30
0.0
 10
9.9494346461
 20
8.4728808422
 30
0.0
  0
SPLINE
  5
2F6
100
AcDbEntity
  8
0
100
AcDbSpline
 62
7
  6
CONTINUOUS
 70
0
 71
3
 72
36
 73
32
 74
0
 42
0.0000001
 43
0.0000001
 44
0.0000000001
 40
0.0
 40
0.0
 40
0.0
 40
0.0
 40
0.0031809726
 40
0.0068727957
 40
0.0111039741
 40
0.0158722319
 40
0.0211545387
 40
0.0269065181
 40
0.0330762833
 40
0.0396069403
 40
0.0464441837
 40
0.0535387929
 40
0.0683286379
 40
0.0837018802
 40
0.0994695826
 40
0.1317133897
 40
0.164455346
 40
0.1974087605
 40
0.2304302752
 40
0.2634444066
 40
0.2964099444
 40
0.3621133965
 40
0.4274566793
 40
0.492420401
 40
0.557009137
 40
0.6212366026
 40
0.6851198912
 40
0.7486773848
 40
0.8119270111
 40
0.8748873224
 40
1.0
 40
1.0
 40
1.0
 40
1.0
 10
10.1005881451
 20
8.3852053036
 30
0.0
 10
10.1006610253
 20
8.3852743879
 30
0.0
 10
10.100831207
 20
8.3854103436
 30
0.0
 10
10.1011298429
 20
8.3855949782
 30
0.0
 10
10.1014892442
 20
8.3857731074
 30
0.0
 10
10.1019068465
 20
8.3859438336
 30
0.0
 10
10.1023788392
 20
8.3861060317
 30
0.0
 10
10.1029000269
 20
8.386259306
 30
0.0
 10
10.103464598
 20
8.3864032256
 30
0.0
 10
10.1040665458
 20
8.3865380173
 30
0.0
 10
10.1047001903
 20
8.3866639206
 30
0.0
 10
10.1055928995
 20
8.3868229321
 30
0.0
 10
10.1067558096
 20
8.3870003101
 30
0.0
 10
10.1081939067
 20
8.3871862157
 30
0.0
 10
10.1101824181
 20
8.3874099387
 30
0.0
 10
10.112720512
 20
8.3876503101
 30
0.0
 10
10.1158017782
 20
8.3879059111
 30
0.0
 10
10.1189087757
 20
8.3881477367
 30
0.0
 10
10.1220245115
 20
8.3883879023
 30
0.0
 10
10.1251400996
 20
8.3886349894
 30
0.0
 10
10.1292827308
 20
8.3889816059
 30
0.0
 10
10.1344384891
 20
8.3894597154
 30
0.0
 10
10.1405899836
 20
8.3901325234
 30
0.0
 10
10.1466924893
 20
8.3909198386
 30
0.0
 10
10.1527419474
 20
8.3918326273
 30
0.0
 10
10.1587352555
 20
8.3928785382
 30
0.0
 10
10.1646695786
 20
8.3940630682
 30
0.0
 10
10.1705420249
 20
8.3953901848
 30
0.0
 10
10.1763497663
 20
8.3968627837
 30
0.0
 10
10.1839860277
 20
8.3990181035
 30
0.0
 10
10.1896330093
 20
8.4008649969
 30
0.0
 10
10.1933504852
 20
8.4021992786
 30
0.0
  0
SPLINE
  5
2F7
100
AcDbEntity
  8
0
100
AcDbSpline
 62
7
  6
CONTINUOUS
 70
0
 71
3
 72
39
 73
35
 74
0
 42
0.0000001
 43
0.0000001
 44
0.0000000001
 40
0.0
 40
0.0
 40
0.0
 40
0.0
 40
0.0958315389
 40
0.189100319
 40
0.2792401463
 40
0.322966852
 40
0.3657106176
 40
0.4074087938
 40
0.4480014133
 40
0.4874310649
 40
0.5256432078
 40
0.562586629
 40
0.5982133843
 40
0.6324794799
 40
0.6653451443
 40
0.6967751132
 40
0.7267396176
 40
0.755214681
 40
0.7821831415
 40
0.8076359589
 40
0.8315732145
 40
0.854006362
 40
0.8749604508
 40
0.8944770435
 40
0.9126185912
 40
0.9294729355
 40
0.9451591913
 40
0.9598337656
 40
0.9668557926
 40
0.9737028587
 40
0.9804062836
 40
0.9869996927
 40
0.9935186416
 40
1.0
 40
1.0
 40
1.0
 40
1.0
 10
9.9033432024
 20
10.9445042675
 30
0.0
 10
9.893575924
 20
10.9451816306
 30
0.0
 10
9.8743166257
 20
10.9467330548
 30
0.0
 10
9.8459392779
 20
10.9496945648
 30
0.0
 10
9.8229237921
 20
10.9526813573
 30
0.0
 10
9.8050811369
 20
10.9553699957
 30
0.0
 10
9.7921612914
 20
10.9575044297
 30
0.0
 10
9.7795896545
 20
10.9597735995
 30
0.0
 10
9.7673872054
 20
10.9621736787
 30
0.0
 10
9.7555743241
 20
10.9647006375
 30
0.0
 10
9.7441707257
 20
10.967350247
 30
0.0
 10
9.733195426
 20
10.9701180098
 30
0.0
 10
9.7226667211
 20
10.9729993114
 30
0.0
 10
9.7126021362
 20
10.9759892932
 30
0.0
 10
9.7030183987
 20
10.9790829105
 30
0.0
 10
9.6939314213
 20
10.9822750213
 30
0.0
 10
9.6853562323
 20
10.9855602338
 30
0.0
 10
9.6773069779
 20
10.9889330825
 30
0.0
 10
9.6697968839
 20
10.992387997
 30
0.0
 10
9.6628381849
 20
10.9959192402
 30
0.0
 10
9.6564421662
 20
10.9995211377
 30
0.0
 10
9.6506190759
 20
11.0031879566
 30
0.0
 10
9.6453781336
 20
11.0069140364
 30
0.0
 10
9.6407276329
 20
11.0106940329
 30
0.0
 10
9.6366749318
 20
11.0145227164
 30
0.0
 10
9.6332266952
 20
11.018395633
 30
0.0
 10
9.6303896896
 20
11.022307901
 30
0.0
 10
9.6285130997
 20
11.0256467385
 30
0.0
 10
9.6273433592
 20
11.0283202007
 30
0.0
 10
9.626635098
 20
11.0303009972
 30
0.0
 10
9.6260836956
 20
11.0322857031
 30
0.0
 10
9.6256895603
 20
11.0342735072
 30
0.0
 10
9.6254529314
 20
11.0362632369
 30
0.0
 10
9.6254002648
 20
11.0375920204
 30
0.0
 10
9.6254002642
 20
11.0382541957
 30
0.0
  0
SPLINE
  5
2F8
100
AcDbEntity
  8
0
100
AcDbSpline
 62
7
  6
CONTINUOUS
 70
0
 71
3
 72
23
 73
19
 74
0
 42
0.0000001
 43
0.0000001
 44
0.0000000001
 40
0.0
 40
0.0
 40
0.0
 40
0.0
 40
0.0749626534
 40
0.1455688963
 40
0.2121606022
 40
0.2751638685
 40
0.3350989783
 40
0.3925841093
 40
0.4483303009
 40
0.5031245534
 40
0.557799107
 40
0.6131921295
 40
0.6701070768
 40
0.7292791944
 40
0.7913530767
 40
0.8568775136
 40
0.9263076327
 40
1.0
 40
1.0
 40
1.0
 40
1.0
 10
10.399723856
 20
11.2976906729
 30
0.0
 10
10.3980750025
 20
11.2992250979
 30
0.0
 10
10.3949645231
 20
11.3023056804
 30
0.0
 10
10.3907675194
 20
11.3071118208
 30
0.0
 10
10.3871885893
 20
11.3119560374
 30
0.0
 10
10.3842330376
 20
11.3168341025
 30
0.0
 10
10.3819058583
 20
11.3217417381
 30
0.0
 10
10.3802121663
 20
11.3266738731
 30
0.0
 10
10.3791568735
 20
11.3316242131
 30
0.0
 10
10.3787435824
 20
11.3365848779
 30
0.0
 10
10.3789740199
 20
11.3415468683
 30
0.0
 10
10.3798472222
 20
11.3465009965
 30
0.0
 10
10.3813599485
 20
11.3514390316
 30
0.0
 10
10.3835076889
 20
11.3563541651
 30
0.0
 10
10.3862851787
 20
11.3612410861
 30
0.0
 10
10.3896875268
 20
11.3660954158
 30
0.0
 10
10.3937094241
 20
11.3709126764
 30
0.0
 10
10.3967075723
 20
11.3740013285
 30
0.0
 10
10.3983001486
 20
11.3755396392
 30
0.0
  0
SPLINE
  5
2F9
100
AcDbEntity
  8
0
100
AcDbSpline
 62
7
  6
CONTINUOUS
 70
0
 71
3
 72
15
 73
11
 74
0
 42
0.0000001
 43
0.0000001
 44
0.0000000001
 40
0.0
 40
0.0
 40
0.0
 40
0.0
 40
0.1273483438
 40
0.2538606048
 40
0.3795878922
 40
0.5046051199
 40
0.6290174392
 40
0.7529533668
 40
0.8765605676
 40
1.0
 40
1.0
 40
1.0
 40
1.0
 10
11.4239160153
 20
9.2042821324
 30
0.0
 10
11.4239160153
 20
9.2086092967
 30
0.0
 10
11.4243291771
 20
9.2172411985
 30
0.0
 10
11.4261976585
 20
9.2300230284
 30
0.0
 10
11.4292959134
 20
9.2424836924
 30
0.0
 10
11.4335959506
 20
9.2545066588
 30
0.0
 10
11.4390583307
 20
9.2659810438
 30
0.0
 10
11.4456332633
 20
9.2768008826
 30
0.0
 10
11.4532588968
 20
9.2868648167
 30
0.0
 10
11.4590006263
 20
9.2930124091
 30
0.0
 10
11.4620174392
 20
9.2959264025
 30
0.0
  0
SPLINE
  5
2FA
100
AcDbEntity
  8
0
100
AcDbSpline
 62
7
  6
CONTINUOUS
 70
0
 71
3
 72
96
 73
92
 74
0
 42
0.0000001
 43
0.0000001
 44
0.0000000001
 40
0.0
 40
0.0
 40
0.0
 40
0.0
 40
0.0041939212
 40
0.0085762269
 40
0.0131520052
 40
0.0179255503
 40
0.0229003895
 40
0.0280791136
 40
0.0334634798
 40
0.039054619
 40
0.0448530484
 40
0.0508588136
 40
0.0570714162
 40
0.0634899855
 40
0.0701132151
 40
0.0769394762
 40
0.0911924427
 40
0.1062302232
 40
0.1220294549
 40
0.1385631627
 40
0.1558011854
 40
0.173710526
 40
0.1922556446
 40
0.2113987132
 40
0.2310998404
 40
0.2513172756
 40
0.2720075971
 40
0.2931258893
 40
0.3146259101
 40
0.3364602548
 40
0.358580515
 40
0.380937433
 40
0.4034810543
 40
0.4261608786
 40
0.4489260088
 40
0.4717253002
 40
0.4945075089
 40
0.5172214402
 40
0.5398160978
 40
0.5622408322
 40
0.5844454903
 40
0.6063805658
 40
0.6279973504
 40
0.649248088
 40
0.6700861315
 40
0.6904661036
 40
0.7103440641
 40
0.7296776851
 40
0.7484264339
 40
0.7665517712
 40
0.7840173684
 40
0.8007893512
 40
0.8168365781
 40
0.8321309695
 40
0.8466479033
 40
0.8536084389
 40
0.8603672363
 40
0.8669224108
 40
0.8732724521
 40
0.8794161948
 40
0.8853528766
 40
0.891082198
 40
0.8966043145
 40
0.9019199826
 40
0.9070305141
 40
0.9119379754
 40
0.9166451634
 40
0.9211558052
 40
0.925474617
 40
0.9296074706
 40
0.9335615598
 40
0.9373455271
 40
0.9409697129
 40
0.9444462457
 40
0.9477892864
 40
0.9510150553
 40
0.9541419228
 40
0.9571902809
 40
0.9601823275
 40
0.9631416685
 40
0.9660927703
 40
0.969060322
 40
0.9720685748
 40
0.9751407156
 40
0.9782983924
 40
0.981561316
 40
0.9849471178
 40
0.9884713701
 40
0.9921476423
 40
0.9959874147
 40
1.0
 40
1.0
 40
1.0
 40
1.0
 10
10.3983001486
 20
11.3755396392
 30
0.0
 10
10.399536122
 20
11.3767334979
 30
0.0
 10
10.4021250466
 20
11.3791118479
 30
0.0
 10
10.4062540842
 20
11.3825770543
 30
0.0
 10
10.4107100001
 20
11.3860147178
 30
0.0
 10
10.4154898991
 20
11.3894227109
 30
0.0
 10
10.420591034
 20
11.3927991295
 30
0.0
 10
10.4260104155
 20
11.3961420473
 30
0.0
 10
10.4317448377
 20
11.3994495197
 30
0.0
 10
10.4377909055
 20
11.4027195352
 30
0.0
 10
10.4441450014
 20
11.4059502168
 30
0.0
 10
10.4508033687
 20
11.409139574
 30
0.0
 10
10.457762017
 20
11.4122857729
 30
0.0
 10
10.4650168047
 20
11.4153868573
 30
0.0
 10
10.4725633892
 20
11.4184410425
 30
0.0
 10
10.4831615413
 20
11.4225068269
 30
0.0
 10
10.4971145558
 20
11.4274459844
 30
0.0
 10
10.5147137294
 20
11.433075317
 30
0.0
 10
10.5333593249
 20
11.4384755116
 30
0.0
 10
10.5530066047
 20
11.4436334828
 30
0.0
 10
10.5736085933
 20
11.4485367151
 30
0.0
 10
10.5951158784
 20
11.4531733089
 30
0.0
 10
10.6174768413
 20
11.4575320106
 30
0.0
 10
10.6406377641
 20
11.4616022431
 30
0.0
 10
10.6645429759
 20
11.4653741319
 30
0.0
 10
10.6891349899
 20
11.4688385283
 30
0.0
 10
10.714354648
 20
11.4719870321
 30
0.0
 10
10.7401412658
 20
11.4748120104
 30
0.0
 10
10.7664327816
 20
11.4773066177
 30
0.0
 10
10.7931659085
 20
11.4794648111
 30
0.0
 10
10.8202762897
 20
11.4812813629
 30
0.0
 10
10.8476986549
 20
11.4827518742
 30
0.0
 10
10.8753669786
 20
11.4838727839
 30
0.0
 10
10.9032146399
 20
11.4846413779
 30
0.0
 10
10.931174584
 20
11.4850557951
 30
0.0
 10
10.9591794839
 20
11.4851150316
 30
0.0
 10
10.9871619035
 20
11.4848189432
 30
0.0
 10
11.0150544613
 20
11.4841682468
 30
0.0
 10
11.042789993
 20
11.4831645187
 30
0.0
 10
11.0703017151
 20
11.4818101895
 30
0.0
 10
11.0975233858
 20
11.480108539
 30
0.0
 10
11.1243894658
 20
11.4780636883
 30
0.0
 10
11.1508352768
 20
11.4756805903
 30
0.0
 10
11.1767971586
 20
11.4729650178
 30
0.0
 10
11.2022126241
 20
11.4699235508
 30
0.0
 10
11.227020512
 20
11.4665635602
 30
0.0
 10
11.2511611379
 20
11.4628931918
 30
0.0
 10
11.2745764415
 20
11.4589213475
 30
0.0
 10
11.2972101313
 20
11.4546576629
 30
0.0
 10
11.3190078231
 20
11.4501124839
 30
0.0
 10
11.3399171855
 20
11.4452968419
 30
0.0
 10
11.359888051
 20
11.4402224243
 30
0.0
 10
11.3788726392
 20
11.4349015479
 30
0.0
 10
11.3968253763
 20
11.4293471045
 30
0.0
 10
11.4110836096
 20
11.4244691042
 30
0.0
 10
11.4219331517
 20
11.4204502066
 30
0.0
 10
11.429671775
 20
11.4174283578
 30
0.0
 10
11.4371215854
 20
11.4143583438
 30
0.0
 10
11.444278139
 20
11.4112420101
 30
0.0
 10
11.4511371542
 20
11.4080812244
 30
0.0
 10
11.4576945313
 20
11.4048778637
 30
0.0
 10
11.4639463745
 20
11.4016338773
 30
0.0
 10
11.4698889434
 20
11.3983511394
 30
0.0
 10
11.4755187376
 20
11.3950316646
 30
0.0
 10
11.4808323892
 20
11.3916773308
 30
0.0
 10
11.485826791
 20
11.3882901717
 30
0.0
 10
11.4904989663
 20
11.3848720867
 30
0.0
 10
11.4948461813
 20
11.3814250717
 30
0.0
 10
11.4988658629
 20
11.3779510537
 30
0.0
 10
11.5025556134
 20
11.3744519459
 30
0.0
 10
11.5059132505
 20
11.370929688
 30
0.0
 10
11.508936654
 20
11.3673860985
 30
0.0
 10
11.5116239705
 20
11.3638231105
 30
0.0
 10
11.5139732854
 20
11.3602425038
 30
0.0
 10
11.5159829582
 20
11.3566462368
 30
0.0
 10
11.5176512432
 20
11.3530362172
 30
0.0
 10
11.5189766322
 20
11.3494145877
 30
0.0
 10
11.519957664
 20
11.3457836391
 30
0.0
 10
11.5205931164
 20
11.3421459286
 30
0.0
 10
11.5208821793
 20
11.3385042534
 30
0.0
 10
11.5208243317
 20
11.3348615737
 30
0.0
 10
11.5204197912
 20
11.3312208936
 30
0.0
 10
11.5196689955
 20
11.3275851466
 30
0.0
 10
11.5185730695
 20
11.3239570192
 30
0.0
 10
11.5171331892
 20
11.3203390198
 30
0.0
 10
11.515350943
 20
11.3167333651
 30
0.0
 10
11.5132279051
 20
11.3131421128
 30
0.0
 10
11.5107657226
 20
11.3095671717
 30
0.0
 10
11.5079661088
 20
11.3060103515
 30
0.0
 10
11.504831093
 20
11.3024737526
 30
0.0
 10
11.5025700052
 20
11.3001825123
 30
0.0
 10
11.5013874726
 20
11.2990402735
 30
0.0
  0
SPLINE
  5
2FB
100
AcDbEntity
  8
0
100
AcDbSpline
 62
7
  6
CONTINUOUS
 70
0
 71
3
 72
15
 73
11
 74
0
 42
0.0000001
 43
0.0000001
 44
0.0000000001
 40
0.0
 40
0.0
 40
0.0
 40
0.0
 40
0.1273483438
 40
0.2538606048
 40
0.3795878922
 40
0.5046051199
 40
0.6290174392
 40
0.7529533668
 40
0.8765605676
 40
1.0
 40
1.0
 40
1.0
 40
1.0
 10
9.6736584233
 20
9.3256629087
 30
0.0
 10
9.6736584233
 20
9.329990073
 30
0.0
 10
9.6740715851
 20
9.3386219748
 30
0.0
 10
9.6759400665
 20
9.3514038047
 30
0.0
 10
9.6790383214
 20
9.3638644686
 30
0.0
 10
9.6833383586
 20
9.375887435
 30
0.0
 10
9.6888007387
 20
9.3873618201
 30
0.0
 10
9.6953756713
 20
9.3981816589
 30
0.0
 10
9.7030013048
 20
9.408245593
 30
0.0
 10
9.7087430343
 20
9.4143931854
 30
0.0
 10
9.7117598472
 20
9.4173071788
 30
0.0
  0
SPLINE
  5
2FC
100
AcDbEntity
  8
0
100
AcDbSpline
 62
7
  6
CONTINUOUS
 70
0
 71
3
 72
21
 73
17
 74
0
 42
0.0000001
 43
0.0000001
 44
0.0000000001
 40
0.0
 40
0.0
 40
0.0
 40
0.0
 40
0.1273176366
 40
0.2537999756
 40
0.3167619475
 40
0.3795355041
 40
0.4421314991
 40
0.5045621439
 40
0.5668413432
 40
0.6289845283
 40
0.6910084528
 40
0.7529310935
 40
0.8147714495
 40
0.8765493365
 40
0.9382852194
 40
1.0
 40
1.0
 40
1.0
 40
1.0
 10
10.8478664093
 20
7.3255089246
 30
0.0
 10
10.8478664093
 20
7.3322536788
 30
0.0
 10
10.8485102406
 20
7.3457076182
 30
0.0
 10
10.8509417824
 20
7.3623395941
 30
0.0
 10
10.8538480156
 20
7.3753859253
 30
0.0
 10
10.856498344
 20
7.3850089038
 30
0.0
 10
10.8596162771
 20
7.394460898
 30
0.0
 10
10.8631946706
 20
7.4037203706
 30
0.0
 10
10.8672252477
 20
7.4127659133
 30
0.0
 10
10.8716987701
 20
7.4215766658
 30
0.0
 10
10.8766049472
 20
7.4301322882
 30
0.0
 10
10.8819324361
 20
7.4384130754
 30
0.0
 10
10.8876689659
 20
7.4463998942
 30
0.0
 10
10.893801408
 20
7.454074357
 30
0.0
 10
10.9003153321
 20
7.4614185559
 30
0.0
 10
10.9049031315
 20
7.4660840707
 30
0.0
 10
10.9072546552
 20
7.4683554686
 30
0.0
  0
SPLINE
  5
2FD
100
AcDbEntity
  8
0
100
AcDbSpline
 62
7
  6
CONTINUOUS
 70
0
 71
3
 72
15
 73
11
 74
0
 42
0.0000001
 43
0.0000001
 44
0.0000000001
 40
0.0
 40
0.0
 40
0.0
 40
0.0
 40
0.1273483438
 40
0.2538606048
 40
0.3795878922
 40
0.5046051199
 40
0.6290174392
 40
0.7529533668
 40
0.8765605676
 40
1.0
 40
1.0
 40
1.0
 40
1.0
 10
11.4239160153
 20
7.1516895148
 30
0.0
 10
11.4239160153
 20
7.1560166791
 30
0.0
 10
11.4243291771
 20
7.1646485809
 30
0.0
 10
11.4261976585
 20
7.1774304108
 30
0.0
 10
11.4292959134
 20
7.1898910747
 30
0.0
 10
11.4335959506
 20
7.2019140411
 30
0.0
 10
11.4390583307
 20
7.2133884262
 30
0.0
 10
11.4456332633
 20
7.224208265
 30
0.0
 10
11.4532588968
 20
7.2342721991
 30
0.0
 10
11.4590006263
 20
7.2404197915
 30
0.0
 10
11.4620174392
 20
7.2433337849
 30
0.0
  0
SPLINE
  5
2FE
100
AcDbEntity
  8
0
100
AcDbSpline
 62
7
  6
CONTINUOUS
 70
0
 71
3
 72
25
 73
21
 74
0
 42
0.0000001
 43
0.0000001
 44
0.0000000001
 40
0.0
 40
0.0
 40
0.0
 40
0.0
 40
0.0758366075
 40
0.147848265
 40
0.2162937199
 40
0.2492853721
 40
0.2815133597
 40
0.3438690845
 40
0.4038277369
 40
0.4619060051
 40
0.5186796991
 40
0.5747689878
 40
0.6308190692
 40
0.6874765997
 40
0.7453657951
 40
0.8050685973
 40
0.8671097835
 40
0.8991613066
 40
0.931964609
 40
1.0
 40
1.0
 40
1.0
 40
1.0
 10
10.4194735261
 20
11.352897883
 30
0.0
 10
10.4181400322
 20
11.3516098267
 30
0.0
 10
10.4156099657
 20
11.3490248276
 30
0.0
 10
10.4121579018
 20
11.3450144724
 30
0.0
 10
10.4096237232
 20
11.3416092236
 30
0.0
 10
10.4078317752
 20
11.3388756406
 30
0.0
 10
10.4062302751
 20
11.3361985195
 30
0.0
 10
10.4044992852
 20
11.33283412
 30
0.0
 10
10.4028555266
 20
11.3287343964
 30
0.0
 10
10.4016709543
 20
11.3246201617
 30
0.0
 10
10.4009478434
 20
11.3204957626
 30
0.0
 10
10.4006879863
 20
11.3163658759
 30
0.0
 10
10.4008918717
 20
11.3122356723
 30
0.0
 10
10.4015591517
 20
11.3081103489
 30
0.0
 10
10.4026881336
 20
11.3039946549
 30
0.0
 10
10.4042765998
 20
11.2998929959
 30
0.0
 10
10.4059625787
 20
11.296526138
 30
0.0
 10
10.4075282882
 20
11.2938471046
 30
0.0
 10
10.4092831943
 20
11.2911121851
 30
0.0
 10
10.4107388377
 20
11.2891187373
 30
0.0
 10
10.4117661222
 20
11.2878106186
 30
0.0
  0
SPLINE
  5
2FF
100
AcDbEntity
  8
0
100
AcDbSpline
 62
7
  6
CONTINUOUS
 70
0
 71
3
 72
39
 73
35
 74
0
 42
0.0000001
 43
0.0000001
 44
0.0000000001
 40
0.0
 40
0.0
 40
0.0
 40
0.0
 40
0.0958316688
 40
0.1891006705
 40
0.2792405767
 40
0.3229673483
 40
0.3657111495
 40
0.4074093993
 40
0.4480020282
 40
0.4874317158
 40
0.5256439104
 40
0.562587298
 40
0.5982141002
 40
0.6324801996
 40
0.6653458035
 40
0.696775823
 40
0.726740271
 40
0.7552152757
 40
0.7821837636
 40
0.8076364714
 40
0.8315736871
 40
0.8540068174
 40
0.874960774
 40
0.8944773415
 40
0.9126188285
 40
0.9294730659
 40
0.9451592976
 40
0.9598338074
 40
0.9668558258
 40
0.9737028593
 40
0.9804062749
 40
0.9869996857
 40
0.9935186317
 40
1.0
 40
1.0
 40
1.0
 40
1.0
 10
9.9033432024
 20
9.7370968956
 30
0.0
 10
9.8935758989
 20
9.7377742604
 30
0.0
 10
9.8743165415
 20
9.7393256913
 30
0.0
 10
9.8459391153
 20
9.7422872089
 30
0.0
 10
9.8229235649
 20
9.7452740141
 30
0.0
 10
9.8050808706
 20
9.7479626642
 30
0.0
 10
9.7921609936
 20
9.7500971145
 30
0.0
 10
9.7795893279
 20
9.7523662808
 30
0.0
 10
9.7673868553
 20
9.7547663824
 30
0.0
 10
9.7555739509
 20
9.7572933506
 30
0.0
 10
9.7441703322
 20
9.7599429605
 30
0.0
 10
9.7331950194
 20
9.7627107545
 30
0.0
 10
9.7226662987
 20
9.7655920549
 30
0.0
 10
9.7126017044
 20
9.7685820473
 30
0.0
 10
9.7030179658
 20
9.7716756985
 30
0.0
 10
9.6939309792
 20
9.7748677979
 30
0.0
 10
9.6853557948
 20
9.7781530364
 30
0.0
 10
9.67730655
 20
9.7815259111
 30
0.0
 10
9.669796454
 20
9.7849808116
 30
0.0
 10
9.6628377788
 20
9.7885120959
 30
0.0
 10
9.6564417758
 20
9.792114003
 30
0.0
 10
9.6506186932
 20
9.7957808154
 30
0.0
 10
9.6453777974
 20
9.7995069434
 30
0.0
 10
9.6407273116
 20
9.8032869325
 30
0.0
 10
9.6366746353
 20
9.807115627
 30
0.0
 10
9.6332264651
 20
9.8109885823
 30
0.0
 10
9.6303894624
 20
9.814900837
 30
0.0
 10
9.6285129413
 20
9.8182397066
 30
0.0
 10
9.627343206
 20
9.8209131633
 30
0.0
 10
9.6266349972
 20
9.8228939764
 30
0.0
 10
9.626083617
 20
9.8248786855
 30
0.0
 10
9.6256894848
 20
9.8268664924
 30
0.0
 10
9.6254529062
 20
9.8288562322
 30
0.0
 10
9.6254002649
 20
9.8301850182
 30
0.0
 10
9.6254002695
 20
9.8308471953
 30
0.0
  0
SPLINE
  5
300
100
AcDbEntity
  8
0
100
AcDbSpline
 62
7
  6
CONTINUOUS
 70
0
 71
3
 72
15
 73
11
 74
0
 42
0.0000001
 43
0.0000001
 44
0.0000000001
 40
0.0
 40
0.0
 40
0.0
 40
0.0
 40
0.1273483438
 40
0.2538606048
 40
0.3795878922
 40
0.5046051199
 40
0.6290174392
 40
0.7529533668
 40
0.8765605676
 40
1.0
 40
1.0
 40
1.0
 40
1.0
 10
9.6736584233
 20
7.2730702911
 30
0.0
 10
9.6736584233
 20
7.2773974553
 30
0.0
 10
9.6740715851
 20
7.2860293571
 30
0.0
 10
9.6759400665
 20
7.2988111871
 30
0.0
 10
9.6790383214
 20
7.311271851
 30
0.0
 10
9.6833383586
 20
7.3232948174
 30
0.0
 10
9.6888007387
 20
7.3347692025
 30
0.0
 10
9.6953756713
 20
7.3455890412
 30
0.0
 10
9.7030013048
 20
7.3556529753
 30
0.0
 10
9.7087430343
 20
7.3618005678
 30
0.0
 10
9.7117598472
 20
7.3647145612
 30
0.0
  0
SPLINE
  5
301
100
AcDbEntity
  8
0
100
AcDbSpline
 62
7
  6
CONTINUOUS
 70
0
 71
3
 72
18
 73
14
 74
0
 42
0.0000001
 43
0.0000001
 44
0.0000000001
 40
0.0
 40
0.0
 40
0.0
 40
0.0
 40
0.1480422275
 40
0.2876687894
 40
0.41956339
 40
0.482895051
 40
0.5446365312
 40
0.6638666126
 40
0.7785244778
 40
0.8345987164
 40
0.8900707788
 40
0.9451373495
 40
1.0
 40
1.0
 40
1.0
 40
1.0
 10
10.4282438335
 20
11.3311162651
 30
0.0
 10
10.4267636839
 20
11.3296865502
 30
0.0
 10
10.4239742593
 20
11.3268160559
 30
0.0
 10
10.4202238235
 20
11.3223425158
 30
0.0
 10
10.4175337631
 20
11.3185357525
 30
0.0
 10
10.415681131
 20
11.3154802257
 30
0.0
 10
10.414063173
 20
11.3124931553
 30
0.0
 10
10.412381708
 20
11.308734547
 30
0.0
 10
10.4111540011
 20
11.3048850589
 30
0.0
 10
10.4104725217
 20
11.3018136875
 30
0.0
 10
10.4101098453
 20
11.2995246564
 30
0.0
 10
10.4098922282
 20
11.2972343501
 30
0.0
 10
10.4098438275
 20
11.2957058143
 30
0.0
 10
10.4098438256
 20
11.2949431838
 30
0.0
  0
SPLINE
  5
302
100
AcDbEntity
  8
0
100
AcDbSpline
 62
7
  6
CONTINUOUS
 70
0
 71
3
 72
17
 73
13
 74
0
 42
0.0000001
 43
0.0000001
 44
0.0000000001
 40
0.0
 40
0.0
 40
0.0
 40
0.0
 40
0.0548653882
 40
0.109934811
 40
0.2214348207
 40
0.3360992423
 40
0.4553349631
 40
0.5170793242
 40
0.5804142098
 40
0.7123170268
 40
0.8519526575
 40
1.0
 40
1.0
 40
1.0
 40
1.0
 10
12.3736338046
 20
10.1359919553
 30
0.0
 10
12.3736338009
 20
10.1354623588
 30
0.0
 10
12.373600159
 20
10.1344008578
 30
0.0
 10
12.3733978867
 20
10.1322718943
 30
0.0
 10
12.3728868139
 20
10.129598103
 30
0.0
 10
12.3718712692
 20
10.1264150002
 30
0.0
 10
12.3707036164
 20
10.1238046231
 30
0.0
 10
12.3695800306
 20
10.121730352
 30
0.0
 10
12.3682934834
 20
10.1196084744
 30
0.0
 10
12.3664253879
 20
10.1169649066
 30
0.0
 10
12.3638209269
 20
10.1138583347
 30
0.0
 10
12.3618838666
 20
10.1118649589
 30
0.0
 10
12.3608560162
 20
10.1108721316
 30
0.0
  0
SPLINE
  5
303
100
AcDbEntity
  8
0
100
AcDbSpline
 62
7
  6
CONTINUOUS
 70
0
 71
3
 72
17
 73
13
 74
0
 42
0.0000001
 43
0.0000001
 44
0.0000000001
 40
0.0
 40
0.0
 40
0.0
 40
0.0
 40
0.0548654562
 40
0.1099349142
 40
0.2214349653
 40
0.3360994124
 40
0.4553345578
 40
0.517078735
 40
0.5804135927
 40
0.7123172413
 40
0.8519537007
 40
1.0
 40
1.0
 40
1.0
 40
1.0
 10
12.3736338099
 20
11.3433996988
 30
0.0
 10
12.3736338104
 20
11.3428700949
 30
0.0
 10
12.3736001698
 20
11.3418085794
 30
0.0
 10
12.3733979341
 20
11.3396795842
 30
0.0
 10
12.372886892
 20
11.3370057489
 30
0.0
 10
12.3718713469
 20
11.3338226071
 30
0.0
 10
12.3707037204
 20
11.3312121858
 30
0.0
 10
12.3695801257
 20
11.3291378936
 30
0.0
 10
12.368293573
 20
11.3270159756
 30
0.0
 10
12.366425449
 20
11.3243723571
 30
0.0
 10
12.3638209506
 20
11.3212657416
 30
0.0
 10
12.3618838725
 20
11.3192723365
 30
0.0
 10
12.3608560162
 20
11.3182795035
 30
0.0
  0
SPLINE
  5
304
100
AcDbEntity
  8
0
100
AcDbSpline
 62
7
  6
CONTINUOUS
 70
0
 71
3
 72
23
 73
19
 74
0
 42
0.0000001
 43
0.0000001
 44
0.0000000001
 40
0.0
 40
0.0
 40
0.0
 40
0.0
 40
0.0749618611
 40
0.1455678041
 40
0.2121589218
 40
0.2751620139
 40
0.3350968437
 40
0.3925819213
 40
0.4483281136
 40
0.5031224735
 40
0.5577971527
 40
0.6131904492
 40
0.6701060365
 40
0.7292779135
 40
0.7913516063
 40
0.8568774527
 40
0.9263095509
 40
1.0
 40
1.0
 40
1.0
 40
1.0
 10
12.3300551745
 20
11.3971995295
 30
0.0
 10
12.3310484989
 20
11.3962751295
 30
0.0
 10
12.3329223223
 20
11.3944192188
 30
0.0
 10
12.3354507553
 20
11.3915238127
 30
0.0
 10
12.3376067715
 20
11.3886054088
 30
0.0
 10
12.3393873033
 20
11.3856666622
 30
0.0
 10
12.3407892242
 20
11.3827100669
 30
0.0
 10
12.3418095535
 20
11.3797387344
 30
0.0
 10
12.3424452437
 20
11.3767564224
 30
0.0
 10
12.3426942184
 20
11.3737678985
 30
0.0
 10
12.3425553256
 20
11.3707785769
 30
0.0
 10
12.342029286
 20
11.3677939736
 30
0.0
 10
12.3411178586
 20
11.3648191056
 30
0.0
 10
12.3398240177
 20
11.3618579936
 30
0.0
 10
12.338150685
 20
11.3589139091
 30
0.0
 10
12.3361009387
 20
11.3559893997
 30
0.0
 10
12.3336779219
 20
11.3530872832
 30
0.0
 10
12.3318717255
 20
11.3512265292
 30
0.0
 10
12.3309123138
 20
11.3502998087
 30
0.0
  0
SPLINE
  5
305
100
AcDbEntity
  8
0
100
AcDbSpline
 62
7
  6
CONTINUOUS
 70
0
 71
3
 72
39
 73
35
 74
0
 42
0.0000001
 43
0.0000001
 44
0.0000000001
 40
0.0
 40
0.0
 40
0.0
 40
0.0
 40
0.0071758079
 40
0.0146741357
 40
0.022503624
 40
0.030671441
 40
0.0391835297
 40
0.0480445027
 40
0.0572573755
 40
0.0668240442
 40
0.0767454363
 40
0.0870215068
 40
0.1086328144
 40
0.1316444976
 40
0.1560319006
 40
0.1817621503
 40
0.2087952904
 40
0.2370851496
 40
0.2665801077
 40
0.2972237102
 40
0.3289551658
 40
0.3617097536
 40
0.3954191975
 40
0.4300120549
 40
0.4654140374
 40
0.501548304
 40
0.5383357251
 40
0.5756951818
 40
0.6135438486
 40
0.6903688691
 40
0.7681254643
 40
0.846115686
 40
0.9236386402
 40
1.0
 40
1.0
 40
1.0
 40
1.0
 10
11.9322520313
 20
9.6968724487
 30
0.0
 10
11.9314403334
 20
9.6960884087
 30
0.0
 10
11.9297400878
 20
9.6945264651
 30
0.0
 10
11.9270283707
 20
9.692250719
 30
0.0
 10
11.9241019642
 20
9.6899930156
 30
0.0
 10
11.9209627713
 20
9.6877548382
 30
0.0
 10
11.9176126499
 20
9.6855373884
 30
0.0
 10
11.9140535143
 20
9.683341977
 30
0.0
 10
11.9102874787
 20
9.681169823
 30
0.0
 10
11.9063167737
 20
9.6790222466
 30
0.0
 10
11.9021437528
 20
9.6769005256
 30
0.0
 10
11.8962132733
 20
9.6740598747
 30
0.0
 10
11.888303125
 20
9.6705927401
 30
0.0
 10
11.8782000424
 20
9.6666219027
 30
0.0
 10
11.8673564512
 20
9.6627833419
 30
0.0
 10
11.8557982585
 20
9.6590863179
 30
0.0
 10
11.8435529205
 20
9.6555397823
 30
0.0
 10
11.8306497078
 20
9.6521523255
 30
0.0
 10
11.8171195087
 20
9.648932163
 30
0.0
 10
11.8029947629
 20
9.6458871107
 30
0.0
 10
11.7883093676
 20
9.6430245642
 30
0.0
 10
11.7730986001
 20
9.6403514733
 30
0.0
 10
11.757399027
 20
9.6378743155
 30
0.0
 10
11.7412484048
 20
9.6355990979
 30
0.0
 10
11.7246855834
 20
9.6335313388
 30
0.0
 10
11.707750412
 20
9.6316760554
 30
0.0
 10
11.6904836591
 20
9.6300377476
 30
0.0
 10
11.6729268558
 20
9.6286203519
 30
0.0
 10
11.6490697556
 20
9.6270218666
 30
0.0
 10
11.6188359832
 20
9.6256047312
 30
0.0
 10
11.5822641623
 20
9.6248320593
 30
0.0
 10
11.5455745501
 20
9.6249867595
 30
0.0
 10
11.5091203037
 20
9.6260672569
 30
0.0
 10
11.4849532032
 20
9.6274118695
 30
0.0
 10
11.4729727631
 20
9.6282427158
 30
0.0
  0
SPLINE
  5
306
100
AcDbEntity
  8
0
100
AcDbSpline
 62
7
  6
CONTINUOUS
 70
0
 71
3
 72
41
 73
37
 74
0
 42
0.0000001
 43
0.0000001
 44
0.0000000001
 40
0.0
 40
0.0
 40
0.0
 40
0.0
 40
0.0299421187
 40
0.0449237623
 40
0.0599145134
 40
0.0899291701
 40
0.1200146003
 40
0.1350933624
 40
0.1501974867
 40
0.1804849896
 40
0.2108989845
 40
0.2414526108
 40
0.2721557833
 40
0.3030150127
 40
0.3340333098
 40
0.3652101722
 40
0.3965416482
 40
0.4280204722
 40
0.4596362655
 40
0.4913757931
 40
0.5232232712
 40
0.5551607155
 40
0.5871683244
 40
0.6192248896
 40
0.6513082259
 40
0.6833956162
 40
0.715464263
 40
0.7474917407
 40
0.779456445
 40
0.8113380241
 40
0.8431178121
 40
0.8747791755
 40
0.9063080162
 40
0.9376926983
 40
0.9689252995
 40
1.0
 40
1.0
 40
1.0
 40
1.0
 10
11.6572397646
 20
9.0938144626
 30
0.0
 10
11.6549089146
 20
9.091563053
 30
0.0
 10
11.6512752324
 20
9.0883223801
 30
0.0
 10
11.6461863704
 20
9.0843013803
 30
0.0
 10
11.6409354269
 20
9.0804805078
 30
0.0
 10
11.6340838379
 20
9.0760928727
 30
0.0
 10
11.6268990994
 20
9.0722550057
 30
0.0
 10
11.620973588
 20
9.0695246714
 30
0.0
 10
11.6149256269
 20
9.0670198323
 30
0.0
 10
11.6071664082
 20
9.0643263406
 30
0.0
 10
11.5976043324
 20
9.061816109
 30
0.0
 10
11.5878336167
 20
9.0600377978
 30
0.0
 10
11.5779084028
 20
9.0590012316
 30
0.0
 10
11.5678832134
 20
9.0587119387
 30
0.0
 10
11.5578132093
 20
9.0591713928
 30
0.0
 10
11.5477537376
 20
9.0603769399
 30
0.0
 10
11.5377600704
 20
9.0623218382
 30
0.0
 10
11.5278870946
 20
9.064995294
 30
0.0
 10
11.5181890164
 20
9.0683825264
 30
0.0
 10
11.5087190675
 20
9.0724648495
 30
0.0
 10
11.4995292171
 20
9.0772197772
 30
0.0
 10
11.4906698909
 20
9.0826211474
 30
0.0
 10
11.4821896975
 20
9.0886392657
 30
0.0
 10
11.4741351659
 20
9.0952410669
 30
0.0
 10
11.4665504927
 20
9.1023902962
 30
0.0
 10
11.4594773024
 20
9.1100477056
 30
0.0
 10
11.4529544218
 20
9.1181712682
 30
0.0
 10
11.447017668
 20
9.1267164055
 30
0.0
 10
11.4416996556
 20
9.1356362302
 30
0.0
 10
11.4370296142
 20
9.1448818005
 30
0.0
 10
11.4330332408
 20
9.1544023807
 30
0.0
 10
11.4297325301
 20
9.1641457406
 30
0.0
 10
11.4271457169
 20
9.1740583379
 30
0.0
 10
11.4252870511
 20
9.1840859762
 30
0.0
 10
11.4241669173
 20
9.1941728171
 30
0.0
 10
11.4239160153
 20
9.2009189195
 30
0.0
 10
11.4239160153
 20
9.2042821324
 30
0.0
  0
SPLINE
  5
307
100
AcDbEntity
  8
0
100
AcDbSpline
 62
7
  6
CONTINUOUS
 70
0
 71
3
 72
13
 73
9
 74
0
 42
0.0000001
 43
0.0000001
 44
0.0000000001
 40
0.0
 40
0.0
 40
0.0
 40
0.0
 40
0.1244662258
 40
0.2491292394
 40
0.4988828296
 40
0.749201849
 40
0.8745649076
 40
1.0
 40
1.0
 40
1.0
 40
1.0
 10
10.1933504852
 20
8.4021992786
 30
0.0
 10
10.1897115928
 20
8.400686297
 30
0.0
 10
10.1823452108
 20
8.3978524788
 30
0.0
 10
10.1673156089
 20
8.3929734006
 30
0.0
 10
10.1480357449
 20
8.3883762227
 30
0.0
 10
10.1283564474
 20
8.3858396863
 30
0.0
 10
10.1125033077
 20
8.385059571
 30
0.0
 10
10.1045579574
 20
8.3850871152
 30
0.0
 10
10.1005881451
 20
8.3852053036
 30
0.0
  0
SPLINE
  5
308
100
AcDbEntity
  8
0
100
AcDbSpline
 62
7
  6
CONTINUOUS
 70
0
 71
3
 72
41
 73
37
 74
0
 42
0.0000001
 43
0.0000001
 44
0.0000000001
 40
0.0
 40
0.0
 40
0.0
 40
0.0
 40
0.0299421187
 40
0.0449237623
 40
0.0599145134
 40
0.0899291701
 40
0.1200146003
 40
0.1350933624
 40
0.1501974867
 40
0.1804849896
 40
0.2108989845
 40
0.2414526108
 40
0.2721557833
 40
0.3030150127
 40
0.3340333098
 40
0.3652101722
 40
0.3965416482
 40
0.4280204722
 40
0.4596362655
 40
0.4913757931
 40
0.5232232712
 40
0.5551607155
 40
0.5871683244
 40
0.6192248896
 40
0.6513082259
 40
0.6833956162
 40
0.715464263
 40
0.7474917407
 40
0.779456445
 40
0.8113380241
 40
0.8431178121
 40
0.8747791755
 40
0.9063080162
 40
0.9376926983
 40
0.9689252995
 40
1.0
 40
1.0
 40
1.0
 40
1.0
 10
9.9069821726
 20
9.2151952389
 30
0.0
 10
9.9046513226
 20
9.2129438293
 30
0.0
 10
9.9010176404
 20
9.2097031563
 30
0.0
 10
9.8959287784
 20
9.2056821566
 30
0.0
 10
9.8906778349
 20
9.2018612841
 30
0.0
 10
9.8838262458
 20
9.197473649
 30
0.0
 10
9.8766415074
 20
9.193635782
 30
0.0
 10
9.870715996
 20
9.1909054477
 30
0.0
 10
9.8646680349
 20
9.1884006086
 30
0.0
 10
9.8569088161
 20
9.1857071169
 30
0.0
 10
9.8473467404
 20
9.1831968853
 30
0.0
 10
9.8375760247
 20
9.1814185741
 30
0.0
 10
9.8276508108
 20
9.1803820078
 30
0.0
 10
9.8176256214
 20
9.180092715
 30
0.0
 10
9.8075556173
 20
9.1805521691
 30
0.0
 10
9.7974961455
 20
9.1817577162
 30
0.0
 10
9.7875024784
 20
9.1837026145
 30
0.0
 10
9.7776295026
 20
9.1863760702
 30
0.0
 10
9.7679314243
 20
9.1897633027
 30
0.0
 10
9.7584614755
 20
9.1938456257
 30
0.0
 10
9.7492716251
 20
9.1986005534
 30
0.0
 10
9.7404122989
 20
9.2040019237
 30
0.0
 10
9.7319321055
 20
9.2100200419
 30
0.0
 10
9.7238775739
 20
9.2166218432
 30
0.0
 10
9.7162929007
 20
9.2237710724
 30
0.0
 10
9.7092197104
 20
9.2314284819
 30
0.0
 10
9.7026968297
 20
9.2395520445
 30
0.0
 10
9.6967600759
 20
9.2480971818
 30
0.0
 10
9.6914420635
 20
9.2570170064
 30
0.0
 10
9.6867720222
 20
9.2662625768
 30
0.0
 10
9.6827756488
 20
9.275783157
 30
0.0
 10
9.6794749381
 20
9.2855265169
 30
0.0
 10
9.6768881249
 20
9.2954391142
 30
0.0
 10
9.6750294591
 20
9.3054667525
 30
0.0
 10
9.6739093253
 20
9.3155535933
 30
0.0
 10
9.6736584233
 20
9.3222996957
 30
0.0
 10
9.6736584233
 20
9.3256629087
 30
0.0
  0
SPLINE
  5
309
100
AcDbEntity
  8
0
100
AcDbSpline
 62
7
  6
CONTINUOUS
 70
0
 71
3
 72
41
 73
37
 74
0
 42
0.0000001
 43
0.0000001
 44
0.0000000001
 40
0.0
 40
0.0
 40
0.0
 40
0.0
 40
0.0299421187
 40
0.0449237623
 40
0.0599145134
 40
0.0899291701
 40
0.1200146003
 40
0.1350933624
 40
0.1501974867
 40
0.1804849896
 40
0.2108989845
 40
0.2414526108
 40
0.2721557833
 40
0.3030150127
 40
0.3340333098
 40
0.3652101722
 40
0.3965416482
 40
0.4280204722
 40
0.4596362655
 40
0.4913757931
 40
0.5232232712
 40
0.5551607155
 40
0.5871683244
 40
0.6192248896
 40
0.6513082259
 40
0.6833956162
 40
0.715464263
 40
0.7474917407
 40
0.779456445
 40
0.8113380241
 40
0.8431178121
 40
0.8747791755
 40
0.9063080162
 40
0.9376926983
 40
0.9689252995
 40
1.0
 40
1.0
 40
1.0
 40
1.0
 10
11.6572397646
 20
7.041221845
 30
0.0
 10
11.6549089146
 20
7.0389704354
 30
0.0
 10
11.6512752324
 20
7.0357297624
 30
0.0
 10
11.6461863704
 20
7.0317087627
 30
0.0
 10
11.6409354269
 20
7.0278878902
 30
0.0
 10
11.6340838379
 20
7.0235002551
 30
0.0
 10
11.6268990994
 20
7.0196623881
 30
0.0
 10
11.620973588
 20
7.0169320538
 30
0.0
 10
11.6149256269
 20
7.0144272147
 30
0.0
 10
11.6071664082
 20
7.011733723
 30
0.0
 10
11.5976043324
 20
7.0092234914
 30
0.0
 10
11.5878336167
 20
7.0074451802
 30
0.0
 10
11.5779084028
 20
7.0064086139
 30
0.0
 10
11.5678832134
 20
7.0061193211
 30
0.0
 10
11.5578132093
 20
7.0065787752
 30
0.0
 10
11.5477537376
 20
7.0077843223
 30
0.0
 10
11.5377600704
 20
7.0097292205
 30
0.0
 10
11.5278870946
 20
7.0124026763
 30
0.0
 10
11.5181890164
 20
7.0157899088
 30
0.0
 10
11.5087190675
 20
7.0198722318
 30
0.0
 10
11.4995292171
 20
7.0246271595
 30
0.0
 10
11.4906698909
 20
7.0300285298
 30
0.0
 10
11.4821896975
 20
7.036046648
 30
0.0
 10
11.4741351659
 20
7.0426484493
 30
0.0
 10
11.4665504927
 20
7.0497976785
 30
0.0
 10
11.4594773024
 20
7.057455088
 30
0.0
 10
11.4529544218
 20
7.0655786506
 30
0.0
 10
11.447017668
 20
7.0741237879
 30
0.0
 10
11.4416996556
 20
7.0830436125
 30
0.0
 10
11.4370296142
 20
7.0922891829
 30
0.0
 10
11.4330332408
 20
7.1018097631
 30
0.0
 10
11.4297325301
 20
7.111553123
 30
0.0
 10
11.4271457169
 20
7.1214657203
 30
0.0
 10
11.4252870511
 20
7.1314933586
 30
0.0
 10
11.4241669173
 20
7.1415801994
 30
0.0
 10
11.4239160153
 20
7.1483263018
 30
0.0
 10
11.4239160153
 20
7.1516895148
 30
0.0
  0
SPLINE
  5
30A
100
AcDbEntity
  8
0
100
AcDbSpline
 62
7
  6
CONTINUOUS
 70
0
 71
3
 72
15
 73
11
 74
0
 42
0.0000001
 43
0.0000001
 44
0.0000000001
 40
0.0
 40
0.0
 40
0.0
 40
0.0
 40
0.127235627
 40
0.25370416
 40
0.3794451172
 40
0.504516147
 40
0.6289988031
 40
0.7529936363
 40
0.8766175548
 40
1.0
 40
1.0
 40
1.0
 40
1.0
 10
10.8675366409
 20
7.3445089103
 30
0.0
 10
10.8675366409
 20
7.3506877687
 30
0.0
 10
10.8680771152
 20
7.3630153748
 30
0.0
 10
10.8705208277
 20
7.3813030512
 30
0.0
 10
10.8745764899
 20
7.3991961677
 30
0.0
 10
10.8802133466
 20
7.4165544725
 30
0.0
 10
10.8873880454
 20
7.4332437945
 30
0.0
 10
10.8960457671
 20
7.4491350249
 30
0.0
 10
10.9061182678
 20
7.4641033663
 30
0.0
 10
10.9137326482
 20
7.4733990195
 30
0.0
 10
10.9177435737
 20
7.4778502453
 30
0.0
  0
SPLINE
  5
30B
100
AcDbEntity
  8
0
100
AcDbSpline
 62
7
  6
CONTINUOUS
 70
0
 71
3
 72
41
 73
37
 74
0
 42
0.0000001
 43
0.0000001
 44
0.0000000001
 40
0.0
 40
0.0
 40
0.0
 40
0.0
 40
0.0299421187
 40
0.0449237623
 40
0.0599145134
 40
0.0899291701
 40
0.1200146003
 40
0.1350933624
 40
0.1501974867
 40
0.1804849896
 40
0.2108989845
 40
0.2414526108
 40
0.2721557833
 40
0.3030150127
 40
0.3340333098
 40
0.3652101722
 40
0.3965416482
 40
0.4280204722
 40
0.4596362655
 40
0.4913757931
 40
0.5232232712
 40
0.5551607155
 40
0.5871683244
 40
0.6192248896
 40
0.6513082259
 40
0.6833956162
 40
0.715464263
 40
0.7474917407
 40
0.779456445
 40
0.8113380241
 40
0.8431178121
 40
0.8747791755
 40
0.9063080162
 40
0.9376926983
 40
0.9689252995
 40
1.0
 40
1.0
 40
1.0
 40
1.0
 10
9.9069821726
 20
7.1626026213
 30
0.0
 10
9.9046513226
 20
7.1603512117
 30
0.0
 10
9.9010176404
 20
7.1571105387
 30
0.0
 10
9.8959287784
 20
7.153089539
 30
0.0
 10
9.8906778349
 20
7.1492686665
 30
0.0
 10
9.8838262458
 20
7.1448810313
 30
0.0
 10
9.8766415074
 20
7.1410431644
 30
0.0
 10
9.870715996
 20
7.13831283
 30
0.0
 10
9.8646680349
 20
7.135807991
 30
0.0
 10
9.8569088161
 20
7.1331144992
 30
0.0
 10
9.8473467404
 20
7.1306042676
 30
0.0
 10
9.8375760247
 20
7.1288259564
 30
0.0
 10
9.8276508108
 20
7.1277893902
 30
0.0
 10
9.8176256214
 20
7.1275000973
 30
0.0
 10
9.8075556173
 20
7.1279595514
 30
0.0
 10
9.7974961455
 20
7.1291650986
 30
0.0
 10
9.7875024784
 20
7.1311099968
 30
0.0
 10
9.7776295026
 20
7.1337834526
 30
0.0
 10
9.7679314243
 20
7.137170685
 30
0.0
 10
9.7584614755
 20
7.1412530081
 30
0.0
 10
9.7492716251
 20
7.1460079358
 30
0.0
 10
9.7404122989
 20
7.1514093061
 30
0.0
 10
9.7319321055
 20
7.1574274243
 30
0.0
 10
9.7238775739
 20
7.1640292256
 30
0.0
 10
9.7162929007
 20
7.1711784548
 30
0.0
 10
9.7092197104
 20
7.1788358643
 30
0.0
 10
9.7026968297
 20
7.1869594268
 30
0.0
 10
9.6967600759
 20
7.1955045642
 30
0.0
 10
9.6914420635
 20
7.2044243888
 30
0.0
 10
9.6867720222
 20
7.2136699592
 30
0.0
 10
9.6827756488
 20
7.2231905394
 30
0.0
 10
9.6794749381
 20
7.2329338993
 30
0.0
 10
9.6768881249
 20
7.2428464965
 30
0.0
 10
9.6750294591
 20
7.2528741349
 30
0.0
 10
9.6739093253
 20
7.2629609757
 30
0.0
 10
9.6736584233
 20
7.2697070781
 30
0.0
 10
9.6736584233
 20
7.2730702911
 30
0.0
  0
SPLINE
  5
30C
100
AcDbEntity
  8
0
100
AcDbSpline
 62
7
  6
CONTINUOUS
 70
0
 71
3
 72
42
 73
38
 74
0
 42
0.0000001
 43
0.0000001
 44
0.0000000001
 40
0.0
 40
0.0
 40
0.0
 40
0.0
 40
0.0310372514
 40
0.0466163055
 40
0.0622326845
 40
0.0935717759
 40
0.1250516454
 40
0.1566617588
 40
0.1883889804
 40
0.2202179061
 40
0.2521311668
 40
0.2841097821
 40
0.3161335302
 40
0.3481813364
 40
0.3802316731
 40
0.4122629649
 40
0.4442539951
 40
0.4761843069
 40
0.5080345951
 40
0.5397870821
 40
0.5714258716
 40
0.6029372767
 40
0.6343101127
 40
0.6655359512
 40
0.6966093269
 40
0.7275278917
 40
0.7582925093
 40
0.7889072858
 40
0.8193795295
 40
0.8497196393
 40
0.8648469009
 40
0.8799463429
 40
0.9100647396
 40
0.9400985174
 40
0.9550926983
 40
0.9700734254
 40
1.0
 40
1.0
 40
1.0
 40
1.0
 10
10.8675366409
 20
7.3445089103
 30
0.0
 10
10.8675366409
 20
7.3394057718
 30
0.0
 10
10.8678142968
 20
7.3317374743
 30
0.0
 10
10.8687315529
 20
7.3215448592
 30
0.0
 10
10.8700168343
 20
7.3113416162
 30
0.0
 10
10.8723082749
 20
7.298638728
 30
0.0
 10
10.8761316553
 20
7.2835781243
 30
0.0
 10
10.8810121474
 20
7.26875872
 30
0.0
 10
10.8869241887
 20
7.2542580825
 30
0.0
 10
10.8938369317
 20
7.2401515119
 30
0.0
 10
10.9017143278
 20
7.2265124112
 30
0.0
 10
10.9105153344
 20
7.2134117046
 30
0.0
 10
10.9201941221
 20
7.2009175286
 30
0.0
 10
10.9307003135
 20
7.1890948664
 30
0.0
 10
10.9419792422
 20
7.1780052175
 30
0.0
 10
10.9539722351
 20
7.16770628
 30
0.0
 10
10.9666169147
 20
7.1582516534
 30
0.0
 10
10.9798475199
 20
7.149690562
 30
0.0
 10
10.9935952443
 20
7.1420676007
 30
0.0
 10
11.0077885899
 20
7.1354225041
 30
0.0
 10
11.0223537344
 20
7.1297899405
 30
0.0
 10
11.0372149101
 20
7.1251993311
 30
0.0
 10
11.0522947925
 20
7.1216746955
 30
0.0
 10
11.0675148986
 20
7.1192345246
 30
0.0
 10
11.0827959853
 20
7.1178916791
 30
0.0
 10
11.0980584733
 20
7.1176533235
 30
0.0
 10
11.1132227975
 20
7.1185208592
 30
0.0
 10
11.1282100404
 20
7.1204899943
 30
0.0
 10
11.1429415202
 20
7.1235504411
 30
0.0
 10
11.1549545054
 20
7.1270012406
 30
0.0
 10
11.1643566421
 20
7.1302891262
 30
0.0
 10
11.1735936015
 20
7.1339174188
 30
0.0
 10
11.1848450954
 20
7.1390949789
 30
0.0
 10
11.1956525556
 20
7.1451096658
 30
0.0
 10
11.2039847142
 20
7.1503982805
 30
0.0
 10
11.2120920997
 20
7.1559935347
 30
0.0
 10
11.2179238636
 20
7.1605379669
 30
0.0
 10
11.2216851679
 20
7.1637103666
 30
0.0
  0
SPLINE
  5
30D
100
AcDbEntity
  8
0
100
AcDbSpline
 62
7
  6
CONTINUOUS
 70
0
 71
3
 72
39
 73
35
 74
0
 42
0.0000001
 43
0.0000001
 44
0.0000000001
 40
0.0
 40
0.0
 40
0.0
 40
0.0
 40
0.007175745
 40
0.0146740737
 40
0.0225036116
 40
0.030671472
 40
0.0391835578
 40
0.0480444976
 40
0.0572573741
 40
0.0668240337
 40
0.0767454382
 40
0.0870215229
 40
0.1086328224
 40
0.1316444885
 40
0.1560318876
 40
0.1817621643
 40
0.2087953062
 40
0.2370851424
 40
0.2665800902
 40
0.2972237176
 40
0.3289551842
 40
0.3617097517
 40
0.3954191818
 40
0.4300120556
 40
0.4654140508
 40
0.5015483063
 40
0.5383357156
 40
0.5756951801
 40
0.6135438541
 40
0.6903688654
 40
0.7681254679
 40
0.8461157008
 40
0.9236385661
 40
1.0
 40
1.0
 40
1.0
 40
1.0
 10
11.9023083289
 20
10.9363001258
 30
0.0
 10
11.9015637379
 20
10.9355809061
 30
0.0
 10
11.9000040509
 20
10.9341480908
 30
0.0
 10
11.8975165023
 20
10.9320604762
 30
0.0
 10
11.894832007
 20
10.929989394
 30
0.0
 10
11.8919523085
 20
10.927936234
 30
0.0
 10
11.8888791296
 20
10.9259020929
 30
0.0
 10
11.8856142216
 20
10.9238881683
 30
0.0
 10
11.8821595105
 20
10.9218955922
 30
0.0
 10
11.8785170551
 20
10.9199255381
 30
0.0
 10
11.8746890002
 20
10.9179792143
 30
0.0
 10
11.8692487691
 20
10.9153733941
 30
0.0
 10
11.8619925284
 20
10.9121928755
 30
0.0
 10
11.8527246403
 20
10.9085502897
 30
0.0
 10
11.8427774526
 20
10.905029047
 30
0.0
 10
11.8321747304
 20
10.9016376529
 30
0.0
 10
11.820941673
 20
10.8983842972
 30
0.0
 10
11.8091051321
 20
10.8952768646
 30
0.0
 10
11.7966934317
 20
10.892322898
 30
0.0
 10
11.783736326
 20
10.889529578
 30
0.0
 10
11.7702649205
 20
10.8869036724
 30
0.0
 10
11.7563115809
 20
10.8844515508
 30
0.0
 10
11.7419098426
 20
10.8821791658
 30
0.0
 10
11.7270943354
 20
10.8800920388
 30
0.0
 10
11.711900704
 20
10.8781952201
 30
0.0
 10
11.6963655088
 20
10.8764933029
 30
0.0
 10
11.6805261436
 20
10.8749904216
 30
0.0
 10
11.6644207019
 20
10.8736902011
 30
0.0
 10
11.6425357874
 20
10.8722238649
 30
0.0
 10
11.61480134
 20
10.8709238664
 30
0.0
 10
11.581252788
 20
10.8702150798
 30
0.0
 10
11.5475961941
 20
10.8703569852
 30
0.0
 10
11.5141554993
 20
10.8713481632
 30
0.0
 10
11.4919862146
 20
10.8725816204
 30
0.0
 10
11.4809961469
 20
10.8733437842
 30
0.0
  0
SPLINE
  5
30E
100
AcDbEntity
  8
0
100
AcDbSpline
 62
7
  6
CONTINUOUS
 70
0
 71
3
 72
39
 73
35
 74
0
 42
0.0000001
 43
0.0000001
 44
0.0000000001
 40
0.0
 40
0.0
 40
0.0
 40
0.0
 40
0.007175745
 40
0.0146740737
 40
0.0225036116
 40
0.030671472
 40
0.0391835578
 40
0.0480444976
 40
0.0572573741
 40
0.0668240337
 40
0.0767454382
 40
0.0870215229
 40
0.1086328224
 40
0.1316444885
 40
0.1560318876
 40
0.1817621643
 40
0.2087953062
 40
0.2370851424
 40
0.2665800902
 40
0.2972237176
 40
0.3289551842
 40
0.3617097517
 40
0.3954191818
 40
0.4300120556
 40
0.4654140508
 40
0.5015483063
 40
0.5383357156
 40
0.5756951801
 40
0.6135438541
 40
0.6903688654
 40
0.7681254679
 40
0.8461157008
 40
0.9236385661
 40
1.0
 40
1.0
 40
1.0
 40
1.0
 10
11.9322520313
 20
10.9042798206
 30
0.0
 10
11.9314403405
 20
10.9034957875
 30
0.0
 10
11.9297401004
 20
10.9019338522
 30
0.0
 10
11.9270283832
 20
10.8996581096
 30
0.0
 10
11.9241019711
 20
10.8974003892
 30
0.0
 10
11.9209627649
 20
10.895162206
 30
0.0
 10
11.9176126425
 20
10.8929447557
 30
0.0
 10
11.9140535131
 20
10.8907493437
 30
0.0
 10
11.9102874763
 20
10.8885772041
 30
0.0
 10
11.9063167765
 20
10.886429616
 30
0.0
 10
11.9021437515
 20
10.8843078967
 30
0.0
 10
11.8962132669
 20
10.8814672497
 30
0.0
 10
11.8883031208
 20
10.8780001146
 30
0.0
 10
11.8782000451
 20
10.8740292725
 30
0.0
 10
11.8673564539
 20
10.8701907085
 30
0.0
 10
11.8557982539
 20
10.8664936946
 30
0.0
 10
11.8435529152
 20
10.8629471586
 30
0.0
 10
11.8306497092
 20
10.8595596958
 30
0.0
 10
11.8171195125
 20
10.8563395286
 30
0.0
 10
11.8029947607
 20
10.853294485
 30
0.0
 10
11.7883093622
 20
10.8504319426
 30
0.0
 10
11.7730985996
 20
10.8477588449
 30
0.0
 10
11.7573990302
 20
10.8452816811
 30
0.0
 10
11.7412484046
 20
10.84300647
 30
0.0
 10
11.7246855798
 20
10.840938717
 30
0.0
 10
11.7077504105
 20
10.8390834293
 30
0.0
 10
11.6904836607
 20
10.837445114
 30
0.0
 10
11.6729268565
 20
10.8360277225
 30
0.0
 10
11.649069755
 20
10.8344292455
 30
0.0
 10
11.6188359824
 20
10.833012096
 30
0.0
 10
11.5822641597
 20
10.8322394362
 30
0.0
 10
11.5455745588
 20
10.8323941295
 30
0.0
 10
11.5091203129
 20
10.8334746288
 30
0.0
 10
11.4849532148
 20
10.8348192406
 30
0.0
 10
11.4729727631
 20
10.8356500877
 30
0.0
  0
SPLINE
  5
30F
100
AcDbEntity
  8
0
100
AcDbSpline
 62
7
  6
CONTINUOUS
 70
0
 71
3
 72
34
 73
30
 74
0
 42
0.0000001
 43
0.0000001
 44
0.0000000001
 40
0.0
 40
0.0
 40
0.0
 40
0.0
 40
0.1331901482
 40
0.1997323005
 40
0.2662062221
 40
0.332587397
 40
0.3988428212
 40
0.4649279444
 40
0.530781331
 40
0.5963153423
 40
0.6613998806
 40
0.7258312176
 40
0.7577060424
 40
0.7892725786
 40
0.8204430731
 40
0.851091691
 40
0.881031541
 40
0.9099727804
 40
0.923933482
 40
0.9374455397
 40
0.9503987376
 40
0.9626435613
 40
0.9739841394
 40
0.9792413491
 40
0.9841750126
 40
0.988749637
 40
0.9929288727
 40
0.9966841749
 40
1.0
 40
1.0
 40
1.0
 40
1.0
 10
9.9846305969
 20
8.4048460621
 30
0.0
 10
9.9892154696
 20
8.4022483948
 30
0.0
 10
9.9962495465
 20
8.3986231658
 30
0.0
 10
10.0058841818
 20
8.3943636404
 30
0.0
 10
10.0132229648
 20
8.3914626272
 30
0.0
 10
10.0206609778
 20
8.3888612287
 30
0.0
 10
10.0281829597
 20
8.386565522
 30
0.0
 10
10.0357716736
 20
8.3845820277
 30
0.0
 10
10.0434075563
 20
8.3829177025
 30
0.0
 10
10.051067368
 20
8.38158037
 30
0.0
 10
10.058721634
 20
8.3805794108
 30
0.0
 10
10.065086069
 20
8.3800332377
 30
0.0
 10
10.0701393856
 20
8.3797799847
 30
0.0
 10
10.0738818837
 20
8.3796850334
 30
0.0
 10
10.0775770966
 20
8.3796878422
 30
0.0
 10
10.0812065302
 20
8.3797928295
 30
0.0
 10
10.0847429464
 20
8.3800056868
 30
0.0
 10
10.0876125071
 20
8.3802819037
 30
0.0
 10
10.0898260041
 20
8.3805702188
 30
0.0
 10
10.0914064215
 20
8.3808174717
 30
0.0
 10
10.0929120211
 20
8.3810998232
 30
0.0
 10
10.0943223494
 20
8.381419034
 30
0.0
 10
10.0954227495
 20
8.3817239329
 30
0.0
 10
10.0962312171
 20
8.3819930008
 30
0.0
 10
10.0967777074
 20
8.3822000386
 30
0.0
 10
10.0972740846
 20
8.382417231
 30
0.0
 10
10.0977143142
 20
8.382644405
 30
0.0
 10
10.0980918818
 20
8.3828812034
 30
0.0
 10
10.0983116393
 20
8.3830559928
 30
0.0
 10
10.0984071969
 20
8.3831458784
 30
0.0
  0
SPLINE
  5
310
100
AcDbEntity
  8
0
100
AcDbSpline
 62
7
  6
CONTINUOUS
 70
0
 71
3
 72
31
 73
27
 74
0
 42
0.0000001
 43
0.0000001
 44
0.0000000001
 40
0.0
 40
0.0
 40
0.0
 40
0.0
 40
0.0165871972
 40
0.034153845
 40
0.052730511
 40
0.0723389048
 40
0.0929937081
 40
0.1147031542
 40
0.1374704627
 40
0.1612940074
 40
0.1861684824
 40
0.2120847967
 40
0.2390310689
 40
0.2669923487
 40
0.2959515022
 40
0.3258888278
 40
0.3567828667
 40
0.3886099588
 40
0.4549591512
 40
0.5247176568
 40
0.5976421114
 40
0.6734695769
 40
0.7519200885
 40
0.8326987929
 40
0.9154982726
 40
1.0
 40
1.0
 40
1.0
 40
1.0
 10
9.6391128522
 20
6.1517089444
 30
0.0
 10
9.6402310156
 20
6.1506683844
 30
0.0
 10
9.6426026725
 20
6.1485994573
 30
0.0
 10
9.646435154
 20
6.1456145092
 30
0.0
 10
9.6506386586
 20
6.1426636932
 30
0.0
 10
9.655208693
 20
6.1397499845
 30
0.0
 10
9.6601407031
 20
6.1368763021
 30
0.0
 10
9.665429601
 20
6.1340454933
 30
0.0
 10
9.6710699864
 20
6.1312605323
 30
0.0
 10
9.6770560154
 20
6.1285242247
 30
0.0
 10
9.6833815094
 20
6.1258394943
 30
0.0
 10
9.6900398805
 20
6.123209073
 30
0.0
 10
9.6970242102
 20
6.120635794
 30
0.0
 10
9.7043271992
 20
6.1181222886
 30
0.0
 10
9.7119412277
 20
6.1156712729
 30
0.0
 10
9.719858319
 20
6.1132852651
 30
0.0
 10
9.7280701998
 20
6.1109668215
 30
0.0
 10
9.7395607307
 20
6.1079266811
 30
0.0
 10
9.7546023973
 20
6.104325273
 30
0.0
 10
9.7734420213
 20
6.1003671783
 30
0.0
 10
9.7932345166
 20
6.0967318814
 30
0.0
 10
9.8138968421
 20
6.0934348182
 30
0.0
 10
9.8353424266
 20
6.0904900304
 30
0.0
 10
9.8574813242
 20
6.0879100311
 30
0.0
 10
9.8802205111
 20
6.0857057939
 30
0.0
 10
9.8955804959
 20
6.0845036998
 30
0.0
 10
9.9033432024
 20
6.0839653543
 30
0.0
  0
SPLINE
  5
311
100
AcDbEntity
  8
0
100
AcDbSpline
 62
7
  6
CONTINUOUS
 70
0
 71
3
 72
42
 73
38
 74
0
 42
0.0000001
 43
0.0000001
 44
0.0000000001
 40
0.0
 40
0.0
 40
0.0
 40
0.0
 40
0.0299419663
 40
0.0449235352
 40
0.0599142051
 40
0.0899287052
 40
0.1200139767
 40
0.135092661
 40
0.150196701
 40
0.1804840414
 40
0.210897872
 40
0.2414513324
 40
0.2721543376
 40
0.3030133986
 40
0.3340315263
 40
0.3652082187
 40
0.3965395244
 40
0.4280181782
 40
0.4596338019
 40
0.4913731609
 40
0.5232204716
 40
0.55515775
 40
0.5871651943
 40
0.6192215961
 40
0.6513047701
 40
0.6833919991
 40
0.7154604852
 40
0.7474878032
 40
0.7794523473
 40
0.8113337692
 40
0.8431133916
 40
0.8747746171
 40
0.9063032365
 40
0.9376879249
 40
0.9533258257
 40
0.968925233
 40
1.0
 40
1.0
 40
1.0
 40
1.0
 10
11.2115537004
 20
7.1533219924
 30
0.0
 10
11.2079205633
 20
7.1498126509
 30
0.0
 10
11.2022567282
 20
7.1447612538
 30
0.0
 10
11.1943246151
 20
7.1384936023
 30
0.0
 10
11.1861399212
 20
7.1325378122
 30
0.0
 10
11.1754602224
 20
7.125698644
 30
0.0
 10
11.1642612574
 20
7.1197163597
 30
0.0
 10
11.1550250323
 20
7.1154605021
 30
0.0
 10
11.1455979786
 20
7.1115560405
 30
0.0
 10
11.1335035206
 20
7.1073575731
 30
0.0
 10
11.1185989156
 20
7.1034447145
 30
0.0
 10
11.1033690871
 20
7.1006727295
 30
0.0
 10
11.0878984327
 20
7.0990569207
 30
0.0
 10
11.0722719371
 20
7.0986059085
 30
0.0
 10
11.0565755818
 20
7.0993219894
 30
0.0
 10
11.0408956378
 20
7.1012010271
 30
0.0
 10
11.0253182599
 20
7.1042325127
 30
0.0
 10
11.0099290012
 20
7.1083996222
 30
0.0
 10
10.9948123551
 20
7.1136793162
 30
0.0
 10
10.9800512956
 20
7.12004247
 30
0.0
 10
10.9657268295
 20
7.1274540351
 30
0.0
 10
10.9519175571
 20
7.1358732321
 30
0.0
 10
10.9386992469
 20
7.1452537751
 30
0.0
 10
10.9261444251
 20
7.1555441248
 30
0.0
 10
10.9143219829
 20
7.1666877694
 30
0.0
 10
10.9032968021
 20
7.178623532
 30
0.0
 10
10.8931294032
 20
7.1912859032
 30
0.0
 10
10.8838756165
 20
7.2046053983
 30
0.0
 10
10.8755862781
 20
7.2185089293
 30
0.0
 10
10.868306953
 20
7.2329202183
 30
0.0
 10
10.8620776875
 20
7.2477601505
 30
0.0
 10
10.85693278
 20
7.2629474231
 30
0.0
 10
10.8529006478
 20
7.2783981737
 30
0.0
 10
10.8504832991
 20
7.2914402878
 30
0.0
 10
10.8491272338
 20
7.3019194599
 30
0.0
 10
10.8481594455
 20
7.3123886069
 30
0.0
 10
10.8478664093
 20
7.3202665658
 30
0.0
 10
10.8478664093
 20
7.3255089246
 30
0.0
  0
ELLIPSE
  5
312
100
AcDbEntity
  8
0
100
AcDbEllipse
 62
7
  6
CONTINUOUS
 10
11.0594041778
 20
9.1221595866
 30
0.0
 11
-0.1098434284
 21
0.175018467
 31
0.0
 40
0.9280636666
 41
0.0
 42
6.2831853072
  0
ELLIPSE
  5
313
100
AcDbEntity
  8
0
100
AcDbEllipse
 62
7
  6
CONTINUOUS
 10
10.6372786892
 20
8.6383177177
 30
0.0
 11
0.1492417513
 21
-0.1388265157
 31
0.0
 40
0.9323968193
 41
0.0
 42
6.2831853072
  0
ELLIPSE
  5
314
100
AcDbEntity
  8
0
100
AcDbEllipse
 62
7
  6
CONTINUOUS
 10
10.0632327188
 20
8.2849960437
 30
0.0
 11
0.1802973209
 21
-0.1303427927
 31
0.0
 40
0.9278517187
 41
0.0
 42
6.2831853072
  0
ELLIPSE
  5
315
100
AcDbEntity
  8
0
100
AcDbEllipse
 62
7
  6
CONTINUOUS
 10
10.6375942089
 20
7.852998128
 30
0.0
 11
0.2181278564
 21
-0.0447030929
 31
0.0
 40
0.8076728902
 41
0.0
 42
6.2831853072
  0
ENDSEC
  0
SECTION
  2
OBJECTS
  0
DICTIONARY
  5
C
100
AcDbDictionary
280
0
281
1
  3
ACAD_GROUP
350
D
  3
ACAD_MLINESTYLE
350
17
  3
ACAD_LAYOUT
350
1A
  3
ACAD_PLOTSETTINGS
350
19
  3
ACAD_PLOTSTYLENAME
350
E
  3
ACAD_IMAGE_DICT
350
       317
  3
ACAD_IMAGE_VARS
350
       318
  3
ACAD_TABLESTYLE
350
       319
  0
IMAGEDEF_REACTOR
  5
316
100
AcDbRasterImageDefReactor
 90
2
330
272
  0
DICTIONARY
  5
D
102
{ACAD_REACTORS
330
C
102
}
100
AcDbDictionary
280
0
281
1
  0
ACDBDICTIONARYWDFLT
  5
E
102
{ACAD_REACTORS
330
C
102
}
100
AcDbDictionary
281
1
  3
Normal
350
F
100
AcDbDictionaryWithDefault
340
F
  0
DICTIONARY
  5
317
330
C
100
AcDbDictionary
281
1
  3
Z3P_assy_2_img_1
350
       31C
  0
RASTERVARIABLES
  5
318
330
C
100
AcDbRasterVariables
 90
0
 70
0
 71
1
 72
5
  0
DICTIONARY
  5
17
102
{ACAD_REACTORS
330
C
102
}
100
AcDbDictionary
280
0
281
1
  3
Standard
350
18
  0
DICTIONARY
  5
319
330
C
100
AcDbDictionary
281
1
  3
Standard
350
       31D
  3
Standard1
350
       31E
  0
DICTIONARY
  5
19
102
{ACAD_REACTORS
330
C
102
}
100
AcDbDictionary
281
1
  0
DICTIONARY
  5
1A
102
{ACAD_REACTORS
330
C
102
}
100
AcDbDictionary
281
1
  3
Model
350
31A
  3
Layout1
350
31B
  0
ACDBPLACEHOLDER
  5
F
102
{ACAD_REACTORS
330
E
102
}
  0
MLINESTYLE
  5
18
102
{ACAD_REACTORS
330
17
102
}
100
AcDbMlineStyle
  2
STANDARD
 70
0
  3

 62
256
 51
90.0
 52
90.0
 71
2
 49
0.5
 62
256
  6
BYLAYER
 49
-0.5
 62
256
  6
BYLAYER
  0
LAYOUT
  5
31A
102
{ACAD_REACTORS
330
1A
102
}
100
AcDbPlotSettings
  1

  2
none_device
  4
ANSI_C_(22.00_x_17.00_Inches)
  6

 40
0.0
 41
0.0
 42
0.0
 43
0.0
 44
558.8
 45
431.8
 46
0.0
 47
0.0
 48
0.0
 49
0.0
140
0.0
141
0.0
142
1.0
143
1.0
 70
1024
 72
0
 73
0
 74
0
  7

 75
0
147
1.0
148
0.0
149
0.0
100
AcDbLayout
  1
Model
 70
0
 71
0
 10
0.0
 20
0.0
 11
22.0
 21
17.0
 12
0.0
 22
0.0
 32
0.0
 14
0.0
 24
0.0
 34
0.0
 15
0.0
 25
0.0
 35
0.0
146
0.0
 13
0.0
 23
0.0
 33
0.0
 16
1.0
 26
0.0
 36
0.0
 17
0.0
 27
1.0
 37
0.0
 76
0
330
20F
345
0
346
0
  0
LAYOUT
  5
31B
102
{ACAD_REACTORS
330
1A
102
}
100
AcDbPlotSettings
  1

  2
none_device
  4
ANSI_C_(22.00_x_17.00_Inches)
  6

 40
0.0
 41
0.0
 42
0.0
 43
0.0
 44
558.8
 45
431.8
 46
0.0
 47
0.0
 48
0.0
 49
0.0
140
0.0
141
0.0
142
1.0
143
1.0
 70
0
 72
0
 73
0
 74
0
  7

 75
0
147
1.0
148
0.0
149
0.0
100
AcDbLayout
  1
Layout1
 70
0
 71
1
 10
0.0
 20
0.0
 11
22.0
 21
17.0
 12
0.0
 22
0.0
 32
0.0
 14
0.0
 24
0.0
 34
0.0
 15
0.0
 25
0.0
 35
0.0
146
0.0
 13
0.0
 23
0.0
 33
0.0
 16
1.0
 26
0.0
 36
0.0
 17
0.0
 27
1.0
 37
0.0
 76
0
330
210
345
0
346
0
  0
IMAGEDEF
  5
31C
102
{ACAD_REACTORS
330
317
330
316
102
}
100
AcDbRasterImageDef
 90
0
  1
Z3P_assy_2_img_1.png
 10
369.0
 20
92.0
 11
0.0066666667
 21
0.0066666667
280
1
281
0
  0
TABLESTYLE
  5
31D
102
{ACAD_REACTORS
330
319
330
275
102
}
330
319
100
AcDbTableStyle
  3
Standard
 70
0
 71
0
 40
0.06
 41
0.06
280
1
281
1
  7
Standard
140
0.18
170
1
 62
0
 63
7
283
0
  7
Standard
140
0.18
170
1
 62
0
 63
7
283
0
  7
Standard
140
0.18
170
1
 62
0
 63
7
283
0
  0
TABLESTYLE
  5
31E
102
{ACAD_REACTORS
330
319
330
274
102
}
330
319
100
AcDbTableStyle
  3
Standard1
 70
1
 71
0
 40
0.06
 41
0.06
280
1
281
1
  7
Standard
140
0.18
170
1
 62
0
 63
7
283
0
  7
Standard
140
0.18
170
1
 62
0
 63
7
283
0
  7
Standard
140
0.18
170
1
 62
0
 63
7
283
0
  0
ENDSEC
  0
EOF
