999
DXF file: Z3O_assy_2.dxf
999
Pro/ENGINEER 2014200 by Parametric Technology Corporation
  0
SECTION
  2
HEADER
  9
$ACADVER
  1
AC1021
  9
$DWGCODEPAGE
  3
ANSI_1252
  9
$EXTMAX
 10
22.0
 20
17.0
 30
0.0
  9
$EXTMIN
 10
0.0
 20
0.0
 30
0.0
  9
$LIMMIN
 10
0.0
 20
0.0
  9
$LIMMAX
 10
22.0
 20
17.0
  9
$VIEWCTR
 10
11.0
 20
8.5
  9
$VIEWSIZE
 40
17.0
  9
$CLAYER
  8
0
  9
$LTSCALE
 40
1.21
  9
$CELTYPE
  6
BYLAYER
  9
$DIMSCALE
 40
1.0
  9
$DIMASZ
 40
0.1875
  9
$DIMEXO
 40
0.0625
  9
$DIMDLI
 40
0.836
  9
$DIMEXE
 40
0.125
  9
$DIMCEN
 40
0.198
  9
$DIMLFAC
 40
1.0
  9
$DIMBLK
  1
_FILLED
  9
$DIMTXT
 40
0.1
  9
$DIMTOL
 70
0
  9
$DIMLIM
 70
0
  9
$DIMTFAC
 40
1.0
  9
$DIMGAP
 40
0.09
  9
$DIMDSEP
 70
46
  9
$AUNITS
 70
0
  9
$PDMODE
 70
3
  9
$PDSIZE
 40
0.3125
  9
$HANDSEED
  5
30B
  9
$TILEMODE
 70
1
  9
$MEASUREMENT
 70
0
  9
$INSUNITS
 70
1
  0
ENDSEC
  0
SECTION
  2
CLASSES
  0
CLASS
  1
ACDBDICTIONARYWDFLT
  2
AcDbDictionaryWithDefault
  3
AutoCAD 2000
 90
0
 91
1
280
0
281
0
  0
CLASS
  1
ACDBPLACEHOLDER
  2
AcDbPlaceHolder
  3
AutoCAD 2000
 90
0
 91
1
280
0
281
0
  0
CLASS
  1
LAYOUT
  2
AcDbLayout
  3
AutoCAD 2000
 90
0
 91
0
280
0
281
0
  0
CLASS
  1
RASTERVARIABLES
  2
AcDbRasterVariables
  3
ISM
 90
0
 91
1
280
0
281
0
  0
CLASS
  1
IMAGEDEF
  2
AcDbRasterImageDef
  3
ISM
 90
0
 91
1
280
0
281
0
  0
CLASS
  1
IMAGEDEF_REACTOR
  2
AcDbRasterImageDefReactor
  3
ISM
 90
0
 91
1
280
0
281
0
  0
CLASS
  1
IMAGE
  2
AcDbRasterImage
  3
ISM
 90
127
 91
1
280
0
281
1
  0
CLASS
  1
TABLESTYLE
  2
AcDbTableStyle
  3
ObjectDBX Classes
 90
2047
 91
1
280
0
281
0
  0
CLASS
  1
ACAD_TABLE
  2
AcDbTable
  3
ObjectDBX Classes
 90
1025
 91
2
280
0
281
1
  0
ENDSEC
  0
SECTION
  2
TABLES
  0
TABLE
  2
VPORT
  5
8
100
AcDbSymbolTable
 70
2
  0
VPORT
  5
1F4
100
AcDbSymbolTableRecord
100
AcDbViewportTableRecord
  2
*ACTIVE
 70
0
 10
0.0
 20
0.0
 11
1.0
 21
1.0
 12
11.0
 22
8.5
 13
0.0
 23
0.0
 14
1.0
 24
1.0
 15
0.0
 25
0.0
 16
0.0
 26
0.0
 36
1.0
 17
0.0
 27
0.0
 37
0.0
 40
17.0
 41
1.2941176471
 42
50.0
 43
0.0
 44
0.0
 50
0.0
 51
0.0
 71
0
 72
100
 73
1
 74
1
 75
0
 76
0
 77
0
 78
0
  0
ENDTAB
  0
TABLE
  2
LTYPE
  5
5
100
AcDbSymbolTable
 70
6
  0
LTYPE
  5
14
100
AcDbSymbolTableRecord
100
AcDbLinetypeTableRecord
  2
BYBLOCK
 70
0
  3

 72
65
 73
0
 40
0.0
  0
LTYPE
  5
15
100
AcDbSymbolTableRecord
100
AcDbLinetypeTableRecord
  2
BYLAYER
 70
0
  3

 72
65
 73
0
 40
0.0
  0
LTYPE
  5
16
100
AcDbSymbolTableRecord
100
AcDbLinetypeTableRecord
  2
CONTINUOUS
 70
64
  3
Solid line
 72
65
 73
0
 40
0.0
  0
LTYPE
  5
1F5
100
AcDbSymbolTableRecord
100
AcDbLinetypeTableRecord
  2
CENTER
 70
64
  3
____ _ ____ _ ____ _ ____ _ ____ _ ____ _ ____
 72
65
 73
4
 40
0.6
 49
0.375
 74
0
 49
-0.075
 74
0
 49
0.075
 74
0
 49
-0.075
 74
0
  0
LTYPE
  5
1F6
100
AcDbSymbolTableRecord
100
AcDbLinetypeTableRecord
  2
HIDDEN
 70
64
  3
- - - - - - - - - - - - - - - - - - - -
 72
65
 73
2
 40
0.2
 49
0.1
 74
0
 49
-0.1
 74
0
  0
LTYPE
  5
1F7
100
AcDbSymbolTableRecord
100
AcDbLinetypeTableRecord
  2
PHANTOM
 70
64
  3
_____ _ _ _____ _ _ _____ _ _ _____
 72
65
 73
6
 40
0.8
 49
0.45
 74
0
 49
-0.05
 74
0
 49
0.1
 74
0
 49
-0.05
 74
0
 49
0.1
 74
0
 49
-0.05
 74
0
  0
LTYPE
  5
1F8
100
AcDbSymbolTableRecord
100
AcDbLinetypeTableRecord
  2
DOT
 70
64
  3
. . . . . . . . . . . . . . . . . . . .
 72
65
 73
2
 40
0.2
 49
0.1
 74
0
 49
-0.1
 74
0
  0
LTYPE
  5
1F9
100
AcDbSymbolTableRecord
100
AcDbLinetypeTableRecord
  2
DASHED
 70
64
  3
- - - - - - - - - - - - - - - - - - - -
 72
65
 73
2
 40
0.2
 49
0.1
 74
0
 49
-0.1
 74
0
  0
ENDTAB
  0
TABLE
  2
LAYER
  5
2
100
AcDbSymbolTable
 70
36
  0
LAYER
  5
10
100
AcDbSymbolTableRecord
100
AcDbLayerTableRecord
  2
0
 70
0
 62
7
  6
CONTINUOUS
370
-3
390
F
  0
LAYER
  5
1FA
100
AcDbSymbolTableRecord
100
AcDbLayerTableRecord
  2
DEFAULT_1
 70
0
 62
7
  6
CENTER
370
-3
390
F
  0
LAYER
  5
1FB
100
AcDbSymbolTableRecord
100
AcDbLayerTableRecord
  2
DEFAULT_2
 70
0
 62
8
  6
HIDDEN
370
-3
390
F
  0
LAYER
  5
1FC
100
AcDbSymbolTableRecord
100
AcDbLayerTableRecord
  2
DEFAULT_3
 70
0
 62
7
  6
PHANTOM
370
-3
390
F
  0
LAYER
  5
1FD
100
AcDbSymbolTableRecord
100
AcDbLayerTableRecord
  2
01___PRT_ALL_DTM_PLN
 70
0
 62
7
  6
CONTINUOUS
370
-3
390
F
  0
LAYER
  5
1FE
100
AcDbSymbolTableRecord
100
AcDbLayerTableRecord
  2
01___PRT_DEF_DTM_PLN
 70
0
 62
7
  6
CONTINUOUS
370
-3
390
F
  0
LAYER
  5
1FF
100
AcDbSymbolTableRecord
100
AcDbLayerTableRecord
  2
02___PRT_ALL_AXES
 70
0
 62
7
  6
CONTINUOUS
370
-3
390
F
  0
LAYER
  5
200
100
AcDbSymbolTableRecord
100
AcDbLayerTableRecord
  2
03___PRT_ALL_CURVES
 70
0
 62
7
  6
CONTINUOUS
370
-3
390
F
  0
LAYER
  5
201
100
AcDbSymbolTableRecord
100
AcDbLayerTableRecord
  2
04___PRT_ALL_DTM_PNT
 70
0
 62
7
  6
CONTINUOUS
370
-3
390
F
  0
LAYER
  5
202
100
AcDbSymbolTableRecord
100
AcDbLayerTableRecord
  2
05___PRT_ALL_DTM_CSYS
 70
0
 62
7
  6
CONTINUOUS
370
-3
390
F
  0
LAYER
  5
203
100
AcDbSymbolTableRecord
100
AcDbLayerTableRecord
  2
05___PRT_DEF_DTM_CSYS
 70
0
 62
7
  6
CONTINUOUS
370
-3
390
F
  0
LAYER
  5
204
100
AcDbSymbolTableRecord
100
AcDbLayerTableRecord
  2
06___PRT_ALL_SURFS
 70
0
 62
7
  6
CONTINUOUS
370
-3
390
F
  0
LAYER
  5
205
100
AcDbSymbolTableRecord
100
AcDbLayerTableRecord
  2
DATUM_PLANES
 70
0
 62
7
  6
CONTINUOUS
370
-3
390
F
  0
LAYER
  5
206
100
AcDbSymbolTableRecord
100
AcDbLayerTableRecord
  2
DIMENSIONS
 70
0
 62
7
  6
CONTINUOUS
370
-3
390
F
  0
LAYER
  5
207
100
AcDbSymbolTableRecord
100
AcDbLayerTableRecord
  2
PARAMETERDIMENSIONS
 70
0
 62
7
  6
CONTINUOUS
370
-3
390
F
  0
LAYER
  5
208
100
AcDbSymbolTableRecord
100
AcDbLayerTableRecord
  2
PLANE
 70
0
 62
7
  6
CONTINUOUS
370
-3
390
F
  0
LAYER
  5
209
100
AcDbSymbolTableRecord
100
AcDbLayerTableRecord
  2
PORT_AREAS
 70
0
 62
7
  6
CONTINUOUS
370
-3
390
F
  0
LAYER
  5
20A
100
AcDbSymbolTableRecord
100
AcDbLayerTableRecord
  2
SUNNBOMCOSMETIC
 70
0
 62
7
  6
CONTINUOUS
370
-3
390
F
  0
LAYER
  5
20B
100
AcDbSymbolTableRecord
100
AcDbLayerTableRecord
  2
SUNNBOMSTAMPING
 70
0
 62
7
  6
CONTINUOUS
370
-3
390
F
  0
LAYER
  5
20C
100
AcDbSymbolTableRecord
100
AcDbLayerTableRecord
  2
THREADS
 70
0
 62
7
  6
CONTINUOUS
370
-3
390
F
  0
ENDTAB
  0
TABLE
  2
STYLE
  5
3
100
AcDbSymbolTable
 70
1
  0
STYLE
  5
11
100
AcDbSymbolTableRecord
100
AcDbTextStyleTableRecord
  2
STANDARD
 70
0
 40
0.0
 41
0.8
 50
0.0
 71
0
 42
0.2
  3
txt
  4

  0
STYLE
  5
20D
100
AcDbSymbolTableRecord
100
AcDbTextStyleTableRecord
  2
TEXTSTYLE_1
 70
0
 40
0.0
 41
0.8
 50
0.0
 71
0
 42
0.2
  3
gdt
  4

  0
ENDTAB
  0
TABLE
  2
VIEW
  5
6
100
AcDbSymbolTable
 70
0
  0
ENDTAB
  0
TABLE
  2
UCS
  5
7
100
AcDbSymbolTable
 70
0
  0
ENDTAB
  0
TABLE
  2
APPID
  5
9
100
AcDbSymbolTable
 70
1
  0
APPID
  5
20E
100
AcDbSymbolTableRecord
100
AcDbRegAppTableRecord
  2
ACAD
 70
0
  0
ENDTAB
  0
TABLE
  2
BLOCK_RECORD
  5
1
100
AcDbSymbolTable
 70
0
  0
BLOCK_RECORD
  5
20F
100
AcDbSymbolTableRecord
100
AcDbBlockTableRecord
  2
*Model_Space
  0
BLOCK_RECORD
  5
210
100
AcDbSymbolTableRecord
100
AcDbBlockTableRecord
  2
*Paper_Space
  0
BLOCK_RECORD
  5
211
100
AcDbSymbolTableRecord
100
AcDbBlockTableRecord
  2
SUN_FIRST_THIRD_ANGLE_BL0
  0
BLOCK_RECORD
  5
212
100
AcDbSymbolTableRecord
100
AcDbBlockTableRecord
  2
*T1
  0
BLOCK_RECORD
  5
213
100
AcDbSymbolTableRecord
100
AcDbBlockTableRecord
  2
*T2
  0
ENDTAB
  0
TABLE
  2
DIMSTYLE
  5
A
100
AcDbSymbolTable
 70
1
100
AcDbDimStyleTable
 71
0
  0
DIMSTYLE
105
214
100
AcDbSymbolTableRecord
100
AcDbDimStyleTableRecord
  2
STANDARD
 70
0
  3

  4

 40
1.0
 41
0.1875
 42
0.0625
 43
0.38
 44
0.125
 45
0.0
 46
0.0
 47
0.001
 48
0.001
140
0.1
141
0.09
142
0.0
143
25.4
144
1.0
145
0.0
146
1.0
147
0.09
 71
0.0
 72
0.0
 73
1
 74
1
 75
0
 76
0
 77
0
 78
4
170
0
171
2
172
0
173
0
174
0
175
0
176
0
177
0
178
0
270
2
271
3
272
3
273
2
274
2
275
0
280
0
281
0
282
0
283
1
284
4
285
0
286
0
287
3
288
0
340
11
278
46
  0
ENDTAB
  0
ENDSEC
  0
SECTION
  2
BLOCKS
  0
BLOCK
  5
20
100
AcDbEntity
  8
0
100
AcDbBlockBegin
  2
*Model_Space
 70
0
 10
0.0
 20
0.0
 30
0.0
  3
*Model_Space
  1

  0
ENDBLK
  5
21
100
AcDbEntity
  8
0
100
AcDbBlockEnd
  0
BLOCK
  5
1C
100
AcDbEntity
  8
0
100
AcDbBlockBegin
  2
*Paper_Space
 70
0
 10
0.0
 20
0.0
 30
0.0
  3
*Paper_Space
  1

  0
ENDBLK
  5
1D
100
AcDbEntity
  8
0
100
AcDbBlockEnd
  0
BLOCK
  5
215
100
AcDbEntity
  8
0
100
AcDbBlockBegin
 62
2
  6
CONTINUOUS
  2
SUN_FIRST_THIRD_ANGLE_BL0
 70
64
 10
20.4816717061
 20
1.2289683772
  3
SUN_FIRST_THIRD_ANGLE_BL0
  1

  0
TEXT
  5
216
100
AcDbEntity
  8
0
100
AcDbText
 62
2
  6
CONTINUOUS
 10
19.4750896608
 20
1.4136269581
  7
STANDARD
 40
0.08
  1
FIRST ANGLE
 41
0.8
 72
0
100
AcDbText
  0
TEXT
  5
217
100
AcDbEntity
  8
0
100
AcDbText
 62
2
  6
CONTINUOUS
 10
20.7842537513
 20
1.4047600029
  7
STANDARD
 40
0.08
  1
THIRD ANGLE
 41
0.8
 72
0
100
AcDbText
  0
LINE
  5
218
100
AcDbEntity
  8
0
100
AcDbLine
 62
7
  6
CONTINUOUS
 10
19.4767170086
 20
1.1727031207
 11
19.6334271527
 21
1.1717972817
  0
LINE
  5
219
100
AcDbEntity
  8
0
100
AcDbLine
 62
7
  6
CONTINUOUS
 10
19.6596964832
 20
1.1717972817
 11
19.6950230232
 21
1.171593082
  0
LINE
  5
21A
100
AcDbEntity
  8
0
100
AcDbLine
 62
7
  6
CONTINUOUS
 10
19.7194818561
 20
1.1708914427
 11
19.8852396156
 21
1.1699333054
  0
LINE
  5
21B
100
AcDbEntity
  8
0
100
AcDbLine
 62
7
  6
CONTINUOUS
 10
19.4758111696
 20
1.2723454088
 11
19.88525039
 21
1.3511534004
  0
LINE
  5
21C
100
AcDbEntity
  8
0
100
AcDbLine
 62
7
  6
CONTINUOUS
 10
19.88525039
 20
1.3511534004
 11
19.8831348489
 21
0.9851647912
  0
LINE
  5
21D
100
AcDbEntity
  8
0
100
AcDbLine
 62
7
  6
CONTINUOUS
 10
19.8831348489
 20
0.9851647912
 11
19.4767170086
 21
1.0658141206
  0
LINE
  5
21E
100
AcDbEntity
  8
0
100
AcDbLine
 62
7
  6
CONTINUOUS
 10
19.4767170086
 20
1.0658141206
 11
19.4779056764
 21
1.2714536432
  0
CIRCLE
  5
21F
100
AcDbEntity
  8
0
100
AcDbCircle
 62
7
  6
CONTINUOUS
 10
20.2068232291
 20
1.1717972817
 40
0.175742101
  0
CIRCLE
  5
220
100
AcDbEntity
  8
0
100
AcDbCircle
 62
7
  6
CONTINUOUS
 10
20.2068232291
 20
1.1717972817
 40
0.1005522074
  0
LINE
  5
221
100
AcDbEntity
  8
0
100
AcDbLine
 62
7
  6
CONTINUOUS
 10
20.2077290681
 20
1.3756110529
 11
20.2071171714
 21
1.2379342989
  0
LINE
  5
222
100
AcDbEntity
  8
0
100
AcDbLine
 62
7
  6
CONTINUOUS
 10
20.2077290681
 20
1.2016899681
 11
20.2074674401
 21
1.1428236749
  0
LINE
  5
223
100
AcDbEntity
  8
0
100
AcDbLine
 62
7
  6
CONTINUOUS
 10
20.208634907
 20
1.101141841
 11
20.2080230104
 21
0.963465087
  0
LINE
  5
224
100
AcDbEntity
  8
0
100
AcDbLine
 62
7
  6
CONTINUOUS
 10
20.0066328138
 20
1.1745147986
 11
20.1443095678
 21
1.1739029019
  0
LINE
  5
225
100
AcDbEntity
  8
0
100
AcDbLine
 62
7
  6
CONTINUOUS
 10
20.1832714155
 20
1.1727031207
 11
20.238153505
 21
1.172335442
  0
LINE
  5
226
100
AcDbEntity
  8
0
100
AcDbLine
 62
7
  6
CONTINUOUS
 10
20.2756669918
 20
1.1717972817
 11
20.407916871
 21
1.1712095044
  0
CIRCLE
  5
227
100
AcDbEntity
  8
0
100
AcDbCircle
 62
7
  6
CONTINUOUS
 10
20.7509457401
 20
1.1693297793
 40
0.1722024983
  0
CIRCLE
  5
228
100
AcDbEntity
  8
0
100
AcDbCircle
 62
7
  6
CONTINUOUS
 10
20.7509457401
 20
1.1693297793
 40
0.0985164967
  0
LINE
  5
229
100
AcDbEntity
  8
0
100
AcDbLine
 62
7
  6
CONTINUOUS
 10
20.7169767782
 20
1.170462078
 11
20.7825395137
 21
1.1682766535
  0
LINE
  5
22A
100
AcDbEntity
  8
0
100
AcDbLine
 62
7
  6
CONTINUOUS
 10
20.8177513651
 20
1.1693297793
 11
20.947965719
 21
1.1693297793
  0
LINE
  5
22B
100
AcDbEntity
  8
0
100
AcDbLine
 62
7
  6
CONTINUOUS
 10
20.6875370113
 20
1.170462078
 11
20.5573226574
 21
1.170462078
  0
LINE
  5
22C
100
AcDbEntity
  8
0
100
AcDbLine
 62
7
  6
CONTINUOUS
 10
20.7486811426
 20
1.1987695462
 11
20.7486811426
 21
1.1432869085
  0
LINE
  5
22D
100
AcDbEntity
  8
0
100
AcDbLine
 62
7
  6
CONTINUOUS
 10
20.7498134414
 20
1.1059210505
 11
20.7498134414
 21
0.9757066966
  0
LINE
  5
22E
100
AcDbEntity
  8
0
100
AcDbLine
 62
7
  6
CONTINUOUS
 10
20.7486811426
 20
1.2338708068
 11
20.7486811426
 21
1.3640851607
  0
LINE
  5
22F
100
AcDbEntity
  8
0
100
AcDbLine
 62
7
  6
CONTINUOUS
 10
21.0702539817
 20
1.2701043662
 11
21.4790138229
 21
1.3448360823
  0
LINE
  5
230
100
AcDbEntity
  8
0
100
AcDbLine
 62
7
  6
CONTINUOUS
 10
21.4790138229
 20
1.3448360823
 11
21.4790138229
 21
0.9779712941
  0
LINE
  5
231
100
AcDbEntity
  8
0
100
AcDbLine
 62
7
  6
CONTINUOUS
 10
21.4790138229
 20
0.9779712941
 11
21.069121683
 21
1.0617614
  0
LINE
  5
232
100
AcDbEntity
  8
0
100
AcDbLine
 62
7
  6
CONTINUOUS
 10
21.0702539817
 20
1.2701043662
 11
21.069121683
 21
1.0617614
  0
LINE
  5
233
100
AcDbEntity
  8
0
100
AcDbLine
 62
7
  6
CONTINUOUS
 10
21.4790138229
 20
1.1693297793
 11
21.3159628059
 21
1.1693297793
  0
LINE
  5
234
100
AcDbEntity
  8
0
100
AcDbLine
 62
7
  6
CONTINUOUS
 10
21.2876553377
 20
1.1693297793
 11
21.2502894796
 21
1.1693297793
  0
LINE
  5
235
100
AcDbEntity
  8
0
100
AcDbLine
 62
7
  6
CONTINUOUS
 10
21.2208497126
 20
1.1659328831
 11
21.0713862804
 21
1.1659328831
  0
LINE
  5
236
100
AcDbEntity
  8
0
100
AcDbLine
 62
7
  6
CONTINUOUS
 10
20.4796138713
 20
1.5284908897
 11
20.4766766948
 21
0.9294458646
  0
ENDBLK
  5
237
100
AcDbEntity
  8
0
  6
BYBLOCK
 62
0
100
AcDbBlockEnd
  0
BLOCK
  5
238
100
AcDbEntity
  8
0
100
AcDbBlockBegin
  2
*T1
 70
1
 10
0.0
 20
0.0
  3
*T1
  1

  0
LINE
  5
239
100
AcDbEntity
  8
0
100
AcDbLine
 62
2
  6
CONTINUOUS
 10
9.275
 20
0.0
 11
-0.0
 21
0.0
  0
LINE
  5
23A
100
AcDbEntity
  8
0
100
AcDbLine
 62
2
  6
CONTINUOUS
 10
9.275
 20
0.0
 11
9.275
 21
1.25
  0
LINE
  5
23B
100
AcDbEntity
  8
0
100
AcDbLine
 62
2
  6
CONTINUOUS
 10
9.275
 20
0.625
 11
-0.0
 21
0.625
  0
LINE
  5
23C
100
AcDbEntity
  8
0
100
AcDbLine
 62
2
  6
CONTINUOUS
 10
9.275
 20
1.25
 11
-0.0
 21
1.25
  0
LINE
  5
23D
100
AcDbEntity
  8
0
100
AcDbLine
 62
2
  6
CONTINUOUS
 10
6.8
 20
0.0
 11
6.8
 21
1.25
  0
LINE
  5
23E
100
AcDbEntity
  8
0
100
AcDbLine
 62
2
  6
CONTINUOUS
 10
6.4
 20
0.0
 11
6.4
 21
0.625
  0
LINE
  5
23F
100
AcDbEntity
  8
0
100
AcDbLine
 62
2
  6
CONTINUOUS
 10
5.9
 20
0.0
 11
5.9
 21
0.625
  0
LINE
  5
240
100
AcDbEntity
  8
0
100
AcDbLine
 62
2
  6
CONTINUOUS
 10
5.2
 20
0.0
 11
5.2
 21
0.625
  0
LINE
  5
241
100
AcDbEntity
  8
0
100
AcDbLine
 62
2
  6
CONTINUOUS
 10
4.1
 20
0.0
 11
4.1
 21
1.25
  0
LINE
  5
242
100
AcDbEntity
  8
0
100
AcDbLine
 62
2
  6
CONTINUOUS
 10
-0.0
 20
0.0
 11
-0.0
 21
1.25
  0
MTEXT
  5
243
100
AcDbEntity
  8
0
100
AcDbMText
 62
2
  6
CONTINUOUS
  7
STANDARD
 71
2
 72
1
 10
6.6
 20
0.325
 30
0.0
 11
1.0
 21
0.0
 31
0.0
 44
0.9
  1
2
 40
0.125
 41
0.2
  0
MTEXT
  5
244
100
AcDbEntity
  8
0
100
AcDbMText
 62
2
  6
CONTINUOUS
  7
STANDARD
 71
2
 72
1
 10
6.15
 20
0.325
 30
0.0
 11
1.0
 21
0.0
 31
0.0
 44
0.9
  1
C
 40
0.125
 41
0.2
  0
MTEXT
  5
245
100
AcDbEntity
  8
0
100
AcDbMText
 62
2
  6
CONTINUOUS
  7
STANDARD
 71
2
 72
1
 10
5.55
 20
0.325
 30
0.0
 11
1.0
 21
0.0
 31
0.0
 44
0.9
  1
2.000
 40
0.125
 41
1.0
  0
MTEXT
  5
246
100
AcDbEntity
  8
0
100
AcDbMText
 62
2
  6
CONTINUOUS
  7
STANDARD
 71
2
 72
1
 10
4.65
 20
0.325
 30
0.0
 11
1.0
 21
0.0
 31
0.0
 44
0.9
  1
Oct-29-20
 40
0.125
 41
1.8
  0
MTEXT
  5
247
100
AcDbEntity
  8
0
100
AcDbMText
 62
2
  6
CONTINUOUS
  7
STANDARD
 71
2
 72
1
 10
2.05
 20
0.4625
 30
0.0
 11
1.0
 21
0.0
 31
0.0
 44
0.9
  1
T-11A Sandwich ISO 03\P(See Technical Data for Body Features)
 40
0.125
 41
7.6
  0
MTEXT
  5
248
100
AcDbEntity
  8
0
100
AcDbMText
 62
2
  6
CONTINUOUS
  7
STANDARD
 71
1
 72
1
 10
6.45
 20
0.5625
 30
0.0
 11
1.0
 21
0.0
 31
0.0
 44
0.9
  1
SHEET
 40
0.06
 41
0.48
  0
MTEXT
  5
249
100
AcDbEntity
  8
0
100
AcDbMText
 62
2
  6
CONTINUOUS
  7
STANDARD
 71
1
 72
1
 10
5.95
 20
0.5625
 30
0.0
 11
1.0
 21
0.0
 31
0.0
 44
0.9
  1
DWG SIZE
 40
0.06
 41
0.768
  0
MTEXT
  5
24A
100
AcDbEntity
  8
0
100
AcDbMText
 62
2
  6
CONTINUOUS
  7
STANDARD
 71
1
 72
1
 10
5.25
 20
0.5625
 30
0.0
 11
1.0
 21
0.0
 31
0.0
 44
0.9
  1
SCALE
 40
0.06
 41
0.48
  0
MTEXT
  5
24B
100
AcDbEntity
  8
0
100
AcDbMText
 62
2
  6
CONTINUOUS
  7
STANDARD
 71
1
 72
1
 10
4.15
 20
0.5625
 30
0.0
 11
1.0
 21
0.0
 31
0.0
 44
0.9
  1
DATE
 40
0.06
 41
0.384
  0
MTEXT
  5
24C
100
AcDbEntity
  8
0
100
AcDbMText
 62
2
  6
CONTINUOUS
  7
STANDARD
 71
1
 72
1
 10
0.05
 20
0.5625
 30
0.0
 11
1.0
 21
0.0
 31
0.0
 44
0.9
  1
DESCRIPTION
 40
0.06
 41
1.056
  0
MTEXT
  5
24D
100
AcDbEntity
  8
0
100
AcDbMText
 62
2
  6
CONTINUOUS
  7
STANDARD
 71
2
 72
1
 10
5.45
 20
1.0375
 30
0.0
 11
1.0
 21
0.0
 31
0.0
 44
0.9
  1
ALL DIMENSIONS IN INCH\PVIEWS ARE THIRD ANGLE
 40
0.12
 41
4.224
  0
MTEXT
  5
24E
100
AcDbEntity
  8
0
100
AcDbMText
 62
2
  6
CONTINUOUS
  7
STANDARD
 71
2
 72
1
 10
2.05
 20
0.95
 30
0.0
 11
1.0
 21
0.0
 31
0.0
 44
0.9
  1
Z3O
 40
0.125
 41
0.6
  0
MTEXT
  5
24F
100
AcDbEntity
  8
0
100
AcDbMText
 62
2
  6
CONTINUOUS
  7
STANDARD
 71
1
 72
1
 10
0.05
 20
1.1875
 30
0.0
 11
1.0
 21
0.0
 31
0.0
 44
0.9
  1
MODEL
 40
0.06
 41
0.48
  0
ENDBLK
  5
250
100
AcDbEntity
  8
0
  6
BYBLOCK
 62
0
100
AcDbBlockEnd
  0
BLOCK
  5
251
100
AcDbEntity
  8
0
100
AcDbBlockBegin
  2
*T2
 70
1
 10
0.0
 20
0.0
  3
*T2
  1

  0
LINE
  5
252
100
AcDbEntity
  8
0
100
AcDbLine
 62
2
  6
CONTINUOUS
 10
0.0
 20
0.0
 11
9.055
 21
0.0
  0
LINE
  5
253
100
AcDbEntity
  8
0
100
AcDbLine
 62
2
  6
CONTINUOUS
 10
0.0
 20
0.0
 11
0.0
 21
-2.344
  0
LINE
  5
254
100
AcDbEntity
  8
0
100
AcDbLine
 62
2
  6
CONTINUOUS
 10
0.0
 20
-0.344
 11
9.055
 21
-0.344
  0
LINE
  5
255
100
AcDbEntity
  8
0
100
AcDbLine
 62
2
  6
CONTINUOUS
 10
0.0
 20
-0.594
 11
9.055
 21
-0.594
  0
LINE
  5
256
100
AcDbEntity
  8
0
100
AcDbLine
 62
2
  6
CONTINUOUS
 10
0.0
 20
-0.844
 11
9.055
 21
-0.844
  0
LINE
  5
257
100
AcDbEntity
  8
0
100
AcDbLine
 62
2
  6
CONTINUOUS
 10
0.0
 20
-1.094
 11
9.055
 21
-1.094
  0
LINE
  5
258
100
AcDbEntity
  8
0
100
AcDbLine
 62
2
  6
CONTINUOUS
 10
0.0
 20
-1.344
 11
9.055
 21
-1.344
  0
LINE
  5
259
100
AcDbEntity
  8
0
100
AcDbLine
 62
2
  6
CONTINUOUS
 10
0.0
 20
-1.594
 11
9.055
 21
-1.594
  0
LINE
  5
25A
100
AcDbEntity
  8
0
100
AcDbLine
 62
2
  6
CONTINUOUS
 10
0.0
 20
-1.844
 11
9.055
 21
-1.844
  0
LINE
  5
25B
100
AcDbEntity
  8
0
100
AcDbLine
 62
2
  6
CONTINUOUS
 10
0.0
 20
-2.094
 11
9.055
 21
-2.094
  0
LINE
  5
25C
100
AcDbEntity
  8
0
100
AcDbLine
 62
2
  6
CONTINUOUS
 10
0.0
 20
-2.344
 11
9.055
 21
-2.344
  0
LINE
  5
25D
100
AcDbEntity
  8
0
100
AcDbLine
 62
2
  6
CONTINUOUS
 10
3.055
 20
0.0
 11
3.055
 21
-2.344
  0
LINE
  5
25E
100
AcDbEntity
  8
0
100
AcDbLine
 62
2
  6
CONTINUOUS
 10
9.055
 20
0.0
 11
9.055
 21
-2.344
  0
MTEXT
  5
25F
100
AcDbEntity
  8
0
100
AcDbMText
 62
2
  6
CONTINUOUS
  7
STANDARD
 71
2
 72
1
 10
1.5275
 20
-0.0995
 30
0.0
 11
1.0
 21
0.0
 31
0.0
 44
0.9
  1
Technical Data
 40
0.145
 41
3.248
  0
MTEXT
  5
260
100
AcDbEntity
  8
0
100
AcDbMText
 62
2
  6
CONTINUOUS
  7
STANDARD
 71
2
 72
1
 10
4.555
 20
-0.0995
 30
0.0
 11
1.0
 21
0.0
 31
0.0
 44
0.9
  1
U.S. Units
 40
0.145
 41
2.32
  0
MTEXT
  5
261
100
AcDbEntity
  8
0
100
AcDbMText
 62
2
  6
CONTINUOUS
  7
STANDARD
 71
2
 72
1
 10
7.555
 20
-0.0995
 30
0.0
 11
1.0
 21
0.0
 31
0.0
 44
0.9
  1
Metric Units
 40
0.145
 41
2.784
  0
MTEXT
  5
262
100
AcDbEntity
  8
0
100
AcDbMText
 62
2
  6
CONTINUOUS
  7
STANDARD
 71
2
 72
1
 10
1.5275
 20
-0.4065
 30
0.0
 11
1.0
 21
0.0
 31
0.0
 44
0.9
  1
Cavity
 40
0.125
 41
1.2
  0
MTEXT
  5
263
100
AcDbEntity
  8
0
100
AcDbMText
 62
2
  6
CONTINUOUS
  7
STANDARD
 71
2
 72
1
 10
6.055
 20
-0.4065
 30
0.0
 11
1.0
 21
0.0
 31
0.0
 44
0.9
  1
T-11A
 40
0.125
 41
1.0
  0
MTEXT
  5
264
100
AcDbEntity
  8
0
100
AcDbMText
 62
2
  6
CONTINUOUS
  7
STANDARD
 71
2
 72
1
 10
1.5275
 20
-0.6565
 30
0.0
 11
1.0
 21
0.0
 31
0.0
 44
0.9
  1
Body Features
 40
0.125
 41
2.6
  0
MTEXT
  5
265
100
AcDbEntity
  8
0
100
AcDbMText
 62
2
  6
CONTINUOUS
  7
STANDARD
 71
2
 72
1
 10
6.055
 20
-0.6565
 30
0.0
 11
1.0
 21
0.0
 31
0.0
 44
0.9
  1
Priority flow control on B with reverse flow check
 40
0.125
 41
10.0
  0
MTEXT
  5
266
100
AcDbEntity
  8
0
100
AcDbMText
 62
2
  6
CONTINUOUS
  7
STANDARD
 71
2
 72
1
 10
1.5275
 20
-0.9065
 30
0.0
 11
1.0
 21
0.0
 31
0.0
 44
0.9
  1
Body Type
 40
0.125
 41
1.8
  0
MTEXT
  5
267
100
AcDbEntity
  8
0
100
AcDbMText
 62
2
  6
CONTINUOUS
  7
STANDARD
 71
2
 72
1
 10
6.055
 20
-0.9065
 30
0.0
 11
1.0
 21
0.0
 31
0.0
 44
0.9
  1
Sandwich
 40
0.125
 41
1.6
  0
MTEXT
  5
268
100
AcDbEntity
  8
0
100
AcDbMText
 62
2
  6
CONTINUOUS
  7
STANDARD
 71
2
 72
1
 10
1.5275
 20
-1.1565
 30
0.0
 11
1.0
 21
0.0
 31
0.0
 44
0.9
  1
Interface
 40
0.125
 41
1.8
  0
MTEXT
  5
269
100
AcDbEntity
  8
0
100
AcDbMText
 62
2
  6
CONTINUOUS
  7
STANDARD
 71
2
 72
1
 10
6.055
 20
-1.1565
 30
0.0
 11
1.0
 21
0.0
 31
0.0
 44
0.9
  1
ISO 03
 40
0.125
 41
1.2
  0
MTEXT
  5
26A
100
AcDbEntity
  8
0
100
AcDbMText
 62
2
  6
CONTINUOUS
  7
STANDARD
 71
2
 72
1
 10
1.5275
 20
-1.4065
 30
0.0
 11
1.0
 21
0.0
 31
0.0
 44
0.9
  1
Open Cavity Quantity
 40
0.125
 41
4.0
  0
MTEXT
  5
26B
100
AcDbEntity
  8
0
100
AcDbMText
 62
2
  6
CONTINUOUS
  7
STANDARD
 71
2
 72
1
 10
6.055
 20
-1.4065
 30
0.0
 11
1.0
 21
0.0
 31
0.0
 44
0.9
  1
1
 40
0.125
 41
0.2
  0
MTEXT
  5
26C
100
AcDbEntity
  8
0
100
AcDbMText
 62
2
  6
CONTINUOUS
  7
STANDARD
 71
2
 72
1
 10
1.5275
 20
-1.6565
 30
0.0
 11
1.0
 21
0.0
 31
0.0
 44
0.9
  1
Stack Height
 40
0.125
 41
2.4
  0
MTEXT
  5
26D
100
AcDbEntity
  8
0
100
AcDbMText
 62
2
  6
CONTINUOUS
  7
STANDARD
 71
2
 72
1
 10
4.555
 20
-1.6565
 30
0.0
 11
1.0
 21
0.0
 31
0.0
 44
0.9
  1
2.49 in.
 40
0.125
 41
1.6
  0
MTEXT
  5
26E
100
AcDbEntity
  8
0
100
AcDbMText
 62
2
  6
CONTINUOUS
  7
STANDARD
 71
2
 72
1
 10
7.555
 20
-1.6565
 30
0.0
 11
1.0
 21
0.0
 31
0.0
 44
0.9
  1
63 mm
 40
0.125
 41
1.0
  0
MTEXT
  5
26F
100
AcDbEntity
  8
0
100
AcDbMText
 62
2
  6
CONTINUOUS
  7
STANDARD
 71
2
 72
1
 10
1.5275
 20
-1.9065
 30
0.0
 11
1.0
 21
0.0
 31
0.0
 44
0.9
  1
Weight
 40
0.125
 41
1.2
  0
MTEXT
  5
270
100
AcDbEntity
  8
0
100
AcDbMText
 62
2
  6
CONTINUOUS
  7
STANDARD
 71
2
 72
1
 10
4.555
 20
-1.9065
 30
0.0
 11
1.0
 21
0.0
 31
0.0
 44
0.9
  1
1.517 lb.
 40
0.125
 41
1.8
  0
MTEXT
  5
271
100
AcDbEntity
  8
0
100
AcDbMText
 62
2
  6
CONTINUOUS
  7
STANDARD
 71
2
 72
1
 10
7.555
 20
-1.9065
 30
0.0
 11
1.0
 21
0.0
 31
0.0
 44
0.9
  1
0,688 kg.
 40
0.125
 41
1.8
  0
MTEXT
  5
272
100
AcDbEntity
  8
0
100
AcDbMText
 62
2
  6
CONTINUOUS
  7
STANDARD
 71
2
 72
1
 10
1.5275
 20
-2.1565
 30
0.0
 11
1.0
 21
0.0
 31
0.0
 44
0.9
  1
Seal Plate Included (see notes)
 40
0.125
 41
6.2
  0
MTEXT
  5
273
100
AcDbEntity
  8
0
100
AcDbMText
 62
2
  6
CONTINUOUS
  7
STANDARD
 71
2
 72
1
 10
6.055
 20
-2.1565
 30
0.0
 11
1.0
 21
0.0
 31
0.0
 44
0.9
  1
Yes
 40
0.125
 41
0.6
  0
ENDBLK
  5
274
100
AcDbEntity
  8
0
  6
BYBLOCK
 62
0
100
AcDbBlockEnd
  0
ENDSEC
  0
SECTION
  2
ENTITIES
  0
IMAGE
  5
275
100
AcDbEntity
  8
0
100
AcDbRasterImage
 62
7
  6
CONTINUOUS
 10
19.2297077316
 20
0.3094318264
 30
0.0
 11
0.0066666667
 21
0.0
 31
0.0
 12
0.0
 22
0.0066666667
 32
0.0
 13
369.0
 23
92.0
340
       308
 70
9
280
0
281
50
282
50
283
0
360
       302
 71
1
 91
2
 14
-0.5
 24
-0.5
 14
368.5
 24
91.5
  0
INSERT
  5
276
100
AcDbEntity
  8
0
100
AcDbBlockReference
 62
2
  6
CONTINUOUS
  2
SUN_FIRST_THIRD_ANGLE_BL0
 10
20.4816717061
 20
1.2289683772
  0
ACAD_TABLE
  5
277
100
AcDbEntity
  8
0
 62
2
  6
CONTINUOUS
100
AcDbBlockReference
  2
*T1
 10
12.42375
 20
0.30125
 30
0.0
100
AcDbTable
342
       30A
343
212
 11
1.0
 21
0.0
 31
0.0
 90
6
 91
4
 92
6
 93
20
 94
0
 95
0
 96
0
 70
1
 41
0.0
141
0.525
141
0.1
141
0.525
141
0.1
142
4.1
142
1.1
142
0.7
142
0.5
142
0.4
142
2.475
171
1
172
0
173
0
174
0
175
1
176
1
 91
33
178
0
145
0.0
301
CELL_VALUE
 90
4
  1
T-11A Sandwich ISO 03\P(See Technical Data for Body Features)
304
ACVALUE_END
170
2
140
0.125
171
1
172
0
173
0
174
0
175
1
176
1
 91
33
178
0
145
0.0
301
CELL_VALUE
 90
4
  1
Oct-29-20
304
ACVALUE_END
170
5
140
0.125
171
1
172
0
173
0
174
0
175
1
176
1
 91
33
178
0
145
0.0
301
CELL_VALUE
 90
4
  1
2.000
304
ACVALUE_END
170
5
140
0.125
171
1
172
0
173
0
174
0
175
1
176
1
 91
33
178
0
145
0.0
301
CELL_VALUE
 90
4
  1
C
304
ACVALUE_END
170
5
140
0.125
171
1
172
0
173
0
174
0
175
1
176
1
 91
33
178
0
145
0.0
301
CELL_VALUE
 90
4
  1
2
304
ACVALUE_END
170
5
140
0.125
171
1
172
0
173
0
174
0
175
1
176
1
 91
33
178
0
145
0.0
301
CELL_VALUE
 90
4
  1
 
304
ACVALUE_END
170
1
140
0.125
171
1
172
0
173
0
174
0
175
1
176
1
 91
33
178
0
145
0.0
301
CELL_VALUE
 90
4
  1
DESCRIPTION
304
ACVALUE_END
170
1
140
0.06
171
1
172
0
173
0
174
0
175
1
176
1
 91
33
178
0
145
0.0
301
CELL_VALUE
 90
4
  1
DATE
304
ACVALUE_END
170
1
140
0.06
171
1
172
0
173
0
174
0
175
1
176
1
 91
33
178
0
145
0.0
301
CELL_VALUE
 90
4
  1
SCALE
304
ACVALUE_END
170
1
140
0.06
171
1
172
0
173
0
174
0
175
1
176
1
 91
33
178
0
145
0.0
301
CELL_VALUE
 90
4
  1
DWG SIZE
304
ACVALUE_END
170
1
140
0.06
171
1
172
0
173
0
174
0
175
1
176
1
 91
33
178
0
145
0.0
301
CELL_VALUE
 90
4
  1
SHEET
304
ACVALUE_END
170
1
140
0.06
171
1
172
0
173
0
174
0
175
1
176
1
 91
33
178
0
145
0.0
301
CELL_VALUE
 90
4
  1
 
304
ACVALUE_END
170
1
140
0.125
171
1
172
0
173
0
174
0
175
1
176
1
 91
33
178
0
145
0.0
301
CELL_VALUE
 90
4
  1
Z3O
304
ACVALUE_END
170
5
140
0.125
171
1
172
0
173
0
174
0
175
4
176
1
 91
33
178
0
145
0.0
301
CELL_VALUE
 90
4
  1
ALL DIMENSIONS IN INCH\PVIEWS ARE THIRD ANGLE
304
ACVALUE_END
170
5
140
0.12
171
1
172
0
173
1
174
0
175
1
176
1
 91
1
178
0
145
0.0
170
1
171
1
172
0
173
1
174
0
175
1
176
1
 91
1
178
0
145
0.0
170
1
171
1
172
0
173
1
174
0
175
1
176
1
 91
1
178
0
145
0.0
170
5
171
1
172
0
173
0
174
0
175
1
176
1
 91
33
178
0
145
0.0
301
CELL_VALUE
 90
4
  1
 
304
ACVALUE_END
170
1
140
0.125
171
1
172
0
173
0
174
0
175
1
176
1
 91
33
178
0
145
0.0
301
CELL_VALUE
 90
4
  1
MODEL
304
ACVALUE_END
170
1
140
0.06
171
1
172
0
173
0
174
0
175
1
176
1
 91
33
178
0
145
0.0
301
CELL_VALUE
 90
4
  1
 
304
ACVALUE_END
170
1
140
0.125
171
1
172
0
173
0
174
0
175
1
176
1
 91
33
178
0
145
0.0
301
CELL_VALUE
 90
4
  1
 
304
ACVALUE_END
170
1
140
0.125
171
1
172
0
173
0
174
0
175
1
176
1
 91
33
178
0
145
0.0
301
CELL_VALUE
 90
4
  1
 
304
ACVALUE_END
170
1
140
0.125
171
1
172
0
173
0
174
0
175
1
176
1
 91
33
178
0
145
0.0
301
CELL_VALUE
 90
4
  1
 
304
ACVALUE_END
170
1
140
0.125
171
1
172
0
173
0
174
0
175
1
176
1
 91
33
178
0
145
0.0
301
CELL_VALUE
 90
4
  1
 
304
ACVALUE_END
170
1
140
0.125
  0
ACAD_TABLE
  5
278
100
AcDbEntity
  8
0
 62
2
  6
CONTINUOUS
100
AcDbBlockReference
  2
*T2
 10
12.4237499994
 20
16.47875
 30
0.0
100
AcDbTable
342
       309
343
213
 11
1.0
 21
0.0
 31
0.0
 90
22
 91
9
 92
3
 93
16
 94
0
 95
0
 96
0
 41
0.028
141
0.344
141
0.25
141
0.25
141
0.25
141
0.25
141
0.25
141
0.25
141
0.25
141
0.25
142
3.055
142
3.0
142
3.0
171
1
172
0
173
0
174
0
175
1
176
1
 91
33
178
0
145
0.0
301
CELL_VALUE
 90
4
  1
Technical Data
304
ACVALUE_END
170
5
140
0.145
171
1
172
0
173
0
174
0
175
1
176
1
 91
33
178
0
145
0.0
301
CELL_VALUE
 90
4
  1
U.S. Units
304
ACVALUE_END
170
5
140
0.145
171
1
172
0
173
0
174
0
175
1
176
1
 91
33
178
0
145
0.0
301
CELL_VALUE
 90
4
  1
Metric Units
304
ACVALUE_END
170
5
140
0.145
171
1
172
0
173
0
174
0
175
1
176
1
 91
33
178
0
145
0.0
301
CELL_VALUE
 90
4
  1
Cavity
304
ACVALUE_END
170
5
140
0.125
171
1
172
0
173
0
174
0
175
2
176
1
 91
33
178
0
145
0.0
301
CELL_VALUE
 90
4
  1
T-11A
304
ACVALUE_END
170
5
140
0.125
171
1
172
0
173
1
174
0
175
1
176
1
 91
1
178
0
145
0.0
170
1
171
1
172
0
173
0
174
0
175
1
176
1
 91
33
178
0
145
0.0
301
CELL_VALUE
 90
4
  1
Body Features
304
ACVALUE_END
170
5
140
0.125
171
1
172
0
173
0
174
0
175
2
176
1
 91
33
178
0
145
0.0
301
CELL_VALUE
 90
4
  1
Priority flow control on B with reverse flow check
304
ACVALUE_END
170
5
140
0.125
171
1
172
0
173
1
174
0
175
1
176
1
 91
1
178
0
145
0.0
170
1
171
1
172
0
173
0
174
0
175
1
176
1
 91
33
178
0
145
0.0
301
CELL_VALUE
 90
4
  1
Body Type
304
ACVALUE_END
170
5
140
0.125
171
1
172
0
173
0
174
0
175
2
176
1
 91
33
178
0
145
0.0
301
CELL_VALUE
 90
4
  1
Sandwich
304
ACVALUE_END
170
5
140
0.125
171
1
172
0
173
1
174
0
175
1
176
1
 91
1
178
0
145
0.0
170
1
171
1
172
0
173
0
174
0
175
1
176
1
 91
33
178
0
145
0.0
301
CELL_VALUE
 90
4
  1
Interface
304
ACVALUE_END
170
5
140
0.125
171
1
172
0
173
0
174
0
175
2
176
1
 91
33
178
0
145
0.0
301
CELL_VALUE
 90
4
  1
ISO 03
304
ACVALUE_END
170
5
140
0.125
171
1
172
0
173
1
174
0
175
1
176
1
 91
1
178
0
145
0.0
170
1
171
1
172
0
173
0
174
0
175
1
176
1
 91
33
178
0
145
0.0
301
CELL_VALUE
 90
4
  1
Open Cavity Quantity
304
ACVALUE_END
170
5
140
0.125
171
1
172
0
173
0
174
0
175
2
176
1
 91
33
178
0
145
0.0
301
CELL_VALUE
 90
4
  1
1
304
ACVALUE_END
170
5
140
0.125
171
1
172
0
173
1
174
0
175
1
176
1
 91
1
178
0
145
0.0
170
1
171
1
172
0
173
0
174
0
175
1
176
1
 91
33
178
0
145
0.0
301
CELL_VALUE
 90
4
  1
Stack Height
304
ACVALUE_END
170
5
140
0.125
171
1
172
0
173
0
174
0
175
1
176
1
 91
33
178
0
145
0.0
301
CELL_VALUE
 90
4
  1
2.49 in.
304
ACVALUE_END
170
5
140
0.125
171
1
172
0
173
0
174
0
175
1
176
1
 91
33
178
0
145
0.0
301
CELL_VALUE
 90
4
  1
63 mm
304
ACVALUE_END
170
5
140
0.125
171
1
172
0
173
0
174
0
175
1
176
1
 91
33
178
0
145
0.0
301
CELL_VALUE
 90
4
  1
Weight
304
ACVALUE_END
170
5
140
0.125
171
1
172
0
173
0
174
0
175
1
176
1
 91
33
178
0
145
0.0
301
CELL_VALUE
 90
4
  1
1.517 lb.
304
ACVALUE_END
170
5
140
0.125
171
1
172
0
173
0
174
0
175
1
176
1
 91
33
178
0
145
0.0
301
CELL_VALUE
 90
4
  1
0,688 kg.
304
ACVALUE_END
170
5
140
0.125
171
1
172
0
173
0
174
0
175
1
176
1
 91
33
178
0
145
0.0
301
CELL_VALUE
 90
4
  1
Seal Plate Included (see notes)
304
ACVALUE_END
170
5
140
0.125
171
1
172
0
173
0
174
0
175
2
176
1
 91
33
178
0
145
0.0
301
CELL_VALUE
 90
4
  1
Yes
304
ACVALUE_END
170
5
140
0.125
171
1
172
0
173
1
174
0
175
1
176
1
 91
1
178
0
145
0.0
170
1
  0
MTEXT
  5
279
100
AcDbEntity
  8
0
100
AcDbMText
 62
2
  6
CONTINUOUS
  7
STANDARD
 71
1
 72
1
 10
0.52125
 20
5.75995
 30
0.0
 11
1.0
 21
0.0
 31
0.0
 44
0.6
  3
Notes\P \P1. Stack height value in technical\P   data table includes seal retainer\P   plate.\P2. Important: Carefully consider\P   the maximum system pressure. The\P   pressure rating of the manifold is\P   dependent on the manifold material,\P   wi
  3
th the port type/size a secondary\P   consideration. Manifolds\P   constructed of aluminum are not\P   rated for pressures higher than\P   3000 psi (210 bar), regardless of\P   the port type/size specified.\P3. Items without balloons are\P   shipped 
  1
loose.
 40
0.1
 41
3.04
  0
LINE
  5
27A
100
AcDbEntity
  8
0
100
AcDbLine
 62
7
  6
CONTINUOUS
 10
0.30125
 20
0.30125
 11
0.30125
 21
16.69875
  0
LINE
  5
27B
100
AcDbEntity
  8
0
100
AcDbLine
 62
7
  6
CONTINUOUS
 10
0.30125
 20
0.30125
 11
21.69875
 21
0.30125
  0
LINE
  5
27C
100
AcDbEntity
  8
0
100
AcDbLine
 62
7
  6
CONTINUOUS
 10
0.30125
 20
16.69875
 11
21.69875
 21
16.69875
  0
LINE
  5
27D
100
AcDbEntity
  8
0
100
AcDbLine
 62
7
  6
CONTINUOUS
 10
21.69875
 20
0.30125
 11
21.69875
 21
16.69875
  0
LINE
  5
27E
100
AcDbEntity
  8
0
100
AcDbLine
 62
7
  6
CONTINUOUS
 10
6.6160734296
 20
9.8078401405
 11
6.5829494563
 21
9.751678948
  0
LINE
  5
27F
100
AcDbEntity
  8
0
100
AcDbLine
 62
7
  6
CONTINUOUS
 10
6.4899134173
 20
8.1847606903
 11
6.4765156453
 21
8.2169500433
  0
LINE
  5
280
100
AcDbEntity
  8
0
100
AcDbLine
 62
7
  6
CONTINUOUS
 10
7.1700282639
 20
8.9717078362
 11
7.1700282639
 21
7.2813375401
  0
LINE
  5
281
100
AcDbEntity
  8
0
100
AcDbLine
 62
7
  6
CONTINUOUS
 10
7.2138689011
 20
8.9520546425
 11
7.2138689011
 21
7.2616843463
  0
LINE
  5
282
100
AcDbEntity
  8
0
100
AcDbLine
 62
7
  6
CONTINUOUS
 10
7.3095581881
 20
6.7297008079
 11
7.2578072365
 21
6.7933313075
  0
LINE
  5
283
100
AcDbEntity
  8
0
100
AcDbLine
 62
7
  6
CONTINUOUS
 10
8.2053035899
 20
10.6362640781
 11
7.34809562
 21
9.8082647123
  0
LINE
  5
284
100
AcDbEntity
  8
0
100
AcDbLine
 62
7
  6
CONTINUOUS
 10
8.2651909947
 20
10.6919982772
 11
7.4079830247
 21
9.8639989115
  0
LINE
  5
285
100
AcDbEntity
  8
0
100
AcDbLine
 62
7
  6
CONTINUOUS
 10
8.2670234008
 20
10.6937359672
 11
8.2651909947
 21
10.6919982772
  0
LINE
  5
286
100
AcDbEntity
  8
0
100
AcDbLine
 62
7
  6
CONTINUOUS
 10
8.2069862531
 20
10.6378594749
 11
8.2053035899
 21
10.6362640781
  0
LINE
  5
287
100
AcDbEntity
  8
0
100
AcDbLine
 62
7
  6
CONTINUOUS
 10
8.2651748962
 20
10.6920155745
 11
8.2069845171
 21
10.637858119
  0
LINE
  5
288
100
AcDbEntity
  8
0
100
AcDbLine
 62
7
  6
CONTINUOUS
 10
8.2053035899
 20
10.6362640781
 11
8.2651909947
 21
10.6919982772
  0
LINE
  5
289
100
AcDbEntity
  8
0
100
AcDbLine
 62
7
  6
CONTINUOUS
 10
7.34809562
 20
9.8082647123
 11
7.4079830247
 21
9.8639989115
  0
LINE
  5
28A
100
AcDbEntity
  8
0
100
AcDbLine
 62
7
  6
CONTINUOUS
 10
8.0498059199
 20
6.3509183381
 11
8.0498059199
 21
9.7316589304
  0
LINE
  5
28B
100
AcDbEntity
  8
0
100
AcDbLine
 62
7
  6
CONTINUOUS
 10
9.3118065236
 20
10.9506579785
 11
8.0498059199
 21
9.7316589304
  0
LINE
  5
28C
100
AcDbEntity
  8
0
100
AcDbLine
 62
7
  6
CONTINUOUS
 10
7.1700282639
 20
7.2813375401
 11
7.2138689011
 21
7.2616843463
  0
LINE
  5
28D
100
AcDbEntity
  8
0
100
AcDbLine
 62
7
  6
CONTINUOUS
 10
14.3835626994
 20
6.7830090796
 11
14.3076285271
 21
6.7716622971
  0
LINE
  5
28E
100
AcDbEntity
  8
0
100
AcDbLine
 62
7
  6
CONTINUOUS
 10
8.0498059199
 20
6.3509183381
 11
12.3984042227
 21
6.0493420215
  0
LINE
  5
28F
100
AcDbEntity
  8
0
100
AcDbLine
 62
7
  6
CONTINUOUS
 10
8.0498059199
 20
6.6528722513
 11
7.356094975
 21
6.7009812688
  0
LINE
  5
290
100
AcDbEntity
  8
0
100
AcDbLine
 62
7
  6
CONTINUOUS
 10
12.5489124899
 20
6.3427900027
 11
14.449854601
 21
6.2109592196
  0
LINE
  5
291
100
AcDbEntity
  8
0
100
AcDbLine
 62
7
  6
CONTINUOUS
 10
7.2138689011
 20
7.2616843463
 11
8.0498059199
 21
7.2037119171
  0
LINE
  5
292
100
AcDbEntity
  8
0
100
AcDbLine
 62
7
  6
CONTINUOUS
 10
14.3076285271
 20
6.7716622971
 11
12.4066864159
 21
6.9034930803
  0
LINE
  5
293
100
AcDbEntity
  8
0
100
AcDbLine
 62
7
  6
CONTINUOUS
 10
7.1700282639
 20
8.9717078362
 11
7.2138689011
 21
8.9520546425
  0
LINE
  5
294
100
AcDbEntity
  8
0
100
AcDbLine
 62
7
  6
CONTINUOUS
 10
7.1700282639
 20
7.9810982469
 11
6.6761296779
 21
8.0153502302
  0
LINE
  5
295
100
AcDbEntity
  8
0
100
AcDbLine
 62
7
  6
CONTINUOUS
 10
14.3835626994
 20
8.4733793758
 11
14.3076285271
 21
8.4620325933
  0
LINE
  5
296
100
AcDbEntity
  8
0
100
AcDbLine
 62
7
  6
CONTINUOUS
 10
7.1700282639
 20
8.2003002297
 11
6.4803133228
 21
8.2481321233
  0
LINE
  5
297
100
AcDbEntity
  8
0
100
AcDbLine
 62
7
  6
CONTINUOUS
 10
7.1700282639
 20
8.2835199296
 11
6.4649841117
 21
8.3324149077
  0
LINE
  5
298
100
AcDbEntity
  8
0
100
AcDbLine
 62
7
  6
CONTINUOUS
 10
13.6604048264
 20
10.6490816619
 11
12.3984042227
 21
9.4300826138
  0
LINE
  5
299
100
AcDbEntity
  8
0
100
AcDbLine
 62
7
  6
CONTINUOUS
 10
12.6008005396
 20
9.5058076454
 11
13.4580085095
 21
10.3338070112
  0
LINE
  5
29A
100
AcDbEntity
  8
0
100
AcDbLine
 62
7
  6
CONTINUOUS
 10
7.2138689011
 20
8.9520546425
 11
8.0498059199
 21
8.8940822133
  0
LINE
  5
29B
100
AcDbEntity
  8
0
100
AcDbLine
 62
7
  6
CONTINUOUS
 10
14.3076285271
 20
8.4620325933
 11
12.4066864159
 21
8.5938633764
  0
LINE
  5
29C
100
AcDbEntity
  8
0
100
AcDbLine
 62
7
  6
CONTINUOUS
 10
7.1747542812
 20
9.1270441371
 11
6.4649841117
 21
9.1762668655
  0
LINE
  5
29D
100
AcDbEntity
  8
0
100
AcDbLine
 62
7
  6
CONTINUOUS
 10
7.1838825642
 20
9.2413707209
 11
6.4803133228
 21
9.2901634135
  0
LINE
  5
29E
100
AcDbEntity
  8
0
100
AcDbLine
 62
7
  6
CONTINUOUS
 10
12.3984042227
 20
9.4300826138
 11
8.0498059199
 21
9.7316589304
  0
LINE
  5
29F
100
AcDbEntity
  8
0
100
AcDbLine
 62
7
  6
CONTINUOUS
 10
12.3984042227
 20
6.0493420215
 11
12.3984042227
 21
9.4300826138
  0
LINE
  5
2A0
100
AcDbEntity
  8
0
100
AcDbLine
 62
7
  6
CONTINUOUS
 10
12.4066864159
 20
6.9034930803
 11
12.4066864159
 21
8.5938633764
  0
LINE
  5
2A1
100
AcDbEntity
  8
0
100
AcDbLine
 62
7
  6
CONTINUOUS
 10
7.3928834487
 20
9.8515264354
 11
6.6761296779
 21
9.9012334782
  0
LINE
  5
2A2
100
AcDbEntity
  8
0
100
AcDbLine
 62
7
  6
CONTINUOUS
 10
7.4079830247
 20
9.8639989115
 11
8.1346426224
 21
9.8136048972
  0
LINE
  5
2A3
100
AcDbEntity
  8
0
100
AcDbLine
 62
7
  6
CONTINUOUS
 10
14.5017426507
 20
9.3739768623
 11
12.6008005396
 21
9.5058076454
  0
LINE
  5
2A4
100
AcDbEntity
  8
0
100
AcDbLine
 62
7
  6
CONTINUOUS
 10
7.423541871
 20
9.881140199
 11
6.7067881002
 21
9.9308472418
  0
LINE
  5
2A5
100
AcDbEntity
  8
0
100
AcDbLine
 62
7
  6
CONTINUOUS
 10
14.5017426507
 20
9.3739768623
 11
15.3589506206
 21
10.201976228
  0
LINE
  5
2A6
100
AcDbEntity
  8
0
100
AcDbLine
 62
7
  6
CONTINUOUS
 10
14.5616300555
 20
9.3099362519
 11
15.4188380254
 21
10.1379356176
  0
LINE
  5
2A7
100
AcDbEntity
  8
0
100
AcDbLine
 62
7
  6
CONTINUOUS
 10
8.2651909947
 20
10.6919982772
 11
8.9918505924
 21
10.6416042629
  0
LINE
  5
2A8
100
AcDbEntity
  8
0
100
AcDbLine
 62
7
  6
CONTINUOUS
 10
15.3589506206
 20
10.201976228
 11
13.4580085095
 21
10.3338070112
  0
LINE
  5
2A9
100
AcDbEntity
  8
0
100
AcDbLine
 62
7
  6
CONTINUOUS
 10
9.0182753975
 20
10.6671286662
 11
8.3170790444
 21
10.7157567985
  0
LINE
  5
2AA
100
AcDbEntity
  8
0
100
AcDbLine
 62
7
  6
CONTINUOUS
 10
13.5098965592
 20
10.3575655324
 11
15.4108386703
 21
10.2257347493
  0
LINE
  5
2AB
100
AcDbEntity
  8
0
100
AcDbLine
 62
7
  6
CONTINUOUS
 10
14.8768714016
 20
9.007834618
 11
14.8791599973
 21
9.0100046621
  0
LINE
  5
2AC
100
AcDbEntity
  8
0
100
AcDbLine
 62
7
  6
CONTINUOUS
 10
13.6604048264
 20
10.6490816619
 11
9.3118065236
 21
10.9506579785
  0
LINE
  5
2AD
100
AcDbEntity
  8
0
100
AcDbLine
 62
7
  6
CONTINUOUS
 10
13.6604048264
 20
10.3471277487
 11
13.6604048264
 21
10.6490816619
  0
LINE
  5
2AE
100
AcDbEntity
  8
0
100
AcDbLine
 62
7
  6
CONTINUOUS
 10
12.6919353488
 20
6.3328713338
 11
12.3984042227
 21
6.0493420215
  0
LINE
  5
2AF
100
AcDbEntity
  8
0
100
AcDbLine
 62
7
  6
CONTINUOUS
 10
14.5616300555
 20
9.3099362519
 11
14.5017426507
 21
9.3739768623
  0
LINE
  5
2B0
100
AcDbEntity
  8
0
100
AcDbLine
 62
7
  6
CONTINUOUS
 10
14.3076285271
 20
6.7716622971
 11
14.3076285271
 21
8.4620325933
  0
LINE
  5
2B1
100
AcDbEntity
  8
0
100
AcDbLine
 62
7
  6
CONTINUOUS
 10
14.3835626994
 20
6.7830090796
 11
14.3835626994
 21
8.4733793758
  0
LINE
  5
2B2
100
AcDbEntity
  8
0
100
AcDbLine
 62
7
  6
CONTINUOUS
 10
15.4188380254
 20
7.1184513057
 11
14.5616300555
 21
6.29045194
  0
LINE
  5
2B3
100
AcDbEntity
  8
0
100
AcDbLine
 62
7
  6
CONTINUOUS
 10
14.5616300555
 20
6.29045194
 11
14.5599473923
 21
6.2888565431
  0
LINE
  5
2B4
100
AcDbEntity
  8
0
100
AcDbLine
 62
7
  6
CONTINUOUS
 10
14.4999102446
 20
6.2329800509
 11
14.5599491282
 21
6.2888578991
  0
LINE
  5
2B5
100
AcDbEntity
  8
0
100
AcDbLine
 62
7
  6
CONTINUOUS
 10
15.4188380254
 20
10.1379356176
 11
15.3589506206
 21
10.201976228
  0
LINE
  5
2B6
100
AcDbEntity
  8
0
100
AcDbLine
 62
7
  6
CONTINUOUS
 10
15.4573754573
 20
10.1970152102
 11
15.5091264089
 21
10.1333847106
  0
LINE
  5
2B7
100
AcDbEntity
  8
0
100
AcDbLine
 62
7
  6
CONTINUOUS
 10
15.5969053815
 20
9.645378478
 11
15.5969053815
 21
7.9550081818
  0
SPLINE
  5
2B8
100
AcDbEntity
  8
0
100
AcDbSpline
 62
7
  6
CONTINUOUS
 70
0
 71
3
 72
11
 73
7
 74
0
 42
0.0000001
 43
0.0000001
 44
0.0000000001
 40
0.0
 40
0.0
 40
0.0
 40
0.0
 40
0.2607354385
 40
0.514177803
 40
0.7605250494
 40
1.0
 40
1.0
 40
1.0
 40
1.0
 10
6.691458889
 20
9.9177742501
 30
0.0
 10
6.6927191372
 20
9.9189915565
 30
0.0
 10
6.6952391514
 20
9.9213564833
 30
0.0
 10
6.6990728827
 20
9.9247374819
 30
0.0
 10
6.7029050829
 20
9.9279002641
 30
0.0
 10
6.7054941771
 20
9.9298903889
 30
0.0
 10
6.7067881002
 20
9.9308472418
 30
0.0
  0
SPLINE
  5
2B9
100
AcDbEntity
  8
0
100
AcDbSpline
 62
7
  6
CONTINUOUS
 70
0
 71
3
 72
11
 73
7
 74
0
 42
0.0000001
 43
0.0000001
 44
0.0000000001
 40
0.0
 40
0.0
 40
0.0
 40
0.0
 40
0.2604523358
 40
0.5138638623
 40
0.7603394065
 40
1.0
 40
1.0
 40
1.0
 40
1.0
 10
6.6761296779
 20
9.9012334782
 30
0.0
 10
6.677388349
 20
9.9027342601
 30
0.0
 10
6.6799059783
 20
9.9056667078
 30
0.0
 10
6.68373729
 20
9.909912258
 30
0.0
 10
6.6875704731
 20
9.9139429894
 30
0.0
 10
6.6901625332
 20
9.9165220664
 30
0.0
 10
6.691458889
 20
9.9177742501
 30
0.0
  0
SPLINE
  5
2BA
100
AcDbEntity
  8
0
100
AcDbSpline
 62
7
  6
CONTINUOUS
 70
0
 71
3
 72
39
 73
35
 74
0
 42
0.0000001
 43
0.0000001
 44
0.0000000001
 40
0.0
 40
0.0
 40
0.0
 40
0.0
 40
0.0408834339
 40
0.081260447
 40
0.1211139626
 40
0.1604270648
 40
0.1991828267
 40
0.2373645299
 40
0.2749557639
 40
0.3119405599
 40
0.3483035363
 40
0.3840300525
 40
0.4191063804
 40
0.4535198819
 40
0.4872591895
 40
0.5203143921
 40
0.5526772241
 40
0.5843412614
 40
0.6153021066
 40
0.6455575584
 40
0.675107772
 40
0.7039554027
 40
0.7321057335
 40
0.759566781
 40
0.7863493529
 40
0.8124670775
 40
0.837936399
 40
0.8627765344
 40
0.8870093966
 40
0.9106594628
 40
0.9337535939
 40
0.9563208214
 40
0.9783920954
 40
1.0
 40
1.0
 40
1.0
 40
1.0
 10
6.6761296779
 20
8.0153502302
 30
0.0
 10
6.673142482
 20
8.0171412659
 30
0.0
 10
6.6672177413
 20
8.0207223057
 30
0.0
 10
6.6584279829
 20
8.02612642
 30
0.0
 10
6.6497952654
 20
8.0315299356
 30
0.0
 10
6.6413252334
 20
8.0369323728
 30
0.0
 10
6.6330235797
 20
8.0423332214
 30
0.0
 10
6.6248960446
 20
8.0477319239
 30
0.0
 10
6.616948382
 20
8.0531278809
 30
0.0
 10
6.6091863341
 20
8.0585204499
 30
0.0
 10
6.6016156011
 20
8.0639089459
 30
0.0
 10
6.5942418085
 20
8.0692926432
 30
0.0
 10
6.5870704704
 20
8.0746707748
 30
0.0
 10
6.5801069521
 20
8.080042536
 30
0.0
 10
6.5733564323
 20
8.0854070875
 30
0.0
 10
6.5668238631
 20
8.0907635587
 30
0.0
 10
6.5605139303
 20
8.0961110534
 30
0.0
 10
6.554431011
 20
8.1014486527
 30
0.0
 10
6.5485791338
 20
8.1067754209
 30
0.0
 10
6.5429619437
 20
8.1120904135
 30
0.0
 10
6.5375826672
 20
8.1173926826
 30
0.0
 10
6.5324440816
 20
8.1226812846
 30
0.0
 10
6.5275484863
 20
8.127955288
 30
0.0
 10
6.5228976768
 20
8.1332137772
 30
0.0
 10
6.5184929305
 20
8.1384558632
 30
0.0
 10
6.5143349963
 20
8.1436806893
 30
0.0
 10
6.5104240887
 20
8.1488874369
 30
0.0
 10
6.506759888
 20
8.1540753327
 30
0.0
 10
6.5033415429
 20
8.1592436502
 30
0.0
 10
6.5001676816
 20
8.1643917187
 30
0.0
 10
6.4972364371
 20
8.169518915
 30
0.0
 10
6.4945454514
 20
8.1746247097
 30
0.0
 10
6.4920919637
 20
8.1797085094
 30
0.0
 10
6.490597314
 20
8.1831173924
 30
0.0
 10
6.4898900115
 20
8.1848169271
 30
0.0
  0
SPLINE
  5
2BB
100
AcDbEntity
  8
0
100
AcDbSpline
 62
7
  6
CONTINUOUS
 70
0
 71
3
 72
11
 73
7
 74
0
 42
0.0000001
 43
0.0000001
 44
0.0000000001
 40
0.0
 40
0.0
 40
0.0
 40
0.0
 40
0.2475899348
 40
0.4968324377
 40
0.7476597525
 40
1.0
 40
1.0
 40
1.0
 40
1.0
 10
6.6160444044
 20
9.8077909265
 30
0.0
 10
6.6207033958
 20
9.8156897497
 30
0.0
 10
6.6302184557
 20
9.831442782
 30
0.0
 10
6.6449983766
 20
9.854863247
 30
0.0
 10
6.6603022443
 20
9.8781553952
 30
0.0
 10
6.6708025012
 20
9.8935538439
 30
0.0
 10
6.6761296779
 20
9.9012334782
 30
0.0
  0
SPLINE
  5
2BC
100
AcDbEntity
  8
0
100
AcDbSpline
 62
7
  6
CONTINUOUS
 70
0
 71
3
 72
91
 73
87
 74
0
 42
0.0000001
 43
0.0000001
 44
0.0000000001
 40
0.0
 40
0.0
 40
0.0
 40
0.0
 40
0.0048080631
 40
0.0097392132
 40
0.0147932439
 40
0.0199698197
 40
0.0252684859
 40
0.0306886808
 40
0.0362297337
 40
0.0418908831
 40
0.0476712692
 40
0.0535699512
 40
0.0595859034
 40
0.065718023
 40
0.0719651356
 40
0.0783259922
 40
0.0847992829
 40
0.0913836278
 40
0.0980775909
 40
0.1048796743
 40
0.1117883253
 40
0.1188019384
 40
0.1331372603
 40
0.1478718966
 40
0.1629912522
 40
0.1784800447
 40
0.1943223531
 40
0.2105016609
 40
0.2270008992
 40
0.2438024842
 40
0.2608883561
 40
0.2782400135
 40
0.2958385495
 40
0.3136646835
 40
0.3316987955
 40
0.3499209575
 40
0.3683109654
 40
0.3868483712
 40
0.4055125126
 40
0.4242825458
 40
0.443137474
 40
0.46205618
 40
0.4810174547
 40
0.5000000289
 40
0.518982603
 40
0.5379438776
 40
0.5568625831
 40
0.5757175111
 40
0.5944875438
 40
0.6131516845
 40
0.6316890893
 40
0.6500790961
 40
0.668301257
 40
0.6863353677
 40
0.7041615008
 40
0.7217600354
 40
0.7391116916
 40
0.7561975615
 40
0.7729991446
 40
0.7894983806
 40
0.8056776865
 40
0.8215199929
 40
0.8370087836
 40
0.8521281373
 40
0.8668627711
 40
0.8811980903
 40
0.8882117021
 40
0.8951203515
 40
0.9019224344
 40
0.9086163952
 40
0.9152007398
 40
0.921674028
 40
0.9280348841
 40
0.934281995
 40
0.940414113
 40
0.9464300645
 40
0.952328744
 40
0.95810913
 40
0.9637702766
 40
0.969311329
 40
0.9747315219
 40
0.9800301868
 40
0.9852067617
 40
0.9902607898
 40
0.9951919397
 40
1.0
 40
1.0
 40
1.0
 40
1.0
 10
6.4765156616
 20
8.2169500043
 30
0.0
 10
6.475550515
 20
8.2192688562
 30
0.0
 10
6.4736366011
 20
8.2239831237
 30
0.0
 10
6.4708475112
 20
8.2311904517
 30
0.0
 10
6.4681046972
 20
8.2386210715
 30
0.0
 10
6.4654089893
 20
8.2462727405
 30
0.0
 10
6.4627611868
 20
8.2541431856
 30
0.0
 10
6.4601620881
 20
8.2622300586
 30
0.0
 10
6.4576124626
 20
8.2705309465
 30
0.0
 10
6.4551130819
 20
8.2790433732
 30
0.0
 10
6.4526646868
 20
8.2877647964
 30
0.0
 10
6.4502680157
 20
8.2966926125
 30
0.0
 10
6.4479237843
 20
8.3058241546
 30
0.0
 10
6.4456326938
 20
8.3151566948
 30
0.0
 10
6.4433954349
 20
8.3246874446
 30
0.0
 10
6.4412126717
 20
8.3344135555
 30
0.0
 10
6.4390850658
 20
8.3443321207
 30
0.0
 10
6.4370132477
 20
8.354440175
 30
0.0
 10
6.4349978438
 20
8.3647346969
 30
0.0
 10
6.4330394565
 20
8.3752126066
 30
0.0
 10
6.4311386675
 20
8.3858707772
 30
0.0
 10
6.4286638868
 20
8.4004234928
 30
0.0
 10
6.4257228007
 20
8.419043176
 30
0.0
 10
6.4224573715
 20
8.4418959232
 30
0.0
 10
6.4194346493
 20
8.4653896726
 30
0.0
 10
6.416658273
 20
8.4894963026
 30
0.0
 10
6.4141315906
 20
8.5141870069
 30
0.0
 10
6.4118576471
 20
8.5394322599
 30
0.0
 10
6.4098391836
 20
8.565201872
 30
0.0
 10
6.4080786336
 20
8.5914650215
 30
0.0
 10
6.4065781202
 20
8.6181902934
 30
0.0
 10
6.4053394537
 20
8.6453457176
 30
0.0
 10
6.4043641299
 20
8.6728988067
 30
0.0
 10
6.4036533279
 20
8.7008165961
 30
0.0
 10
6.4032079087
 20
8.7290656828
 30
0.0
 10
6.4030284145
 20
8.7576122659
 30
0.0
 10
6.4031150679
 20
8.7864221879
 30
0.0
 10
6.4034677722
 20
8.8154609748
 30
0.0
 10
6.4040861111
 20
8.8446938785
 30
0.0
 10
6.4049693496
 20
8.8740859176
 30
0.0
 10
6.4061164348
 20
8.9036019203
 30
0.0
 10
6.4075259973
 20
8.9332065657
 30
0.0
 10
6.4091963523
 20
8.9628644267
 30
0.0
 10
6.411125502
 20
8.9925400123
 30
0.0
 10
6.4133111382
 20
9.0221978104
 30
0.0
 10
6.415750645
 20
9.0518023302
 30
0.0
 10
6.4184411017
 20
9.0813181447
 30
0.0
 10
6.4213792869
 20
9.1107099336
 30
0.0
 10
6.4245616816
 20
9.1399425249
 30
0.0
 10
6.4279844738
 20
9.1689809379
 30
0.0
 10
6.4316435627
 20
9.1977904247
 30
0.0
 10
6.4355345638
 20
9.2263365124
 30
0.0
 10
6.4396528143
 20
9.254585044
 30
0.0
 10
6.4439933785
 20
9.2825022197
 30
0.0
 10
6.4485510536
 20
9.3100546369
 30
0.0
 10
6.4533203762
 20
9.3372093315
 30
0.0
 10
6.4582956283
 20
9.3639338164
 30
0.0
 10
6.4634708442
 20
9.3901961221
 30
0.0
 10
6.4688398177
 20
9.415964834
 30
0.0
 10
6.4743961094
 20
9.4412091315
 30
0.0
 10
6.4801330546
 20
9.4658988239
 30
0.0
 10
6.486043771
 20
9.4900043894
 30
0.0
 10
6.492121167
 20
9.5134970051
 30
0.0
 10
6.4983579509
 20
9.5363486021
 30
0.0
 10
6.5047466367
 20
9.55853183
 30
0.0
 10
6.510229767
 20
9.576567288
 30
0.0
 10
6.5146896643
 20
9.590639079
 30
0.0
 10
6.5180434762
 20
9.6009328395
 30
0.0
 10
6.5214294496
 20
9.6110401145
 30
0.0
 10
6.5248465839
 20
9.620957886
 30
0.0
 10
6.5282938477
 20
9.6306831885
 30
0.0
 10
6.531770214
 20
9.6402131143
 30
0.0
 10
6.5352746397
 20
9.6495448152
 30
0.0
 10
6.5388060748
 20
9.6586755023
 30
0.0
 10
6.5423634658
 20
9.6676024464
 30
0.0
 10
6.5459457417
 20
9.6763229816
 30
0.0
 10
6.549551838
 20
9.6848345014
 30
0.0
 10
6.5531806678
 20
9.6931344656
 30
0.0
 10
6.5568311517
 20
9.7012203945
 30
0.0
 10
6.5605021942
 20
9.7090898755
 30
0.0
 10
6.5641926979
 20
9.7167405602
 30
0.0
 10
6.567901563
 20
9.7241701663
 30
0.0
 10
6.5716276743
 20
9.7313764784
 30
0.0
 10
6.5753699318
 20
9.7383573534
 30
0.0
 10
6.579127194
 20
9.7451106885
 30
0.0
 10
6.5816735301
 20
9.7495156337
 30
0.0
 10
6.5829495236
 20
9.7516790605
 30
0.0
  0
SPLINE
  5
2BD
100
AcDbEntity
  8
0
100
AcDbSpline
 62
7
  6
CONTINUOUS
 70
0
 71
3
 72
11
 73
7
 74
0
 42
0.0000001
 43
0.0000001
 44
0.0000000001
 40
0.0
 40
0.0
 40
0.0
 40
0.0
 40
0.2397313504
 40
0.4864244695
 40
0.7399079491
 40
1.0
 40
1.0
 40
1.0
 40
1.0
 10
6.4803133228
 20
8.2481321233
 30
0.0
 10
6.4788822865
 20
8.2548273624
 30
0.0
 10
6.4760904394
 20
8.2684363799
 30
0.0
 10
6.4721608482
 20
8.2891995003
 30
0.0
 10
6.4684321501
 20
8.3105900913
 30
0.0
 10
6.466111847
 20
8.32507307
 30
0.0
 10
6.4649841117
 20
8.3324149077
 30
0.0
  0
SPLINE
  5
2BE
100
AcDbEntity
  8
0
100
AcDbSpline
 62
7
  6
CONTINUOUS
 70
0
 71
3
 72
11
 73
7
 74
0
 42
0.0000001
 43
0.0000001
 44
0.0000000001
 40
0.0
 40
0.0
 40
0.0
 40
0.0
 40
0.2526363076
 40
0.5036574004
 40
0.7528492934
 40
1.0
 40
1.0
 40
1.0
 40
1.0
 10
6.4649841117
 20
9.1762668655
 30
0.0
 10
6.4661225898
 20
9.1858780125
 30
0.0
 10
6.4684671845
 20
9.2050300725
 30
0.0
 10
6.472198829
 20
9.2336291325
 30
0.0
 10
6.4761315307
 20
9.2619890973
 30
0.0
 10
6.4788971282
 20
9.2808017347
 30
0.0
 10
6.4803133228
 20
9.2901634135
 30
0.0
  0
SPLINE
  5
2BF
100
AcDbEntity
  8
0
100
AcDbSpline
 62
7
  6
CONTINUOUS
 70
0
 71
3
 72
36
 73
32
 74
0
 42
0.0000001
 43
0.0000001
 44
0.0000000001
 40
0.0
 40
0.0
 40
0.0
 40
0.0
 40
0.0635007802
 40
0.1269002289
 40
0.1585591923
 40
0.1901886259
 40
0.2217871205
 40
0.2533533021
 40
0.2848858535
 40
0.3163835367
 40
0.3478452158
 40
0.3792698811
 40
0.410656671
 40
0.4420048926
 40
0.4733140381
 40
0.5045837976
 40
0.5358140674
 40
0.567004953
 40
0.5981567671
 40
0.6292700207
 40
0.6603454113
 40
0.6913838053
 40
0.7223862182
 40
0.7533537927
 40
0.7842877761
 40
0.8151894958
 40
0.8460603359
 40
0.8769017169
 40
0.9077150739
 40
0.9385018445
 40
1.0
 40
1.0
 40
1.0
 40
1.0
 10
6.4649841117
 20
8.3324149077
 30
0.0
 10
6.4605452616
 20
8.3499365723
 30
0.0
 10
6.4520753307
 20
8.3850550289
 30
0.0
 10
6.4425983025
 20
8.429187576
 30
0.0
 10
6.435752929
 20
8.4645940094
 30
0.0
 10
6.4310042391
 20
8.491183352
 30
0.0
 10
6.4266537825
 20
8.5178140234
 30
0.0
 10
6.4227160722
 20
8.5444810517
 30
0.0
 10
6.4192049121
 20
8.5711787123
 30
0.0
 10
6.4161331673
 20
8.5979006173
 30
0.0
 10
6.4135125497
 20
8.6246397345
 30
0.0
 10
6.4113534038
 20
8.651388453
 30
0.0
 10
6.4096645092
 20
8.6781386633
 30
0.0
 10
6.4084529007
 20
8.7048818599
 30
0.0
 10
6.4077237199
 20
8.7316092598
 30
0.0
 10
6.4074801021
 20
8.7583119362
 30
0.0
 10
6.407723106
 20
8.7849809605
 30
0.0
 10
6.4084516851
 20
8.8116075469
 30
0.0
 10
6.409662716
 20
8.8381831951
 30
0.0
 10
6.4113510677
 20
8.8646998224
 30
0.0
 10
6.4135097142
 20
8.8911498824
 30
0.0
 10
6.4161298831
 20
8.9175264639
 30
0.0
 10
6.4192012344
 20
8.9438233694
 30
0.0
 10
6.4227120595
 20
8.9700351698
 30
0.0
 10
6.4266494933
 20
8.996157237
 30
0.0
 10
6.4309997331
 20
9.0221857499
 30
0.0
 10
6.4357482552
 20
9.0481176935
 30
0.0
 10
6.4408800099
 20
9.0739507917
 30
0.0
 10
6.4463796505
 20
9.0996836143
 30
0.0
 10
6.4541789935
 20
9.1338446891
 30
0.0
 10
6.4605386269
 20
9.1593356021
 30
0.0
 10
6.4649841117
 20
9.1762668655
 30
0.0
  0
SPLINE
  5
2C0
100
AcDbEntity
  8
0
100
AcDbSpline
 62
7
  6
CONTINUOUS
 70
0
 71
3
 72
36
 73
32
 74
0
 42
0.0000001
 43
0.0000001
 44
0.0000000001
 40
0.0
 40
0.0
 40
0.0
 40
0.0
 40
0.0595403656
 40
0.0893713079
 40
0.1192491089
 40
0.149179376
 40
0.1791680744
 40
0.2092214937
 40
0.2393462245
 40
0.2695491189
 40
0.2998372438
 40
0.3302178235
 40
0.3606981736
 40
0.3912856256
 40
0.4219874454
 40
0.4528107463
 40
0.483762399
 40
0.5148489414
 40
0.5460764919
 40
0.577450667
 40
0.6089765081
 40
0.6406584191
 40
0.6725001161
 40
0.7045045926
 40
0.736674098
 40
0.769010133
 40
0.801513458
 40
0.8341841159
 40
0.8670214661
 40
0.933188543
 40
1.0
 40
1.0
 40
1.0
 40
1.0
 10
6.4803133228
 20
9.2901634135
 30
0.0
 10
6.4799385639
 20
9.3009355971
 30
0.0
 10
6.4796073813
 20
9.3171143966
 30
0.0
 10
6.4796616842
 20
9.3387028387
 30
0.0
 10
6.4799596162
 20
9.3549283669
 30
0.0
 10
6.4805237958
 20
9.371175379
 30
0.0
 10
6.4813631729
 20
9.3874423973
 30
0.0
 10
6.4824865301
 20
9.4037276033
 30
0.0
 10
6.4839023969
 20
9.4200289573
 30
0.0
 10
6.4856189677
 20
9.4363441611
 30
0.0
 10
6.4876440134
 20
9.4526706681
 30
0.0
 10
6.4899847917
 20
9.4690056862
 30
0.0
 10
6.4926479564
 20
9.4853461893
 30
0.0
 10
6.4956394684
 20
9.5016889339
 30
0.0
 10
6.4989645116
 20
9.5180304807
 30
0.0
 10
6.502627415
 20
9.5343672227
 30
0.0
 10
6.5066315847
 20
9.5506954177
 30
0.0
 10
6.5109794466
 20
9.5670112257
 30
0.0
 10
6.5156724041
 20
9.5833107504
 30
0.0
 10
6.5207108102
 20
9.5995900823
 30
0.0
 10
6.5260939569
 20
9.6158453441
 30
0.0
 10
6.5318200812
 20
9.6320727358
 30
0.0
 10
6.5378863882
 20
9.6482685776
 30
0.0
 10
6.5442890905
 20
9.6644293522
 30
0.0
 10
6.5510234615
 20
9.6805517399
 30
0.0
 10
6.558083905
 20
9.6966326555
 30
0.0
 10
6.5654640234
 20
9.7126692593
 30
0.0
 10
6.5731567366
 20
9.7286590359
 30
0.0
 10
6.5838466654
 20
9.7499660879
 30
0.0
 10
6.5979545338
 20
9.7764680513
 30
0.0
 10
6.6098996301
 20
9.7973731169
 30
0.0
 10
6.6160444044
 20
9.8077909265
 30
0.0
  0
SPLINE
  5
2C1
100
AcDbEntity
  8
0
100
AcDbSpline
 62
7
  6
CONTINUOUS
 70
0
 71
3
 72
23
 73
19
 74
0
 42
0.0000001
 43
0.0000001
 44
0.0000000001
 40
0.0
 40
0.0
 40
0.0
 40
0.0
 40
0.0677373602
 40
0.1344390871
 40
0.2001788891
 40
0.2650311987
 40
0.3290705983
 40
0.3923713024
 40
0.4550067796
 40
0.5170492286
 40
0.5785691658
 40
0.6396351003
 40
0.7003131398
 40
0.760666728
 40
0.8207563891
 40
0.8806395673
 40
0.9403705651
 40
1.0
 40
1.0
 40
1.0
 40
1.0
 10
6.4898900115
 20
8.1848169271
 30
0.0
 10
6.4893286182
 20
8.1861658656
 30
0.0
 10
6.4882543884
 20
8.188859975
 30
0.0
 10
6.486778642
 20
8.1929185121
 30
0.0
 10
6.485449199
 20
8.1969618923
 30
0.0
 10
6.4842637188
 20
8.2009899649
 30
0.0
 10
6.4832197289
 20
8.205002669
 30
0.0
 10
6.4823146721
 20
8.2089999572
 30
0.0
 10
6.481545891
 20
8.2129818095
 30
0.0
 10
6.4809106625
 20
8.2169482327
 30
0.0
 10
6.4804062045
 20
8.2208992591
 30
0.0
 10
6.4800296794
 20
8.224834944
 30
0.0
 10
6.4797782198
 20
8.2287553668
 30
0.0
 10
6.4796489293
 20
8.2326606288
 30
0.0
 10
6.4796388959
 20
8.2365508484
 30
0.0
 10
6.4797452058
 20
8.2404261792
 30
0.0
 10
6.4799649413
 20
8.2442867365
 30
0.0
 10
6.4801852549
 20
8.2468523084
 30
0.0
 10
6.4803133228
 20
8.2481321233
 30
0.0
  0
SPLINE
  5
2C2
100
AcDbEntity
  8
0
100
AcDbSpline
 62
7
  6
CONTINUOUS
 70
0
 71
3
 72
23
 73
19
 74
0
 42
0.0000001
 43
0.0000001
 44
0.0000000001
 40
0.0
 40
0.0
 40
0.0
 40
0.0
 40
0.0637744828
 40
0.1273454316
 40
0.1907025265
 40
0.2538558004
 40
0.316813226
 40
0.3795821625
 40
0.4421733656
 40
0.5045993404
 40
0.5668738661
 40
0.6290123724
 40
0.6910316429
 40
0.7529496283
 40
0.8147853425
 40
0.8765585905
 40
0.938289842
 40
1.0
 40
1.0
 40
1.0
 40
1.0
 10
8.8949910855
 20
9.1611044495
 30
0.0
 10
8.8949910855
 20
9.1577256572
 30
0.0
 10
8.8948292931
 20
9.1509777133
 30
0.0
 10
8.8940994123
 20
9.1408968524
 30
0.0
 10
8.8928839942
 20
9.1308958157
 30
0.0
 10
8.891185974
 20
9.12099833
 30
0.0
 10
8.8890093792
 20
9.1112268306
 30
0.0
 10
8.8863589585
 20
9.101603922
 30
0.0
 10
8.8832409629
 20
9.0921518008
 30
0.0
 10
8.8796625395
 20
9.0828922467
 30
0.0
 10
8.875631828
 20
9.0738466512
 30
0.0
 10
8.8711582522
 20
9.0650358165
 30
0.0
 10
8.8662519743
 20
9.0564801366
 30
0.0
 10
8.860924367
 20
9.0481993087
 30
0.0
 10
8.8551877484
 20
9.0402124314
 30
0.0
 10
8.8490551658
 20
9.0325379544
 30
0.0
 10
8.842541152
 20
9.025193701
 30
0.0
 10
8.8379532348
 20
9.0205282084
 30
0.0
 10
8.8356016774
 20
9.0182567971
 30
0.0
  0
SPLINE
  5
2C3
100
AcDbEntity
  8
0
100
AcDbSpline
 62
7
  6
CONTINUOUS
 70
0
 71
3
 72
23
 73
19
 74
0
 42
0.0000001
 43
0.0000001
 44
0.0000000001
 40
0.0
 40
0.0
 40
0.0
 40
0.0
 40
0.0637744828
 40
0.1273454316
 40
0.1907025265
 40
0.2538558004
 40
0.316813226
 40
0.3795821625
 40
0.4421733656
 40
0.5045993404
 40
0.5668738661
 40
0.6290123724
 40
0.6910316429
 40
0.7529496283
 40
0.8147853425
 40
0.8765585905
 40
0.938289842
 40
1.0
 40
1.0
 40
1.0
 40
1.0
 10
11.9743629975
 20
9.0074366642
 30
0.0
 10
11.9743629975
 20
9.004057872
 30
0.0
 10
11.974201205
 20
8.997309928
 30
0.0
 10
11.9734713243
 20
8.9872290672
 30
0.0
 10
11.9722559062
 20
8.9772280305
 30
0.0
 10
11.970557886
 20
8.9673305448
 30
0.0
 10
11.9683812912
 20
8.9575590454
 30
0.0
 10
11.9657308705
 20
8.9479361368
 30
0.0
 10
11.9626128749
 20
8.9384840156
 30
0.0
 10
11.9590344515
 20
8.9292244615
 30
0.0
 10
11.9550037399
 20
8.9201788659
 30
0.0
 10
11.9505301641
 20
8.9113680312
 30
0.0
 10
11.9456238862
 20
8.9028123514
 30
0.0
 10
11.940296279
 20
8.8945315235
 30
0.0
 10
11.9345596603
 20
8.8865446462
 30
0.0
 10
11.9284270778
 20
8.8788701692
 30
0.0
 10
11.921913064
 20
8.8715259158
 30
0.0
 10
11.9173251468
 20
8.8668604232
 30
0.0
 10
11.9149735894
 20
8.8645890119
 30
0.0
  0
SPLINE
  5
2C4
100
AcDbEntity
  8
0
100
AcDbSpline
 62
7
  6
CONTINUOUS
 70
0
 71
3
 72
23
 73
19
 74
0
 42
0.0000001
 43
0.0000001
 44
0.0000000001
 40
0.0
 40
0.0
 40
0.0
 40
0.0
 40
0.0637744828
 40
0.1273454316
 40
0.1907025265
 40
0.2538558004
 40
0.316813226
 40
0.3795821625
 40
0.4421733656
 40
0.5045993404
 40
0.5668738661
 40
0.6290123724
 40
0.6910316429
 40
0.7529496283
 40
0.8147853425
 40
0.8765585905
 40
0.938289842
 40
1.0
 40
1.0
 40
1.0
 40
1.0
 10
8.8949910855
 20
6.8061771804
 30
0.0
 10
8.8949910855
 20
6.8027983882
 30
0.0
 10
8.8948292931
 20
6.7960504442
 30
0.0
 10
8.8940994123
 20
6.7859695834
 30
0.0
 10
8.8928839942
 20
6.7759685467
 30
0.0
 10
8.891185974
 20
6.766071061
 30
0.0
 10
8.8890093792
 20
6.7562995616
 30
0.0
 10
8.8863589585
 20
6.746676653
 30
0.0
 10
8.8832409629
 20
6.7372245318
 30
0.0
 10
8.8796625395
 20
6.7279649777
 30
0.0
 10
8.875631828
 20
6.7189193821
 30
0.0
 10
8.8711582522
 20
6.7101085474
 30
0.0
 10
8.8662519743
 20
6.7015528676
 30
0.0
 10
8.860924367
 20
6.6932720397
 30
0.0
 10
8.8551877484
 20
6.6852851624
 30
0.0
 10
8.8490551658
 20
6.6776106854
 30
0.0
 10
8.842541152
 20
6.670266432
 30
0.0
 10
8.8379532348
 20
6.6656009394
 30
0.0
 10
8.8356016774
 20
6.6633295281
 30
0.0
  0
SPLINE
  5
2C5
100
AcDbEntity
  8
0
100
AcDbSpline
 62
7
  6
CONTINUOUS
 70
0
 71
3
 72
23
 73
19
 74
0
 42
0.0000001
 43
0.0000001
 44
0.0000000001
 40
0.0
 40
0.0
 40
0.0
 40
0.0
 40
0.0637744828
 40
0.1273454316
 40
0.1907025265
 40
0.2538558004
 40
0.316813226
 40
0.3795821625
 40
0.4421733656
 40
0.5045993404
 40
0.5668738661
 40
0.6290123724
 40
0.6910316429
 40
0.7529496283
 40
0.8147853425
 40
0.8765585905
 40
0.938289842
 40
1.0
 40
1.0
 40
1.0
 40
1.0
 10
11.9743629975
 20
6.5327345732
 30
0.0
 10
11.9743629975
 20
6.529355781
 30
0.0
 10
11.974201205
 20
6.522607837
 30
0.0
 10
11.9734713243
 20
6.5125269762
 30
0.0
 10
11.9722559062
 20
6.5025259395
 30
0.0
 10
11.970557886
 20
6.4926284538
 30
0.0
 10
11.9683812912
 20
6.4828569544
 30
0.0
 10
11.9657308705
 20
6.4732340458
 30
0.0
 10
11.9626128749
 20
6.4637819246
 30
0.0
 10
11.9590344515
 20
6.4545223705
 30
0.0
 10
11.9550037399
 20
6.4454767749
 30
0.0
 10
11.9505301641
 20
6.4366659402
 30
0.0
 10
11.9456238862
 20
6.4281102604
 30
0.0
 10
11.940296279
 20
6.4198294324
 30
0.0
 10
11.9345596603
 20
6.4118425551
 30
0.0
 10
11.9284270778
 20
6.4041680782
 30
0.0
 10
11.921913064
 20
6.3968238248
 30
0.0
 10
11.9173251468
 20
6.3921583322
 30
0.0
 10
11.9149735894
 20
6.3898869209
 30
0.0
  0
SPLINE
  5
2C6
100
AcDbEntity
  8
0
100
AcDbSpline
 62
7
  6
CONTINUOUS
 70
0
 71
3
 72
49
 73
45
 74
0
 42
0.0000001
 43
0.0000001
 44
0.0000000001
 40
0.0
 40
0.0
 40
0.0
 40
0.0
 40
0.0313647279
 40
0.0629203819
 40
0.0946557087
 40
0.1265522546
 40
0.1585871579
 40
0.1907333313
 40
0.2229606299
 40
0.2552368788
 40
0.2875289172
 40
0.319803607
 40
0.3520287831
 40
0.3841741257
 40
0.4162119317
 40
0.4481178012
 40
0.479871232
 40
0.5114561247
 40
0.5428611985
 40
0.5740803097
 40
0.6051126716
 40
0.6359629706
 40
0.666641363
 40
0.6971633382
 40
0.7123759111
 40
0.7275574858
 40
0.7427113457
 40
0.7578410172
 40
0.7729502445
 40
0.7880429875
 40
0.8031233479
 40
0.818195588
 40
0.8332640575
 40
0.8483331691
 40
0.8634073825
 40
0.878491113
 40
0.8935887559
 40
0.9087045918
 40
0.9238427702
 40
0.9390072856
 40
0.9542018851
 40
0.9694301041
 40
0.9846951755
 40
1.0
 40
1.0
 40
1.0
 40
1.0
 10
10.3139361944
 20
7.3459400207
 30
0.0
 10
10.3211899781
 20
7.3454369691
 30
0.0
 10
10.3357038951
 20
7.3437615899
 30
0.0
 10
10.3572158945
 20
7.3392914667
 30
0.0
 10
10.378366375
 20
7.3328966063
 30
0.0
 10
10.3989783581
 20
7.3246347882
 30
0.0
 10
10.4188840455
 20
7.3145801613
 30
0.0
 10
10.4379228755
 20
7.3028218957
 30
0.0
 10
10.4559439412
 20
7.2894628998
 30
0.0
 10
10.4728068701
 20
7.2746182129
 30
0.0
 10
10.4883828131
 20
7.258413471
 30
0.0
 10
10.5025550795
 20
7.2409833569
 30
0.0
 10
10.5152195862
 20
7.2224701246
 30
0.0
 10
10.5262851219
 20
7.2030222181
 30
0.0
 10
10.5356733974
 20
7.1827929706
 30
0.0
 10
10.5433190277
 20
7.1619394716
 30
0.0
 10
10.5491694448
 20
7.140621558
 30
0.0
 10
10.5531847728
 20
7.1190009194
 30
0.0
 10
10.5553377392
 20
7.0972403209
 30
0.0
 10
10.5556135702
 20
7.0755028478
 30
0.0
 10
10.5540099897
 20
7.0539513641
 30
0.0
 10
10.550537017
 20
7.0327473864
 30
0.0
 10
10.5452178762
 20
7.0120521674
 30
0.0
 10
10.5392676045
 20
6.9953383748
 30
0.0
 10
10.5336267681
 20
6.9823873679
 30
0.0
 10
10.5289673658
 20
6.9729073194
 30
0.0
 10
10.523883258
 20
6.9636702339
 30
0.0
 10
10.5183832148
 20
6.9546941586
 30
0.0
 10
10.5124770986
 20
6.9459970059
 30
0.0
 10
10.506175301
 20
6.9375963794
 30
0.0
 10
10.4994893097
 20
6.9295092776
 30
0.0
 10
10.4924312355
 20
6.9217523578
 30
0.0
 10
10.4850140579
 20
6.9143417283
 30
0.0
 10
10.4772516449
 20
6.9072928334
 30
0.0
 10
10.469158468
 20
6.9006207276
 30
0.0
 10
10.4607500028
 20
6.8943395456
 30
0.0
 10
10.4520423103
 20
6.8884629412
 30
0.0
 10
10.4430522667
 20
6.8830037363
 30
0.0
 10
10.4337975045
 20
6.8779738711
 30
0.0
 10
10.4242962096
 20
6.8733846903
 30
0.0
 10
10.4145674027
 20
6.8692463465
 30
0.0
 10
10.4046304927
 20
6.8655682987
 30
0.0
 10
10.3945058934
 20
6.8623590422
 30
0.0
 10
10.3876533566
 20
6.8605392136
 30
0.0
 10
10.3842036322
 20
6.8597095951
 30
0.0
  0
SPLINE
  5
2C7
100
AcDbEntity
  8
0
100
AcDbSpline
 62
7
  6
CONTINUOUS
 70
0
 71
3
 72
40
 73
36
 74
0
 42
0.0000001
 43
0.0000001
 44
0.0000000001
 40
0.0
 40
0.0
 40
0.0
 40
0.0
 40
0.0309233045
 40
0.0464422818
 40
0.0619958082
 40
0.0932015209
 40
0.1245372939
 40
0.1559918306
 40
0.1875523702
 40
0.2192043348
 40
0.250932001
 40
0.2827188262
 40
0.314547861
 40
0.3464021089
 40
0.3782648246
 40
0.4101197659
 40
0.441951402
 40
0.4737450782
 40
0.5054871631
 40
0.5371651746
 40
0.5687678113
 40
0.6002849879
 40
0.631707868
 40
0.6630289099
 40
0.6942418908
 40
0.7253418742
 40
0.7563252217
 40
0.7871896194
 40
0.8179340979
 40
0.8485590249
 40
0.8790661283
 40
0.9094585333
 40
0.9397407759
 40
0.9699188012
 40
1.0
 40
1.0
 40
1.0
 40
1.0
 10
9.6493792006
 20
8.1890195191
 30
0.0
 10
9.6545831158
 20
8.1886586263
 30
0.0
 10
9.662383314
 20
8.1878467372
 30
0.0
 10
9.6727178025
 20
8.1862350861
 30
0.0
 10
9.6830390758
 20
8.1842658537
 30
0.0
 10
9.6958486116
 20
8.1811442778
 30
0.0
 10
9.7109815957
 20
8.1763731375
 30
0.0
 10
9.7258259702
 20
8.1706007588
 30
0.0
 10
9.7403155306
 20
8.1638614782
 30
0.0
 10
9.7543884085
 20
8.1561943301
 30
0.0
 10
9.7679867379
 20
8.1476426285
 30
0.0
 10
9.7810571157
 20
8.1382531354
 30
0.0
 10
9.7935506966
 20
8.1280753919
 30
0.0
 10
9.8054232407
 20
8.1171610479
 30
0.0
 10
9.8166350185
 20
8.1055632366
 30
0.0
 10
9.827150651
 20
8.0933360423
 30
0.0
 10
9.8369388889
 20
8.0805340468
 30
0.0
 10
9.8459723524
 20
8.0672119547
 30
0.0
 10
9.8542272575
 20
8.0534242981
 30
0.0
 10
9.8616831486
 20
8.0392252272
 30
0.0
 10
9.8683225688
 20
8.0246683365
 30
0.0
 10
9.8741307828
 20
8.0098065859
 30
0.0
 10
9.8790955166
 20
7.9946922589
 30
0.0
 10
9.8832067412
 20
7.9793769674
 30
0.0
 10
9.8864564969
 20
7.9639116961
 30
0.0
 10
9.8888386742
 20
7.9483468615
 30
0.0
 10
9.8903488886
 20
7.9327324111
 30
0.0
 10
9.8909843723
 20
7.9171179272
 30
0.0
 10
9.8907439593
 20
7.901552744
 30
0.0
 10
9.8896280292
 20
7.8860860688
 30
0.0
 10
9.8876384952
 20
7.8707670826
 30
0.0
 10
9.884778881
 20
7.8556451347
 30
0.0
 10
9.8810543066
 20
7.8407695447
 30
0.0
 10
9.876472077
 20
7.8261907949
 30
0.0
 10
9.872845313
 20
7.8166868919
 30
0.0
 10
9.8708924756
 20
7.8120033505
 30
0.0
  0
SPLINE
  5
2C8
100
AcDbEntity
  8
0
100
AcDbSpline
 62
7
  6
CONTINUOUS
 70
0
 71
3
 72
15
 73
11
 74
0
 42
0.0000001
 43
0.0000001
 44
0.0000000001
 40
0.0
 40
0.0
 40
0.0
 40
0.0
 40
0.1273482228
 40
0.253860527
 40
0.3795879206
 40
0.5046050801
 40
0.6290174363
 40
0.7529533709
 40
0.8765605784
 40
1.0
 40
1.0
 40
1.0
 40
1.0
 10
11.3397493641
 20
6.5767451782
 30
0.0
 10
11.3397493641
 20
6.5719407175
 30
0.0
 10
11.3392906392
 20
6.5623566905
 30
0.0
 10
11.3372160898
 20
6.5481649759
 30
0.0
 10
11.3337761353
 20
6.5343298431
 30
0.0
 10
11.3290018396
 20
6.5209806823
 30
0.0
 10
11.3229370373
 20
6.5082405906
 30
0.0
 10
11.3156369903
 20
6.4962272093
 30
0.0
 10
11.3071703378
 20
6.485053105
 30
0.0
 10
11.3007953788
 20
6.478227314
 30
0.0
 10
11.2974458219
 20
6.4749918762
 30
0.0
  0
SPLINE
  5
2C9
100
AcDbEntity
  8
0
100
AcDbSpline
 62
7
  6
CONTINUOUS
 70
0
 71
3
 72
19
 73
15
 74
0
 42
0.0000001
 43
0.0000001
 44
0.0000000001
 40
0.0
 40
0.0
 40
0.0
 40
0.0
 40
0.1273273743
 40
0.2538195733
 40
0.3795265683
 40
0.5045235045
 40
0.566807592
 40
0.6289556157
 40
0.6909843819
 40
0.7529118319
 40
0.814757013
 40
0.8765397086
 40
0.9382804082
 40
1.0
 40
1.0
 40
1.0
 40
1.0
 10
10.4395065383
 20
7.8755623335
 30
0.0
 10
10.4395065383
 20
7.8715585861
 30
0.0
 10
10.4391242713
 20
7.8635718453
 30
0.0
 10
10.4373953986
 20
7.8517451811
 30
0.0
 10
10.4345289325
 20
7.840216235
 30
0.0
 10
10.43120837
 20
7.8309324477
 30
0.0
 10
10.4280149136
 20
7.82376582
 30
0.0
 10
10.4253593162
 20
7.8185355771
 30
0.0
 10
10.4224470016
 20
7.8134568855
 30
0.0
 10
10.4192844886
 20
7.808541359
 30
0.0
 10
10.4158792559
 20
7.8038002867
 30
0.0
 10
10.4122389232
 20
7.7992446918
 30
0.0
 10
10.4083722264
 20
7.7948850725
 30
0.0
 10
10.4056488128
 20
7.7921156246
 30
0.0
 10
10.4042529224
 20
7.7907673029
 30
0.0
  0
SPLINE
  5
2CA
100
AcDbEntity
  8
0
100
AcDbSpline
 62
7
  6
CONTINUOUS
 70
0
 71
3
 72
49
 73
45
 74
0
 42
0.0000001
 43
0.0000001
 44
0.0000000001
 40
0.0
 40
0.0
 40
0.0
 40
0.0
 40
0.007162549
 40
0.0146566129
 40
0.0224897979
 40
0.0306683218
 40
0.0391972589
 40
0.0480804344
 40
0.0573201477
 40
0.0669176458
 40
0.0768732672
 40
0.0871864298
 40
0.0978559343
 40
0.1088797564
 40
0.1202552781
 40
0.1319793689
 40
0.1440482426
 40
0.1564577646
 40
0.1692032622
 40
0.1822796395
 40
0.1956814993
 40
0.2094029407
 40
0.2377791999
 40
0.2673557222
 40
0.2980746269
 40
0.329873856
 40
0.3626875581
 40
0.3964464456
 40
0.4310781688
 40
0.4665076247
 40
0.5026572416
 40
0.5394472362
 40
0.5767959063
 40
0.6146199087
 40
0.6528345123
 40
0.6913538443
 40
0.7300911408
 40
0.7689590336
 40
0.8078697487
 40
0.8467354205
 40
0.8854684204
 40
0.9239807484
 40
0.9621874756
 40
1.0
 40
1.0
 40
1.0
 40
1.0
 10
7.34809562
 20
9.8082647123
 30
0.0
 10
7.3466053178
 20
9.8068251909
 30
0.0
 10
7.3436266888
 20
9.8038053595
 30
0.0
 10
7.33926097
 20
9.798979382
 30
0.0
 10
7.3349007687
 20
9.7937593336
 30
0.0
 10
7.3305489464
 20
9.7881485901
 30
0.0
 10
7.3262078719
 20
9.782150474
 30
0.0
 10
7.3218801123
 20
9.7757684088
 30
0.0
 10
7.3175680985
 20
9.7690061888
 30
0.0
 10
7.3132744388
 20
9.7618678164
 30
0.0
 10
7.309001745
 20
9.7543575319
 30
0.0
 10
7.3047524759
 20
9.7464798477
 30
0.0
 10
7.3005292645
 20
9.7382394201
 30
0.0
 10
7.2963345803
 20
9.7296411955
 30
0.0
 10
7.2921709448
 20
9.7206903159
 30
0.0
 10
7.2880409231
 20
9.7113921248
 30
0.0
 10
7.2839469125
 20
9.7017522222
 30
0.0
 10
7.2798914553
 20
9.6917763691
 30
0.0
 10
7.2758769612
 20
9.681470563
 30
0.0
 10
7.2719058307
 20
9.6708409997
 30
0.0
 10
7.2679805073
 20
9.6598940409
 30
0.0
 10
7.2627523847
 20
9.6447136227
 30
0.0
 10
7.2563590102
 20
9.624987597
 30
0.0
 10
7.2489895701
 20
9.6004157834
 30
0.0
 10
7.2418573665
 20
9.5747449248
 30
0.0
 10
7.2349796654
 20
9.548036769
 30
0.0
 10
7.2283731279
 20
9.5203554436
 30
0.0
 10
7.2220537298
 20
9.4917675116
 30
0.0
 10
7.2160367602
 20
9.4623417272
 30
0.0
 10
7.2103367736
 20
9.4321488765
 30
0.0
 10
7.2049675639
 20
9.4012616078
 30
0.0
 10
7.1999421025
 20
9.3697542638
 30
0.0
 10
7.1952725245
 20
9.3377026928
 30
0.0
 10
7.1909701085
 20
9.3051840559
 30
0.0
 10
7.1870452493
 20
9.272276642
 30
0.0
 10
7.1835074294
 20
9.2390596848
 30
0.0
 10
7.1803651713
 20
9.2056131686
 30
0.0
 10
7.1776260519
 20
9.172017637
 30
0.0
 10
7.1752966716
 20
9.1383539887
 30
0.0
 10
7.1733826456
 20
9.1047032533
 30
0.0
 10
7.171888605
 20
9.0711466137
 30
0.0
 10
7.1708180516
 20
9.0377644836
 30
0.0
 10
7.1701736652
 20
9.0046377761
 30
0.0
 10
7.1700282639
 20
8.9826463863
 30
0.0
 10
7.1700282639
 20
8.9717078362
 30
0.0
  0
SPLINE
  5
2CB
100
AcDbEntity
  8
0
100
AcDbSpline
 62
7
  6
CONTINUOUS
 70
0
 71
3
 72
35
 73
31
 74
0
 42
0.0000001
 43
0.0000001
 44
0.0000000001
 40
0.0
 40
0.0
 40
0.0
 40
0.0
 40
0.0851784211
 40
0.1685800267
 40
0.249882267
 40
0.3287728077
 40
0.3672203308
 40
0.4049540811
 40
0.4419390139
 40
0.4781412984
 40
0.5135281869
 40
0.5480682266
 40
0.5817312635
 40
0.614488584
 40
0.6463130236
 40
0.6771790223
 40
0.7070628766
 40
0.7359427104
 40
0.7637988882
 40
0.7906139176
 40
0.8163730481
 40
0.8410641411
 40
0.8646784841
 40
0.8872106928
 40
0.9086597867
 40
0.9290292303
 40
0.9483283434
 40
0.9665726433
 40
0.9837857018
 40
1.0
 40
1.0
 40
1.0
 40
1.0
 10
7.1700282639
 20
7.2813375401
 30
0.0
 10
7.1700282639
 20
7.2670824502
 30
0.0
 10
7.1702711759
 20
7.2388689491
 30
0.0
 10
7.1713852792
 20
7.1970622929
 30
0.0
 10
7.1732408828
 20
7.1563351543
 30
0.0
 10
7.1754165065
 20
7.1231602358
 30
0.0
 10
7.1775321463
 20
7.0972940285
 30
0.0
 10
7.1792848618
 20
7.0784358852
 30
0.0
 10
7.1812152717
 20
7.0599728555
 30
0.0
 10
7.1833213077
 20
7.0419243694
 30
0.0
 10
7.1856007637
 20
7.0243094341
 30
0.0
 10
7.1880511992
 20
7.0071465944
 30
0.0
 10
7.1906700291
 20
6.990453916
 30
0.0
 10
7.1934544722
 20
6.9742489625
 30
0.0
 10
7.1964015671
 20
6.9585487796
 30
0.0
 10
7.199508209
 20
6.9433698715
 30
0.0
 10
7.2027710708
 20
6.9287281864
 30
0.0
 10
7.2061867412
 20
6.9146390958
 30
0.0
 10
7.2097515424
 20
6.9011173733
 30
0.0
 10
7.2134617773
 20
6.8881771866
 30
0.0
 10
7.2173134377
 20
6.8758320587
 30
0.0
 10
7.2213025682
 20
6.8640948843
 30
0.0
 10
7.225424861
 20
6.8529778595
 30
0.0
 10
7.2296761423
 20
6.8424925382
 30
0.0
 10
7.2340518545
 20
6.8326497157
 30
0.0
 10
7.2385476755
 20
6.8234595357
 30
0.0
 10
7.2431588656
 20
6.8149313552
 30
0.0
 10
7.2478811451
 20
6.8070737715
 30
0.0
 10
7.2527094763
 20
6.7998950227
 30
0.0
 10
7.256095188
 20
6.7954363884
 30
0.0
 10
7.2578073565
 20
6.7933311909
 30
0.0
  0
SPLINE
  5
2CC
100
AcDbEntity
  8
0
100
AcDbSpline
 62
7
  6
CONTINUOUS
 70
0
 71
3
 72
49
 73
45
 74
0
 42
0.0000001
 43
0.0000001
 44
0.0000000001
 40
0.0
 40
0.0
 40
0.0
 40
0.0
 40
0.0378125244
 40
0.0760192516
 40
0.1145315796
 40
0.1532645795
 40
0.1921302513
 40
0.2310409664
 40
0.2699088592
 40
0.3086461557
 40
0.3471654877
 40
0.3853800913
 40
0.4232040937
 40
0.4605527638
 40
0.4973427584
 40
0.5334923753
 40
0.5689218312
 40
0.6035535544
 40
0.6373124419
 40
0.670126144
 40
0.7019253731
 40
0.7326442778
 40
0.7622208001
 40
0.7905970593
 40
0.8043185007
 40
0.8177203605
 40
0.8307967378
 40
0.8435422354
 40
0.8559517574
 40
0.8680206311
 40
0.8797447219
 40
0.8911202436
 40
0.9021440657
 40
0.9128135702
 40
0.9231267328
 40
0.9330823542
 40
0.9426798523
 40
0.9519195656
 40
0.9608027411
 40
0.9693316782
 40
0.9775102021
 40
0.9853433871
 40
0.992837451
 40
1.0
 40
1.0
 40
1.0
 40
1.0
 10
15.5969053815
 20
7.9550081818
 30
0.0
 10
15.5969053815
 20
7.9440696318
 30
0.0
 10
15.5967599801
 20
7.922078242
 30
0.0
 10
15.5961155938
 20
7.8889515345
 30
0.0
 10
15.5950450404
 20
7.8555694043
 30
0.0
 10
15.5935509998
 20
7.8220127647
 30
0.0
 10
15.5916369738
 20
7.7883620293
 30
0.0
 10
15.5893075935
 20
7.754698381
 30
0.0
 10
15.5865684741
 20
7.7211028495
 30
0.0
 10
15.5834262159
 20
7.6876563332
 30
0.0
 10
15.579888396
 20
7.6544393761
 30
0.0
 10
15.5759635369
 20
7.6215319622
 30
0.0
 10
15.5716611209
 20
7.5890133253
 30
0.0
 10
15.5669915428
 20
7.5569617543
 30
0.0
 10
15.5619660815
 20
7.5254544102
 30
0.0
 10
15.5565968718
 20
7.4945671416
 30
0.0
 10
15.5508968852
 20
7.4643742908
 30
0.0
 10
15.5448799156
 20
7.4349485064
 30
0.0
 10
15.5385605175
 20
7.4063605744
 30
0.0
 10
15.5319539799
 20
7.3786792491
 30
0.0
 10
15.5250762789
 20
7.3519710932
 30
0.0
 10
15.5179440753
 20
7.3263002346
 30
0.0
 10
15.5105746351
 20
7.301728421
 30
0.0
 10
15.5041812607
 20
7.2820023954
 30
0.0
 10
15.4989531381
 20
7.2668219771
 30
0.0
 10
15.4950278146
 20
7.2558750183
 30
0.0
 10
15.4910566842
 20
7.245245455
 30
0.0
 10
15.4870421901
 20
7.234939649
 30
0.0
 10
15.4829867329
 20
7.2249637959
 30
0.0
 10
15.4788927223
 20
7.2153238933
 30
0.0
 10
15.4747627006
 20
7.2060257022
 30
0.0
 10
15.4705990651
 20
7.1970748225
 30
0.0
 10
15.4664043809
 20
7.188476598
 30
0.0
 10
15.4621811694
 20
7.1802361703
 30
0.0
 10
15.4579319003
 20
7.1723584861
 30
0.0
 10
15.4536592066
 20
7.1648482016
 30
0.0
 10
15.4493655469
 20
7.1577098292
 30
0.0
 10
15.4450535331
 20
7.1509476093
 30
0.0
 10
15.4407257735
 20
7.1445655441
 30
0.0
 10
15.436384699
 20
7.138567428
 30
0.0
 10
15.4320328767
 20
7.1329566844
 30
0.0
 10
15.4276726753
 20
7.127736636
 30
0.0
 10
15.4233069565
 20
7.1229106586
 30
0.0
 10
15.4203283276
 20
7.1198908271
 30
0.0
 10
15.4188380254
 20
7.1184513057
 30
0.0
  0
SPLINE
  5
2CD
100
AcDbEntity
  8
0
100
AcDbSpline
 62
7
  6
CONTINUOUS
 70
0
 71
3
 72
41
 73
37
 74
0
 42
0.0000001
 43
0.0000001
 44
0.0000000001
 40
0.0
 40
0.0
 40
0.0
 40
0.0
 40
0.0299421756
 40
0.0599087291
 40
0.0899234427
 40
0.12000893
 40
0.1501860972
 40
0.1804736576
 40
0.2108877103
 40
0.2414413945
 40
0.2721446252
 40
0.3030039132
 40
0.3340222692
 40
0.3651991907
 40
0.3965307261
 40
0.4280096099
 40
0.4596254632
 40
0.491365051
 40
0.5232125895
 40
0.5551500944
 40
0.5871577641
 40
0.61921439
 40
0.6512977872
 40
0.6833852384
 40
0.715453946
 40
0.7314766505
 40
0.7474863166
 40
0.7794510815
 40
0.8113327211
 40
0.8272389267
 40
0.8431175145
 40
0.8747789379
 40
0.9063078385
 40
0.9376925801
 40
0.9689252405
 40
1.0
 40
1.0
 40
1.0
 40
1.0
 10
8.5313049567
 20
9.3332924899
 30
0.0
 10
8.5349380965
 20
9.3368018046
 30
0.0
 10
8.5424901077
 20
9.3435371592
 30
0.0
 10
8.5545895439
 20
9.3527129185
 30
0.0
 10
8.5673986111
 20
9.3609154277
 30
0.0
 10
8.5808457236
 20
9.3680986886
 30
0.0
 10
8.5948569548
 20
9.3742234536
 30
0.0
 10
8.6093549778
 20
9.3792560564
 30
0.0
 10
8.6242599009
 20
9.3831689612
 30
0.0
 10
8.6394896093
 20
9.3859408054
 30
0.0
 10
8.6549602518
 20
9.3875565323
 30
0.0
 10
8.670586697
 20
9.3880074554
 30
0.0
 10
8.6862830041
 20
9.3872912965
 30
0.0
 10
8.701962892
 20
9.3854121872
 30
0.0
 10
8.7175402095
 20
9.3823806377
 30
0.0
 10
8.7329294032
 20
9.3782134717
 30
0.0
 10
8.7480459807
 20
9.3729337286
 30
0.0
 10
8.7628069685
 20
9.3665705348
 30
0.0
 10
8.7771313618
 20
9.3591589389
 30
0.0
 10
8.7909405599
 20
9.3507397225
 30
0.0
 10
8.8041588005
 20
9.3413591632
 30
0.0
 10
8.8167135386
 20
9.3310688294
 30
0.0
 10
8.8285359574
 20
9.3199251225
 30
0.0
 10
8.8395609024
 20
9.3079896292
 30
0.0
 10
8.8480369372
 20
9.2974334832
 30
0.0
 10
8.8543609004
 20
9.288659262
 30
0.0
 10
8.8603666126
 20
9.2796852646
 30
0.0
 10
8.8672714356
 20
9.2681041483
 30
0.0
 10
8.8733425966
 20
9.2560844395
 30
0.0
 10
8.8776733998
 20
9.2462536266
 30
0.0
 10
8.8816410415
 20
9.2363107729
 30
0.0
 10
8.8859248694
 20
9.2236655759
 30
0.0
 10
8.8899568633
 20
9.2082149079
 30
0.0
 10
8.892854033
 20
9.1925845631
 30
0.0
 10
8.8945999979
 20
9.1768620346
 30
0.0
 10
8.8949910855
 20
9.166346753
 30
0.0
 10
8.8949910855
 20
9.1611044495
 30
0.0
  0
SPLINE
  5
2CE
100
AcDbEntity
  8
0
100
AcDbSpline
 62
7
  6
CONTINUOUS
 70
0
 71
3
 72
41
 73
37
 74
0
 42
0.0000001
 43
0.0000001
 44
0.0000000001
 40
0.0
 40
0.0
 40
0.0
 40
0.0
 40
0.0299421756
 40
0.0599087291
 40
0.0899234427
 40
0.12000893
 40
0.1501860972
 40
0.1804736576
 40
0.2108877103
 40
0.2414413945
 40
0.2721446252
 40
0.3030039132
 40
0.3340222692
 40
0.3651991907
 40
0.3965307261
 40
0.4280096099
 40
0.4596254632
 40
0.491365051
 40
0.5232125895
 40
0.5551500944
 40
0.5871577641
 40
0.61921439
 40
0.6512977872
 40
0.6833852384
 40
0.715453946
 40
0.7314766505
 40
0.7474863166
 40
0.7794510815
 40
0.8113327211
 40
0.8272389267
 40
0.8431175145
 40
0.8747789379
 40
0.9063078385
 40
0.9376925801
 40
0.9689252405
 40
1.0
 40
1.0
 40
1.0
 40
1.0
 10
11.6106768686
 20
9.1796247047
 30
0.0
 10
11.6143100084
 20
9.1831340193
 30
0.0
 10
11.6218620196
 20
9.189869374
 30
0.0
 10
11.6339614559
 20
9.1990451333
 30
0.0
 10
11.6467705231
 20
9.2072476425
 30
0.0
 10
11.6602176356
 20
9.2144309034
 30
0.0
 10
11.6742288667
 20
9.2205556684
 30
0.0
 10
11.6887268897
 20
9.2255882711
 30
0.0
 10
11.7036318129
 20
9.229501176
 30
0.0
 10
11.7188615213
 20
9.2322730201
 30
0.0
 10
11.7343321637
 20
9.2338887471
 30
0.0
 10
11.7499586089
 20
9.2343396702
 30
0.0
 10
11.765654916
 20
9.2336235113
 30
0.0
 10
11.7813348039
 20
9.231744402
 30
0.0
 10
11.7969121215
 20
9.2287128525
 30
0.0
 10
11.8123013152
 20
9.2245456865
 30
0.0
 10
11.8274178926
 20
9.2192659434
 30
0.0
 10
11.8421788805
 20
9.2129027495
 30
0.0
 10
11.8565032738
 20
9.2054911537
 30
0.0
 10
11.8703124718
 20
9.1970719373
 30
0.0
 10
11.8835307124
 20
9.187691378
 30
0.0
 10
11.8960854506
 20
9.1774010442
 30
0.0
 10
11.9079078693
 20
9.1662573373
 30
0.0
 10
11.9189328144
 20
9.154321844
 30
0.0
 10
11.9274088492
 20
9.143765698
 30
0.0
 10
11.9337328124
 20
9.1349914768
 30
0.0
 10
11.9397385246
 20
9.1260174793
 30
0.0
 10
11.9466433475
 20
9.1144363631
 30
0.0
 10
11.9527145086
 20
9.1024166543
 30
0.0
 10
11.9570453117
 20
9.0925858414
 30
0.0
 10
11.9610129534
 20
9.0826429876
 30
0.0
 10
11.9652967813
 20
9.0699977907
 30
0.0
 10
11.9693287753
 20
9.0545471227
 30
0.0
 10
11.9722259449
 20
9.0389167779
 30
0.0
 10
11.9739719099
 20
9.0231942494
 30
0.0
 10
11.9743629975
 20
9.0126789677
 30
0.0
 10
11.9743629975
 20
9.0074366642
 30
0.0
  0
SPLINE
  5
2CF
100
AcDbEntity
  8
0
100
AcDbSpline
 62
7
  6
CONTINUOUS
 70
0
 71
3
 72
41
 73
37
 74
0
 42
0.0000001
 43
0.0000001
 44
0.0000000001
 40
0.0
 40
0.0
 40
0.0
 40
0.0
 40
0.0299421756
 40
0.0599087291
 40
0.0899234427
 40
0.12000893
 40
0.1501860972
 40
0.1804736576
 40
0.2108877103
 40
0.2414413945
 40
0.2721446252
 40
0.3030039132
 40
0.3340222692
 40
0.3651991907
 40
0.3965307261
 40
0.4280096099
 40
0.4596254632
 40
0.491365051
 40
0.5232125895
 40
0.5551500944
 40
0.5871577641
 40
0.61921439
 40
0.6512977872
 40
0.6833852384
 40
0.715453946
 40
0.7314766505
 40
0.7474863166
 40
0.7794510815
 40
0.8113327211
 40
0.8272389267
 40
0.8431175145
 40
0.8747789379
 40
0.9063078385
 40
0.9376925801
 40
0.9689252405
 40
1.0
 40
1.0
 40
1.0
 40
1.0
 10
8.5313049567
 20
6.9783652209
 30
0.0
 10
8.5349380965
 20
6.9818745355
 30
0.0
 10
8.5424901077
 20
6.9886098902
 30
0.0
 10
8.5545895439
 20
6.9977856495
 30
0.0
 10
8.5673986111
 20
7.0059881587
 30
0.0
 10
8.5808457236
 20
7.0131714196
 30
0.0
 10
8.5948569548
 20
7.0192961846
 30
0.0
 10
8.6093549778
 20
7.0243287873
 30
0.0
 10
8.6242599009
 20
7.0282416922
 30
0.0
 10
8.6394896093
 20
7.0310135363
 30
0.0
 10
8.6549602518
 20
7.0326292633
 30
0.0
 10
8.670586697
 20
7.0330801864
 30
0.0
 10
8.6862830041
 20
7.0323640275
 30
0.0
 10
8.701962892
 20
7.0304849182
 30
0.0
 10
8.7175402095
 20
7.0274533687
 30
0.0
 10
8.7329294032
 20
7.0232862027
 30
0.0
 10
8.7480459807
 20
7.0180064596
 30
0.0
 10
8.7628069685
 20
7.0116432657
 30
0.0
 10
8.7771313618
 20
7.0042316699
 30
0.0
 10
8.7909405599
 20
6.9958124535
 30
0.0
 10
8.8041588005
 20
6.9864318942
 30
0.0
 10
8.8167135386
 20
6.9761415604
 30
0.0
 10
8.8285359574
 20
6.9649978535
 30
0.0
 10
8.8395609024
 20
6.9530623602
 30
0.0
 10
8.8480369372
 20
6.9425062142
 30
0.0
 10
8.8543609004
 20
6.933731993
 30
0.0
 10
8.8603666126
 20
6.9247579955
 30
0.0
 10
8.8672714356
 20
6.9131768793
 30
0.0
 10
8.8733425966
 20
6.9011571705
 30
0.0
 10
8.8776733998
 20
6.8913263576
 30
0.0
 10
8.8816410415
 20
6.8813835038
 30
0.0
 10
8.8859248694
 20
6.8687383069
 30
0.0
 10
8.8899568633
 20
6.8532876388
 30
0.0
 10
8.892854033
 20
6.8376572941
 30
0.0
 10
8.8945999979
 20
6.8219347655
 30
0.0
 10
8.8949910855
 20
6.8114194839
 30
0.0
 10
8.8949910855
 20
6.8061771804
 30
0.0
  0
SPLINE
  5
2D0
100
AcDbEntity
  8
0
100
AcDbSpline
 62
7
  6
CONTINUOUS
 70
0
 71
3
 72
41
 73
37
 74
0
 42
0.0000001
 43
0.0000001
 44
0.0000000001
 40
0.0
 40
0.0
 40
0.0
 40
0.0
 40
0.0299421756
 40
0.0599087291
 40
0.0899234427
 40
0.12000893
 40
0.1501860972
 40
0.1804736576
 40
0.2108877103
 40
0.2414413945
 40
0.2721446252
 40
0.3030039132
 40
0.3340222692
 40
0.3651991907
 40
0.3965307261
 40
0.4280096099
 40
0.4596254632
 40
0.491365051
 40
0.5232125895
 40
0.5551500944
 40
0.5871577641
 40
0.61921439
 40
0.6512977872
 40
0.6833852384
 40
0.715453946
 40
0.7314766505
 40
0.7474863166
 40
0.7794510815
 40
0.8113327211
 40
0.8272389267
 40
0.8431175145
 40
0.8747789379
 40
0.9063078385
 40
0.9376925801
 40
0.9689252405
 40
1.0
 40
1.0
 40
1.0
 40
1.0
 10
11.6106768686
 20
6.7049226137
 30
0.0
 10
11.6143100084
 20
6.7084319283
 30
0.0
 10
11.6218620196
 20
6.715167283
 30
0.0
 10
11.6339614559
 20
6.7243430423
 30
0.0
 10
11.6467705231
 20
6.7325455515
 30
0.0
 10
11.6602176356
 20
6.7397288124
 30
0.0
 10
11.6742288667
 20
6.7458535774
 30
0.0
 10
11.6887268897
 20
6.7508861801
 30
0.0
 10
11.7036318129
 20
6.7547990849
 30
0.0
 10
11.7188615213
 20
6.7575709291
 30
0.0
 10
11.7343321637
 20
6.7591866561
 30
0.0
 10
11.7499586089
 20
6.7596375792
 30
0.0
 10
11.765654916
 20
6.7589214203
 30
0.0
 10
11.7813348039
 20
6.757042311
 30
0.0
 10
11.7969121215
 20
6.7540107615
 30
0.0
 10
11.8123013152
 20
6.7498435955
 30
0.0
 10
11.8274178926
 20
6.7445638524
 30
0.0
 10
11.8421788805
 20
6.7382006585
 30
0.0
 10
11.8565032738
 20
6.7307890627
 30
0.0
 10
11.8703124718
 20
6.7223698463
 30
0.0
 10
11.8835307124
 20
6.712989287
 30
0.0
 10
11.8960854506
 20
6.7026989532
 30
0.0
 10
11.9079078693
 20
6.6915552463
 30
0.0
 10
11.9189328144
 20
6.679619753
 30
0.0
 10
11.9274088492
 20
6.669063607
 30
0.0
 10
11.9337328124
 20
6.6602893858
 30
0.0
 10
11.9397385246
 20
6.6513153883
 30
0.0
 10
11.9466433475
 20
6.6397342721
 30
0.0
 10
11.9527145086
 20
6.6277145633
 30
0.0
 10
11.9570453117
 20
6.6178837504
 30
0.0
 10
11.9610129534
 20
6.6079408966
 30
0.0
 10
11.9652967813
 20
6.5952956996
 30
0.0
 10
11.9693287753
 20
6.5798450316
 30
0.0
 10
11.9722259449
 20
6.5642146869
 30
0.0
 10
11.9739719099
 20
6.5484921583
 30
0.0
 10
11.9743629975
 20
6.5379768767
 30
0.0
 10
11.9743629975
 20
6.5327345732
 30
0.0
  0
SPLINE
  5
2D1
100
AcDbEntity
  8
0
100
AcDbSpline
 62
7
  6
CONTINUOUS
 70
0
 71
3
 72
11
 73
7
 74
0
 42
0.0000001
 43
0.0000001
 44
0.0000000001
 40
0.0
 40
0.0
 40
0.0
 40
0.0
 40
0.2481240301
 40
0.4974621987
 40
0.7480768209
 40
1.0
 40
1.0
 40
1.0
 40
1.0
 10
10.2436687146
 20
7.3401680357
 30
0.0
 10
10.2493590274
 20
7.3415364896
 30
0.0
 10
10.2608790411
 20
7.3438373157
 30
0.0
 10
10.2784135184
 20
7.3459533136
 30
0.0
 10
10.2961476862
 20
7.3467296765
 30
0.0
 10
10.3080082725
 20
7.3463511235
 30
0.0
 10
10.3139361944
 20
7.3459400207
 30
0.0
  0
SPLINE
  5
2D2
100
AcDbEntity
  8
0
100
AcDbSpline
 62
7
  6
CONTINUOUS
 70
0
 71
3
 72
26
 73
22
 74
0
 42
0.0000001
 43
0.0000001
 44
0.0000000001
 40
0.0
 40
0.0
 40
0.0
 40
0.0
 40
0.0312367325
 40
0.0624241371
 40
0.0935659896
 40
0.1246662461
 40
0.1867491866
 40
0.2487205773
 40
0.2796828003
 40
0.3106329534
 40
0.3725088575
 40
0.4344067554
 40
0.4963756076
 40
0.5584647769
 40
0.6207226293
 40
0.6831949728
 40
0.7459234582
 40
0.8089438804
 40
0.8722850115
 40
0.935966556
 40
1.0
 40
1.0
 40
1.0
 40
1.0
 10
9.4278659256
 20
8.0487123504
 30
0.0
 10
9.4289891705
 20
8.0514062582
 30
0.0
 10
9.4313284872
 20
8.0567509555
 30
0.0
 10
9.4351159764
 20
8.0646325008
 30
0.0
 10
9.439176602
 20
8.0723627475
 30
0.0
 10
9.444946524
 20
8.0824475912
 30
0.0
 10
9.4528277178
 20
8.0946320025
 30
0.0
 10
9.4615801409
 20
8.1061909519
 30
0.0
 10
9.4690786374
 20
8.1150125492
 30
0.0
 10
9.4768997418
 20
8.1235372221
 30
0.0
 10
9.4872786204
 20
8.1336236183
 30
0.0
 10
9.5006380607
 20
8.1447293096
 30
0.0
 10
9.5148453146
 20
8.1547637937
 30
0.0
 10
9.529833848
 20
8.1636554713
 30
0.0
 10
9.5455294623
 20
8.1713379948
 30
0.0
 10
9.5618496445
 20
8.1777509072
 30
0.0
 10
9.5787041127
 20
8.1828412548
 30
0.0
 10
9.5959952536
 20
8.1865649964
 30
0.0
 10
9.6136196829
 20
8.1888881825
 30
0.0
 10
9.6314672627
 20
8.1897883555
 30
0.0
 10
9.6434103723
 20
8.1894334587
 30
0.0
 10
9.6493792006
 20
8.1890195191
 30
0.0
  0
SPLINE
  5
2D3
100
AcDbEntity
  8
0
100
AcDbSpline
 62
7
  6
CONTINUOUS
 70
0
 71
3
 72
41
 73
37
 74
0
 42
0.0000001
 43
0.0000001
 44
0.0000000001
 40
0.0
 40
0.0
 40
0.0
 40
0.0
 40
0.0299421261
 40
0.0449237712
 40
0.0599145221
 40
0.0899291772
 40
0.1200146013
 40
0.1350933596
 40
0.1501974793
 40
0.1804849718
 40
0.2108989568
 40
0.2414525746
 40
0.27215574
 40
0.3030149616
 40
0.3340332486
 40
0.3652100987
 40
0.3965415618
 40
0.4280203745
 40
0.4596361601
 40
0.4913756848
 40
0.5232231637
 40
0.55516061
 40
0.587168221
 40
0.6192247883
 40
0.6513081285
 40
0.6833955259
 40
0.7154641834
 40
0.747491675
 40
0.7794563926
 40
0.8113379819
 40
0.8431177834
 40
0.8747791281
 40
0.9063080575
 40
0.9376925183
 40
0.9689255783
 40
1.0
 40
1.0
 40
1.0
 40
1.0
 10
11.0806840306
 20
6.6993984827
 30
0.0
 10
11.0832720177
 20
6.7018982973
 30
0.0
 10
11.087306512
 20
6.7054965865
 30
0.0
 10
11.0929567872
 20
6.7099612307
 30
0.0
 10
11.0987869673
 20
6.7142037474
 30
0.0
 10
11.1063944206
 20
6.7190755173
 30
0.0
 10
11.1143717707
 20
6.723336884
 30
0.0
 10
11.1209509775
 20
6.7263685274
 30
0.0
 10
11.1276661568
 20
6.7291497726
 30
0.0
 10
11.1362813778
 20
6.7321405238
 30
0.0
 10
11.1468983635
 20
6.7349278062
 30
0.0
 10
11.1577470166
 20
6.7369024167
 30
0.0
 10
11.1687672232
 20
6.7380534349
 30
0.0
 10
11.179898442
 20
6.7383747264
 30
0.0
 10
11.191079425
 20
6.7378646612
 30
0.0
 10
11.2022487187
 20
6.7365261893
 30
0.0
 10
11.2133449536
 20
6.7343667978
 30
0.0
 10
11.2243071884
 20
6.7313984704
 30
0.0
 10
11.2350752364
 20
6.7276376158
 30
0.0
 10
11.2455899914
 20
6.7231049769
 30
0.0
 10
11.2557937454
 20
6.7178255133
 30
0.0
 10
11.2656305097
 20
6.7118282782
 30
0.0
 10
11.2750463142
 20
6.7051462473
 30
0.0
 10
11.2839894982
 20
6.6978161357
 30
0.0
 10
11.2924109898
 20
6.6898781986
 30
0.0
 10
11.3002645718
 20
6.6813760127
 30
0.0
 10
11.3075071317
 20
6.6723562396
 30
0.0
 10
11.3140988962
 20
6.6628683736
 30
0.0
 10
11.3200036447
 20
6.6529644728
 30
0.0
 10
11.3251889287
 20
6.6426988833
 30
0.0
 10
11.3296262122
 20
6.6321279428
 30
0.0
 10
11.3332911018
 20
6.6213096389
 30
0.0
 10
11.3361632928
 20
6.6103034447
 30
0.0
 10
11.3382270761
 20
6.5991694724
 30
0.0
 10
11.3394707594
 20
6.5879697961
 30
0.0
 10
11.3397493641
 20
6.580479406
 30
0.0
 10
11.3397493641
 20
6.5767451782
 30
0.0
  0
SPLINE
  5
2D4
100
AcDbEntity
  8
0
100
AcDbSpline
 62
7
  6
CONTINUOUS
 70
0
 71
3
 72
41
 73
37
 74
0
 42
0.0000001
 43
0.0000001
 44
0.0000000001
 40
0.0
 40
0.0
 40
0.0
 40
0.0
 40
0.0299421164
 40
0.0449237646
 40
0.0599145102
 40
0.0899291691
 40
0.1200146032
 40
0.1350933642
 40
0.1501974884
 40
0.1804849872
 40
0.2108989754
 40
0.2414525964
 40
0.272155768
 40
0.3030149991
 40
0.334033294
 40
0.365210149
 40
0.3965416159
 40
0.4280204341
 40
0.4596362272
 40
0.4913757563
 40
0.523223232
 40
0.5551606716
 40
0.5871682782
 40
0.6192248469
 40
0.6513081912
 40
0.6833955874
 40
0.7154642357
 40
0.7474917151
 40
0.7794564216
 40
0.8113380129
 40
0.843117809
 40
0.8747791454
 40
0.9063081207
 40
0.9376923739
 40
0.9689258699
 40
1.0
 40
1.0
 40
1.0
 40
1.0
 10
10.2236194244
 20
7.9777740329
 30
0.0
 10
10.2257760814
 20
7.9798571962
 30
0.0
 10
10.2291381935
 20
7.9828557103
 30
0.0
 10
10.2338467338
 20
7.9865762441
 30
0.0
 10
10.2387052481
 20
7.9901116027
 30
0.0
 10
10.2450447851
 20
7.9941713772
 30
0.0
 10
10.2516925777
 20
7.9977224765
 30
0.0
 10
10.2571752771
 20
8.0002487463
 30
0.0
 10
10.2627712422
 20
8.0025664479
 30
0.0
 10
10.269950602
 20
8.0050586537
 30
0.0
 10
10.2787980758
 20
8.0073813332
 30
0.0
 10
10.287838603
 20
8.0090267887
 30
0.0
 10
10.2970220866
 20
8.0099859288
 30
0.0
 10
10.3062980785
 20
8.0102536184
 30
0.0
 10
10.3156155358
 20
8.0098285132
 30
0.0
 10
10.3249232485
 20
8.0087130787
 30
0.0
 10
10.3341700772
 20
8.0069135555
 30
0.0
 10
10.3433052387
 20
8.0044399259
 30
0.0
 10
10.3522785739
 20
8.0013058522
 30
0.0
 10
10.3610408232
 20
7.9975286158
 30
0.0
 10
10.3695439066
 20
7.993129041
 30
0.0
 10
10.3777411711
 20
7.9881313399
 30
0.0
 10
10.3855876423
 20
7.9825629873
 30
0.0
 10
10.3930402667
 20
7.9764545713
 30
0.0
 10
10.4000581379
 20
7.9698396242
 30
0.0
 10
10.4066027397
 20
7.9627544636
 30
0.0
 10
10.4126381591
 20
7.9552379888
 30
0.0
 10
10.4181312598
 20
7.9473314485
 30
0.0
 10
10.4230518667
 20
7.9390782244
 30
0.0
 10
10.4273729267
 20
7.9305235954
 30
0.0
 10
10.4310706414
 20
7.9217145016
 30
0.0
 10
10.4341246926
 20
7.9126992669
 30
0.0
 10
10.4365181448
 20
7.9035274759
 30
0.0
 10
10.4382379841
 20
7.8942491703
 30
0.0
 10
10.4392743514
 20
7.8849161375
 30
0.0
 10
10.4395065383
 20
7.8786741514
 30
0.0
 10
10.4395065383
 20
7.8755623335
 30
0.0
  0
SPLINE
  5
2D5
100
AcDbEntity
  8
0
100
AcDbSpline
 62
7
  6
CONTINUOUS
 70
0
 71
3
 72
21
 73
17
 74
0
 42
0.0000001
 43
0.0000001
 44
0.0000000001
 40
0.0
 40
0.0
 40
0.0
 40
0.0
 40
0.0544269362
 40
0.1090706352
 40
0.1641451988
 40
0.2198591755
 40
0.2764134207
 40
0.3339993848
 40
0.4529295423
 40
0.514640558
 40
0.5780283771
 40
0.6432231334
 40
0.7103429475
 40
0.7794947081
 40
0.850773216
 40
1.0
 40
1.0
 40
1.0
 40
1.0
 10
8.3170790425
 20
10.715756771
 30
0.0
 10
8.3160608498
 20
10.7158273836
 30
0.0
 10
8.314015157
 20
10.7159021904
 30
0.0
 10
8.3109362436
 20
10.7158141333
 30
0.0
 10
8.3078452511
 20
10.7155259499
 30
0.0
 10
8.3047433262
 20
10.7150378741
 30
0.0
 10
8.3016312163
 20
10.7143500853
 30
0.0
 10
8.2974251187
 20
10.7131546045
 30
0.0
 10
8.2932398993
 20
10.711561934
 30
0.0
 10
8.2891000828
 20
10.7096088662
 30
0.0
 10
8.2859505062
 20
10.7079280883
 30
0.0
 10
8.2827960536
 20
10.7060501707
 30
0.0
 10
8.2796372509
 20
10.7039755953
 30
0.0
 10
8.2764748618
 20
10.701704876
 30
0.0
 10
8.2721894493
 20
10.6983656457
 30
0.0
 10
8.2690718698
 20
10.6956424247
 30
0.0
 10
8.2670234008
 20
10.6937359528
 30
0.0
  0
SPLINE
  5
2D6
100
AcDbEntity
  8
0
100
AcDbSpline
 62
7
  6
CONTINUOUS
 70
0
 71
3
 72
21
 73
17
 74
0
 42
0.0000001
 43
0.0000001
 44
0.0000000001
 40
0.0
 40
0.0
 40
0.0
 40
0.0
 40
0.1492271706
 40
0.2205019358
 40
0.2896518956
 40
0.3567720269
 40
0.4219681063
 40
0.4853571873
 40
0.5470688767
 40
0.6659992874
 40
0.7235852768
 40
0.7801397289
 40
0.8358539995
 40
0.8909288577
 40
0.9455728231
 40
1.0
 40
1.0
 40
1.0
 40
1.0
 10
7.3095581895
 20
6.729700818
 30
0.0
 10
7.3113238829
 20
6.7275298213
 30
0.0
 10
7.3140356524
 20
6.7244023581
 30
0.0
 10
7.3178190619
 20
6.7205036427
 30
0.0
 10
7.3206376759
 20
6.7178182156
 30
0.0
 10
7.3234798625
 20
6.7153274635
 30
0.0
 10
7.3263449228
 20
6.713032039
 30
0.0
 10
7.3292323791
 20
6.710932544
 30
0.0
 10
7.3330629956
 20
6.70842669
 30
0.0
 10
7.3369883157
 20
6.7062715353
 30
0.0
 10
7.3409891434
 20
6.7045069149
 30
0.0
 10
7.3439765282
 20
6.7033961163
 30
0.0
 10
7.3469813975
 20
6.7024845191
 30
0.0
 10
7.3500030354
 20
6.7017724174
 30
0.0
 10
7.3530403353
 20
6.7012602038
 30
0.0
 10
7.3550767798
 20
6.7010519091
 30
0.0
 10
7.3560949769
 20
6.7009812962
 30
0.0
  0
SPLINE
  5
2D7
100
AcDbEntity
  8
0
100
AcDbSpline
 62
7
  6
CONTINUOUS
 70
0
 71
3
 72
11
 73
7
 74
0
 42
0.0000001
 43
0.0000001
 44
0.0000000001
 40
0.0
 40
0.0
 40
0.0
 40
0.0
 40
0.2576848336
 40
0.5088461178
 40
0.7555530832
 40
1.0
 40
1.0
 40
1.0
 40
1.0
 10
14.8423285654
 20
8.9649069264
 30
0.0
 10
14.8441249111
 20
8.9654849663
 30
0.0
 10
14.8477233018
 20
8.9664752405
 30
0.0
 10
14.8531783939
 20
8.9674472792
 30
0.0
 10
14.8586054287
 20
8.9678820386
 30
0.0
 10
14.8622085686
 20
8.9678127778
 30
0.0
 10
14.8639943952
 20
8.967688941
 30
0.0
  0
SPLINE
  5
2D8
100
AcDbEntity
  8
0
100
AcDbSpline
 62
7
  6
CONTINUOUS
 70
0
 71
3
 72
88
 73
84
 74
0
 42
0.0000001
 43
0.0000001
 44
0.0000000001
 40
0.0
 40
0.0
 40
0.0
 40
0.0
 40
0.0036898845
 40
0.0075220065
 40
0.0114998302
 40
0.0156262559
 40
0.0199036486
 40
0.0243338601
 40
0.028918361
 40
0.0336582047
 40
0.0385540932
 40
0.0436064549
 40
0.0488153824
 40
0.0541807379
 40
0.0597021589
 40
0.0653790217
 40
0.0712105487
 40
0.0771957557
 40
0.0896221051
 40
0.1026473086
 40
0.1162580122
 40
0.1304388399
 40
0.1451726262
 40
0.1604406035
 40
0.1762225386
 40
0.1924968364
 40
0.2092406787
 40
0.2264301307
 40
0.2440402196
 40
0.2620450052
 40
0.2804176837
 40
0.2991306633
 40
0.3181556229
 40
0.3374635788
 40
0.3570249691
 40
0.3768097177
 40
0.3967872891
 40
0.4169267563
 40
0.4371968739
 40
0.4575661371
 40
0.4780028398
 40
0.4984751437
 40
0.5189511426
 40
0.5393989203
 40
0.5597866163
 40
0.5800824922
 40
0.6002549898
 40
0.6202727924
 40
0.6401048979
 40
0.6597206798
 40
0.6790899444
 40
0.6981829973
 40
0.7169707257
 40
0.7354246534
 40
0.7535170029
 40
0.7712207749
 40
0.7885098391
 40
0.8053589925
 40
0.821744037
 40
0.837641885
 40
0.8530306691
 40
0.8678898268
 40
0.88220022
 40
0.8959443025
 40
0.909106288
 40
0.9154647211
 40
0.9216726128
 40
0.9277285608
 40
0.9336313614
 40
0.9393799309
 40
0.9449733855
 40
0.9504110501
 40
0.9556924141
 40
0.9608172455
 40
0.9657855451
 40
0.9705975565
 40
0.9752538563
 40
0.9797553071
 40
0.9841031875
 40
0.9882992623
 40
0.9923456876
 40
0.9962449562
 40
1.0
 40
1.0
 40
1.0
 40
1.0
 10
14.7540368084
 20
7.205813126
 30
0.0
 10
14.7525904295
 20
7.2075915314
 30
0.0
 10
14.7497168855
 20
7.2112784188
 30
0.0
 10
14.7455400339
 20
7.2170762347
 30
0.0
 10
14.7414179197
 20
7.2232420834
 30
0.0
 10
14.7373523145
 20
7.2297733486
 30
0.0
 10
14.7333448383
 20
7.2366674103
 30
0.0
 10
14.7293970376
 20
7.2439214054
 30
0.0
 10
14.7255105848
 20
7.2515324026
 30
0.0
 10
14.7216870345
 20
7.2594972642
 30
0.0
 10
14.7179279194
 20
7.2678127097
 30
0.0
 10
14.7142348589
 20
7.2764753453
 30
0.0
 10
14.7106093074
 20
7.2854815782
 30
0.0
 10
14.7070527818
 20
7.2948277014
 30
0.0
 10
14.7035667922
 20
7.3045098676
 30
0.0
 10
14.7001527216
 20
7.3145240541
 30
0.0
 10
14.6968120171
 20
7.3248661466
 30
0.0
 10
14.692402266
 20
7.3392675089
 30
0.0
 10
14.6870963005
 20
7.3580657264
 30
0.0
 10
14.6811201272
 20
7.3815881008
 30
0.0
 10
14.6754679967
 20
7.4063096506
 30
0.0
 10
14.6701493574
 20
7.432189376
 30
0.0
 10
14.6651731259
 20
7.4591845237
 30
0.0
 10
14.6605476586
 20
7.4872503906
 30
0.0
 10
14.6562807376
 20
7.5163404764
 30
0.0
 10
14.6523795081
 20
7.5464065331
 30
0.0
 10
14.648850515
 20
7.5773986702
 30
0.0
 10
14.6456996907
 20
7.6092654513
 30
0.0
 10
14.6429323379
 20
7.6419539687
 30
0.0
 10
14.6405530863
 20
7.6754099288
 30
0.0
 10
14.6385659303
 20
7.7095777553
 30
0.0
 10
14.6369742202
 20
7.7444006889
 30
0.0
 10
14.6357806418
 20
7.7798208707
 30
0.0
 10
14.6349871917
 20
7.8157794395
 30
0.0
 10
14.6345952127
 20
7.8522166378
 30
0.0
 10
14.6346053898
 20
7.889071913
 30
0.0
 10
14.6350177259
 20
7.9262840114
 30
0.0
 10
14.6358315366
 20
7.9637910824
 30
0.0
 10
14.6370454817
 20
8.0015307855
 30
0.0
 10
14.6386575666
 20
8.0394403928
 30
0.0
 10
14.6406651146
 20
8.0774568919
 30
0.0
 10
14.6430647817
 20
8.1155170927
 30
0.0
 10
14.6458525824
 20
8.1535577321
 30
0.0
 10
14.6490238969
 20
8.1915155783
 30
0.0
 10
14.6525734421
 20
8.2293275396
 30
0.0
 10
14.6564953039
 20
8.2669307687
 30
0.0
 10
14.6607829582
 20
8.3042627636
 30
0.0
 10
14.6654292822
 20
8.3412614728
 30
0.0
 10
14.6704265272
 20
8.3778654059
 30
0.0
 10
14.6757663647
 20
8.4140137322
 30
0.0
 10
14.681439905
 20
8.4496463751
 30
0.0
 10
14.687437709
 20
8.484704118
 30
0.0
 10
14.6937497672
 20
8.5191287129
 30
0.0
 10
14.7003655556
 20
8.5528629688
 30
0.0
 10
14.707274053
 20
8.5858508394
 30
0.0
 10
14.7144637509
 20
8.6180375286
 30
0.0
 10
14.7219226431
 20
8.649369593
 30
0.0
 10
14.7296382858
 20
8.6797950174
 30
0.0
 10
14.7375978177
 20
8.7092632963
 30
0.0
 10
14.7457879635
 20
8.7377255377
 30
0.0
 10
14.7541950399
 20
8.7651345606
 30
0.0
 10
14.7628050152
 20
8.7914449382
 30
0.0
 10
14.771603539
 20
8.8166131442
 30
0.0
 10
14.7805759295
 20
8.8405974149
 30
0.0
 10
14.7882711936
 20
8.8597791207
 30
0.0
 10
14.7945114453
 20
8.8744946577
 30
0.0
 10
14.7991718922
 20
8.8850838304
 30
0.0
 10
14.8038645774
 20
8.8953483255
 30
0.0
 10
14.8085875112
 20
8.9052839237
 30
0.0
 10
14.8133387732
 20
8.9148864947
 30
0.0
 10
14.8181163932
 20
8.9241520648
 30
0.0
 10
14.8229183419
 20
8.933076823
 30
0.0
 10
14.8277426985
 20
8.9416570553
 30
0.0
 10
14.8325874289
 20
8.9498892445
 30
0.0
 10
14.83745053
 20
8.9577700074
 30
0.0
 10
14.8423300568
 20
8.9652960606
 30
0.0
 10
14.8472239148
 20
8.9724643359
 30
0.0
 10
14.8521301276
 20
8.9792718694
 30
0.0
 10
14.8570467548
 20
8.9857158885
 30
0.0
 10
14.8619718058
 20
8.9917938481
 30
0.0
 10
14.8669034033
 20
8.9975032165
 30
0.0
 10
14.8718392428
 20
9.0028414248
 30
0.0
 10
14.8751935236
 20
9.0062139121
 30
0.0
 10
14.8768714016
 20
9.007834618
 30
0.0
  0
SPLINE
  5
2D9
100
AcDbEntity
  8
0
100
AcDbSpline
 62
7
  6
CONTINUOUS
 70
0
 71
3
 72
11
 73
7
 74
0
 42
0.0000001
 43
0.0000001
 44
0.0000000001
 40
0.0
 40
0.0
 40
0.0
 40
0.0
 40
0.2578585834
 40
0.5090472734
 40
0.7556801164
 40
1.0
 40
1.0
 40
1.0
 40
1.0
 10
14.7235383228
 20
7.2556808611
 30
0.0
 10
14.7252565861
 20
7.2548425012
 30
0.0
 10
14.7287223509
 20
7.2533327908
 30
0.0
 10
14.7340528844
 20
7.2515802617
 30
0.0
 10
14.7394310237
 20
7.2503764836
 30
0.0
 10
14.7430522792
 20
7.2499403509
 30
0.0
 10
14.7448594352
 20
7.249815035
 30
0.0
  0
SPLINE
  5
2DA
100
AcDbEntity
  8
0
100
AcDbSpline
 62
7
  6
CONTINUOUS
 70
0
 71
3
 72
35
 73
31
 74
0
 42
0.0000001
 43
0.0000001
 44
0.0000000001
 40
0.0
 40
0.0
 40
0.0
 40
0.0
 40
0.0162142982
 40
0.0334273567
 40
0.0516716566
 40
0.0709707697
 40
0.0913402133
 40
0.1127893072
 40
0.1353215159
 40
0.1589358589
 40
0.1836269519
 40
0.2093860824
 40
0.2362011118
 40
0.2640572896
 40
0.2929371234
 40
0.3228209777
 40
0.3536869764
 40
0.385511416
 40
0.4182687365
 40
0.4519317734
 40
0.4864718131
 40
0.5218587016
 40
0.5580609861
 40
0.5950459189
 40
0.6327796692
 40
0.6712271923
 40
0.750117733
 40
0.8314199733
 40
0.9148215789
 40
1.0
 40
1.0
 40
1.0
 40
1.0
 10
15.5091262889
 20
10.1333848271
 30
0.0
 10
15.5108384574
 20
10.1312796297
 30
0.0
 10
15.5142241691
 20
10.1268209954
 30
0.0
 10
15.5190525003
 20
10.1196422465
 30
0.0
 10
15.5237747798
 20
10.1117846628
 30
0.0
 10
15.5283859699
 20
10.1032564824
 30
0.0
 10
15.5328817909
 20
10.0940663024
 30
0.0
 10
15.5372575031
 20
10.0842234799
 30
0.0
 10
15.5415087843
 20
10.0737381586
 30
0.0
 10
15.5456310772
 20
10.0626211337
 30
0.0
 10
15.5496202077
 20
10.0508839593
 30
0.0
 10
15.5534718681
 20
10.0385388314
 30
0.0
 10
15.557182103
 20
10.0255986447
 30
0.0
 10
15.5607469042
 20
10.0120769222
 30
0.0
 10
15.5641625746
 20
9.9979878316
 30
0.0
 10
15.5674254364
 20
9.9833461465
 30
0.0
 10
15.5705320782
 20
9.9681672385
 30
0.0
 10
15.5734791731
 20
9.9524670555
 30
0.0
 10
15.5762636162
 20
9.9362621021
 30
0.0
 10
15.5788824461
 20
9.9195694237
 30
0.0
 10
15.5813328817
 20
9.9024065839
 30
0.0
 10
15.5836123377
 20
9.8847916487
 30
0.0
 10
15.5857183736
 20
9.8667431625
 30
0.0
 10
15.5876487836
 20
9.8482801328
 30
0.0
 10
15.5894014991
 20
9.8294219895
 30
0.0
 10
15.5915171388
 20
9.8035557823
 30
0.0
 10
15.5936927626
 20
9.7703808637
 30
0.0
 10
15.5955483662
 20
9.7296537251
 30
0.0
 10
15.5966624695
 20
9.6878470689
 30
0.0
 10
15.5969053815
 20
9.6596335678
 30
0.0
 10
15.5969053815
 20
9.645378478
 30
0.0
  0
SPLINE
  5
2DB
100
AcDbEntity
  8
0
100
AcDbSpline
 62
7
  6
CONTINUOUS
 70
0
 71
3
 72
21
 73
17
 74
0
 42
0.0000001
 43
0.0000001
 44
0.0000000001
 40
0.0
 40
0.0
 40
0.0
 40
0.0
 40
0.149226784
 40
0.2205052919
 40
0.2896570525
 40
0.3567768666
 40
0.4219716229
 40
0.485359442
 40
0.5470704577
 40
0.6660006152
 40
0.7235865793
 40
0.7801408245
 40
0.8358548012
 40
0.8909293648
 40
0.9455730638
 40
1.0
 40
1.0
 40
1.0
 40
1.0
 10
14.4999102446
 20
6.2329800652
 30
0.0
 10
14.4978617756
 20
6.2310735933
 30
0.0
 10
14.4947441961
 20
6.2283503724
 30
0.0
 10
14.4904587836
 20
6.2250111421
 30
0.0
 10
14.4872963945
 20
6.2227404228
 30
0.0
 10
14.4841375918
 20
6.2206658474
 30
0.0
 10
14.4809831391
 20
6.2187879297
 30
0.0
 10
14.4778335626
 20
6.2171071518
 30
0.0
 10
14.4736937461
 20
6.215154084
 30
0.0
 10
14.4695085267
 20
6.2135614135
 30
0.0
 10
14.4653024291
 20
6.2123659328
 30
0.0
 10
14.4621903192
 20
6.211678144
 30
0.0
 10
14.4590883943
 20
6.2111900681
 30
0.0
 10
14.4559974018
 20
6.2109018848
 30
0.0
 10
14.4529184884
 20
6.2108138277
 30
0.0
 10
14.4508727956
 20
6.2108886344
 30
0.0
 10
14.4498546029
 20
6.210959247
 30
0.0
  0
SPLINE
  5
2DC
100
AcDbEntity
  8
0
100
AcDbSpline
 62
7
  6
CONTINUOUS
 70
0
 71
3
 72
21
 73
17
 74
0
 42
0.0000001
 43
0.0000001
 44
0.0000000001
 40
0.0
 40
0.0
 40
0.0
 40
0.0
 40
0.0544271769
 40
0.1090711423
 40
0.1641460005
 40
0.2198602711
 40
0.2764147232
 40
0.3340007126
 40
0.4529311233
 40
0.5146428127
 40
0.5780318937
 40
0.6432279731
 40
0.7103481044
 40
0.7794980642
 40
0.8507728294
 40
1.0
 40
1.0
 40
1.0
 40
1.0
 10
15.4108386684
 20
10.2257347218
 30
0.0
 10
15.4118568656
 20
10.225664109
 30
0.0
 10
15.4138933101
 20
10.2254558142
 30
0.0
 10
15.41693061
 20
10.2249436006
 30
0.0
 10
15.4199522479
 20
10.224231499
 30
0.0
 10
15.4229571172
 20
10.2233199018
 30
0.0
 10
15.4259445019
 20
10.2222091031
 30
0.0
 10
15.4299453297
 20
10.2204444827
 30
0.0
 10
15.4338706498
 20
10.2182893281
 30
0.0
 10
15.4377012663
 20
10.215783474
 30
0.0
 10
15.4405887226
 20
10.2136839791
 30
0.0
 10
15.4434537829
 20
10.2113885545
 30
0.0
 10
15.4462959695
 20
10.2088978025
 30
0.0
 10
15.4491145834
 20
10.2062123753
 30
0.0
 10
15.4528979929
 20
10.2023136599
 30
0.0
 10
15.4556097625
 20
10.1991861968
 30
0.0
 10
15.4573754559
 20
10.1970152001
 30
0.0
  0
SPLINE
  5
2DD
100
AcDbEntity
  8
0
100
AcDbSpline
 62
7
  6
CONTINUOUS
 70
0
 71
3
 72
19
 73
15
 74
0
 42
0.0000001
 43
0.0000001
 44
0.0000000001
 40
0.0
 40
0.0
 40
0.0
 40
0.0
 40
0.1273273743
 40
0.2538195733
 40
0.3795265683
 40
0.5045235045
 40
0.566807592
 40
0.6289556157
 40
0.6909843819
 40
0.7529118319
 40
0.814757013
 40
0.8765397086
 40
0.9382804082
 40
1.0
 40
1.0
 40
1.0
 40
1.0
 10
10.1883658086
 20
7.8929790022
 30
0.0
 10
10.1883658086
 20
7.8969827496
 30
0.0
 10
10.1887480755
 20
7.9049694904
 30
0.0
 10
10.1904769483
 20
7.9167961547
 30
0.0
 10
10.1933434143
 20
7.9283251008
 30
0.0
 10
10.1966639769
 20
7.9376088881
 30
0.0
 10
10.1998574333
 20
7.9447755157
 30
0.0
 10
10.2025130307
 20
7.9500057586
 30
0.0
 10
10.2054253452
 20
7.9550844502
 30
0.0
 10
10.2085878583
 20
7.9599999768
 30
0.0
 10
10.211993091
 20
7.9647410491
 30
0.0
 10
10.2156334236
 20
7.9692966439
 30
0.0
 10
10.2195001204
 20
7.9736562632
 30
0.0
 10
10.222223534
 20
7.9764257111
 30
0.0
 10
10.2236194244
 20
7.9777740329
 30
0.0
  0
SPLINE
  5
2DE
100
AcDbEntity
  8
0
100
AcDbSpline
 62
7
  6
CONTINUOUS
 70
0
 71
3
 72
35
 73
31
 74
0
 42
0.0000001
 43
0.0000001
 44
0.0000000001
 40
0.0
 40
0.0
 40
0.0
 40
0.0
 40
0.0851784852
 40
0.1685799203
 40
0.2498821825
 40
0.328772681
 40
0.3672202273
 40
0.4049539356
 40
0.4419388896
 40
0.4781411363
 40
0.5135280525
 40
0.5480680559
 40
0.5817311163
 40
0.6144884129
 40
0.6463128652
 40
0.677178859
 40
0.7070627097
 40
0.7359425626
 40
0.7637987178
 40
0.7906137917
 40
0.8163728811
 40
0.8410640414
 40
0.8646783289
 40
0.8872106208
 40
0.9086596528
 40
0.9290291842
 40
0.9483282399
 40
0.9665726208
 40
0.9837856364
 40
1.0
 40
1.0
 40
1.0
 40
1.0
 10
7.2138689011
 20
7.2616843463
 30
0.0
 10
7.2138689011
 20
7.2461446345
 30
0.0
 10
7.2141337011
 20
7.2153886675
 30
0.0
 10
7.2153482083
 20
7.1698145823
 30
0.0
 10
7.2173710213
 20
7.1254173149
 30
0.0
 10
7.2197427174
 20
7.0892528092
 30
0.0
 10
7.2220489806
 20
7.061055654
 30
0.0
 10
7.2239596682
 20
7.0404980939
 30
0.0
 10
7.2260640071
 20
7.0203712589
 30
0.0
 10
7.2283598582
 20
7.0006963183
 30
0.0
 10
7.2308446963
 20
6.9814940015
 30
0.0
 10
7.233515981
 20
6.9627845179
 30
0.0
 10
7.2363707809
 20
6.944587566
 30
0.0
 10
7.2394061637
 20
6.9269222891
 30
0.0
 10
7.2426188219
 20
6.9098072699
 30
0.0
 10
7.2460054239
 20
6.8932605003
 30
0.0
 10
7.2495623213
 20
6.8772993647
 30
0.0
 10
7.2532857807
 20
6.8619406199
 30
0.0
 10
7.2571718476
 20
6.8472003731
 30
0.0
 10
7.2612163943
 20
6.8330940617
 30
0.0
 10
7.265415193
 20
6.8196364415
 30
0.0
 10
7.2697637461
 20
6.8068415453
 30
0.0
 10
7.2742575859
 20
6.7947227051
 30
0.0
 10
7.2788918953
 20
6.7832924632
 30
0.0
 10
7.2836620062
 20
6.7725626593
 30
0.0
 10
7.2885628823
 20
6.7625442595
 30
0.0
 10
7.2935896963
 20
6.7532475766
 30
0.0
 10
7.2987374381
 20
6.7446818487
 30
0.0
 10
7.3040009591
 20
6.7368562126
 30
0.0
 10
7.3076917134
 20
6.7319957313
 30
0.0
 10
7.3095581895
 20
6.729700818
 30
0.0
  0
SPLINE
  5
2DF
100
AcDbEntity
  8
0
100
AcDbSpline
 62
7
  6
CONTINUOUS
 70
0
 71
3
 72
41
 73
37
 74
0
 42
0.0000001
 43
0.0000001
 44
0.0000000001
 40
0.0
 40
0.0
 40
0.0
 40
0.0
 40
0.0299421756
 40
0.0599087291
 40
0.0899234427
 40
0.12000893
 40
0.1501860972
 40
0.1804736576
 40
0.2108877103
 40
0.2414413945
 40
0.2721446252
 40
0.3030039132
 40
0.3340222692
 40
0.3651991907
 40
0.3965307261
 40
0.4280096099
 40
0.4596254632
 40
0.491365051
 40
0.5232125895
 40
0.5551500944
 40
0.5871577641
 40
0.61921439
 40
0.6512977872
 40
0.6833852384
 40
0.715453946
 40
0.7314766505
 40
0.7474863166
 40
0.7794510815
 40
0.8113327211
 40
0.8272389267
 40
0.8431175145
 40
0.8747789379
 40
0.9063078385
 40
0.9376925801
 40
0.9689252405
 40
1.0
 40
1.0
 40
1.0
 40
1.0
 10
8.8356016774
 20
9.0182567971
 30
0.0
 10
8.8319685376
 20
9.0147474825
 30
0.0
 10
8.8244165264
 20
9.0080121279
 30
0.0
 10
8.8123170901
 20
8.9988363685
 30
0.0
 10
8.799508023
 20
8.9906338593
 30
0.0
 10
8.7860609104
 20
8.9834505985
 30
0.0
 10
8.7720496793
 20
8.9773258334
 30
0.0
 10
8.7575516563
 20
8.9722932307
 30
0.0
 10
8.7426467332
 20
8.9683803259
 30
0.0
 10
8.7274170247
 20
8.9656084817
 30
0.0
 10
8.7119463823
 20
8.9639927548
 30
0.0
 10
8.6963199371
 20
8.9635418316
 30
0.0
 10
8.68062363
 20
8.9642579906
 30
0.0
 10
8.6649437421
 20
8.9661370999
 30
0.0
 10
8.6493664245
 20
8.9691686494
 30
0.0
 10
8.6339772309
 20
8.9733358154
 30
0.0
 10
8.6188606534
 20
8.9786155585
 30
0.0
 10
8.6040996655
 20
8.9849787523
 30
0.0
 10
8.5897752723
 20
8.9923903482
 30
0.0
 10
8.5759660742
 20
9.0008095646
 30
0.0
 10
8.5627478336
 20
9.0101901239
 30
0.0
 10
8.5501930955
 20
9.0204804577
 30
0.0
 10
8.5383706767
 20
9.0316241646
 30
0.0
 10
8.5273457316
 20
9.0435596579
 30
0.0
 10
8.5188696968
 20
9.0541158038
 30
0.0
 10
8.5125457337
 20
9.0628900251
 30
0.0
 10
8.5065400215
 20
9.0718640225
 30
0.0
 10
8.4996351985
 20
9.0834451388
 30
0.0
 10
8.4935640375
 20
9.0954648475
 30
0.0
 10
8.4892332343
 20
9.1052956605
 30
0.0
 10
8.4852655926
 20
9.1152385142
 30
0.0
 10
8.4809817647
 20
9.1278837112
 30
0.0
 10
8.4769497708
 20
9.1433343792
 30
0.0
 10
8.4740526011
 20
9.158964724
 30
0.0
 10
8.4723066362
 20
9.1746872525
 30
0.0
 10
8.4719155486
 20
9.1852025341
 30
0.0
 10
8.4719155486
 20
9.1904448376
 30
0.0
  0
SPLINE
  5
2E0
100
AcDbEntity
  8
0
100
AcDbSpline
 62
7
  6
CONTINUOUS
 70
0
 71
3
 72
41
 73
37
 74
0
 42
0.0000001
 43
0.0000001
 44
0.0000000001
 40
0.0
 40
0.0
 40
0.0
 40
0.0
 40
0.0299421756
 40
0.0599087291
 40
0.0899234427
 40
0.12000893
 40
0.1501860972
 40
0.1804736576
 40
0.2108877103
 40
0.2414413945
 40
0.2721446252
 40
0.3030039132
 40
0.3340222692
 40
0.3651991907
 40
0.3965307261
 40
0.4280096099
 40
0.4596254632
 40
0.491365051
 40
0.5232125895
 40
0.5551500944
 40
0.5871577641
 40
0.61921439
 40
0.6512977872
 40
0.6833852384
 40
0.715453946
 40
0.7314766505
 40
0.7474863166
 40
0.7794510815
 40
0.8113327211
 40
0.8272389267
 40
0.8431175145
 40
0.8747789379
 40
0.9063078385
 40
0.9376925801
 40
0.9689252405
 40
1.0
 40
1.0
 40
1.0
 40
1.0
 10
11.9149735894
 20
8.8645890119
 30
0.0
 10
11.9113404496
 20
8.8610796973
 30
0.0
 10
11.9037884384
 20
8.8543443427
 30
0.0
 10
11.8916890021
 20
8.8451685833
 30
0.0
 10
11.8788799349
 20
8.8369660741
 30
0.0
 10
11.8654328224
 20
8.8297828133
 30
0.0
 10
11.8514215913
 20
8.8236580482
 30
0.0
 10
11.8369235683
 20
8.8186254455
 30
0.0
 10
11.8220186451
 20
8.8147125407
 30
0.0
 10
11.8067889367
 20
8.8119406965
 30
0.0
 10
11.7913182943
 20
8.8103249696
 30
0.0
 10
11.7756918491
 20
8.8098740464
 30
0.0
 10
11.759995542
 20
8.8105902053
 30
0.0
 10
11.7443156541
 20
8.8124693147
 30
0.0
 10
11.7287383365
 20
8.8155008642
 30
0.0
 10
11.7133491428
 20
8.8196680302
 30
0.0
 10
11.6982325654
 20
8.8249477732
 30
0.0
 10
11.6834715775
 20
8.8313109671
 30
0.0
 10
11.6691471842
 20
8.8387225629
 30
0.0
 10
11.6553379862
 20
8.8471417794
 30
0.0
 10
11.6421197456
 20
8.8565223387
 30
0.0
 10
11.6295650074
 20
8.8668126725
 30
0.0
 10
11.6177425887
 20
8.8779563793
 30
0.0
 10
11.6067176436
 20
8.8898918727
 30
0.0
 10
11.5982416088
 20
8.9004480186
 30
0.0
 10
11.5919176456
 20
8.9092222399
 30
0.0
 10
11.5859119334
 20
8.9181962373
 30
0.0
 10
11.5790071105
 20
8.9297773536
 30
0.0
 10
11.5729359495
 20
8.9417970623
 30
0.0
 10
11.5686051463
 20
8.9516278753
 30
0.0
 10
11.5646375046
 20
8.961570729
 30
0.0
 10
11.5603536767
 20
8.974215926
 30
0.0
 10
11.5563216827
 20
8.989666594
 30
0.0
 10
11.5534245131
 20
9.0052969387
 30
0.0
 10
11.5516785481
 20
9.0210194673
 30
0.0
 10
11.5512874605
 20
9.0315347489
 30
0.0
 10
11.5512874605
 20
9.0367770524
 30
0.0
  0
SPLINE
  5
2E1
100
AcDbEntity
  8
0
100
AcDbSpline
 62
7
  6
CONTINUOUS
 70
0
 71
3
 72
41
 73
37
 74
0
 42
0.0000001
 43
0.0000001
 44
0.0000000001
 40
0.0
 40
0.0
 40
0.0
 40
0.0
 40
0.0299421756
 40
0.0599087291
 40
0.0899234427
 40
0.12000893
 40
0.1501860972
 40
0.1804736576
 40
0.2108877103
 40
0.2414413945
 40
0.2721446252
 40
0.3030039132
 40
0.3340222692
 40
0.3651991907
 40
0.3965307261
 40
0.4280096099
 40
0.4596254632
 40
0.491365051
 40
0.5232125895
 40
0.5551500944
 40
0.5871577641
 40
0.61921439
 40
0.6512977872
 40
0.6833852384
 40
0.715453946
 40
0.7314766505
 40
0.7474863166
 40
0.7794510815
 40
0.8113327211
 40
0.8272389267
 40
0.8431175145
 40
0.8747789379
 40
0.9063078385
 40
0.9376925801
 40
0.9689252405
 40
1.0
 40
1.0
 40
1.0
 40
1.0
 10
8.8356016774
 20
6.6633295281
 30
0.0
 10
8.8319685376
 20
6.6598202135
 30
0.0
 10
8.8244165264
 20
6.6530848589
 30
0.0
 10
8.8123170901
 20
6.6439090995
 30
0.0
 10
8.799508023
 20
6.6357065903
 30
0.0
 10
8.7860609104
 20
6.6285233294
 30
0.0
 10
8.7720496793
 20
6.6223985644
 30
0.0
 10
8.7575516563
 20
6.6173659617
 30
0.0
 10
8.7426467332
 20
6.6134530569
 30
0.0
 10
8.7274170247
 20
6.6106812127
 30
0.0
 10
8.7119463823
 20
6.6090654857
 30
0.0
 10
8.6963199371
 20
6.6086145626
 30
0.0
 10
8.68062363
 20
6.6093307215
 30
0.0
 10
8.6649437421
 20
6.6112098309
 30
0.0
 10
8.6493664245
 20
6.6142413804
 30
0.0
 10
8.6339772309
 20
6.6184085464
 30
0.0
 10
8.6188606534
 20
6.6236882894
 30
0.0
 10
8.6040996655
 20
6.6300514833
 30
0.0
 10
8.5897752723
 20
6.6374630791
 30
0.0
 10
8.5759660742
 20
6.6458822956
 30
0.0
 10
8.5627478336
 20
6.6552628548
 30
0.0
 10
8.5501930955
 20
6.6655531887
 30
0.0
 10
8.5383706767
 20
6.6766968955
 30
0.0
 10
8.5273457316
 20
6.6886323889
 30
0.0
 10
8.5188696968
 20
6.6991885348
 30
0.0
 10
8.5125457337
 20
6.7079627561
 30
0.0
 10
8.5065400215
 20
6.7169367535
 30
0.0
 10
8.4996351985
 20
6.7285178697
 30
0.0
 10
8.4935640375
 20
6.7405375785
 30
0.0
 10
8.4892332343
 20
6.7503683914
 30
0.0
 10
8.4852655926
 20
6.7603112452
 30
0.0
 10
8.4809817647
 20
6.7729564422
 30
0.0
 10
8.4769497708
 20
6.7884071102
 30
0.0
 10
8.4740526011
 20
6.8040374549
 30
0.0
 10
8.4723066362
 20
6.8197599835
 30
0.0
 10
8.4719155486
 20
6.8302752651
 30
0.0
 10
8.4719155486
 20
6.8355175686
 30
0.0
  0
SPLINE
  5
2E2
100
AcDbEntity
  8
0
100
AcDbSpline
 62
7
  6
CONTINUOUS
 70
0
 71
3
 72
41
 73
37
 74
0
 42
0.0000001
 43
0.0000001
 44
0.0000000001
 40
0.0
 40
0.0
 40
0.0
 40
0.0
 40
0.0299421756
 40
0.0599087291
 40
0.0899234427
 40
0.12000893
 40
0.1501860972
 40
0.1804736576
 40
0.2108877103
 40
0.2414413945
 40
0.2721446252
 40
0.3030039132
 40
0.3340222692
 40
0.3651991907
 40
0.3965307261
 40
0.4280096099
 40
0.4596254632
 40
0.491365051
 40
0.5232125895
 40
0.5551500944
 40
0.5871577641
 40
0.61921439
 40
0.6512977872
 40
0.6833852384
 40
0.715453946
 40
0.7314766505
 40
0.7474863166
 40
0.7794510815
 40
0.8113327211
 40
0.8272389267
 40
0.8431175145
 40
0.8747789379
 40
0.9063078385
 40
0.9376925801
 40
0.9689252405
 40
1.0
 40
1.0
 40
1.0
 40
1.0
 10
11.9149735894
 20
6.3898869209
 30
0.0
 10
11.9113404496
 20
6.3863776063
 30
0.0
 10
11.9037884384
 20
6.3796422516
 30
0.0
 10
11.8916890021
 20
6.3704664923
 30
0.0
 10
11.8788799349
 20
6.3622639831
 30
0.0
 10
11.8654328224
 20
6.3550807222
 30
0.0
 10
11.8514215913
 20
6.3489559572
 30
0.0
 10
11.8369235683
 20
6.3439233545
 30
0.0
 10
11.8220186451
 20
6.3400104497
 30
0.0
 10
11.8067889367
 20
6.3372386055
 30
0.0
 10
11.7913182943
 20
6.3356228785
 30
0.0
 10
11.7756918491
 20
6.3351719554
 30
0.0
 10
11.759995542
 20
6.3358881143
 30
0.0
 10
11.7443156541
 20
6.3377672236
 30
0.0
 10
11.7287383365
 20
6.3407987732
 30
0.0
 10
11.7133491428
 20
6.3449659391
 30
0.0
 10
11.6982325654
 20
6.3502456822
 30
0.0
 10
11.6834715775
 20
6.3566088761
 30
0.0
 10
11.6691471842
 20
6.3640204719
 30
0.0
 10
11.6553379862
 20
6.3724396883
 30
0.0
 10
11.6421197456
 20
6.3818202476
 30
0.0
 10
11.6295650074
 20
6.3921105815
 30
0.0
 10
11.6177425887
 20
6.4032542883
 30
0.0
 10
11.6067176436
 20
6.4151897816
 30
0.0
 10
11.5982416088
 20
6.4257459276
 30
0.0
 10
11.5919176456
 20
6.4345201489
 30
0.0
 10
11.5859119334
 20
6.4434941463
 30
0.0
 10
11.5790071105
 20
6.4550752625
 30
0.0
 10
11.5729359495
 20
6.4670949713
 30
0.0
 10
11.5686051463
 20
6.4769257842
 30
0.0
 10
11.5646375046
 20
6.486868638
 30
0.0
 10
11.5603536767
 20
6.499513835
 30
0.0
 10
11.5563216827
 20
6.514964503
 30
0.0
 10
11.5534245131
 20
6.5305948477
 30
0.0
 10
11.5516785481
 20
6.5463173763
 30
0.0
 10
11.5512874605
 20
6.5568326579
 30
0.0
 10
11.5512874605
 20
6.5620749614
 30
0.0
  0
SPLINE
  5
2E3
100
AcDbEntity
  8
0
100
AcDbSpline
 62
7
  6
CONTINUOUS
 70
0
 71
3
 72
11
 73
7
 74
0
 42
0.0000001
 43
0.0000001
 44
0.0000000001
 40
0.0
 40
0.0
 40
0.0
 40
0.0
 40
0.2481240305
 40
0.4974621992
 40
0.748076821
 40
1.0
 40
1.0
 40
1.0
 40
1.0
 10
10.3842036322
 20
6.8597095951
 30
0.0
 10
10.3785133212
 20
6.8583411417
 30
0.0
 10
10.3669933109
 20
6.8560403161
 30
0.0
 10
10.3494588389
 20
6.8539243183
 30
0.0
 10
10.3317246764
 20
6.8531479545
 30
0.0
 10
10.3198640936
 20
6.8535265069
 30
0.0
 10
10.3139361734
 20
6.8539376095
 30
0.0
  0
SPLINE
  5
2E4
100
AcDbEntity
  8
0
100
AcDbSpline
 62
7
  6
CONTINUOUS
 70
0
 71
3
 72
16
 73
12
 74
0
 42
0.0000001
 43
0.0000001
 44
0.0000000001
 40
0.0
 40
0.0
 40
0.0
 40
0.0
 40
0.1269617361
 40
0.2532980226
 40
0.379010195
 40
0.5041448485
 40
0.5665192369
 40
0.6287667756
 40
0.7528907265
 40
0.8766088491
 40
1.0
 40
1.0
 40
1.0
 40
1.0
 10
10.2204593431
 20
7.923978978
 30
0.0
 10
10.2204593431
 20
7.9270197252
 30
0.0
 10
10.2206799491
 20
7.933088622
 30
0.0
 10
10.221676547
 20
7.9421190757
 30
0.0
 10
10.2233331194
 20
7.9510079086
 30
0.0
 10
10.2252584494
 20
7.9582662897
 30
0.0
 10
10.2271186234
 20
7.9639527193
 30
0.0
 10
10.2291849815
 20
7.9695416699
 30
0.0
 10
10.2321577265
 20
7.9763561556
 30
0.0
 10
10.2363321105
 20
7.9842156239
 30
0.0
 10
10.2395075936
 20
7.9892182421
 30
0.0
 10
10.2411871745
 20
7.9916497848
 30
0.0
  0
SPLINE
  5
2E5
100
AcDbEntity
  8
0
100
AcDbSpline
 62
7
  6
CONTINUOUS
 70
0
 71
3
 72
26
 73
22
 74
0
 42
0.0000001
 43
0.0000001
 44
0.0000000001
 40
0.0
 40
0.0
 40
0.0
 40
0.0
 40
0.0312367324
 40
0.0624241369
 40
0.0935659893
 40
0.1246662458
 40
0.186749186
 40
0.2487205766
 40
0.2796827995
 40
0.3106329525
 40
0.3725088564
 40
0.4344067543
 40
0.4963756064
 40
0.5584647757
 40
0.620722628
 40
0.6831949716
 40
0.7459234572
 40
0.8089438796
 40
0.8722850109
 40
0.9359665559
 40
1.0
 40
1.0
 40
1.0
 40
1.0
 10
9.8708924756
 20
7.8120033505
 30
0.0
 10
9.8697692305
 20
7.8093094424
 30
0.0
 10
9.8674299135
 20
7.8039647446
 30
0.0
 10
9.863642424
 20
7.7960831986
 30
0.0
 10
9.8595817979
 20
7.7883529511
 30
0.0
 10
9.8538118752
 20
7.7782681066
 30
0.0
 10
9.8459306804
 20
7.7660836942
 30
0.0
 10
9.8371782562
 20
7.7545247439
 30
0.0
 10
9.8296797586
 20
7.745703146
 30
0.0
 10
9.8218586532
 20
7.7371784725
 30
0.0
 10
9.8114797731
 20
7.7270920758
 30
0.0
 10
9.7981203309
 20
7.715986384
 30
0.0
 10
9.7839130751
 20
7.7059518997
 30
0.0
 10
9.7689245396
 20
7.6970602222
 30
0.0
 10
9.7532289231
 20
7.6893776991
 30
0.0
 10
9.7369087387
 20
7.6829647875
 30
0.0
 10
9.7200542683
 20
7.6778744408
 30
0.0
 10
9.7027631253
 20
7.6741507007
 30
0.0
 10
9.6851386939
 20
7.6718275161
 30
0.0
 10
9.667291112
 20
7.6709273453
 30
0.0
 10
9.6553480013
 20
7.6712822431
 30
0.0
 10
9.6493791724
 20
7.6716961827
 30
0.0
  0
SPLINE
  5
2E6
100
AcDbEntity
  8
0
100
AcDbSpline
 62
7
  6
CONTINUOUS
 70
0
 71
3
 72
41
 73
37
 74
0
 42
0.0000001
 43
0.0000001
 44
0.0000000001
 40
0.0
 40
0.0
 40
0.0
 40
0.0
 40
0.0299421261
 40
0.0449237712
 40
0.0599145221
 40
0.0899291772
 40
0.1200146013
 40
0.1350933596
 40
0.1501974793
 40
0.1804849718
 40
0.2108989568
 40
0.2414525746
 40
0.27215574
 40
0.3030149616
 40
0.3340332486
 40
0.3652100987
 40
0.3965415618
 40
0.4280203745
 40
0.4596361601
 40
0.4913756848
 40
0.5232231637
 40
0.55516061
 40
0.587168221
 40
0.6192247883
 40
0.6513081285
 40
0.6833955259
 40
0.7154641834
 40
0.747491675
 40
0.7794563926
 40
0.8113379819
 40
0.8431177834
 40
0.8747791281
 40
0.9063080575
 40
0.9376925183
 40
0.9689255783
 40
1.0
 40
1.0
 40
1.0
 40
1.0
 10
11.2974458219
 20
6.4749918762
 30
0.0
 10
11.2948578348
 20
6.4724920616
 30
0.0
 10
11.2908233405
 20
6.4688937724
 30
0.0
 10
11.2851730653
 20
6.4644291282
 30
0.0
 10
11.2793428852
 20
6.4601866115
 30
0.0
 10
11.2717354319
 20
6.4553148416
 30
0.0
 10
11.2637580818
 20
6.4510534749
 30
0.0
 10
11.257178875
 20
6.4480218315
 30
0.0
 10
11.2504636957
 20
6.4452405863
 30
0.0
 10
11.2418484747
 20
6.4422498351
 30
0.0
 10
11.231231489
 20
6.4394625527
 30
0.0
 10
11.2203828359
 20
6.4374879422
 30
0.0
 10
11.2093626293
 20
6.436336924
 30
0.0
 10
11.1982314105
 20
6.4360156325
 30
0.0
 10
11.1870504275
 20
6.4365256977
 30
0.0
 10
11.1758811338
 20
6.4378641696
 30
0.0
 10
11.1647848989
 20
6.4400235611
 30
0.0
 10
11.1538226641
 20
6.4429918885
 30
0.0
 10
11.1430546161
 20
6.4467527431
 30
0.0
 10
11.1325398611
 20
6.451285382
 30
0.0
 10
11.1223361071
 20
6.4565648456
 30
0.0
 10
11.1124993428
 20
6.4625620807
 30
0.0
 10
11.1030835383
 20
6.4692441116
 30
0.0
 10
11.0941403543
 20
6.4765742232
 30
0.0
 10
11.0857188627
 20
6.4845121603
 30
0.0
 10
11.0778652807
 20
6.4930143462
 30
0.0
 10
11.0706227208
 20
6.5020341192
 30
0.0
 10
11.0640309563
 20
6.5115219853
 30
0.0
 10
11.0581262078
 20
6.5214258861
 30
0.0
 10
11.0529409238
 20
6.5316914756
 30
0.0
 10
11.0485036403
 20
6.5422624161
 30
0.0
 10
11.0448387507
 20
6.5530807199
 30
0.0
 10
11.0419665597
 20
6.5640869142
 30
0.0
 10
11.0399027764
 20
6.5752208865
 30
0.0
 10
11.0386590931
 20
6.5864205628
 30
0.0
 10
11.0383804884
 20
6.5939109529
 30
0.0
 10
11.0383804884
 20
6.5976451807
 30
0.0
  0
SPLINE
  5
2E7
100
AcDbEntity
  8
0
100
AcDbSpline
 62
7
  6
CONTINUOUS
 70
0
 71
3
 72
40
 73
36
 74
0
 42
0.0000001
 43
0.0000001
 44
0.0000000001
 40
0.0
 40
0.0
 40
0.0
 40
0.0
 40
0.0309233049
 40
0.0464422824
 40
0.0619958088
 40
0.0932015216
 40
0.1245372949
 40
0.1559918317
 40
0.1875523714
 40
0.2192043361
 40
0.2509320024
 40
0.2827188277
 40
0.3145478624
 40
0.3464021104
 40
0.378264826
 40
0.4101197673
 40
0.4419514033
 40
0.4737450795
 40
0.5054871643
 40
0.5371651757
 40
0.5687678123
 40
0.6002849888
 40
0.6317078688
 40
0.6630289106
 40
0.6942418914
 40
0.7253418747
 40
0.7563252222
 40
0.7871896197
 40
0.8179340982
 40
0.8485590251
 40
0.8790661285
 40
0.9094585334
 40
0.939740776
 40
0.9699188012
 40
1.0
 40
1.0
 40
1.0
 40
1.0
 10
9.6493791724
 20
7.6716961827
 30
0.0
 10
9.6441752574
 20
7.6720570755
 30
0.0
 10
9.6363750598
 20
7.672868967
 30
0.0
 10
9.626040572
 20
7.6744806198
 30
0.0
 10
9.6157192994
 20
7.6764498529
 30
0.0
 10
9.6029097646
 20
7.67957143
 30
0.0
 10
9.5877767818
 20
7.6843425719
 30
0.0
 10
9.5729324085
 20
7.6901149517
 30
0.0
 10
9.5584428496
 20
7.6968542333
 30
0.0
 10
9.5443699731
 20
7.7045213823
 30
0.0
 10
9.5307716451
 20
7.7130730846
 30
0.0
 10
9.5177012688
 20
7.7224625783
 30
0.0
 10
9.5052076894
 20
7.7326403222
 30
0.0
 10
9.4933351467
 20
7.7435546663
 30
0.0
 10
9.4821233703
 20
7.7551524777
 30
0.0
 10
9.4716077392
 20
7.7673796721
 30
0.0
 10
9.4618195027
 20
7.7801816674
 30
0.0
 10
9.4527860404
 20
7.7935037592
 30
0.0
 10
9.4445311365
 20
7.8072914155
 30
0.0
 10
9.4370752466
 20
7.8214904859
 30
0.0
 10
9.4304358274
 20
7.836047376
 30
0.0
 10
9.4246276144
 20
7.850909126
 30
0.0
 10
9.4196628815
 20
7.8660234524
 30
0.0
 10
9.4155516577
 20
7.8813387431
 30
0.0
 10
9.4123019026
 20
7.8968040135
 30
0.0
 10
9.409919726
 20
7.9123688473
 30
0.0
 10
9.408409512
 20
7.9279832969
 30
0.0
 10
9.4077740287
 20
7.9435977798
 30
0.0
 10
9.4080144421
 20
7.9591629622
 30
0.0
 10
9.4091303724
 20
7.9746296364
 30
0.0
 10
9.4111199064
 20
7.9899486218
 30
0.0
 10
9.4139795207
 20
8.0050705688
 30
0.0
 10
9.4177040951
 20
8.0199461579
 30
0.0
 10
9.4222863245
 20
8.0345249068
 30
0.0
 10
9.4259130882
 20
8.0440288093
 30
0.0
 10
9.4278659256
 20
8.0487123504
 30
0.0
  0
SPLINE
  5
2E8
100
AcDbEntity
  8
0
100
AcDbSpline
 62
7
  6
CONTINUOUS
 70
0
 71
3
 72
41
 73
37
 74
0
 42
0.0000001
 43
0.0000001
 44
0.0000000001
 40
0.0
 40
0.0
 40
0.0
 40
0.0
 40
0.0299421164
 40
0.0449237646
 40
0.0599145102
 40
0.0899291691
 40
0.1200146032
 40
0.1350933642
 40
0.1501974884
 40
0.1804849872
 40
0.2108989754
 40
0.2414525964
 40
0.272155768
 40
0.3030149991
 40
0.334033294
 40
0.365210149
 40
0.3965416159
 40
0.4280204341
 40
0.4596362272
 40
0.4913757563
 40
0.523223232
 40
0.5551606716
 40
0.5871682782
 40
0.6192248469
 40
0.6513081912
 40
0.6833955874
 40
0.7154642357
 40
0.7474917151
 40
0.7794564216
 40
0.8113380129
 40
0.843117809
 40
0.8747791454
 40
0.9063081207
 40
0.9376923739
 40
0.9689258699
 40
1.0
 40
1.0
 40
1.0
 40
1.0
 10
10.4042529224
 20
7.7907673029
 30
0.0
 10
10.4020962654
 20
7.7886841396
 30
0.0
 10
10.3987341533
 20
7.7856856254
 30
0.0
 10
10.3940256131
 20
7.7819650916
 30
0.0
 10
10.3891670988
 20
7.778429733
 30
0.0
 10
10.3828275617
 20
7.7743699585
 30
0.0
 10
10.3761797692
 20
7.7708188592
 30
0.0
 10
10.3706970698
 20
7.7682925894
 30
0.0
 10
10.3651011047
 20
7.7659748878
 30
0.0
 10
10.3579217448
 20
7.763482682
 30
0.0
 10
10.349074271
 20
7.7611600026
 30
0.0
 10
10.3400337438
 20
7.759514547
 30
0.0
 10
10.3308502602
 20
7.7585554069
 30
0.0
 10
10.3215742684
 20
7.7582877173
 30
0.0
 10
10.3122568111
 20
7.7587128225
 30
0.0
 10
10.3029490984
 20
7.759828257
 30
0.0
 10
10.2937022696
 20
7.7616277802
 30
0.0
 10
10.2845671081
 20
7.7641014098
 30
0.0
 10
10.2755937729
 20
7.7672354836
 30
0.0
 10
10.2668315236
 20
7.7710127199
 30
0.0
 10
10.2583284402
 20
7.7754122947
 30
0.0
 10
10.2501311758
 20
7.7804099958
 30
0.0
 10
10.2422847046
 20
7.7859783484
 30
0.0
 10
10.2348320802
 20
7.7920867644
 30
0.0
 10
10.2278142089
 20
7.7987017115
 30
0.0
 10
10.2212696072
 20
7.8057868721
 30
0.0
 10
10.2152341877
 20
7.8133033469
 30
0.0
 10
10.209741087
 20
7.8212098873
 30
0.0
 10
10.2048204802
 20
7.8294631113
 30
0.0
 10
10.2004994201
 20
7.8380177404
 30
0.0
 10
10.1968017054
 20
7.8468268341
 30
0.0
 10
10.1937476543
 20
7.8558420688
 30
0.0
 10
10.1913542021
 20
7.8650138598
 30
0.0
 10
10.1896343628
 20
7.8742921654
 30
0.0
 10
10.1885979955
 20
7.8836251983
 30
0.0
 10
10.1883658086
 20
7.8898671843
 30
0.0
 10
10.1883658086
 20
7.8929790022
 30
0.0
  0
SPLINE
  5
2E9
100
AcDbEntity
  8
0
100
AcDbSpline
 62
7
  6
CONTINUOUS
 70
0
 71
3
 72
23
 73
19
 74
0
 42
0.0000001
 43
0.0000001
 44
0.0000000001
 40
0.0
 40
0.0
 40
0.0
 40
0.0
 40
0.0637744828
 40
0.1273454316
 40
0.1907025265
 40
0.2538558004
 40
0.316813226
 40
0.3795821625
 40
0.4421733656
 40
0.5045993404
 40
0.5668738661
 40
0.6290123724
 40
0.6910316429
 40
0.7529496283
 40
0.8147853425
 40
0.8765585905
 40
0.938289842
 40
1.0
 40
1.0
 40
1.0
 40
1.0
 10
8.4719155486
 20
9.1904448376
 30
0.0
 10
8.4719155486
 20
9.1938236299
 30
0.0
 10
8.472077341
 20
9.2005715738
 30
0.0
 10
8.4728072217
 20
9.2106524347
 30
0.0
 10
8.4740226398
 20
9.2206534714
 30
0.0
 10
8.4757206601
 20
9.2305509571
 30
0.0
 10
8.4778972549
 20
9.2403224565
 30
0.0
 10
8.4805476755
 20
9.2499453651
 30
0.0
 10
8.4836656712
 20
9.2593974863
 30
0.0
 10
8.4872440946
 20
9.2686570403
 30
0.0
 10
8.4912748061
 20
9.2777026359
 30
0.0
 10
8.4957483819
 20
9.2865134706
 30
0.0
 10
8.5006546598
 20
9.2950691504
 30
0.0
 10
8.5059822671
 20
9.3033499784
 30
0.0
 10
8.5117188857
 20
9.3113368557
 30
0.0
 10
8.5178514683
 20
9.3190113326
 30
0.0
 10
8.5243654821
 20
9.3263555861
 30
0.0
 10
8.5289533993
 20
9.3310210787
 30
0.0
 10
8.5313049567
 20
9.3332924899
 30
0.0
  0
SPLINE
  5
2EA
100
AcDbEntity
  8
0
100
AcDbSpline
 62
7
  6
CONTINUOUS
 70
0
 71
3
 72
23
 73
19
 74
0
 42
0.0000001
 43
0.0000001
 44
0.0000000001
 40
0.0
 40
0.0
 40
0.0
 40
0.0
 40
0.0637744828
 40
0.1273454316
 40
0.1907025265
 40
0.2538558004
 40
0.316813226
 40
0.3795821625
 40
0.4421733656
 40
0.5045993404
 40
0.5668738661
 40
0.6290123724
 40
0.6910316429
 40
0.7529496283
 40
0.8147853425
 40
0.8765585905
 40
0.938289842
 40
1.0
 40
1.0
 40
1.0
 40
1.0
 10
11.5512874605
 20
9.0367770524
 30
0.0
 10
11.5512874605
 20
9.0401558446
 30
0.0
 10
11.551449253
 20
9.0469037886
 30
0.0
 10
11.5521791337
 20
9.0569846494
 30
0.0
 10
11.5533945518
 20
9.0669856862
 30
0.0
 10
11.555092572
 20
9.0768831718
 30
0.0
 10
11.5572691668
 20
9.0866546713
 30
0.0
 10
11.5599195875
 20
9.0962775798
 30
0.0
 10
11.5630375831
 20
9.1057297011
 30
0.0
 10
11.5666160065
 20
9.1149892551
 30
0.0
 10
11.5706467181
 20
9.1240348507
 30
0.0
 10
11.5751202939
 20
9.1328456854
 30
0.0
 10
11.5800265718
 20
9.1414013652
 30
0.0
 10
11.585354179
 20
9.1496821932
 30
0.0
 10
11.5910907977
 20
9.1576690705
 30
0.0
 10
11.5972233802
 20
9.1653435474
 30
0.0
 10
11.603737394
 20
9.1726878009
 30
0.0
 10
11.6083253112
 20
9.1773532935
 30
0.0
 10
11.6106768686
 20
9.1796247047
 30
0.0
  0
SPLINE
  5
2EB
100
AcDbEntity
  8
0
100
AcDbSpline
 62
7
  6
CONTINUOUS
 70
0
 71
3
 72
23
 73
19
 74
0
 42
0.0000001
 43
0.0000001
 44
0.0000000001
 40
0.0
 40
0.0
 40
0.0
 40
0.0
 40
0.0637744828
 40
0.1273454316
 40
0.1907025265
 40
0.2538558004
 40
0.316813226
 40
0.3795821625
 40
0.4421733656
 40
0.5045993404
 40
0.5668738661
 40
0.6290123724
 40
0.6910316429
 40
0.7529496283
 40
0.8147853425
 40
0.8765585905
 40
0.938289842
 40
1.0
 40
1.0
 40
1.0
 40
1.0
 10
8.4719155486
 20
6.8355175686
 30
0.0
 10
8.4719155486
 20
6.8388963608
 30
0.0
 10
8.472077341
 20
6.8456443048
 30
0.0
 10
8.4728072217
 20
6.8557251656
 30
0.0
 10
8.4740226398
 20
6.8657262024
 30
0.0
 10
8.4757206601
 20
6.875623688
 30
0.0
 10
8.4778972549
 20
6.8853951874
 30
0.0
 10
8.4805476755
 20
6.895018096
 30
0.0
 10
8.4836656712
 20
6.9044702173
 30
0.0
 10
8.4872440946
 20
6.9137297713
 30
0.0
 10
8.4912748061
 20
6.9227753669
 30
0.0
 10
8.4957483819
 20
6.9315862016
 30
0.0
 10
8.5006546598
 20
6.9401418814
 30
0.0
 10
8.5059822671
 20
6.9484227094
 30
0.0
 10
8.5117188857
 20
6.9564095867
 30
0.0
 10
8.5178514683
 20
6.9640840636
 30
0.0
 10
8.5243654821
 20
6.9714283171
 30
0.0
 10
8.5289533993
 20
6.9760938097
 30
0.0
 10
8.5313049567
 20
6.9783652209
 30
0.0
  0
SPLINE
  5
2EC
100
AcDbEntity
  8
0
100
AcDbSpline
 62
7
  6
CONTINUOUS
 70
0
 71
3
 72
48
 73
44
 74
0
 42
0.0000001
 43
0.0000001
 44
0.0000000001
 40
0.0
 40
0.0
 40
0.0
 40
0.0
 40
0.0378126882
 40
0.0760192244
 40
0.1145316533
 40
0.1532646684
 40
0.192130348
 40
0.2310410943
 40
0.2699090056
 40
0.308646322
 40
0.3471656717
 40
0.3853802996
 40
0.4232043291
 40
0.4605530172
 40
0.4973430216
 40
0.5334926543
 40
0.5689221418
 40
0.6035538949
 40
0.6373127924
 40
0.6701264944
 40
0.7019257413
 40
0.7326446802
 40
0.7622212296
 40
0.7905974914
 40
0.8177202481
 40
0.8307966625
 40
0.8435421432
 40
0.8559516828
 40
0.8680205675
 40
0.8797446449
 40
0.8911201969
 40
0.9021440081
 40
0.9128135267
 40
0.9231267006
 40
0.9330823085
 40
0.9426798206
 40
0.9519195346
 40
0.9608027361
 40
0.969331691
 40
0.9775101852
 40
0.9853433287
 40
0.9928373926
 40
1.0
 40
1.0
 40
1.0
 40
1.0
 10
12.4066864159
 20
8.5938633764
 30
0.0
 10
12.4066864159
 20
8.6057877132
 30
0.0
 10
12.4068449152
 20
8.6297608637
 30
0.0
 10
12.4075473791
 20
8.6658728304
 30
0.0
 10
12.4087144016
 20
8.7022631908
 30
0.0
 10
12.4103430854
 20
8.738843849
 30
0.0
 10
12.4124295935
 20
8.7755270608
 30
0.0
 10
12.414968882
 20
8.8122243506
 30
0.0
 10
12.417954844
 20
8.8488473883
 30
0.0
 10
12.421380276
 20
8.8853079776
 30
0.0
 10
12.4252369156
 20
8.9215183227
 30
0.0
 10
12.4295154599
 20
8.9573912336
 30
0.0
 10
12.4342055869
 20
8.9928403326
 30
0.0
 10
12.4392959748
 20
9.0277802695
 30
0.0
 10
12.4447743207
 20
9.0621269317
 30
0.0
 10
12.4506273859
 20
9.0957976452
 30
0.0
 10
12.4568410239
 20
9.1287113716
 30
0.0
 10
12.4634002139
 20
9.1607889044
 30
0.0
 10
12.4702890987
 20
9.1919530692
 30
0.0
 10
12.4774910036
 20
9.2221289192
 30
0.0
 10
12.4849884948
 20
9.2512439244
 30
0.0
 10
12.4927634202
 20
9.2792281245
 30
0.0
 10
12.5007969522
 20
9.3060143809
 30
0.0
 10
12.5090696427
 20
9.3315382858
 30
0.0
 10
12.5162305807
 20
9.3519464145
 30
0.0
 10
12.5220737721
 20
9.3675872805
 30
0.0
 10
12.526450084
 20
9.3788218075
 30
0.0
 10
12.530870987
 20
9.3896966479
 30
0.0
 10
12.5353339278
 20
9.4002052652
 30
0.0
 10
12.5398361566
 20
9.4103413663
 30
0.0
 10
12.5443749712
 20
9.4200988767
 30
0.0
 10
12.5489476893
 20
9.4294719349
 30
0.0
 10
12.5535514742
 20
9.4384549614
 30
0.0
 10
12.5581836634
 20
9.4470425562
 30
0.0
 10
12.5628414135
 20
9.4552296281
 30
0.0
 10
12.5675219761
 20
9.4630112942
 30
0.0
 10
12.5722225912
 20
9.4703828983
 30
0.0
 10
12.5769403599
 20
9.4773400975
 30
0.0
 10
12.5816726311
 20
9.4838787452
 30
0.0
 10
12.5864166168
 20
9.4899950864
 30
0.0
 10
12.5911697134
 20
9.4956855366
 30
0.0
 10
12.5959288584
 20
9.5009464121
 30
0.0
 10
12.5991759246
 20
9.5042383878
 30
0.0
 10
12.6008005396
 20
9.5058076454
 30
0.0
  0
SPLINE
  5
2ED
100
AcDbEntity
  8
0
100
AcDbSpline
 62
7
  6
CONTINUOUS
 70
0
 71
3
 72
18
 73
14
 74
0
 42
0.0000001
 43
0.0000001
 44
0.0000000001
 40
0.0
 40
0.0
 40
0.0
 40
0.0
 40
0.1504644953
 40
0.2917101341
 40
0.4244370579
 40
0.5495623416
 40
0.6682137756
 40
0.7255498092
 40
0.7817913051
 40
0.8371402808
 40
0.8918094146
 40
0.9460200883
 40
1.0
 40
1.0
 40
1.0
 40
1.0
 10
13.4580085095
 20
10.3338070112
 30
0.0
 10
13.4601287952
 20
10.33585505
 30
0.0
 10
13.4643664727
 20
10.339697747
 30
0.0
 10
13.4709284153
 20
10.3448189013
 30
0.0
 10
13.4774827413
 20
10.3491019269
 30
0.0
 10
13.4840225063
 20
10.3525398358
 30
0.0
 10
13.4895191018
 20
10.3547198132
 30
0.0
 10
13.4938831519
 20
10.356015093
 30
0.0
 10
13.4971097299
 20
10.3567615886
 30
0.0
 10
13.500325581
 20
10.3572936781
 30
0.0
 10
13.5035298269
 20
10.3576111341
 30
0.0
 10
13.5067211967
 20
10.3577136899
 30
0.0
 10
13.5088414472
 20
10.3576386762
 30
0.0
 10
13.5098964851
 20
10.35756551
 30
0.0
  0
SPLINE
  5
2EE
100
AcDbEntity
  8
0
100
AcDbSpline
 62
7
  6
CONTINUOUS
 70
0
 71
3
 72
39
 73
35
 74
0
 42
0.0000001
 43
0.0000001
 44
0.0000000001
 40
0.0
 40
0.0
 40
0.0
 40
0.0
 40
0.030959768
 40
0.0620677759
 40
0.0933140258
 40
0.1246955904
 40
0.1562024443
 40
0.1878233728
 40
0.2195452965
 40
0.2513531848
 40
0.2832305934
 40
0.315159879
 40
0.3471225326
 40
0.3790994761
 40
0.4110713714
 40
0.4430189808
 40
0.4749234883
 40
0.5067667914
 40
0.5385318219
 40
0.5702028738
 40
0.6017658661
 40
0.6332085799
 40
0.6645209194
 40
0.6956951326
 40
0.7267259553
 40
0.7576107242
 40
0.7883494989
 40
0.8189451004
 40
0.8494030714
 40
0.8797315985
 40
0.9099414224
 40
0.9400456502
 40
0.9700594978
 40
1.0
 40
1.0
 40
1.0
 40
1.0
 10
10.2204593431
 20
7.923978978
 30
0.0
 10
10.2204593431
 20
7.921110738
 30
0.0
 10
10.2206565805
 20
7.9153586482
 30
0.0
 10
10.2215374233
 20
7.9067523903
 30
0.0
 10
10.2230001771
 20
7.8981857528
 30
0.0
 10
10.2250375833
 20
7.889699524
 30
0.0
 10
10.227640323
 20
7.881332973
 30
0.0
 10
10.2307960796
 20
7.8731252446
 30
0.0
 10
10.2344900559
 20
7.8651146012
 30
0.0
 10
10.2387050301
 20
7.8573384348
 30
0.0
 10
10.2434213126
 20
7.8498330409
 30
0.0
 10
10.2486168214
 20
7.8426334023
 30
0.0
 10
10.2542672969
 20
7.8357731006
 30
0.0
 10
10.2603464012
 20
7.8292841747
 30
0.0
 10
10.2668257653
 20
7.8231969124
 30
0.0
 10
10.2736751196
 20
7.8175396851
 30
0.0
 10
10.2808625147
 20
7.8123389006
 30
0.0
 10
10.2883544537
 20
7.8076188949
 30
0.0
 10
10.2961159733
 20
7.8034017109
 30
0.0
 10
10.3041108444
 20
7.7997070235
 30
0.0
 10
10.3123017747
 20
7.7965521228
 30
0.0
 10
10.3206505634
 20
7.7939518446
 30
0.0
 10
10.3291182307
 20
7.7919183521
 30
0.0
 10
10.3376652436
 20
7.7904611688
 30
0.0
 10
10.3462516998
 20
7.7895871826
 30
0.0
 10
10.3548374946
 20
7.7893006135
 30
0.0
 10
10.3633825022
 20
7.7896028255
 30
0.0
 10
10.3718467851
 20
7.7904924616
 30
0.0
 10
10.380190758
 20
7.7919654648
 30
0.0
 10
10.3883753764
 20
7.7940150838
 30
0.0
 10
10.3963623068
 20
7.7966317171
 30
0.0
 10
10.4041142894
 20
7.7998032628
 30
0.0
 10
10.4115945201
 20
7.8035146356
 30
0.0
 10
10.4163828502
 20
7.8063409345
 30
0.0
 10
10.4187185731
 20
7.8078370715
 30
0.0
  0
SPLINE
  5
2EF
100
AcDbEntity
  8
0
100
AcDbSpline
 62
7
  6
CONTINUOUS
 70
0
 71
3
 72
31
 73
27
 74
0
 42
0.0000001
 43
0.0000001
 44
0.0000000001
 40
0.0
 40
0.0
 40
0.0
 40
0.0
 40
0.0755819695
 40
0.1466091388
 40
0.2134205931
 40
0.2764566777
 40
0.3362567223
 40
0.3651526365
 40
0.3934903473
 40
0.4213665039
 40
0.4488830585
 40
0.4761464938
 40
0.5032665116
 40
0.5303546853
 40
0.5575230581
 40
0.5848825618
 40
0.6125416478
 40
0.64060503
 40
0.6691724055
 40
0.6983378095
 40
0.7281891336
 40
0.7902471685
 40
0.8559382257
 40
0.8903025013
 40
0.9257411775
 40
1.0
 40
1.0
 40
1.0
 40
1.0
 10
14.8768714016
 20
7.1996212737
 30
0.0
 10
14.8742699542
 20
7.1971084684
 30
0.0
 10
14.8690705956
 20
7.1923886846
 30
0.0
 10
14.8610240868
 20
7.1860834632
 30
0.0
 10
14.8529868818
 20
7.1807878804
 30
0.0
 10
14.8449671391
 20
7.1765102253
 30
0.0
 10
14.8382262868
 20
7.1737688324
 30
0.0
 10
14.8328723171
 20
7.1721160165
 30
0.0
 10
14.828913548
 20
7.1711480772
 30
0.0
 10
14.8249674477
 20
7.1704383537
 30
0.0
 10
14.8210351032
 20
7.1699872158
 30
0.0
 10
14.8171177972
 20
7.1697948815
 30
0.0
 10
14.8132167919
 20
7.1698614304
 30
0.0
 10
14.8093333749
 20
7.1701869409
 30
0.0
 10
14.8054688392
 20
7.1707713126
 30
0.0
 10
14.801624434
 20
7.1716142257
 30
0.0
 10
14.797801384
 20
7.1727153557
 30
0.0
 10
14.7940008852
 20
7.1740743119
 30
0.0
 10
14.7902240591
 20
7.1756904557
 30
0.0
 10
14.7864718936
 20
7.1775632242
 30
0.0
 10
14.7814388061
 20
7.1804384252
 30
0.0
 10
14.7752031467
 20
7.1847056326
 30
0.0
 10
14.7692410638
 20
7.1896857641
 30
0.0
 10
14.7645343009
 20
7.1941473893
 30
0.0
 10
14.7597238779
 20
7.1990875766
 30
0.0
 10
14.75627898
 20
7.2030562483
 30
0.0
 10
14.7540368084
 20
7.205813126
 30
0.0
  0
SPLINE
  5
2F0
100
AcDbEntity
  8
0
100
AcDbSpline
 62
7
  6
CONTINUOUS
 70
0
 71
3
 72
49
 73
45
 74
0
 42
0.0000001
 43
0.0000001
 44
0.0000000001
 40
0.0
 40
0.0
 40
0.0
 40
0.0
 40
0.0313647276
 40
0.0629203815
 40
0.0946557081
 40
0.1265522539
 40
0.1585871571
 40
0.1907333305
 40
0.222960629
 40
0.2552368779
 40
0.2875289163
 40
0.3198036061
 40
0.3520287822
 40
0.3841741248
 40
0.416211931
 40
0.4481178005
 40
0.4798712314
 40
0.5114561242
 40
0.5428611981
 40
0.5740803094
 40
0.6051126714
 40
0.6359629704
 40
0.6666413629
 40
0.6971633382
 40
0.7123759111
 40
0.7275574858
 40
0.7427113456
 40
0.7578410172
 40
0.7729502445
 40
0.7880429875
 40
0.8031233479
 40
0.818195588
 40
0.8332640575
 40
0.8483331691
 40
0.8634073825
 40
0.878491113
 40
0.8935887559
 40
0.9087045918
 40
0.9238427702
 40
0.9390072856
 40
0.9542018851
 40
0.9694301041
 40
0.9846951755
 40
1.0
 40
1.0
 40
1.0
 40
1.0
 10
10.3139361734
 20
6.8539376095
 30
0.0
 10
10.3066823896
 20
6.8544406611
 30
0.0
 10
10.2921684719
 20
6.8561160368
 30
0.0
 10
10.2706564718
 20
6.8605861596
 30
0.0
 10
10.2495059902
 20
6.866981018
 30
0.0
 10
10.2288940059
 20
6.8752428349
 30
0.0
 10
10.2089883172
 20
6.8852974607
 30
0.0
 10
10.1899494859
 20
6.8970557252
 30
0.0
 10
10.1719284188
 20
6.9104147204
 30
0.0
 10
10.1550654885
 20
6.9252594067
 30
0.0
 10
10.1394895441
 20
6.9414641482
 30
0.0
 10
10.1253172763
 20
6.958894262
 30
0.0
 10
10.1126527682
 20
6.9774074942
 30
0.0
 10
10.1015872311
 20
6.9968554007
 30
0.0
 10
10.0921989544
 20
7.0170846485
 30
0.0
 10
10.0845533228
 20
7.0379381478
 30
0.0
 10
10.0787029046
 20
7.0592560618
 30
0.0
 10
10.0746875755
 20
7.080876701
 30
0.0
 10
10.0725346082
 20
7.1026373001
 30
0.0
 10
10.0722587764
 20
7.1243747739
 30
0.0
 10
10.0738623562
 20
7.1459262584
 30
0.0
 10
10.0773353283
 20
7.1671302368
 30
0.0
 10
10.0826544686
 20
7.1878254567
 30
0.0
 10
10.0886047399
 20
7.20453925
 30
0.0
 10
10.0942455762
 20
7.2174902574
 30
0.0
 10
10.0989049784
 20
7.2269703064
 30
0.0
 10
10.1039890862
 20
7.2362073923
 30
0.0
 10
10.1094891293
 20
7.245183468
 30
0.0
 10
10.1153952455
 20
7.2538806211
 30
0.0
 10
10.1216970431
 20
7.262281248
 30
0.0
 10
10.1283830345
 20
7.2703683502
 30
0.0
 10
10.1354411087
 20
7.2781252703
 30
0.0
 10
10.1428582864
 20
7.2855359002
 30
0.0
 10
10.1506206995
 20
7.2925847954
 30
0.0
 10
10.1587138766
 20
7.2992569016
 30
0.0
 10
10.1671223419
 20
7.3055380838
 30
0.0
 10
10.1758300346
 20
7.3114146885
 30
0.0
 10
10.1848200785
 20
7.3168738936
 30
0.0
 10
10.1940748409
 20
7.3219037591
 30
0.0
 10
10.2035761361
 20
7.3264929401
 30
0.0
 10
10.2133049433
 20
7.330631284
 30
0.0
 10
10.2232418535
 20
7.334309332
 30
0.0
 10
10.2333664531
 20
7.3375185886
 30
0.0
 10
10.2402189902
 20
7.3393384172
 30
0.0
 10
10.2436687146
 20
7.3401680357
 30
0.0
  0
SPLINE
  5
2F1
100
AcDbEntity
  8
0
100
AcDbSpline
 62
7
  6
CONTINUOUS
 70
0
 71
3
 72
49
 73
45
 74
0
 42
0.0000001
 43
0.0000001
 44
0.0000000001
 40
0.0
 40
0.0
 40
0.0
 40
0.0
 40
0.0378125244
 40
0.0760192516
 40
0.1145315796
 40
0.1532645795
 40
0.1921302513
 40
0.2310409664
 40
0.2699088592
 40
0.3086461557
 40
0.3471654877
 40
0.3853800913
 40
0.4232040937
 40
0.4605527638
 40
0.4973427584
 40
0.5334923753
 40
0.5689218312
 40
0.6035535544
 40
0.6373124419
 40
0.670126144
 40
0.7019253731
 40
0.7326442778
 40
0.7622208001
 40
0.7905970593
 40
0.8043185007
 40
0.8177203605
 40
0.8307967378
 40
0.8435422354
 40
0.8559517574
 40
0.8680206311
 40
0.8797447219
 40
0.8911202436
 40
0.9021440657
 40
0.9128135702
 40
0.9231267328
 40
0.9330823542
 40
0.9426798523
 40
0.9519195656
 40
0.9608027411
 40
0.9693316782
 40
0.9775102021
 40
0.9853433871
 40
0.992837451
 40
1.0
 40
1.0
 40
1.0
 40
1.0
 10
14.3835626994
 20
8.4733793758
 30
0.0
 10
14.3835626994
 20
8.4843179258
 30
0.0
 10
14.3837081008
 20
8.5063093156
 30
0.0
 10
14.3843524871
 20
8.5394360231
 30
0.0
 10
14.3854230405
 20
8.5728181533
 30
0.0
 10
14.3869170811
 20
8.6063747929
 30
0.0
 10
14.3888311071
 20
8.6400255283
 30
0.0
 10
14.3911604874
 20
8.6736891766
 30
0.0
 10
14.3938996068
 20
8.7072847081
 30
0.0
 10
14.3970418649
 20
8.7407312243
 30
0.0
 10
14.4005796848
 20
8.7739481815
 30
0.0
 10
14.404504544
 20
8.8068555954
 30
0.0
 10
14.40880696
 20
8.8393742323
 30
0.0
 10
14.4134765381
 20
8.8714258033
 30
0.0
 10
14.4185019994
 20
8.9029331474
 30
0.0
 10
14.4238712091
 20
8.933820416
 30
0.0
 10
14.4295711957
 20
8.9640132668
 30
0.0
 10
14.4355881653
 20
8.9934390512
 30
0.0
 10
14.4419075634
 20
9.0220269832
 30
0.0
 10
14.4485141009
 20
9.0497083085
 30
0.0
 10
14.455391802
 20
9.0764164644
 30
0.0
 10
14.4625240056
 20
9.1020873229
 30
0.0
 10
14.4698934457
 20
9.1266591366
 30
0.0
 10
14.4762868202
 20
9.1463851622
 30
0.0
 10
14.4815149428
 20
9.1615655805
 30
0.0
 10
14.4854402662
 20
9.1725125393
 30
0.0
 10
14.4894113967
 20
9.1831421026
 30
0.0
 10
14.4934258908
 20
9.1934479086
 30
0.0
 10
14.497481348
 20
9.2034237617
 30
0.0
 10
14.5015753586
 20
9.2130636643
 30
0.0
 10
14.5057053803
 20
9.2223618554
 30
0.0
 10
14.5098690158
 20
9.2313127351
 30
0.0
 10
14.5140637
 20
9.2399109596
 30
0.0
 10
14.5182869114
 20
9.2481513873
 30
0.0
 10
14.5225361805
 20
9.2560290715
 30
0.0
 10
14.5268088743
 20
9.263539356
 30
0.0
 10
14.531102534
 20
9.2706777284
 30
0.0
 10
14.5354145478
 20
9.2774399483
 30
0.0
 10
14.5397423074
 20
9.2838220135
 30
0.0
 10
14.5440833819
 20
9.2898201296
 30
0.0
 10
14.5484352042
 20
9.2954308732
 30
0.0
 10
14.5527954055
 20
9.3006509216
 30
0.0
 10
14.5571611243
 20
9.305476899
 30
0.0
 10
14.5601397533
 20
9.3084967305
 30
0.0
 10
14.5616300555
 20
9.3099362519
 30
0.0
  0
SPLINE
  5
2F2
100
AcDbEntity
  8
0
100
AcDbSpline
 62
7
  6
CONTINUOUS
 70
0
 71
3
 72
48
 73
44
 74
0
 42
0.0000001
 43
0.0000001
 44
0.0000000001
 40
0.0
 40
0.0
 40
0.0
 40
0.0
 40
0.0378126882
 40
0.0760192244
 40
0.1145316533
 40
0.1532646684
 40
0.192130348
 40
0.2310410943
 40
0.2699090056
 40
0.308646322
 40
0.3471656717
 40
0.3853802996
 40
0.4232043291
 40
0.4605530172
 40
0.4973430216
 40
0.5334926543
 40
0.5689221418
 40
0.6035538949
 40
0.6373127924
 40
0.6701264944
 40
0.7019257413
 40
0.7326446802
 40
0.7622212296
 40
0.7905974914
 40
0.8177202481
 40
0.8307966625
 40
0.8435421432
 40
0.8559516828
 40
0.8680205675
 40
0.8797446449
 40
0.8911201969
 40
0.9021440081
 40
0.9128135267
 40
0.9231267006
 40
0.9330823085
 40
0.9426798206
 40
0.9519195346
 40
0.9608027361
 40
0.969331691
 40
0.9775101852
 40
0.9853433287
 40
0.9928373926
 40
1.0
 40
1.0
 40
1.0
 40
1.0
 10
14.3076285271
 20
8.4620325933
 30
0.0
 10
14.3076285271
 20
8.47395693
 30
0.0
 10
14.3077870264
 20
8.4979300806
 30
0.0
 10
14.3084894902
 20
8.5340420473
 30
0.0
 10
14.3096565127
 20
8.5704324076
 30
0.0
 10
14.3112851966
 20
8.6070130658
 30
0.0
 10
14.3133717047
 20
8.6436962777
 30
0.0
 10
14.3159109931
 20
8.6803935675
 30
0.0
 10
14.3188969552
 20
8.7170166052
 30
0.0
 10
14.3223223871
 20
8.7534771944
 30
0.0
 10
14.3261790268
 20
8.7896875395
 30
0.0
 10
14.3304575711
 20
8.8255604505
 30
0.0
 10
14.3351476981
 20
8.8610095494
 30
0.0
 10
14.3402380859
 20
8.8959494864
 30
0.0
 10
14.3457164318
 20
8.9302961485
 30
0.0
 10
14.3515694971
 20
8.963966862
 30
0.0
 10
14.357783135
 20
8.9968805884
 30
0.0
 10
14.3643423251
 20
9.0289581213
 30
0.0
 10
14.3712312098
 20
9.060122286
 30
0.0
 10
14.3784331148
 20
9.090298136
 30
0.0
 10
14.3859306059
 20
9.1194131413
 30
0.0
 10
14.3937055314
 20
9.1473973413
 30
0.0
 10
14.4017390633
 20
9.1741835977
 30
0.0
 10
14.4100117538
 20
9.1997075027
 30
0.0
 10
14.4171726919
 20
9.2201156314
 30
0.0
 10
14.4230158833
 20
9.2357564974
 30
0.0
 10
14.4273921951
 20
9.2469910243
 30
0.0
 10
14.4318130981
 20
9.2578658648
 30
0.0
 10
14.4362760389
 20
9.2683744821
 30
0.0
 10
14.4407782677
 20
9.2785105831
 30
0.0
 10
14.4453170823
 20
9.2882680935
 30
0.0
 10
14.4498898005
 20
9.2976411517
 30
0.0
 10
14.4544935853
 20
9.3066241782
 30
0.0
 10
14.4591257746
 20
9.315211773
 30
0.0
 10
14.4637835246
 20
9.3233988449
 30
0.0
 10
14.4684640872
 20
9.331180511
 30
0.0
 10
14.4731647023
 20
9.3385521151
 30
0.0
 10
14.477882471
 20
9.3455093143
 30
0.0
 10
14.4826147423
 20
9.3520479621
 30
0.0
 10
14.487358728
 20
9.3581643033
 30
0.0
 10
14.4921118246
 20
9.3638547535
 30
0.0
 10
14.4968709696
 20
9.369115629
 30
0.0
 10
14.5001180357
 20
9.3724076046
 30
0.0
 10
14.5017426507
 20
9.3739768623
 30
0.0
  0
SPLINE
  5
2F3
100
AcDbEntity
  8
0
100
AcDbSpline
 62
7
  6
CONTINUOUS
 70
0
 71
3
 72
23
 73
19
 74
0
 42
0.0000001
 43
0.0000001
 44
0.0000000001
 40
0.0
 40
0.0
 40
0.0
 40
0.0
 40
0.0637744828
 40
0.1273454316
 40
0.1907025265
 40
0.2538558004
 40
0.316813226
 40
0.3795821625
 40
0.4421733656
 40
0.5045993404
 40
0.5668738661
 40
0.6290123724
 40
0.6910316429
 40
0.7529496283
 40
0.8147853425
 40
0.8765585905
 40
0.938289842
 40
1.0
 40
1.0
 40
1.0
 40
1.0
 10
11.5512874605
 20
6.5620749614
 30
0.0
 10
11.5512874605
 20
6.5654537536
 30
0.0
 10
11.551449253
 20
6.5722016976
 30
0.0
 10
11.5521791337
 20
6.5822825584
 30
0.0
 10
11.5533945518
 20
6.5922835952
 30
0.0
 10
11.555092572
 20
6.6021810808
 30
0.0
 10
11.5572691668
 20
6.6119525802
 30
0.0
 10
11.5599195875
 20
6.6215754888
 30
0.0
 10
11.5630375831
 20
6.63102761
 30
0.0
 10
11.5666160065
 20
6.6402871641
 30
0.0
 10
11.5706467181
 20
6.6493327597
 30
0.0
 10
11.5751202939
 20
6.6581435944
 30
0.0
 10
11.5800265718
 20
6.6666992742
 30
0.0
 10
11.585354179
 20
6.6749801022
 30
0.0
 10
11.5910907977
 20
6.6829669795
 30
0.0
 10
11.5972233802
 20
6.6906414564
 30
0.0
 10
11.603737394
 20
6.6979857098
 30
0.0
 10
11.6083253112
 20
6.7026512024
 30
0.0
 10
11.6106768686
 20
6.7049226137
 30
0.0
  0
SPLINE
  5
2F4
100
AcDbEntity
  8
0
100
AcDbSpline
 62
7
  6
CONTINUOUS
 70
0
 71
3
 72
29
 73
25
 74
0
 42
0.0000001
 43
0.0000001
 44
0.0000000001
 40
0.0
 40
0.0
 40
0.0
 40
0.0
 40
0.0755832835
 40
0.1466145466
 40
0.2134293473
 40
0.2764674847
 40
0.3362695205
 40
0.3651667787
 40
0.3935056923
 40
0.4213829181
 40
0.4489005625
 40
0.4761650512
 40
0.5032860787
 40
0.5303752854
 40
0.5575446736
 40
0.5849051948
 40
0.6125653618
 40
0.640629763
 40
0.6691981168
 40
0.7281938456
 40
0.7902539855
 40
0.8559473436
 40
0.9257386173
 40
1.0
 40
1.0
 40
1.0
 40
1.0
 10
15.4188380254
 20
10.1379356176
 30
0.0
 10
15.4207501509
 20
10.1397825891
 30
0.0
 10
15.4245718996
 20
10.1432517827
 30
0.0
 10
15.4304863745
 20
10.1478864312
 30
0.0
 10
15.4363940991
 20
10.1517789049
 30
0.0
 10
15.4422888987
 20
10.1549232122
 30
0.0
 10
15.4472437075
 20
10.1569381496
 30
0.0
 10
15.4511790579
 20
10.1581531215
 30
0.0
 10
15.454088919
 20
10.15886461
 30
0.0
 10
15.456989468
 20
10.159386251
 30
0.0
 10
15.4598798911
 20
10.1597178873
 30
0.0
 10
15.462759263
 20
10.1598593176
 30
0.0
 10
15.465626654
 20
10.1598103713
 30
0.0
 10
15.4684811131
 20
10.1595710997
 30
0.0
 10
15.4713217029
 20
10.1591416223
 30
0.0
 10
15.4741475016
 20
10.1585220788
 30
0.0
 10
15.4769575704
 20
10.1577126856
 30
0.0
 10
15.4797511342
 20
10.1567137966
 30
0.0
 10
15.4834921889
 20
10.1551131085
 30
0.0
 10
15.4881383957
 20
10.1526154458
 30
0.0
 10
15.4935679153
 20
10.1488996302
 30
0.0
 10
15.4989079407
 20
10.1444392306
 30
0.0
 10
15.5041536119
 20
10.1392411994
 30
0.0
 10
15.5074782061
 20
10.1354112278
 30
0.0
 10
15.5091262889
 20
10.1333848271
 30
0.0
  0
SPLINE
  5
2F5
100
AcDbEntity
  8
0
100
AcDbSpline
 62
7
  6
CONTINUOUS
 70
0
 71
3
 72
104
 73
100
 74
0
 42
0.0000001
 43
0.0000001
 44
0.0000000001
 40
0.0
 40
0.0
 40
0.0
 40
0.0
 40
0.0039487807
 40
0.0077208616
 40
0.0113255624
 40
0.0147744519
 40
0.0180811157
 40
0.0212612557
 40
0.0243327712
 40
0.0273158352
 40
0.0302326838
 40
0.0331072474
 40
0.0359646206
 40
0.0388303891
 40
0.0417298949
 40
0.0446875438
 40
0.0477261918
 40
0.0508667577
 40
0.0541279567
 40
0.0575262428
 40
0.0610758657
 40
0.0647889707
 40
0.0686758424
 40
0.0727450129
 40
0.0770035615
 40
0.081457193
 40
0.0861104957
 40
0.0909670203
 40
0.0960294383
 40
0.1012996584
 40
0.1067788703
 40
0.1124677077
 40
0.118366204
 40
0.1244739726
 40
0.1307901349
 40
0.137313463
 40
0.1440423448
 40
0.1509748457
 40
0.1581087454
 40
0.1654415106
 40
0.1729703984
 40
0.1806923681
 40
0.1886042112
 40
0.1967024573
 40
0.2049834751
 40
0.2134434251
 40
0.2308836728
 40
0.2489894218
 40
0.2677242073
 40
0.2870493861
 40
0.3069243477
 40
0.3273067072
 40
0.3481524843
 40
0.3694162725
 40
0.3910514026
 40
0.4130101014
 40
0.4352436452
 40
0.4577025109
 40
0.480336525
 40
0.5030950113
 40
0.5259269378
 40
0.5487810627
 40
0.5716060811
 40
0.594350771
 40
0.6169641398
 40
0.6393955706
 40
0.6615949688
 40
0.6835129102
 40
0.70510079
 40
0.7263109744
 40
0.7470969551
 40
0.7674135084
 40
0.7872168591
 40
0.8064648505
 40
0.8251171254
 40
0.843135321
 40
0.860483283
 40
0.8688954215
 40
0.8771275824
 40
0.885175966
 40
0.8930370012
 40
0.9007072681
 40
0.908183619
 40
0.9154630793
 40
0.9225429672
 40
0.9294208315
 40
0.93609452
 40
0.9425621955
 40
0.9488223283
 40
0.9548737991
 40
0.9607158368
 40
0.9663481871
 40
0.9717710322
 40
0.9769851358
 40
0.9819918451
 40
0.9867933009
 40
0.9913925287
 40
0.9957932676
 40
1.0
 40
1.0
 40
1.0
 40
1.0
 10
14.8791599978
 20
9.0100048724
 30
0.0
 10
14.8810910731
 20
9.0118020414
 30
0.0
 10
14.8849515499
 20
9.0152266086
 30
0.0
 10
14.8908750685
 20
9.0199397676
 30
0.0
 10
14.8967924595
 20
9.0241054779
 30
0.0
 10
14.9027002978
 20
9.0277208788
 30
0.0
 10
14.9085957375
 20
9.0307833129
 30
0.0
 10
14.9144755833
 20
9.0332904087
 30
0.0
 10
14.9203365716
 20
9.0352395815
 30
0.0
 10
14.9261750191
 20
9.0366286169
 30
0.0
 10
14.9319868972
 20
9.0374555883
 30
0.0
 10
14.9377677481
 20
9.0377189959
 30
0.0
 10
14.9435127821
 20
9.0374182945
 30
0.0
 10
14.949217071
 20
9.0365534605
 30
0.0
 10
14.9548758931
 20
9.0351257927
 30
0.0
 10
14.960484806
 20
9.0331368868
 30
0.0
 10
14.9660399735
 20
9.0305892842
 30
0.0
 10
14.971537912
 20
9.0274855206
 30
0.0
 10
14.9769755983
 20
9.0238285005
 30
0.0
 10
14.9823502282
 20
9.0196211408
 30
0.0
 10
14.9876590697
 20
9.0148664094
 30
0.0
 10
14.9928995721
 20
9.0095675163
 30
0.0
 10
14.9980689643
 20
9.0037276567
 30
0.0
 10
15.0031647101
 20
8.9973504448
 30
0.0
 10
15.0081839611
 20
8.9904395483
 30
0.0
 10
15.0131241029
 20
8.9829990825
 30
0.0
 10
15.0179823001
 20
8.9750333379
 30
0.0
 10
15.0227558457
 20
8.9665469883
 30
0.0
 10
15.027442001
 20
8.9575449936
 30
0.0
 10
15.0320380005
 20
8.9480326205
 30
0.0
 10
15.0365412357
 20
8.938015488
 30
0.0
 10
15.0409489463
 20
8.9274994742
 30
0.0
 10
15.04525864
 20
8.9164908255
 30
0.0
 10
15.0494676423
 20
8.9049960374
 30
0.0
 10
15.0535735393
 20
8.8930219508
 30
0.0
 10
15.0575738123
 20
8.8805756691
 30
0.0
 10
15.0614660996
 20
8.8676646042
 30
0.0
 10
15.0652480742
 20
8.8542964445
 30
0.0
 10
15.0689174303
 20
8.8404791566
 30
0.0
 10
15.0724720325
 20
8.8262209864
 30
0.0
 10
15.0759096624
 20
8.8115304393
 30
0.0
 10
15.079228348
 20
8.7964162919
 30
0.0
 10
15.0824260095
 20
8.7808875692
 30
0.0
 10
15.085500794
 20
8.7649535567
 30
0.0
 10
15.0884508247
 20
8.7486237623
 30
0.0
 10
15.092254005
 20
8.7261076684
 30
0.0
 10
15.0966706649
 20
8.6970409188
 30
0.0
 10
15.1013944267
 20
8.6610856404
 30
0.0
 10
15.1055826151
 20
8.6237967465
 30
0.0
 10
15.1092250914
 20
8.5852634595
 30
0.0
 10
15.1123130005
 20
8.5455778372
 30
0.0
 10
15.1148388418
 20
8.5048347792
 30
0.0
 10
15.116796471
 20
8.4631317282
 30
0.0
 10
15.1181811208
 20
8.4205684494
 30
0.0
 10
15.118989408
 20
8.3772467824
 30
0.0
 10
15.1192193396
 20
8.3332703936
 30
0.0
 10
15.1188703172
 20
8.2887445252
 30
0.0
 10
15.1179431368
 20
8.2437757415
 30
0.0
 10
15.1164399872
 20
8.1984716719
 30
0.0
 10
15.1143644435
 20
8.1529407525
 30
0.0
 10
15.1117214584
 20
8.1072919655
 30
0.0
 10
15.1085173498
 20
8.0616345769
 30
0.0
 10
15.1047597885
 20
8.0160778733
 30
0.0
 10
15.1004577777
 20
7.9707308989
 30
0.0
 10
15.0956216304
 20
7.9257021926
 30
0.0
 10
15.0902629455
 20
7.8810995278
 30
0.0
 10
15.0843945796
 20
7.8370296527
 30
0.0
 10
15.0780306172
 20
7.793598034
 30
0.0
 10
15.0711863371
 20
7.7509086025
 30
0.0
 10
15.0638781767
 20
7.7090635025
 30
0.0
 10
15.0561236925
 20
7.668162843
 30
0.0
 10
15.0479415219
 20
7.6283044545
 30
0.0
 10
15.0393513373
 20
7.5895836452
 30
0.0
 10
15.0303737969
 20
7.5520929875
 30
0.0
 10
15.0210305023
 20
7.5159220203
 30
0.0
 10
15.0113439253
 20
7.481157272
 30
0.0
 10
15.0029212
 20
7.4531479261
 30
0.0
 10
14.9960189861
 20
7.4315134757
 30
0.0
 10
14.9908242203
 20
7.4158565186
 30
0.0
 10
14.9855613579
 20
7.4006112737
 30
0.0
 10
14.9802336027
 20
7.3857868283
 30
0.0
 10
14.974844068
 20
7.3713920565
 30
0.0
 10
14.9693960713
 20
7.3574355386
 30
0.0
 10
14.9638927968
 20
7.3439256208
 30
0.0
 10
14.9583376022
 20
7.330870352
 30
0.0
 10
14.9527337794
 20
7.3182775227
 30
0.0
 10
14.9470846822
 20
7.3061546373
 30
0.0
 10
14.9413937198
 20
7.2945089016
 30
0.0
 10
14.9356642255
 20
7.283347263
 30
0.0
 10
14.9298997089
 20
7.2726763209
 30
0.0
 10
14.9241034918
 20
7.2625024387
 30
0.0
 10
14.9182791153
 20
7.2528315928
 30
0.0
 10
14.9124299226
 20
7.2436695421
 30
0.0
 10
14.9065594559
 20
7.2350216749
 30
0.0
 10
14.900671121
 20
7.2268930793
 30
0.0
 10
14.8947682802
 20
7.2192884854
 30
0.0
 10
14.8888542359
 20
7.2122122397
 30
0.0
 10
14.8829326424
 20
7.2056688917
 30
0.0
 10
14.8788927158
 20
7.2015737134
 30
0.0
 10
14.8768714016
 20
7.1996212737
 30
0.0
  0
SPLINE
  5
2F6
100
AcDbEntity
  8
0
100
AcDbSpline
 62
7
  6
CONTINUOUS
 70
0
 71
3
 72
96
 73
92
 74
0
 42
0.0000001
 43
0.0000001
 44
0.0000000001
 40
0.0
 40
0.0
 40
0.0
 40
0.0
 40
0.0027164098
 40
0.0054531962
 40
0.0082302406
 40
0.0110665132
 40
0.0139796972
 40
0.0169859762
 40
0.0200999182
 40
0.0233344008
 40
0.0267007279
 40
0.0302086512
 40
0.0338665256
 40
0.0376814659
 40
0.0416593982
 40
0.0458052902
 40
0.0501231851
 40
0.0546163283
 40
0.0592873093
 40
0.0641380361
 40
0.0691699185
 40
0.0743838568
 40
0.0797802914
 40
0.0853593221
 40
0.0911206288
 40
0.0970636121
 40
0.1031873726
 40
0.109490707
 40
0.1159722218
 40
0.1226302359
 40
0.1294628863
 40
0.1364681202
 40
0.1509868122
 40
0.166166583
 40
0.1819849029
 40
0.1984170136
 40
0.2154361517
 40
0.2330137489
 40
0.2511195942
 40
0.2697219759
 40
0.2887878033
 40
0.3082827461
 40
0.3281713549
 40
0.348417172
 40
0.3689828313
 40
0.3898301628
 40
0.4109203056
 40
0.4322138075
 40
0.4536707224
 40
0.4752507054
 40
0.4969131167
 40
0.5186171215
 40
0.5403217851
 40
0.561986169
 40
0.5835694319
 40
0.605030929
 40
0.6263303077
 40
0.6474276034
 40
0.6682833414
 40
0.6888586439
 40
0.7091153247
 40
0.7290159892
 40
0.7485241381
 40
0.7676042865
 40
0.7862220758
 40
0.8043443821
 40
0.8219394379
 40
0.8389769689
 40
0.8554283578
 40
0.8712667944
 40
0.8864674554
 40
0.8938215863
 40
0.901008003
 40
0.9080242369
 40
0.9148680467
 40
0.9215373477
 40
0.9280302414
 40
0.9343450881
 40
0.9404804156
 40
0.9464350477
 40
0.9522080593
 40
0.9577987951
 40
0.9632069825
 40
0.9684326413
 40
0.9734762058
 40
0.9783385307
 40
0.9830209453
 40
0.9875254656
 40
0.9918546702
 40
0.9960116287
 40
1.0
 40
1.0
 40
1.0
 40
1.0
 10
14.8639943952
 20
8.967688941
 30
0.0
 10
14.8656013462
 20
8.9675775083
 30
0.0
 10
14.8688190754
 20
8.9672083518
 30
0.0
 10
14.873604688
 20
8.9662204306
 30
0.0
 10
14.8783541549
 20
8.9647986266
 30
0.0
 10
14.8830640486
 20
8.9629441612
 30
0.0
 10
14.8877319601
 20
8.9606587797
 30
0.0
 10
14.8923555163
 20
8.9579442746
 30
0.0
 10
14.8969325148
 20
8.9548024842
 30
0.0
 10
14.9014610247
 20
8.9512355353
 30
0.0
 10
14.9059389928
 20
8.9472453911
 30
0.0
 10
14.9103645374
 20
8.9428342956
 30
0.0
 10
14.9147357493
 20
8.9380045577
 30
0.0
 10
14.9190506017
 20
8.9327585633
 30
0.0
 10
14.9233072534
 20
8.9270990084
 30
0.0
 10
14.9275036489
 20
8.9210286274
 30
0.0
 10
14.9316378481
 20
8.9145504339
 30
0.0
 10
14.9357079219
 20
8.9076676314
 30
0.0
 10
14.9397118127
 20
8.9003835679
 30
0.0
 10
14.9436476739
 20
8.8927018852
 30
0.0
 10
14.9475135052
 20
8.8846263542
 30
0.0
 10
14.951307403
 20
8.8761609842
 30
0.0
 10
14.9550275391
 20
8.8673099952
 30
0.0
 10
14.9586719681
 20
8.8580777657
 30
0.0
 10
14.9622389547
 20
8.8484689223
 30
0.0
 10
14.965726669
 20
8.8384882495
 30
0.0
 10
14.9691333456
 20
8.8281407337
 30
0.0
 10
14.9724573355
 20
8.8174315618
 30
0.0
 10
14.9756968849
 20
8.8063660801
 30
0.0
 10
14.9788504235
 20
8.794949848
 30
0.0
 10
14.9819163641
 20
8.7831885706
 30
0.0
 10
14.985933248
 20
8.7668597143
 30
0.0
 10
14.9907113971
 20
8.7456230684
 30
0.0
 10
14.9960060612
 20
8.7191540721
 30
0.0
 10
15.0009169542
 20
8.6914582445
 30
0.0
 10
15.005434103
 20
8.6625912121
 30
0.0
 10
15.0095483174
 20
8.6326108098
 30
0.0
 10
15.013251224
 20
8.6015772048
 30
0.0
 10
15.016535281
 20
8.5695526895
 30
0.0
 10
15.0193937922
 20
8.5366015821
 30
0.0
 10
15.0218209468
 20
8.5027900904
 30
0.0
 10
15.0238118048
 20
8.4681861703
 30
0.0
 10
15.0253623068
 20
8.4328593772
 30
0.0
 10
15.0264692797
 20
8.3968807275
 30
0.0
 10
15.0271304511
 20
8.3603225612
 30
0.0
 10
15.0273444671
 20
8.3232583937
 30
0.0
 10
15.0271108696
 20
8.2857627619
 30
0.0
 10
15.026430103
 20
8.2479110706
 30
0.0
 10
15.0253035077
 20
8.2097794446
 30
0.0
 10
15.0237333376
 20
8.1714445766
 30
0.0
 10
15.0217227484
 20
8.1329835694
 30
0.0
 10
15.0192757783
 20
8.094473779
 30
0.0
 10
15.0163973434
 20
8.0559926602
 30
0.0
 10
15.0130932256
 20
8.0176176116
 30
0.0
 10
15.009370085
 20
7.9794258157
 30
0.0
 10
15.005235424
 20
7.9414940835
 30
0.0
 10
15.0006975725
 20
7.9038987022
 30
0.0
 10
14.9957656689
 20
7.866715283
 30
0.0
 10
14.9904496508
 20
7.8300186037
 30
0.0
 10
14.9847602473
 20
7.7938824533
 30
0.0
 10
14.978708935
 20
7.7583794872
 30
0.0
 10
14.9723079211
 20
7.7235810861
 30
0.0
 10
14.9655701127
 20
7.6895572078
 30
0.0
 10
14.9585091127
 20
7.6563762358
 30
0.0
 10
14.9511391847
 20
7.6241048379
 30
0.0
 10
14.9434752127
 20
7.5928078411
 30
0.0
 10
14.9355326759
 20
7.5625480965
 30
0.0
 10
14.9273276111
 20
7.5333863579
 30
0.0
 10
14.9188766116
 20
7.5053810752
 30
0.0
 10
14.9101967518
 20
7.4785885075
 30
0.0
 10
14.9027073988
 20
7.4570863901
 30
0.0
 10
14.8966060479
 20
7.4405386927
 30
0.0
 10
14.8920342151
 20
7.4286008237
 30
0.0
 10
14.8874183944
 20
7.417004982
 30
0.0
 10
14.8827609384
 20
7.4057569634
 30
0.0
 10
14.8780641894
 20
7.3948624113
 30
0.0
 10
14.8733304656
 20
7.3843267993
 30
0.0
 10
14.8685622205
 20
7.3741553826
 30
0.0
 10
14.8637617745
 20
7.364353276
 30
0.0
 10
14.8589315802
 20
7.3549253701
 30
0.0
 10
14.8540740725
 20
7.3458763697
 30
0.0
 10
14.8491916183
 20
7.3372108159
 30
0.0
 10
14.8442867371
 20
7.3289329869
 30
0.0
 10
14.8393617962
 20
7.3210470363
 30
0.0
 10
14.8344192845
 20
7.3135568845
 30
0.0
 10
14.8294617038
 20
7.3064662374
 30
0.0
 10
14.8244913874
 20
7.2997786237
 30
0.0
 10
14.819510788
 20
7.2934972417
 30
0.0
 10
14.8145221891
 20
7.287625202
 30
0.0
 10
14.8095283298
 20
7.2821656912
 30
0.0
 10
14.806128005
 20
7.278732929
 30
0.0
 10
14.8044269152
 20
7.2770898023
 30
0.0
  0
SPLINE
  5
2F7
100
AcDbEntity
  8
0
100
AcDbSpline
 62
7
  6
CONTINUOUS
 70
0
 71
3
 72
18
 73
14
 74
0
 42
0.0000001
 43
0.0000001
 44
0.0000000001
 40
0.0
 40
0.0
 40
0.0
 40
0.0
 40
0.1504645181
 40
0.2917101655
 40
0.4244370866
 40
0.5495623595
 40
0.6682137793
 40
0.7255498063
 40
0.7817912969
 40
0.8371402695
 40
0.8918094031
 40
0.9460200802
 40
1.0
 40
1.0
 40
1.0
 40
1.0
 10
15.3589506206
 20
10.201976228
 30
0.0
 10
15.3610709092
 20
10.2040242696
 30
0.0
 10
15.3653085927
 20
10.2078669716
 30
0.0
 10
15.3718705445
 20
10.2129881316
 30
0.0
 10
15.37842488
 20
10.2172711604
 30
0.0
 10
15.3849646542
 20
10.22070907
 30
0.0
 10
15.3904612576
 20
10.222889046
 30
0.0
 10
15.3948253137
 20
10.2241843234
 30
0.0
 10
15.3980518962
 20
10.2249308165
 30
0.0
 10
15.4012677516
 20
10.2254629029
 30
0.0
 10
15.4044720019
 20
10.2257803553
 30
0.0
 10
15.407663376
 20
10.2258829067
 30
0.0
 10
15.4097836292
 20
10.2258078898
 30
0.0
 10
15.4108386684
 20
10.2257347218
 30
0.0
  0
SPLINE
  5
2F8
100
AcDbEntity
  8
0
100
AcDbSpline
 62
7
  6
CONTINUOUS
 70
0
 71
3
 72
15
 73
11
 74
0
 42
0.0000001
 43
0.0000001
 44
0.0000000001
 40
0.0
 40
0.0
 40
0.0
 40
0.0
 40
0.1273482228
 40
0.253860527
 40
0.3795879206
 40
0.5046050801
 40
0.6290174363
 40
0.7529533709
 40
0.8765605784
 40
1.0
 40
1.0
 40
1.0
 40
1.0
 10
11.0383804884
 20
6.5976451807
 30
0.0
 10
11.0383804884
 20
6.6024496414
 30
0.0
 10
11.0388392133
 20
6.6120336684
 30
0.0
 10
11.0409137627
 20
6.626225383
 30
0.0
 10
11.0443537172
 20
6.6400605158
 30
0.0
 10
11.0491280129
 20
6.6534096766
 30
0.0
 10
11.0551928152
 20
6.6661497683
 30
0.0
 10
11.0624928622
 20
6.6781631496
 30
0.0
 10
11.0709595147
 20
6.6893372539
 30
0.0
 10
11.0773344737
 20
6.6961630449
 30
0.0
 10
11.0806840306
 20
6.6993984827
 30
0.0
  0
SPLINE
  5
2F9
100
AcDbEntity
  8
0
100
AcDbSpline
 62
7
  6
CONTINUOUS
 70
0
 71
3
 72
48
 73
44
 74
0
 42
0.0000001
 43
0.0000001
 44
0.0000000001
 40
0.0
 40
0.0
 40
0.0
 40
0.0
 40
0.0071626074
 40
0.0146566713
 40
0.0224898148
 40
0.030668309
 40
0.0391972639
 40
0.0480804654
 40
0.0573201794
 40
0.0669176915
 40
0.0768732994
 40
0.0871864733
 40
0.0978559919
 40
0.1088798031
 40
0.1202553551
 40
0.1319794325
 40
0.1440483172
 40
0.1564578568
 40
0.1692033375
 40
0.1822797519
 40
0.2094025086
 40
0.2377787704
 40
0.2673553198
 40
0.2980742587
 40
0.3298735056
 40
0.3626872076
 40
0.3964461051
 40
0.4310778582
 40
0.4665073457
 40
0.5026569784
 40
0.5394469828
 40
0.5767956709
 40
0.6146197004
 40
0.6528343283
 40
0.691353678
 40
0.7300909944
 40
0.7689589057
 40
0.807869652
 40
0.8467353316
 40
0.8854683467
 40
0.9239807756
 40
0.9621873118
 40
1.0
 40
1.0
 40
1.0
 40
1.0
 10
7.4079830247
 20
9.8639989115
 30
0.0
 10
7.4063584097
 20
9.8624296538
 30
0.0
 10
7.4031113436
 20
9.8591376782
 30
0.0
 10
7.3983521986
 20
9.8538768027
 30
0.0
 10
7.393599102
 20
9.8481863525
 30
0.0
 10
7.3888551163
 20
9.8420700113
 30
0.0
 10
7.384122845
 20
9.8355313635
 30
0.0
 10
7.3794050763
 20
9.8285741643
 30
0.0
 10
7.3747044613
 20
9.8212025602
 30
0.0
 10
7.3700238987
 20
9.8134208941
 30
0.0
 10
7.3653661486
 20
9.8052338222
 30
0.0
 10
7.3607339594
 20
9.7966462274
 30
0.0
 10
7.3561301745
 20
9.7876632009
 30
0.0
 10
7.3515574564
 20
9.7782901427
 30
0.0
 10
7.3470186418
 20
9.7685326323
 30
0.0
 10
7.342516413
 20
9.7583965313
 30
0.0
 10
7.3380534722
 20
9.747887914
 30
0.0
 10
7.3336325692
 20
9.7370130735
 30
0.0
 10
7.3292562573
 20
9.7257785466
 30
0.0
 10
7.3234130659
 20
9.7101376806
 30
0.0
 10
7.3162521279
 20
9.6897295519
 30
0.0
 10
7.3079794374
 20
9.6642056469
 30
0.0
 10
7.2999459054
 20
9.6374193905
 30
0.0
 10
7.29217098
 20
9.6094351905
 30
0.0
 10
7.2846734888
 20
9.5803201852
 30
0.0
 10
7.2774715839
 20
9.5501443352
 30
0.0
 10
7.2705826991
 20
9.5189801705
 30
0.0
 10
7.2640235091
 20
9.4869026376
 30
0.0
 10
7.2578098711
 20
9.4539889112
 30
0.0
 10
7.2519568059
 20
9.4203181977
 30
0.0
 10
7.24647846
 20
9.3859715356
 30
0.0
 10
7.2413880721
 20
9.3510315986
 30
0.0
 10
7.2366979451
 20
9.3155824997
 30
0.0
 10
7.2324194008
 20
9.2797095887
 30
0.0
 10
7.2285627612
 20
9.2434992436
 30
0.0
 10
7.2251373292
 20
9.2070386544
 30
0.0
 10
7.2221513672
 20
9.1704156167
 30
0.0
 10
7.2196120787
 20
9.1337183269
 30
0.0
 10
7.2175255706
 20
9.097035115
 30
0.0
 10
7.2158968868
 20
9.0604544568
 30
0.0
 10
7.2147298643
 20
9.0240640965
 30
0.0
 10
7.2140274004
 20
8.9879521298
 30
0.0
 10
7.2138689011
 20
8.9639789792
 30
0.0
 10
7.2138689011
 20
8.9520546425
 30
0.0
  0
SPLINE
  5
2FA
100
AcDbEntity
  8
0
100
AcDbSpline
 62
7
  6
CONTINUOUS
 70
0
 71
3
 72
18
 73
14
 74
0
 42
0.0000001
 43
0.0000001
 44
0.0000000001
 40
0.0
 40
0.0
 40
0.0
 40
0.0
 40
0.0539799442
 40
0.1081906405
 40
0.1628597387
 40
0.2182087381
 40
0.2744502081
 40
0.3317860135
 40
0.4504376659
 40
0.5755633397
 40
0.7082897104
 40
0.8495341668
 40
1.0
 40
1.0
 40
1.0
 40
1.0
 10
14.7448594352
 20
7.249815035
 30
0.0
 10
14.7460706214
 20
7.2497310463
 30
0.0
 10
14.7485046738
 20
7.2496449552
 30
0.0
 10
14.7521683706
 20
7.2497626733
 30
0.0
 10
14.7558468545
 20
7.2501270733
 30
0.0
 10
14.7595386524
 20
7.2507379363
 30
0.0
 10
14.7632427589
 20
7.2515949269
 30
0.0
 10
14.768252713
 20
7.2530818473
 30
0.0
 10
14.7745628017
 20
7.2555845218
 30
0.0
 10
14.782070476
 20
7.2595312153
 30
0.0
 10
14.7895948182
 20
7.2644481328
 30
0.0
 10
14.7971279524
 20
7.2703271909
 30
0.0
 10
14.8019928026
 20
7.2747386299
 30
0.0
 10
14.8044269152
 20
7.2770898023
 30
0.0
  0
SPLINE
  5
2FB
100
AcDbEntity
  8
0
100
AcDbSpline
 62
7
  6
CONTINUOUS
 70
0
 71
3
 72
11
 73
7
 74
0
 42
0.0000001
 43
0.0000001
 44
0.0000000001
 40
0.0
 40
0.0
 40
0.0
 40
0.0
 40
0.2523046221
 40
0.503005335
 40
0.7521919944
 40
1.0
 40
1.0
 40
1.0
 40
1.0
 10
11.1191319655
 20
6.6756451226
 30
0.0
 10
11.1191319655
 20
6.6802972887
 30
0.0
 10
11.1195620545
 20
6.6895780071
 30
0.0
 10
11.1215071328
 20
6.7033306615
 30
0.0
 10
11.1247329812
 20
6.7167554039
 30
0.0
 10
11.1277282371
 20
6.7254339648
 30
0.0
 10
11.1294281152
 20
6.7296752501
 30
0.0
  0
SPLINE
  5
2FC
100
AcDbEntity
  8
0
100
AcDbSpline
 62
7
  6
CONTINUOUS
 70
0
 71
3
 72
59
 73
55
 74
0
 42
0.0000001
 43
0.0000001
 44
0.0000000001
 40
0.0
 40
0.0
 40
0.0
 40
0.0
 40
0.0095820752
 40
0.0187369211
 40
0.0274867456
 40
0.0358591958
 40
0.0438870727
 40
0.0516082534
 40
0.0590659264
 40
0.0663085295
 40
0.0733895822
 40
0.0803667288
 40
0.087300435
 40
0.0942524047
 40
0.1012838148
 40
0.1084536306
 40
0.1158171455
 40
0.1234250646
 40
0.1313227404
 40
0.1395501492
 40
0.1481419437
 40
0.1571276511
 40
0.1665323645
 40
0.1763769063
 40
0.1866785022
 40
0.1974512438
 40
0.2087062367
 40
0.2204523228
 40
0.2326960713
 40
0.2454421539
 40
0.2586937242
 40
0.2724522489
 40
0.2867180603
 40
0.3014902608
 40
0.3167668137
 40
0.3325449153
 40
0.3488206868
 40
0.3655895755
 40
0.3828463177
 40
0.4005848304
 40
0.4187986015
 40
0.4374803737
 40
0.4762157245
 40
0.5167238254
 40
0.5589294965
 40
0.6027510569
 40
0.6481009198
 40
0.6948862517
 40
0.7430094248
 40
0.7923685878
 40
0.8428581272
 40
0.8943678842
 40
0.9467881759
 40
1.0
 40
1.0
 40
1.0
 40
1.0
 10
14.5599473917
 20
6.2888562973
 30
0.0
 10
14.5585321751
 20
6.2875392351
 30
0.0
 10
14.5557029124
 20
6.2850291402
 30
0.0
 10
14.5513619925
 20
6.2815734789
 30
0.0
 10
14.5470255161
 20
6.2785177587
 30
0.0
 10
14.5426960156
 20
6.2758641618
 30
0.0
 10
14.5383756409
 20
6.2736145065
 30
0.0
 10
14.5340665822
 20
6.2717706856
 30
0.0
 10
14.5297713164
 20
6.2703342959
 30
0.0
 10
14.5254924327
 20
6.2693071758
 30
0.0
 10
14.5212329109
 20
6.268690688
 30
0.0
 10
14.5169959818
 20
6.2684857951
 30
0.0
 10
14.5127851217
 20
6.2686931999
 30
0.0
 10
14.5086038913
 20
6.2693125706
 30
0.0
 10
14.5044557656
 20
6.2703433027
 30
0.0
 10
14.5003439665
 20
6.271784079
 30
0.0
 10
14.4962712882
 20
6.2736330903
 30
0.0
 10
14.4922403325
 20
6.2758885864
 30
0.0
 10
14.4882532487
 20
6.2785483479
 30
0.0
 10
14.4843121264
 20
6.2816103234
 30
0.0
 10
14.4804189689
 20
6.2850723563
 30
0.0
 10
14.4765755958
 20
6.2889320744
 30
0.0
 10
14.4727840624
 20
6.2931871996
 30
0.0
 10
14.4690462334
 20
6.2978351078
 30
0.0
 10
14.4653640856
 20
6.3028730853
 30
0.0
 10
14.4617396905
 20
6.3082982454
 30
0.0
 10
14.4581749295
 20
6.3141073755
 30
0.0
 10
14.4546719133
 20
6.3202971622
 30
0.0
 10
14.4512325958
 20
6.326863981
 30
0.0
 10
14.4478589232
 20
6.3338039947
 30
0.0
 10
14.444552956
 20
6.3411131809
 30
0.0
 10
14.4413165193
 20
6.3487872175
 30
0.0
 10
14.4381515868
 20
6.3568216187
 30
0.0
 10
14.4350600271
 20
6.365211651
 30
0.0
 10
14.4320436071
 20
6.3739523534
 30
0.0
 10
14.4291042153
 20
6.3830385846
 30
0.0
 10
14.4262435153
 20
6.3924649529
 30
0.0
 10
14.4234632414
 20
6.402225885
 30
0.0
 10
14.4207650818
 20
6.4123156023
 30
0.0
 10
14.4181505737
 20
6.4227281105
 30
0.0
 10
14.4156213404
 20
6.4334572552
 30
0.0
 10
14.4123249351
 20
6.448356483
 30
0.0
 10
14.4084402906
 20
6.4677303386
 30
0.0
 10
14.4041957737
 20
6.4918652983
 30
0.0
 10
14.4003242289
 20
6.5171014524
 30
0.0
 10
14.3968349835
 20
6.5433788376
 30
0.0
 10
14.3937364503
 20
6.5706351419
 30
0.0
 10
14.3910361027
 20
6.598805623
 30
0.0
 10
14.3887404565
 20
6.6278233647
 30
0.0
 10
14.3868550628
 20
6.6576194418
 30
0.0
 10
14.3853845072
 20
6.6881228724
 30
0.0
 10
14.3843322591
 20
6.7192615137
 30
0.0
 10
14.3837009979
 20
6.750960778
 30
0.0
 10
14.3835626994
 20
6.7722731748
 30
0.0
 10
14.3835626994
 20
6.7830090796
 30
0.0
  0
SPLINE
  5
2FD
100
AcDbEntity
  8
0
100
AcDbSpline
 62
7
  6
CONTINUOUS
 70
0
 71
3
 72
37
 73
33
 74
0
 42
0.0000001
 43
0.0000001
 44
0.0000000001
 40
0.0
 40
0.0
 40
0.0
 40
0.0
 40
0.0308252969
 40
0.0617846702
 40
0.0928691034
 40
0.1240771943
 40
0.1554015457
 40
0.186833606
 40
0.218363669
 40
0.249980356
 40
0.2816711233
 40
0.313422419
 40
0.3452198255
 40
0.3770482745
 40
0.4407097186
 40
0.5043079757
 40
0.5360583674
 40
0.5677479986
 40
0.5993633065
 40
0.6308917898
 40
0.6623221589
 40
0.6936445101
 40
0.7248505178
 40
0.7559335445
 40
0.786888737
 40
0.8177131627
 40
0.8484058698
 40
0.8789678937
 40
0.9094022886
 40
0.9397141283
 40
0.9699104186
 40
1.0
 40
1.0
 40
1.0
 40
1.0
 10
11.1191319655
 20
6.6756451226
 30
0.0
 10
11.1191319655
 20
6.6725355808
 30
0.0
 10
11.1193250854
 20
6.6663013067
 30
0.0
 10
11.1201882348
 20
6.6569673195
 30
0.0
 10
11.1216225252
 20
6.6476645125
 30
0.0
 10
11.1236221553
 20
6.6384291375
 30
0.0
 10
11.1261795981
 20
6.6292960411
 30
0.0
 10
11.129284995
 20
6.6203001335
 30
0.0
 10
11.1329264707
 20
6.6114756921
 30
0.0
 10
11.1370901815
 20
6.6028563771
 30
0.0
 10
11.1417601694
 20
6.5944749887
 30
0.0
 10
11.146918537
 20
6.5863635285
 30
0.0
 10
11.1525459448
 20
6.5785526842
 30
0.0
 10
11.16064415
 20
6.5685804977
 30
0.0
 10
11.171825107
 20
6.5570155112
 30
0.0
 10
11.1842567902
 20
6.5468190133
 30
0.0
 10
11.1948378263
 20
6.539578571
 30
0.0
 10
11.2030571189
 20
6.5346291007
 30
0.0
 10
11.2115309928
 20
6.5301778616
 30
0.0
 10
11.2202274315
 20
6.5262415705
 30
0.0
 10
11.2291132426
 20
6.5228353864
 30
0.0
 10
11.2381545764
 20
6.5199723255
 30
0.0
 10
11.2473169416
 20
6.5176632823
 30
0.0
 10
11.256565418
 20
6.5159171253
 30
0.0
 10
11.265864746
 20
6.5147406361
 30
0.0
 10
11.275179443
 20
6.5141382806
 30
0.0
 10
11.2844739742
 20
6.5141123927
 30
0.0
 10
11.2937128774
 20
6.5146632068
 30
0.0
 10
11.3028608432
 20
6.5157886467
 30
0.0
 10
11.3118830746
 20
6.5174844638
 30
0.0
 10
11.3207446355
 20
6.5197440881
 30
0.0
 10
11.32653337
 20
6.521624267
 30
0.0
 10
11.3293883123
 20
6.522655046
 30
0.0
  0
SPLINE
  5
2FE
100
AcDbEntity
  8
0
100
AcDbSpline
 62
7
  6
CONTINUOUS
 70
0
 71
3
 72
52
 73
48
 74
0
 42
0.0000001
 43
0.0000001
 44
0.0000000001
 40
0.0
 40
0.0
 40
0.0
 40
0.0
 40
0.0063158561
 40
0.0126706182
 40
0.0191024302
 40
0.0256479396
 40
0.032341783
 40
0.0392161076
 40
0.0536138456
 40
0.0611945484
 40
0.0690562459
 40
0.0772173191
 40
0.0856936879
 40
0.0944990159
 40
0.1036450915
 40
0.11314184
 40
0.1229975283
 40
0.1332191131
 40
0.1438121826
 40
0.1547811291
 40
0.1661294459
 40
0.1778596059
 40
0.189973208
 40
0.2024712293
 40
0.2153538588
 40
0.2286206298
 40
0.2422706362
 40
0.256302338
 40
0.2707136888
 40
0.3006645658
 40
0.3320996748
 40
0.364988797
 40
0.3992965567
 40
0.4349828797
 40
0.4720036665
 40
0.5103110747
 40
0.5498537446
 40
0.5905772821
 40
0.6324244372
 40
0.6753352434
 40
0.7192473555
 40
0.764096224
 40
0.8098153955
 40
0.8563360871
 40
0.9035879473
 40
0.9515019809
 40
1.0
 40
1.0
 40
1.0
 40
1.0
 10
12.548912564
 20
6.3427900252
 30
0.0
 10
12.5476449231
 20
6.3428779352
 30
0.0
 10
12.5451078214
 20
6.343158038
 30
0.0
 10
12.5413305988
 20
6.3438881732
 30
0.0
 10
12.537578637
 20
6.3449282863
 30
0.0
 10
12.5338541032
 20
6.3462774599
 30
0.0
 10
12.5301584745
 20
6.3479349853
 30
0.0
 10
12.5251962665
 20
6.3505950324
 30
0.0
 10
12.5203687574
 20
6.3538512455
 30
0.0
 10
12.5156970245
 20
6.3576247799
 30
0.0
 10
12.512168249
 20
6.3608062654
 30
0.0
 10
12.5086771698
 20
6.3642884286
 30
0.0
 10
12.5052246741
 20
6.3680700314
 30
0.0
 10
12.5018121012
 20
6.3721493806
 30
0.0
 10
12.4984407755
 20
6.3765248803
 30
0.0
 10
12.4951119857
 20
6.3811947272
 30
0.0
 10
12.4918269692
 20
6.3861569942
 30
0.0
 10
12.4885870836
 20
6.3914097143
 30
0.0
 10
12.485393597
 20
6.3969507436
 30
0.0
 10
12.4822477398
 20
6.4027778088
 30
0.0
 10
12.4791508433
 20
6.4088885759
 30
0.0
 10
12.4761041412
 20
6.415280544
 30
0.0
 10
12.4731088314
 20
6.4219510886
 30
0.0
 10
12.470166198
 20
6.4288975126
 30
0.0
 10
12.4672774235
 20
6.4361169635
 30
0.0
 10
12.4644436554
 20
6.4436064727
 30
0.0
 10
12.461666123
 20
6.4513629889
 30
0.0
 10
12.4589459227
 20
6.4593833302
 30
0.0
 10
12.4553507216
 20
6.4705684077
 30
0.0
 10
12.451018816
 20
6.4851922978
 30
0.0
 10
12.4461310014
 20
6.5035210082
 30
0.0
 10
12.4414973386
 20
6.5228181337
 30
0.0
 10
12.4371255392
 20
6.5430519222
 30
0.0
 10
12.4330228398
 20
6.5641892113
 30
0.0
 10
12.4291960949
 20
6.5861952665
 30
0.0
 10
12.4256517044
 20
6.6090339043
 30
0.0
 10
12.4223955335
 20
6.6326675266
 30
0.0
 10
12.4194330243
 20
6.6570572141
 30
0.0
 10
12.416769139
 20
6.682162788
 30
0.0
 10
12.4144082806
 20
6.7079428629
 30
0.0
 10
12.412354394
 20
6.7343549318
 30
0.0
 10
12.4106109252
 20
6.7613554734
 30
0.0
 10
12.4091807635
 20
6.7888999209
 30
0.0
 10
12.4080662893
 20
6.8169427541
 30
0.0
 10
12.4072693661
 20
6.8454381455
 30
0.0
 10
12.4067913912
 20
6.8743384827
 30
0.0
 10
12.4066864159
 20
6.8937357762
 30
0.0
 10
12.4066864159
 20
6.9034930803
 30
0.0
  0
SPLINE
  5
2FF
100
AcDbEntity
  8
0
100
AcDbSpline
 62
7
  6
CONTINUOUS
 70
0
 71
3
 72
52
 73
48
 74
0
 42
0.0000001
 43
0.0000001
 44
0.0000000001
 40
0.0
 40
0.0
 40
0.0
 40
0.0
 40
0.0063158553
 40
0.0126706174
 40
0.01910243
 40
0.0256479406
 40
0.0323417857
 40
0.0392161126
 40
0.053613856
 40
0.0611945619
 40
0.0690562627
 40
0.0772173394
 40
0.0856937117
 40
0.0944990433
 40
0.1036451224
 40
0.1131418745
 40
0.1229975663
 40
0.1332191544
 40
0.1438122273
 40
0.1547811769
 40
0.1661294967
 40
0.1778596595
 40
0.1899732643
 40
0.2024712882
 40
0.21535392
 40
0.2286206932
 40
0.2422707016
 40
0.2563024051
 40
0.2707137575
 40
0.3006646369
 40
0.3320997476
 40
0.3649888706
 40
0.3992966303
 40
0.4349829523
 40
0.4720037374
 40
0.5103111432
 40
0.5498538098
 40
0.5905773434
 40
0.6324244938
 40
0.6753352948
 40
0.7192474009
 40
0.764096263
 40
0.8098154275
 40
0.8563361116
 40
0.903587964
 40
0.9515019894
 40
1.0
 40
1.0
 40
1.0
 40
1.0
 10
14.4498546029
 20
6.210959247
 30
0.0
 10
14.4485869625
 20
6.211047159
 30
0.0
 10
14.4460498617
 20
6.2113272656
 30
0.0
 10
14.4422726406
 20
6.2120574064
 30
0.0
 10
14.4385206804
 20
6.2130975249
 30
0.0
 10
14.4347961483
 20
6.2144467036
 30
0.0
 10
14.4311005212
 20
6.2161042339
 30
0.0
 10
14.4261383153
 20
6.2187642875
 30
0.0
 10
14.4213108085
 20
6.2220205065
 30
0.0
 10
14.4166390777
 20
6.2257940462
 30
0.0
 10
14.4131103039
 20
6.2289755356
 30
0.0
 10
14.4096192263
 20
6.2324577026
 30
0.0
 10
14.4061667322
 20
6.2362393089
 30
0.0
 10
14.402754161
 20
6.2403186615
 30
0.0
 10
14.399382837
 20
6.2446941643
 30
0.0
 10
14.3960540487
 20
6.2493640141
 30
0.0
 10
14.3927690339
 20
6.2543262838
 30
0.0
 10
14.3895291499
 20
6.2595790064
 30
0.0
 10
14.3863356649
 20
6.2651200381
 30
0.0
 10
14.3831898093
 20
6.2709471054
 30
0.0
 10
14.3800929143
 20
6.2770578744
 30
0.0
 10
14.3770462138
 20
6.2834498442
 30
0.0
 10
14.3740509055
 20
6.2901203904
 30
0.0
 10
14.3711082736
 20
6.2970668157
 30
0.0
 10
14.3682195007
 20
6.3042862677
 30
0.0
 10
14.3653857341
 20
6.3117757778
 30
0.0
 10
14.3626082031
 20
6.3195322947
 30
0.0
 10
14.3598880042
 20
6.3275526366
 30
0.0
 10
14.3562928051
 20
6.3387377144
 30
0.0
 10
14.3519609019
 20
6.3533616045
 30
0.0
 10
14.34707309
 20
6.3716903143
 30
0.0
 10
14.3424394298
 20
6.3909874384
 30
0.0
 10
14.3380676328
 20
6.4112212249
 30
0.0
 10
14.3339649357
 20
6.4323585113
 30
0.0
 10
14.330138193
 20
6.4543645631
 30
0.0
 10
14.3265938045
 20
6.477203197
 30
0.0
 10
14.3233376355
 20
6.5008368146
 30
0.0
 10
14.320375128
 20
6.525226497
 30
0.0
 10
14.3177112442
 20
6.5503320651
 30
0.0
 10
14.3153503871
 20
6.5761121339
 30
0.0
 10
14.3132965018
 20
6.6025241961
 30
0.0
 10
14.311553034
 20
6.6295247307
 30
0.0
 10
14.3101228732
 20
6.6570691707
 30
0.0
 10
14.3090083996
 20
6.685111996
 30
0.0
 10
14.3082114769
 20
6.7136073793
 30
0.0
 10
14.3077335023
 20
6.7425077081
 30
0.0
 10
14.3076285271
 20
6.761904996
 30
0.0
 10
14.3076285271
 20
6.7716622971
 30
0.0
  0
ELLIPSE
  5
300
100
AcDbEntity
  8
0
100
AcDbEllipse
 62
7
  6
CONTINUOUS
 10
10.3139361734
 20
8.6686024627
 30
0.0
 11
0.3115508947
 21
-0.0910728074
 31
0.0
 40
0.7333636043
 41
0.0
 42
6.2831853072
  0
ELLIPSE
  5
301
100
AcDbEntity
  8
0
100
AcDbEllipse
 62
7
  6
CONTINUOUS
 10
10.9784931463
 20
7.8381834853
 30
0.0
 11
0.3177404275
 21
-0.0504681721
 31
0.0
 40
0.7464868657
 41
0.0
 42
6.2831853072
  0
ENDSEC
  0
SECTION
  2
OBJECTS
  0
DICTIONARY
  5
C
100
AcDbDictionary
280
0
281
1
  3
ACAD_GROUP
350
D
  3
ACAD_MLINESTYLE
350
17
  3
ACAD_LAYOUT
350
1A
  3
ACAD_PLOTSETTINGS
350
19
  3
ACAD_PLOTSTYLENAME
350
E
  3
ACAD_IMAGE_DICT
350
       303
  3
ACAD_IMAGE_VARS
350
       304
  3
ACAD_TABLESTYLE
350
       305
  0
IMAGEDEF_REACTOR
  5
302
100
AcDbRasterImageDefReactor
 90
2
330
275
  0
DICTIONARY
  5
D
102
{ACAD_REACTORS
330
C
102
}
100
AcDbDictionary
280
0
281
1
  0
ACDBDICTIONARYWDFLT
  5
E
102
{ACAD_REACTORS
330
C
102
}
100
AcDbDictionary
281
1
  3
Normal
350
F
100
AcDbDictionaryWithDefault
340
F
  0
DICTIONARY
  5
303
330
C
100
AcDbDictionary
281
1
  3
Z3O_assy_2_img_1
350
       308
  0
RASTERVARIABLES
  5
304
330
C
100
AcDbRasterVariables
 90
0
 70
0
 71
1
 72
5
  0
DICTIONARY
  5
17
102
{ACAD_REACTORS
330
C
102
}
100
AcDbDictionary
280
0
281
1
  3
Standard
350
18
  0
DICTIONARY
  5
305
330
C
100
AcDbDictionary
281
1
  3
Standard
350
       309
  3
Standard1
350
       30A
  0
DICTIONARY
  5
19
102
{ACAD_REACTORS
330
C
102
}
100
AcDbDictionary
281
1
  0
DICTIONARY
  5
1A
102
{ACAD_REACTORS
330
C
102
}
100
AcDbDictionary
281
1
  3
Model
350
306
  3
Layout1
350
307
  0
ACDBPLACEHOLDER
  5
F
102
{ACAD_REACTORS
330
E
102
}
  0
MLINESTYLE
  5
18
102
{ACAD_REACTORS
330
17
102
}
100
AcDbMlineStyle
  2
STANDARD
 70
0
  3

 62
256
 51
90.0
 52
90.0
 71
2
 49
0.5
 62
256
  6
BYLAYER
 49
-0.5
 62
256
  6
BYLAYER
  0
LAYOUT
  5
306
102
{ACAD_REACTORS
330
1A
102
}
100
AcDbPlotSettings
  1

  2
none_device
  4
ANSI_C_(22.00_x_17.00_Inches)
  6

 40
0.0
 41
0.0
 42
0.0
 43
0.0
 44
558.8
 45
431.8
 46
0.0
 47
0.0
 48
0.0
 49
0.0
140
0.0
141
0.0
142
1.0
143
1.0
 70
1024
 72
0
 73
0
 74
0
  7

 75
0
147
1.0
148
0.0
149
0.0
100
AcDbLayout
  1
Model
 70
0
 71
0
 10
0.0
 20
0.0
 11
22.0
 21
17.0
 12
0.0
 22
0.0
 32
0.0
 14
0.0
 24
0.0
 34
0.0
 15
0.0
 25
0.0
 35
0.0
146
0.0
 13
0.0
 23
0.0
 33
0.0
 16
1.0
 26
0.0
 36
0.0
 17
0.0
 27
1.0
 37
0.0
 76
0
330
20F
345
0
346
0
  0
LAYOUT
  5
307
102
{ACAD_REACTORS
330
1A
102
}
100
AcDbPlotSettings
  1

  2
none_device
  4
ANSI_C_(22.00_x_17.00_Inches)
  6

 40
0.0
 41
0.0
 42
0.0
 43
0.0
 44
558.8
 45
431.8
 46
0.0
 47
0.0
 48
0.0
 49
0.0
140
0.0
141
0.0
142
1.0
143
1.0
 70
0
 72
0
 73
0
 74
0
  7

 75
0
147
1.0
148
0.0
149
0.0
100
AcDbLayout
  1
Layout1
 70
0
 71
1
 10
0.0
 20
0.0
 11
22.0
 21
17.0
 12
0.0
 22
0.0
 32
0.0
 14
0.0
 24
0.0
 34
0.0
 15
0.0
 25
0.0
 35
0.0
146
0.0
 13
0.0
 23
0.0
 33
0.0
 16
1.0
 26
0.0
 36
0.0
 17
0.0
 27
1.0
 37
0.0
 76
0
330
210
345
0
346
0
  0
IMAGEDEF
  5
308
102
{ACAD_REACTORS
330
303
330
302
102
}
100
AcDbRasterImageDef
 90
0
  1
Z3O_assy_2_img_1.png
 10
369.0
 20
92.0
 11
0.0066666667
 21
0.0066666667
280
1
281
0
  0
TABLESTYLE
  5
309
102
{ACAD_REACTORS
330
305
330
278
102
}
330
305
100
AcDbTableStyle
  3
Standard
 70
0
 71
0
 40
0.06
 41
0.06
280
1
281
1
  7
Standard
140
0.18
170
1
 62
0
 63
7
283
0
  7
Standard
140
0.18
170
1
 62
0
 63
7
283
0
  7
Standard
140
0.18
170
1
 62
0
 63
7
283
0
  0
TABLESTYLE
  5
30A
102
{ACAD_REACTORS
330
305
330
277
102
}
330
305
100
AcDbTableStyle
  3
Standard1
 70
1
 71
0
 40
0.06
 41
0.06
280
1
281
1
  7
Standard
140
0.18
170
1
 62
0
 63
7
283
0
  7
Standard
140
0.18
170
1
 62
0
 63
7
283
0
  7
Standard
140
0.18
170
1
 62
0
 63
7
283
0
  0
ENDSEC
  0
EOF
