999
DXF file: Z3N_assy_2.dxf
999
Pro/ENGINEER 2014200 by Parametric Technology Corporation
  0
SECTION
  2
HEADER
  9
$ACADVER
  1
AC1021
  9
$DWGCODEPAGE
  3
ANSI_1252
  9
$EXTMAX
 10
22.0
 20
17.0
 30
0.0
  9
$EXTMIN
 10
0.0
 20
0.0
 30
0.0
  9
$LIMMIN
 10
0.0
 20
0.0
  9
$LIMMAX
 10
22.0
 20
17.0
  9
$VIEWCTR
 10
11.0
 20
8.5
  9
$VIEWSIZE
 40
17.0
  9
$CLAYER
  8
0
  9
$LTSCALE
 40
1.21
  9
$CELTYPE
  6
BYLAYER
  9
$DIMSCALE
 40
1.0
  9
$DIMASZ
 40
0.1875
  9
$DIMEXO
 40
0.0625
  9
$DIMDLI
 40
0.836
  9
$DIMEXE
 40
0.125
  9
$DIMCEN
 40
0.198
  9
$DIMLFAC
 40
1.0
  9
$DIMBLK
  1
_FILLED
  9
$DIMTXT
 40
0.1
  9
$DIMTOL
 70
0
  9
$DIMLIM
 70
0
  9
$DIMTFAC
 40
1.0
  9
$DIMGAP
 40
0.09
  9
$DIMDSEP
 70
46
  9
$AUNITS
 70
0
  9
$PDMODE
 70
3
  9
$PDSIZE
 40
0.3125
  9
$HANDSEED
  5
334
  9
$TILEMODE
 70
1
  9
$MEASUREMENT
 70
0
  9
$INSUNITS
 70
1
  0
ENDSEC
  0
SECTION
  2
CLASSES
  0
CLASS
  1
ACDBDICTIONARYWDFLT
  2
AcDbDictionaryWithDefault
  3
AutoCAD 2000
 90
0
 91
1
280
0
281
0
  0
CLASS
  1
ACDBPLACEHOLDER
  2
AcDbPlaceHolder
  3
AutoCAD 2000
 90
0
 91
1
280
0
281
0
  0
CLASS
  1
LAYOUT
  2
AcDbLayout
  3
AutoCAD 2000
 90
0
 91
0
280
0
281
0
  0
CLASS
  1
RASTERVARIABLES
  2
AcDbRasterVariables
  3
ISM
 90
0
 91
1
280
0
281
0
  0
CLASS
  1
IMAGEDEF
  2
AcDbRasterImageDef
  3
ISM
 90
0
 91
1
280
0
281
0
  0
CLASS
  1
IMAGEDEF_REACTOR
  2
AcDbRasterImageDefReactor
  3
ISM
 90
0
 91
1
280
0
281
0
  0
CLASS
  1
IMAGE
  2
AcDbRasterImage
  3
ISM
 90
127
 91
1
280
0
281
1
  0
CLASS
  1
TABLESTYLE
  2
AcDbTableStyle
  3
ObjectDBX Classes
 90
2047
 91
1
280
0
281
0
  0
CLASS
  1
ACAD_TABLE
  2
AcDbTable
  3
ObjectDBX Classes
 90
1025
 91
2
280
0
281
1
  0
ENDSEC
  0
SECTION
  2
TABLES
  0
TABLE
  2
VPORT
  5
8
100
AcDbSymbolTable
 70
2
  0
VPORT
  5
1F4
100
AcDbSymbolTableRecord
100
AcDbViewportTableRecord
  2
*ACTIVE
 70
0
 10
0.0
 20
0.0
 11
1.0
 21
1.0
 12
11.0
 22
8.5
 13
0.0
 23
0.0
 14
1.0
 24
1.0
 15
0.0
 25
0.0
 16
0.0
 26
0.0
 36
1.0
 17
0.0
 27
0.0
 37
0.0
 40
17.0
 41
1.2941176471
 42
50.0
 43
0.0
 44
0.0
 50
0.0
 51
0.0
 71
0
 72
100
 73
1
 74
1
 75
0
 76
0
 77
0
 78
0
  0
ENDTAB
  0
TABLE
  2
LTYPE
  5
5
100
AcDbSymbolTable
 70
6
  0
LTYPE
  5
14
100
AcDbSymbolTableRecord
100
AcDbLinetypeTableRecord
  2
BYBLOCK
 70
0
  3

 72
65
 73
0
 40
0.0
  0
LTYPE
  5
15
100
AcDbSymbolTableRecord
100
AcDbLinetypeTableRecord
  2
BYLAYER
 70
0
  3

 72
65
 73
0
 40
0.0
  0
LTYPE
  5
16
100
AcDbSymbolTableRecord
100
AcDbLinetypeTableRecord
  2
CONTINUOUS
 70
64
  3
Solid line
 72
65
 73
0
 40
0.0
  0
LTYPE
  5
1F5
100
AcDbSymbolTableRecord
100
AcDbLinetypeTableRecord
  2
CENTER
 70
64
  3
____ _ ____ _ ____ _ ____ _ ____ _ ____ _ ____
 72
65
 73
4
 40
0.6
 49
0.375
 74
0
 49
-0.075
 74
0
 49
0.075
 74
0
 49
-0.075
 74
0
  0
LTYPE
  5
1F6
100
AcDbSymbolTableRecord
100
AcDbLinetypeTableRecord
  2
HIDDEN
 70
64
  3
- - - - - - - - - - - - - - - - - - - -
 72
65
 73
2
 40
0.2
 49
0.1
 74
0
 49
-0.1
 74
0
  0
LTYPE
  5
1F7
100
AcDbSymbolTableRecord
100
AcDbLinetypeTableRecord
  2
PHANTOM
 70
64
  3
_____ _ _ _____ _ _ _____ _ _ _____
 72
65
 73
6
 40
0.8
 49
0.45
 74
0
 49
-0.05
 74
0
 49
0.1
 74
0
 49
-0.05
 74
0
 49
0.1
 74
0
 49
-0.05
 74
0
  0
LTYPE
  5
1F8
100
AcDbSymbolTableRecord
100
AcDbLinetypeTableRecord
  2
DOT
 70
64
  3
. . . . . . . . . . . . . . . . . . . .
 72
65
 73
2
 40
0.2
 49
0.1
 74
0
 49
-0.1
 74
0
  0
LTYPE
  5
1F9
100
AcDbSymbolTableRecord
100
AcDbLinetypeTableRecord
  2
DASHED
 70
64
  3
- - - - - - - - - - - - - - - - - - - -
 72
65
 73
2
 40
0.2
 49
0.1
 74
0
 49
-0.1
 74
0
  0
ENDTAB
  0
TABLE
  2
LAYER
  5
2
100
AcDbSymbolTable
 70
36
  0
LAYER
  5
10
100
AcDbSymbolTableRecord
100
AcDbLayerTableRecord
  2
0
 70
0
 62
7
  6
CONTINUOUS
370
-3
390
F
  0
LAYER
  5
1FA
100
AcDbSymbolTableRecord
100
AcDbLayerTableRecord
  2
DEFAULT_1
 70
0
 62
7
  6
CENTER
370
-3
390
F
  0
LAYER
  5
1FB
100
AcDbSymbolTableRecord
100
AcDbLayerTableRecord
  2
DEFAULT_2
 70
0
 62
8
  6
HIDDEN
370
-3
390
F
  0
LAYER
  5
1FC
100
AcDbSymbolTableRecord
100
AcDbLayerTableRecord
  2
DEFAULT_3
 70
0
 62
7
  6
PHANTOM
370
-3
390
F
  0
LAYER
  5
1FD
100
AcDbSymbolTableRecord
100
AcDbLayerTableRecord
  2
01___PRT_ALL_DTM_PLN
 70
0
 62
7
  6
CONTINUOUS
370
-3
390
F
  0
LAYER
  5
1FE
100
AcDbSymbolTableRecord
100
AcDbLayerTableRecord
  2
01___PRT_DEF_DTM_PLN
 70
0
 62
7
  6
CONTINUOUS
370
-3
390
F
  0
LAYER
  5
1FF
100
AcDbSymbolTableRecord
100
AcDbLayerTableRecord
  2
02___PRT_ALL_AXES
 70
0
 62
7
  6
CONTINUOUS
370
-3
390
F
  0
LAYER
  5
200
100
AcDbSymbolTableRecord
100
AcDbLayerTableRecord
  2
03___PRT_ALL_CURVES
 70
0
 62
7
  6
CONTINUOUS
370
-3
390
F
  0
LAYER
  5
201
100
AcDbSymbolTableRecord
100
AcDbLayerTableRecord
  2
04___PRT_ALL_DTM_PNT
 70
0
 62
7
  6
CONTINUOUS
370
-3
390
F
  0
LAYER
  5
202
100
AcDbSymbolTableRecord
100
AcDbLayerTableRecord
  2
05___PRT_ALL_DTM_CSYS
 70
0
 62
7
  6
CONTINUOUS
370
-3
390
F
  0
LAYER
  5
203
100
AcDbSymbolTableRecord
100
AcDbLayerTableRecord
  2
05___PRT_DEF_DTM_CSYS
 70
0
 62
7
  6
CONTINUOUS
370
-3
390
F
  0
LAYER
  5
204
100
AcDbSymbolTableRecord
100
AcDbLayerTableRecord
  2
06___PRT_ALL_SURFS
 70
0
 62
7
  6
CONTINUOUS
370
-3
390
F
  0
LAYER
  5
205
100
AcDbSymbolTableRecord
100
AcDbLayerTableRecord
  2
DATUM_PLANES
 70
0
 62
7
  6
CONTINUOUS
370
-3
390
F
  0
LAYER
  5
206
100
AcDbSymbolTableRecord
100
AcDbLayerTableRecord
  2
DIMENSIONS
 70
0
 62
7
  6
CONTINUOUS
370
-3
390
F
  0
LAYER
  5
207
100
AcDbSymbolTableRecord
100
AcDbLayerTableRecord
  2
PARAMETERDIMENSIONS
 70
0
 62
7
  6
CONTINUOUS
370
-3
390
F
  0
LAYER
  5
208
100
AcDbSymbolTableRecord
100
AcDbLayerTableRecord
  2
PLANE
 70
0
 62
7
  6
CONTINUOUS
370
-3
390
F
  0
LAYER
  5
209
100
AcDbSymbolTableRecord
100
AcDbLayerTableRecord
  2
PORT_AREAS
 70
0
 62
7
  6
CONTINUOUS
370
-3
390
F
  0
LAYER
  5
20A
100
AcDbSymbolTableRecord
100
AcDbLayerTableRecord
  2
SUNNBOMCOSMETIC
 70
0
 62
7
  6
CONTINUOUS
370
-3
390
F
  0
LAYER
  5
20B
100
AcDbSymbolTableRecord
100
AcDbLayerTableRecord
  2
SUNNBOMSTAMPING
 70
0
 62
7
  6
CONTINUOUS
370
-3
390
F
  0
LAYER
  5
20C
100
AcDbSymbolTableRecord
100
AcDbLayerTableRecord
  2
THREADS
 70
0
 62
7
  6
CONTINUOUS
370
-3
390
F
  0
ENDTAB
  0
TABLE
  2
STYLE
  5
3
100
AcDbSymbolTable
 70
1
  0
STYLE
  5
11
100
AcDbSymbolTableRecord
100
AcDbTextStyleTableRecord
  2
STANDARD
 70
0
 40
0.0
 41
0.8
 50
0.0
 71
0
 42
0.2
  3
txt
  4

  0
STYLE
  5
20D
100
AcDbSymbolTableRecord
100
AcDbTextStyleTableRecord
  2
TEXTSTYLE_1
 70
0
 40
0.0
 41
0.8
 50
0.0
 71
0
 42
0.2
  3
gdt
  4

  0
ENDTAB
  0
TABLE
  2
VIEW
  5
6
100
AcDbSymbolTable
 70
0
  0
ENDTAB
  0
TABLE
  2
UCS
  5
7
100
AcDbSymbolTable
 70
0
  0
ENDTAB
  0
TABLE
  2
APPID
  5
9
100
AcDbSymbolTable
 70
1
  0
APPID
  5
20E
100
AcDbSymbolTableRecord
100
AcDbRegAppTableRecord
  2
ACAD
 70
0
  0
ENDTAB
  0
TABLE
  2
BLOCK_RECORD
  5
1
100
AcDbSymbolTable
 70
0
  0
BLOCK_RECORD
  5
20F
100
AcDbSymbolTableRecord
100
AcDbBlockTableRecord
  2
*Model_Space
  0
BLOCK_RECORD
  5
210
100
AcDbSymbolTableRecord
100
AcDbBlockTableRecord
  2
*Paper_Space
  0
BLOCK_RECORD
  5
211
100
AcDbSymbolTableRecord
100
AcDbBlockTableRecord
  2
SUN_FIRST_THIRD_ANGLE_BL0
  0
BLOCK_RECORD
  5
212
100
AcDbSymbolTableRecord
100
AcDbBlockTableRecord
  2
*T1
  0
BLOCK_RECORD
  5
213
100
AcDbSymbolTableRecord
100
AcDbBlockTableRecord
  2
*T2
  0
ENDTAB
  0
TABLE
  2
DIMSTYLE
  5
A
100
AcDbSymbolTable
 70
1
100
AcDbDimStyleTable
 71
0
  0
DIMSTYLE
105
214
100
AcDbSymbolTableRecord
100
AcDbDimStyleTableRecord
  2
STANDARD
 70
0
  3

  4

 40
1.0
 41
0.1875
 42
0.0625
 43
0.38
 44
0.125
 45
0.0
 46
0.0
 47
0.001
 48
0.001
140
0.1
141
0.09
142
0.0
143
25.4
144
1.0
145
0.0
146
1.0
147
0.09
 71
0.0
 72
0.0
 73
1
 74
1
 75
0
 76
0
 77
0
 78
4
170
0
171
2
172
0
173
0
174
0
175
0
176
0
177
0
178
0
270
2
271
3
272
3
273
2
274
2
275
0
280
0
281
0
282
0
283
1
284
4
285
0
286
0
287
3
288
0
340
11
278
46
  0
ENDTAB
  0
ENDSEC
  0
SECTION
  2
BLOCKS
  0
BLOCK
  5
20
100
AcDbEntity
  8
0
100
AcDbBlockBegin
  2
*Model_Space
 70
0
 10
0.0
 20
0.0
 30
0.0
  3
*Model_Space
  1

  0
ENDBLK
  5
21
100
AcDbEntity
  8
0
100
AcDbBlockEnd
  0
BLOCK
  5
1C
100
AcDbEntity
  8
0
100
AcDbBlockBegin
  2
*Paper_Space
 70
0
 10
0.0
 20
0.0
 30
0.0
  3
*Paper_Space
  1

  0
ENDBLK
  5
1D
100
AcDbEntity
  8
0
100
AcDbBlockEnd
  0
BLOCK
  5
215
100
AcDbEntity
  8
0
100
AcDbBlockBegin
 62
2
  6
CONTINUOUS
  2
SUN_FIRST_THIRD_ANGLE_BL0
 70
64
 10
20.4816717061
 20
1.2289683772
  3
SUN_FIRST_THIRD_ANGLE_BL0
  1

  0
TEXT
  5
216
100
AcDbEntity
  8
0
100
AcDbText
 62
2
  6
CONTINUOUS
 10
19.4750896608
 20
1.4136269581
  7
STANDARD
 40
0.08
  1
FIRST ANGLE
 41
0.8
 72
0
100
AcDbText
  0
TEXT
  5
217
100
AcDbEntity
  8
0
100
AcDbText
 62
2
  6
CONTINUOUS
 10
20.7842537513
 20
1.4047600029
  7
STANDARD
 40
0.08
  1
THIRD ANGLE
 41
0.8
 72
0
100
AcDbText
  0
LINE
  5
218
100
AcDbEntity
  8
0
100
AcDbLine
 62
7
  6
CONTINUOUS
 10
19.4767170086
 20
1.1727031207
 11
19.6334271527
 21
1.1717972817
  0
LINE
  5
219
100
AcDbEntity
  8
0
100
AcDbLine
 62
7
  6
CONTINUOUS
 10
19.6596964832
 20
1.1717972817
 11
19.6950230232
 21
1.171593082
  0
LINE
  5
21A
100
AcDbEntity
  8
0
100
AcDbLine
 62
7
  6
CONTINUOUS
 10
19.7194818561
 20
1.1708914427
 11
19.8852396156
 21
1.1699333054
  0
LINE
  5
21B
100
AcDbEntity
  8
0
100
AcDbLine
 62
7
  6
CONTINUOUS
 10
19.4758111696
 20
1.2723454088
 11
19.88525039
 21
1.3511534004
  0
LINE
  5
21C
100
AcDbEntity
  8
0
100
AcDbLine
 62
7
  6
CONTINUOUS
 10
19.88525039
 20
1.3511534004
 11
19.8831348489
 21
0.9851647912
  0
LINE
  5
21D
100
AcDbEntity
  8
0
100
AcDbLine
 62
7
  6
CONTINUOUS
 10
19.8831348489
 20
0.9851647912
 11
19.4767170086
 21
1.0658141206
  0
LINE
  5
21E
100
AcDbEntity
  8
0
100
AcDbLine
 62
7
  6
CONTINUOUS
 10
19.4767170086
 20
1.0658141206
 11
19.4779056764
 21
1.2714536432
  0
CIRCLE
  5
21F
100
AcDbEntity
  8
0
100
AcDbCircle
 62
7
  6
CONTINUOUS
 10
20.2068232291
 20
1.1717972817
 40
0.175742101
  0
CIRCLE
  5
220
100
AcDbEntity
  8
0
100
AcDbCircle
 62
7
  6
CONTINUOUS
 10
20.2068232291
 20
1.1717972817
 40
0.1005522074
  0
LINE
  5
221
100
AcDbEntity
  8
0
100
AcDbLine
 62
7
  6
CONTINUOUS
 10
20.2077290681
 20
1.3756110529
 11
20.2071171714
 21
1.2379342989
  0
LINE
  5
222
100
AcDbEntity
  8
0
100
AcDbLine
 62
7
  6
CONTINUOUS
 10
20.2077290681
 20
1.2016899681
 11
20.2074674401
 21
1.1428236749
  0
LINE
  5
223
100
AcDbEntity
  8
0
100
AcDbLine
 62
7
  6
CONTINUOUS
 10
20.208634907
 20
1.101141841
 11
20.2080230104
 21
0.963465087
  0
LINE
  5
224
100
AcDbEntity
  8
0
100
AcDbLine
 62
7
  6
CONTINUOUS
 10
20.0066328138
 20
1.1745147986
 11
20.1443095678
 21
1.1739029019
  0
LINE
  5
225
100
AcDbEntity
  8
0
100
AcDbLine
 62
7
  6
CONTINUOUS
 10
20.1832714155
 20
1.1727031207
 11
20.238153505
 21
1.172335442
  0
LINE
  5
226
100
AcDbEntity
  8
0
100
AcDbLine
 62
7
  6
CONTINUOUS
 10
20.2756669918
 20
1.1717972817
 11
20.407916871
 21
1.1712095044
  0
CIRCLE
  5
227
100
AcDbEntity
  8
0
100
AcDbCircle
 62
7
  6
CONTINUOUS
 10
20.7509457401
 20
1.1693297793
 40
0.1722024983
  0
CIRCLE
  5
228
100
AcDbEntity
  8
0
100
AcDbCircle
 62
7
  6
CONTINUOUS
 10
20.7509457401
 20
1.1693297793
 40
0.0985164967
  0
LINE
  5
229
100
AcDbEntity
  8
0
100
AcDbLine
 62
7
  6
CONTINUOUS
 10
20.7169767782
 20
1.170462078
 11
20.7825395137
 21
1.1682766535
  0
LINE
  5
22A
100
AcDbEntity
  8
0
100
AcDbLine
 62
7
  6
CONTINUOUS
 10
20.8177513651
 20
1.1693297793
 11
20.947965719
 21
1.1693297793
  0
LINE
  5
22B
100
AcDbEntity
  8
0
100
AcDbLine
 62
7
  6
CONTINUOUS
 10
20.6875370113
 20
1.170462078
 11
20.5573226574
 21
1.170462078
  0
LINE
  5
22C
100
AcDbEntity
  8
0
100
AcDbLine
 62
7
  6
CONTINUOUS
 10
20.7486811426
 20
1.1987695462
 11
20.7486811426
 21
1.1432869085
  0
LINE
  5
22D
100
AcDbEntity
  8
0
100
AcDbLine
 62
7
  6
CONTINUOUS
 10
20.7498134414
 20
1.1059210505
 11
20.7498134414
 21
0.9757066966
  0
LINE
  5
22E
100
AcDbEntity
  8
0
100
AcDbLine
 62
7
  6
CONTINUOUS
 10
20.7486811426
 20
1.2338708068
 11
20.7486811426
 21
1.3640851607
  0
LINE
  5
22F
100
AcDbEntity
  8
0
100
AcDbLine
 62
7
  6
CONTINUOUS
 10
21.0702539817
 20
1.2701043662
 11
21.4790138229
 21
1.3448360823
  0
LINE
  5
230
100
AcDbEntity
  8
0
100
AcDbLine
 62
7
  6
CONTINUOUS
 10
21.4790138229
 20
1.3448360823
 11
21.4790138229
 21
0.9779712941
  0
LINE
  5
231
100
AcDbEntity
  8
0
100
AcDbLine
 62
7
  6
CONTINUOUS
 10
21.4790138229
 20
0.9779712941
 11
21.069121683
 21
1.0617614
  0
LINE
  5
232
100
AcDbEntity
  8
0
100
AcDbLine
 62
7
  6
CONTINUOUS
 10
21.0702539817
 20
1.2701043662
 11
21.069121683
 21
1.0617614
  0
LINE
  5
233
100
AcDbEntity
  8
0
100
AcDbLine
 62
7
  6
CONTINUOUS
 10
21.4790138229
 20
1.1693297793
 11
21.3159628059
 21
1.1693297793
  0
LINE
  5
234
100
AcDbEntity
  8
0
100
AcDbLine
 62
7
  6
CONTINUOUS
 10
21.2876553377
 20
1.1693297793
 11
21.2502894796
 21
1.1693297793
  0
LINE
  5
235
100
AcDbEntity
  8
0
100
AcDbLine
 62
7
  6
CONTINUOUS
 10
21.2208497126
 20
1.1659328831
 11
21.0713862804
 21
1.1659328831
  0
LINE
  5
236
100
AcDbEntity
  8
0
100
AcDbLine
 62
7
  6
CONTINUOUS
 10
20.4796138713
 20
1.5284908897
 11
20.4766766948
 21
0.9294458646
  0
ENDBLK
  5
237
100
AcDbEntity
  8
0
  6
BYBLOCK
 62
0
100
AcDbBlockEnd
  0
BLOCK
  5
238
100
AcDbEntity
  8
0
100
AcDbBlockBegin
  2
*T1
 70
1
 10
0.0
 20
0.0
  3
*T1
  1

  0
LINE
  5
239
100
AcDbEntity
  8
0
100
AcDbLine
 62
2
  6
CONTINUOUS
 10
9.275
 20
0.0
 11
-0.0
 21
0.0
  0
LINE
  5
23A
100
AcDbEntity
  8
0
100
AcDbLine
 62
2
  6
CONTINUOUS
 10
9.275
 20
0.0
 11
9.275
 21
1.25
  0
LINE
  5
23B
100
AcDbEntity
  8
0
100
AcDbLine
 62
2
  6
CONTINUOUS
 10
9.275
 20
0.625
 11
-0.0
 21
0.625
  0
LINE
  5
23C
100
AcDbEntity
  8
0
100
AcDbLine
 62
2
  6
CONTINUOUS
 10
9.275
 20
1.25
 11
-0.0
 21
1.25
  0
LINE
  5
23D
100
AcDbEntity
  8
0
100
AcDbLine
 62
2
  6
CONTINUOUS
 10
6.8
 20
0.0
 11
6.8
 21
1.25
  0
LINE
  5
23E
100
AcDbEntity
  8
0
100
AcDbLine
 62
2
  6
CONTINUOUS
 10
6.4
 20
0.0
 11
6.4
 21
0.625
  0
LINE
  5
23F
100
AcDbEntity
  8
0
100
AcDbLine
 62
2
  6
CONTINUOUS
 10
5.9
 20
0.0
 11
5.9
 21
0.625
  0
LINE
  5
240
100
AcDbEntity
  8
0
100
AcDbLine
 62
2
  6
CONTINUOUS
 10
5.2
 20
0.0
 11
5.2
 21
0.625
  0
LINE
  5
241
100
AcDbEntity
  8
0
100
AcDbLine
 62
2
  6
CONTINUOUS
 10
4.1
 20
0.0
 11
4.1
 21
1.25
  0
LINE
  5
242
100
AcDbEntity
  8
0
100
AcDbLine
 62
2
  6
CONTINUOUS
 10
-0.0
 20
0.0
 11
-0.0
 21
1.25
  0
MTEXT
  5
243
100
AcDbEntity
  8
0
100
AcDbMText
 62
2
  6
CONTINUOUS
  7
STANDARD
 71
2
 72
1
 10
6.6
 20
0.325
 30
0.0
 11
1.0
 21
0.0
 31
0.0
 44
0.9
  1
2
 40
0.125
 41
0.2
  0
MTEXT
  5
244
100
AcDbEntity
  8
0
100
AcDbMText
 62
2
  6
CONTINUOUS
  7
STANDARD
 71
2
 72
1
 10
6.15
 20
0.325
 30
0.0
 11
1.0
 21
0.0
 31
0.0
 44
0.9
  1
C
 40
0.125
 41
0.2
  0
MTEXT
  5
245
100
AcDbEntity
  8
0
100
AcDbMText
 62
2
  6
CONTINUOUS
  7
STANDARD
 71
2
 72
1
 10
5.55
 20
0.325
 30
0.0
 11
1.0
 21
0.0
 31
0.0
 44
0.9
  1
2.000
 40
0.125
 41
1.0
  0
MTEXT
  5
246
100
AcDbEntity
  8
0
100
AcDbMText
 62
2
  6
CONTINUOUS
  7
STANDARD
 71
2
 72
1
 10
4.65
 20
0.325
 30
0.0
 11
1.0
 21
0.0
 31
0.0
 44
0.9
  1
Jul-12-21
 40
0.125
 41
1.8
  0
MTEXT
  5
247
100
AcDbEntity
  8
0
100
AcDbMText
 62
2
  6
CONTINUOUS
  7
STANDARD
 71
2
 72
1
 10
2.05
 20
0.4625
 30
0.0
 11
1.0
 21
0.0
 31
0.0
 44
0.9
  1
T-11A Sandwich ISO 03\P(See Technical Data for Body Features)
 40
0.125
 41
7.6
  0
MTEXT
  5
248
100
AcDbEntity
  8
0
100
AcDbMText
 62
2
  6
CONTINUOUS
  7
STANDARD
 71
1
 72
1
 10
6.45
 20
0.5625
 30
0.0
 11
1.0
 21
0.0
 31
0.0
 44
0.9
  1
SHEET
 40
0.06
 41
0.48
  0
MTEXT
  5
249
100
AcDbEntity
  8
0
100
AcDbMText
 62
2
  6
CONTINUOUS
  7
STANDARD
 71
1
 72
1
 10
5.95
 20
0.5625
 30
0.0
 11
1.0
 21
0.0
 31
0.0
 44
0.9
  1
DWG SIZE
 40
0.06
 41
0.768
  0
MTEXT
  5
24A
100
AcDbEntity
  8
0
100
AcDbMText
 62
2
  6
CONTINUOUS
  7
STANDARD
 71
1
 72
1
 10
5.25
 20
0.5625
 30
0.0
 11
1.0
 21
0.0
 31
0.0
 44
0.9
  1
SCALE
 40
0.06
 41
0.48
  0
MTEXT
  5
24B
100
AcDbEntity
  8
0
100
AcDbMText
 62
2
  6
CONTINUOUS
  7
STANDARD
 71
1
 72
1
 10
4.15
 20
0.5625
 30
0.0
 11
1.0
 21
0.0
 31
0.0
 44
0.9
  1
DATE
 40
0.06
 41
0.384
  0
MTEXT
  5
24C
100
AcDbEntity
  8
0
100
AcDbMText
 62
2
  6
CONTINUOUS
  7
STANDARD
 71
1
 72
1
 10
0.05
 20
0.5625
 30
0.0
 11
1.0
 21
0.0
 31
0.0
 44
0.9
  1
DESCRIPTION
 40
0.06
 41
1.056
  0
MTEXT
  5
24D
100
AcDbEntity
  8
0
100
AcDbMText
 62
2
  6
CONTINUOUS
  7
STANDARD
 71
2
 72
1
 10
5.45
 20
1.0375
 30
0.0
 11
1.0
 21
0.0
 31
0.0
 44
0.9
  1
ALL DIMENSIONS IN INCH\PVIEWS ARE THIRD ANGLE
 40
0.12
 41
4.224
  0
MTEXT
  5
24E
100
AcDbEntity
  8
0
100
AcDbMText
 62
2
  6
CONTINUOUS
  7
STANDARD
 71
2
 72
1
 10
2.05
 20
0.95
 30
0.0
 11
1.0
 21
0.0
 31
0.0
 44
0.9
  1
Z3N
 40
0.125
 41
0.6
  0
MTEXT
  5
24F
100
AcDbEntity
  8
0
100
AcDbMText
 62
2
  6
CONTINUOUS
  7
STANDARD
 71
1
 72
1
 10
0.05
 20
1.1875
 30
0.0
 11
1.0
 21
0.0
 31
0.0
 44
0.9
  1
MODEL
 40
0.06
 41
0.48
  0
ENDBLK
  5
250
100
AcDbEntity
  8
0
  6
BYBLOCK
 62
0
100
AcDbBlockEnd
  0
BLOCK
  5
251
100
AcDbEntity
  8
0
100
AcDbBlockBegin
  2
*T2
 70
1
 10
0.0
 20
0.0
  3
*T2
  1

  0
LINE
  5
252
100
AcDbEntity
  8
0
100
AcDbLine
 62
2
  6
CONTINUOUS
 10
0.0
 20
0.0
 11
9.055
 21
0.0
  0
LINE
  5
253
100
AcDbEntity
  8
0
100
AcDbLine
 62
2
  6
CONTINUOUS
 10
0.0
 20
0.0
 11
0.0
 21
-2.344
  0
LINE
  5
254
100
AcDbEntity
  8
0
100
AcDbLine
 62
2
  6
CONTINUOUS
 10
0.0
 20
-0.344
 11
9.055
 21
-0.344
  0
LINE
  5
255
100
AcDbEntity
  8
0
100
AcDbLine
 62
2
  6
CONTINUOUS
 10
0.0
 20
-0.594
 11
9.055
 21
-0.594
  0
LINE
  5
256
100
AcDbEntity
  8
0
100
AcDbLine
 62
2
  6
CONTINUOUS
 10
0.0
 20
-0.844
 11
9.055
 21
-0.844
  0
LINE
  5
257
100
AcDbEntity
  8
0
100
AcDbLine
 62
2
  6
CONTINUOUS
 10
0.0
 20
-1.094
 11
9.055
 21
-1.094
  0
LINE
  5
258
100
AcDbEntity
  8
0
100
AcDbLine
 62
2
  6
CONTINUOUS
 10
0.0
 20
-1.344
 11
9.055
 21
-1.344
  0
LINE
  5
259
100
AcDbEntity
  8
0
100
AcDbLine
 62
2
  6
CONTINUOUS
 10
0.0
 20
-1.594
 11
9.055
 21
-1.594
  0
LINE
  5
25A
100
AcDbEntity
  8
0
100
AcDbLine
 62
2
  6
CONTINUOUS
 10
0.0
 20
-1.844
 11
9.055
 21
-1.844
  0
LINE
  5
25B
100
AcDbEntity
  8
0
100
AcDbLine
 62
2
  6
CONTINUOUS
 10
0.0
 20
-2.094
 11
9.055
 21
-2.094
  0
LINE
  5
25C
100
AcDbEntity
  8
0
100
AcDbLine
 62
2
  6
CONTINUOUS
 10
0.0
 20
-2.344
 11
9.055
 21
-2.344
  0
LINE
  5
25D
100
AcDbEntity
  8
0
100
AcDbLine
 62
2
  6
CONTINUOUS
 10
3.055
 20
0.0
 11
3.055
 21
-2.344
  0
LINE
  5
25E
100
AcDbEntity
  8
0
100
AcDbLine
 62
2
  6
CONTINUOUS
 10
9.055
 20
0.0
 11
9.055
 21
-2.344
  0
MTEXT
  5
25F
100
AcDbEntity
  8
0
100
AcDbMText
 62
2
  6
CONTINUOUS
  7
STANDARD
 71
2
 72
1
 10
1.5275
 20
-0.0995
 30
0.0
 11
1.0
 21
0.0
 31
0.0
 44
0.9
  1
Technical Data
 40
0.145
 41
3.248
  0
MTEXT
  5
260
100
AcDbEntity
  8
0
100
AcDbMText
 62
2
  6
CONTINUOUS
  7
STANDARD
 71
2
 72
1
 10
4.555
 20
-0.0995
 30
0.0
 11
1.0
 21
0.0
 31
0.0
 44
0.9
  1
U.S. Units
 40
0.145
 41
2.32
  0
MTEXT
  5
261
100
AcDbEntity
  8
0
100
AcDbMText
 62
2
  6
CONTINUOUS
  7
STANDARD
 71
2
 72
1
 10
7.555
 20
-0.0995
 30
0.0
 11
1.0
 21
0.0
 31
0.0
 44
0.9
  1
Metric Units
 40
0.145
 41
2.784
  0
MTEXT
  5
262
100
AcDbEntity
  8
0
100
AcDbMText
 62
2
  6
CONTINUOUS
  7
STANDARD
 71
2
 72
1
 10
1.5275
 20
-0.4065
 30
0.0
 11
1.0
 21
0.0
 31
0.0
 44
0.9
  1
Cavity
 40
0.125
 41
1.2
  0
MTEXT
  5
263
100
AcDbEntity
  8
0
100
AcDbMText
 62
2
  6
CONTINUOUS
  7
STANDARD
 71
2
 72
1
 10
6.055
 20
-0.4065
 30
0.0
 11
1.0
 21
0.0
 31
0.0
 44
0.9
  1
T-11A
 40
0.125
 41
1.0
  0
MTEXT
  5
264
100
AcDbEntity
  8
0
100
AcDbMText
 62
2
  6
CONTINUOUS
  7
STANDARD
 71
2
 72
1
 10
1.5275
 20
-0.6565
 30
0.0
 11
1.0
 21
0.0
 31
0.0
 44
0.9
  1
Body Features
 40
0.125
 41
2.6
  0
MTEXT
  5
265
100
AcDbEntity
  8
0
100
AcDbMText
 62
2
  6
CONTINUOUS
  7
STANDARD
 71
2
 72
1
 10
6.055
 20
-0.6565
 30
0.0
 11
1.0
 21
0.0
 31
0.0
 44
0.9
  1
Priority flow control on A with reverse flow check
 40
0.125
 41
10.0
  0
MTEXT
  5
266
100
AcDbEntity
  8
0
100
AcDbMText
 62
2
  6
CONTINUOUS
  7
STANDARD
 71
2
 72
1
 10
1.5275
 20
-0.9065
 30
0.0
 11
1.0
 21
0.0
 31
0.0
 44
0.9
  1
Body Type
 40
0.125
 41
1.8
  0
MTEXT
  5
267
100
AcDbEntity
  8
0
100
AcDbMText
 62
2
  6
CONTINUOUS
  7
STANDARD
 71
2
 72
1
 10
6.055
 20
-0.9065
 30
0.0
 11
1.0
 21
0.0
 31
0.0
 44
0.9
  1
Sandwich
 40
0.125
 41
1.6
  0
MTEXT
  5
268
100
AcDbEntity
  8
0
100
AcDbMText
 62
2
  6
CONTINUOUS
  7
STANDARD
 71
2
 72
1
 10
1.5275
 20
-1.1565
 30
0.0
 11
1.0
 21
0.0
 31
0.0
 44
0.9
  1
Interface
 40
0.125
 41
1.8
  0
MTEXT
  5
269
100
AcDbEntity
  8
0
100
AcDbMText
 62
2
  6
CONTINUOUS
  7
STANDARD
 71
2
 72
1
 10
6.055
 20
-1.1565
 30
0.0
 11
1.0
 21
0.0
 31
0.0
 44
0.9
  1
ISO 03
 40
0.125
 41
1.2
  0
MTEXT
  5
26A
100
AcDbEntity
  8
0
100
AcDbMText
 62
2
  6
CONTINUOUS
  7
STANDARD
 71
2
 72
1
 10
1.5275
 20
-1.4065
 30
0.0
 11
1.0
 21
0.0
 31
0.0
 44
0.9
  1
Open Cavity Quantity
 40
0.125
 41
4.0
  0
MTEXT
  5
26B
100
AcDbEntity
  8
0
100
AcDbMText
 62
2
  6
CONTINUOUS
  7
STANDARD
 71
2
 72
1
 10
6.055
 20
-1.4065
 30
0.0
 11
1.0
 21
0.0
 31
0.0
 44
0.9
  1
1
 40
0.125
 41
0.2
  0
MTEXT
  5
26C
100
AcDbEntity
  8
0
100
AcDbMText
 62
2
  6
CONTINUOUS
  7
STANDARD
 71
2
 72
1
 10
1.5275
 20
-1.6565
 30
0.0
 11
1.0
 21
0.0
 31
0.0
 44
0.9
  1
Stack Height
 40
0.125
 41
2.4
  0
MTEXT
  5
26D
100
AcDbEntity
  8
0
100
AcDbMText
 62
2
  6
CONTINUOUS
  7
STANDARD
 71
2
 72
1
 10
4.555
 20
-1.6565
 30
0.0
 11
1.0
 21
0.0
 31
0.0
 44
0.9
  1
2.49 in.
 40
0.125
 41
1.6
  0
MTEXT
  5
26E
100
AcDbEntity
  8
0
100
AcDbMText
 62
2
  6
CONTINUOUS
  7
STANDARD
 71
2
 72
1
 10
7.555
 20
-1.6565
 30
0.0
 11
1.0
 21
0.0
 31
0.0
 44
0.9
  1
63 mm
 40
0.125
 41
1.0
  0
MTEXT
  5
26F
100
AcDbEntity
  8
0
100
AcDbMText
 62
2
  6
CONTINUOUS
  7
STANDARD
 71
2
 72
1
 10
1.5275
 20
-1.9065
 30
0.0
 11
1.0
 21
0.0
 31
0.0
 44
0.9
  1
Weight
 40
0.125
 41
1.2
  0
MTEXT
  5
270
100
AcDbEntity
  8
0
100
AcDbMText
 62
2
  6
CONTINUOUS
  7
STANDARD
 71
2
 72
1
 10
4.555
 20
-1.9065
 30
0.0
 11
1.0
 21
0.0
 31
0.0
 44
0.9
  1
1.519 lb.
 40
0.125
 41
1.8
  0
MTEXT
  5
271
100
AcDbEntity
  8
0
100
AcDbMText
 62
2
  6
CONTINUOUS
  7
STANDARD
 71
2
 72
1
 10
7.555
 20
-1.9065
 30
0.0
 11
1.0
 21
0.0
 31
0.0
 44
0.9
  1
0,689 kg.
 40
0.125
 41
1.8
  0
MTEXT
  5
272
100
AcDbEntity
  8
0
100
AcDbMText
 62
2
  6
CONTINUOUS
  7
STANDARD
 71
2
 72
1
 10
1.5275
 20
-2.1565
 30
0.0
 11
1.0
 21
0.0
 31
0.0
 44
0.9
  1
Seal Plate Included (see notes)
 40
0.125
 41
6.2
  0
MTEXT
  5
273
100
AcDbEntity
  8
0
100
AcDbMText
 62
2
  6
CONTINUOUS
  7
STANDARD
 71
2
 72
1
 10
6.055
 20
-2.1565
 30
0.0
 11
1.0
 21
0.0
 31
0.0
 44
0.9
  1
Yes
 40
0.125
 41
0.6
  0
ENDBLK
  5
274
100
AcDbEntity
  8
0
  6
BYBLOCK
 62
0
100
AcDbBlockEnd
  0
ENDSEC
  0
SECTION
  2
ENTITIES
  0
IMAGE
  5
275
100
AcDbEntity
  8
0
100
AcDbRasterImage
 62
7
  6
CONTINUOUS
 10
19.2297077316
 20
0.3094318264
 30
0.0
 11
0.0066666667
 21
0.0
 31
0.0
 12
0.0
 22
0.0066666667
 32
0.0
 13
369.0
 23
92.0
340
       331
 70
9
280
0
281
50
282
50
283
0
360
       32B
 71
1
 91
2
 14
-0.5
 24
-0.5
 14
368.5
 24
91.5
  0
INSERT
  5
276
100
AcDbEntity
  8
0
100
AcDbBlockReference
 62
2
  6
CONTINUOUS
  2
SUN_FIRST_THIRD_ANGLE_BL0
 10
20.4816717061
 20
1.2289683772
  0
ACAD_TABLE
  5
277
100
AcDbEntity
  8
0
 62
2
  6
CONTINUOUS
100
AcDbBlockReference
  2
*T1
 10
12.42375
 20
0.30125
 30
0.0
100
AcDbTable
342
       333
343
212
 11
1.0
 21
0.0
 31
0.0
 90
6
 91
4
 92
6
 93
20
 94
0
 95
0
 96
0
 70
1
 41
0.0
141
0.525
141
0.1
141
0.525
141
0.1
142
4.1
142
1.1
142
0.7
142
0.5
142
0.4
142
2.475
171
1
172
0
173
0
174
0
175
1
176
1
 91
33
178
0
145
0.0
301
CELL_VALUE
 90
4
  1
T-11A Sandwich ISO 03\P(See Technical Data for Body Features)
304
ACVALUE_END
170
2
140
0.125
171
1
172
0
173
0
174
0
175
1
176
1
 91
33
178
0
145
0.0
301
CELL_VALUE
 90
4
  1
Jul-12-21
304
ACVALUE_END
170
5
140
0.125
171
1
172
0
173
0
174
0
175
1
176
1
 91
33
178
0
145
0.0
301
CELL_VALUE
 90
4
  1
2.000
304
ACVALUE_END
170
5
140
0.125
171
1
172
0
173
0
174
0
175
1
176
1
 91
33
178
0
145
0.0
301
CELL_VALUE
 90
4
  1
C
304
ACVALUE_END
170
5
140
0.125
171
1
172
0
173
0
174
0
175
1
176
1
 91
33
178
0
145
0.0
301
CELL_VALUE
 90
4
  1
2
304
ACVALUE_END
170
5
140
0.125
171
1
172
0
173
0
174
0
175
1
176
1
 91
33
178
0
145
0.0
301
CELL_VALUE
 90
4
  1
 
304
ACVALUE_END
170
1
140
0.125
171
1
172
0
173
0
174
0
175
1
176
1
 91
33
178
0
145
0.0
301
CELL_VALUE
 90
4
  1
DESCRIPTION
304
ACVALUE_END
170
1
140
0.06
171
1
172
0
173
0
174
0
175
1
176
1
 91
33
178
0
145
0.0
301
CELL_VALUE
 90
4
  1
DATE
304
ACVALUE_END
170
1
140
0.06
171
1
172
0
173
0
174
0
175
1
176
1
 91
33
178
0
145
0.0
301
CELL_VALUE
 90
4
  1
SCALE
304
ACVALUE_END
170
1
140
0.06
171
1
172
0
173
0
174
0
175
1
176
1
 91
33
178
0
145
0.0
301
CELL_VALUE
 90
4
  1
DWG SIZE
304
ACVALUE_END
170
1
140
0.06
171
1
172
0
173
0
174
0
175
1
176
1
 91
33
178
0
145
0.0
301
CELL_VALUE
 90
4
  1
SHEET
304
ACVALUE_END
170
1
140
0.06
171
1
172
0
173
0
174
0
175
1
176
1
 91
33
178
0
145
0.0
301
CELL_VALUE
 90
4
  1
 
304
ACVALUE_END
170
1
140
0.125
171
1
172
0
173
0
174
0
175
1
176
1
 91
33
178
0
145
0.0
301
CELL_VALUE
 90
4
  1
Z3N
304
ACVALUE_END
170
5
140
0.125
171
1
172
0
173
0
174
0
175
4
176
1
 91
33
178
0
145
0.0
301
CELL_VALUE
 90
4
  1
ALL DIMENSIONS IN INCH\PVIEWS ARE THIRD ANGLE
304
ACVALUE_END
170
5
140
0.12
171
1
172
0
173
1
174
0
175
1
176
1
 91
1
178
0
145
0.0
170
1
171
1
172
0
173
1
174
0
175
1
176
1
 91
1
178
0
145
0.0
170
1
171
1
172
0
173
1
174
0
175
1
176
1
 91
1
178
0
145
0.0
170
5
171
1
172
0
173
0
174
0
175
1
176
1
 91
33
178
0
145
0.0
301
CELL_VALUE
 90
4
  1
 
304
ACVALUE_END
170
1
140
0.125
171
1
172
0
173
0
174
0
175
1
176
1
 91
33
178
0
145
0.0
301
CELL_VALUE
 90
4
  1
MODEL
304
ACVALUE_END
170
1
140
0.06
171
1
172
0
173
0
174
0
175
1
176
1
 91
33
178
0
145
0.0
301
CELL_VALUE
 90
4
  1
 
304
ACVALUE_END
170
1
140
0.125
171
1
172
0
173
0
174
0
175
1
176
1
 91
33
178
0
145
0.0
301
CELL_VALUE
 90
4
  1
 
304
ACVALUE_END
170
1
140
0.125
171
1
172
0
173
0
174
0
175
1
176
1
 91
33
178
0
145
0.0
301
CELL_VALUE
 90
4
  1
 
304
ACVALUE_END
170
1
140
0.125
171
1
172
0
173
0
174
0
175
1
176
1
 91
33
178
0
145
0.0
301
CELL_VALUE
 90
4
  1
 
304
ACVALUE_END
170
1
140
0.125
171
1
172
0
173
0
174
0
175
1
176
1
 91
33
178
0
145
0.0
301
CELL_VALUE
 90
4
  1
 
304
ACVALUE_END
170
1
140
0.125
  0
ACAD_TABLE
  5
278
100
AcDbEntity
  8
0
 62
2
  6
CONTINUOUS
100
AcDbBlockReference
  2
*T2
 10
12.4237499994
 20
16.47875
 30
0.0
100
AcDbTable
342
       332
343
213
 11
1.0
 21
0.0
 31
0.0
 90
22
 91
9
 92
3
 93
16
 94
0
 95
0
 96
0
 41
0.028
141
0.344
141
0.25
141
0.25
141
0.25
141
0.25
141
0.25
141
0.25
141
0.25
141
0.25
142
3.055
142
3.0
142
3.0
171
1
172
0
173
0
174
0
175
1
176
1
 91
33
178
0
145
0.0
301
CELL_VALUE
 90
4
  1
Technical Data
304
ACVALUE_END
170
5
140
0.145
171
1
172
0
173
0
174
0
175
1
176
1
 91
33
178
0
145
0.0
301
CELL_VALUE
 90
4
  1
U.S. Units
304
ACVALUE_END
170
5
140
0.145
171
1
172
0
173
0
174
0
175
1
176
1
 91
33
178
0
145
0.0
301
CELL_VALUE
 90
4
  1
Metric Units
304
ACVALUE_END
170
5
140
0.145
171
1
172
0
173
0
174
0
175
1
176
1
 91
33
178
0
145
0.0
301
CELL_VALUE
 90
4
  1
Cavity
304
ACVALUE_END
170
5
140
0.125
171
1
172
0
173
0
174
0
175
2
176
1
 91
33
178
0
145
0.0
301
CELL_VALUE
 90
4
  1
T-11A
304
ACVALUE_END
170
5
140
0.125
171
1
172
0
173
1
174
0
175
1
176
1
 91
1
178
0
145
0.0
170
1
171
1
172
0
173
0
174
0
175
1
176
1
 91
33
178
0
145
0.0
301
CELL_VALUE
 90
4
  1
Body Features
304
ACVALUE_END
170
5
140
0.125
171
1
172
0
173
0
174
0
175
2
176
1
 91
33
178
0
145
0.0
301
CELL_VALUE
 90
4
  1
Priority flow control on A with reverse flow check
304
ACVALUE_END
170
5
140
0.125
171
1
172
0
173
1
174
0
175
1
176
1
 91
1
178
0
145
0.0
170
1
171
1
172
0
173
0
174
0
175
1
176
1
 91
33
178
0
145
0.0
301
CELL_VALUE
 90
4
  1
Body Type
304
ACVALUE_END
170
5
140
0.125
171
1
172
0
173
0
174
0
175
2
176
1
 91
33
178
0
145
0.0
301
CELL_VALUE
 90
4
  1
Sandwich
304
ACVALUE_END
170
5
140
0.125
171
1
172
0
173
1
174
0
175
1
176
1
 91
1
178
0
145
0.0
170
1
171
1
172
0
173
0
174
0
175
1
176
1
 91
33
178
0
145
0.0
301
CELL_VALUE
 90
4
  1
Interface
304
ACVALUE_END
170
5
140
0.125
171
1
172
0
173
0
174
0
175
2
176
1
 91
33
178
0
145
0.0
301
CELL_VALUE
 90
4
  1
ISO 03
304
ACVALUE_END
170
5
140
0.125
171
1
172
0
173
1
174
0
175
1
176
1
 91
1
178
0
145
0.0
170
1
171
1
172
0
173
0
174
0
175
1
176
1
 91
33
178
0
145
0.0
301
CELL_VALUE
 90
4
  1
Open Cavity Quantity
304
ACVALUE_END
170
5
140
0.125
171
1
172
0
173
0
174
0
175
2
176
1
 91
33
178
0
145
0.0
301
CELL_VALUE
 90
4
  1
1
304
ACVALUE_END
170
5
140
0.125
171
1
172
0
173
1
174
0
175
1
176
1
 91
1
178
0
145
0.0
170
1
171
1
172
0
173
0
174
0
175
1
176
1
 91
33
178
0
145
0.0
301
CELL_VALUE
 90
4
  1
Stack Height
304
ACVALUE_END
170
5
140
0.125
171
1
172
0
173
0
174
0
175
1
176
1
 91
33
178
0
145
0.0
301
CELL_VALUE
 90
4
  1
2.49 in.
304
ACVALUE_END
170
5
140
0.125
171
1
172
0
173
0
174
0
175
1
176
1
 91
33
178
0
145
0.0
301
CELL_VALUE
 90
4
  1
63 mm
304
ACVALUE_END
170
5
140
0.125
171
1
172
0
173
0
174
0
175
1
176
1
 91
33
178
0
145
0.0
301
CELL_VALUE
 90
4
  1
Weight
304
ACVALUE_END
170
5
140
0.125
171
1
172
0
173
0
174
0
175
1
176
1
 91
33
178
0
145
0.0
301
CELL_VALUE
 90
4
  1
1.519 lb.
304
ACVALUE_END
170
5
140
0.125
171
1
172
0
173
0
174
0
175
1
176
1
 91
33
178
0
145
0.0
301
CELL_VALUE
 90
4
  1
0,689 kg.
304
ACVALUE_END
170
5
140
0.125
171
1
172
0
173
0
174
0
175
1
176
1
 91
33
178
0
145
0.0
301
CELL_VALUE
 90
4
  1
Seal Plate Included (see notes)
304
ACVALUE_END
170
5
140
0.125
171
1
172
0
173
0
174
0
175
2
176
1
 91
33
178
0
145
0.0
301
CELL_VALUE
 90
4
  1
Yes
304
ACVALUE_END
170
5
140
0.125
171
1
172
0
173
1
174
0
175
1
176
1
 91
1
178
0
145
0.0
170
1
  0
MTEXT
  5
279
100
AcDbEntity
  8
0
100
AcDbMText
 62
2
  6
CONTINUOUS
  7
STANDARD
 71
1
 72
1
 10
0.52125
 20
5.75995
 30
0.0
 11
1.0
 21
0.0
 31
0.0
 44
0.6
  3
Notes\P \P1. Stack height value in technical\P   data table includes seal retainer\P   plate.\P2. Important: Carefully consider\P   the maximum system pressure. The\P   pressure rating of the manifold is\P   dependent on the manifold material,\P   wi
  3
th the port type/size a secondary\P   consideration. Manifolds\P   constructed of aluminum are not\P   rated for pressures higher than\P   3000 psi (210 bar), regardless of\P   the port type/size specified.\P3. Items without balloons are\P   shipped 
  1
loose.
 40
0.1
 41
3.04
  0
LINE
  5
27A
100
AcDbEntity
  8
0
100
AcDbLine
 62
7
  6
CONTINUOUS
 10
0.30125
 20
0.30125
 11
0.30125
 21
16.69875
  0
LINE
  5
27B
100
AcDbEntity
  8
0
100
AcDbLine
 62
7
  6
CONTINUOUS
 10
0.30125
 20
0.30125
 11
21.69875
 21
0.30125
  0
LINE
  5
27C
100
AcDbEntity
  8
0
100
AcDbLine
 62
7
  6
CONTINUOUS
 10
0.30125
 20
16.69875
 11
21.69875
 21
16.69875
  0
LINE
  5
27D
100
AcDbEntity
  8
0
100
AcDbLine
 62
7
  6
CONTINUOUS
 10
21.69875
 20
0.30125
 11
21.69875
 21
16.69875
  0
LINE
  5
27E
100
AcDbEntity
  8
0
100
AcDbLine
 62
7
  6
CONTINUOUS
 10
6.225014333
 20
9.0324652157
 11
6.225014333
 21
7.3420949195
  0
LINE
  5
27F
100
AcDbEntity
  8
0
100
AcDbLine
 62
7
  6
CONTINUOUS
 10
6.2688549702
 20
9.0128120219
 11
6.2688549702
 21
7.3224417258
  0
LINE
  5
280
100
AcDbEntity
  8
0
100
AcDbLine
 62
7
  6
CONTINUOUS
 10
6.3645442572
 20
6.7904581873
 11
6.3127933056
 21
6.8540886869
  0
LINE
  5
281
100
AcDbEntity
  8
0
100
AcDbLine
 62
7
  6
CONTINUOUS
 10
7.260289659
 20
10.6970214575
 11
6.403081689
 21
9.8690220918
  0
LINE
  5
282
100
AcDbEntity
  8
0
100
AcDbLine
 62
7
  6
CONTINUOUS
 10
7.3201770638
 20
10.7527556567
 11
6.4629690938
 21
9.9247562909
  0
LINE
  5
283
100
AcDbEntity
  8
0
100
AcDbLine
 62
7
  6
CONTINUOUS
 10
7.3220094699
 20
10.7544933466
 11
7.3201770638
 21
10.7527556567
  0
LINE
  5
284
100
AcDbEntity
  8
0
100
AcDbLine
 62
7
  6
CONTINUOUS
 10
7.2619723221
 20
10.6986168544
 11
7.260289659
 21
10.6970214575
  0
LINE
  5
285
100
AcDbEntity
  8
0
100
AcDbLine
 62
7
  6
CONTINUOUS
 10
7.3201609653
 20
10.7527729539
 11
7.2619705862
 21
10.6986154984
  0
LINE
  5
286
100
AcDbEntity
  8
0
100
AcDbLine
 62
7
  6
CONTINUOUS
 10
7.260289659
 20
10.6970214575
 11
7.3201770638
 21
10.7527556567
  0
LINE
  5
287
100
AcDbEntity
  8
0
100
AcDbLine
 62
7
  6
CONTINUOUS
 10
6.403081689
 20
9.8690220918
 11
6.4629690938
 21
9.9247562909
  0
LINE
  5
288
100
AcDbEntity
  8
0
100
AcDbLine
 62
7
  6
CONTINUOUS
 10
7.9818526839
 20
6.3508513518
 11
7.9818526839
 21
9.7315919441
  0
LINE
  5
289
100
AcDbEntity
  8
0
100
AcDbLine
 62
7
  6
CONTINUOUS
 10
9.2438532876
 20
10.9505909922
 11
7.9818526839
 21
9.7315919441
  0
LINE
  5
28A
100
AcDbEntity
  8
0
100
AcDbLine
 62
7
  6
CONTINUOUS
 10
6.225014333
 20
7.3420949195
 11
6.2688549702
 21
7.3224417258
  0
LINE
  5
28B
100
AcDbEntity
  8
0
100
AcDbLine
 62
7
  6
CONTINUOUS
 10
7.9818526839
 20
6.3508513518
 11
12.3285191597
 21
6.0494090078
  0
LINE
  5
28C
100
AcDbEntity
  8
0
100
AcDbLine
 62
7
  6
CONTINUOUS
 10
13.4385487685
 20
6.8437664591
 11
13.3626145961
 21
6.8324196766
  0
LINE
  5
28D
100
AcDbEntity
  8
0
100
AcDbLine
 62
7
  6
CONTINUOUS
 10
7.9818526839
 20
6.652805265
 11
6.4110810441
 21
6.7617386482
  0
LINE
  5
28E
100
AcDbEntity
  8
0
100
AcDbLine
 62
7
  6
CONTINUOUS
 10
12.4790274269
 20
6.3428569891
 11
13.5048406701
 21
6.271716599
  0
LINE
  5
28F
100
AcDbEntity
  8
0
100
AcDbLine
 62
7
  6
CONTINUOUS
 10
6.2688549702
 20
7.3224417258
 11
7.9818526839
 21
7.2036449308
  0
LINE
  5
290
100
AcDbEntity
  8
0
100
AcDbLine
 62
7
  6
CONTINUOUS
 10
13.3626145961
 20
6.8324196766
 11
12.336801353
 21
6.9035600666
  0
LINE
  5
291
100
AcDbEntity
  8
0
100
AcDbLine
 62
7
  6
CONTINUOUS
 10
6.225014333
 20
9.0324652157
 11
6.2688549702
 21
9.0128120219
  0
LINE
  5
292
100
AcDbEntity
  8
0
100
AcDbLine
 62
7
  6
CONTINUOUS
 10
14.532342442
 20
7.4622931784
 11
15.3735408935
 21
7.4039558676
  0
LINE
  5
293
100
AcDbEntity
  8
0
100
AcDbLine
 62
7
  6
CONTINUOUS
 10
14.5057914695
 20
7.4938563522
 11
15.346989921
 21
7.4355190414
  0
LINE
  5
294
100
AcDbEntity
  8
0
100
AcDbLine
 62
7
  6
CONTINUOUS
 10
14.1390655398
 20
7.5947723254
 11
14.4394321887
 21
7.5739418275
  0
LINE
  5
295
100
AcDbEntity
  8
0
100
AcDbLine
 62
7
  6
CONTINUOUS
 10
13.4385487685
 20
8.5341367552
 11
13.3626145961
 21
8.5227899727
  0
LINE
  5
296
100
AcDbEntity
  8
0
100
AcDbLine
 62
7
  6
CONTINUOUS
 10
14.3927368441
 20
8.1154511959
 11
15.2339352956
 21
8.0571138851
  0
LINE
  5
297
100
AcDbEntity
  8
0
100
AcDbLine
 62
7
  6
CONTINUOUS
 10
14.3927368441
 20
8.2298700867
 11
15.2339352956
 21
8.171532776
  0
LINE
  5
298
100
AcDbEntity
  8
0
100
AcDbLine
 62
7
  6
CONTINUOUS
 10
13.5905197634
 20
10.6491486482
 11
12.3285191597
 21
9.4301496001
  0
LINE
  5
299
100
AcDbEntity
  8
0
100
AcDbLine
 62
7
  6
CONTINUOUS
 10
12.5309154766
 20
9.5058746318
 11
13.3881234465
 21
10.3338739975
  0
LINE
  5
29A
100
AcDbEntity
  8
0
100
AcDbLine
 62
7
  6
CONTINUOUS
 10
6.2688549702
 20
9.0128120219
 11
7.9818526839
 21
8.894015227
  0
LINE
  5
29B
100
AcDbEntity
  8
0
100
AcDbLine
 62
7
  6
CONTINUOUS
 10
13.3626145961
 20
8.5227899727
 11
12.336801353
 21
8.5939303628
  0
LINE
  5
29C
100
AcDbEntity
  8
0
100
AcDbLine
 62
7
  6
CONTINUOUS
 10
13.5567287198
 20
9.4347342417
 11
14.4139366897
 21
10.2627336075
  0
LINE
  5
29D
100
AcDbEntity
  8
0
100
AcDbLine
 62
7
  6
CONTINUOUS
 10
14.5057914695
 20
9.0698697081
 11
15.346989921
 21
9.0115323973
  0
LINE
  5
29E
100
AcDbEntity
  8
0
100
AcDbLine
 62
7
  6
CONTINUOUS
 10
14.532342442
 20
9.1527254251
 11
15.3735408935
 21
9.0943881144
  0
LINE
  5
29F
100
AcDbEntity
  8
0
100
AcDbLine
 62
7
  6
CONTINUOUS
 10
12.3285191597
 20
9.4301496001
 11
7.9818526839
 21
9.7315919441
  0
LINE
  5
2A0
100
AcDbEntity
  8
0
100
AcDbLine
 62
7
  6
CONTINUOUS
 10
14.2576598131
 20
9.3006549364
 11
14.5585001841
 21
9.2797915858
  0
LINE
  5
2A1
100
AcDbEntity
  8
0
100
AcDbLine
 62
7
  6
CONTINUOUS
 10
6.4629690938
 20
9.9247562909
 11
8.0666893864
 21
9.8135379109
  0
LINE
  5
2A2
100
AcDbEntity
  8
0
100
AcDbLine
 62
7
  6
CONTINUOUS
 10
13.5567287198
 20
9.4347342417
 11
12.5309154766
 21
9.5058746318
  0
LINE
  5
2A3
100
AcDbEntity
  8
0
100
AcDbLine
 62
7
  6
CONTINUOUS
 10
12.3285191597
 20
6.0494090078
 11
12.3285191597
 21
9.4301496001
  0
LINE
  5
2A4
100
AcDbEntity
  8
0
100
AcDbLine
 62
7
  6
CONTINUOUS
 10
12.336801353
 20
6.9035600666
 11
12.336801353
 21
8.5939303628
  0
LINE
  5
2A5
100
AcDbEntity
  8
0
100
AcDbLine
 62
7
  6
CONTINUOUS
 10
13.6166161245
 20
9.3706936313
 11
14.4738240945
 21
10.1986929971
  0
LINE
  5
2A6
100
AcDbEntity
  8
0
100
AcDbLine
 62
4
  6
CONTINUOUS
 10
14.2388165809
 20
9.7611213007
 11
14.2543457105
 21
9.7761212889
  0
LINE
  5
2A7
100
AcDbEntity
  8
0
100
AcDbLine
 62
4
  6
CONTINUOUS
 10
14.3591673349
 20
9.8773712091
 11
14.3669318997
 21
9.8848712031
  0
LINE
  5
2A8
100
AcDbEntity
  8
0
100
AcDbLine
 62
4
  6
CONTINUOUS
 10
14.1883469099
 20
9.6350972679
 11
14.1650532156
 21
9.6125972856
  0
LINE
  5
2A9
100
AcDbEntity
  8
0
100
AcDbLine
 62
7
  6
CONTINUOUS
 10
14.7584516926
 20
9.3711302028
 11
15.5996501441
 21
9.3127928921
  0
LINE
  5
2AA
100
AcDbEntity
  8
0
100
AcDbLine
 62
4
  6
CONTINUOUS
 10
14.3669318997
 20
9.6530489963
 11
14.3591673349
 21
9.6455490022
  0
LINE
  5
2AB
100
AcDbEntity
  8
0
100
AcDbLine
 62
4
  6
CONTINUOUS
 10
14.2543457105
 20
9.544299082
 11
14.2388165809
 21
9.5292990938
  0
LINE
  5
2AC
100
AcDbEntity
  8
0
100
AcDbLine
 62
7
  6
CONTINUOUS
 10
14.5286771266
 20
9.2527987116
 11
14.5481334649
 21
9.2709066152
  0
LINE
  5
2AD
100
AcDbEntity
  8
0
100
AcDbLine
 62
7
  6
CONTINUOUS
 10
7.3201770638
 20
10.7527556567
 11
8.9238973563
 21
10.6415372766
  0
LINE
  5
2AE
100
AcDbEntity
  8
0
100
AcDbLine
 62
7
  6
CONTINUOUS
 10
14.4139366897
 20
10.2627336075
 11
13.3881234465
 21
10.3338739975
  0
LINE
  5
2AF
100
AcDbEntity
  8
0
100
AcDbLine
 62
7
  6
CONTINUOUS
 10
8.9503221615
 20
10.6670616799
 11
7.3720651135
 21
10.7765141779
  0
LINE
  5
2B0
100
AcDbEntity
  8
0
100
AcDbLine
 62
7
  6
CONTINUOUS
 10
13.4400114963
 20
10.3576325188
 11
14.4658247394
 21
10.2864921287
  0
LINE
  5
2B1
100
AcDbEntity
  8
0
100
AcDbLine
 62
7
  6
CONTINUOUS
 10
14.4143838699
 20
7.6047400446
 11
14.5170510803
 21
7.4785053438
  0
LINE
  5
2B2
100
AcDbEntity
  8
0
100
AcDbLine
 62
7
  6
CONTINUOUS
 10
13.3626145961
 20
6.8324196766
 11
13.3626145961
 21
8.5227899727
  0
LINE
  5
2B3
100
AcDbEntity
  8
0
100
AcDbLine
 62
7
  6
CONTINUOUS
 10
13.4385487685
 20
6.8437664591
 11
13.4385487685
 21
8.5341367552
  0
LINE
  5
2B4
100
AcDbEntity
  8
0
100
AcDbLine
 62
7
  6
CONTINUOUS
 10
13.5905197634
 20
10.6491486482
 11
9.2438532876
 21
10.9505909922
  0
LINE
  5
2B5
100
AcDbEntity
  8
0
100
AcDbLine
 62
7
  6
CONTINUOUS
 10
13.6166161245
 20
9.3706936313
 11
13.5567287198
 21
9.4347342417
  0
LINE
  5
2B6
100
AcDbEntity
  8
0
100
AcDbLine
 62
7
  6
CONTINUOUS
 10
13.5905197634
 20
10.347194735
 11
13.5905197634
 21
10.6491486482
  0
LINE
  5
2B7
100
AcDbEntity
  8
0
100
AcDbLine
 62
4
  6
CONTINUOUS
 10
14.2310520162
 20
9.7343027888
 11
14.2388165809
 21
9.7611213007
  0
LINE
  5
2B8
100
AcDbEntity
  8
0
100
AcDbLine
 62
4
  6
CONTINUOUS
 10
14.3514027701
 20
9.8505526971
 11
14.3591673349
 21
9.8773712091
  0
LINE
  5
2B9
100
AcDbEntity
  8
0
100
AcDbLine
 62
7
  6
CONTINUOUS
 10
12.6220502858
 20
6.3329383201
 11
12.3285191597
 21
6.0494090078
  0
LINE
  5
2BA
100
AcDbEntity
  8
0
100
AcDbLine
 62
4
  6
CONTINUOUS
 10
14.1767000628
 20
9.4692991411
 11
14.1572886508
 21
9.6823713628
  0
LINE
  5
2BB
100
AcDbEntity
  8
0
100
AcDbLine
 62
4
  6
CONTINUOUS
 10
14.2543457105
 20
9.7761212889
 11
14.2543457105
 21
9.544299082
  0
LINE
  5
2BC
100
AcDbEntity
  8
0
100
AcDbLine
 62
4
  6
CONTINUOUS
 10
14.219405169
 20
9.6264602121
 11
14.2232874514
 21
9.6881657608
  0
LINE
  5
2BD
100
AcDbEntity
  8
0
100
AcDbLine
 62
4
  6
CONTINUOUS
 10
14.1961114747
 20
9.7198713332
 11
14.1767000628
 21
9.4692991411
  0
LINE
  5
2BE
100
AcDbEntity
  8
0
100
AcDbLine
 62
4
  6
CONTINUOUS
 10
14.3164622287
 20
9.8361212416
 11
14.2854039696
 21
9.5742990584
  0
LINE
  5
2BF
100
AcDbEntity
  8
0
100
AcDbLine
 62
4
  6
CONTINUOUS
 10
14.2232874514
 20
9.6881657608
 11
14.2310520162
 21
9.7343027888
  0
LINE
  5
2C0
100
AcDbEntity
  8
0
100
AcDbLine
 62
4
  6
CONTINUOUS
 10
14.3475204877
 20
9.8274841823
 11
14.3514027701
 21
9.8505526971
  0
LINE
  5
2C1
100
AcDbEntity
  8
0
100
AcDbLine
 62
4
  6
CONTINUOUS
 10
14.3824610292
 20
9.7260045362
 11
14.3746964644
 21
9.679867503
  0
LINE
  5
2C2
100
AcDbEntity
  8
0
100
AcDbLine
 62
4
  6
CONTINUOUS
 10
14.3746964644
 20
9.679867503
 11
14.3669318997
 21
9.6530489963
  0
LINE
  5
2C3
100
AcDbEntity
  8
0
100
AcDbLine
 62
4
  6
CONTINUOUS
 10
14.2232874514
 20
9.5722546574
 11
14.219405169
 21
9.6264602121
  0
LINE
  5
2C4
100
AcDbEntity
  8
0
100
AcDbLine
 62
4
  6
CONTINUOUS
 10
14.3824610292
 20
9.8419156396
 11
14.3863433116
 21
9.7877100849
  0
LINE
  5
2C5
100
AcDbEntity
  8
0
100
AcDbLine
 62
4
  6
CONTINUOUS
 10
14.3863433116
 20
9.7877100849
 11
14.3824610292
 21
9.7260045362
  0
LINE
  5
2C6
100
AcDbEntity
  8
0
100
AcDbLine
 62
7
  6
CONTINUOUS
 10
14.4738240945
 20
7.1792086852
 11
13.6166161245
 21
6.3512093194
  0
LINE
  5
2C7
100
AcDbEntity
  8
0
100
AcDbLine
 62
7
  6
CONTINUOUS
 10
13.6166161245
 20
6.3512093194
 11
13.6149334614
 21
6.3496139226
  0
LINE
  5
2C8
100
AcDbEntity
  8
0
100
AcDbLine
 62
7
  6
CONTINUOUS
 10
13.5548963136
 20
6.2937374303
 11
13.6149351973
 21
6.3496152785
  0
LINE
  5
2C9
100
AcDbEntity
  8
0
100
AcDbLine
 62
4
  6
CONTINUOUS
 10
14.2388165809
 20
9.5292990938
 11
14.2310520162
 21
9.5411176124
  0
LINE
  5
2CA
100
AcDbEntity
  8
0
100
AcDbLine
 62
4
  6
CONTINUOUS
 10
14.3591673349
 20
9.6455490022
 11
14.3514027701
 21
9.6573675207
  0
LINE
  5
2CB
100
AcDbEntity
  8
0
100
AcDbLine
 62
4
  6
CONTINUOUS
 10
14.3669318997
 20
9.8848712031
 11
14.3746964644
 21
9.8730526794
  0
LINE
  5
2CC
100
AcDbEntity
  8
0
100
AcDbLine
 62
4
  6
CONTINUOUS
 10
14.2310520162
 20
9.5411176124
 11
14.2232874514
 21
9.5722546574
  0
LINE
  5
2CD
100
AcDbEntity
  8
0
100
AcDbLine
 62
4
  6
CONTINUOUS
 10
14.3514027701
 20
9.6573675207
 11
14.3475204877
 21
9.6729360501
  0
LINE
  5
2CE
100
AcDbEntity
  8
0
100
AcDbLine
 62
4
  6
CONTINUOUS
 10
14.3746964644
 20
9.8730526794
 11
14.3824610292
 21
9.8419156396
  0
LINE
  5
2CF
100
AcDbEntity
  8
0
100
AcDbLine
 62
4
  6
CONTINUOUS
 10
14.3164622287
 20
9.6042990347
 11
14.2854039696
 21
9.8061212652
  0
LINE
  5
2D0
100
AcDbEntity
  8
0
100
AcDbLine
 62
7
  6
CONTINUOUS
 10
14.6518914506
 20
9.7061358574
 11
14.6518914506
 21
9.3321941094
  0
LINE
  5
2D1
100
AcDbEntity
  8
0
100
AcDbLine
 62
7
  6
CONTINUOUS
 10
14.4738240945
 20
10.1986929971
 11
14.4139366897
 21
10.2627336075
  0
LINE
  5
2D2
100
AcDbEntity
  8
0
100
AcDbLine
 62
7
  6
CONTINUOUS
 10
14.5123615263
 20
10.2577725896
 11
14.564112478
 21
10.19414209
  0
LINE
  5
2D3
100
AcDbEntity
  8
0
100
AcDbLine
 62
7
  6
CONTINUOUS
 10
15.5790355315
 20
7.5525487109
 11
15.5951049515
 21
7.5797941679
  0
LINE
  5
2D4
100
AcDbEntity
  8
0
100
AcDbLine
 62
7
  6
CONTINUOUS
 10
15.6785736035
 20
9.1696989342
 11
15.7015387626
 21
9.1145230725
  0
ARC
  5
2D5
100
AcDbEntity
  8
0
100
AcDbCircle
 62
7
  6
CONTINUOUS
 10
18.8372371763
 20
8.1136673812
 40
3.6037664806
100
AcDbArc
 50
179.0799666396
 51
179.9967059793
  0
ARC
  5
2D6
100
AcDbEntity
  8
0
100
AcDbCircle
 62
7
  6
CONTINUOUS
 10
17.9960387247
 20
8.1720046919
 40
3.6037664806
100
AcDbArc
 50
179.0799666396
 51
179.9967059793
  0
ARC
  5
2D7
100
AcDbEntity
  8
0
100
AcDbCircle
 62
7
  6
CONTINUOUS
 10
17.8303421223
 20
8.1719707132
 40
3.4380698807
100
AcDbArc
 50
179.9959809667
 51
180.9419458576
  0
ARC
  5
2D8
100
AcDbEntity
  8
0
100
AcDbCircle
 62
7
  6
CONTINUOUS
 10
18.6715405738
 20
8.1136334025
 40
3.4380698807
100
AcDbArc
 50
179.9959809667
 51
180.9419458576
  0
SPLINE
  5
2D9
100
AcDbEntity
  8
0
100
AcDbSpline
 62
7
  6
CONTINUOUS
 70
0
 71
3
 72
39
 73
35
 74
0
 42
0.0000001
 43
0.0000001
 44
0.0000000001
 40
0.0
 40
0.0
 40
0.0
 40
0.0
 40
0.0390957059
 40
0.0779014123
 40
0.1163921893
 40
0.1545440528
 40
0.1923329048
 40
0.2297351149
 40
0.2667273345
 40
0.3032865823
 40
0.3393902534
 40
0.375016147
 40
0.4101424887
 40
0.4447479562
 40
0.4788117072
 40
0.5123134039
 40
0.5452332437
 40
0.5775519905
 40
0.6092510031
 40
0.6403122706
 40
0.6707184477
 40
0.7004528915
 40
0.7294997056
 40
0.7578437856
 40
0.7854708699
 40
0.8123675962
 40
0.8385215629
 40
0.8639213993
 40
0.8885568476
 40
0.9124188538
 40
0.935499674
 40
0.9577930008
 40
0.979294104
 40
1.0
 40
1.0
 40
1.0
 40
1.0
 10
15.774985667
 20
8.5688105568
 30
0.0
 10
15.774985667
 20
8.5760240272
 30
0.0
 10
15.7749355111
 20
8.5903975139
 30
0.0
 10
15.7747080461
 20
8.6118717737
 30
0.0
 10
15.7743287656
 20
8.6331697302
 30
0.0
 10
15.7737979379
 20
8.654276774
 30
0.0
 10
15.7731159234
 20
8.6751785249
 30
0.0
 10
15.7722831934
 20
8.6958606848
 30
0.0
 10
15.7713003187
 20
8.7163091294
 30
0.0
 10
15.7701679745
 20
8.7365098869
 30
0.0
 10
15.7688869382
 20
8.7564491575
 30
0.0
 10
15.7674580893
 20
8.77611332
 30
0.0
 10
15.7658824084
 20
8.7954889419
 30
0.0
 10
15.7641609767
 20
8.8145627884
 30
0.0
 10
15.7622949754
 20
8.8333218311
 30
0.0
 10
15.7602856847
 20
8.8517532576
 30
0.0
 10
15.7581344828
 20
8.8698444802
 30
0.0
 10
15.755842846
 20
8.8875831452
 30
0.0
 10
15.7534123467
 20
8.9049571409
 30
0.0
 10
15.7508446527
 20
8.9219546061
 30
0.0
 10
15.7481415256
 20
8.9385639384
 30
0.0
 10
15.7453048199
 20
8.9547738021
 30
0.0
 10
15.7423364816
 20
8.9705731364
 30
0.0
 10
15.7392385467
 20
8.9859511636
 30
0.0
 10
15.7360131406
 20
9.000897397
 30
0.0
 10
15.7326624753
 20
9.0154016487
 30
0.0
 10
15.7291888483
 20
9.0294540363
 30
0.0
 10
15.72559464
 20
9.0430449909
 30
0.0
 10
15.7218823127
 20
9.0561652629
 30
0.0
 10
15.7180544059
 20
9.0688059334
 30
0.0
 10
15.7141135397
 20
9.0809584079
 30
0.0
 10
15.710062393
 20
9.0926144723
 30
0.0
 10
15.7059037665
 20
9.1037661276
 30
0.0
 10
15.7030068554
 20
9.1109958422
 30
0.0
 10
15.7015388204
 20
9.114522931
 30
0.0
  0
SPLINE
  5
2DA
100
AcDbEntity
  8
0
100
AcDbSpline
 62
7
  6
CONTINUOUS
 70
0
 71
3
 72
11
 73
7
 74
0
 42
0.0000001
 43
0.0000001
 44
0.0000000001
 40
0.0
 40
0.0
 40
0.0
 40
0.0
 40
0.2381382387
 40
0.4839733075
 40
0.737830157
 40
1.0
 40
1.0
 40
1.0
 40
1.0
 10
14.532342442
 20
7.4622931784
 30
0.0
 10
14.5310243639
 20
7.4634756123
 30
0.0
 10
14.5283994693
 20
7.4659393493
 30
0.0
 10
14.5245580681
 20
7.4698583511
 30
0.0
 10
14.5207527288
 20
7.474056739
 30
0.0
 10
14.5182811356
 20
7.4769929294
 30
0.0
 10
14.5170511117
 20
7.478505306
 30
0.0
  0
SPLINE
  5
2DB
100
AcDbEntity
  8
0
100
AcDbSpline
 62
7
  6
CONTINUOUS
 70
0
 71
3
 72
15
 73
11
 74
0
 42
0.0000001
 43
0.0000001
 44
0.0000000001
 40
0.0
 40
0.0
 40
0.0
 40
0.0
 40
0.1376444746
 40
0.2715164871
 40
0.401681204
 40
0.5282171621
 40
0.6512120324
 40
0.7707645109
 40
0.8869865474
 40
1.0
 40
1.0
 40
1.0
 40
1.0
 10
15.6262011167
 20
9.2812297183
 30
0.0
 10
15.6251494911
 20
9.2828088816
 30
0.0
 10
15.6230366305
 20
9.2858985729
 30
0.0
 10
15.6197915094
 20
9.2903854305
 30
0.0
 10
15.6165156798
 20
9.2946586431
 30
0.0
 10
15.6132099013
 20
9.2987171856
 30
0.0
 10
15.6098748961
 20
9.3025601504
 30
0.0
 10
15.6065113593
 20
9.3061866756
 30
0.0
 10
15.6031201045
 20
9.3095958422
 30
0.0
 10
15.6008097009
 20
9.3117526659
 30
0.0
 10
15.5996501441
 20
9.3127928921
 30
0.0
  0
SPLINE
  5
2DC
100
AcDbEntity
  8
0
100
AcDbSpline
 62
7
  6
CONTINUOUS
 70
0
 71
3
 72
38
 73
34
 74
0
 42
0.0000001
 43
0.0000001
 44
0.0000000001
 40
0.0
 40
0.0
 40
0.0
 40
0.0
 40
0.0400971619
 40
0.0797264908
 40
0.1188727548
 40
0.1575209155
 40
0.1956559294
 40
0.233262952
 40
0.2703274293
 40
0.3068352053
 40
0.3427726484
 40
0.3781267855
 40
0.4128854488
 40
0.4470374226
 40
0.4805725971
 40
0.5134821278
 40
0.545758607
 40
0.57739622
 40
0.6083908966
 40
0.6387404584
 40
0.6684447625
 40
0.6975058362
 40
0.725927972
 40
0.7537178072
 40
0.7808843829
 40
0.8074391818
 40
0.8333961374
 40
0.8587715852
 40
0.9078494192
 40
0.9316011248
 40
0.9548587937
 40
0.9776490525
 40
1.0
 40
1.0
 40
1.0
 40
1.0
 10
15.3735408935
 20
7.4039558676
 30
0.0
 10
15.3766657847
 20
7.4053877385
 30
0.0
 10
15.3828688434
 20
7.408257246
 30
0.0
 10
15.39208452
 20
7.4126065745
 30
0.0
 10
15.4011527382
 20
7.4169765754
 30
0.0
 10
15.4100682686
 20
7.4213675263
 30
0.0
 10
15.4188258354
 20
7.425779683
 30
0.0
 10
15.4274201114
 20
7.4302132624
 30
0.0
 10
15.435845749
 20
7.4346684432
 30
0.0
 10
15.4440974018
 20
7.4391453626
 30
0.0
 10
15.4521697494
 20
7.443644113
 30
0.0
 10
15.4600575278
 20
7.4481647373
 30
0.0
 10
15.4677555596
 20
7.4527072258
 30
0.0
 10
15.4752587857
 20
7.4572715146
 30
0.0
 10
15.4825622986
 20
7.4618574831
 30
0.0
 10
15.4896613773
 20
7.4664649537
 30
0.0
 10
15.4965515257
 20
7.4710936859
 30
0.0
 10
15.5032285068
 20
7.4757433795
 30
0.0
 10
15.5096883767
 20
7.480413674
 30
0.0
 10
15.5159275174
 20
7.4851041498
 30
0.0
 10
15.5219426711
 20
7.4898143302
 30
0.0
 10
15.5277309728
 20
7.4945436789
 30
0.0
 10
15.5332899741
 20
7.4992916085
 30
0.0
 10
15.5386176619
 20
7.5040574795
 30
0.0
 10
15.5437124873
 20
7.5088406177
 30
0.0
 10
15.548573343
 20
7.5136402726
 30
0.0
 10
15.5531997164
 20
7.5184557835
 30
0.0
 10
15.5589906163
 20
7.524825244
 30
0.0
 10
15.5643879051
 20
7.5312938567
 30
0.0
 10
15.5693643153
 20
7.5378591135
 30
0.0
 10
15.5728257201
 20
7.5427412214
 30
0.0
 10
15.5760588549
 20
7.5476339873
 30
0.0
 10
15.5780827994
 20
7.5509332773
 30
0.0
 10
15.5790561463
 20
7.5525836637
 30
0.0
  0
SPLINE
  5
2DD
100
AcDbEntity
  8
0
100
AcDbSpline
 62
7
  6
CONTINUOUS
 70
0
 71
3
 72
36
 73
32
 74
0
 42
0.0000001
 43
0.0000001
 44
0.0000000001
 40
0.0
 40
0.0
 40
0.0
 40
0.0
 40
0.077514783
 40
0.1535183693
 40
0.2279061121
 40
0.2644602571
 40
0.3005692031
 40
0.3362187188
 40
0.371394484
 40
0.4060820538
 40
0.4402669673
 40
0.4739348132
 40
0.5070712745
 40
0.5396622599
 40
0.5716939628
 40
0.6031529875
 40
0.6340264554
 40
0.6643021282
 40
0.6939685555
 40
0.7230151844
 40
0.7514325471
 40
0.7792124037
 40
0.8063478704
 40
0.832833649
 40
0.8586661594
 40
0.8838436746
 40
0.9083665697
 40
0.9322374339
 40
0.9554611905
 40
0.9780453317
 40
1.0
 40
1.0
 40
1.0
 40
1.0
 10
14.7584516926
 20
9.3711302028
 30
0.0
 10
14.7526768865
 20
9.3692889127
 30
0.0
 10
14.7412581874
 20
9.3655843544
 30
0.0
 10
14.7243693529
 20
9.3598948042
 30
0.0
 10
14.7105745409
 20
9.3550567129
 30
0.0
 10
14.6997637135
 20
9.3511393478
 30
0.0
 10
14.6918218231
 20
9.3481966007
 30
0.0
 10
14.684003278
 20
9.3452318594
 30
0.0
 10
14.6763122987
 20
9.3422448956
 30
0.0
 10
14.6687531862
 20
9.3392355111
 30
0.0
 10
14.6613303088
 20
9.3362035404
 30
0.0
 10
14.6540480939
 20
9.3331488471
 30
0.0
 10
14.6469110114
 20
9.330071335
 30
0.0
 10
14.6399235629
 20
9.3269709452
 30
0.0
 10
14.6330902639
 20
9.3238476579
 30
0.0
 10
14.6264156228
 20
9.3207015051
 30
0.0
 10
14.619904129
 20
9.3175325569
 30
0.0
 10
14.613560224
 20
9.3143409375
 30
0.0
 10
14.607388281
 20
9.3111268266
 30
0.0
 10
14.6013925878
 20
9.3078904447
 30
0.0
 10
14.5955773109
 20
9.3046320771
 30
0.0
 10
14.589946476
 20
9.3013520647
 30
0.0
 10
14.5845039489
 20
9.2980507898
 30
0.0
 10
14.5792533938
 20
9.2947287044
 30
0.0
 10
14.5741982576
 20
9.2913863124
 30
0.0
 10
14.5693417532
 20
9.2880241554
 30
0.0
 10
14.5646868136
 20
9.2846428417
 30
0.0
 10
14.5602360886
 20
9.2812430284
 30
0.0
 10
14.5559919129
 20
9.2778253857
 30
0.0
 10
14.5519563455
 20
9.2743906988
 30
0.0
 10
14.5493699733
 20
9.272057429
 30
0.0
 10
14.5481132902
 20
9.2708878382
 30
0.0
  0
SPLINE
  5
2DE
100
AcDbEntity
  8
0
100
AcDbSpline
 62
7
  6
CONTINUOUS
 70
0
 71
3
 72
53
 73
49
 74
0
 42
0.0000001
 43
0.0000001
 44
0.0000000001
 40
0.0
 40
0.0
 40
0.0
 40
0.0
 40
0.0092793564
 40
0.018853304
 40
0.0287210836
 40
0.0388814812
 40
0.0493328605
 40
0.0600732035
 40
0.0711001392
 40
0.0824109608
 40
0.094002654
 40
0.10587192
 40
0.1180151872
 40
0.1304286266
 40
0.1431081722
 40
0.1560495324
 40
0.1692481951
 40
0.1826994455
 40
0.1963983777
 40
0.2103398968
 40
0.2245187299
 40
0.2389294389
 40
0.2535664245
 40
0.2684239295
 40
0.2834960516
 40
0.2987767503
 40
0.3142598463
 40
0.3299390321
 40
0.3458078796
 40
0.3618598424
 40
0.3944861789
 40
0.4277637146
 40
0.4616363687
 40
0.4960466722
 40
0.5309359115
 40
0.5662442798
 40
0.6019110243
 40
0.6378745844
 40
0.6740727414
 40
0.7104427532
 40
0.7469214992
 40
0.7834456185
 40
0.8199516504
 40
0.8563761741
 40
0.8926559493
 40
0.928728056
 40
0.9645299783
 40
1.0
 40
1.0
 40
1.0
 40
1.0
 10
15.5951050943
 20
7.5797944106
 30
0.0
 10
15.5966979109
 20
7.5824950096
 30
0.0
 10
15.5998742544
 20
7.5880174443
 30
0.0
 10
15.6045422507
 20
7.5965259957
 30
0.0
 10
15.6091861739
 20
7.6053852399
 30
0.0
 10
15.6138038487
 20
7.6145910464
 30
0.0
 10
15.6183931521
 20
7.6241391871
 30
0.0
 10
15.622951959
 20
7.6340252553
 30
0.0
 10
15.627478157
 20
7.644244692
 30
0.0
 10
15.6319696514
 20
7.6547927778
 30
0.0
 10
15.636424362
 20
7.6656646395
 30
0.0
 10
15.6408402223
 20
7.6768552543
 30
0.0
 10
15.6452151845
 20
7.6883594491
 30
0.0
 10
15.649547222
 20
7.7001719026
 30
0.0
 10
15.6538343251
 20
7.7122871513
 30
0.0
 10
15.6580745032
 20
7.7246995911
 30
0.0
 10
15.6622657918
 20
7.7374034769
 30
0.0
 10
15.666406247
 20
7.7503929287
 30
0.0
 10
15.6704939462
 20
7.7636619347
 30
0.0
 10
15.6745269936
 20
7.7772043517
 30
0.0
 10
15.6785035199
 20
7.7910139084
 30
0.0
 10
15.6824216794
 20
7.8050842111
 30
0.0
 10
15.6862796533
 20
7.8194087443
 30
0.0
 10
15.6900756541
 20
7.8339808731
 30
0.0
 10
15.6938079209
 20
7.8487938484
 30
0.0
 10
15.6974747204
 20
7.8638408098
 30
0.0
 10
15.7010743537
 20
7.8791147876
 30
0.0
 10
15.7046051503
 20
7.894608704
 30
0.0
 10
15.7080654777
 20
7.9103153898
 30
0.0
 10
15.712607617
 20
7.9316466553
 30
0.0
 10
15.7180934351
 20
7.958790206
 30
0.0
 10
15.7243351998
 20
7.991921008
 30
0.0
 10
15.7302591212
 20
8.0257222289
 30
0.0
 10
15.7358541898
 20
8.0601312202
 30
0.0
 10
15.741110012
 20
8.0950842619
 30
0.0
 10
15.7460168279
 20
8.1305166042
 30
0.0
 10
15.7505655222
 20
8.16636261
 30
0.0
 10
15.754747655
 20
8.202555871
 30
0.0
 10
15.7585554604
 20
8.2390293333
 30
0.0
 10
15.7619818756
 20
8.275715422
 30
0.0
 10
15.7650205452
 20
8.3125461662
 30
0.0
 10
15.7676658331
 20
8.3494533268
 30
0.0
 10
15.7699128413
 20
8.3863685215
 30
0.0
 10
15.7717574046
 20
8.4232233554
 30
0.0
 10
15.7731961147
 20
8.4599495402
 30
0.0
 10
15.7742263122
 20
8.4964790306
 30
0.0
 10
15.774846103
 20
8.5327441138
 30
0.0
 10
15.774985667
 20
8.5568258621
 30
0.0
 10
15.774985667
 20
8.5688105568
 30
0.0
  0
SPLINE
  5
2DF
100
AcDbEntity
  8
0
100
AcDbSpline
 62
7
  6
CONTINUOUS
 70
0
 71
3
 72
11
 73
7
 74
0
 42
0.0000001
 43
0.0000001
 44
0.0000000001
 40
0.0
 40
0.0
 40
0.0
 40
0.0
 40
0.2471155168
 40
0.4962134239
 40
0.7472064014
 40
1.0
 40
1.0
 40
1.0
 40
1.0
 10
15.6785891104
 20
9.1696616757
 30
0.0
 10
15.6746865384
 20
9.1790375251
 30
0.0
 10
15.6666199793
 20
9.1977694373
 30
0.0
 10
15.6538368723
 20
9.2256924825
 30
0.0
 10
15.6403660784
 20
9.2535495125
 30
0.0
 10
15.6309892897
 20
9.2720099514
 30
0.0
 10
15.6262011167
 20
9.2812297183
 30
0.0
  0
SPLINE
  5
2E0
100
AcDbEntity
  8
0
100
AcDbSpline
 62
7
  6
CONTINUOUS
 70
0
 71
3
 72
11
 73
7
 74
0
 42
0.0000001
 43
0.0000001
 44
0.0000000001
 40
0.0
 40
0.0
 40
0.0
 40
0.0
 40
0.2400408069
 40
0.4868392876
 40
0.7402205778
 40
1.0
 40
1.0
 40
1.0
 40
1.0
 10
14.532342442
 20
9.1527254251
 30
0.0
 10
14.5300219789
 20
9.1461609716
 30
0.0
 10
14.5254214956
 20
9.1328096567
 30
0.0
 10
14.5187279572
 20
9.1124084512
 30
0.0
 10
14.5121503386
 20
9.0913689753
 30
0.0
 10
14.5078984945
 20
9.0771041618
 30
0.0
 10
14.5057914695
 20
9.0698697081
 30
0.0
  0
SPLINE
  5
2E1
100
AcDbEntity
  8
0
100
AcDbSpline
 62
7
  6
CONTINUOUS
 70
0
 71
3
 72
11
 73
7
 74
0
 42
0.0000001
 43
0.0000001
 44
0.0000000001
 40
0.0
 40
0.0
 40
0.0
 40
0.0
 40
0.2400408069
 40
0.4868392876
 40
0.7402205778
 40
1.0
 40
1.0
 40
1.0
 40
1.0
 10
15.3735408935
 20
9.0943881144
 30
0.0
 10
15.3712204304
 20
9.0878236608
 30
0.0
 10
15.3666199471
 20
9.0744723459
 30
0.0
 10
15.3599264087
 20
9.0540711405
 30
0.0
 10
15.3533487901
 20
9.0330316645
 30
0.0
 10
15.349096946
 20
9.018766851
 30
0.0
 10
15.346989921
 20
9.0115323973
 30
0.0
  0
SPLINE
  5
2E2
100
AcDbEntity
  8
0
100
AcDbSpline
 62
7
  6
CONTINUOUS
 70
0
 71
3
 72
110
 73
106
 74
0
 42
0.0000001
 43
0.0000001
 44
0.0000000001
 40
0.0
 40
0.0
 40
0.0
 40
0.0
 40
0.0059178554
 40
0.0116737834
 40
0.0172681251
 40
0.0227014647
 40
0.0279746607
 40
0.0330888717
 40
0.0380455779
 40
0.0428466274
 40
0.0474942587
 40
0.0519911531
 40
0.0563404754
 40
0.0605459216
 40
0.0646117827
 40
0.0685429904
 40
0.0723451894
 40
0.0760247917
 40
0.0795890369
 40
0.0813305596
 40
0.0830463677
 40
0.0864051924
 40
0.0896758241
 40
0.0928692027
 40
0.0959971827
 40
0.0990724635
 40
0.1021084736
 40
0.1051192207
 40
0.1081190982
 40
0.1111226704
 40
0.1141444431
 40
0.1171986403
 40
0.1202989969
 40
0.1234585897
 40
0.1266897004
 40
0.1300037261
 40
0.1334111312
 40
0.1351530143
 40
0.1369217283
 40
0.1405434868
 40
0.144284378
 40
0.1481512161
 40
0.1521500171
 40
0.1562860545
 40
0.1605639308
 40
0.1649876252
 40
0.1695605602
 40
0.174285649
 40
0.1791653414
 40
0.1842016763
 40
0.1893963073
 40
0.194750551
 40
0.2002654085
 40
0.205941596
 40
0.2117795742
 40
0.2177795582
 40
0.2239415512
 40
0.2302653495
 40
0.2367505638
 40
0.2433966341
 40
0.2502028328
 40
0.2571682893
 40
0.2642919857
 40
0.2715727748
 40
0.2790093854
 40
0.2866004248
 40
0.2943443955
 40
0.3022396878
 40
0.3102845965
 40
0.31847732
 40
0.3268159635
 40
0.3352985508
 40
0.3439230159
 40
0.3526872193
 40
0.3615889422
 40
0.3706258925
 40
0.3797957113
 40
0.3890959666
 40
0.4080776332
 40
0.4275503381
 40
0.4474924668
 40
0.4678815448
 40
0.4886942997
 40
0.5099067198
 40
0.531494108
 40
0.5534311374
 40
0.5756919015
 40
0.5982499649
 40
0.6210784109
 40
0.6441498904
 40
0.667436667
 40
0.6909106662
 40
0.7145435191
 40
0.7383066104
 40
0.7621711212
 40
0.7861080767
 40
0.810088389
 40
0.8340829046
 40
0.8580624472
 40
0.8819978642
 40
0.9058600709
 40
0.9296200923
 40
0.9532491319
 40
0.9767185188
 40
1.0
 40
1.0
 40
1.0
 40
1.0
 10
15.7015388204
 20
9.114522931
 30
0.0
 10
15.7005603856
 20
9.1168737106
 30
0.0
 10
15.6985890842
 20
9.1214939465
 30
0.0
 10
15.6955437582
 20
9.1282716153
 30
0.0
 10
15.6924520347
 20
9.1347983612
 30
0.0
 10
15.6893149119
 20
9.1410720567
 30
0.0
 10
15.6861333899
 20
9.1470906954
 30
0.0
 10
15.6829084882
 20
9.1528523479
 30
0.0
 10
15.6796412208
 20
9.1583551658
 30
0.0
 10
15.6763326286
 20
9.1635973927
 30
0.0
 10
15.6729837417
 20
9.1685773489
 30
0.0
 10
15.6695956063
 20
9.1732934435
 30
0.0
 10
15.6661692716
 20
9.1777441687
 30
0.0
 10
15.6627057794
 20
9.1819280909
 30
0.0
 10
15.6592061882
 20
9.185843869
 30
0.0
 10
15.655671545
 20
9.1894902177
 30
0.0
 10
15.6521028862
 20
9.1928659549
 30
0.0
 10
15.6485013396
 20
9.19596989
 30
0.0
 10
15.6454502161
 20
9.1983472538
 30
0.0
 10
15.6429948794
 20
9.2001081557
 30
0.0
 10
15.6405659308
 20
9.2017522893
 30
0.0
 10
15.6375094766
 20
9.20364082
 30
0.0
 10
15.6337869028
 20
9.2056475406
 30
0.0
 10
15.6300368571
 20
9.2073777146
 30
0.0
 10
15.6262606336
 20
9.2088305108
 30
0.0
 10
15.6224595252
 20
9.2100052459
 30
0.0
 10
15.6186349122
 20
9.2109013015
 30
0.0
 10
15.6147882506
 20
9.2115182236
 30
0.0
 10
15.6109210481
 20
9.2118556835
 30
0.0
 10
15.6070348493
 20
9.211913533
 30
0.0
 10
15.6031312011
 20
9.2116918029
 30
0.0
 10
15.5992116297
 20
9.2111906677
 30
0.0
 10
15.59527761
 20
9.2104104823
 30
0.0
 10
15.5913305688
 20
9.2093516992
 30
0.0
 10
15.5873718478
 20
9.2080148843
 30
0.0
 10
15.5834028112
 20
9.2064007194
 30
0.0
 10
15.5801120784
 20
9.2048366116
 30
0.0
 10
15.5774771778
 20
9.2034512718
 30
0.0
 10
15.5747991073
 20
9.2019520669
 30
0.0
 10
15.5714457772
 20
9.1999013096
 30
0.0
 10
15.567447623
 20
9.1971853831
 30
0.0
 10
15.5634451349
 20
9.1941962034
 30
0.0
 10
15.5594395971
 20
9.1909348242
 30
0.0
 10
15.5554321919
 20
9.1874023213
 30
0.0
 10
15.551424156
 20
9.1835998437
 30
0.0
 10
15.5474167112
 20
9.1795286286
 30
0.0
 10
15.5434111027
 20
9.175189983
 30
0.0
 10
15.5394085804
 20
9.1705852988
 30
0.0
 10
15.5354103952
 20
9.1657160551
 30
0.0
 10
15.5314178174
 20
9.160583806
 30
0.0
 10
15.5274321047
 20
9.1551902014
 30
0.0
 10
15.5234545324
 20
9.1495369669
 30
0.0
 10
15.5194863697
 20
9.143625918
 30
0.0
 10
15.5155288854
 20
9.1374589546
 30
0.0
 10
15.5115833573
 20
9.1310380563
 30
0.0
 10
15.507651047
 20
9.1243652932
 30
0.0
 10
15.5037332293
 20
9.1174428114
 30
0.0
 10
15.4998311649
 20
9.1102728441
 30
0.0
 10
15.495946114
 20
9.1028577039
 30
0.0
 10
15.4920793377
 20
9.0951997828
 30
0.0
 10
15.4882320805
 20
9.087301556
 30
0.0
 10
15.4844055953
 20
9.0791655733
 30
0.0
 10
15.4806011165
 20
9.0707944661
 30
0.0
 10
15.4768198789
 20
9.0621909408
 30
0.0
 10
15.4730631105
 20
9.0533577798
 30
0.0
 10
15.4693320241
 20
9.0442978425
 30
0.0
 10
15.4656278367
 20
9.0350140594
 30
0.0
 10
15.4619517438
 20
9.0255094371
 30
0.0
 10
15.4583049413
 20
9.0157870525
 30
0.0
 10
15.4546886126
 20
9.0058500538
 30
0.0
 10
15.4511039275
 20
8.9957016602
 30
0.0
 10
15.4475520551
 20
8.9853451577
 30
0.0
 10
15.4440341417
 20
8.9747839027
 30
0.0
 10
15.4405513337
 20
8.9640213163
 30
0.0
 10
15.4371047591
 20
8.9530608856
 30
0.0
 10
15.4336955364
 20
8.941906164
 30
0.0
 10
15.4303247702
 20
8.9305607605
 30
0.0
 10
15.4258528391
 20
8.9150792307
 30
0.0
 10
15.4203709677
 20
8.8952758257
 30
0.0
 10
15.4140072102
 20
8.8709680573
 30
0.0
 10
15.4078224534
 20
8.8459898371
 30
0.0
 10
15.4018247402
 20
8.8203735629
 30
0.0
 10
15.3960218693
 20
8.7941524115
 30
0.0
 10
15.3904213851
 20
8.7673603642
 30
0.0
 10
15.3850305671
 20
8.740032143
 30
0.0
 10
15.3798564216
 20
8.71220317
 30
0.0
 10
15.3749056724
 20
8.6839095187
 30
0.0
 10
15.3701847525
 20
8.6551878678
 30
0.0
 10
15.3656997957
 20
8.6260754528
 30
0.0
 10
15.361456628
 20
8.5966100183
 30
0.0
 10
15.35746076
 20
8.5668297679
 30
0.0
 10
15.353717381
 20
8.5367733151
 30
0.0
 10
15.3502313517
 20
8.5064796321
 30
0.0
 10
15.3470071983
 20
8.4759879997
 30
0.0
 10
15.3440491062
 20
8.4453379559
 30
0.0
 10
15.3413609141
 20
8.4145692451
 30
0.0
 10
15.3389461098
 20
8.3837217657
 30
0.0
 10
15.3368078255
 20
8.3528355188
 30
0.0
 10
15.3349488343
 20
8.3219505555
 30
0.0
 10
15.333371546
 20
8.2911069255
 30
0.0
 10
15.3320780041
 20
8.2603446251
 30
0.0
 10
15.3310698813
 20
8.2297035414
 30
0.0
 10
15.3303484825
 20
8.199223417
 30
0.0
 10
15.3299147337
 20
8.168943785
 30
0.0
 10
15.3298172768
 20
8.1488281933
 30
0.0
 10
15.3298172768
 20
8.1388108862
 30
0.0
  0
SPLINE
  5
2E3
100
AcDbEntity
  8
0
100
AcDbSpline
 62
7
  6
CONTINUOUS
 70
0
 71
3
 72
15
 73
11
 74
0
 42
0.0000001
 43
0.0000001
 44
0.0000000001
 40
0.0
 40
0.0
 40
0.0
 40
0.0
 40
0.1376444746
 40
0.2715164871
 40
0.401681204
 40
0.5282171621
 40
0.6512120324
 40
0.7707645109
 40
0.8869865474
 40
1.0
 40
1.0
 40
1.0
 40
1.0
 10
15.346989921
 20
7.4355190414
 30
0.0
 10
15.3480415466
 20
7.4339398781
 30
0.0
 10
15.3501544071
 20
7.4308501868
 30
0.0
 10
15.3533995282
 20
7.4263633292
 30
0.0
 10
15.3566753578
 20
7.4220901166
 30
0.0
 10
15.3599811363
 20
7.4180315741
 30
0.0
 10
15.3633161415
 20
7.4141886092
 30
0.0
 10
15.3666796783
 20
7.4105620841
 30
0.0
 10
15.3700709331
 20
7.4071529175
 30
0.0
 10
15.3723813367
 20
7.4049960938
 30
0.0
 10
15.3735408935
 20
7.4039558676
 30
0.0
  0
SPLINE
  5
2E4
100
AcDbEntity
  8
0
100
AcDbSpline
 62
7
  6
CONTINUOUS
 70
0
 71
3
 72
11
 73
7
 74
0
 42
0.0000001
 43
0.0000001
 44
0.0000000001
 40
0.0
 40
0.0
 40
0.0
 40
0.0
 40
0.2409669317
 40
0.4878885905
 40
0.7408705492
 40
1.0
 40
1.0
 40
1.0
 40
1.0
 10
14.5170511117
 20
7.478505306
 30
0.0
 10
14.5160859227
 20
7.4796920546
 30
0.0
 10
14.5141634868
 20
7.4821209026
 30
0.0
 10
14.5113372603
 20
7.4858807265
 30
0.0
 10
14.5085341359
 20
7.4898004264
 30
0.0
 10
14.5067032564
 20
7.4924871763
 30
0.0
 10
14.5057914695
 20
7.4938563522
 30
0.0
  0
SPLINE
  5
2E5
100
AcDbEntity
  8
0
100
AcDbSpline
 62
7
  6
CONTINUOUS
 70
0
 71
3
 72
108
 73
104
 74
0
 42
0.0000001
 43
0.0000001
 44
0.0000000001
 40
0.0
 40
0.0
 40
0.0
 40
0.0
 40
0.0274586175
 40
0.0547014142
 40
0.081709081
 40
0.1084628267
 40
0.1349439193
 40
0.1611339608
 40
0.187014805
 40
0.212568612
 40
0.2377778582
 40
0.262625362
 40
0.2870943018
 40
0.3111682416
 40
0.3348311528
 40
0.3580674382
 40
0.3808619587
 40
0.4032000589
 40
0.4250675966
 40
0.4464509735
 40
0.4673371677
 40
0.4877137709
 40
0.5075690279
 40
0.5268918799
 40
0.5456720159
 40
0.5638999258
 40
0.5815669648
 40
0.5986654261
 40
0.6151886235
 40
0.6232328307
 40
0.6311312324
 40
0.6388833297
 40
0.6464887051
 40
0.6539470314
 40
0.6612580805
 40
0.6684217182
 40
0.6754379276
 40
0.6823067939
 40
0.689028537
 40
0.6956034936
 40
0.7020321507
 40
0.7083151353
 40
0.7144532391
 40
0.7204474234
 40
0.7262988316
 40
0.7320088113
 40
0.7375789152
 40
0.7430109375
 40
0.7483069093
 40
0.753469142
 40
0.7585002257
 40
0.7634030711
 40
0.7681809183
 40
0.7728373697
 40
0.7773764134
 40
0.7818024437
 40
0.7861202952
 40
0.7903352522
 40
0.7944530849
 40
0.7984800486
 40
0.8024229102
 40
0.8062889378
 40
0.8100859052
 40
0.8138220688
 40
0.8175061414
 40
0.8211472511
 40
0.8247548835
 40
0.8283388176
 40
0.8319090437
 40
0.835475679
 40
0.8390488731
 40
0.842638715
 40
0.8462551426
 40
0.8499078562
 40
0.8536062435
 40
0.8573593165
 40
0.861175657
 40
0.8650633848
 40
0.8690301236
 40
0.8730829995
 40
0.8772286239
 40
0.881473114
 40
0.8858220911
 40
0.8902807094
 40
0.8948536701
 40
0.8995452465
 40
0.9043593128
 40
0.9092993592
 40
0.9143685323
 40
0.9195696398
 40
0.9249051957
 40
0.9303774195
 40
0.935988278
 40
0.9417394873
 40
0.9476325421
 40
0.9536687273
 40
0.9598491307
 40
0.9661746661
 40
0.9726460702
 40
0.9792639351
 40
0.9860286946
 40
0.9929406591
 40
1.0
 40
1.0
 40
1.0
 40
1.0
 10
15.3298172768
 20
8.1388108862
 30
0.0
 10
15.3298172768
 20
8.1312076656
 30
0.0
 10
15.329872985
 20
8.1160609221
 30
0.0
 10
15.3301257384
 20
8.0934370943
 30
0.0
 10
15.3305471824
 20
8.071010973
 30
0.0
 10
15.331136989
 20
8.0487996327
 30
0.0
 10
15.3318947106
 20
8.0268199099
 30
0.0
 10
15.3328197658
 20
8.0050885067
 30
0.0
 10
15.3339114491
 20
7.9836219187
 30
0.0
 10
15.3351689266
 20
7.9624364462
 30
0.0
 10
15.3365912386
 20
7.9415481734
 30
0.0
 10
15.3381772996
 20
7.9209729589
 30
0.0
 10
15.3399258997
 20
7.9007264225
 30
0.0
 10
15.3418357045
 20
7.8808239336
 30
0.0
 10
15.3439052571
 20
7.8612805991
 30
0.0
 10
15.3461329785
 20
7.8421112521
 30
0.0
 10
15.3485171691
 20
7.8233304402
 30
0.0
 10
15.3510560101
 20
7.8049524145
 30
0.0
 10
15.3537475647
 20
7.7869911185
 30
0.0
 10
15.3565897795
 20
7.7694601771
 30
0.0
 10
15.3595804864
 20
7.7523728859
 30
0.0
 10
15.362717404
 20
7.735742201
 30
0.0
 10
15.3659981397
 20
7.7195807282
 30
0.0
 10
15.3694201915
 20
7.7039007131
 30
0.0
 10
15.3729809501
 20
7.6887140299
 30
0.0
 10
15.376677701
 20
7.6740321772
 30
0.0
 10
15.3805076291
 20
7.6598662459
 30
0.0
 10
15.384467815
 20
7.6462269925
 30
0.0
 10
15.3879039152
 20
7.6352124449
 30
0.0
 10
15.3907188313
 20
7.626674667
 30
0.0
 10
15.3928418815
 20
7.6204665035
 30
0.0
 10
15.3949952051
 20
7.6143975567
 30
0.0
 10
15.3971784017
 20
7.6084689704
 30
0.0
 10
15.3993910571
 20
7.6026818691
 30
0.0
 10
15.4016327481
 20
7.5970373469
 30
0.0
 10
15.4039030568
 20
7.5915364734
 30
0.0
 10
15.4062015447
 20
7.5861802871
 30
0.0
 10
15.4085277872
 20
7.5809698033
 30
0.0
 10
15.4108813342
 20
7.5759060039
 30
0.0
 10
15.4132617512
 20
7.5709898485
 30
0.0
 10
15.4156685813
 20
7.5662222627
 30
0.0
 10
15.4181013772
 20
7.5616041482
 30
0.0
 10
15.4205596786
 20
7.5571363751
 30
0.0
 10
15.423043024
 20
7.5528197855
 30
0.0
 10
15.4255509522
 20
7.5486551948
 30
0.0
 10
15.4280829877
 20
7.544643384
 30
0.0
 10
15.4306386689
 20
7.5407851135
 30
0.0
 10
15.4332175094
 20
7.5370811039
 30
0.0
 10
15.4358190446
 20
7.5335320597
 30
0.0
 10
15.4384427827
 20
7.5301386431
 30
0.0
 10
15.4410882525
 20
7.5269015009
 30
0.0
 10
15.4437549624
 20
7.5238212403
 30
0.0
 10
15.4464424316
 20
7.520898449
 30
0.0
 10
15.4491501719
 20
7.5181336839
 30
0.0
 10
15.4518776917
 20
7.515527473
 30
0.0
 10
15.454624506
 20
7.5130803272
 30
0.0
 10
15.4573901125
 20
7.510792717
 30
0.0
 10
15.4601740253
 20
7.5086651094
 30
0.0
 10
15.4629757318
 20
7.5066979222
 30
0.0
 10
15.4657947363
 20
7.5048915778
 30
0.0
 10
15.4686305148
 20
7.5032464477
 30
0.0
 10
15.4714825508
 20
7.5017629045
 30
0.0
 10
15.4743503043
 20
7.5004412772
 30
0.0
 10
15.477233228
 20
7.4992818792
 30
0.0
 10
15.4801307581
 20
7.4982849944
 30
0.0
 10
15.4830423112
 20
7.4974508641
 30
0.0
 10
15.4859672939
 20
7.4967797151
 30
0.0
 10
15.48890509
 20
7.4962717037
 30
0.0
 10
15.4918550781
 20
7.4959269806
 30
0.0
 10
15.4948166215
 20
7.4957456097
 30
0.0
 10
15.4977890824
 20
7.495727648
 30
0.0
 10
15.5007718211
 20
7.4958730686
 30
0.0
 10
15.5037642019
 20
7.4961818271
 30
0.0
 10
15.5067655972
 20
7.496653817
 30
0.0
 10
15.5097753898
 20
7.4972888984
 30
0.0
 10
15.5127929717
 20
7.4980868994
 30
0.0
 10
15.5158177519
 20
7.4990475995
 30
0.0
 10
15.5188491413
 20
7.5001707728
 30
0.0
 10
15.5218865728
 20
7.5014561355
 30
0.0
 10
15.5249294714
 20
7.5029034117
 30
0.0
 10
15.5279772847
 20
7.5045122681
 30
0.0
 10
15.5310294472
 20
7.506282377
 30
0.0
 10
15.53408541
 20
7.508213363
 30
0.0
 10
15.5371446142
 20
7.5103048429
 30
0.0
 10
15.540206506
 20
7.5125564003
 30
0.0
 10
15.5432705308
 20
7.5149675938
 30
0.0
 10
15.5463361256
 20
7.5175379625
 30
0.0
 10
15.5494027381
 20
7.5202670062
 30
0.0
 10
15.5524697963
 20
7.523154214
 30
0.0
 10
15.5555367471
 20
7.5261990284
 30
0.0
 10
15.5586030131
 20
7.5294008824
 30
0.0
 10
15.5616680369
 20
7.5327591631
 30
0.0
 10
15.5647312407
 20
7.5362732431
 30
0.0
 10
15.5677920595
 20
7.5399424557
 30
0.0
 10
15.5708499191
 20
7.5437661109
 30
0.0
 10
15.5739042465
 20
7.5477434883
 30
0.0
 10
15.5769544725
 20
7.5518738356
 30
0.0
 10
15.5800000175
 20
7.5561563772
 30
0.0
 10
15.5830403172
 20
7.5605903007
 30
0.0
 10
15.5860747881
 20
7.5651747732
 30
0.0
 10
15.5891028699
 20
7.569908927
 30
0.0
 10
15.5921239741
 20
7.57479186
 30
0.0
 10
15.5941120572
 20
7.5781107296
 30
0.0
 10
15.5951050943
 20
7.5797944106
 30
0.0
  0
SPLINE
  5
2E6
100
AcDbEntity
  8
0
100
AcDbSpline
 62
7
  6
CONTINUOUS
 70
0
 71
3
 72
54
 73
50
 74
0
 42
0.0000001
 43
0.0000001
 44
0.0000000001
 40
0.0
 40
0.0
 40
0.0
 40
0.0
 40
0.0079856546
 40
0.0162159926
 40
0.024696096
 40
0.0334303432
 40
0.0424225008
 40
0.0516757448
 40
0.0611927394
 40
0.0709756554
 40
0.0810262309
 40
0.0913457919
 40
0.1019352932
 40
0.1127953448
 40
0.1239262336
 40
0.1353279583
 40
0.1470002316
 40
0.1589425231
 40
0.1711540471
 40
0.1836338107
 40
0.1963805928
 40
0.2093929919
 40
0.2226694021
 40
0.2362080565
 40
0.250007007
 40
0.2640641577
 40
0.2783772539
 40
0.2929439011
 40
0.307761566
 40
0.3228275817
 40
0.3381391611
 40
0.3536933883
 40
0.3855173273
 40
0.4182741426
 40
0.4519366556
 40
0.4864761534
 40
0.5218624947
 40
0.5580642073
 40
0.5950485716
 40
0.6327817059
 40
0.6712286405
 40
0.7103533891
 40
0.7501190205
 40
0.7904877195
 40
0.8314208589
 40
0.8728790437
 40
0.9148222196
 40
0.9572095998
 40
1.0
 40
1.0
 40
1.0
 40
1.0
 10
14.4143838809
 20
7.6047400311
 30
0.0
 10
14.4133359252
 20
7.6060285465
 30
0.0
 10
14.4112508706
 20
7.60868027
 30
0.0
 10
14.4082003976
 20
7.6128135201
 30
0.0
 10
14.4051812089
 20
7.6171606355
 30
0.0
 10
14.4021941052
 20
7.6217204188
 30
0.0
 10
14.3992398498
 20
7.6264917042
 30
0.0
 10
14.3963191945
 20
7.6314732386
 30
0.0
 10
14.3934329013
 20
7.6366637283
 30
0.0
 10
14.3905817108
 20
7.6420618157
 30
0.0
 10
14.3877663689
 20
7.6476660932
 30
0.0
 10
14.384987606
 20
7.6534750951
 30
0.0
 10
14.3822461486
 20
7.6594873021
 30
0.0
 10
14.3795427151
 20
7.6657011407
 30
0.0
 10
14.3768780105
 20
7.6721149822
 30
0.0
 10
14.3742527392
 20
7.6787271467
 30
0.0
 10
14.3716675837
 20
7.6855358983
 30
0.0
 10
14.3691232319
 20
7.6925394518
 30
0.0
 10
14.366620344
 20
7.6997359667
 30
0.0
 10
14.3641595886
 20
7.7071235542
 30
0.0
 10
14.3617416041
 20
7.7147002717
 30
0.0
 10
14.359367037
 20
7.7224641288
 30
0.0
 10
14.3570365045
 20
7.7304130832
 30
0.0
 10
14.3547506289
 20
7.7385450448
 30
0.0
 10
14.3525100066
 20
7.746857874
 30
0.0
 10
14.3503152336
 20
7.7553493836
 30
0.0
 10
14.3481668856
 20
7.7640173391
 30
0.0
 10
14.3460655311
 20
7.7728594588
 30
0.0
 10
14.3440117245
 20
7.7818734155
 30
0.0
 10
14.3420060075
 20
7.7910568343
 30
0.0
 10
14.3400489069
 20
7.8004073029
 30
0.0
 10
14.3374854741
 20
7.8131912601
 30
0.0
 10
14.3344105513
 20
7.8295725255
 30
0.0
 10
14.330950238
 20
7.8497109157
 30
0.0
 10
14.3276957387
 20
7.8704554505
 30
0.0
 10
14.324650502
 20
7.8917842595
 30
0.0
 10
14.3218177589
 20
7.9136749047
 30
0.0
 10
14.3192005137
 20
7.9361043356
 30
0.0
 10
14.3168015427
 20
7.9590489343
 30
0.0
 10
14.3146233905
 20
7.9824845346
 30
0.0
 10
14.3126683678
 20
8.0063864504
 30
0.0
 10
14.3109385486
 20
8.0307295017
 30
0.0
 10
14.3094357686
 20
8.0554880407
 30
0.0
 10
14.3081616227
 20
8.080635981
 30
0.0
 10
14.3071174644
 20
8.1061468222
 30
0.0
 10
14.3063044025
 20
8.1319936841
 30
0.0
 10
14.3057233038
 20
8.1581493245
 30
0.0
 10
14.3053747856
 20
8.1845861662
 30
0.0
 10
14.3052980827
 20
8.2023016682
 30
0.0
 10
14.3052980827
 20
8.2112012784
 30
0.0
  0
SPLINE
  5
2E7
100
AcDbEntity
  8
0
100
AcDbSpline
 62
7
  6
CONTINUOUS
 70
0
 71
3
 72
39
 73
35
 74
0
 42
0.0000001
 43
0.0000001
 44
0.0000000001
 40
0.0
 40
0.0
 40
0.0
 40
0.0
 40
0.0216582039
 40
0.0433969543
 40
0.0652684189
 40
0.0873300948
 40
0.1096443736
 40
0.1322778375
 40
0.1553003349
 40
0.1787838424
 40
0.2028011648
 40
0.2274245295
 40
0.2527241447
 40
0.2787667961
 40
0.3056145489
 40
0.3333236102
 40
0.361943396
 40
0.3915158296
 40
0.4220748847
 40
0.4536463699
 40
0.4862479541
 40
0.5198893978
 40
0.5545729615
 40
0.5902939591
 40
0.6270414189
 40
0.6647988156
 40
0.7035448418
 40
0.7432541888
 40
0.7838983055
 40
0.8254461187
 40
0.8678646965
 40
0.9111198568
 40
0.955176678
 40
1.0
 40
1.0
 40
1.0
 40
1.0
 10
15.5996501441
 20
9.3127928921
 30
0.0
 10
15.5995631994
 20
9.3104070619
 30
0.0
 10
15.5992794089
 20
9.3056297315
 30
0.0
 10
15.5985108277
 20
9.298473559
 30
0.0
 10
15.597383492
 20
9.2913196825
 30
0.0
 10
15.5958821102
 20
9.2841698868
 30
0.0
 10
15.5939915873
 20
9.2770259155
 30
0.0
 10
15.5916972211
 20
9.2698897805
 30
0.0
 10
15.5889848942
 20
9.2627636577
 30
0.0
 10
15.5858412783
 20
9.2556498843
 30
0.0
 10
15.5822540389
 20
9.2485509198
 30
0.0
 10
15.578212037
 20
9.241469313
 30
0.0
 10
15.5737055236
 20
9.2344076645
 30
0.0
 10
15.5687263187
 20
9.227368592
 30
0.0
 10
15.5632679702
 20
9.2203546974
 30
0.0
 10
15.5573258883
 20
9.2133685349
 30
0.0
 10
15.5508974499
 20
9.2064125813
 30
0.0
 10
15.5439820662
 20
9.1994892069
 30
0.0
 10
15.536581211
 20
9.192600647
 30
0.0
 10
15.5286984069
 20
9.1857489725
 30
0.0
 10
15.5203391628
 20
9.178936067
 30
0.0
 10
15.5115108724
 20
9.1721636034
 30
0.0
 10
15.5022226745
 20
9.1654330257
 30
0.0
 10
15.4924852829
 20
9.1587455352
 30
0.0
 10
15.482310792
 20
9.1521020826
 30
0.0
 10
15.4717124672
 20
9.1455033648
 30
0.0
 10
15.4607045267
 20
9.1389498286
 30
0.0
 10
15.4493019234
 20
9.132441679
 30
0.0
 10
15.4375201348
 20
9.1259788925
 30
0.0
 10
15.4253749651
 20
9.119561233
 30
0.0
 10
15.412882366
 20
9.1131882711
 30
0.0
 10
15.4000582692
 20
9.1068594032
 30
0.0
 10
15.3869184736
 20
9.100573884
 30
0.0
 10
15.3780327273
 20
9.0964463384
 30
0.0
 10
15.3735408935
 20
9.0943881144
 30
0.0
  0
SPLINE
  5
2E8
100
AcDbEntity
  8
0
100
AcDbSpline
 62
7
  6
CONTINUOUS
 70
0
 71
3
 72
36
 73
32
 74
0
 42
0.0000001
 43
0.0000001
 44
0.0000000001
 40
0.0
 40
0.0
 40
0.0
 40
0.0
 40
0.0615612389
 40
0.0923780032
 40
0.1232201781
 40
0.1540890809
 40
0.1849860198
 40
0.2159122824
 40
0.2468691158
 40
0.2778577069
 40
0.3088791609
 40
0.3399344791
 40
0.3710245382
 40
0.4021500704
 40
0.4333116463
 40
0.4645096599
 40
0.4957443181
 40
0.5270156347
 40
0.5583234294
 40
0.5896673324
 40
0.621046793
 40
0.652461093
 40
0.6839093631
 40
0.7153906023
 40
0.7469036995
 40
0.7784474558
 40
0.810020606
 40
0.8416218396
 40
0.8732498202
 40
0.9365792905
 40
1.0
 40
1.0
 40
1.0
 40
1.0
 10
15.346989921
 20
9.0115323973
 30
0.0
 10
15.3491256797
 20
8.9940637774
 30
0.0
 10
15.3520110576
 20
8.967809686
 30
0.0
 10
15.3551612814
 20
8.9327247177
 30
0.0
 10
15.357162286
 20
8.9063483613
 30
0.0
 10
15.3587853903
 20
8.8799230985
 30
0.0
 10
15.3600155817
 20
8.8534524772
 30
0.0
 10
15.3608382556
 20
8.8269408451
 30
0.0
 10
15.3612394271
 20
8.8003932125
 30
0.0
 10
15.3612059341
 20
8.7738152925
 30
0.0
 10
15.360725651
 20
8.7472134714
 30
0.0
 10
15.3597877052
 20
8.7205947728
 30
0.0
 10
15.358382683
 20
8.6939667958
 30
0.0
 10
15.3565028193
 20
8.6673376327
 30
0.0
 10
15.3541421641
 20
8.6407157671
 30
0.0
 10
15.3512967164
 20
8.6141099536
 30
0.0
 10
15.3479645202
 20
8.5875290854
 30
0.0
 10
15.3441457153
 20
8.560982052
 30
0.0
 10
15.3398425464
 20
8.5344775947
 30
0.0
 10
15.3350593148
 20
8.5080241652
 30
0.0
 10
15.3298022907
 20
8.4816297948
 30
0.0
 10
15.3240795826
 20
8.4553019771
 30
0.0
 10
15.3179009744
 20
8.42904757
 30
0.0
 10
15.3112777342
 20
8.4028727186
 30
0.0
 10
15.3042224068
 20
8.376782803
 30
0.0
 10
15.2967485935
 20
8.3507824023
 30
0.0
 10
15.288870737
 20
8.3248753056
 30
0.0
 10
15.2806038813
 20
8.2990644547
 30
0.0
 10
15.2690790382
 20
8.2647683277
 30
0.0
 10
15.2537780711
 20
8.2221502251
 30
0.0
 10
15.2406808631
 20
8.1883614421
 30
0.0
 10
15.2339352956
 20
8.171532776
 30
0.0
  0
SPLINE
  5
2E9
100
AcDbEntity
  8
0
100
AcDbSpline
 62
7
  6
CONTINUOUS
 70
0
 71
3
 72
38
 73
34
 74
0
 42
0.0000001
 43
0.0000001
 44
0.0000000001
 40
0.0
 40
0.0
 40
0.0
 40
0.0
 40
0.0393877741
 40
0.0776257999
 40
0.1147515216
 40
0.1508083867
 40
0.1858458997
 40
0.2199195379
 40
0.2530903861
 40
0.2854247949
 40
0.3169939689
 40
0.3478732198
 40
0.3781411819
 40
0.4078790008
 40
0.4371692854
 40
0.4660950235
 40
0.494738566
 40
0.5231805489
 40
0.5514988754
 40
0.5797678818
 40
0.608057588
 40
0.6364330959
 40
0.6649542202
 40
0.6936752368
 40
0.7226447727
 40
0.7519059054
 40
0.7814962831
 40
0.8114483697
 40
0.8725346831
 40
0.9037199687
 40
0.9353519144
 40
0.9674424108
 40
1.0
 40
1.0
 40
1.0
 40
1.0
 10
14.5481132902
 20
9.2708878382
 30
0.0
 10
14.5468471208
 20
9.2697094185
 30
0.0
 10
14.544387839
 20
9.2673477579
 30
0.0
 10
14.5408720722
 20
9.2637361976
 30
0.0
 10
14.5375855331
 20
9.2601097821
 30
0.0
 10
14.5345284883
 20
9.2564695234
 30
0.0
 10
14.5317007187
 20
9.2528163995
 30
0.0
 10
14.5291015878
 20
9.2491514279
 30
0.0
 10
14.5267300606
 20
9.2454756226
 30
0.0
 10
14.524584718
 20
9.2417900024
 30
0.0
 10
14.5226637369
 20
9.238095604
 30
0.0
 10
14.5209649396
 20
9.234393458
 30
0.0
 10
14.5194858176
 20
9.2306845869
 30
0.0
 10
14.518223515
 20
9.2269700147
 30
0.0
 10
14.5171748733
 20
9.2232507467
 30
0.0
 10
14.5163364694
 20
9.2195277615
 30
0.0
 10
14.5157046073
 20
9.2158020103
 30
0.0
 10
14.5152753612
 20
9.2120744015
 30
0.0
 10
14.5150446231
 20
9.2083457916
 30
0.0
 10
14.5150081031
 20
9.204616982
 30
0.0
 10
14.5151613778
 20
9.2008887104
 30
0.0
 10
14.5154999309
 20
9.1971616506
 30
0.0
 10
14.5160191603
 20
9.19343641
 30
0.0
 10
14.5167144257
 20
9.189713535
 30
0.0
 10
14.5175810684
 20
9.1859935068
 30
0.0
 10
14.518614421
 20
9.1822767712
 30
0.0
 10
14.5198098709
 20
9.1785636472
 30
0.0
 10
14.5216254811
 20
9.1735860552
 30
0.0
 10
14.5237400816
 20
9.168647219
 30
0.0
 10
14.5261212175
 20
9.1637540838
 30
0.0
 10
14.52805929
 20
9.1600634895
 30
0.0
 10
14.5301327666
 20
9.1563781305
 30
0.0
 10
14.5315920377
 20
9.1539424253
 30
0.0
 10
14.532342442
 20
9.1527254251
 30
0.0
  0
SPLINE
  5
2EA
100
AcDbEntity
  8
0
100
AcDbSpline
 62
7
  6
CONTINUOUS
 70
0
 71
3
 72
45
 73
41
 74
0
 42
0.0000001
 43
0.0000001
 44
0.0000000001
 40
0.0
 40
0.0
 40
0.0
 40
0.0
 40
0.0319770693
 40
0.0639294041
 40
0.0958544581
 40
0.1277494265
 40
0.1914330521
 40
0.2232192309
 40
0.2549624834
 40
0.2866593611
 40
0.3183064508
 40
0.349900447
 40
0.3814382637
 40
0.3971856804
 40
0.4129180557
 40
0.42863511
 40
0.4443365971
 40
0.4600223022
 40
0.4756920501
 40
0.4913457046
 40
0.5069831683
 40
0.522604388
 40
0.5382093514
 40
0.5537980869
 40
0.5693706681
 40
0.5849272077
 40
0.6004678548
 40
0.6159928022
 40
0.6315022751
 40
0.6624749319
 40
0.6933892004
 40
0.7242478727
 40
0.755054015
 40
0.7858108834
 40
0.8165218166
 40
0.8471901569
 40
0.8778191951
 40
0.9389683277
 40
0.9694979304
 40
1.0
 40
1.0
 40
1.0
 40
1.0
 10
14.5057914695
 20
9.0698697081
 30
0.0
 10
14.5009693105
 20
9.061859548
 30
0.0
 10
14.4914624966
 20
9.0457643732
 30
0.0
 10
14.4776395002
 20
9.0213821943
 30
0.0
 10
14.4642900308
 20
8.9967642922
 30
0.0
 10
14.4471767072
 20
8.9636420918
 30
0.0
 10
14.4311340678
 20
8.9300186151
 30
0.0
 10
14.4163127042
 20
8.895900608
 30
0.0
 10
14.4058539024
 20
8.8700934206
 30
0.0
 10
14.396083215
 20
8.8440612555
 30
0.0
 10
14.387036602
 20
8.8178144692
 30
0.0
 10
14.3787484891
 20
8.7913669934
 30
0.0
 10
14.3724972978
 20
8.7691632843
 30
0.0
 10
14.3679062934
 20
8.7513183384
 30
0.0
 10
14.3646723388
 20
8.7379023492
 30
0.0
 10
14.3616490399
 20
8.724451107
 30
0.0
 10
14.3588389419
 20
8.7109676345
 30
0.0
 10
14.3562442366
 20
8.6974551387
 30
0.0
 10
14.3538667548
 20
8.6839169275
 30
0.0
 10
14.3517079788
 20
8.6703564019
 30
0.0
 10
14.3497689803
 20
8.6567770392
 30
0.0
 10
14.3480504245
 20
8.6431823691
 30
0.0
 10
14.3465526018
 20
8.6295759458
 30
0.0
 10
14.34527539
 20
8.6159613294
 30
0.0
 10
14.3442182434
 20
8.6023420653
 30
0.0
 10
14.3433802495
 20
8.5887216519
 30
0.0
 10
14.3427601139
 20
8.5751035399
 30
0.0
 10
14.3423561477
 20
8.5614910461
 30
0.0
 10
14.3421031568
 20
8.5433622008
 30
0.0
 10
14.3423157587
 20
8.520729656
 30
0.0
 10
14.343395994
 20
8.4936296963
 30
0.0
 10
14.3452744378
 20
8.4666222593
 30
0.0
 10
14.3479210314
 20
8.4397258017
 30
0.0
 10
14.3513032021
 20
8.4129557057
 30
0.0
 10
14.355386712
 20
8.3863246708
 30
0.0
 10
14.3601364575
 20
8.3598424426
 30
0.0
 10
14.3673059738
 20
8.3247632774
 30
0.0
 10
14.3756709343
 20
8.2899802703
 30
0.0
 10
14.3850953297
 20
8.2555203524
 30
0.0
 10
14.3901380555
 20
8.2384014256
 30
0.0
 10
14.3927368441
 20
8.2298700867
 30
0.0
  0
SPLINE
  5
2EB
100
AcDbEntity
  8
0
100
AcDbSpline
 62
7
  6
CONTINUOUS
 70
0
 71
3
 72
67
 73
63
 74
0
 42
0.0000001
 43
0.0000001
 44
0.0000000001
 40
0.0
 40
0.0
 40
0.0
 40
0.0
 40
0.003491066
 40
0.0070633313
 40
0.0107181531
 40
0.0144567423
 40
0.0182801871
 40
0.0221894522
 40
0.0261853876
 40
0.0302687441
 40
0.0344401656
 40
0.0387002113
 40
0.0430493499
 40
0.0474879683
 40
0.0520163831
 40
0.056634831
 40
0.0613434901
 40
0.0661424694
 40
0.0760113583
 40
0.0862414468
 40
0.0968316739
 40
0.1077802493
 40
0.1190847191
 40
0.1307420252
 40
0.1427485574
 40
0.1551001965
 40
0.1677923522
 40
0.1808199962
 40
0.1941776903
 40
0.2078596139
 40
0.2218595882
 40
0.2361710973
 40
0.250787306
 40
0.2657010759
 40
0.2809049839
 40
0.2963913367
 40
0.3121521842
 40
0.3281793329
 40
0.3444643568
 40
0.3609986089
 40
0.3777732341
 40
0.3947791794
 40
0.4120072037
 40
0.4294478862
 40
0.447091638
 40
0.4649287105
 40
0.4829492051
 40
0.5011430821
 40
0.51950017
 40
0.5380101715
 40
0.5754469516
 40
0.6133691212
 40
0.6516907165
 40
0.6903245979
 40
0.7291827151
 40
0.7681763625
 40
0.8072164434
 40
0.8462137254
 40
0.8850791004
 40
0.9237238404
 40
0.9620598383
 40
1.0
 40
1.0
 40
1.0
 40
1.0
 10
14.5286770493
 20
9.2527986389
 30
0.0
 10
14.5277558762
 20
9.2519413064
 30
0.0
 10
14.5259136875
 20
9.2501833699
 30
0.0
 10
14.5231820072
 20
9.2474507707
 30
0.0
 10
14.520450885
 20
9.2445928671
 30
0.0
 10
14.517720744
 20
9.2416101215
 30
0.0
 10
14.5149919921
 20
9.2385029757
 30
0.0
 10
14.5122650397
 20
9.2352719033
 30
0.0
 10
14.509540292
 20
9.2319173959
 30
0.0
 10
14.5068181672
 20
9.2284399571
 30
0.0
 10
14.5040990671
 20
9.2248401191
 30
0.0
 10
14.5013834088
 20
9.2211184239
 30
0.0
 10
14.4986716008
 20
9.2172754369
 30
0.0
 10
14.4959640507
 20
9.2133117425
 30
0.0
 10
14.493261175
 20
9.2092279383
 30
0.0
 10
14.4905633774
 20
9.2050246493
 30
0.0
 10
14.4878710662
 20
9.2007025057
 30
0.0
 10
14.4842555252
 20
9.1947263921
 30
0.0
 10
14.4797556702
 20
9.1869600577
 30
0.0
 10
14.4744333545
 20
9.1772611743
 30
0.0
 10
14.4691427054
 20
9.1671041014
 30
0.0
 10
14.4638869507
 20
9.1564950288
 30
0.0
 10
14.4586692792
 20
9.1454403623
 30
0.0
 10
14.4534928662
 20
9.1339468048
 30
0.0
 10
14.4483608641
 20
9.1220213258
 30
0.0
 10
14.4432764006
 20
9.1096711636
 30
0.0
 10
14.4382425767
 20
9.0969038183
 30
0.0
 10
14.4332624632
 20
9.0837270483
 30
0.0
 10
14.4283390982
 20
9.0701488656
 30
0.0
 10
14.4234754865
 20
9.056177529
 30
0.0
 10
14.4186745965
 20
9.041821539
 30
0.0
 10
14.4139393589
 20
9.0270896315
 30
0.0
 10
14.4092726651
 20
9.0119907738
 30
0.0
 10
14.4046773632
 20
8.9965341594
 30
0.0
 10
14.4001562582
 20
8.9807292008
 30
0.0
 10
14.3957121101
 20
8.9645855237
 30
0.0
 10
14.3913476317
 20
8.9481129609
 30
0.0
 10
14.3870654878
 20
8.9313215465
 30
0.0
 10
14.3828682919
 20
8.9142215101
 30
0.0
 10
14.3787586054
 20
8.8968232709
 30
0.0
 10
14.3747389366
 20
8.8791374297
 30
0.0
 10
14.3708117388
 20
8.8611747629
 30
0.0
 10
14.3669794092
 20
8.8429462159
 30
0.0
 10
14.3632442866
 20
8.8244628973
 30
0.0
 10
14.3596086497
 20
8.8057360713
 30
0.0
 10
14.3560747169
 20
8.7867771511
 30
0.0
 10
14.3526446443
 20
8.7675976906
 30
0.0
 10
14.3493205268
 20
8.7482093812
 30
0.0
 10
14.3461043863
 20
8.7286240298
 30
0.0
 10
14.3419472771
 20
8.702164567
 30
0.0
 10
14.3370382608
 20
8.6686850678
 30
0.0
 10
14.3316301112
 20
8.6280646372
 30
0.0
 10
14.3266960562
 20
8.5869492505
 30
0.0
 10
14.3222481436
 20
8.5454391519
 30
0.0
 10
14.3182972392
 20
8.503635483
 30
0.0
 10
14.3148529826
 20
8.4616401229
 30
0.0
 10
14.3119237757
 20
8.419555416
 30
0.0
 10
14.3095167592
 20
8.3774839242
 30
0.0
 10
14.3076377888
 20
8.3355281871
 30
0.0
 10
14.3062914329
 20
8.2937904358
 30
0.0
 10
14.3054809487
 20
8.2523724596
 30
0.0
 10
14.3052980827
 20
8.2248773371
 30
0.0
 10
14.3052980827
 20
8.2112012784
 30
0.0
  0
SPLINE
  5
2EC
100
AcDbEntity
  8
0
100
AcDbSpline
 62
7
  6
CONTINUOUS
 70
0
 71
3
 72
38
 73
34
 74
0
 42
0.0000001
 43
0.0000001
 44
0.0000000001
 40
0.0
 40
0.0
 40
0.0
 40
0.0
 40
0.0340069596
 40
0.0678467009
 40
0.1015128068
 40
0.1349990889
 40
0.1682997255
 40
0.2014093638
 40
0.2670346613
 40
0.299545819
 40
0.3318518358
 40
0.3639516134
 40
0.3958452416
 40
0.4275340701
 40
0.4590207502
 40
0.490309243
 40
0.5214047909
 40
0.5523138516
 40
0.5830439977
 40
0.613603783
 40
0.6440025835
 40
0.6742504197
 40
0.7043577707
 40
0.7343353854
 40
0.7641941029
 40
0.793944684
 40
0.8235976617
 40
0.8531632139
 40
0.8826510607
 40
0.9120703849
 40
0.9414297807
 40
0.9707372074
 40
1.0
 40
1.0
 40
1.0
 40
1.0
 10
15.2339352956
 20
8.0571138851
 30
0.0
 10
15.2373023128
 20
8.0506305953
 30
0.0
 10
15.2439378242
 20
8.0376531078
 30
0.0
 10
15.253604163
 20
8.018104523
 30
0.0
 10
15.2629443051
 20
7.9985217216
 30
0.0
 10
15.271942539
 20
7.9789067823
 30
0.0
 10
15.2805831631
 20
7.9592620065
 30
0.0
 10
15.2915729652
 20
7.9331123362
 30
0.0
 10
15.3018223545
 20
7.9068386507
 30
0.0
 10
15.3112595131
 20
7.8804520658
 30
0.0
 10
15.3178838219
 20
7.8607125031
 30
0.0
 10
15.3240636153
 20
7.8409682466
 30
0.0
 10
15.3297876445
 20
7.8212249678
 30
0.0
 10
15.3350460909
 20
7.8014888096
 30
0.0
 10
15.3398308184
 20
7.7817661521
 30
0.0
 10
15.3441355231
 20
7.762063565
 30
0.0
 10
15.3479558676
 20
7.7423876973
 30
0.0
 10
15.3512895715
 20
7.7227451736
 30
0.0
 10
15.3541364606
 20
7.7031424856
 30
0.0
 10
15.3564984604
 20
7.683585886
 30
0.0
 10
15.3583795467
 20
7.6640812893
 30
0.0
 10
15.3597856503
 20
7.6446341841
 30
0.0
 10
15.3607245244
 20
7.6252495602
 30
0.0
 10
15.3612055776
 20
7.6059318509
 30
0.0
 10
15.3612396836
 20
7.5866848942
 30
0.0
 10
15.360838975
 20
7.5675119113
 30
0.0
 10
15.360016625
 20
7.5484155028
 30
0.0
 10
15.3587866338
 20
7.5293976604
 30
0.0
 10
15.3571636192
 20
7.5104597896
 30
0.0
 10
15.3551626227
 20
7.4916027516
 30
0.0
 10
15.3527989231
 20
7.4728268767
 30
0.0
 10
15.3500878957
 20
7.4541321257
 30
0.0
 10
15.3480577694
 20
7.4417139929
 30
0.0
 10
15.346989921
 20
7.4355190414
 30
0.0
  0
SPLINE
  5
2ED
100
AcDbEntity
  8
0
100
AcDbSpline
 62
7
  6
CONTINUOUS
 70
0
 71
3
 72
52
 73
48
 74
0
 42
0.0000001
 43
0.0000001
 44
0.0000000001
 40
0.0
 40
0.0
 40
0.0
 40
0.0
 40
0.0287386938
 40
0.0574433329
 40
0.0861246041
 40
0.1147954023
 40
0.1434711092
 40
0.1721697272
 40
0.2009119734
 40
0.2153073183
 40
0.2297225896
 40
0.2441611077
 40
0.2586263434
 40
0.273121903
 40
0.2876514938
 40
0.3022189267
 40
0.3168280906
 40
0.3314829125
 40
0.3461873504
 40
0.3609453627
 40
0.3757608627
 40
0.390637705
 40
0.4055796538
 40
0.4205903381
 40
0.4356732333
 40
0.4508316363
 40
0.4660686262
 40
0.4813870472
 40
0.4967894938
 40
0.512278284
 40
0.5278554475
 40
0.5435227232
 40
0.5592815471
 40
0.5910766877
 40
0.623247859
 40
0.6557960179
 40
0.6722111559
 40
0.688719026
 40
0.7220080081
 40
0.7556542287
 40
0.7896455328
 40
0.8239679902
 40
0.8586064586
 40
0.8935450635
 40
0.9287676121
 40
0.9642578876
 40
1.0
 40
1.0
 40
1.0
 40
1.0
 10
14.3927368441
 20
8.1154511959
 30
0.0
 10
14.3901410039
 20
8.1095926759
 30
0.0
 10
14.3851029864
 20
8.0978150828
 30
0.0
 10
14.3780364602
 20
8.0799567452
 30
0.0
 10
14.3714975494
 20
8.0619141647
 30
0.0
 10
14.365519774
 20
8.0436844619
 30
0.0
 10
14.3601376303
 20
8.0252656499
 30
0.0
 10
14.3553864012
 20
8.0066574122
 30
0.0
 10
14.3519841969
 20
7.9910015411
 30
0.0
 10
14.3496135551
 20
7.9783892123
 30
0.0
 10
14.3480141744
 20
7.9688788867
 30
0.0
 10
14.3465986833
 20
7.9593237131
 30
0.0
 10
14.3453711985
 20
7.9497244943
 30
0.0
 10
14.3443357394
 20
7.9400822252
 30
0.0
 10
14.3434961415
 20
7.9303980379
 30
0.0
 10
14.3428560704
 20
7.9206732159
 30
0.0
 10
14.3424189974
 20
7.9109091906
 30
0.0
 10
14.3421881294
 20
7.9011075438
 30
0.0
 10
14.3421664238
 20
7.8912700014
 30
0.0
 10
14.3423565687
 20
7.8813984298
 30
0.0
 10
14.3427609082
 20
7.8714948297
 30
0.0
 10
14.3433814636
 20
7.8615613264
 30
0.0
 10
14.3442199251
 20
7.8516001624
 30
0.0
 10
14.3452775816
 20
7.8416136818
 30
0.0
 10
14.346555341
 20
7.8316043184
 30
0.0
 10
14.3480537426
 20
7.8215745848
 30
0.0
 10
14.3497729018
 20
7.811527051
 30
0.0
 10
14.3517125216
 20
7.8014643284
 30
0.0
 10
14.3538719287
 20
7.7913890599
 30
0.0
 10
14.3562500446
 20
7.7813038929
 30
0.0
 10
14.3588453762
 20
7.7712114755
 30
0.0
 10
14.3616561012
 20
7.7611143843
 30
0.0
 10
14.3656997105
 20
7.7476096111
 30
0.0
 10
14.3712857684
 20
7.7307290221
 30
0.0
 10
14.3787874589
 20
7.7105544824
 30
0.0
 10
14.3856772586
 20
7.6938232964
 30
0.0
 10
14.391565286
 20
7.6804647679
 30
0.0
 10
14.3977343211
 20
7.6670515895
 30
0.0
 10
14.4059006061
 20
7.6503308853
 30
0.0
 10
14.416360453
 20
7.6304027463
 30
0.0
 10
14.4274708353
 20
7.6105655657
 30
0.0
 10
14.4391946511
 20
7.5908272741
 30
0.0
 10
14.4514952832
 20
7.5711938189
 30
0.0
 10
14.4643369587
 20
7.551669549
 30
0.0
 10
14.4776851501
 20
7.5322573185
 30
0.0
 10
14.4915067452
 20
7.5129587864
 30
0.0
 10
14.5009838039
 20
7.5002122798
 30
0.0
 10
14.5057914695
 20
7.4938563522
 30
0.0
  0
SPLINE
  5
2EE
100
AcDbEntity
  8
0
100
AcDbSpline
 62
7
  6
CONTINUOUS
 70
0
 71
3
 72
23
 73
19
 74
0
 42
0.0000001
 43
0.0000001
 44
0.0000000001
 40
0.0
 40
0.0
 40
0.0
 40
0.0
 40
0.0637744828
 40
0.1273454316
 40
0.1907025265
 40
0.2538558004
 40
0.316813226
 40
0.3795821625
 40
0.4421733656
 40
0.5045993404
 40
0.5668738661
 40
0.6290123724
 40
0.6910316429
 40
0.7529496283
 40
0.8147853425
 40
0.8765585905
 40
0.938289842
 40
1.0
 40
1.0
 40
1.0
 40
1.0
 10
8.8270378495
 20
9.1610374631
 30
0.0
 10
8.8270378495
 20
9.1576586709
 30
0.0
 10
8.826876057
 20
9.1509107269
 30
0.0
 10
8.8261461763
 20
9.1408298661
 30
0.0
 10
8.8249307582
 20
9.1308288294
 30
0.0
 10
8.823232738
 20
9.1209313437
 30
0.0
 10
8.8210561432
 20
9.1111598443
 30
0.0
 10
8.8184057225
 20
9.1015369357
 30
0.0
 10
8.8152877269
 20
9.0920848145
 30
0.0
 10
8.8117093035
 20
9.0828252604
 30
0.0
 10
8.8076785919
 20
9.0737796648
 30
0.0
 10
8.8032050161
 20
9.0649688301
 30
0.0
 10
8.7982987382
 20
9.0564131503
 30
0.0
 10
8.792971131
 20
9.0481323223
 30
0.0
 10
8.7872345123
 20
9.0401454451
 30
0.0
 10
8.7811019298
 20
9.0324709681
 30
0.0
 10
8.7745879159
 20
9.0251267147
 30
0.0
 10
8.7699999987
 20
9.0204612221
 30
0.0
 10
8.7676484414
 20
9.0181898108
 30
0.0
  0
SPLINE
  5
2EF
100
AcDbEntity
  8
0
100
AcDbSpline
 62
7
  6
CONTINUOUS
 70
0
 71
3
 72
23
 73
19
 74
0
 42
0.0000001
 43
0.0000001
 44
0.0000000001
 40
0.0
 40
0.0
 40
0.0
 40
0.0
 40
0.0637744828
 40
0.1273454316
 40
0.1907025265
 40
0.2538558004
 40
0.316813226
 40
0.3795821625
 40
0.4421733656
 40
0.5045993404
 40
0.5668738661
 40
0.6290123724
 40
0.6910316429
 40
0.7529496283
 40
0.8147853425
 40
0.8765585905
 40
0.938289842
 40
1.0
 40
1.0
 40
1.0
 40
1.0
 10
11.9064097614
 20
9.0073696779
 30
0.0
 10
11.9064097614
 20
9.0039908857
 30
0.0
 10
11.906247969
 20
8.9972429417
 30
0.0
 10
11.9055180883
 20
8.9871620809
 30
0.0
 10
11.9043026702
 20
8.9771610441
 30
0.0
 10
11.9026046499
 20
8.9672635585
 30
0.0
 10
11.9004280551
 20
8.9574920591
 30
0.0
 10
11.8977776345
 20
8.9478691505
 30
0.0
 10
11.8946596388
 20
8.9384170293
 30
0.0
 10
11.8910812154
 20
8.9291574752
 30
0.0
 10
11.8870505039
 20
8.9201118796
 30
0.0
 10
11.8825769281
 20
8.9113010449
 30
0.0
 10
11.8776706502
 20
8.9027453651
 30
0.0
 10
11.8723430429
 20
8.8944645371
 30
0.0
 10
11.8666064243
 20
8.8864776598
 30
0.0
 10
11.8604738417
 20
8.8788031829
 30
0.0
 10
11.8539598279
 20
8.8714589295
 30
0.0
 10
11.8493719107
 20
8.8667934369
 30
0.0
 10
11.8470203533
 20
8.8645220256
 30
0.0
  0
SPLINE
  5
2F0
100
AcDbEntity
  8
0
100
AcDbSpline
 62
7
  6
CONTINUOUS
 70
0
 71
3
 72
23
 73
19
 74
0
 42
0.0000001
 43
0.0000001
 44
0.0000000001
 40
0.0
 40
0.0
 40
0.0
 40
0.0
 40
0.0637744828
 40
0.1273454316
 40
0.1907025265
 40
0.2538558004
 40
0.316813226
 40
0.3795821625
 40
0.4421733656
 40
0.5045993404
 40
0.5668738661
 40
0.6290123724
 40
0.6910316429
 40
0.7529496283
 40
0.8147853425
 40
0.8765585905
 40
0.938289842
 40
1.0
 40
1.0
 40
1.0
 40
1.0
 10
8.8270378495
 20
6.8061101941
 30
0.0
 10
8.8270378495
 20
6.8027314019
 30
0.0
 10
8.826876057
 20
6.7959834579
 30
0.0
 10
8.8261461763
 20
6.7859025971
 30
0.0
 10
8.8249307582
 20
6.7759015603
 30
0.0
 10
8.823232738
 20
6.7660040747
 30
0.0
 10
8.8210561432
 20
6.7562325753
 30
0.0
 10
8.8184057225
 20
6.7466096667
 30
0.0
 10
8.8152877269
 20
6.7371575454
 30
0.0
 10
8.8117093035
 20
6.7278979914
 30
0.0
 10
8.8076785919
 20
6.7188523958
 30
0.0
 10
8.8032050161
 20
6.7100415611
 30
0.0
 10
8.7982987382
 20
6.7014858813
 30
0.0
 10
8.792971131
 20
6.6932050533
 30
0.0
 10
8.7872345123
 20
6.685218176
 30
0.0
 10
8.7811019298
 20
6.6775436991
 30
0.0
 10
8.7745879159
 20
6.6701994456
 30
0.0
 10
8.7699999987
 20
6.665533953
 30
0.0
 10
8.7676484414
 20
6.6632625418
 30
0.0
  0
SPLINE
  5
2F1
100
AcDbEntity
  8
0
100
AcDbSpline
 62
7
  6
CONTINUOUS
 70
0
 71
3
 72
23
 73
19
 74
0
 42
0.0000001
 43
0.0000001
 44
0.0000000001
 40
0.0
 40
0.0
 40
0.0
 40
0.0
 40
0.0637744828
 40
0.1273454316
 40
0.1907025265
 40
0.2538558004
 40
0.316813226
 40
0.3795821625
 40
0.4421733656
 40
0.5045993404
 40
0.5668738661
 40
0.6290123724
 40
0.6910316429
 40
0.7529496283
 40
0.8147853425
 40
0.8765585905
 40
0.938289842
 40
1.0
 40
1.0
 40
1.0
 40
1.0
 10
11.9064097614
 20
6.5326675869
 30
0.0
 10
11.9064097614
 20
6.5292887947
 30
0.0
 10
11.906247969
 20
6.5225408507
 30
0.0
 10
11.9055180883
 20
6.5124599899
 30
0.0
 10
11.9043026702
 20
6.5024589531
 30
0.0
 10
11.9026046499
 20
6.4925614675
 30
0.0
 10
11.9004280551
 20
6.482789968
 30
0.0
 10
11.8977776345
 20
6.4731670595
 30
0.0
 10
11.8946596388
 20
6.4637149382
 30
0.0
 10
11.8910812154
 20
6.4544553842
 30
0.0
 10
11.8870505039
 20
6.4454097886
 30
0.0
 10
11.8825769281
 20
6.4365989539
 30
0.0
 10
11.8776706502
 20
6.4280432741
 30
0.0
 10
11.8723430429
 20
6.4197624461
 30
0.0
 10
11.8666064243
 20
6.4117755688
 30
0.0
 10
11.8604738417
 20
6.4041010919
 30
0.0
 10
11.8539598279
 20
6.3967568384
 30
0.0
 10
11.8493719107
 20
6.3920913458
 30
0.0
 10
11.8470203533
 20
6.3898199346
 30
0.0
  0
SPLINE
  5
2F2
100
AcDbEntity
  8
0
100
AcDbSpline
 62
7
  6
CONTINUOUS
 70
0
 71
3
 72
40
 73
36
 74
0
 42
0.0000001
 43
0.0000001
 44
0.0000000001
 40
0.0
 40
0.0
 40
0.0
 40
0.0
 40
0.0309233045
 40
0.0464422818
 40
0.0619958082
 40
0.0932015209
 40
0.1245372939
 40
0.1559918306
 40
0.1875523702
 40
0.2192043348
 40
0.250932001
 40
0.2827188262
 40
0.314547861
 40
0.3464021089
 40
0.3782648246
 40
0.4101197659
 40
0.441951402
 40
0.4737450782
 40
0.5054871631
 40
0.5371651746
 40
0.5687678113
 40
0.6002849879
 40
0.631707868
 40
0.6630289099
 40
0.6942418908
 40
0.7253418742
 40
0.7563252217
 40
0.7871896194
 40
0.8179340979
 40
0.8485590249
 40
0.8790661283
 40
0.9094585333
 40
0.9397407759
 40
0.9699188012
 40
1.0
 40
1.0
 40
1.0
 40
1.0
 10
10.9105399102
 20
8.0967781675
 30
0.0
 10
10.9157438255
 20
8.0964172748
 30
0.0
 10
10.9235440236
 20
8.0956053857
 30
0.0
 10
10.9338785122
 20
8.0939937345
 30
0.0
 10
10.9441997855
 20
8.0920245022
 30
0.0
 10
10.9570093212
 20
8.0889029263
 30
0.0
 10
10.9721423053
 20
8.0841317859
 30
0.0
 10
10.9869866799
 20
8.0783594073
 30
0.0
 10
11.0014762402
 20
8.0716201267
 30
0.0
 10
11.0155491182
 20
8.0639529785
 30
0.0
 10
11.0291474476
 20
8.055401277
 30
0.0
 10
11.0422178254
 20
8.0460117839
 30
0.0
 10
11.0547114062
 20
8.0358340403
 30
0.0
 10
11.0665839504
 20
8.0249196964
 30
0.0
 10
11.0777957282
 20
8.0133218851
 30
0.0
 10
11.0883113607
 20
8.0010946908
 30
0.0
 10
11.0980995985
 20
7.9882926953
 30
0.0
 10
11.1071330621
 20
7.9749706032
 30
0.0
 10
11.1153879672
 20
7.9611829466
 30
0.0
 10
11.1228438583
 20
7.9469838757
 30
0.0
 10
11.1294832785
 20
7.932426985
 30
0.0
 10
11.1352914925
 20
7.9175652344
 30
0.0
 10
11.1402562262
 20
7.9024509073
 30
0.0
 10
11.1443674509
 20
7.8871356158
 30
0.0
 10
11.1476172066
 20
7.8716703446
 30
0.0
 10
11.1499993838
 20
7.85610551
 30
0.0
 10
11.1515095983
 20
7.8404910596
 30
0.0
 10
11.152145082
 20
7.8248765757
 30
0.0
 10
11.151904669
 20
7.8093113924
 30
0.0
 10
11.1507887389
 20
7.7938447173
 30
0.0
 10
11.1487992049
 20
7.7785257311
 30
0.0
 10
11.1459395907
 20
7.7634037832
 30
0.0
 10
11.1422150162
 20
7.7485281932
 30
0.0
 10
11.1376327866
 20
7.7339494434
 30
0.0
 10
11.1340060227
 20
7.7244455404
 30
0.0
 10
11.1320531852
 20
7.719761999
 30
0.0
  0
SPLINE
  5
2F3
100
AcDbEntity
  8
0
100
AcDbSpline
 62
7
  6
CONTINUOUS
 70
0
 71
3
 72
49
 73
45
 74
0
 42
0.0000001
 43
0.0000001
 44
0.0000000001
 40
0.0
 40
0.0
 40
0.0
 40
0.0
 40
0.0313647279
 40
0.0629203819
 40
0.0946557087
 40
0.1265522546
 40
0.1585871579
 40
0.1907333314
 40
0.22296063
 40
0.2552368789
 40
0.2875289173
 40
0.3198036071
 40
0.3520287832
 40
0.3841741257
 40
0.4162119318
 40
0.4481178012
 40
0.479871232
 40
0.5114561247
 40
0.5428611985
 40
0.5740803098
 40
0.6051126717
 40
0.6359629706
 40
0.666641363
 40
0.6971633382
 40
0.7123759111
 40
0.7275574858
 40
0.7427113457
 40
0.7578410172
 40
0.7729502445
 40
0.7880429875
 40
0.8031233479
 40
0.818195588
 40
0.8332640575
 40
0.8483331691
 40
0.8634073825
 40
0.878491113
 40
0.8935887559
 40
0.9087045918
 40
0.9238427702
 40
0.9390072856
 40
0.9542018851
 40
0.9694301041
 40
0.9846951755
 40
1.0
 40
1.0
 40
1.0
 40
1.0
 10
10.2459831896
 20
7.3458730184
 30
0.0
 10
10.2532369733
 20
7.3453699667
 30
0.0
 10
10.2677508903
 20
7.3436945874
 30
0.0
 10
10.2892628896
 20
7.3392244642
 30
0.0
 10
10.31041337
 20
7.3328296037
 30
0.0
 10
10.3310253531
 20
7.3245677856
 30
0.0
 10
10.3509310405
 20
7.3145131586
 30
0.0
 10
10.3699698704
 20
7.302754893
 30
0.0
 10
10.3879909361
 20
7.289395897
 30
0.0
 10
10.4048538649
 20
7.2745512101
 30
0.0
 10
10.4204298078
 20
7.2583464682
 30
0.0
 10
10.4346020741
 20
7.2409163541
 30
0.0
 10
10.4472665807
 20
7.2224031217
 30
0.0
 10
10.4583321164
 20
7.2029552153
 30
0.0
 10
10.4677203918
 20
7.1827259678
 30
0.0
 10
10.4753660221
 20
7.1618724688
 30
0.0
 10
10.4812164391
 20
7.1405545553
 30
0.0
 10
10.4852317671
 20
7.1189339166
 30
0.0
 10
10.4873847334
 20
7.0971733181
 30
0.0
 10
10.4876605644
 20
7.0754358451
 30
0.0
 10
10.4860569839
 20
7.0538843614
 30
0.0
 10
10.4825840111
 20
7.0326803838
 30
0.0
 10
10.4772648703
 20
7.0119851648
 30
0.0
 10
10.4713145987
 20
6.9952713723
 30
0.0
 10
10.4656737622
 20
6.9823203654
 30
0.0
 10
10.4610143599
 20
6.9728403169
 30
0.0
 10
10.4559302521
 20
6.9636032314
 30
0.0
 10
10.4504302089
 20
6.9546271562
 30
0.0
 10
10.4445240927
 20
6.9459300034
 30
0.0
 10
10.4382222951
 20
6.937529377
 30
0.0
 10
10.4315363038
 20
6.9294422752
 30
0.0
 10
10.4244782296
 20
6.9216853554
 30
0.0
 10
10.417061052
 20
6.9142747259
 30
0.0
 10
10.409298639
 20
6.9072258311
 30
0.0
 10
10.4012054621
 20
6.9005537252
 30
0.0
 10
10.392796997
 20
6.8942725433
 30
0.0
 10
10.3840893045
 20
6.8883959388
 30
0.0
 10
10.3750992608
 20
6.882936734
 30
0.0
 10
10.3658444987
 20
6.8779068687
 30
0.0
 10
10.3563432038
 20
6.873317688
 30
0.0
 10
10.3466143969
 20
6.8691793442
 30
0.0
 10
10.3366774869
 20
6.8655012964
 30
0.0
 10
10.3265528876
 20
6.8622920399
 30
0.0
 10
10.3197003508
 20
6.8604722113
 30
0.0
 10
10.3162506265
 20
6.8596425929
 30
0.0
  0
SPLINE
  5
2F4
100
AcDbEntity
  8
0
100
AcDbSpline
 62
7
  6
CONTINUOUS
 70
0
 71
3
 72
15
 73
11
 74
0
 42
0.0000001
 43
0.0000001
 44
0.0000000001
 40
0.0
 40
0.0
 40
0.0
 40
0.0
 40
0.1273482228
 40
0.253860527
 40
0.3795879206
 40
0.5046050801
 40
0.6290174363
 40
0.7529533709
 40
0.8765605784
 40
1.0
 40
1.0
 40
1.0
 40
1.0
 10
11.271796128
 20
6.5766781919
 30
0.0
 10
11.271796128
 20
6.5718737312
 30
0.0
 10
11.2713374031
 20
6.5622897041
 30
0.0
 10
11.2692628538
 20
6.5480979896
 30
0.0
 10
11.2658228992
 20
6.5342628568
 30
0.0
 10
11.2610486035
 20
6.520913696
 30
0.0
 10
11.2549838012
 20
6.5081736043
 30
0.0
 10
11.2476837542
 20
6.496160223
 30
0.0
 10
11.2392171018
 20
6.4849861187
 30
0.0
 10
11.2328421427
 20
6.4781603276
 30
0.0
 10
11.2294925858
 20
6.4749248899
 30
0.0
  0
SPLINE
  5
2F5
100
AcDbEntity
  8
0
100
AcDbSpline
 62
7
  6
CONTINUOUS
 70
0
 71
3
 72
19
 73
15
 74
0
 42
0.0000001
 43
0.0000001
 44
0.0000000001
 40
0.0
 40
0.0
 40
0.0
 40
0.0
 40
0.1273273743
 40
0.2538195733
 40
0.3795265683
 40
0.5045235045
 40
0.566807592
 40
0.6289556157
 40
0.6909843819
 40
0.7529118319
 40
0.814757013
 40
0.8765397086
 40
0.9382804082
 40
1.0
 40
1.0
 40
1.0
 40
1.0
 10
10.3715535325
 20
7.8754953312
 30
0.0
 10
10.3715535325
 20
7.8714915838
 30
0.0
 10
10.3711712656
 20
7.863504843
 30
0.0
 10
10.3694423928
 20
7.8516781788
 30
0.0
 10
10.3665759267
 20
7.8401492327
 30
0.0
 10
10.3632553642
 20
7.8308654454
 30
0.0
 10
10.3600619078
 20
7.8236988177
 30
0.0
 10
10.3574063104
 20
7.8184685748
 30
0.0
 10
10.3544939959
 20
7.8133898832
 30
0.0
 10
10.3513314828
 20
7.8084743567
 30
0.0
 10
10.3479262501
 20
7.8037332844
 30
0.0
 10
10.3442859174
 20
7.7991776895
 30
0.0
 10
10.3404192207
 20
7.7948180702
 30
0.0
 10
10.3376958071
 20
7.7920486224
 30
0.0
 10
10.3362999167
 20
7.7907003006
 30
0.0
  0
SPLINE
  5
2F6
100
AcDbEntity
  8
0
100
AcDbSpline
 62
7
  6
CONTINUOUS
 70
0
 71
3
 72
18
 73
14
 74
0
 42
0.0000001
 43
0.0000001
 44
0.0000000001
 40
0.0
 40
0.0
 40
0.0
 40
0.0
 40
0.1504663731
 40
0.2917105206
 40
0.4244367454
 40
0.5495624809
 40
0.6682140449
 40
0.7255497559
 40
0.7817911968
 40
0.8371401738
 40
0.8918092593
 40
0.9460199951
 40
1.0
 40
1.0
 40
1.0
 40
1.0
 10
14.2232874562
 20
9.2776472773
 30
0.0
 10
14.2257215991
 20
9.2799984789
 30
0.0
 10
14.2305864939
 20
9.2844099632
 30
0.0
 10
14.2381197091
 20
9.2902890581
 30
0.0
 10
14.2456441192
 20
9.2952060011
 30
0.0
 10
14.2531518715
 20
9.2991526988
 30
0.0
 10
14.2594620244
 20
9.3016553694
 30
0.0
 10
14.2644720309
 20
9.3031422584
 30
0.0
 10
14.2681761709
 20
9.3039992377
 30
0.0
 10
14.2718680052
 20
9.3046100785
 30
0.0
 10
14.2755465265
 20
9.3049744324
 30
0.0
 10
14.2792102579
 20
9.305092126
 30
0.0
 10
14.2816443337
 20
9.3050060137
 30
0.0
 10
14.282855531
 20
9.3049220105
 30
0.0
  0
SPLINE
  5
2F7
100
AcDbEntity
  8
0
100
AcDbSpline
 62
7
  6
CONTINUOUS
 70
0
 71
3
 72
49
 73
45
 74
0
 42
0.0000001
 43
0.0000001
 44
0.0000000001
 40
0.0
 40
0.0
 40
0.0
 40
0.0
 40
0.007162549
 40
0.0146566129
 40
0.0224897979
 40
0.0306683218
 40
0.0391972589
 40
0.0480804344
 40
0.0573201477
 40
0.0669176458
 40
0.0768732672
 40
0.0871864298
 40
0.0978559343
 40
0.1088797564
 40
0.1202552781
 40
0.1319793689
 40
0.1440482426
 40
0.1564577646
 40
0.1692032622
 40
0.1822796395
 40
0.1956814993
 40
0.2094029407
 40
0.2377791999
 40
0.2673557222
 40
0.2980746269
 40
0.329873856
 40
0.3626875581
 40
0.3964464456
 40
0.4310781688
 40
0.4665076247
 40
0.5026572416
 40
0.5394472362
 40
0.5767959063
 40
0.6146199087
 40
0.6528345123
 40
0.6913538443
 40
0.7300911408
 40
0.7689590336
 40
0.8078697487
 40
0.8467354205
 40
0.8854684204
 40
0.9239807484
 40
0.9621874756
 40
1.0
 40
1.0
 40
1.0
 40
1.0
 10
6.403081689
 20
9.8690220918
 30
0.0
 10
6.4015913869
 20
9.8675825704
 30
0.0
 10
6.3986127579
 20
9.8645627389
 30
0.0
 10
6.3942470391
 20
9.8597367615
 30
0.0
 10
6.3898868377
 20
9.8545167131
 30
0.0
 10
6.3855350155
 20
9.8489059695
 30
0.0
 10
6.381193941
 20
9.8429078534
 30
0.0
 10
6.3768661814
 20
9.8365257882
 30
0.0
 10
6.3725541676
 20
9.8297635683
 30
0.0
 10
6.3682605079
 20
9.8226251959
 30
0.0
 10
6.3639878141
 20
9.8151149114
 30
0.0
 10
6.359738545
 20
9.8072372272
 30
0.0
 10
6.3555153335
 20
9.7989967995
 30
0.0
 10
6.3513206493
 20
9.790398575
 30
0.0
 10
6.3471570139
 20
9.7814476953
 30
0.0
 10
6.3430269922
 20
9.7721495042
 30
0.0
 10
6.3389329816
 20
9.7625096016
 30
0.0
 10
6.3348775243
 20
9.7525337485
 30
0.0
 10
6.3308630303
 20
9.7422279425
 30
0.0
 10
6.3268918998
 20
9.7315983792
 30
0.0
 10
6.3229665763
 20
9.7206514204
 30
0.0
 10
6.3177384538
 20
9.7054710021
 30
0.0
 10
6.3113450793
 20
9.6857449765
 30
0.0
 10
6.3039756392
 20
9.6611731628
 30
0.0
 10
6.2968434356
 20
9.6355023043
 30
0.0
 10
6.2899657345
 20
9.6087941484
 30
0.0
 10
6.283359197
 20
9.5811128231
 30
0.0
 10
6.2770397988
 20
9.5525248911
 30
0.0
 10
6.2710228292
 20
9.5230991067
 30
0.0
 10
6.2653228426
 20
9.4929062559
 30
0.0
 10
6.259953633
 20
9.4620189873
 30
0.0
 10
6.2549281716
 20
9.4305116432
 30
0.0
 10
6.2502585935
 20
9.3984600722
 30
0.0
 10
6.2459561776
 20
9.3659414353
 30
0.0
 10
6.2420313184
 20
9.3330340214
 30
0.0
 10
6.2384934985
 20
9.2998170642
 30
0.0
 10
6.2353512404
 20
9.266370548
 30
0.0
 10
6.232612121
 20
9.2327750165
 30
0.0
 10
6.2302827407
 20
9.1991113682
 30
0.0
 10
6.2283687147
 20
9.1654606328
 30
0.0
 10
6.2268746741
 20
9.1319039932
 30
0.0
 10
6.2258041207
 20
9.098521863
 30
0.0
 10
6.2251597343
 20
9.0653951555
 30
0.0
 10
6.225014333
 20
9.0434037657
 30
0.0
 10
6.225014333
 20
9.0324652157
 30
0.0
  0
SPLINE
  5
2F8
100
AcDbEntity
  8
0
100
AcDbSpline
 62
7
  6
CONTINUOUS
 70
0
 71
3
 72
35
 73
31
 74
0
 42
0.0000001
 43
0.0000001
 44
0.0000000001
 40
0.0
 40
0.0
 40
0.0
 40
0.0
 40
0.0851784211
 40
0.1685800267
 40
0.249882267
 40
0.3287728077
 40
0.3672203308
 40
0.4049540811
 40
0.4419390139
 40
0.4781412984
 40
0.5135281869
 40
0.5480682266
 40
0.5817312635
 40
0.614488584
 40
0.6463130236
 40
0.6771790223
 40
0.7070628766
 40
0.7359427104
 40
0.7637988882
 40
0.7906139176
 40
0.8163730481
 40
0.8410641411
 40
0.8646784841
 40
0.8872106928
 40
0.9086597867
 40
0.9290292303
 40
0.9483283434
 40
0.9665726433
 40
0.9837857018
 40
1.0
 40
1.0
 40
1.0
 40
1.0
 10
6.225014333
 20
7.3420949195
 30
0.0
 10
6.225014333
 20
7.3278398297
 30
0.0
 10
6.225257245
 20
7.2996263286
 30
0.0
 10
6.2263713483
 20
7.2578196724
 30
0.0
 10
6.2282269518
 20
7.2170925338
 30
0.0
 10
6.2304025756
 20
7.1839176152
 30
0.0
 10
6.2325182154
 20
7.158051408
 30
0.0
 10
6.2342709309
 20
7.1391932647
 30
0.0
 10
6.2362013408
 20
7.120730235
 30
0.0
 10
6.2383073767
 20
7.1026817488
 30
0.0
 10
6.2405868328
 20
7.0850668136
 30
0.0
 10
6.2430372683
 20
7.0679039738
 30
0.0
 10
6.2456560982
 20
7.0512112954
 30
0.0
 10
6.2484405413
 20
7.035006342
 30
0.0
 10
6.2513876362
 20
7.019306159
 30
0.0
 10
6.2544942781
 20
7.004127251
 30
0.0
 10
6.2577571399
 20
6.9894855659
 30
0.0
 10
6.2611728103
 20
6.9753964753
 30
0.0
 10
6.2647376115
 20
6.9618747528
 30
0.0
 10
6.2684478464
 20
6.9489345661
 30
0.0
 10
6.2722995068
 20
6.9365894382
 30
0.0
 10
6.2762886372
 20
6.9248522638
 30
0.0
 10
6.2804109301
 20
6.9137352389
 30
0.0
 10
6.2846622114
 20
6.9032499176
 30
0.0
 10
6.2890379235
 20
6.8934070951
 30
0.0
 10
6.2935337446
 20
6.8842169151
 30
0.0
 10
6.2981449347
 20
6.8756887347
 30
0.0
 10
6.3028672141
 20
6.867831151
 30
0.0
 10
6.3076955454
 20
6.8606524021
 30
0.0
 10
6.311081257
 20
6.8561937678
 30
0.0
 10
6.3127934256
 20
6.8540885704
 30
0.0
  0
SPLINE
  5
2F9
100
AcDbEntity
  8
0
100
AcDbSpline
 62
7
  6
CONTINUOUS
 70
0
 71
3
 72
31
 73
27
 74
0
 42
0.0000001
 43
0.0000001
 44
0.0000000001
 40
0.0
 40
0.0
 40
0.0
 40
0.0
 40
0.0847940381
 40
0.1671244871
 40
0.2468482569
 40
0.3238301602
 40
0.3979434464
 40
0.4690706087
 40
0.537104662
 40
0.601950319
 40
0.6331520332
 40
0.6635270399
 40
0.6930672232
 40
0.7217658982
 40
0.7496173412
 40
0.7766169876
 40
0.8027620198
 40
0.82805083
 40
0.8524834713
 40
0.8760619918
 40
0.8987901602
 40
0.9206745483
 40
0.9417246258
 40
0.9619522934
 40
0.9813717043
 40
1.0
 40
1.0
 40
1.0
 40
1.0
 10
14.5913458952
 20
7.458015557
 30
0.0
 10
14.5893646422
 20
7.4496061846
 30
0.0
 10
14.5853317594
 20
7.4330615418
 30
0.0
 10
14.578971648
 20
7.4087265577
 30
0.0
 10
14.5723991719
 20
7.3852734908
 30
0.0
 10
14.56562777
 20
7.3627498487
 30
0.0
 10
14.5586712451
 20
7.3412011468
 30
0.0
 10
14.551543752
 20
7.320670866
 30
0.0
 10
14.5442598126
 20
7.3012005473
 30
0.0
 10
14.537994129
 20
7.2856984019
 30
0.0
 10
14.5329060902
 20
7.273864328
 30
0.0
 10
14.529109247
 20
7.2653919597
 30
0.0
 10
14.5252844146
 20
7.2572128695
 30
0.0
 10
14.5214335693
 20
7.2493311561
 30
0.0
 10
14.5175586631
 20
7.2417507977
 30
0.0
 10
14.5136615964
 20
7.2344756383
 30
0.0
 10
14.5097444068
 20
7.2275093018
 30
0.0
 10
14.5058090245
 20
7.220855305
 30
0.0
 10
14.5018574077
 20
7.2145170135
 30
0.0
 10
14.4978916313
 20
7.2084975773
 30
0.0
 10
14.4939136152
 20
7.2028000401
 30
0.0
 10
14.4899252962
 20
7.1974272052
 30
0.0
 10
14.4859286294
 20
7.1923816587
 30
0.0
 10
14.4819254617
 20
7.1876659806
 30
0.0
 10
14.4779181022
 20
7.1832827442
 30
0.0
 10
14.4751892581
 20
7.1805273321
 30
0.0
 10
14.4738240945
 20
7.1792086852
 30
0.0
  0
SPLINE
  5
2FA
100
AcDbEntity
  8
0
100
AcDbSpline
 62
7
  6
CONTINUOUS
 70
0
 71
3
 72
41
 73
37
 74
0
 42
0.0000001
 43
0.0000001
 44
0.0000000001
 40
0.0
 40
0.0
 40
0.0
 40
0.0
 40
0.0299421756
 40
0.0599087291
 40
0.0899234427
 40
0.12000893
 40
0.1501860972
 40
0.1804736576
 40
0.2108877103
 40
0.2414413945
 40
0.2721446252
 40
0.3030039132
 40
0.3340222692
 40
0.3651991907
 40
0.3965307261
 40
0.4280096099
 40
0.4596254632
 40
0.491365051
 40
0.5232125895
 40
0.5551500944
 40
0.5871577641
 40
0.61921439
 40
0.6512977872
 40
0.6833852384
 40
0.715453946
 40
0.7314766505
 40
0.7474863166
 40
0.7794510815
 40
0.8113327211
 40
0.8272389267
 40
0.8431175145
 40
0.8747789379
 40
0.9063078385
 40
0.9376925801
 40
0.9689252405
 40
1.0
 40
1.0
 40
1.0
 40
1.0
 10
8.4633517206
 20
9.3332255036
 30
0.0
 10
8.4669848604
 20
9.3367348182
 30
0.0
 10
8.4745368716
 20
9.3434701729
 30
0.0
 10
8.4866363079
 20
9.3526459322
 30
0.0
 10
8.4994453751
 20
9.3608484414
 30
0.0
 10
8.5128924876
 20
9.3680317023
 30
0.0
 10
8.5269037187
 20
9.3741564673
 30
0.0
 10
8.5414017417
 20
9.37918907
 30
0.0
 10
8.5563066649
 20
9.3831019749
 30
0.0
 10
8.5715363733
 20
9.385873819
 30
0.0
 10
8.5870070157
 20
9.387489546
 30
0.0
 10
8.6026334609
 20
9.3879404691
 30
0.0
 10
8.618329768
 20
9.3872243102
 30
0.0
 10
8.6340096559
 20
9.3853452009
 30
0.0
 10
8.6495869735
 20
9.3823136514
 30
0.0
 10
8.6649761672
 20
9.3781464854
 30
0.0
 10
8.6800927446
 20
9.3728667423
 30
0.0
 10
8.6948537325
 20
9.3665035484
 30
0.0
 10
8.7091781258
 20
9.3590919526
 30
0.0
 10
8.7229873238
 20
9.3506727362
 30
0.0
 10
8.7362055644
 20
9.3412921769
 30
0.0
 10
8.7487603026
 20
9.3310018431
 30
0.0
 10
8.7605827213
 20
9.3198581362
 30
0.0
 10
8.7716076664
 20
9.3079226429
 30
0.0
 10
8.7800837012
 20
9.2973664969
 30
0.0
 10
8.7864076644
 20
9.2885922757
 30
0.0
 10
8.7924133766
 20
9.2796182782
 30
0.0
 10
8.7993181995
 20
9.268037162
 30
0.0
 10
8.8053893605
 20
9.2560174532
 30
0.0
 10
8.8097201637
 20
9.2461866403
 30
0.0
 10
8.8136878054
 20
9.2362437865
 30
0.0
 10
8.8179716333
 20
9.2235985896
 30
0.0
 10
8.8220036273
 20
9.2081479215
 30
0.0
 10
8.8249007969
 20
9.1925175768
 30
0.0
 10
8.8266467619
 20
9.1767950482
 30
0.0
 10
8.8270378495
 20
9.1662797666
 30
0.0
 10
8.8270378495
 20
9.1610374631
 30
0.0
  0
SPLINE
  5
2FB
100
AcDbEntity
  8
0
100
AcDbSpline
 62
7
  6
CONTINUOUS
 70
0
 71
3
 72
41
 73
37
 74
0
 42
0.0000001
 43
0.0000001
 44
0.0000000001
 40
0.0
 40
0.0
 40
0.0
 40
0.0
 40
0.0299421756
 40
0.0599087291
 40
0.0899234427
 40
0.12000893
 40
0.1501860972
 40
0.1804736576
 40
0.2108877103
 40
0.2414413945
 40
0.2721446252
 40
0.3030039132
 40
0.3340222692
 40
0.3651991907
 40
0.3965307261
 40
0.4280096099
 40
0.4596254632
 40
0.491365051
 40
0.5232125895
 40
0.5551500944
 40
0.5871577641
 40
0.61921439
 40
0.6512977872
 40
0.6833852384
 40
0.715453946
 40
0.7314766505
 40
0.7474863166
 40
0.7794510815
 40
0.8113327211
 40
0.8272389267
 40
0.8431175145
 40
0.8747789379
 40
0.9063078385
 40
0.9376925801
 40
0.9689252405
 40
1.0
 40
1.0
 40
1.0
 40
1.0
 10
11.5427236326
 20
9.1795577184
 30
0.0
 10
11.5463567724
 20
9.183067033
 30
0.0
 10
11.5539087836
 20
9.1898023877
 30
0.0
 10
11.5660082199
 20
9.198978147
 30
0.0
 10
11.578817287
 20
9.2071806562
 30
0.0
 10
11.5922643995
 20
9.2143639171
 30
0.0
 10
11.6062756307
 20
9.2204886821
 30
0.0
 10
11.6207736537
 20
9.2255212848
 30
0.0
 10
11.6356785768
 20
9.2294341896
 30
0.0
 10
11.6509082852
 20
9.2322060338
 30
0.0
 10
11.6663789277
 20
9.2338217608
 30
0.0
 10
11.6820053729
 20
9.2342726839
 30
0.0
 10
11.69770168
 20
9.233556525
 30
0.0
 10
11.7133815679
 20
9.2316774157
 30
0.0
 10
11.7289588855
 20
9.2286458661
 30
0.0
 10
11.7443480791
 20
9.2244787002
 30
0.0
 10
11.7594646566
 20
9.2191989571
 30
0.0
 10
11.7742256444
 20
9.2128357632
 30
0.0
 10
11.7885500377
 20
9.2054241674
 30
0.0
 10
11.8023592358
 20
9.197004951
 30
0.0
 10
11.8155774764
 20
9.1876243917
 30
0.0
 10
11.8281322145
 20
9.1773340578
 30
0.0
 10
11.8399546333
 20
9.166190351
 30
0.0
 10
11.8509795783
 20
9.1542548577
 30
0.0
 10
11.8594556132
 20
9.1436987117
 30
0.0
 10
11.8657795763
 20
9.1349244904
 30
0.0
 10
11.8717852885
 20
9.125950493
 30
0.0
 10
11.8786901115
 20
9.1143693768
 30
0.0
 10
11.8847612725
 20
9.102349668
 30
0.0
 10
11.8890920757
 20
9.0925188551
 30
0.0
 10
11.8930597174
 20
9.0825760013
 30
0.0
 10
11.8973435453
 20
9.0699308043
 30
0.0
 10
11.9013755392
 20
9.0544801363
 30
0.0
 10
11.9042727089
 20
9.0388497916
 30
0.0
 10
11.9060186738
 20
9.023127263
 30
0.0
 10
11.9064097614
 20
9.0126119814
 30
0.0
 10
11.9064097614
 20
9.0073696779
 30
0.0
  0
SPLINE
  5
2FC
100
AcDbEntity
  8
0
100
AcDbSpline
 62
7
  6
CONTINUOUS
 70
0
 71
3
 72
41
 73
37
 74
0
 42
0.0000001
 43
0.0000001
 44
0.0000000001
 40
0.0
 40
0.0
 40
0.0
 40
0.0
 40
0.0299421756
 40
0.0599087291
 40
0.0899234427
 40
0.12000893
 40
0.1501860972
 40
0.1804736576
 40
0.2108877103
 40
0.2414413945
 40
0.2721446252
 40
0.3030039132
 40
0.3340222692
 40
0.3651991907
 40
0.3965307261
 40
0.4280096099
 40
0.4596254632
 40
0.491365051
 40
0.5232125895
 40
0.5551500944
 40
0.5871577641
 40
0.61921439
 40
0.6512977872
 40
0.6833852384
 40
0.715453946
 40
0.7314766505
 40
0.7474863166
 40
0.7794510815
 40
0.8113327211
 40
0.8272389267
 40
0.8431175145
 40
0.8747789379
 40
0.9063078385
 40
0.9376925801
 40
0.9689252405
 40
1.0
 40
1.0
 40
1.0
 40
1.0
 10
8.4633517206
 20
6.9782982346
 30
0.0
 10
8.4669848604
 20
6.9818075492
 30
0.0
 10
8.4745368716
 20
6.9885429039
 30
0.0
 10
8.4866363079
 20
6.9977186632
 30
0.0
 10
8.4994453751
 20
7.0059211724
 30
0.0
 10
8.5128924876
 20
7.0131044333
 30
0.0
 10
8.5269037187
 20
7.0192291983
 30
0.0
 10
8.5414017417
 20
7.024261801
 30
0.0
 10
8.5563066649
 20
7.0281747058
 30
0.0
 10
8.5715363733
 20
7.03094655
 30
0.0
 10
8.5870070157
 20
7.032562277
 30
0.0
 10
8.6026334609
 20
7.0330132001
 30
0.0
 10
8.618329768
 20
7.0322970412
 30
0.0
 10
8.6340096559
 20
7.0304179318
 30
0.0
 10
8.6495869735
 20
7.0273863823
 30
0.0
 10
8.6649761672
 20
7.0232192164
 30
0.0
 10
8.6800927446
 20
7.0179394733
 30
0.0
 10
8.6948537325
 20
7.0115762794
 30
0.0
 10
8.7091781258
 20
7.0041646836
 30
0.0
 10
8.7229873238
 20
6.9957454672
 30
0.0
 10
8.7362055644
 20
6.9863649079
 30
0.0
 10
8.7487603026
 20
6.976074574
 30
0.0
 10
8.7605827213
 20
6.9649308672
 30
0.0
 10
8.7716076664
 20
6.9529953739
 30
0.0
 10
8.7800837012
 20
6.9424392279
 30
0.0
 10
8.7864076644
 20
6.9336650066
 30
0.0
 10
8.7924133766
 20
6.9246910092
 30
0.0
 10
8.7993181995
 20
6.913109893
 30
0.0
 10
8.8053893605
 20
6.9010901842
 30
0.0
 10
8.8097201637
 20
6.8912593713
 30
0.0
 10
8.8136878054
 20
6.8813165175
 30
0.0
 10
8.8179716333
 20
6.8686713205
 30
0.0
 10
8.8220036273
 20
6.8532206525
 30
0.0
 10
8.8249007969
 20
6.8375903078
 30
0.0
 10
8.8266467619
 20
6.8218677792
 30
0.0
 10
8.8270378495
 20
6.8113524976
 30
0.0
 10
8.8270378495
 20
6.8061101941
 30
0.0
  0
SPLINE
  5
2FD
100
AcDbEntity
  8
0
100
AcDbSpline
 62
7
  6
CONTINUOUS
 70
0
 71
3
 72
41
 73
37
 74
0
 42
0.0000001
 43
0.0000001
 44
0.0000000001
 40
0.0
 40
0.0
 40
0.0
 40
0.0
 40
0.0299421756
 40
0.0599087291
 40
0.0899234427
 40
0.12000893
 40
0.1501860972
 40
0.1804736576
 40
0.2108877103
 40
0.2414413945
 40
0.2721446252
 40
0.3030039132
 40
0.3340222692
 40
0.3651991907
 40
0.3965307261
 40
0.4280096099
 40
0.4596254632
 40
0.491365051
 40
0.5232125895
 40
0.5551500944
 40
0.5871577641
 40
0.61921439
 40
0.6512977872
 40
0.6833852384
 40
0.715453946
 40
0.7314766505
 40
0.7474863166
 40
0.7794510815
 40
0.8113327211
 40
0.8272389267
 40
0.8431175145
 40
0.8747789379
 40
0.9063078385
 40
0.9376925801
 40
0.9689252405
 40
1.0
 40
1.0
 40
1.0
 40
1.0
 10
11.5427236326
 20
6.7048556274
 30
0.0
 10
11.5463567724
 20
6.708364942
 30
0.0
 10
11.5539087836
 20
6.7151002966
 30
0.0
 10
11.5660082199
 20
6.724276056
 30
0.0
 10
11.578817287
 20
6.7324785652
 30
0.0
 10
11.5922643995
 20
6.739661826
 30
0.0
 10
11.6062756307
 20
6.7457865911
 30
0.0
 10
11.6207736537
 20
6.7508191938
 30
0.0
 10
11.6356785768
 20
6.7547320986
 30
0.0
 10
11.6509082852
 20
6.7575039428
 30
0.0
 10
11.6663789277
 20
6.7591196697
 30
0.0
 10
11.6820053729
 20
6.7595705929
 30
0.0
 10
11.69770168
 20
6.758854434
 30
0.0
 10
11.7133815679
 20
6.7569753246
 30
0.0
 10
11.7289588855
 20
6.7539437751
 30
0.0
 10
11.7443480791
 20
6.7497766091
 30
0.0
 10
11.7594646566
 20
6.7444968661
 30
0.0
 10
11.7742256444
 20
6.7381336722
 30
0.0
 10
11.7885500377
 20
6.7307220764
 30
0.0
 10
11.8023592358
 20
6.7223028599
 30
0.0
 10
11.8155774764
 20
6.7129223006
 30
0.0
 10
11.8281322145
 20
6.7026319668
 30
0.0
 10
11.8399546333
 20
6.69148826
 30
0.0
 10
11.8509795783
 20
6.6795527666
 30
0.0
 10
11.8594556132
 20
6.6689966207
 30
0.0
 10
11.8657795763
 20
6.6602223994
 30
0.0
 10
11.8717852885
 20
6.651248402
 30
0.0
 10
11.8786901115
 20
6.6396672857
 30
0.0
 10
11.8847612725
 20
6.627647577
 30
0.0
 10
11.8890920757
 20
6.617816764
 30
0.0
 10
11.8930597174
 20
6.6078739103
 30
0.0
 10
11.8973435453
 20
6.5952287133
 30
0.0
 10
11.9013755392
 20
6.5797780453
 30
0.0
 10
11.9042727089
 20
6.5641477006
 30
0.0
 10
11.9060186738
 20
6.548425172
 30
0.0
 10
11.9064097614
 20
6.5379098904
 30
0.0
 10
11.9064097614
 20
6.5326675869
 30
0.0
  0
SPLINE
  5
2FE
100
AcDbEntity
  8
0
100
AcDbSpline
 62
7
  6
CONTINUOUS
 70
0
 71
3
 72
26
 73
22
 74
0
 42
0.0000001
 43
0.0000001
 44
0.0000000001
 40
0.0
 40
0.0
 40
0.0
 40
0.0
 40
0.0312367325
 40
0.0624241371
 40
0.0935659896
 40
0.1246662461
 40
0.1867491866
 40
0.2487205773
 40
0.2796828003
 40
0.3106329534
 40
0.3725088575
 40
0.4344067554
 40
0.4963756076
 40
0.5584647769
 40
0.6207226293
 40
0.6831949728
 40
0.7459234582
 40
0.8089438804
 40
0.8722850115
 40
0.935966556
 40
1.0
 40
1.0
 40
1.0
 40
1.0
 10
10.6890266352
 20
7.9564709989
 30
0.0
 10
10.6901498801
 20
7.9591649067
 30
0.0
 10
10.6924891969
 20
7.964509604
 30
0.0
 10
10.696276686
 20
7.9723911492
 30
0.0
 10
10.7003373117
 20
7.980121396
 30
0.0
 10
10.7061072337
 20
7.9902062396
 30
0.0
 10
10.7139884274
 20
8.002390651
 30
0.0
 10
10.7227408506
 20
8.0139496004
 30
0.0
 10
10.7302393471
 20
8.0227711977
 30
0.0
 10
10.7380604515
 20
8.0312958705
 30
0.0
 10
10.7484393301
 20
8.0413822668
 30
0.0
 10
10.7617987704
 20
8.0524879581
 30
0.0
 10
10.7760060243
 20
8.0625224422
 30
0.0
 10
10.7909945576
 20
8.0714141198
 30
0.0
 10
10.806690172
 20
8.0790966433
 30
0.0
 10
10.8230103541
 20
8.0855095557
 30
0.0
 10
10.8398648223
 20
8.0905999033
 30
0.0
 10
10.8571559632
 20
8.0943236448
 30
0.0
 10
10.8747803925
 20
8.096646831
 30
0.0
 10
10.8926279724
 20
8.0975470039
 30
0.0
 10
10.9045710819
 20
8.0971921072
 30
0.0
 10
10.9105399102
 20
8.0967781675
 30
0.0
  0
SPLINE
  5
2FF
100
AcDbEntity
  8
0
100
AcDbSpline
 62
7
  6
CONTINUOUS
 70
0
 71
3
 72
11
 73
7
 74
0
 42
0.0000001
 43
0.0000001
 44
0.0000000001
 40
0.0
 40
0.0
 40
0.0
 40
0.0
 40
0.2481240301
 40
0.4974621987
 40
0.7480768209
 40
1.0
 40
1.0
 40
1.0
 40
1.0
 10
10.1757157089
 20
7.3401010334
 30
0.0
 10
10.1814060217
 20
7.3414694873
 30
0.0
 10
10.1929260356
 20
7.3437703134
 30
0.0
 10
10.2104605131
 20
7.3458863113
 30
0.0
 10
10.2281946812
 20
7.3466626742
 30
0.0
 10
10.2400552676
 20
7.3462841211
 30
0.0
 10
10.2459831896
 20
7.3458730184
 30
0.0
  0
SPLINE
  5
300
100
AcDbEntity
  8
0
100
AcDbSpline
 62
7
  6
CONTINUOUS
 70
0
 71
3
 72
41
 73
37
 74
0
 42
0.0000001
 43
0.0000001
 44
0.0000000001
 40
0.0
 40
0.0
 40
0.0
 40
0.0
 40
0.0299421261
 40
0.0449237712
 40
0.0599145221
 40
0.0899291772
 40
0.1200146013
 40
0.1350933596
 40
0.1501974793
 40
0.1804849718
 40
0.2108989568
 40
0.2414525746
 40
0.27215574
 40
0.3030149616
 40
0.3340332486
 40
0.3652100987
 40
0.3965415618
 40
0.4280203745
 40
0.4596361601
 40
0.4913756848
 40
0.5232231637
 40
0.55516061
 40
0.587168221
 40
0.6192247883
 40
0.6513081285
 40
0.6833955259
 40
0.7154641834
 40
0.747491675
 40
0.7794563926
 40
0.8113379819
 40
0.8431177834
 40
0.8747791281
 40
0.9063080575
 40
0.9376925183
 40
0.9689255783
 40
1.0
 40
1.0
 40
1.0
 40
1.0
 10
11.0127307946
 20
6.6993314964
 30
0.0
 10
11.0153187817
 20
6.701831311
 30
0.0
 10
11.019353276
 20
6.7054296002
 30
0.0
 10
11.0250035512
 20
6.7098942444
 30
0.0
 10
11.0308337313
 20
6.7141367611
 30
0.0
 10
11.0384411845
 20
6.7190085309
 30
0.0
 10
11.0464185347
 20
6.7232698977
 30
0.0
 10
11.0529977415
 20
6.726301541
 30
0.0
 10
11.0597129207
 20
6.7290827863
 30
0.0
 10
11.0683281418
 20
6.7320735374
 30
0.0
 10
11.0789451274
 20
6.7348608198
 30
0.0
 10
11.0897937806
 20
6.7368354304
 30
0.0
 10
11.1008139872
 20
6.7379864486
 30
0.0
 10
11.111945206
 20
6.7383077401
 30
0.0
 10
11.1231261889
 20
6.7377976749
 30
0.0
 10
11.1342954826
 20
6.736459203
 30
0.0
 10
11.1453917175
 20
6.7342998115
 30
0.0
 10
11.1563539524
 20
6.731331484
 30
0.0
 10
11.1671220004
 20
6.7275706295
 30
0.0
 10
11.1776367553
 20
6.7230379906
 30
0.0
 10
11.1878405094
 20
6.717758527
 30
0.0
 10
11.1976772737
 20
6.7117612918
 30
0.0
 10
11.2070930782
 20
6.705079261
 30
0.0
 10
11.2160362621
 20
6.6977491494
 30
0.0
 10
11.2244577538
 20
6.6898112123
 30
0.0
 10
11.2323113357
 20
6.6813090264
 30
0.0
 10
11.2395538956
 20
6.6722892533
 30
0.0
 10
11.2461456601
 20
6.6628013873
 30
0.0
 10
11.2520504086
 20
6.6528974865
 30
0.0
 10
11.2572356927
 20
6.642631897
 30
0.0
 10
11.2616729762
 20
6.6320609565
 30
0.0
 10
11.2653378657
 20
6.6212426526
 30
0.0
 10
11.2682100568
 20
6.6102364584
 30
0.0
 10
11.2702738401
 20
6.5991024861
 30
0.0
 10
11.2715175234
 20
6.5879028098
 30
0.0
 10
11.271796128
 20
6.5804124197
 30
0.0
 10
11.271796128
 20
6.5766781919
 30
0.0
  0
SPLINE
  5
301
100
AcDbEntity
  8
0
100
AcDbSpline
 62
7
  6
CONTINUOUS
 70
0
 71
3
 72
41
 73
37
 74
0
 42
0.0000001
 43
0.0000001
 44
0.0000000001
 40
0.0
 40
0.0
 40
0.0
 40
0.0
 40
0.0299421164
 40
0.0449237646
 40
0.0599145102
 40
0.0899291691
 40
0.1200146032
 40
0.1350933642
 40
0.1501974884
 40
0.1804849872
 40
0.2108989754
 40
0.2414525964
 40
0.272155768
 40
0.3030149991
 40
0.334033294
 40
0.365210149
 40
0.3965416159
 40
0.4280204341
 40
0.4596362272
 40
0.4913757563
 40
0.523223232
 40
0.5551606716
 40
0.5871682782
 40
0.6192248469
 40
0.6513081912
 40
0.6833955874
 40
0.7154642357
 40
0.7474917151
 40
0.7794564216
 40
0.8113380129
 40
0.843117809
 40
0.8747791454
 40
0.9063081207
 40
0.9376923739
 40
0.9689258699
 40
1.0
 40
1.0
 40
1.0
 40
1.0
 10
10.1556664187
 20
7.9777070306
 30
0.0
 10
10.1578230757
 20
7.9797901939
 30
0.0
 10
10.1611851878
 20
7.982788708
 30
0.0
 10
10.165893728
 20
7.9865092418
 30
0.0
 10
10.1707522423
 20
7.9900446004
 30
0.0
 10
10.1770917794
 20
7.9941043749
 30
0.0
 10
10.1837395719
 20
7.9976554742
 30
0.0
 10
10.1892222713
 20
8.000181744
 30
0.0
 10
10.1948182364
 20
8.0024994457
 30
0.0
 10
10.2019975962
 20
8.0049916514
 30
0.0
 10
10.2108450701
 20
8.0073143309
 30
0.0
 10
10.2198855973
 20
8.0089597864
 30
0.0
 10
10.2290690809
 20
8.0099189265
 30
0.0
 10
10.2383450727
 20
8.0101866161
 30
0.0
 10
10.24766253
 20
8.0097615109
 30
0.0
 10
10.2569702427
 20
8.0086460764
 30
0.0
 10
10.2662170715
 20
8.0068465532
 30
0.0
 10
10.275352233
 20
8.0043729236
 30
0.0
 10
10.2843255682
 20
8.0012388499
 30
0.0
 10
10.2930878175
 20
7.9974616135
 30
0.0
 10
10.3015909009
 20
7.9930620387
 30
0.0
 10
10.3097881653
 20
7.9880643376
 30
0.0
 10
10.3176346365
 20
7.982495985
 30
0.0
 10
10.3250872609
 20
7.976387569
 30
0.0
 10
10.3321051322
 20
7.9697726219
 30
0.0
 10
10.3386497339
 20
7.9626874613
 30
0.0
 10
10.3446851534
 20
7.9551709865
 30
0.0
 10
10.3501782541
 20
7.9472644462
 30
0.0
 10
10.3550988609
 20
7.9390112222
 30
0.0
 10
10.359419921
 20
7.9304565931
 30
0.0
 10
10.3631176357
 20
7.9216474993
 30
0.0
 10
10.3661716868
 20
7.9126322646
 30
0.0
 10
10.368565139
 20
7.9034604736
 30
0.0
 10
10.3702849783
 20
7.894182168
 30
0.0
 10
10.3713213456
 20
7.8848491352
 30
0.0
 10
10.3715535325
 20
7.8786071491
 30
0.0
 10
10.3715535325
 20
7.8754953312
 30
0.0
  0
SPLINE
  5
302
100
AcDbEntity
  8
0
100
AcDbSpline
 62
7
  6
CONTINUOUS
 70
0
 71
3
 72
21
 73
17
 74
0
 42
0.0000001
 43
0.0000001
 44
0.0000000001
 40
0.0
 40
0.0
 40
0.0
 40
0.0
 40
0.0544269362
 40
0.1090706352
 40
0.1641451988
 40
0.2198591755
 40
0.2764134207
 40
0.3339993848
 40
0.4529295423
 40
0.514640558
 40
0.5780283771
 40
0.6432231334
 40
0.7103429475
 40
0.7794947081
 40
0.850773216
 40
1.0
 40
1.0
 40
1.0
 40
1.0
 10
7.3720651116
 20
10.7765141505
 30
0.0
 10
7.3710469189
 20
10.7765847631
 30
0.0
 10
7.3690012261
 20
10.7766595698
 30
0.0
 10
7.3659223126
 20
10.7765715127
 30
0.0
 10
7.3628313201
 20
10.7762833294
 30
0.0
 10
7.3597293953
 20
10.7757952535
 30
0.0
 10
7.3566172853
 20
10.7751074647
 30
0.0
 10
7.3524111878
 20
10.773911984
 30
0.0
 10
7.3482259684
 20
10.7723193134
 30
0.0
 10
7.3440861519
 20
10.7703662457
 30
0.0
 10
7.3409365753
 20
10.7686854678
 30
0.0
 10
7.3377821227
 20
10.7668075501
 30
0.0
 10
7.33462332
 20
10.7647329747
 30
0.0
 10
7.3314609309
 20
10.7624622554
 30
0.0
 10
7.3271755184
 20
10.7591230251
 30
0.0
 10
7.3240579388
 20
10.7563998041
 30
0.0
 10
7.3220094699
 20
10.7544933323
 30
0.0
  0
SPLINE
  5
303
100
AcDbEntity
  8
0
100
AcDbSpline
 62
7
  6
CONTINUOUS
 70
0
 71
3
 72
21
 73
17
 74
0
 42
0.0000001
 43
0.0000001
 44
0.0000000001
 40
0.0
 40
0.0
 40
0.0
 40
0.0
 40
0.1492271706
 40
0.2205019358
 40
0.2896518956
 40
0.3567720269
 40
0.4219681063
 40
0.4853571873
 40
0.5470688767
 40
0.6659992874
 40
0.7235852768
 40
0.7801397289
 40
0.8358539995
 40
0.8909288577
 40
0.9455728231
 40
1.0
 40
1.0
 40
1.0
 40
1.0
 10
6.3645442586
 20
6.7904581974
 30
0.0
 10
6.366309952
 20
6.7882872007
 30
0.0
 10
6.3690217215
 20
6.7851597375
 30
0.0
 10
6.372805131
 20
6.7812610222
 30
0.0
 10
6.375623745
 20
6.778575595
 30
0.0
 10
6.3784659316
 20
6.7760848429
 30
0.0
 10
6.3813309919
 20
6.7737894184
 30
0.0
 10
6.3842184482
 20
6.7716899235
 30
0.0
 10
6.3880490647
 20
6.7691840694
 30
0.0
 10
6.3919743848
 20
6.7670289148
 30
0.0
 10
6.3959752125
 20
6.7652642944
 30
0.0
 10
6.3989625973
 20
6.7641534957
 30
0.0
 10
6.4019674666
 20
6.7632418985
 30
0.0
 10
6.4049891045
 20
6.7625297969
 30
0.0
 10
6.4080264044
 20
6.7620175833
 30
0.0
 10
6.4100628489
 20
6.7618092885
 30
0.0
 10
6.411081046
 20
6.7617386756
 30
0.0
  0
SPLINE
  5
304
100
AcDbEntity
  8
0
100
AcDbSpline
 62
7
  6
CONTINUOUS
 70
0
 71
3
 72
95
 73
91
 74
0
 42
0.0000001
 43
0.0000001
 44
0.0000000001
 40
0.0
 40
0.0
 40
0.0
 40
0.0
 40
0.0027164103
 40
0.0054531987
 40
0.0082302484
 40
0.0110665293
 40
0.0139797197
 40
0.0169860136
 40
0.0200999648
 40
0.0233344609
 40
0.0267008059
 40
0.0302087387
 40
0.0338666367
 40
0.0376815888
 40
0.0416595369
 40
0.0458054524
 40
0.050123356
 40
0.0546165264
 40
0.0592875197
 40
0.0641382612
 40
0.0691701699
 40
0.0743841144
 40
0.0797805764
 40
0.0853596193
 40
0.0911209377
 40
0.0970639484
 40
0.1031877124
 40
0.1094910723
 40
0.115972599
 40
0.1226306213
 40
0.1294632987
 40
0.1364685337
 40
0.1509872595
 40
0.1661670603
 40
0.1819853977
 40
0.1984175207
 40
0.2154366795
 40
0.2330143008
 40
0.251120164
 40
0.2697225523
 40
0.2887883852
 40
0.30828334
 40
0.3281719616
 40
0.3484177842
 40
0.3689834423
 40
0.3898307735
 40
0.4109209193
 40
0.4322144222
 40
0.453671333
 40
0.47525131
 40
0.4969137161
 40
0.5186177149
 40
0.5403223697
 40
0.561986744
 40
0.5835699983
 40
0.605031486
 40
0.6263308511
 40
0.6474281317
 40
0.6682838583
 40
0.688859151
 40
0.7091158193
 40
0.7290164652
 40
0.7485245974
 40
0.767604735
 40
0.7862225146
 40
0.8043448068
 40
0.8219398427
 40
0.8389773596
 40
0.8554287395
 40
0.8712671672
 40
0.8864678148
 40
0.9010080621
 40
0.908024297
 40
0.9148680962
 40
0.9215373958
 40
0.9280302846
 40
0.934345123
 40
0.9404804512
 40
0.9464350756
 40
0.9522080857
 40
0.9577988185
 40
0.9632069987
 40
0.9684326561
 40
0.9734762169
 40
0.978338544
 40
0.9830209588
 40
0.9875254695
 40
0.9918546622
 40
0.9960116183
 40
1.0
 40
1.0
 40
1.0
 40
1.0
 10
14.1637193814
 20
7.5870481726
 30
0.0
 10
14.1621124324
 20
7.5871596235
 30
0.0
 10
14.1588947106
 20
7.5875288373
 30
0.0
 10
14.154109103
 20
7.5885167864
 30
0.0
 10
14.1493596455
 20
7.5899386475
 30
0.0
 10
14.1446497683
 20
7.5917931754
 30
0.0
 10
14.1399818511
 20
7.5940785789
 30
0.0
 10
14.1353583244
 20
7.596793164
 30
0.0
 10
14.1307813215
 20
7.5999349792
 30
0.0
 10
14.1262528221
 20
7.6035019766
 30
0.0
 10
14.1217748794
 20
7.6074921789
 30
0.0
 10
14.1173493185
 20
7.6119032956
 30
0.0
 10
14.1129781464
 20
7.6167331005
 30
0.0
 10
14.1086632862
 20
7.6219791212
 30
0.0
 10
14.1044066429
 20
7.627638716
 30
0.0
 10
14.1002102795
 20
7.6337091476
 30
0.0
 10
14.0960760591
 20
7.6401873638
 30
0.0
 10
14.0920060279
 20
7.6470702192
 30
0.0
 10
14.0880021312
 20
7.6543543095
 30
0.0
 10
14.0840662748
 20
7.6620360248
 30
0.0
 10
14.0802004802
 20
7.670111598
 30
0.0
 10
14.0764065599
 20
7.6785769906
 30
0.0
 10
14.0726864652
 20
7.6874280202
 30
0.0
 10
14.0690420342
 20
7.6966602747
 30
0.0
 10
14.0654750486
 20
7.7062691444
 30
0.0
 10
14.061987374
 20
7.7162498507
 30
0.0
 10
14.0585806752
 20
7.7265973873
 30
0.0
 10
14.0552567236
 20
7.7373065895
 30
0.0
 10
14.0520171767
 20
7.7483720924
 30
0.0
 10
14.0488636358
 20
7.7597883455
 30
0.0
 10
14.0457977352
 20
7.7715496476
 30
0.0
 10
14.0417808312
 20
7.787878526
 30
0.0
 10
14.0370027271
 20
7.8091152082
 30
0.0
 10
14.0317080855
 20
7.8355842407
 30
0.0
 10
14.0267972113
 20
7.86328009
 30
0.0
 10
14.0222800736
 20
7.8921471362
 30
0.0
 10
14.0181658835
 20
7.9221275572
 30
0.0
 10
14.0144630056
 20
7.9531611836
 30
0.0
 10
14.0111789743
 20
7.9851857104
 30
0.0
 10
14.008320475
 20
8.0181368161
 30
0.0
 10
14.0058933316
 20
8.051948302
 30
0.0
 10
14.0039024962
 20
8.08655222
 30
0.0
 10
14.0023520208
 20
8.1218790104
 30
0.0
 10
14.0012450675
 20
8.1578576485
 30
0.0
 10
14.0005839035
 20
8.1944157947
 30
0.0
 10
14.0003698967
 20
8.2314799402
 30
0.0
 10
14.0006035142
 20
8.2689755509
 30
0.0
 10
14.0012843035
 20
8.3068272184
 30
0.0
 10
14.0024109107
 20
8.344958815
 30
0.0
 10
14.0039810844
 20
8.3832936501
 30
0.0
 10
14.0059916799
 20
8.4217546229
 30
0.0
 10
14.0084386666
 20
8.4602643765
 30
0.0
 10
14.0113171186
 20
8.4987454555
 30
0.0
 10
14.0146212406
 20
8.5371204637
 30
0.0
 10
14.0183443812
 20
8.5753122194
 30
0.0
 10
14.0224790452
 20
8.6132439087
 30
0.0
 10
14.0270169095
 20
8.6508392422
 30
0.0
 10
14.0319488227
 20
8.6880226127
 30
0.0
 10
14.037264839
 20
8.7247192473
 30
0.0
 10
14.0429542392
 20
8.7608553552
 30
0.0
 10
14.0490055509
 20
8.7963582743
 30
0.0
 10
14.0554065736
 20
8.8311566228
 30
0.0
 10
14.0621443835
 20
8.8651804509
 30
0.0
 10
14.0692053774
 20
8.8983613803
 30
0.0
 10
14.0765752993
 20
8.9306327373
 30
0.0
 10
14.0842392676
 20
8.9619296886
 30
0.0
 10
14.0921818087
 20
8.9921893801
 30
0.0
 10
14.1003868676
 20
9.0213510833
 30
0.0
 10
14.1088378598
 20
9.0493562979
 30
0.0
 10
14.1175177064
 20
9.0761489435
 30
0.0
 10
14.1264088666
 20
9.1016752164
 30
0.0
 10
14.1340675064
 20
9.1220847835
 30
0.0
 10
14.1402960322
 20
9.1377322829
 30
0.0
 10
14.1449535145
 20
9.1489802879
 30
0.0
 10
14.1496502472
 20
9.1598748247
 30
0.0
 10
14.1543839678
 20
9.1704104218
 30
0.0
 10
14.1591522169
 20
9.1805818204
 30
0.0
 10
14.1639526461
 20
9.1903839177
 30
0.0
 10
14.1687828467
 20
9.1998118075
 30
0.0
 10
14.1736403457
 20
9.2088607969
 30
0.0
 10
14.1785227937
 20
9.2175263394
 30
0.0
 10
14.1834276761
 20
9.2258041527
 30
0.0
 10
14.1883526026
 20
9.233690097
 30
0.0
 10
14.1932951173
 20
9.2411802382
 30
0.0
 10
14.1982526959
 20
9.2482708791
 30
0.0
 10
14.203223006
 20
9.2549584858
 30
0.0
 10
14.2082035974
 20
9.2612398516
 30
0.0
 10
14.2131921798
 20
9.2671118806
 30
0.0
 10
14.2181860358
 20
9.2725713851
 30
0.0
 10
14.2215863631
 20
9.2760041474
 30
0.0
 10
14.2232874562
 20
9.2776472773
 30
0.0
  0
SPLINE
  5
305
100
AcDbEntity
  8
0
100
AcDbSpline
 62
7
  6
CONTINUOUS
 70
0
 71
3
 72
35
 73
31
 74
0
 42
0.0000001
 43
0.0000001
 44
0.0000000001
 40
0.0
 40
0.0
 40
0.0
 40
0.0
 40
0.0162142982
 40
0.0334273567
 40
0.0516716566
 40
0.0709707697
 40
0.0913402133
 40
0.1127893072
 40
0.1353215159
 40
0.1589358589
 40
0.1836269519
 40
0.2093860824
 40
0.2362011118
 40
0.2640572896
 40
0.2929371234
 40
0.3228209777
 40
0.3536869764
 40
0.385511416
 40
0.4182687365
 40
0.4519317734
 40
0.4864718131
 40
0.5218587016
 40
0.5580609861
 40
0.5950459189
 40
0.6327796692
 40
0.6712271923
 40
0.750117733
 40
0.8314199733
 40
0.9148215789
 40
1.0
 40
1.0
 40
1.0
 40
1.0
 10
14.564112358
 20
10.1941422066
 30
0.0
 10
14.5658245265
 20
10.1920370091
 30
0.0
 10
14.5692102381
 20
10.1875783748
 30
0.0
 10
14.5740385694
 20
10.180399626
 30
0.0
 10
14.5787608488
 20
10.1725420423
 30
0.0
 10
14.5833720389
 20
10.1640138618
 30
0.0
 10
14.58786786
 20
10.1548236818
 30
0.0
 10
14.5922435722
 20
10.1449808593
 30
0.0
 10
14.5964948534
 20
10.134495538
 30
0.0
 10
14.6006171463
 20
10.1233785132
 30
0.0
 10
14.6046062767
 20
10.1116413388
 30
0.0
 10
14.6084579372
 20
10.0992962109
 30
0.0
 10
14.6121681721
 20
10.0863560242
 30
0.0
 10
14.6157329732
 20
10.0728343017
 30
0.0
 10
14.6191486437
 20
10.0587452111
 30
0.0
 10
14.6224115055
 20
10.044103526
 30
0.0
 10
14.6255181473
 20
10.0289246179
 30
0.0
 10
14.6284652422
 20
10.013224435
 30
0.0
 10
14.6312496853
 20
9.9970194815
 30
0.0
 10
14.6338685152
 20
9.9803268031
 30
0.0
 10
14.6363189508
 20
9.9631639634
 30
0.0
 10
14.6385984068
 20
9.9455490281
 30
0.0
 10
14.6407044427
 20
9.927500542
 30
0.0
 10
14.6426348526
 20
9.9090375123
 30
0.0
 10
14.6443875682
 20
9.8901793689
 30
0.0
 10
14.6465032079
 20
9.8643131617
 30
0.0
 10
14.6486788317
 20
9.8311382431
 30
0.0
 10
14.6505344353
 20
9.7904111046
 30
0.0
 10
14.6516485386
 20
9.7486044484
 30
0.0
 10
14.6518914506
 20
9.7203909473
 30
0.0
 10
14.6518914506
 20
9.7061358574
 30
0.0
  0
SPLINE
  5
306
100
AcDbEntity
  8
0
100
AcDbSpline
 62
7
  6
CONTINUOUS
 70
0
 71
3
 72
21
 73
17
 74
0
 42
0.0000001
 43
0.0000001
 44
0.0000000001
 40
0.0
 40
0.0
 40
0.0
 40
0.0
 40
0.149226784
 40
0.2205052919
 40
0.2896570525
 40
0.3567768666
 40
0.4219716229
 40
0.485359442
 40
0.5470704577
 40
0.6660006152
 40
0.7235865793
 40
0.7801408245
 40
0.8358548012
 40
0.8909293648
 40
0.9455730638
 40
1.0
 40
1.0
 40
1.0
 40
1.0
 10
13.5548963137
 20
6.2937374447
 30
0.0
 10
13.5528478447
 20
6.2918309728
 30
0.0
 10
13.5497302652
 20
6.2891077518
 30
0.0
 10
13.5454448527
 20
6.2857685215
 30
0.0
 10
13.5422824635
 20
6.2834978022
 30
0.0
 10
13.5391236608
 20
6.2814232268
 30
0.0
 10
13.5359692082
 20
6.2795453092
 30
0.0
 10
13.5328196316
 20
6.2778645313
 30
0.0
 10
13.5286798151
 20
6.2759114635
 30
0.0
 10
13.5244945957
 20
6.274318793
 30
0.0
 10
13.5202884982
 20
6.2731233122
 30
0.0
 10
13.5171763883
 20
6.2724355234
 30
0.0
 10
13.5140744634
 20
6.2719474476
 30
0.0
 10
13.5109834709
 20
6.2716592642
 30
0.0
 10
13.5079045574
 20
6.2715712071
 30
0.0
 10
13.5058588646
 20
6.2716460139
 30
0.0
 10
13.504840672
 20
6.2717166265
 30
0.0
  0
SPLINE
  5
307
100
AcDbEntity
  8
0
100
AcDbSpline
 62
7
  6
CONTINUOUS
 70
0
 71
3
 72
21
 73
17
 74
0
 42
0.0000001
 43
0.0000001
 44
0.0000000001
 40
0.0
 40
0.0
 40
0.0
 40
0.0
 40
0.0544271769
 40
0.1090711423
 40
0.1641460005
 40
0.2198602711
 40
0.2764147232
 40
0.3340007126
 40
0.4529311233
 40
0.5146428127
 40
0.5780318937
 40
0.6432279731
 40
0.7103481044
 40
0.7794980642
 40
0.8507728294
 40
1.0
 40
1.0
 40
1.0
 40
1.0
 10
14.4658247375
 20
10.2864921013
 30
0.0
 10
14.4668429346
 20
10.2864214884
 30
0.0
 10
14.4688793792
 20
10.2862131937
 30
0.0
 10
14.4719166791
 20
10.2857009801
 30
0.0
 10
14.474938317
 20
10.2849888784
 30
0.0
 10
14.4779431863
 20
10.2840772812
 30
0.0
 10
14.480930571
 20
10.2829664826
 30
0.0
 10
14.4849313988
 20
10.2812018622
 30
0.0
 10
14.4888567188
 20
10.2790467075
 30
0.0
 10
14.4926873353
 20
10.2765408535
 30
0.0
 10
14.4955747917
 20
10.2744413585
 30
0.0
 10
14.498439852
 20
10.272145934
 30
0.0
 10
14.5012820386
 20
10.2696551819
 30
0.0
 10
14.5041006525
 20
10.2669697548
 30
0.0
 10
14.507884062
 20
10.2630710394
 30
0.0
 10
14.5105958315
 20
10.2599435762
 30
0.0
 10
14.512361525
 20
10.2577725795
 30
0.0
  0
SPLINE
  5
308
100
AcDbEntity
  8
0
100
AcDbSpline
 62
7
  6
CONTINUOUS
 70
0
 71
3
 72
35
 73
31
 74
0
 42
0.0000001
 43
0.0000001
 44
0.0000000001
 40
0.0
 40
0.0
 40
0.0
 40
0.0
 40
0.0851784852
 40
0.1685799203
 40
0.2498821825
 40
0.328772681
 40
0.3672202273
 40
0.4049539356
 40
0.4419388896
 40
0.4781411363
 40
0.5135280525
 40
0.5480680559
 40
0.5817311163
 40
0.6144884129
 40
0.6463128652
 40
0.677178859
 40
0.7070627097
 40
0.7359425626
 40
0.7637987178
 40
0.7906137917
 40
0.8163728811
 40
0.8410640414
 40
0.8646783289
 40
0.8872106208
 40
0.9086596528
 40
0.9290291842
 40
0.9483282399
 40
0.9665726208
 40
0.9837856364
 40
1.0
 40
1.0
 40
1.0
 40
1.0
 10
6.2688549702
 20
7.3224417258
 30
0.0
 10
6.2688549702
 20
7.3069020139
 30
0.0
 10
6.2691197701
 20
7.2761460469
 30
0.0
 10
6.2703342774
 20
7.2305719617
 30
0.0
 10
6.2723570903
 20
7.1861746944
 30
0.0
 10
6.2747287865
 20
7.1500101887
 30
0.0
 10
6.2770350497
 20
7.1218130334
 30
0.0
 10
6.2789457373
 20
7.1012554733
 30
0.0
 10
6.2810500762
 20
7.0811286384
 30
0.0
 10
6.2833459273
 20
7.0614536978
 30
0.0
 10
6.2858307654
 20
7.0422513809
 30
0.0
 10
6.2885020501
 20
7.0235418973
 30
0.0
 10
6.29135685
 20
7.0053449454
 30
0.0
 10
6.2943922328
 20
6.9876796686
 30
0.0
 10
6.297604891
 20
6.9705646493
 30
0.0
 10
6.3009914929
 20
6.9540178798
 30
0.0
 10
6.3045483904
 20
6.9380567442
 30
0.0
 10
6.3082718498
 20
6.9226979993
 30
0.0
 10
6.3121579167
 20
6.9079577525
 30
0.0
 10
6.3162024634
 20
6.8938514411
 30
0.0
 10
6.3204012621
 20
6.880393821
 30
0.0
 10
6.3247498151
 20
6.8675989247
 30
0.0
 10
6.329243655
 20
6.8554800845
 30
0.0
 10
6.3338779644
 20
6.8440498427
 30
0.0
 10
6.3386480753
 20
6.8333200388
 30
0.0
 10
6.3435489514
 20
6.823301639
 30
0.0
 10
6.3485757653
 20
6.8140049561
 30
0.0
 10
6.3537235072
 20
6.8054392282
 30
0.0
 10
6.3589870281
 20
6.797613592
 30
0.0
 10
6.3626777825
 20
6.7927531107
 30
0.0
 10
6.3645442586
 20
6.7904581974
 30
0.0
  0
SPLINE
  5
309
100
AcDbEntity
  8
0
100
AcDbSpline
 62
7
  6
CONTINUOUS
 70
0
 71
3
 72
41
 73
37
 74
0
 42
0.0000001
 43
0.0000001
 44
0.0000000001
 40
0.0
 40
0.0
 40
0.0
 40
0.0
 40
0.0299421756
 40
0.0599087291
 40
0.0899234427
 40
0.12000893
 40
0.1501860972
 40
0.1804736576
 40
0.2108877103
 40
0.2414413945
 40
0.2721446252
 40
0.3030039132
 40
0.3340222692
 40
0.3651991907
 40
0.3965307261
 40
0.4280096099
 40
0.4596254632
 40
0.491365051
 40
0.5232125895
 40
0.5551500944
 40
0.5871577641
 40
0.61921439
 40
0.6512977872
 40
0.6833852384
 40
0.715453946
 40
0.7314766505
 40
0.7474863166
 40
0.7794510815
 40
0.8113327211
 40
0.8272389267
 40
0.8431175145
 40
0.8747789379
 40
0.9063078385
 40
0.9376925801
 40
0.9689252405
 40
1.0
 40
1.0
 40
1.0
 40
1.0
 10
8.7676484414
 20
9.0181898108
 30
0.0
 10
8.7640153015
 20
9.0146804962
 30
0.0
 10
8.7564632904
 20
9.0079451415
 30
0.0
 10
8.7443638541
 20
8.9987693822
 30
0.0
 10
8.7315547869
 20
8.990566873
 30
0.0
 10
8.7181076744
 20
8.9833836121
 30
0.0
 10
8.7040964432
 20
8.9772588471
 30
0.0
 10
8.6895984202
 20
8.9722262444
 30
0.0
 10
8.6746934971
 20
8.9683133396
 30
0.0
 10
8.6594637887
 20
8.9655414954
 30
0.0
 10
8.6439931463
 20
8.9639257684
 30
0.0
 10
8.6283667011
 20
8.9634748453
 30
0.0
 10
8.612670394
 20
8.9641910042
 30
0.0
 10
8.5969905061
 20
8.9660701136
 30
0.0
 10
8.5814131885
 20
8.9691016631
 30
0.0
 10
8.5660239948
 20
8.973268829
 30
0.0
 10
8.5509074174
 20
8.9785485721
 30
0.0
 10
8.5361464295
 20
8.984911766
 30
0.0
 10
8.5218220362
 20
8.9923233618
 30
0.0
 10
8.5080128381
 20
9.0007425783
 30
0.0
 10
8.4947945976
 20
9.0101231375
 30
0.0
 10
8.4822398594
 20
9.0204134714
 30
0.0
 10
8.4704174407
 20
9.0315571782
 30
0.0
 10
8.4593924956
 20
9.0434926715
 30
0.0
 10
8.4509164608
 20
9.0540488175
 30
0.0
 10
8.4445924976
 20
9.0628230388
 30
0.0
 10
8.4385867854
 20
9.0717970362
 30
0.0
 10
8.4316819625
 20
9.0833781524
 30
0.0
 10
8.4256108014
 20
9.0953978612
 30
0.0
 10
8.4212799983
 20
9.1052286741
 30
0.0
 10
8.4173123566
 20
9.1151715279
 30
0.0
 10
8.4130285287
 20
9.1278167249
 30
0.0
 10
8.4089965347
 20
9.1432673929
 30
0.0
 10
8.4060993651
 20
9.1588977376
 30
0.0
 10
8.4043534001
 20
9.1746202662
 30
0.0
 10
8.4039623125
 20
9.1851355478
 30
0.0
 10
8.4039623125
 20
9.1903778513
 30
0.0
  0
SPLINE
  5
30A
100
AcDbEntity
  8
0
100
AcDbSpline
 62
7
  6
CONTINUOUS
 70
0
 71
3
 72
41
 73
37
 74
0
 42
0.0000001
 43
0.0000001
 44
0.0000000001
 40
0.0
 40
0.0
 40
0.0
 40
0.0
 40
0.0299421756
 40
0.0599087291
 40
0.0899234427
 40
0.12000893
 40
0.1501860972
 40
0.1804736576
 40
0.2108877103
 40
0.2414413945
 40
0.2721446252
 40
0.3030039132
 40
0.3340222692
 40
0.3651991907
 40
0.3965307261
 40
0.4280096099
 40
0.4596254632
 40
0.491365051
 40
0.5232125895
 40
0.5551500944
 40
0.5871577641
 40
0.61921439
 40
0.6512977872
 40
0.6833852384
 40
0.715453946
 40
0.7314766505
 40
0.7474863166
 40
0.7794510815
 40
0.8113327211
 40
0.8272389267
 40
0.8431175145
 40
0.8747789379
 40
0.9063078385
 40
0.9376925801
 40
0.9689252405
 40
1.0
 40
1.0
 40
1.0
 40
1.0
 10
11.8470203533
 20
8.8645220256
 30
0.0
 10
11.8433872135
 20
8.861012711
 30
0.0
 10
11.8358352023
 20
8.8542773563
 30
0.0
 10
11.823735766
 20
8.845101597
 30
0.0
 10
11.8109266989
 20
8.8368990878
 30
0.0
 10
11.7974795864
 20
8.8297158269
 30
0.0
 10
11.7834683552
 20
8.8235910619
 30
0.0
 10
11.7689703322
 20
8.8185584592
 30
0.0
 10
11.7540654091
 20
8.8146455544
 30
0.0
 10
11.7388357006
 20
8.8118737102
 30
0.0
 10
11.7233650582
 20
8.8102579832
 30
0.0
 10
11.707738613
 20
8.8098070601
 30
0.0
 10
11.6920423059
 20
8.810523219
 30
0.0
 10
11.676362418
 20
8.8124023283
 30
0.0
 10
11.6607851004
 20
8.8154338778
 30
0.0
 10
11.6453959068
 20
8.8196010438
 30
0.0
 10
11.6302793293
 20
8.8248807869
 30
0.0
 10
11.6155183415
 20
8.8312439808
 30
0.0
 10
11.6011939482
 20
8.8386555766
 30
0.0
 10
11.5873847501
 20
8.847074793
 30
0.0
 10
11.5741665095
 20
8.8564553523
 30
0.0
 10
11.5616117714
 20
8.8667456862
 30
0.0
 10
11.5497893526
 20
8.877889393
 30
0.0
 10
11.5387644075
 20
8.8898248863
 30
0.0
 10
11.5302883727
 20
8.9003810323
 30
0.0
 10
11.5239644096
 20
8.9091552535
 30
0.0
 10
11.5179586974
 20
8.918129251
 30
0.0
 10
11.5110538744
 20
8.9297103672
 30
0.0
 10
11.5049827134
 20
8.941730076
 30
0.0
 10
11.5006519102
 20
8.9515608889
 30
0.0
 10
11.4966842685
 20
8.9615037427
 30
0.0
 10
11.4924004406
 20
8.9741489397
 30
0.0
 10
11.4883684467
 20
8.9895996077
 30
0.0
 10
11.485471277
 20
9.0052299524
 30
0.0
 10
11.4837253121
 20
9.020952481
 30
0.0
 10
11.4833342245
 20
9.0314677626
 30
0.0
 10
11.4833342245
 20
9.0367100661
 30
0.0
  0
SPLINE
  5
30B
100
AcDbEntity
  8
0
100
AcDbSpline
 62
7
  6
CONTINUOUS
 70
0
 71
3
 72
41
 73
37
 74
0
 42
0.0000001
 43
0.0000001
 44
0.0000000001
 40
0.0
 40
0.0
 40
0.0
 40
0.0
 40
0.0299421756
 40
0.0599087291
 40
0.0899234427
 40
0.12000893
 40
0.1501860972
 40
0.1804736576
 40
0.2108877103
 40
0.2414413945
 40
0.2721446252
 40
0.3030039132
 40
0.3340222692
 40
0.3651991907
 40
0.3965307261
 40
0.4280096099
 40
0.4596254632
 40
0.491365051
 40
0.5232125895
 40
0.5551500944
 40
0.5871577641
 40
0.61921439
 40
0.6512977872
 40
0.6833852384
 40
0.715453946
 40
0.7314766505
 40
0.7474863166
 40
0.7794510815
 40
0.8113327211
 40
0.8272389267
 40
0.8431175145
 40
0.8747789379
 40
0.9063078385
 40
0.9376925801
 40
0.9689252405
 40
1.0
 40
1.0
 40
1.0
 40
1.0
 10
8.7676484414
 20
6.6632625418
 30
0.0
 10
8.7640153015
 20
6.6597532272
 30
0.0
 10
8.7564632904
 20
6.6530178725
 30
0.0
 10
8.7443638541
 20
6.6438421132
 30
0.0
 10
8.7315547869
 20
6.635639604
 30
0.0
 10
8.7181076744
 20
6.6284563431
 30
0.0
 10
8.7040964432
 20
6.6223315781
 30
0.0
 10
8.6895984202
 20
6.6172989754
 30
0.0
 10
8.6746934971
 20
6.6133860706
 30
0.0
 10
8.6594637887
 20
6.6106142264
 30
0.0
 10
8.6439931463
 20
6.6089984994
 30
0.0
 10
8.6283667011
 20
6.6085475763
 30
0.0
 10
8.612670394
 20
6.6092637352
 30
0.0
 10
8.5969905061
 20
6.6111428445
 30
0.0
 10
8.5814131885
 20
6.614174394
 30
0.0
 10
8.5660239948
 20
6.61834156
 30
0.0
 10
8.5509074174
 20
6.6236213031
 30
0.0
 10
8.5361464295
 20
6.629984497
 30
0.0
 10
8.5218220362
 20
6.6373960928
 30
0.0
 10
8.5080128381
 20
6.6458153092
 30
0.0
 10
8.4947945976
 20
6.6551958685
 30
0.0
 10
8.4822398594
 20
6.6654862023
 30
0.0
 10
8.4704174407
 20
6.6766299092
 30
0.0
 10
8.4593924956
 20
6.6885654025
 30
0.0
 10
8.4509164608
 20
6.6991215485
 30
0.0
 10
8.4445924976
 20
6.7078957697
 30
0.0
 10
8.4385867854
 20
6.7168697672
 30
0.0
 10
8.4316819625
 20
6.7284508834
 30
0.0
 10
8.4256108014
 20
6.7404705922
 30
0.0
 10
8.4212799983
 20
6.7503014051
 30
0.0
 10
8.4173123566
 20
6.7602442589
 30
0.0
 10
8.4130285287
 20
6.7728894558
 30
0.0
 10
8.4089965347
 20
6.7883401239
 30
0.0
 10
8.4060993651
 20
6.8039704686
 30
0.0
 10
8.4043534001
 20
6.8196929972
 30
0.0
 10
8.4039623125
 20
6.8302082788
 30
0.0
 10
8.4039623125
 20
6.8354505823
 30
0.0
  0
SPLINE
  5
30C
100
AcDbEntity
  8
0
100
AcDbSpline
 62
7
  6
CONTINUOUS
 70
0
 71
3
 72
41
 73
37
 74
0
 42
0.0000001
 43
0.0000001
 44
0.0000000001
 40
0.0
 40
0.0
 40
0.0
 40
0.0
 40
0.0299421756
 40
0.0599087291
 40
0.0899234427
 40
0.12000893
 40
0.1501860972
 40
0.1804736576
 40
0.2108877103
 40
0.2414413945
 40
0.2721446252
 40
0.3030039132
 40
0.3340222692
 40
0.3651991907
 40
0.3965307261
 40
0.4280096099
 40
0.4596254632
 40
0.491365051
 40
0.5232125895
 40
0.5551500944
 40
0.5871577641
 40
0.61921439
 40
0.6512977872
 40
0.6833852384
 40
0.715453946
 40
0.7314766505
 40
0.7474863166
 40
0.7794510815
 40
0.8113327211
 40
0.8272389267
 40
0.8431175145
 40
0.8747789379
 40
0.9063078385
 40
0.9376925801
 40
0.9689252405
 40
1.0
 40
1.0
 40
1.0
 40
1.0
 10
11.8470203533
 20
6.3898199346
 30
0.0
 10
11.8433872135
 20
6.38631062
 30
0.0
 10
11.8358352023
 20
6.3795752653
 30
0.0
 10
11.823735766
 20
6.370399506
 30
0.0
 10
11.8109266989
 20
6.3621969968
 30
0.0
 10
11.7974795864
 20
6.3550137359
 30
0.0
 10
11.7834683552
 20
6.3488889709
 30
0.0
 10
11.7689703322
 20
6.3438563682
 30
0.0
 10
11.7540654091
 20
6.3399434633
 30
0.0
 10
11.7388357006
 20
6.3371716192
 30
0.0
 10
11.7233650582
 20
6.3355558922
 30
0.0
 10
11.707738613
 20
6.3351049691
 30
0.0
 10
11.6920423059
 20
6.335821128
 30
0.0
 10
11.676362418
 20
6.3377002373
 30
0.0
 10
11.6607851004
 20
6.3407317868
 30
0.0
 10
11.6453959068
 20
6.3448989528
 30
0.0
 10
11.6302793293
 20
6.3501786959
 30
0.0
 10
11.6155183415
 20
6.3565418898
 30
0.0
 10
11.6011939482
 20
6.3639534856
 30
0.0
 10
11.5873847501
 20
6.372372702
 30
0.0
 10
11.5741665095
 20
6.3817532613
 30
0.0
 10
11.5616117714
 20
6.3920435951
 30
0.0
 10
11.5497893526
 20
6.403187302
 30
0.0
 10
11.5387644075
 20
6.4151227953
 30
0.0
 10
11.5302883727
 20
6.4256789413
 30
0.0
 10
11.5239644096
 20
6.4344531625
 30
0.0
 10
11.5179586974
 20
6.44342716
 30
0.0
 10
11.5110538744
 20
6.4550082762
 30
0.0
 10
11.5049827134
 20
6.467027985
 30
0.0
 10
11.5006519102
 20
6.4768587979
 30
0.0
 10
11.4966842685
 20
6.4868016517
 30
0.0
 10
11.4924004406
 20
6.4994468486
 30
0.0
 10
11.4883684467
 20
6.5148975166
 30
0.0
 10
11.485471277
 20
6.5305278614
 30
0.0
 10
11.4837253121
 20
6.54625039
 30
0.0
 10
11.4833342245
 20
6.5567656716
 30
0.0
 10
11.4833342245
 20
6.5620079751
 30
0.0
  0
SPLINE
  5
30D
100
AcDbEntity
  8
0
100
AcDbSpline
 62
7
  6
CONTINUOUS
 70
0
 71
3
 72
26
 73
22
 74
0
 42
0.0000001
 43
0.0000001
 44
0.0000000001
 40
0.0
 40
0.0
 40
0.0
 40
0.0
 40
0.0312367324
 40
0.0624241369
 40
0.0935659893
 40
0.1246662458
 40
0.186749186
 40
0.2487205766
 40
0.2796827995
 40
0.3106329525
 40
0.3725088564
 40
0.4344067543
 40
0.4963756064
 40
0.5584647757
 40
0.620722628
 40
0.6831949716
 40
0.7459234572
 40
0.8089438796
 40
0.8722850109
 40
0.9359665559
 40
1.0
 40
1.0
 40
1.0
 40
1.0
 10
11.1320531852
 20
7.719761999
 30
0.0
 10
11.1309299402
 20
7.7170680909
 30
0.0
 10
11.1285906232
 20
7.7117233931
 30
0.0
 10
11.1248031337
 20
7.7038418471
 30
0.0
 10
11.1207425075
 20
7.6961115996
 30
0.0
 10
11.1149725849
 20
7.686026755
 30
0.0
 10
11.1070913901
 20
7.6738423427
 30
0.0
 10
11.0983389658
 20
7.6622833923
 30
0.0
 10
11.0908404683
 20
7.6534617945
 30
0.0
 10
11.0830193628
 20
7.644937121
 30
0.0
 10
11.0726404828
 20
7.6348507242
 30
0.0
 10
11.0592810406
 20
7.6237450325
 30
0.0
 10
11.0450737847
 20
7.6137105482
 30
0.0
 10
11.0300852493
 20
7.6048188707
 30
0.0
 10
11.0143896327
 20
7.5971363476
 30
0.0
 10
10.9980694484
 20
7.5907234359
 30
0.0
 10
10.981214978
 20
7.5856330893
 30
0.0
 10
10.9639238349
 20
7.5819093492
 30
0.0
 10
10.9462994035
 20
7.5795861646
 30
0.0
 10
10.9284518217
 20
7.5786859938
 30
0.0
 10
10.916508711
 20
7.5790408915
 30
0.0
 10
10.9105398821
 20
7.5794548312
 30
0.0
  0
SPLINE
  5
30E
100
AcDbEntity
  8
0
100
AcDbSpline
 62
7
  6
CONTINUOUS
 70
0
 71
3
 72
11
 73
7
 74
0
 42
0.0000001
 43
0.0000001
 44
0.0000000001
 40
0.0
 40
0.0
 40
0.0
 40
0.0
 40
0.2481240305
 40
0.4974621992
 40
0.748076821
 40
1.0
 40
1.0
 40
1.0
 40
1.0
 10
10.3162506265
 20
6.8596425929
 30
0.0
 10
10.3105603154
 20
6.8582741394
 30
0.0
 10
10.2990403051
 20
6.8559733138
 30
0.0
 10
10.2815058331
 20
6.853857316
 30
0.0
 10
10.2637716706
 20
6.8530809522
 30
0.0
 10
10.2519110878
 20
6.8534595046
 30
0.0
 10
10.2459831677
 20
6.8538706072
 30
0.0
  0
SPLINE
  5
30F
100
AcDbEntity
  8
0
100
AcDbSpline
 62
7
  6
CONTINUOUS
 70
0
 71
3
 72
41
 73
37
 74
0
 42
0.0000001
 43
0.0000001
 44
0.0000000001
 40
0.0
 40
0.0
 40
0.0
 40
0.0
 40
0.0299421261
 40
0.0449237712
 40
0.0599145221
 40
0.0899291772
 40
0.1200146013
 40
0.1350933596
 40
0.1501974793
 40
0.1804849718
 40
0.2108989568
 40
0.2414525746
 40
0.27215574
 40
0.3030149616
 40
0.3340332486
 40
0.3652100987
 40
0.3965415618
 40
0.4280203745
 40
0.4596361601
 40
0.4913756848
 40
0.5232231637
 40
0.55516061
 40
0.587168221
 40
0.6192247883
 40
0.6513081285
 40
0.6833955259
 40
0.7154641834
 40
0.747491675
 40
0.7794563926
 40
0.8113379819
 40
0.8431177834
 40
0.8747791281
 40
0.9063080575
 40
0.9376925183
 40
0.9689255783
 40
1.0
 40
1.0
 40
1.0
 40
1.0
 10
11.2294925858
 20
6.4749248899
 30
0.0
 10
11.2269045987
 20
6.4724250753
 30
0.0
 10
11.2228701044
 20
6.4688267861
 30
0.0
 10
11.2172198292
 20
6.4643621419
 30
0.0
 10
11.2113896491
 20
6.4601196252
 30
0.0
 10
11.2037821959
 20
6.4552478553
 30
0.0
 10
11.1958048457
 20
6.4509864886
 30
0.0
 10
11.1892256389
 20
6.4479548452
 30
0.0
 10
11.1825104597
 20
6.4451736
 30
0.0
 10
11.1738952386
 20
6.4421828488
 30
0.0
 10
11.163278253
 20
6.4393955664
 30
0.0
 10
11.1524295998
 20
6.4374209558
 30
0.0
 10
11.1414093932
 20
6.4362699377
 30
0.0
 10
11.1302781744
 20
6.4359486461
 30
0.0
 10
11.1190971915
 20
6.4364587113
 30
0.0
 10
11.1079278978
 20
6.4377971833
 30
0.0
 10
11.0968316629
 20
6.4399565748
 30
0.0
 10
11.085869428
 20
6.4429249022
 30
0.0
 10
11.07510138
 20
6.4466857567
 30
0.0
 10
11.0645866251
 20
6.4512183956
 30
0.0
 10
11.054382871
 20
6.4564978593
 30
0.0
 10
11.0445461067
 20
6.4624950944
 30
0.0
 10
11.0351303022
 20
6.4691771253
 30
0.0
 10
11.0261871183
 20
6.4765072369
 30
0.0
 10
11.0177656266
 20
6.4844451739
 30
0.0
 10
11.0099120447
 20
6.4929473599
 30
0.0
 10
11.0026694848
 20
6.5019671329
 30
0.0
 10
10.9960777203
 20
6.511454999
 30
0.0
 10
10.9901729718
 20
6.5213588998
 30
0.0
 10
10.9849876877
 20
6.5316244893
 30
0.0
 10
10.9805504042
 20
6.5421954297
 30
0.0
 10
10.9768855147
 20
6.5530137336
 30
0.0
 10
10.9740133236
 20
6.5640199278
 30
0.0
 10
10.9719495403
 20
6.5751539002
 30
0.0
 10
10.970705857
 20
6.5863535765
 30
0.0
 10
10.9704272524
 20
6.5938439666
 30
0.0
 10
10.9704272524
 20
6.5975781944
 30
0.0
  0
SPLINE
  5
310
100
AcDbEntity
  8
0
100
AcDbSpline
 62
7
  6
CONTINUOUS
 70
0
 71
3
 72
41
 73
37
 74
0
 42
0.0000001
 43
0.0000001
 44
0.0000000001
 40
0.0
 40
0.0
 40
0.0
 40
0.0
 40
0.0299421164
 40
0.0449237646
 40
0.0599145102
 40
0.0899291691
 40
0.1200146032
 40
0.1350933642
 40
0.1501974884
 40
0.1804849872
 40
0.2108989754
 40
0.2414525964
 40
0.272155768
 40
0.3030149991
 40
0.334033294
 40
0.365210149
 40
0.3965416159
 40
0.4280204341
 40
0.4596362272
 40
0.4913757563
 40
0.523223232
 40
0.5551606716
 40
0.5871682782
 40
0.6192248469
 40
0.6513081912
 40
0.6833955874
 40
0.7154642357
 40
0.7474917151
 40
0.7794564216
 40
0.8113380129
 40
0.843117809
 40
0.8747791454
 40
0.9063081207
 40
0.9376923739
 40
0.9689258699
 40
1.0
 40
1.0
 40
1.0
 40
1.0
 10
10.3362999167
 20
7.7907003006
 30
0.0
 10
10.3341432597
 20
7.7886171373
 30
0.0
 10
10.3307811476
 20
7.7856186231
 30
0.0
 10
10.3260726073
 20
7.7818980893
 30
0.0
 10
10.321214093
 20
7.7783627307
 30
0.0
 10
10.314874556
 20
7.7743029562
 30
0.0
 10
10.3082267634
 20
7.7707518569
 30
0.0
 10
10.302744064
 20
7.7682255871
 30
0.0
 10
10.2971480989
 20
7.7659078855
 30
0.0
 10
10.2899687391
 20
7.7634156798
 30
0.0
 10
10.2811212652
 20
7.7610930003
 30
0.0
 10
10.2720807381
 20
7.7594475447
 30
0.0
 10
10.2628972544
 20
7.7584884046
 30
0.0
 10
10.2536212626
 20
7.758220715
 30
0.0
 10
10.2443038053
 20
7.7586458202
 30
0.0
 10
10.2349960926
 20
7.7597612547
 30
0.0
 10
10.2257492639
 20
7.7615607779
 30
0.0
 10
10.2166141024
 20
7.7640344075
 30
0.0
 10
10.2076407671
 20
7.7671684813
 30
0.0
 10
10.1988785179
 20
7.7709457176
 30
0.0
 10
10.1903754345
 20
7.7753452924
 30
0.0
 10
10.18217817
 20
7.7803429935
 30
0.0
 10
10.1743316988
 20
7.7859113461
 30
0.0
 10
10.1668790744
 20
7.7920197621
 30
0.0
 10
10.1598612032
 20
7.7986347092
 30
0.0
 10
10.1533166014
 20
7.8057198698
 30
0.0
 10
10.1472811819
 20
7.8132363446
 30
0.0
 10
10.1417880813
 20
7.821142885
 30
0.0
 10
10.1368674744
 20
7.829396109
 30
0.0
 10
10.1325464143
 20
7.8379507381
 30
0.0
 10
10.1288486996
 20
7.8467598318
 30
0.0
 10
10.1257946485
 20
7.8557750665
 30
0.0
 10
10.1234011963
 20
7.8649468575
 30
0.0
 10
10.121681357
 20
7.8742251631
 30
0.0
 10
10.1206449897
 20
7.883558196
 30
0.0
 10
10.1204128028
 20
7.889800182
 30
0.0
 10
10.1204128028
 20
7.8929119999
 30
0.0
  0
SPLINE
  5
311
100
AcDbEntity
  8
0
100
AcDbSpline
 62
7
  6
CONTINUOUS
 70
0
 71
3
 72
40
 73
36
 74
0
 42
0.0000001
 43
0.0000001
 44
0.0000000001
 40
0.0
 40
0.0
 40
0.0
 40
0.0
 40
0.0309233049
 40
0.0464422824
 40
0.0619958088
 40
0.0932015216
 40
0.1245372949
 40
0.1559918317
 40
0.1875523714
 40
0.2192043361
 40
0.2509320024
 40
0.2827188277
 40
0.3145478624
 40
0.3464021104
 40
0.378264826
 40
0.4101197673
 40
0.4419514033
 40
0.4737450795
 40
0.5054871643
 40
0.5371651757
 40
0.5687678123
 40
0.6002849888
 40
0.6317078688
 40
0.6630289106
 40
0.6942418914
 40
0.7253418747
 40
0.7563252222
 40
0.7871896197
 40
0.8179340982
 40
0.8485590251
 40
0.8790661285
 40
0.9094585334
 40
0.939740776
 40
0.9699188012
 40
1.0
 40
1.0
 40
1.0
 40
1.0
 10
10.9105398821
 20
7.5794548312
 30
0.0
 10
10.905335967
 20
7.579815724
 30
0.0
 10
10.8975357694
 20
7.5806276155
 30
0.0
 10
10.8872012817
 20
7.5822392683
 30
0.0
 10
10.876880009
 20
7.5842085014
 30
0.0
 10
10.8640704742
 20
7.5873300785
 30
0.0
 10
10.8489374914
 20
7.5921012203
 30
0.0
 10
10.8340931182
 20
7.5978736001
 30
0.0
 10
10.8196035593
 20
7.6046128818
 30
0.0
 10
10.8055306828
 20
7.6122800308
 30
0.0
 10
10.7919323548
 20
7.620831733
 30
0.0
 10
10.7788619785
 20
7.6302212267
 30
0.0
 10
10.7663683991
 20
7.6403989707
 30
0.0
 10
10.7544958564
 20
7.6513133148
 30
0.0
 10
10.74328408
 20
7.6629111262
 30
0.0
 10
10.7327684489
 20
7.6751383205
 30
0.0
 10
10.7229802124
 20
7.6879403159
 30
0.0
 10
10.7139467501
 20
7.7012624077
 30
0.0
 10
10.7056918462
 20
7.7150500639
 30
0.0
 10
10.6982359562
 20
7.7292491344
 30
0.0
 10
10.6915965371
 20
7.7438060245
 30
0.0
 10
10.685788324
 20
7.7586677745
 30
0.0
 10
10.6808235912
 20
7.7737821008
 30
0.0
 10
10.6767123673
 20
7.7890973916
 30
0.0
 10
10.6734626123
 20
7.804562662
 30
0.0
 10
10.6710804356
 20
7.8201274958
 30
0.0
 10
10.6695702217
 20
7.8357419453
 30
0.0
 10
10.6689347384
 20
7.8513564283
 30
0.0
 10
10.6691751517
 20
7.8669216107
 30
0.0
 10
10.670291082
 20
7.8823882849
 30
0.0
 10
10.6722806161
 20
7.8977072702
 30
0.0
 10
10.6751402303
 20
7.9128292172
 30
0.0
 10
10.6788648047
 20
7.9277048063
 30
0.0
 10
10.6834470341
 20
7.9422835553
 30
0.0
 10
10.6870737979
 20
7.9517874578
 30
0.0
 10
10.6890266352
 20
7.9564709989
 30
0.0
  0
SPLINE
  5
312
100
AcDbEntity
  8
0
100
AcDbSpline
 62
7
  6
CONTINUOUS
 70
0
 71
3
 72
23
 73
19
 74
0
 42
0.0000001
 43
0.0000001
 44
0.0000000001
 40
0.0
 40
0.0
 40
0.0
 40
0.0
 40
0.0637744828
 40
0.1273454316
 40
0.1907025265
 40
0.2538558004
 40
0.316813226
 40
0.3795821625
 40
0.4421733656
 40
0.5045993404
 40
0.5668738661
 40
0.6290123724
 40
0.6910316429
 40
0.7529496283
 40
0.8147853425
 40
0.8765585905
 40
0.938289842
 40
1.0
 40
1.0
 40
1.0
 40
1.0
 10
8.4039623125
 20
9.1903778513
 30
0.0
 10
8.4039623125
 20
9.1937566435
 30
0.0
 10
8.404124105
 20
9.2005045875
 30
0.0
 10
8.4048539857
 20
9.2105854483
 30
0.0
 10
8.4060694038
 20
9.2205864851
 30
0.0
 10
8.407767424
 20
9.2304839707
 30
0.0
 10
8.4099440188
 20
9.2402554701
 30
0.0
 10
8.4125944395
 20
9.2498783787
 30
0.0
 10
8.4157124351
 20
9.2593305
 30
0.0
 10
8.4192908585
 20
9.268590054
 30
0.0
 10
8.4233215701
 20
9.2776356496
 30
0.0
 10
8.4277951459
 20
9.2864464843
 30
0.0
 10
8.4327014237
 20
9.2950021641
 30
0.0
 10
8.438029031
 20
9.3032829921
 30
0.0
 10
8.4437656497
 20
9.3112698694
 30
0.0
 10
8.4498982322
 20
9.3189443463
 30
0.0
 10
8.456412246
 20
9.3262885998
 30
0.0
 10
8.4610001632
 20
9.3309540924
 30
0.0
 10
8.4633517206
 20
9.3332255036
 30
0.0
  0
SPLINE
  5
313
100
AcDbEntity
  8
0
100
AcDbSpline
 62
7
  6
CONTINUOUS
 70
0
 71
3
 72
23
 73
19
 74
0
 42
0.0000001
 43
0.0000001
 44
0.0000000001
 40
0.0
 40
0.0
 40
0.0
 40
0.0
 40
0.0637744828
 40
0.1273454316
 40
0.1907025265
 40
0.2538558004
 40
0.316813226
 40
0.3795821625
 40
0.4421733656
 40
0.5045993404
 40
0.5668738661
 40
0.6290123724
 40
0.6910316429
 40
0.7529496283
 40
0.8147853425
 40
0.8765585905
 40
0.938289842
 40
1.0
 40
1.0
 40
1.0
 40
1.0
 10
8.4039623125
 20
6.8354505823
 30
0.0
 10
8.4039623125
 20
6.8388293745
 30
0.0
 10
8.404124105
 20
6.8455773185
 30
0.0
 10
8.4048539857
 20
6.8556581793
 30
0.0
 10
8.4060694038
 20
6.865659216
 30
0.0
 10
8.407767424
 20
6.8755567017
 30
0.0
 10
8.4099440188
 20
6.8853282011
 30
0.0
 10
8.4125944395
 20
6.8949511097
 30
0.0
 10
8.4157124351
 20
6.9044032309
 30
0.0
 10
8.4192908585
 20
6.913662785
 30
0.0
 10
8.4233215701
 20
6.9227083806
 30
0.0
 10
8.4277951459
 20
6.9315192153
 30
0.0
 10
8.4327014237
 20
6.9400748951
 30
0.0
 10
8.438029031
 20
6.9483557231
 30
0.0
 10
8.4437656497
 20
6.9563426003
 30
0.0
 10
8.4498982322
 20
6.9640170773
 30
0.0
 10
8.456412246
 20
6.9713613307
 30
0.0
 10
8.4610001632
 20
6.9760268233
 30
0.0
 10
8.4633517206
 20
6.9782982346
 30
0.0
  0
SPLINE
  5
314
100
AcDbEntity
  8
0
100
AcDbSpline
 62
7
  6
CONTINUOUS
 70
0
 71
3
 72
48
 73
44
 74
0
 42
0.0000001
 43
0.0000001
 44
0.0000000001
 40
0.0
 40
0.0
 40
0.0
 40
0.0
 40
0.0378126882
 40
0.0760192244
 40
0.1145316533
 40
0.1532646684
 40
0.192130348
 40
0.2310410943
 40
0.2699090056
 40
0.308646322
 40
0.3471656717
 40
0.3853802996
 40
0.4232043291
 40
0.4605530172
 40
0.4973430216
 40
0.5334926543
 40
0.5689221418
 40
0.6035538949
 40
0.6373127924
 40
0.6701264944
 40
0.7019257413
 40
0.7326446802
 40
0.7622212296
 40
0.7905974914
 40
0.8177202481
 40
0.8307966625
 40
0.8435421432
 40
0.8559516828
 40
0.8680205675
 40
0.8797446449
 40
0.8911201969
 40
0.9021440081
 40
0.9128135267
 40
0.9231267006
 40
0.9330823085
 40
0.9426798206
 40
0.9519195346
 40
0.9608027361
 40
0.969331691
 40
0.9775101852
 40
0.9853433287
 40
0.9928373926
 40
1.0
 40
1.0
 40
1.0
 40
1.0
 10
12.336801353
 20
8.5939303628
 30
0.0
 10
12.336801353
 20
8.6058546995
 30
0.0
 10
12.3369598523
 20
8.6298278501
 30
0.0
 10
12.3376623161
 20
8.6659398168
 30
0.0
 10
12.3388293386
 20
8.7023301771
 30
0.0
 10
12.3404580225
 20
8.7389108353
 30
0.0
 10
12.3425445306
 20
8.7755940472
 30
0.0
 10
12.345083819
 20
8.812291337
 30
0.0
 10
12.3480697811
 20
8.8489143747
 30
0.0
 10
12.351495213
 20
8.8853749639
 30
0.0
 10
12.3553518527
 20
8.921585309
 30
0.0
 10
12.359630397
 20
8.95745822
 30
0.0
 10
12.364320524
 20
8.9929073189
 30
0.0
 10
12.3694109118
 20
9.0278472558
 30
0.0
 10
12.3748892577
 20
9.062193918
 30
0.0
 10
12.380742323
 20
9.0958646315
 30
0.0
 10
12.3869559609
 20
9.1287783579
 30
0.0
 10
12.393515151
 20
9.1608558908
 30
0.0
 10
12.4004040357
 20
9.1920200555
 30
0.0
 10
12.4076059407
 20
9.2221959055
 30
0.0
 10
12.4151034318
 20
9.2513109108
 30
0.0
 10
12.4228783573
 20
9.2792951108
 30
0.0
 10
12.4309118892
 20
9.3060813672
 30
0.0
 10
12.4391845797
 20
9.3316052722
 30
0.0
 10
12.4463455178
 20
9.3520134009
 30
0.0
 10
12.4521887092
 20
9.3676542668
 30
0.0
 10
12.4565650211
 20
9.3788887938
 30
0.0
 10
12.4609859241
 20
9.3897636343
 30
0.0
 10
12.4654488649
 20
9.4002722516
 30
0.0
 10
12.4699510936
 20
9.4104083526
 30
0.0
 10
12.4744899083
 20
9.420165863
 30
0.0
 10
12.4790626264
 20
9.4295389212
 30
0.0
 10
12.4836664112
 20
9.4385219477
 30
0.0
 10
12.4882986005
 20
9.4471095425
 30
0.0
 10
12.4929563505
 20
9.4552966144
 30
0.0
 10
12.4976369131
 20
9.4630782805
 30
0.0
 10
12.5023375282
 20
9.4704498846
 30
0.0
 10
12.5070552969
 20
9.4774070838
 30
0.0
 10
12.5117875682
 20
9.4839457316
 30
0.0
 10
12.5165315539
 20
9.4900620728
 30
0.0
 10
12.5212846505
 20
9.495752523
 30
0.0
 10
12.5260437955
 20
9.5010133984
 30
0.0
 10
12.5292908616
 20
9.5043053741
 30
0.0
 10
12.5309154766
 20
9.5058746318
 30
0.0
  0
SPLINE
  5
315
100
AcDbEntity
  8
0
100
AcDbSpline
 62
7
  6
CONTINUOUS
 70
0
 71
3
 72
18
 73
14
 74
0
 42
0.0000001
 43
0.0000001
 44
0.0000000001
 40
0.0
 40
0.0
 40
0.0
 40
0.0
 40
0.1504644953
 40
0.2917101341
 40
0.4244370579
 40
0.5495623416
 40
0.6682137756
 40
0.7255498092
 40
0.7817913051
 40
0.8371402808
 40
0.8918094146
 40
0.9460200883
 40
1.0
 40
1.0
 40
1.0
 40
1.0
 10
13.3881234465
 20
10.3338739975
 30
0.0
 10
13.3902437322
 20
10.3359220363
 30
0.0
 10
13.3944814098
 20
10.3397647333
 30
0.0
 10
13.4010433523
 20
10.3448858876
 30
0.0
 10
13.4075976784
 20
10.3491689132
 30
0.0
 10
13.4141374433
 20
10.3526068221
 30
0.0
 10
13.4196340389
 20
10.3547867995
 30
0.0
 10
13.423998089
 20
10.3560820794
 30
0.0
 10
13.427224667
 20
10.3568285749
 30
0.0
 10
13.430440518
 20
10.3573606644
 30
0.0
 10
13.433644764
 20
10.3576781205
 30
0.0
 10
13.4368361338
 20
10.3577806762
 30
0.0
 10
13.4389563842
 20
10.3577056625
 30
0.0
 10
13.4400114221
 20
10.3576324963
 30
0.0
  0
SPLINE
  5
316
100
AcDbEntity
  8
0
100
AcDbSpline
 62
7
  6
CONTINUOUS
 70
0
 71
3
 72
39
 73
35
 74
0
 42
0.0000001
 43
0.0000001
 44
0.0000000001
 40
0.0
 40
0.0
 40
0.0
 40
0.0
 40
0.030959768
 40
0.0620677759
 40
0.0933140258
 40
0.1246955904
 40
0.1562024443
 40
0.1878233728
 40
0.2195452965
 40
0.2513531848
 40
0.2832305934
 40
0.315159879
 40
0.3471225326
 40
0.3790994761
 40
0.4110713714
 40
0.4430189808
 40
0.4749234883
 40
0.5067667914
 40
0.5385318219
 40
0.5702028738
 40
0.6017658661
 40
0.6332085799
 40
0.6645209194
 40
0.6956951326
 40
0.7267259553
 40
0.7576107242
 40
0.7883494989
 40
0.8189451004
 40
0.8494030714
 40
0.8797315985
 40
0.9099414224
 40
0.9400456502
 40
0.9700594978
 40
1.0
 40
1.0
 40
1.0
 40
1.0
 10
10.1525063374
 20
7.9239119757
 30
0.0
 10
10.1525063374
 20
7.9210437357
 30
0.0
 10
10.1527035747
 20
7.9152916459
 30
0.0
 10
10.1535844175
 20
7.906685388
 30
0.0
 10
10.1550471714
 20
7.8981187505
 30
0.0
 10
10.1570845775
 20
7.8896325217
 30
0.0
 10
10.1596873173
 20
7.8812659707
 30
0.0
 10
10.1628430738
 20
7.8730582423
 30
0.0
 10
10.1665370501
 20
7.8650475989
 30
0.0
 10
10.1707520243
 20
7.8572714325
 30
0.0
 10
10.1754683068
 20
7.8497660386
 30
0.0
 10
10.1806638157
 20
7.8425664
 30
0.0
 10
10.1863142911
 20
7.8357060983
 30
0.0
 10
10.1923933955
 20
7.8292171724
 30
0.0
 10
10.1988727596
 20
7.8231299101
 30
0.0
 10
10.2057221139
 20
7.8174726828
 30
0.0
 10
10.2129095089
 20
7.8122718983
 30
0.0
 10
10.2204014479
 20
7.8075518926
 30
0.0
 10
10.2281629675
 20
7.8033347086
 30
0.0
 10
10.2361578387
 20
7.7996400212
 30
0.0
 10
10.2443487689
 20
7.7964851205
 30
0.0
 10
10.2526975576
 20
7.7938848423
 30
0.0
 10
10.2611652249
 20
7.7918513498
 30
0.0
 10
10.2697122378
 20
7.7903941665
 30
0.0
 10
10.2782986941
 20
7.7895201804
 30
0.0
 10
10.2868844888
 20
7.7892336113
 30
0.0
 10
10.2954294965
 20
7.7895358232
 30
0.0
 10
10.3038937793
 20
7.7904254593
 30
0.0
 10
10.3122377522
 20
7.7918984625
 30
0.0
 10
10.3204223706
 20
7.7939480815
 30
0.0
 10
10.3284093011
 20
7.7965647148
 30
0.0
 10
10.3361612837
 20
7.7997362605
 30
0.0
 10
10.3436415143
 20
7.8034476333
 30
0.0
 10
10.3484298444
 20
7.8062739322
 30
0.0
 10
10.3507655674
 20
7.8077700692
 30
0.0
  0
SPLINE
  5
317
100
AcDbEntity
  8
0
100
AcDbSpline
 62
7
  6
CONTINUOUS
 70
0
 71
3
 72
37
 73
33
 74
0
 42
0.0000001
 43
0.0000001
 44
0.0000000001
 40
0.0
 40
0.0
 40
0.0
 40
0.0
 40
0.0308252969
 40
0.0617846702
 40
0.0928691034
 40
0.1240771943
 40
0.1554015457
 40
0.186833606
 40
0.218363669
 40
0.249980356
 40
0.2816711233
 40
0.313422419
 40
0.3452198255
 40
0.3770482745
 40
0.4407097186
 40
0.5043079757
 40
0.5360583674
 40
0.5677479986
 40
0.5993633065
 40
0.6308917898
 40
0.6623221589
 40
0.6936445101
 40
0.7248505178
 40
0.7559335445
 40
0.786888737
 40
0.8177131627
 40
0.8484058698
 40
0.8789678937
 40
0.9094022886
 40
0.9397141283
 40
0.9699104186
 40
1.0
 40
1.0
 40
1.0
 40
1.0
 10
11.0511787295
 20
6.6755781362
 30
0.0
 10
11.0511787295
 20
6.6724685945
 30
0.0
 10
11.0513718493
 20
6.6662343204
 30
0.0
 10
11.0522349987
 20
6.6569003332
 30
0.0
 10
11.0536692891
 20
6.6475975262
 30
0.0
 10
11.0556689192
 20
6.6383621512
 30
0.0
 10
11.0582263621
 20
6.6292290548
 30
0.0
 10
11.0613317589
 20
6.6202331472
 30
0.0
 10
11.0649732347
 20
6.6114087058
 30
0.0
 10
11.0691369454
 20
6.6027893908
 30
0.0
 10
11.0738069333
 20
6.5944080024
 30
0.0
 10
11.078965301
 20
6.5862965422
 30
0.0
 10
11.0845927088
 20
6.5784856978
 30
0.0
 10
11.0926909139
 20
6.5685135114
 30
0.0
 10
11.103871871
 20
6.5569485249
 30
0.0
 10
11.1163035541
 20
6.5467520269
 30
0.0
 10
11.1268845903
 20
6.5395115847
 30
0.0
 10
11.1351038828
 20
6.5345621144
 30
0.0
 10
11.1435777567
 20
6.5301108753
 30
0.0
 10
11.1522741954
 20
6.5261745842
 30
0.0
 10
11.1611600065
 20
6.5227684001
 30
0.0
 10
11.1702013403
 20
6.5199053392
 30
0.0
 10
11.1793637055
 20
6.517596296
 30
0.0
 10
11.1886121819
 20
6.515850139
 30
0.0
 10
11.19791151
 20
6.5146736498
 30
0.0
 10
11.2072262069
 20
6.5140712943
 30
0.0
 10
11.2165207382
 20
6.5140454064
 30
0.0
 10
11.2257596413
 20
6.5145962205
 30
0.0
 10
11.2349076072
 20
6.5157216604
 30
0.0
 10
11.2439298386
 20
6.5174174775
 30
0.0
 10
11.2527913995
 20
6.5196771018
 30
0.0
 10
11.258580134
 20
6.5215572807
 30
0.0
 10
11.2614350762
 20
6.5225880597
 30
0.0
  0
SPLINE
  5
318
100
AcDbEntity
  8
0
100
AcDbSpline
 62
7
  6
CONTINUOUS
 70
0
 71
3
 72
16
 73
12
 74
0
 42
0.0000001
 43
0.0000001
 44
0.0000000001
 40
0.0
 40
0.0
 40
0.0
 40
0.0
 40
0.1269617361
 40
0.2532980226
 40
0.379010195
 40
0.5041448485
 40
0.5665192369
 40
0.6287667756
 40
0.7528907265
 40
0.8766088491
 40
1.0
 40
1.0
 40
1.0
 40
1.0
 10
10.1525063374
 20
7.9239119757
 30
0.0
 10
10.1525063374
 20
7.9269527229
 30
0.0
 10
10.1527269434
 20
7.9330216197
 30
0.0
 10
10.1537235412
 20
7.9420520734
 30
0.0
 10
10.1553801136
 20
7.9509409063
 30
0.0
 10
10.1573054437
 20
7.9581992874
 30
0.0
 10
10.1591656176
 20
7.963885717
 30
0.0
 10
10.1612319757
 20
7.9694746676
 30
0.0
 10
10.1642047208
 20
7.9762891533
 30
0.0
 10
10.1683791047
 20
7.9841486216
 30
0.0
 10
10.1715545878
 20
7.9891512398
 30
0.0
 10
10.1732341687
 20
7.9915827825
 30
0.0
  0
SPLINE
  5
319
100
AcDbEntity
  8
0
100
AcDbSpline
 62
7
  6
CONTINUOUS
 70
0
 71
3
 72
23
 73
19
 74
0
 42
0.0000001
 43
0.0000001
 44
0.0000000001
 40
0.0
 40
0.0
 40
0.0
 40
0.0
 40
0.0637744828
 40
0.1273454316
 40
0.1907025265
 40
0.2538558004
 40
0.316813226
 40
0.3795821625
 40
0.4421733656
 40
0.5045993404
 40
0.5668738661
 40
0.6290123724
 40
0.6910316429
 40
0.7529496283
 40
0.8147853425
 40
0.8765585905
 40
0.938289842
 40
1.0
 40
1.0
 40
1.0
 40
1.0
 10
11.4833342245
 20
9.0367100661
 30
0.0
 10
11.4833342245
 20
9.0400888583
 30
0.0
 10
11.4834960169
 20
9.0468368023
 30
0.0
 10
11.4842258976
 20
9.0569176631
 30
0.0
 10
11.4854413157
 20
9.0669186998
 30
0.0
 10
11.487139336
 20
9.0768161855
 30
0.0
 10
11.4893159308
 20
9.0865876849
 30
0.0
 10
11.4919663514
 20
9.0962105935
 30
0.0
 10
11.4950843471
 20
9.1056627147
 30
0.0
 10
11.4986627705
 20
9.1149222688
 30
0.0
 10
11.502693482
 20
9.1239678644
 30
0.0
 10
11.5071670578
 20
9.1327786991
 30
0.0
 10
11.5120733357
 20
9.1413343789
 30
0.0
 10
11.517400943
 20
9.1496152069
 30
0.0
 10
11.5231375616
 20
9.1576020842
 30
0.0
 10
11.5292701442
 20
9.1652765611
 30
0.0
 10
11.535784158
 20
9.1726208145
 30
0.0
 10
11.5403720752
 20
9.1772863071
 30
0.0
 10
11.5427236326
 20
9.1795577184
 30
0.0
  0
SPLINE
  5
31A
100
AcDbEntity
  8
0
100
AcDbSpline
 62
7
  6
CONTINUOUS
 70
0
 71
3
 72
15
 73
11
 74
0
 42
0.0000001
 43
0.0000001
 44
0.0000000001
 40
0.0
 40
0.0
 40
0.0
 40
0.0
 40
0.1273482228
 40
0.253860527
 40
0.3795879206
 40
0.5046050801
 40
0.6290174363
 40
0.7529533709
 40
0.8765605784
 40
1.0
 40
1.0
 40
1.0
 40
1.0
 10
10.9704272524
 20
6.5975781944
 30
0.0
 10
10.9704272524
 20
6.6023826551
 30
0.0
 10
10.9708859773
 20
6.6119666821
 30
0.0
 10
10.9729605266
 20
6.6261583967
 30
0.0
 10
10.9764004812
 20
6.6399935295
 30
0.0
 10
10.9811747769
 20
6.6533426902
 30
0.0
 10
10.9872395791
 20
6.666082782
 30
0.0
 10
10.9945396262
 20
6.6780961632
 30
0.0
 10
11.0030062786
 20
6.6892702675
 30
0.0
 10
11.0093812377
 20
6.6960960586
 30
0.0
 10
11.0127307946
 20
6.6993314964
 30
0.0
  0
SPLINE
  5
31B
100
AcDbEntity
  8
0
100
AcDbSpline
 62
7
  6
CONTINUOUS
 70
0
 71
3
 72
23
 73
19
 74
0
 42
0.0000001
 43
0.0000001
 44
0.0000000001
 40
0.0
 40
0.0
 40
0.0
 40
0.0
 40
0.0637744828
 40
0.1273454316
 40
0.1907025265
 40
0.2538558004
 40
0.316813226
 40
0.3795821625
 40
0.4421733656
 40
0.5045993404
 40
0.5668738661
 40
0.6290123724
 40
0.6910316429
 40
0.7529496283
 40
0.8147853425
 40
0.8765585905
 40
0.938289842
 40
1.0
 40
1.0
 40
1.0
 40
1.0
 10
11.4833342245
 20
6.5620079751
 30
0.0
 10
11.4833342245
 20
6.5653867673
 30
0.0
 10
11.4834960169
 20
6.5721347113
 30
0.0
 10
11.4842258976
 20
6.5822155721
 30
0.0
 10
11.4854413157
 20
6.5922166088
 30
0.0
 10
11.487139336
 20
6.6021140945
 30
0.0
 10
11.4893159308
 20
6.6118855939
 30
0.0
 10
11.4919663514
 20
6.6215085025
 30
0.0
 10
11.4950843471
 20
6.6309606237
 30
0.0
 10
11.4986627705
 20
6.6402201778
 30
0.0
 10
11.502693482
 20
6.6492657734
 30
0.0
 10
11.5071670578
 20
6.6580766081
 30
0.0
 10
11.5120733357
 20
6.6666322879
 30
0.0
 10
11.517400943
 20
6.6749131158
 30
0.0
 10
11.5231375616
 20
6.6828999931
 30
0.0
 10
11.5292701442
 20
6.6905744701
 30
0.0
 10
11.535784158
 20
6.6979187235
 30
0.0
 10
11.5403720752
 20
6.7025842161
 30
0.0
 10
11.5427236326
 20
6.7048556274
 30
0.0
  0
SPLINE
  5
31C
100
AcDbEntity
  8
0
100
AcDbSpline
 62
7
  6
CONTINUOUS
 70
0
 71
3
 72
49
 73
45
 74
0
 42
0.0000001
 43
0.0000001
 44
0.0000000001
 40
0.0
 40
0.0
 40
0.0
 40
0.0
 40
0.0378125244
 40
0.0760192516
 40
0.1145315796
 40
0.1532645795
 40
0.1921302513
 40
0.2310409664
 40
0.2699088592
 40
0.3086461557
 40
0.3471654877
 40
0.3853800913
 40
0.4232040937
 40
0.4605527638
 40
0.4973427584
 40
0.5334923753
 40
0.5689218312
 40
0.6035535544
 40
0.6373124419
 40
0.670126144
 40
0.7019253731
 40
0.7326442778
 40
0.7622208001
 40
0.7905970593
 40
0.8043185007
 40
0.8177203605
 40
0.8307967378
 40
0.8435422354
 40
0.8559517574
 40
0.8680206311
 40
0.8797447219
 40
0.8911202436
 40
0.9021440657
 40
0.9128135702
 40
0.9231267328
 40
0.9330823542
 40
0.9426798523
 40
0.9519195656
 40
0.9608027411
 40
0.9693316782
 40
0.9775102021
 40
0.9853433871
 40
0.992837451
 40
1.0
 40
1.0
 40
1.0
 40
1.0
 10
13.4385487685
 20
8.5341367552
 30
0.0
 10
13.4385487685
 20
8.5450753053
 30
0.0
 10
13.4386941698
 20
8.5670666951
 30
0.0
 10
13.4393385562
 20
8.6001934026
 30
0.0
 10
13.4404091096
 20
8.6335755327
 30
0.0
 10
13.4419031502
 20
8.6671321723
 30
0.0
 10
13.4438171762
 20
8.7007829077
 30
0.0
 10
13.4461465565
 20
8.734446556
 30
0.0
 10
13.4488856759
 20
8.7680420876
 30
0.0
 10
13.452027934
 20
8.8014886038
 30
0.0
 10
13.4555657539
 20
8.834705561
 30
0.0
 10
13.4594906131
 20
8.8676129749
 30
0.0
 10
13.463793029
 20
8.9001316118
 30
0.0
 10
13.4684626071
 20
8.9321831828
 30
0.0
 10
13.4734880685
 20
8.9636905268
 30
0.0
 10
13.4788572781
 20
8.9945777955
 30
0.0
 10
13.4845572647
 20
9.0247706462
 30
0.0
 10
13.4905742344
 20
9.0541964306
 30
0.0
 10
13.4968936325
 20
9.0827843626
 30
0.0
 10
13.50350017
 20
9.110465688
 30
0.0
 10
13.5103778711
 20
9.1371738438
 30
0.0
 10
13.5175100747
 20
9.1628447024
 30
0.0
 10
13.5248795148
 20
9.187416516
 30
0.0
 10
13.5312728893
 20
9.2071425417
 30
0.0
 10
13.5365010119
 20
9.2223229599
 30
0.0
 10
13.5404263353
 20
9.2332699187
 30
0.0
 10
13.5443974658
 20
9.2438994821
 30
0.0
 10
13.5484119598
 20
9.2542052881
 30
0.0
 10
13.5524674171
 20
9.2641811412
 30
0.0
 10
13.5565614277
 20
9.2738210438
 30
0.0
 10
13.5606914494
 20
9.2831192349
 30
0.0
 10
13.5648550848
 20
9.2920701145
 30
0.0
 10
13.569049769
 20
9.3006683391
 30
0.0
 10
13.5732729805
 20
9.3089087667
 30
0.0
 10
13.5775222496
 20
9.3167864509
 30
0.0
 10
13.5817949434
 20
9.3242967354
 30
0.0
 10
13.5860886031
 20
9.3314351078
 30
0.0
 10
13.5904006169
 20
9.3381973278
 30
0.0
 10
13.5947283765
 20
9.344579393
 30
0.0
 10
13.599069451
 20
9.3505775091
 30
0.0
 10
13.6034212732
 20
9.3561882526
 30
0.0
 10
13.6077814746
 20
9.361408301
 30
0.0
 10
13.6121471934
 20
9.3662342785
 30
0.0
 10
13.6151258224
 20
9.3692541099
 30
0.0
 10
13.6166161245
 20
9.3706936313
 30
0.0
  0
SPLINE
  5
31D
100
AcDbEntity
  8
0
100
AcDbSpline
 62
7
  6
CONTINUOUS
 70
0
 71
3
 72
48
 73
44
 74
0
 42
0.0000001
 43
0.0000001
 44
0.0000000001
 40
0.0
 40
0.0
 40
0.0
 40
0.0
 40
0.0378126882
 40
0.0760192244
 40
0.1145316533
 40
0.1532646684
 40
0.192130348
 40
0.2310410943
 40
0.2699090056
 40
0.308646322
 40
0.3471656717
 40
0.3853802996
 40
0.4232043291
 40
0.4605530172
 40
0.4973430216
 40
0.5334926543
 40
0.5689221418
 40
0.6035538949
 40
0.6373127924
 40
0.6701264944
 40
0.7019257413
 40
0.7326446802
 40
0.7622212296
 40
0.7905974914
 40
0.8177202481
 40
0.8307966625
 40
0.8435421432
 40
0.8559516828
 40
0.8680205675
 40
0.8797446449
 40
0.8911201969
 40
0.9021440081
 40
0.9128135267
 40
0.9231267006
 40
0.9330823085
 40
0.9426798206
 40
0.9519195346
 40
0.9608027361
 40
0.969331691
 40
0.9775101852
 40
0.9853433287
 40
0.9928373926
 40
1.0
 40
1.0
 40
1.0
 40
1.0
 10
13.3626145961
 20
8.5227899727
 30
0.0
 10
13.3626145961
 20
8.5347143095
 30
0.0
 10
13.3627730954
 20
8.55868746
 30
0.0
 10
13.3634755593
 20
8.5947994267
 30
0.0
 10
13.3646425818
 20
8.6311897871
 30
0.0
 10
13.3662712656
 20
8.6677704453
 30
0.0
 10
13.3683577737
 20
8.7044536571
 30
0.0
 10
13.3708970622
 20
8.7411509469
 30
0.0
 10
13.3738830242
 20
8.7777739846
 30
0.0
 10
13.3773084562
 20
8.8142345739
 30
0.0
 10
13.3811650958
 20
8.850444919
 30
0.0
 10
13.3854436401
 20
8.8863178299
 30
0.0
 10
13.3901337671
 20
8.9217669289
 30
0.0
 10
13.395224155
 20
8.9567068658
 30
0.0
 10
13.4007025009
 20
8.991053528
 30
0.0
 10
13.4065555661
 20
9.0247242415
 30
0.0
 10
13.4127692041
 20
9.0576379679
 30
0.0
 10
13.4193283942
 20
9.0897155007
 30
0.0
 10
13.4262172789
 20
9.1208796654
 30
0.0
 10
13.4334191838
 20
9.1510555154
 30
0.0
 10
13.440916675
 20
9.1801705207
 30
0.0
 10
13.4486916004
 20
9.2081547208
 30
0.0
 10
13.4567251324
 20
9.2349409772
 30
0.0
 10
13.4649978229
 20
9.2604648821
 30
0.0
 10
13.4721587609
 20
9.2808730108
 30
0.0
 10
13.4780019523
 20
9.2965138768
 30
0.0
 10
13.4823782642
 20
9.3077484038
 30
0.0
 10
13.4867991672
 20
9.3186232442
 30
0.0
 10
13.491262108
 20
9.3291318615
 30
0.0
 10
13.4957643368
 20
9.3392679626
 30
0.0
 10
13.5003031514
 20
9.349025473
 30
0.0
 10
13.5048758695
 20
9.3583985312
 30
0.0
 10
13.5094796544
 20
9.3673815577
 30
0.0
 10
13.5141118436
 20
9.3759691525
 30
0.0
 10
13.5187695937
 20
9.3841562244
 30
0.0
 10
13.5234501563
 20
9.3919378905
 30
0.0
 10
13.5281507714
 20
9.3993094945
 30
0.0
 10
13.5328685401
 20
9.4062666938
 30
0.0
 10
13.5376008114
 20
9.4128053415
 30
0.0
 10
13.542344797
 20
9.4189216827
 30
0.0
 10
13.5470978936
 20
9.4246121329
 30
0.0
 10
13.5518570386
 20
9.4298730084
 30
0.0
 10
13.5551041048
 20
9.4331649841
 30
0.0
 10
13.5567287198
 20
9.4347342417
 30
0.0
  0
SPLINE
  5
31E
100
AcDbEntity
  8
0
100
AcDbSpline
 62
7
  6
CONTINUOUS
 70
0
 71
3
 72
29
 73
25
 74
0
 42
0.0000001
 43
0.0000001
 44
0.0000000001
 40
0.0
 40
0.0
 40
0.0
 40
0.0
 40
0.0755832835
 40
0.1466145466
 40
0.2134293473
 40
0.2764674847
 40
0.3362695205
 40
0.3651667787
 40
0.3935056923
 40
0.4213829181
 40
0.4489005625
 40
0.4761650512
 40
0.5032860787
 40
0.5303752854
 40
0.5575446736
 40
0.5849051948
 40
0.6125653618
 40
0.640629763
 40
0.6691981168
 40
0.7281938456
 40
0.7902539855
 40
0.8559473436
 40
0.9257386173
 40
1.0
 40
1.0
 40
1.0
 40
1.0
 10
14.4738240945
 20
10.1986929971
 30
0.0
 10
14.4757362199
 20
10.2005399685
 30
0.0
 10
14.4795579687
 20
10.2040091622
 30
0.0
 10
14.4854724435
 20
10.2086438107
 30
0.0
 10
14.4913801682
 20
10.2125362843
 30
0.0
 10
14.4972749678
 20
10.2156805917
 30
0.0
 10
14.5022297766
 20
10.2176955291
 30
0.0
 10
14.506165127
 20
10.2189105009
 30
0.0
 10
14.5090749881
 20
10.2196219894
 30
0.0
 10
14.5119755371
 20
10.2201436304
 30
0.0
 10
14.5148659602
 20
10.2204752668
 30
0.0
 10
14.5177453321
 20
10.220616697
 30
0.0
 10
14.5206127231
 20
10.2205677507
 30
0.0
 10
14.5234671821
 20
10.2203284791
 30
0.0
 10
14.526307772
 20
10.2198990017
 30
0.0
 10
14.5291335707
 20
10.2192794583
 30
0.0
 10
14.5319436395
 20
10.2184700651
 30
0.0
 10
14.5347372033
 20
10.2174711761
 30
0.0
 10
14.5384782579
 20
10.2158704879
 30
0.0
 10
14.5431244648
 20
10.2133728253
 30
0.0
 10
14.5485539844
 20
10.2096570097
 30
0.0
 10
14.5538940097
 20
10.2051966101
 30
0.0
 10
14.559139681
 20
10.1999985789
 30
0.0
 10
14.5624642752
 20
10.1961686073
 30
0.0
 10
14.564112358
 20
10.1941422066
 30
0.0
  0
SPLINE
  5
31F
100
AcDbEntity
  8
0
100
AcDbSpline
 62
7
  6
CONTINUOUS
 70
0
 71
3
 72
18
 73
14
 74
0
 42
0.0000001
 43
0.0000001
 44
0.0000000001
 40
0.0
 40
0.0
 40
0.0
 40
0.0
 40
0.1504645181
 40
0.2917101655
 40
0.4244370866
 40
0.5495623595
 40
0.6682137793
 40
0.7255498063
 40
0.7817912969
 40
0.8371402695
 40
0.8918094031
 40
0.9460200802
 40
1.0
 40
1.0
 40
1.0
 40
1.0
 10
14.4139366897
 20
10.2627336075
 30
0.0
 10
14.4160569783
 20
10.2647816491
 30
0.0
 10
14.4202946617
 20
10.2686243511
 30
0.0
 10
14.4268566136
 20
10.273745511
 30
0.0
 10
14.433410949
 20
10.2780285398
 30
0.0
 10
14.4399507233
 20
10.2814664494
 30
0.0
 10
14.4454473266
 20
10.2836464255
 30
0.0
 10
14.4498113828
 20
10.2849417028
 30
0.0
 10
14.4530379653
 20
10.2856881959
 30
0.0
 10
14.4562538207
 20
10.2862202824
 30
0.0
 10
14.459458071
 20
10.2865377347
 30
0.0
 10
14.4626494451
 20
10.2866402862
 30
0.0
 10
14.4647696983
 20
10.2865652692
 30
0.0
 10
14.4658247375
 20
10.2864921013
 30
0.0
  0
SPLINE
  5
320
100
AcDbEntity
  8
0
100
AcDbSpline
 62
7
  6
CONTINUOUS
 70
0
 71
3
 72
14
 73
10
 74
0
 42
0.0000001
 43
0.0000001
 44
0.0000000001
 40
0.0
 40
0.0
 40
0.0
 40
0.0
 40
0.1210599059
 40
0.2425075063
 40
0.3647262724
 40
0.4880918327
 40
0.6129688199
 40
0.7397074089
 40
1.0
 40
1.0
 40
1.0
 40
1.0
 10
14.282855531
 20
9.3049220105
 30
0.0
 10
14.2839030048
 20
9.3048493623
 30
0.0
 10
14.2859975576
 20
9.304642293
 30
0.0
 10
14.2891237281
 20
9.3041475422
 30
0.0
 10
14.292235696
 20
9.3034686389
 30
0.0
 10
14.2953325399
 20
9.3026058234
 30
0.0
 10
14.2984137111
 20
9.3015592148
 30
0.0
 10
14.3025356443
 20
9.299904961
 30
0.0
 10
14.3055486641
 20
9.2984078282
 30
0.0
 10
14.3075202762
 20
9.2973080575
 30
0.0
  0
SPLINE
  5
321
100
AcDbEntity
  8
0
100
AcDbSpline
 62
7
  6
CONTINUOUS
 70
0
 71
3
 72
49
 73
45
 74
0
 42
0.0000001
 43
0.0000001
 44
0.0000000001
 40
0.0
 40
0.0
 40
0.0
 40
0.0
 40
0.0313647276
 40
0.0629203815
 40
0.0946557081
 40
0.1265522539
 40
0.1585871571
 40
0.1907333305
 40
0.222960629
 40
0.2552368779
 40
0.2875289163
 40
0.3198036061
 40
0.3520287822
 40
0.3841741248
 40
0.416211931
 40
0.4481178005
 40
0.4798712314
 40
0.5114561242
 40
0.5428611981
 40
0.5740803094
 40
0.6051126714
 40
0.6359629704
 40
0.6666413629
 40
0.6971633382
 40
0.7123759111
 40
0.7275574858
 40
0.7427113456
 40
0.7578410172
 40
0.7729502445
 40
0.7880429875
 40
0.8031233479
 40
0.818195588
 40
0.8332640575
 40
0.8483331691
 40
0.8634073825
 40
0.878491113
 40
0.8935887559
 40
0.9087045918
 40
0.9238427702
 40
0.9390072856
 40
0.9542018851
 40
0.9694301041
 40
0.9846951755
 40
1.0
 40
1.0
 40
1.0
 40
1.0
 10
10.2459831677
 20
6.8538706072
 30
0.0
 10
10.2387293838
 20
6.8543736588
 30
0.0
 10
10.2242154661
 20
6.8560490345
 30
0.0
 10
10.202703466
 20
6.8605191573
 30
0.0
 10
10.1815529844
 20
6.8669140157
 30
0.0
 10
10.1609410001
 20
6.8751758326
 30
0.0
 10
10.1410353115
 20
6.8852304584
 30
0.0
 10
10.1219964802
 20
6.8969887229
 30
0.0
 10
10.103975413
 20
6.9103477181
 30
0.0
 10
10.0871124827
 20
6.9251924044
 30
0.0
 10
10.0715365383
 20
6.9413971459
 30
0.0
 10
10.0573642705
 20
6.9588272597
 30
0.0
 10
10.0446997624
 20
6.9773404919
 30
0.0
 10
10.0336342254
 20
6.9967883984
 30
0.0
 10
10.0242459486
 20
7.0170176462
 30
0.0
 10
10.016600317
 20
7.0378711455
 30
0.0
 10
10.0107498988
 20
7.0591890595
 30
0.0
 10
10.0067345697
 20
7.0808096987
 30
0.0
 10
10.0045816025
 20
7.1025702979
 30
0.0
 10
10.0043057706
 20
7.1243077716
 30
0.0
 10
10.0059093504
 20
7.1458592561
 30
0.0
 10
10.0093823225
 20
7.1670632345
 30
0.0
 10
10.0147014628
 20
7.1877584544
 30
0.0
 10
10.0206517342
 20
7.2044722477
 30
0.0
 10
10.0262925705
 20
7.2174232551
 30
0.0
 10
10.0309519727
 20
7.2269033041
 30
0.0
 10
10.0360360804
 20
7.23614039
 30
0.0
 10
10.0415361236
 20
7.2451164657
 30
0.0
 10
10.0474422397
 20
7.2538136188
 30
0.0
 10
10.0537440374
 20
7.2622142457
 30
0.0
 10
10.0604300287
 20
7.2703013479
 30
0.0
 10
10.067488103
 20
7.278058268
 30
0.0
 10
10.0749052806
 20
7.2854688979
 30
0.0
 10
10.0826676938
 20
7.2925177931
 30
0.0
 10
10.0907608708
 20
7.2991898993
 30
0.0
 10
10.0991693362
 20
7.3054710815
 30
0.0
 10
10.1078770289
 20
7.3113476862
 30
0.0
 10
10.1168670728
 20
7.3168068913
 30
0.0
 10
10.1261218352
 20
7.3218367568
 30
0.0
 10
10.1356231303
 20
7.3264259378
 30
0.0
 10
10.1453519375
 20
7.3305642817
 30
0.0
 10
10.1552888478
 20
7.3342423297
 30
0.0
 10
10.1654134474
 20
7.3374515863
 30
0.0
 10
10.1722659844
 20
7.3392714149
 30
0.0
 10
10.1757157089
 20
7.3401010334
 30
0.0
  0
SPLINE
  5
322
100
AcDbEntity
  8
0
100
AcDbSpline
 62
7
  6
CONTINUOUS
 70
0
 71
3
 72
14
 73
10
 74
0
 42
0.0000001
 43
0.0000001
 44
0.0000000001
 40
0.0
 40
0.0
 40
0.0
 40
0.0
 40
0.2600767773
 40
0.3867771459
 40
0.5116555349
 40
0.6350549924
 40
0.7573323982
 40
0.8788556773
 40
1.0
 40
1.0
 40
1.0
 40
1.0
 10
14.1889052676
 20
7.591070777
 30
0.0
 10
14.1868243364
 20
7.5902734883
 30
0.0
 10
14.1836699842
 20
7.589233184
 30
0.0
 10
14.1794098835
 20
7.5881916537
 30
0.0
 10
14.1762507521
 20
7.5875967793
 30
0.0
 10
14.1731012842
 20
7.587181904
 30
0.0
 10
14.1699620129
 20
7.5869471479
 30
0.0
 10
14.1668338608
 20
7.5868925549
 30
0.0
 10
14.1647549059
 20
7.5869763533
 30
0.0
 10
14.1637193814
 20
7.5870481726
 30
0.0
  0
SPLINE
  5
323
100
AcDbEntity
  8
0
100
AcDbSpline
 62
7
  6
CONTINUOUS
 70
0
 71
3
 72
48
 73
44
 74
0
 42
0.0000001
 43
0.0000001
 44
0.0000000001
 40
0.0
 40
0.0
 40
0.0
 40
0.0
 40
0.0071626074
 40
0.0146566713
 40
0.0224898148
 40
0.030668309
 40
0.0391972639
 40
0.0480804654
 40
0.0573201794
 40
0.0669176915
 40
0.0768732994
 40
0.0871864733
 40
0.0978559919
 40
0.1088798031
 40
0.1202553551
 40
0.1319794325
 40
0.1440483172
 40
0.1564578568
 40
0.1692033375
 40
0.1822797519
 40
0.2094025086
 40
0.2377787704
 40
0.2673553198
 40
0.2980742587
 40
0.3298735056
 40
0.3626872076
 40
0.3964461051
 40
0.4310778582
 40
0.4665073457
 40
0.5026569784
 40
0.5394469828
 40
0.5767956709
 40
0.6146197004
 40
0.6528343283
 40
0.691353678
 40
0.7300909944
 40
0.7689589057
 40
0.807869652
 40
0.8467353316
 40
0.8854683467
 40
0.9239807756
 40
0.9621873118
 40
1.0
 40
1.0
 40
1.0
 40
1.0
 10
6.4629690938
 20
9.9247562909
 30
0.0
 10
6.4613444788
 20
9.9231870333
 30
0.0
 10
6.4580974127
 20
9.9198950576
 30
0.0
 10
6.4533382677
 20
9.9146341821
 30
0.0
 10
6.4485851711
 20
9.9089437319
 30
0.0
 10
6.4438411854
 20
9.9028273907
 30
0.0
 10
6.4391089141
 20
9.896288743
 30
0.0
 10
6.4343911454
 20
9.8893315437
 30
0.0
 10
6.4296905303
 20
9.8819599397
 30
0.0
 10
6.4250099677
 20
9.8741782735
 30
0.0
 10
6.4203522177
 20
9.8659912017
 30
0.0
 10
6.4157200285
 20
9.8574036068
 30
0.0
 10
6.4111162436
 20
9.8484205804
 30
0.0
 10
6.4065435255
 20
9.8390475222
 30
0.0
 10
6.4020047108
 20
9.8292900118
 30
0.0
 10
6.3975024821
 20
9.8191539107
 30
0.0
 10
6.3930395413
 20
9.8086452934
 30
0.0
 10
6.3886186383
 20
9.797770453
 30
0.0
 10
6.3842423264
 20
9.786535926
 30
0.0
 10
6.378399135
 20
9.77089506
 30
0.0
 10
6.371238197
 20
9.7504869313
 30
0.0
 10
6.3629655065
 20
9.7249630264
 30
0.0
 10
6.3549319745
 20
9.69817677
 30
0.0
 10
6.3471570491
 20
9.6701925699
 30
0.0
 10
6.3396595579
 20
9.6410775646
 30
0.0
 10
6.3324576529
 20
9.6109017146
 30
0.0
 10
6.3255687682
 20
9.5797375499
 30
0.0
 10
6.3190095781
 20
9.5476600171
 30
0.0
 10
6.3127959402
 20
9.5147462907
 30
0.0
 10
6.3069428749
 20
9.4810755772
 30
0.0
 10
6.3014645291
 20
9.446728915
 30
0.0
 10
6.2963741412
 20
9.4117889781
 30
0.0
 10
6.2916840142
 20
9.3763398791
 30
0.0
 10
6.2874054699
 20
9.3404669682
 30
0.0
 10
6.2835488302
 20
9.3042566231
 30
0.0
 10
6.2801233983
 20
9.2677960338
 30
0.0
 10
6.2771374362
 20
9.2311729961
 30
0.0
 10
6.2745981478
 20
9.1944757063
 30
0.0
 10
6.2725116397
 20
9.1577924945
 30
0.0
 10
6.2708829559
 20
9.1212118363
 30
0.0
 10
6.2697159333
 20
9.0848214759
 30
0.0
 10
6.2690134695
 20
9.0487095092
 30
0.0
 10
6.2688549702
 20
9.0247363586
 30
0.0
 10
6.2688549702
 20
9.0128120219
 30
0.0
  0
SPLINE
  5
324
100
AcDbEntity
  8
0
100
AcDbSpline
 62
7
  6
CONTINUOUS
 70
0
 71
3
 72
19
 73
15
 74
0
 42
0.0000001
 43
0.0000001
 44
0.0000000001
 40
0.0
 40
0.0
 40
0.0
 40
0.0
 40
0.1273273743
 40
0.2538195733
 40
0.3795265683
 40
0.5045235045
 40
0.566807592
 40
0.6289556157
 40
0.6909843819
 40
0.7529118319
 40
0.814757013
 40
0.8765397086
 40
0.9382804082
 40
1.0
 40
1.0
 40
1.0
 40
1.0
 10
10.1204128028
 20
7.8929119999
 30
0.0
 10
10.1204128028
 20
7.8969157473
 30
0.0
 10
10.1207950698
 20
7.9049024881
 30
0.0
 10
10.1225239425
 20
7.9167291524
 30
0.0
 10
10.1253904086
 20
7.9282580985
 30
0.0
 10
10.1287109711
 20
7.9375418858
 30
0.0
 10
10.1319044275
 20
7.9447085134
 30
0.0
 10
10.1345600249
 20
7.9499387563
 30
0.0
 10
10.1374723395
 20
7.9550174479
 30
0.0
 10
10.1406348525
 20
7.9599329745
 30
0.0
 10
10.1440400852
 20
7.9646740468
 30
0.0
 10
10.1476804179
 20
7.9692296416
 30
0.0
 10
10.1515471147
 20
7.9735892609
 30
0.0
 10
10.1542705282
 20
7.9763587088
 30
0.0
 10
10.1556664187
 20
7.9777070306
 30
0.0
  0
SPLINE
  5
325
100
AcDbEntity
  8
0
100
AcDbSpline
 62
7
  6
CONTINUOUS
 70
0
 71
3
 72
59
 73
55
 74
0
 42
0.0000001
 43
0.0000001
 44
0.0000000001
 40
0.0
 40
0.0
 40
0.0
 40
0.0
 40
0.0095820752
 40
0.0187369211
 40
0.0274867456
 40
0.0358591958
 40
0.0438870727
 40
0.0516082534
 40
0.0590659264
 40
0.0663085295
 40
0.0733895822
 40
0.0803667288
 40
0.087300435
 40
0.0942524047
 40
0.1012838148
 40
0.1084536306
 40
0.1158171455
 40
0.1234250646
 40
0.1313227404
 40
0.1395501492
 40
0.1481419437
 40
0.1571276511
 40
0.1665323645
 40
0.1763769063
 40
0.1866785022
 40
0.1974512438
 40
0.2087062367
 40
0.2204523228
 40
0.2326960713
 40
0.2454421539
 40
0.2586937242
 40
0.2724522489
 40
0.2867180603
 40
0.3014902608
 40
0.3167668137
 40
0.3325449153
 40
0.3488206868
 40
0.3655895755
 40
0.3828463177
 40
0.4005848304
 40
0.4187986015
 40
0.4374803737
 40
0.4762157245
 40
0.5167238254
 40
0.5589294965
 40
0.6027510569
 40
0.6481009198
 40
0.6948862517
 40
0.7430094248
 40
0.7923685878
 40
0.8428581272
 40
0.8943678842
 40
0.9467881759
 40
1.0
 40
1.0
 40
1.0
 40
1.0
 10
13.6149334608
 20
6.3496136768
 30
0.0
 10
13.6135182441
 20
6.3482966145
 30
0.0
 10
13.6106889815
 20
6.3457865196
 30
0.0
 10
13.6063480616
 20
6.3423308584
 30
0.0
 10
13.6020115852
 20
6.3392751381
 30
0.0
 10
13.5976820846
 20
6.3366215413
 30
0.0
 10
13.59336171
 20
6.3343718859
 30
0.0
 10
13.5890526512
 20
6.332528065
 30
0.0
 10
13.5847573855
 20
6.3310916753
 30
0.0
 10
13.5804785017
 20
6.3300645553
 30
0.0
 10
13.57621898
 20
6.3294480674
 30
0.0
 10
13.5719820508
 20
6.3292431745
 30
0.0
 10
13.5677711908
 20
6.3294505793
 30
0.0
 10
13.5635899604
 20
6.33006995
 30
0.0
 10
13.5594418346
 20
6.3311006821
 30
0.0
 10
13.5553300356
 20
6.3325414585
 30
0.0
 10
13.5512573573
 20
6.3343904698
 30
0.0
 10
13.5472264016
 20
6.3366459659
 30
0.0
 10
13.5432393178
 20
6.3393057273
 30
0.0
 10
13.5392981954
 20
6.3423677028
 30
0.0
 10
13.5354050379
 20
6.3458297357
 30
0.0
 10
13.5315616649
 20
6.3496894539
 30
0.0
 10
13.5277701315
 20
6.353944579
 30
0.0
 10
13.5240323025
 20
6.3585924872
 30
0.0
 10
13.5203501547
 20
6.3636304647
 30
0.0
 10
13.5167257596
 20
6.3690556249
 30
0.0
 10
13.5131609985
 20
6.374864755
 30
0.0
 10
13.5096579824
 20
6.3810545417
 30
0.0
 10
13.5062186649
 20
6.3876213605
 30
0.0
 10
13.5028449923
 20
6.3945613741
 30
0.0
 10
13.499539025
 20
6.4018705604
 30
0.0
 10
13.4963025884
 20
6.409544597
 30
0.0
 10
13.4931376559
 20
6.4175789982
 30
0.0
 10
13.4900460962
 20
6.4259690304
 30
0.0
 10
13.4870296762
 20
6.4347097329
 30
0.0
 10
13.4840902844
 20
6.4437959641
 30
0.0
 10
13.4812295844
 20
6.4532223324
 30
0.0
 10
13.4784493105
 20
6.4629832645
 30
0.0
 10
13.4757511509
 20
6.4730729818
 30
0.0
 10
13.4731366428
 20
6.48348549
 30
0.0
 10
13.4706074095
 20
6.4942146346
 30
0.0
 10
13.4673110042
 20
6.5091138624
 30
0.0
 10
13.4634263596
 20
6.528487718
 30
0.0
 10
13.4591818428
 20
6.5526226778
 30
0.0
 10
13.455310298
 20
6.5778588319
 30
0.0
 10
13.4518210525
 20
6.604136217
 30
0.0
 10
13.4487225194
 20
6.6313925213
 30
0.0
 10
13.4460221717
 20
6.6595630024
 30
0.0
 10
13.4437265255
 20
6.6885807441
 30
0.0
 10
13.4418411319
 20
6.7183768212
 30
0.0
 10
13.4403705763
 20
6.7488802518
 30
0.0
 10
13.4393183282
 20
6.7800188931
 30
0.0
 10
13.4386870669
 20
6.8117181575
 30
0.0
 10
13.4385487685
 20
6.8330305543
 30
0.0
 10
13.4385487685
 20
6.8437664591
 30
0.0
  0
SPLINE
  5
326
100
AcDbEntity
  8
0
100
AcDbSpline
 62
7
  6
CONTINUOUS
 70
0
 71
3
 72
52
 73
48
 74
0
 42
0.0000001
 43
0.0000001
 44
0.0000000001
 40
0.0
 40
0.0
 40
0.0
 40
0.0
 40
0.0063158553
 40
0.0126706174
 40
0.01910243
 40
0.0256479406
 40
0.0323417857
 40
0.0392161126
 40
0.053613856
 40
0.0611945619
 40
0.0690562627
 40
0.0772173394
 40
0.0856937117
 40
0.0944990433
 40
0.1036451224
 40
0.1131418745
 40
0.1229975663
 40
0.1332191544
 40
0.1438122273
 40
0.1547811769
 40
0.1661294967
 40
0.1778596595
 40
0.1899732643
 40
0.2024712882
 40
0.21535392
 40
0.2286206932
 40
0.2422707016
 40
0.2563024051
 40
0.2707137575
 40
0.3006646369
 40
0.3320997476
 40
0.3649888706
 40
0.3992966303
 40
0.4349829523
 40
0.4720037374
 40
0.5103111432
 40
0.5498538098
 40
0.5905773434
 40
0.6324244938
 40
0.6753352948
 40
0.7192474009
 40
0.764096263
 40
0.8098154275
 40
0.8563361116
 40
0.903587964
 40
0.9515019894
 40
1.0
 40
1.0
 40
1.0
 40
1.0
 10
13.504840672
 20
6.2717166265
 30
0.0
 10
13.5035730315
 20
6.2718045385
 30
0.0
 10
13.5010359308
 20
6.272084645
 30
0.0
 10
13.4972587097
 20
6.2728147858
 30
0.0
 10
13.4935067495
 20
6.2738549043
 30
0.0
 10
13.4897822173
 20
6.275204083
 30
0.0
 10
13.4860865903
 20
6.2768616134
 30
0.0
 10
13.4811243843
 20
6.2795216669
 30
0.0
 10
13.4762968776
 20
6.2827778859
 30
0.0
 10
13.4716251468
 20
6.2865514257
 30
0.0
 10
13.468096373
 20
6.2897329151
 30
0.0
 10
13.4646052954
 20
6.2932150821
 30
0.0
 10
13.4611528013
 20
6.2969966883
 30
0.0
 10
13.4577402301
 20
6.3010760409
 30
0.0
 10
13.454368906
 20
6.3054515438
 30
0.0
 10
13.4510401178
 20
6.3101213935
 30
0.0
 10
13.4477551029
 20
6.3150836633
 30
0.0
 10
13.4445152189
 20
6.3203363859
 30
0.0
 10
13.441321734
 20
6.3258774175
 30
0.0
 10
13.4381758784
 20
6.3317044848
 30
0.0
 10
13.4350789834
 20
6.3378152538
 30
0.0
 10
13.4320322829
 20
6.3442072236
 30
0.0
 10
13.4290369746
 20
6.3508777698
 30
0.0
 10
13.4260943427
 20
6.3578241951
 30
0.0
 10
13.4232055697
 20
6.3650436471
 30
0.0
 10
13.4203718031
 20
6.3725331572
 30
0.0
 10
13.4175942722
 20
6.3802896741
 30
0.0
 10
13.4148740733
 20
6.3883100161
 30
0.0
 10
13.4112788742
 20
6.3994950939
 30
0.0
 10
13.406946971
 20
6.414118984
 30
0.0
 10
13.4020591591
 20
6.4324476938
 30
0.0
 10
13.3974254988
 20
6.4517448179
 30
0.0
 10
13.3930537019
 20
6.4719786043
 30
0.0
 10
13.3889510048
 20
6.4931158907
 30
0.0
 10
13.385124262
 20
6.5151219426
 30
0.0
 10
13.3815798736
 20
6.5379605764
 30
0.0
 10
13.3783237045
 20
6.5615941941
 30
0.0
 10
13.3753611971
 20
6.5859838765
 30
0.0
 10
13.3726973133
 20
6.6110894446
 30
0.0
 10
13.3703364562
 20
6.6368695134
 30
0.0
 10
13.3682825709
 20
6.6632815755
 30
0.0
 10
13.3665391031
 20
6.6902821101
 30
0.0
 10
13.3651089423
 20
6.7178265501
 30
0.0
 10
13.3639944687
 20
6.7458693755
 30
0.0
 10
13.363197546
 20
6.7743647587
 30
0.0
 10
13.3627195714
 20
6.8032650875
 30
0.0
 10
13.3626145961
 20
6.8226623754
 30
0.0
 10
13.3626145961
 20
6.8324196766
 30
0.0
  0
SPLINE
  5
327
100
AcDbEntity
  8
0
100
AcDbSpline
 62
7
  6
CONTINUOUS
 70
0
 71
3
 72
52
 73
48
 74
0
 42
0.0000001
 43
0.0000001
 44
0.0000000001
 40
0.0
 40
0.0
 40
0.0
 40
0.0
 40
0.0063158561
 40
0.0126706182
 40
0.0191024302
 40
0.0256479396
 40
0.032341783
 40
0.0392161076
 40
0.0536138456
 40
0.0611945484
 40
0.0690562459
 40
0.0772173191
 40
0.0856936879
 40
0.0944990159
 40
0.1036450915
 40
0.11314184
 40
0.1229975283
 40
0.1332191131
 40
0.1438121826
 40
0.1547811291
 40
0.1661294459
 40
0.1778596059
 40
0.189973208
 40
0.2024712293
 40
0.2153538588
 40
0.2286206298
 40
0.2422706362
 40
0.256302338
 40
0.2707136888
 40
0.3006645658
 40
0.3320996748
 40
0.364988797
 40
0.3992965567
 40
0.4349828797
 40
0.4720036665
 40
0.5103110747
 40
0.5498537446
 40
0.5905772821
 40
0.6324244372
 40
0.6753352434
 40
0.7192473555
 40
0.764096224
 40
0.8098153955
 40
0.8563360871
 40
0.9035879473
 40
0.9515019809
 40
1.0
 40
1.0
 40
1.0
 40
1.0
 10
12.479027501
 20
6.3428570115
 30
0.0
 10
12.4777598602
 20
6.3429449216
 30
0.0
 10
12.4752227585
 20
6.3432250243
 30
0.0
 10
12.4714455358
 20
6.3439551595
 30
0.0
 10
12.467693574
 20
6.3449952727
 30
0.0
 10
12.4639690403
 20
6.3463444462
 30
0.0
 10
12.4602734116
 20
6.3480019717
 30
0.0
 10
12.4553112035
 20
6.3506620187
 30
0.0
 10
12.4504836945
 20
6.3539182319
 30
0.0
 10
12.4458119615
 20
6.3576917662
 30
0.0
 10
12.4422831861
 20
6.3608732517
 30
0.0
 10
12.4387921068
 20
6.3643554149
 30
0.0
 10
12.4353396111
 20
6.3681370177
 30
0.0
 10
12.4319270382
 20
6.372216367
 30
0.0
 10
12.4285557126
 20
6.3765918667
 30
0.0
 10
12.4252269228
 20
6.3812617135
 30
0.0
 10
12.4219419062
 20
6.3862239805
 30
0.0
 10
12.4187020207
 20
6.3914767006
 30
0.0
 10
12.4155085341
 20
6.3970177299
 30
0.0
 10
12.4123626769
 20
6.4028447951
 30
0.0
 10
12.4092657803
 20
6.4089555622
 30
0.0
 10
12.4062190783
 20
6.4153475303
 30
0.0
 10
12.4032237684
 20
6.4220180749
 30
0.0
 10
12.400281135
 20
6.428964499
 30
0.0
 10
12.3973923605
 20
6.4361839498
 30
0.0
 10
12.3945585924
 20
6.443673459
 30
0.0
 10
12.39178106
 20
6.4514299752
 30
0.0
 10
12.3890608597
 20
6.4594503166
 30
0.0
 10
12.3854656586
 20
6.470635394
 30
0.0
 10
12.381133753
 20
6.4852592841
 30
0.0
 10
12.3762459385
 20
6.5035879945
 30
0.0
 10
12.3716122757
 20
6.52288512
 30
0.0
 10
12.3672404763
 20
6.5431189085
 30
0.0
 10
12.3631377769
 20
6.5642561976
 30
0.0
 10
12.3593110319
 20
6.5862622528
 30
0.0
 10
12.3557666415
 20
6.6091008907
 30
0.0
 10
12.3525104706
 20
6.6327345129
 30
0.0
 10
12.3495479614
 20
6.6571242005
 30
0.0
 10
12.346884076
 20
6.6822297743
 30
0.0
 10
12.3445232176
 20
6.7080098493
 30
0.0
 10
12.3424693311
 20
6.7344219181
 30
0.0
 10
12.3407258623
 20
6.7614224598
 30
0.0
 10
12.3392957006
 20
6.7889669072
 30
0.0
 10
12.3381812263
 20
6.8170097404
 30
0.0
 10
12.3373843032
 20
6.8455051318
 30
0.0
 10
12.3369063283
 20
6.874405469
 30
0.0
 10
12.336801353
 20
6.8938027626
 30
0.0
 10
12.336801353
 20
6.9035600666
 30
0.0
  0
SPLINE
  5
328
100
AcDbEntity
  8
0
100
AcDbSpline
 62
7
  6
CONTINUOUS
 70
0
 71
3
 72
11
 73
7
 74
0
 42
0.0000001
 43
0.0000001
 44
0.0000000001
 40
0.0
 40
0.0
 40
0.0
 40
0.0
 40
0.2523046221
 40
0.503005335
 40
0.7521919944
 40
1.0
 40
1.0
 40
1.0
 40
1.0
 10
11.0511787295
 20
6.6755781362
 30
0.0
 10
11.0511787295
 20
6.6802303024
 30
0.0
 10
11.0516088184
 20
6.6895110208
 30
0.0
 10
11.0535538967
 20
6.7032636752
 30
0.0
 10
11.0567797452
 20
6.7166884175
 30
0.0
 10
11.0597750011
 20
6.7253669785
 30
0.0
 10
11.0614748792
 20
6.7296082637
 30
0.0
  0
ELLIPSE
  5
329
100
AcDbEntity
  8
0
100
AcDbEllipse
 62
7
  6
CONTINUOUS
 10
9.5814259645
 20
7.9302908641
 30
0.0
 11
0.3177404275
 21
-0.0504681721
 31
0.0
 40
0.7464868657
 41
0.0
 42
6.2831853072
  0
ELLIPSE
  5
32A
100
AcDbEntity
  8
0
100
AcDbEllipse
 62
7
  6
CONTINUOUS
 10
10.2459831677
 20
8.6685354604
 30
0.0
 11
0.3185822622
 21
-0.0072148809
 31
0.0
 40
0.7608900324
 41
0.0
 42
6.2831853072
  0
ENDSEC
  0
SECTION
  2
OBJECTS
  0
DICTIONARY
  5
C
100
AcDbDictionary
280
0
281
1
  3
ACAD_GROUP
350
D
  3
ACAD_MLINESTYLE
350
17
  3
ACAD_LAYOUT
350
1A
  3
ACAD_PLOTSETTINGS
350
19
  3
ACAD_PLOTSTYLENAME
350
E
  3
ACAD_IMAGE_DICT
350
       32C
  3
ACAD_IMAGE_VARS
350
       32D
  3
ACAD_TABLESTYLE
350
       32E
  0
IMAGEDEF_REACTOR
  5
32B
100
AcDbRasterImageDefReactor
 90
2
330
275
  0
DICTIONARY
  5
D
102
{ACAD_REACTORS
330
C
102
}
100
AcDbDictionary
280
0
281
1
  0
ACDBDICTIONARYWDFLT
  5
E
102
{ACAD_REACTORS
330
C
102
}
100
AcDbDictionary
281
1
  3
Normal
350
F
100
AcDbDictionaryWithDefault
340
F
  0
DICTIONARY
  5
32C
330
C
100
AcDbDictionary
281
1
  3
Z3N_assy_2_img_1
350
       331
  0
RASTERVARIABLES
  5
32D
330
C
100
AcDbRasterVariables
 90
0
 70
0
 71
1
 72
5
  0
DICTIONARY
  5
17
102
{ACAD_REACTORS
330
C
102
}
100
AcDbDictionary
280
0
281
1
  3
Standard
350
18
  0
DICTIONARY
  5
32E
330
C
100
AcDbDictionary
281
1
  3
Standard
350
       332
  3
Standard1
350
       333
  0
DICTIONARY
  5
19
102
{ACAD_REACTORS
330
C
102
}
100
AcDbDictionary
281
1
  0
DICTIONARY
  5
1A
102
{ACAD_REACTORS
330
C
102
}
100
AcDbDictionary
281
1
  3
Model
350
32F
  3
Layout1
350
330
  0
ACDBPLACEHOLDER
  5
F
102
{ACAD_REACTORS
330
E
102
}
  0
MLINESTYLE
  5
18
102
{ACAD_REACTORS
330
17
102
}
100
AcDbMlineStyle
  2
STANDARD
 70
0
  3

 62
256
 51
90.0
 52
90.0
 71
2
 49
0.5
 62
256
  6
BYLAYER
 49
-0.5
 62
256
  6
BYLAYER
  0
LAYOUT
  5
32F
102
{ACAD_REACTORS
330
1A
102
}
100
AcDbPlotSettings
  1

  2
none_device
  4
ANSI_C_(22.00_x_17.00_Inches)
  6

 40
0.0
 41
0.0
 42
0.0
 43
0.0
 44
558.8
 45
431.8
 46
0.0
 47
0.0
 48
0.0
 49
0.0
140
0.0
141
0.0
142
1.0
143
1.0
 70
1024
 72
0
 73
0
 74
0
  7

 75
0
147
1.0
148
0.0
149
0.0
100
AcDbLayout
  1
Model
 70
0
 71
0
 10
0.0
 20
0.0
 11
22.0
 21
17.0
 12
0.0
 22
0.0
 32
0.0
 14
0.0
 24
0.0
 34
0.0
 15
0.0
 25
0.0
 35
0.0
146
0.0
 13
0.0
 23
0.0
 33
0.0
 16
1.0
 26
0.0
 36
0.0
 17
0.0
 27
1.0
 37
0.0
 76
0
330
20F
345
0
346
0
  0
LAYOUT
  5
330
102
{ACAD_REACTORS
330
1A
102
}
100
AcDbPlotSettings
  1

  2
none_device
  4
ANSI_C_(22.00_x_17.00_Inches)
  6

 40
0.0
 41
0.0
 42
0.0
 43
0.0
 44
558.8
 45
431.8
 46
0.0
 47
0.0
 48
0.0
 49
0.0
140
0.0
141
0.0
142
1.0
143
1.0
 70
0
 72
0
 73
0
 74
0
  7

 75
0
147
1.0
148
0.0
149
0.0
100
AcDbLayout
  1
Layout1
 70
0
 71
1
 10
0.0
 20
0.0
 11
22.0
 21
17.0
 12
0.0
 22
0.0
 32
0.0
 14
0.0
 24
0.0
 34
0.0
 15
0.0
 25
0.0
 35
0.0
146
0.0
 13
0.0
 23
0.0
 33
0.0
 16
1.0
 26
0.0
 36
0.0
 17
0.0
 27
1.0
 37
0.0
 76
0
330
210
345
0
346
0
  0
IMAGEDEF
  5
331
102
{ACAD_REACTORS
330
32C
330
32B
102
}
100
AcDbRasterImageDef
 90
0
  1
Z3N_assy_2_img_1.png
 10
369.0
 20
92.0
 11
0.0066666667
 21
0.0066666667
280
1
281
0
  0
TABLESTYLE
  5
332
102
{ACAD_REACTORS
330
32E
330
278
102
}
330
32E
100
AcDbTableStyle
  3
Standard
 70
0
 71
0
 40
0.06
 41
0.06
280
1
281
1
  7
Standard
140
0.18
170
1
 62
0
 63
7
283
0
  7
Standard
140
0.18
170
1
 62
0
 63
7
283
0
  7
Standard
140
0.18
170
1
 62
0
 63
7
283
0
  0
TABLESTYLE
  5
333
102
{ACAD_REACTORS
330
32E
330
277
102
}
330
32E
100
AcDbTableStyle
  3
Standard1
 70
1
 71
0
 40
0.06
 41
0.06
280
1
281
1
  7
Standard
140
0.18
170
1
 62
0
 63
7
283
0
  7
Standard
140
0.18
170
1
 62
0
 63
7
283
0
  7
Standard
140
0.18
170
1
 62
0
 63
7
283
0
  0
ENDSEC
  0
EOF
