999
DXF file: Z2F_assy_2.dxf
999
Pro/ENGINEER 2014200 by Parametric Technology Corporation
  0
SECTION
  2
HEADER
  9
$ACADVER
  1
AC1021
  9
$DWGCODEPAGE
  3
ANSI_1252
  9
$EXTMAX
 10
22.0
 20
17.0
 30
0.0
  9
$EXTMIN
 10
0.0
 20
0.0
 30
0.0
  9
$LIMMIN
 10
0.0
 20
0.0
  9
$LIMMAX
 10
22.0
 20
17.0
  9
$VIEWCTR
 10
11.0
 20
8.5
  9
$VIEWSIZE
 40
17.0
  9
$CLAYER
  8
0
  9
$LTSCALE
 40
1.21
  9
$CELTYPE
  6
BYLAYER
  9
$DIMSCALE
 40
1.0
  9
$DIMASZ
 40
0.1875
  9
$DIMEXO
 40
0.0625
  9
$DIMDLI
 40
0.836
  9
$DIMEXE
 40
0.125
  9
$DIMCEN
 40
0.198
  9
$DIMLFAC
 40
1.0
  9
$DIMBLK
  1
_FILLED
  9
$DIMTXT
 40
0.1
  9
$DIMTOL
 70
0
  9
$DIMLIM
 70
0
  9
$DIMTFAC
 40
1.0
  9
$DIMGAP
 40
0.09
  9
$DIMDSEP
 70
46
  9
$AUNITS
 70
0
  9
$PDMODE
 70
3
  9
$PDSIZE
 40
0.3125
  9
$HANDSEED
  5
36A
  9
$TILEMODE
 70
1
  9
$MEASUREMENT
 70
0
  9
$INSUNITS
 70
1
  0
ENDSEC
  0
SECTION
  2
CLASSES
  0
CLASS
  1
ACDBDICTIONARYWDFLT
  2
AcDbDictionaryWithDefault
  3
AutoCAD 2000
 90
0
 91
1
280
0
281
0
  0
CLASS
  1
ACDBPLACEHOLDER
  2
AcDbPlaceHolder
  3
AutoCAD 2000
 90
0
 91
1
280
0
281
0
  0
CLASS
  1
LAYOUT
  2
AcDbLayout
  3
AutoCAD 2000
 90
0
 91
0
280
0
281
0
  0
CLASS
  1
RASTERVARIABLES
  2
AcDbRasterVariables
  3
ISM
 90
0
 91
1
280
0
281
0
  0
CLASS
  1
IMAGEDEF
  2
AcDbRasterImageDef
  3
ISM
 90
0
 91
1
280
0
281
0
  0
CLASS
  1
IMAGEDEF_REACTOR
  2
AcDbRasterImageDefReactor
  3
ISM
 90
0
 91
1
280
0
281
0
  0
CLASS
  1
IMAGE
  2
AcDbRasterImage
  3
ISM
 90
127
 91
1
280
0
281
1
  0
CLASS
  1
TABLESTYLE
  2
AcDbTableStyle
  3
ObjectDBX Classes
 90
2047
 91
1
280
0
281
0
  0
CLASS
  1
ACAD_TABLE
  2
AcDbTable
  3
ObjectDBX Classes
 90
1025
 91
3
280
0
281
1
  0
ENDSEC
  0
SECTION
  2
TABLES
  0
TABLE
  2
VPORT
  5
8
100
AcDbSymbolTable
 70
2
  0
VPORT
  5
1F4
100
AcDbSymbolTableRecord
100
AcDbViewportTableRecord
  2
*ACTIVE
 70
0
 10
0.0
 20
0.0
 11
1.0
 21
1.0
 12
11.0
 22
8.5
 13
0.0
 23
0.0
 14
1.0
 24
1.0
 15
0.0
 25
0.0
 16
0.0
 26
0.0
 36
1.0
 17
0.0
 27
0.0
 37
0.0
 40
17.0
 41
1.2941176471
 42
50.0
 43
0.0
 44
0.0
 50
0.0
 51
0.0
 71
0
 72
100
 73
1
 74
1
 75
0
 76
0
 77
0
 78
0
  0
ENDTAB
  0
TABLE
  2
LTYPE
  5
5
100
AcDbSymbolTable
 70
6
  0
LTYPE
  5
14
100
AcDbSymbolTableRecord
100
AcDbLinetypeTableRecord
  2
BYBLOCK
 70
0
  3

 72
65
 73
0
 40
0.0
  0
LTYPE
  5
15
100
AcDbSymbolTableRecord
100
AcDbLinetypeTableRecord
  2
BYLAYER
 70
0
  3

 72
65
 73
0
 40
0.0
  0
LTYPE
  5
16
100
AcDbSymbolTableRecord
100
AcDbLinetypeTableRecord
  2
CONTINUOUS
 70
64
  3
Solid line
 72
65
 73
0
 40
0.0
  0
LTYPE
  5
1F5
100
AcDbSymbolTableRecord
100
AcDbLinetypeTableRecord
  2
CENTER
 70
64
  3
____ _ ____ _ ____ _ ____ _ ____ _ ____ _ ____
 72
65
 73
4
 40
0.6
 49
0.375
 74
0
 49
-0.075
 74
0
 49
0.075
 74
0
 49
-0.075
 74
0
  0
LTYPE
  5
1F6
100
AcDbSymbolTableRecord
100
AcDbLinetypeTableRecord
  2
HIDDEN
 70
64
  3
- - - - - - - - - - - - - - - - - - - -
 72
65
 73
2
 40
0.2
 49
0.1
 74
0
 49
-0.1
 74
0
  0
LTYPE
  5
1F7
100
AcDbSymbolTableRecord
100
AcDbLinetypeTableRecord
  2
PHANTOM
 70
64
  3
_____ _ _ _____ _ _ _____ _ _ _____
 72
65
 73
6
 40
0.8
 49
0.45
 74
0
 49
-0.05
 74
0
 49
0.1
 74
0
 49
-0.05
 74
0
 49
0.1
 74
0
 49
-0.05
 74
0
  0
LTYPE
  5
1F8
100
AcDbSymbolTableRecord
100
AcDbLinetypeTableRecord
  2
DOT
 70
64
  3
. . . . . . . . . . . . . . . . . . . .
 72
65
 73
2
 40
0.2
 49
0.1
 74
0
 49
-0.1
 74
0
  0
LTYPE
  5
1F9
100
AcDbSymbolTableRecord
100
AcDbLinetypeTableRecord
  2
DASHED
 70
64
  3
- - - - - - - - - - - - - - - - - - - -
 72
65
 73
2
 40
0.2
 49
0.1
 74
0
 49
-0.1
 74
0
  0
ENDTAB
  0
TABLE
  2
LAYER
  5
2
100
AcDbSymbolTable
 70
36
  0
LAYER
  5
10
100
AcDbSymbolTableRecord
100
AcDbLayerTableRecord
  2
0
 70
0
 62
7
  6
CONTINUOUS
370
-3
390
F
  0
LAYER
  5
1FA
100
AcDbSymbolTableRecord
100
AcDbLayerTableRecord
  2
DEFAULT_1
 70
0
 62
7
  6
CENTER
370
-3
390
F
  0
LAYER
  5
1FB
100
AcDbSymbolTableRecord
100
AcDbLayerTableRecord
  2
DEFAULT_2
 70
0
 62
8
  6
HIDDEN
370
-3
390
F
  0
LAYER
  5
1FC
100
AcDbSymbolTableRecord
100
AcDbLayerTableRecord
  2
DEFAULT_3
 70
0
 62
7
  6
PHANTOM
370
-3
390
F
  0
LAYER
  5
1FD
100
AcDbSymbolTableRecord
100
AcDbLayerTableRecord
  2
DATUM_PLANES
 70
0
 62
7
  6
CONTINUOUS
370
-3
390
F
  0
LAYER
  5
1FE
100
AcDbSymbolTableRecord
100
AcDbLayerTableRecord
  2
PORT_AREAS
 70
0
 62
7
  6
CONTINUOUS
370
-3
390
F
  0
LAYER
  5
1FF
100
AcDbSymbolTableRecord
100
AcDbLayerTableRecord
  2
SUNNBOMCOSMETIC
 70
0
 62
7
  6
CONTINUOUS
370
-3
390
F
  0
LAYER
  5
200
100
AcDbSymbolTableRecord
100
AcDbLayerTableRecord
  2
SUNNBOMSTAMPING
 70
0
 62
7
  6
CONTINUOUS
370
-3
390
F
  0
LAYER
  5
201
100
AcDbSymbolTableRecord
100
AcDbLayerTableRecord
  2
THREADS
 70
0
 62
7
  6
CONTINUOUS
370
-3
390
F
  0
ENDTAB
  0
TABLE
  2
STYLE
  5
3
100
AcDbSymbolTable
 70
1
  0
STYLE
  5
11
100
AcDbSymbolTableRecord
100
AcDbTextStyleTableRecord
  2
STANDARD
 70
0
 40
0.0
 41
0.8
 50
0.0
 71
0
 42
0.2
  3
txt
  4

  0
STYLE
  5
202
100
AcDbSymbolTableRecord
100
AcDbTextStyleTableRecord
  2
TEXTSTYLE_1
 70
0
 40
0.0
 41
0.8
 50
0.0
 71
0
 42
0.2
  3
gdt
  4

  0
ENDTAB
  0
TABLE
  2
VIEW
  5
6
100
AcDbSymbolTable
 70
0
  0
ENDTAB
  0
TABLE
  2
UCS
  5
7
100
AcDbSymbolTable
 70
0
  0
ENDTAB
  0
TABLE
  2
APPID
  5
9
100
AcDbSymbolTable
 70
1
  0
APPID
  5
203
100
AcDbSymbolTableRecord
100
AcDbRegAppTableRecord
  2
ACAD
 70
0
  0
ENDTAB
  0
TABLE
  2
BLOCK_RECORD
  5
1
100
AcDbSymbolTable
 70
0
  0
BLOCK_RECORD
  5
204
100
AcDbSymbolTableRecord
100
AcDbBlockTableRecord
  2
*Model_Space
  0
BLOCK_RECORD
  5
205
100
AcDbSymbolTableRecord
100
AcDbBlockTableRecord
  2
*Paper_Space
  0
BLOCK_RECORD
  5
206
100
AcDbSymbolTableRecord
100
AcDbBlockTableRecord
  2
SUN_FIRST_THIRD_ANGLE_BL0
  0
BLOCK_RECORD
  5
207
100
AcDbSymbolTableRecord
100
AcDbBlockTableRecord
  2
*T1
  0
BLOCK_RECORD
  5
208
100
AcDbSymbolTableRecord
100
AcDbBlockTableRecord
  2
*T2
  0
BLOCK_RECORD
  5
209
100
AcDbSymbolTableRecord
100
AcDbBlockTableRecord
  2
*T3
  0
ENDTAB
  0
TABLE
  2
DIMSTYLE
  5
A
100
AcDbSymbolTable
 70
1
100
AcDbDimStyleTable
 71
0
  0
DIMSTYLE
105
20A
100
AcDbSymbolTableRecord
100
AcDbDimStyleTableRecord
  2
STANDARD
 70
0
  3

  4

 40
1.0
 41
0.1875
 42
0.0625
 43
0.38
 44
0.125
 45
0.0
 46
0.0
 47
0.001
 48
0.001
140
0.1
141
0.09
142
0.0
143
25.4
144
1.0
145
0.0
146
1.0
147
0.09
 71
0.0
 72
0.0
 73
1
 74
1
 75
0
 76
0
 77
0
 78
4
170
0
171
2
172
0
173
0
174
0
175
0
176
0
177
0
178
0
270
2
271
3
272
3
273
2
274
2
275
0
280
0
281
0
282
0
283
1
284
4
285
0
286
0
287
3
288
0
340
11
278
46
  0
ENDTAB
  0
ENDSEC
  0
SECTION
  2
BLOCKS
  0
BLOCK
  5
20
100
AcDbEntity
  8
0
100
AcDbBlockBegin
  2
*Model_Space
 70
0
 10
0.0
 20
0.0
 30
0.0
  3
*Model_Space
  1

  0
ENDBLK
  5
21
100
AcDbEntity
  8
0
100
AcDbBlockEnd
  0
BLOCK
  5
1C
100
AcDbEntity
  8
0
100
AcDbBlockBegin
  2
*Paper_Space
 70
0
 10
0.0
 20
0.0
 30
0.0
  3
*Paper_Space
  1

  0
ENDBLK
  5
1D
100
AcDbEntity
  8
0
100
AcDbBlockEnd
  0
BLOCK
  5
20B
100
AcDbEntity
  8
0
100
AcDbBlockBegin
 62
2
  6
CONTINUOUS
  2
SUN_FIRST_THIRD_ANGLE_BL0
 70
64
 10
20.4816717061
 20
1.2289683772
  3
SUN_FIRST_THIRD_ANGLE_BL0
  1

  0
TEXT
  5
20C
100
AcDbEntity
  8
0
100
AcDbText
 62
2
  6
CONTINUOUS
 10
19.4750896608
 20
1.4136269581
  7
STANDARD
 40
0.08
  1
FIRST ANGLE
 41
0.8
 72
0
100
AcDbText
  0
TEXT
  5
20D
100
AcDbEntity
  8
0
100
AcDbText
 62
2
  6
CONTINUOUS
 10
20.7842537513
 20
1.4047600029
  7
STANDARD
 40
0.08
  1
THIRD ANGLE
 41
0.8
 72
0
100
AcDbText
  0
LINE
  5
20E
100
AcDbEntity
  8
0
100
AcDbLine
 62
7
  6
CONTINUOUS
 10
19.4767170086
 20
1.1727031207
 11
19.6334271527
 21
1.1717972817
  0
LINE
  5
20F
100
AcDbEntity
  8
0
100
AcDbLine
 62
7
  6
CONTINUOUS
 10
19.6596964832
 20
1.1717972817
 11
19.6950230232
 21
1.171593082
  0
LINE
  5
210
100
AcDbEntity
  8
0
100
AcDbLine
 62
7
  6
CONTINUOUS
 10
19.7194818561
 20
1.1708914427
 11
19.8852396156
 21
1.1699333054
  0
LINE
  5
211
100
AcDbEntity
  8
0
100
AcDbLine
 62
7
  6
CONTINUOUS
 10
19.4758111696
 20
1.2723454088
 11
19.88525039
 21
1.3511534004
  0
LINE
  5
212
100
AcDbEntity
  8
0
100
AcDbLine
 62
7
  6
CONTINUOUS
 10
19.88525039
 20
1.3511534004
 11
19.8831348489
 21
0.9851647912
  0
LINE
  5
213
100
AcDbEntity
  8
0
100
AcDbLine
 62
7
  6
CONTINUOUS
 10
19.8831348489
 20
0.9851647912
 11
19.4767170086
 21
1.0658141206
  0
LINE
  5
214
100
AcDbEntity
  8
0
100
AcDbLine
 62
7
  6
CONTINUOUS
 10
19.4767170086
 20
1.0658141206
 11
19.4779056764
 21
1.2714536432
  0
CIRCLE
  5
215
100
AcDbEntity
  8
0
100
AcDbCircle
 62
7
  6
CONTINUOUS
 10
20.2068232291
 20
1.1717972817
 40
0.175742101
  0
CIRCLE
  5
216
100
AcDbEntity
  8
0
100
AcDbCircle
 62
7
  6
CONTINUOUS
 10
20.2068232291
 20
1.1717972817
 40
0.1005522074
  0
LINE
  5
217
100
AcDbEntity
  8
0
100
AcDbLine
 62
7
  6
CONTINUOUS
 10
20.2077290681
 20
1.3756110529
 11
20.2071171714
 21
1.2379342989
  0
LINE
  5
218
100
AcDbEntity
  8
0
100
AcDbLine
 62
7
  6
CONTINUOUS
 10
20.2077290681
 20
1.2016899681
 11
20.2074674401
 21
1.1428236749
  0
LINE
  5
219
100
AcDbEntity
  8
0
100
AcDbLine
 62
7
  6
CONTINUOUS
 10
20.208634907
 20
1.101141841
 11
20.2080230104
 21
0.963465087
  0
LINE
  5
21A
100
AcDbEntity
  8
0
100
AcDbLine
 62
7
  6
CONTINUOUS
 10
20.0066328138
 20
1.1745147986
 11
20.1443095678
 21
1.1739029019
  0
LINE
  5
21B
100
AcDbEntity
  8
0
100
AcDbLine
 62
7
  6
CONTINUOUS
 10
20.1832714155
 20
1.1727031207
 11
20.238153505
 21
1.172335442
  0
LINE
  5
21C
100
AcDbEntity
  8
0
100
AcDbLine
 62
7
  6
CONTINUOUS
 10
20.2756669918
 20
1.1717972817
 11
20.407916871
 21
1.1712095044
  0
CIRCLE
  5
21D
100
AcDbEntity
  8
0
100
AcDbCircle
 62
7
  6
CONTINUOUS
 10
20.7509457401
 20
1.1693297793
 40
0.1722024983
  0
CIRCLE
  5
21E
100
AcDbEntity
  8
0
100
AcDbCircle
 62
7
  6
CONTINUOUS
 10
20.7509457401
 20
1.1693297793
 40
0.0985164967
  0
LINE
  5
21F
100
AcDbEntity
  8
0
100
AcDbLine
 62
7
  6
CONTINUOUS
 10
20.7169767782
 20
1.170462078
 11
20.7825395137
 21
1.1682766535
  0
LINE
  5
220
100
AcDbEntity
  8
0
100
AcDbLine
 62
7
  6
CONTINUOUS
 10
20.8177513651
 20
1.1693297793
 11
20.947965719
 21
1.1693297793
  0
LINE
  5
221
100
AcDbEntity
  8
0
100
AcDbLine
 62
7
  6
CONTINUOUS
 10
20.6875370113
 20
1.170462078
 11
20.5573226574
 21
1.170462078
  0
LINE
  5
222
100
AcDbEntity
  8
0
100
AcDbLine
 62
7
  6
CONTINUOUS
 10
20.7486811426
 20
1.1987695462
 11
20.7486811426
 21
1.1432869085
  0
LINE
  5
223
100
AcDbEntity
  8
0
100
AcDbLine
 62
7
  6
CONTINUOUS
 10
20.7498134414
 20
1.1059210505
 11
20.7498134414
 21
0.9757066966
  0
LINE
  5
224
100
AcDbEntity
  8
0
100
AcDbLine
 62
7
  6
CONTINUOUS
 10
20.7486811426
 20
1.2338708068
 11
20.7486811426
 21
1.3640851607
  0
LINE
  5
225
100
AcDbEntity
  8
0
100
AcDbLine
 62
7
  6
CONTINUOUS
 10
21.0702539817
 20
1.2701043662
 11
21.4790138229
 21
1.3448360823
  0
LINE
  5
226
100
AcDbEntity
  8
0
100
AcDbLine
 62
7
  6
CONTINUOUS
 10
21.4790138229
 20
1.3448360823
 11
21.4790138229
 21
0.9779712941
  0
LINE
  5
227
100
AcDbEntity
  8
0
100
AcDbLine
 62
7
  6
CONTINUOUS
 10
21.4790138229
 20
0.9779712941
 11
21.069121683
 21
1.0617614
  0
LINE
  5
228
100
AcDbEntity
  8
0
100
AcDbLine
 62
7
  6
CONTINUOUS
 10
21.0702539817
 20
1.2701043662
 11
21.069121683
 21
1.0617614
  0
LINE
  5
229
100
AcDbEntity
  8
0
100
AcDbLine
 62
7
  6
CONTINUOUS
 10
21.4790138229
 20
1.1693297793
 11
21.3159628059
 21
1.1693297793
  0
LINE
  5
22A
100
AcDbEntity
  8
0
100
AcDbLine
 62
7
  6
CONTINUOUS
 10
21.2876553377
 20
1.1693297793
 11
21.2502894796
 21
1.1693297793
  0
LINE
  5
22B
100
AcDbEntity
  8
0
100
AcDbLine
 62
7
  6
CONTINUOUS
 10
21.2208497126
 20
1.1659328831
 11
21.0713862804
 21
1.1659328831
  0
LINE
  5
22C
100
AcDbEntity
  8
0
100
AcDbLine
 62
7
  6
CONTINUOUS
 10
20.4796138713
 20
1.5284908897
 11
20.4766766948
 21
0.9294458646
  0
ENDBLK
  5
22D
100
AcDbEntity
  8
0
  6
BYBLOCK
 62
0
100
AcDbBlockEnd
  0
BLOCK
  5
22E
100
AcDbEntity
  8
0
100
AcDbBlockBegin
  2
*T1
 70
1
 10
0.0
 20
0.0
  3
*T1
  1

  0
LINE
  5
22F
100
AcDbEntity
  8
0
100
AcDbLine
 62
2
  6
CONTINUOUS
 10
9.275
 20
0.0
 11
-0.0
 21
0.0
  0
LINE
  5
230
100
AcDbEntity
  8
0
100
AcDbLine
 62
2
  6
CONTINUOUS
 10
9.275
 20
0.0
 11
9.275
 21
1.25
  0
LINE
  5
231
100
AcDbEntity
  8
0
100
AcDbLine
 62
2
  6
CONTINUOUS
 10
9.275
 20
0.625
 11
-0.0
 21
0.625
  0
LINE
  5
232
100
AcDbEntity
  8
0
100
AcDbLine
 62
2
  6
CONTINUOUS
 10
9.275
 20
1.25
 11
-0.0
 21
1.25
  0
LINE
  5
233
100
AcDbEntity
  8
0
100
AcDbLine
 62
2
  6
CONTINUOUS
 10
6.8
 20
0.0
 11
6.8
 21
1.25
  0
LINE
  5
234
100
AcDbEntity
  8
0
100
AcDbLine
 62
2
  6
CONTINUOUS
 10
6.4
 20
0.0
 11
6.4
 21
0.625
  0
LINE
  5
235
100
AcDbEntity
  8
0
100
AcDbLine
 62
2
  6
CONTINUOUS
 10
5.9
 20
0.0
 11
5.9
 21
0.625
  0
LINE
  5
236
100
AcDbEntity
  8
0
100
AcDbLine
 62
2
  6
CONTINUOUS
 10
5.2
 20
0.0
 11
5.2
 21
0.625
  0
LINE
  5
237
100
AcDbEntity
  8
0
100
AcDbLine
 62
2
  6
CONTINUOUS
 10
4.1
 20
0.0
 11
4.1
 21
1.25
  0
LINE
  5
238
100
AcDbEntity
  8
0
100
AcDbLine
 62
2
  6
CONTINUOUS
 10
-0.0
 20
0.0
 11
-0.0
 21
1.25
  0
MTEXT
  5
239
100
AcDbEntity
  8
0
100
AcDbMText
 62
2
  6
CONTINUOUS
  7
STANDARD
 71
2
 72
1
 10
6.6
 20
0.325
 30
0.0
 11
1.0
 21
0.0
 31
0.0
 44
0.9
  1
2
 40
0.125
 41
0.2
  0
MTEXT
  5
23A
100
AcDbEntity
  8
0
100
AcDbMText
 62
2
  6
CONTINUOUS
  7
STANDARD
 71
2
 72
1
 10
6.15
 20
0.325
 30
0.0
 11
1.0
 21
0.0
 31
0.0
 44
0.9
  1
C
 40
0.125
 41
0.2
  0
MTEXT
  5
23B
100
AcDbEntity
  8
0
100
AcDbMText
 62
2
  6
CONTINUOUS
  7
STANDARD
 71
2
 72
1
 10
5.55
 20
0.325
 30
0.0
 11
1.0
 21
0.0
 31
0.0
 44
0.9
  1
2.000
 40
0.125
 41
1.0
  0
MTEXT
  5
23C
100
AcDbEntity
  8
0
100
AcDbMText
 62
2
  6
CONTINUOUS
  7
STANDARD
 71
2
 72
1
 10
4.65
 20
0.325
 30
0.0
 11
1.0
 21
0.0
 31
0.0
 44
0.9
  1
Aug-21-19
 40
0.125
 41
1.8
  0
MTEXT
  5
23D
100
AcDbEntity
  8
0
100
AcDbMText
 62
2
  6
CONTINUOUS
  7
STANDARD
 71
2
 72
1
 10
2.05
 20
0.4625
 30
0.0
 11
1.0
 21
0.0
 31
0.0
 44
0.9
  1
T-162A Subplate ISO 03\PP to T, side ports
 40
0.125
 41
4.4
  0
MTEXT
  5
23E
100
AcDbEntity
  8
0
100
AcDbMText
 62
2
  6
CONTINUOUS
  7
STANDARD
 71
1
 72
1
 10
6.45
 20
0.5625
 30
0.0
 11
1.0
 21
0.0
 31
0.0
 44
0.9
  1
SHEET
 40
0.06
 41
0.48
  0
MTEXT
  5
23F
100
AcDbEntity
  8
0
100
AcDbMText
 62
2
  6
CONTINUOUS
  7
STANDARD
 71
1
 72
1
 10
5.95
 20
0.5625
 30
0.0
 11
1.0
 21
0.0
 31
0.0
 44
0.9
  1
DWG SIZE
 40
0.06
 41
0.768
  0
MTEXT
  5
240
100
AcDbEntity
  8
0
100
AcDbMText
 62
2
  6
CONTINUOUS
  7
STANDARD
 71
1
 72
1
 10
5.25
 20
0.5625
 30
0.0
 11
1.0
 21
0.0
 31
0.0
 44
0.9
  1
SCALE
 40
0.06
 41
0.48
  0
MTEXT
  5
241
100
AcDbEntity
  8
0
100
AcDbMText
 62
2
  6
CONTINUOUS
  7
STANDARD
 71
1
 72
1
 10
4.15
 20
0.5625
 30
0.0
 11
1.0
 21
0.0
 31
0.0
 44
0.9
  1
DATE
 40
0.06
 41
0.384
  0
MTEXT
  5
242
100
AcDbEntity
  8
0
100
AcDbMText
 62
2
  6
CONTINUOUS
  7
STANDARD
 71
1
 72
1
 10
0.05
 20
0.5625
 30
0.0
 11
1.0
 21
0.0
 31
0.0
 44
0.9
  1
DESCRIPTION
 40
0.06
 41
1.056
  0
MTEXT
  5
243
100
AcDbEntity
  8
0
100
AcDbMText
 62
2
  6
CONTINUOUS
  7
STANDARD
 71
2
 72
1
 10
5.45
 20
1.0375
 30
0.0
 11
1.0
 21
0.0
 31
0.0
 44
0.9
  1
ALL DIMENSIONS IN INCH\PVIEWS ARE THIRD ANGLE
 40
0.12
 41
4.224
  0
MTEXT
  5
244
100
AcDbEntity
  8
0
100
AcDbMText
 62
2
  6
CONTINUOUS
  7
STANDARD
 71
2
 72
1
 10
2.05
 20
0.95
 30
0.0
 11
1.0
 21
0.0
 31
0.0
 44
0.9
  1
Z2F
 40
0.125
 41
0.6
  0
MTEXT
  5
245
100
AcDbEntity
  8
0
100
AcDbMText
 62
2
  6
CONTINUOUS
  7
STANDARD
 71
1
 72
1
 10
0.05
 20
1.1875
 30
0.0
 11
1.0
 21
0.0
 31
0.0
 44
0.9
  1
MODEL
 40
0.06
 41
0.48
  0
ENDBLK
  5
246
100
AcDbEntity
  8
0
  6
BYBLOCK
 62
0
100
AcDbBlockEnd
  0
BLOCK
  5
247
100
AcDbEntity
  8
0
100
AcDbBlockBegin
  2
*T2
 70
1
 10
0.0
 20
0.0
  3
*T2
  1

  0
LINE
  5
248
100
AcDbEntity
  8
0
100
AcDbLine
 62
2
  6
CONTINUOUS
 10
0.0
 20
0.0
 11
9.055
 21
0.0
  0
LINE
  5
249
100
AcDbEntity
  8
0
100
AcDbLine
 62
2
  6
CONTINUOUS
 10
0.0
 20
0.0
 11
0.0
 21
-1.844
  0
LINE
  5
24A
100
AcDbEntity
  8
0
100
AcDbLine
 62
2
  6
CONTINUOUS
 10
0.0
 20
-0.344
 11
9.055
 21
-0.344
  0
LINE
  5
24B
100
AcDbEntity
  8
0
100
AcDbLine
 62
2
  6
CONTINUOUS
 10
0.0
 20
-0.594
 11
9.055
 21
-0.594
  0
LINE
  5
24C
100
AcDbEntity
  8
0
100
AcDbLine
 62
2
  6
CONTINUOUS
 10
0.0
 20
-0.844
 11
9.055
 21
-0.844
  0
LINE
  5
24D
100
AcDbEntity
  8
0
100
AcDbLine
 62
2
  6
CONTINUOUS
 10
0.0
 20
-1.094
 11
9.055
 21
-1.094
  0
LINE
  5
24E
100
AcDbEntity
  8
0
100
AcDbLine
 62
2
  6
CONTINUOUS
 10
0.0
 20
-1.344
 11
9.055
 21
-1.344
  0
LINE
  5
24F
100
AcDbEntity
  8
0
100
AcDbLine
 62
2
  6
CONTINUOUS
 10
0.0
 20
-1.594
 11
9.055
 21
-1.594
  0
LINE
  5
250
100
AcDbEntity
  8
0
100
AcDbLine
 62
2
  6
CONTINUOUS
 10
0.0
 20
-1.844
 11
9.055
 21
-1.844
  0
LINE
  5
251
100
AcDbEntity
  8
0
100
AcDbLine
 62
2
  6
CONTINUOUS
 10
3.055
 20
0.0
 11
3.055
 21
-1.844
  0
LINE
  5
252
100
AcDbEntity
  8
0
100
AcDbLine
 62
2
  6
CONTINUOUS
 10
9.055
 20
0.0
 11
9.055
 21
-1.844
  0
MTEXT
  5
253
100
AcDbEntity
  8
0
100
AcDbMText
 62
2
  6
CONTINUOUS
  7
STANDARD
 71
2
 72
1
 10
1.5275
 20
-0.0995
 30
0.0
 11
1.0
 21
0.0
 31
0.0
 44
0.9
  1
Technical Data
 40
0.145
 41
3.248
  0
MTEXT
  5
254
100
AcDbEntity
  8
0
100
AcDbMText
 62
2
  6
CONTINUOUS
  7
STANDARD
 71
2
 72
1
 10
4.555
 20
-0.0995
 30
0.0
 11
1.0
 21
0.0
 31
0.0
 44
0.9
  1
U.S. Units
 40
0.145
 41
2.32
  0
MTEXT
  5
255
100
AcDbEntity
  8
0
100
AcDbMText
 62
2
  6
CONTINUOUS
  7
STANDARD
 71
2
 72
1
 10
7.555
 20
-0.0995
 30
0.0
 11
1.0
 21
0.0
 31
0.0
 44
0.9
  1
Metric Units
 40
0.145
 41
2.784
  0
MTEXT
  5
256
100
AcDbEntity
  8
0
100
AcDbMText
 62
2
  6
CONTINUOUS
  7
STANDARD
 71
2
 72
1
 10
1.5275
 20
-0.4065
 30
0.0
 11
1.0
 21
0.0
 31
0.0
 44
0.9
  1
Cavity
 40
0.125
 41
1.2
  0
MTEXT
  5
257
100
AcDbEntity
  8
0
100
AcDbMText
 62
2
  6
CONTINUOUS
  7
STANDARD
 71
2
 72
1
 10
6.055
 20
-0.4065
 30
0.0
 11
1.0
 21
0.0
 31
0.0
 44
0.9
  1
T-162A
 40
0.125
 41
1.2
  0
MTEXT
  5
258
100
AcDbEntity
  8
0
100
AcDbMText
 62
2
  6
CONTINUOUS
  7
STANDARD
 71
2
 72
1
 10
1.5275
 20
-0.6565
 30
0.0
 11
1.0
 21
0.0
 31
0.0
 44
0.9
  1
Body Features
 40
0.125
 41
2.6
  0
MTEXT
  5
259
100
AcDbEntity
  8
0
100
AcDbMText
 62
2
  6
CONTINUOUS
  7
STANDARD
 71
2
 72
1
 10
6.055
 20
-0.6565
 30
0.0
 11
1.0
 21
0.0
 31
0.0
 44
0.9
  1
P to T, side ports
 40
0.125
 41
3.6
  0
MTEXT
  5
25A
100
AcDbEntity
  8
0
100
AcDbMText
 62
2
  6
CONTINUOUS
  7
STANDARD
 71
2
 72
1
 10
1.5275
 20
-0.9065
 30
0.0
 11
1.0
 21
0.0
 31
0.0
 44
0.9
  1
Body Type
 40
0.125
 41
1.8
  0
MTEXT
  5
25B
100
AcDbEntity
  8
0
100
AcDbMText
 62
2
  6
CONTINUOUS
  7
STANDARD
 71
2
 72
1
 10
6.055
 20
-0.9065
 30
0.0
 11
1.0
 21
0.0
 31
0.0
 44
0.9
  1
Subplate
 40
0.125
 41
1.6
  0
MTEXT
  5
25C
100
AcDbEntity
  8
0
100
AcDbMText
 62
2
  6
CONTINUOUS
  7
STANDARD
 71
2
 72
1
 10
1.5275
 20
-1.1565
 30
0.0
 11
1.0
 21
0.0
 31
0.0
 44
0.9
  1
Interface
 40
0.125
 41
1.8
  0
MTEXT
  5
25D
100
AcDbEntity
  8
0
100
AcDbMText
 62
2
  6
CONTINUOUS
  7
STANDARD
 71
2
 72
1
 10
6.055
 20
-1.1565
 30
0.0
 11
1.0
 21
0.0
 31
0.0
 44
0.9
  1
ISO 03
 40
0.125
 41
1.2
  0
MTEXT
  5
25E
100
AcDbEntity
  8
0
100
AcDbMText
 62
2
  6
CONTINUOUS
  7
STANDARD
 71
2
 72
1
 10
1.5275
 20
-1.4065
 30
0.0
 11
1.0
 21
0.0
 31
0.0
 44
0.9
  1
Open Cavity Quantity
 40
0.125
 41
4.0
  0
MTEXT
  5
25F
100
AcDbEntity
  8
0
100
AcDbMText
 62
2
  6
CONTINUOUS
  7
STANDARD
 71
2
 72
1
 10
6.055
 20
-1.4065
 30
0.0
 11
1.0
 21
0.0
 31
0.0
 44
0.9
  1
1
 40
0.125
 41
0.2
  0
MTEXT
  5
260
100
AcDbEntity
  8
0
100
AcDbMText
 62
2
  6
CONTINUOUS
  7
STANDARD
 71
2
 72
1
 10
1.5275
 20
-1.6565
 30
0.0
 11
1.0
 21
0.0
 31
0.0
 44
0.9
  1
Weight
 40
0.125
 41
1.2
  0
MTEXT
  5
261
100
AcDbEntity
  8
0
100
AcDbMText
 62
2
  6
CONTINUOUS
  7
STANDARD
 71
2
 72
1
 10
4.555
 20
-1.6565
 30
0.0
 11
1.0
 21
0.0
 31
0.0
 44
0.9
  1
0.948 lb.
 40
0.125
 41
1.8
  0
MTEXT
  5
262
100
AcDbEntity
  8
0
100
AcDbMText
 62
2
  6
CONTINUOUS
  7
STANDARD
 71
2
 72
1
 10
7.555
 20
-1.6565
 30
0.0
 11
1.0
 21
0.0
 31
0.0
 44
0.9
  1
0,430 kg.
 40
0.125
 41
1.8
  0
ENDBLK
  5
263
100
AcDbEntity
  8
0
  6
BYBLOCK
 62
0
100
AcDbBlockEnd
  0
BLOCK
  5
264
100
AcDbEntity
  8
0
100
AcDbBlockBegin
  2
*T3
 70
1
 10
0.0
 20
0.0
  3
*T3
  1

  0
LINE
  5
265
100
AcDbEntity
  8
0
100
AcDbLine
 62
2
  6
CONTINUOUS
 10
0.0
 20
0.0
 11
4.6
 21
0.0
  0
LINE
  5
266
100
AcDbEntity
  8
0
100
AcDbLine
 62
2
  6
CONTINUOUS
 10
0.0
 20
0.0
 11
0.0
 21
-0.93775
  0
LINE
  5
267
100
AcDbEntity
  8
0
100
AcDbLine
 62
2
  6
CONTINUOUS
 10
0.0
 20
-0.34375
 11
4.6
 21
-0.34375
  0
LINE
  5
268
100
AcDbEntity
  8
0
100
AcDbLine
 62
2
  6
CONTINUOUS
 10
0.0
 20
-0.68775
 11
4.6
 21
-0.68775
  0
LINE
  5
269
100
AcDbEntity
  8
0
100
AcDbLine
 62
2
  6
CONTINUOUS
 10
0.0
 20
-0.93775
 11
4.6
 21
-0.93775
  0
LINE
  5
26A
100
AcDbEntity
  8
0
100
AcDbLine
 62
2
  6
CONTINUOUS
 10
1.3
 20
-0.34375
 11
1.3
 21
-0.93775
  0
LINE
  5
26B
100
AcDbEntity
  8
0
100
AcDbLine
 62
2
  6
CONTINUOUS
 10
3.3
 20
-0.34375
 11
3.3
 21
-0.93775
  0
LINE
  5
26C
100
AcDbEntity
  8
0
100
AcDbLine
 62
2
  6
CONTINUOUS
 10
4.6
 20
0.0
 11
4.6
 21
-0.93775
  0
MTEXT
  5
26D
100
AcDbEntity
  8
0
100
AcDbMText
 62
2
  6
CONTINUOUS
  7
STANDARD
 71
2
 72
1
 10
2.3
 20
-0.099375
 30
0.0
 11
1.0
 21
0.0
 31
0.0
 44
0.9
  1
Port Headings
 40
0.145
 41
3.016
  0
MTEXT
  5
26E
100
AcDbEntity
  8
0
100
AcDbMText
 62
2
  6
CONTINUOUS
  7
STANDARD
 71
2
 72
1
 10
0.65
 20
-0.44325
 30
0.0
 11
1.0
 21
0.0
 31
0.0
 44
0.9
  1
Product
 40
0.145
 41
1.624
  0
MTEXT
  5
26F
100
AcDbEntity
  8
0
100
AcDbMText
 62
2
  6
CONTINUOUS
  7
STANDARD
 71
2
 72
1
 10
2.3
 20
-0.44325
 30
0.0
 11
1.0
 21
0.0
 31
0.0
 44
0.9
  1
Port
 40
0.145
 41
0.928
  0
MTEXT
  5
270
100
AcDbEntity
  8
0
100
AcDbMText
 62
2
  6
CONTINUOUS
  7
STANDARD
 71
2
 72
1
 10
3.95
 20
-0.44325
 30
0.0
 11
1.0
 21
0.0
 31
0.0
 44
0.9
  1
Size
 40
0.145
 41
0.928
  0
MTEXT
  5
271
100
AcDbEntity
  8
0
100
AcDbMText
 62
2
  6
CONTINUOUS
  7
STANDARD
 71
2
 72
1
 10
0.65
 20
-0.75025
 30
0.0
 11
1.0
 21
0.0
 31
0.0
 44
0.9
  1
Z2F
 40
0.125
 41
0.6
  0
MTEXT
  5
272
100
AcDbEntity
  8
0
100
AcDbMText
 62
2
  6
CONTINUOUS
  7
STANDARD
 71
2
 72
1
 10
2.3
 20
-0.75025
 30
0.0
 11
1.0
 21
0.0
 31
0.0
 44
0.9
  1
All Ports
 40
0.125
 41
1.8
  0
MTEXT
  5
273
100
AcDbEntity
  8
0
100
AcDbMText
 62
2
  6
CONTINUOUS
  7
STANDARD
 71
2
 72
1
 10
3.95
 20
-0.75025
 30
0.0
 11
1.0
 21
0.0
 31
0.0
 44
0.9
  1
1/4" BSPP
 40
0.125
 41
1.8
  0
ENDBLK
  5
274
100
AcDbEntity
  8
0
  6
BYBLOCK
 62
0
100
AcDbBlockEnd
  0
ENDSEC
  0
SECTION
  2
ENTITIES
  0
IMAGE
  5
275
100
AcDbEntity
  8
0
100
AcDbRasterImage
 62
7
  6
CONTINUOUS
 10
19.2297077316
 20
0.3094318264
 30
0.0
 11
0.0066666667
 21
0.0
 31
0.0
 12
0.0
 22
0.0066666667
 32
0.0
 13
369.0
 23
92.0
340
       367
 70
9
280
0
281
50
282
50
283
0
360
       361
 71
1
 91
2
 14
-0.5
 24
-0.5
 14
368.5
 24
91.5
  0
INSERT
  5
276
100
AcDbEntity
  8
0
100
AcDbBlockReference
 62
2
  6
CONTINUOUS
  2
SUN_FIRST_THIRD_ANGLE_BL0
 10
20.4816717061
 20
1.2289683772
  0
ACAD_TABLE
  5
277
100
AcDbEntity
  8
0
 62
2
  6
CONTINUOUS
100
AcDbBlockReference
  2
*T1
 10
12.42375
 20
0.30125
 30
0.0
100
AcDbTable
342
       369
343
207
 11
1.0
 21
0.0
 31
0.0
 90
6
 91
4
 92
6
 93
20
 94
0
 95
0
 96
0
 70
1
 41
0.0
141
0.525
141
0.1
141
0.525
141
0.1
142
4.1
142
1.1
142
0.7
142
0.5
142
0.4
142
2.475
171
1
172
0
173
0
174
0
175
1
176
1
 91
33
178
0
145
0.0
301
CELL_VALUE
 90
4
  1
T-162A Subplate ISO 03\PP to T, side ports
304
ACVALUE_END
170
2
140
0.125
171
1
172
0
173
0
174
0
175
1
176
1
 91
33
178
0
145
0.0
301
CELL_VALUE
 90
4
  1
Aug-21-19
304
ACVALUE_END
170
5
140
0.125
171
1
172
0
173
0
174
0
175
1
176
1
 91
33
178
0
145
0.0
301
CELL_VALUE
 90
4
  1
2.000
304
ACVALUE_END
170
5
140
0.125
171
1
172
0
173
0
174
0
175
1
176
1
 91
33
178
0
145
0.0
301
CELL_VALUE
 90
4
  1
C
304
ACVALUE_END
170
5
140
0.125
171
1
172
0
173
0
174
0
175
1
176
1
 91
33
178
0
145
0.0
301
CELL_VALUE
 90
4
  1
2
304
ACVALUE_END
170
5
140
0.125
171
1
172
0
173
0
174
0
175
1
176
1
 91
33
178
0
145
0.0
301
CELL_VALUE
 90
4
  1
 
304
ACVALUE_END
170
1
140
0.125
171
1
172
0
173
0
174
0
175
1
176
1
 91
33
178
0
145
0.0
301
CELL_VALUE
 90
4
  1
DESCRIPTION
304
ACVALUE_END
170
1
140
0.06
171
1
172
0
173
0
174
0
175
1
176
1
 91
33
178
0
145
0.0
301
CELL_VALUE
 90
4
  1
DATE
304
ACVALUE_END
170
1
140
0.06
171
1
172
0
173
0
174
0
175
1
176
1
 91
33
178
0
145
0.0
301
CELL_VALUE
 90
4
  1
SCALE
304
ACVALUE_END
170
1
140
0.06
171
1
172
0
173
0
174
0
175
1
176
1
 91
33
178
0
145
0.0
301
CELL_VALUE
 90
4
  1
DWG SIZE
304
ACVALUE_END
170
1
140
0.06
171
1
172
0
173
0
174
0
175
1
176
1
 91
33
178
0
145
0.0
301
CELL_VALUE
 90
4
  1
SHEET
304
ACVALUE_END
170
1
140
0.06
171
1
172
0
173
0
174
0
175
1
176
1
 91
33
178
0
145
0.0
301
CELL_VALUE
 90
4
  1
 
304
ACVALUE_END
170
1
140
0.125
171
1
172
0
173
0
174
0
175
1
176
1
 91
33
178
0
145
0.0
301
CELL_VALUE
 90
4
  1
Z2F
304
ACVALUE_END
170
5
140
0.125
171
1
172
0
173
0
174
0
175
4
176
1
 91
33
178
0
145
0.0
301
CELL_VALUE
 90
4
  1
ALL DIMENSIONS IN INCH\PVIEWS ARE THIRD ANGLE
304
ACVALUE_END
170
5
140
0.12
171
1
172
0
173
1
174
0
175
1
176
1
 91
1
178
0
145
0.0
170
1
171
1
172
0
173
1
174
0
175
1
176
1
 91
1
178
0
145
0.0
170
1
171
1
172
0
173
1
174
0
175
1
176
1
 91
1
178
0
145
0.0
170
5
171
1
172
0
173
0
174
0
175
1
176
1
 91
33
178
0
145
0.0
301
CELL_VALUE
 90
4
  1
 
304
ACVALUE_END
170
1
140
0.125
171
1
172
0
173
0
174
0
175
1
176
1
 91
33
178
0
145
0.0
301
CELL_VALUE
 90
4
  1
MODEL
304
ACVALUE_END
170
1
140
0.06
171
1
172
0
173
0
174
0
175
1
176
1
 91
33
178
0
145
0.0
301
CELL_VALUE
 90
4
  1
 
304
ACVALUE_END
170
1
140
0.125
171
1
172
0
173
0
174
0
175
1
176
1
 91
33
178
0
145
0.0
301
CELL_VALUE
 90
4
  1
 
304
ACVALUE_END
170
1
140
0.125
171
1
172
0
173
0
174
0
175
1
176
1
 91
33
178
0
145
0.0
301
CELL_VALUE
 90
4
  1
 
304
ACVALUE_END
170
1
140
0.125
171
1
172
0
173
0
174
0
175
1
176
1
 91
33
178
0
145
0.0
301
CELL_VALUE
 90
4
  1
 
304
ACVALUE_END
170
1
140
0.125
171
1
172
0
173
0
174
0
175
1
176
1
 91
33
178
0
145
0.0
301
CELL_VALUE
 90
4
  1
 
304
ACVALUE_END
170
1
140
0.125
  0
ACAD_TABLE
  5
278
100
AcDbEntity
  8
0
 62
2
  6
CONTINUOUS
100
AcDbBlockReference
  2
*T2
 10
12.4237499994
 20
16.47875
 30
0.0
100
AcDbTable
342
       368
343
208
 11
1.0
 21
0.0
 31
0.0
 90
22
 91
7
 92
3
 93
16
 94
0
 95
0
 96
0
 41
0.028
141
0.344
141
0.25
141
0.25
141
0.25
141
0.25
141
0.25
141
0.25
142
3.055
142
3.0
142
3.0
171
1
172
0
173
0
174
0
175
1
176
1
 91
33
178
0
145
0.0
301
CELL_VALUE
 90
4
  1
Technical Data
304
ACVALUE_END
170
5
140
0.145
171
1
172
0
173
0
174
0
175
1
176
1
 91
33
178
0
145
0.0
301
CELL_VALUE
 90
4
  1
U.S. Units
304
ACVALUE_END
170
5
140
0.145
171
1
172
0
173
0
174
0
175
1
176
1
 91
33
178
0
145
0.0
301
CELL_VALUE
 90
4
  1
Metric Units
304
ACVALUE_END
170
5
140
0.145
171
1
172
0
173
0
174
0
175
1
176
1
 91
33
178
0
145
0.0
301
CELL_VALUE
 90
4
  1
Cavity
304
ACVALUE_END
170
5
140
0.125
171
1
172
0
173
0
174
0
175
2
176
1
 91
33
178
0
145
0.0
301
CELL_VALUE
 90
4
  1
T-162A
304
ACVALUE_END
170
5
140
0.125
171
1
172
0
173
1
174
0
175
1
176
1
 91
1
178
0
145
0.0
170
1
171
1
172
0
173
0
174
0
175
1
176
1
 91
33
178
0
145
0.0
301
CELL_VALUE
 90
4
  1
Body Features
304
ACVALUE_END
170
5
140
0.125
171
1
172
0
173
0
174
0
175
2
176
1
 91
33
178
0
145
0.0
301
CELL_VALUE
 90
4
  1
P to T, side ports
304
ACVALUE_END
170
5
140
0.125
171
1
172
0
173
1
174
0
175
1
176
1
 91
1
178
0
145
0.0
170
1
171
1
172
0
173
0
174
0
175
1
176
1
 91
33
178
0
145
0.0
301
CELL_VALUE
 90
4
  1
Body Type
304
ACVALUE_END
170
5
140
0.125
171
1
172
0
173
0
174
0
175
2
176
1
 91
33
178
0
145
0.0
301
CELL_VALUE
 90
4
  1
Subplate
304
ACVALUE_END
170
5
140
0.125
171
1
172
0
173
1
174
0
175
1
176
1
 91
1
178
0
145
0.0
170
1
171
1
172
0
173
0
174
0
175
1
176
1
 91
33
178
0
145
0.0
301
CELL_VALUE
 90
4
  1
Interface
304
ACVALUE_END
170
5
140
0.125
171
1
172
0
173
0
174
0
175
2
176
1
 91
33
178
0
145
0.0
301
CELL_VALUE
 90
4
  1
ISO 03
304
ACVALUE_END
170
5
140
0.125
171
1
172
0
173
1
174
0
175
1
176
1
 91
1
178
0
145
0.0
170
1
171
1
172
0
173
0
174
0
175
1
176
1
 91
33
178
0
145
0.0
301
CELL_VALUE
 90
4
  1
Open Cavity Quantity
304
ACVALUE_END
170
5
140
0.125
171
1
172
0
173
0
174
0
175
2
176
1
 91
33
178
0
145
0.0
301
CELL_VALUE
 90
4
  1
1
304
ACVALUE_END
170
5
140
0.125
171
1
172
0
173
1
174
0
175
1
176
1
 91
1
178
0
145
0.0
170
1
171
1
172
0
173
0
174
0
175
1
176
1
 91
33
178
0
145
0.0
301
CELL_VALUE
 90
4
  1
Weight
304
ACVALUE_END
170
5
140
0.125
171
1
172
0
173
0
174
0
175
1
176
1
 91
33
178
0
145
0.0
301
CELL_VALUE
 90
4
  1
0.948 lb.
304
ACVALUE_END
170
5
140
0.125
171
1
172
0
173
0
174
0
175
1
176
1
 91
33
178
0
145
0.0
301
CELL_VALUE
 90
4
  1
0,430 kg.
304
ACVALUE_END
170
5
140
0.125
  0
ACAD_TABLE
  5
279
100
AcDbEntity
  8
0
 62
2
  6
CONTINUOUS
100
AcDbBlockReference
  2
*T3
 10
0.52125
 20
1.459
 30
0.0
100
AcDbTable
342
       368
343
209
 11
1.0
 21
0.0
 31
0.0
 90
22
 91
3
 92
3
 93
16
 94
0
 95
0
 96
0
 41
0.05
141
0.34375
141
0.344
141
0.25
142
1.3
142
2.0
142
1.3
171
1
172
0
173
0
174
0
175
3
176
1
 91
33
178
0
145
0.0
301
CELL_VALUE
 90
4
  1
Port Headings
304
ACVALUE_END
170
5
140
0.145
171
1
172
0
173
1
174
0
175
1
176
1
 91
1
178
0
145
0.0
170
1
171
1
172
0
173
1
174
0
175
1
176
1
 91
1
178
0
145
0.0
170
1
171
1
172
0
173
0
174
0
175
1
176
1
 91
33
178
0
145
0.0
301
CELL_VALUE
 90
4
  1
Product
304
ACVALUE_END
170
5
140
0.145
171
1
172
0
173
0
174
0
175
1
176
1
 91
33
178
0
145
0.0
301
CELL_VALUE
 90
4
  1
Port
304
ACVALUE_END
170
5
140
0.145
171
1
172
0
173
0
174
0
175
1
176
1
 91
33
178
0
145
0.0
301
CELL_VALUE
 90
4
  1
Size
304
ACVALUE_END
170
5
140
0.145
171
1
172
0
173
0
174
0
175
1
176
1
 91
33
178
0
145
0.0
301
CELL_VALUE
 90
4
  1
Z2F
304
ACVALUE_END
170
5
140
0.125
171
1
172
0
173
0
174
0
175
1
176
1
 91
33
178
0
145
0.0
301
CELL_VALUE
 90
4
  1
All Ports
304
ACVALUE_END
170
5
140
0.125
171
1
172
0
173
0
174
0
175
1
176
1
 91
33
178
0
145
0.0
301
CELL_VALUE
 90
4
  1
1/4" BSPP
304
ACVALUE_END
170
5
140
0.125
  0
MTEXT
  5
27A
100
AcDbEntity
  8
0
100
AcDbMText
 62
2
  6
CONTINUOUS
  7
STANDARD
 71
1
 72
1
 10
0.52125
 20
5.75995
 30
0.0
 11
1.0
 21
0.0
 31
0.0
 44
0.6
  3
Notes\P \P1. Important: Carefully consider\P   the maximum system pressure. The\P   pressure rating of the manifold is\P   dependent on the manifold material,\P   with the port type/size a secondary\P   consideration. Manifolds\P   constructed of alu
  1
minum are not\P   rated for pressures higher than\P   3000 psi (210 bar), regardless of\P   the port type/size specified.
 40
0.1
 41
3.04
  0
LINE
  5
27B
100
AcDbEntity
  8
0
100
AcDbLine
 62
7
  6
CONTINUOUS
 10
0.30125
 20
0.30125
 11
0.30125
 21
16.69875
  0
LINE
  5
27C
100
AcDbEntity
  8
0
100
AcDbLine
 62
7
  6
CONTINUOUS
 10
0.30125
 20
0.30125
 11
21.69875
 21
0.30125
  0
LINE
  5
27D
100
AcDbEntity
  8
0
100
AcDbLine
 62
7
  6
CONTINUOUS
 10
0.30125
 20
16.69875
 11
21.69875
 21
16.69875
  0
LINE
  5
27E
100
AcDbEntity
  8
0
100
AcDbLine
 62
7
  6
CONTINUOUS
 10
21.69875
 20
0.30125
 11
21.69875
 21
16.69875
  0
LINE
  5
27F
100
AcDbEntity
  8
0
100
AcDbLine
 62
7
  6
CONTINUOUS
 10
8.4904505967
 20
11.4907759842
 11
7.7139941022
 21
10.7407765587
  0
LINE
  5
280
100
AcDbEntity
  8
0
100
AcDbLine
 62
4
  6
CONTINUOUS
 10
8.4413720789
 20
11.0662268171
 11
8.4280613958
 21
11.0533696838
  0
LINE
  5
281
100
AcDbEntity
  8
0
100
AcDbLine
 62
4
  6
CONTINUOUS
 10
8.5185398245
 20
11.0379081629
 11
8.5052291428
 21
11.0250510309
  0
LINE
  5
282
100
AcDbEntity
  8
0
100
AcDbLine
 62
7
  6
CONTINUOUS
 10
7.7139941022
 20
5.9111471411
 11
7.7139941022
 21
10.7407765587
  0
LINE
  5
283
100
AcDbEntity
  8
0
100
AcDbLine
 62
4
  6
CONTINUOUS
 10
8.6897529516
 20
11.0490015451
 11
8.6542577991
 21
11.0147158585
  0
LINE
  5
284
100
AcDbEntity
  8
0
100
AcDbLine
 62
4
  6
CONTINUOUS
 10
8.7825030624
 20
11.0471627138
 11
8.7381341198
 21
11.0043056037
  0
LINE
  5
285
100
AcDbEntity
  8
0
100
AcDbLine
 62
4
  6
CONTINUOUS
 10
8.72482344
 20
10.9914484736
 11
8.7203865442
 21
10.9871627611
  0
LINE
  5
286
100
AcDbEntity
  8
0
100
AcDbLine
 62
4
  6
CONTINUOUS
 10
9.1379342631
 20
11.3504829904
 11
9.075817745
 21
11.2904830377
  0
LINE
  5
287
100
AcDbEntity
  8
0
100
AcDbLine
 62
4
  6
CONTINUOUS
 10
9.178524415
 20
11.2925471266
 11
9.2228933567
 21
11.3354042358
  0
LINE
  5
288
100
AcDbEntity
  8
0
100
AcDbLine
 62
4
  6
CONTINUOUS
 10
8.9270947138
 20
11.032541838
 11
8.86941509
 21
10.9768275964
  0
LINE
  5
289
100
AcDbEntity
  8
0
100
AcDbLine
 62
4
  6
CONTINUOUS
 10
8.9977664928
 20
11.0322341442
 11
8.9533975502
 21
10.9893770341
  0
LINE
  5
28A
100
AcDbEntity
  8
0
100
AcDbLine
 62
4
  6
CONTINUOUS
 10
9.3476782488
 20
11.3359371956
 11
9.2855617306
 21
11.2759372429
  0
LINE
  5
28B
100
AcDbEntity
  8
0
100
AcDbLine
 62
4
  6
CONTINUOUS
 10
9.0527499877
 20
10.9824869192
 11
9.092682036
 21
11.0210583182
  0
LINE
  5
28C
100
AcDbEntity
  8
0
100
AcDbLine
 62
4
  6
CONTINUOUS
 10
9.3606704031
 20
11.2799152594
 11
9.4050393448
 21
11.3227723686
  0
LINE
  5
28D
100
AcDbEntity
  8
0
100
AcDbLine
 62
4
  6
CONTINUOUS
 10
9.163353815
 20
11.0207506244
 11
9.1278586602
 21
10.9864649356
  0
LINE
  5
28E
100
AcDbEntity
  8
0
100
AcDbLine
 62
4
  6
CONTINUOUS
 10
9.5209504482
 20
11.3147339062
 11
9.4765815065
 21
11.2718767971
  0
LINE
  5
28F
100
AcDbEntity
  8
0
100
AcDbLine
 62
4
  6
CONTINUOUS
 10
9.2582692477
 20
11.009574806
 11
9.2449585646
 21
10.9967176727
  0
LINE
  5
290
100
AcDbEntity
  8
0
100
AcDbLine
 62
4
  6
CONTINUOUS
 10
9.2945286457
 20
10.9703129245
 11
9.3034024334
 21
10.9788843458
  0
LINE
  5
291
100
AcDbEntity
  8
0
100
AcDbLine
 62
4
  6
CONTINUOUS
 10
8.7148669889
 20
10.9875455436
 11
8.72482344
 21
10.9914484736
  0
LINE
  5
292
100
AcDbEntity
  8
0
100
AcDbLine
 62
4
  6
CONTINUOUS
 10
9.5780737477
 20
11.1784821682
 11
9.5159572295
 21
11.1184822155
  0
LINE
  5
293
100
AcDbEntity
  8
0
100
AcDbLine
 62
4
  6
CONTINUOUS
 10
9.7141355469
 20
11.3013364742
 11
9.6697666052
 21
11.258479365
  0
LINE
  5
294
100
AcDbEntity
  8
0
100
AcDbLine
 62
4
  6
CONTINUOUS
 10
9.4117346878
 20
11.0035253524
 11
9.3673657452
 21
10.9606682423
  0
LINE
  5
295
100
AcDbEntity
  8
0
100
AcDbLine
 62
4
  6
CONTINUOUS
 10
9.5999397173
 20
11.1310316513
 11
9.5910659296
 21
11.12246023
  0
LINE
  5
296
100
AcDbEntity
  8
0
100
AcDbLine
 62
4
  6
CONTINUOUS
 10
9.4158531648
 20
10.9389319872
 11
9.477969683
 21
10.9989319399
  0
LINE
  5
297
100
AcDbEntity
  8
0
100
AcDbLine
 62
4
  6
CONTINUOUS
 10
9.5728851156
 20
10.9877561215
 11
9.5373899631
 21
10.9534704349
  0
LINE
  5
298
100
AcDbEntity
  8
0
100
AcDbLine
 62
4
  6
CONTINUOUS
 10
10.0707427012
 20
11.2857925055
 11
10.008626183
 21
11.2257925528
  0
LINE
  5
299
100
AcDbEntity
  8
0
100
AcDbLine
 62
4
  6
CONTINUOUS
 10
10.4681522026
 20
11.258232063
 11
10.3398007721
 21
11.2028255171
  0
LINE
  5
29A
100
AcDbEntity
  8
0
100
AcDbLine
 62
4
  6
CONTINUOUS
 10
9.7025032053
 20
10.9986718558
 11
9.5771097308
 21
10.9461224475
  0
LINE
  5
29B
100
AcDbEntity
  8
0
100
AcDbLine
 62
4
  6
CONTINUOUS
 10
9.7643381575
 20
11.1012569396
 11
9.9423657791
 21
11.15321843
  0
LINE
  5
29C
100
AcDbEntity
  8
0
100
AcDbLine
 62
7
  6
CONTINUOUS
 10
7.7139941022
 20
5.9111471411
 11
13.5095494033
 21
5.5092240158
  0
LINE
  5
29D
100
AcDbEntity
  8
0
100
AcDbLine
 62
4
  6
CONTINUOUS
 10
9.7471338935
 20
10.938924644
 11
9.7870659404
 21
10.9774960416
  0
LINE
  5
29E
100
AcDbEntity
  8
0
100
AcDbLine
 62
4
  6
CONTINUOUS
 10
10.2032125258
 20
11.276605692
 11
10.1410960076
 21
11.2166057393
  0
LINE
  5
29F
100
AcDbEntity
  8
0
100
AcDbLine
 62
4
  6
CONTINUOUS
 10
9.8864183226
 20
10.9706059305
 11
9.8243018045
 21
10.9106059778
  0
LINE
  5
2A0
100
AcDbEntity
  8
0
100
AcDbLine
 62
4
  6
CONTINUOUS
 10
10.1347992507
 20
10.9533806546
 11
10.0726827325
 21
10.8933807019
  0
LINE
  5
2A1
100
AcDbEntity
  8
0
100
AcDbLine
 62
4
  6
CONTINUOUS
 10
10.5087422715
 20
11.2002962049
 11
10.5531112132
 21
11.2431533141
  0
LINE
  5
2A2
100
AcDbEntity
  8
0
100
AcDbLine
 62
4
  6
CONTINUOUS
 10
10.2507103541
 20
10.9453421923
 11
10.1885938359
 21
10.8853422396
  0
LINE
  5
2A3
100
AcDbEntity
  8
0
100
AcDbLine
 62
4
  6
CONTINUOUS
 10
10.3080714777
 20
10.9321773633
 11
10.2548287482
 21
10.8807488328
  0
LINE
  5
2A4
100
AcDbEntity
  8
0
100
AcDbLine
 62
4
  6
CONTINUOUS
 10
10.6778960915
 20
11.2436862749
 11
10.6157795734
 21
11.1836863222
  0
LINE
  5
2A5
100
AcDbEntity
  8
0
100
AcDbLine
 62
4
  6
CONTINUOUS
 10
10.3707398517
 20
10.8727103705
 11
10.4239825811
 21
10.924138901
  0
LINE
  5
2A6
100
AcDbEntity
  8
0
100
AcDbLine
 62
4
  6
CONTINUOUS
 10
10.4902174934
 20
10.9195454942
 11
10.4813437047
 21
10.9109740721
  0
LINE
  5
2A7
100
AcDbEntity
  8
0
100
AcDbLine
 62
4
  6
CONTINUOUS
 10
10.570633443
 20
10.877221344
 11
10.5617596552
 21
10.8686499227
  0
LINE
  5
2A8
100
AcDbEntity
  8
0
100
AcDbLine
 62
4
  6
CONTINUOUS
 10
9.6764620578
 20
10.9392323402
 11
9.6711547817
 21
10.9855345078
  0
LINE
  5
2A9
100
AcDbEntity
  8
0
100
AcDbLine
 62
4
  6
CONTINUOUS
 10
10.3398007721
 20
11.2028255171
 11
10.3356823504
 21
11.2674188785
  0
LINE
  5
2AA
100
AcDbEntity
  8
0
100
AcDbLine
 62
4
  6
CONTINUOUS
 10
9.1278586602
 20
10.9864649356
 11
9.1355435383
 21
10.9767451669
  0
LINE
  5
2AB
100
AcDbEntity
  8
0
100
AcDbLine
 62
7
  6
CONTINUOUS
 10
13.5095494033
 20
10.3388534334
 11
14.2860058978
 21
11.0888528589
  0
LINE
  5
2AC
100
AcDbEntity
  8
0
100
AcDbLine
 62
4
  6
CONTINUOUS
 10
9.3011308605
 20
10.9652616471
 11
9.2945286457
 21
10.9703129245
  0
LINE
  5
2AD
100
AcDbEntity
  8
0
100
AcDbLine
 62
4
  6
CONTINUOUS
 10
10.1885938359
 20
10.8853422396
 11
10.1347992507
 21
10.9533806546
  0
LINE
  5
2AE
100
AcDbEntity
  8
0
100
AcDbLine
 62
4
  6
CONTINUOUS
 10
13.5871950552
 20
9.0422387119
 11
13.5975478057
 21
9.0522387017
  0
LINE
  5
2AF
100
AcDbEntity
  8
0
100
AcDbLine
 62
4
  6
CONTINUOUS
 10
13.6389588191
 20
8.9763275679
 11
13.5768423009
 21
8.9163276152
  0
LINE
  5
2B0
100
AcDbEntity
  8
0
100
AcDbLine
 62
4
  6
CONTINUOUS
 10
8.4179986965
 20
11.0265070707
 11
8.4058769264
 21
11.0319411306
  0
LINE
  5
2B1
100
AcDbEntity
  8
0
100
AcDbLine
 62
4
  6
CONTINUOUS
 10
8.5407242953
 20
11.0593367175
 11
8.5286025238
 21
11.064770776
  0
LINE
  5
2B2
100
AcDbEntity
  8
0
100
AcDbLine
 62
4
  6
CONTINUOUS
 10
8.6776311801
 20
11.0544356036
 11
8.6897529516
 21
11.0490015451
  0
LINE
  5
2B3
100
AcDbEntity
  8
0
100
AcDbLine
 62
4
  6
CONTINUOUS
 10
8.9149728317
 20
11.0379759041
 11
8.9270947138
 21
11.032541838
  0
LINE
  5
2B4
100
AcDbEntity
  8
0
100
AcDbLine
 62
4
  6
CONTINUOUS
 10
9.092682036
 20
11.0210583182
 11
9.0805601539
 21
11.0264923843
  0
LINE
  5
2B5
100
AcDbEntity
  8
0
100
AcDbLine
 62
7
  6
CONTINUOUS
 10
13.6917983944
 20
8.6161079803
 11
13.6905022153
 21
8.6148790094
  0
LINE
  5
2B6
100
AcDbEntity
  8
0
100
AcDbLine
 62
4
  6
CONTINUOUS
 10
8.4280613958
 20
11.0533696838
 11
8.4416621325
 21
11.049364196
  0
LINE
  5
2B7
100
AcDbEntity
  8
0
100
AcDbLine
 62
4
  6
CONTINUOUS
 10
8.5049390879
 20
11.0419136507
 11
8.5185398245
 21
11.0379081629
  0
LINE
  5
2B8
100
AcDbEntity
  8
0
100
AcDbLine
 62
4
  6
CONTINUOUS
 10
9.7592557189
 20
10.9334905803
 11
9.7471338935
 21
10.938924644
  0
LINE
  5
2B9
100
AcDbEntity
  8
0
100
AcDbLine
 62
4
  6
CONTINUOUS
 10
9.2027680695
 20
11.2816790028
 11
9.178524415
 21
11.2925471266
  0
LINE
  5
2BA
100
AcDbEntity
  8
0
100
AcDbLine
 62
4
  6
CONTINUOUS
 10
9.5910659296
 20
11.12246023
 11
9.6153095841
 21
11.1115921063
  0
LINE
  5
2BB
100
AcDbEntity
  8
0
100
AcDbLine
 62
7
  6
CONTINUOUS
 10
7.7139941022
 20
10.7407765587
 11
13.5095494033
 21
10.3388534334
  0
LINE
  5
2BC
100
AcDbEntity
  8
0
100
AcDbLine
 62
4
  6
CONTINUOUS
 10
9.2295886997
 20
11.0161572196
 11
9.2582692477
 21
11.009574806
  0
LINE
  5
2BD
100
AcDbEntity
  8
0
100
AcDbLine
 62
4
  6
CONTINUOUS
 10
9.5442045676
 20
10.994338535
 11
9.5728851156
 21
10.9877561215
  0
LINE
  5
2BE
100
AcDbEntity
  8
0
100
AcDbLine
 62
4
  6
CONTINUOUS
 10
10.4813437047
 20
10.9109740721
 11
10.570633443
 21
10.877221344
  0
LINE
  5
2BF
100
AcDbEntity
  8
0
100
AcDbLine
 62
4
  6
CONTINUOUS
 10
9.3849140576
 20
11.2690471356
 11
9.3606704031
 21
11.2799152594
  0
LINE
  5
2C0
100
AcDbEntity
  8
0
100
AcDbLine
 62
4
  6
CONTINUOUS
 10
10.453533492
 20
10.8669686121
 11
10.4414116597
 21
10.8724026762
  0
LINE
  5
2C1
100
AcDbEntity
  8
0
100
AcDbLine
 62
4
  6
CONTINUOUS
 10
9.4967067946
 20
11.3256020309
 11
9.5209504482
 21
11.3147339062
  0
LINE
  5
2C2
100
AcDbEntity
  8
0
100
AcDbLine
 62
4
  6
CONTINUOUS
 10
10.4239825811
 20
10.924138901
 11
10.3997389137
 21
10.9350070266
  0
LINE
  5
2C3
100
AcDbEntity
  8
0
100
AcDbLine
 62
4
  6
CONTINUOUS
 10
9.6898918933
 20
11.3122045988
 11
9.7141355469
 21
11.3013364742
  0
LINE
  5
2C4
100
AcDbEntity
  8
0
100
AcDbLine
 62
4
  6
CONTINUOUS
 10
10.6105654912
 20
10.915792743
 11
10.5984436558
 21
10.9212268059
  0
LINE
  5
2C5
100
AcDbEntity
  8
0
100
AcDbLine
 62
4
  6
CONTINUOUS
 10
13.5820186762
 20
9.0227498256
 11
13.5871950552
 21
9.0422387119
  0
LINE
  5
2C6
100
AcDbEntity
  8
0
100
AcDbLine
 62
4
  6
CONTINUOUS
 10
10.5617596552
 20
10.8686499227
 11
10.5197684078
 21
10.862375205
  0
LINE
  5
2C7
100
AcDbEntity
  8
0
100
AcDbLine
 62
4
  6
CONTINUOUS
 10
10.5197684078
 20
10.862375205
 11
10.453533492
 21
10.8669686121
  0
LINE
  5
2C8
100
AcDbEntity
  8
0
100
AcDbLine
 62
4
  6
CONTINUOUS
 10
8.7203865442
 20
10.9871627611
 11
8.7148669889
 21
10.9875455436
  0
LINE
  5
2C9
100
AcDbEntity
  8
0
100
AcDbLine
 62
4
  6
CONTINUOUS
 10
9.84204938
 20
10.9277488204
 11
9.7592557189
 21
10.9334905803
  0
LINE
  5
2CA
100
AcDbEntity
  8
0
100
AcDbLine
 62
4
  6
CONTINUOUS
 10
9.499835625
 20
10.9514814249
 11
9.4336007404
 21
10.9560748298
  0
LINE
  5
2CB
100
AcDbEntity
  8
0
100
AcDbLine
 62
4
  6
CONTINUOUS
 10
9.3673657452
 20
10.9606682423
 11
9.3011308605
 21
10.9652616471
  0
LINE
  5
2CC
100
AcDbEntity
  8
0
100
AcDbLine
 62
4
  6
CONTINUOUS
 10
8.6332622375
 20
11.0115784935
 11
8.5670271317
 21
11.0161719137
  0
LINE
  5
2CD
100
AcDbEntity
  8
0
100
AcDbLine
 62
4
  6
CONTINUOUS
 10
8.4842335812
 20
11.0219136659
 11
8.4179986965
 21
11.0265070707
  0
LINE
  5
2CE
100
AcDbEntity
  8
0
100
AcDbLine
 62
4
  6
CONTINUOUS
 10
9.1355435383
 20
10.9767451669
 11
9.2183371994
 21
10.971003407
  0
LINE
  5
2CF
100
AcDbEntity
  8
0
100
AcDbLine
 62
4
  6
CONTINUOUS
 10
9.2074042284
 20
10.9947286645
 11
9.1411693437
 21
10.9993220694
  0
LINE
  5
2D0
100
AcDbEntity
  8
0
100
AcDbLine
 62
4
  6
CONTINUOUS
 10
10.5984436558
 20
10.9212268059
 11
10.5322087383
 21
10.9258202131
  0
LINE
  5
2D1
100
AcDbEntity
  8
0
100
AcDbLine
 62
4
  6
CONTINUOUS
 10
10.3997389137
 20
10.9350070266
 11
10.3500627087
 21
10.9384520831
  0
LINE
  5
2D2
100
AcDbEntity
  8
0
100
AcDbLine
 62
4
  6
CONTINUOUS
 10
9.0805601539
 20
11.0264923843
 11
8.9977664928
 21
11.0322341442
  0
LINE
  5
2D3
100
AcDbEntity
  8
0
100
AcDbLine
 62
4
  6
CONTINUOUS
 10
8.5286025238
 20
11.064770776
 11
8.4623676391
 21
11.0693641808
  0
LINE
  5
2D4
100
AcDbEntity
  8
0
100
AcDbLine
 62
4
  6
CONTINUOUS
 10
8.6113960744
 20
11.0590290237
 11
8.6776311801
 21
11.0544356036
  0
LINE
  5
2D5
100
AcDbEntity
  8
0
100
AcDbLine
 62
4
  6
CONTINUOUS
 10
8.8818553894
 20
11.0402726065
 11
8.9149728317
 21
11.0379759041
  0
LINE
  5
2D6
100
AcDbEntity
  8
0
100
AcDbLine
 62
4
  6
CONTINUOUS
 10
9.163353815
 20
11.0207506244
 11
9.2295886997
 21
11.0161572196
  0
LINE
  5
2D7
100
AcDbEntity
  8
0
100
AcDbLine
 62
4
  6
CONTINUOUS
 10
9.477969683
 20
10.9989319399
 11
9.5442045676
 21
10.994338535
  0
LINE
  5
2D8
100
AcDbEntity
  8
0
100
AcDbLine
 62
4
  6
CONTINUOUS
 10
9.7356206477
 20
10.9963751534
 11
9.7025032053
 21
10.9986718558
  0
LINE
  5
2D9
100
AcDbEntity
  8
0
100
AcDbLine
 62
4
  6
CONTINUOUS
 10
8.4416621325
 20
11.049364196
 11
8.5049390879
 21
11.0419136507
  0
LINE
  5
2DA
100
AcDbEntity
  8
0
100
AcDbLine
 62
4
  6
CONTINUOUS
 10
8.9338939674
 20
11.3248236733
 11
8.8574124699
 21
11.3423767792
  0
LINE
  5
2DB
100
AcDbEntity
  8
0
100
AcDbLine
 62
4
  6
CONTINUOUS
 10
10.5329859399
 20
11.1894280802
 11
10.5087422715
 21
11.2002962049
  0
LINE
  5
2DC
100
AcDbEntity
  8
0
100
AcDbLine
 62
7
  6
CONTINUOUS
 10
13.5095494033
 20
5.5092240158
 11
13.5095494033
 21
10.3388534334
  0
LINE
  5
2DD
100
AcDbEntity
  8
0
100
AcDbLine
 62
4
  6
CONTINUOUS
 10
13.5768423009
 20
8.9163276152
 11
13.5768423009
 21
8.9887720548
  0
LINE
  5
2DE
100
AcDbEntity
  8
0
100
AcDbLine
 62
4
  6
CONTINUOUS
 10
13.60790056
 20
9.0187720312
 11
13.60790056
 21
8.9463275915
  0
LINE
  5
2DF
100
AcDbEntity
  8
0
100
AcDbLine
 62
4
  6
CONTINUOUS
 10
13.5768423009
 20
8.9887720548
 11
13.5820186762
 21
9.0227498256
  0
LINE
  5
2E0
100
AcDbEntity
  8
0
100
AcDbLine
 62
4
  6
CONTINUOUS
 10
10.5322087383
 20
10.9258202131
 11
10.4902174934
 21
10.9195454942
  0
LINE
  5
2E1
100
AcDbEntity
  8
0
100
AcDbLine
 62
4
  6
CONTINUOUS
 10
10.3500627087
 20
10.9384520831
 11
10.3080714777
 21
10.9321773633
  0
LINE
  5
2E2
100
AcDbEntity
  8
0
100
AcDbLine
 62
4
  6
CONTINUOUS
 10
9.5373899631
 20
10.9534704349
 11
9.499835625
 21
10.9514814249
  0
LINE
  5
2E3
100
AcDbEntity
  8
0
100
AcDbLine
 62
4
  6
CONTINUOUS
 10
9.2449585646
 20
10.9967176727
 11
9.2074042284
 21
10.9947286645
  0
LINE
  5
2E4
100
AcDbEntity
  8
0
100
AcDbLine
 62
4
  6
CONTINUOUS
 10
9.8802492609
 20
11.0932184773
 11
9.7643381575
 21
11.1012569396
  0
LINE
  5
2E5
100
AcDbEntity
  8
0
100
AcDbLine
 62
4
  6
CONTINUOUS
 10
9.5159572295
 20
11.1184822155
 11
9.4166048472
 21
11.1253723266
  0
LINE
  5
2E6
100
AcDbEntity
  8
0
100
AcDbLine
 62
4
  6
CONTINUOUS
 10
9.6153095841
 20
11.1115921063
 11
9.6649857891
 21
11.1081470498
  0
LINE
  5
2E7
100
AcDbEntity
  8
0
100
AcDbLine
 62
4
  6
CONTINUOUS
 10
9.4432262106
 20
11.1510865905
 11
9.5425785928
 21
11.1441964794
  0
LINE
  5
2E8
100
AcDbEntity
  8
0
100
AcDbLine
 62
4
  6
CONTINUOUS
 10
9.9423657791
 20
11.15321843
 11
9.8264546757
 21
11.1612568923
  0
LINE
  5
2E9
100
AcDbEntity
  8
0
100
AcDbLine
 62
4
  6
CONTINUOUS
 10
9.64430866
 20
11.1738887614
 11
9.7602197634
 21
11.1658502991
  0
LINE
  5
2EA
100
AcDbEntity
  8
0
100
AcDbLine
 62
4
  6
CONTINUOUS
 10
10.6157795734
 20
11.1836863222
 11
10.5329859399
 21
11.1894280802
  0
LINE
  5
2EB
100
AcDbEntity
  8
0
100
AcDbLine
 62
4
  6
CONTINUOUS
 10
10.2073309475
 20
11.2120123306
 11
10.0748611229
 21
11.2211991442
  0
LINE
  5
2EC
100
AcDbEntity
  8
0
100
AcDbLine
 62
4
  6
CONTINUOUS
 10
10.008626183
 20
11.2257925528
 11
9.9092738007
 21
11.232682664
  0
LINE
  5
2ED
100
AcDbEntity
  8
0
100
AcDbLine
 62
4
  6
CONTINUOUS
 10
9.6277753751
 20
11.2522046461
 11
9.5615404904
 21
11.2567980509
  0
LINE
  5
2EE
100
AcDbEntity
  8
0
100
AcDbLine
 62
4
  6
CONTINUOUS
 10
9.4345902764
 20
11.2656020782
 11
9.3849140576
 21
11.2690471356
  0
LINE
  5
2EF
100
AcDbEntity
  8
0
100
AcDbLine
 62
4
  6
CONTINUOUS
 10
9.2855617306
 20
11.2759372429
 11
9.2027680695
 21
11.2816790028
  0
LINE
  5
2F0
100
AcDbEntity
  8
0
100
AcDbLine
 62
4
  6
CONTINUOUS
 10
9.075817745
 20
11.2904830377
 11
8.976465418
 21
11.297373145
  0
LINE
  5
2F1
100
AcDbEntity
  8
0
100
AcDbLine
 62
4
  6
CONTINUOUS
 10
9.0362042237
 20
11.3207907065
 11
9.1024391083
 21
11.3161973016
  0
LINE
  5
2F2
100
AcDbEntity
  8
0
100
AcDbLine
 62
4
  6
CONTINUOUS
 10
9.9690126064
 20
11.2561002254
 11
10.0352475463
 21
11.2515068168
  0
LINE
  5
2F3
100
AcDbEntity
  8
0
100
AcDbLine
 62
4
  6
CONTINUOUS
 10
10.4283263211
 20
11.2426203542
 11
10.3400131047
 21
11.2487448966
  0
LINE
  5
2F4
100
AcDbEntity
  8
0
100
AcDbLine
 62
4
  6
CONTINUOUS
 10
10.7837445648
 20
11.2087851947
 11
10.7072630594
 21
11.2263383002
  0
LINE
  5
2F5
100
AcDbEntity
  8
0
100
AcDbLine
 62
4
  6
CONTINUOUS
 10
13.5975478057
 20
9.0522387017
 11
13.6027241847
 21
9.0427498122
  0
LINE
  5
2F6
100
AcDbEntity
  8
0
100
AcDbLine
 62
4
  6
CONTINUOUS
 10
13.6027241847
 20
9.0427498122
 11
13.60790056
 21
9.0187720312
  0
LINE
  5
2F7
100
AcDbEntity
  8
0
100
AcDbLine
 62
4
  6
CONTINUOUS
 10
9.6649857891
 20
11.1081470498
 11
9.7114139287
 21
11.1187074802
  0
LINE
  5
2F8
100
AcDbEntity
  8
0
100
AcDbLine
 62
4
  6
CONTINUOUS
 10
9.7602197634
 20
11.1658502991
 11
9.5999397173
 21
11.1310316513
  0
LINE
  5
2F9
100
AcDbEntity
  8
0
100
AcDbLine
 62
4
  6
CONTINUOUS
 10
10.5531112132
 20
11.2431533141
 11
10.5951024581
 21
11.2494280329
  0
LINE
  5
2FA
100
AcDbEntity
  8
0
100
AcDbLine
 62
4
  6
CONTINUOUS
 10
8.6542577991
 20
11.0147158585
 11
8.6332622375
 21
11.0115784935
  0
LINE
  5
2FB
100
AcDbEntity
  8
0
100
AcDbLine
 62
4
  6
CONTINUOUS
 10
8.5052291428
 20
11.0250510309
 11
8.4842335812
 21
11.0219136659
  0
LINE
  5
2FC
100
AcDbEntity
  8
0
100
AcDbLine
 62
4
  6
CONTINUOUS
 10
8.4623676391
 20
11.0693641808
 11
8.4413720789
 21
11.0662268171
  0
LINE
  5
2FD
100
AcDbEntity
  8
0
100
AcDbLine
 62
4
  6
CONTINUOUS
 10
9.6697666052
 20
11.258479365
 11
9.6277753751
 21
11.2522046461
  0
LINE
  5
2FE
100
AcDbEntity
  8
0
100
AcDbLine
 62
4
  6
CONTINUOUS
 10
9.4765815065
 20
11.2718767971
 11
9.4345902764
 21
11.2656020782
  0
LINE
  5
2FF
100
AcDbEntity
  8
0
100
AcDbLine
 62
4
  6
CONTINUOUS
 10
10.6835996226
 20
11.203481174
 11
10.7837445648
 21
11.2087851947
  0
LINE
  5
300
100
AcDbEntity
  8
0
100
AcDbLine
 62
4
  6
CONTINUOUS
 10
8.8574124699
 20
11.3423767792
 11
8.9575574043
 21
11.3476807995
  0
LINE
  5
301
100
AcDbEntity
  8
0
100
AcDbLine
 62
4
  6
CONTINUOUS
 10
10.0707427012
 20
11.2857925055
 11
9.9713903189
 21
11.2926826167
  0
LINE
  5
302
100
AcDbEntity
  8
0
100
AcDbLine
 62
4
  6
CONTINUOUS
 10
9.1379342631
 20
11.3504829904
 11
9.0385819361
 21
11.3573730977
  0
LINE
  5
303
100
AcDbEntity
  8
0
100
AcDbLine
 62
4
  6
CONTINUOUS
 10
9.2648845877
 20
11.3416789555
 11
9.3476782488
 21
11.3359371956
  0
LINE
  5
304
100
AcDbEntity
  8
0
100
AcDbLine
 62
4
  6
CONTINUOUS
 10
9.4470305758
 20
11.3290470883
 11
9.4967067946
 21
11.3256020309
  0
LINE
  5
305
100
AcDbEntity
  8
0
100
AcDbLine
 62
4
  6
CONTINUOUS
 10
9.6236570086
 20
11.3167980036
 11
9.6898918933
 21
11.3122045988
  0
LINE
  5
306
100
AcDbEntity
  8
0
100
AcDbLine
 62
4
  6
CONTINUOUS
 10
10.5951024581
 20
11.2494280329
 11
10.6778960915
 21
11.2436862749
  0
LINE
  5
307
100
AcDbEntity
  8
0
100
AcDbLine
 62
7
  6
CONTINUOUS
 10
14.2860058978
 20
11.0888528589
 11
8.4904505967
 21
11.4907759842
  0
LINE
  5
308
100
AcDbEntity
  8
0
100
AcDbLine
 62
7
  6
CONTINUOUS
 10
14.2860058978
 20
6.2592234413
 11
14.2860058978
 21
11.0888528589
  0
LINE
  5
309
100
AcDbEntity
  8
0
100
AcDbLine
 62
4
  6
CONTINUOUS
 10
9.4050393448
 20
11.3227723686
 11
9.4470305758
 21
11.3290470883
  0
LINE
  5
30A
100
AcDbEntity
  8
0
100
AcDbLine
 62
4
  6
CONTINUOUS
 10
9.2228933567
 20
11.3354042358
 11
9.2648845877
 21
11.3416789555
  0
LINE
  5
30B
100
AcDbEntity
  8
0
100
AcDbLine
 62
7
  6
CONTINUOUS
 10
13.5095494033
 20
5.5092240158
 11
14.2860058978
 21
6.2592234413
  0
ARC
  5
30C
100
AcDbEntity
  8
0
100
AcDbCircle
 62
7
  6
CONTINUOUS
 10
11.7571985237
 20
7.2969954661
 40
0.7731833002
100
AcDbArc
 50
100.8613213724
 51
103.1333008249
  0
ARC
  5
30D
100
AcDbEntity
  8
0
100
AcDbCircle
 62
7
  6
CONTINUOUS
 10
11.3813979895
 20
8.2098684741
 40
0.2363635947
100
AcDbArc
 50
72.2308225419
 51
85.9636277693
  0
ARC
  5
30E
100
AcDbEntity
  8
0
100
AcDbCircle
 62
7
  6
CONTINUOUS
 10
11.4146725789
 20
8.1706264849
 40
0.2363633366
100
AcDbArc
 50
252.2308193178
 51
265.9636571724
  0
ARC
  5
30F
100
AcDbEntity
  8
0
100
AcDbCircle
 62
7
  6
CONTINUOUS
 10
13.60207187
 20
7.667499858
 40
0.029486934
100
AcDbArc
 50
259.7819632832
 51
266.029580208
  0
ARC
  5
310
100
AcDbEntity
  8
0
100
AcDbCircle
 62
7
  6
CONTINUOUS
 10
13.6630250143
 20
8.5464271361
 40
0.0294747671
100
AcDbArc
 50
86.034874996
 51
92.2042317034
  0
SPLINE
  5
311
100
AcDbEntity
  8
0
100
AcDbSpline
 62
7
  6
CONTINUOUS
 70
0
 71
3
 72
52
 73
48
 74
0
 42
0.0000001
 43
0.0000001
 44
0.0000000001
 40
0.0
 40
0.0
 40
0.0
 40
0.0
 40
0.0481976586
 40
0.0958298417
 40
0.1428197349
 40
0.1890976738
 40
0.2345927526
 40
0.2792363126
 40
0.3229616726
 40
0.3657040217
 40
0.4074008695
 40
0.4479921877
 40
0.4874205767
 40
0.5256315209
 40
0.5625737305
 40
0.5981993819
 40
0.6324644205
 40
0.6653290015
 40
0.6967580213
 40
0.7267215998
 40
0.7411465372
 40
0.7551967179
 40
0.7688701694
 40
0.7821654908
 40
0.7950818363
 40
0.8076188358
 40
0.8197768796
 40
0.8315570016
 40
0.842960946
 40
0.8539914268
 40
0.8646519891
 40
0.8749472323
 40
0.8848829866
 40
0.8944662508
 40
0.9037055339
 40
0.912610945
 40
0.9211942707
 40
0.9294693586
 40
0.9374521473
 40
0.9451608712
 40
0.9598350014
 40
0.9668568271
 40
0.9737036868
 40
0.980406896
 40
0.9870001056
 40
0.9935188497
 40
1.0
 40
1.0
 40
1.0
 40
1.0
 10
11.6713865522
 20
10.8133243574
 30
0.0
 10
11.6621510123
 20
10.8139648443
 30
0.0
 10
11.6437952571
 20
10.8153414092
 30
0.0
 10
11.616464396
 20
10.8177083308
 30
0.0
 10
11.5895303511
 20
10.8203623116
 30
0.0
 10
11.5630385859
 20
10.823298791
 30
0.0
 10
11.5370330814
 20
10.826512906
 30
0.0
 10
11.5115574051
 20
10.829999228
 30
0.0
 10
11.4866541328
 20
10.8337518917
 30
0.0
 10
11.462364877
 20
10.8377646102
 30
0.0
 10
11.4387302258
 20
10.8420306315
 30
0.0
 10
11.4157896489
 20
10.8465427722
 30
0.0
 10
11.393581453
 20
10.8512934472
 30
0.0
 10
11.3721427084
 20
10.8562746835
 30
0.0
 10
11.3515091682
 20
10.86147809
 30
0.0
 10
11.3317152092
 20
10.8668949102
 30
0.0
 10
11.3127938031
 20
10.8725160458
 30
0.0
 10
11.2947763665
 20
10.8783320667
 30
0.0
 10
11.2776929391
 20
10.8843331939
 30
0.0
 10
11.2640916214
 20
10.8895438364
 30
0.0
 10
11.2537066655
 20
10.8938050862
 30
0.0
 10
11.2462677074
 20
10.8970004867
 30
0.0
 10
11.239082757
 20
10.9002345544
 30
0.0
 10
11.2321547907
 20
10.9035059536
 30
0.0
 10
11.2254866762
 20
10.9068132835
 30
0.0
 10
11.2190812045
 20
10.9101552279
 30
0.0
 10
11.212941015
 20
10.9135303592
 30
0.0
 10
11.2070686464
 20
10.916937277
 30
0.0
 10
11.2014665545
 20
10.9203746261
 30
0.0
 10
11.1961370222
 20
10.923840935
 30
0.0
 10
11.1910822623
 20
10.9273348168
 30
0.0
 10
11.1863043753
 20
10.9308548735
 30
0.0
 10
11.1818052911
 20
10.9343996279
 30
0.0
 10
11.1775869038
 20
10.9379677177
 30
0.0
 10
11.1736509475
 20
10.9415577146
 30
0.0
 10
11.1699990295
 20
10.945168167
 30
0.0
 10
11.166632727
 20
10.948797771
 30
0.0
 10
11.1635534878
 20
10.9524449742
 30
0.0
 10
11.1607624435
 20
10.9561087735
 30
0.0
 10
11.1574817585
 20
10.9609334006
 30
0.0
 10
11.1547060741
 20
10.965871993
 30
0.0
 10
11.1525069907
 20
10.9708979196
 30
0.0
 10
11.1511754081
 20
10.974621839
 30
0.0
 10
11.1501387906
 20
10.9783530816
 30
0.0
 10
11.1493977511
 20
10.9820901391
 30
0.0
 10
11.1489528296
 20
10.9858308243
 30
0.0
 10
11.148853848
 20
10.9883289365
 30
0.0
 10
11.1488538428
 20
10.9895738246
 30
0.0
  0
SPLINE
  5
312
100
AcDbEntity
  8
0
100
AcDbSpline
 62
7
  6
CONTINUOUS
 70
0
 71
3
 72
39
 73
35
 74
0
 42
0.0000001
 43
0.0000001
 44
0.0000000001
 40
0.0
 40
0.0
 40
0.0
 40
0.0
 40
0.0311449443
 40
0.0624431435
 40
0.0938883559
 40
0.1254710082
 40
0.1571789104
 40
0.1889972915
 40
0.2209092118
 40
0.2528958851
 40
0.2849370693
 40
0.3170114641
 40
0.3490971276
 40
0.381171901
 40
0.4132138351
 40
0.4452016153
 40
0.4771149773
 40
0.5089351086
 40
0.5406450291
 40
0.5722299455
 40
0.6036775713
 40
0.6349784071
 40
0.6661259735
 40
0.6971169887
 40
0.7279514858
 40
0.7586328627
 40
0.7891678581
 40
0.8195664525
 40
0.8498416892
 40
0.8800094177
 40
0.9100879614
 40
0.9400977171
 40
0.9700606929
 40
1.0
 40
1.0
 40
1.0
 40
1.0
 10
12.906811582
 20
10.0493407953
 30
0.0
 10
12.9134395297
 20
10.0488811455
 30
0.0
 10
12.926699326
 20
10.0474744396
 30
0.0
 10
12.9464282601
 20
10.0439309264
 30
0.0
 10
12.965945892
 20
10.0389674993
 30
0.0
 10
12.9851467779
 20
10.032610877
 30
0.0
 10
13.0039289321
 20
10.0248951207
 30
0.0
 10
13.0221921605
 20
10.0158615025
 30
0.0
 10
13.039839172
 20
10.005558301
 30
0.0
 10
13.0567759325
 20
9.9940405267
 30
0.0
 10
13.0729122025
 20
9.9813696394
 30
0.0
 10
13.0881620007
 20
9.9676132181
 30
0.0
 10
13.1024440605
 20
9.9528446055
 30
0.0
 10
13.1156822572
 20
9.9371425199
 30
0.0
 10
13.1278060101
 20
9.9205906401
 30
0.0
 10
13.1387506559
 20
9.9032771634
 30
0.0
 10
13.1484577898
 20
9.8852943418
 30
0.0
 10
13.1568755759
 20
9.8667379952
 30
0.0
 10
13.163959022
 20
9.8477070077
 30
0.0
 10
13.1696702198
 20
9.8283028074
 30
0.0
 10
13.173978549
 20
9.8086288328
 30
0.0
 10
13.1768608433
 20
9.7887899891
 30
0.0
 10
13.1783015189
 20
9.7688920963
 30
0.0
 10
13.178292665
 20
9.7490413312
 30
0.0
 10
13.1768340945
 20
9.7293436677
 30
0.0
 10
13.1739333555
 20
9.7099043145
 30
0.0
 10
13.1696057047
 20
9.6908271565
 30
0.0
 10
13.1638740357
 20
9.6722141968
 30
0.0
 10
13.1567687805
 20
9.6541650158
 30
0.0
 10
13.1483277236
 20
9.636776199
 30
0.0
 10
13.1385959416
 20
9.6201409321
 30
0.0
 10
13.1276250839
 20
9.6043480308
 30
0.0
 10
13.1154749074
 20
9.5894831556
 30
0.0
 10
13.1066279525
 20
9.5802411579
 30
0.0
 10
13.1020342905
 20
9.5758040481
 30
0.0
  0
SPLINE
  5
313
100
AcDbEntity
  8
0
100
AcDbSpline
 62
7
  6
CONTINUOUS
 70
0
 71
3
 72
39
 73
35
 74
0
 42
0.0000001
 43
0.0000001
 44
0.0000000001
 40
0.0
 40
0.0
 40
0.0
 40
0.0
 40
0.0311449443
 40
0.0624431435
 40
0.0938883559
 40
0.1254710082
 40
0.1571789104
 40
0.1889972915
 40
0.2209092118
 40
0.2528958851
 40
0.2849370693
 40
0.3170114641
 40
0.3490971276
 40
0.381171901
 40
0.4132138351
 40
0.4452016153
 40
0.4771149773
 40
0.5089351086
 40
0.5406450291
 40
0.5722299455
 40
0.6036775713
 40
0.6349784071
 40
0.6661259735
 40
0.6971169887
 40
0.7279514858
 40
0.7586328627
 40
0.7891678581
 40
0.8195664525
 40
0.8498416892
 40
0.8800094177
 40
0.9100879614
 40
0.9400977171
 40
0.9700606929
 40
1.0
 40
1.0
 40
1.0
 40
1.0
 10
8.3167318659
 20
6.7435100722
 30
0.0
 10
8.3233598137
 20
6.7430504225
 30
0.0
 10
8.3366196099
 20
6.7416437166
 30
0.0
 10
8.3563485441
 20
6.7381002034
 30
0.0
 10
8.3758661759
 20
6.7331367763
 30
0.0
 10
8.3950670618
 20
6.7267801539
 30
0.0
 10
8.413849216
 20
6.7190643977
 30
0.0
 10
8.4321124444
 20
6.7100307795
 30
0.0
 10
8.449759456
 20
6.6997275779
 30
0.0
 10
8.4666962164
 20
6.6882098037
 30
0.0
 10
8.4828324864
 20
6.6755389163
 30
0.0
 10
8.4980822847
 20
6.661782495
 30
0.0
 10
8.5123643445
 20
6.6470138824
 30
0.0
 10
8.5256025411
 20
6.6313117969
 30
0.0
 10
8.5377262941
 20
6.614759917
 30
0.0
 10
8.5486709398
 20
6.5974464404
 30
0.0
 10
8.5583780738
 20
6.5794636187
 30
0.0
 10
8.5667958599
 20
6.5609072721
 30
0.0
 10
8.5738793059
 20
6.5418762846
 30
0.0
 10
8.5795905038
 20
6.5224720843
 30
0.0
 10
8.583898833
 20
6.5027981097
 30
0.0
 10
8.5867811272
 20
6.4829592661
 30
0.0
 10
8.5882218029
 20
6.4630613732
 30
0.0
 10
8.588212949
 20
6.4432106082
 30
0.0
 10
8.5867543784
 20
6.4235129446
 30
0.0
 10
8.5838536395
 20
6.4040735914
 30
0.0
 10
8.5795259886
 20
6.3849964335
 30
0.0
 10
8.5737943197
 20
6.3663834737
 30
0.0
 10
8.5666890645
 20
6.3483342928
 30
0.0
 10
8.5582480076
 20
6.330945476
 30
0.0
 10
8.5485162256
 20
6.3143102091
 30
0.0
 10
8.5375453678
 20
6.2985173078
 30
0.0
 10
8.5253951914
 20
6.2836524326
 30
0.0
 10
8.5165482365
 20
6.2744104348
 30
0.0
 10
8.5119545744
 20
6.269973325
 30
0.0
  0
SPLINE
  5
314
100
AcDbEntity
  8
0
100
AcDbSpline
 62
7
  6
CONTINUOUS
 70
0
 71
3
 72
32
 73
28
 74
0
 42
0.0000001
 43
0.0000001
 44
0.0000000001
 40
0.0
 40
0.0
 40
0.0
 40
0.0
 40
0.0318290426
 40
0.063703598
 40
0.095606362
 40
0.1275271473
 40
0.1594524223
 40
0.1913698819
 40
0.2232680707
 40
0.2551360625
 40
0.2869643537
 40
0.3187444866
 40
0.3504688733
 40
0.3821315961
 40
0.4137275309
 40
0.445252515
 40
0.50806611
 40
0.5705721492
 40
0.6017137584
 40
0.6327776513
 40
0.6946660457
 40
0.7562583674
 40
0.7869520795
 40
0.8175773744
 40
0.8786236792
 40
0.9394245174
 40
1.0
 40
1.0
 40
1.0
 40
1.0
 10
10.4585495602
 20
8.6545695124
 30
0.0
 10
10.455430833
 20
8.6565863949
 30
0.0
 10
10.4492954991
 20
8.6607906194
 30
0.0
 10
10.4404363089
 20
8.6675791286
 30
0.0
 10
10.4319385535
 20
8.67483183
 30
0.0
 10
10.4238260561
 20
8.6825213435
 30
0.0
 10
10.4161187278
 20
8.690619126
 30
0.0
 10
10.4088332438
 20
8.699094741
 30
0.0
 10
10.4019828762
 20
8.70791708
 30
0.0
 10
10.3955776507
 20
8.7170547971
 30
0.0
 10
10.3896242351
 20
8.7264765893
 30
0.0
 10
10.3841265384
 20
8.7361518764
 30
0.0
 10
10.3790859232
 20
8.7460510926
 30
0.0
 10
10.3745012833
 20
8.7561457059
 30
0.0
 10
10.370369705
 20
8.7664089645
 30
0.0
 10
10.3654654573
 20
8.7802653969
 30
0.0
 10
10.3604368703
 20
8.7978853769
 30
0.0
 10
10.3568253585
 20
8.8158011414
 30
0.0
 10
10.3547615783
 20
8.8302092944
 30
0.0
 10
10.3532381709
 20
8.8446120901
 30
0.0
 10
10.3523125263
 20
8.8626379509
 30
0.0
 10
10.3526369607
 20
8.8806399113
 30
0.0
 10
10.3536143488
 20
8.894951106
 30
0.0
 10
10.355055
 20
8.9091590017
 30
0.0
 10
10.3577073777
 20
8.926765348
 30
0.0
 10
10.3621984712
 20
8.947585697
 30
0.0
 10
10.3660329378
 20
8.9612307212
 30
0.0
 10
10.3681501099
 20
8.9679746244
 30
0.0
  0
SPLINE
  5
315
100
AcDbEntity
  8
0
100
AcDbSpline
 62
7
  6
CONTINUOUS
 70
0
 71
3
 72
29
 73
25
 74
0
 42
0.0000001
 43
0.0000001
 44
0.0000000001
 40
0.0
 40
0.0
 40
0.0
 40
0.0
 40
0.0305373766
 40
0.0610738702
 40
0.0916116392
 40
0.1221610496
 40
0.152731637
 40
0.1833305891
 40
0.2139652702
 40
0.2446423738
 40
0.2753682456
 40
0.3061478874
 40
0.3369862411
 40
0.3678868298
 40
0.3988531683
 40
0.4298873239
 40
0.4921558171
 40
0.5547116976
 40
0.617554704
 40
0.6806785016
 40
0.744072254
 40
0.8077219318
 40
0.8716115038
 40
1.0
 40
1.0
 40
1.0
 40
1.0
 10
10.8465217711
 20
7.3669594559
 30
0.0
 10
10.8447261194
 20
7.3649440104
 30
0.0
 10
10.8410390782
 20
7.3609973636
 30
0.0
 10
10.8352361596
 20
7.3553450135
 30
0.0
 10
10.8291728953
 20
7.3499710371
 30
0.0
 10
10.8228629051
 20
7.3448843785
 30
0.0
 10
10.8163197401
 20
7.3400922888
 30
0.0
 10
10.80955766
 20
7.3356009041
 30
0.0
 10
10.8025915415
 20
7.3314148338
 30
0.0
 10
10.7954362346
 20
7.3275376419
 30
0.0
 10
10.7881069548
 20
7.3239711427
 30
0.0
 10
10.7806185249
 20
7.3207165147
 30
0.0
 10
10.772985895
 20
7.3177732089
 30
0.0
 10
10.765223436
 20
7.3151402525
 30
0.0
 10
10.7573452192
 20
7.3128151708
 30
0.0
 10
10.7466941531
 20
7.3101191733
 30
0.0
 10
10.733153403
 20
7.3075042995
 30
0.0
 10
10.7166680291
 20
7.3055402903
 30
0.0
 10
10.70001236
 20
7.3047027833
 30
0.0
 10
10.6832646386
 20
7.3049453639
 30
0.0
 10
10.6664934191
 20
7.3062196573
 30
0.0
 10
10.6497579895
 20
7.3084775584
 30
0.0
 10
10.6275327051
 20
7.3127417847
 30
0.0
 10
10.6111104704
 20
7.3172700093
 30
0.0
 10
10.6003290445
 20
7.3208135145
 30
0.0
  0
SPLINE
  5
316
100
AcDbEntity
  8
0
100
AcDbSpline
 62
7
  6
CONTINUOUS
 70
0
 71
3
 72
39
 73
35
 74
0
 42
0.0000001
 43
0.0000001
 44
0.0000000001
 40
0.0
 40
0.0
 40
0.0
 40
0.0
 40
0.0311445376
 40
0.062443355
 40
0.09388824
 40
0.1254709996
 40
0.1571788478
 40
0.1889972257
 40
0.2209091305
 40
0.2528957945
 40
0.2849369709
 40
0.3170113586
 40
0.3490970145
 40
0.3811717799
 40
0.4132137068
 40
0.4452014824
 40
0.4771148435
 40
0.5089349783
 40
0.5406449062
 40
0.5722298317
 40
0.6036774666
 40
0.6349783114
 40
0.6661258871
 40
0.6971169127
 40
0.7279514223
 40
0.7586328137
 40
0.7891678252
 40
0.8195664354
 40
0.8498416851
 40
0.8800094226
 40
0.9100879711
 40
0.9400977272
 40
0.9700606997
 40
1.0
 40
1.0
 40
1.0
 40
1.0
 10
11.8500887981
 20
9.1847107787
 30
0.0
 10
11.8537683014
 20
9.1844556043
 30
0.0
 10
11.8611295911
 20
9.183674636
 30
0.0
 10
11.8720822439
 20
9.181707489
 30
0.0
 10
11.882917628
 20
9.1789519521
 30
0.0
 10
11.8935771165
 20
9.1754230834
 30
0.0
 10
11.9040041686
 20
9.1711396304
 30
0.0
 10
11.9141431357
 20
9.1661245923
 30
0.0
 10
11.923940012
 20
9.1604047297
 30
0.0
 10
11.9333425932
 20
9.1540105943
 30
0.0
 10
11.942300779
 20
9.1469762966
 30
0.0
 10
11.9507668351
 20
9.1393393542
 30
0.0
 10
11.9586956488
 20
9.1311404874
 30
0.0
 10
11.9660449613
 20
9.1224233986
 30
0.0
 10
11.9727755914
 20
9.1132345426
 30
0.0
 10
11.9788516421
 20
9.1036228816
 30
0.0
 10
11.9842406894
 20
9.0936396278
 30
0.0
 10
11.9889139547
 20
9.0833379744
 30
0.0
 10
11.9928464574
 20
9.0727728155
 30
0.0
 10
11.9960171466
 20
9.0620004581
 30
0.0
 10
11.9984090252
 20
9.0510783281
 30
0.0
 10
12.0000092363
 20
9.040064665
 30
0.0
 10
12.0008091308
 20
9.0290182145
 30
0.0
 10
12.0008043179
 20
9.0179979203
 30
0.0
 10
11.9999946933
 20
9.0070626125
 30
0.0
 10
11.9983844455
 20
8.9962706975
 30
0.0
 10
11.9959820411
 20
8.9856798472
 30
0.0
 10
11.9928001849
 20
8.9753466903
 30
0.0
 10
11.9888557671
 20
8.9653265119
 30
0.0
 10
11.984169769
 20
8.9556729303
 30
0.0
 10
11.9787672162
 20
8.946437678
 30
0.0
 10
11.9726767878
 20
8.9376700544
 30
0.0
 10
11.9659316392
 20
8.9294176324
 30
0.0
 10
11.9610202974
 20
8.9242867703
 30
0.0
 10
11.9584701127
 20
8.9218234594
 30
0.0
  0
SPLINE
  5
317
100
AcDbEntity
  8
0
100
AcDbSpline
 62
7
  6
CONTINUOUS
 70
0
 71
3
 72
22
 73
18
 74
0
 42
0.0000001
 43
0.0000001
 44
0.0000000001
 40
0.0
 40
0.0
 40
0.0
 40
0.0
 40
0.0764238622
 40
0.1504703109
 40
0.2222096576
 40
0.2917225214
 40
0.3591045654
 40
0.4244644517
 40
0.5495744634
 40
0.6096453334
 40
0.6682571008
 40
0.7255853917
 40
0.7818196187
 40
0.837161409
 40
0.8918234106
 40
0.9460271042
 40
1.0
 40
1.0
 40
1.0
 40
1.0
 10
13.7523214733
 20
8.9486658886
 30
0.0
 10
13.7535852359
 20
8.9498865896
 30
0.0
 10
13.7561122835
 20
8.9522502751
 30
0.0
 10
13.7599630974
 20
8.9556090705
 30
0.0
 10
13.7638122105
 20
8.9587232109
 30
0.0
 10
13.7676583886
 20
8.96159151
 30
0.0
 10
13.771500792
 20
8.9642132555
 30
0.0
 10
13.7765431209
 20
8.9673331758
 30
0.0
 10
13.781652154
 20
8.9700186267
 30
0.0
 10
13.7868098937
 20
8.9722185878
 30
0.0
 10
13.7906172169
 20
8.9735963145
 30
0.0
 10
13.7944142633
 20
8.974723319
 30
0.0
 10
13.7982000176
 20
8.9755992333
 30
0.0
 10
13.8019732836
 20
8.9762235786
 30
0.0
 10
13.8057329186
 20
8.9765960102
 30
0.0
 10
13.809477443
 20
8.976716393
 30
0.0
 10
13.8119651978
 20
8.9766284211
 30
0.0
 10
13.8132031043
 20
8.9765425761
 30
0.0
  0
SPLINE
  5
318
100
AcDbEntity
  8
0
100
AcDbSpline
 62
7
  6
CONTINUOUS
 70
0
 71
3
 72
22
 73
18
 74
0
 42
0.0000001
 43
0.0000001
 44
0.0000000001
 40
0.0
 40
0.0
 40
0.0
 40
0.0
 40
0.0580382076
 40
0.1162685633
 40
0.1748263038
 40
0.2338355148
 40
0.2934080558
 40
0.3536425777
 40
0.4146222689
 40
0.4764126111
 40
0.5390590335
 40
0.6025840487
 40
0.6669842268
 40
0.7322279352
 40
0.79825487
 40
0.8649771571
 40
1.0
 40
1.0
 40
1.0
 40
1.0
 10
11.6321607096
 20
8.2355267136
 30
0.0
 10
11.629464599
 20
8.2319898328
 30
0.0
 10
11.6242810028
 20
8.2247356988
 30
0.0
 10
11.6171524175
 20
8.2133847969
 30
0.0
 10
11.6106543383
 20
8.2015764584
 30
0.0
 10
11.6047813888
 20
8.1893315079
 30
0.0
 10
11.5995307284
 20
8.1766682109
 30
0.0
 10
11.5949030969
 20
8.1636042045
 30
0.0
 10
11.5909030726
 20
8.1501573975
 30
0.0
 10
11.5875389979
 20
8.1363474344
 30
0.0
 10
11.5848228861
 20
8.1221970065
 30
0.0
 10
11.5827701947
 20
8.1077332672
 30
0.0
 10
11.5813993416
 20
8.0929890992
 30
0.0
 10
11.5807308378
 20
8.0780046474
 30
0.0
 10
11.5807864111
 20
8.0628266051
 30
0.0
 10
11.5818582651
 20
8.0423307356
 30
0.0
 10
11.5838092266
 20
8.0269606979
 30
0.0
 10
11.5856300068
 20
8.016775744
 30
0.0
  0
SPLINE
  5
319
100
AcDbEntity
  8
0
100
AcDbSpline
 62
7
  6
CONTINUOUS
 70
0
 71
3
 72
23
 73
19
 74
0
 42
0.0000001
 43
0.0000001
 44
0.0000000001
 40
0.0
 40
0.0
 40
0.0
 40
0.0
 40
0.0637744756
 40
0.1273454195
 40
0.1907025115
 40
0.2538557844
 40
0.3168132107
 40
0.3795821493
 40
0.4421733556
 40
0.5045993344
 40
0.5668738645
 40
0.6290123751
 40
0.6910316494
 40
0.7529496375
 40
0.8147853529
 40
0.8765586001
 40
0.9382898483
 40
1.0
 40
1.0
 40
1.0
 40
1.0
 10
9.56005435
 20
9.776782902
 30
0.0
 10
9.56005435
 20
9.7739904124
 30
0.0
 10
9.5599206338
 20
9.7684134007
 30
0.0
 10
9.5593174112
 20
9.7600818137
 30
0.0
 10
9.5583129078
 20
9.7518161983
 30
0.0
 10
9.5569095495
 20
9.743636164
 30
0.0
 10
9.5551106647
 20
9.7355602524
 30
0.0
 10
9.5529201782
 20
9.7276071453
 30
0.0
 10
9.5503432559
 20
9.7197951873
 30
0.0
 10
9.5473858046
 20
9.7121423785
 30
0.0
 10
9.5440545514
 20
9.704666398
 30
0.0
 10
9.5403572846
 20
9.6973844381
 30
0.0
 10
9.5363024028
 20
9.6903133537
 30
0.0
 10
9.5318993049
 20
9.6834694237
 30
0.0
 10
9.5271581712
 20
9.6768684323
 30
0.0
 10
9.5220897849
 20
9.6705256277
 30
0.0
 10
9.5167061563
 20
9.66445574
 30
0.0
 10
9.5129143853
 20
9.6605997932
 30
0.0
 10
9.5109708959
 20
9.6587225108
 30
0.0
  0
SPLINE
  5
31A
100
AcDbEntity
  8
0
100
AcDbSpline
 62
7
  6
CONTINUOUS
 70
0
 71
3
 72
23
 73
19
 74
0
 42
0.0000001
 43
0.0000001
 44
0.0000000001
 40
0.0
 40
0.0
 40
0.0
 40
0.0
 40
0.0637744756
 40
0.1273454195
 40
0.1907025115
 40
0.2538557844
 40
0.3168132107
 40
0.3795821493
 40
0.4421733556
 40
0.5045993344
 40
0.5668738645
 40
0.6290123751
 40
0.6910316494
 40
0.7529496375
 40
0.8147853529
 40
0.8765586001
 40
0.9382898483
 40
1.0
 40
1.0
 40
1.0
 40
1.0
 10
12.0347564986
 20
9.6051617251
 30
0.0
 10
12.0347564986
 20
9.6023692355
 30
0.0
 10
12.0346227824
 20
9.5967922238
 30
0.0
 10
12.0340195598
 20
9.5884606368
 30
0.0
 10
12.0330150564
 20
9.5801950214
 30
0.0
 10
12.0316116981
 20
9.5720149871
 30
0.0
 10
12.0298128133
 20
9.5639390755
 30
0.0
 10
12.0276223268
 20
9.5559859684
 30
0.0
 10
12.0250454045
 20
9.5481740104
 30
0.0
 10
12.0220879532
 20
9.5405212016
 30
0.0
 10
12.0187567
 20
9.5330452211
 30
0.0
 10
12.0150594332
 20
9.5257632612
 30
0.0
 10
12.0110045514
 20
9.5186921768
 30
0.0
 10
12.0066014535
 20
9.5118482468
 30
0.0
 10
12.0018603198
 20
9.5052472554
 30
0.0
 10
11.9967919335
 20
9.4989044508
 30
0.0
 10
11.9914083049
 20
9.4928345631
 30
0.0
 10
11.9876165339
 20
9.4889786162
 30
0.0
 10
11.9856730445
 20
9.4871013339
 30
0.0
  0
SPLINE
  5
31B
100
AcDbEntity
  8
0
100
AcDbSpline
 62
7
  6
CONTINUOUS
 70
0
 71
3
 72
23
 73
19
 74
0
 42
0.0000001
 43
0.0000001
 44
0.0000000001
 40
0.0
 40
0.0
 40
0.0
 40
0.0
 40
0.0637744756
 40
0.1273454195
 40
0.1907025115
 40
0.2538557844
 40
0.3168132107
 40
0.3795821493
 40
0.4421733556
 40
0.5045993344
 40
0.5668738645
 40
0.6290123751
 40
0.6910316494
 40
0.7529496375
 40
0.8147853529
 40
0.8765586001
 40
0.9382898483
 40
1.0
 40
1.0
 40
1.0
 40
1.0
 10
9.6199416746
 20
6.6932579051
 30
0.0
 10
9.6199416746
 20
6.6904654155
 30
0.0
 10
9.6198079584
 20
6.6848884038
 30
0.0
 10
9.6192047359
 20
6.6765568168
 30
0.0
 10
9.6182002325
 20
6.6682912015
 30
0.0
 10
9.6167968741
 20
6.6601111671
 30
0.0
 10
9.6149979894
 20
6.6520352555
 30
0.0
 10
9.6128075028
 20
6.6440821484
 30
0.0
 10
9.6102305805
 20
6.6362701904
 30
0.0
 10
9.6072731292
 20
6.6286173816
 30
0.0
 10
9.603941876
 20
6.6211414011
 30
0.0
 10
9.6002446092
 20
6.6138594412
 30
0.0
 10
9.5961897274
 20
6.6067883569
 30
0.0
 10
9.5917866296
 20
6.5999444268
 30
0.0
 10
9.5870454959
 20
6.5933434354
 30
0.0
 10
9.5819771095
 20
6.5870006308
 30
0.0
 10
9.576593481
 20
6.5809307431
 30
0.0
 10
9.5728017099
 20
6.5770747963
 30
0.0
 10
9.5708582206
 20
6.5751975139
 30
0.0
  0
SPLINE
  5
31C
100
AcDbEntity
  8
0
100
AcDbSpline
 62
7
  6
CONTINUOUS
 70
0
 71
3
 72
23
 73
19
 74
0
 42
0.0000001
 43
0.0000001
 44
0.0000000001
 40
0.0
 40
0.0
 40
0.0
 40
0.0
 40
0.0637744756
 40
0.1273454195
 40
0.1907025115
 40
0.2538557844
 40
0.3168132107
 40
0.3795821493
 40
0.4421733556
 40
0.5045993344
 40
0.5668738645
 40
0.6290123751
 40
0.6910316494
 40
0.7529496375
 40
0.8147853529
 40
0.8765586001
 40
0.9382898483
 40
1.0
 40
1.0
 40
1.0
 40
1.0
 10
11.9748688285
 20
6.5299431523
 30
0.0
 10
11.9748688285
 20
6.5271506627
 30
0.0
 10
11.9747351123
 20
6.521573651
 30
0.0
 10
11.9741318897
 20
6.513242064
 30
0.0
 10
11.9731273863
 20
6.5049764487
 30
0.0
 10
11.971724028
 20
6.4967964143
 30
0.0
 10
11.9699251432
 20
6.4887205027
 30
0.0
 10
11.9677346567
 20
6.4807673956
 30
0.0
 10
11.9651577344
 20
6.4729554376
 30
0.0
 10
11.9622002831
 20
6.4653026288
 30
0.0
 10
11.9588690299
 20
6.4578266483
 30
0.0
 10
11.9551717631
 20
6.4505446884
 30
0.0
 10
11.9511168813
 20
6.4434736041
 30
0.0
 10
11.9467137835
 20
6.436629674
 30
0.0
 10
11.9419726498
 20
6.4300286826
 30
0.0
 10
11.9369042634
 20
6.423685878
 30
0.0
 10
11.9315206349
 20
6.4176159903
 30
0.0
 10
11.9277288638
 20
6.4137600435
 30
0.0
 10
11.9257853744
 20
6.4118827611
 30
0.0
  0
SPLINE
  5
31D
100
AcDbEntity
  8
0
100
AcDbSpline
 62
7
  6
CONTINUOUS
 70
0
 71
3
 72
59
 73
55
 74
0
 42
0.0000001
 43
0.0000001
 44
0.0000000001
 40
0.0
 40
0.0
 40
0.0
 40
0.0
 40
0.0027758488
 40
0.0055596021
 40
0.008359095
 40
0.0111820195
 40
0.0140358522
 40
0.0169278075
 40
0.0228516365
 40
0.0290063393
 40
0.0354366794
 40
0.0387680642
 40
0.0421822272
 40
0.0492730078
 40
0.0567369683
 40
0.0645960023
 40
0.0728675869
 40
0.0815655464
 40
0.0907003782
 40
0.1002799082
 40
0.1103094603
 40
0.1207923966
 40
0.1317301617
 40
0.1431227321
 40
0.1549685743
 40
0.1672650269
 40
0.1800082061
 40
0.1931933349
 40
0.2068146222
 40
0.2208655488
 40
0.2353387364
 40
0.2502261967
 40
0.2655192032
 40
0.2812085054
 40
0.2972842121
 40
0.3137359731
 40
0.3305528785
 40
0.3477236105
 40
0.3830784316
 40
0.4197019435
 40
0.457489208
 40
0.4963301116
 40
0.5361099921
 40
0.576710229
 40
0.6180088092
 40
0.6598808745
 40
0.702199258
 40
0.7448350122
 40
0.7876579293
 40
0.8305370685
 40
0.8733412491
 40
0.9159396382
 40
0.9582020849
 40
1.0
 40
1.0
 40
1.0
 40
1.0
 10
12.558853814
 20
10.9895746202
 30
0.0
 10
12.5588538177
 20
10.9887035121
 30
0.0
 10
12.5588054976
 20
10.9869584318
 30
0.0
 10
12.5585881692
 20
10.9843429629
 30
0.0
 10
12.5582259862
 20
10.9817286113
 30
0.0
 10
12.5577190561
 20
10.9791160956
 30
0.0
 10
12.5570675326
 20
10.9765059025
 30
0.0
 10
12.5559979879
 20
10.9730020171
 30
0.0
 10
12.5542862714
 20
10.9686181378
 30
0.0
 10
12.5516730176
 20
10.9634224667
 30
0.0
 10
12.5490495634
 20
10.9591649005
 30
0.0
 10
12.5466788039
 20
10.9557763052
 30
0.0
 10
12.5440576798
 20
10.9523134574
 30
0.0
 10
12.5404132661
 20
10.9480041911
 30
0.0
 10
12.5355328049
 20
10.9429332257
 30
0.0
 10
12.5300950979
 20
10.9379021166
 30
0.0
 10
12.5241048293
 20
10.9329145605
 30
0.0
 10
12.5175666643
 20
10.9279742921
 30
0.0
 10
12.5104858941
 20
10.9230849556
 30
0.0
 10
12.502868095
 20
10.9182504416
 30
0.0
 10
12.4947194073
 20
10.9134744362
 30
0.0
 10
12.4860463163
 20
10.9087608499
 30
0.0
 10
12.4768558396
 20
10.9041133558
 30
0.0
 10
12.4671553591
 20
10.8995358159
 30
0.0
 10
12.4569527547
 20
10.8950318435
 30
0.0
 10
12.4462562765
 20
10.8906052083
 30
0.0
 10
12.4350746384
 20
10.8862594317
 30
0.0
 10
12.4234169239
 20
10.8819981616
 30
0.0
 10
12.4112926483
 20
10.8778248049
 30
0.0
 10
12.398711691
 20
10.8737428667
 30
0.0
 10
12.3856843339
 20
10.869755622
 30
0.0
 10
12.3722212138
 20
10.8658664172
 30
0.0
 10
12.3583333427
 20
10.8620783816
 30
0.0
 10
12.3440320756
 20
10.8583946898
 30
0.0
 10
12.3293291157
 20
10.8548183118
 30
0.0
 10
12.3142364989
 20
10.851352244
 30
0.0
 10
12.2987665662
 20
10.8479992676
 30
0.0
 10
12.2774462491
 20
10.8436408179
 30
0.0
 10
12.2499423187
 20
10.8385071632
 30
0.0
 10
12.2159535302
 20
10.8328977272
 30
0.0
 10
12.1807786185
 20
10.8277995227
 30
0.0
 10
12.1445328231
 20
10.8232293912
 30
0.0
 10
12.107334752
 20
10.81920245
 30
0.0
 10
12.069306221
 20
10.8157320064
 30
0.0
 10
12.0305717793
 20
10.812829527
 30
0.0
 10
11.9912583137
 20
10.8105045984
 30
0.0
 10
11.9514946221
 20
10.8087648977
 30
0.0
 10
11.9114109891
 20
10.8076161688
 30
0.0
 10
11.8711387545
 20
10.8070622032
 30
0.0
 10
11.8308098811
 20
10.8071048308
 30
0.0
 10
11.7905565187
 20
10.8077439079
 30
0.0
 10
11.7505105526
 20
10.8089773314
 30
0.0
 10
11.7108033049
 20
10.8108010157
 30
0.0
 10
11.6844720125
 20
10.8124168777
 30
0.0
 10
11.6713865522
 20
10.8133243574
 30
0.0
  0
SPLINE
  5
31E
100
AcDbEntity
  8
0
100
AcDbSpline
 62
7
  6
CONTINUOUS
 70
0
 71
3
 72
23
 73
19
 74
0
 42
0.0000001
 43
0.0000001
 44
0.0000000001
 40
0.0
 40
0.0
 40
0.0
 40
0.0
 40
0.0616482008
 40
0.1233194316
 40
0.1850364675
 40
0.2468215573
 40
0.3086962009
 40
0.3706809199
 40
0.43279501
 40
0.4950563329
 40
0.5574811898
 40
0.6200840976
 40
0.6828775607
 40
0.7458724522
 40
0.8090769387
 40
0.8724963729
 40
0.9361396553
 40
1.0
 40
1.0
 40
1.0
 40
1.0
 10
12.7115888735
 20
9.9800271959
 30
0.0
 10
12.7147422591
 20
9.983073114
 30
0.0
 10
12.7212154681
 20
9.9889976274
 30
0.0
 10
12.7313907681
 20
9.9973514798
 30
0.0
 10
12.7420079386
 20
10.0051531284
 30
0.0
 10
12.7530398505
 20
10.0123825823
 30
0.0
 10
12.7644587661
 20
10.0190217833
 30
0.0
 10
12.7762358974
 20
10.0250539803
 30
0.0
 10
12.7883415961
 20
10.0304639523
 30
0.0
 10
12.8007453262
 20
10.0352381602
 30
0.0
 10
12.8134158413
 20
10.0393646162
 30
0.0
 10
12.8263212399
 20
10.0428328894
 30
0.0
 10
12.8394290126
 20
10.0456343332
 30
0.0
 10
12.8527061536
 20
10.047761936
 30
0.0
 10
12.8661191397
 20
10.0492103389
 30
0.0
 10
12.879634577
 20
10.0499760085
 30
0.0
 10
12.8932176765
 20
10.0500568871
 30
0.0
 10
12.9022809148
 20
10.0496549981
 30
0.0
 10
12.906811582
 20
10.0493407953
 30
0.0
  0
SPLINE
  5
31F
100
AcDbEntity
  8
0
100
AcDbSpline
 62
7
  6
CONTINUOUS
 70
0
 71
3
 72
23
 73
19
 74
0
 42
0.0000001
 43
0.0000001
 44
0.0000000001
 40
0.0
 40
0.0
 40
0.0
 40
0.0
 40
0.0616482008
 40
0.1233194316
 40
0.1850364675
 40
0.2468215573
 40
0.3086962009
 40
0.3706809199
 40
0.43279501
 40
0.4950563329
 40
0.5574811898
 40
0.6200840976
 40
0.6828775607
 40
0.7458724522
 40
0.8090769387
 40
0.8724963729
 40
0.9361396553
 40
1.0
 40
1.0
 40
1.0
 40
1.0
 10
8.1215091574
 20
6.6741964728
 30
0.0
 10
8.1246625431
 20
6.6772423909
 30
0.0
 10
8.131135752
 20
6.6831669043
 30
0.0
 10
8.141311052
 20
6.6915207568
 30
0.0
 10
8.1519282226
 20
6.6993224053
 30
0.0
 10
8.1629601345
 20
6.7065518592
 30
0.0
 10
8.17437905
 20
6.7131910602
 30
0.0
 10
8.1861561813
 20
6.7192232573
 30
0.0
 10
8.1982618801
 20
6.7246332293
 30
0.0
 10
8.2106656102
 20
6.7294074371
 30
0.0
 10
8.2233361252
 20
6.7335338931
 30
0.0
 10
8.2362415238
 20
6.7370021664
 30
0.0
 10
8.2493492966
 20
6.7398036101
 30
0.0
 10
8.2626264376
 20
6.7419312129
 30
0.0
 10
8.2760394236
 20
6.7433796158
 30
0.0
 10
8.2895548609
 20
6.7441452855
 30
0.0
 10
8.3031379604
 20
6.7442261641
 30
0.0
 10
8.3122011988
 20
6.743824275
 30
0.0
 10
8.3167318659
 20
6.7435100722
 30
0.0
  0
SPLINE
  5
320
100
AcDbEntity
  8
0
100
AcDbSpline
 62
7
  6
CONTINUOUS
 70
0
 71
3
 72
41
 73
37
 74
0
 42
0.0000001
 43
0.0000001
 44
0.0000000001
 40
0.0
 40
0.0
 40
0.0
 40
0.0
 40
0.0299421784
 40
0.0599087324
 40
0.0899234444
 40
0.1200089282
 40
0.1501860905
 40
0.1804736447
 40
0.2108876904
 40
0.2414413672
 40
0.2721445903
 40
0.3030038709
 40
0.3340222199
 40
0.3651991352
 40
0.3965306652
 40
0.4280095447
 40
0.4596253948
 40
0.4913649808
 40
0.5232125186
 40
0.555150024
 40
0.5871576955
 40
0.6192143243
 40
0.6512977253
 40
0.6833851811
 40
0.7154538941
 40
0.7314766015
 40
0.7474862705
 40
0.7794510416
 40
0.8113326875
 40
0.8272388964
 40
0.8431174873
 40
0.8747789169
 40
0.9063078234
 40
0.9376925705
 40
0.968925236
 40
1.0
 40
1.0
 40
1.0
 40
1.0
 10
9.2594726342
 20
9.9190926551
 30
0.0
 10
9.2624753518
 20
9.9219930819
 30
0.0
 10
9.2687169427
 20
9.9275598138
 30
0.0
 10
9.2787169049
 20
9.9351435353
 30
0.0
 10
9.2893033752
 20
9.9419228798
 30
0.0
 10
9.3004171888
 20
9.9478598296
 30
0.0
 10
9.3119972463
 20
9.9529219466
 30
0.0
 10
9.3239796379
 20
9.9570814052
 30
0.0
 10
9.3362983337
 20
9.960315447
 30
0.0
 10
9.3488854668
 20
9.9626064156
 30
0.0
 10
9.3616717348
 20
9.9639418662
 30
0.0
 10
9.3745867775
 20
9.9643146191
 30
0.0
 10
9.3875595653
 20
9.963722791
 30
0.0
 10
9.4005187878
 20
9.9621697963
 30
0.0
 10
9.4133932417
 20
9.9596643212
 30
0.0
 10
9.4261122174
 20
9.95622027
 30
0.0
 10
9.4386058828
 20
9.9518566844
 30
0.0
 10
9.450805661
 20
9.9465976367
 30
0.0
 10
9.4626446018
 20
9.9404720943
 30
0.0
 10
9.4740577424
 20
9.9335137623
 30
0.0
 10
9.4849824656
 20
9.9257608887
 30
0.0
 10
9.4953588136
 20
9.9172560943
 30
0.0
 10
9.5051299095
 20
9.9080459941
 30
0.0
 10
9.5142419037
 20
9.8981814889
 30
0.0
 10
9.5212472529
 20
9.8894569893
 30
0.0
 10
9.526473939
 20
9.8822052221
 30
0.0
 10
9.5314375946
 20
9.8747883413
 30
0.0
 10
9.5371443558
 20
9.8652167117
 30
0.0
 10
9.5421621049
 20
9.8552825888
 30
0.0
 10
9.5457414671
 20
9.8471575567
 30
0.0
 10
9.5490206805
 20
9.8389399236
 30
0.0
 10
9.5525612185
 20
9.8284888393
 30
0.0
 10
9.5558936186
 20
9.8157190694
 30
0.0
 10
9.5582880986
 20
9.8028007979
 30
0.0
 10
9.5597311202
 20
9.789806337
 30
0.0
 10
9.56005435
 20
9.7811155963
 30
0.0
 10
9.56005435
 20
9.776782902
 30
0.0
  0
SPLINE
  5
321
100
AcDbEntity
  8
0
100
AcDbSpline
 62
7
  6
CONTINUOUS
 70
0
 71
3
 72
41
 73
37
 74
0
 42
0.0000001
 43
0.0000001
 44
0.0000000001
 40
0.0
 40
0.0
 40
0.0
 40
0.0
 40
0.0299421784
 40
0.0599087324
 40
0.0899234444
 40
0.1200089282
 40
0.1501860905
 40
0.1804736447
 40
0.2108876904
 40
0.2414413672
 40
0.2721445903
 40
0.3030038709
 40
0.3340222199
 40
0.3651991352
 40
0.3965306652
 40
0.4280095447
 40
0.4596253948
 40
0.4913649808
 40
0.5232125186
 40
0.555150024
 40
0.5871576955
 40
0.6192143243
 40
0.6512977253
 40
0.6833851811
 40
0.7154538941
 40
0.7314766015
 40
0.7474862705
 40
0.7794510416
 40
0.8113326875
 40
0.8272388964
 40
0.8431174873
 40
0.8747789169
 40
0.9063078234
 40
0.9376925705
 40
0.968925236
 40
1.0
 40
1.0
 40
1.0
 40
1.0
 10
11.7341747828
 20
9.7474714782
 30
0.0
 10
11.7371775004
 20
9.750371905
 30
0.0
 10
11.7434190913
 20
9.7559386369
 30
0.0
 10
11.7534190535
 20
9.7635223584
 30
0.0
 10
11.7640055238
 20
9.7703017029
 30
0.0
 10
11.7751193374
 20
9.7762386527
 30
0.0
 10
11.7866993949
 20
9.7813007697
 30
0.0
 10
11.7986817865
 20
9.7854602283
 30
0.0
 10
11.8110004823
 20
9.7886942701
 30
0.0
 10
11.8235876154
 20
9.7909852387
 30
0.0
 10
11.8363738834
 20
9.7923206893
 30
0.0
 10
11.8492889261
 20
9.7926934422
 30
0.0
 10
11.8622617139
 20
9.7921016141
 30
0.0
 10
11.8752209364
 20
9.7905486193
 30
0.0
 10
11.8880953902
 20
9.7880431442
 30
0.0
 10
11.900814366
 20
9.7845990931
 30
0.0
 10
11.9133080314
 20
9.7802355075
 30
0.0
 10
11.9255078096
 20
9.7749764598
 30
0.0
 10
11.9373467504
 20
9.7688509174
 30
0.0
 10
11.9487598909
 20
9.7618925854
 30
0.0
 10
11.9596846142
 20
9.7541397118
 30
0.0
 10
11.9700609621
 20
9.7456349174
 30
0.0
 10
11.9798320581
 20
9.7364248172
 30
0.0
 10
11.9889440523
 20
9.726560312
 30
0.0
 10
11.9959494015
 20
9.7178358124
 30
0.0
 10
12.0011760876
 20
9.7105840452
 30
0.0
 10
12.0061397432
 20
9.7031671644
 30
0.0
 10
12.0118465043
 20
9.6935955348
 30
0.0
 10
12.0168642535
 20
9.6836614119
 30
0.0
 10
12.0204436157
 20
9.6755363798
 30
0.0
 10
12.0237228291
 20
9.6673187467
 30
0.0
 10
12.0272633671
 20
9.6568676624
 30
0.0
 10
12.0305957672
 20
9.6440978925
 30
0.0
 10
12.0329902472
 20
9.631179621
 30
0.0
 10
12.0344332688
 20
9.6181851601
 30
0.0
 10
12.0347564986
 20
9.6094944194
 30
0.0
 10
12.0347564986
 20
9.6051617251
 30
0.0
  0
SPLINE
  5
322
100
AcDbEntity
  8
0
100
AcDbSpline
 62
7
  6
CONTINUOUS
 70
0
 71
3
 72
41
 73
37
 74
0
 42
0.0000001
 43
0.0000001
 44
0.0000000001
 40
0.0
 40
0.0
 40
0.0
 40
0.0
 40
0.0299421784
 40
0.0599087324
 40
0.0899234444
 40
0.1200089282
 40
0.1501860905
 40
0.1804736447
 40
0.2108876904
 40
0.2414413672
 40
0.2721445903
 40
0.3030038709
 40
0.3340222199
 40
0.3651991352
 40
0.3965306652
 40
0.4280095447
 40
0.4596253948
 40
0.4913649808
 40
0.5232125186
 40
0.555150024
 40
0.5871576955
 40
0.6192143243
 40
0.6512977253
 40
0.6833851811
 40
0.7154538941
 40
0.7314766015
 40
0.7474862705
 40
0.7794510416
 40
0.8113326875
 40
0.8272388964
 40
0.8431174873
 40
0.8747789169
 40
0.9063078234
 40
0.9376925705
 40
0.968925236
 40
1.0
 40
1.0
 40
1.0
 40
1.0
 10
9.3193599589
 20
6.8355676583
 30
0.0
 10
9.3223626764
 20
6.838468085
 30
0.0
 10
9.3286042673
 20
6.8440348169
 30
0.0
 10
9.3386042296
 20
6.8516185385
 30
0.0
 10
9.3491906998
 20
6.8583978829
 30
0.0
 10
9.3603045135
 20
6.8643348328
 30
0.0
 10
9.371884571
 20
6.8693969497
 30
0.0
 10
9.3838669625
 20
6.8735564083
 30
0.0
 10
9.3961856584
 20
6.8767904502
 30
0.0
 10
9.4087727915
 20
6.8790814187
 30
0.0
 10
9.4215590595
 20
6.8804168693
 30
0.0
 10
9.4344741021
 20
6.8807896222
 30
0.0
 10
9.44744689
 20
6.8801977941
 30
0.0
 10
9.4604061125
 20
6.8786447994
 30
0.0
 10
9.4732805663
 20
6.8761393243
 30
0.0
 10
9.4859995421
 20
6.8726952731
 30
0.0
 10
9.4984932075
 20
6.8683316875
 30
0.0
 10
9.5106929856
 20
6.8630726399
 30
0.0
 10
9.5225319264
 20
6.8569470974
 30
0.0
 10
9.533945067
 20
6.8499887654
 30
0.0
 10
9.5448697902
 20
6.8422358919
 30
0.0
 10
9.5552461382
 20
6.8337310974
 30
0.0
 10
9.5650172341
 20
6.8245209972
 30
0.0
 10
9.5741292283
 20
6.814656492
 30
0.0
 10
9.5811345775
 20
6.8059319924
 30
0.0
 10
9.5863612637
 20
6.7986802252
 30
0.0
 10
9.5913249192
 20
6.7912633444
 30
0.0
 10
9.5970316804
 20
6.7816917148
 30
0.0
 10
9.6020494295
 20
6.7717575919
 30
0.0
 10
9.6056287918
 20
6.7636325598
 30
0.0
 10
9.6089080051
 20
6.7554149267
 30
0.0
 10
9.6124485432
 20
6.7449638424
 30
0.0
 10
9.6157809433
 20
6.7321940726
 30
0.0
 10
9.6181754233
 20
6.7192758011
 30
0.0
 10
9.6196184448
 20
6.7062813402
 30
0.0
 10
9.6199416746
 20
6.6975905994
 30
0.0
 10
9.6199416746
 20
6.6932579051
 30
0.0
  0
SPLINE
  5
323
100
AcDbEntity
  8
0
100
AcDbSpline
 62
7
  6
CONTINUOUS
 70
0
 71
3
 72
41
 73
37
 74
0
 42
0.0000001
 43
0.0000001
 44
0.0000000001
 40
0.0
 40
0.0
 40
0.0
 40
0.0
 40
0.0299421784
 40
0.0599087324
 40
0.0899234444
 40
0.1200089282
 40
0.1501860905
 40
0.1804736447
 40
0.2108876904
 40
0.2414413672
 40
0.2721445903
 40
0.3030038709
 40
0.3340222199
 40
0.3651991352
 40
0.3965306652
 40
0.4280095447
 40
0.4596253948
 40
0.4913649808
 40
0.5232125186
 40
0.555150024
 40
0.5871576955
 40
0.6192143243
 40
0.6512977253
 40
0.6833851811
 40
0.7154538941
 40
0.7314766015
 40
0.7474862705
 40
0.7794510416
 40
0.8113326875
 40
0.8272388964
 40
0.8431174873
 40
0.8747789169
 40
0.9063078234
 40
0.9376925705
 40
0.968925236
 40
1.0
 40
1.0
 40
1.0
 40
1.0
 10
11.6742871127
 20
6.6722529054
 30
0.0
 10
11.6772898303
 20
6.6751533322
 30
0.0
 10
11.6835314212
 20
6.6807200641
 30
0.0
 10
11.6935313834
 20
6.6883037856
 30
0.0
 10
11.7041178537
 20
6.6950831301
 30
0.0
 10
11.7152316674
 20
6.7010200799
 30
0.0
 10
11.7268117248
 20
6.7060821969
 30
0.0
 10
11.7387941164
 20
6.7102416555
 30
0.0
 10
11.7511128123
 20
6.7134756974
 30
0.0
 10
11.7636999453
 20
6.7157666659
 30
0.0
 10
11.7764862133
 20
6.7171021165
 30
0.0
 10
11.789401256
 20
6.7174748694
 30
0.0
 10
11.8023740439
 20
6.7168830413
 30
0.0
 10
11.8153332663
 20
6.7153300466
 30
0.0
 10
11.8282077202
 20
6.7128245715
 30
0.0
 10
11.8409266959
 20
6.7093805203
 30
0.0
 10
11.8534203614
 20
6.7050169347
 30
0.0
 10
11.8656201395
 20
6.699757887
 30
0.0
 10
11.8774590803
 20
6.6936323446
 30
0.0
 10
11.8888722209
 20
6.6866740126
 30
0.0
 10
11.8997969441
 20
6.678921139
 30
0.0
 10
11.9101732921
 20
6.6704163446
 30
0.0
 10
11.919944388
 20
6.6612062444
 30
0.0
 10
11.9290563822
 20
6.6513417392
 30
0.0
 10
11.9360617314
 20
6.6426172396
 30
0.0
 10
11.9412884175
 20
6.6353654724
 30
0.0
 10
11.9462520731
 20
6.6279485916
 30
0.0
 10
11.9519588343
 20
6.618376962
 30
0.0
 10
11.9569765834
 20
6.6084428391
 30
0.0
 10
11.9605559457
 20
6.600317807
 30
0.0
 10
11.963835159
 20
6.5921001739
 30
0.0
 10
11.967375697
 20
6.5816490896
 30
0.0
 10
11.9707080972
 20
6.5688793197
 30
0.0
 10
11.9731025771
 20
6.5559610482
 30
0.0
 10
11.9745455987
 20
6.5429665873
 30
0.0
 10
11.9748688285
 20
6.5342758466
 30
0.0
 10
11.9748688285
 20
6.5299431523
 30
0.0
  0
SPLINE
  5
324
100
AcDbEntity
  8
0
100
AcDbSpline
 62
7
  6
CONTINUOUS
 70
0
 71
3
 72
37
 73
33
 74
0
 42
0.0000001
 43
0.0000001
 44
0.0000000001
 40
0.0
 40
0.0
 40
0.0
 40
0.0
 40
0.0311191579
 40
0.0621654225
 40
0.0931451533
 40
0.1240648373
 40
0.1549310097
 40
0.1857504575
 40
0.2165300708
 40
0.2472770313
 40
0.3086869874
 40
0.3700587419
 40
0.4007606612
 40
0.4314802637
 40
0.4622275583
 40
0.4930131868
 40
0.5238485886
 40
0.5547457542
 40
0.5857171297
 40
0.6167757256
 40
0.647934906
 40
0.6792080605
 40
0.710608158
 40
0.7421472529
 40
0.7738358342
 40
0.8056819925
 40
0.8376904897
 40
0.869861849
 40
0.9021914594
 40
0.9346692961
 40
0.9672789943
 40
1.0
 40
1.0
 40
1.0
 40
1.0
 10
10.8553933956
 20
8.850689655
 30
0.0
 10
10.8538100657
 20
8.8456462182
 30
0.0
 10
10.8504186827
 20
8.8356412669
 30
0.0
 10
10.844670941
 20
8.8208944882
 30
0.0
 10
10.8382866734
 20
8.8064486602
 30
0.0
 10
10.8312829221
 20
8.7923271003
 30
0.0
 10
10.8236755339
 20
8.7785524169
 30
0.0
 10
10.8154793524
 20
8.7651477072
 30
0.0
 10
10.8067079621
 20
8.752136116
 30
0.0
 10
10.7942709056
 20
8.7353534915
 30
0.0
 10
10.777341478
 20
8.7154657458
 30
0.0
 10
10.7586536721
 20
8.6972268238
 30
0.0
 10
10.7427148285
 20
8.683761226
 30
0.0
 10
10.7302701232
 20
8.6742500487
 30
0.0
 10
10.7173528448
 20
8.6653661474
 30
0.0
 10
10.7039786013
 20
8.6571477948
 30
0.0
 10
10.6901654658
 20
8.6496363215
 30
0.0
 10
10.6759341396
 20
8.6428758715
 30
0.0
 10
10.6613088695
 20
8.6369134933
 30
0.0
 10
10.646318269
 20
8.6317989492
 30
0.0
 10
10.6309962659
 20
8.6275844488
 30
0.0
 10
10.6153831969
 20
8.6243241095
 30
0.0
 10
10.5995269558
 20
8.6220730624
 30
0.0
 10
10.5834841074
 20
8.6208861468
 30
0.0
 10
10.5673208607
 20
8.6208161522
 30
0.0
 10
10.5511137592
 20
8.6219115479
 30
0.0
 10
10.5349498856
 20
8.6242137099
 30
0.0
 10
10.5189263124
 20
8.6277538451
 30
0.0
 10
10.503148721
 20
8.6325496253
 30
0.0
 10
10.4877285314
 20
8.6386026254
 30
0.0
 10
10.4727809763
 20
8.6458946947
 30
0.0
 10
10.4632168498
 20
8.6515511739
 30
0.0
 10
10.4585495602
 20
8.6545695124
 30
0.0
  0
SPLINE
  5
325
100
AcDbEntity
  8
0
100
AcDbSpline
 62
7
  6
CONTINUOUS
 70
0
 71
3
 72
56
 73
52
 74
0
 42
0.0000001
 43
0.0000001
 44
0.0000000001
 40
0.0
 40
0.0
 40
0.0
 40
0.0
 40
0.0159348126
 40
0.0319118275
 40
0.047927631
 40
0.0639784652
 40
0.0961607999
 40
0.1284330996
 40
0.1607594518
 40
0.1931037004
 40
0.2254307269
 40
0.2577075033
 40
0.289903828
 40
0.3219928857
 40
0.3539516513
 40
0.3857611739
 40
0.4174067585
 40
0.448878086
 40
0.480169323
 40
0.5112792209
 40
0.5422112084
 40
0.5576164913
 40
0.5729807912
 40
0.5883058823
 40
0.6035938577
 40
0.6188470704
 40
0.6340682191
 40
0.649260246
 40
0.6644263949
 40
0.6795701973
 40
0.6946953862
 40
0.7098059997
 40
0.7249062348
 40
0.7400004886
 40
0.7550933522
 40
0.770189463
 40
0.7852936001
 40
0.8004105543
 40
0.8155450648
 40
0.8307018638
 40
0.8458855034
 40
0.8611003559
 40
0.876350594
 40
0.8916400378
 40
0.9069721594
 40
0.9223500537
 40
0.9377764092
 40
0.9532531723
 40
0.9687818758
 40
0.9843648532
 40
1.0
 40
1.0
 40
1.0
 40
1.0
 10
11.4535329102
 20
8.4349583964
 30
0.0
 10
11.4571991316
 20
8.4337884943
 30
0.0
 10
11.4644868953
 20
8.4312711138
 30
0.0
 10
11.4752417463
 20
8.4269814706
 30
0.0
 10
11.4858117033
 20
8.4221852759
 30
0.0
 10
11.4996358634
 20
8.4151287784
 30
0.0
 10
11.5163332565
 20
8.4051120154
 30
0.0
 10
11.5352479387
 20
8.3913304588
 30
0.0
 10
11.55291317
 20
8.375920493
 30
0.0
 10
11.5691952258
 20
8.3590389755
 30
0.0
 10
11.5839801759
 20
8.3408483237
 30
0.0
 10
11.5971711415
 20
8.3215147618
 30
0.0
 10
11.6086874786
 20
8.30120589
 30
0.0
 10
11.6184632164
 20
8.2800892469
 30
0.0
 10
11.6264456394
 20
8.2583312923
 30
0.0
 10
11.6325939319
 20
8.2360968879
 30
0.0
 10
11.6368779806
 20
8.2135490924
 30
0.0
 10
11.6392774165
 20
8.1908494094
 30
0.0
 10
11.6397808197
 20
8.1681576297
 30
0.0
 10
11.6383857609
 20
8.1456340672
 30
0.0
 10
11.6356413252
 20
8.1271071
 30
0.0
 10
11.6325043516
 20
8.1125357477
 30
0.0
 10
11.6296881015
 20
8.1017618686
 30
0.0
 10
11.6264088297
 20
8.091149579
 30
0.0
 10
11.6226704388
 20
8.0807185692
 30
0.0
 10
11.6184777142
 20
8.0704888103
 30
0.0
 10
11.6138359331
 20
8.0604802901
 30
0.0
 10
11.6087512849
 20
8.0507129529
 30
0.0
 10
11.6032306875
 20
8.041206742
 30
0.0
 10
11.5972818255
 20
8.0319816146
 30
0.0
 10
11.5909134283
 20
8.0230573366
 30
0.0
 10
11.5841349649
 20
8.0144536955
 30
0.0
 10
11.5769570088
 20
8.0061902181
 30
0.0
 10
11.5693911423
 20
7.9982862
 30
0.0
 10
11.5614498999
 20
7.9907607639
 30
0.0
 10
11.5531470866
 20
7.9836324801
 30
0.0
 10
11.5444975127
 20
7.9769195999
 30
0.0
 10
11.5355171686
 20
7.9706398166
 30
0.0
 10
11.5262233065
 20
7.9648100299
 30
0.0
 10
11.5166342327
 20
7.9594465775
 30
0.0
 10
11.5067695136
 20
7.9545647918
 30
0.0
 10
11.4966498782
 20
7.9501789649
 30
0.0
 10
11.4862970932
 20
7.9463024727
 30
0.0
 10
11.4757340827
 20
7.9429472633
 30
0.0
 10
11.4649847492
 20
7.9401239702
 30
0.0
 10
11.4540738604
 20
7.9378419357
 30
0.0
 10
11.4430270883
 20
7.936108773
 30
0.0
 10
11.431870852
 20
7.9349304598
 30
0.0
 10
11.4206317206
 20
7.9343114096
 30
0.0
 10
11.4093377673
 20
7.9342542705
 30
0.0
 10
11.401802255
 20
7.9345905677
 30
0.0
 10
11.3980353169
 20
7.9348518057
 30
0.0
  0
SPLINE
  5
326
100
AcDbEntity
  8
0
100
AcDbSpline
 62
7
  6
CONTINUOUS
 70
0
 71
3
 72
50
 73
46
 74
0
 42
0.0000001
 43
0.0000001
 44
0.0000000001
 40
0.0
 40
0.0
 40
0.0
 40
0.0
 40
0.0274366298
 40
0.0551265107
 40
0.0830692033
 40
0.1112702352
 40
0.1397387791
 40
0.16848698
 40
0.197529066
 40
0.2268804053
 40
0.2565565328
 40
0.2865718797
 40
0.3169382741
 40
0.3476630764
 40
0.3631636493
 40
0.3787536258
 40
0.3944317339
 40
0.4101961909
 40
0.4260442593
 40
0.4419728821
 40
0.4579780626
 40
0.4740553009
 40
0.4901996015
 40
0.5064053662
 40
0.5226668549
 40
0.5389780689
 40
0.5553330208
 40
0.5717258657
 40
0.5881509207
 40
0.6046029379
 40
0.6210770322
 40
0.6375689128
 40
0.6540748521
 40
0.670591531
 40
0.6871163431
 40
0.7036469901
 40
0.7367109792
 40
0.7697799426
 40
0.8028437296
 40
0.8358903917
 40
0.8689029392
 40
0.9018569085
 40
0.9347192395
 40
0.9674489352
 40
1.0
 40
1.0
 40
1.0
 40
1.0
 10
11.4330747359
 20
7.9350637881
 30
0.0
 10
11.4283386172
 20
7.9383676896
 30
0.0
 10
11.4189770216
 20
7.9452306778
 30
0.0
 10
11.4053890065
 20
7.9562436678
 30
0.0
 10
11.3922525869
 20
7.9680354224
 30
0.0
 10
11.3796362908
 20
7.9806161965
 30
0.0
 10
11.3676136416
 20
7.9939954702
 30
0.0
 10
11.3562653076
 20
8.0081799693
 30
0.0
 10
11.3456802436
 20
8.0231722492
 30
0.0
 10
11.3359567975
 20
8.0389685476
 30
0.0
 10
11.3272033223
 20
8.0555559452
 30
0.0
 10
11.3195380414
 20
8.0729093166
 30
0.0
 10
11.3130881736
 20
8.0909859968
 30
0.0
 10
11.3088490768
 20
8.1065580965
 30
0.0
 10
11.3061936462
 20
8.1192977233
 30
0.0
 10
11.3045832514
 20
8.1290116126
 30
0.0
 10
11.3033762034
 20
8.1388397664
 30
0.0
 10
11.3025878974
 20
8.1487650032
 30
0.0
 10
11.3022322175
 20
8.158768018
 30
0.0
 10
11.3023220837
 20
8.1688277455
 30
0.0
 10
11.3028683524
 20
8.1789214448
 30
0.0
 10
11.3038798304
 20
8.1890249083
 30
0.0
 10
11.3053633936
 20
8.1991126725
 30
0.0
 10
11.3073228653
 20
8.2091584737
 30
0.0
 10
11.3097598293
 20
8.2191354672
 30
0.0
 10
11.3126731265
 20
8.2290166882
 30
0.0
 10
11.316058598
 20
8.2387755375
 30
0.0
 10
11.3199099007
 20
8.2483859303
 30
0.0
 10
11.3242180675
 20
8.2578228208
 30
0.0
 10
11.3289717961
 20
8.2670625022
 30
0.0
 10
11.3341582598
 20
8.2760825816
 30
0.0
 10
11.3397626398
 20
8.2848625098
 30
0.0
 10
11.3457689792
 20
8.293383418
 30
0.0
 10
11.3521604048
 20
8.3016280298
 30
0.0
 10
11.3589192372
 20
8.3095812126
 30
0.0
 10
11.3683958263
 20
8.3197774184
 30
0.0
 10
11.381071187
 20
8.3317304013
 30
0.0
 10
11.3974517824
 20
8.3447147321
 30
0.0
 10
11.4148599771
 20
8.3562781061
 30
0.0
 10
11.4331492268
 20
8.3663637823
 30
0.0
 10
11.4521746669
 20
8.3749232902
 30
0.0
 10
11.4717896366
 20
8.3819126117
 30
0.0
 10
11.4918445535
 20
8.3872918319
 30
0.0
 10
11.5121823703
 20
8.3910257682
 30
0.0
 10
11.5258710645
 20
8.392404219
 30
0.0
 10
11.5327102046
 20
8.3928088116
 30
0.0
  0
SPLINE
  5
327
100
AcDbEntity
  8
0
100
AcDbSpline
 62
7
  6
CONTINUOUS
 70
0
 71
3
 72
45
 73
41
 74
0
 42
0.0000001
 43
0.0000001
 44
0.0000000001
 40
0.0
 40
0.0
 40
0.0
 40
0.0
 40
0.0628958658
 40
0.0944793583
 40
0.1261323645
 40
0.1578448294
 40
0.1896069013
 40
0.2214089814
 40
0.2532416511
 40
0.2850955055
 40
0.3169611585
 40
0.3488291957
 40
0.3806899931
 40
0.4125336819
 40
0.4443501398
 40
0.4761288304
 40
0.5078586721
 40
0.5395280845
 40
0.5711249708
 40
0.6026367009
 40
0.6340501235
 40
0.6653517343
 40
0.6965279978
 40
0.727565787
 40
0.7430313561
 40
0.7584581423
 40
0.7891847875
 40
0.8197439337
 40
0.8349632773
 40
0.8501404926
 40
0.8652763752
 40
0.8803719643
 40
0.8954290648
 40
0.9104497594
 40
0.9254368778
 40
0.9403937753
 40
0.9553239066
 40
0.9702317305
 40
0.9851230819
 40
1.0
 40
1.0
 40
1.0
 40
1.0
 10
10.6232144614
 20
7.839622643
 30
0.0
 10
10.6352526885
 20
7.8356660679
 30
0.0
 10
10.6530300959
 20
7.8287364914
 30
0.0
 10
10.6759541392
 20
7.8177557061
 30
0.0
 10
10.6927918899
 20
7.8086594084
 30
0.0
 10
10.7092096708
 20
7.7987581867
 30
0.0
 10
10.7251759795
 20
7.7880900793
 30
0.0
 10
10.74065872
 20
7.7766910832
 30
0.0
 10
10.7556265483
 20
7.7645946296
 30
0.0
 10
10.7700478249
 20
7.7518322768
 30
0.0
 10
10.7838902617
 20
7.7384340495
 30
0.0
 10
10.797120364
 20
7.7244288257
 30
0.0
 10
10.8097029616
 20
7.7098447769
 30
0.0
 10
10.8216008297
 20
7.6947099147
 30
0.0
 10
10.832774256
 20
7.6790526094
 30
0.0
 10
10.8431805621
 20
7.662902173
 30
0.0
 10
10.8527737022
 20
7.6462895782
 30
0.0
 10
10.8615039405
 20
7.6292482827
 30
0.0
 10
10.869317513
 20
7.6118151415
 30
0.0
 10
10.8761563749
 20
7.5940314907
 30
0.0
 10
10.8819580815
 20
7.5759445062
 30
0.0
 10
10.8866559458
 20
7.5576084017
 30
0.0
 10
10.8901794195
 20
7.5390870819
 30
0.0
 10
10.8920782808
 20
7.5235389171
 30
0.0
 10
10.8929335649
 20
7.5110886745
 30
0.0
 10
10.8933340141
 20
7.4986782599
 30
0.0
 10
10.8929653412
 20
7.4832112074
 30
0.0
 10
10.8913719739
 20
7.4678612936
 30
0.0
 10
10.8893316004
 20
7.4557478321
 30
0.0
 10
10.8874157396
 20
7.4467734656
 30
0.0
 10
10.8851070288
 20
7.4379177851
 30
0.0
 10
10.8824018522
 20
7.4292001958
 30
0.0
 10
10.8792976
 20
7.4206411379
 30
0.0
 10
10.8757937138
 20
7.4122612941
 30
0.0
 10
10.8718912967
 20
7.4040816681
 30
0.0
 10
10.8675932628
 20
7.3961234099
 30
0.0
 10
10.86290509
 20
7.3884071442
 30
0.0
 10
10.8578336231
 20
7.3809529871
 30
0.0
 10
10.8523886171
 20
7.3737808671
 30
0.0
 10
10.8485156267
 20
7.3691973661
 30
0.0
 10
10.8465217711
 20
7.3669594559
 30
0.0
  0
SPLINE
  5
328
100
AcDbEntity
  8
0
100
AcDbSpline
 62
7
  6
CONTINUOUS
 70
0
 71
3
 72
77
 73
73
 74
0
 42
0.0000001
 43
0.0000001
 44
0.0000000001
 40
0.0
 40
0.0
 40
0.0
 40
0.0
 40
0.0036899023
 40
0.007522048
 40
0.0114999006
 40
0.0156263419
 40
0.019903761
 40
0.0243340083
 40
0.028918521
 40
0.0336583967
 40
0.038554325
 40
0.0436066959
 40
0.0488156622
 40
0.0541810572
 40
0.0653789896
 40
0.07719543
 40
0.0896218615
 40
0.1026471363
 40
0.1162579038
 40
0.130438814
 40
0.1451726762
 40
0.1604407344
 40
0.1762227575
 40
0.1924971319
 40
0.2092410621
 40
0.2264306136
 40
0.2440407835
 40
0.2620456589
 40
0.2804184406
 40
0.2991315115
 40
0.3181565641
 40
0.3374646217
 40
0.3570261091
 40
0.3768109573
 40
0.4169276291
 40
0.45756667
 40
0.4984753454
 40
0.5393987901
 40
0.5800820188
 40
0.6202719545
 40
0.6401041557
 40
0.6597200364
 40
0.6790893919
 40
0.6981825366
 40
0.7169703644
 40
0.7354243768
 40
0.7535168077
 40
0.7712206775
 40
0.7885098232
 40
0.80535905
 40
0.8217441818
 40
0.8376421065
 40
0.8530309619
 40
0.8678901969
 40
0.8822006523
 40
0.8959448039
 40
0.9091068642
 40
0.9216729468
 40
0.9336314205
 40
0.9449731234
 40
0.9504107915
 40
0.9556921904
 40
0.9608170651
 40
0.9657853795
 40
0.9705974187
 40
0.9752537244
 40
0.9797551603
 40
0.9841030843
 40
0.98829924
 40
0.992345736
 40
0.9962450157
 40
1.0
 40
1.0
 40
1.0
 40
1.0
 10
13.6209483827
 20
7.5945037241
 30
0.0
 10
13.6201293869
 20
7.5955107271
 30
0.0
 10
13.6185022708
 20
7.5975983868
 30
0.0
 10
13.6161371749
 20
7.6008813442
 30
0.0
 10
13.6138030829
 20
7.6043727001
 30
0.0
 10
13.6115009662
 20
7.6080709548
 30
0.0
 10
13.6092317782
 20
7.61197465
 30
0.0
 10
13.6069963957
 20
7.6160821584
 30
0.0
 10
13.6047957131
 20
7.620391797
 30
0.0
 10
13.6026306771
 20
7.6249018229
 30
0.0
 10
13.6005021355
 20
7.6296103651
 30
0.0
 10
13.5984109569
 20
7.634515481
 30
0.0
 10
13.5963580305
 20
7.6396151785
 30
0.0
 10
13.5936340436
 20
7.6467736801
 30
0.0
 10
13.5903394144
 20
7.6561998432
 30
0.0
 10
13.586605794
 20
7.6680966362
 30
0.0
 10
13.5830440633
 20
7.6807151496
 30
0.0
 10
13.5796601232
 20
7.694034502
 30
0.0
 10
13.5764596569
 20
7.7080328005
 30
0.0
 10
13.5734480466
 20
7.7226869259
 30
0.0
 10
13.5706303069
 20
7.7379726417
 30
0.0
 10
13.5680111874
 20
7.7538646422
 30
0.0
 10
13.5655950985
 20
7.7703365936
 30
0.0
 10
13.563386063
 20
7.7873611757
 30
0.0
 10
13.56138781
 20
7.8049101436
 30
0.0
 10
13.5596037045
 20
7.8229543696
 30
0.0
 10
13.5580367121
 20
7.8414638911
 30
0.0
 10
13.556689485
 20
7.8604079687
 30
0.0
 10
13.5555642932
 20
7.8797551356
 30
0.0
 10
13.5546630016
 20
7.8994732478
 30
0.0
 10
13.5539871463
 20
7.9195295448
 30
0.0
 10
13.5535378763
 20
7.9398906926
 30
0.0
 10
13.5533159088
 20
7.960522882
 30
0.0
 10
13.5533236902
 20
7.9884761597
 30
0.0
 10
13.5539086428
 20
8.0238415331
 30
0.0
 10
13.5555096541
 20
8.0666125831
 30
0.0
 10
13.5580025768
 20
8.109625252
 30
0.0
 10
13.5613708714
 20
8.1525938257
 30
0.0
 10
13.5655921781
 20
8.1952328854
 30
0.0
 10
13.5698155803
 20
8.230408415
 30
0.0
 10
13.573605024
 20
8.2581657796
 30
0.0
 10
13.5766286566
 20
8.2786343927
 30
0.0
 10
13.579841241
 20
8.2988109836
 30
0.0
 10
13.5832374362
 20
8.3186620512
 30
0.0
 10
13.5868115607
 20
8.338154606
 30
0.0
 10
13.5905576867
 20
8.3572562589
 30
0.0
 10
13.5944695566
 20
8.3759352801
 30
0.0
 10
13.598540632
 20
8.3941606467
 30
0.0
 10
13.6027641538
 20
8.4119020866
 30
0.0
 10
13.6071330614
 20
8.4291301488
 30
0.0
 10
13.6116400512
 20
8.4458162429
 30
0.0
 10
13.6162776352
 20
8.4619326785
 30
0.0
 10
13.6210380556
 20
8.4774527373
 30
0.0
 10
13.6259133537
 20
8.4923507069
 30
0.0
 10
13.6308954299
 20
8.506601912
 30
0.0
 10
13.6359759512
 20
8.5201827988
 30
0.0
 10
13.6411464338
 20
8.5330709406
 30
0.0
 10
13.6463983141
 20
8.5452451327
 30
0.0
 10
13.6517228249
 20
8.5566852476
 30
0.0
 10
13.656274728
 20
8.5657139273
 30
0.0
 10
13.6599518763
 20
8.5725482067
 30
0.0
 10
13.662683622
 20
8.5774066787
 30
0.0
 10
13.6654268858
 20
8.5820680784
 30
0.0
 10
13.6681805941
 20
8.5865304623
 30
0.0
 10
13.6709435552
 20
8.59079201
 30
0.0
 10
13.6737146271
 20
8.5948509625
 30
0.0
 10
13.6764927232
 20
8.5987056361
 30
0.0
 10
13.6792767117
 20
8.6023545107
 30
0.0
 10
13.6820655017
 20
8.6057961232
 30
0.0
 10
13.6848580032
 20
8.6090290062
 30
0.0
 10
13.6876528545
 20
8.6120517048
 30
0.0
 10
13.6895521548
 20
8.6139613214
 30
0.0
 10
13.6905022153
 20
8.6148790094
 30
0.0
  0
SPLINE
  5
329
100
AcDbEntity
  8
0
100
AcDbSpline
 62
7
  6
CONTINUOUS
 70
0
 71
3
 72
23
 73
19
 74
0
 42
0.0000001
 43
0.0000001
 44
0.0000000001
 40
0.0
 40
0.0
 40
0.0
 40
0.0
 40
0.061648222
 40
0.1233194599
 40
0.1850364872
 40
0.2468215826
 40
0.3086962191
 40
0.3706809311
 40
0.4327950059
 40
0.4950563306
 40
0.5574812037
 40
0.620083994
 40
0.682877569
 40
0.7458727056
 40
0.8090763209
 40
0.8724960975
 40
0.9361416631
 40
1.0
 40
1.0
 40
1.0
 40
1.0
 10
11.7417074834
 20
9.1462292223
 30
0.0
 10
11.7434581353
 20
9.147920237
 30
0.0
 10
11.7470517774
 20
9.1512094431
 30
0.0
 10
11.7527007769
 20
9.1558472723
 30
0.0
 10
11.7585950269
 20
9.1601786177
 30
0.0
 10
11.764719569
 20
9.1641922535
 30
0.0
 10
11.7710589692
 20
9.1678781931
 30
0.0
 10
11.7775972325
 20
9.1712271661
 30
0.0
 10
11.7843179325
 20
9.174230651
 30
0.0
 10
11.7912040729
 20
9.176881233
 30
0.0
 10
11.7982383488
 20
9.1791721332
 30
0.0
 10
11.8054030212
 20
9.1810976556
 30
0.0
 10
11.8126800522
 20
9.1826530116
 30
0.0
 10
11.8200511033
 20
9.1838341493
 30
0.0
 10
11.8274975641
 20
9.1846383383
 30
0.0
 10
11.8350009944
 20
9.1850634345
 30
0.0
 10
11.842541942
 20
9.1851082874
 30
0.0
 10
11.8475735885
 20
9.1848852091
 30
0.0
 10
11.8500887981
 20
9.1847107787
 30
0.0
  0
SPLINE
  5
32A
100
AcDbEntity
  8
0
100
AcDbSpline
 62
7
  6
CONTINUOUS
 70
0
 71
3
 72
97
 73
93
 74
0
 42
0.0000001
 43
0.0000001
 44
0.0000000001
 40
0.0
 40
0.0
 40
0.0
 40
0.0
 40
0.0027164096
 40
0.0054531913
 40
0.0082302366
 40
0.0110665017
 40
0.0139796794
 40
0.0169859575
 40
0.0200998822
 40
0.0233343674
 40
0.026700678
 40
0.0302085934
 40
0.0338664646
 40
0.0376813835
 40
0.0416593171
 40
0.0458051897
 40
0.0501230771
 40
0.0546162141
 40
0.0592871766
 40
0.0641379001
 40
0.0691697666
 40
0.0743836957
 40
0.0797801223
 40
0.0853591396
 40
0.0911204374
 40
0.097063412
 40
0.1031871597
 40
0.109490487
 40
0.1159719923
 40
0.1226299929
 40
0.1294626422
 40
0.1364678594
 40
0.1436433923
 40
0.1509868249
 40
0.1661665846
 40
0.1819848859
 40
0.198416975
 40
0.2154360994
 40
0.2330136912
 40
0.2511195312
 40
0.2697219004
 40
0.2887877147
 40
0.3082826488
 40
0.3281712537
 40
0.3484170673
 40
0.3689827209
 40
0.3898300482
 40
0.4109201891
 40
0.4322136896
 40
0.4536706025
 40
0.475250585
 40
0.4969129978
 40
0.5186170041
 40
0.5403216688
 40
0.5619860553
 40
0.5835693229
 40
0.6050308244
 40
0.6263302052
 40
0.6474275031
 40
0.6682832473
 40
0.6888585573
 40
0.709115244
 40
0.7290159121
 40
0.748524066
 40
0.7676042218
 40
0.7862220168
 40
0.8043443261
 40
0.8219393861
 40
0.8389769284
 40
0.8554283266
 40
0.8712667649
 40
0.8864674231
 40
0.8938215695
 40
0.9010079732
 40
0.9080242208
 40
0.9148680291
 40
0.9215373265
 40
0.9280302349
 40
0.9343450682
 40
0.9404804095
 40
0.9464350378
 40
0.9522080492
 40
0.9577987966
 40
0.9632069712
 40
0.9684326348
 40
0.9734761983
 40
0.9783385373
 40
0.9830209667
 40
0.9875254629
 40
0.9918546305
 40
0.996011585
 40
1.0
 40
1.0
 40
1.0
 40
1.0
 10
13.6914398423
 20
7.2207596461
 30
0.0
 10
13.6897974298
 20
7.2208735423
 30
0.0
 10
13.6865086998
 20
7.2212508595
 30
0.0
 10
13.6816174559
 20
7.2222604651
 30
0.0
 10
13.6767632001
 20
7.2237136984
 30
0.0
 10
13.6719493492
 20
7.2256090075
 30
0.0
 10
13.6671784187
 20
7.2279447932
 30
0.0
 10
13.6624528584
 20
7.2307192153
 30
0.0
 10
13.6577748009
 20
7.2339302433
 30
0.0
 10
13.6531464064
 20
7.2375759417
 30
0.0
 10
13.6485695775
 20
7.2416540704
 30
0.0
 10
13.6440463752
 20
7.2461624929
 30
0.0
 10
13.6395787196
 20
7.2510988021
 30
0.0
 10
13.6351685993
 20
7.2564605068
 30
0.0
 10
13.6308180557
 20
7.2622449591
 30
0.0
 10
13.6265290146
 20
7.2684492528
 30
0.0
 10
13.6223035918
 20
7.2750703893
 30
0.0
 10
13.6181437059
 20
7.2821050604
 30
0.0
 10
13.6140514294
 20
7.2895498327
 30
0.0
 10
13.6100287328
 20
7.2974010187
 30
0.0
 10
13.6060775679
 20
7.3056547291
 30
0.0
 10
13.6021999489
 20
7.3143068908
 30
0.0
 10
13.5983977162
 20
7.3233531814
 30
0.0
 10
13.5946728506
 20
7.332789122
 30
0.0
 10
13.5910271467
 20
7.3426099913
 30
0.0
 10
13.5874624638
 20
7.3528108957
 30
0.0
 10
13.5839805975
 20
7.3633867369
 30
0.0
 10
13.5805832546
 20
7.374332219
 30
0.0
 10
13.5772722119
 20
7.3856418712
 30
0.0
 10
13.5740490617
 20
7.3973100177
 30
0.0
 10
13.5709154902
 20
7.4093308168
 30
0.0
 10
13.5678730428
 20
7.4216982314
 30
0.0
 10
13.56492324
 20
7.4344060707
 30
0.0
 10
13.5610732316
 20
7.4519896618
 30
0.0
 10
13.5565148332
 20
7.4747784376
 30
0.0
 10
13.5514955388
 20
7.5030853057
 30
0.0
 10
13.546878691
 20
7.5325893675
 30
0.0
 10
13.5426736718
 20
7.5632313375
 30
0.0
 10
13.5388890466
 20
7.5949497747
 30
0.0
 10
13.5355325143
 20
7.6276809871
 30
0.0
 10
13.5326109076
 20
7.6613592348
 30
0.0
 10
13.5301301751
 20
7.6959168516
 30
0.0
 10
13.5280953712
 20
7.7312843897
 30
0.0
 10
13.5265106467
 20
7.7673907593
 30
0.0
 10
13.5253792402
 20
7.8041633723
 30
0.0
 10
13.5247034658
 20
7.8415282905
 30
0.0
 10
13.5244847165
 20
7.8794103774
 30
0.0
 10
13.5247234616
 20
7.9177334528
 30
0.0
 10
13.525419246
 20
7.9564204466
 30
0.0
 10
13.5265706912
 20
7.9953935537
 30
0.0
 10
13.5281754997
 20
8.0345743898
 30
0.0
 10
13.5302304525
 20
8.0738841507
 30
0.0
 10
13.5327314201
 20
8.1132437721
 30
0.0
 10
13.5356733737
 20
8.1525740898
 30
0.0
 10
13.5390503941
 20
8.1917959995
 30
0.0
 10
13.5428556841
 20
8.2308306147
 30
0.0
 10
13.5470815828
 20
8.2695994263
 30
0.0
 10
13.5517195769
 20
8.3080244621
 30
0.0
 10
13.5567603163
 20
8.3460284459
 30
0.0
 10
13.5621936384
 20
8.3835349533
 30
0.0
 10
13.5680085872
 20
8.4204685642
 30
0.0
 10
13.574193435
 20
8.4567550157
 30
0.0
 10
13.580735706
 20
8.4923213518
 30
0.0
 10
13.587622201
 20
8.5270960742
 30
0.0
 10
13.5948390167
 20
8.5610092915
 30
0.0
 10
13.602371581
 20
8.5939928603
 30
0.0
 10
13.6102046812
 20
8.6259805225
 30
0.0
 10
13.6183224944
 20
8.6569080457
 30
0.0
 10
13.6267086189
 20
8.6867133393
 30
0.0
 10
13.6353461118
 20
8.7153366532
 30
0.0
 10
13.6442175122
 20
8.7427204827
 30
0.0
 10
13.6518721674
 20
8.7646971045
 30
0.0
 10
13.6581081222
 20
8.7816099886
 30
0.0
 10
13.662780882
 20
8.7938112974
 30
0.0
 10
13.6674985364
 20
8.8056630446
 30
0.0
 10
13.6722587798
 20
8.8171592859
 30
0.0
 10
13.6770591922
 20
8.8282942564
 30
0.0
 10
13.6818973457
 20
8.8390623805
 30
0.0
 10
13.6867708551
 20
8.84945825
 30
0.0
 10
13.6916772035
 20
8.8594766817
 30
0.0
 10
13.6966140043
 20
8.869112641
 30
0.0
 10
13.701578718
 20
8.8783613322
 30
0.0
 10
13.7065688926
 20
8.8872181295
 30
0.0
 10
13.7115820426
 20
8.895678618
 30
0.0
 10
13.7166156335
 20
8.9037386085
 30
0.0
 10
13.7216672343
 20
8.9113940531
 30
0.0
 10
13.7267342363
 20
8.9186411831
 30
0.0
 10
13.7318142282
 20
8.9254763884
 30
0.0
 10
13.7369047308
 20
8.9318963573
 30
0.0
 10
13.7420033739
 20
8.9378979654
 30
0.0
 10
13.7471074412
 20
8.9434779546
 30
0.0
 10
13.7505828251
 20
8.9469864833
 30
0.0
 10
13.7523214733
 20
8.9486658886
 30
0.0
  0
SPLINE
  5
32B
100
AcDbEntity
  8
0
100
AcDbSpline
 62
7
  6
CONTINUOUS
 70
0
 71
3
 72
23
 73
19
 74
0
 42
0.0000001
 43
0.0000001
 44
0.0000000001
 40
0.0
 40
0.0
 40
0.0
 40
0.0
 40
0.0637744756
 40
0.1273454195
 40
0.1907025115
 40
0.2538557844
 40
0.3168132107
 40
0.3795821493
 40
0.4421733556
 40
0.5045993344
 40
0.5668738645
 40
0.6290123751
 40
0.6910316494
 40
0.7529496375
 40
0.8147853529
 40
0.8765586001
 40
0.9382898483
 40
1.0
 40
1.0
 40
1.0
 40
1.0
 10
9.2103891801
 20
9.8010322639
 30
0.0
 10
9.2103891801
 20
9.8038247535
 30
0.0
 10
9.2105228963
 20
9.8094017652
 30
0.0
 10
9.2111261189
 20
9.8177333522
 30
0.0
 10
9.2121306223
 20
9.8259989676
 30
0.0
 10
9.2135339807
 20
9.834179002
 30
0.0
 10
9.2153328654
 20
9.8422549136
 30
0.0
 10
9.217523352
 20
9.8502080206
 30
0.0
 10
9.2201002743
 20
9.8580199786
 30
0.0
 10
9.2230577255
 20
9.8656727874
 30
0.0
 10
9.2263889788
 20
9.873148768
 30
0.0
 10
9.2300862455
 20
9.8804307278
 30
0.0
 10
9.2341411274
 20
9.8875018122
 30
0.0
 10
9.2385442252
 20
9.8943457423
 30
0.0
 10
9.2432853589
 20
9.9009467336
 30
0.0
 10
9.2483537452
 20
9.9072895382
 30
0.0
 10
9.2537373738
 20
9.913359426
 30
0.0
 10
9.2575291448
 20
9.9172153728
 30
0.0
 10
9.2594726342
 20
9.9190926551
 30
0.0
  0
SPLINE
  5
32C
100
AcDbEntity
  8
0
100
AcDbSpline
 62
7
  6
CONTINUOUS
 70
0
 71
3
 72
23
 73
19
 74
0
 42
0.0000001
 43
0.0000001
 44
0.0000000001
 40
0.0
 40
0.0
 40
0.0
 40
0.0
 40
0.0620406738
 40
0.1242587986
 40
0.1866334208
 40
0.2491416428
 40
0.3117588244
 40
0.3744589398
 40
0.4372149447
 40
0.4999990969
 40
0.562783277
 40
0.6255393713
 40
0.6882396398
 40
0.7508570287
 40
0.8133655085
 40
0.8757404502
 40
0.9379589301
 40
1.0
 40
1.0
 40
1.0
 40
1.0
 10
9.436290455
 20
9.9524409098
 30
0.0
 10
9.4374092683
 20
9.949114757
 30
0.0
 10
9.439838883
 20
9.9425147692
 30
0.0
 10
9.4440376285
 20
9.9328232128
 30
0.0
 10
9.4487821415
 20
9.9233568977
 30
0.0
 10
9.4540558568
 20
9.9141490041
 30
0.0
 10
9.4598405855
 20
9.9052313092
 30
0.0
 10
9.4661162472
 20
9.8966346832
 30
0.0
 10
9.4728610965
 20
9.8883888488
 30
0.0
 10
9.4800518031
 20
9.8805223562
 30
0.0
 10
9.4876635058
 20
9.8730624599
 30
0.0
 10
9.4956698229
 20
9.8660349437
 30
0.0
 10
9.5040430429
 20
9.8594641261
 30
0.0
 10
9.5127542256
 20
9.8533727874
 30
0.0
 10
9.5217732004
 20
9.8477820445
 30
0.0
 10
9.5310688468
 20
9.8427111869
 30
0.0
 10
9.5406085832
 20
9.838177927
 30
0.0
 10
9.5471201316
 20
9.835520259
 30
0.0
 10
9.5504053851
 20
9.8342864431
 30
0.0
  0
SPLINE
  5
32D
100
AcDbEntity
  8
0
100
AcDbSpline
 62
7
  6
CONTINUOUS
 70
0
 71
3
 72
23
 73
19
 74
0
 42
0.0000001
 43
0.0000001
 44
0.0000000001
 40
0.0
 40
0.0
 40
0.0
 40
0.0
 40
0.0637744756
 40
0.1273454195
 40
0.1907025115
 40
0.2538557844
 40
0.3168132107
 40
0.3795821493
 40
0.4421733556
 40
0.5045993344
 40
0.5668738645
 40
0.6290123751
 40
0.6910316494
 40
0.7529496375
 40
0.8147853529
 40
0.8765586001
 40
0.9382898483
 40
1.0
 40
1.0
 40
1.0
 40
1.0
 10
11.6850913287
 20
9.629411087
 30
0.0
 10
11.6850913287
 20
9.6322035766
 30
0.0
 10
11.6852250449
 20
9.6377805883
 30
0.0
 10
11.6858282675
 20
9.6461121753
 30
0.0
 10
11.6868327709
 20
9.6543777907
 30
0.0
 10
11.6882361293
 20
9.6625578251
 30
0.0
 10
11.690035014
 20
9.6706337367
 30
0.0
 10
11.6922255006
 20
9.6785868437
 30
0.0
 10
11.6948024228
 20
9.6863988017
 30
0.0
 10
11.6977598741
 20
9.6940516105
 30
0.0
 10
11.7010911274
 20
9.701527591
 30
0.0
 10
11.7047883941
 20
9.7088095509
 30
0.0
 10
11.7088432759
 20
9.7158806353
 30
0.0
 10
11.7132463738
 20
9.7227245654
 30
0.0
 10
11.7179875075
 20
9.7293255567
 30
0.0
 10
11.7230558938
 20
9.7356683613
 30
0.0
 10
11.7284395224
 20
9.7417382491
 30
0.0
 10
11.7322312934
 20
9.7455941959
 30
0.0
 10
11.7341747828
 20
9.7474714782
 30
0.0
  0
SPLINE
  5
32E
100
AcDbEntity
  8
0
100
AcDbSpline
 62
7
  6
CONTINUOUS
 70
0
 71
3
 72
59
 73
55
 74
0
 42
0.0000001
 43
0.0000001
 44
0.0000000001
 40
0.0
 40
0.0
 40
0.0
 40
0.0
 40
0.0027758488
 40
0.0055596021
 40
0.008359095
 40
0.0111820195
 40
0.0140358522
 40
0.0169278075
 40
0.0228516365
 40
0.0290063393
 40
0.0354366794
 40
0.0387680642
 40
0.0421822272
 40
0.0492730078
 40
0.0567369683
 40
0.0645960023
 40
0.0728675869
 40
0.0815655464
 40
0.0907003782
 40
0.1002799082
 40
0.1103094603
 40
0.1207923966
 40
0.1317301617
 40
0.1431227321
 40
0.1549685743
 40
0.1672650269
 40
0.1800082061
 40
0.1931933349
 40
0.2068146222
 40
0.2208655488
 40
0.2353387364
 40
0.2502261967
 40
0.2655192032
 40
0.2812085054
 40
0.2972842121
 40
0.3137359731
 40
0.3305528785
 40
0.3477236105
 40
0.3830784316
 40
0.4197019435
 40
0.457489208
 40
0.4963301116
 40
0.5361099921
 40
0.576710229
 40
0.6180088092
 40
0.6598808745
 40
0.702199258
 40
0.7448350122
 40
0.7876579293
 40
0.8305370685
 40
0.8733412491
 40
0.9159396382
 40
0.9582020849
 40
1.0
 40
1.0
 40
1.0
 40
1.0
 10
11.1488538428
 20
10.9895738246
 30
0.0
 10
11.1488538391
 20
10.9904449327
 30
0.0
 10
11.1489021591
 20
10.992190013
 30
0.0
 10
11.1491194876
 20
10.9948054819
 30
0.0
 10
11.1494816706
 20
10.9974198335
 30
0.0
 10
11.1499886007
 20
11.0000323492
 30
0.0
 10
11.1506401242
 20
11.0026425423
 30
0.0
 10
11.1517096689
 20
11.0061464277
 30
0.0
 10
11.1534213854
 20
11.0105303069
 30
0.0
 10
11.1560346392
 20
11.0157259781
 30
0.0
 10
11.1586580933
 20
11.0199835443
 30
0.0
 10
11.1610288529
 20
11.0233721396
 30
0.0
 10
11.163649977
 20
11.0268349874
 30
0.0
 10
11.1672943907
 20
11.0311442536
 30
0.0
 10
11.1721748519
 20
11.0362152191
 30
0.0
 10
11.1776125589
 20
11.0412463282
 30
0.0
 10
11.1836028275
 20
11.0462338843
 30
0.0
 10
11.1901409925
 20
11.0511741527
 30
0.0
 10
11.1972217627
 20
11.0560634892
 30
0.0
 10
11.2048395618
 20
11.0608980032
 30
0.0
 10
11.2129882495
 20
11.0656740086
 30
0.0
 10
11.2216613405
 20
11.0703875949
 30
0.0
 10
11.2308518172
 20
11.075035089
 30
0.0
 10
11.2405522977
 20
11.0796126289
 30
0.0
 10
11.2507549021
 20
11.0841166013
 30
0.0
 10
11.2614513803
 20
11.0885432365
 30
0.0
 10
11.2726330184
 20
11.0928890131
 30
0.0
 10
11.2842907329
 20
11.0971502831
 30
0.0
 10
11.2964150085
 20
11.1013236399
 30
0.0
 10
11.3089959658
 20
11.1054055781
 30
0.0
 10
11.3220233229
 20
11.1093928228
 30
0.0
 10
11.335486443
 20
11.1132820275
 30
0.0
 10
11.349374314
 20
11.1170700632
 30
0.0
 10
11.3636755811
 20
11.120753755
 30
0.0
 10
11.3783785411
 20
11.124330133
 30
0.0
 10
11.3934711579
 20
11.1277962008
 30
0.0
 10
11.4089410906
 20
11.1311491771
 30
0.0
 10
11.4302614076
 20
11.1355076269
 30
0.0
 10
11.4577653381
 20
11.1406412816
 30
0.0
 10
11.4917541266
 20
11.1462507176
 30
0.0
 10
11.5269290383
 20
11.1513489221
 30
0.0
 10
11.5631748337
 20
11.1559190536
 30
0.0
 10
11.6003729048
 20
11.1599459948
 30
0.0
 10
11.6384014358
 20
11.1634164384
 30
0.0
 10
11.6771358775
 20
11.1663189178
 30
0.0
 10
11.7164493431
 20
11.1686438464
 30
0.0
 10
11.7562130347
 20
11.1703835471
 30
0.0
 10
11.7962966676
 20
11.171532276
 30
0.0
 10
11.8365689023
 20
11.1720862416
 30
0.0
 10
11.8768977756
 20
11.172043614
 30
0.0
 10
11.9171511381
 20
11.1714045369
 30
0.0
 10
11.9571971042
 20
11.1701711134
 30
0.0
 10
11.9969043519
 20
11.168347429
 30
0.0
 10
12.0232356443
 20
11.1667315671
 30
0.0
 10
12.0363211046
 20
11.1658240874
 30
0.0
  0
SPLINE
  5
32F
100
AcDbEntity
  8
0
100
AcDbSpline
 62
7
  6
CONTINUOUS
 70
0
 71
3
 72
52
 73
48
 74
0
 42
0.0000001
 43
0.0000001
 44
0.0000000001
 40
0.0
 40
0.0
 40
0.0
 40
0.0
 40
0.0062677972
 40
0.0128241616
 40
0.0196914969
 40
0.0268885356
 40
0.0344306757
 40
0.0423304925
 40
0.0505979338
 40
0.0592408487
 40
0.068265042
 40
0.0776747481
 40
0.087472623
 40
0.0976601006
 40
0.1082374084
 40
0.1192037677
 40
0.1305574892
 40
0.1422960103
 40
0.1544160855
 40
0.1669136882
 40
0.1797842713
 40
0.1930225903
 40
0.2066229768
 40
0.2205791617
 40
0.2348844916
 40
0.2495318208
 40
0.264513623
 40
0.2798219873
 40
0.3113844274
 40
0.3441494316
 40
0.3780418433
 40
0.4129821148
 40
0.4488867659
 40
0.485668807
 40
0.5232381347
 40
0.5615019088
 40
0.6003649142
 40
0.639729915
 40
0.6794980009
 40
0.7195689297
 40
0.7598414609
 40
0.8002137064
 40
0.8405834127
 40
0.8808484568
 40
0.9209067195
 40
0.9606575528
 40
1.0
 40
1.0
 40
1.0
 40
1.0
 10
11.1584618604
 20
10.9597086879
 30
0.0
 10
11.1594912316
 20
10.9613058893
 30
0.0
 10
11.1617199871
 20
10.9644960938
 30
0.0
 10
11.1654606942
 20
10.9691533878
 30
0.0
 10
11.1696676411
 20
10.9737823759
 30
0.0
 10
11.1743376476
 20
10.9783799403
 30
0.0
 10
11.1794675481
 20
10.9829434999
 30
0.0
 10
11.1850539512
 20
10.9874701352
 30
0.0
 10
11.191093083
 20
10.9919571284
 30
0.0
 10
11.1975810099
 20
10.9964014955
 30
0.0
 10
11.2045133691
 20
11.0008004769
 30
0.0
 10
11.2118856074
 20
11.0051510819
 30
0.0
 10
11.2196927754
 20
11.0094505228
 30
0.0
 10
11.2279296864
 20
11.0136958703
 30
0.0
 10
11.2365908117
 20
11.0178843199
 30
0.0
 10
11.2456703459
 20
11.0220130456
 30
0.0
 10
11.2551621895
 20
11.026079245
 30
0.0
 10
11.2650599441
 20
11.0300802124
 30
0.0
 10
11.2753569507
 20
11.0340131748
 30
0.0
 10
11.2860462462
 20
11.0378755448
 30
0.0
 10
11.2971206259
 20
11.0416646133
 30
0.0
 10
11.3085725903
 20
11.0453778965
 30
0.0
 10
11.3203944055
 20
11.0490127878
 30
0.0
 10
11.3325780623
 20
11.0525668884
 30
0.0
 10
11.3451153195
 20
11.0560377277
 30
0.0
 10
11.3579976789
 20
11.0594229769
 30
0.0
 10
11.3712164287
 20
11.0627203376
 30
0.0
 10
11.3894638607
 20
11.0670405577
 30
0.0
 10
11.4130523503
 20
11.0721942078
 30
0.0
 10
11.4422729711
 20
11.0779326528
 30
0.0
 10
11.47260962
 20
11.0832706137
 30
0.0
 10
11.5039800353
 20
11.0881935044
 30
0.0
 10
11.5362992792
 20
11.0926878572
 30
0.0
 10
11.5694797617
 20
11.0967413865
 30
0.0
 10
11.603431545
 20
11.1003430139
 30
0.0
 10
11.638062576
 20
11.1034828988
 30
0.0
 10
11.6732789446
 20
11.1061524651
 30
0.0
 10
11.7089851406
 20
11.1083444234
 30
0.0
 10
11.7450843167
 20
11.1100527899
 30
0.0
 10
11.7814785523
 20
11.1112729008
 30
0.0
 10
11.8180691254
 20
11.1120014273
 30
0.0
 10
11.8547567679
 20
11.112236378
 30
0.0
 10
11.8914419787
 20
11.1119771187
 30
0.0
 10
11.9280251758
 20
11.1112243429
 30
0.0
 10
11.9644072665
 20
11.1099801274
 30
0.0
 10
12.0004893164
 20
11.1082478398
 30
0.0
 10
12.0244224536
 20
11.1067618578
 30
0.0
 10
12.0363211046
 20
11.1059366836
 30
0.0
  0
SPLINE
  5
330
100
AcDbEntity
  8
0
100
AcDbSpline
 62
7
  6
CONTINUOUS
 70
0
 71
3
 72
23
 73
19
 74
0
 42
0.0000001
 43
0.0000001
 44
0.0000000001
 40
0.0
 40
0.0
 40
0.0
 40
0.0
 40
0.0620406738
 40
0.1242587986
 40
0.1866334208
 40
0.2491416428
 40
0.3117588244
 40
0.3744589398
 40
0.4372149447
 40
0.4999990969
 40
0.562783277
 40
0.6255393713
 40
0.6882396398
 40
0.7508570287
 40
0.8133655085
 40
0.8757404502
 40
0.9379589301
 40
1.0
 40
1.0
 40
1.0
 40
1.0
 10
11.9109926036
 20
9.7808197328
 30
0.0
 10
11.9121114169
 20
9.7774935801
 30
0.0
 10
11.9145410316
 20
9.7708935923
 30
0.0
 10
11.9187397771
 20
9.7612020359
 30
0.0
 10
11.9234842901
 20
9.7517357208
 30
0.0
 10
11.9287580054
 20
9.7425278272
 30
0.0
 10
11.9345427341
 20
9.7336101323
 30
0.0
 10
11.9408183958
 20
9.7250135062
 30
0.0
 10
11.9475632451
 20
9.7167676719
 30
0.0
 10
11.9547539516
 20
9.7089011793
 30
0.0
 10
11.9623656544
 20
9.701441283
 30
0.0
 10
11.9703719715
 20
9.6944137668
 30
0.0
 10
11.9787451915
 20
9.6878429492
 30
0.0
 10
11.9874563742
 20
9.6817516104
 30
0.0
 10
11.996475349
 20
9.6761608676
 30
0.0
 10
12.0057709954
 20
9.67109001
 30
0.0
 10
12.0153107318
 20
9.6665567501
 30
0.0
 10
12.0218222801
 20
9.6638990821
 30
0.0
 10
12.0251075337
 20
9.6626652662
 30
0.0
  0
SPLINE
  5
331
100
AcDbEntity
  8
0
100
AcDbSpline
 62
7
  6
CONTINUOUS
 70
0
 71
3
 72
54
 73
50
 74
0
 42
0.0000001
 43
0.0000001
 44
0.0000000001
 40
0.0
 40
0.0
 40
0.0
 40
0.0
 40
0.0055969672
 40
0.0113465063
 40
0.0172982675
 40
0.0234964536
 40
0.0299795139
 40
0.0367802289
 40
0.0439261152
 40
0.051439864
 40
0.0593399874
 40
0.0676412314
 40
0.0763552248
 40
0.085490733
 40
0.095054241
 40
0.1050500434
 40
0.1154807582
 40
0.1263472943
 40
0.1376493019
 40
0.149385067
 40
0.1615519006
 40
0.1741460031
 40
0.1871627899
 40
0.2005967599
 40
0.2144417528
 40
0.2286908462
 40
0.2433365417
 40
0.258370705
 40
0.273784682
 40
0.2895692884
 40
0.3057148589
 40
0.3222112879
 40
0.3562136049
 40
0.3914878083
 40
0.4279391605
 40
0.4654678466
 40
0.5039695566
 40
0.5433360277
 40
0.5834555592
 40
0.6242135083
 40
0.6654927718
 40
0.7071742598
 40
0.7491373592
 40
0.7912604044
 40
0.8334211111
 40
0.8754971107
 40
0.9173661997
 40
0.9589073055
 40
1.0
 40
1.0
 40
1.0
 40
1.0
 10
11.1776080637
 20
10.9379554446
 30
0.0
 10
11.1779081507
 20
10.9395994297
 30
0.0
 10
11.1786935122
 20
10.9429022633
 30
0.0
 10
11.1803879391
 20
10.9477894965
 30
0.0
 10
11.1826084513
 20
10.952659004
 30
0.0
 10
11.1853519327
 20
10.9575063785
 30
0.0
 10
11.1886152965
 20
10.9623285168
 30
0.0
 10
11.1923953046
 20
10.9671222523
 30
0.0
 10
11.1966886771
 20
10.971884477
 30
0.0
 10
11.2014918572
 20
10.9766121226
 30
0.0
 10
11.2068011419
 20
10.9813019369
 30
0.0
 10
11.2126124074
 20
10.9859507527
 30
0.0
 10
11.2189213056
 20
10.9905551645
 30
0.0
 10
11.2257230027
 20
10.9951119275
 30
0.0
 10
11.2330123997
 20
10.9996175549
 30
0.0
 10
11.2407839043
 20
11.0040687825
 30
0.0
 10
11.2490316382
 20
11.0084621155
 30
0.0
 10
11.2577492497
 20
11.0127943164
 30
0.0
 10
11.2669300886
 20
11.0170619394
 30
0.0
 10
11.276567063
 20
11.021261803
 30
0.0
 10
11.2866527734
 20
11.0253905509
 30
0.0
 10
11.2971794128
 20
11.0294450766
 30
0.0
 10
11.3081388619
 20
11.0334221416
 30
0.0
 10
11.3195226257
 20
11.0373187287
 30
0.0
 10
11.3313218969
 20
11.0411317369
 30
0.0
 10
11.3435275213
 20
11.0448582503
 30
0.0
 10
11.3561300368
 20
11.0484953201
 30
0.0
 10
11.369119659
 20
11.0520401423
 30
0.0
 10
11.3824863062
 20
11.0554899323
 30
0.0
 10
11.3962195919
 20
11.0588420041
 30
0.0
 10
11.410308862
 20
11.0620937642
 30
0.0
 10
11.4297507664
 20
11.0663350011
 30
0.0
 10
11.4548662931
 20
11.0713561074
 30
0.0
 10
11.4859490809
 20
11.0768839122
 30
0.0
 10
11.5181757046
 20
11.081955859
 30
0.0
 10
11.551445961
 20
11.086556048
 30
0.0
 10
11.585656536
 20
11.0906700383
 30
0.0
 10
11.6207011056
 20
11.094284928
 30
0.0
 10
11.6564707397
 20
11.0973893823
 30
0.0
 10
11.6928542288
 20
11.0999736706
 30
0.0
 10
11.7297384397
 20
11.1020296948
 30
0.0
 10
11.7670086697
 20
11.1035510131
 30
0.0
 10
11.8045490086
 20
11.1045328606
 30
0.0
 10
11.8422426956
 20
11.1049721605
 30
0.0
 10
11.8799725057
 20
11.1048675403
 30
0.0
 10
11.9176210553
 20
11.104219321
 30
0.0
 10
11.9550713337
 20
11.1030295427
 30
0.0
 10
11.9922066848
 20
11.1013019223
 30
0.0
 10
12.0168340705
 20
11.0997855432
 30
0.0
 10
12.0290741773
 20
11.0989366889
 30
0.0
  0
SPLINE
  5
332
100
AcDbEntity
  8
0
100
AcDbSpline
 62
7
  6
CONTINUOUS
 70
0
 71
3
 72
58
 73
54
 74
0
 42
0.0000001
 43
0.0000001
 44
0.0000000001
 40
0.0
 40
0.0
 40
0.0
 40
0.0
 40
0.0155854844
 40
0.0311196403
 40
0.0466005755
 40
0.0620308599
 40
0.0774122449
 40
0.0927468034
 40
0.1080373713
 40
0.1232871554
 40
0.1384997637
 40
0.1536792046
 40
0.1688298363
 40
0.1839563165
 40
0.1990635543
 40
0.2141566695
 40
0.2292409315
 40
0.2443216988
 40
0.2594043731
 40
0.2744943359
 40
0.2895968847
 40
0.3047171883
 40
0.3198602278
 40
0.3350307364
 40
0.3502331638
 40
0.3654716272
 40
0.3807498606
 40
0.3960711943
 40
0.4114385192
 40
0.4268542499
 40
0.442320323
 40
0.4578381746
 40
0.4734087203
 40
0.489032372
 40
0.5047090272
 40
0.5204380676
 40
0.5362183903
 40
0.552048408
 40
0.5679260649
 40
0.5838488782
 40
0.6158092217
 40
0.6479107196
 40
0.6801207192
 40
0.7124027466
 40
0.744717809
 40
0.7770257632
 40
0.8092867128
 40
0.8414624004
 40
0.8735175558
 40
0.905421173
 40
0.9371477211
 40
0.9686776645
 40
1.0
 40
1.0
 40
1.0
 40
1.0
 10
9.163848881
 20
9.7940777843
 30
0.0
 10
9.163848881
 20
9.7975326827
 30
0.0
 10
9.1640180141
 20
9.8044323243
 30
0.0
 10
9.1647811864
 20
9.8147382784
 30
0.0
 10
9.1660519003
 20
9.824959665
 30
0.0
 10
9.1678269809
 20
9.8350712169
 30
0.0
 10
9.170102132
 20
9.8450488984
 30
0.0
 10
9.172871965
 20
9.8548685862
 30
0.0
 10
9.176129851
 20
9.864506572
 30
0.0
 10
9.1798678745
 20
9.8739396602
 30
0.0
 10
9.1840770909
 20
9.8831450864
 30
0.0
 10
9.1887474096
 20
9.8921006213
 30
0.0
 10
9.1938674993
 20
9.9007847084
 30
0.0
 10
9.1994250797
 20
9.9091763716
 30
0.0
 10
9.2054067816
 20
9.9172553437
 30
0.0
 10
9.2117981123
 20
9.9250021898
 30
0.0
 10
9.2185837202
 20
9.9323981771
 30
0.0
 10
9.2257472451
 20
9.9394254521
 30
0.0
 10
9.2332713512
 20
9.9460671265
 30
0.0
 10
9.2411379461
 20
9.9523071208
 30
0.0
 10
9.2493280408
 20
9.958130394
 30
0.0
 10
9.2578218372
 20
9.96352297
 30
0.0
 10
9.2665988949
 20
9.9684717759
 30
0.0
 10
9.27563802
 20
9.9729649153
 30
0.0
 10
9.2849173858
 20
9.9769916237
 30
0.0
 10
9.29441465
 20
9.9805421205
 30
0.0
 10
9.3041068857
 20
9.9836079119
 30
0.0
 10
9.3139707137
 20
9.9861816718
 30
0.0
 10
9.3239823765
 20
9.9882571238
 30
0.0
 10
9.3341177225
 20
9.9898293556
 30
0.0
 10
9.344352325
 20
9.9908946302
 30
0.0
 10
9.3546615287
 20
9.9914503103
 30
0.0
 10
9.3650204869
 20
9.9914951633
 30
0.0
 10
9.3754042496
 20
9.9910291148
 30
0.0
 10
9.3857878002
 20
9.9900532224
 30
0.0
 10
9.3961461325
 20
9.9885699525
 30
0.0
 10
9.4064543259
 20
9.9865828813
 30
0.0
 10
9.416687471
 20
9.9840967724
 30
0.0
 10
9.4268212203
 20
9.981117599
 30
0.0
 10
9.440181873
 20
9.976492805
 30
0.0
 10
9.4565117008
 20
9.9695132271
 30
0.0
 10
9.4752958805
 20
9.9593216769
 30
0.0
 10
9.4931189122
 20
9.9473996679
 30
0.0
 10
9.5098085769
 20
9.933862218
 30
0.0
 10
9.5252050813
 20
9.9188393143
 30
0.0
 10
9.5391606063
 20
9.9024752561
 30
0.0
 10
9.5515411149
 20
9.8849270315
 30
0.0
 10
9.5622275718
 20
9.86636301
 30
0.0
 10
9.5711171628
 20
9.8469612662
 30
0.0
 10
9.5781241226
 20
9.8269081289
 30
0.0
 10
9.5831805344
 20
9.8063954176
 30
0.0
 10
9.5862374206
 20
9.7856227303
 30
0.0
 10
9.586924418
 20
9.7716807469
 30
0.0
 10
9.586924418
 20
9.7647373962
 30
0.0
  0
SPLINE
  5
333
100
AcDbEntity
  8
0
100
AcDbSpline
 62
7
  6
CONTINUOUS
 70
0
 71
3
 72
52
 73
48
 74
0
 42
0.0000001
 43
0.0000001
 44
0.0000000001
 40
0.0
 40
0.0
 40
0.0
 40
0.0
 40
0.0060335392
 40
0.0123324727
 40
0.0189251827
 40
0.0258356772
 40
0.0330839341
 40
0.0406864501
 40
0.0486565055
 40
0.0570047681
 40
0.0657394115
 40
0.0748666671
 40
0.0843908577
 40
0.0943148204
 40
0.1046399472
 40
0.1153664338
 40
0.1264933937
 40
0.1380189249
 40
0.1499403196
 40
0.1622539773
 40
0.1749556886
 40
0.1880404557
 40
0.2015027923
 40
0.2153365357
 40
0.2295350892
 40
0.2440913018
 40
0.2589975994
 40
0.2742459749
 40
0.3057343592
 40
0.3384852681
 40
0.3724214884
 40
0.407460956
 40
0.4435172703
 40
0.4805001638
 40
0.518315939
 40
0.5568678825
 40
0.5960566622
 40
0.6357807132
 40
0.6759366162
 40
0.7164194708
 40
0.757123258
 40
0.7979412219
 40
0.8387661781
 40
0.879491047
 40
0.9200087323
 40
0.9602136767
 40
1.0
 40
1.0
 40
1.0
 40
1.0
 10
11.2023239841
 20
10.9199430602
 30
0.0
 10
11.2031215886
 20
10.9214645026
 30
0.0
 10
11.20488246
 20
10.9245072815
 30
0.0
 10
11.2079273272
 20
10.9289580448
 30
0.0
 10
11.2114260511
 20
10.9333843525
 30
0.0
 10
11.2153756845
 20
10.9377831045
 30
0.0
 10
11.2197733324
 20
10.9421518383
 30
0.0
 10
11.2246159281
 20
10.9464877364
 30
0.0
 10
11.2299000361
 20
10.9507881762
 30
0.0
 10
11.2356220961
 20
10.9550502534
 30
0.0
 10
11.2417781103
 20
10.9592712781
 30
0.0
 10
11.2483639112
 20
10.9634483093
 30
0.0
 10
11.2553749202
 20
10.9675786073
 30
0.0
 10
11.2628063311
 20
10.9716592709
 30
0.0
 10
11.2706529825
 20
10.9756875268
 30
0.0
 10
11.2789094376
 20
10.9796605645
 30
0.0
 10
11.2875699574
 20
10.9835756001
 30
0.0
 10
11.2966284985
 20
10.9874299365
 30
0.0
 10
11.3060787532
 20
10.9912208094
 30
0.0
 10
11.3159141013
 20
10.9949456362
 30
0.0
 10
11.3261276785
 20
10.9986017091
 30
0.0
 10
11.336712317
 20
11.0021865467
 30
0.0
 10
11.3476606122
 20
11.005697538
 30
0.0
 10
11.3589648758
 20
11.0091322844
 30
0.0
 10
11.3706171846
 20
11.0124883074
 30
0.0
 10
11.3826093514
 20
11.0157632753
 30
0.0
 10
11.3949329709
 20
11.0189548812
 30
0.0
 10
11.4119775064
 20
11.0231409715
 30
0.0
 10
11.4340525286
 20
11.0281379281
 30
0.0
 10
11.4614465556
 20
11.0337051881
 30
0.0
 10
11.4899437104
 20
11.0388898449
 30
0.0
 10
11.5194638889
 20
11.0436772053
 30
0.0
 10
11.5499242407
 20
11.0480536845
 30
0.0
 10
11.581239187
 20
11.0520068746
 30
0.0
 10
11.6133207319
 20
11.0555255695
 30
0.0
 10
11.6460786985
 20
11.0585997986
 30
0.0
 10
11.6794209915
 20
11.061220853
 30
0.0
 10
11.7132538587
 20
11.0633813108
 30
0.0
 10
11.7474821591
 20
11.0650750552
 30
0.0
 10
11.7820096317
 20
11.066297291
 30
0.0
 10
11.8167391723
 20
11.0670445603
 30
0.0
 10
11.8515730952
 20
11.0673147446
 30
0.0
 10
11.8864134504
 20
11.0671070866
 30
0.0
 10
11.9211621835
 20
11.0664221597
 30
0.0
 10
11.9557217075
 20
11.0652619249
 30
0.0
 10
11.9899945855
 20
11.0636296376
 30
0.0
 10
12.0127266108
 20
11.0622212541
 30
0.0
 10
12.0240272101
 20
11.0614375549
 30
0.0
  0
SPLINE
  5
334
100
AcDbEntity
  8
0
100
AcDbSpline
 62
7
  6
CONTINUOUS
 70
0
 71
3
 72
23
 73
19
 74
0
 42
0.0000001
 43
0.0000001
 44
0.0000000001
 40
0.0
 40
0.0
 40
0.0
 40
0.0
 40
0.0637744756
 40
0.1273454195
 40
0.1907025115
 40
0.2538557844
 40
0.3168132107
 40
0.3795821493
 40
0.4421733556
 40
0.5045993344
 40
0.5668738645
 40
0.6290123751
 40
0.6910316494
 40
0.7529496375
 40
0.8147853529
 40
0.8765586001
 40
0.9382898483
 40
1.0
 40
1.0
 40
1.0
 40
1.0
 10
9.2702765048
 20
6.717507267
 30
0.0
 10
9.2702765048
 20
6.7202997567
 30
0.0
 10
9.270410221
 20
6.7258767683
 30
0.0
 10
9.2710134436
 20
6.7342083553
 30
0.0
 10
9.2720179469
 20
6.7424739707
 30
0.0
 10
9.2734213053
 20
6.7506540051
 30
0.0
 10
9.27522019
 20
6.7587299167
 30
0.0
 10
9.2774106766
 20
6.7666830238
 30
0.0
 10
9.2799875989
 20
6.7744949818
 30
0.0
 10
9.2829450502
 20
6.7821477906
 30
0.0
 10
9.2862763034
 20
6.7896237711
 30
0.0
 10
9.2899735702
 20
6.7969057309
 30
0.0
 10
9.294028452
 20
6.8039768153
 30
0.0
 10
9.2984315498
 20
6.8108207454
 30
0.0
 10
9.3031726835
 20
6.8174217367
 30
0.0
 10
9.3082410699
 20
6.8237645414
 30
0.0
 10
9.3136246984
 20
6.8298344291
 30
0.0
 10
9.3174164695
 20
6.8336903759
 30
0.0
 10
9.3193599589
 20
6.8355676583
 30
0.0
  0
SPLINE
  5
335
100
AcDbEntity
  8
0
100
AcDbSpline
 62
7
  6
CONTINUOUS
 70
0
 71
3
 72
58
 73
54
 74
0
 42
0.0000001
 43
0.0000001
 44
0.0000000001
 40
0.0
 40
0.0
 40
0.0
 40
0.0
 40
0.0155854844
 40
0.0311196403
 40
0.0466005755
 40
0.0620308599
 40
0.0774122449
 40
0.0927468034
 40
0.1080373713
 40
0.1232871554
 40
0.1384997637
 40
0.1536792046
 40
0.1688298363
 40
0.1839563165
 40
0.1990635543
 40
0.2141566695
 40
0.2292409315
 40
0.2443216988
 40
0.2594043731
 40
0.2744943359
 40
0.2895968847
 40
0.3047171883
 40
0.3198602278
 40
0.3350307364
 40
0.3502331638
 40
0.3654716272
 40
0.3807498606
 40
0.3960711943
 40
0.4114385192
 40
0.4268542499
 40
0.442320323
 40
0.4578381746
 40
0.4734087203
 40
0.489032372
 40
0.5047090272
 40
0.5204380676
 40
0.5362183903
 40
0.552048408
 40
0.5679260649
 40
0.5838488782
 40
0.6158092217
 40
0.6479107196
 40
0.6801207192
 40
0.7124027466
 40
0.744717809
 40
0.7770257632
 40
0.8092867128
 40
0.8414624004
 40
0.8735175558
 40
0.905421173
 40
0.9371477211
 40
0.9686776645
 40
1.0
 40
1.0
 40
1.0
 40
1.0
 10
9.586924418
 20
9.7647373962
 30
0.0
 10
9.586924418
 20
9.7612824978
 30
0.0
 10
9.5867552848
 20
9.7543828562
 30
0.0
 10
9.5859921125
 20
9.7440769021
 30
0.0
 10
9.5847213986
 20
9.7338555155
 30
0.0
 10
9.582946318
 20
9.7237439635
 30
0.0
 10
9.580671167
 20
9.7137662821
 30
0.0
 10
9.5779013339
 20
9.7039465943
 30
0.0
 10
9.5746434479
 20
9.6943086085
 30
0.0
 10
9.5709054244
 20
9.6848755203
 30
0.0
 10
9.566696208
 20
9.6756700941
 30
0.0
 10
9.5620258893
 20
9.6667145592
 30
0.0
 10
9.5569057997
 20
9.658030472
 30
0.0
 10
9.5513482192
 20
9.6496388089
 30
0.0
 10
9.5453665174
 20
9.6415598368
 30
0.0
 10
9.5389751867
 20
9.6338129906
 30
0.0
 10
9.5321895788
 20
9.6264170034
 30
0.0
 10
9.5250260539
 20
9.6193897284
 30
0.0
 10
9.5175019477
 20
9.612748054
 30
0.0
 10
9.5096353529
 20
9.6065080597
 30
0.0
 10
9.5014452582
 20
9.6006847865
 30
0.0
 10
9.4929514617
 20
9.5952922105
 30
0.0
 10
9.484174404
 20
9.5903434046
 30
0.0
 10
9.475135279
 20
9.5858502652
 30
0.0
 10
9.4658559131
 20
9.5818235568
 30
0.0
 10
9.456358649
 20
9.57827306
 30
0.0
 10
9.4466664133
 20
9.5752072686
 30
0.0
 10
9.4368025853
 20
9.5726335087
 30
0.0
 10
9.4267909224
 20
9.5705580567
 30
0.0
 10
9.4166555764
 20
9.5689858249
 30
0.0
 10
9.4064209739
 20
9.5679205503
 30
0.0
 10
9.3961117702
 20
9.5673648702
 30
0.0
 10
9.385752812
 20
9.5673200172
 30
0.0
 10
9.3753690493
 20
9.5677860657
 30
0.0
 10
9.3649854987
 20
9.5687619581
 30
0.0
 10
9.3546271665
 20
9.5702452279
 30
0.0
 10
9.344318973
 20
9.5722322992
 30
0.0
 10
9.334085828
 20
9.574718408
 30
0.0
 10
9.3239520787
 20
9.5776975815
 30
0.0
 10
9.3105914259
 20
9.5823223755
 30
0.0
 10
9.2942615982
 20
9.5893019534
 30
0.0
 10
9.2754774184
 20
9.5994935036
 30
0.0
 10
9.2576543868
 20
9.6114155126
 30
0.0
 10
9.240964722
 20
9.6249529625
 30
0.0
 10
9.2255682176
 20
9.6399758662
 30
0.0
 10
9.2116126926
 20
9.6563399244
 30
0.0
 10
9.199232184
 20
9.673888149
 30
0.0
 10
9.1885457271
 20
9.6924521705
 30
0.0
 10
9.1796561362
 20
9.7118539143
 30
0.0
 10
9.1726491763
 20
9.7319070516
 30
0.0
 10
9.1675927646
 20
9.7524197629
 30
0.0
 10
9.1645358784
 20
9.7731924502
 30
0.0
 10
9.163848881
 20
9.7871344336
 30
0.0
 10
9.163848881
 20
9.7940777843
 30
0.0
  0
SPLINE
  5
336
100
AcDbEntity
  8
0
100
AcDbSpline
 62
7
  6
CONTINUOUS
 70
0
 71
3
 72
23
 73
19
 74
0
 42
0.0000001
 43
0.0000001
 44
0.0000000001
 40
0.0
 40
0.0
 40
0.0
 40
0.0
 40
0.0620406738
 40
0.1242587986
 40
0.1866334208
 40
0.2491416428
 40
0.3117588244
 40
0.3744589398
 40
0.4372149447
 40
0.4999990969
 40
0.562783277
 40
0.6255393713
 40
0.6882396398
 40
0.7508570287
 40
0.8133655085
 40
0.8757404502
 40
0.9379589301
 40
1.0
 40
1.0
 40
1.0
 40
1.0
 10
9.4961777797
 20
6.8689159129
 30
0.0
 10
9.497296593
 20
6.8655897601
 30
0.0
 10
9.4997262077
 20
6.8589897724
 30
0.0
 10
9.5039249531
 20
6.8492982159
 30
0.0
 10
9.5086694661
 20
6.8398319008
 30
0.0
 10
9.5139431815
 20
6.8306240073
 30
0.0
 10
9.5197279101
 20
6.8217063124
 30
0.0
 10
9.5260035719
 20
6.8131096863
 30
0.0
 10
9.5327484211
 20
6.8048638519
 30
0.0
 10
9.5399391277
 20
6.7969973593
 30
0.0
 10
9.5475508304
 20
6.789537463
 30
0.0
 10
9.5555571475
 20
6.7825099468
 30
0.0
 10
9.5639303676
 20
6.7759391293
 30
0.0
 10
9.5726415502
 20
6.7698477905
 30
0.0
 10
9.581660525
 20
6.7642570476
 30
0.0
 10
9.5909561714
 20
6.75918619
 30
0.0
 10
9.6004959078
 20
6.7546529302
 30
0.0
 10
9.6070074562
 20
6.7519952621
 30
0.0
 10
9.6102927097
 20
6.7507614463
 30
0.0
  0
SPLINE
  5
337
100
AcDbEntity
  8
0
100
AcDbSpline
 62
7
  6
CONTINUOUS
 70
0
 71
3
 72
23
 73
19
 74
0
 42
0.0000001
 43
0.0000001
 44
0.0000000001
 40
0.0
 40
0.0
 40
0.0
 40
0.0
 40
0.0637744756
 40
0.1273454195
 40
0.1907025115
 40
0.2538557844
 40
0.3168132107
 40
0.3795821493
 40
0.4421733556
 40
0.5045993344
 40
0.5668738645
 40
0.6290123751
 40
0.6910316494
 40
0.7529496375
 40
0.8147853529
 40
0.8765586001
 40
0.9382898483
 40
1.0
 40
1.0
 40
1.0
 40
1.0
 10
11.6252036587
 20
6.5541925142
 30
0.0
 10
11.6252036587
 20
6.5569850039
 30
0.0
 10
11.6253373748
 20
6.5625620155
 30
0.0
 10
11.6259405974
 20
6.5708936025
 30
0.0
 10
11.6269451008
 20
6.5791592179
 30
0.0
 10
11.6283484592
 20
6.5873392523
 30
0.0
 10
11.6301473439
 20
6.5954151639
 30
0.0
 10
11.6323378305
 20
6.603368271
 30
0.0
 10
11.6349147528
 20
6.611180229
 30
0.0
 10
11.6378722041
 20
6.6188330377
 30
0.0
 10
11.6412034573
 20
6.6263090183
 30
0.0
 10
11.644900724
 20
6.6335909781
 30
0.0
 10
11.6489556059
 20
6.6406620625
 30
0.0
 10
11.6533587037
 20
6.6475059926
 30
0.0
 10
11.6580998374
 20
6.6541069839
 30
0.0
 10
11.6631682238
 20
6.6604497885
 30
0.0
 10
11.6685518523
 20
6.6665196763
 30
0.0
 10
11.6723436233
 20
6.6703756231
 30
0.0
 10
11.6742871127
 20
6.6722529054
 30
0.0
  0
SPLINE
  5
338
100
AcDbEntity
  8
0
100
AcDbSpline
 62
7
  6
CONTINUOUS
 70
0
 71
3
 72
29
 73
25
 74
0
 42
0.0000001
 43
0.0000001
 44
0.0000000001
 40
0.0
 40
0.0
 40
0.0
 40
0.0
 40
0.0305373764
 40
0.0610738702
 40
0.0916116391
 40
0.1221610492
 40
0.1527316366
 40
0.1833305888
 40
0.21396527
 40
0.2446423736
 40
0.2753682455
 40
0.3061478874
 40
0.3369862412
 40
0.36788683
 40
0.3988531686
 40
0.4298873243
 40
0.4921558177
 40
0.5547116982
 40
0.6175547047
 40
0.6806785024
 40
0.7440722548
 40
0.8077219324
 40
0.8716115043
 40
1.0
 40
1.0
 40
1.0
 40
1.0
 10
10.3770217636
 20
7.7934767374
 30
0.0
 10
10.378817415
 20
7.7954921826
 30
0.0
 10
10.3825044573
 20
7.7994388271
 30
0.0
 10
10.388307378
 20
7.805091173
 30
0.0
 10
10.3943706423
 20
7.8104651472
 30
0.0
 10
10.4006806323
 20
7.8155518039
 30
0.0
 10
10.4072237973
 20
7.8203438911
 30
0.0
 10
10.4139858773
 20
7.8248352736
 30
0.0
 10
10.4209519955
 20
7.8290213418
 30
0.0
 10
10.4281073019
 20
7.8328985316
 30
0.0
 10
10.435436581
 20
7.8364650289
 30
0.0
 10
10.4429250103
 20
7.839719655
 30
0.0
 10
10.4505576394
 20
7.8426629591
 30
0.0
 10
10.4583200974
 20
7.8452959139
 30
0.0
 10
10.4661983132
 20
7.8476209942
 30
0.0
 10
10.4768493778
 20
7.8503169899
 30
0.0
 10
10.4903901259
 20
7.8529318617
 30
0.0
 10
10.5068754973
 20
7.854895869
 30
0.0
 10
10.5235311636
 20
7.8557333746
 30
0.0
 10
10.5402788821
 20
7.855490793
 30
0.0
 10
10.5570500986
 20
7.854216499
 30
0.0
 10
10.5737855252
 20
7.8519585977
 30
0.0
 10
10.5960108056
 20
7.8476943716
 30
0.0
 10
10.6124330374
 20
7.8431661476
 30
0.0
 10
10.6232144614
 20
7.839622643
 30
0.0
  0
SPLINE
  5
339
100
AcDbEntity
  8
0
100
AcDbSpline
 62
7
  6
CONTINUOUS
 70
0
 71
3
 72
23
 73
19
 74
0
 42
0.0000001
 43
0.0000001
 44
0.0000000001
 40
0.0
 40
0.0
 40
0.0
 40
0.0
 40
0.0620406738
 40
0.1242587986
 40
0.1866334208
 40
0.2491416428
 40
0.3117588244
 40
0.3744589398
 40
0.4372149447
 40
0.4999990969
 40
0.562783277
 40
0.6255393713
 40
0.6882396398
 40
0.7508570287
 40
0.8133655085
 40
0.8757404502
 40
0.9379589301
 40
1.0
 40
1.0
 40
1.0
 40
1.0
 10
11.8511049336
 20
6.7056011601
 30
0.0
 10
11.8522237468
 20
6.7022750073
 30
0.0
 10
11.8546533615
 20
6.6956750195
 30
0.0
 10
11.858852107
 20
6.6859834631
 30
0.0
 10
11.86359662
 20
6.676517148
 30
0.0
 10
11.8688703353
 20
6.6673092545
 30
0.0
 10
11.874655064
 20
6.6583915595
 30
0.0
 10
11.8809307257
 20
6.6497949335
 30
0.0
 10
11.887675575
 20
6.6415490991
 30
0.0
 10
11.8948662816
 20
6.6336826065
 30
0.0
 10
11.9024779843
 20
6.6262227102
 30
0.0
 10
11.9104843014
 20
6.619195194
 30
0.0
 10
11.9188575214
 20
6.6126243765
 30
0.0
 10
11.9275687041
 20
6.6065330377
 30
0.0
 10
11.9365876789
 20
6.6009422948
 30
0.0
 10
11.9458833253
 20
6.5958714372
 30
0.0
 10
11.9554230617
 20
6.5913381774
 30
0.0
 10
11.9619346101
 20
6.5886805093
 30
0.0
 10
11.9652198636
 20
6.5874466935
 30
0.0
  0
SPLINE
  5
33A
100
AcDbEntity
  8
0
100
AcDbSpline
 62
7
  6
CONTINUOUS
 70
0
 71
3
 72
43
 73
39
 74
0
 42
0.0000001
 43
0.0000001
 44
0.0000000001
 40
0.0
 40
0.0
 40
0.0
 40
0.0
 40
0.0144946374
 40
0.0220884664
 40
0.0299279381
 40
0.0380232615
 40
0.0463833906
 40
0.0550162075
 40
0.0639284911
 40
0.0731260211
 40
0.0826137885
 40
0.092395971
 40
0.1024759459
 40
0.1235385723
 40
0.1458184463
 40
0.1693227851
 40
0.1940518047
 40
0.2199999892
 40
0.2471567522
 40
0.2755069938
 40
0.3050318556
 40
0.3357088855
 40
0.3675125199
 40
0.4004144485
 40
0.4343836351
 40
0.4693867774
 40
0.5053883777
 40
0.5423508464
 40
0.5802348423
 40
0.6189992011
 40
0.6586011784
 40
0.6989966024
 40
0.7401397792
 40
0.7819839101
 40
0.8244810692
 40
0.8675816214
 40
0.9112357485
 40
1.0
 40
1.0
 40
1.0
 40
1.0
 10
12.5491968355
 20
10.9597845693
 30
0.0
 10
12.5477698788
 20
10.9619929209
 30
0.0
 10
12.5454205828
 20
10.9652482627
 30
0.0
 10
12.5419624238
 20
10.9694342149
 30
0.0
 10
12.5391088316
 20
10.9726097547
 30
0.0
 10
12.5360369771
 20
10.9757710941
 30
0.0
 10
12.5327476895
 20
10.9789175282
 30
0.0
 10
12.5292420285
 20
10.9820480058
 30
0.0
 10
12.5255211011
 20
10.9851615973
 30
0.0
 10
12.521586115
 20
10.9882573763
 30
0.0
 10
12.5174382873
 20
10.9913343538
 30
0.0
 10
12.5130789098
 20
10.994391591
 30
0.0
 10
12.5068954363
 20
10.9985005784
 30
0.0
 10
12.4986339135
 20
11.0035725194
 30
0.0
 10
12.4880402246
 20
11.0094785034
 30
0.0
 10
12.4766391795
 20
11.0152828912
 30
0.0
 10
12.4644452254
 20
11.0209784423
 30
0.0
 10
12.4514735399
 20
11.0265579785
 30
0.0
 10
12.4377404399
 20
11.0320144126
 30
0.0
 10
12.4232632499
 20
11.0373408569
 30
0.0
 10
12.4080602592
 20
11.042530462
 30
0.0
 10
12.3921507341
 20
11.0475766242
 30
0.0
 10
12.3755548613
 20
11.0524729012
 30
0.0
 10
12.3582937136
 20
11.0572129771
 30
0.0
 10
12.3403892462
 20
11.0617908295
 30
0.0
 10
12.3218642374
 20
11.0662005697
 30
0.0
 10
12.3027422695
 20
11.0704365327
 30
0.0
 10
12.2830477024
 20
11.0744933308
 30
0.0
 10
12.2628056262
 20
11.0783657231
 30
0.0
 10
12.2420418409
 20
11.0820487689
 30
0.0
 10
12.2207828163
 20
11.0855377628
 30
0.0
 10
12.1990556604
 20
11.0888281951
 30
0.0
 10
12.1768880813
 20
11.0919158946
 30
0.0
 10
12.1543083246
 20
11.0947968917
 30
0.0
 10
12.131345258
 20
11.0974674627
 30
0.0
 10
12.1080281461
 20
11.0999242651
 30
0.0
 10
12.07633132
 20
11.1029272056
 30
0.0
 10
12.0523839642
 20
11.1048227205
 30
0.0
 10
12.0363211046
 20
11.1059366836
 30
0.0
  0
SPLINE
  5
33B
100
AcDbEntity
  8
0
100
AcDbSpline
 62
7
  6
CONTINUOUS
 70
0
 71
3
 72
52
 73
48
 74
0
 42
0.0000001
 43
0.0000001
 44
0.0000000001
 40
0.0
 40
0.0
 40
0.0
 40
0.0
 40
0.0481976586
 40
0.0958298417
 40
0.1428197349
 40
0.1890976738
 40
0.2345927526
 40
0.2792363126
 40
0.3229616726
 40
0.3657040217
 40
0.4074008695
 40
0.4479921877
 40
0.4874205767
 40
0.5256315209
 40
0.5625737305
 40
0.5981993819
 40
0.6324644205
 40
0.6653290015
 40
0.6967580213
 40
0.7267215998
 40
0.7411465372
 40
0.7551967179
 40
0.7688701694
 40
0.7821654908
 40
0.7950818363
 40
0.8076188358
 40
0.8197768796
 40
0.8315570016
 40
0.842960946
 40
0.8539914268
 40
0.8646519891
 40
0.8749472323
 40
0.8848829866
 40
0.8944662508
 40
0.9037055339
 40
0.912610945
 40
0.9211942707
 40
0.9294693586
 40
0.9374521473
 40
0.9451608712
 40
0.9598350014
 40
0.9668568271
 40
0.9737036868
 40
0.980406896
 40
0.9870001056
 40
0.9935188497
 40
1.0
 40
1.0
 40
1.0
 40
1.0
 10
12.0363211046
 20
11.1658240874
 30
0.0
 10
12.0455566445
 20
11.1651836005
 30
0.0
 10
12.0639123997
 20
11.1638070356
 30
0.0
 10
12.0912432608
 20
11.161440114
 30
0.0
 10
12.1181773057
 20
11.1587861332
 30
0.0
 10
12.1446690709
 20
11.1558496538
 30
0.0
 10
12.1706745754
 20
11.1526355388
 30
0.0
 10
12.1961502517
 20
11.1491492168
 30
0.0
 10
12.2210535239
 20
11.1453965531
 30
0.0
 10
12.2453427798
 20
11.1413838346
 30
0.0
 10
12.268977431
 20
11.1371178133
 30
0.0
 10
12.2919180079
 20
11.1326056726
 30
0.0
 10
12.3141262038
 20
11.1278549976
 30
0.0
 10
12.3355649484
 20
11.1228737613
 30
0.0
 10
12.3561984886
 20
11.1176703547
 30
0.0
 10
12.3759924476
 20
11.1122535346
 30
0.0
 10
12.3949138537
 20
11.106632399
 30
0.0
 10
12.4129312903
 20
11.1008163781
 30
0.0
 10
12.4300147177
 20
11.0948152509
 30
0.0
 10
12.4436160354
 20
11.0896046084
 30
0.0
 10
12.4540009913
 20
11.0853433585
 30
0.0
 10
12.4614399494
 20
11.0821479581
 30
0.0
 10
12.4686248998
 20
11.0789138904
 30
0.0
 10
12.4755528661
 20
11.0756424912
 30
0.0
 10
12.4822209806
 20
11.0723351613
 30
0.0
 10
12.4886264523
 20
11.0689932169
 30
0.0
 10
12.4947666418
 20
11.0656180856
 30
0.0
 10
12.5006390104
 20
11.0622111678
 30
0.0
 10
12.5062411023
 20
11.0587738187
 30
0.0
 10
12.5115706346
 20
11.0553075098
 30
0.0
 10
12.5166253945
 20
11.051813628
 30
0.0
 10
12.5214032815
 20
11.0482935713
 30
0.0
 10
12.5259023657
 20
11.0447488169
 30
0.0
 10
12.5301207529
 20
11.0411807271
 30
0.0
 10
12.5340567093
 20
11.0375907302
 30
0.0
 10
12.5377086273
 20
11.0339802778
 30
0.0
 10
12.5410749298
 20
11.0303506738
 30
0.0
 10
12.544154169
 20
11.0267034706
 30
0.0
 10
12.5469452133
 20
11.0230396713
 30
0.0
 10
12.5502258983
 20
11.0182150442
 30
0.0
 10
12.5530015827
 20
11.0132764518
 30
0.0
 10
12.555200666
 20
11.0082505252
 30
0.0
 10
12.5565322487
 20
11.0045266058
 30
0.0
 10
12.5575688662
 20
11.0007953631
 30
0.0
 10
12.5583099057
 20
10.9970583056
 30
0.0
 10
12.5587548272
 20
10.9933176205
 30
0.0
 10
12.5588538088
 20
10.9908195083
 30
0.0
 10
12.558853814
 20
10.9895746202
 30
0.0
  0
SPLINE
  5
33C
100
AcDbEntity
  8
0
100
AcDbSpline
 62
7
  6
CONTINUOUS
 70
0
 71
3
 72
50
 73
46
 74
0
 42
0.0000001
 43
0.0000001
 44
0.0000000001
 40
0.0
 40
0.0
 40
0.0
 40
0.0
 40
0.0064807564
 40
0.0130746165
 40
0.0198116395
 40
0.0267197498
 40
0.0411433766
 40
0.0487093947
 40
0.0565351077
 40
0.064637048
 40
0.0730296108
 40
0.0817253794
 40
0.0907352611
 40
0.1000684905
 40
0.1097329738
 40
0.1197353749
 40
0.1300810939
 40
0.1407745904
 40
0.1518194093
 40
0.1632181363
 40
0.1749726954
 40
0.1870843212
 40
0.1995535055
 40
0.2123802702
 40
0.2255640979
 40
0.2529972696
 40
0.2818405854
 40
0.3120742109
 40
0.3436728296
 40
0.3766064051
 40
0.4108405454
 40
0.446336952
 40
0.4830539169
 40
0.5209465048
 40
0.5599668057
 40
0.600064309
 40
0.6411860198
 40
0.6832766269
 40
0.7262787709
 40
0.7701331656
 40
0.8147789053
 40
0.8601530797
 40
0.9061913501
 40
0.952830715
 40
1.0
 40
1.0
 40
1.0
 40
1.0
 10
12.5300878604
 20
10.9380194721
 30
0.0
 10
12.5298748704
 20
10.9391773237
 30
0.0
 10
12.5293580374
 20
10.9414980748
 30
0.0
 10
12.5283250693
 20
10.9449484958
 30
0.0
 10
12.5270292467
 20
10.9483922639
 30
0.0
 10
12.5249224464
 20
10.9530388007
 30
0.0
 10
12.5223040957
 20
10.9576054745
 30
0.0
 10
12.5192356981
 20
10.9620705261
 30
0.0
 10
12.5166391393
 20
10.9654600724
 30
0.0
 10
12.5137855325
 20
10.968834798
 30
0.0
 10
12.5106759221
 20
10.9721938767
 30
0.0
 10
12.5073115678
 20
10.9755360011
 30
0.0
 10
12.5036937309
 20
10.9788599449
 30
0.0
 10
12.4998238664
 20
10.9821645433
 30
0.0
 10
12.4957034412
 20
10.9854485603
 30
0.0
 10
12.4913340103
 20
10.9887107368
 30
0.0
 10
12.4867172895
 20
10.991949906
 30
0.0
 10
12.4818550292
 20
10.9951648218
 30
0.0
 10
12.476749077
 20
10.9983542341
 30
0.0
 10
12.4714014252
 20
11.0015169802
 30
0.0
 10
12.4658141121
 20
11.0046518225
 30
0.0
 10
12.4599892756
 20
11.0077575354
 30
0.0
 10
12.453929187
 20
11.0108329673
 30
0.0
 10
12.4476361583
 20
11.0138769248
 30
0.0
 10
12.4388210461
 20
11.0179459146
 30
0.0
 10
12.4272289736
 20
11.0229359104
 30
0.0
 10
12.4126079325
 20
11.0287031379
 30
0.0
 10
12.3971202206
 20
11.0343173703
 30
0.0
 10
12.3807898029
 20
11.0397698877
 30
0.0
 10
12.3636417783
 20
11.0450521779
 30
0.0
 10
12.3457026275
 20
11.0501560074
 30
0.0
 10
12.3270000827
 20
11.0550734395
 30
0.0
 10
12.3075630763
 20
11.0597967743
 30
0.0
 10
12.2874217073
 20
11.0643186333
 30
0.0
 10
12.2666071945
 20
11.0686319838
 30
0.0
 10
12.2451518043
 20
11.0727300737
 30
0.0
 10
12.2230888098
 20
11.0766064955
 30
0.0
 10
12.200452448
 20
11.0802552251
 30
0.0
 10
12.1772778501
 20
11.0836705558
 30
0.0
 10
12.1536009608
 20
11.086847149
 30
0.0
 10
12.1294585631
 20
11.0897800614
 30
0.0
 10
12.104888213
 20
11.0924647147
 30
0.0
 10
12.0799277122
 20
11.0948969507
 30
0.0
 10
12.0546163026
 20
11.0970728915
 30
0.0
 10
12.0376223054
 20
11.0983438742
 30
0.0
 10
12.0290741773
 20
11.0989366889
 30
0.0
  0
SPLINE
  5
33D
100
AcDbEntity
  8
0
100
AcDbSpline
 62
7
  6
CONTINUOUS
 70
0
 71
3
 72
45
 73
41
 74
0
 42
0.0000001
 43
0.0000001
 44
0.0000000001
 40
0.0
 40
0.0
 40
0.0
 40
0.0
 40
0.0139911541
 40
0.0213112393
 40
0.0288666421
 40
0.0366707718
 40
0.0447353997
 40
0.0530709195
 40
0.061686434
 40
0.0705897296
 40
0.0797875405
 40
0.08928566
 40
0.0990888595
 40
0.1092011114
 40
0.119625719
 40
0.1303652059
 40
0.1414214658
 40
0.1644882766
 40
0.1888322397
 40
0.2144511864
 40
0.2413367762
 40
0.2694754339
 40
0.2988491121
 40
0.3294355523
 40
0.3612089744
 40
0.3941403591
 40
0.4281976138
 40
0.4633460809
 40
0.4995485565
 40
0.5367655297
 40
0.5749554927
 40
0.6140748713
 40
0.6540783525
 40
0.6949189958
 40
0.7365481752
 40
0.7789160204
 40
0.8219714049
 40
0.8656613577
 40
0.9099325779
 40
1.0
 40
1.0
 40
1.0
 40
1.0
 10
12.5053871797
 20
10.9199363695
 30
0.0
 10
12.5042754138
 20
10.9220577111
 30
0.0
 10
12.502392225
 20
10.9251927986
 30
0.0
 10
12.4995390356
 20
10.9292285166
 30
0.0
 10
12.4971493764
 20
10.9322902226
 30
0.0
 10
12.4945435386
 20
10.9353393704
 30
0.0
 10
12.4917223111
 20
10.938375335
 30
0.0
 10
12.4886866873
 20
10.9413970709
 30
0.0
 10
12.4854376453
 20
10.9444036084
 30
0.0
 10
12.481976322
 20
10.9473940247
 30
0.0
 10
12.4783038669
 20
10.950367359
 30
0.0
 10
12.4744214689
 20
10.9533226065
 30
0.0
 10
12.4703304502
 20
10.9562588399
 30
0.0
 10
12.4660321765
 20
10.9591751084
 30
0.0
 10
12.4615280504
 20
10.9620704044
 30
0.0
 10
12.4568195802
 20
10.9649438187
 30
0.0
 10
12.450177204
 20
10.9687991121
 30
0.0
 10
12.4413641639
 20
10.973548527
 30
0.0
 10
12.430144315
 20
10.9790674988
 30
0.0
 10
12.4181503462
 20
10.984476547
 30
0.0
 10
12.405398302
 20
10.9897684621
 30
0.0
 10
12.391905049
 20
10.994936195
 30
0.0
 10
12.3776885464
 20
10.9999727465
 30
0.0
 10
12.3627677719
 20
11.0048713852
 30
0.0
 10
12.3471626685
 20
11.0096254868
 30
0.0
 10
12.3308941223
 20
11.0142286059
 30
0.0
 10
12.3139839462
 20
11.0186745704
 30
0.0
 10
12.2964548181
 20
11.0229573325
 30
0.0
 10
12.2783302697
 20
11.0270711096
 30
0.0
 10
12.2596346465
 20
11.0310103677
 30
0.0
 10
12.240393064
 20
11.0347697373
 30
0.0
 10
12.2206313874
 20
11.0383441696
 30
0.0
 10
12.2003761839
 20
11.0417288333
 30
0.0
 10
12.1796546928
 20
11.0449191213
 30
0.0
 10
12.1584947857
 20
11.0479107663
 30
0.0
 10
12.1369248981
 20
11.0506997056
 30
0.0
 10
12.1149741111
 20
11.0532821437
 30
0.0
 10
12.092671935
 20
11.0556546652
 30
0.0
 10
12.0623342972
 20
11.0585502152
 30
0.0
 10
12.0394080906
 20
11.0603708872
 30
0.0
 10
12.0240272101
 20
11.0614375549
 30
0.0
  0
SPLINE
  5
33E
100
AcDbEntity
  8
0
100
AcDbSpline
 62
7
  6
CONTINUOUS
 70
0
 71
3
 72
39
 73
35
 74
0
 42
0.0000001
 43
0.0000001
 44
0.0000000001
 40
0.0
 40
0.0
 40
0.0
 40
0.0
 40
0.0311445376
 40
0.062443355
 40
0.09388824
 40
0.1254709996
 40
0.1571788478
 40
0.1889972257
 40
0.2209091305
 40
0.2528957945
 40
0.2849369709
 40
0.3170113586
 40
0.3490970145
 40
0.3811717799
 40
0.4132137068
 40
0.4452014824
 40
0.4771148435
 40
0.5089349783
 40
0.5406449062
 40
0.5722298317
 40
0.6036774666
 40
0.6349783114
 40
0.6661258871
 40
0.6971169127
 40
0.7279514223
 40
0.7586328137
 40
0.7891678252
 40
0.8195664354
 40
0.8498416851
 40
0.8800094226
 40
0.9100879711
 40
0.9400977272
 40
0.9700606997
 40
1.0
 40
1.0
 40
1.0
 40
1.0
 10
11.8500887981
 20
8.8833419031
 30
0.0
 10
11.8464092947
 20
8.8835970775
 30
0.0
 10
11.839048005
 20
8.8843780458
 30
0.0
 10
11.8280953522
 20
8.8863451928
 30
0.0
 10
11.8172599681
 20
8.8891007296
 30
0.0
 10
11.8066004796
 20
8.8926295983
 30
0.0
 10
11.7961734275
 20
8.8969130513
 30
0.0
 10
11.7860344604
 20
8.9019280895
 30
0.0
 10
11.7762375841
 20
8.9076479521
 30
0.0
 10
11.7668350029
 20
8.9140420874
 30
0.0
 10
11.7578768171
 20
8.9210763852
 30
0.0
 10
11.749410761
 20
8.9287133276
 30
0.0
 10
11.7414819474
 20
8.9369121943
 30
0.0
 10
11.7341326349
 20
8.9456292831
 30
0.0
 10
11.7274020047
 20
8.9548181392
 30
0.0
 10
11.721325954
 20
8.9644298002
 30
0.0
 10
11.7159369067
 20
8.9744130539
 30
0.0
 10
11.7112636414
 20
8.9847147074
 30
0.0
 10
11.7073311387
 20
8.9952798662
 30
0.0
 10
11.7041604495
 20
9.0060522236
 30
0.0
 10
11.7017685709
 20
9.0169743536
 30
0.0
 10
11.7001683598
 20
9.0279880168
 30
0.0
 10
11.6993684653
 20
9.0390344672
 30
0.0
 10
11.6993732782
 20
9.0500547615
 30
0.0
 10
11.7001829028
 20
9.0609900692
 30
0.0
 10
11.7017931506
 20
9.0717819843
 30
0.0
 10
11.7041955551
 20
9.0823728346
 30
0.0
 10
11.7073774112
 20
9.0927059915
 30
0.0
 10
11.711321829
 20
9.1027261699
 30
0.0
 10
11.7160078271
 20
9.1123797514
 30
0.0
 10
11.72141038
 20
9.1216150038
 30
0.0
 10
11.7275008083
 20
9.1303826274
 30
0.0
 10
11.7342459569
 20
9.1386350494
 30
0.0
 10
11.7391572988
 20
9.1437659115
 30
0.0
 10
11.7417074834
 20
9.1462292223
 30
0.0
  0
SPLINE
  5
33F
100
AcDbEntity
  8
0
100
AcDbSpline
 62
7
  6
CONTINUOUS
 70
0
 71
3
 72
32
 73
28
 74
0
 42
0.0000001
 43
0.0000001
 44
0.0000000001
 40
0.0
 40
0.0
 40
0.0
 40
0.0
 40
0.0343738229
 40
0.0689129614
 40
0.103643538
 40
0.1385827751
 40
0.1737371443
 40
0.2091006245
 40
0.2446532348
 40
0.2803601809
 40
0.3520011182
 40
0.423477246
 40
0.4589350914
 40
0.4940652896
 40
0.5287658877
 40
0.562939061
 40
0.5964946801
 40
0.6293532814
 40
0.692711974
 40
0.7526570389
 40
0.7812957856
 40
0.8090316368
 40
0.835868654
 40
0.8618185519
 40
0.8868985725
 40
0.9111300837
 40
1.0
 40
1.0
 40
1.0
 40
1.0
 10
11.6059134118
 20
8.3054568225
 30
0.0
 10
11.6019089776
 20
8.3030660348
 30
0.0
 10
11.594020026
 20
8.2980355401
 30
0.0
 10
11.5826125458
 20
8.2898001035
 30
0.0
 10
11.5716283867
 20
8.2808853747
 30
0.0
 10
11.5610921764
 20
8.2713214091
 30
0.0
 10
11.5510281886
 20
8.2611409118
 30
0.0
 10
11.5414614205
 20
8.2503806659
 30
0.0
 10
11.5324168433
 20
8.2390816617
 30
0.0
 10
11.5210771009
 20
8.2233463385
 30
0.0
 10
11.5083695915
 20
8.2026294301
 30
0.0
 10
11.4976962449
 20
8.1808369297
 30
0.0
 10
11.4904228858
 20
8.1629807735
 30
0.0
 10
11.4856312589
 20
8.1495175432
 30
0.0
 10
11.4814898125
 20
8.1360230333
 30
0.0
 10
11.4779926409
 20
8.1225682098
 30
0.0
 10
11.4751279233
 20
8.1092201541
 30
0.0
 10
11.4721647282
 20
8.0918593592
 30
0.0
 10
11.4698985486
 20
8.0707667843
 30
0.0
 10
11.4693888069
 20
8.0501328318
 30
0.0
 10
11.4699806929
 20
8.0343579394
 30
0.0
 10
11.4708645456
 20
8.0230992007
 30
0.0
 10
11.4721642758
 20
8.0122483527
 30
0.0
 10
11.4738499014
 20
8.0018159797
 30
0.0
 10
11.4758932759
 20
7.9918070794
 30
0.0
 10
11.4804006177
 20
7.9736098506
 30
0.0
 10
11.4855778854
 20
7.9590539139
 30
0.0
 10
11.4906593112
 20
7.94811906
 30
0.0
  0
SPLINE
  5
340
100
AcDbEntity
  8
0
100
AcDbSpline
 62
7
  6
CONTINUOUS
 70
0
 71
3
 72
22
 73
18
 74
0
 42
0.0000001
 43
0.0000001
 44
0.0000000001
 40
0.0
 40
0.0
 40
0.0
 40
0.0
 40
0.0764238622
 40
0.1504703109
 40
0.2222096576
 40
0.2917225214
 40
0.3591045654
 40
0.4244644517
 40
0.5495744634
 40
0.6096453334
 40
0.6682571008
 40
0.7255853917
 40
0.7818196187
 40
0.837161409
 40
0.8918234106
 40
0.9460271042
 40
1.0
 40
1.0
 40
1.0
 40
1.0
 10
13.7523214733
 20
7.2486363336
 30
0.0
 10
13.7510577107
 20
7.2474156325
 30
0.0
 10
13.7485306631
 20
7.245051947
 30
0.0
 10
13.7446798492
 20
7.2416931516
 30
0.0
 10
13.7408307361
 20
7.2385790112
 30
0.0
 10
13.736984558
 20
7.2357107122
 30
0.0
 10
13.7331421546
 20
7.2330889666
 30
0.0
 10
13.7280998257
 20
7.2299690463
 30
0.0
 10
13.7229907926
 20
7.2272835954
 30
0.0
 10
13.7178330529
 20
7.2250836343
 30
0.0
 10
13.7140257297
 20
7.2237059076
 30
0.0
 10
13.7102286834
 20
7.2225789031
 30
0.0
 10
13.706442929
 20
7.2217029888
 30
0.0
 10
13.702669663
 20
7.2210786436
 30
0.0
 10
13.698910028
 20
7.2207062119
 30
0.0
 10
13.6951655036
 20
7.2205858291
 30
0.0
 10
13.6926777488
 20
7.220673801
 30
0.0
 10
13.6914398423
 20
7.2207596461
 30
0.0
  0
SPLINE
  5
341
100
AcDbEntity
  8
0
100
AcDbSpline
 62
7
  6
CONTINUOUS
 70
0
 71
3
 72
39
 73
35
 74
0
 42
0.0000001
 43
0.0000001
 44
0.0000000001
 40
0.0
 40
0.0
 40
0.0
 40
0.0
 40
0.0311449443
 40
0.0624431435
 40
0.0938883559
 40
0.1254710082
 40
0.1571789104
 40
0.1889972915
 40
0.2209092118
 40
0.2528958851
 40
0.2849370693
 40
0.3170114641
 40
0.3490971276
 40
0.381171901
 40
0.4132138351
 40
0.4452016153
 40
0.4771149773
 40
0.5089351086
 40
0.5406450291
 40
0.5722299455
 40
0.6036775713
 40
0.6349784071
 40
0.6661259735
 40
0.6971169887
 40
0.7279514858
 40
0.7586328627
 40
0.7891678581
 40
0.8195664525
 40
0.8498416892
 40
0.8800094177
 40
0.9100879614
 40
0.9400977171
 40
0.9700606929
 40
1.0
 40
1.0
 40
1.0
 40
1.0
 10
12.906811582
 20
9.5064904487
 30
0.0
 10
12.9001836343
 20
9.5069500985
 30
0.0
 10
12.886923838
 20
9.5083568043
 30
0.0
 10
12.8671949038
 20
9.5119003176
 30
0.0
 10
12.847677272
 20
9.5168637447
 30
0.0
 10
12.8284763861
 20
9.523220367
 30
0.0
 10
12.8096942319
 20
9.5309361233
 30
0.0
 10
12.7914310035
 20
9.5399697415
 30
0.0
 10
12.7737839919
 20
9.550272943
 30
0.0
 10
12.7568472315
 20
9.5617907173
 30
0.0
 10
12.7407109615
 20
9.5744616046
 30
0.0
 10
12.7254611632
 20
9.5882180259
 30
0.0
 10
12.7111791034
 20
9.6029866385
 30
0.0
 10
12.6979409068
 20
9.618688724
 30
0.0
 10
12.6858171538
 20
9.6352406039
 30
0.0
 10
12.6748725081
 20
9.6525540806
 30
0.0
 10
12.6651653741
 20
9.6705369022
 30
0.0
 10
12.656747588
 20
9.6890932488
 30
0.0
 10
12.649664142
 20
9.7081242363
 30
0.0
 10
12.6439529441
 20
9.7275284366
 30
0.0
 10
12.6396446149
 20
9.7472024112
 30
0.0
 10
12.6367623207
 20
9.7670412548
 30
0.0
 10
12.635321645
 20
9.7869391477
 30
0.0
 10
12.6353304989
 20
9.8067899128
 30
0.0
 10
12.6367890695
 20
9.8264875763
 30
0.0
 10
12.6396898084
 20
9.8459269295
 30
0.0
 10
12.6440174593
 20
9.8650040875
 30
0.0
 10
12.6497491282
 20
9.8836170472
 30
0.0
 10
12.6568543834
 20
9.9016662281
 30
0.0
 10
12.6652954404
 20
9.919055045
 30
0.0
 10
12.6750272223
 20
9.9356903119
 30
0.0
 10
12.6859980801
 20
9.9514832132
 30
0.0
 10
12.6981482566
 20
9.9663480884
 30
0.0
 10
12.7069952115
 20
9.9755900861
 30
0.0
 10
12.7115888735
 20
9.9800271959
 30
0.0
  0
SPLINE
  5
342
100
AcDbEntity
  8
0
100
AcDbSpline
 62
7
  6
CONTINUOUS
 70
0
 71
3
 72
39
 73
35
 74
0
 42
0.0000001
 43
0.0000001
 44
0.0000000001
 40
0.0
 40
0.0
 40
0.0
 40
0.0
 40
0.0308884465
 40
0.061907046
 40
0.0930463537
 40
0.1243040112
 40
0.1556720085
 40
0.1871413956
 40
0.2187021373
 40
0.2503427014
 40
0.2820505271
 40
0.313812167
 40
0.3456134386
 40
0.3774396169
 40
0.4092756565
 40
0.4411063894
 40
0.4729167015
 40
0.5046917515
 40
0.5364171858
 40
0.5680793057
 40
0.5996652537
 40
0.6311632244
 40
0.6625626159
 40
0.6938541642
 40
0.7250301181
 40
0.7560843652
 40
0.7870125084
 40
0.8178119571
 40
0.8484820178
 40
0.8790239025
 40
0.9094407177
 40
0.939737475
 40
0.9699210356
 40
1.0
 40
1.0
 40
1.0
 40
1.0
 10
11.9308402752
 20
8.9613418449
 30
0.0
 10
11.927784825
 20
8.9615537411
 30
0.0
 10
11.9216723509
 20
8.9621640764
 30
0.0
 10
11.9125580712
 20
8.963629591
 30
0.0
 10
11.9035109542
 20
8.965642057
 30
0.0
 10
11.8945650094
 20
8.9681937049
 30
0.0
 10
11.8857528461
 20
8.9712752744
 30
0.0
 10
11.8771069834
 20
8.9748753088
 30
0.0
 10
11.8686592238
 20
8.9789805148
 30
0.0
 10
11.8604406855
 20
8.9835758299
 30
0.0
 10
11.8524815874
 20
8.9886442561
 30
0.0
 10
11.8448112024
 20
8.9941671065
 30
0.0
 10
11.8374577872
 20
9.0001240857
 30
0.0
 10
11.8304484086
 20
9.0064932593
 30
0.0
 10
11.8238088246
 20
9.0132511379
 30
0.0
 10
11.8175634802
 20
9.0203728608
 30
0.0
 10
11.8117354156
 20
9.0278322565
 30
0.0
 10
11.8063460457
 20
9.0356018347
 30
0.0
 10
11.8014151992
 20
9.0436529958
 30
0.0
 10
11.7969610856
 20
9.0519561405
 30
0.0
 10
11.79300013
 20
9.0604807129
 30
0.0
 10
11.7895468848
 20
9.0691953173
 30
0.0
 10
11.7866141024
 20
9.0780678901
 30
0.0
 10
11.7842126774
 20
9.0870657904
 30
0.0
 10
11.7823514355
 20
9.096155876
 30
0.0
 10
11.7810372492
 20
9.1053046785
 30
0.0
 10
11.7802750557
 20
9.1144785147
 30
0.0
 10
11.7800677231
 20
9.1236435895
 30
0.0
 10
11.7804160038
 20
9.1327661319
 30
0.0
 10
11.7813186824
 20
9.1418125357
 30
0.0
 10
11.782772538
 20
9.150749409
 30
0.0
 10
11.7847722578
 20
9.1595439191
 30
0.0
 10
11.7873103026
 20
9.1681631971
 30
0.0
 10
11.7893588425
 20
9.1737815511
 30
0.0
 10
11.7904693081
 20
9.1765496393
 30
0.0
  0
SPLINE
  5
343
100
AcDbEntity
  8
0
100
AcDbSpline
 62
7
  6
CONTINUOUS
 70
0
 71
3
 72
15
 73
11
 74
0
 42
0.0000001
 43
0.0000001
 44
0.0000000001
 40
0.0
 40
0.0
 40
0.0
 40
0.0
 40
0.1264815869
 40
0.25253796
 40
0.3781414508
 40
0.5033115594
 40
0.6280647667
 40
0.7524151657
 40
0.8763847486
 40
1.0
 40
1.0
 40
1.0
 40
1.0
 10
11.9308402752
 20
8.9613418449
 30
0.0
 10
11.9333856118
 20
8.9611653252
 30
0.0
 10
11.9384775792
 20
8.9609411039
 30
0.0
 10
11.9461086162
 20
8.9609933993
 30
0.0
 10
11.9537007759
 20
8.961435128
 30
0.0
 10
11.9612338891
 20
8.9622650531
 30
0.0
 10
11.968688841
 20
8.9634809012
 30
0.0
 10
11.9760464267
 20
8.9650798364
 30
0.0
 10
11.9832874035
 20
8.96705745
 30
0.0
 10
11.9880315734
 20
8.9686273872
 30
0.0
 10
11.9903772363
 20
8.9694735853
 30
0.0
  0
SPLINE
  5
344
100
AcDbEntity
  8
0
100
AcDbSpline
 62
7
  6
CONTINUOUS
 70
0
 71
3
 72
93
 73
89
 74
0
 42
0.0000001
 43
0.0000001
 44
0.0000000001
 40
0.0
 40
0.0
 40
0.0
 40
0.0
 40
0.0038572671
 40
0.0078694957
 40
0.0120399412
 40
0.0163713704
 40
0.0208661407
 40
0.0255261274
 40
0.0303526174
 40
0.0353464901
 40
0.0405082595
 40
0.0458380844
 40
0.0513358656
 40
0.057001171
 40
0.0628333353
 40
0.0688314681
 40
0.0749944254
 40
0.0813209126
 40
0.0878094071
 40
0.094458227
 40
0.1012655463
 40
0.108229344
 40
0.1226175036
 40
0.1376042574
 40
0.1531689484
 40
0.1692891641
 40
0.1859408937
 40
0.2030986559
 40
0.2207356362
 40
0.2388238048
 40
0.2573340189
 40
0.2762361143
 40
0.2954989934
 40
0.3150907245
 40
0.3349786274
 40
0.3551293543
 40
0.3755089661
 40
0.3960830151
 40
0.4168166295
 40
0.43767459
 40
0.4586214059
 40
0.4796213917
 40
0.5006387481
 40
0.5216376398
 40
0.5425822701
 40
0.5634369582
 40
0.5841662202
 40
0.6047348464
 40
0.6251079771
 40
0.6452511794
 40
0.6651305298
 40
0.6847126998
 40
0.7039650313
 40
0.7228556174
 40
0.7413533876
 40
0.7594282059
 40
0.7770509627
 40
0.7941936642
 40
0.8108295359
 40
0.8269331383
 40
0.842480506
 40
0.8574492785
 40
0.8718188563
 40
0.8787731586
 40
0.8855708557
 40
0.892209935
 40
0.898688584
 40
0.905005126
 40
0.9111580541
 40
0.9171460831
 40
0.9229680794
 40
0.9286231723
 40
0.9341107072
 40
0.9394302728
 40
0.9445817812
 40
0.9495654035
 40
0.9543816914
 40
0.9590315652
 40
0.9635163429
 40
0.9678378599
 40
0.9719984305
 40
0.9760009913
 40
0.9798491441
 40
0.9835472093
 40
0.9871003933
 40
0.9905148014
 40
0.9937976027
 40
1.0
 40
1.0
 40
1.0
 40
1.0
 10
13.6905022153
 20
7.2529235137
 30
0.0
 10
13.6921535691
 20
7.2545185991
 30
0.0
 10
13.6954546623
 20
7.2578438219
 30
0.0
 10
13.70030789
 20
7.2631187692
 30
0.0
 10
13.7051565027
 20
7.2687751703
 30
0.0
 10
13.7099980912
 20
7.2748102436
 30
0.0
 10
13.7148306398
 20
7.2812212859
 30
0.0
 10
13.7196519938
 20
7.2880055208
 30
0.0
 10
13.7244600974
 20
7.2951598927
 30
0.0
 10
13.7292527489
 20
7.3026811997
 30
0.0
 10
13.7340277639
 20
7.3105660582
 30
0.0
 10
13.7387830544
 20
7.3188108914
 30
0.0
 10
13.7435164058
 20
7.327412019
 30
0.0
 10
13.7482257346
 20
7.3363655373
 30
0.0
 10
13.7529088912
 20
7.3456674085
 30
0.0
 10
13.75756372
 20
7.3553134358
 30
0.0
 10
13.7621881692
 20
7.3652992347
 30
0.0
 10
13.7667800736
 20
7.3756203041
 30
0.0
 10
13.7713373891
 20
7.3862719549
 30
0.0
 10
13.775858037
 20
7.3972493578
 30
0.0
 10
13.7803399436
 20
7.4085475532
 30
0.0
 10
13.7863266658
 20
7.4242032697
 30
0.0
 10
13.7936885524
 20
7.444543605
 30
0.0
 10
13.8022431046
 20
7.469889752
 30
0.0
 10
13.8105956425
 20
7.496386112
 30
0.0
 10
13.8187309161
 20
7.5239845678
 30
0.0
 10
13.826634059
 20
7.552635128
 30
0.0
 10
13.834290648
 20
7.5822858019
 30
0.0
 10
13.8416867077
 20
7.6128827691
 30
0.0
 10
13.848808738
 20
7.644370473
 30
0.0
 10
13.8556437376
 20
7.6766917283
 30
0.0
 10
13.8621792308
 20
7.7097878177
 30
0.0
 10
13.8684033047
 20
7.7435985983
 30
0.0
 10
13.8743046103
 20
7.7780626214
 30
0.0
 10
13.8798723872
 20
7.8131172492
 30
0.0
 10
13.8850964795
 20
7.8486987654
 30
0.0
 10
13.889967366
 20
7.8847424874
 30
0.0
 10
13.8944761789
 20
7.9211828859
 30
0.0
 10
13.8986147053
 20
7.9579537098
 30
0.0
 10
13.9023754067
 20
7.9949881073
 30
0.0
 10
13.9057514283
 20
8.032218745
 30
0.0
 10
13.9087366302
 20
8.0695779289
 30
0.0
 10
13.9113255868
 20
8.1069977308
 30
0.0
 10
13.9135135908
 20
8.1444101135
 30
0.0
 10
13.9152966634
 20
8.1817470524
 30
0.0
 10
13.9166715619
 20
8.2189406601
 30
0.0
 10
13.9176358036
 20
8.2559233112
 30
0.0
 10
13.9181876507
 20
8.2926277667
 30
0.0
 10
13.9183261157
 20
8.328987294
 30
0.0
 10
13.9180509605
 20
8.3649357879
 30
0.0
 10
13.9173627066
 20
8.4004078949
 30
0.0
 10
13.9162626416
 20
8.4353391349
 30
0.0
 10
13.9147527999
 20
8.4696660168
 30
0.0
 10
13.9128359633
 20
8.5033261495
 30
0.0
 10
13.9105156517
 20
8.5362583603
 30
0.0
 10
13.9077961362
 20
8.5684028131
 30
0.0
 10
13.9046824234
 20
8.599701121
 30
0.0
 10
13.9011802377
 20
8.6300964459
 30
0.0
 10
13.8972960144
 20
8.6595336063
 30
0.0
 10
13.893036882
 20
8.6879591727
 30
0.0
 10
13.8884106832
 20
8.7153216379
 30
0.0
 10
13.8834259019
 20
8.7415713015
 30
0.0
 10
13.8789332299
 20
8.76270321
 30
0.0
 10
13.8751578276
 20
8.7790107838
 30
0.0
 10
13.8722733066
 20
8.7908005681
 30
0.0
 10
13.8693062117
 20
8.8022776552
 30
0.0
 10
13.8662579246
 20
8.8134368571
 30
0.0
 10
13.863129826
 20
8.8242731114
 30
0.0
 10
13.8599233072
 20
8.8347815022
 30
0.0
 10
13.8566398892
 20
8.8449572811
 30
0.0
 10
13.853280996
 20
8.8547958305
 30
0.0
 10
13.8498481969
 20
8.8642927096
 30
0.0
 10
13.8463430493
 20
8.8734436301
 30
0.0
 10
13.8427670915
 20
8.882244448
 30
0.0
 10
13.8391220135
 20
8.890691218
 30
0.0
 10
13.8354093856
 20
8.898780118
 30
0.0
 10
13.8316309095
 20
8.9065075237
 30
0.0
 10
13.8277882906
 20
8.9138699783
 30
0.0
 10
13.8238831689
 20
8.9208641565
 30
0.0
 10
13.8199173534
 20
8.9274869718
 30
0.0
 10
13.8158925081
 20
8.9337354372
 30
0.0
 10
13.8118103935
 20
8.9396067785
 30
0.0
 10
13.8076728019
 20
8.945098392
 30
0.0
 10
13.8034813463
 20
8.9502077997
 30
0.0
 10
13.7992380145
 20
8.9549326356
 30
0.0
 10
13.7949439097
 20
8.9592711449
 30
0.0
 10
13.7892625656
 20
8.9644386782
 30
0.0
 10
13.7847691564
 20
8.9678872807
 30
0.0
 10
13.7816946843
 20
8.9699310415
 30
0.0
  0
SPLINE
  5
345
100
AcDbEntity
  8
0
100
AcDbSpline
 62
7
  6
CONTINUOUS
 70
0
 71
3
 72
13
 73
9
 74
0
 42
0.0000001
 43
0.0000001
 44
0.0000000001
 40
0.0
 40
0.0
 40
0.0
 40
0.0
 40
0.2727895581
 40
0.4031303748
 40
0.529592616
 40
0.6523308299
 40
0.7715216381
 40
1.0
 40
1.0
 40
1.0
 40
1.0
 10
13.6905022153
 20
7.2529235137
 30
0.0
 10
13.6881173891
 20
7.2506199483
 30
0.0
 10
13.6844882965
 20
7.2473204623
 30
0.0
 10
13.6794994349
 20
7.2432508854
 30
0.0
 10
13.6758170246
 20
7.240470157
 30
0.0
 10
13.6721379895
 20
7.2379153081
 30
0.0
 10
13.6673073901
 20
7.2348545514
 30
0.0
 10
13.663588768
 20
7.2328298166
 30
0.0
 10
13.6610849774
 20
7.2316284364
 30
0.0
  0
SPLINE
  5
346
100
AcDbEntity
  8
0
100
AcDbSpline
 62
7
  6
CONTINUOUS
 70
0
 71
3
 72
29
 73
25
 74
0
 42
0.0000001
 43
0.0000001
 44
0.0000000001
 40
0.0
 40
0.0
 40
0.0
 40
0.0
 40
0.0755834508
 40
0.1466143766
 40
0.2134288661
 40
0.276466894
 40
0.3362688683
 40
0.3651660349
 40
0.3935048357
 40
0.4213819932
 40
0.4488995811
 40
0.4761640121
 40
0.503285
 40
0.5303741755
 40
0.5575435382
 40
0.5849040657
 40
0.6125642367
 40
0.6406286281
 40
0.669197009
 40
0.7281928892
 40
0.7902531596
 40
0.8559467672
 40
0.9257383265
 40
1.0
 40
1.0
 40
1.0
 40
1.0
 10
13.6905022153
 20
7.5909975729
 30
0.0
 10
13.6890291977
 20
7.5895747471
 30
0.0
 10
13.6860851026
 20
7.5869022384
 30
0.0
 10
13.681528864
 20
7.5833319333
 30
0.0
 10
13.6769778371
 20
7.5803333631
 30
0.0
 10
13.6724367551
 20
7.5779111548
 30
0.0
 10
13.6686198032
 20
7.5763589404
 30
0.0
 10
13.6655881911
 20
7.5754229963
 30
0.0
 10
13.6633465692
 20
7.5748749192
 30
0.0
 10
13.6611121243
 20
7.5744730765
 30
0.0
 10
13.6588854782
 20
7.5742176041
 30
0.0
 10
13.6566673442
 20
7.574108674
 30
0.0
 10
13.6544584408
 20
7.5741463987
 30
0.0
 10
13.6522594989
 20
7.5743307267
 30
0.0
 10
13.6500712399
 20
7.5746615839
 30
0.0
 10
13.6478943808
 20
7.5751388848
 30
0.0
 10
13.6457296366
 20
7.5757624191
 30
0.0
 10
13.6435776034
 20
7.5765319224
 30
0.0
 10
13.6406956703
 20
7.5777650439
 30
0.0
 10
13.6371164585
 20
7.5796891726
 30
0.0
 10
13.6329338059
 20
7.5825516953
 30
0.0
 10
13.62882011
 20
7.5859878323
 30
0.0
 10
13.6247790944
 20
7.5899922008
 30
0.0
 10
13.6222179906
 20
7.5929426672
 30
0.0
 10
13.6209483827
 20
7.5945037241
 30
0.0
  0
SPLINE
  5
347
100
AcDbEntity
  8
0
100
AcDbSpline
 62
7
  6
CONTINUOUS
 70
0
 71
3
 72
18
 73
14
 74
0
 42
0.0000001
 43
0.0000001
 44
0.0000000001
 40
0.0
 40
0.0
 40
0.0
 40
0.0
 40
0.1504628633
 40
0.2917097873
 40
0.4244376118
 40
0.5495625604
 40
0.6682134617
 40
0.7255496497
 40
0.781791328
 40
0.8371402905
 40
0.8918094119
 40
0.9460201127
 40
1.0
 40
1.0
 40
1.0
 40
1.0
 10
13.6325466623
 20
7.6529723572
 30
0.0
 10
13.6312179628
 20
7.6516889319
 30
0.0
 10
13.628562343
 20
7.6492808518
 30
0.0
 10
13.6244501944
 20
7.6460715707
 30
0.0
 10
13.6203427865
 20
7.6433875365
 30
0.0
 10
13.6162445378
 20
7.6412330902
 30
0.0
 10
13.6127999923
 20
7.6398670143
 30
0.0
 10
13.610065192
 20
7.6390552902
 30
0.0
 10
13.6080431999
 20
7.6385874693
 30
0.0
 10
13.606027925
 20
7.6382540457
 30
0.0
 10
13.6040199277
 20
7.6380551231
 30
0.0
 10
13.6020200016
 20
7.637990826
 30
0.0
 10
13.600691309
 20
7.6380378374
 30
0.0
 10
13.6000301519
 20
7.6380836946
 30
0.0
  0
SPLINE
  5
348
100
AcDbEntity
  8
0
100
AcDbSpline
 62
7
  6
CONTINUOUS
 70
0
 71
3
 72
58
 73
54
 74
0
 42
0.0000001
 43
0.0000001
 44
0.0000000001
 40
0.0
 40
0.0
 40
0.0
 40
0.0
 40
0.0155854844
 40
0.0311196403
 40
0.0466005755
 40
0.0620308599
 40
0.0774122449
 40
0.0927468034
 40
0.1080373713
 40
0.1232871554
 40
0.1384997637
 40
0.1536792046
 40
0.1688298363
 40
0.1839563165
 40
0.1990635543
 40
0.2141566695
 40
0.2292409315
 40
0.2443216988
 40
0.2594043731
 40
0.2744943359
 40
0.2895968847
 40
0.3047171883
 40
0.3198602278
 40
0.3350307364
 40
0.3502331638
 40
0.3654716272
 40
0.3807498606
 40
0.3960711943
 40
0.4114385192
 40
0.4268542499
 40
0.442320323
 40
0.4578381746
 40
0.4734087203
 40
0.489032372
 40
0.5047090272
 40
0.5204380676
 40
0.5362183903
 40
0.552048408
 40
0.5679260649
 40
0.5838488782
 40
0.6158092217
 40
0.6479107196
 40
0.6801207192
 40
0.7124027466
 40
0.744717809
 40
0.7770257632
 40
0.8092867128
 40
0.8414624004
 40
0.8735175558
 40
0.905421173
 40
0.9371477211
 40
0.9686776645
 40
1.0
 40
1.0
 40
1.0
 40
1.0
 10
11.6385510296
 20
9.6224566074
 30
0.0
 10
11.6385510296
 20
9.6259115057
 30
0.0
 10
11.6387201627
 20
9.6328111474
 30
0.0
 10
11.639483335
 20
9.6431171015
 30
0.0
 10
11.6407540489
 20
9.6533384881
 30
0.0
 10
11.6425291295
 20
9.66345004
 30
0.0
 10
11.6448042805
 20
9.6734277215
 30
0.0
 10
11.6475741136
 20
9.6832474093
 30
0.0
 10
11.6508319996
 20
9.6928853951
 30
0.0
 10
11.6545700231
 20
9.7023184833
 30
0.0
 10
11.6587792395
 20
9.7115239095
 30
0.0
 10
11.6634495582
 20
9.7204794444
 30
0.0
 10
11.6685696478
 20
9.7291635315
 30
0.0
 10
11.6741272283
 20
9.7375551947
 30
0.0
 10
11.6801089302
 20
9.7456341668
 30
0.0
 10
11.6865002609
 20
9.7533810129
 30
0.0
 10
11.6932858688
 20
9.7607770002
 30
0.0
 10
11.7004493936
 20
9.7678042752
 30
0.0
 10
11.7079734998
 20
9.7744459496
 30
0.0
 10
11.7158400947
 20
9.7806859439
 30
0.0
 10
11.7240301894
 20
9.7865092171
 30
0.0
 10
11.7325239858
 20
9.7919017931
 30
0.0
 10
11.7413010435
 20
9.796850599
 30
0.0
 10
11.7503401686
 20
9.8013437384
 30
0.0
 10
11.7596195344
 20
9.8053704468
 30
0.0
 10
11.7691167986
 20
9.8089209436
 30
0.0
 10
11.7788090343
 20
9.811986735
 30
0.0
 10
11.7886728622
 20
9.8145604949
 30
0.0
 10
11.7986845251
 20
9.8166359469
 30
0.0
 10
11.8088198711
 20
9.8182081787
 30
0.0
 10
11.8190544736
 20
9.8192734532
 30
0.0
 10
11.8293636773
 20
9.8198291334
 30
0.0
 10
11.8397226355
 20
9.8198739863
 30
0.0
 10
11.8501063982
 20
9.8194079379
 30
0.0
 10
11.8604899488
 20
9.8184320455
 30
0.0
 10
11.8708482811
 20
9.8169487756
 30
0.0
 10
11.8811564745
 20
9.8149617044
 30
0.0
 10
11.8913896196
 20
9.8124755955
 30
0.0
 10
11.9015233689
 20
9.8094964221
 30
0.0
 10
11.9148840216
 20
9.8048716281
 30
0.0
 10
11.9312138494
 20
9.7978920502
 30
0.0
 10
11.9499980291
 20
9.7877005
 30
0.0
 10
11.9678210608
 20
9.775778491
 30
0.0
 10
11.9845107255
 20
9.7622410411
 30
0.0
 10
11.9999072299
 20
9.7472181374
 30
0.0
 10
12.0138627549
 20
9.7308540792
 30
0.0
 10
12.0262432635
 20
9.7133058546
 30
0.0
 10
12.0369297204
 20
9.6947418331
 30
0.0
 10
12.0458193114
 20
9.6753400893
 30
0.0
 10
12.0528262712
 20
9.655286952
 30
0.0
 10
12.057882683
 20
9.6347742407
 30
0.0
 10
12.0609395691
 20
9.6140015534
 30
0.0
 10
12.0616265665
 20
9.60005957
 30
0.0
 10
12.0616265665
 20
9.5931162193
 30
0.0
  0
SPLINE
  5
349
100
AcDbEntity
  8
0
100
AcDbSpline
 62
7
  6
CONTINUOUS
 70
0
 71
3
 72
99
 73
95
 74
0
 42
0.0000001
 43
0.0000001
 44
0.0000000001
 40
0.0
 40
0.0
 40
0.0
 40
0.0
 40
0.0042066581
 40
0.0086074139
 40
0.013206717
 40
0.0180082181
 40
0.0230148978
 40
0.0282289916
 40
0.0336518419
 40
0.0392841993
 40
0.0451262624
 40
0.051177715
 40
0.0574378687
 40
0.0639055408
 40
0.070579235
 40
0.0774571146
 40
0.0845369932
 40
0.0918164747
 40
0.1069627314
 40
0.1228718424
 40
0.1395158823
 40
0.15686386
 40
0.1748820664
 40
0.1935343511
 40
0.2127823594
 40
0.2325857334
 40
0.2529023072
 40
0.2736883032
 40
0.2948985016
 40
0.3164864004
 40
0.3384043642
 40
0.3606037839
 40
0.3830352355
 40
0.4056486269
 40
0.4283933422
 40
0.4512183859
 40
0.4740725358
 40
0.4969044889
 40
0.5196630048
 40
0.5422970486
 40
0.5647559431
 40
0.5869895174
 40
0.60894825
 40
0.6305834154
 40
0.6518472348
 40
0.6726930428
 40
0.693075439
 40
0.7129504441
 40
0.732275667
 40
0.7510104889
 40
0.7691162729
 40
0.7865565606
 40
0.8032973021
 40
0.819307124
 40
0.8270291124
 40
0.834558018
 40
0.8418908155
 40
0.8490247227
 40
0.8559572609
 40
0.8626861541
 40
0.8692095051
 40
0.8755256986
 40
0.8816334723
 40
0.8875320107
 40
0.8932208524
 40
0.8987000957
 40
0.9039703378
 40
0.9090327702
 40
0.9138893272
 40
0.9185426403
 40
0.9229962976
 40
0.9272548661
 40
0.9313240532
 40
0.9352109466
 40
0.9389240693
 40
0.9424737052
 40
0.9458720146
 40
0.9491332209
 40
0.9522738043
 40
0.9553124625
 40
0.9582701181
 40
0.9611696352
 40
0.9640354074
 40
0.9668927823
 40
0.9697673451
 40
0.9726841926
 40
0.975667257
 40
0.9787387808
 40
0.9819188913
 40
0.9852255235
 40
0.9886744084
 40
0.9922791613
 40
0.9960512821
 40
1.0
 40
1.0
 40
1.0
 40
1.0
 10
13.6905022153
 20
7.5909975729
 30
0.0
 10
13.6916467404
 20
7.5921030993
 30
0.0
 10
13.6939342803
 20
7.594421936
 30
0.0
 10
13.6972873148
 20
7.5981270364
 30
0.0
 10
13.700636127
 20
7.6021338998
 30
0.0
 10
13.7039785492
 20
7.6064399489
 30
0.0
 10
13.7073127671
 20
7.6110426603
 30
0.0
 10
13.7106368223
 20
7.6159394164
 30
0.0
 10
13.7139488609
 20
7.6211273188
 30
0.0
 10
13.7172468724
 20
7.6266033221
 30
0.0
 10
13.7205288889
 20
7.6323641824
 30
0.0
 10
13.7237930167
 20
7.6384064689
 30
0.0
 10
13.7270372458
 20
7.6447266303
 30
0.0
 10
13.7302597081
 20
7.6513208895
 30
0.0
 10
13.7334584471
 20
7.6581853369
 30
0.0
 10
13.7366315325
 20
7.6653158858
 30
0.0
 10
13.7397771368
 20
7.6727082822
 30
0.0
 10
13.7439877696
 20
7.6830451508
 30
0.0
 10
13.7491589862
 20
7.6965950317
 30
0.0
 10
13.755146094
 20
7.7136180937
 30
0.0
 10
13.7609797078
 20
7.7315720774
 30
0.0
 10
13.7666457919
 20
7.7504141051
 30
0.0
 10
13.7721307072
 20
7.7700992994
 30
0.0
 10
13.7774212508
 20
7.7905806797
 30
0.0
 10
13.7825046851
 20
7.8118093446
 30
0.0
 10
13.7873687793
 20
7.8337345681
 30
0.0
 10
13.7920018426
 20
7.8563039328
 30
0.0
 10
13.7963927372
 20
7.8794634665
 30
0.0
 10
13.8005309098
 20
7.9031577776
 30
0.0
 10
13.8044064117
 20
7.9273301849
 30
0.0
 10
13.8080099358
 20
7.9519228504
 30
0.0
 10
13.8113328365
 20
7.9768769215
 30
0.0
 10
13.814367139
 20
8.0021326783
 30
0.0
 10
13.817105562
 20
8.0276296774
 30
0.0
 10
13.819541531
 20
8.0533068946
 30
0.0
 10
13.8216692093
 20
8.0791028695
 30
0.0
 10
13.823483505
 20
8.1049558564
 30
0.0
 10
13.8249800758
 20
8.1308039741
 30
0.0
 10
13.8261553413
 20
8.1565853526
 30
0.0
 10
13.827006489
 20
8.1822382812
 30
0.0
 10
13.8275314988
 20
8.2077013586
 30
0.0
 10
13.827729136
 20
8.232913642
 30
0.0
 10
13.8275989499
 20
8.2578147916
 30
0.0
 10
13.827141277
 20
8.2823452132
 30
0.0
 10
13.8263572387
 20
8.3064462052
 30
0.0
 10
13.8252487578
 20
8.3300601039
 30
0.0
 10
13.8238185379
 20
8.3531304231
 30
0.0
 10
13.8220700571
 20
8.3756019861
 30
0.0
 10
13.8200075596
 20
8.3974210574
 30
0.0
 10
13.8176360475
 20
8.418535486
 30
0.0
 10
13.814961285
 20
8.4388948255
 30
0.0
 10
13.8119897763
 20
8.4584505111
 30
0.0
 10
13.8087287118
 20
8.4771557898
 30
0.0
 10
13.8057417153
 20
8.4921730484
 30
0.0
 10
13.8032056358
 20
8.503723301
 30
0.0
 10
13.8012591001
 20
8.5120416811
 30
0.0
 10
13.7992463725
 20
8.5201152282
 30
0.0
 10
13.7971686192
 20
8.5279391291
 30
0.0
 10
13.7950271476
 20
8.5355087214
 30
0.0
 10
13.7928231717
 20
8.5428194841
 30
0.0
 10
13.7905580655
 20
8.5498670704
 30
0.0
 10
13.7882331697
 20
8.5566472868
 30
0.0
 10
13.7858498408
 20
8.5631560951
 30
0.0
 10
13.7834095669
 20
8.5693896492
 30
0.0
 10
13.7809137208
 20
8.5753442367
 30
0.0
 10
13.7783638364
 20
8.5810163522
 30
0.0
 10
13.775761407
 20
8.5864026509
 30
0.0
 10
13.773107912
 20
8.5914999454
 30
0.0
 10
13.7704049726
 20
8.5963052797
 30
0.0
 10
13.7676540535
 20
8.6008158056
 30
0.0
 10
13.7648567701
 20
8.6050289159
 30
0.0
 10
13.7620146765
 20
8.6089421578
 30
0.0
 10
13.7591292657
 20
8.612553203
 30
0.0
 10
13.7562021631
 20
8.6158599868
 30
0.0
 10
13.7532347926
 20
8.6188604537
 30
0.0
 10
13.7502287097
 20
8.6215527778
 30
0.0
 10
13.7471854111
 20
8.6239352018
 30
0.0
 10
13.7441063612
 20
8.6260059435
 30
0.0
 10
13.7409932332
 20
8.6277634635
 30
0.0
 10
13.7378476815
 20
8.6292060426
 30
0.0
 10
13.7346716904
 20
8.6303322318
 30
0.0
 10
13.7314674619
 20
8.631140724
 30
0.0
 10
13.7282374617
 20
8.6316303749
 30
0.0
 10
13.724984409
 20
8.6318007434
 30
0.0
 10
13.7217110682
 20
8.6316515809
 30
0.0
 10
13.7184201594
 20
8.631183351
 30
0.0
 10
13.7151141899
 20
8.6303968766
 30
0.0
 10
13.7117954926
 20
8.6292931533
 30
0.0
 10
13.7084660836
 20
8.6278736296
 30
0.0
 10
13.7051278826
 20
8.6261395704
 30
0.0
 10
13.7017826131
 20
8.6240924243
 30
0.0
 10
13.6984319271
 20
8.6217336279
 30
0.0
 10
13.6950777921
 20
8.6190648558
 30
0.0
 10
13.6928918323
 20
8.6171257599
 30
0.0
 10
13.6917983949
 20
8.616108157
 30
0.0
  0
SPLINE
  5
34A
100
AcDbEntity
  8
0
100
AcDbSpline
 62
7
  6
CONTINUOUS
 70
0
 71
3
 72
23
 73
19
 74
0
 42
0.0000001
 43
0.0000001
 44
0.0000000001
 40
0.0
 40
0.0
 40
0.0
 40
0.0
 40
0.0616482008
 40
0.1233194316
 40
0.1850364675
 40
0.2468215573
 40
0.3086962009
 40
0.3706809199
 40
0.43279501
 40
0.4950563329
 40
0.5574811898
 40
0.6200840976
 40
0.6828775607
 40
0.7458724522
 40
0.8090769387
 40
0.8724963729
 40
0.9361396553
 40
1.0
 40
1.0
 40
1.0
 40
1.0
 10
13.1020342905
 20
9.5758040481
 30
0.0
 10
13.0988809048
 20
9.57275813
 30
0.0
 10
13.0924076959
 20
9.5668336166
 30
0.0
 10
13.0822323959
 20
9.5584797642
 30
0.0
 10
13.0716152253
 20
9.5506781156
 30
0.0
 10
13.0605833135
 20
9.5434486617
 30
0.0
 10
13.0491643979
 20
9.5368094607
 30
0.0
 10
13.0373872666
 20
9.5307772637
 30
0.0
 10
13.0252815678
 20
9.5253672917
 30
0.0
 10
13.0128778377
 20
9.5205930838
 30
0.0
 10
13.0002073227
 20
9.5164666278
 30
0.0
 10
12.9873019241
 20
9.5129983546
 30
0.0
 10
12.9741941513
 20
9.5101969108
 30
0.0
 10
12.9609170103
 20
9.508069308
 30
0.0
 10
12.9475040243
 20
9.5066209051
 30
0.0
 10
12.933988587
 20
9.5058552354
 30
0.0
 10
12.9204054875
 20
9.5057743569
 30
0.0
 10
12.9113422491
 20
9.5061762459
 30
0.0
 10
12.906811582
 20
9.5064904487
 30
0.0
  0
SPLINE
  5
34B
100
AcDbEntity
  8
0
100
AcDbSpline
 62
7
  6
CONTINUOUS
 70
0
 71
3
 72
58
 73
54
 74
0
 42
0.0000001
 43
0.0000001
 44
0.0000000001
 40
0.0
 40
0.0
 40
0.0
 40
0.0
 40
0.0155854844
 40
0.0311196403
 40
0.0466005755
 40
0.0620308599
 40
0.0774122449
 40
0.0927468034
 40
0.1080373713
 40
0.1232871554
 40
0.1384997637
 40
0.1536792046
 40
0.1688298363
 40
0.1839563165
 40
0.1990635543
 40
0.2141566695
 40
0.2292409315
 40
0.2443216988
 40
0.2594043731
 40
0.2744943359
 40
0.2895968847
 40
0.3047171883
 40
0.3198602278
 40
0.3350307364
 40
0.3502331638
 40
0.3654716272
 40
0.3807498606
 40
0.3960711943
 40
0.4114385192
 40
0.4268542499
 40
0.442320323
 40
0.4578381746
 40
0.4734087203
 40
0.489032372
 40
0.5047090272
 40
0.5204380676
 40
0.5362183903
 40
0.552048408
 40
0.5679260649
 40
0.5838488782
 40
0.6158092217
 40
0.6479107196
 40
0.6801207192
 40
0.7124027466
 40
0.744717809
 40
0.7770257632
 40
0.8092867128
 40
0.8414624004
 40
0.8735175558
 40
0.905421173
 40
0.9371477211
 40
0.9686776645
 40
1.0
 40
1.0
 40
1.0
 40
1.0
 10
12.0616265665
 20
9.5931162193
 30
0.0
 10
12.0616265665
 20
9.5896613209
 30
0.0
 10
12.0614574334
 20
9.5827616793
 30
0.0
 10
12.0606942611
 20
9.5724557252
 30
0.0
 10
12.0594235472
 20
9.5622343386
 30
0.0
 10
12.0576484666
 20
9.5521227866
 30
0.0
 10
12.0553733156
 20
9.5421451051
 30
0.0
 10
12.0526034825
 20
9.5323254174
 30
0.0
 10
12.0493455965
 20
9.5226874316
 30
0.0
 10
12.045607573
 20
9.5132543434
 30
0.0
 10
12.0413983566
 20
9.5040489172
 30
0.0
 10
12.0367280379
 20
9.4950933822
 30
0.0
 10
12.0316079483
 20
9.4864092951
 30
0.0
 10
12.0260503678
 20
9.478017632
 30
0.0
 10
12.020068666
 20
9.4699386599
 30
0.0
 10
12.0136773353
 20
9.4621918137
 30
0.0
 10
12.0068917273
 20
9.4547958265
 30
0.0
 10
11.9997282025
 20
9.4477685515
 30
0.0
 10
11.9922040963
 20
9.4411268771
 30
0.0
 10
11.9843375014
 20
9.4348868828
 30
0.0
 10
11.9761474068
 20
9.4290636096
 30
0.0
 10
11.9676536103
 20
9.4236710336
 30
0.0
 10
11.9588765526
 20
9.4187222277
 30
0.0
 10
11.9498374276
 20
9.4142290883
 30
0.0
 10
11.9405580617
 20
9.4102023799
 30
0.0
 10
11.9310607976
 20
9.4066518831
 30
0.0
 10
11.9213685619
 20
9.4035860917
 30
0.0
 10
11.9115047339
 20
9.4010123318
 30
0.0
 10
11.901493071
 20
9.3989368798
 30
0.0
 10
11.891357725
 20
9.397364648
 30
0.0
 10
11.8811231225
 20
9.3962993734
 30
0.0
 10
11.8708139188
 20
9.3957436933
 30
0.0
 10
11.8604549606
 20
9.3956988403
 30
0.0
 10
11.8500711979
 20
9.3961648888
 30
0.0
 10
11.8396876473
 20
9.3971407812
 30
0.0
 10
11.829329315
 20
9.398624051
 30
0.0
 10
11.8190211216
 20
9.4006111223
 30
0.0
 10
11.8087879766
 20
9.4030972311
 30
0.0
 10
11.7986542272
 20
9.4060764046
 30
0.0
 10
11.7852935745
 20
9.4107011986
 30
0.0
 10
11.7689637468
 20
9.4176807765
 30
0.0
 10
11.750179567
 20
9.4278723267
 30
0.0
 10
11.7323565353
 20
9.4397943357
 30
0.0
 10
11.7156668706
 20
9.4533317856
 30
0.0
 10
11.7002703662
 20
9.4683546892
 30
0.0
 10
11.6863148412
 20
9.4847187475
 30
0.0
 10
11.6739343326
 20
9.5022669721
 30
0.0
 10
11.6632478757
 20
9.5208309935
 30
0.0
 10
11.6543582847
 20
9.5402327374
 30
0.0
 10
11.6473513249
 20
9.5602858747
 30
0.0
 10
11.6422949132
 20
9.5807985859
 30
0.0
 10
11.639238027
 20
9.6015712733
 30
0.0
 10
11.6385510296
 20
9.6155132567
 30
0.0
 10
11.6385510296
 20
9.6224566074
 30
0.0
  0
SPLINE
  5
34C
100
AcDbEntity
  8
0
100
AcDbSpline
 62
7
  6
CONTINUOUS
 70
0
 71
3
 72
88
 73
84
 74
0
 42
0.0000001
 43
0.0000001
 44
0.0000000001
 40
0.0
 40
0.0
 40
0.0
 40
0.0
 40
0.0039882954
 40
0.0081452658
 40
0.0124745524
 40
0.0169791537
 40
0.0216615932
 40
0.0265238861
 40
0.0315674654
 40
0.0367931399
 40
0.0422013475
 40
0.0477921292
 40
0.0535651407
 40
0.0595197929
 40
0.065655156
 40
0.0719700042
 40
0.0851318791
 40
0.0989916447
 40
0.1135319479
 40
0.1287326679
 40
0.144571162
 40
0.1610226029
 40
0.1780602018
 40
0.1956553223
 40
0.213777682
 40
0.2323955367
 40
0.2514757638
 40
0.270983979
 40
0.2908847054
 40
0.3111414625
 40
0.3317168399
 40
0.352572649
 40
0.3736700205
 40
0.3949694746
 40
0.4164310454
 40
0.459678157
 40
0.5030862958
 40
0.5247487836
 40
0.5463288407
 40
0.5677858332
 40
0.5890794112
 40
0.6101696266
 40
0.631017034
 40
0.6515827656
 40
0.6718286489
 40
0.6917173326
 40
0.7112123517
 40
0.7302782367
 40
0.7488806786
 40
0.7669866002
 40
0.7845642598
 40
0.8015834498
 40
0.8180156215
 40
0.8338339997
 40
0.8490138184
 40
0.8635325681
 40
0.8773701788
 40
0.8905093523
 40
0.9029360355
 40
0.908879047
 40
0.9146403857
 40
0.9202194135
 40
0.9256158849
 40
0.9308298398
 40
0.9358617278
 40
0.940712488
 40
0.9453834754
 40
0.9498766334
 40
0.9541945526
 40
0.958340452
 40
0.9623183985
 40
0.9661333564
 40
0.9697912422
 40
0.9732991738
 40
0.9766655199
 40
0.9799000109
 40
0.9830139588
 40
0.9860202582
 40
0.9889334458
 40
0.9917697279
 40
0.9945467873
 40
0.9972835803
 40
1.0
 40
1.0
 40
1.0
 40
1.0
 10
13.6325466623
 20
7.6529723572
 30
0.0
 10
13.6334752269
 20
7.6538692818
 30
0.0
 10
13.6353313602
 20
7.6557431303
 30
0.0
 10
13.6380573806
 20
7.6587233501
 30
0.0
 10
13.6407805876
 20
7.6619287763
 30
0.0
 10
13.6434994076
 20
7.6653576753
 30
0.0
 10
13.6462125884
 20
7.6690082985
 30
0.0
 10
13.6489188218
 20
7.6728788984
 30
0.0
 10
13.6516167899
 20
7.6769676009
 30
0.0
 10
13.6543052088
 20
7.681272352
 30
0.0
 10
13.6569826904
 20
7.6857910251
 30
0.0
 10
13.6596478851
 20
7.6905213665
 30
0.0
 10
13.6622995099
 20
7.695460996
 30
0.0
 10
13.6649361911
 20
7.7006074723
 30
0.0
 10
13.6675566388
 20
7.7059582243
 30
0.0
 10
13.6710758267
 20
7.7134652403
 30
0.0
 10
13.6754168736
 20
7.7233466081
 30
0.0
 10
13.6804714522
 20
7.7358163107
 30
0.0
 10
13.6854304958
 20
7.7490315357
 30
0.0
 10
13.6902839719
 20
7.7629658073
 30
0.0
 10
13.6950221027
 20
7.7775912994
 30
0.0
 10
13.6996353156
 20
7.7928787211
 30
0.0
 10
13.7041142643
 20
7.8087974471
 30
0.0
 10
13.7084499087
 20
7.8253155416
 30
0.0
 10
13.7126335017
 20
7.8423998441
 30
0.0
 10
13.7166565769
 20
7.8600160538
 30
0.0
 10
13.7205110031
 20
7.8781287843
 30
0.0
 10
13.7241890188
 20
7.8967016325
 30
0.0
 10
13.7276831939
 20
7.9156972713
 30
0.0
 10
13.7309864592
 20
7.9350775205
 30
0.0
 10
13.7340921701
 20
7.954803411
 30
0.0
 10
13.7369940671
 20
7.9748352807
 30
0.0
 10
13.7396862736
 20
7.995132845
 30
0.0
 10
13.7421633929
 20
8.0156553117
 30
0.0
 10
13.7451802515
 20
8.043332694
 30
0.0
 10
13.7483768146
 20
8.0781869673
 30
0.0
 10
13.7507966225
 20
8.1131689015
 30
0.0
 10
13.752260976
 20
8.1411799402
 30
0.0
 10
13.7531180809
 20
8.1621060781
 30
0.0
 10
13.7537330729
 20
8.1829212459
 30
0.0
 10
13.7541046866
 20
8.2035836108
 30
0.0
 10
13.7542321983
 20
8.2240516094
 30
0.0
 10
13.7541153762
 20
8.2442840816
 30
0.0
 10
13.7537544574
 20
8.2642403383
 30
0.0
 10
13.7531501801
 20
8.2838802508
 30
0.0
 10
13.7523038018
 20
8.3031643328
 30
0.0
 10
13.7512170461
 20
8.322053814
 30
0.0
 10
13.7498921086
 20
8.3405107225
 30
0.0
 10
13.7483317091
 20
8.3584979688
 30
0.0
 10
13.7465390298
 20
8.3759794147
 30
0.0
 10
13.7445176972
 20
8.3929199439
 30
0.0
 10
13.7422718358
 20
8.4092855486
 30
0.0
 10
13.7398060329
 20
8.4250433982
 30
0.0
 10
13.7371252905
 20
8.4401618948
 30
0.0
 10
13.7342350556
 20
8.454610763
 30
0.0
 10
13.7311412311
 20
8.468361106
 30
0.0
 10
13.727850101
 20
8.4813855273
 30
0.0
 10
13.7243683027
 20
8.4936579459
 30
0.0
 10
13.7212694869
 20
8.503377544
 30
0.0
 10
13.7186926145
 20
8.5107518902
 30
0.0
 10
13.716745483
 20
8.5159971464
 30
0.0
 10
13.7147560459
 20
8.5210367958
 30
0.0
 10
13.7127253329
 20
8.5258683539
 30
0.0
 10
13.7106543297
 20
8.5304894043
 30
0.0
 10
13.7085440434
 20
8.5348976418
 30
0.0
 10
13.7063955729
 20
8.5390909055
 30
0.0
 10
13.7042099255
 20
8.5430671008
 30
0.0
 10
13.7019881652
 20
8.5468242616
 30
0.0
 10
13.6997314145
 20
8.5503605665
 30
0.0
 10
13.6974406875
 20
8.55367424
 30
0.0
 10
13.6951170816
 20
8.5567636601
 30
0.0
 10
13.6927617078
 20
8.5596273319
 30
0.0
 10
13.6903755639
 20
8.5622637736
 30
0.0
 10
13.6879597525
 20
8.5646716799
 30
0.0
 10
13.6855153459
 20
8.5668498212
 30
0.0
 10
13.6830433336
 20
8.568796933
 30
0.0
 10
13.6805448421
 20
8.5705119423
 30
0.0
 10
13.6780209735
 20
8.5719937676
 30
0.0
 10
13.6754728519
 20
8.573241276
 30
0.0
 10
13.6729018294
 20
8.5742535761
 30
0.0
 10
13.6703092178
 20
8.5750297552
 30
0.0
 10
13.6676968482
 20
8.5755689776
 30
0.0
 10
13.6659403693
 20
8.5757705087
 30
0.0
 10
13.6650631727
 20
8.5758313502
 30
0.0
  0
SPLINE
  5
34D
100
AcDbEntity
  8
0
100
AcDbSpline
 62
7
  6
CONTINUOUS
 70
0
 71
3
 72
23
 73
19
 74
0
 42
0.0000001
 43
0.0000001
 44
0.0000000001
 40
0.0
 40
0.0
 40
0.0
 40
0.0
 40
0.0616482008
 40
0.1233194316
 40
0.1850364675
 40
0.2468215573
 40
0.3086962009
 40
0.3706809199
 40
0.43279501
 40
0.4950563329
 40
0.5574811898
 40
0.6200840976
 40
0.6828775607
 40
0.7458724522
 40
0.8090769387
 40
0.8724963729
 40
0.9361396553
 40
1.0
 40
1.0
 40
1.0
 40
1.0
 10
8.5119545744
 20
6.269973325
 30
0.0
 10
8.5088011888
 20
6.266927407
 30
0.0
 10
8.5023279798
 20
6.2610028936
 30
0.0
 10
8.4921526798
 20
6.2526490411
 30
0.0
 10
8.4815355093
 20
6.2448473925
 30
0.0
 10
8.4705035974
 20
6.2376179387
 30
0.0
 10
8.4590846818
 20
6.2309787377
 30
0.0
 10
8.4473075505
 20
6.2249465406
 30
0.0
 10
8.4352018518
 20
6.2195365686
 30
0.0
 10
8.4227981217
 20
6.2147623607
 30
0.0
 10
8.4101276066
 20
6.2106359048
 30
0.0
 10
8.397222208
 20
6.2071676315
 30
0.0
 10
8.3841144353
 20
6.2043661878
 30
0.0
 10
8.3708372943
 20
6.202238585
 30
0.0
 10
8.3574243082
 20
6.2007901821
 30
0.0
 10
8.343908871
 20
6.2000245124
 30
0.0
 10
8.3303257714
 20
6.1999436338
 30
0.0
 10
8.3212625331
 20
6.2003455228
 30
0.0
 10
8.3167318659
 20
6.2006597257
 30
0.0
  0
SPLINE
  5
34E
100
AcDbEntity
  8
0
100
AcDbSpline
 62
7
  6
CONTINUOUS
 70
0
 71
3
 72
41
 73
37
 74
0
 42
0.0000001
 43
0.0000001
 44
0.0000000001
 40
0.0
 40
0.0
 40
0.0
 40
0.0
 40
0.0299421784
 40
0.0599087324
 40
0.0899234444
 40
0.1200089282
 40
0.1501860905
 40
0.1804736447
 40
0.2108876904
 40
0.2414413672
 40
0.2721445903
 40
0.3030038709
 40
0.3340222199
 40
0.3651991352
 40
0.3965306652
 40
0.4280095447
 40
0.4596253948
 40
0.4913649808
 40
0.5232125186
 40
0.555150024
 40
0.5871576955
 40
0.6192143243
 40
0.6512977253
 40
0.6833851811
 40
0.7154538941
 40
0.7314766015
 40
0.7474862705
 40
0.7794510416
 40
0.8113326875
 40
0.8272388964
 40
0.8431174873
 40
0.8747789169
 40
0.9063078234
 40
0.9376925705
 40
0.968925236
 40
1.0
 40
1.0
 40
1.0
 40
1.0
 10
9.5109708959
 20
9.6587225108
 30
0.0
 10
9.5079681784
 20
9.655822084
 30
0.0
 10
9.5017265875
 20
9.6502553522
 30
0.0
 10
9.4917266252
 20
9.6426716306
 30
0.0
 10
9.4811401549
 20
9.6358922861
 30
0.0
 10
9.4700263413
 20
9.6299553363
 30
0.0
 10
9.4584462838
 20
9.6248932193
 30
0.0
 10
9.4464638923
 20
9.6207337607
 30
0.0
 10
9.4341451964
 20
9.6174997189
 30
0.0
 10
9.4215580633
 20
9.6152087504
 30
0.0
 10
9.4087717953
 20
9.6138732998
 30
0.0
 10
9.3958567527
 20
9.6135005468
 30
0.0
 10
9.3828839648
 20
9.614092375
 30
0.0
 10
9.3699247423
 20
9.6156453697
 30
0.0
 10
9.3570502885
 20
9.6181508448
 30
0.0
 10
9.3443313127
 20
9.6215948959
 30
0.0
 10
9.3318376473
 20
9.6259584815
 30
0.0
 10
9.3196378691
 20
9.6312175292
 30
0.0
 10
9.3077989283
 20
9.6373430717
 30
0.0
 10
9.2963857878
 20
9.6443014036
 30
0.0
 10
9.2854610645
 20
9.6520542772
 30
0.0
 10
9.2750847166
 20
9.6605590717
 30
0.0
 10
9.2653136207
 20
9.6697691718
 30
0.0
 10
9.2562016264
 20
9.679633677
 30
0.0
 10
9.2491962773
 20
9.6883581766
 30
0.0
 10
9.2439695911
 20
9.6956099439
 30
0.0
 10
9.2390059355
 20
9.7030268247
 30
0.0
 10
9.2332991744
 20
9.7125984543
 30
0.0
 10
9.2282814253
 20
9.7225325771
 30
0.0
 10
9.224702063
 20
9.7306576092
 30
0.0
 10
9.2214228496
 20
9.7388752423
 30
0.0
 10
9.2178823116
 20
9.7493263266
 30
0.0
 10
9.2145499115
 20
9.7620960965
 30
0.0
 10
9.2121554315
 20
9.775014368
 30
0.0
 10
9.2107124099
 20
9.7880088289
 30
0.0
 10
9.2103891801
 20
9.7966995697
 30
0.0
 10
9.2103891801
 20
9.8010322639
 30
0.0
  0
SPLINE
  5
34F
100
AcDbEntity
  8
0
100
AcDbSpline
 62
7
  6
CONTINUOUS
 70
0
 71
3
 72
41
 73
37
 74
0
 42
0.0000001
 43
0.0000001
 44
0.0000000001
 40
0.0
 40
0.0
 40
0.0
 40
0.0
 40
0.0299421784
 40
0.0599087324
 40
0.0899234444
 40
0.1200089282
 40
0.1501860905
 40
0.1804736447
 40
0.2108876904
 40
0.2414413672
 40
0.2721445903
 40
0.3030038709
 40
0.3340222199
 40
0.3651991352
 40
0.3965306652
 40
0.4280095447
 40
0.4596253948
 40
0.4913649808
 40
0.5232125186
 40
0.555150024
 40
0.5871576955
 40
0.6192143243
 40
0.6512977253
 40
0.6833851811
 40
0.7154538941
 40
0.7314766015
 40
0.7474862705
 40
0.7794510416
 40
0.8113326875
 40
0.8272388964
 40
0.8431174873
 40
0.8747789169
 40
0.9063078234
 40
0.9376925705
 40
0.968925236
 40
1.0
 40
1.0
 40
1.0
 40
1.0
 10
11.9856730445
 20
9.4871013339
 30
0.0
 10
11.9826703269
 20
9.4842009071
 30
0.0
 10
11.976428736
 20
9.4786341752
 30
0.0
 10
11.9664287738
 20
9.4710504537
 30
0.0
 10
11.9558423035
 20
9.4642711092
 30
0.0
 10
11.9447284899
 20
9.4583341594
 30
0.0
 10
11.9331484324
 20
9.4532720424
 30
0.0
 10
11.9211660409
 20
9.4491125838
 30
0.0
 10
11.908847345
 20
9.445878542
 30
0.0
 10
11.8962602119
 20
9.4435875735
 30
0.0
 10
11.8834739439
 20
9.4422521228
 30
0.0
 10
11.8705589012
 20
9.4418793699
 30
0.0
 10
11.8575861134
 20
9.442471198
 30
0.0
 10
11.8446268909
 20
9.4440241928
 30
0.0
 10
11.8317524371
 20
9.4465296679
 30
0.0
 10
11.8190334613
 20
9.449973719
 30
0.0
 10
11.8065397959
 20
9.4543373046
 30
0.0
 10
11.7943400177
 20
9.4595963523
 30
0.0
 10
11.7825010769
 20
9.4657218948
 30
0.0
 10
11.7710879364
 20
9.4726802267
 30
0.0
 10
11.7601632131
 20
9.4804331003
 30
0.0
 10
11.7497868652
 20
9.4889378948
 30
0.0
 10
11.7400157692
 20
9.4981479949
 30
0.0
 10
11.730903775
 20
9.5080125001
 30
0.0
 10
11.7238984259
 20
9.5167369997
 30
0.0
 10
11.7186717397
 20
9.523988767
 30
0.0
 10
11.7137080841
 20
9.5314056477
 30
0.0
 10
11.708001323
 20
9.5409772774
 30
0.0
 10
11.7029835739
 20
9.5509114002
 30
0.0
 10
11.6994042116
 20
9.5590364323
 30
0.0
 10
11.6961249982
 20
9.5672540654
 30
0.0
 10
11.6925844602
 20
9.5777051497
 30
0.0
 10
11.6892520601
 20
9.5904749196
 30
0.0
 10
11.6868575801
 20
9.6033931911
 30
0.0
 10
11.6854145585
 20
9.616387652
 30
0.0
 10
11.6850913287
 20
9.6250783928
 30
0.0
 10
11.6850913287
 20
9.629411087
 30
0.0
  0
SPLINE
  5
350
100
AcDbEntity
  8
0
100
AcDbSpline
 62
7
  6
CONTINUOUS
 70
0
 71
3
 72
58
 73
54
 74
0
 42
0.0000001
 43
0.0000001
 44
0.0000000001
 40
0.0
 40
0.0
 40
0.0
 40
0.0
 40
0.0155854844
 40
0.0311196403
 40
0.0466005755
 40
0.0620308599
 40
0.0774122449
 40
0.0927468034
 40
0.1080373713
 40
0.1232871554
 40
0.1384997637
 40
0.1536792046
 40
0.1688298363
 40
0.1839563165
 40
0.1990635543
 40
0.2141566695
 40
0.2292409315
 40
0.2443216988
 40
0.2594043731
 40
0.2744943359
 40
0.2895968847
 40
0.3047171883
 40
0.3198602278
 40
0.3350307364
 40
0.3502331638
 40
0.3654716272
 40
0.3807498606
 40
0.3960711943
 40
0.4114385192
 40
0.4268542499
 40
0.442320323
 40
0.4578381746
 40
0.4734087203
 40
0.489032372
 40
0.5047090272
 40
0.5204380676
 40
0.5362183903
 40
0.552048408
 40
0.5679260649
 40
0.5838488782
 40
0.6158092217
 40
0.6479107196
 40
0.6801207192
 40
0.7124027466
 40
0.744717809
 40
0.7770257632
 40
0.8092867128
 40
0.8414624004
 40
0.8735175558
 40
0.905421173
 40
0.9371477211
 40
0.9686776645
 40
1.0
 40
1.0
 40
1.0
 40
1.0
 10
9.2237362056
 20
6.7105527874
 30
0.0
 10
9.2237362056
 20
6.7140076858
 30
0.0
 10
9.2239053387
 20
6.7209073274
 30
0.0
 10
9.2246685111
 20
6.7312132815
 30
0.0
 10
9.225939225
 20
6.7414346681
 30
0.0
 10
9.2277143056
 20
6.7515462201
 30
0.0
 10
9.2299894566
 20
6.7615239016
 30
0.0
 10
9.2327592896
 20
6.7713435893
 30
0.0
 10
9.2360171756
 20
6.7809815751
 30
0.0
 10
9.2397551992
 20
6.7904146633
 30
0.0
 10
9.2439644156
 20
6.7996200895
 30
0.0
 10
9.2486347342
 20
6.8085756245
 30
0.0
 10
9.2537548239
 20
6.8172597116
 30
0.0
 10
9.2593124043
 20
6.8256513747
 30
0.0
 10
9.2652941062
 20
6.8337303468
 30
0.0
 10
9.2716854369
 20
6.841477193
 30
0.0
 10
9.2784710448
 20
6.8488731802
 30
0.0
 10
9.2856345697
 20
6.8559004552
 30
0.0
 10
9.2931586758
 20
6.8625421296
 30
0.0
 10
9.3010252707
 20
6.8687821239
 30
0.0
 10
9.3092153654
 20
6.8746053971
 30
0.0
 10
9.3177091618
 20
6.8799979731
 30
0.0
 10
9.3264862196
 20
6.884946779
 30
0.0
 10
9.3355253446
 20
6.8894399184
 30
0.0
 10
9.3448047105
 20
6.8934666268
 30
0.0
 10
9.3543019746
 20
6.8970171236
 30
0.0
 10
9.3639942103
 20
6.900082915
 30
0.0
 10
9.3738580383
 20
6.9026566749
 30
0.0
 10
9.3838697012
 20
6.9047321269
 30
0.0
 10
9.3940050472
 20
6.9063043587
 30
0.0
 10
9.4042396497
 20
6.9073696333
 30
0.0
 10
9.4145488534
 20
6.9079253134
 30
0.0
 10
9.4249078115
 20
6.9079701664
 30
0.0
 10
9.4352915742
 20
6.9075041179
 30
0.0
 10
9.4456751249
 20
6.9065282255
 30
0.0
 10
9.4560334571
 20
6.9050449557
 30
0.0
 10
9.4663416505
 20
6.9030578844
 30
0.0
 10
9.4765747956
 20
6.9005717756
 30
0.0
 10
9.4867085449
 20
6.8975926021
 30
0.0
 10
9.5000691977
 20
6.8929678081
 30
0.0
 10
9.5163990254
 20
6.8859882302
 30
0.0
 10
9.5351832052
 20
6.87579668
 30
0.0
 10
9.5530062368
 20
6.863874671
 30
0.0
 10
9.5696959016
 20
6.8503372211
 30
0.0
 10
9.585092406
 20
6.8353143175
 30
0.0
 10
9.599047931
 20
6.8189502592
 30
0.0
 10
9.6114284396
 20
6.8014020346
 30
0.0
 10
9.6221148964
 20
6.7828380132
 30
0.0
 10
9.6310044874
 20
6.7634362693
 30
0.0
 10
9.6380114473
 20
6.743383132
 30
0.0
 10
9.643067859
 20
6.7228704208
 30
0.0
 10
9.6461247452
 20
6.7020977334
 30
0.0
 10
9.6468117426
 20
6.68815575
 30
0.0
 10
9.6468117426
 20
6.6812123993
 30
0.0
  0
SPLINE
  5
351
100
AcDbEntity
  8
0
100
AcDbSpline
 62
7
  6
CONTINUOUS
 70
0
 71
3
 72
41
 73
37
 74
0
 42
0.0000001
 43
0.0000001
 44
0.0000000001
 40
0.0
 40
0.0
 40
0.0
 40
0.0
 40
0.0299421784
 40
0.0599087324
 40
0.0899234444
 40
0.1200089282
 40
0.1501860905
 40
0.1804736447
 40
0.2108876904
 40
0.2414413672
 40
0.2721445903
 40
0.3030038709
 40
0.3340222199
 40
0.3651991352
 40
0.3965306652
 40
0.4280095447
 40
0.4596253948
 40
0.4913649808
 40
0.5232125186
 40
0.555150024
 40
0.5871576955
 40
0.6192143243
 40
0.6512977253
 40
0.6833851811
 40
0.7154538941
 40
0.7314766015
 40
0.7474862705
 40
0.7794510416
 40
0.8113326875
 40
0.8272388964
 40
0.8431174873
 40
0.8747789169
 40
0.9063078234
 40
0.9376925705
 40
0.968925236
 40
1.0
 40
1.0
 40
1.0
 40
1.0
 10
9.5708582206
 20
6.5751975139
 30
0.0
 10
9.567855503
 20
6.5722970871
 30
0.0
 10
9.5616139121
 20
6.5667303553
 30
0.0
 10
9.5516139498
 20
6.5591466337
 30
0.0
 10
9.5410274796
 20
6.5523672893
 30
0.0
 10
9.5299136659
 20
6.5464303394
 30
0.0
 10
9.5183336084
 20
6.5413682224
 30
0.0
 10
9.5063512169
 20
6.5372087639
 30
0.0
 10
9.494032521
 20
6.533974722
 30
0.0
 10
9.4814453879
 20
6.5316837535
 30
0.0
 10
9.4686591199
 20
6.5303483029
 30
0.0
 10
9.4557440773
 20
6.52997555
 30
0.0
 10
9.4427712894
 20
6.5305673781
 30
0.0
 10
9.4298120669
 20
6.5321203728
 30
0.0
 10
9.4169376131
 20
6.5346258479
 30
0.0
 10
9.4042186373
 20
6.538069899
 30
0.0
 10
9.3917249719
 20
6.5424334846
 30
0.0
 10
9.3795251938
 20
6.5476925323
 30
0.0
 10
9.367686253
 20
6.5538180748
 30
0.0
 10
9.3562731124
 20
6.5607764068
 30
0.0
 10
9.3453483892
 20
6.5685292803
 30
0.0
 10
9.3349720412
 20
6.5770340748
 30
0.0
 10
9.3252009453
 20
6.586244175
 30
0.0
 10
9.3160889511
 20
6.5961086801
 30
0.0
 10
9.3090836019
 20
6.6048331798
 30
0.0
 10
9.3038569157
 20
6.612084947
 30
0.0
 10
9.2988932602
 20
6.6195018278
 30
0.0
 10
9.293186499
 20
6.6290734574
 30
0.0
 10
9.2881687499
 20
6.6390075802
 30
0.0
 10
9.2845893876
 20
6.6471326123
 30
0.0
 10
9.2813101743
 20
6.6553502454
 30
0.0
 10
9.2777696362
 20
6.6658013297
 30
0.0
 10
9.2744372361
 20
6.6785710996
 30
0.0
 10
9.2720427561
 20
6.6914893711
 30
0.0
 10
9.2705997346
 20
6.704483832
 30
0.0
 10
9.2702765048
 20
6.7131745728
 30
0.0
 10
9.2702765048
 20
6.717507267
 30
0.0
  0
SPLINE
  5
352
100
AcDbEntity
  8
0
100
AcDbSpline
 62
7
  6
CONTINUOUS
 70
0
 71
3
 72
41
 73
37
 74
0
 42
0.0000001
 43
0.0000001
 44
0.0000000001
 40
0.0
 40
0.0
 40
0.0
 40
0.0
 40
0.0299421784
 40
0.0599087324
 40
0.0899234444
 40
0.1200089282
 40
0.1501860905
 40
0.1804736447
 40
0.2108876904
 40
0.2414413672
 40
0.2721445903
 40
0.3030038709
 40
0.3340222199
 40
0.3651991352
 40
0.3965306652
 40
0.4280095447
 40
0.4596253948
 40
0.4913649808
 40
0.5232125186
 40
0.555150024
 40
0.5871576955
 40
0.6192143243
 40
0.6512977253
 40
0.6833851811
 40
0.7154538941
 40
0.7314766015
 40
0.7474862705
 40
0.7794510416
 40
0.8113326875
 40
0.8272388964
 40
0.8431174873
 40
0.8747789169
 40
0.9063078234
 40
0.9376925705
 40
0.968925236
 40
1.0
 40
1.0
 40
1.0
 40
1.0
 10
11.9257853744
 20
6.4118827611
 30
0.0
 10
11.9227826569
 20
6.4089823343
 30
0.0
 10
11.916541066
 20
6.4034156025
 30
0.0
 10
11.9065411037
 20
6.3958318809
 30
0.0
 10
11.8959546335
 20
6.3890525364
 30
0.0
 10
11.8848408198
 20
6.3831155866
 30
0.0
 10
11.8732607623
 20
6.3780534696
 30
0.0
 10
11.8612783708
 20
6.373894011
 30
0.0
 10
11.8489596749
 20
6.3706599692
 30
0.0
 10
11.8363725418
 20
6.3683690007
 30
0.0
 10
11.8235862738
 20
6.3670335501
 30
0.0
 10
11.8106712312
 20
6.3666607971
 30
0.0
 10
11.7976984433
 20
6.3672526253
 30
0.0
 10
11.7847392208
 20
6.36880562
 30
0.0
 10
11.771864767
 20
6.3713110951
 30
0.0
 10
11.7591457912
 20
6.3747551462
 30
0.0
 10
11.7466521258
 20
6.3791187318
 30
0.0
 10
11.7344523476
 20
6.3843777795
 30
0.0
 10
11.7226134068
 20
6.390503322
 30
0.0
 10
11.7112002663
 20
6.397461654
 30
0.0
 10
11.7002755431
 20
6.4052145275
 30
0.0
 10
11.6898991951
 20
6.413719322
 30
0.0
 10
11.6801280992
 20
6.4229294221
 30
0.0
 10
11.671016105
 20
6.4327939273
 30
0.0
 10
11.6640107558
 20
6.441518427
 30
0.0
 10
11.6587840696
 20
6.4487701942
 30
0.0
 10
11.6538204141
 20
6.456187075
 30
0.0
 10
11.6481136529
 20
6.4657587046
 30
0.0
 10
11.6430959038
 20
6.4756928274
 30
0.0
 10
11.6395165415
 20
6.4838178595
 30
0.0
 10
11.6362373281
 20
6.4920354926
 30
0.0
 10
11.6326967901
 20
6.5024865769
 30
0.0
 10
11.62936439
 20
6.5152563468
 30
0.0
 10
11.62696991
 20
6.5281746183
 30
0.0
 10
11.6255268884
 20
6.5411690792
 30
0.0
 10
11.6252036587
 20
6.54985982
 30
0.0
 10
11.6252036587
 20
6.5541925142
 30
0.0
  0
SPLINE
  5
353
100
AcDbEntity
  8
0
100
AcDbSpline
 62
7
  6
CONTINUOUS
 70
0
 71
3
 72
29
 73
25
 74
0
 42
0.0000001
 43
0.0000001
 44
0.0000000001
 40
0.0
 40
0.0
 40
0.0
 40
0.0
 40
0.0222195472
 40
0.0454013838
 40
0.0695205013
 40
0.0945493594
 40
0.1204576992
 40
0.1472131349
 40
0.1747811384
 40
0.2031252187
 40
0.2322072504
 40
0.2619873075
 40
0.2924241423
 40
0.3234750015
 40
0.3872407635
 40
0.452920954
 40
0.5201356869
 40
0.5884932779
 40
0.6575933765
 40
0.7270300501
 40
0.7963948524
 40
0.8652798788
 40
0.9332808146
 40
1.0
 40
1.0
 40
1.0
 40
1.0
 10
11.4029035268
 20
7.9587032335
 30
0.0
 10
11.4041285689
 20
7.961624491
 30
0.0
 10
11.4065547787
 20
7.9676260158
 30
0.0
 10
11.4100562362
 20
7.976898887
 30
0.0
 10
11.4134928241
 20
7.9866218388
 30
0.0
 10
11.4168590221
 20
7.9967796259
 30
0.0
 10
11.4201495997
 20
8.0073563871
 30
0.0
 10
11.4233593391
 20
8.018335576
 30
0.0
 10
11.426483185
 20
8.0297000097
 30
0.0
 10
11.4295162494
 20
8.0414318871
 30
0.0
 10
11.4324537035
 20
8.0535128344
 30
0.0
 10
11.4352909788
 20
8.0659239098
 30
0.0
 10
11.4380235776
 20
8.0786456763
 30
0.0
 10
11.4415529101
 20
8.0961505464
 30
0.0
 10
11.4456630171
 20
8.1186619238
 30
0.0
 10
11.4500718279
 20
8.1463522135
 30
0.0
 10
11.453971937
 20
8.1747795819
 30
0.0
 10
11.4573387458
 20
8.2037657924
 30
0.0
 10
11.460151014
 20
8.2331292283
 30
0.0
 10
11.4623910457
 20
8.262685832
 30
0.0
 10
11.4640447851
 20
8.2922503154
 30
0.0
 10
11.4651019026
 20
8.3216374028
 30
0.0
 10
11.4655558633
 20
8.3506627043
 30
0.0
 10
11.4654534281
 20
8.3698705213
 30
0.0
 10
11.4652971608
 20
8.3793810401
 30
0.0
  0
SPLINE
  5
354
100
AcDbEntity
  8
0
100
AcDbSpline
 62
7
  6
CONTINUOUS
 70
0
 71
3
 72
37
 73
33
 74
0
 42
0.0000001
 43
0.0000001
 44
0.0000000001
 40
0.0
 40
0.0
 40
0.0
 40
0.0
 40
0.0311191577
 40
0.0621654222
 40
0.0931451528
 40
0.1240648366
 40
0.1549310088
 40
0.1857504564
 40
0.2165300695
 40
0.2472770298
 40
0.3086869855
 40
0.3700587396
 40
0.4007606588
 40
0.4314802612
 40
0.4622275557
 40
0.4930131841
 40
0.5238485858
 40
0.5547457514
 40
0.5857171269
 40
0.6167757229
 40
0.6479349034
 40
0.6792080579
 40
0.7106081557
 40
0.7421472507
 40
0.7738358323
 40
0.8056819909
 40
0.8376904884
 40
0.8698618481
 40
0.9021914587
 40
0.9346692958
 40
0.9672789942
 40
1.0
 40
1.0
 40
1.0
 40
1.0
 10
10.3681501099
 20
8.9679746244
 30
0.0
 10
10.36973344
 20
8.9730180619
 30
0.0
 10
10.3731248234
 20
8.9830230143
 30
0.0
 10
10.3788725659
 20
8.9977697946
 30
0.0
 10
10.3852568344
 20
9.0122156242
 30
0.0
 10
10.3922605867
 20
9.0263371856
 30
0.0
 10
10.3998679761
 20
9.0401118703
 30
0.0
 10
10.408064159
 20
9.0535165813
 30
0.0
 10
10.4168355507
 20
9.0665281737
 30
0.0
 10
10.4292726093
 20
9.0833107997
 30
0.0
 10
10.4462020398
 20
9.1031985469
 30
0.0
 10
10.4648898489
 20
9.1214374699
 30
0.0
 10
10.4808286952
 20
9.1349030681
 30
0.0
 10
10.4932734027
 20
9.1444142455
 30
0.0
 10
10.5061906833
 20
9.1532981467
 30
0.0
 10
10.5195649292
 20
9.1615164991
 30
0.0
 10
10.5333780671
 20
9.1690279718
 30
0.0
 10
10.5476093957
 20
9.1757884211
 30
0.0
 10
10.5622346683
 20
9.1817507982
 30
0.0
 10
10.5772252714
 20
9.186865341
 30
0.0
 10
10.5925472769
 20
9.1910798396
 30
0.0
 10
10.6081603484
 20
9.1943401769
 30
0.0
 10
10.6240165918
 20
9.1965912216
 30
0.0
 10
10.6400594424
 20
9.1977781343
 30
0.0
 10
10.6562226913
 20
9.1978481258
 30
0.0
 10
10.6724297946
 20
9.1967527265
 30
0.0
 10
10.6885936698
 20
9.1944505604
 30
0.0
 10
10.7046172443
 20
9.190910421
 30
0.0
 10
10.7203948365
 20
9.186114636
 30
0.0
 10
10.7358150265
 20
9.1800616311
 30
0.0
 10
10.7507625812
 20
9.1727695562
 30
0.0
 10
10.7603267077
 20
9.1671130745
 30
0.0
 10
10.7649939979
 20
9.1640947356
 30
0.0
  0
SPLINE
  5
355
100
AcDbEntity
  8
0
100
AcDbSpline
 62
7
  6
CONTINUOUS
 70
0
 71
3
 72
56
 73
52
 74
0
 42
0.0000001
 43
0.0000001
 44
0.0000000001
 40
0.0
 40
0.0
 40
0.0
 40
0.0
 40
0.0159348127
 40
0.0319118275
 40
0.0479276311
 40
0.0639784653
 40
0.0961607999
 40
0.1284330997
 40
0.1607594519
 40
0.1931037005
 40
0.225430727
 40
0.2577075034
 40
0.289903828
 40
0.3219928855
 40
0.353951651
 40
0.3857611734
 40
0.4174067577
 40
0.448878085
 40
0.4801693218
 40
0.5112792194
 40
0.5422112066
 40
0.5576164893
 40
0.5729807891
 40
0.58830588
 40
0.6035938553
 40
0.6188470679
 40
0.6340682165
 40
0.6492602433
 40
0.6644263921
 40
0.6795701943
 40
0.6946953832
 40
0.7098059967
 40
0.7249062317
 40
0.7400004855
 40
0.755093349
 40
0.77018946
 40
0.7852935971
 40
0.8004105514
 40
0.815545062
 40
0.8307018611
 40
0.8458855008
 40
0.8611003535
 40
0.8763505918
 40
0.8916400358
 40
0.9069721577
 40
0.9223500523
 40
0.9377764081
 40
0.9532531715
 40
0.9687818753
 40
0.984364853
 40
1.0
 40
1.0
 40
1.0
 40
1.0
 10
11.3425377237
 20
7.9455368104
 30
0.0
 10
11.3388715019
 20
7.9467067126
 30
0.0
 10
11.3315837375
 20
7.9492240935
 30
0.0
 10
11.3208288853
 20
7.9535137372
 30
0.0
 10
11.3102589273
 20
7.9583099325
 30
0.0
 10
11.296434766
 20
7.965366431
 30
0.0
 10
11.2797373713
 20
7.9753831954
 30
0.0
 10
11.2608226877
 20
7.9891647539
 30
0.0
 10
11.2431574552
 20
8.004574722
 30
0.0
 10
11.2268753985
 20
8.021456242
 30
0.0
 10
11.2120904479
 20
8.0396468965
 30
0.0
 10
11.1988994823
 20
8.0589804612
 30
0.0
 10
11.1873831455
 20
8.0792893358
 30
0.0
 10
11.1776074084
 20
8.1004059817
 30
0.0
 10
11.1696249865
 20
8.1221639392
 30
0.0
 10
11.1634766955
 20
8.1443983463
 30
0.0
 10
11.1591926487
 20
8.1669461444
 30
0.0
 10
11.1567932152
 20
8.1896458298
 30
0.0
 10
11.1562898147
 20
8.2123376116
 30
0.0
 10
11.1576848767
 20
8.234861176
 30
0.0
 10
11.1604293153
 20
8.2533881446
 30
0.0
 10
11.1635662914
 20
8.2679594978
 30
0.0
 10
11.1663825435
 20
8.2787333774
 30
0.0
 10
11.1696618173
 20
8.2893456674
 30
0.0
 10
11.1734002103
 20
8.2997766776
 30
0.0
 10
11.1775929371
 20
8.3100064367
 30
0.0
 10
11.1822347205
 20
8.3200149569
 30
0.0
 10
11.187319371
 20
8.3297822941
 30
0.0
 10
11.1928399708
 20
8.3392885048
 30
0.0
 10
11.1987888352
 20
8.3485136319
 30
0.0
 10
11.2051572349
 20
8.3574379094
 30
0.0
 10
11.2119357008
 20
8.36604155
 30
0.0
 10
11.2191136595
 20
8.3743050266
 30
0.0
 10
11.2266795286
 20
8.3822090438
 30
0.0
 10
11.2346207735
 20
8.3897344788
 30
0.0
 10
11.2429235894
 20
8.3968627613
 30
0.0
 10
11.2515731658
 20
8.4035756399
 30
0.0
 10
11.2605535125
 20
8.4098554216
 30
0.0
 10
11.2698473772
 20
8.4156852066
 30
0.0
 10
11.2794364535
 20
8.4210486569
 30
0.0
 10
11.2893011751
 20
8.4259304406
 30
0.0
 10
11.2994208128
 20
8.4303162651
 30
0.0
 10
11.3097736001
 20
8.4341927548
 30
0.0
 10
11.3203366128
 20
8.4375479615
 30
0.0
 10
11.3310859484
 20
8.4403712517
 30
0.0
 10
11.3419968392
 20
8.4426532832
 30
0.0
 10
11.3530436132
 20
8.4443864429
 30
0.0
 10
11.3641998512
 20
8.4455647527
 30
0.0
 10
11.3754389841
 20
8.4461837992
 30
0.0
 10
11.3867329388
 20
8.4462409351
 30
0.0
 10
11.3942684519
 20
8.4459046369
 30
0.0
 10
11.3980353904
 20
8.4456433988
 30
0.0
  0
SPLINE
  5
356
100
AcDbEntity
  8
0
100
AcDbSpline
 62
7
  6
CONTINUOUS
 70
0
 71
3
 72
39
 73
35
 74
0
 42
0.0000001
 43
0.0000001
 44
0.0000000001
 40
0.0
 40
0.0
 40
0.0
 40
0.0
 40
0.0311449443
 40
0.0624431435
 40
0.0938883559
 40
0.1254710082
 40
0.1571789104
 40
0.1889972915
 40
0.2209092118
 40
0.2528958851
 40
0.2849370693
 40
0.3170114641
 40
0.3490971276
 40
0.381171901
 40
0.4132138351
 40
0.4452016153
 40
0.4771149773
 40
0.5089351086
 40
0.5406450291
 40
0.5722299455
 40
0.6036775713
 40
0.6349784071
 40
0.6661259735
 40
0.6971169887
 40
0.7279514858
 40
0.7586328627
 40
0.7891678581
 40
0.8195664525
 40
0.8498416892
 40
0.8800094177
 40
0.9100879614
 40
0.9400977171
 40
0.9700606929
 40
1.0
 40
1.0
 40
1.0
 40
1.0
 10
8.3167318659
 20
6.2006597257
 30
0.0
 10
8.3101039182
 20
6.2011193754
 30
0.0
 10
8.2968441219
 20
6.2025260813
 30
0.0
 10
8.2771151878
 20
6.2060695945
 30
0.0
 10
8.2575975559
 20
6.2110330216
 30
0.0
 10
8.23839667
 20
6.217389644
 30
0.0
 10
8.2196145159
 20
6.2251054002
 30
0.0
 10
8.2013512874
 20
6.2341390184
 30
0.0
 10
8.1837042759
 20
6.24444222
 30
0.0
 10
8.1667675154
 20
6.2559599942
 30
0.0
 10
8.1506312454
 20
6.2686308816
 30
0.0
 10
8.1353814472
 20
6.2823873029
 30
0.0
 10
8.1210993874
 20
6.2971559155
 30
0.0
 10
8.1078611907
 20
6.312858001
 30
0.0
 10
8.0957374378
 20
6.3294098809
 30
0.0
 10
8.084792792
 20
6.3467233575
 30
0.0
 10
8.0750856581
 20
6.3647061792
 30
0.0
 10
8.066667872
 20
6.3832625258
 30
0.0
 10
8.0595844259
 20
6.4022935133
 30
0.0
 10
8.0538732281
 20
6.4216977136
 30
0.0
 10
8.0495648989
 20
6.4413716881
 30
0.0
 10
8.0466826046
 20
6.4612105318
 30
0.0
 10
8.045241929
 20
6.4811084247
 30
0.0
 10
8.0452507829
 20
6.5009591897
 30
0.0
 10
8.0467093534
 20
6.5206568533
 30
0.0
 10
8.0496100924
 20
6.5400962065
 30
0.0
 10
8.0539377432
 20
6.5591733644
 30
0.0
 10
8.0596694122
 20
6.5777863242
 30
0.0
 10
8.0667746674
 20
6.5958355051
 30
0.0
 10
8.0752157243
 20
6.6132243219
 30
0.0
 10
8.0849475063
 20
6.6298595888
 30
0.0
 10
8.095918364
 20
6.6456524901
 30
0.0
 10
8.1080685405
 20
6.6605173653
 30
0.0
 10
8.1169154954
 20
6.6697593631
 30
0.0
 10
8.1215091574
 20
6.6741964728
 30
0.0
  0
SPLINE
  5
357
100
AcDbEntity
  8
0
100
AcDbSpline
 62
7
  6
CONTINUOUS
 70
0
 71
3
 72
97
 73
93
 74
0
 42
0.0000001
 43
0.0000001
 44
0.0000000001
 40
0.0
 40
0.0
 40
0.0
 40
0.0
 40
0.0027164096
 40
0.0054531913
 40
0.0082302366
 40
0.0110665017
 40
0.0139796794
 40
0.0169859575
 40
0.0200998822
 40
0.0233343674
 40
0.026700678
 40
0.0302085934
 40
0.0338664646
 40
0.0376813835
 40
0.0416593171
 40
0.0458051897
 40
0.0501230771
 40
0.0546162141
 40
0.0592871766
 40
0.0641379001
 40
0.0691697666
 40
0.0743836957
 40
0.0797801223
 40
0.0853591396
 40
0.0911204374
 40
0.097063412
 40
0.1031871597
 40
0.109490487
 40
0.1159719923
 40
0.1226299929
 40
0.1294626422
 40
0.1364678594
 40
0.1436433923
 40
0.1509868249
 40
0.1661665846
 40
0.1819848859
 40
0.198416975
 40
0.2154360994
 40
0.2330136912
 40
0.2511195312
 40
0.2697219004
 40
0.2887877147
 40
0.3082826488
 40
0.3281712537
 40
0.3484170673
 40
0.3689827209
 40
0.3898300482
 40
0.4109201891
 40
0.4322136896
 40
0.4536706025
 40
0.475250585
 40
0.4969129978
 40
0.5186170041
 40
0.5403216688
 40
0.5619860553
 40
0.5835693229
 40
0.6050308244
 40
0.6263302052
 40
0.6474275031
 40
0.6682832473
 40
0.6888585573
 40
0.709115244
 40
0.7290159121
 40
0.748524066
 40
0.7676042218
 40
0.7862220168
 40
0.8043443261
 40
0.8219393861
 40
0.8389769284
 40
0.8554283266
 40
0.8712667649
 40
0.8864674231
 40
0.8938215695
 40
0.9010079732
 40
0.9080242208
 40
0.9148680291
 40
0.9215373265
 40
0.9280302349
 40
0.9343450682
 40
0.9404804095
 40
0.9464350378
 40
0.9522080492
 40
0.9577987966
 40
0.9632069712
 40
0.9684326348
 40
0.9734761983
 40
0.9783385373
 40
0.9830209667
 40
0.9875254629
 40
0.9918546305
 40
0.996011585
 40
1.0
 40
1.0
 40
1.0
 40
1.0
 10
13.8132031043
 20
8.9765425761
 30
0.0
 10
13.8148455168
 20
8.9764286798
 30
0.0
 10
13.8181342469
 20
8.9760513626
 30
0.0
 10
13.8230254907
 20
8.975041757
 30
0.0
 10
13.8278797465
 20
8.9735885237
 30
0.0
 10
13.8326935974
 20
8.9716932146
 30
0.0
 10
13.8374645279
 20
8.9693574289
 30
0.0
 10
13.8421900883
 20
8.9665830069
 30
0.0
 10
13.8468681457
 20
8.9633719788
 30
0.0
 10
13.8514965402
 20
8.9597262805
 30
0.0
 10
13.8560733691
 20
8.9556481518
 30
0.0
 10
13.8605965714
 20
8.9511397292
 30
0.0
 10
13.865064227
 20
8.94620342
 30
0.0
 10
13.8694743473
 20
8.9408417153
 30
0.0
 10
13.8738248909
 20
8.9350572631
 30
0.0
 10
13.8781139321
 20
8.9288529693
 30
0.0
 10
13.8823393548
 20
8.9222318328
 30
0.0
 10
13.8864992407
 20
8.9151971617
 30
0.0
 10
13.8905915172
 20
8.9077523894
 30
0.0
 10
13.8946142138
 20
8.8999012034
 30
0.0
 10
13.8985653787
 20
8.891647493
 30
0.0
 10
13.9024429977
 20
8.8829953313
 30
0.0
 10
13.9062452304
 20
8.8739490407
 30
0.0
 10
13.909970096
 20
8.8645131001
 30
0.0
 10
13.9136157999
 20
8.8546922308
 30
0.0
 10
13.9171804828
 20
8.8444913264
 30
0.0
 10
13.9206623492
 20
8.8339154852
 30
0.0
 10
13.924059692
 20
8.8229700032
 30
0.0
 10
13.9273707347
 20
8.8116603509
 30
0.0
 10
13.930593885
 20
8.7999922045
 30
0.0
 10
13.9337274564
 20
8.7879714053
 30
0.0
 10
13.9367699038
 20
8.7756039907
 30
0.0
 10
13.9397197066
 20
8.7628961514
 30
0.0
 10
13.943569715
 20
8.7453125603
 30
0.0
 10
13.9481281134
 20
8.7225237845
 30
0.0
 10
13.9531474078
 20
8.6942169164
 30
0.0
 10
13.9577642556
 20
8.6647128546
 30
0.0
 10
13.9619692748
 20
8.6340708846
 30
0.0
 10
13.9657539001
 20
8.6023524474
 30
0.0
 10
13.9691104323
 20
8.569621235
 30
0.0
 10
13.972032039
 20
8.5359429874
 30
0.0
 10
13.9745127716
 20
8.5013853706
 30
0.0
 10
13.9765475754
 20
8.4660178325
 30
0.0
 10
13.9781322999
 20
8.4299114629
 30
0.0
 10
13.9792637064
 20
8.3931388498
 30
0.0
 10
13.9799394809
 20
8.3557739316
 30
0.0
 10
13.9801582301
 20
8.3178918447
 30
0.0
 10
13.979919485
 20
8.2795687693
 30
0.0
 10
13.9792237007
 20
8.2408817755
 30
0.0
 10
13.9780722554
 20
8.2019086684
 30
0.0
 10
13.9764674469
 20
8.1627278323
 30
0.0
 10
13.9744124941
 20
8.1234180714
 30
0.0
 10
13.9719115265
 20
8.0840584501
 30
0.0
 10
13.9689695729
 20
8.0447281323
 30
0.0
 10
13.9655925525
 20
8.0055062226
 30
0.0
 10
13.9617872625
 20
7.9664716074
 30
0.0
 10
13.9575613638
 20
7.9277027958
 30
0.0
 10
13.9529233697
 20
7.8892777601
 30
0.0
 10
13.9478826303
 20
7.8512737762
 30
0.0
 10
13.9424493082
 20
7.8137672689
 30
0.0
 10
13.9366343595
 20
7.7768336579
 30
0.0
 10
13.9304495116
 20
7.7405472064
 30
0.0
 10
13.9239072407
 20
7.7049808703
 30
0.0
 10
13.9170207456
 20
7.6702061479
 30
0.0
 10
13.9098039299
 20
7.6362929307
 30
0.0
 10
13.9022713656
 20
7.6033093618
 30
0.0
 10
13.8944382654
 20
7.5713216996
 30
0.0
 10
13.8863204523
 20
7.5403941764
 30
0.0
 10
13.8779343277
 20
7.5105888828
 30
0.0
 10
13.8692968348
 20
7.4819655689
 30
0.0
 10
13.8604254344
 20
7.4545817395
 30
0.0
 10
13.8527707792
 20
7.4326051176
 30
0.0
 10
13.8465348244
 20
7.4156922335
 30
0.0
 10
13.8418620646
 20
7.4034909247
 30
0.0
 10
13.8371444102
 20
7.3916391775
 30
0.0
 10
13.8323841669
 20
7.3801429362
 30
0.0
 10
13.8275837544
 20
7.3690079657
 30
0.0
 10
13.8227456009
 20
7.3582398417
 30
0.0
 10
13.8178720916
 20
7.3478439721
 30
0.0
 10
13.8129657431
 20
7.3378255404
 30
0.0
 10
13.8080289423
 20
7.3281895811
 30
0.0
 10
13.8030642286
 20
7.3189408899
 30
0.0
 10
13.798074054
 20
7.3100840926
 30
0.0
 10
13.7930609041
 20
7.3016236041
 30
0.0
 10
13.7880273131
 20
7.2935636136
 30
0.0
 10
13.7829757123
 20
7.285908169
 30
0.0
 10
13.7779087103
 20
7.278661039
 30
0.0
 10
13.7728287185
 20
7.2718258337
 30
0.0
 10
13.7677382158
 20
7.2654058648
 30
0.0
 10
13.7626395727
 20
7.2594042567
 30
0.0
 10
13.7575355054
 20
7.2538242675
 30
0.0
 10
13.7540601215
 20
7.2503157389
 30
0.0
 10
13.7523214733
 20
7.2486363336
 30
0.0
  0
SPLINE
  5
358
100
AcDbEntity
  8
0
100
AcDbSpline
 62
7
  6
CONTINUOUS
 70
0
 71
3
 72
58
 73
54
 74
0
 42
0.0000001
 43
0.0000001
 44
0.0000000001
 40
0.0
 40
0.0
 40
0.0
 40
0.0
 40
0.0155854844
 40
0.0311196403
 40
0.0466005755
 40
0.0620308599
 40
0.0774122449
 40
0.0927468034
 40
0.1080373713
 40
0.1232871554
 40
0.1384997637
 40
0.1536792046
 40
0.1688298363
 40
0.1839563165
 40
0.1990635543
 40
0.2141566695
 40
0.2292409315
 40
0.2443216988
 40
0.2594043731
 40
0.2744943359
 40
0.2895968847
 40
0.3047171883
 40
0.3198602278
 40
0.3350307364
 40
0.3502331638
 40
0.3654716272
 40
0.3807498606
 40
0.3960711943
 40
0.4114385192
 40
0.4268542499
 40
0.442320323
 40
0.4578381746
 40
0.4734087203
 40
0.489032372
 40
0.5047090272
 40
0.5204380676
 40
0.5362183903
 40
0.552048408
 40
0.5679260649
 40
0.5838488782
 40
0.6158092217
 40
0.6479107196
 40
0.6801207192
 40
0.7124027466
 40
0.744717809
 40
0.7770257632
 40
0.8092867128
 40
0.8414624004
 40
0.8735175558
 40
0.905421173
 40
0.9371477211
 40
0.9686776645
 40
1.0
 40
1.0
 40
1.0
 40
1.0
 10
9.6468117426
 20
6.6812123993
 30
0.0
 10
9.6468117426
 20
6.677757501
 30
0.0
 10
9.6466426095
 20
6.6708578593
 30
0.0
 10
9.6458794371
 20
6.6605519052
 30
0.0
 10
9.6446087233
 20
6.6503305186
 30
0.0
 10
9.6428336426
 20
6.6402189667
 30
0.0
 10
9.6405584916
 20
6.6302412852
 30
0.0
 10
9.6377886586
 20
6.6204215974
 30
0.0
 10
9.6345307726
 20
6.6107836116
 30
0.0
 10
9.630792749
 20
6.6013505234
 30
0.0
 10
9.6265835326
 20
6.5921450972
 30
0.0
 10
9.621913214
 20
6.5831895623
 30
0.0
 10
9.6167931243
 20
6.5745054752
 30
0.0
 10
9.6112355439
 20
6.566113812
 30
0.0
 10
9.605253842
 20
6.5580348399
 30
0.0
 10
9.5988625113
 20
6.5502879938
 30
0.0
 10
9.5920769034
 20
6.5428920065
 30
0.0
 10
9.5849133785
 20
6.5358647315
 30
0.0
 10
9.5773892724
 20
6.5292230571
 30
0.0
 10
9.5695226775
 20
6.5229830628
 30
0.0
 10
9.5613325828
 20
6.5171597896
 30
0.0
 10
9.5528387864
 20
6.5117672136
 30
0.0
 10
9.5440617286
 20
6.5068184077
 30
0.0
 10
9.5350226036
 20
6.5023252683
 30
0.0
 10
9.5257432378
 20
6.4982985599
 30
0.0
 10
9.5162459736
 20
6.4947480631
 30
0.0
 10
9.5065537379
 20
6.4916822717
 30
0.0
 10
9.4966899099
 20
6.4891085118
 30
0.0
 10
9.486678247
 20
6.4870330598
 30
0.0
 10
9.476542901
 20
6.485460828
 30
0.0
 10
9.4663082985
 20
6.4843955535
 30
0.0
 10
9.4559990949
 20
6.4838398733
 30
0.0
 10
9.4456401367
 20
6.4837950204
 30
0.0
 10
9.435256374
 20
6.4842610688
 30
0.0
 10
9.4248728233
 20
6.4852369612
 30
0.0
 10
9.4145144911
 20
6.4867202311
 30
0.0
 10
9.4042062977
 20
6.4887073023
 30
0.0
 10
9.3939731526
 20
6.4911934112
 30
0.0
 10
9.3838394033
 20
6.4941725846
 30
0.0
 10
9.3704787505
 20
6.4987973786
 30
0.0
 10
9.3541489228
 20
6.5057769565
 30
0.0
 10
9.3353647431
 20
6.5159685067
 30
0.0
 10
9.3175417114
 20
6.5278905157
 30
0.0
 10
9.3008520466
 20
6.5414279656
 30
0.0
 10
9.2854555422
 20
6.5564508693
 30
0.0
 10
9.2715000173
 20
6.5728149275
 30
0.0
 10
9.2591195086
 20
6.5903631521
 30
0.0
 10
9.2484330518
 20
6.6089271736
 30
0.0
 10
9.2395434608
 20
6.6283289174
 30
0.0
 10
9.2325365009
 20
6.6483820547
 30
0.0
 10
9.2274800892
 20
6.668894766
 30
0.0
 10
9.224423203
 20
6.6896674533
 30
0.0
 10
9.2237362056
 20
6.7036094367
 30
0.0
 10
9.2237362056
 20
6.7105527874
 30
0.0
  0
SPLINE
  5
359
100
AcDbEntity
  8
0
100
AcDbSpline
 62
7
  6
CONTINUOUS
 70
0
 71
3
 72
45
 73
41
 74
0
 42
0.0000001
 43
0.0000001
 44
0.0000000001
 40
0.0
 40
0.0
 40
0.0
 40
0.0
 40
0.0628958661
 40
0.0944793587
 40
0.126132365
 40
0.1578448301
 40
0.1896069021
 40
0.2214089824
 40
0.2532416521
 40
0.2850955067
 40
0.3169611599
 40
0.3488291971
 40
0.3806899947
 40
0.4125336836
 40
0.4443501416
 40
0.4761288323
 40
0.507858674
 40
0.5395280864
 40
0.5711249727
 40
0.6026367028
 40
0.6340501254
 40
0.6653517361
 40
0.6965279994
 40
0.7275657885
 40
0.7430313576
 40
0.7584581437
 40
0.7891847887
 40
0.8197439346
 40
0.8349632781
 40
0.8501404933
 40
0.8652763758
 40
0.8803719647
 40
0.8954290651
 40
0.9104497597
 40
0.9254368779
 40
0.9403937753
 40
0.9553239066
 40
0.9702317305
 40
0.9851230819
 40
1.0
 40
1.0
 40
1.0
 40
1.0
 10
10.6003290445
 20
7.3208135145
 30
0.0
 10
10.5882908164
 20
7.32477009
 30
0.0
 10
10.5705134075
 20
7.3316996671
 30
0.0
 10
10.5475893625
 20
7.3426804535
 30
0.0
 10
10.5307516106
 20
7.3517767521
 30
0.0
 10
10.5143338285
 20
7.3616779749
 30
0.0
 10
10.4983675186
 20
7.3723460834
 30
0.0
 10
10.4828847772
 20
7.3837450809
 30
0.0
 10
10.467916948
 20
7.3958415358
 30
0.0
 10
10.4534956706
 20
7.40860389
 30
0.0
 10
10.4396532331
 20
7.4220021189
 30
0.0
 10
10.4264231302
 20
7.4360073443
 30
0.0
 10
10.4138405322
 20
7.4505913948
 30
0.0
 10
10.4019426639
 20
7.4657262588
 30
0.0
 10
10.3907692374
 20
7.4813835659
 30
0.0
 10
10.3803629315
 20
7.4975340042
 30
0.0
 10
10.3707697916
 20
7.5141466009
 30
0.0
 10
10.3620395537
 20
7.5311878982
 30
0.0
 10
10.3542259819
 20
7.5486210414
 30
0.0
 10
10.347387121
 20
7.5664046941
 30
0.0
 10
10.3415854156
 20
7.5844916805
 30
0.0
 10
10.3368875527
 20
7.6028277869
 30
0.0
 10
10.3333640808
 20
7.6213491084
 30
0.0
 10
10.3314652213
 20
7.6368972746
 30
0.0
 10
10.3306099388
 20
7.6493475182
 30
0.0
 10
10.3302094913
 20
7.6617579337
 30
0.0
 10
10.3305781666
 20
7.6772249873
 30
0.0
 10
10.3321715366
 20
7.6925749019
 30
0.0
 10
10.3342119123
 20
7.7046883639
 30
0.0
 10
10.336127775
 20
7.7136627306
 30
0.0
 10
10.3384364877
 20
7.7225184112
 30
0.0
 10
10.3411416663
 20
7.7312360006
 30
0.0
 10
10.3442459205
 20
7.7397950584
 30
0.0
 10
10.3477498089
 20
7.7481749021
 30
0.0
 10
10.3516522282
 20
7.7563545277
 30
0.0
 10
10.3559502642
 20
7.7643127854
 30
0.0
 10
10.3606384394
 20
7.7720290505
 30
0.0
 10
10.3657099087
 20
7.7794832068
 30
0.0
 10
10.3711549167
 20
7.7866553261
 30
0.0
 10
10.3750279079
 20
7.7912388271
 30
0.0
 10
10.3770217636
 20
7.7934767374
 30
0.0
  0
SPLINE
  5
35A
100
AcDbEntity
  8
0
100
AcDbSpline
 62
7
  6
CONTINUOUS
 70
0
 71
3
 72
58
 73
54
 74
0
 42
0.0000001
 43
0.0000001
 44
0.0000000001
 40
0.0
 40
0.0
 40
0.0
 40
0.0
 40
0.0155854844
 40
0.0311196403
 40
0.0466005755
 40
0.0620308599
 40
0.0774122449
 40
0.0927468034
 40
0.1080373713
 40
0.1232871554
 40
0.1384997637
 40
0.1536792046
 40
0.1688298363
 40
0.1839563165
 40
0.1990635543
 40
0.2141566695
 40
0.2292409315
 40
0.2443216988
 40
0.2594043731
 40
0.2744943359
 40
0.2895968847
 40
0.3047171883
 40
0.3198602278
 40
0.3350307364
 40
0.3502331638
 40
0.3654716272
 40
0.3807498606
 40
0.3960711943
 40
0.4114385192
 40
0.4268542499
 40
0.442320323
 40
0.4578381746
 40
0.4734087203
 40
0.489032372
 40
0.5047090272
 40
0.5204380676
 40
0.5362183903
 40
0.552048408
 40
0.5679260649
 40
0.5838488782
 40
0.6158092217
 40
0.6479107196
 40
0.6801207192
 40
0.7124027466
 40
0.744717809
 40
0.7770257632
 40
0.8092867128
 40
0.8414624004
 40
0.8735175558
 40
0.905421173
 40
0.9371477211
 40
0.9686776645
 40
1.0
 40
1.0
 40
1.0
 40
1.0
 10
11.5786633595
 20
6.5472380346
 30
0.0
 10
11.5786633595
 20
6.550692933
 30
0.0
 10
11.5788324926
 20
6.5575925746
 30
0.0
 10
11.5795956649
 20
6.5678985287
 30
0.0
 10
11.5808663788
 20
6.5781199153
 30
0.0
 10
11.5826414594
 20
6.5882314672
 30
0.0
 10
11.5849166105
 20
6.5982091487
 30
0.0
 10
11.5876864435
 20
6.6080288365
 30
0.0
 10
11.5909443295
 20
6.6176668223
 30
0.0
 10
11.5946823531
 20
6.6270999105
 30
0.0
 10
11.5988915695
 20
6.6363053367
 30
0.0
 10
11.6035618881
 20
6.6452608716
 30
0.0
 10
11.6086819778
 20
6.6539449588
 30
0.0
 10
11.6142395582
 20
6.6623366219
 30
0.0
 10
11.6202212601
 20
6.670415594
 30
0.0
 10
11.6266125908
 20
6.6781624402
 30
0.0
 10
11.6333981987
 20
6.6855584274
 30
0.0
 10
11.6405617236
 20
6.6925857024
 30
0.0
 10
11.6480858297
 20
6.6992273768
 30
0.0
 10
11.6559524246
 20
6.7054673711
 30
0.0
 10
11.6641425193
 20
6.7112906443
 30
0.0
 10
11.6726363157
 20
6.7166832203
 30
0.0
 10
11.6814133735
 20
6.7216320262
 30
0.0
 10
11.6904524985
 20
6.7261251656
 30
0.0
 10
11.6997318643
 20
6.730151874
 30
0.0
 10
11.7092291285
 20
6.7337023708
 30
0.0
 10
11.7189213642
 20
6.7367681622
 30
0.0
 10
11.7287851922
 20
6.7393419221
 30
0.0
 10
11.738796855
 20
6.7414173741
 30
0.0
 10
11.7489322011
 20
6.7429896059
 30
0.0
 10
11.7591668036
 20
6.7440548805
 30
0.0
 10
11.7694760072
 20
6.7446105606
 30
0.0
 10
11.7798349654
 20
6.7446554136
 30
0.0
 10
11.7902187281
 20
6.7441893651
 30
0.0
 10
11.8006022788
 20
6.7432134727
 30
0.0
 10
11.810960611
 20
6.7417302029
 30
0.0
 10
11.8212688044
 20
6.7397431316
 30
0.0
 10
11.8315019495
 20
6.7372570228
 30
0.0
 10
11.8416356988
 20
6.7342778493
 30
0.0
 10
11.8549963516
 20
6.7296530553
 30
0.0
 10
11.8713261793
 20
6.7226734774
 30
0.0
 10
11.890110359
 20
6.7124819272
 30
0.0
 10
11.9079333907
 20
6.7005599182
 30
0.0
 10
11.9246230554
 20
6.6870224683
 30
0.0
 10
11.9400195598
 20
6.6719995646
 30
0.0
 10
11.9539750848
 20
6.6556355064
 30
0.0
 10
11.9663555934
 20
6.6380872818
 30
0.0
 10
11.9770420503
 20
6.6195232603
 30
0.0
 10
11.9859316413
 20
6.6001215165
 30
0.0
 10
11.9929386011
 20
6.5800683792
 30
0.0
 10
11.9979950129
 20
6.5595556679
 30
0.0
 10
12.0010518991
 20
6.5387829806
 30
0.0
 10
12.0017388965
 20
6.5248409972
 30
0.0
 10
12.0017388965
 20
6.5178976465
 30
0.0
  0
SPLINE
  5
35B
100
AcDbEntity
  8
0
100
AcDbSpline
 62
7
  6
CONTINUOUS
 70
0
 71
3
 72
58
 73
54
 74
0
 42
0.0000001
 43
0.0000001
 44
0.0000000001
 40
0.0
 40
0.0
 40
0.0
 40
0.0
 40
0.0155854844
 40
0.0311196403
 40
0.0466005755
 40
0.0620308599
 40
0.0774122449
 40
0.0927468034
 40
0.1080373713
 40
0.1232871554
 40
0.1384997637
 40
0.1536792046
 40
0.1688298363
 40
0.1839563165
 40
0.1990635543
 40
0.2141566695
 40
0.2292409315
 40
0.2443216988
 40
0.2594043731
 40
0.2744943359
 40
0.2895968847
 40
0.3047171883
 40
0.3198602278
 40
0.3350307364
 40
0.3502331638
 40
0.3654716272
 40
0.3807498606
 40
0.3960711943
 40
0.4114385192
 40
0.4268542499
 40
0.442320323
 40
0.4578381746
 40
0.4734087203
 40
0.489032372
 40
0.5047090272
 40
0.5204380676
 40
0.5362183903
 40
0.552048408
 40
0.5679260649
 40
0.5838488782
 40
0.6158092217
 40
0.6479107196
 40
0.6801207192
 40
0.7124027466
 40
0.744717809
 40
0.7770257632
 40
0.8092867128
 40
0.8414624004
 40
0.8735175558
 40
0.905421173
 40
0.9371477211
 40
0.9686776645
 40
1.0
 40
1.0
 40
1.0
 40
1.0
 10
12.0017388965
 20
6.5178976465
 30
0.0
 10
12.0017388965
 20
6.5144427481
 30
0.0
 10
12.0015697633
 20
6.5075431065
 30
0.0
 10
12.000806591
 20
6.4972371524
 30
0.0
 10
11.9995358771
 20
6.4870157658
 30
0.0
 10
11.9977607965
 20
6.4769042139
 30
0.0
 10
11.9954856455
 20
6.4669265324
 30
0.0
 10
11.9927158124
 20
6.4571068446
 30
0.0
 10
11.9894579264
 20
6.4474688588
 30
0.0
 10
11.9857199029
 20
6.4380357706
 30
0.0
 10
11.9815106865
 20
6.4288303444
 30
0.0
 10
11.9768403678
 20
6.4198748095
 30
0.0
 10
11.9717202782
 20
6.4111907224
 30
0.0
 10
11.9661626977
 20
6.4027990592
 30
0.0
 10
11.9601809959
 20
6.3947200871
 30
0.0
 10
11.9537896652
 20
6.3869732409
 30
0.0
 10
11.9470040573
 20
6.3795772537
 30
0.0
 10
11.9398405324
 20
6.3725499787
 30
0.0
 10
11.9323164262
 20
6.3659083043
 30
0.0
 10
11.9244498314
 20
6.35966831
 30
0.0
 10
11.9162597367
 20
6.3538450368
 30
0.0
 10
11.9077659402
 20
6.3484524608
 30
0.0
 10
11.8989888825
 20
6.3435036549
 30
0.0
 10
11.8899497575
 20
6.3390105155
 30
0.0
 10
11.8806703916
 20
6.3349838071
 30
0.0
 10
11.8711731275
 20
6.3314333103
 30
0.0
 10
11.8614808918
 20
6.3283675189
 30
0.0
 10
11.8516170638
 20
6.325793759
 30
0.0
 10
11.8416054009
 20
6.323718307
 30
0.0
 10
11.8314700549
 20
6.3221460752
 30
0.0
 10
11.8212354524
 20
6.3210808006
 30
0.0
 10
11.8109262487
 20
6.3205251205
 30
0.0
 10
11.8005672906
 20
6.3204802675
 30
0.0
 10
11.7901835279
 20
6.320946316
 30
0.0
 10
11.7797999772
 20
6.3219222084
 30
0.0
 10
11.769441645
 20
6.3234054782
 30
0.0
 10
11.7591334516
 20
6.3253925495
 30
0.0
 10
11.7489003065
 20
6.3278786583
 30
0.0
 10
11.7387665572
 20
6.3308578318
 30
0.0
 10
11.7254059044
 20
6.3354826258
 30
0.0
 10
11.7090760767
 20
6.3424622037
 30
0.0
 10
11.6902918969
 20
6.3526537539
 30
0.0
 10
11.6724688653
 20
6.3645757629
 30
0.0
 10
11.6557792005
 20
6.3781132128
 30
0.0
 10
11.6403826961
 20
6.3931361165
 30
0.0
 10
11.6264271711
 20
6.4095001747
 30
0.0
 10
11.6140466625
 20
6.4270483993
 30
0.0
 10
11.6033602057
 20
6.4456124208
 30
0.0
 10
11.5944706147
 20
6.4650141646
 30
0.0
 10
11.5874636548
 20
6.4850673019
 30
0.0
 10
11.5824072431
 20
6.5055800132
 30
0.0
 10
11.5793503569
 20
6.5263527005
 30
0.0
 10
11.5786633595
 20
6.5402946839
 30
0.0
 10
11.5786633595
 20
6.5472380346
 30
0.0
  0
SPLINE
  5
35C
100
AcDbEntity
  8
0
100
AcDbSpline
 62
7
  6
CONTINUOUS
 70
0
 71
3
 72
32
 73
28
 74
0
 42
0.0000001
 43
0.0000001
 44
0.0000000001
 40
0.0
 40
0.0
 40
0.0
 40
0.0
 40
0.031829043
 40
0.0637035991
 40
0.0956063631
 40
0.1275271485
 40
0.1594524237
 40
0.1913698833
 40
0.2232680721
 40
0.2551360638
 40
0.286964355
 40
0.3187444877
 40
0.3504688743
 40
0.3821315969
 40
0.4137275316
 40
0.4452525155
 40
0.5080661102
 40
0.5705721493
 40
0.6017137584
 40
0.6327776512
 40
0.6946660455
 40
0.7562583671
 40
0.7869520792
 40
0.8175773741
 40
0.878623679
 40
0.9394245173
 40
1.0
 40
1.0
 40
1.0
 40
1.0
 10
10.7649939979
 20
9.1640947356
 30
0.0
 10
10.7681127246
 20
9.1620778535
 30
0.0
 10
10.7742480549
 20
9.1578736257
 30
0.0
 10
10.7831072406
 20
9.1510851138
 30
0.0
 10
10.7916049936
 20
9.1438324125
 30
0.0
 10
10.7997174874
 20
9.1361428979
 30
0.0
 10
10.8074248124
 20
9.1280451149
 30
0.0
 10
10.8147102933
 20
9.1195694998
 30
0.0
 10
10.8215606577
 20
9.1107471608
 30
0.0
 10
10.8279658802
 20
9.101609444
 30
0.0
 10
10.833919293
 20
9.0921876524
 30
0.0
 10
10.8394169869
 20
9.082512366
 30
0.0
 10
10.8444575996
 20
9.0726131507
 30
0.0
 10
10.8490422371
 20
9.0625185385
 30
0.0
 10
10.8531738132
 20
9.0522552811
 30
0.0
 10
10.8580780582
 20
9.0383988506
 30
0.0
 10
10.8631066422
 20
9.0207788732
 30
0.0
 10
10.8667181515
 20
9.0028631115
 30
0.0
 10
10.8687819302
 20
8.9884549609
 30
0.0
 10
10.8703053362
 20
8.9740521676
 30
0.0
 10
10.8712309794
 20
8.95602631
 30
0.0
 10
10.8709065441
 20
8.9380243527
 30
0.0
 10
10.8699291556
 20
8.9237131606
 30
0.0
 10
10.8684885041
 20
8.9095052674
 30
0.0
 10
10.8658361264
 20
8.8918989242
 30
0.0
 10
10.8613450334
 20
8.8710785789
 30
0.0
 10
10.8575105674
 20
8.8574335571
 30
0.0
 10
10.8553933956
 20
8.850689655
 30
0.0
  0
SPLINE
  5
35D
100
AcDbEntity
  8
0
100
AcDbSpline
 62
7
  6
CONTINUOUS
 70
0
 71
3
 72
23
 73
19
 74
0
 42
0.0000001
 43
0.0000001
 44
0.0000000001
 40
0.0
 40
0.0
 40
0.0
 40
0.0
 40
0.061648222
 40
0.1233194599
 40
0.1850364872
 40
0.2468215826
 40
0.3086962191
 40
0.3706809311
 40
0.4327950059
 40
0.4950563306
 40
0.5574812037
 40
0.620083994
 40
0.682877569
 40
0.7458727056
 40
0.8090763209
 40
0.8724960975
 40
0.9361416631
 40
1.0
 40
1.0
 40
1.0
 40
1.0
 10
11.9584701127
 20
8.9218234594
 30
0.0
 10
11.9567194609
 20
8.9201324447
 30
0.0
 10
11.9531258187
 20
8.9168432387
 30
0.0
 10
11.9474768192
 20
8.9122054095
 30
0.0
 10
11.9415825692
 20
8.907874064
 30
0.0
 10
11.9354580272
 20
8.9038604283
 30
0.0
 10
11.9291186269
 20
8.9001744887
 30
0.0
 10
11.9225803636
 20
8.8968255157
 30
0.0
 10
11.9158596636
 20
8.8938220308
 30
0.0
 10
11.9089735232
 20
8.8911714487
 30
0.0
 10
11.9019392473
 20
8.8888805486
 30
0.0
 10
11.8947745749
 20
8.8869550261
 30
0.0
 10
11.8874975439
 20
8.8853996701
 30
0.0
 10
11.8801264928
 20
8.8842185325
 30
0.0
 10
11.872680032
 20
8.8834143435
 30
0.0
 10
11.8651766018
 20
8.8829892473
 30
0.0
 10
11.8576356541
 20
8.8829443944
 30
0.0
 10
11.8526040076
 20
8.8831674727
 30
0.0
 10
11.8500887981
 20
8.8833419031
 30
0.0
  0
SPLINE
  5
35E
100
AcDbEntity
  8
0
100
AcDbSpline
 62
4
  6
CONTINUOUS
 70
0
 71
3
 72
343
 73
339
 74
0
 42
0.0000001
 43
0.0000001
 44
0.0000000001
 40
0.0
 40
0.0
 40
0.0
 40
0.0
 40
0.015625
 40
0.0234375
 40
0.03125
 40
0.0390625
 40
0.04296875
 40
0.046875
 40
0.05078125
 40
0.0546875
 40
0.056640625
 40
0.05859375
 40
0.0595703125
 40
0.060546875
 40
0.0615234375
 40
0.0620117188
 40
0.0622558594
 40
0.0625
 40
0.0627441406
 40
0.0629882812
 40
0.0634765625
 40
0.064453125
 40
0.0654296875
 40
0.06640625
 40
0.068359375
 40
0.0703125
 40
0.07421875
 40
0.078125
 40
0.08203125
 40
0.0859375
 40
0.09375
 40
0.1015625
 40
0.10546875
 40
0.109375
 40
0.11328125
 40
0.1171875
 40
0.119140625
 40
0.12109375
 40
0.1220703125
 40
0.123046875
 40
0.1240234375
 40
0.1245117188
 40
0.1247558594
 40
0.125
 40
0.1252441406
 40
0.1254882812
 40
0.1259765625
 40
0.126953125
 40
0.1279296875
 40
0.12890625
 40
0.130859375
 40
0.1328125
 40
0.13671875
 40
0.140625
 40
0.14453125
 40
0.1484375
 40
0.15625
 40
0.1640625
 40
0.16796875
 40
0.171875
 40
0.17578125
 40
0.1796875
 40
0.181640625
 40
0.18359375
 40
0.1845703125
 40
0.185546875
 40
0.1865234375
 40
0.1870117188
 40
0.1872558594
 40
0.1875
 40
0.1877441406
 40
0.1879882812
 40
0.1884765625
 40
0.189453125
 40
0.1904296875
 40
0.19140625
 40
0.193359375
 40
0.1953125
 40
0.19921875
 40
0.203125
 40
0.20703125
 40
0.2109375
 40
0.21875
 40
0.2265625
 40
0.23046875
 40
0.234375
 40
0.23828125
 40
0.2421875
 40
0.244140625
 40
0.24609375
 40
0.2470703125
 40
0.248046875
 40
0.2490234375
 40
0.2495117188
 40
0.2497558594
 40
0.25
 40
0.2502441406
 40
0.2504882812
 40
0.2509765625
 40
0.251953125
 40
0.2529296875
 40
0.25390625
 40
0.255859375
 40
0.2578125
 40
0.26171875
 40
0.265625
 40
0.26953125
 40
0.2734375
 40
0.28125
 40
0.2890625
 40
0.29296875
 40
0.296875
 40
0.30078125
 40
0.3046875
 40
0.306640625
 40
0.30859375
 40
0.3095703125
 40
0.310546875
 40
0.3115234375
 40
0.3120117188
 40
0.3122558594
 40
0.3125
 40
0.3127441406
 40
0.3129882812
 40
0.3134765625
 40
0.314453125
 40
0.3154296875
 40
0.31640625
 40
0.318359375
 40
0.3203125
 40
0.32421875
 40
0.328125
 40
0.33203125
 40
0.3359375
 40
0.34375
 40
0.3515625
 40
0.359375
 40
0.36328125
 40
0.3671875
 40
0.369140625
 40
0.37109375
 40
0.373046875
 40
0.3740234375
 40
0.3745117188
 40
0.375
 40
0.3754882812
 40
0.3759765625
 40
0.376953125
 40
0.37890625
 40
0.380859375
 40
0.3828125
 40
0.38671875
 40
0.390625
 40
0.3984375
 40
0.40625
 40
0.4140625
 40
0.421875
 40
0.42578125
 40
0.4296875
 40
0.431640625
 40
0.43359375
 40
0.435546875
 40
0.4365234375
 40
0.4370117188
 40
0.4375
 40
0.4379882812
 40
0.4384765625
 40
0.439453125
 40
0.44140625
 40
0.443359375
 40
0.4453125
 40
0.44921875
 40
0.453125
 40
0.4609375
 40
0.46875
 40
0.4765625
 40
0.484375
 40
0.48828125
 40
0.4921875
 40
0.49609375
 40
0.498046875
 40
0.4990234375
 40
0.5
 40
0.5009765625
 40
0.501953125
 40
0.50390625
 40
0.5078125
 40
0.51171875
 40
0.515625
 40
0.5234375
 40
0.53125
 40
0.5390625
 40
0.546875
 40
0.55078125
 40
0.5546875
 40
0.55859375
 40
0.560546875
 40
0.5615234375
 40
0.5625
 40
0.5634765625
 40
0.564453125
 40
0.56640625
 40
0.5703125
 40
0.57421875
 40
0.578125
 40
0.5859375
 40
0.59375
 40
0.6015625
 40
0.609375
 40
0.61328125
 40
0.6171875
 40
0.62109375
 40
0.623046875
 40
0.6240234375
 40
0.625
 40
0.6259765625
 40
0.626953125
 40
0.62890625
 40
0.6328125
 40
0.63671875
 40
0.640625
 40
0.6484375
 40
0.65625
 40
0.6640625
 40
0.671875
 40
0.67578125
 40
0.6796875
 40
0.681640625
 40
0.68359375
 40
0.685546875
 40
0.6865234375
 40
0.6875
 40
0.6884765625
 40
0.689453125
 40
0.69140625
 40
0.693359375
 40
0.6953125
 40
0.69921875
 40
0.703125
 40
0.7109375
 40
0.71875
 40
0.7265625
 40
0.734375
 40
0.73828125
 40
0.7421875
 40
0.744140625
 40
0.74609375
 40
0.748046875
 40
0.7490234375
 40
0.7495117188
 40
0.75
 40
0.7504882812
 40
0.7509765625
 40
0.751953125
 40
0.75390625
 40
0.755859375
 40
0.7578125
 40
0.76171875
 40
0.765625
 40
0.7734375
 40
0.78125
 40
0.7890625
 40
0.79296875
 40
0.796875
 40
0.80078125
 40
0.8046875
 40
0.806640625
 40
0.80859375
 40
0.810546875
 40
0.8115234375
 40
0.8120117188
 40
0.8125
 40
0.8129882812
 40
0.8134765625
 40
0.814453125
 40
0.81640625
 40
0.818359375
 40
0.8203125
 40
0.82421875
 40
0.828125
 40
0.83203125
 40
0.8359375
 40
0.84375
 40
0.8515625
 40
0.85546875
 40
0.859375
 40
0.86328125
 40
0.8671875
 40
0.869140625
 40
0.87109375
 40
0.8720703125
 40
0.873046875
 40
0.8740234375
 40
0.8745117188
 40
0.8747558594
 40
0.875
 40
0.8752441406
 40
0.8754882812
 40
0.8759765625
 40
0.876953125
 40
0.8779296875
 40
0.87890625
 40
0.880859375
 40
0.8828125
 40
0.88671875
 40
0.890625
 40
0.89453125
 40
0.8984375
 40
0.90625
 40
0.9140625
 40
0.91796875
 40
0.921875
 40
0.92578125
 40
0.9296875
 40
0.931640625
 40
0.93359375
 40
0.9345703125
 40
0.935546875
 40
0.9365234375
 40
0.9370117188
 40
0.9372558594
 40
0.9375
 40
0.9377441406
 40
0.9379882812
 40
0.9384765625
 40
0.939453125
 40
0.9404296875
 40
0.94140625
 40
0.943359375
 40
0.9453125
 40
0.94921875
 40
0.953125
 40
0.95703125
 40
0.9609375
 40
0.96875
 40
0.9765625
 40
0.984375
 40
1.0
 40
1.0
 40
1.0
 40
1.0
 10
9.9629918098
 20
10.9331416672
 30
0.0
 10
9.9619271648
 20
10.9314772012
 30
0.0
 10
9.9603301973
 20
10.9289805023
 30
0.0
 10
9.9582009073
 20
10.9256515704
 30
0.0
 10
9.9566039399
 20
10.9231548715
 30
0.0
 10
9.9552731333
 20
10.921074289
 30
0.0
 10
9.954208489
 20
10.919409823
 30
0.0
 10
9.9534100032
 20
10.9181614736
 30
0.0
 10
9.9526115272
 20
10.916913124
 30
0.0
 10
9.9519460999
 20
10.9158728332
 30
0.0
 10
9.9514138267
 20
10.9150405994
 30
0.0
 10
9.9510809998
 20
10.9145204559
 30
0.0
 10
9.9508150957
 20
10.914104335
 30
0.0
 10
9.9506146893
 20
10.9137922612
 30
0.0
 10
9.9504507961
 20
10.9135321461
 30
0.0
 10
9.9503299634
 20
10.9133501706
 30
0.0
 10
9.9502704523
 20
10.9132460206
 30
0.0
 10
9.9501989554
 20
10.9131683699
 30
0.0
 10
9.9502301449
 20
10.913088954
 30
0.0
 10
9.9502359128
 20
10.9129836819
 30
0.0
 10
9.9502626948
 20
10.9127991687
 30
0.0
 10
9.95029223
 20
10.9125357285
 30
0.0
 10
9.9503314068
 20
10.912219536
 30
0.0
 10
9.9503823381
 20
10.9117979685
 30
0.0
 10
9.9504464489
 20
10.9112710014
 30
0.0
 10
9.9505487765
 20
10.9104278584
 30
0.0
 10
9.9506767717
 20
10.9093739281
 30
0.0
 10
9.9508303292
 20
10.9081092124
 30
0.0
 10
9.9509838965
 20
10.9068444966
 30
0.0
 10
9.9511886494
 20
10.9051582088
 30
0.0
 10
9.9514445919
 20
10.9030503491
 30
0.0
 10
9.9517005336
 20
10.9009424894
 30
0.0
 10
9.9519052879
 20
10.8992562016
 30
0.0
 10
9.9520588511
 20
10.8979914857
 30
0.0
 10
9.952212424
 20
10.8967267702
 30
0.0
 10
9.9523403711
 20
10.8956728395
 30
0.0
 10
9.9524427968
 20
10.8948296973
 30
0.0
 10
9.9525066579
 20
10.8943027281
 30
0.0
 10
9.9525581018
 20
10.8938811648
 30
0.0
 10
9.9525957125
 20
10.8935649596
 30
0.0
 10
9.9526301477
 20
10.8933015592
 30
0.0
 10
9.9526481824
 20
10.8931169749
 30
0.0
 10
9.9526679656
 20
10.8930118168
 30
0.0
 10
9.9526561044
 20
10.8929320507
 30
0.0
 10
9.9527462988
 20
10.8928557152
 30
0.0
 10
9.9528309597
 20
10.8927527379
 30
0.0
 10
9.9529957023
 20
10.8925730852
 30
0.0
 10
9.9532223776
 20
10.8923161469
 30
0.0
 10
9.9534980995
 20
10.8920079458
 30
0.0
 10
9.9538644323
 20
10.8915969673
 30
0.0
 10
9.9543227922
 20
10.8910832592
 30
0.0
 10
9.9550559199
 20
10.8902613178
 30
0.0
 10
9.9559724147
 20
10.889233894
 30
0.0
 10
9.957072172
 20
10.8880009842
 30
0.0
 10
9.958171939
 20
10.8867680747
 30
0.0
 10
9.9596382916
 20
10.8851241953
 30
0.0
 10
9.9614712337
 20
10.883069346
 30
0.0
 10
9.9633041749
 20
10.8810144968
 30
0.0
 10
9.9647705288
 20
10.8793706174
 30
0.0
 10
9.9658702918
 20
10.8781377077
 30
0.0
 10
9.9669700645
 20
10.8769047986
 30
0.0
 10
9.9678865112
 20
10.8758773725
 30
0.0
 10
9.9686197369
 20
10.8750554359
 30
0.0
 10
9.9690778476
 20
10.8745417158
 30
0.0
 10
9.9694446919
 20
10.8741307619
 30
0.0
 10
9.9697188511
 20
10.8738224857
 30
0.0
 10
9.9699504156
 20
10.8735657822
 30
0.0
 10
9.97010643
 20
10.8733857104
 30
0.0
 10
9.9702050757
 20
10.8732834046
 30
0.0
 10
9.9702523135
 20
10.8732050063
 30
0.0
 10
9.97040179
 20
10.8731329877
 30
0.0
 10
9.97056543
 20
10.8730347375
 30
0.0
 10
9.9708684155
 20
10.8728638366
 30
0.0
 10
9.9712925652
 20
10.8726191503
 30
0.0
 10
9.9718052631
 20
10.8723257588
 30
0.0
 10
9.9724875615
 20
10.8719344891
 30
0.0
 10
9.9733408793
 20
10.8714454297
 30
0.0
 10
9.9747059391
 20
10.8706629192
 30
0.0
 10
9.9764123492
 20
10.8696847864
 30
0.0
 10
9.9784600047
 20
10.8685110247
 30
0.0
 10
9.98050767
 20
10.8673372637
 30
0.0
 10
9.983237887
 20
10.8657722487
 30
0.0
 10
9.9866506596
 20
10.8638159801
 30
0.0
 10
9.9900634313
 20
10.8618597113
 30
0.0
 10
9.9927936495
 20
10.8602946965
 30
0.0
 10
9.9948413111
 20
10.859120935
 30
0.0
 10
9.9968889808
 20
10.857947175
 30
0.0
 10
9.9985953467
 20
10.856969037
 30
0.0
 10
9.9999604968
 20
10.856186537
 30
0.0
 10
10.0008135848
 20
10.8556974508
 30
0.0
 10
10.0014963548
 20
10.8553062362
 30
0.0
 10
10.002007612
 20
10.8550126763
 30
0.0
 10
10.0024362691
 20
10.8547685168
 30
0.0
 10
10.0027312081
 20
10.8545966756
 30
0.0
 10
10.0029077407
 20
10.8544999321
 30
0.0
 10
10.0030176153
 20
10.8544232855
 30
0.0
 10
10.0032135911
 20
10.8543622689
 30
0.0
 10
10.0034448591
 20
10.8542754616
 30
0.0
 10
10.0038635711
 20
10.8541260889
 30
0.0
 10
10.0044544155
 20
10.8539113713
 30
0.0
 10
10.00516656
 20
10.8536542786
 30
0.0
 10
10.0061149923
 20
10.8533112898
 30
0.0
 10
10.0073009072
 20
10.8528826219
 30
0.0
 10
10.0091981618
 20
10.8521967151
 30
0.0
 10
10.0115698018
 20
10.8513393447
 30
0.0
 10
10.014415739
 20
10.8503104946
 30
0.0
 10
10.0172616844
 20
10.849281646
 30
0.0
 10
10.0210562755
 20
10.8479098473
 30
0.0
 10
10.0257995153
 20
10.8461950991
 30
0.0
 10
10.0305427545
 20
10.8444803509
 30
0.0
 10
10.0343373467
 20
10.8431085524
 30
0.0
 10
10.0371832888
 20
10.8420797032
 30
0.0
 10
10.0400292384
 20
10.8410508556
 30
0.0
 10
10.0424008399
 20
10.8401934773
 30
0.0
 10
10.0442981729
 20
10.8395075865
 30
0.0
 10
10.0454838883
 20
10.839078878
 30
0.0
 10
10.0464327301
 20
10.8387359723
 30
0.0
 10
10.0471436237
 20
10.8384786259
 30
0.0
 10
10.0477383818
 20
10.8382647022
 30
0.0
 10
10.048150107
 20
10.8381139122
 30
0.0
 10
10.0483925696
 20
10.8380293758
 30
0.0
 10
10.0485541594
 20
10.8379613836
 30
0.0
 10
10.0487931822
 20
10.8379109362
 30
0.0
 10
10.0490848698
 20
10.8378375531
 30
0.0
 10
10.0496079072
 20
10.8377119841
 30
0.0
 10
10.0503485244
 20
10.837531109
 30
0.0
 10
10.0512400812
 20
10.837314697
 30
0.0
 10
10.0524278399
 20
10.8370259248
 30
0.0
 10
10.0539128751
 20
10.8366650359
 30
0.0
 10
10.0562887432
 20
10.836087571
 30
0.0
 10
10.0592586428
 20
10.8353657545
 30
0.0
 10
10.0628224948
 20
10.8344995684
 30
0.0
 10
10.066386354
 20
10.833633384
 30
0.0
 10
10.0711381642
 20
10.8324784709
 30
0.0
 10
10.0770779251
 20
10.8310348289
 30
0.0
 10
10.0842056501
 20
10.8293024626
 30
0.0
 10
10.0901453835
 20
10.8278588113
 30
0.0
 10
10.0948972541
 20
10.8267039185
 30
0.0
 10
10.0978669824
 20
10.8259820464
 30
0.0
 10
10.100243202
 20
10.8254046956
 30
0.0
 10
10.1020241703
 20
10.8249712803
 30
0.0
 10
10.1035121165
 20
10.8246113801
 30
0.0
 10
10.1045462097
 20
10.8243569397
 30
0.0
 10
10.1051487826
 20
10.8242154648
 30
0.0
 10
10.1055678587
 20
10.824098317
 30
0.0
 10
10.1061125181
 20
10.8240233757
 30
0.0
 10
10.1067949257
 20
10.8239087318
 30
0.0
 10
10.1080095485
 20
10.8237149644
 30
0.0
 10
10.1097340537
 20
10.8234345677
 30
0.0
 10
10.1118080271
 20
10.8230996266
 30
0.0
 10
10.1145717297
 20
10.8226525023
 30
0.0
 10
10.1180269042
 20
10.8220937805
 30
0.0
 10
10.1235548781
 20
10.821199723
 30
0.0
 10
10.1304649508
 20
10.8200821866
 30
0.0
 10
10.1387569903
 20
10.8187411267
 30
0.0
 10
10.1470490523
 20
10.8174000752
 30
0.0
 10
10.1539590686
 20
10.8162825176
 30
0.0
 10
10.1594871554
 20
10.8153885026
 30
0.0
 10
10.1629420429
 20
10.8148296727
 30
0.0
 10
10.1657063347
 20
10.8143827704
 30
0.0
 10
10.1677785081
 20
10.8140471512
 30
0.0
 10
10.1695086449
 20
10.8137688761
 30
0.0
 10
10.1707132143
 20
10.8135713212
 30
0.0
 10
10.1714117299
 20
10.8134627458
 30
0.0
 10
10.1719069108
 20
10.8133691641
 30
0.0
 10
10.1725118199
 20
10.8133220265
 30
0.0
 10
10.173280091
 20
10.8132429762
 30
0.0
 10
10.1746423982
 20
10.8131121861
 30
0.0
 10
10.1765792282
 20
10.8129213969
 30
0.0
 10
10.1789074147
 20
10.8126941389
 30
0.0
 10
10.1820102696
 20
10.8123905383
 30
0.0
 10
10.1858893155
 20
10.8120112397
 30
0.0
 10
10.1920955219
 20
10.8114042485
 30
0.0
 10
10.1998533737
 20
10.8106455515
 30
0.0
 10
10.2091627465
 20
10.8097350837
 30
0.0
 10
10.2184721664
 20
10.8088246742
 30
0.0
 10
10.2262299006
 20
10.8080658315
 30
0.0
 10
10.2324363421
 20
10.8074591316
 30
0.0
 10
10.2370904802
 20
10.8070030849
 30
0.0
 10
10.2409711327
 20
10.806626296
 30
0.0
 10
10.2436832641
 20
10.8063561656
 30
0.0
 10
10.2452398071
 20
10.8062117644
 30
0.0
 10
10.2463881894
 20
10.8060754089
 30
0.0
 10
10.2476092947
 20
10.8060462921
 30
0.0
 10
10.2492120685
 20
10.8059700637
 30
0.0
 10
10.2520287415
 20
10.8058540921
 30
0.0
 10
10.256046381
 20
10.8056793067
 30
0.0
 10
10.2608701932
 20
10.8054734645
 30
0.0
 10
10.2673010189
 20
10.8051976453
 30
0.0
 10
10.2753398689
 20
10.8048533421
 30
0.0
 10
10.2849863491
 20
10.8044399631
 30
0.0
 10
10.2946328795
 20
10.8040266913
 30
0.0
 10
10.302671604
 20
10.8036821202
 30
0.0
 10
10.3091026805
 20
10.8034068367
 30
0.0
 10
10.3139257277
 20
10.8031993608
 30
0.0
 10
10.3179457606
 20
10.8030296862
 30
0.0
 10
10.320758161
 20
10.8029045911
 30
0.0
 10
10.3223677805
 20
10.8028429808
 30
0.0
 10
10.3235678581
 20
10.8027689618
 30
0.0
 10
10.3247952172
 20
10.8028012515
 30
0.0
 10
10.3264221799
 20
10.8028072228
 30
0.0
 10
10.3292737984
 20
10.8028349496
 30
0.0
 10
10.3333452212
 20
10.8028655267
 30
0.0
 10
10.3382319206
 20
10.8029060855
 30
0.0
 10
10.3447471734
 20
10.802958813
 30
0.0
 10
10.3528913568
 20
10.8030251889
 30
0.0
 10
10.3626643332
 20
10.8031046268
 30
0.0
 10
10.3724372967
 20
10.803184171
 30
0.0
 10
10.3805815124
 20
10.8032502812
 30
0.0
 10
10.3870967007
 20
10.8033035403
 30
0.0
 10
10.391983597
 20
10.8033424776
 30
0.0
 10
10.3960544037
 20
10.8033781275
 30
0.0
 10
10.3989071218
 20
10.8033967984
 30
0.0
 10
10.4005323227
 20
10.8034172795
 30
0.0
 10
10.4017650936
 20
10.8034049999
 30
0.0
 10
10.4029448456
 20
10.8034983759
 30
0.0
 10
10.4045363418
 20
10.8035860233
 30
0.0
 10
10.4073128437
 20
10.8037565772
 30
0.0
 10
10.4112837798
 20
10.8039912485
 30
0.0
 10
10.4160469749
 20
10.8042766966
 30
0.0
 10
10.4223985751
 20
10.8046559519
 30
0.0
 10
10.4303378451
 20
10.8051304807
 30
0.0
 10
10.4398650645
 20
10.8056997218
 30
0.0
 10
10.4493922707
 20
10.8062690015
 30
0.0
 10
10.4573315738
 20
10.8067434337
 30
0.0
 10
10.4636831079
 20
10.8071228824
 30
0.0
 10
10.4676526054
 20
10.8073602643
 30
0.0
 10
10.4708286875
 20
10.8075496504
 30
0.0
 10
10.4732094238
 20
10.8076931126
 30
0.0
 10
10.4751975865
 20
10.8078081387
 30
0.0
 10
10.4767786614
 20
10.80791031
 30
0.0
 10
10.4779903038
 20
10.8079592026
 30
0.0
 10
10.4791033287
 20
10.8081139634
 30
0.0
 10
10.4806218103
 20
10.80828333
 30
0.0
 10
10.4825080932
 20
10.8085077263
 30
0.0
 10
10.4847766916
 20
10.8087715709
 30
0.0
 10
10.4877997225
 20
10.8091252607
 30
0.0
 10
10.4915791161
 20
10.8095667234
 30
0.0
 10
10.4976258078
 20
10.8102734267
 30
0.0
 10
10.5051842878
 20
10.8111566815
 30
0.0
 10
10.5142544173
 20
10.8122166395
 30
0.0
 10
10.5233245485
 20
10.8132765875
 30
0.0
 10
10.5308830241
 20
10.8141598674
 30
0.0
 10
10.5369297246
 20
10.8148665204
 30
0.0
 10
10.5407090959
 20
10.8153081109
 30
0.0
 10
10.5437321726
 20
10.8156615384
 30
0.0
 10
10.5460006309
 20
10.8159261844
 30
0.0
 10
10.5478873523
 20
10.8161480734
 30
0.0
 10
10.5492152408
 20
10.816300745
 30
0.0
 10
10.5499628178
 20
10.8163921249
 30
0.0
 10
10.5505550974
 20
10.8164490001
 30
0.0
 10
10.5510265977
 20
10.8165504446
 30
0.0
 10
10.5516973939
 20
10.8166701576
 30
0.0
 10
10.5528516584
 20
10.8168868987
 30
0.0
 10
10.5545108699
 20
10.817192742
 30
0.0
 10
10.5564975311
 20
10.8175613748
 30
0.0
 10
10.5591479471
 20
10.8180523191
 30
0.0
 10
10.5624604416
 20
10.8186661934
 30
0.0
 10
10.5677607265
 20
10.8196482838
 30
0.0
 10
10.574385982
 20
10.8208759339
 30
0.0
 10
10.582336331
 20
10.8223490984
 30
0.0
 10
10.5889616148
 20
10.8235767382
 30
0.0
 10
10.5942618375
 20
10.8245588513
 30
0.0
 10
10.5982370219
 20
10.8252954309
 30
0.0
 10
10.6022121387
 20
10.8260320306
 30
0.0
 10
10.6055249471
 20
10.8266458012
 30
0.0
 10
10.608174721
 20
10.8271369575
 30
0.0
 10
10.6101633432
 20
10.8275049428
 30
0.0
 10
10.6118164195
 20
10.827812812
 30
0.0
 10
10.6129816364
 20
10.8280259365
 30
0.0
 10
10.6136348841
 20
10.8281514442
 30
0.0
 10
10.6141602875
 20
10.8282350892
 30
0.0
 10
10.6145501159
 20
10.8283588164
 30
0.0
 10
10.6151171771
 20
10.8285098049
 30
0.0
 10
10.616087501
 20
10.8287805487
 30
0.0
 10
10.6174851972
 20
10.8291639201
 30
0.0
 10
10.619157502
 20
10.8296254235
 30
0.0
 10
10.621388964
 20
10.8302402521
 30
0.0
 10
10.6241777006
 20
10.8310089626
 30
0.0
 10
10.6275244379
 20
10.8319313402
 30
0.0
 10
10.6308711073
 20
10.832853738
 30
0.0
 10
10.635333357
 20
10.8340835946
 30
0.0
 10
10.6409111608
 20
10.8356209178
 30
0.0
 10
10.646488968
 20
10.83715824
 30
0.0
 10
10.6509512123
 20
10.8383880982
 30
0.0
 10
10.6542978977
 20
10.8393104913
 30
0.0
 10
10.6576445753
 20
10.8402328861
 30
0.0
 10
10.6604334975
 20
10.8410015435
 30
0.0
 10
10.6626645809
 20
10.8416164803
 30
0.0
 10
10.6640591319
 20
10.8420007911
 30
0.0
 10
10.665174489
 20
10.8423082963
 30
0.0
 10
10.6660117837
 20
10.8425387704
 30
0.0
 10
10.6667070581
 20
10.8427313246
 30
0.0
 10
10.6671985996
 20
10.842865146
 30
0.0
 10
10.6674719085
 20
10.8429431246
 30
0.0
 10
10.6676982207
 20
10.842997357
 30
0.0
 10
10.6678429964
 20
10.8430678411
 30
0.0
 10
10.6680644715
 20
10.843156151
 30
0.0
 10
10.6684388017
 20
10.8433133347
 30
0.0
 10
10.668980487
 20
10.8435365019
 30
0.0
 10
10.6696275441
 20
10.8438048936
 30
0.0
 10
10.6704913226
 20
10.8441625427
 30
0.0
 10
10.6715706911
 20
10.8446096748
 30
0.0
 10
10.6732978789
 20
10.8453250467
 30
0.0
 10
10.6754567956
 20
10.8462192751
 30
0.0
 10
10.6780475248
 20
10.8472923434
 30
0.0
 10
10.6806382462
 20
10.8483654132
 30
0.0
 10
10.6840925442
 20
10.8497961724
 30
0.0
 10
10.6884104156
 20
10.8515846217
 30
0.0
 10
10.6927282877
 20
10.8533730708
 30
0.0
 10
10.6961825845
 20
10.8548038302
 30
0.0
 10
10.6987733094
 20
10.8558768994
 30
0.0
 10
10.7013640256
 20
10.85694997
 30
0.0
 10
10.7035229826
 20
10.8578441912
 30
0.0
 10
10.7052500883
 20
10.8585595777
 30
0.0
 10
10.7063296657
 20
10.8590066727
 30
0.0
 10
10.7071930154
 20
10.8593643981
 30
0.0
 10
10.7078413825
 20
10.8596325568
 30
0.0
 10
10.7083789691
 20
10.8598564528
 30
0.0
 10
10.7087606162
 20
10.8600123354
 30
0.0
 10
10.7089703679
 20
10.8601027299
 30
0.0
 10
10.709151154
 20
10.860166811
 30
0.0
 10
10.709242217
 20
10.860245092
 30
0.0
 10
10.7093949307
 20
10.8603445135
 30
0.0
 10
10.7096475981
 20
10.860520809
 30
0.0
 10
10.7100161749
 20
10.8607714531
 30
0.0
 10
10.7104552041
 20
10.8610727425
 30
0.0
 10
10.711041716
 20
10.8614742813
 30
0.0
 10
10.7117744657
 20
10.8619762666
 30
0.0
 10
10.7129470832
 20
10.8627794086
 30
0.0
 10
10.7144127804
 20
10.8637833479
 30
0.0
 10
10.716171649
 20
10.8649880699
 30
0.0
 10
10.717930509
 20
10.8661927933
 30
0.0
 10
10.7202756588
 20
10.8677990907
 30
0.0
 10
10.7232070949
 20
10.8698069626
 30
0.0
 10
10.7267248187
 20
10.8722164089
 30
0.0
 10
10.7314151169
 20
10.8754290039
 30
0.0
 10
10.7349328407
 20
10.8778384501
 30
0.0
 10
10.7372779898
 20
10.8794447476
 30
0.0
  0
SPLINE
  5
35F
100
AcDbEntity
  8
0
100
AcDbSpline
 62
4
  6
CONTINUOUS
 70
0
 71
3
 72
343
 73
339
 74
0
 42
0.0000001
 43
0.0000001
 44
0.0000000001
 40
0.0
 40
0.0
 40
0.0
 40
0.0
 40
0.015625
 40
0.0234375
 40
0.03125
 40
0.0390625
 40
0.04296875
 40
0.046875
 40
0.05078125
 40
0.0546875
 40
0.056640625
 40
0.05859375
 40
0.0595703125
 40
0.060546875
 40
0.0615234375
 40
0.0620117188
 40
0.0622558594
 40
0.0625
 40
0.0627441406
 40
0.0629882812
 40
0.0634765625
 40
0.064453125
 40
0.0654296875
 40
0.06640625
 40
0.068359375
 40
0.0703125
 40
0.07421875
 40
0.078125
 40
0.08203125
 40
0.0859375
 40
0.09375
 40
0.1015625
 40
0.10546875
 40
0.109375
 40
0.11328125
 40
0.1171875
 40
0.119140625
 40
0.12109375
 40
0.1220703125
 40
0.123046875
 40
0.1240234375
 40
0.1245117188
 40
0.1247558594
 40
0.125
 40
0.1252441406
 40
0.1254882812
 40
0.1259765625
 40
0.126953125
 40
0.1279296875
 40
0.12890625
 40
0.130859375
 40
0.1328125
 40
0.13671875
 40
0.140625
 40
0.14453125
 40
0.1484375
 40
0.15625
 40
0.1640625
 40
0.16796875
 40
0.171875
 40
0.17578125
 40
0.1796875
 40
0.181640625
 40
0.18359375
 40
0.1845703125
 40
0.185546875
 40
0.1865234375
 40
0.1870117188
 40
0.1872558594
 40
0.1875
 40
0.1877441406
 40
0.1879882812
 40
0.1884765625
 40
0.189453125
 40
0.1904296875
 40
0.19140625
 40
0.193359375
 40
0.1953125
 40
0.19921875
 40
0.203125
 40
0.20703125
 40
0.2109375
 40
0.21875
 40
0.2265625
 40
0.23046875
 40
0.234375
 40
0.23828125
 40
0.2421875
 40
0.244140625
 40
0.24609375
 40
0.2470703125
 40
0.248046875
 40
0.2490234375
 40
0.2495117188
 40
0.2497558594
 40
0.25
 40
0.2502441406
 40
0.2504882812
 40
0.2509765625
 40
0.251953125
 40
0.2529296875
 40
0.25390625
 40
0.255859375
 40
0.2578125
 40
0.26171875
 40
0.265625
 40
0.26953125
 40
0.2734375
 40
0.28125
 40
0.2890625
 40
0.29296875
 40
0.296875
 40
0.30078125
 40
0.3046875
 40
0.306640625
 40
0.30859375
 40
0.3095703125
 40
0.310546875
 40
0.3115234375
 40
0.3120117188
 40
0.3122558594
 40
0.3125
 40
0.3127441406
 40
0.3129882812
 40
0.3134765625
 40
0.314453125
 40
0.3154296875
 40
0.31640625
 40
0.318359375
 40
0.3203125
 40
0.32421875
 40
0.328125
 40
0.33203125
 40
0.3359375
 40
0.34375
 40
0.3515625
 40
0.359375
 40
0.36328125
 40
0.3671875
 40
0.369140625
 40
0.37109375
 40
0.373046875
 40
0.3740234375
 40
0.3745117188
 40
0.375
 40
0.3754882812
 40
0.3759765625
 40
0.376953125
 40
0.37890625
 40
0.380859375
 40
0.3828125
 40
0.38671875
 40
0.390625
 40
0.3984375
 40
0.40625
 40
0.4140625
 40
0.421875
 40
0.42578125
 40
0.4296875
 40
0.431640625
 40
0.43359375
 40
0.435546875
 40
0.4365234375
 40
0.4370117188
 40
0.4375
 40
0.4379882812
 40
0.4384765625
 40
0.439453125
 40
0.44140625
 40
0.443359375
 40
0.4453125
 40
0.44921875
 40
0.453125
 40
0.4609375
 40
0.46875
 40
0.4765625
 40
0.484375
 40
0.48828125
 40
0.4921875
 40
0.49609375
 40
0.498046875
 40
0.4990234375
 40
0.5
 40
0.5009765625
 40
0.501953125
 40
0.50390625
 40
0.5078125
 40
0.51171875
 40
0.515625
 40
0.5234375
 40
0.53125
 40
0.5390625
 40
0.546875
 40
0.55078125
 40
0.5546875
 40
0.55859375
 40
0.560546875
 40
0.5615234375
 40
0.5625
 40
0.5634765625
 40
0.564453125
 40
0.56640625
 40
0.5703125
 40
0.57421875
 40
0.578125
 40
0.5859375
 40
0.59375
 40
0.6015625
 40
0.609375
 40
0.61328125
 40
0.6171875
 40
0.62109375
 40
0.623046875
 40
0.6240234375
 40
0.625
 40
0.6259765625
 40
0.626953125
 40
0.62890625
 40
0.6328125
 40
0.63671875
 40
0.640625
 40
0.6484375
 40
0.65625
 40
0.6640625
 40
0.671875
 40
0.67578125
 40
0.6796875
 40
0.681640625
 40
0.68359375
 40
0.685546875
 40
0.6865234375
 40
0.6875
 40
0.6884765625
 40
0.689453125
 40
0.69140625
 40
0.693359375
 40
0.6953125
 40
0.69921875
 40
0.703125
 40
0.7109375
 40
0.71875
 40
0.7265625
 40
0.734375
 40
0.73828125
 40
0.7421875
 40
0.744140625
 40
0.74609375
 40
0.748046875
 40
0.7490234375
 40
0.7495117188
 40
0.75
 40
0.7504882812
 40
0.7509765625
 40
0.751953125
 40
0.75390625
 40
0.755859375
 40
0.7578125
 40
0.76171875
 40
0.765625
 40
0.7734375
 40
0.78125
 40
0.7890625
 40
0.79296875
 40
0.796875
 40
0.80078125
 40
0.8046875
 40
0.806640625
 40
0.80859375
 40
0.810546875
 40
0.8115234375
 40
0.8120117188
 40
0.8125
 40
0.8129882812
 40
0.8134765625
 40
0.814453125
 40
0.81640625
 40
0.818359375
 40
0.8203125
 40
0.82421875
 40
0.828125
 40
0.83203125
 40
0.8359375
 40
0.84375
 40
0.8515625
 40
0.85546875
 40
0.859375
 40
0.86328125
 40
0.8671875
 40
0.869140625
 40
0.87109375
 40
0.8720703125
 40
0.873046875
 40
0.8740234375
 40
0.8745117188
 40
0.8747558594
 40
0.875
 40
0.8752441406
 40
0.8754882812
 40
0.8759765625
 40
0.876953125
 40
0.8779296875
 40
0.87890625
 40
0.880859375
 40
0.8828125
 40
0.88671875
 40
0.890625
 40
0.89453125
 40
0.8984375
 40
0.90625
 40
0.9140625
 40
0.91796875
 40
0.921875
 40
0.92578125
 40
0.9296875
 40
0.931640625
 40
0.93359375
 40
0.9345703125
 40
0.935546875
 40
0.9365234375
 40
0.9370117188
 40
0.9372558594
 40
0.9375
 40
0.9377441406
 40
0.9379882812
 40
0.9384765625
 40
0.939453125
 40
0.9404296875
 40
0.94140625
 40
0.943359375
 40
0.9453125
 40
0.94921875
 40
0.953125
 40
0.95703125
 40
0.9609375
 40
0.96875
 40
0.9765625
 40
0.984375
 40
1.0
 40
1.0
 40
1.0
 40
1.0
 10
10.7372779807
 20
10.8794447389
 30
0.0
 10
10.7383426257
 20
10.8811092048
 30
0.0
 10
10.7399395932
 20
10.8836059038
 30
0.0
 10
10.7420688832
 20
10.8869348357
 30
0.0
 10
10.7436658506
 20
10.8894315346
 30
0.0
 10
10.7449966572
 20
10.891512117
 30
0.0
 10
10.7460613015
 20
10.893176583
 30
0.0
 10
10.7468597873
 20
10.8944249324
 30
0.0
 10
10.7476582633
 20
10.895673282
 30
0.0
 10
10.7483236906
 20
10.8967135729
 30
0.0
 10
10.7488559639
 20
10.8975458067
 30
0.0
 10
10.7491887907
 20
10.8980659501
 30
0.0
 10
10.7494546948
 20
10.898482071
 30
0.0
 10
10.7496551012
 20
10.8987941449
 30
0.0
 10
10.7498189945
 20
10.89905426
 30
0.0
 10
10.7499398271
 20
10.8992362355
 30
0.0
 10
10.7499993382
 20
10.8993403855
 30
0.0
 10
10.7500708351
 20
10.8994180361
 30
0.0
 10
10.7500396456
 20
10.899497452
 30
0.0
 10
10.7500338778
 20
10.8996027242
 30
0.0
 10
10.7500070957
 20
10.8997872373
 30
0.0
 10
10.7499775605
 20
10.9000506776
 30
0.0
 10
10.7499383837
 20
10.90036687
 30
0.0
 10
10.7498874524
 20
10.9007884375
 30
0.0
 10
10.7498233416
 20
10.9013154046
 30
0.0
 10
10.749721014
 20
10.9021585477
 30
0.0
 10
10.7495930189
 20
10.9032124779
 30
0.0
 10
10.7494394614
 20
10.9044771936
 30
0.0
 10
10.7492858941
 20
10.9057419095
 30
0.0
 10
10.7490811411
 20
10.9074281972
 30
0.0
 10
10.7488251986
 20
10.909536057
 30
0.0
 10
10.748569257
 20
10.9116439167
 30
0.0
 10
10.7483645026
 20
10.9133302044
 30
0.0
 10
10.7482109394
 20
10.9145949203
 30
0.0
 10
10.7480573665
 20
10.9158596359
 30
0.0
 10
10.7479294194
 20
10.9169135666
 30
0.0
 10
10.7478269937
 20
10.9177567088
 30
0.0
 10
10.7477631327
 20
10.9182836779
 30
0.0
 10
10.7477116887
 20
10.9187052413
 30
0.0
 10
10.7476740781
 20
10.9190214465
 30
0.0
 10
10.7476396429
 20
10.9192848468
 30
0.0
 10
10.7476216081
 20
10.9194694311
 30
0.0
 10
10.7476018249
 20
10.9195745893
 30
0.0
 10
10.7476136861
 20
10.9196543553
 30
0.0
 10
10.7475234918
 20
10.9197306909
 30
0.0
 10
10.7474388308
 20
10.9198336682
 30
0.0
 10
10.7472740882
 20
10.9200133209
 30
0.0
 10
10.747047413
 20
10.9202702592
 30
0.0
 10
10.7467716911
 20
10.9205784603
 30
0.0
 10
10.7464053583
 20
10.9209894387
 30
0.0
 10
10.7459469984
 20
10.9215031469
 30
0.0
 10
10.7452138706
 20
10.9223250882
 30
0.0
 10
10.7442973758
 20
10.923352512
 30
0.0
 10
10.7431976186
 20
10.9245854219
 30
0.0
 10
10.7420978515
 20
10.9258183313
 30
0.0
 10
10.7406314989
 20
10.9274622108
 30
0.0
 10
10.7387985569
 20
10.92951706
 30
0.0
 10
10.7369656157
 20
10.9315719093
 30
0.0
 10
10.7354992617
 20
10.9332157887
 30
0.0
 10
10.7343994988
 20
10.9344486983
 30
0.0
 10
10.7332997261
 20
10.9356816074
 30
0.0
 10
10.7323832793
 20
10.9367090335
 30
0.0
 10
10.7316500536
 20
10.9375309702
 30
0.0
 10
10.7311919429
 20
10.9380446903
 30
0.0
 10
10.7308250986
 20
10.9384556442
 30
0.0
 10
10.7305509394
 20
10.9387639204
 30
0.0
 10
10.7303193749
 20
10.9390206238
 30
0.0
 10
10.7301633605
 20
10.9392006957
 30
0.0
 10
10.7300647148
 20
10.9393030015
 30
0.0
 10
10.730017477
 20
10.9393813997
 30
0.0
 10
10.7298680005
 20
10.9394534184
 30
0.0
 10
10.7297043606
 20
10.9395516685
 30
0.0
 10
10.729401375
 20
10.9397225695
 30
0.0
 10
10.7289772253
 20
10.9399672557
 30
0.0
 10
10.7284645275
 20
10.9402606472
 30
0.0
 10
10.727782229
 20
10.9406519169
 30
0.0
 10
10.7269289113
 20
10.9411409763
 30
0.0
 10
10.7255638514
 20
10.9419234868
 30
0.0
 10
10.7238574414
 20
10.9429016197
 30
0.0
 10
10.7218097858
 20
10.9440753813
 30
0.0
 10
10.7197621205
 20
10.9452491424
 30
0.0
 10
10.7170319035
 20
10.9468141574
 30
0.0
 10
10.713619131
 20
10.948770426
 30
0.0
 10
10.7102063592
 20
10.9507266947
 30
0.0
 10
10.707476141
 20
10.9522917095
 30
0.0
 10
10.7054284795
 20
10.953465471
 30
0.0
 10
10.7033808097
 20
10.9546392311
 30
0.0
 10
10.7016744439
 20
10.9556173691
 30
0.0
 10
10.7003092938
 20
10.956399869
 30
0.0
 10
10.6994562058
 20
10.9568889553
 30
0.0
 10
10.6987734358
 20
10.9572801699
 30
0.0
 10
10.6982621785
 20
10.9575737297
 30
0.0
 10
10.6978335214
 20
10.9578178892
 30
0.0
 10
10.6975385824
 20
10.9579897305
 30
0.0
 10
10.6973620498
 20
10.958086474
 30
0.0
 10
10.6972521752
 20
10.9581631206
 30
0.0
 10
10.6970561994
 20
10.9582241371
 30
0.0
 10
10.6968249314
 20
10.9583109445
 30
0.0
 10
10.6964062194
 20
10.9584603172
 30
0.0
 10
10.6958153751
 20
10.9586750348
 30
0.0
 10
10.6951032305
 20
10.9589321274
 30
0.0
 10
10.6941547982
 20
10.9592751162
 30
0.0
 10
10.6929688833
 20
10.9597037842
 30
0.0
 10
10.6910716288
 20
10.960389691
 30
0.0
 10
10.6886999888
 20
10.9612470614
 30
0.0
 10
10.6858540516
 20
10.9622759115
 30
0.0
 10
10.6830081061
 20
10.9633047601
 30
0.0
 10
10.6792135151
 20
10.9646765588
 30
0.0
 10
10.6744702752
 20
10.9663913069
 30
0.0
 10
10.669727036
 20
10.9681060552
 30
0.0
 10
10.6659324439
 20
10.9694778536
 30
0.0
 10
10.6630865017
 20
10.9705067029
 30
0.0
 10
10.6602405522
 20
10.9715355505
 30
0.0
 10
10.6578689506
 20
10.9723929287
 30
0.0
 10
10.6559716177
 20
10.9730788196
 30
0.0
 10
10.6547859022
 20
10.973507528
 30
0.0
 10
10.6538370605
 20
10.9738504338
 30
0.0
 10
10.6531261668
 20
10.9741077802
 30
0.0
 10
10.6525314087
 20
10.9743217038
 30
0.0
 10
10.6521196835
 20
10.9744724939
 30
0.0
 10
10.6518772209
 20
10.9745570303
 30
0.0
 10
10.6517156311
 20
10.9746250224
 30
0.0
 10
10.6514766083
 20
10.9746754699
 30
0.0
 10
10.6511849208
 20
10.9747488529
 30
0.0
 10
10.6506618833
 20
10.974874422
 30
0.0
 10
10.6499212661
 20
10.975055297
 30
0.0
 10
10.6490297093
 20
10.975271709
 30
0.0
 10
10.6478419506
 20
10.9755604812
 30
0.0
 10
10.6463569154
 20
10.9759213701
 30
0.0
 10
10.6439810474
 20
10.9764988351
 30
0.0
 10
10.6410111477
 20
10.9772206516
 30
0.0
 10
10.6374472958
 20
10.9780868377
 30
0.0
 10
10.6338834365
 20
10.9789530221
 30
0.0
 10
10.6291316263
 20
10.9801079352
 30
0.0
 10
10.6231918654
 20
10.9815515772
 30
0.0
 10
10.6160641404
 20
10.9832839435
 30
0.0
 10
10.610124407
 20
10.9847275947
 30
0.0
 10
10.6053725364
 20
10.9858824875
 30
0.0
 10
10.6024028081
 20
10.9866043596
 30
0.0
 10
10.6000265885
 20
10.9871817105
 30
0.0
 10
10.5982456202
 20
10.9876151257
 30
0.0
 10
10.596757674
 20
10.9879750259
 30
0.0
 10
10.5957235808
 20
10.9882294664
 30
0.0
 10
10.5951210079
 20
10.9883709413
 30
0.0
 10
10.5947019318
 20
10.9884880891
 30
0.0
 10
10.5941572725
 20
10.9885630304
 30
0.0
 10
10.5934748648
 20
10.9886776742
 30
0.0
 10
10.592260242
 20
10.9888714417
 30
0.0
 10
10.5905357369
 20
10.9891518384
 30
0.0
 10
10.5884617635
 20
10.9894867795
 30
0.0
 10
10.5856980608
 20
10.9899339038
 30
0.0
 10
10.5822428863
 20
10.9904926256
 30
0.0
 10
10.5767149124
 20
10.991386683
 30
0.0
 10
10.5698048397
 20
10.9925042194
 30
0.0
 10
10.5615128003
 20
10.9938452794
 30
0.0
 10
10.5532207382
 20
10.9951863308
 30
0.0
 10
10.546310722
 20
10.9963038885
 30
0.0
 10
10.5407826351
 20
10.9971979034
 30
0.0
 10
10.5373277477
 20
10.9977567333
 30
0.0
 10
10.5345634559
 20
10.9982036357
 30
0.0
 10
10.5324912824
 20
10.9985392549
 30
0.0
 10
10.5307611457
 20
10.99881753
 30
0.0
 10
10.5295565762
 20
10.9990150849
 30
0.0
 10
10.5288580606
 20
10.9991236603
 30
0.0
 10
10.5283628798
 20
10.999217242
 30
0.0
 10
10.5277579706
 20
10.9992643795
 30
0.0
 10
10.5269896995
 20
10.9993434299
 30
0.0
 10
10.5256273923
 20
10.99947422
 30
0.0
 10
10.5236905624
 20
10.9996650092
 30
0.0
 10
10.5213623758
 20
10.9998922672
 30
0.0
 10
10.5182595209
 20
11.0001958677
 30
0.0
 10
10.514380475
 20
11.0005751664
 30
0.0
 10
10.5081742686
 20
11.0011821576
 30
0.0
 10
10.5004164168
 20
11.0019408546
 30
0.0
 10
10.491107044
 20
11.0028513224
 30
0.0
 10
10.4817976241
 20
11.0037617319
 30
0.0
 10
10.4740398899
 20
11.0045205745
 30
0.0
 10
10.4678334484
 20
11.0051272745
 30
0.0
 10
10.4631793103
 20
11.0055833212
 30
0.0
 10
10.4592986578
 20
11.0059601101
 30
0.0
 10
10.4565865264
 20
11.0062302404
 30
0.0
 10
10.4550299834
 20
11.0063746417
 30
0.0
 10
10.4538816011
 20
11.0065109972
 30
0.0
 10
10.4526604958
 20
11.0065401139
 30
0.0
 10
10.451057722
 20
11.0066163424
 30
0.0
 10
10.448241049
 20
11.006732314
 30
0.0
 10
10.4442234095
 20
11.0069070993
 30
0.0
 10
10.4393995973
 20
11.0071129416
 30
0.0
 10
10.4329687716
 20
11.0073887607
 30
0.0
 10
10.4249299217
 20
11.007733064
 30
0.0
 10
10.4152834414
 20
11.0081464429
 30
0.0
 10
10.405636911
 20
11.0085597148
 30
0.0
 10
10.3975981865
 20
11.0089042858
 30
0.0
 10
10.39116711
 20
11.0091795694
 30
0.0
 10
10.3863440628
 20
11.0093870453
 30
0.0
 10
10.3823240299
 20
11.0095567199
 30
0.0
 10
10.3795116295
 20
11.0096818149
 30
0.0
 10
10.37790201
 20
11.0097434253
 30
0.0
 10
10.3767019324
 20
11.0098174442
 30
0.0
 10
10.3754745733
 20
11.0097851545
 30
0.0
 10
10.3738476106
 20
11.0097791832
 30
0.0
 10
10.3709959921
 20
11.0097514564
 30
0.0
 10
10.3669245694
 20
11.0097208794
 30
0.0
 10
10.36203787
 20
11.0096803205
 30
0.0
 10
10.3555226171
 20
11.0096275931
 30
0.0
 10
10.3473784337
 20
11.0095612171
 30
0.0
 10
10.3376054573
 20
11.0094817792
 30
0.0
 10
10.3278324938
 20
11.009402235
 30
0.0
 10
10.3196882782
 20
11.0093361249
 30
0.0
 10
10.3131730899
 20
11.0092828658
 30
0.0
 10
10.3082861936
 20
11.0092439285
 30
0.0
 10
10.3042153868
 20
11.0092082786
 30
0.0
 10
10.3013626687
 20
11.0091896076
 30
0.0
 10
10.2997374678
 20
11.0091691266
 30
0.0
 10
10.2985046969
 20
11.0091814062
 30
0.0
 10
10.297324945
 20
11.0090880302
 30
0.0
 10
10.2957334487
 20
11.0090003828
 30
0.0
 10
10.2929569468
 20
11.0088298289
 30
0.0
 10
10.2889860107
 20
11.0085951576
 30
0.0
 10
10.2842228156
 20
11.0083097095
 30
0.0
 10
10.2778712154
 20
11.0079304542
 30
0.0
 10
10.2699319454
 20
11.0074559253
 30
0.0
 10
10.260404726
 20
11.0068866843
 30
0.0
 10
10.2508775198
 20
11.0063174045
 30
0.0
 10
10.2429382167
 20
11.0058429723
 30
0.0
 10
10.2365866827
 20
11.0054635237
 30
0.0
 10
10.2326171851
 20
11.0052261417
 30
0.0
 10
10.2294411031
 20
11.0050367557
 30
0.0
 10
10.2270603668
 20
11.0048932935
 30
0.0
 10
10.2250722041
 20
11.0047782674
 30
0.0
 10
10.2234911292
 20
11.0046760961
 30
0.0
 10
10.2222794867
 20
11.0046272034
 30
0.0
 10
10.2211664618
 20
11.0044724426
 30
0.0
 10
10.2196479802
 20
11.004303076
 30
0.0
 10
10.2177616974
 20
11.0040786798
 30
0.0
 10
10.215493099
 20
11.0038148351
 30
0.0
 10
10.2124700681
 20
11.0034611454
 30
0.0
 10
10.2086906745
 20
11.0030196827
 30
0.0
 10
10.2026439827
 20
11.0023129794
 30
0.0
 10
10.1950855027
 20
11.0014297246
 30
0.0
 10
10.1860153733
 20
11.0003697666
 30
0.0
 10
10.1769452421
 20
10.9993098186
 30
0.0
 10
10.1693867664
 20
10.9984265387
 30
0.0
 10
10.1633400659
 20
10.9977198856
 30
0.0
 10
10.1595606947
 20
10.9972782951
 30
0.0
 10
10.1565376179
 20
10.9969248677
 30
0.0
 10
10.1542691596
 20
10.9966602217
 30
0.0
 10
10.1523824382
 20
10.9964383326
 30
0.0
 10
10.1510545497
 20
10.9962856611
 30
0.0
 10
10.1503069727
 20
10.9961942812
 30
0.0
 10
10.1497146931
 20
10.9961374059
 30
0.0
 10
10.1492431929
 20
10.9960359615
 30
0.0
 10
10.1485723967
 20
10.9959162484
 30
0.0
 10
10.1474181321
 20
10.9956995073
 30
0.0
 10
10.1457589206
 20
10.995393664
 30
0.0
 10
10.1437722594
 20
10.9950250312
 30
0.0
 10
10.1411218435
 20
10.9945340869
 30
0.0
 10
10.1378093489
 20
10.9939202127
 30
0.0
 10
10.132509064
 20
10.9929381223
 30
0.0
 10
10.1258838085
 20
10.9917104722
 30
0.0
 10
10.1179334595
 20
10.9902373077
 30
0.0
 10
10.1113081757
 20
10.9890096678
 30
0.0
 10
10.1060079531
 20
10.9880275548
 30
0.0
 10
10.1020327686
 20
10.9872909751
 30
0.0
 10
10.0980576519
 20
10.9865543755
 30
0.0
 10
10.0947448435
 20
10.9859406049
 30
0.0
 10
10.0920950695
 20
10.9854494486
 30
0.0
 10
10.0901064473
 20
10.9850814633
 30
0.0
 10
10.0884533711
 20
10.9847735941
 30
0.0
 10
10.0872881542
 20
10.9845604696
 30
0.0
 10
10.0866349064
 20
10.9844349618
 30
0.0
 10
10.086109503
 20
10.9843513169
 30
0.0
 10
10.0857196747
 20
10.9842275897
 30
0.0
 10
10.0851526134
 20
10.9840766012
 30
0.0
 10
10.0841822896
 20
10.9838058573
 30
0.0
 10
10.0827845934
 20
10.983422486
 30
0.0
 10
10.0811122886
 20
10.9829609826
 30
0.0
 10
10.0788808265
 20
10.982346154
 30
0.0
 10
10.0760920899
 20
10.9815774435
 30
0.0
 10
10.0727453527
 20
10.9806550658
 30
0.0
 10
10.0693986832
 20
10.9797326681
 30
0.0
 10
10.0649364335
 20
10.9785028115
 30
0.0
 10
10.0593586297
 20
10.9769654883
 30
0.0
 10
10.0537808226
 20
10.975428166
 30
0.0
 10
10.0493185782
 20
10.9741983079
 30
0.0
 10
10.0459718928
 20
10.9732759147
 30
0.0
 10
10.0426252153
 20
10.97235352
 30
0.0
 10
10.039836293
 20
10.9715848625
 30
0.0
 10
10.0376052096
 20
10.9709699258
 30
0.0
 10
10.0362106586
 20
10.970585615
 30
0.0
 10
10.0350953015
 20
10.9702781098
 30
0.0
 10
10.0342580069
 20
10.9700476357
 30
0.0
 10
10.0335627325
 20
10.9698550814
 30
0.0
 10
10.0330711909
 20
10.96972126
 30
0.0
 10
10.0327978821
 20
10.9696432814
 30
0.0
 10
10.0325715698
 20
10.969589049
 30
0.0
 10
10.0324267941
 20
10.969518565
 30
0.0
 10
10.0322053191
 20
10.969430255
 30
0.0
 10
10.0318309888
 20
10.9692730714
 30
0.0
 10
10.0312893035
 20
10.9690499042
 30
0.0
 10
10.0306422464
 20
10.9687815125
 30
0.0
 10
10.0297784679
 20
10.9684238634
 30
0.0
 10
10.0286990994
 20
10.9679767312
 30
0.0
 10
10.0269719116
 20
10.9672613594
 30
0.0
 10
10.0248129949
 20
10.966367131
 30
0.0
 10
10.0222222657
 20
10.9652940627
 30
0.0
 10
10.0196315443
 20
10.9642209929
 30
0.0
 10
10.0161772464
 20
10.9627902336
 30
0.0
 10
10.0118593749
 20
10.9610017844
 30
0.0
 10
10.0075415028
 20
10.9592133353
 30
0.0
 10
10.004087206
 20
10.9577825759
 30
0.0
 10
10.0014964812
 20
10.9567095067
 30
0.0
 10
9.9989057649
 20
10.9556364361
 30
0.0
 10
9.9967468079
 20
10.9547422148
 30
0.0
 10
9.9950197022
 20
10.9540268284
 30
0.0
 10
9.9939401248
 20
10.9535797334
 30
0.0
 10
9.9930767751
 20
10.953222008
 30
0.0
 10
9.9924284081
 20
10.9529538492
 30
0.0
 10
9.9918908214
 20
10.9527299533
 30
0.0
 10
9.9915091743
 20
10.9525740706
 30
0.0
 10
9.9912994226
 20
10.9524836761
 30
0.0
 10
9.9911186365
 20
10.9524195951
 30
0.0
 10
9.9910275736
 20
10.9523413141
 30
0.0
 10
9.9908748599
 20
10.9522418925
 30
0.0
 10
9.9906221925
 20
10.9520655971
 30
0.0
 10
9.9902536156
 20
10.9518149529
 30
0.0
 10
9.9898145865
 20
10.9515136635
 30
0.0
 10
9.9892280745
 20
10.9511121247
 30
0.0
 10
9.9884953249
 20
10.9506101394
 30
0.0
 10
9.9873227073
 20
10.9498069975
 30
0.0
 10
9.9858570102
 20
10.9488030582
 30
0.0
 10
9.9840981415
 20
10.9475983362
 30
0.0
 10
9.9823392815
 20
10.9463936127
 30
0.0
 10
9.9799941318
 20
10.9447873153
 30
0.0
 10
9.9770626956
 20
10.9427794434
 30
0.0
 10
9.9735449718
 20
10.9403699972
 30
0.0
 10
9.9688546736
 20
10.9371574022
 30
0.0
 10
9.9653369499
 20
10.9347479559
 30
0.0
 10
9.9629918007
 20
10.9331416584
 30
0.0
  0
ELLIPSE
  5
360
100
AcDbEntity
  8
0
100
AcDbEllipse
 62
7
  6
CONTINUOUS
 10
9.8274399003
 20
8.2991687655
 30
0.0
 11
-0.0481054245
 21
0.2823785924
 31
0.0
 40
0.8380289501
 41
0.0
 42
6.2831853072
  0
ENDSEC
  0
SECTION
  2
OBJECTS
  0
DICTIONARY
  5
C
100
AcDbDictionary
280
0
281
1
  3
ACAD_GROUP
350
D
  3
ACAD_MLINESTYLE
350
17
  3
ACAD_LAYOUT
350
1A
  3
ACAD_PLOTSETTINGS
350
19
  3
ACAD_PLOTSTYLENAME
350
E
  3
ACAD_IMAGE_DICT
350
       362
  3
ACAD_IMAGE_VARS
350
       363
  3
ACAD_TABLESTYLE
350
       364
  0
IMAGEDEF_REACTOR
  5
361
100
AcDbRasterImageDefReactor
 90
2
330
275
  0
DICTIONARY
  5
D
102
{ACAD_REACTORS
330
C
102
}
100
AcDbDictionary
280
0
281
1
  0
ACDBDICTIONARYWDFLT
  5
E
102
{ACAD_REACTORS
330
C
102
}
100
AcDbDictionary
281
1
  3
Normal
350
F
100
AcDbDictionaryWithDefault
340
F
  0
DICTIONARY
  5
362
330
C
100
AcDbDictionary
281
1
  3
Z2F_assy_2_img_1
350
       367
  0
RASTERVARIABLES
  5
363
330
C
100
AcDbRasterVariables
 90
0
 70
0
 71
1
 72
5
  0
DICTIONARY
  5
17
102
{ACAD_REACTORS
330
C
102
}
100
AcDbDictionary
280
0
281
1
  3
Standard
350
18
  0
DICTIONARY
  5
364
330
C
100
AcDbDictionary
281
1
  3
Standard
350
       368
  3
Standard1
350
       369
  0
DICTIONARY
  5
19
102
{ACAD_REACTORS
330
C
102
}
100
AcDbDictionary
281
1
  0
DICTIONARY
  5
1A
102
{ACAD_REACTORS
330
C
102
}
100
AcDbDictionary
281
1
  3
Model
350
365
  3
Layout1
350
366
  0
ACDBPLACEHOLDER
  5
F
102
{ACAD_REACTORS
330
E
102
}
  0
MLINESTYLE
  5
18
102
{ACAD_REACTORS
330
17
102
}
100
AcDbMlineStyle
  2
STANDARD
 70
0
  3

 62
256
 51
90.0
 52
90.0
 71
2
 49
0.5
 62
256
  6
BYLAYER
 49
-0.5
 62
256
  6
BYLAYER
  0
LAYOUT
  5
365
102
{ACAD_REACTORS
330
1A
102
}
100
AcDbPlotSettings
  1

  2
none_device
  4
ANSI_C_(22.00_x_17.00_Inches)
  6

 40
0.0
 41
0.0
 42
0.0
 43
0.0
 44
558.8
 45
431.8
 46
0.0
 47
0.0
 48
0.0
 49
0.0
140
0.0
141
0.0
142
1.0
143
1.0
 70
1024
 72
0
 73
0
 74
0
  7

 75
0
147
1.0
148
0.0
149
0.0
100
AcDbLayout
  1
Model
 70
0
 71
0
 10
0.0
 20
0.0
 11
22.0
 21
17.0
 12
0.0
 22
0.0
 32
0.0
 14
0.0
 24
0.0
 34
0.0
 15
0.0
 25
0.0
 35
0.0
146
0.0
 13
0.0
 23
0.0
 33
0.0
 16
1.0
 26
0.0
 36
0.0
 17
0.0
 27
1.0
 37
0.0
 76
0
330
204
345
0
346
0
  0
LAYOUT
  5
366
102
{ACAD_REACTORS
330
1A
102
}
100
AcDbPlotSettings
  1

  2
none_device
  4
ANSI_C_(22.00_x_17.00_Inches)
  6

 40
0.0
 41
0.0
 42
0.0
 43
0.0
 44
558.8
 45
431.8
 46
0.0
 47
0.0
 48
0.0
 49
0.0
140
0.0
141
0.0
142
1.0
143
1.0
 70
0
 72
0
 73
0
 74
0
  7

 75
0
147
1.0
148
0.0
149
0.0
100
AcDbLayout
  1
Layout1
 70
0
 71
1
 10
0.0
 20
0.0
 11
22.0
 21
17.0
 12
0.0
 22
0.0
 32
0.0
 14
0.0
 24
0.0
 34
0.0
 15
0.0
 25
0.0
 35
0.0
146
0.0
 13
0.0
 23
0.0
 33
0.0
 16
1.0
 26
0.0
 36
0.0
 17
0.0
 27
1.0
 37
0.0
 76
0
330
205
345
0
346
0
  0
IMAGEDEF
  5
367
102
{ACAD_REACTORS
330
362
330
361
102
}
100
AcDbRasterImageDef
 90
0
  1
Z2F_assy_2_img_1.png
 10
369.0
 20
92.0
 11
0.0066666667
 21
0.0066666667
280
1
281
0
  0
TABLESTYLE
  5
368
102
{ACAD_REACTORS
330
364
330
278
330
279
102
}
330
364
100
AcDbTableStyle
  3
Standard
 70
0
 71
0
 40
0.06
 41
0.06
280
1
281
1
  7
Standard
140
0.18
170
1
 62
0
 63
7
283
0
  7
Standard
140
0.18
170
1
 62
0
 63
7
283
0
  7
Standard
140
0.18
170
1
 62
0
 63
7
283
0
  0
TABLESTYLE
  5
369
102
{ACAD_REACTORS
330
364
330
277
102
}
330
364
100
AcDbTableStyle
  3
Standard1
 70
1
 71
0
 40
0.06
 41
0.06
280
1
281
1
  7
Standard
140
0.18
170
1
 62
0
 63
7
283
0
  7
Standard
140
0.18
170
1
 62
0
 63
7
283
0
  7
Standard
140
0.18
170
1
 62
0
 63
7
283
0
  0
ENDSEC
  0
EOF
