999
DXF file: Z2E_assy_2.dxf
999
Pro/ENGINEER 2014200 by Parametric Technology Corporation
  0
SECTION
  2
HEADER
  9
$ACADVER
  1
AC1021
  9
$DWGCODEPAGE
  3
ANSI_1252
  9
$EXTMAX
 10
22.0
 20
17.0
 30
0.0
  9
$EXTMIN
 10
0.0
 20
0.0
 30
0.0
  9
$LIMMIN
 10
0.0
 20
0.0
  9
$LIMMAX
 10
22.0
 20
17.0
  9
$VIEWCTR
 10
11.0
 20
8.5
  9
$VIEWSIZE
 40
17.0
  9
$CLAYER
  8
0
  9
$LTSCALE
 40
1.21
  9
$CELTYPE
  6
BYLAYER
  9
$DIMSCALE
 40
1.0
  9
$DIMASZ
 40
0.1875
  9
$DIMEXO
 40
0.0625
  9
$DIMDLI
 40
0.836
  9
$DIMEXE
 40
0.125
  9
$DIMCEN
 40
0.198
  9
$DIMLFAC
 40
1.0
  9
$DIMBLK
  1
_FILLED
  9
$DIMTXT
 40
0.1
  9
$DIMTOL
 70
0
  9
$DIMLIM
 70
0
  9
$DIMTFAC
 40
1.0
  9
$DIMGAP
 40
0.09
  9
$DIMDSEP
 70
46
  9
$AUNITS
 70
0
  9
$PDMODE
 70
3
  9
$PDSIZE
 40
0.3125
  9
$HANDSEED
  5
36A
  9
$TILEMODE
 70
1
  9
$MEASUREMENT
 70
0
  9
$INSUNITS
 70
1
  0
ENDSEC
  0
SECTION
  2
CLASSES
  0
CLASS
  1
ACDBDICTIONARYWDFLT
  2
AcDbDictionaryWithDefault
  3
AutoCAD 2000
 90
0
 91
1
280
0
281
0
  0
CLASS
  1
ACDBPLACEHOLDER
  2
AcDbPlaceHolder
  3
AutoCAD 2000
 90
0
 91
1
280
0
281
0
  0
CLASS
  1
LAYOUT
  2
AcDbLayout
  3
AutoCAD 2000
 90
0
 91
0
280
0
281
0
  0
CLASS
  1
RASTERVARIABLES
  2
AcDbRasterVariables
  3
ISM
 90
0
 91
1
280
0
281
0
  0
CLASS
  1
IMAGEDEF
  2
AcDbRasterImageDef
  3
ISM
 90
0
 91
1
280
0
281
0
  0
CLASS
  1
IMAGEDEF_REACTOR
  2
AcDbRasterImageDefReactor
  3
ISM
 90
0
 91
1
280
0
281
0
  0
CLASS
  1
IMAGE
  2
AcDbRasterImage
  3
ISM
 90
127
 91
1
280
0
281
1
  0
CLASS
  1
TABLESTYLE
  2
AcDbTableStyle
  3
ObjectDBX Classes
 90
2047
 91
1
280
0
281
0
  0
CLASS
  1
ACAD_TABLE
  2
AcDbTable
  3
ObjectDBX Classes
 90
1025
 91
3
280
0
281
1
  0
ENDSEC
  0
SECTION
  2
TABLES
  0
TABLE
  2
VPORT
  5
8
100
AcDbSymbolTable
 70
2
  0
VPORT
  5
1F4
100
AcDbSymbolTableRecord
100
AcDbViewportTableRecord
  2
*ACTIVE
 70
0
 10
0.0
 20
0.0
 11
1.0
 21
1.0
 12
11.0
 22
8.5
 13
0.0
 23
0.0
 14
1.0
 24
1.0
 15
0.0
 25
0.0
 16
0.0
 26
0.0
 36
1.0
 17
0.0
 27
0.0
 37
0.0
 40
17.0
 41
1.2941176471
 42
50.0
 43
0.0
 44
0.0
 50
0.0
 51
0.0
 71
0
 72
100
 73
1
 74
1
 75
0
 76
0
 77
0
 78
0
  0
ENDTAB
  0
TABLE
  2
LTYPE
  5
5
100
AcDbSymbolTable
 70
6
  0
LTYPE
  5
14
100
AcDbSymbolTableRecord
100
AcDbLinetypeTableRecord
  2
BYBLOCK
 70
0
  3

 72
65
 73
0
 40
0.0
  0
LTYPE
  5
15
100
AcDbSymbolTableRecord
100
AcDbLinetypeTableRecord
  2
BYLAYER
 70
0
  3

 72
65
 73
0
 40
0.0
  0
LTYPE
  5
16
100
AcDbSymbolTableRecord
100
AcDbLinetypeTableRecord
  2
CONTINUOUS
 70
64
  3
Solid line
 72
65
 73
0
 40
0.0
  0
LTYPE
  5
1F5
100
AcDbSymbolTableRecord
100
AcDbLinetypeTableRecord
  2
CENTER
 70
64
  3
____ _ ____ _ ____ _ ____ _ ____ _ ____ _ ____
 72
65
 73
4
 40
0.6
 49
0.375
 74
0
 49
-0.075
 74
0
 49
0.075
 74
0
 49
-0.075
 74
0
  0
LTYPE
  5
1F6
100
AcDbSymbolTableRecord
100
AcDbLinetypeTableRecord
  2
HIDDEN
 70
64
  3
- - - - - - - - - - - - - - - - - - - -
 72
65
 73
2
 40
0.2
 49
0.1
 74
0
 49
-0.1
 74
0
  0
LTYPE
  5
1F7
100
AcDbSymbolTableRecord
100
AcDbLinetypeTableRecord
  2
PHANTOM
 70
64
  3
_____ _ _ _____ _ _ _____ _ _ _____
 72
65
 73
6
 40
0.8
 49
0.45
 74
0
 49
-0.05
 74
0
 49
0.1
 74
0
 49
-0.05
 74
0
 49
0.1
 74
0
 49
-0.05
 74
0
  0
LTYPE
  5
1F8
100
AcDbSymbolTableRecord
100
AcDbLinetypeTableRecord
  2
DOT
 70
64
  3
. . . . . . . . . . . . . . . . . . . .
 72
65
 73
2
 40
0.2
 49
0.1
 74
0
 49
-0.1
 74
0
  0
LTYPE
  5
1F9
100
AcDbSymbolTableRecord
100
AcDbLinetypeTableRecord
  2
DASHED
 70
64
  3
- - - - - - - - - - - - - - - - - - - -
 72
65
 73
2
 40
0.2
 49
0.1
 74
0
 49
-0.1
 74
0
  0
ENDTAB
  0
TABLE
  2
LAYER
  5
2
100
AcDbSymbolTable
 70
36
  0
LAYER
  5
10
100
AcDbSymbolTableRecord
100
AcDbLayerTableRecord
  2
0
 70
0
 62
7
  6
CONTINUOUS
370
-3
390
F
  0
LAYER
  5
1FA
100
AcDbSymbolTableRecord
100
AcDbLayerTableRecord
  2
DEFAULT_1
 70
0
 62
7
  6
CENTER
370
-3
390
F
  0
LAYER
  5
1FB
100
AcDbSymbolTableRecord
100
AcDbLayerTableRecord
  2
DEFAULT_2
 70
0
 62
8
  6
HIDDEN
370
-3
390
F
  0
LAYER
  5
1FC
100
AcDbSymbolTableRecord
100
AcDbLayerTableRecord
  2
DEFAULT_3
 70
0
 62
7
  6
PHANTOM
370
-3
390
F
  0
LAYER
  5
1FD
100
AcDbSymbolTableRecord
100
AcDbLayerTableRecord
  2
DATUM_PLANES
 70
0
 62
7
  6
CONTINUOUS
370
-3
390
F
  0
LAYER
  5
1FE
100
AcDbSymbolTableRecord
100
AcDbLayerTableRecord
  2
PORT_AREAS
 70
0
 62
7
  6
CONTINUOUS
370
-3
390
F
  0
LAYER
  5
1FF
100
AcDbSymbolTableRecord
100
AcDbLayerTableRecord
  2
SUNNBOMCOSMETIC
 70
0
 62
7
  6
CONTINUOUS
370
-3
390
F
  0
LAYER
  5
200
100
AcDbSymbolTableRecord
100
AcDbLayerTableRecord
  2
SUNNBOMSTAMPING
 70
0
 62
7
  6
CONTINUOUS
370
-3
390
F
  0
LAYER
  5
201
100
AcDbSymbolTableRecord
100
AcDbLayerTableRecord
  2
THREADS
 70
0
 62
7
  6
CONTINUOUS
370
-3
390
F
  0
ENDTAB
  0
TABLE
  2
STYLE
  5
3
100
AcDbSymbolTable
 70
1
  0
STYLE
  5
11
100
AcDbSymbolTableRecord
100
AcDbTextStyleTableRecord
  2
STANDARD
 70
0
 40
0.0
 41
0.8
 50
0.0
 71
0
 42
0.2
  3
txt
  4

  0
STYLE
  5
202
100
AcDbSymbolTableRecord
100
AcDbTextStyleTableRecord
  2
TEXTSTYLE_1
 70
0
 40
0.0
 41
0.8
 50
0.0
 71
0
 42
0.2
  3
gdt
  4

  0
ENDTAB
  0
TABLE
  2
VIEW
  5
6
100
AcDbSymbolTable
 70
0
  0
ENDTAB
  0
TABLE
  2
UCS
  5
7
100
AcDbSymbolTable
 70
0
  0
ENDTAB
  0
TABLE
  2
APPID
  5
9
100
AcDbSymbolTable
 70
1
  0
APPID
  5
203
100
AcDbSymbolTableRecord
100
AcDbRegAppTableRecord
  2
ACAD
 70
0
  0
ENDTAB
  0
TABLE
  2
BLOCK_RECORD
  5
1
100
AcDbSymbolTable
 70
0
  0
BLOCK_RECORD
  5
204
100
AcDbSymbolTableRecord
100
AcDbBlockTableRecord
  2
*Model_Space
  0
BLOCK_RECORD
  5
205
100
AcDbSymbolTableRecord
100
AcDbBlockTableRecord
  2
*Paper_Space
  0
BLOCK_RECORD
  5
206
100
AcDbSymbolTableRecord
100
AcDbBlockTableRecord
  2
SUN_FIRST_THIRD_ANGLE_BL0
  0
BLOCK_RECORD
  5
207
100
AcDbSymbolTableRecord
100
AcDbBlockTableRecord
  2
*T1
  0
BLOCK_RECORD
  5
208
100
AcDbSymbolTableRecord
100
AcDbBlockTableRecord
  2
*T2
  0
BLOCK_RECORD
  5
209
100
AcDbSymbolTableRecord
100
AcDbBlockTableRecord
  2
*T3
  0
ENDTAB
  0
TABLE
  2
DIMSTYLE
  5
A
100
AcDbSymbolTable
 70
1
100
AcDbDimStyleTable
 71
0
  0
DIMSTYLE
105
20A
100
AcDbSymbolTableRecord
100
AcDbDimStyleTableRecord
  2
STANDARD
 70
0
  3

  4

 40
1.0
 41
0.1875
 42
0.0625
 43
0.38
 44
0.125
 45
0.0
 46
0.0
 47
0.001
 48
0.001
140
0.1
141
0.09
142
0.0
143
25.4
144
1.0
145
0.0
146
1.0
147
0.09
 71
0.0
 72
0.0
 73
1
 74
1
 75
0
 76
0
 77
0
 78
4
170
0
171
2
172
0
173
0
174
0
175
0
176
0
177
0
178
0
270
2
271
3
272
3
273
2
274
2
275
0
280
0
281
0
282
0
283
1
284
4
285
0
286
0
287
3
288
0
340
11
278
46
  0
ENDTAB
  0
ENDSEC
  0
SECTION
  2
BLOCKS
  0
BLOCK
  5
20
100
AcDbEntity
  8
0
100
AcDbBlockBegin
  2
*Model_Space
 70
0
 10
0.0
 20
0.0
 30
0.0
  3
*Model_Space
  1

  0
ENDBLK
  5
21
100
AcDbEntity
  8
0
100
AcDbBlockEnd
  0
BLOCK
  5
1C
100
AcDbEntity
  8
0
100
AcDbBlockBegin
  2
*Paper_Space
 70
0
 10
0.0
 20
0.0
 30
0.0
  3
*Paper_Space
  1

  0
ENDBLK
  5
1D
100
AcDbEntity
  8
0
100
AcDbBlockEnd
  0
BLOCK
  5
20B
100
AcDbEntity
  8
0
100
AcDbBlockBegin
 62
2
  6
CONTINUOUS
  2
SUN_FIRST_THIRD_ANGLE_BL0
 70
64
 10
20.4816717061
 20
1.2289683772
  3
SUN_FIRST_THIRD_ANGLE_BL0
  1

  0
TEXT
  5
20C
100
AcDbEntity
  8
0
100
AcDbText
 62
2
  6
CONTINUOUS
 10
19.4750896608
 20
1.4136269581
  7
STANDARD
 40
0.08
  1
FIRST ANGLE
 41
0.8
 72
0
100
AcDbText
  0
TEXT
  5
20D
100
AcDbEntity
  8
0
100
AcDbText
 62
2
  6
CONTINUOUS
 10
20.7842537513
 20
1.4047600029
  7
STANDARD
 40
0.08
  1
THIRD ANGLE
 41
0.8
 72
0
100
AcDbText
  0
LINE
  5
20E
100
AcDbEntity
  8
0
100
AcDbLine
 62
7
  6
CONTINUOUS
 10
19.4767170086
 20
1.1727031207
 11
19.6334271527
 21
1.1717972817
  0
LINE
  5
20F
100
AcDbEntity
  8
0
100
AcDbLine
 62
7
  6
CONTINUOUS
 10
19.6596964832
 20
1.1717972817
 11
19.6950230232
 21
1.171593082
  0
LINE
  5
210
100
AcDbEntity
  8
0
100
AcDbLine
 62
7
  6
CONTINUOUS
 10
19.7194818561
 20
1.1708914427
 11
19.8852396156
 21
1.1699333054
  0
LINE
  5
211
100
AcDbEntity
  8
0
100
AcDbLine
 62
7
  6
CONTINUOUS
 10
19.4758111696
 20
1.2723454088
 11
19.88525039
 21
1.3511534004
  0
LINE
  5
212
100
AcDbEntity
  8
0
100
AcDbLine
 62
7
  6
CONTINUOUS
 10
19.88525039
 20
1.3511534004
 11
19.8831348489
 21
0.9851647912
  0
LINE
  5
213
100
AcDbEntity
  8
0
100
AcDbLine
 62
7
  6
CONTINUOUS
 10
19.8831348489
 20
0.9851647912
 11
19.4767170086
 21
1.0658141206
  0
LINE
  5
214
100
AcDbEntity
  8
0
100
AcDbLine
 62
7
  6
CONTINUOUS
 10
19.4767170086
 20
1.0658141206
 11
19.4779056764
 21
1.2714536432
  0
CIRCLE
  5
215
100
AcDbEntity
  8
0
100
AcDbCircle
 62
7
  6
CONTINUOUS
 10
20.2068232291
 20
1.1717972817
 40
0.175742101
  0
CIRCLE
  5
216
100
AcDbEntity
  8
0
100
AcDbCircle
 62
7
  6
CONTINUOUS
 10
20.2068232291
 20
1.1717972817
 40
0.1005522074
  0
LINE
  5
217
100
AcDbEntity
  8
0
100
AcDbLine
 62
7
  6
CONTINUOUS
 10
20.2077290681
 20
1.3756110529
 11
20.2071171714
 21
1.2379342989
  0
LINE
  5
218
100
AcDbEntity
  8
0
100
AcDbLine
 62
7
  6
CONTINUOUS
 10
20.2077290681
 20
1.2016899681
 11
20.2074674401
 21
1.1428236749
  0
LINE
  5
219
100
AcDbEntity
  8
0
100
AcDbLine
 62
7
  6
CONTINUOUS
 10
20.208634907
 20
1.101141841
 11
20.2080230104
 21
0.963465087
  0
LINE
  5
21A
100
AcDbEntity
  8
0
100
AcDbLine
 62
7
  6
CONTINUOUS
 10
20.0066328138
 20
1.1745147986
 11
20.1443095678
 21
1.1739029019
  0
LINE
  5
21B
100
AcDbEntity
  8
0
100
AcDbLine
 62
7
  6
CONTINUOUS
 10
20.1832714155
 20
1.1727031207
 11
20.238153505
 21
1.172335442
  0
LINE
  5
21C
100
AcDbEntity
  8
0
100
AcDbLine
 62
7
  6
CONTINUOUS
 10
20.2756669918
 20
1.1717972817
 11
20.407916871
 21
1.1712095044
  0
CIRCLE
  5
21D
100
AcDbEntity
  8
0
100
AcDbCircle
 62
7
  6
CONTINUOUS
 10
20.7509457401
 20
1.1693297793
 40
0.1722024983
  0
CIRCLE
  5
21E
100
AcDbEntity
  8
0
100
AcDbCircle
 62
7
  6
CONTINUOUS
 10
20.7509457401
 20
1.1693297793
 40
0.0985164967
  0
LINE
  5
21F
100
AcDbEntity
  8
0
100
AcDbLine
 62
7
  6
CONTINUOUS
 10
20.7169767782
 20
1.170462078
 11
20.7825395137
 21
1.1682766535
  0
LINE
  5
220
100
AcDbEntity
  8
0
100
AcDbLine
 62
7
  6
CONTINUOUS
 10
20.8177513651
 20
1.1693297793
 11
20.947965719
 21
1.1693297793
  0
LINE
  5
221
100
AcDbEntity
  8
0
100
AcDbLine
 62
7
  6
CONTINUOUS
 10
20.6875370113
 20
1.170462078
 11
20.5573226574
 21
1.170462078
  0
LINE
  5
222
100
AcDbEntity
  8
0
100
AcDbLine
 62
7
  6
CONTINUOUS
 10
20.7486811426
 20
1.1987695462
 11
20.7486811426
 21
1.1432869085
  0
LINE
  5
223
100
AcDbEntity
  8
0
100
AcDbLine
 62
7
  6
CONTINUOUS
 10
20.7498134414
 20
1.1059210505
 11
20.7498134414
 21
0.9757066966
  0
LINE
  5
224
100
AcDbEntity
  8
0
100
AcDbLine
 62
7
  6
CONTINUOUS
 10
20.7486811426
 20
1.2338708068
 11
20.7486811426
 21
1.3640851607
  0
LINE
  5
225
100
AcDbEntity
  8
0
100
AcDbLine
 62
7
  6
CONTINUOUS
 10
21.0702539817
 20
1.2701043662
 11
21.4790138229
 21
1.3448360823
  0
LINE
  5
226
100
AcDbEntity
  8
0
100
AcDbLine
 62
7
  6
CONTINUOUS
 10
21.4790138229
 20
1.3448360823
 11
21.4790138229
 21
0.9779712941
  0
LINE
  5
227
100
AcDbEntity
  8
0
100
AcDbLine
 62
7
  6
CONTINUOUS
 10
21.4790138229
 20
0.9779712941
 11
21.069121683
 21
1.0617614
  0
LINE
  5
228
100
AcDbEntity
  8
0
100
AcDbLine
 62
7
  6
CONTINUOUS
 10
21.0702539817
 20
1.2701043662
 11
21.069121683
 21
1.0617614
  0
LINE
  5
229
100
AcDbEntity
  8
0
100
AcDbLine
 62
7
  6
CONTINUOUS
 10
21.4790138229
 20
1.1693297793
 11
21.3159628059
 21
1.1693297793
  0
LINE
  5
22A
100
AcDbEntity
  8
0
100
AcDbLine
 62
7
  6
CONTINUOUS
 10
21.2876553377
 20
1.1693297793
 11
21.2502894796
 21
1.1693297793
  0
LINE
  5
22B
100
AcDbEntity
  8
0
100
AcDbLine
 62
7
  6
CONTINUOUS
 10
21.2208497126
 20
1.1659328831
 11
21.0713862804
 21
1.1659328831
  0
LINE
  5
22C
100
AcDbEntity
  8
0
100
AcDbLine
 62
7
  6
CONTINUOUS
 10
20.4796138713
 20
1.5284908897
 11
20.4766766948
 21
0.9294458646
  0
ENDBLK
  5
22D
100
AcDbEntity
  8
0
  6
BYBLOCK
 62
0
100
AcDbBlockEnd
  0
BLOCK
  5
22E
100
AcDbEntity
  8
0
100
AcDbBlockBegin
  2
*T1
 70
1
 10
0.0
 20
0.0
  3
*T1
  1

  0
LINE
  5
22F
100
AcDbEntity
  8
0
100
AcDbLine
 62
2
  6
CONTINUOUS
 10
9.275
 20
0.0
 11
-0.0
 21
0.0
  0
LINE
  5
230
100
AcDbEntity
  8
0
100
AcDbLine
 62
2
  6
CONTINUOUS
 10
9.275
 20
0.0
 11
9.275
 21
1.25
  0
LINE
  5
231
100
AcDbEntity
  8
0
100
AcDbLine
 62
2
  6
CONTINUOUS
 10
9.275
 20
0.625
 11
-0.0
 21
0.625
  0
LINE
  5
232
100
AcDbEntity
  8
0
100
AcDbLine
 62
2
  6
CONTINUOUS
 10
9.275
 20
1.25
 11
-0.0
 21
1.25
  0
LINE
  5
233
100
AcDbEntity
  8
0
100
AcDbLine
 62
2
  6
CONTINUOUS
 10
6.8
 20
0.0
 11
6.8
 21
1.25
  0
LINE
  5
234
100
AcDbEntity
  8
0
100
AcDbLine
 62
2
  6
CONTINUOUS
 10
6.4
 20
0.0
 11
6.4
 21
0.625
  0
LINE
  5
235
100
AcDbEntity
  8
0
100
AcDbLine
 62
2
  6
CONTINUOUS
 10
5.9
 20
0.0
 11
5.9
 21
0.625
  0
LINE
  5
236
100
AcDbEntity
  8
0
100
AcDbLine
 62
2
  6
CONTINUOUS
 10
5.2
 20
0.0
 11
5.2
 21
0.625
  0
LINE
  5
237
100
AcDbEntity
  8
0
100
AcDbLine
 62
2
  6
CONTINUOUS
 10
4.1
 20
0.0
 11
4.1
 21
1.25
  0
LINE
  5
238
100
AcDbEntity
  8
0
100
AcDbLine
 62
2
  6
CONTINUOUS
 10
-0.0
 20
0.0
 11
-0.0
 21
1.25
  0
MTEXT
  5
239
100
AcDbEntity
  8
0
100
AcDbMText
 62
2
  6
CONTINUOUS
  7
STANDARD
 71
2
 72
1
 10
6.6
 20
0.325
 30
0.0
 11
1.0
 21
0.0
 31
0.0
 44
0.9
  1
2
 40
0.125
 41
0.2
  0
MTEXT
  5
23A
100
AcDbEntity
  8
0
100
AcDbMText
 62
2
  6
CONTINUOUS
  7
STANDARD
 71
2
 72
1
 10
6.15
 20
0.325
 30
0.0
 11
1.0
 21
0.0
 31
0.0
 44
0.9
  1
C
 40
0.125
 41
0.2
  0
MTEXT
  5
23B
100
AcDbEntity
  8
0
100
AcDbMText
 62
2
  6
CONTINUOUS
  7
STANDARD
 71
2
 72
1
 10
5.55
 20
0.325
 30
0.0
 11
1.0
 21
0.0
 31
0.0
 44
0.9
  1
2.000
 40
0.125
 41
1.0
  0
MTEXT
  5
23C
100
AcDbEntity
  8
0
100
AcDbMText
 62
2
  6
CONTINUOUS
  7
STANDARD
 71
2
 72
1
 10
4.65
 20
0.325
 30
0.0
 11
1.0
 21
0.0
 31
0.0
 44
0.9
  1
Sep-18-19
 40
0.125
 41
1.8
  0
MTEXT
  5
23D
100
AcDbEntity
  8
0
100
AcDbMText
 62
2
  6
CONTINUOUS
  7
STANDARD
 71
2
 72
1
 10
2.05
 20
0.4625
 30
0.0
 11
1.0
 21
0.0
 31
0.0
 44
0.9
  1
T-162A Subplate ISO 03\PP to T, side ports
 40
0.125
 41
4.4
  0
MTEXT
  5
23E
100
AcDbEntity
  8
0
100
AcDbMText
 62
2
  6
CONTINUOUS
  7
STANDARD
 71
1
 72
1
 10
6.45
 20
0.5625
 30
0.0
 11
1.0
 21
0.0
 31
0.0
 44
0.9
  1
SHEET
 40
0.06
 41
0.48
  0
MTEXT
  5
23F
100
AcDbEntity
  8
0
100
AcDbMText
 62
2
  6
CONTINUOUS
  7
STANDARD
 71
1
 72
1
 10
5.95
 20
0.5625
 30
0.0
 11
1.0
 21
0.0
 31
0.0
 44
0.9
  1
DWG SIZE
 40
0.06
 41
0.768
  0
MTEXT
  5
240
100
AcDbEntity
  8
0
100
AcDbMText
 62
2
  6
CONTINUOUS
  7
STANDARD
 71
1
 72
1
 10
5.25
 20
0.5625
 30
0.0
 11
1.0
 21
0.0
 31
0.0
 44
0.9
  1
SCALE
 40
0.06
 41
0.48
  0
MTEXT
  5
241
100
AcDbEntity
  8
0
100
AcDbMText
 62
2
  6
CONTINUOUS
  7
STANDARD
 71
1
 72
1
 10
4.15
 20
0.5625
 30
0.0
 11
1.0
 21
0.0
 31
0.0
 44
0.9
  1
DATE
 40
0.06
 41
0.384
  0
MTEXT
  5
242
100
AcDbEntity
  8
0
100
AcDbMText
 62
2
  6
CONTINUOUS
  7
STANDARD
 71
1
 72
1
 10
0.05
 20
0.5625
 30
0.0
 11
1.0
 21
0.0
 31
0.0
 44
0.9
  1
DESCRIPTION
 40
0.06
 41
1.056
  0
MTEXT
  5
243
100
AcDbEntity
  8
0
100
AcDbMText
 62
2
  6
CONTINUOUS
  7
STANDARD
 71
2
 72
1
 10
5.45
 20
1.0375
 30
0.0
 11
1.0
 21
0.0
 31
0.0
 44
0.9
  1
ALL DIMENSIONS IN INCH\PVIEWS ARE THIRD ANGLE
 40
0.12
 41
4.224
  0
MTEXT
  5
244
100
AcDbEntity
  8
0
100
AcDbMText
 62
2
  6
CONTINUOUS
  7
STANDARD
 71
2
 72
1
 10
2.05
 20
0.95
 30
0.0
 11
1.0
 21
0.0
 31
0.0
 44
0.9
  1
Z2E
 40
0.125
 41
0.6
  0
MTEXT
  5
245
100
AcDbEntity
  8
0
100
AcDbMText
 62
2
  6
CONTINUOUS
  7
STANDARD
 71
1
 72
1
 10
0.05
 20
1.1875
 30
0.0
 11
1.0
 21
0.0
 31
0.0
 44
0.9
  1
MODEL
 40
0.06
 41
0.48
  0
ENDBLK
  5
246
100
AcDbEntity
  8
0
  6
BYBLOCK
 62
0
100
AcDbBlockEnd
  0
BLOCK
  5
247
100
AcDbEntity
  8
0
100
AcDbBlockBegin
  2
*T2
 70
1
 10
0.0
 20
0.0
  3
*T2
  1

  0
LINE
  5
248
100
AcDbEntity
  8
0
100
AcDbLine
 62
2
  6
CONTINUOUS
 10
0.0
 20
0.0
 11
9.055
 21
0.0
  0
LINE
  5
249
100
AcDbEntity
  8
0
100
AcDbLine
 62
2
  6
CONTINUOUS
 10
0.0
 20
0.0
 11
0.0
 21
-1.844
  0
LINE
  5
24A
100
AcDbEntity
  8
0
100
AcDbLine
 62
2
  6
CONTINUOUS
 10
0.0
 20
-0.344
 11
9.055
 21
-0.344
  0
LINE
  5
24B
100
AcDbEntity
  8
0
100
AcDbLine
 62
2
  6
CONTINUOUS
 10
0.0
 20
-0.594
 11
9.055
 21
-0.594
  0
LINE
  5
24C
100
AcDbEntity
  8
0
100
AcDbLine
 62
2
  6
CONTINUOUS
 10
0.0
 20
-0.844
 11
9.055
 21
-0.844
  0
LINE
  5
24D
100
AcDbEntity
  8
0
100
AcDbLine
 62
2
  6
CONTINUOUS
 10
0.0
 20
-1.094
 11
9.055
 21
-1.094
  0
LINE
  5
24E
100
AcDbEntity
  8
0
100
AcDbLine
 62
2
  6
CONTINUOUS
 10
0.0
 20
-1.344
 11
9.055
 21
-1.344
  0
LINE
  5
24F
100
AcDbEntity
  8
0
100
AcDbLine
 62
2
  6
CONTINUOUS
 10
0.0
 20
-1.594
 11
9.055
 21
-1.594
  0
LINE
  5
250
100
AcDbEntity
  8
0
100
AcDbLine
 62
2
  6
CONTINUOUS
 10
0.0
 20
-1.844
 11
9.055
 21
-1.844
  0
LINE
  5
251
100
AcDbEntity
  8
0
100
AcDbLine
 62
2
  6
CONTINUOUS
 10
3.055
 20
0.0
 11
3.055
 21
-1.844
  0
LINE
  5
252
100
AcDbEntity
  8
0
100
AcDbLine
 62
2
  6
CONTINUOUS
 10
9.055
 20
0.0
 11
9.055
 21
-1.844
  0
MTEXT
  5
253
100
AcDbEntity
  8
0
100
AcDbMText
 62
2
  6
CONTINUOUS
  7
STANDARD
 71
2
 72
1
 10
1.5275
 20
-0.0995
 30
0.0
 11
1.0
 21
0.0
 31
0.0
 44
0.9
  1
Technical Data
 40
0.145
 41
3.248
  0
MTEXT
  5
254
100
AcDbEntity
  8
0
100
AcDbMText
 62
2
  6
CONTINUOUS
  7
STANDARD
 71
2
 72
1
 10
4.555
 20
-0.0995
 30
0.0
 11
1.0
 21
0.0
 31
0.0
 44
0.9
  1
U.S. Units
 40
0.145
 41
2.32
  0
MTEXT
  5
255
100
AcDbEntity
  8
0
100
AcDbMText
 62
2
  6
CONTINUOUS
  7
STANDARD
 71
2
 72
1
 10
7.555
 20
-0.0995
 30
0.0
 11
1.0
 21
0.0
 31
0.0
 44
0.9
  1
Metric Units
 40
0.145
 41
2.784
  0
MTEXT
  5
256
100
AcDbEntity
  8
0
100
AcDbMText
 62
2
  6
CONTINUOUS
  7
STANDARD
 71
2
 72
1
 10
1.5275
 20
-0.4065
 30
0.0
 11
1.0
 21
0.0
 31
0.0
 44
0.9
  1
Cavity
 40
0.125
 41
1.2
  0
MTEXT
  5
257
100
AcDbEntity
  8
0
100
AcDbMText
 62
2
  6
CONTINUOUS
  7
STANDARD
 71
2
 72
1
 10
6.055
 20
-0.4065
 30
0.0
 11
1.0
 21
0.0
 31
0.0
 44
0.9
  1
T-162A
 40
0.125
 41
1.2
  0
MTEXT
  5
258
100
AcDbEntity
  8
0
100
AcDbMText
 62
2
  6
CONTINUOUS
  7
STANDARD
 71
2
 72
1
 10
1.5275
 20
-0.6565
 30
0.0
 11
1.0
 21
0.0
 31
0.0
 44
0.9
  1
Body Features
 40
0.125
 41
2.6
  0
MTEXT
  5
259
100
AcDbEntity
  8
0
100
AcDbMText
 62
2
  6
CONTINUOUS
  7
STANDARD
 71
2
 72
1
 10
6.055
 20
-0.6565
 30
0.0
 11
1.0
 21
0.0
 31
0.0
 44
0.9
  1
P to T, side ports
 40
0.125
 41
3.6
  0
MTEXT
  5
25A
100
AcDbEntity
  8
0
100
AcDbMText
 62
2
  6
CONTINUOUS
  7
STANDARD
 71
2
 72
1
 10
1.5275
 20
-0.9065
 30
0.0
 11
1.0
 21
0.0
 31
0.0
 44
0.9
  1
Body Type
 40
0.125
 41
1.8
  0
MTEXT
  5
25B
100
AcDbEntity
  8
0
100
AcDbMText
 62
2
  6
CONTINUOUS
  7
STANDARD
 71
2
 72
1
 10
6.055
 20
-0.9065
 30
0.0
 11
1.0
 21
0.0
 31
0.0
 44
0.9
  1
Subplate
 40
0.125
 41
1.6
  0
MTEXT
  5
25C
100
AcDbEntity
  8
0
100
AcDbMText
 62
2
  6
CONTINUOUS
  7
STANDARD
 71
2
 72
1
 10
1.5275
 20
-1.1565
 30
0.0
 11
1.0
 21
0.0
 31
0.0
 44
0.9
  1
Interface
 40
0.125
 41
1.8
  0
MTEXT
  5
25D
100
AcDbEntity
  8
0
100
AcDbMText
 62
2
  6
CONTINUOUS
  7
STANDARD
 71
2
 72
1
 10
6.055
 20
-1.1565
 30
0.0
 11
1.0
 21
0.0
 31
0.0
 44
0.9
  1
ISO 03
 40
0.125
 41
1.2
  0
MTEXT
  5
25E
100
AcDbEntity
  8
0
100
AcDbMText
 62
2
  6
CONTINUOUS
  7
STANDARD
 71
2
 72
1
 10
1.5275
 20
-1.4065
 30
0.0
 11
1.0
 21
0.0
 31
0.0
 44
0.9
  1
Open Cavity Quantity
 40
0.125
 41
4.0
  0
MTEXT
  5
25F
100
AcDbEntity
  8
0
100
AcDbMText
 62
2
  6
CONTINUOUS
  7
STANDARD
 71
2
 72
1
 10
6.055
 20
-1.4065
 30
0.0
 11
1.0
 21
0.0
 31
0.0
 44
0.9
  1
1
 40
0.125
 41
0.2
  0
MTEXT
  5
260
100
AcDbEntity
  8
0
100
AcDbMText
 62
2
  6
CONTINUOUS
  7
STANDARD
 71
2
 72
1
 10
1.5275
 20
-1.6565
 30
0.0
 11
1.0
 21
0.0
 31
0.0
 44
0.9
  1
Weight
 40
0.125
 41
1.2
  0
MTEXT
  5
261
100
AcDbEntity
  8
0
100
AcDbMText
 62
2
  6
CONTINUOUS
  7
STANDARD
 71
2
 72
1
 10
4.555
 20
-1.6565
 30
0.0
 11
1.0
 21
0.0
 31
0.0
 44
0.9
  1
0.931 lb.
 40
0.125
 41
1.8
  0
MTEXT
  5
262
100
AcDbEntity
  8
0
100
AcDbMText
 62
2
  6
CONTINUOUS
  7
STANDARD
 71
2
 72
1
 10
7.555
 20
-1.6565
 30
0.0
 11
1.0
 21
0.0
 31
0.0
 44
0.9
  1
0,422 kg.
 40
0.125
 41
1.8
  0
ENDBLK
  5
263
100
AcDbEntity
  8
0
  6
BYBLOCK
 62
0
100
AcDbBlockEnd
  0
BLOCK
  5
264
100
AcDbEntity
  8
0
100
AcDbBlockBegin
  2
*T3
 70
1
 10
0.0
 20
0.0
  3
*T3
  1

  0
LINE
  5
265
100
AcDbEntity
  8
0
100
AcDbLine
 62
2
  6
CONTINUOUS
 10
0.0
 20
0.0
 11
4.6
 21
0.0
  0
LINE
  5
266
100
AcDbEntity
  8
0
100
AcDbLine
 62
2
  6
CONTINUOUS
 10
0.0
 20
0.0
 11
0.0
 21
-0.93775
  0
LINE
  5
267
100
AcDbEntity
  8
0
100
AcDbLine
 62
2
  6
CONTINUOUS
 10
0.0
 20
-0.34375
 11
4.6
 21
-0.34375
  0
LINE
  5
268
100
AcDbEntity
  8
0
100
AcDbLine
 62
2
  6
CONTINUOUS
 10
0.0
 20
-0.68775
 11
4.6
 21
-0.68775
  0
LINE
  5
269
100
AcDbEntity
  8
0
100
AcDbLine
 62
2
  6
CONTINUOUS
 10
0.0
 20
-0.93775
 11
4.6
 21
-0.93775
  0
LINE
  5
26A
100
AcDbEntity
  8
0
100
AcDbLine
 62
2
  6
CONTINUOUS
 10
1.3
 20
-0.34375
 11
1.3
 21
-0.93775
  0
LINE
  5
26B
100
AcDbEntity
  8
0
100
AcDbLine
 62
2
  6
CONTINUOUS
 10
3.3
 20
-0.34375
 11
3.3
 21
-0.93775
  0
LINE
  5
26C
100
AcDbEntity
  8
0
100
AcDbLine
 62
2
  6
CONTINUOUS
 10
4.6
 20
0.0
 11
4.6
 21
-0.93775
  0
MTEXT
  5
26D
100
AcDbEntity
  8
0
100
AcDbMText
 62
2
  6
CONTINUOUS
  7
STANDARD
 71
2
 72
1
 10
2.3
 20
-0.099375
 30
0.0
 11
1.0
 21
0.0
 31
0.0
 44
0.9
  1
Port Headings
 40
0.145
 41
3.016
  0
MTEXT
  5
26E
100
AcDbEntity
  8
0
100
AcDbMText
 62
2
  6
CONTINUOUS
  7
STANDARD
 71
2
 72
1
 10
0.65
 20
-0.44325
 30
0.0
 11
1.0
 21
0.0
 31
0.0
 44
0.9
  1
Product
 40
0.145
 41
1.624
  0
MTEXT
  5
26F
100
AcDbEntity
  8
0
100
AcDbMText
 62
2
  6
CONTINUOUS
  7
STANDARD
 71
2
 72
1
 10
2.3
 20
-0.44325
 30
0.0
 11
1.0
 21
0.0
 31
0.0
 44
0.9
  1
Port
 40
0.145
 41
0.928
  0
MTEXT
  5
270
100
AcDbEntity
  8
0
100
AcDbMText
 62
2
  6
CONTINUOUS
  7
STANDARD
 71
2
 72
1
 10
3.95
 20
-0.44325
 30
0.0
 11
1.0
 21
0.0
 31
0.0
 44
0.9
  1
Size
 40
0.145
 41
0.928
  0
MTEXT
  5
271
100
AcDbEntity
  8
0
100
AcDbMText
 62
2
  6
CONTINUOUS
  7
STANDARD
 71
2
 72
1
 10
0.65
 20
-0.75025
 30
0.0
 11
1.0
 21
0.0
 31
0.0
 44
0.9
  1
Z2E
 40
0.125
 41
0.6
  0
MTEXT
  5
272
100
AcDbEntity
  8
0
100
AcDbMText
 62
2
  6
CONTINUOUS
  7
STANDARD
 71
2
 72
1
 10
2.3
 20
-0.75025
 30
0.0
 11
1.0
 21
0.0
 31
0.0
 44
0.9
  1
All Ports
 40
0.125
 41
1.8
  0
MTEXT
  5
273
100
AcDbEntity
  8
0
100
AcDbMText
 62
2
  6
CONTINUOUS
  7
STANDARD
 71
2
 72
1
 10
3.95
 20
-0.75025
 30
0.0
 11
1.0
 21
0.0
 31
0.0
 44
0.9
  1
SAE 6
 40
0.125
 41
1.0
  0
ENDBLK
  5
274
100
AcDbEntity
  8
0
  6
BYBLOCK
 62
0
100
AcDbBlockEnd
  0
ENDSEC
  0
SECTION
  2
ENTITIES
  0
IMAGE
  5
275
100
AcDbEntity
  8
0
100
AcDbRasterImage
 62
7
  6
CONTINUOUS
 10
19.2297077316
 20
0.3094318264
 30
0.0
 11
0.0066666667
 21
0.0
 31
0.0
 12
0.0
 22
0.0066666667
 32
0.0
 13
369.0
 23
92.0
340
       367
 70
9
280
0
281
50
282
50
283
0
360
       361
 71
1
 91
2
 14
-0.5
 24
-0.5
 14
368.5
 24
91.5
  0
INSERT
  5
276
100
AcDbEntity
  8
0
100
AcDbBlockReference
 62
2
  6
CONTINUOUS
  2
SUN_FIRST_THIRD_ANGLE_BL0
 10
20.4816717061
 20
1.2289683772
  0
ACAD_TABLE
  5
277
100
AcDbEntity
  8
0
 62
2
  6
CONTINUOUS
100
AcDbBlockReference
  2
*T1
 10
12.42375
 20
0.30125
 30
0.0
100
AcDbTable
342
       369
343
207
 11
1.0
 21
0.0
 31
0.0
 90
6
 91
4
 92
6
 93
20
 94
0
 95
0
 96
0
 70
1
 41
0.0
141
0.525
141
0.1
141
0.525
141
0.1
142
4.1
142
1.1
142
0.7
142
0.5
142
0.4
142
2.475
171
1
172
0
173
0
174
0
175
1
176
1
 91
33
178
0
145
0.0
301
CELL_VALUE
 90
4
  1
T-162A Subplate ISO 03\PP to T, side ports
304
ACVALUE_END
170
2
140
0.125
171
1
172
0
173
0
174
0
175
1
176
1
 91
33
178
0
145
0.0
301
CELL_VALUE
 90
4
  1
Sep-18-19
304
ACVALUE_END
170
5
140
0.125
171
1
172
0
173
0
174
0
175
1
176
1
 91
33
178
0
145
0.0
301
CELL_VALUE
 90
4
  1
2.000
304
ACVALUE_END
170
5
140
0.125
171
1
172
0
173
0
174
0
175
1
176
1
 91
33
178
0
145
0.0
301
CELL_VALUE
 90
4
  1
C
304
ACVALUE_END
170
5
140
0.125
171
1
172
0
173
0
174
0
175
1
176
1
 91
33
178
0
145
0.0
301
CELL_VALUE
 90
4
  1
2
304
ACVALUE_END
170
5
140
0.125
171
1
172
0
173
0
174
0
175
1
176
1
 91
33
178
0
145
0.0
301
CELL_VALUE
 90
4
  1
 
304
ACVALUE_END
170
1
140
0.125
171
1
172
0
173
0
174
0
175
1
176
1
 91
33
178
0
145
0.0
301
CELL_VALUE
 90
4
  1
DESCRIPTION
304
ACVALUE_END
170
1
140
0.06
171
1
172
0
173
0
174
0
175
1
176
1
 91
33
178
0
145
0.0
301
CELL_VALUE
 90
4
  1
DATE
304
ACVALUE_END
170
1
140
0.06
171
1
172
0
173
0
174
0
175
1
176
1
 91
33
178
0
145
0.0
301
CELL_VALUE
 90
4
  1
SCALE
304
ACVALUE_END
170
1
140
0.06
171
1
172
0
173
0
174
0
175
1
176
1
 91
33
178
0
145
0.0
301
CELL_VALUE
 90
4
  1
DWG SIZE
304
ACVALUE_END
170
1
140
0.06
171
1
172
0
173
0
174
0
175
1
176
1
 91
33
178
0
145
0.0
301
CELL_VALUE
 90
4
  1
SHEET
304
ACVALUE_END
170
1
140
0.06
171
1
172
0
173
0
174
0
175
1
176
1
 91
33
178
0
145
0.0
301
CELL_VALUE
 90
4
  1
 
304
ACVALUE_END
170
1
140
0.125
171
1
172
0
173
0
174
0
175
1
176
1
 91
33
178
0
145
0.0
301
CELL_VALUE
 90
4
  1
Z2E
304
ACVALUE_END
170
5
140
0.125
171
1
172
0
173
0
174
0
175
4
176
1
 91
33
178
0
145
0.0
301
CELL_VALUE
 90
4
  1
ALL DIMENSIONS IN INCH\PVIEWS ARE THIRD ANGLE
304
ACVALUE_END
170
5
140
0.12
171
1
172
0
173
1
174
0
175
1
176
1
 91
1
178
0
145
0.0
170
1
171
1
172
0
173
1
174
0
175
1
176
1
 91
1
178
0
145
0.0
170
1
171
1
172
0
173
1
174
0
175
1
176
1
 91
1
178
0
145
0.0
170
5
171
1
172
0
173
0
174
0
175
1
176
1
 91
33
178
0
145
0.0
301
CELL_VALUE
 90
4
  1
 
304
ACVALUE_END
170
1
140
0.125
171
1
172
0
173
0
174
0
175
1
176
1
 91
33
178
0
145
0.0
301
CELL_VALUE
 90
4
  1
MODEL
304
ACVALUE_END
170
1
140
0.06
171
1
172
0
173
0
174
0
175
1
176
1
 91
33
178
0
145
0.0
301
CELL_VALUE
 90
4
  1
 
304
ACVALUE_END
170
1
140
0.125
171
1
172
0
173
0
174
0
175
1
176
1
 91
33
178
0
145
0.0
301
CELL_VALUE
 90
4
  1
 
304
ACVALUE_END
170
1
140
0.125
171
1
172
0
173
0
174
0
175
1
176
1
 91
33
178
0
145
0.0
301
CELL_VALUE
 90
4
  1
 
304
ACVALUE_END
170
1
140
0.125
171
1
172
0
173
0
174
0
175
1
176
1
 91
33
178
0
145
0.0
301
CELL_VALUE
 90
4
  1
 
304
ACVALUE_END
170
1
140
0.125
171
1
172
0
173
0
174
0
175
1
176
1
 91
33
178
0
145
0.0
301
CELL_VALUE
 90
4
  1
 
304
ACVALUE_END
170
1
140
0.125
  0
ACAD_TABLE
  5
278
100
AcDbEntity
  8
0
 62
2
  6
CONTINUOUS
100
AcDbBlockReference
  2
*T2
 10
12.4237499994
 20
16.47875
 30
0.0
100
AcDbTable
342
       368
343
208
 11
1.0
 21
0.0
 31
0.0
 90
22
 91
7
 92
3
 93
16
 94
0
 95
0
 96
0
 41
0.028
141
0.344
141
0.25
141
0.25
141
0.25
141
0.25
141
0.25
141
0.25
142
3.055
142
3.0
142
3.0
171
1
172
0
173
0
174
0
175
1
176
1
 91
33
178
0
145
0.0
301
CELL_VALUE
 90
4
  1
Technical Data
304
ACVALUE_END
170
5
140
0.145
171
1
172
0
173
0
174
0
175
1
176
1
 91
33
178
0
145
0.0
301
CELL_VALUE
 90
4
  1
U.S. Units
304
ACVALUE_END
170
5
140
0.145
171
1
172
0
173
0
174
0
175
1
176
1
 91
33
178
0
145
0.0
301
CELL_VALUE
 90
4
  1
Metric Units
304
ACVALUE_END
170
5
140
0.145
171
1
172
0
173
0
174
0
175
1
176
1
 91
33
178
0
145
0.0
301
CELL_VALUE
 90
4
  1
Cavity
304
ACVALUE_END
170
5
140
0.125
171
1
172
0
173
0
174
0
175
2
176
1
 91
33
178
0
145
0.0
301
CELL_VALUE
 90
4
  1
T-162A
304
ACVALUE_END
170
5
140
0.125
171
1
172
0
173
1
174
0
175
1
176
1
 91
1
178
0
145
0.0
170
1
171
1
172
0
173
0
174
0
175
1
176
1
 91
33
178
0
145
0.0
301
CELL_VALUE
 90
4
  1
Body Features
304
ACVALUE_END
170
5
140
0.125
171
1
172
0
173
0
174
0
175
2
176
1
 91
33
178
0
145
0.0
301
CELL_VALUE
 90
4
  1
P to T, side ports
304
ACVALUE_END
170
5
140
0.125
171
1
172
0
173
1
174
0
175
1
176
1
 91
1
178
0
145
0.0
170
1
171
1
172
0
173
0
174
0
175
1
176
1
 91
33
178
0
145
0.0
301
CELL_VALUE
 90
4
  1
Body Type
304
ACVALUE_END
170
5
140
0.125
171
1
172
0
173
0
174
0
175
2
176
1
 91
33
178
0
145
0.0
301
CELL_VALUE
 90
4
  1
Subplate
304
ACVALUE_END
170
5
140
0.125
171
1
172
0
173
1
174
0
175
1
176
1
 91
1
178
0
145
0.0
170
1
171
1
172
0
173
0
174
0
175
1
176
1
 91
33
178
0
145
0.0
301
CELL_VALUE
 90
4
  1
Interface
304
ACVALUE_END
170
5
140
0.125
171
1
172
0
173
0
174
0
175
2
176
1
 91
33
178
0
145
0.0
301
CELL_VALUE
 90
4
  1
ISO 03
304
ACVALUE_END
170
5
140
0.125
171
1
172
0
173
1
174
0
175
1
176
1
 91
1
178
0
145
0.0
170
1
171
1
172
0
173
0
174
0
175
1
176
1
 91
33
178
0
145
0.0
301
CELL_VALUE
 90
4
  1
Open Cavity Quantity
304
ACVALUE_END
170
5
140
0.125
171
1
172
0
173
0
174
0
175
2
176
1
 91
33
178
0
145
0.0
301
CELL_VALUE
 90
4
  1
1
304
ACVALUE_END
170
5
140
0.125
171
1
172
0
173
1
174
0
175
1
176
1
 91
1
178
0
145
0.0
170
1
171
1
172
0
173
0
174
0
175
1
176
1
 91
33
178
0
145
0.0
301
CELL_VALUE
 90
4
  1
Weight
304
ACVALUE_END
170
5
140
0.125
171
1
172
0
173
0
174
0
175
1
176
1
 91
33
178
0
145
0.0
301
CELL_VALUE
 90
4
  1
0.931 lb.
304
ACVALUE_END
170
5
140
0.125
171
1
172
0
173
0
174
0
175
1
176
1
 91
33
178
0
145
0.0
301
CELL_VALUE
 90
4
  1
0,422 kg.
304
ACVALUE_END
170
5
140
0.125
  0
ACAD_TABLE
  5
279
100
AcDbEntity
  8
0
 62
2
  6
CONTINUOUS
100
AcDbBlockReference
  2
*T3
 10
0.52125
 20
1.459
 30
0.0
100
AcDbTable
342
       368
343
209
 11
1.0
 21
0.0
 31
0.0
 90
22
 91
3
 92
3
 93
16
 94
0
 95
0
 96
0
 41
0.05
141
0.34375
141
0.344
141
0.25
142
1.3
142
2.0
142
1.3
171
1
172
0
173
0
174
0
175
3
176
1
 91
33
178
0
145
0.0
301
CELL_VALUE
 90
4
  1
Port Headings
304
ACVALUE_END
170
5
140
0.145
171
1
172
0
173
1
174
0
175
1
176
1
 91
1
178
0
145
0.0
170
1
171
1
172
0
173
1
174
0
175
1
176
1
 91
1
178
0
145
0.0
170
1
171
1
172
0
173
0
174
0
175
1
176
1
 91
33
178
0
145
0.0
301
CELL_VALUE
 90
4
  1
Product
304
ACVALUE_END
170
5
140
0.145
171
1
172
0
173
0
174
0
175
1
176
1
 91
33
178
0
145
0.0
301
CELL_VALUE
 90
4
  1
Port
304
ACVALUE_END
170
5
140
0.145
171
1
172
0
173
0
174
0
175
1
176
1
 91
33
178
0
145
0.0
301
CELL_VALUE
 90
4
  1
Size
304
ACVALUE_END
170
5
140
0.145
171
1
172
0
173
0
174
0
175
1
176
1
 91
33
178
0
145
0.0
301
CELL_VALUE
 90
4
  1
Z2E
304
ACVALUE_END
170
5
140
0.125
171
1
172
0
173
0
174
0
175
1
176
1
 91
33
178
0
145
0.0
301
CELL_VALUE
 90
4
  1
All Ports
304
ACVALUE_END
170
5
140
0.125
171
1
172
0
173
0
174
0
175
1
176
1
 91
33
178
0
145
0.0
301
CELL_VALUE
 90
4
  1
SAE 6
304
ACVALUE_END
170
5
140
0.125
  0
MTEXT
  5
27A
100
AcDbEntity
  8
0
100
AcDbMText
 62
2
  6
CONTINUOUS
  7
STANDARD
 71
1
 72
1
 10
0.52125
 20
5.75995
 30
0.0
 11
1.0
 21
0.0
 31
0.0
 44
0.6
  3
Notes\P \P1. Important: Carefully consider\P   the maximum system pressure. The\P   pressure rating of the manifold is\P   dependent on the manifold material,\P   with the port type/size a secondary\P   consideration. Manifolds\P   constructed of alu
  1
minum are not\P   rated for pressures higher than\P   3000 psi (210 bar), regardless of\P   the port type/size specified.
 40
0.1
 41
3.04
  0
LINE
  5
27B
100
AcDbEntity
  8
0
100
AcDbLine
 62
7
  6
CONTINUOUS
 10
0.30125
 20
0.30125
 11
0.30125
 21
16.69875
  0
LINE
  5
27C
100
AcDbEntity
  8
0
100
AcDbLine
 62
7
  6
CONTINUOUS
 10
0.30125
 20
0.30125
 11
21.69875
 21
0.30125
  0
LINE
  5
27D
100
AcDbEntity
  8
0
100
AcDbLine
 62
7
  6
CONTINUOUS
 10
0.30125
 20
16.69875
 11
21.69875
 21
16.69875
  0
LINE
  5
27E
100
AcDbEntity
  8
0
100
AcDbLine
 62
7
  6
CONTINUOUS
 10
21.69875
 20
0.30125
 11
21.69875
 21
16.69875
  0
LINE
  5
27F
100
AcDbEntity
  8
0
100
AcDbLine
 62
7
  6
CONTINUOUS
 10
8.4904505967
 20
11.4907759842
 11
7.7139941022
 21
10.7407765587
  0
LINE
  5
280
100
AcDbEntity
  8
0
100
AcDbLine
 62
4
  6
CONTINUOUS
 10
8.4413720789
 20
11.0662268171
 11
8.4280613958
 21
11.0533696838
  0
LINE
  5
281
100
AcDbEntity
  8
0
100
AcDbLine
 62
4
  6
CONTINUOUS
 10
8.5185398245
 20
11.0379081629
 11
8.5052291428
 21
11.0250510309
  0
LINE
  5
282
100
AcDbEntity
  8
0
100
AcDbLine
 62
7
  6
CONTINUOUS
 10
7.7139941022
 20
5.9111471411
 11
7.7139941022
 21
10.7407765587
  0
LINE
  5
283
100
AcDbEntity
  8
0
100
AcDbLine
 62
4
  6
CONTINUOUS
 10
8.6897529516
 20
11.0490015451
 11
8.6542577991
 21
11.0147158585
  0
LINE
  5
284
100
AcDbEntity
  8
0
100
AcDbLine
 62
4
  6
CONTINUOUS
 10
8.7825030624
 20
11.0471627138
 11
8.7381341198
 21
11.0043056037
  0
LINE
  5
285
100
AcDbEntity
  8
0
100
AcDbLine
 62
4
  6
CONTINUOUS
 10
8.72482344
 20
10.9914484736
 11
8.7203865442
 21
10.9871627611
  0
LINE
  5
286
100
AcDbEntity
  8
0
100
AcDbLine
 62
4
  6
CONTINUOUS
 10
9.1379342631
 20
11.3504829904
 11
9.075817745
 21
11.2904830377
  0
LINE
  5
287
100
AcDbEntity
  8
0
100
AcDbLine
 62
4
  6
CONTINUOUS
 10
9.178524415
 20
11.2925471266
 11
9.2228933567
 21
11.3354042358
  0
LINE
  5
288
100
AcDbEntity
  8
0
100
AcDbLine
 62
4
  6
CONTINUOUS
 10
8.9270947138
 20
11.032541838
 11
8.86941509
 21
10.9768275964
  0
LINE
  5
289
100
AcDbEntity
  8
0
100
AcDbLine
 62
4
  6
CONTINUOUS
 10
8.9977664928
 20
11.0322341442
 11
8.9533975502
 21
10.9893770341
  0
LINE
  5
28A
100
AcDbEntity
  8
0
100
AcDbLine
 62
4
  6
CONTINUOUS
 10
9.3476782488
 20
11.3359371956
 11
9.2855617306
 21
11.2759372429
  0
LINE
  5
28B
100
AcDbEntity
  8
0
100
AcDbLine
 62
4
  6
CONTINUOUS
 10
9.0527499877
 20
10.9824869192
 11
9.092682036
 21
11.0210583182
  0
LINE
  5
28C
100
AcDbEntity
  8
0
100
AcDbLine
 62
4
  6
CONTINUOUS
 10
9.3606704031
 20
11.2799152594
 11
9.4050393448
 21
11.3227723686
  0
LINE
  5
28D
100
AcDbEntity
  8
0
100
AcDbLine
 62
4
  6
CONTINUOUS
 10
9.163353815
 20
11.0207506244
 11
9.1278586602
 21
10.9864649356
  0
LINE
  5
28E
100
AcDbEntity
  8
0
100
AcDbLine
 62
4
  6
CONTINUOUS
 10
9.5209504482
 20
11.3147339062
 11
9.4765815065
 21
11.2718767971
  0
LINE
  5
28F
100
AcDbEntity
  8
0
100
AcDbLine
 62
4
  6
CONTINUOUS
 10
9.2582692477
 20
11.009574806
 11
9.2449585646
 21
10.9967176727
  0
LINE
  5
290
100
AcDbEntity
  8
0
100
AcDbLine
 62
4
  6
CONTINUOUS
 10
9.2945286457
 20
10.9703129245
 11
9.3034024334
 21
10.9788843458
  0
LINE
  5
291
100
AcDbEntity
  8
0
100
AcDbLine
 62
4
  6
CONTINUOUS
 10
8.7148669889
 20
10.9875455436
 11
8.72482344
 21
10.9914484736
  0
LINE
  5
292
100
AcDbEntity
  8
0
100
AcDbLine
 62
4
  6
CONTINUOUS
 10
9.5780737477
 20
11.1784821682
 11
9.5159572295
 21
11.1184822155
  0
LINE
  5
293
100
AcDbEntity
  8
0
100
AcDbLine
 62
4
  6
CONTINUOUS
 10
9.7141355469
 20
11.3013364742
 11
9.6697666052
 21
11.258479365
  0
LINE
  5
294
100
AcDbEntity
  8
0
100
AcDbLine
 62
4
  6
CONTINUOUS
 10
9.4117346878
 20
11.0035253524
 11
9.3673657452
 21
10.9606682423
  0
LINE
  5
295
100
AcDbEntity
  8
0
100
AcDbLine
 62
4
  6
CONTINUOUS
 10
9.5999397173
 20
11.1310316513
 11
9.5910659296
 21
11.12246023
  0
LINE
  5
296
100
AcDbEntity
  8
0
100
AcDbLine
 62
4
  6
CONTINUOUS
 10
9.4158531648
 20
10.9389319872
 11
9.477969683
 21
10.9989319399
  0
LINE
  5
297
100
AcDbEntity
  8
0
100
AcDbLine
 62
4
  6
CONTINUOUS
 10
9.5728851156
 20
10.9877561215
 11
9.5373899631
 21
10.9534704349
  0
LINE
  5
298
100
AcDbEntity
  8
0
100
AcDbLine
 62
4
  6
CONTINUOUS
 10
10.0707427012
 20
11.2857925055
 11
10.008626183
 21
11.2257925528
  0
LINE
  5
299
100
AcDbEntity
  8
0
100
AcDbLine
 62
4
  6
CONTINUOUS
 10
10.4681522026
 20
11.258232063
 11
10.3398007721
 21
11.2028255171
  0
LINE
  5
29A
100
AcDbEntity
  8
0
100
AcDbLine
 62
4
  6
CONTINUOUS
 10
9.7025032053
 20
10.9986718558
 11
9.5771097308
 21
10.9461224475
  0
LINE
  5
29B
100
AcDbEntity
  8
0
100
AcDbLine
 62
4
  6
CONTINUOUS
 10
9.7643381575
 20
11.1012569396
 11
9.9423657791
 21
11.15321843
  0
LINE
  5
29C
100
AcDbEntity
  8
0
100
AcDbLine
 62
7
  6
CONTINUOUS
 10
7.7139941022
 20
5.9111471411
 11
13.5095494033
 21
5.5092240158
  0
LINE
  5
29D
100
AcDbEntity
  8
0
100
AcDbLine
 62
4
  6
CONTINUOUS
 10
9.7471338935
 20
10.938924644
 11
9.7870659404
 21
10.9774960416
  0
LINE
  5
29E
100
AcDbEntity
  8
0
100
AcDbLine
 62
4
  6
CONTINUOUS
 10
10.2032125258
 20
11.276605692
 11
10.1410960076
 21
11.2166057393
  0
LINE
  5
29F
100
AcDbEntity
  8
0
100
AcDbLine
 62
4
  6
CONTINUOUS
 10
9.8864183226
 20
10.9706059305
 11
9.8243018045
 21
10.9106059778
  0
LINE
  5
2A0
100
AcDbEntity
  8
0
100
AcDbLine
 62
4
  6
CONTINUOUS
 10
10.1347992507
 20
10.9533806546
 11
10.0726827325
 21
10.8933807019
  0
LINE
  5
2A1
100
AcDbEntity
  8
0
100
AcDbLine
 62
4
  6
CONTINUOUS
 10
10.5087422715
 20
11.2002962049
 11
10.5531112132
 21
11.2431533141
  0
LINE
  5
2A2
100
AcDbEntity
  8
0
100
AcDbLine
 62
4
  6
CONTINUOUS
 10
10.2507103541
 20
10.9453421923
 11
10.1885938359
 21
10.8853422396
  0
LINE
  5
2A3
100
AcDbEntity
  8
0
100
AcDbLine
 62
4
  6
CONTINUOUS
 10
10.3080714777
 20
10.9321773633
 11
10.2548287482
 21
10.8807488328
  0
LINE
  5
2A4
100
AcDbEntity
  8
0
100
AcDbLine
 62
4
  6
CONTINUOUS
 10
10.6778960915
 20
11.2436862749
 11
10.6157795734
 21
11.1836863222
  0
LINE
  5
2A5
100
AcDbEntity
  8
0
100
AcDbLine
 62
4
  6
CONTINUOUS
 10
10.3707398517
 20
10.8727103705
 11
10.4239825811
 21
10.924138901
  0
LINE
  5
2A6
100
AcDbEntity
  8
0
100
AcDbLine
 62
4
  6
CONTINUOUS
 10
10.4902174934
 20
10.9195454942
 11
10.4813437047
 21
10.9109740721
  0
LINE
  5
2A7
100
AcDbEntity
  8
0
100
AcDbLine
 62
4
  6
CONTINUOUS
 10
10.570633443
 20
10.877221344
 11
10.5617596552
 21
10.8686499227
  0
LINE
  5
2A8
100
AcDbEntity
  8
0
100
AcDbLine
 62
4
  6
CONTINUOUS
 10
9.6764620578
 20
10.9392323402
 11
9.6711547817
 21
10.9855345078
  0
LINE
  5
2A9
100
AcDbEntity
  8
0
100
AcDbLine
 62
4
  6
CONTINUOUS
 10
10.3398007721
 20
11.2028255171
 11
10.3356823504
 21
11.2674188785
  0
LINE
  5
2AA
100
AcDbEntity
  8
0
100
AcDbLine
 62
4
  6
CONTINUOUS
 10
9.1278586602
 20
10.9864649356
 11
9.1355435383
 21
10.9767451669
  0
LINE
  5
2AB
100
AcDbEntity
  8
0
100
AcDbLine
 62
7
  6
CONTINUOUS
 10
13.5095494033
 20
10.3388534334
 11
14.2860058978
 21
11.0888528589
  0
LINE
  5
2AC
100
AcDbEntity
  8
0
100
AcDbLine
 62
4
  6
CONTINUOUS
 10
9.3011308605
 20
10.9652616471
 11
9.2945286457
 21
10.9703129245
  0
LINE
  5
2AD
100
AcDbEntity
  8
0
100
AcDbLine
 62
4
  6
CONTINUOUS
 10
10.1885938359
 20
10.8853422396
 11
10.1347992507
 21
10.9533806546
  0
LINE
  5
2AE
100
AcDbEntity
  8
0
100
AcDbLine
 62
4
  6
CONTINUOUS
 10
13.5871950552
 20
9.0422387119
 11
13.5975478057
 21
9.0522387017
  0
LINE
  5
2AF
100
AcDbEntity
  8
0
100
AcDbLine
 62
4
  6
CONTINUOUS
 10
13.6389588191
 20
8.9763275679
 11
13.5768423009
 21
8.9163276152
  0
LINE
  5
2B0
100
AcDbEntity
  8
0
100
AcDbLine
 62
4
  6
CONTINUOUS
 10
8.4179986965
 20
11.0265070707
 11
8.4058769264
 21
11.0319411306
  0
LINE
  5
2B1
100
AcDbEntity
  8
0
100
AcDbLine
 62
4
  6
CONTINUOUS
 10
8.5407242953
 20
11.0593367175
 11
8.5286025238
 21
11.064770776
  0
LINE
  5
2B2
100
AcDbEntity
  8
0
100
AcDbLine
 62
4
  6
CONTINUOUS
 10
8.6776311801
 20
11.0544356036
 11
8.6897529516
 21
11.0490015451
  0
LINE
  5
2B3
100
AcDbEntity
  8
0
100
AcDbLine
 62
4
  6
CONTINUOUS
 10
8.9149728317
 20
11.0379759041
 11
8.9270947138
 21
11.032541838
  0
LINE
  5
2B4
100
AcDbEntity
  8
0
100
AcDbLine
 62
4
  6
CONTINUOUS
 10
9.092682036
 20
11.0210583182
 11
9.0805601539
 21
11.0264923843
  0
LINE
  5
2B5
100
AcDbEntity
  8
0
100
AcDbLine
 62
4
  6
CONTINUOUS
 10
8.4280613958
 20
11.0533696838
 11
8.4416621325
 21
11.049364196
  0
LINE
  5
2B6
100
AcDbEntity
  8
0
100
AcDbLine
 62
4
  6
CONTINUOUS
 10
8.5049390879
 20
11.0419136507
 11
8.5185398245
 21
11.0379081629
  0
LINE
  5
2B7
100
AcDbEntity
  8
0
100
AcDbLine
 62
4
  6
CONTINUOUS
 10
9.7592557189
 20
10.9334905803
 11
9.7471338935
 21
10.938924644
  0
LINE
  5
2B8
100
AcDbEntity
  8
0
100
AcDbLine
 62
4
  6
CONTINUOUS
 10
9.2027680695
 20
11.2816790028
 11
9.178524415
 21
11.2925471266
  0
LINE
  5
2B9
100
AcDbEntity
  8
0
100
AcDbLine
 62
4
  6
CONTINUOUS
 10
9.5910659296
 20
11.12246023
 11
9.6153095841
 21
11.1115921063
  0
LINE
  5
2BA
100
AcDbEntity
  8
0
100
AcDbLine
 62
7
  6
CONTINUOUS
 10
7.7139941022
 20
10.7407765587
 11
13.5095494033
 21
10.3388534334
  0
LINE
  5
2BB
100
AcDbEntity
  8
0
100
AcDbLine
 62
4
  6
CONTINUOUS
 10
9.2295886997
 20
11.0161572196
 11
9.2582692477
 21
11.009574806
  0
LINE
  5
2BC
100
AcDbEntity
  8
0
100
AcDbLine
 62
4
  6
CONTINUOUS
 10
9.5442045676
 20
10.994338535
 11
9.5728851156
 21
10.9877561215
  0
LINE
  5
2BD
100
AcDbEntity
  8
0
100
AcDbLine
 62
4
  6
CONTINUOUS
 10
10.4813437047
 20
10.9109740721
 11
10.570633443
 21
10.877221344
  0
LINE
  5
2BE
100
AcDbEntity
  8
0
100
AcDbLine
 62
4
  6
CONTINUOUS
 10
9.3849140576
 20
11.2690471356
 11
9.3606704031
 21
11.2799152594
  0
LINE
  5
2BF
100
AcDbEntity
  8
0
100
AcDbLine
 62
4
  6
CONTINUOUS
 10
10.453533492
 20
10.8669686121
 11
10.4414116597
 21
10.8724026762
  0
LINE
  5
2C0
100
AcDbEntity
  8
0
100
AcDbLine
 62
4
  6
CONTINUOUS
 10
9.4967067946
 20
11.3256020309
 11
9.5209504482
 21
11.3147339062
  0
LINE
  5
2C1
100
AcDbEntity
  8
0
100
AcDbLine
 62
4
  6
CONTINUOUS
 10
10.4239825811
 20
10.924138901
 11
10.3997389137
 21
10.9350070266
  0
LINE
  5
2C2
100
AcDbEntity
  8
0
100
AcDbLine
 62
4
  6
CONTINUOUS
 10
9.6898918933
 20
11.3122045988
 11
9.7141355469
 21
11.3013364742
  0
LINE
  5
2C3
100
AcDbEntity
  8
0
100
AcDbLine
 62
4
  6
CONTINUOUS
 10
10.6105654912
 20
10.915792743
 11
10.5984436558
 21
10.9212268059
  0
LINE
  5
2C4
100
AcDbEntity
  8
0
100
AcDbLine
 62
4
  6
CONTINUOUS
 10
13.5820186762
 20
9.0227498256
 11
13.5871950552
 21
9.0422387119
  0
LINE
  5
2C5
100
AcDbEntity
  8
0
100
AcDbLine
 62
4
  6
CONTINUOUS
 10
10.5617596552
 20
10.8686499227
 11
10.5197684078
 21
10.862375205
  0
LINE
  5
2C6
100
AcDbEntity
  8
0
100
AcDbLine
 62
4
  6
CONTINUOUS
 10
10.5197684078
 20
10.862375205
 11
10.453533492
 21
10.8669686121
  0
LINE
  5
2C7
100
AcDbEntity
  8
0
100
AcDbLine
 62
4
  6
CONTINUOUS
 10
8.7203865442
 20
10.9871627611
 11
8.7148669889
 21
10.9875455436
  0
LINE
  5
2C8
100
AcDbEntity
  8
0
100
AcDbLine
 62
4
  6
CONTINUOUS
 10
9.84204938
 20
10.9277488204
 11
9.7592557189
 21
10.9334905803
  0
LINE
  5
2C9
100
AcDbEntity
  8
0
100
AcDbLine
 62
4
  6
CONTINUOUS
 10
9.499835625
 20
10.9514814249
 11
9.4336007404
 21
10.9560748298
  0
LINE
  5
2CA
100
AcDbEntity
  8
0
100
AcDbLine
 62
4
  6
CONTINUOUS
 10
9.3673657452
 20
10.9606682423
 11
9.3011308605
 21
10.9652616471
  0
LINE
  5
2CB
100
AcDbEntity
  8
0
100
AcDbLine
 62
4
  6
CONTINUOUS
 10
8.6332622375
 20
11.0115784935
 11
8.5670271317
 21
11.0161719137
  0
LINE
  5
2CC
100
AcDbEntity
  8
0
100
AcDbLine
 62
4
  6
CONTINUOUS
 10
8.4842335812
 20
11.0219136659
 11
8.4179986965
 21
11.0265070707
  0
LINE
  5
2CD
100
AcDbEntity
  8
0
100
AcDbLine
 62
4
  6
CONTINUOUS
 10
9.1355435383
 20
10.9767451669
 11
9.2183371994
 21
10.971003407
  0
LINE
  5
2CE
100
AcDbEntity
  8
0
100
AcDbLine
 62
4
  6
CONTINUOUS
 10
9.2074042284
 20
10.9947286645
 11
9.1411693437
 21
10.9993220694
  0
LINE
  5
2CF
100
AcDbEntity
  8
0
100
AcDbLine
 62
4
  6
CONTINUOUS
 10
10.5984436558
 20
10.9212268059
 11
10.5322087383
 21
10.9258202131
  0
LINE
  5
2D0
100
AcDbEntity
  8
0
100
AcDbLine
 62
4
  6
CONTINUOUS
 10
10.3997389137
 20
10.9350070266
 11
10.3500627087
 21
10.9384520831
  0
LINE
  5
2D1
100
AcDbEntity
  8
0
100
AcDbLine
 62
4
  6
CONTINUOUS
 10
9.0805601539
 20
11.0264923843
 11
8.9977664928
 21
11.0322341442
  0
LINE
  5
2D2
100
AcDbEntity
  8
0
100
AcDbLine
 62
4
  6
CONTINUOUS
 10
8.5286025238
 20
11.064770776
 11
8.4623676391
 21
11.0693641808
  0
LINE
  5
2D3
100
AcDbEntity
  8
0
100
AcDbLine
 62
4
  6
CONTINUOUS
 10
8.6113960744
 20
11.0590290237
 11
8.6776311801
 21
11.0544356036
  0
LINE
  5
2D4
100
AcDbEntity
  8
0
100
AcDbLine
 62
4
  6
CONTINUOUS
 10
8.8818553894
 20
11.0402726065
 11
8.9149728317
 21
11.0379759041
  0
LINE
  5
2D5
100
AcDbEntity
  8
0
100
AcDbLine
 62
4
  6
CONTINUOUS
 10
9.163353815
 20
11.0207506244
 11
9.2295886997
 21
11.0161572196
  0
LINE
  5
2D6
100
AcDbEntity
  8
0
100
AcDbLine
 62
4
  6
CONTINUOUS
 10
9.477969683
 20
10.9989319399
 11
9.5442045676
 21
10.994338535
  0
LINE
  5
2D7
100
AcDbEntity
  8
0
100
AcDbLine
 62
4
  6
CONTINUOUS
 10
9.7356206477
 20
10.9963751534
 11
9.7025032053
 21
10.9986718558
  0
LINE
  5
2D8
100
AcDbEntity
  8
0
100
AcDbLine
 62
4
  6
CONTINUOUS
 10
8.4416621325
 20
11.049364196
 11
8.5049390879
 21
11.0419136507
  0
LINE
  5
2D9
100
AcDbEntity
  8
0
100
AcDbLine
 62
4
  6
CONTINUOUS
 10
8.9338939674
 20
11.3248236733
 11
8.8574124699
 21
11.3423767792
  0
LINE
  5
2DA
100
AcDbEntity
  8
0
100
AcDbLine
 62
4
  6
CONTINUOUS
 10
10.5329859399
 20
11.1894280802
 11
10.5087422715
 21
11.2002962049
  0
LINE
  5
2DB
100
AcDbEntity
  8
0
100
AcDbLine
 62
7
  6
CONTINUOUS
 10
13.5095494033
 20
5.5092240158
 11
13.5095494033
 21
10.3388534334
  0
LINE
  5
2DC
100
AcDbEntity
  8
0
100
AcDbLine
 62
4
  6
CONTINUOUS
 10
13.5768423009
 20
8.9163276152
 11
13.5768423009
 21
8.9887720548
  0
LINE
  5
2DD
100
AcDbEntity
  8
0
100
AcDbLine
 62
4
  6
CONTINUOUS
 10
13.60790056
 20
9.0187720312
 11
13.60790056
 21
8.9463275915
  0
LINE
  5
2DE
100
AcDbEntity
  8
0
100
AcDbLine
 62
4
  6
CONTINUOUS
 10
13.5768423009
 20
8.9887720548
 11
13.5820186762
 21
9.0227498256
  0
LINE
  5
2DF
100
AcDbEntity
  8
0
100
AcDbLine
 62
4
  6
CONTINUOUS
 10
10.5322087383
 20
10.9258202131
 11
10.4902174934
 21
10.9195454942
  0
LINE
  5
2E0
100
AcDbEntity
  8
0
100
AcDbLine
 62
4
  6
CONTINUOUS
 10
10.3500627087
 20
10.9384520831
 11
10.3080714777
 21
10.9321773633
  0
LINE
  5
2E1
100
AcDbEntity
  8
0
100
AcDbLine
 62
4
  6
CONTINUOUS
 10
9.5373899631
 20
10.9534704349
 11
9.499835625
 21
10.9514814249
  0
LINE
  5
2E2
100
AcDbEntity
  8
0
100
AcDbLine
 62
4
  6
CONTINUOUS
 10
9.2449585646
 20
10.9967176727
 11
9.2074042284
 21
10.9947286645
  0
LINE
  5
2E3
100
AcDbEntity
  8
0
100
AcDbLine
 62
4
  6
CONTINUOUS
 10
9.8802492609
 20
11.0932184773
 11
9.7643381575
 21
11.1012569396
  0
LINE
  5
2E4
100
AcDbEntity
  8
0
100
AcDbLine
 62
4
  6
CONTINUOUS
 10
9.5159572295
 20
11.1184822155
 11
9.4166048472
 21
11.1253723266
  0
LINE
  5
2E5
100
AcDbEntity
  8
0
100
AcDbLine
 62
4
  6
CONTINUOUS
 10
9.6153095841
 20
11.1115921063
 11
9.6649857891
 21
11.1081470498
  0
LINE
  5
2E6
100
AcDbEntity
  8
0
100
AcDbLine
 62
4
  6
CONTINUOUS
 10
9.4763436805
 20
11.1487898862
 11
9.5425785928
 21
11.1441964794
  0
LINE
  5
2E7
100
AcDbEntity
  8
0
100
AcDbLine
 62
4
  6
CONTINUOUS
 10
9.9423657791
 20
11.15321843
 11
9.8264546757
 21
11.1612568923
  0
LINE
  5
2E8
100
AcDbEntity
  8
0
100
AcDbLine
 62
4
  6
CONTINUOUS
 10
9.5780737477
 20
11.1784821682
 11
9.4787213654
 21
11.1853722793
  0
LINE
  5
2E9
100
AcDbEntity
  8
0
100
AcDbLine
 62
4
  6
CONTINUOUS
 10
9.64430866
 20
11.1738887614
 11
9.7602197634
 21
11.1658502991
  0
LINE
  5
2EA
100
AcDbEntity
  8
0
100
AcDbLine
 62
4
  6
CONTINUOUS
 10
10.6157795734
 20
11.1836863222
 11
10.5329859399
 21
11.1894280802
  0
LINE
  5
2EB
100
AcDbEntity
  8
0
100
AcDbLine
 62
4
  6
CONTINUOUS
 10
10.2073309475
 20
11.2120123306
 11
10.0748611229
 21
11.2211991442
  0
LINE
  5
2EC
100
AcDbEntity
  8
0
100
AcDbLine
 62
4
  6
CONTINUOUS
 10
10.008626183
 20
11.2257925528
 11
9.9092738007
 21
11.232682664
  0
LINE
  5
2ED
100
AcDbEntity
  8
0
100
AcDbLine
 62
4
  6
CONTINUOUS
 10
9.6277753751
 20
11.2522046461
 11
9.5615404904
 21
11.2567980509
  0
LINE
  5
2EE
100
AcDbEntity
  8
0
100
AcDbLine
 62
4
  6
CONTINUOUS
 10
9.4345902764
 20
11.2656020782
 11
9.3849140576
 21
11.2690471356
  0
LINE
  5
2EF
100
AcDbEntity
  8
0
100
AcDbLine
 62
4
  6
CONTINUOUS
 10
9.2855617306
 20
11.2759372429
 11
9.2027680695
 21
11.2816790028
  0
LINE
  5
2F0
100
AcDbEntity
  8
0
100
AcDbLine
 62
4
  6
CONTINUOUS
 10
9.075817745
 20
11.2904830377
 11
8.976465418
 21
11.297373145
  0
LINE
  5
2F1
100
AcDbEntity
  8
0
100
AcDbLine
 62
4
  6
CONTINUOUS
 10
9.0362042237
 20
11.3207907065
 11
9.1024391083
 21
11.3161973016
  0
LINE
  5
2F2
100
AcDbEntity
  8
0
100
AcDbLine
 62
4
  6
CONTINUOUS
 10
9.9690126064
 20
11.2561002254
 11
10.0352475463
 21
11.2515068168
  0
LINE
  5
2F3
100
AcDbEntity
  8
0
100
AcDbLine
 62
4
  6
CONTINUOUS
 10
10.4283263211
 20
11.2426203542
 11
10.3400131047
 21
11.2487448966
  0
LINE
  5
2F4
100
AcDbEntity
  8
0
100
AcDbLine
 62
4
  6
CONTINUOUS
 10
10.7837445648
 20
11.2087851947
 11
10.7072630594
 21
11.2263383002
  0
LINE
  5
2F5
100
AcDbEntity
  8
0
100
AcDbLine
 62
4
  6
CONTINUOUS
 10
13.5975478057
 20
9.0522387017
 11
13.6027241847
 21
9.0427498122
  0
LINE
  5
2F6
100
AcDbEntity
  8
0
100
AcDbLine
 62
4
  6
CONTINUOUS
 10
13.6027241847
 20
9.0427498122
 11
13.60790056
 21
9.0187720312
  0
LINE
  5
2F7
100
AcDbEntity
  8
0
100
AcDbLine
 62
4
  6
CONTINUOUS
 10
9.6649857891
 20
11.1081470498
 11
9.7114139287
 21
11.1187074802
  0
LINE
  5
2F8
100
AcDbEntity
  8
0
100
AcDbLine
 62
4
  6
CONTINUOUS
 10
9.7602197634
 20
11.1658502991
 11
9.5999397173
 21
11.1310316513
  0
LINE
  5
2F9
100
AcDbEntity
  8
0
100
AcDbLine
 62
4
  6
CONTINUOUS
 10
10.5531112132
 20
11.2431533141
 11
10.5951024581
 21
11.2494280329
  0
LINE
  5
2FA
100
AcDbEntity
  8
0
100
AcDbLine
 62
4
  6
CONTINUOUS
 10
8.6542577991
 20
11.0147158585
 11
8.6332622375
 21
11.0115784935
  0
LINE
  5
2FB
100
AcDbEntity
  8
0
100
AcDbLine
 62
4
  6
CONTINUOUS
 10
8.5052291428
 20
11.0250510309
 11
8.4842335812
 21
11.0219136659
  0
LINE
  5
2FC
100
AcDbEntity
  8
0
100
AcDbLine
 62
4
  6
CONTINUOUS
 10
8.4623676391
 20
11.0693641808
 11
8.4413720789
 21
11.0662268171
  0
LINE
  5
2FD
100
AcDbEntity
  8
0
100
AcDbLine
 62
4
  6
CONTINUOUS
 10
9.6697666052
 20
11.258479365
 11
9.6277753751
 21
11.2522046461
  0
LINE
  5
2FE
100
AcDbEntity
  8
0
100
AcDbLine
 62
4
  6
CONTINUOUS
 10
9.4765815065
 20
11.2718767971
 11
9.4345902764
 21
11.2656020782
  0
LINE
  5
2FF
100
AcDbEntity
  8
0
100
AcDbLine
 62
4
  6
CONTINUOUS
 10
10.6835996226
 20
11.203481174
 11
10.7837445648
 21
11.2087851947
  0
LINE
  5
300
100
AcDbEntity
  8
0
100
AcDbLine
 62
4
  6
CONTINUOUS
 10
8.8574124699
 20
11.3423767792
 11
8.9575574043
 21
11.3476807995
  0
LINE
  5
301
100
AcDbEntity
  8
0
100
AcDbLine
 62
4
  6
CONTINUOUS
 10
10.0707427012
 20
11.2857925055
 11
9.9713903189
 21
11.2926826167
  0
LINE
  5
302
100
AcDbEntity
  8
0
100
AcDbLine
 62
4
  6
CONTINUOUS
 10
9.1379342631
 20
11.3504829904
 11
9.0385819361
 21
11.3573730977
  0
LINE
  5
303
100
AcDbEntity
  8
0
100
AcDbLine
 62
4
  6
CONTINUOUS
 10
9.2648845877
 20
11.3416789555
 11
9.3476782488
 21
11.3359371956
  0
LINE
  5
304
100
AcDbEntity
  8
0
100
AcDbLine
 62
4
  6
CONTINUOUS
 10
9.4470305758
 20
11.3290470883
 11
9.4967067946
 21
11.3256020309
  0
LINE
  5
305
100
AcDbEntity
  8
0
100
AcDbLine
 62
4
  6
CONTINUOUS
 10
9.6236570086
 20
11.3167980036
 11
9.6898918933
 21
11.3122045988
  0
LINE
  5
306
100
AcDbEntity
  8
0
100
AcDbLine
 62
4
  6
CONTINUOUS
 10
10.5951024581
 20
11.2494280329
 11
10.6778960915
 21
11.2436862749
  0
LINE
  5
307
100
AcDbEntity
  8
0
100
AcDbLine
 62
7
  6
CONTINUOUS
 10
14.2860058978
 20
11.0888528589
 11
8.4904505967
 21
11.4907759842
  0
LINE
  5
308
100
AcDbEntity
  8
0
100
AcDbLine
 62
7
  6
CONTINUOUS
 10
14.2860058978
 20
6.2592234413
 11
14.2860058978
 21
11.0888528589
  0
LINE
  5
309
100
AcDbEntity
  8
0
100
AcDbLine
 62
4
  6
CONTINUOUS
 10
9.4050393448
 20
11.3227723686
 11
9.4470305758
 21
11.3290470883
  0
LINE
  5
30A
100
AcDbEntity
  8
0
100
AcDbLine
 62
4
  6
CONTINUOUS
 10
9.2228933567
 20
11.3354042358
 11
9.2648845877
 21
11.3416789555
  0
LINE
  5
30B
100
AcDbEntity
  8
0
100
AcDbLine
 62
7
  6
CONTINUOUS
 10
13.5095494033
 20
5.5092240158
 11
14.2860058978
 21
6.2592234413
  0
ARC
  5
30C
100
AcDbEntity
  8
0
100
AcDbCircle
 62
7
  6
CONTINUOUS
 10
11.7571985237
 20
7.2969954661
 40
0.7731833002
100
AcDbArc
 50
100.8613213724
 51
103.1333008249
  0
ARC
  5
30D
100
AcDbEntity
  8
0
100
AcDbCircle
 62
7
  6
CONTINUOUS
 10
11.3813979895
 20
8.2098684741
 40
0.2363635947
100
AcDbArc
 50
72.2308225419
 51
85.9636277693
  0
ARC
  5
30E
100
AcDbEntity
  8
0
100
AcDbCircle
 62
7
  6
CONTINUOUS
 10
11.4146725789
 20
8.1706264849
 40
0.2363633366
100
AcDbArc
 50
252.2308193178
 51
265.9636571724
  0
ARC
  5
30F
100
AcDbEntity
  8
0
100
AcDbCircle
 62
7
  6
CONTINUOUS
 10
9.6298560912
 20
10.0252062252
 40
0.1811392132
100
AcDbArc
 50
221.744825351
 51
226.2507245031
  0
ARC
  5
310
100
AcDbEntity
  8
0
100
AcDbCircle
 62
7
  6
CONTINUOUS
 10
12.1045582398
 20
9.8535850483
 40
0.1811392132
100
AcDbArc
 50
221.7448253509
 51
226.2507245031
  0
ARC
  5
311
100
AcDbEntity
  8
0
100
AcDbCircle
 62
7
  6
CONTINUOUS
 10
9.6897434158
 20
6.9416812283
 40
0.1811392132
100
AcDbArc
 50
221.744825351
 51
226.2507245031
  0
ARC
  5
312
100
AcDbEntity
  8
0
100
AcDbCircle
 62
7
  6
CONTINUOUS
 10
12.0446705697
 20
6.7783664755
 40
0.1811392132
100
AcDbArc
 50
221.7448253509
 51
226.2507245031
  0
SPLINE
  5
313
100
AcDbEntity
  8
0
100
AcDbSpline
 62
7
  6
CONTINUOUS
 70
0
 71
3
 72
52
 73
48
 74
0
 42
0.0000001
 43
0.0000001
 44
0.0000000001
 40
0.0
 40
0.0
 40
0.0
 40
0.0
 40
0.0481976586
 40
0.0958298417
 40
0.1428197349
 40
0.1890976738
 40
0.2345927526
 40
0.2792363126
 40
0.3229616726
 40
0.3657040217
 40
0.4074008695
 40
0.4479921877
 40
0.4874205767
 40
0.5256315209
 40
0.5625737305
 40
0.5981993819
 40
0.6324644205
 40
0.6653290015
 40
0.6967580213
 40
0.7267215998
 40
0.7411465372
 40
0.7551967179
 40
0.7688701694
 40
0.7821654908
 40
0.7950818363
 40
0.8076188358
 40
0.8197768796
 40
0.8315570016
 40
0.842960946
 40
0.8539914268
 40
0.8646519891
 40
0.8749472323
 40
0.8848829866
 40
0.8944662508
 40
0.9037055339
 40
0.912610945
 40
0.9211942707
 40
0.9294693586
 40
0.9374521473
 40
0.9451608712
 40
0.9598350014
 40
0.9668568271
 40
0.9737036868
 40
0.980406896
 40
0.9870001056
 40
0.9935188497
 40
1.0
 40
1.0
 40
1.0
 40
1.0
 10
11.6713865522
 20
10.8133243574
 30
0.0
 10
11.6621510123
 20
10.8139648443
 30
0.0
 10
11.6437952571
 20
10.8153414092
 30
0.0
 10
11.616464396
 20
10.8177083308
 30
0.0
 10
11.5895303511
 20
10.8203623116
 30
0.0
 10
11.5630385859
 20
10.823298791
 30
0.0
 10
11.5370330814
 20
10.826512906
 30
0.0
 10
11.5115574051
 20
10.829999228
 30
0.0
 10
11.4866541328
 20
10.8337518917
 30
0.0
 10
11.462364877
 20
10.8377646102
 30
0.0
 10
11.4387302258
 20
10.8420306315
 30
0.0
 10
11.4157896489
 20
10.8465427722
 30
0.0
 10
11.393581453
 20
10.8512934472
 30
0.0
 10
11.3721427084
 20
10.8562746835
 30
0.0
 10
11.3515091682
 20
10.86147809
 30
0.0
 10
11.3317152092
 20
10.8668949102
 30
0.0
 10
11.3127938031
 20
10.8725160458
 30
0.0
 10
11.2947763665
 20
10.8783320667
 30
0.0
 10
11.2776929391
 20
10.8843331939
 30
0.0
 10
11.2640916214
 20
10.8895438364
 30
0.0
 10
11.2537066655
 20
10.8938050862
 30
0.0
 10
11.2462677074
 20
10.8970004867
 30
0.0
 10
11.239082757
 20
10.9002345544
 30
0.0
 10
11.2321547907
 20
10.9035059536
 30
0.0
 10
11.2254866762
 20
10.9068132835
 30
0.0
 10
11.2190812045
 20
10.9101552279
 30
0.0
 10
11.212941015
 20
10.9135303592
 30
0.0
 10
11.2070686464
 20
10.916937277
 30
0.0
 10
11.2014665545
 20
10.9203746261
 30
0.0
 10
11.1961370222
 20
10.923840935
 30
0.0
 10
11.1910822623
 20
10.9273348168
 30
0.0
 10
11.1863043753
 20
10.9308548735
 30
0.0
 10
11.1818052911
 20
10.9343996279
 30
0.0
 10
11.1775869038
 20
10.9379677177
 30
0.0
 10
11.1736509475
 20
10.9415577146
 30
0.0
 10
11.1699990295
 20
10.945168167
 30
0.0
 10
11.166632727
 20
10.948797771
 30
0.0
 10
11.1635534878
 20
10.9524449742
 30
0.0
 10
11.1607624435
 20
10.9561087735
 30
0.0
 10
11.1574817585
 20
10.9609334006
 30
0.0
 10
11.1547060741
 20
10.965871993
 30
0.0
 10
11.1525069907
 20
10.9708979196
 30
0.0
 10
11.1511754081
 20
10.974621839
 30
0.0
 10
11.1501387906
 20
10.9783530816
 30
0.0
 10
11.1493977511
 20
10.9820901391
 30
0.0
 10
11.1489528296
 20
10.9858308243
 30
0.0
 10
11.148853848
 20
10.9883289365
 30
0.0
 10
11.1488538428
 20
10.9895738246
 30
0.0
  0
SPLINE
  5
314
100
AcDbEntity
  8
0
100
AcDbSpline
 62
7
  6
CONTINUOUS
 70
0
 71
3
 72
39
 73
35
 74
0
 42
0.0000001
 43
0.0000001
 44
0.0000000001
 40
0.0
 40
0.0
 40
0.0
 40
0.0
 40
0.0311449443
 40
0.0624431435
 40
0.0938883559
 40
0.1254710082
 40
0.1571789104
 40
0.1889972915
 40
0.2209092118
 40
0.2528958851
 40
0.2849370693
 40
0.3170114641
 40
0.3490971276
 40
0.381171901
 40
0.4132138351
 40
0.4452016153
 40
0.4771149773
 40
0.5089351086
 40
0.5406450291
 40
0.5722299455
 40
0.6036775713
 40
0.6349784071
 40
0.6661259735
 40
0.6971169887
 40
0.7279514858
 40
0.7586328627
 40
0.7891678581
 40
0.8195664525
 40
0.8498416892
 40
0.8800094177
 40
0.9100879614
 40
0.9400977171
 40
0.9700606929
 40
1.0
 40
1.0
 40
1.0
 40
1.0
 10
12.906811582
 20
10.0493407953
 30
0.0
 10
12.9134395297
 20
10.0488811455
 30
0.0
 10
12.926699326
 20
10.0474744396
 30
0.0
 10
12.9464282601
 20
10.0439309264
 30
0.0
 10
12.965945892
 20
10.0389674993
 30
0.0
 10
12.9851467779
 20
10.032610877
 30
0.0
 10
13.0039289321
 20
10.0248951207
 30
0.0
 10
13.0221921605
 20
10.0158615025
 30
0.0
 10
13.039839172
 20
10.005558301
 30
0.0
 10
13.0567759325
 20
9.9940405267
 30
0.0
 10
13.0729122025
 20
9.9813696394
 30
0.0
 10
13.0881620007
 20
9.9676132181
 30
0.0
 10
13.1024440605
 20
9.9528446055
 30
0.0
 10
13.1156822572
 20
9.9371425199
 30
0.0
 10
13.1278060101
 20
9.9205906401
 30
0.0
 10
13.1387506559
 20
9.9032771634
 30
0.0
 10
13.1484577898
 20
9.8852943418
 30
0.0
 10
13.1568755759
 20
9.8667379952
 30
0.0
 10
13.163959022
 20
9.8477070077
 30
0.0
 10
13.1696702198
 20
9.8283028074
 30
0.0
 10
13.173978549
 20
9.8086288328
 30
0.0
 10
13.1768608433
 20
9.7887899891
 30
0.0
 10
13.1783015189
 20
9.7688920963
 30
0.0
 10
13.178292665
 20
9.7490413312
 30
0.0
 10
13.1768340945
 20
9.7293436677
 30
0.0
 10
13.1739333555
 20
9.7099043145
 30
0.0
 10
13.1696057047
 20
9.6908271565
 30
0.0
 10
13.1638740357
 20
9.6722141968
 30
0.0
 10
13.1567687805
 20
9.6541650158
 30
0.0
 10
13.1483277236
 20
9.636776199
 30
0.0
 10
13.1385959416
 20
9.6201409321
 30
0.0
 10
13.1276250839
 20
9.6043480308
 30
0.0
 10
13.1154749074
 20
9.5894831556
 30
0.0
 10
13.1066279525
 20
9.5802411579
 30
0.0
 10
13.1020342905
 20
9.5758040481
 30
0.0
  0
SPLINE
  5
315
100
AcDbEntity
  8
0
100
AcDbSpline
 62
7
  6
CONTINUOUS
 70
0
 71
3
 72
39
 73
35
 74
0
 42
0.0000001
 43
0.0000001
 44
0.0000000001
 40
0.0
 40
0.0
 40
0.0
 40
0.0
 40
0.0311449443
 40
0.0624431435
 40
0.0938883559
 40
0.1254710082
 40
0.1571789104
 40
0.1889972915
 40
0.2209092118
 40
0.2528958851
 40
0.2849370693
 40
0.3170114641
 40
0.3490971276
 40
0.381171901
 40
0.4132138351
 40
0.4452016153
 40
0.4771149773
 40
0.5089351086
 40
0.5406450291
 40
0.5722299455
 40
0.6036775713
 40
0.6349784071
 40
0.6661259735
 40
0.6971169887
 40
0.7279514858
 40
0.7586328627
 40
0.7891678581
 40
0.8195664525
 40
0.8498416892
 40
0.8800094177
 40
0.9100879614
 40
0.9400977171
 40
0.9700606929
 40
1.0
 40
1.0
 40
1.0
 40
1.0
 10
8.3167318659
 20
6.7435100722
 30
0.0
 10
8.3233598137
 20
6.7430504225
 30
0.0
 10
8.3366196099
 20
6.7416437166
 30
0.0
 10
8.3563485441
 20
6.7381002034
 30
0.0
 10
8.3758661759
 20
6.7331367763
 30
0.0
 10
8.3950670618
 20
6.7267801539
 30
0.0
 10
8.413849216
 20
6.7190643977
 30
0.0
 10
8.4321124444
 20
6.7100307795
 30
0.0
 10
8.449759456
 20
6.6997275779
 30
0.0
 10
8.4666962164
 20
6.6882098037
 30
0.0
 10
8.4828324864
 20
6.6755389163
 30
0.0
 10
8.4980822847
 20
6.661782495
 30
0.0
 10
8.5123643445
 20
6.6470138824
 30
0.0
 10
8.5256025411
 20
6.6313117969
 30
0.0
 10
8.5377262941
 20
6.614759917
 30
0.0
 10
8.5486709398
 20
6.5974464404
 30
0.0
 10
8.5583780738
 20
6.5794636187
 30
0.0
 10
8.5667958599
 20
6.5609072721
 30
0.0
 10
8.5738793059
 20
6.5418762846
 30
0.0
 10
8.5795905038
 20
6.5224720843
 30
0.0
 10
8.583898833
 20
6.5027981097
 30
0.0
 10
8.5867811272
 20
6.4829592661
 30
0.0
 10
8.5882218029
 20
6.4630613732
 30
0.0
 10
8.588212949
 20
6.4432106082
 30
0.0
 10
8.5867543784
 20
6.4235129446
 30
0.0
 10
8.5838536395
 20
6.4040735914
 30
0.0
 10
8.5795259886
 20
6.3849964335
 30
0.0
 10
8.5737943197
 20
6.3663834737
 30
0.0
 10
8.5666890645
 20
6.3483342928
 30
0.0
 10
8.5582480076
 20
6.330945476
 30
0.0
 10
8.5485162256
 20
6.3143102091
 30
0.0
 10
8.5375453678
 20
6.2985173078
 30
0.0
 10
8.5253951914
 20
6.2836524326
 30
0.0
 10
8.5165482365
 20
6.2744104348
 30
0.0
 10
8.5119545744
 20
6.269973325
 30
0.0
  0
SPLINE
  5
316
100
AcDbEntity
  8
0
100
AcDbSpline
 62
7
  6
CONTINUOUS
 70
0
 71
3
 72
32
 73
28
 74
0
 42
0.0000001
 43
0.0000001
 44
0.0000000001
 40
0.0
 40
0.0
 40
0.0
 40
0.0
 40
0.0318290426
 40
0.063703598
 40
0.095606362
 40
0.1275271473
 40
0.1594524223
 40
0.1913698819
 40
0.2232680707
 40
0.2551360625
 40
0.2869643537
 40
0.3187444866
 40
0.3504688733
 40
0.3821315961
 40
0.4137275309
 40
0.445252515
 40
0.50806611
 40
0.5705721492
 40
0.6017137584
 40
0.6327776513
 40
0.6946660457
 40
0.7562583674
 40
0.7869520795
 40
0.8175773744
 40
0.8786236792
 40
0.9394245174
 40
1.0
 40
1.0
 40
1.0
 40
1.0
 10
10.4585495602
 20
8.6545695124
 30
0.0
 10
10.455430833
 20
8.6565863949
 30
0.0
 10
10.4492954991
 20
8.6607906194
 30
0.0
 10
10.4404363089
 20
8.6675791286
 30
0.0
 10
10.4319385535
 20
8.67483183
 30
0.0
 10
10.4238260561
 20
8.6825213435
 30
0.0
 10
10.4161187278
 20
8.690619126
 30
0.0
 10
10.4088332438
 20
8.699094741
 30
0.0
 10
10.4019828762
 20
8.70791708
 30
0.0
 10
10.3955776507
 20
8.7170547971
 30
0.0
 10
10.3896242351
 20
8.7264765893
 30
0.0
 10
10.3841265384
 20
8.7361518764
 30
0.0
 10
10.3790859232
 20
8.7460510926
 30
0.0
 10
10.3745012833
 20
8.7561457059
 30
0.0
 10
10.370369705
 20
8.7664089645
 30
0.0
 10
10.3654654573
 20
8.7802653969
 30
0.0
 10
10.3604368703
 20
8.7978853769
 30
0.0
 10
10.3568253585
 20
8.8158011414
 30
0.0
 10
10.3547615783
 20
8.8302092944
 30
0.0
 10
10.3532381709
 20
8.8446120901
 30
0.0
 10
10.3523125263
 20
8.8626379509
 30
0.0
 10
10.3526369607
 20
8.8806399113
 30
0.0
 10
10.3536143488
 20
8.894951106
 30
0.0
 10
10.355055
 20
8.9091590017
 30
0.0
 10
10.3577073777
 20
8.926765348
 30
0.0
 10
10.3621984712
 20
8.947585697
 30
0.0
 10
10.3660329378
 20
8.9612307212
 30
0.0
 10
10.3681501099
 20
8.9679746244
 30
0.0
  0
SPLINE
  5
317
100
AcDbEntity
  8
0
100
AcDbSpline
 62
7
  6
CONTINUOUS
 70
0
 71
3
 72
29
 73
25
 74
0
 42
0.0000001
 43
0.0000001
 44
0.0000000001
 40
0.0
 40
0.0
 40
0.0
 40
0.0
 40
0.0305373766
 40
0.0610738702
 40
0.0916116392
 40
0.1221610496
 40
0.152731637
 40
0.1833305891
 40
0.2139652702
 40
0.2446423738
 40
0.2753682456
 40
0.3061478874
 40
0.3369862411
 40
0.3678868298
 40
0.3988531683
 40
0.4298873239
 40
0.4921558171
 40
0.5547116976
 40
0.617554704
 40
0.6806785016
 40
0.744072254
 40
0.8077219318
 40
0.8716115038
 40
1.0
 40
1.0
 40
1.0
 40
1.0
 10
10.8465217711
 20
7.3669594559
 30
0.0
 10
10.8447261194
 20
7.3649440104
 30
0.0
 10
10.8410390782
 20
7.3609973636
 30
0.0
 10
10.8352361596
 20
7.3553450135
 30
0.0
 10
10.8291728953
 20
7.3499710371
 30
0.0
 10
10.8228629051
 20
7.3448843785
 30
0.0
 10
10.8163197401
 20
7.3400922888
 30
0.0
 10
10.80955766
 20
7.3356009041
 30
0.0
 10
10.8025915415
 20
7.3314148338
 30
0.0
 10
10.7954362346
 20
7.3275376419
 30
0.0
 10
10.7881069548
 20
7.3239711427
 30
0.0
 10
10.7806185249
 20
7.3207165147
 30
0.0
 10
10.772985895
 20
7.3177732089
 30
0.0
 10
10.765223436
 20
7.3151402525
 30
0.0
 10
10.7573452192
 20
7.3128151708
 30
0.0
 10
10.7466941531
 20
7.3101191733
 30
0.0
 10
10.733153403
 20
7.3075042995
 30
0.0
 10
10.7166680291
 20
7.3055402903
 30
0.0
 10
10.70001236
 20
7.3047027833
 30
0.0
 10
10.6832646386
 20
7.3049453639
 30
0.0
 10
10.6664934191
 20
7.3062196573
 30
0.0
 10
10.6497579895
 20
7.3084775584
 30
0.0
 10
10.6275327051
 20
7.3127417847
 30
0.0
 10
10.6111104704
 20
7.3172700093
 30
0.0
 10
10.6003290445
 20
7.3208135145
 30
0.0
  0
SPLINE
  5
318
100
AcDbEntity
  8
0
100
AcDbSpline
 62
7
  6
CONTINUOUS
 70
0
 71
3
 72
39
 73
35
 74
0
 42
0.0000001
 43
0.0000001
 44
0.0000000001
 40
0.0
 40
0.0
 40
0.0
 40
0.0
 40
0.0311445376
 40
0.062443355
 40
0.09388824
 40
0.1254709996
 40
0.1571788478
 40
0.1889972257
 40
0.2209091305
 40
0.2528957945
 40
0.2849369709
 40
0.3170113586
 40
0.3490970145
 40
0.3811717799
 40
0.4132137068
 40
0.4452014824
 40
0.4771148435
 40
0.5089349783
 40
0.5406449062
 40
0.5722298317
 40
0.6036774666
 40
0.6349783114
 40
0.6661258871
 40
0.6971169127
 40
0.7279514223
 40
0.7586328137
 40
0.7891678252
 40
0.8195664354
 40
0.8498416851
 40
0.8800094226
 40
0.9100879711
 40
0.9400977272
 40
0.9700606997
 40
1.0
 40
1.0
 40
1.0
 40
1.0
 10
11.8500887981
 20
9.1847107787
 30
0.0
 10
11.8537683014
 20
9.1844556043
 30
0.0
 10
11.8611295911
 20
9.183674636
 30
0.0
 10
11.8720822439
 20
9.181707489
 30
0.0
 10
11.882917628
 20
9.1789519521
 30
0.0
 10
11.8935771165
 20
9.1754230834
 30
0.0
 10
11.9040041686
 20
9.1711396304
 30
0.0
 10
11.9141431357
 20
9.1661245923
 30
0.0
 10
11.923940012
 20
9.1604047297
 30
0.0
 10
11.9333425932
 20
9.1540105943
 30
0.0
 10
11.942300779
 20
9.1469762966
 30
0.0
 10
11.9507668351
 20
9.1393393542
 30
0.0
 10
11.9586956488
 20
9.1311404874
 30
0.0
 10
11.9660449613
 20
9.1224233986
 30
0.0
 10
11.9727755914
 20
9.1132345426
 30
0.0
 10
11.9788516421
 20
9.1036228816
 30
0.0
 10
11.9842406894
 20
9.0936396278
 30
0.0
 10
11.9889139547
 20
9.0833379744
 30
0.0
 10
11.9928464574
 20
9.0727728155
 30
0.0
 10
11.9960171466
 20
9.0620004581
 30
0.0
 10
11.9984090252
 20
9.0510783281
 30
0.0
 10
12.0000092363
 20
9.040064665
 30
0.0
 10
12.0008091308
 20
9.0290182145
 30
0.0
 10
12.0008043179
 20
9.0179979203
 30
0.0
 10
11.9999946933
 20
9.0070626125
 30
0.0
 10
11.9983844455
 20
8.9962706975
 30
0.0
 10
11.9959820411
 20
8.9856798472
 30
0.0
 10
11.9928001849
 20
8.9753466903
 30
0.0
 10
11.9888557671
 20
8.9653265119
 30
0.0
 10
11.984169769
 20
8.9556729303
 30
0.0
 10
11.9787672162
 20
8.946437678
 30
0.0
 10
11.9726767878
 20
8.9376700544
 30
0.0
 10
11.9659316392
 20
8.9294176324
 30
0.0
 10
11.9610202974
 20
8.9242867703
 30
0.0
 10
11.9584701127
 20
8.9218234594
 30
0.0
  0
SPLINE
  5
319
100
AcDbEntity
  8
0
100
AcDbSpline
 62
7
  6
CONTINUOUS
 70
0
 71
3
 72
22
 73
18
 74
0
 42
0.0000001
 43
0.0000001
 44
0.0000000001
 40
0.0
 40
0.0
 40
0.0
 40
0.0
 40
0.0764234912
 40
0.1504698875
 40
0.2222095369
 40
0.291722846
 40
0.3591050492
 40
0.4244648984
 40
0.5495745482
 40
0.6096453126
 40
0.6682571342
 40
0.7255853859
 40
0.7818195466
 40
0.8371613374
 40
0.8918233206
 40
0.9460270232
 40
1.0
 40
1.0
 40
1.0
 40
1.0
 10
13.7523214733
 20
8.8810510767
 30
0.0
 10
13.7534847165
 20
8.8821746834
 30
0.0
 10
13.7558107695
 20
8.8843503649
 30
0.0
 10
13.7593553096
 20
8.8874420114
 30
0.0
 10
13.7628982955
 20
8.8903084744
 30
0.0
 10
13.7664385823
 20
8.8929486537
 30
0.0
 10
13.769975397
 20
8.8953618729
 30
0.0
 10
13.7746166872
 20
8.898233632
 30
0.0
 10
13.7793193738
 20
8.9007054702
 30
0.0
 10
13.7840669003
 20
8.9027304117
 30
0.0
 10
13.7875714066
 20
8.9039985552
 30
0.0
 10
13.7910664633
 20
8.9050358895
 30
0.0
 10
13.7945511246
 20
8.9058420908
 30
0.0
 10
13.7980242833
 20
8.9064167625
 30
0.0
 10
13.8014848992
 20
8.9067595318
 30
0.0
 10
13.8049316052
 20
8.9068702769
 30
0.0
 10
13.8072214961
 20
8.9067892762
 30
0.0
 10
13.8083609465
 20
8.906710251
 30
0.0
  0
SPLINE
  5
31A
100
AcDbEntity
  8
0
100
AcDbSpline
 62
7
  6
CONTINUOUS
 70
0
 71
3
 72
22
 73
18
 74
0
 42
0.0000001
 43
0.0000001
 44
0.0000000001
 40
0.0
 40
0.0
 40
0.0
 40
0.0
 40
0.0580382076
 40
0.1162685633
 40
0.1748263038
 40
0.2338355148
 40
0.2934080558
 40
0.3536425777
 40
0.4146222689
 40
0.4764126111
 40
0.5390590335
 40
0.6025840487
 40
0.6669842268
 40
0.7322279352
 40
0.79825487
 40
0.8649771571
 40
1.0
 40
1.0
 40
1.0
 40
1.0
 10
11.6321607096
 20
8.2355267136
 30
0.0
 10
11.629464599
 20
8.2319898328
 30
0.0
 10
11.6242810028
 20
8.2247356988
 30
0.0
 10
11.6171524175
 20
8.2133847969
 30
0.0
 10
11.6106543383
 20
8.2015764584
 30
0.0
 10
11.6047813888
 20
8.1893315079
 30
0.0
 10
11.5995307284
 20
8.1766682109
 30
0.0
 10
11.5949030969
 20
8.1636042045
 30
0.0
 10
11.5909030726
 20
8.1501573975
 30
0.0
 10
11.5875389979
 20
8.1363474344
 30
0.0
 10
11.5848228861
 20
8.1221970065
 30
0.0
 10
11.5827701947
 20
8.1077332672
 30
0.0
 10
11.5813993416
 20
8.0929890992
 30
0.0
 10
11.5807308378
 20
8.0780046474
 30
0.0
 10
11.5807864111
 20
8.0628266051
 30
0.0
 10
11.5818582651
 20
8.0423307356
 30
0.0
 10
11.5838092266
 20
8.0269606979
 30
0.0
 10
11.5856300068
 20
8.016775744
 30
0.0
  0
SPLINE
  5
31B
100
AcDbEntity
  8
0
100
AcDbSpline
 62
7
  6
CONTINUOUS
 70
0
 71
3
 72
20
 73
16
 74
0
 42
0.0000001
 43
0.0000001
 44
0.0000000001
 40
0.0
 40
0.0
 40
0.0
 40
0.0
 40
0.1273231958
 40
0.1906878881
 40
0.2538483811
 40
0.3168131943
 40
0.3795895493
 40
0.4421880906
 40
0.5046213822
 40
0.6290091711
 40
0.7529206501
 40
0.8147636218
 40
0.876544112
 40
0.9382826142
 40
1.0
 40
1.0
 40
1.0
 40
1.0
 10
9.5497573335
 20
9.7788367473
 30
0.0
 10
9.5497573335
 20
9.7736318835
 30
0.0
 10
9.5493837237
 20
9.7658295901
 30
0.0
 10
9.5481313498
 20
9.7555255063
 30
0.0
 10
9.546821025
 20
9.7478875241
 30
0.0
 10
9.5451414053
 20
9.7403471002
 30
0.0
 10
9.5430961517
 20
9.7329212889
 30
0.0
 10
9.5406900249
 20
9.7256271153
 30
0.0
 10
9.5370134018
 20
9.7161131914
 30
0.0
 10
9.5315439263
 20
9.7046229749
 30
0.0
 10
9.5249475266
 20
9.6937682289
 30
0.0
 10
9.5190421532
 20
9.6855465555
 30
0.0
 10
9.514309746
 20
9.6796241232
 30
0.0
 10
9.5092830621
 20
9.6739566931
 30
0.0
 10
9.5057426688
 20
9.6703563872
 30
0.0
 10
9.5039280239
 20
9.6686035719
 30
0.0
  0
SPLINE
  5
31C
100
AcDbEntity
  8
0
100
AcDbSpline
 62
7
  6
CONTINUOUS
 70
0
 71
3
 72
20
 73
16
 74
0
 42
0.0000001
 43
0.0000001
 44
0.0000000001
 40
0.0
 40
0.0
 40
0.0
 40
0.0
 40
0.1273231958
 40
0.1906878881
 40
0.2538483811
 40
0.3168131943
 40
0.3795895493
 40
0.4421880906
 40
0.5046213822
 40
0.6290091711
 40
0.7529206501
 40
0.8147636218
 40
0.876544112
 40
0.9382826142
 40
1.0
 40
1.0
 40
1.0
 40
1.0
 10
12.0244594821
 20
9.6072155704
 30
0.0
 10
12.0244594821
 20
9.6020107066
 30
0.0
 10
12.0240858723
 20
9.5942084131
 30
0.0
 10
12.0228334983
 20
9.5839043294
 30
0.0
 10
12.0215231736
 20
9.5762663472
 30
0.0
 10
12.0198435538
 20
9.5687259233
 30
0.0
 10
12.0177983003
 20
9.561300112
 30
0.0
 10
12.0153921735
 20
9.5540059384
 30
0.0
 10
12.0117155504
 20
9.5444920145
 30
0.0
 10
12.0062460749
 20
9.5330017979
 30
0.0
 10
11.9996496752
 20
9.522147052
 30
0.0
 10
11.9937443018
 20
9.5139253786
 30
0.0
 10
11.9890118946
 20
9.5080029463
 30
0.0
 10
11.9839852107
 20
9.5023355162
 30
0.0
 10
11.9804448174
 20
9.4987352103
 30
0.0
 10
11.9786301725
 20
9.496982395
 30
0.0
  0
SPLINE
  5
31D
100
AcDbEntity
  8
0
100
AcDbSpline
 62
7
  6
CONTINUOUS
 70
0
 71
3
 72
20
 73
16
 74
0
 42
0.0000001
 43
0.0000001
 44
0.0000000001
 40
0.0
 40
0.0
 40
0.0
 40
0.0
 40
0.1273231958
 40
0.1906878881
 40
0.2538483811
 40
0.3168131943
 40
0.3795895493
 40
0.4421880906
 40
0.5046213822
 40
0.6290091711
 40
0.7529206501
 40
0.8147636218
 40
0.876544112
 40
0.9382826142
 40
1.0
 40
1.0
 40
1.0
 40
1.0
 10
9.6096446582
 20
6.6953117504
 30
0.0
 10
9.6096446582
 20
6.6901068866
 30
0.0
 10
9.6092710483
 20
6.6823045932
 30
0.0
 10
9.6080186744
 20
6.6720005094
 30
0.0
 10
9.6067083497
 20
6.6643625272
 30
0.0
 10
9.6050287299
 20
6.6568221034
 30
0.0
 10
9.6029834764
 20
6.649396292
 30
0.0
 10
9.6005773495
 20
6.6421021185
 30
0.0
 10
9.5969007264
 20
6.6325881945
 30
0.0
 10
9.5914312509
 20
6.621097978
 30
0.0
 10
9.5848348512
 20
6.610243232
 30
0.0
 10
9.5789294779
 20
6.6020215587
 30
0.0
 10
9.5741970706
 20
6.5960991263
 30
0.0
 10
9.5691703867
 20
6.5904316962
 30
0.0
 10
9.5656299934
 20
6.5868313903
 30
0.0
 10
9.5638153485
 20
6.585078575
 30
0.0
  0
SPLINE
  5
31E
100
AcDbEntity
  8
0
100
AcDbSpline
 62
7
  6
CONTINUOUS
 70
0
 71
3
 72
20
 73
16
 74
0
 42
0.0000001
 43
0.0000001
 44
0.0000000001
 40
0.0
 40
0.0
 40
0.0
 40
0.0
 40
0.1273231958
 40
0.1906878881
 40
0.2538483811
 40
0.3168131943
 40
0.3795895493
 40
0.4421880906
 40
0.5046213822
 40
0.6290091711
 40
0.7529206501
 40
0.8147636218
 40
0.876544112
 40
0.9382826142
 40
1.0
 40
1.0
 40
1.0
 40
1.0
 10
11.9645718121
 20
6.5319969976
 30
0.0
 10
11.9645718121
 20
6.5267921338
 30
0.0
 10
11.9641982022
 20
6.5189898404
 30
0.0
 10
11.9629458283
 20
6.5086857566
 30
0.0
 10
11.9616355035
 20
6.5010477744
 30
0.0
 10
11.9599558838
 20
6.4935073505
 30
0.0
 10
11.9579106302
 20
6.4860815392
 30
0.0
 10
11.9555045034
 20
6.4787873656
 30
0.0
 10
11.9518278803
 20
6.4692734417
 30
0.0
 10
11.9463584048
 20
6.4577832252
 30
0.0
 10
11.9397620051
 20
6.4469284792
 30
0.0
 10
11.9338566317
 20
6.4387068058
 30
0.0
 10
11.9291242245
 20
6.4327843735
 30
0.0
 10
11.9240975406
 20
6.4271169434
 30
0.0
 10
11.9205571473
 20
6.4235166375
 30
0.0
 10
11.9187425024
 20
6.4217638222
 30
0.0
  0
SPLINE
  5
31F
100
AcDbEntity
  8
0
100
AcDbSpline
 62
7
  6
CONTINUOUS
 70
0
 71
3
 72
59
 73
55
 74
0
 42
0.0000001
 43
0.0000001
 44
0.0000000001
 40
0.0
 40
0.0
 40
0.0
 40
0.0
 40
0.0027758488
 40
0.0055596021
 40
0.008359095
 40
0.0111820195
 40
0.0140358522
 40
0.0169278075
 40
0.0228516365
 40
0.0290063393
 40
0.0354366794
 40
0.0387680642
 40
0.0421822272
 40
0.0492730078
 40
0.0567369683
 40
0.0645960023
 40
0.0728675869
 40
0.0815655464
 40
0.0907003782
 40
0.1002799082
 40
0.1103094603
 40
0.1207923966
 40
0.1317301617
 40
0.1431227321
 40
0.1549685743
 40
0.1672650269
 40
0.1800082061
 40
0.1931933349
 40
0.2068146222
 40
0.2208655488
 40
0.2353387364
 40
0.2502261967
 40
0.2655192032
 40
0.2812085054
 40
0.2972842121
 40
0.3137359731
 40
0.3305528785
 40
0.3477236105
 40
0.3830784316
 40
0.4197019435
 40
0.457489208
 40
0.4963301116
 40
0.5361099921
 40
0.576710229
 40
0.6180088092
 40
0.6598808745
 40
0.702199258
 40
0.7448350122
 40
0.7876579293
 40
0.8305370685
 40
0.8733412491
 40
0.9159396382
 40
0.9582020849
 40
1.0
 40
1.0
 40
1.0
 40
1.0
 10
12.558853814
 20
10.9895746202
 30
0.0
 10
12.5588538177
 20
10.9887035121
 30
0.0
 10
12.5588054976
 20
10.9869584318
 30
0.0
 10
12.5585881692
 20
10.9843429629
 30
0.0
 10
12.5582259862
 20
10.9817286113
 30
0.0
 10
12.5577190561
 20
10.9791160956
 30
0.0
 10
12.5570675326
 20
10.9765059025
 30
0.0
 10
12.5559979879
 20
10.9730020171
 30
0.0
 10
12.5542862714
 20
10.9686181378
 30
0.0
 10
12.5516730176
 20
10.9634224667
 30
0.0
 10
12.5490495634
 20
10.9591649005
 30
0.0
 10
12.5466788039
 20
10.9557763052
 30
0.0
 10
12.5440576798
 20
10.9523134574
 30
0.0
 10
12.5404132661
 20
10.9480041911
 30
0.0
 10
12.5355328049
 20
10.9429332257
 30
0.0
 10
12.5300950979
 20
10.9379021166
 30
0.0
 10
12.5241048293
 20
10.9329145605
 30
0.0
 10
12.5175666643
 20
10.9279742921
 30
0.0
 10
12.5104858941
 20
10.9230849556
 30
0.0
 10
12.502868095
 20
10.9182504416
 30
0.0
 10
12.4947194073
 20
10.9134744362
 30
0.0
 10
12.4860463163
 20
10.9087608499
 30
0.0
 10
12.4768558396
 20
10.9041133558
 30
0.0
 10
12.4671553591
 20
10.8995358159
 30
0.0
 10
12.4569527547
 20
10.8950318435
 30
0.0
 10
12.4462562765
 20
10.8906052083
 30
0.0
 10
12.4350746384
 20
10.8862594317
 30
0.0
 10
12.4234169239
 20
10.8819981616
 30
0.0
 10
12.4112926483
 20
10.8778248049
 30
0.0
 10
12.398711691
 20
10.8737428667
 30
0.0
 10
12.3856843339
 20
10.869755622
 30
0.0
 10
12.3722212138
 20
10.8658664172
 30
0.0
 10
12.3583333427
 20
10.8620783816
 30
0.0
 10
12.3440320756
 20
10.8583946898
 30
0.0
 10
12.3293291157
 20
10.8548183118
 30
0.0
 10
12.3142364989
 20
10.851352244
 30
0.0
 10
12.2987665662
 20
10.8479992676
 30
0.0
 10
12.2774462491
 20
10.8436408179
 30
0.0
 10
12.2499423187
 20
10.8385071632
 30
0.0
 10
12.2159535302
 20
10.8328977272
 30
0.0
 10
12.1807786185
 20
10.8277995227
 30
0.0
 10
12.1445328231
 20
10.8232293912
 30
0.0
 10
12.107334752
 20
10.81920245
 30
0.0
 10
12.069306221
 20
10.8157320064
 30
0.0
 10
12.0305717793
 20
10.812829527
 30
0.0
 10
11.9912583137
 20
10.8105045984
 30
0.0
 10
11.9514946221
 20
10.8087648977
 30
0.0
 10
11.9114109891
 20
10.8076161688
 30
0.0
 10
11.8711387545
 20
10.8070622032
 30
0.0
 10
11.8308098811
 20
10.8071048308
 30
0.0
 10
11.7905565187
 20
10.8077439079
 30
0.0
 10
11.7505105526
 20
10.8089773314
 30
0.0
 10
11.7108033049
 20
10.8108010157
 30
0.0
 10
11.6844720125
 20
10.8124168777
 30
0.0
 10
11.6713865522
 20
10.8133243574
 30
0.0
  0
SPLINE
  5
320
100
AcDbEntity
  8
0
100
AcDbSpline
 62
7
  6
CONTINUOUS
 70
0
 71
3
 72
23
 73
19
 74
0
 42
0.0000001
 43
0.0000001
 44
0.0000000001
 40
0.0
 40
0.0
 40
0.0
 40
0.0
 40
0.0616482008
 40
0.1233194316
 40
0.1850364675
 40
0.2468215573
 40
0.3086962009
 40
0.3706809199
 40
0.43279501
 40
0.4950563329
 40
0.5574811898
 40
0.6200840976
 40
0.6828775607
 40
0.7458724522
 40
0.8090769387
 40
0.8724963729
 40
0.9361396553
 40
1.0
 40
1.0
 40
1.0
 40
1.0
 10
12.7115888735
 20
9.9800271959
 30
0.0
 10
12.7147422591
 20
9.983073114
 30
0.0
 10
12.7212154681
 20
9.9889976274
 30
0.0
 10
12.7313907681
 20
9.9973514798
 30
0.0
 10
12.7420079386
 20
10.0051531284
 30
0.0
 10
12.7530398505
 20
10.0123825823
 30
0.0
 10
12.7644587661
 20
10.0190217833
 30
0.0
 10
12.7762358974
 20
10.0250539803
 30
0.0
 10
12.7883415961
 20
10.0304639523
 30
0.0
 10
12.8007453262
 20
10.0352381602
 30
0.0
 10
12.8134158413
 20
10.0393646162
 30
0.0
 10
12.8263212399
 20
10.0428328894
 30
0.0
 10
12.8394290126
 20
10.0456343332
 30
0.0
 10
12.8527061536
 20
10.047761936
 30
0.0
 10
12.8661191397
 20
10.0492103389
 30
0.0
 10
12.879634577
 20
10.0499760085
 30
0.0
 10
12.8932176765
 20
10.0500568871
 30
0.0
 10
12.9022809148
 20
10.0496549981
 30
0.0
 10
12.906811582
 20
10.0493407953
 30
0.0
  0
SPLINE
  5
321
100
AcDbEntity
  8
0
100
AcDbSpline
 62
7
  6
CONTINUOUS
 70
0
 71
3
 72
23
 73
19
 74
0
 42
0.0000001
 43
0.0000001
 44
0.0000000001
 40
0.0
 40
0.0
 40
0.0
 40
0.0
 40
0.0616482008
 40
0.1233194316
 40
0.1850364675
 40
0.2468215573
 40
0.3086962009
 40
0.3706809199
 40
0.43279501
 40
0.4950563329
 40
0.5574811898
 40
0.6200840976
 40
0.6828775607
 40
0.7458724522
 40
0.8090769387
 40
0.8724963729
 40
0.9361396553
 40
1.0
 40
1.0
 40
1.0
 40
1.0
 10
8.1215091574
 20
6.6741964728
 30
0.0
 10
8.1246625431
 20
6.6772423909
 30
0.0
 10
8.131135752
 20
6.6831669043
 30
0.0
 10
8.141311052
 20
6.6915207568
 30
0.0
 10
8.1519282226
 20
6.6993224053
 30
0.0
 10
8.1629601345
 20
6.7065518592
 30
0.0
 10
8.17437905
 20
6.7131910602
 30
0.0
 10
8.1861561813
 20
6.7192232573
 30
0.0
 10
8.1982618801
 20
6.7246332293
 30
0.0
 10
8.2106656102
 20
6.7294074371
 30
0.0
 10
8.2233361252
 20
6.7335338931
 30
0.0
 10
8.2362415238
 20
6.7370021664
 30
0.0
 10
8.2493492966
 20
6.7398036101
 30
0.0
 10
8.2626264376
 20
6.7419312129
 30
0.0
 10
8.2760394236
 20
6.7433796158
 30
0.0
 10
8.2895548609
 20
6.7441452855
 30
0.0
 10
8.3031379604
 20
6.7442261641
 30
0.0
 10
8.3122011988
 20
6.743824275
 30
0.0
 10
8.3167318659
 20
6.7435100722
 30
0.0
  0
SPLINE
  5
322
100
AcDbEntity
  8
0
100
AcDbSpline
 62
7
  6
CONTINUOUS
 70
0
 71
3
 72
40
 73
36
 74
0
 42
0.0000001
 43
0.0000001
 44
0.0000000001
 40
0.0
 40
0.0
 40
0.0
 40
0.0
 40
0.0299423244
 40
0.0599090252
 40
0.0899238851
 40
0.1200095184
 40
0.1501868317
 40
0.1804745387
 40
0.2108887385
 40
0.2414425702
 40
0.2721459482
 40
0.3030053829
 40
0.3340238852
 40
0.3652009527
 40
0.3965326343
 40
0.4280116653
 40
0.4596276675
 40
0.491367407
 40
0.5232151004
 40
0.5551527638
 40
0.5871605953
 40
0.6192173855
 40
0.6513009483
 40
0.6833885653
 40
0.7154574382
 40
0.7314802218
 40
0.7474899727
 40
0.7794549014
 40
0.811336703
 40
0.8431167159
 40
0.8747782922
 40
0.9063073791
 40
0.9376922159
 40
0.9689251615
 40
1.0
 40
1.0
 40
1.0
 40
1.0
 10
9.2691036946
 20
9.9117115922
 30
0.0
 10
9.2719073458
 20
9.9144197159
 30
0.0
 10
9.2777351139
 20
9.9196173982
 30
0.0
 10
9.2870720977
 20
9.926698329
 30
0.0
 10
9.2969566979
 20
9.9330282202
 30
0.0
 10
9.3073336821
 20
9.9385715649
 30
0.0
 10
9.3181459995
 20
9.9432980769
 30
0.0
 10
9.3293339784
 20
9.9471817735
 30
0.0
 10
9.3408359666
 20
9.9502014039
 30
0.0
 10
9.3525885959
 20
9.9523404809
 30
0.0
 10
9.3645271573
 20
9.9535873869
 30
0.0
 10
9.3765859548
 20
9.9539354196
 30
0.0
 10
9.3886986679
 20
9.9533828219
 30
0.0
 10
9.400798714
 20
9.951932783
 30
0.0
 10
9.412819611
 20
9.9495934142
 30
0.0
 10
9.4246953382
 20
9.9463776983
 30
0.0
 10
9.4363606938
 20
9.9423034148
 30
0.0
 10
9.4477516479
 20
9.9373930389
 30
0.0
 10
9.458805689
 20
9.9316736162
 30
0.0
 10
9.4694621608
 20
9.9251766159
 30
0.0
 10
9.4796625966
 20
9.9179377491
 30
0.0
 10
9.4893510118
 20
9.9099968089
 30
0.0
 10
9.4984743007
 20
9.9013973222
 30
0.0
 10
9.506982181
 20
9.8921868117
 30
0.0
 10
9.5135230914
 20
9.8840407387
 30
0.0
 10
9.5184032413
 20
9.8772697321
 30
0.0
 10
9.5230378185
 20
9.8703446142
 30
0.0
 10
9.5283663019
 20
9.8614073618
 30
0.0
 10
9.533983547
 20
9.8502865169
 30
0.0
 10
9.5387906358
 20
9.8388346333
 30
0.0
 10
9.5427609064
 20
9.8271148403
 30
0.0
 10
9.5458724616
 20
9.815191467
 30
0.0
 10
9.5481081817
 20
9.8031297066
 30
0.0
 10
9.549455529
 20
9.7909967419
 30
0.0
 10
9.5497573335
 20
9.7828821808
 30
0.0
 10
9.5497573335
 20
9.7788367473
 30
0.0
  0
SPLINE
  5
323
100
AcDbEntity
  8
0
100
AcDbSpline
 62
7
  6
CONTINUOUS
 70
0
 71
3
 72
40
 73
36
 74
0
 42
0.0000001
 43
0.0000001
 44
0.0000000001
 40
0.0
 40
0.0
 40
0.0
 40
0.0
 40
0.0299423244
 40
0.0599090252
 40
0.0899238851
 40
0.1200095184
 40
0.1501868317
 40
0.1804745387
 40
0.2108887385
 40
0.2414425702
 40
0.2721459482
 40
0.3030053829
 40
0.3340238852
 40
0.3652009527
 40
0.3965326343
 40
0.4280116653
 40
0.4596276675
 40
0.491367407
 40
0.5232151004
 40
0.5551527638
 40
0.5871605953
 40
0.6192173855
 40
0.6513009483
 40
0.6833885653
 40
0.7154574382
 40
0.7314802218
 40
0.7474899727
 40
0.7794549014
 40
0.811336703
 40
0.8431167159
 40
0.8747782922
 40
0.9063073791
 40
0.9376922159
 40
0.9689251615
 40
1.0
 40
1.0
 40
1.0
 40
1.0
 10
11.7438058432
 20
9.7400904152
 30
0.0
 10
11.7466094944
 20
9.7427985389
 30
0.0
 10
11.7524372625
 20
9.7479962213
 30
0.0
 10
11.7617742463
 20
9.7550771521
 30
0.0
 10
11.7716588465
 20
9.7614070433
 30
0.0
 10
11.7820358306
 20
9.766950388
 30
0.0
 10
11.7928481481
 20
9.7716768999
 30
0.0
 10
11.804036127
 20
9.7755605966
 30
0.0
 10
11.8155381152
 20
9.778580227
 30
0.0
 10
11.8272907445
 20
9.7807193039
 30
0.0
 10
11.8392293059
 20
9.78196621
 30
0.0
 10
11.8512881033
 20
9.7823142427
 30
0.0
 10
11.8634008164
 20
9.781761645
 30
0.0
 10
11.8755008626
 20
9.7803116061
 30
0.0
 10
11.8875217596
 20
9.7779722372
 30
0.0
 10
11.8993974867
 20
9.7747565214
 30
0.0
 10
11.9110628424
 20
9.7706822379
 30
0.0
 10
11.9224537965
 20
9.765771862
 30
0.0
 10
11.9335078376
 20
9.7600524393
 30
0.0
 10
11.9441643094
 20
9.753555439
 30
0.0
 10
11.9543647452
 20
9.7463165722
 30
0.0
 10
11.9640531604
 20
9.738375632
 30
0.0
 10
11.9731764493
 20
9.7297761452
 30
0.0
 10
11.9816843296
 20
9.7205656348
 30
0.0
 10
11.98822524
 20
9.7124195618
 30
0.0
 10
11.9931053899
 20
9.7056485551
 30
0.0
 10
11.9977399671
 20
9.6987234373
 30
0.0
 10
12.0030684505
 20
9.6897861849
 30
0.0
 10
12.0086856956
 20
9.67866534
 30
0.0
 10
12.0134927844
 20
9.6672134564
 30
0.0
 10
12.017463055
 20
9.6554936634
 30
0.0
 10
12.0205746102
 20
9.6435702901
 30
0.0
 10
12.0228103302
 20
9.6315085297
 30
0.0
 10
12.0241576776
 20
9.619375565
 30
0.0
 10
12.0244594821
 20
9.6112610039
 30
0.0
 10
12.0244594821
 20
9.6072155704
 30
0.0
  0
SPLINE
  5
324
100
AcDbEntity
  8
0
100
AcDbSpline
 62
7
  6
CONTINUOUS
 70
0
 71
3
 72
40
 73
36
 74
0
 42
0.0000001
 43
0.0000001
 44
0.0000000001
 40
0.0
 40
0.0
 40
0.0
 40
0.0
 40
0.0299423244
 40
0.0599090252
 40
0.0899238851
 40
0.1200095184
 40
0.1501868317
 40
0.1804745387
 40
0.2108887385
 40
0.2414425702
 40
0.2721459482
 40
0.3030053829
 40
0.3340238852
 40
0.3652009527
 40
0.3965326343
 40
0.4280116653
 40
0.4596276675
 40
0.491367407
 40
0.5232151004
 40
0.5551527638
 40
0.5871605953
 40
0.6192173855
 40
0.6513009483
 40
0.6833885653
 40
0.7154574382
 40
0.7314802218
 40
0.7474899727
 40
0.7794549014
 40
0.811336703
 40
0.8431167159
 40
0.8747782922
 40
0.9063073791
 40
0.9376922159
 40
0.9689251615
 40
1.0
 40
1.0
 40
1.0
 40
1.0
 10
9.3289910192
 20
6.8281865953
 30
0.0
 10
9.3317946705
 20
6.830894719
 30
0.0
 10
9.3376224385
 20
6.8360924014
 30
0.0
 10
9.3469594223
 20
6.8431733321
 30
0.0
 10
9.3568440225
 20
6.8495032234
 30
0.0
 10
9.3672210067
 20
6.855046568
 30
0.0
 10
9.3780333241
 20
6.85977308
 30
0.0
 10
9.389221303
 20
6.8636567767
 30
0.0
 10
9.4007232913
 20
6.866676407
 30
0.0
 10
9.4124759205
 20
6.868815484
 30
0.0
 10
9.4244144819
 20
6.87006239
 30
0.0
 10
9.4364732794
 20
6.8704104227
 30
0.0
 10
9.4485859925
 20
6.869857825
 30
0.0
 10
9.4606860386
 20
6.8684077861
 30
0.0
 10
9.4727069356
 20
6.8660684173
 30
0.0
 10
9.4845826628
 20
6.8628527014
 30
0.0
 10
9.4962480184
 20
6.8587784179
 30
0.0
 10
9.5076389725
 20
6.853868042
 30
0.0
 10
9.5186930137
 20
6.8481486193
 30
0.0
 10
9.5293494854
 20
6.841651619
 30
0.0
 10
9.5395499213
 20
6.8344127522
 30
0.0
 10
9.5492383364
 20
6.8264718121
 30
0.0
 10
9.5583616254
 20
6.8178723253
 30
0.0
 10
9.5668695057
 20
6.8086618148
 30
0.0
 10
9.5734104161
 20
6.8005157418
 30
0.0
 10
9.5782905659
 20
6.7937447352
 30
0.0
 10
9.5829251431
 20
6.7868196173
 30
0.0
 10
9.5882536265
 20
6.7778823649
 30
0.0
 10
9.5938708716
 20
6.76676152
 30
0.0
 10
9.5986779604
 20
6.7553096364
 30
0.0
 10
9.602648231
 20
6.7435898434
 30
0.0
 10
9.6057597863
 20
6.7316664702
 30
0.0
 10
9.6079955063
 20
6.7196047097
 30
0.0
 10
9.6093428536
 20
6.707471745
 30
0.0
 10
9.6096446582
 20
6.6993571839
 30
0.0
 10
9.6096446582
 20
6.6953117504
 30
0.0
  0
SPLINE
  5
325
100
AcDbEntity
  8
0
100
AcDbSpline
 62
7
  6
CONTINUOUS
 70
0
 71
3
 72
40
 73
36
 74
0
 42
0.0000001
 43
0.0000001
 44
0.0000000001
 40
0.0
 40
0.0
 40
0.0
 40
0.0
 40
0.0299423244
 40
0.0599090252
 40
0.0899238851
 40
0.1200095184
 40
0.1501868317
 40
0.1804745387
 40
0.2108887385
 40
0.2414425702
 40
0.2721459482
 40
0.3030053829
 40
0.3340238852
 40
0.3652009527
 40
0.3965326343
 40
0.4280116653
 40
0.4596276675
 40
0.491367407
 40
0.5232151004
 40
0.5551527638
 40
0.5871605953
 40
0.6192173855
 40
0.6513009483
 40
0.6833885653
 40
0.7154574382
 40
0.7314802218
 40
0.7474899727
 40
0.7794549014
 40
0.811336703
 40
0.8431167159
 40
0.8747782922
 40
0.9063073791
 40
0.9376922159
 40
0.9689251615
 40
1.0
 40
1.0
 40
1.0
 40
1.0
 10
11.6839181731
 20
6.6648718425
 30
0.0
 10
11.6867218243
 20
6.6675799662
 30
0.0
 10
11.6925495924
 20
6.6727776485
 30
0.0
 10
11.7018865762
 20
6.6798585793
 30
0.0
 10
11.7117711764
 20
6.6861884705
 30
0.0
 10
11.7221481606
 20
6.6917318152
 30
0.0
 10
11.732960478
 20
6.6964583272
 30
0.0
 10
11.7441484569
 20
6.7003420239
 30
0.0
 10
11.7556504452
 20
6.7033616542
 30
0.0
 10
11.7674030744
 20
6.7055007312
 30
0.0
 10
11.7793416358
 20
6.7067476372
 30
0.0
 10
11.7914004333
 20
6.7070956699
 30
0.0
 10
11.8035131464
 20
6.7065430722
 30
0.0
 10
11.8156131925
 20
6.7050930333
 30
0.0
 10
11.8276340895
 20
6.7027536645
 30
0.0
 10
11.8395098167
 20
6.6995379486
 30
0.0
 10
11.8511751723
 20
6.6954636651
 30
0.0
 10
11.8625661264
 20
6.6905532892
 30
0.0
 10
11.8736201675
 20
6.6848338665
 30
0.0
 10
11.8842766393
 20
6.6783368662
 30
0.0
 10
11.8944770751
 20
6.6710979994
 30
0.0
 10
11.9041654903
 20
6.6631570592
 30
0.0
 10
11.9132887793
 20
6.6545575725
 30
0.0
 10
11.9217966595
 20
6.645347062
 30
0.0
 10
11.9283375699
 20
6.637200989
 30
0.0
 10
11.9332177198
 20
6.6304299824
 30
0.0
 10
11.937852297
 20
6.6235048645
 30
0.0
 10
11.9431807804
 20
6.6145676121
 30
0.0
 10
11.9487980255
 20
6.6034467672
 30
0.0
 10
11.9536051143
 20
6.5919948836
 30
0.0
 10
11.9575753849
 20
6.5802750906
 30
0.0
 10
11.9606869402
 20
6.5683517173
 30
0.0
 10
11.9629226602
 20
6.5562899569
 30
0.0
 10
11.9642700075
 20
6.5441569922
 30
0.0
 10
11.9645718121
 20
6.5360424311
 30
0.0
 10
11.9645718121
 20
6.5319969976
 30
0.0
  0
SPLINE
  5
326
100
AcDbEntity
  8
0
100
AcDbSpline
 62
7
  6
CONTINUOUS
 70
0
 71
3
 72
37
 73
33
 74
0
 42
0.0000001
 43
0.0000001
 44
0.0000000001
 40
0.0
 40
0.0
 40
0.0
 40
0.0
 40
0.0311191579
 40
0.0621654225
 40
0.0931451533
 40
0.1240648373
 40
0.1549310097
 40
0.1857504575
 40
0.2165300708
 40
0.2472770313
 40
0.3086869874
 40
0.3700587419
 40
0.4007606612
 40
0.4314802637
 40
0.4622275583
 40
0.4930131868
 40
0.5238485886
 40
0.5547457542
 40
0.5857171297
 40
0.6167757256
 40
0.647934906
 40
0.6792080605
 40
0.710608158
 40
0.7421472529
 40
0.7738358342
 40
0.8056819925
 40
0.8376904897
 40
0.869861849
 40
0.9021914594
 40
0.9346692961
 40
0.9672789943
 40
1.0
 40
1.0
 40
1.0
 40
1.0
 10
10.8553933956
 20
8.850689655
 30
0.0
 10
10.8538100657
 20
8.8456462182
 30
0.0
 10
10.8504186827
 20
8.8356412669
 30
0.0
 10
10.844670941
 20
8.8208944882
 30
0.0
 10
10.8382866734
 20
8.8064486602
 30
0.0
 10
10.8312829221
 20
8.7923271003
 30
0.0
 10
10.8236755339
 20
8.7785524169
 30
0.0
 10
10.8154793524
 20
8.7651477072
 30
0.0
 10
10.8067079621
 20
8.752136116
 30
0.0
 10
10.7942709056
 20
8.7353534915
 30
0.0
 10
10.777341478
 20
8.7154657458
 30
0.0
 10
10.7586536721
 20
8.6972268238
 30
0.0
 10
10.7427148285
 20
8.683761226
 30
0.0
 10
10.7302701232
 20
8.6742500487
 30
0.0
 10
10.7173528448
 20
8.6653661474
 30
0.0
 10
10.7039786013
 20
8.6571477948
 30
0.0
 10
10.6901654658
 20
8.6496363215
 30
0.0
 10
10.6759341396
 20
8.6428758715
 30
0.0
 10
10.6613088695
 20
8.6369134933
 30
0.0
 10
10.646318269
 20
8.6317989492
 30
0.0
 10
10.6309962659
 20
8.6275844488
 30
0.0
 10
10.6153831969
 20
8.6243241095
 30
0.0
 10
10.5995269558
 20
8.6220730624
 30
0.0
 10
10.5834841074
 20
8.6208861468
 30
0.0
 10
10.5673208607
 20
8.6208161522
 30
0.0
 10
10.5511137592
 20
8.6219115479
 30
0.0
 10
10.5349498856
 20
8.6242137099
 30
0.0
 10
10.5189263124
 20
8.6277538451
 30
0.0
 10
10.503148721
 20
8.6325496253
 30
0.0
 10
10.4877285314
 20
8.6386026254
 30
0.0
 10
10.4727809763
 20
8.6458946947
 30
0.0
 10
10.4632168498
 20
8.6515511739
 30
0.0
 10
10.4585495602
 20
8.6545695124
 30
0.0
  0
SPLINE
  5
327
100
AcDbEntity
  8
0
100
AcDbSpline
 62
7
  6
CONTINUOUS
 70
0
 71
3
 72
15
 73
11
 74
0
 42
0.0000001
 43
0.0000001
 44
0.0000000001
 40
0.0
 40
0.0
 40
0.0
 40
0.0
 40
0.1080210286
 40
0.2193198925
 40
0.3348171345
 40
0.4553249258
 40
0.5815479366
 40
0.7140872853
 40
0.8534406884
 40
1.0
 40
1.0
 40
1.0
 40
1.0
 10
13.7248457431
 20
8.7211090907
 30
0.0
 10
13.7234204075
 20
8.7208977944
 30
0.0
 10
13.7205470667
 20
8.7203169626
 30
0.0
 10
13.7162713599
 20
8.7190047467
 30
0.0
 10
13.7119799821
 20
8.7172431946
 30
0.0
 10
13.7076765087
 20
8.7150347225
 30
0.0
 10
13.7033634664
 20
8.7123816056
 30
0.0
 10
13.6990434142
 20
8.7092862537
 30
0.0
 10
13.6947193081
 20
8.7057514021
 30
0.0
 10
13.6919083446
 20
8.7031705556
 30
0.0
 10
13.6905022153
 20
8.7018123389
 30
0.0
  0
SPLINE
  5
328
100
AcDbEntity
  8
0
100
AcDbSpline
 62
7
  6
CONTINUOUS
 70
0
 71
3
 72
35
 73
31
 74
0
 42
0.0000001
 43
0.0000001
 44
0.0000000001
 40
0.0
 40
0.0
 40
0.0
 40
0.0
 40
0.0174438048
 40
0.0352924441
 40
0.053646619
 40
0.0725980029
 40
0.1125929588
 40
0.133792416
 40
0.1558632932
 40
0.1788527748
 40
0.2028012523
 40
0.2277426605
 40
0.253705083
 40
0.2807119327
 40
0.3087818371
 40
0.3379295203
 40
0.3681664502
 40
0.399500537
 40
0.4319371767
 40
0.4654792741
 40
0.5001271478
 40
0.535879458
 40
0.5727327643
 40
0.6106818368
 40
0.6497202292
 40
0.6898396525
 40
0.7310306574
 40
0.816581768
 40
0.906276711
 40
1.0
 40
1.0
 40
1.0
 40
1.0
 10
13.6391864726
 20
7.4859445948
 30
0.0
 10
13.6380707732
 20
7.4862722609
 30
0.0
 10
13.6358404615
 20
7.4870307783
 30
0.0
 10
13.6325549719
 20
7.4884516378
 30
0.0
 10
13.62929829
 20
7.4901655494
 30
0.0
 10
13.624919102
 20
7.4928880735
 30
0.0
 10
13.6206804815
 20
7.496167691
 30
0.0
 10
13.6165926451
 20
7.4999247638
 30
0.0
 10
13.6135027151
 20
7.5030840484
 30
0.0
 10
13.6104502856
 20
7.5065277895
 30
0.0
 10
13.6074363652
 20
7.510254691
 30
0.0
 10
13.6044623575
 20
7.51426291
 30
0.0
 10
13.6015294855
 20
7.5185505638
 30
0.0
 10
13.5986391419
 20
7.523115693
 30
0.0
 10
13.595792588
 20
7.5279561438
 30
0.0
 10
13.5929911121
 20
7.5330696548
 30
0.0
 10
13.5902360706
 20
7.538453865
 30
0.0
 10
13.5875286757
 20
7.5441062228
 30
0.0
 10
13.5848702226
 20
7.5500240899
 30
0.0
 10
13.5822619854
 20
7.5562046926
 30
0.0
 10
13.5797051333
 20
7.5626451017
 30
0.0
 10
13.5772009302
 20
7.5693422981
 30
0.0
 10
13.5747505458
 20
7.5762931132
 30
0.0
 10
13.57235511
 20
7.5834942561
 30
0.0
 10
13.5700158249
 20
7.5909423317
 30
0.0
 10
13.5677337349
 20
7.5986338117
 30
0.0
 10
13.5647307701
 20
7.6093442874
 30
0.0
 10
13.5611375478
 20
7.6233196443
 30
0.0
 10
13.55712314
 20
7.6407959219
 30
0.0
 10
13.554667957
 20
7.6527749767
 30
0.0
 10
13.5534787134
 20
7.6589084269
 30
0.0
  0
SPLINE
  5
329
100
AcDbEntity
  8
0
100
AcDbSpline
 62
7
  6
CONTINUOUS
 70
0
 71
3
 72
23
 73
19
 74
0
 42
0.0000001
 43
0.0000001
 44
0.0000000001
 40
0.0
 40
0.0
 40
0.0
 40
0.0
 40
0.0814962235
 40
0.1606105515
 40
0.2372921886
 40
0.3114951502
 40
0.3831776077
 40
0.4523034307
 40
0.5188415299
 40
0.5827676582
 40
0.6440638941
 40
0.7027209383
 40
0.7587376696
 40
0.8121234533
 40
0.8628988696
 40
0.9111004609
 40
0.9567792627
 40
1.0
 40
1.0
 40
1.0
 40
1.0
 10
13.6160495359
 20
8.5615346762
 30
0.0
 10
13.6174580738
 20
8.565648503
 30
0.0
 10
13.6202941206
 20
8.5737355059
 30
0.0
 10
13.6246738525
 20
8.5856152948
 30
0.0
 10
13.6291132454
 20
8.5970565666
 30
0.0
 10
13.6336081775
 20
8.6080489418
 30
0.0
 10
13.6381546353
 20
8.6185824749
 30
0.0
 10
13.6427484092
 20
8.6286476669
 30
0.0
 10
13.6473854137
 20
8.6382354195
 30
0.0
 10
13.6520613578
 20
8.6473371261
 30
0.0
 10
13.6567721117
 20
8.6559445868
 30
0.0
 10
13.6615133462
 20
8.6640501331
 30
0.0
 10
13.666280923
 20
8.6716464767
 30
0.0
 10
13.6710704764
 20
8.6787269098
 30
0.0
 10
13.6758779122
 20
8.6852851372
 30
0.0
 10
13.68069913
 20
8.6913155593
 30
0.0
 10
13.6855298023
 20
8.6968124114
 30
0.0
 10
13.6888435645
 20
8.7002102053
 30
0.0
 10
13.6905022153
 20
8.7018123389
 30
0.0
  0
SPLINE
  5
32A
100
AcDbEntity
  8
0
100
AcDbSpline
 62
7
  6
CONTINUOUS
 70
0
 71
3
 72
56
 73
52
 74
0
 42
0.0000001
 43
0.0000001
 44
0.0000000001
 40
0.0
 40
0.0
 40
0.0
 40
0.0
 40
0.0159348126
 40
0.0319118275
 40
0.047927631
 40
0.0639784652
 40
0.0961607999
 40
0.1284330996
 40
0.1607594518
 40
0.1931037004
 40
0.2254307269
 40
0.2577075033
 40
0.289903828
 40
0.3219928857
 40
0.3539516513
 40
0.3857611739
 40
0.4174067585
 40
0.448878086
 40
0.480169323
 40
0.5112792209
 40
0.5422112084
 40
0.5576164913
 40
0.5729807912
 40
0.5883058823
 40
0.6035938577
 40
0.6188470704
 40
0.6340682191
 40
0.649260246
 40
0.6644263949
 40
0.6795701973
 40
0.6946953862
 40
0.7098059997
 40
0.7249062348
 40
0.7400004886
 40
0.7550933522
 40
0.770189463
 40
0.7852936001
 40
0.8004105543
 40
0.8155450648
 40
0.8307018638
 40
0.8458855034
 40
0.8611003559
 40
0.876350594
 40
0.8916400378
 40
0.9069721594
 40
0.9223500537
 40
0.9377764092
 40
0.9532531723
 40
0.9687818758
 40
0.9843648532
 40
1.0
 40
1.0
 40
1.0
 40
1.0
 10
11.4535329102
 20
8.4349583964
 30
0.0
 10
11.4571991316
 20
8.4337884943
 30
0.0
 10
11.4644868953
 20
8.4312711138
 30
0.0
 10
11.4752417463
 20
8.4269814706
 30
0.0
 10
11.4858117033
 20
8.4221852759
 30
0.0
 10
11.4996358634
 20
8.4151287784
 30
0.0
 10
11.5163332565
 20
8.4051120154
 30
0.0
 10
11.5352479387
 20
8.3913304588
 30
0.0
 10
11.55291317
 20
8.375920493
 30
0.0
 10
11.5691952258
 20
8.3590389755
 30
0.0
 10
11.5839801759
 20
8.3408483237
 30
0.0
 10
11.5971711415
 20
8.3215147618
 30
0.0
 10
11.6086874786
 20
8.30120589
 30
0.0
 10
11.6184632164
 20
8.2800892469
 30
0.0
 10
11.6264456394
 20
8.2583312923
 30
0.0
 10
11.6325939319
 20
8.2360968879
 30
0.0
 10
11.6368779806
 20
8.2135490924
 30
0.0
 10
11.6392774165
 20
8.1908494094
 30
0.0
 10
11.6397808197
 20
8.1681576297
 30
0.0
 10
11.6383857609
 20
8.1456340672
 30
0.0
 10
11.6356413252
 20
8.1271071
 30
0.0
 10
11.6325043516
 20
8.1125357477
 30
0.0
 10
11.6296881015
 20
8.1017618686
 30
0.0
 10
11.6264088297
 20
8.091149579
 30
0.0
 10
11.6226704388
 20
8.0807185692
 30
0.0
 10
11.6184777142
 20
8.0704888103
 30
0.0
 10
11.6138359331
 20
8.0604802901
 30
0.0
 10
11.6087512849
 20
8.0507129529
 30
0.0
 10
11.6032306875
 20
8.041206742
 30
0.0
 10
11.5972818255
 20
8.0319816146
 30
0.0
 10
11.5909134283
 20
8.0230573366
 30
0.0
 10
11.5841349649
 20
8.0144536955
 30
0.0
 10
11.5769570088
 20
8.0061902181
 30
0.0
 10
11.5693911423
 20
7.9982862
 30
0.0
 10
11.5614498999
 20
7.9907607639
 30
0.0
 10
11.5531470866
 20
7.9836324801
 30
0.0
 10
11.5444975127
 20
7.9769195999
 30
0.0
 10
11.5355171686
 20
7.9706398166
 30
0.0
 10
11.5262233065
 20
7.9648100299
 30
0.0
 10
11.5166342327
 20
7.9594465775
 30
0.0
 10
11.5067695136
 20
7.9545647918
 30
0.0
 10
11.4966498782
 20
7.9501789649
 30
0.0
 10
11.4862970932
 20
7.9463024727
 30
0.0
 10
11.4757340827
 20
7.9429472633
 30
0.0
 10
11.4649847492
 20
7.9401239702
 30
0.0
 10
11.4540738604
 20
7.9378419357
 30
0.0
 10
11.4430270883
 20
7.936108773
 30
0.0
 10
11.431870852
 20
7.9349304598
 30
0.0
 10
11.4206317206
 20
7.9343114096
 30
0.0
 10
11.4093377673
 20
7.9342542705
 30
0.0
 10
11.401802255
 20
7.9345905677
 30
0.0
 10
11.3980353169
 20
7.9348518057
 30
0.0
  0
SPLINE
  5
32B
100
AcDbEntity
  8
0
100
AcDbSpline
 62
7
  6
CONTINUOUS
 70
0
 71
3
 72
97
 73
93
 74
0
 42
0.0000001
 43
0.0000001
 44
0.0000000001
 40
0.0
 40
0.0
 40
0.0
 40
0.0
 40
0.002716409
 40
0.0054531944
 40
0.0082302424
 40
0.0110665189
 40
0.0139797038
 40
0.0169859958
 40
0.0200999376
 40
0.023334432
 40
0.0267007685
 40
0.0302086924
 40
0.033866589
 40
0.0376815271
 40
0.041659475
 40
0.0458053789
 40
0.0501232725
 40
0.054616442
 40
0.0592874183
 40
0.0641381615
 40
0.0691700565
 40
0.0743839913
 40
0.0797804526
 40
0.0853594768
 40
0.0911207988
 40
0.0970637941
 40
0.1031875495
 40
0.1094909084
 40
0.1159724158
 40
0.122630443
 40
0.129463104
 40
0.136468332
 40
0.1436438889
 40
0.1509873225
 40
0.1661671122
 40
0.1819854415
 40
0.1984175523
 40
0.2154366905
 40
0.2330142923
 40
0.2511201447
 40
0.269722526
 40
0.2887883488
 40
0.308283287
 40
0.3281718922
 40
0.3484177045
 40
0.3689833557
 40
0.3898306782
 40
0.4109208114
 40
0.4322143023
 40
0.4536712043
 40
0.4752511741
 40
0.4969135717
 40
0.5186175615
 40
0.5403222087
 40
0.5619865767
 40
0.5835698235
 40
0.6050313023
 40
0.6263306607
 40
0.6474279374
 40
0.6682836605
 40
0.6888589465
 40
0.7091156052
 40
0.7290162457
 40
0.7485243765
 40
0.7676045127
 40
0.786222287
 40
0.8043445696
 40
0.8219396007
 40
0.8389771171
 40
0.8554284968
 40
0.8712669207
 40
0.8864675598
 40
0.8938216867
 40
0.9010080866
 40
0.9080243257
 40
0.91486812
 40
0.9215374172
 40
0.9280303079
 40
0.9343451401
 40
0.9404804712
 40
0.9464350915
 40
0.9522081002
 40
0.9577988339
 40
0.9632070088
 40
0.968432666
 40
0.9734762247
 40
0.978338554
 40
0.9830209706
 40
0.9875254733
 40
0.991854655
 40
0.9960116086
 40
1.0
 40
1.0
 40
1.0
 40
1.0
 10
13.6962820001
 20
7.2905919711
 30
0.0
 10
13.6947702358
 20
7.2906968177
 30
0.0
 10
13.6917431123
 20
7.291044166
 30
0.0
 10
13.6872409642
 20
7.2919735534
 30
0.0
 10
13.6827728369
 20
7.2933112001
 30
0.0
 10
13.678341937
 20
7.295055853
 30
0.0
 10
13.6739505069
 20
7.2972058596
 30
0.0
 10
13.6696008602
 20
7.2997596589
 30
0.0
 10
13.6652949459
 20
7.3027153334
 30
0.0
 10
13.6610347007
 20
7.3060710542
 30
0.0
 10
13.6568219902
 20
7.3098248781
 30
0.0
 10
13.6526585599
 20
7.3139746906
 30
0.0
 10
13.6485463255
 20
7.3185184126
 30
0.0
 10
13.6444870184
 20
7.3234536623
 30
0.0
 10
13.6404825335
 20
7.3287780249
 30
0.0
 10
13.6365347182
 20
7.3344888624
 30
0.0
 10
13.6326453733
 20
7.3405833376
 30
0.0
 10
13.6288164423
 20
7.347058496
 30
0.0
 10
13.6250496769
 20
7.3539111021
 30
0.0
 10
13.6213469808
 20
7.3611378043
 30
0.0
 10
13.6177101499
 20
7.368735016
 30
0.0
 10
13.614140951
 20
7.3766989638
 30
0.0
 10
13.6106412262
 20
7.3850257119
 30
0.0
 10
13.6072126346
 20
7.3937110925
 30
0.0
 10
13.6038569607
 20
7.4027507947
 30
0.0
 10
13.6005758502
 20
7.4121402961
 30
0.0
 10
13.5973709395
 20
7.4218749045
 30
0.0
 10
13.5942438896
 20
7.4319497582
 30
0.0
 10
13.5911962018
 20
7.4423598024
 30
0.0
 10
13.5882294796
 20
7.4530998309
 30
0.0
 10
13.5853451718
 20
7.4641644538
 30
0.0
 10
13.5825447434
 20
7.4755481201
 30
0.0
 10
13.5798296181
 20
7.4872451317
 30
0.0
 10
13.5762858491
 20
7.5034300499
 30
0.0
 10
13.5720900924
 20
7.5244061152
 30
0.0
 10
13.5674700852
 20
7.5504613387
 30
0.0
 10
13.5632205157
 20
7.5776185153
 30
0.0
 10
13.5593500084
 20
7.6058230723
 30
0.0
 10
13.5558664523
 20
7.6350184622
 30
0.0
 10
13.552776942
 20
7.6651460646
 30
0.0
 10
13.5500877619
 20
7.6961453684
 30
0.0
 10
13.547804385
 20
7.727954086
 30
0.0
 10
13.5459314625
 20
7.7605082919
 30
0.0
 10
13.5444728146
 20
7.7937425525
 30
0.0
 10
13.5434314253
 20
7.8275900558
 30
0.0
 10
13.5428094262
 20
7.8619827458
 30
0.0
 10
13.5426080963
 20
7.8968514621
 30
0.0
 10
13.542827867
 20
7.9321260837
 30
0.0
 10
13.5434683199
 20
7.9677356721
 30
0.0
 10
13.5445281887
 20
8.0036086116
 30
0.0
 10
13.5460053584
 20
8.0396727528
 30
0.0
 10
13.547896862
 20
8.0758555602
 30
0.0
 10
13.5501988991
 20
8.1120842592
 30
0.0
 10
13.5529068417
 20
8.1482859836
 30
0.0
 10
13.5560152436
 20
8.1843879209
 30
0.0
 10
13.5595178527
 20
8.2203174588
 30
0.0
 10
13.5634076108
 20
8.2560023343
 30
0.0
 10
13.5676766782
 20
8.2913707803
 30
0.0
 10
13.5723164509
 20
8.3263516685
 30
0.0
 10
13.5773175768
 20
8.3608746514
 30
0.0
 10
13.5826699764
 20
8.3948703051
 30
0.0
 10
13.5883628545
 20
8.4282702736
 30
0.0
 10
13.5943847211
 20
8.4610074098
 30
0.0
 10
13.6007234236
 20
8.4930159079
 30
0.0
 10
13.607366168
 20
8.5242314343
 30
0.0
 10
13.6142995452
 20
8.5545912598
 30
0.0
 10
13.6215095577
 20
8.5840343921
 30
0.0
 10
13.6289816351
 20
8.6125017118
 30
0.0
 10
13.6367006787
 20
8.6399360756
 30
0.0
 10
13.6446510886
 20
8.6662824915
 30
0.0
 10
13.6528168001
 20
8.6914880225
 30
0.0
 10
13.6598625461
 20
8.7117164691
 30
0.0
 10
13.6656024726
 20
8.7272839725
 30
0.0
 10
13.6699035207
 20
8.7385147038
 30
0.0
 10
13.674245901
 20
8.74942368
 30
0.0
 10
13.6786274974
 20
8.7600054248
 30
0.0
 10
13.6830460333
 20
8.7702546455
 30
0.0
 10
13.6874993512
 20
8.7801661897
 30
0.0
 10
13.6919851733
 20
8.7897351025
 30
0.0
 10
13.6965012468
 20
8.7989565956
 30
0.0
 10
13.7010453455
 20
8.8078260412
 30
0.0
 10
13.7056151205
 20
8.8163390309
 30
0.0
 10
13.71020836
 20
8.8244912894
 30
0.0
 10
13.7148227177
 20
8.8322787784
 30
0.0
 10
13.7194559166
 20
8.8396976174
 30
0.0
 10
13.7241056758
 20
8.8467440942
 30
0.0
 10
13.728769605
 20
8.8534147364
 30
0.0
 10
13.7334455059
 20
8.8597062174
 30
0.0
 10
13.738131079
 20
8.865615511
 30
0.0
 10
13.7428241614
 20
8.8711397177
 30
0.0
 10
13.7475222167
 20
8.8762758383
 30
0.0
 10
13.7507211368
 20
8.8795052703
 30
0.0
 10
13.7523214733
 20
8.8810510767
 30
0.0
  0
SPLINE
  5
32C
100
AcDbEntity
  8
0
100
AcDbSpline
 62
7
  6
CONTINUOUS
 70
0
 71
3
 72
23
 73
19
 74
0
 42
0.0000001
 43
0.0000001
 44
0.0000000001
 40
0.0
 40
0.0
 40
0.0
 40
0.0
 40
0.061648222
 40
0.1233194599
 40
0.1850364872
 40
0.2468215826
 40
0.3086962191
 40
0.3706809311
 40
0.4327950059
 40
0.4950563306
 40
0.5574812037
 40
0.620083994
 40
0.682877569
 40
0.7458727056
 40
0.8090763209
 40
0.8724960975
 40
0.9361416631
 40
1.0
 40
1.0
 40
1.0
 40
1.0
 10
11.7417074834
 20
9.1462292223
 30
0.0
 10
11.7434581353
 20
9.147920237
 30
0.0
 10
11.7470517774
 20
9.1512094431
 30
0.0
 10
11.7527007769
 20
9.1558472723
 30
0.0
 10
11.7585950269
 20
9.1601786177
 30
0.0
 10
11.764719569
 20
9.1641922535
 30
0.0
 10
11.7710589692
 20
9.1678781931
 30
0.0
 10
11.7775972325
 20
9.1712271661
 30
0.0
 10
11.7843179325
 20
9.174230651
 30
0.0
 10
11.7912040729
 20
9.176881233
 30
0.0
 10
11.7982383488
 20
9.1791721332
 30
0.0
 10
11.8054030212
 20
9.1810976556
 30
0.0
 10
11.8126800522
 20
9.1826530116
 30
0.0
 10
11.8200511033
 20
9.1838341493
 30
0.0
 10
11.8274975641
 20
9.1846383383
 30
0.0
 10
11.8350009944
 20
9.1850634345
 30
0.0
 10
11.842541942
 20
9.1851082874
 30
0.0
 10
11.8475735885
 20
9.1848852091
 30
0.0
 10
11.8500887981
 20
9.1847107787
 30
0.0
  0
SPLINE
  5
32D
100
AcDbEntity
  8
0
100
AcDbSpline
 62
7
  6
CONTINUOUS
 70
0
 71
3
 72
50
 73
46
 74
0
 42
0.0000001
 43
0.0000001
 44
0.0000000001
 40
0.0
 40
0.0
 40
0.0
 40
0.0
 40
0.0274366298
 40
0.0551265107
 40
0.0830692033
 40
0.1112702352
 40
0.1397387791
 40
0.16848698
 40
0.197529066
 40
0.2268804053
 40
0.2565565328
 40
0.2865718797
 40
0.3169382741
 40
0.3476630764
 40
0.3631636493
 40
0.3787536258
 40
0.3944317339
 40
0.4101961909
 40
0.4260442593
 40
0.4419728821
 40
0.4579780626
 40
0.4740553009
 40
0.4901996015
 40
0.5064053662
 40
0.5226668549
 40
0.5389780689
 40
0.5553330208
 40
0.5717258657
 40
0.5881509207
 40
0.6046029379
 40
0.6210770322
 40
0.6375689128
 40
0.6540748521
 40
0.670591531
 40
0.6871163431
 40
0.7036469901
 40
0.7367109792
 40
0.7697799426
 40
0.8028437296
 40
0.8358903917
 40
0.8689029392
 40
0.9018569085
 40
0.9347192395
 40
0.9674489352
 40
1.0
 40
1.0
 40
1.0
 40
1.0
 10
11.4330747359
 20
7.9350637881
 30
0.0
 10
11.4283386172
 20
7.9383676896
 30
0.0
 10
11.4189770216
 20
7.9452306778
 30
0.0
 10
11.4053890065
 20
7.9562436678
 30
0.0
 10
11.3922525869
 20
7.9680354224
 30
0.0
 10
11.3796362908
 20
7.9806161965
 30
0.0
 10
11.3676136416
 20
7.9939954702
 30
0.0
 10
11.3562653076
 20
8.0081799693
 30
0.0
 10
11.3456802436
 20
8.0231722492
 30
0.0
 10
11.3359567975
 20
8.0389685476
 30
0.0
 10
11.3272033223
 20
8.0555559452
 30
0.0
 10
11.3195380414
 20
8.0729093166
 30
0.0
 10
11.3130881736
 20
8.0909859968
 30
0.0
 10
11.3088490768
 20
8.1065580965
 30
0.0
 10
11.3061936462
 20
8.1192977233
 30
0.0
 10
11.3045832514
 20
8.1290116126
 30
0.0
 10
11.3033762034
 20
8.1388397664
 30
0.0
 10
11.3025878974
 20
8.1487650032
 30
0.0
 10
11.3022322175
 20
8.158768018
 30
0.0
 10
11.3023220837
 20
8.1688277455
 30
0.0
 10
11.3028683524
 20
8.1789214448
 30
0.0
 10
11.3038798304
 20
8.1890249083
 30
0.0
 10
11.3053633936
 20
8.1991126725
 30
0.0
 10
11.3073228653
 20
8.2091584737
 30
0.0
 10
11.3097598293
 20
8.2191354672
 30
0.0
 10
11.3126731265
 20
8.2290166882
 30
0.0
 10
11.316058598
 20
8.2387755375
 30
0.0
 10
11.3199099007
 20
8.2483859303
 30
0.0
 10
11.3242180675
 20
8.2578228208
 30
0.0
 10
11.3289717961
 20
8.2670625022
 30
0.0
 10
11.3341582598
 20
8.2760825816
 30
0.0
 10
11.3397626398
 20
8.2848625098
 30
0.0
 10
11.3457689792
 20
8.293383418
 30
0.0
 10
11.3521604048
 20
8.3016280298
 30
0.0
 10
11.3589192372
 20
8.3095812126
 30
0.0
 10
11.3683958263
 20
8.3197774184
 30
0.0
 10
11.381071187
 20
8.3317304013
 30
0.0
 10
11.3974517824
 20
8.3447147321
 30
0.0
 10
11.4148599771
 20
8.3562781061
 30
0.0
 10
11.4331492268
 20
8.3663637823
 30
0.0
 10
11.4521746669
 20
8.3749232902
 30
0.0
 10
11.4717896366
 20
8.3819126117
 30
0.0
 10
11.4918445535
 20
8.3872918319
 30
0.0
 10
11.5121823703
 20
8.3910257682
 30
0.0
 10
11.5258710645
 20
8.392404219
 30
0.0
 10
11.5327102046
 20
8.3928088116
 30
0.0
  0
SPLINE
  5
32E
100
AcDbEntity
  8
0
100
AcDbSpline
 62
7
  6
CONTINUOUS
 70
0
 71
3
 72
45
 73
41
 74
0
 42
0.0000001
 43
0.0000001
 44
0.0000000001
 40
0.0
 40
0.0
 40
0.0
 40
0.0
 40
0.0628958658
 40
0.0944793583
 40
0.1261323645
 40
0.1578448294
 40
0.1896069013
 40
0.2214089814
 40
0.2532416511
 40
0.2850955055
 40
0.3169611585
 40
0.3488291957
 40
0.3806899931
 40
0.4125336819
 40
0.4443501398
 40
0.4761288304
 40
0.5078586721
 40
0.5395280845
 40
0.5711249708
 40
0.6026367009
 40
0.6340501235
 40
0.6653517343
 40
0.6965279978
 40
0.727565787
 40
0.7430313561
 40
0.7584581423
 40
0.7891847875
 40
0.8197439337
 40
0.8349632773
 40
0.8501404926
 40
0.8652763752
 40
0.8803719643
 40
0.8954290648
 40
0.9104497594
 40
0.9254368778
 40
0.9403937753
 40
0.9553239066
 40
0.9702317305
 40
0.9851230819
 40
1.0
 40
1.0
 40
1.0
 40
1.0
 10
10.6232144614
 20
7.839622643
 30
0.0
 10
10.6352526885
 20
7.8356660679
 30
0.0
 10
10.6530300959
 20
7.8287364914
 30
0.0
 10
10.6759541392
 20
7.8177557061
 30
0.0
 10
10.6927918899
 20
7.8086594084
 30
0.0
 10
10.7092096708
 20
7.7987581867
 30
0.0
 10
10.7251759795
 20
7.7880900793
 30
0.0
 10
10.74065872
 20
7.7766910832
 30
0.0
 10
10.7556265483
 20
7.7645946296
 30
0.0
 10
10.7700478249
 20
7.7518322768
 30
0.0
 10
10.7838902617
 20
7.7384340495
 30
0.0
 10
10.797120364
 20
7.7244288257
 30
0.0
 10
10.8097029616
 20
7.7098447769
 30
0.0
 10
10.8216008297
 20
7.6947099147
 30
0.0
 10
10.832774256
 20
7.6790526094
 30
0.0
 10
10.8431805621
 20
7.662902173
 30
0.0
 10
10.8527737022
 20
7.6462895782
 30
0.0
 10
10.8615039405
 20
7.6292482827
 30
0.0
 10
10.869317513
 20
7.6118151415
 30
0.0
 10
10.8761563749
 20
7.5940314907
 30
0.0
 10
10.8819580815
 20
7.5759445062
 30
0.0
 10
10.8866559458
 20
7.5576084017
 30
0.0
 10
10.8901794195
 20
7.5390870819
 30
0.0
 10
10.8920782808
 20
7.5235389171
 30
0.0
 10
10.8929335649
 20
7.5110886745
 30
0.0
 10
10.8933340141
 20
7.4986782599
 30
0.0
 10
10.8929653412
 20
7.4832112074
 30
0.0
 10
10.8913719739
 20
7.4678612936
 30
0.0
 10
10.8893316004
 20
7.4557478321
 30
0.0
 10
10.8874157396
 20
7.4467734656
 30
0.0
 10
10.8851070288
 20
7.4379177851
 30
0.0
 10
10.8824018522
 20
7.4292001958
 30
0.0
 10
10.8792976
 20
7.4206411379
 30
0.0
 10
10.8757937138
 20
7.4122612941
 30
0.0
 10
10.8718912967
 20
7.4040816681
 30
0.0
 10
10.8675932628
 20
7.3961234099
 30
0.0
 10
10.86290509
 20
7.3884071442
 30
0.0
 10
10.8578336231
 20
7.3809529871
 30
0.0
 10
10.8523886171
 20
7.3737808671
 30
0.0
 10
10.8485156267
 20
7.3691973661
 30
0.0
 10
10.8465217711
 20
7.3669594559
 30
0.0
  0
SPLINE
  5
32F
100
AcDbEntity
  8
0
100
AcDbSpline
 62
7
  6
CONTINUOUS
 70
0
 71
3
 72
20
 73
16
 74
0
 42
0.0000001
 43
0.0000001
 44
0.0000000001
 40
0.0
 40
0.0
 40
0.0
 40
0.0
 40
0.1273231958
 40
0.1906878881
 40
0.2538483811
 40
0.3168131943
 40
0.3795895493
 40
0.4421880906
 40
0.5046213822
 40
0.6290091711
 40
0.7529206501
 40
0.8147636218
 40
0.876544112
 40
0.9382826142
 40
1.0
 40
1.0
 40
1.0
 40
1.0
 10
9.2232743849
 20
9.8014784167
 30
0.0
 10
9.2232743849
 20
9.8066832805
 30
0.0
 10
9.2236479947
 20
9.814485574
 30
0.0
 10
9.2249003687
 20
9.8247896578
 30
0.0
 10
9.2262106934
 20
9.8324276399
 30
0.0
 10
9.2278903132
 20
9.8399680638
 30
0.0
 10
9.2299355667
 20
9.8473938751
 30
0.0
 10
9.2323416936
 20
9.8546880487
 30
0.0
 10
9.2360183167
 20
9.8642019726
 30
0.0
 10
9.2414877921
 20
9.8756921892
 30
0.0
 10
9.2480841919
 20
9.8865469351
 30
0.0
 10
9.2539895652
 20
9.8947686085
 30
0.0
 10
9.2587219725
 20
9.9006910408
 30
0.0
 10
9.2637486564
 20
9.906358471
 30
0.0
 10
9.2672890497
 20
9.9099587768
 30
0.0
 10
9.2691036946
 20
9.9117115922
 30
0.0
  0
SPLINE
  5
330
100
AcDbEntity
  8
0
100
AcDbSpline
 62
7
  6
CONTINUOUS
 70
0
 71
3
 72
60
 73
56
 74
0
 42
0.0000001
 43
0.0000001
 44
0.0000000001
 40
0.0
 40
0.0
 40
0.0
 40
0.0
 40
0.0155851342
 40
0.0311191084
 40
0.0465997883
 40
0.0620297683
 40
0.077410896
 40
0.0927451922
 40
0.1080354886
 40
0.1232850091
 40
0.1384973525
 40
0.153676528
 40
0.1688268976
 40
0.1839531135
 40
0.1990600876
 40
0.2141529418
 40
0.22923694
 40
0.2443174441
 40
0.2593998578
 40
0.2744895565
 40
0.2895918417
 40
0.3047118844
 40
0.3198546584
 40
0.3350249022
 40
0.3502270679
 40
0.3654652633
 40
0.3807432305
 40
0.3960643007
 40
0.4114313545
 40
0.4268468176
 40
0.4423126243
 40
0.4578302014
 40
0.4734004782
 40
0.4890238596
 40
0.5047002375
 40
0.5204290076
 40
0.5362090556
 40
0.5520387942
 40
0.5679161787
 40
0.5838387132
 40
0.5998035021
 40
0.6158072639
 40
0.63184636
 40
0.6479168487
 40
0.6801262879
 40
0.712407754
 40
0.7447222536
 40
0.777029645
 40
0.8092900327
 40
0.8414651608
 40
0.8735197587
 40
0.9054228156
 40
0.9371488263
 40
0.9686781997
 40
1.0
 40
1.0
 40
1.0
 40
1.0
 10
9.1706103622
 20
9.793608874
 30
0.0
 10
9.1706103622
 20
9.7969533249
 30
0.0
 10
9.1707740969
 20
9.8036324318
 30
0.0
 10
9.1715128637
 20
9.8136089777
 30
0.0
 10
9.1727429629
 20
9.823503668
 30
0.0
 10
9.1744613186
 20
9.8332920146
 30
0.0
 10
9.1766637287
 20
9.8429507746
 30
0.0
 10
9.1793450427
 20
9.8524565895
 30
0.0
 10
9.1824987963
 20
9.8617865111
 30
0.0
 10
9.1861173199
 20
9.8709180925
 30
0.0
 10
9.1901920214
 20
9.8798292698
 30
0.0
 10
9.1947130492
 20
9.8884985597
 30
0.0
 10
9.1996694668
 20
9.8969050837
 30
0.0
 10
9.20504944
 20
9.9050284987
 30
0.0
 10
9.2108399236
 20
9.9128492541
 30
0.0
 10
9.217026959
 20
9.9203484909
 30
0.0
 10
9.2235957047
 20
9.9275080489
 30
0.0
 10
9.2305302293
 20
9.9343107367
 30
0.0
 10
9.237813846
 20
9.940740114
 30
0.0
 10
9.2454290162
 20
9.9467806306
 30
0.0
 10
9.2533572975
 20
9.9524178133
 30
0.0
 10
9.2615796203
 20
9.9576379984
 30
0.0
 10
9.2700761392
 20
9.9624286085
 30
0.0
 10
9.2788263189
 20
9.9667781804
 30
0.0
 10
9.2878091049
 20
9.9706761351
 30
0.0
 10
9.2970028003
 20
9.9741131492
 30
0.0
 10
9.3063852249
 20
9.9770809943
 30
0.0
 10
9.3159337872
 20
9.979572426
 30
0.0
 10
9.3256254355
 20
9.9815815647
 30
0.0
 10
9.3354368172
 20
9.9831035761
 30
0.0
 10
9.3453442928
 20
9.9841347344
 30
0.0
 10
9.3553239748
 20
9.9846726985
 30
0.0
 10
9.3653518263
 20
9.9847161295
 30
0.0
 10
9.3754036846
 20
9.9842649183
 30
0.0
 10
9.3854553449
 20
9.9833202784
 30
0.0
 10
9.3954825918
 20
9.9818844053
 30
0.0
 10
9.4054612784
 20
9.9799608098
 30
0.0
 10
9.415367395
 20
9.9775542089
 30
0.0
 10
9.4251770651
 20
9.9746703034
 30
0.0
 10
9.4348666887
 20
9.9713161373
 30
0.0
 10
9.4444129683
 20
9.967499804
 30
0.0
 10
9.4537928234
 20
9.9632304561
 30
0.0
 10
9.4629839541
 20
9.9585183227
 30
0.0
 10
9.4749644486
 20
9.9516564514
 30
0.0
 10
9.4893562446
 20
9.9420297871
 30
0.0
 10
9.5055118475
 20
9.9289253695
 30
0.0
 10
9.5204164062
 20
9.9143825812
 30
0.0
 10
9.5339258215
 20
9.8985415976
 30
0.0
 10
9.5459105943
 20
9.8815542531
 30
0.0
 10
9.5562554873
 20
9.8635836138
 30
0.0
 10
9.5648609454
 20
9.8448020204
 30
0.0
 10
9.5716439242
 20
9.8253898436
 30
0.0
 10
9.5765387145
 20
9.8055327927
 30
0.0
 10
9.5794979014
 20
9.785424073
 30
0.0
 10
9.5801629368
 20
9.7719277258
 30
0.0
 10
9.5801629368
 20
9.7652063065
 30
0.0
  0
SPLINE
  5
331
100
AcDbEntity
  8
0
100
AcDbSpline
 62
7
  6
CONTINUOUS
 70
0
 71
3
 72
20
 73
16
 74
0
 42
0.0000001
 43
0.0000001
 44
0.0000000001
 40
0.0
 40
0.0
 40
0.0
 40
0.0
 40
0.1273231958
 40
0.1906878881
 40
0.2538483811
 40
0.3168131943
 40
0.3795895493
 40
0.4421880906
 40
0.5046213822
 40
0.6290091711
 40
0.7529206501
 40
0.8147636218
 40
0.876544112
 40
0.9382826142
 40
1.0
 40
1.0
 40
1.0
 40
1.0
 10
11.6979765335
 20
9.6298572398
 30
0.0
 10
11.6979765335
 20
9.6350621036
 30
0.0
 10
11.6983501433
 20
9.6428643971
 30
0.0
 10
11.6996025173
 20
9.6531684808
 30
0.0
 10
11.700912842
 20
9.660806463
 30
0.0
 10
11.7025924618
 20
9.6683468869
 30
0.0
 10
11.7046377153
 20
9.6757726982
 30
0.0
 10
11.7070438422
 20
9.6830668718
 30
0.0
 10
11.7107204652
 20
9.6925807957
 30
0.0
 10
11.7161899407
 20
9.7040710123
 30
0.0
 10
11.7227863405
 20
9.7149257582
 30
0.0
 10
11.7286917138
 20
9.7231474316
 30
0.0
 10
11.7334241211
 20
9.7290698639
 30
0.0
 10
11.738450805
 20
9.734737294
 30
0.0
 10
11.7419911983
 20
9.7383375999
 30
0.0
 10
11.7438058432
 20
9.7400904152
 30
0.0
  0
SPLINE
  5
332
100
AcDbEntity
  8
0
100
AcDbSpline
 62
7
  6
CONTINUOUS
 70
0
 71
3
 72
60
 73
56
 74
0
 42
0.0000001
 43
0.0000001
 44
0.0000000001
 40
0.0
 40
0.0
 40
0.0
 40
0.0
 40
0.0155851342
 40
0.0311191084
 40
0.0465997883
 40
0.0620297683
 40
0.077410896
 40
0.0927451922
 40
0.1080354886
 40
0.1232850091
 40
0.1384973525
 40
0.153676528
 40
0.1688268976
 40
0.1839531135
 40
0.1990600876
 40
0.2141529418
 40
0.22923694
 40
0.2443174441
 40
0.2593998578
 40
0.2744895565
 40
0.2895918417
 40
0.3047118844
 40
0.3198546584
 40
0.3350249022
 40
0.3502270679
 40
0.3654652633
 40
0.3807432305
 40
0.3960643007
 40
0.4114313545
 40
0.4268468176
 40
0.4423126243
 40
0.4578302014
 40
0.4734004782
 40
0.4890238596
 40
0.5047002375
 40
0.5204290076
 40
0.5362090556
 40
0.5520387942
 40
0.5679161787
 40
0.5838387132
 40
0.5998035021
 40
0.6158072639
 40
0.63184636
 40
0.6479168487
 40
0.6801262879
 40
0.712407754
 40
0.7447222536
 40
0.777029645
 40
0.8092900327
 40
0.8414651608
 40
0.8735197587
 40
0.9054228156
 40
0.9371488263
 40
0.9686781997
 40
1.0
 40
1.0
 40
1.0
 40
1.0
 10
9.5801629368
 20
9.7652063065
 30
0.0
 10
9.5801629368
 20
9.7618618556
 30
0.0
 10
9.579999202
 20
9.7551827487
 30
0.0
 10
9.5792604352
 20
9.7452062028
 30
0.0
 10
9.578030336
 20
9.7353115125
 30
0.0
 10
9.5763119804
 20
9.7255231659
 30
0.0
 10
9.5741095702
 20
9.7158644059
 30
0.0
 10
9.5714282562
 20
9.7063585909
 30
0.0
 10
9.5682745027
 20
9.6970286694
 30
0.0
 10
9.564655979
 20
9.6878970879
 30
0.0
 10
9.5605812775
 20
9.6789859107
 30
0.0
 10
9.5560602498
 20
9.6703166208
 30
0.0
 10
9.5511038322
 20
9.6619100968
 30
0.0
 10
9.545723859
 20
9.6537866818
 30
0.0
 10
9.5399333753
 20
9.6459659264
 30
0.0
 10
9.53374634
 20
9.6384666896
 30
0.0
 10
9.5271775943
 20
9.6313071316
 30
0.0
 10
9.5202430697
 20
9.6245044438
 30
0.0
 10
9.5129594529
 20
9.6180750665
 30
0.0
 10
9.5053442828
 20
9.6120345498
 30
0.0
 10
9.4974160015
 20
9.6063973672
 30
0.0
 10
9.4891936787
 20
9.6011771821
 30
0.0
 10
9.4806971597
 20
9.596386572
 30
0.0
 10
9.4719469801
 20
9.5920370001
 30
0.0
 10
9.462964194
 20
9.5881390454
 30
0.0
 10
9.4537704987
 20
9.5847020313
 30
0.0
 10
9.444388074
 20
9.5817341861
 30
0.0
 10
9.4348395118
 20
9.5792427545
 30
0.0
 10
9.4251478634
 20
9.5772336157
 30
0.0
 10
9.4153364818
 20
9.5757116044
 30
0.0
 10
9.4054290062
 20
9.5746804461
 30
0.0
 10
9.3954493241
 20
9.5741424819
 30
0.0
 10
9.3854214726
 20
9.574099051
 30
0.0
 10
9.3753696144
 20
9.5745502622
 30
0.0
 10
9.365317954
 20
9.5754949021
 30
0.0
 10
9.3552907071
 20
9.5769307752
 30
0.0
 10
9.3453120205
 20
9.5788543707
 30
0.0
 10
9.335405904
 20
9.5812609716
 30
0.0
 10
9.3255962338
 20
9.5841448771
 30
0.0
 10
9.3159066102
 20
9.5874990432
 30
0.0
 10
9.3063603306
 20
9.5913153765
 30
0.0
 10
9.2969804756
 20
9.5955847244
 30
0.0
 10
9.2877893448
 20
9.6002968578
 30
0.0
 10
9.2758088504
 20
9.6071587291
 30
0.0
 10
9.2614170543
 20
9.6167853934
 30
0.0
 10
9.2452614514
 20
9.6298898109
 30
0.0
 10
9.2303568927
 20
9.6444325993
 30
0.0
 10
9.2168474774
 20
9.6602735829
 30
0.0
 10
9.2048627047
 20
9.6772609274
 30
0.0
 10
9.1945178117
 20
9.6952315667
 30
0.0
 10
9.1859123535
 20
9.7140131601
 30
0.0
 10
9.1791293748
 20
9.7334253369
 30
0.0
 10
9.1742345845
 20
9.7532823878
 30
0.0
 10
9.1712753975
 20
9.7733911075
 30
0.0
 10
9.1706103622
 20
9.7868874547
 30
0.0
 10
9.1706103622
 20
9.793608874
 30
0.0
  0
SPLINE
  5
333
100
AcDbEntity
  8
0
100
AcDbSpline
 62
7
  6
CONTINUOUS
 70
0
 71
3
 72
59
 73
55
 74
0
 42
0.0000001
 43
0.0000001
 44
0.0000000001
 40
0.0
 40
0.0
 40
0.0
 40
0.0
 40
0.0027758488
 40
0.0055596021
 40
0.008359095
 40
0.0111820195
 40
0.0140358522
 40
0.0169278075
 40
0.0228516365
 40
0.0290063393
 40
0.0354366794
 40
0.0387680642
 40
0.0421822272
 40
0.0492730078
 40
0.0567369683
 40
0.0645960023
 40
0.0728675869
 40
0.0815655464
 40
0.0907003782
 40
0.1002799082
 40
0.1103094603
 40
0.1207923966
 40
0.1317301617
 40
0.1431227321
 40
0.1549685743
 40
0.1672650269
 40
0.1800082061
 40
0.1931933349
 40
0.2068146222
 40
0.2208655488
 40
0.2353387364
 40
0.2502261967
 40
0.2655192032
 40
0.2812085054
 40
0.2972842121
 40
0.3137359731
 40
0.3305528785
 40
0.3477236105
 40
0.3830784316
 40
0.4197019435
 40
0.457489208
 40
0.4963301116
 40
0.5361099921
 40
0.576710229
 40
0.6180088092
 40
0.6598808745
 40
0.702199258
 40
0.7448350122
 40
0.7876579293
 40
0.8305370685
 40
0.8733412491
 40
0.9159396382
 40
0.9582020849
 40
1.0
 40
1.0
 40
1.0
 40
1.0
 10
11.1488538428
 20
10.9895738246
 30
0.0
 10
11.1488538391
 20
10.9904449327
 30
0.0
 10
11.1489021591
 20
10.992190013
 30
0.0
 10
11.1491194876
 20
10.9948054819
 30
0.0
 10
11.1494816706
 20
10.9974198335
 30
0.0
 10
11.1499886007
 20
11.0000323492
 30
0.0
 10
11.1506401242
 20
11.0026425423
 30
0.0
 10
11.1517096689
 20
11.0061464277
 30
0.0
 10
11.1534213854
 20
11.0105303069
 30
0.0
 10
11.1560346392
 20
11.0157259781
 30
0.0
 10
11.1586580933
 20
11.0199835443
 30
0.0
 10
11.1610288529
 20
11.0233721396
 30
0.0
 10
11.163649977
 20
11.0268349874
 30
0.0
 10
11.1672943907
 20
11.0311442536
 30
0.0
 10
11.1721748519
 20
11.0362152191
 30
0.0
 10
11.1776125589
 20
11.0412463282
 30
0.0
 10
11.1836028275
 20
11.0462338843
 30
0.0
 10
11.1901409925
 20
11.0511741527
 30
0.0
 10
11.1972217627
 20
11.0560634892
 30
0.0
 10
11.2048395618
 20
11.0608980032
 30
0.0
 10
11.2129882495
 20
11.0656740086
 30
0.0
 10
11.2216613405
 20
11.0703875949
 30
0.0
 10
11.2308518172
 20
11.075035089
 30
0.0
 10
11.2405522977
 20
11.0796126289
 30
0.0
 10
11.2507549021
 20
11.0841166013
 30
0.0
 10
11.2614513803
 20
11.0885432365
 30
0.0
 10
11.2726330184
 20
11.0928890131
 30
0.0
 10
11.2842907329
 20
11.0971502831
 30
0.0
 10
11.2964150085
 20
11.1013236399
 30
0.0
 10
11.3089959658
 20
11.1054055781
 30
0.0
 10
11.3220233229
 20
11.1093928228
 30
0.0
 10
11.335486443
 20
11.1132820275
 30
0.0
 10
11.349374314
 20
11.1170700632
 30
0.0
 10
11.3636755811
 20
11.120753755
 30
0.0
 10
11.3783785411
 20
11.124330133
 30
0.0
 10
11.3934711579
 20
11.1277962008
 30
0.0
 10
11.4089410906
 20
11.1311491771
 30
0.0
 10
11.4302614076
 20
11.1355076269
 30
0.0
 10
11.4577653381
 20
11.1406412816
 30
0.0
 10
11.4917541266
 20
11.1462507176
 30
0.0
 10
11.5269290383
 20
11.1513489221
 30
0.0
 10
11.5631748337
 20
11.1559190536
 30
0.0
 10
11.6003729048
 20
11.1599459948
 30
0.0
 10
11.6384014358
 20
11.1634164384
 30
0.0
 10
11.6771358775
 20
11.1663189178
 30
0.0
 10
11.7164493431
 20
11.1686438464
 30
0.0
 10
11.7562130347
 20
11.1703835471
 30
0.0
 10
11.7962966676
 20
11.171532276
 30
0.0
 10
11.8365689023
 20
11.1720862416
 30
0.0
 10
11.8768977756
 20
11.172043614
 30
0.0
 10
11.9171511381
 20
11.1714045369
 30
0.0
 10
11.9571971042
 20
11.1701711134
 30
0.0
 10
11.9969043519
 20
11.168347429
 30
0.0
 10
12.0232356443
 20
11.1667315671
 30
0.0
 10
12.0363211046
 20
11.1658240874
 30
0.0
  0
SPLINE
  5
334
100
AcDbEntity
  8
0
100
AcDbSpline
 62
7
  6
CONTINUOUS
 70
0
 71
3
 72
52
 73
48
 74
0
 42
0.0000001
 43
0.0000001
 44
0.0000000001
 40
0.0
 40
0.0
 40
0.0
 40
0.0
 40
0.0062677972
 40
0.0128241616
 40
0.0196914969
 40
0.0268885356
 40
0.0344306757
 40
0.0423304925
 40
0.0505979338
 40
0.0592408487
 40
0.068265042
 40
0.0776747481
 40
0.087472623
 40
0.0976601006
 40
0.1082374084
 40
0.1192037677
 40
0.1305574892
 40
0.1422960103
 40
0.1544160855
 40
0.1669136882
 40
0.1797842713
 40
0.1930225903
 40
0.2066229768
 40
0.2205791617
 40
0.2348844916
 40
0.2495318208
 40
0.264513623
 40
0.2798219873
 40
0.3113844274
 40
0.3441494316
 40
0.3780418433
 40
0.4129821148
 40
0.4488867659
 40
0.485668807
 40
0.5232381347
 40
0.5615019088
 40
0.6003649142
 40
0.639729915
 40
0.6794980009
 40
0.7195689297
 40
0.7598414609
 40
0.8002137064
 40
0.8405834127
 40
0.8808484568
 40
0.9209067195
 40
0.9606575528
 40
1.0
 40
1.0
 40
1.0
 40
1.0
 10
11.1584618604
 20
10.9597086879
 30
0.0
 10
11.1594912316
 20
10.9613058893
 30
0.0
 10
11.1617199871
 20
10.9644960938
 30
0.0
 10
11.1654606942
 20
10.9691533878
 30
0.0
 10
11.1696676411
 20
10.9737823759
 30
0.0
 10
11.1743376476
 20
10.9783799403
 30
0.0
 10
11.1794675481
 20
10.9829434999
 30
0.0
 10
11.1850539512
 20
10.9874701352
 30
0.0
 10
11.191093083
 20
10.9919571284
 30
0.0
 10
11.1975810099
 20
10.9964014955
 30
0.0
 10
11.2045133691
 20
11.0008004769
 30
0.0
 10
11.2118856074
 20
11.0051510819
 30
0.0
 10
11.2196927754
 20
11.0094505228
 30
0.0
 10
11.2279296864
 20
11.0136958703
 30
0.0
 10
11.2365908117
 20
11.0178843199
 30
0.0
 10
11.2456703459
 20
11.0220130456
 30
0.0
 10
11.2551621895
 20
11.026079245
 30
0.0
 10
11.2650599441
 20
11.0300802124
 30
0.0
 10
11.2753569507
 20
11.0340131748
 30
0.0
 10
11.2860462462
 20
11.0378755448
 30
0.0
 10
11.2971206259
 20
11.0416646133
 30
0.0
 10
11.3085725903
 20
11.0453778965
 30
0.0
 10
11.3203944055
 20
11.0490127878
 30
0.0
 10
11.3325780623
 20
11.0525668884
 30
0.0
 10
11.3451153195
 20
11.0560377277
 30
0.0
 10
11.3579976789
 20
11.0594229769
 30
0.0
 10
11.3712164287
 20
11.0627203376
 30
0.0
 10
11.3894638607
 20
11.0670405577
 30
0.0
 10
11.4130523503
 20
11.0721942078
 30
0.0
 10
11.4422729711
 20
11.0779326528
 30
0.0
 10
11.47260962
 20
11.0832706137
 30
0.0
 10
11.5039800353
 20
11.0881935044
 30
0.0
 10
11.5362992792
 20
11.0926878572
 30
0.0
 10
11.5694797617
 20
11.0967413865
 30
0.0
 10
11.603431545
 20
11.1003430139
 30
0.0
 10
11.638062576
 20
11.1034828988
 30
0.0
 10
11.6732789446
 20
11.1061524651
 30
0.0
 10
11.7089851406
 20
11.1083444234
 30
0.0
 10
11.7450843167
 20
11.1100527899
 30
0.0
 10
11.7814785523
 20
11.1112729008
 30
0.0
 10
11.8180691254
 20
11.1120014273
 30
0.0
 10
11.8547567679
 20
11.112236378
 30
0.0
 10
11.8914419787
 20
11.1119771187
 30
0.0
 10
11.9280251758
 20
11.1112243429
 30
0.0
 10
11.9644072665
 20
11.1099801274
 30
0.0
 10
12.0004893164
 20
11.1082478398
 30
0.0
 10
12.0244224536
 20
11.1067618578
 30
0.0
 10
12.0363211046
 20
11.1059366836
 30
0.0
  0
SPLINE
  5
335
100
AcDbEntity
  8
0
100
AcDbSpline
 62
7
  6
CONTINUOUS
 70
0
 71
3
 72
54
 73
50
 74
0
 42
0.0000001
 43
0.0000001
 44
0.0000000001
 40
0.0
 40
0.0
 40
0.0
 40
0.0
 40
0.0055969672
 40
0.0113465063
 40
0.0172982675
 40
0.0234964536
 40
0.0299795139
 40
0.0367802289
 40
0.0439261152
 40
0.051439864
 40
0.0593399874
 40
0.0676412314
 40
0.0763552248
 40
0.085490733
 40
0.095054241
 40
0.1050500434
 40
0.1154807582
 40
0.1263472943
 40
0.1376493019
 40
0.149385067
 40
0.1615519006
 40
0.1741460031
 40
0.1871627899
 40
0.2005967599
 40
0.2144417528
 40
0.2286908462
 40
0.2433365417
 40
0.258370705
 40
0.273784682
 40
0.2895692884
 40
0.3057148589
 40
0.3222112879
 40
0.3562136049
 40
0.3914878083
 40
0.4279391605
 40
0.4654678466
 40
0.5039695566
 40
0.5433360277
 40
0.5834555592
 40
0.6242135083
 40
0.6654927718
 40
0.7071742598
 40
0.7491373592
 40
0.7912604044
 40
0.8334211111
 40
0.8754971107
 40
0.9173661997
 40
0.9589073055
 40
1.0
 40
1.0
 40
1.0
 40
1.0
 10
11.1776080637
 20
10.9379554446
 30
0.0
 10
11.1779081507
 20
10.9395994297
 30
0.0
 10
11.1786935122
 20
10.9429022633
 30
0.0
 10
11.1803879391
 20
10.9477894965
 30
0.0
 10
11.1826084513
 20
10.952659004
 30
0.0
 10
11.1853519327
 20
10.9575063785
 30
0.0
 10
11.1886152965
 20
10.9623285168
 30
0.0
 10
11.1923953046
 20
10.9671222523
 30
0.0
 10
11.1966886771
 20
10.971884477
 30
0.0
 10
11.2014918572
 20
10.9766121226
 30
0.0
 10
11.2068011419
 20
10.9813019369
 30
0.0
 10
11.2126124074
 20
10.9859507527
 30
0.0
 10
11.2189213056
 20
10.9905551645
 30
0.0
 10
11.2257230027
 20
10.9951119275
 30
0.0
 10
11.2330123997
 20
10.9996175549
 30
0.0
 10
11.2407839043
 20
11.0040687825
 30
0.0
 10
11.2490316382
 20
11.0084621155
 30
0.0
 10
11.2577492497
 20
11.0127943164
 30
0.0
 10
11.2669300886
 20
11.0170619394
 30
0.0
 10
11.276567063
 20
11.021261803
 30
0.0
 10
11.2866527734
 20
11.0253905509
 30
0.0
 10
11.2971794128
 20
11.0294450766
 30
0.0
 10
11.3081388619
 20
11.0334221416
 30
0.0
 10
11.3195226257
 20
11.0373187287
 30
0.0
 10
11.3313218969
 20
11.0411317369
 30
0.0
 10
11.3435275213
 20
11.0448582503
 30
0.0
 10
11.3561300368
 20
11.0484953201
 30
0.0
 10
11.369119659
 20
11.0520401423
 30
0.0
 10
11.3824863062
 20
11.0554899323
 30
0.0
 10
11.3962195919
 20
11.0588420041
 30
0.0
 10
11.410308862
 20
11.0620937642
 30
0.0
 10
11.4297507664
 20
11.0663350011
 30
0.0
 10
11.4548662931
 20
11.0713561074
 30
0.0
 10
11.4859490809
 20
11.0768839122
 30
0.0
 10
11.5181757046
 20
11.081955859
 30
0.0
 10
11.551445961
 20
11.086556048
 30
0.0
 10
11.585656536
 20
11.0906700383
 30
0.0
 10
11.6207011056
 20
11.094284928
 30
0.0
 10
11.6564707397
 20
11.0973893823
 30
0.0
 10
11.6928542288
 20
11.0999736706
 30
0.0
 10
11.7297384397
 20
11.1020296948
 30
0.0
 10
11.7670086697
 20
11.1035510131
 30
0.0
 10
11.8045490086
 20
11.1045328606
 30
0.0
 10
11.8422426956
 20
11.1049721605
 30
0.0
 10
11.8799725057
 20
11.1048675403
 30
0.0
 10
11.9176210553
 20
11.104219321
 30
0.0
 10
11.9550713337
 20
11.1030295427
 30
0.0
 10
11.9922066848
 20
11.1013019223
 30
0.0
 10
12.0168340705
 20
11.0997855432
 30
0.0
 10
12.0290741773
 20
11.0989366889
 30
0.0
  0
SPLINE
  5
336
100
AcDbEntity
  8
0
100
AcDbSpline
 62
7
  6
CONTINUOUS
 70
0
 71
3
 72
52
 73
48
 74
0
 42
0.0000001
 43
0.0000001
 44
0.0000000001
 40
0.0
 40
0.0
 40
0.0
 40
0.0
 40
0.0060335392
 40
0.0123324727
 40
0.0189251827
 40
0.0258356772
 40
0.0330839341
 40
0.0406864501
 40
0.0486565055
 40
0.0570047681
 40
0.0657394115
 40
0.0748666671
 40
0.0843908577
 40
0.0943148204
 40
0.1046399472
 40
0.1153664338
 40
0.1264933937
 40
0.1380189249
 40
0.1499403196
 40
0.1622539773
 40
0.1749556886
 40
0.1880404557
 40
0.2015027923
 40
0.2153365357
 40
0.2295350892
 40
0.2440913018
 40
0.2589975994
 40
0.2742459749
 40
0.3057343592
 40
0.3384852681
 40
0.3724214884
 40
0.407460956
 40
0.4435172703
 40
0.4805001638
 40
0.518315939
 40
0.5568678825
 40
0.5960566622
 40
0.6357807132
 40
0.6759366162
 40
0.7164194708
 40
0.757123258
 40
0.7979412219
 40
0.8387661781
 40
0.879491047
 40
0.9200087323
 40
0.9602136767
 40
1.0
 40
1.0
 40
1.0
 40
1.0
 10
11.2023239841
 20
10.9199430602
 30
0.0
 10
11.2031215886
 20
10.9214645026
 30
0.0
 10
11.20488246
 20
10.9245072815
 30
0.0
 10
11.2079273272
 20
10.9289580448
 30
0.0
 10
11.2114260511
 20
10.9333843525
 30
0.0
 10
11.2153756845
 20
10.9377831045
 30
0.0
 10
11.2197733324
 20
10.9421518383
 30
0.0
 10
11.2246159281
 20
10.9464877364
 30
0.0
 10
11.2299000361
 20
10.9507881762
 30
0.0
 10
11.2356220961
 20
10.9550502534
 30
0.0
 10
11.2417781103
 20
10.9592712781
 30
0.0
 10
11.2483639112
 20
10.9634483093
 30
0.0
 10
11.2553749202
 20
10.9675786073
 30
0.0
 10
11.2628063311
 20
10.9716592709
 30
0.0
 10
11.2706529825
 20
10.9756875268
 30
0.0
 10
11.2789094376
 20
10.9796605645
 30
0.0
 10
11.2875699574
 20
10.9835756001
 30
0.0
 10
11.2966284985
 20
10.9874299365
 30
0.0
 10
11.3060787532
 20
10.9912208094
 30
0.0
 10
11.3159141013
 20
10.9949456362
 30
0.0
 10
11.3261276785
 20
10.9986017091
 30
0.0
 10
11.336712317
 20
11.0021865467
 30
0.0
 10
11.3476606122
 20
11.005697538
 30
0.0
 10
11.3589648758
 20
11.0091322844
 30
0.0
 10
11.3706171846
 20
11.0124883074
 30
0.0
 10
11.3826093514
 20
11.0157632753
 30
0.0
 10
11.3949329709
 20
11.0189548812
 30
0.0
 10
11.4119775064
 20
11.0231409715
 30
0.0
 10
11.4340525286
 20
11.0281379281
 30
0.0
 10
11.4614465556
 20
11.0337051881
 30
0.0
 10
11.4899437104
 20
11.0388898449
 30
0.0
 10
11.5194638889
 20
11.0436772053
 30
0.0
 10
11.5499242407
 20
11.0480536845
 30
0.0
 10
11.581239187
 20
11.0520068746
 30
0.0
 10
11.6133207319
 20
11.0555255695
 30
0.0
 10
11.6460786985
 20
11.0585997986
 30
0.0
 10
11.6794209915
 20
11.061220853
 30
0.0
 10
11.7132538587
 20
11.0633813108
 30
0.0
 10
11.7474821591
 20
11.0650750552
 30
0.0
 10
11.7820096317
 20
11.066297291
 30
0.0
 10
11.8167391723
 20
11.0670445603
 30
0.0
 10
11.8515730952
 20
11.0673147446
 30
0.0
 10
11.8864134504
 20
11.0671070866
 30
0.0
 10
11.9211621835
 20
11.0664221597
 30
0.0
 10
11.9557217075
 20
11.0652619249
 30
0.0
 10
11.9899945855
 20
11.0636296376
 30
0.0
 10
12.0127266108
 20
11.0622212541
 30
0.0
 10
12.0240272101
 20
11.0614375549
 30
0.0
  0
SPLINE
  5
337
100
AcDbEntity
  8
0
100
AcDbSpline
 62
7
  6
CONTINUOUS
 70
0
 71
3
 72
20
 73
16
 74
0
 42
0.0000001
 43
0.0000001
 44
0.0000000001
 40
0.0
 40
0.0
 40
0.0
 40
0.0
 40
0.1273231958
 40
0.1906878881
 40
0.2538483811
 40
0.3168131943
 40
0.3795895493
 40
0.4421880906
 40
0.5046213822
 40
0.6290091711
 40
0.7529206501
 40
0.8147636218
 40
0.876544112
 40
0.9382826142
 40
1.0
 40
1.0
 40
1.0
 40
1.0
 10
9.2831617095
 20
6.7179534198
 30
0.0
 10
9.2831617095
 20
6.7231582836
 30
0.0
 10
9.2835353194
 20
6.7309605771
 30
0.0
 10
9.2847876933
 20
6.7412646609
 30
0.0
 10
9.2860980181
 20
6.7489026431
 30
0.0
 10
9.2877776378
 20
6.7564430669
 30
0.0
 10
9.2898228914
 20
6.7638688782
 30
0.0
 10
9.2922290182
 20
6.7711630518
 30
0.0
 10
9.2959056413
 20
6.7806769758
 30
0.0
 10
9.3013751168
 20
6.7921671923
 30
0.0
 10
9.3079715165
 20
6.8030219383
 30
0.0
 10
9.3138768899
 20
6.8112436116
 30
0.0
 10
9.3186092971
 20
6.8171660439
 30
0.0
 10
9.323635981
 20
6.8228334741
 30
0.0
 10
9.3271763743
 20
6.8264337799
 30
0.0
 10
9.3289910192
 20
6.8281865953
 30
0.0
  0
SPLINE
  5
338
100
AcDbEntity
  8
0
100
AcDbSpline
 62
7
  6
CONTINUOUS
 70
0
 71
3
 72
20
 73
16
 74
0
 42
0.0000001
 43
0.0000001
 44
0.0000000001
 40
0.0
 40
0.0
 40
0.0
 40
0.0
 40
0.1273231958
 40
0.1906878881
 40
0.2538483811
 40
0.3168131943
 40
0.3795895493
 40
0.4421880906
 40
0.5046213822
 40
0.6290091711
 40
0.7529206501
 40
0.8147636218
 40
0.876544112
 40
0.9382826142
 40
1.0
 40
1.0
 40
1.0
 40
1.0
 10
11.6380888634
 20
6.554638667
 30
0.0
 10
11.6380888634
 20
6.5598435308
 30
0.0
 10
11.6384624733
 20
6.5676458243
 30
0.0
 10
11.6397148472
 20
6.5779499081
 30
0.0
 10
11.6410251719
 20
6.5855878903
 30
0.0
 10
11.6427047917
 20
6.5931283141
 30
0.0
 10
11.6447500452
 20
6.6005541254
 30
0.0
 10
11.6471561721
 20
6.607848299
 30
0.0
 10
11.6508327952
 20
6.6173622229
 30
0.0
 10
11.6563022707
 20
6.6288524395
 30
0.0
 10
11.6628986704
 20
6.6397071855
 30
0.0
 10
11.6688040437
 20
6.6479288588
 30
0.0
 10
11.673536451
 20
6.6538512911
 30
0.0
 10
11.6785631349
 20
6.6595187213
 30
0.0
 10
11.6821035282
 20
6.6631190271
 30
0.0
 10
11.6839181731
 20
6.6648718425
 30
0.0
  0
SPLINE
  5
339
100
AcDbEntity
  8
0
100
AcDbSpline
 62
7
  6
CONTINUOUS
 70
0
 71
3
 72
29
 73
25
 74
0
 42
0.0000001
 43
0.0000001
 44
0.0000000001
 40
0.0
 40
0.0
 40
0.0
 40
0.0
 40
0.0305373764
 40
0.0610738702
 40
0.0916116391
 40
0.1221610492
 40
0.1527316366
 40
0.1833305888
 40
0.21396527
 40
0.2446423736
 40
0.2753682455
 40
0.3061478874
 40
0.3369862412
 40
0.36788683
 40
0.3988531686
 40
0.4298873243
 40
0.4921558177
 40
0.5547116982
 40
0.6175547047
 40
0.6806785024
 40
0.7440722548
 40
0.8077219324
 40
0.8716115043
 40
1.0
 40
1.0
 40
1.0
 40
1.0
 10
10.3770217636
 20
7.7934767374
 30
0.0
 10
10.378817415
 20
7.7954921826
 30
0.0
 10
10.3825044573
 20
7.7994388271
 30
0.0
 10
10.388307378
 20
7.805091173
 30
0.0
 10
10.3943706423
 20
7.8104651472
 30
0.0
 10
10.4006806323
 20
7.8155518039
 30
0.0
 10
10.4072237973
 20
7.8203438911
 30
0.0
 10
10.4139858773
 20
7.8248352736
 30
0.0
 10
10.4209519955
 20
7.8290213418
 30
0.0
 10
10.4281073019
 20
7.8328985316
 30
0.0
 10
10.435436581
 20
7.8364650289
 30
0.0
 10
10.4429250103
 20
7.839719655
 30
0.0
 10
10.4505576394
 20
7.8426629591
 30
0.0
 10
10.4583200974
 20
7.8452959139
 30
0.0
 10
10.4661983132
 20
7.8476209942
 30
0.0
 10
10.4768493778
 20
7.8503169899
 30
0.0
 10
10.4903901259
 20
7.8529318617
 30
0.0
 10
10.5068754973
 20
7.854895869
 30
0.0
 10
10.5235311636
 20
7.8557333746
 30
0.0
 10
10.5402788821
 20
7.855490793
 30
0.0
 10
10.5570500986
 20
7.854216499
 30
0.0
 10
10.5737855252
 20
7.8519585977
 30
0.0
 10
10.5960108056
 20
7.8476943716
 30
0.0
 10
10.6124330374
 20
7.8431661476
 30
0.0
 10
10.6232144614
 20
7.839622643
 30
0.0
  0
SPLINE
  5
33A
100
AcDbEntity
  8
0
100
AcDbSpline
 62
7
  6
CONTINUOUS
 70
0
 71
3
 72
43
 73
39
 74
0
 42
0.0000001
 43
0.0000001
 44
0.0000000001
 40
0.0
 40
0.0
 40
0.0
 40
0.0
 40
0.0144946374
 40
0.0220884664
 40
0.0299279381
 40
0.0380232615
 40
0.0463833906
 40
0.0550162075
 40
0.0639284911
 40
0.0731260211
 40
0.0826137885
 40
0.092395971
 40
0.1024759459
 40
0.1235385723
 40
0.1458184463
 40
0.1693227851
 40
0.1940518047
 40
0.2199999892
 40
0.2471567522
 40
0.2755069938
 40
0.3050318556
 40
0.3357088855
 40
0.3675125199
 40
0.4004144485
 40
0.4343836351
 40
0.4693867774
 40
0.5053883777
 40
0.5423508464
 40
0.5802348423
 40
0.6189992011
 40
0.6586011784
 40
0.6989966024
 40
0.7401397792
 40
0.7819839101
 40
0.8244810692
 40
0.8675816214
 40
0.9112357485
 40
1.0
 40
1.0
 40
1.0
 40
1.0
 10
12.5491968355
 20
10.9597845693
 30
0.0
 10
12.5477698788
 20
10.9619929209
 30
0.0
 10
12.5454205828
 20
10.9652482627
 30
0.0
 10
12.5419624238
 20
10.9694342149
 30
0.0
 10
12.5391088316
 20
10.9726097547
 30
0.0
 10
12.5360369771
 20
10.9757710941
 30
0.0
 10
12.5327476895
 20
10.9789175282
 30
0.0
 10
12.5292420285
 20
10.9820480058
 30
0.0
 10
12.5255211011
 20
10.9851615973
 30
0.0
 10
12.521586115
 20
10.9882573763
 30
0.0
 10
12.5174382873
 20
10.9913343538
 30
0.0
 10
12.5130789098
 20
10.994391591
 30
0.0
 10
12.5068954363
 20
10.9985005784
 30
0.0
 10
12.4986339135
 20
11.0035725194
 30
0.0
 10
12.4880402246
 20
11.0094785034
 30
0.0
 10
12.4766391795
 20
11.0152828912
 30
0.0
 10
12.4644452254
 20
11.0209784423
 30
0.0
 10
12.4514735399
 20
11.0265579785
 30
0.0
 10
12.4377404399
 20
11.0320144126
 30
0.0
 10
12.4232632499
 20
11.0373408569
 30
0.0
 10
12.4080602592
 20
11.042530462
 30
0.0
 10
12.3921507341
 20
11.0475766242
 30
0.0
 10
12.3755548613
 20
11.0524729012
 30
0.0
 10
12.3582937136
 20
11.0572129771
 30
0.0
 10
12.3403892462
 20
11.0617908295
 30
0.0
 10
12.3218642374
 20
11.0662005697
 30
0.0
 10
12.3027422695
 20
11.0704365327
 30
0.0
 10
12.2830477024
 20
11.0744933308
 30
0.0
 10
12.2628056262
 20
11.0783657231
 30
0.0
 10
12.2420418409
 20
11.0820487689
 30
0.0
 10
12.2207828163
 20
11.0855377628
 30
0.0
 10
12.1990556604
 20
11.0888281951
 30
0.0
 10
12.1768880813
 20
11.0919158946
 30
0.0
 10
12.1543083246
 20
11.0947968917
 30
0.0
 10
12.131345258
 20
11.0974674627
 30
0.0
 10
12.1080281461
 20
11.0999242651
 30
0.0
 10
12.07633132
 20
11.1029272056
 30
0.0
 10
12.0523839642
 20
11.1048227205
 30
0.0
 10
12.0363211046
 20
11.1059366836
 30
0.0
  0
SPLINE
  5
33B
100
AcDbEntity
  8
0
100
AcDbSpline
 62
7
  6
CONTINUOUS
 70
0
 71
3
 72
52
 73
48
 74
0
 42
0.0000001
 43
0.0000001
 44
0.0000000001
 40
0.0
 40
0.0
 40
0.0
 40
0.0
 40
0.0481976586
 40
0.0958298417
 40
0.1428197349
 40
0.1890976738
 40
0.2345927526
 40
0.2792363126
 40
0.3229616726
 40
0.3657040217
 40
0.4074008695
 40
0.4479921877
 40
0.4874205767
 40
0.5256315209
 40
0.5625737305
 40
0.5981993819
 40
0.6324644205
 40
0.6653290015
 40
0.6967580213
 40
0.7267215998
 40
0.7411465372
 40
0.7551967179
 40
0.7688701694
 40
0.7821654908
 40
0.7950818363
 40
0.8076188358
 40
0.8197768796
 40
0.8315570016
 40
0.842960946
 40
0.8539914268
 40
0.8646519891
 40
0.8749472323
 40
0.8848829866
 40
0.8944662508
 40
0.9037055339
 40
0.912610945
 40
0.9211942707
 40
0.9294693586
 40
0.9374521473
 40
0.9451608712
 40
0.9598350014
 40
0.9668568271
 40
0.9737036868
 40
0.980406896
 40
0.9870001056
 40
0.9935188497
 40
1.0
 40
1.0
 40
1.0
 40
1.0
 10
12.0363211046
 20
11.1658240874
 30
0.0
 10
12.0455566445
 20
11.1651836005
 30
0.0
 10
12.0639123997
 20
11.1638070356
 30
0.0
 10
12.0912432608
 20
11.161440114
 30
0.0
 10
12.1181773057
 20
11.1587861332
 30
0.0
 10
12.1446690709
 20
11.1558496538
 30
0.0
 10
12.1706745754
 20
11.1526355388
 30
0.0
 10
12.1961502517
 20
11.1491492168
 30
0.0
 10
12.2210535239
 20
11.1453965531
 30
0.0
 10
12.2453427798
 20
11.1413838346
 30
0.0
 10
12.268977431
 20
11.1371178133
 30
0.0
 10
12.2919180079
 20
11.1326056726
 30
0.0
 10
12.3141262038
 20
11.1278549976
 30
0.0
 10
12.3355649484
 20
11.1228737613
 30
0.0
 10
12.3561984886
 20
11.1176703547
 30
0.0
 10
12.3759924476
 20
11.1122535346
 30
0.0
 10
12.3949138537
 20
11.106632399
 30
0.0
 10
12.4129312903
 20
11.1008163781
 30
0.0
 10
12.4300147177
 20
11.0948152509
 30
0.0
 10
12.4436160354
 20
11.0896046084
 30
0.0
 10
12.4540009913
 20
11.0853433585
 30
0.0
 10
12.4614399494
 20
11.0821479581
 30
0.0
 10
12.4686248998
 20
11.0789138904
 30
0.0
 10
12.4755528661
 20
11.0756424912
 30
0.0
 10
12.4822209806
 20
11.0723351613
 30
0.0
 10
12.4886264523
 20
11.0689932169
 30
0.0
 10
12.4947666418
 20
11.0656180856
 30
0.0
 10
12.5006390104
 20
11.0622111678
 30
0.0
 10
12.5062411023
 20
11.0587738187
 30
0.0
 10
12.5115706346
 20
11.0553075098
 30
0.0
 10
12.5166253945
 20
11.051813628
 30
0.0
 10
12.5214032815
 20
11.0482935713
 30
0.0
 10
12.5259023657
 20
11.0447488169
 30
0.0
 10
12.5301207529
 20
11.0411807271
 30
0.0
 10
12.5340567093
 20
11.0375907302
 30
0.0
 10
12.5377086273
 20
11.0339802778
 30
0.0
 10
12.5410749298
 20
11.0303506738
 30
0.0
 10
12.544154169
 20
11.0267034706
 30
0.0
 10
12.5469452133
 20
11.0230396713
 30
0.0
 10
12.5502258983
 20
11.0182150442
 30
0.0
 10
12.5530015827
 20
11.0132764518
 30
0.0
 10
12.555200666
 20
11.0082505252
 30
0.0
 10
12.5565322487
 20
11.0045266058
 30
0.0
 10
12.5575688662
 20
11.0007953631
 30
0.0
 10
12.5583099057
 20
10.9970583056
 30
0.0
 10
12.5587548272
 20
10.9933176205
 30
0.0
 10
12.5588538088
 20
10.9908195083
 30
0.0
 10
12.558853814
 20
10.9895746202
 30
0.0
  0
SPLINE
  5
33C
100
AcDbEntity
  8
0
100
AcDbSpline
 62
7
  6
CONTINUOUS
 70
0
 71
3
 72
50
 73
46
 74
0
 42
0.0000001
 43
0.0000001
 44
0.0000000001
 40
0.0
 40
0.0
 40
0.0
 40
0.0
 40
0.0064807564
 40
0.0130746165
 40
0.0198116395
 40
0.0267197498
 40
0.0411433766
 40
0.0487093947
 40
0.0565351077
 40
0.064637048
 40
0.0730296108
 40
0.0817253794
 40
0.0907352611
 40
0.1000684905
 40
0.1097329738
 40
0.1197353749
 40
0.1300810939
 40
0.1407745904
 40
0.1518194093
 40
0.1632181363
 40
0.1749726954
 40
0.1870843212
 40
0.1995535055
 40
0.2123802702
 40
0.2255640979
 40
0.2529972696
 40
0.2818405854
 40
0.3120742109
 40
0.3436728296
 40
0.3766064051
 40
0.4108405454
 40
0.446336952
 40
0.4830539169
 40
0.5209465048
 40
0.5599668057
 40
0.600064309
 40
0.6411860198
 40
0.6832766269
 40
0.7262787709
 40
0.7701331656
 40
0.8147789053
 40
0.8601530797
 40
0.9061913501
 40
0.952830715
 40
1.0
 40
1.0
 40
1.0
 40
1.0
 10
12.5300878604
 20
10.9380194721
 30
0.0
 10
12.5298748704
 20
10.9391773237
 30
0.0
 10
12.5293580374
 20
10.9414980748
 30
0.0
 10
12.5283250693
 20
10.9449484958
 30
0.0
 10
12.5270292467
 20
10.9483922639
 30
0.0
 10
12.5249224464
 20
10.9530388007
 30
0.0
 10
12.5223040957
 20
10.9576054745
 30
0.0
 10
12.5192356981
 20
10.9620705261
 30
0.0
 10
12.5166391393
 20
10.9654600724
 30
0.0
 10
12.5137855325
 20
10.968834798
 30
0.0
 10
12.5106759221
 20
10.9721938767
 30
0.0
 10
12.5073115678
 20
10.9755360011
 30
0.0
 10
12.5036937309
 20
10.9788599449
 30
0.0
 10
12.4998238664
 20
10.9821645433
 30
0.0
 10
12.4957034412
 20
10.9854485603
 30
0.0
 10
12.4913340103
 20
10.9887107368
 30
0.0
 10
12.4867172895
 20
10.991949906
 30
0.0
 10
12.4818550292
 20
10.9951648218
 30
0.0
 10
12.476749077
 20
10.9983542341
 30
0.0
 10
12.4714014252
 20
11.0015169802
 30
0.0
 10
12.4658141121
 20
11.0046518225
 30
0.0
 10
12.4599892756
 20
11.0077575354
 30
0.0
 10
12.453929187
 20
11.0108329673
 30
0.0
 10
12.4476361583
 20
11.0138769248
 30
0.0
 10
12.4388210461
 20
11.0179459146
 30
0.0
 10
12.4272289736
 20
11.0229359104
 30
0.0
 10
12.4126079325
 20
11.0287031379
 30
0.0
 10
12.3971202206
 20
11.0343173703
 30
0.0
 10
12.3807898029
 20
11.0397698877
 30
0.0
 10
12.3636417783
 20
11.0450521779
 30
0.0
 10
12.3457026275
 20
11.0501560074
 30
0.0
 10
12.3270000827
 20
11.0550734395
 30
0.0
 10
12.3075630763
 20
11.0597967743
 30
0.0
 10
12.2874217073
 20
11.0643186333
 30
0.0
 10
12.2666071945
 20
11.0686319838
 30
0.0
 10
12.2451518043
 20
11.0727300737
 30
0.0
 10
12.2230888098
 20
11.0766064955
 30
0.0
 10
12.200452448
 20
11.0802552251
 30
0.0
 10
12.1772778501
 20
11.0836705558
 30
0.0
 10
12.1536009608
 20
11.086847149
 30
0.0
 10
12.1294585631
 20
11.0897800614
 30
0.0
 10
12.104888213
 20
11.0924647147
 30
0.0
 10
12.0799277122
 20
11.0948969507
 30
0.0
 10
12.0546163026
 20
11.0970728915
 30
0.0
 10
12.0376223054
 20
11.0983438742
 30
0.0
 10
12.0290741773
 20
11.0989366889
 30
0.0
  0
SPLINE
  5
33D
100
AcDbEntity
  8
0
100
AcDbSpline
 62
7
  6
CONTINUOUS
 70
0
 71
3
 72
45
 73
41
 74
0
 42
0.0000001
 43
0.0000001
 44
0.0000000001
 40
0.0
 40
0.0
 40
0.0
 40
0.0
 40
0.0139911541
 40
0.0213112393
 40
0.0288666421
 40
0.0366707718
 40
0.0447353997
 40
0.0530709195
 40
0.061686434
 40
0.0705897296
 40
0.0797875405
 40
0.08928566
 40
0.0990888595
 40
0.1092011114
 40
0.119625719
 40
0.1303652059
 40
0.1414214658
 40
0.1644882766
 40
0.1888322397
 40
0.2144511864
 40
0.2413367762
 40
0.2694754339
 40
0.2988491121
 40
0.3294355523
 40
0.3612089744
 40
0.3941403591
 40
0.4281976138
 40
0.4633460809
 40
0.4995485565
 40
0.5367655297
 40
0.5749554927
 40
0.6140748713
 40
0.6540783525
 40
0.6949189958
 40
0.7365481752
 40
0.7789160204
 40
0.8219714049
 40
0.8656613577
 40
0.9099325779
 40
1.0
 40
1.0
 40
1.0
 40
1.0
 10
12.5053871797
 20
10.9199363695
 30
0.0
 10
12.5042754138
 20
10.9220577111
 30
0.0
 10
12.502392225
 20
10.9251927986
 30
0.0
 10
12.4995390356
 20
10.9292285166
 30
0.0
 10
12.4971493764
 20
10.9322902226
 30
0.0
 10
12.4945435386
 20
10.9353393704
 30
0.0
 10
12.4917223111
 20
10.938375335
 30
0.0
 10
12.4886866873
 20
10.9413970709
 30
0.0
 10
12.4854376453
 20
10.9444036084
 30
0.0
 10
12.481976322
 20
10.9473940247
 30
0.0
 10
12.4783038669
 20
10.950367359
 30
0.0
 10
12.4744214689
 20
10.9533226065
 30
0.0
 10
12.4703304502
 20
10.9562588399
 30
0.0
 10
12.4660321765
 20
10.9591751084
 30
0.0
 10
12.4615280504
 20
10.9620704044
 30
0.0
 10
12.4568195802
 20
10.9649438187
 30
0.0
 10
12.450177204
 20
10.9687991121
 30
0.0
 10
12.4413641639
 20
10.973548527
 30
0.0
 10
12.430144315
 20
10.9790674988
 30
0.0
 10
12.4181503462
 20
10.984476547
 30
0.0
 10
12.405398302
 20
10.9897684621
 30
0.0
 10
12.391905049
 20
10.994936195
 30
0.0
 10
12.3776885464
 20
10.9999727465
 30
0.0
 10
12.3627677719
 20
11.0048713852
 30
0.0
 10
12.3471626685
 20
11.0096254868
 30
0.0
 10
12.3308941223
 20
11.0142286059
 30
0.0
 10
12.3139839462
 20
11.0186745704
 30
0.0
 10
12.2964548181
 20
11.0229573325
 30
0.0
 10
12.2783302697
 20
11.0270711096
 30
0.0
 10
12.2596346465
 20
11.0310103677
 30
0.0
 10
12.240393064
 20
11.0347697373
 30
0.0
 10
12.2206313874
 20
11.0383441696
 30
0.0
 10
12.2003761839
 20
11.0417288333
 30
0.0
 10
12.1796546928
 20
11.0449191213
 30
0.0
 10
12.1584947857
 20
11.0479107663
 30
0.0
 10
12.1369248981
 20
11.0506997056
 30
0.0
 10
12.1149741111
 20
11.0532821437
 30
0.0
 10
12.092671935
 20
11.0556546652
 30
0.0
 10
12.0623342972
 20
11.0585502152
 30
0.0
 10
12.0394080906
 20
11.0603708872
 30
0.0
 10
12.0240272101
 20
11.0614375549
 30
0.0
  0
SPLINE
  5
33E
100
AcDbEntity
  8
0
100
AcDbSpline
 62
7
  6
CONTINUOUS
 70
0
 71
3
 72
39
 73
35
 74
0
 42
0.0000001
 43
0.0000001
 44
0.0000000001
 40
0.0
 40
0.0
 40
0.0
 40
0.0
 40
0.0311445376
 40
0.062443355
 40
0.09388824
 40
0.1254709996
 40
0.1571788478
 40
0.1889972257
 40
0.2209091305
 40
0.2528957945
 40
0.2849369709
 40
0.3170113586
 40
0.3490970145
 40
0.3811717799
 40
0.4132137068
 40
0.4452014824
 40
0.4771148435
 40
0.5089349783
 40
0.5406449062
 40
0.5722298317
 40
0.6036774666
 40
0.6349783114
 40
0.6661258871
 40
0.6971169127
 40
0.7279514223
 40
0.7586328137
 40
0.7891678252
 40
0.8195664354
 40
0.8498416851
 40
0.8800094226
 40
0.9100879711
 40
0.9400977272
 40
0.9700606997
 40
1.0
 40
1.0
 40
1.0
 40
1.0
 10
11.8500887981
 20
8.8833419031
 30
0.0
 10
11.8464092947
 20
8.8835970775
 30
0.0
 10
11.839048005
 20
8.8843780458
 30
0.0
 10
11.8280953522
 20
8.8863451928
 30
0.0
 10
11.8172599681
 20
8.8891007296
 30
0.0
 10
11.8066004796
 20
8.8926295983
 30
0.0
 10
11.7961734275
 20
8.8969130513
 30
0.0
 10
11.7860344604
 20
8.9019280895
 30
0.0
 10
11.7762375841
 20
8.9076479521
 30
0.0
 10
11.7668350029
 20
8.9140420874
 30
0.0
 10
11.7578768171
 20
8.9210763852
 30
0.0
 10
11.749410761
 20
8.9287133276
 30
0.0
 10
11.7414819474
 20
8.9369121943
 30
0.0
 10
11.7341326349
 20
8.9456292831
 30
0.0
 10
11.7274020047
 20
8.9548181392
 30
0.0
 10
11.721325954
 20
8.9644298002
 30
0.0
 10
11.7159369067
 20
8.9744130539
 30
0.0
 10
11.7112636414
 20
8.9847147074
 30
0.0
 10
11.7073311387
 20
8.9952798662
 30
0.0
 10
11.7041604495
 20
9.0060522236
 30
0.0
 10
11.7017685709
 20
9.0169743536
 30
0.0
 10
11.7001683598
 20
9.0279880168
 30
0.0
 10
11.6993684653
 20
9.0390344672
 30
0.0
 10
11.6993732782
 20
9.0500547615
 30
0.0
 10
11.7001829028
 20
9.0609900692
 30
0.0
 10
11.7017931506
 20
9.0717819843
 30
0.0
 10
11.7041955551
 20
9.0823728346
 30
0.0
 10
11.7073774112
 20
9.0927059915
 30
0.0
 10
11.711321829
 20
9.1027261699
 30
0.0
 10
11.7160078271
 20
9.1123797514
 30
0.0
 10
11.72141038
 20
9.1216150038
 30
0.0
 10
11.7275008083
 20
9.1303826274
 30
0.0
 10
11.7342459569
 20
9.1386350494
 30
0.0
 10
11.7391572988
 20
9.1437659115
 30
0.0
 10
11.7417074834
 20
9.1462292223
 30
0.0
  0
SPLINE
  5
33F
100
AcDbEntity
  8
0
100
AcDbSpline
 62
7
  6
CONTINUOUS
 70
0
 71
3
 72
32
 73
28
 74
0
 42
0.0000001
 43
0.0000001
 44
0.0000000001
 40
0.0
 40
0.0
 40
0.0
 40
0.0
 40
0.0343738229
 40
0.0689129614
 40
0.103643538
 40
0.1385827751
 40
0.1737371443
 40
0.2091006245
 40
0.2446532348
 40
0.2803601809
 40
0.3520011182
 40
0.423477246
 40
0.4589350914
 40
0.4940652896
 40
0.5287658877
 40
0.562939061
 40
0.5964946801
 40
0.6293532814
 40
0.692711974
 40
0.7526570389
 40
0.7812957856
 40
0.8090316368
 40
0.835868654
 40
0.8618185519
 40
0.8868985725
 40
0.9111300837
 40
1.0
 40
1.0
 40
1.0
 40
1.0
 10
11.6059134118
 20
8.3054568225
 30
0.0
 10
11.6019089776
 20
8.3030660348
 30
0.0
 10
11.594020026
 20
8.2980355401
 30
0.0
 10
11.5826125458
 20
8.2898001035
 30
0.0
 10
11.5716283867
 20
8.2808853747
 30
0.0
 10
11.5610921764
 20
8.2713214091
 30
0.0
 10
11.5510281886
 20
8.2611409118
 30
0.0
 10
11.5414614205
 20
8.2503806659
 30
0.0
 10
11.5324168433
 20
8.2390816617
 30
0.0
 10
11.5210771009
 20
8.2233463385
 30
0.0
 10
11.5083695915
 20
8.2026294301
 30
0.0
 10
11.4976962449
 20
8.1808369297
 30
0.0
 10
11.4904228858
 20
8.1629807735
 30
0.0
 10
11.4856312589
 20
8.1495175432
 30
0.0
 10
11.4814898125
 20
8.1360230333
 30
0.0
 10
11.4779926409
 20
8.1225682098
 30
0.0
 10
11.4751279233
 20
8.1092201541
 30
0.0
 10
11.4721647282
 20
8.0918593592
 30
0.0
 10
11.4698985486
 20
8.0707667843
 30
0.0
 10
11.4693888069
 20
8.0501328318
 30
0.0
 10
11.4699806929
 20
8.0343579394
 30
0.0
 10
11.4708645456
 20
8.0230992007
 30
0.0
 10
11.4721642758
 20
8.0122483527
 30
0.0
 10
11.4738499014
 20
8.0018159797
 30
0.0
 10
11.4758932759
 20
7.9918070794
 30
0.0
 10
11.4804006177
 20
7.9736098506
 30
0.0
 10
11.4855778854
 20
7.9590539139
 30
0.0
 10
11.4906593112
 20
7.94811906
 30
0.0
  0
SPLINE
  5
340
100
AcDbEntity
  8
0
100
AcDbSpline
 62
7
  6
CONTINUOUS
 70
0
 71
3
 72
22
 73
18
 74
0
 42
0.0000001
 43
0.0000001
 44
0.0000000001
 40
0.0
 40
0.0
 40
0.0
 40
0.0
 40
0.0764234912
 40
0.1504698875
 40
0.2222095369
 40
0.291722846
 40
0.3591050492
 40
0.4244648984
 40
0.5495745482
 40
0.6096453126
 40
0.6682571342
 40
0.7255853859
 40
0.7818195466
 40
0.8371613374
 40
0.8918233206
 40
0.9460270232
 40
1.0
 40
1.0
 40
1.0
 40
1.0
 10
13.7523214733
 20
7.3162511454
 30
0.0
 10
13.7511582301
 20
7.3151275387
 30
0.0
 10
13.7488321772
 20
7.3129518572
 30
0.0
 10
13.7452876371
 20
7.3098602107
 30
0.0
 10
13.7417446511
 20
7.3069937477
 30
0.0
 10
13.7382043644
 20
7.3043535684
 30
0.0
 10
13.7346675496
 20
7.3019403492
 30
0.0
 10
13.7300262594
 20
7.2990685902
 30
0.0
 10
13.7253235728
 20
7.296596752
 30
0.0
 10
13.7205760463
 20
7.2945718104
 30
0.0
 10
13.71707154
 20
7.2933036669
 30
0.0
 10
13.7135764833
 20
7.2922663326
 30
0.0
 10
13.710091822
 20
7.2914601313
 30
0.0
 10
13.7066186633
 20
7.2908854596
 30
0.0
 10
13.7031580474
 20
7.2905426903
 30
0.0
 10
13.6997113414
 20
7.2904319452
 30
0.0
 10
13.6974214505
 20
7.2905129459
 30
0.0
 10
13.6962820001
 20
7.2905919711
 30
0.0
  0
SPLINE
  5
341
100
AcDbEntity
  8
0
100
AcDbSpline
 62
7
  6
CONTINUOUS
 70
0
 71
3
 72
39
 73
35
 74
0
 42
0.0000001
 43
0.0000001
 44
0.0000000001
 40
0.0
 40
0.0
 40
0.0
 40
0.0
 40
0.0311449443
 40
0.0624431435
 40
0.0938883559
 40
0.1254710082
 40
0.1571789104
 40
0.1889972915
 40
0.2209092118
 40
0.2528958851
 40
0.2849370693
 40
0.3170114641
 40
0.3490971276
 40
0.381171901
 40
0.4132138351
 40
0.4452016153
 40
0.4771149773
 40
0.5089351086
 40
0.5406450291
 40
0.5722299455
 40
0.6036775713
 40
0.6349784071
 40
0.6661259735
 40
0.6971169887
 40
0.7279514858
 40
0.7586328627
 40
0.7891678581
 40
0.8195664525
 40
0.8498416892
 40
0.8800094177
 40
0.9100879614
 40
0.9400977171
 40
0.9700606929
 40
1.0
 40
1.0
 40
1.0
 40
1.0
 10
12.906811582
 20
9.5064904487
 30
0.0
 10
12.9001836343
 20
9.5069500985
 30
0.0
 10
12.886923838
 20
9.5083568043
 30
0.0
 10
12.8671949038
 20
9.5119003176
 30
0.0
 10
12.847677272
 20
9.5168637447
 30
0.0
 10
12.8284763861
 20
9.523220367
 30
0.0
 10
12.8096942319
 20
9.5309361233
 30
0.0
 10
12.7914310035
 20
9.5399697415
 30
0.0
 10
12.7737839919
 20
9.550272943
 30
0.0
 10
12.7568472315
 20
9.5617907173
 30
0.0
 10
12.7407109615
 20
9.5744616046
 30
0.0
 10
12.7254611632
 20
9.5882180259
 30
0.0
 10
12.7111791034
 20
9.6029866385
 30
0.0
 10
12.6979409068
 20
9.618688724
 30
0.0
 10
12.6858171538
 20
9.6352406039
 30
0.0
 10
12.6748725081
 20
9.6525540806
 30
0.0
 10
12.6651653741
 20
9.6705369022
 30
0.0
 10
12.656747588
 20
9.6890932488
 30
0.0
 10
12.649664142
 20
9.7081242363
 30
0.0
 10
12.6439529441
 20
9.7275284366
 30
0.0
 10
12.6396446149
 20
9.7472024112
 30
0.0
 10
12.6367623207
 20
9.7670412548
 30
0.0
 10
12.635321645
 20
9.7869391477
 30
0.0
 10
12.6353304989
 20
9.8067899128
 30
0.0
 10
12.6367890695
 20
9.8264875763
 30
0.0
 10
12.6396898084
 20
9.8459269295
 30
0.0
 10
12.6440174593
 20
9.8650040875
 30
0.0
 10
12.6497491282
 20
9.8836170472
 30
0.0
 10
12.6568543834
 20
9.9016662281
 30
0.0
 10
12.6652954404
 20
9.919055045
 30
0.0
 10
12.6750272223
 20
9.9356903119
 30
0.0
 10
12.6859980801
 20
9.9514832132
 30
0.0
 10
12.6981482566
 20
9.9663480884
 30
0.0
 10
12.7069952115
 20
9.9755900861
 30
0.0
 10
12.7115888735
 20
9.9800271959
 30
0.0
  0
SPLINE
  5
342
100
AcDbEntity
  8
0
100
AcDbSpline
 62
7
  6
CONTINUOUS
 70
0
 71
3
 72
39
 73
35
 74
0
 42
0.0000001
 43
0.0000001
 44
0.0000000001
 40
0.0
 40
0.0
 40
0.0
 40
0.0
 40
0.0308884465
 40
0.061907046
 40
0.0930463537
 40
0.1243040112
 40
0.1556720085
 40
0.1871413956
 40
0.2187021373
 40
0.2503427014
 40
0.2820505271
 40
0.313812167
 40
0.3456134386
 40
0.3774396169
 40
0.4092756565
 40
0.4411063894
 40
0.4729167015
 40
0.5046917515
 40
0.5364171858
 40
0.5680793057
 40
0.5996652537
 40
0.6311632244
 40
0.6625626159
 40
0.6938541642
 40
0.7250301181
 40
0.7560843652
 40
0.7870125084
 40
0.8178119571
 40
0.8484820178
 40
0.8790239025
 40
0.9094407177
 40
0.939737475
 40
0.9699210356
 40
1.0
 40
1.0
 40
1.0
 40
1.0
 10
11.9308402752
 20
8.9613418449
 30
0.0
 10
11.927784825
 20
8.9615537411
 30
0.0
 10
11.9216723509
 20
8.9621640764
 30
0.0
 10
11.9125580712
 20
8.963629591
 30
0.0
 10
11.9035109542
 20
8.965642057
 30
0.0
 10
11.8945650094
 20
8.9681937049
 30
0.0
 10
11.8857528461
 20
8.9712752744
 30
0.0
 10
11.8771069834
 20
8.9748753088
 30
0.0
 10
11.8686592238
 20
8.9789805148
 30
0.0
 10
11.8604406855
 20
8.9835758299
 30
0.0
 10
11.8524815874
 20
8.9886442561
 30
0.0
 10
11.8448112024
 20
8.9941671065
 30
0.0
 10
11.8374577872
 20
9.0001240857
 30
0.0
 10
11.8304484086
 20
9.0064932593
 30
0.0
 10
11.8238088246
 20
9.0132511379
 30
0.0
 10
11.8175634802
 20
9.0203728608
 30
0.0
 10
11.8117354156
 20
9.0278322565
 30
0.0
 10
11.8063460457
 20
9.0356018347
 30
0.0
 10
11.8014151992
 20
9.0436529958
 30
0.0
 10
11.7969610856
 20
9.0519561405
 30
0.0
 10
11.79300013
 20
9.0604807129
 30
0.0
 10
11.7895468848
 20
9.0691953173
 30
0.0
 10
11.7866141024
 20
9.0780678901
 30
0.0
 10
11.7842126774
 20
9.0870657904
 30
0.0
 10
11.7823514355
 20
9.096155876
 30
0.0
 10
11.7810372492
 20
9.1053046785
 30
0.0
 10
11.7802750557
 20
9.1144785147
 30
0.0
 10
11.7800677231
 20
9.1236435895
 30
0.0
 10
11.7804160038
 20
9.1327661319
 30
0.0
 10
11.7813186824
 20
9.1418125357
 30
0.0
 10
11.782772538
 20
9.150749409
 30
0.0
 10
11.7847722578
 20
9.1595439191
 30
0.0
 10
11.7873103026
 20
9.1681631971
 30
0.0
 10
11.7893588425
 20
9.1737815511
 30
0.0
 10
11.7904693081
 20
9.1765496393
 30
0.0
  0
SPLINE
  5
343
100
AcDbEntity
  8
0
100
AcDbSpline
 62
7
  6
CONTINUOUS
 70
0
 71
3
 72
15
 73
11
 74
0
 42
0.0000001
 43
0.0000001
 44
0.0000000001
 40
0.0
 40
0.0
 40
0.0
 40
0.0
 40
0.1264815869
 40
0.25253796
 40
0.3781414508
 40
0.5033115594
 40
0.6280647667
 40
0.7524151657
 40
0.8763847486
 40
1.0
 40
1.0
 40
1.0
 40
1.0
 10
11.9308402752
 20
8.9613418449
 30
0.0
 10
11.9333856118
 20
8.9611653252
 30
0.0
 10
11.9384775792
 20
8.9609411039
 30
0.0
 10
11.9461086162
 20
8.9609933993
 30
0.0
 10
11.9537007759
 20
8.961435128
 30
0.0
 10
11.9612338891
 20
8.9622650531
 30
0.0
 10
11.968688841
 20
8.9634809012
 30
0.0
 10
11.9760464267
 20
8.9650798364
 30
0.0
 10
11.9832874035
 20
8.96705745
 30
0.0
 10
11.9880315734
 20
8.9686273872
 30
0.0
 10
11.9903772363
 20
8.9694735853
 30
0.0
  0
SPLINE
  5
344
100
AcDbEntity
  8
0
100
AcDbSpline
 62
7
  6
CONTINUOUS
 70
0
 71
3
 72
91
 73
87
 74
0
 42
0.0000001
 43
0.0000001
 44
0.0000000001
 40
0.0
 40
0.0
 40
0.0
 40
0.0
 40
0.0038469226
 40
0.0078477597
 40
0.0120057295
 40
0.0163235524
 40
0.0208035538
 40
0.0254476056
 40
0.0302570131
 40
0.0352326402
 40
0.0403750189
 40
0.0456843073
 40
0.0511604085
 40
0.056802935
 40
0.0626112131
 40
0.0685843896
 40
0.0747213493
 40
0.081020796
 40
0.087481274
 40
0.0941011038
 40
0.107811214
 40
0.1221351619
 40
0.1370545397
 40
0.1525490186
 40
0.1685965111
 40
0.1851733419
 40
0.2022544018
 40
0.2198132674
 40
0.2378222945
 40
0.2562527263
 40
0.2750748048
 40
0.2942578581
 40
0.3137703752
 40
0.3335800908
 40
0.3536540806
 40
0.3739588382
 40
0.3944603455
 40
0.4151241515
 40
0.4359154579
 40
0.4567991929
 40
0.477740083
 40
0.4987027311
 40
0.5196516965
 40
0.540551567
 40
0.5613670327
 40
0.5820629683
 40
0.6026045079
 40
0.6229571168
 40
0.6430866677
 40
0.6629595298
 40
0.6825426414
 40
0.7018035839
 40
0.7207106612
 40
0.739233001
 40
0.7573406328
 40
0.7750045681
 40
0.7921968944
 40
0.8088908966
 40
0.8250611606
 40
0.8406836782
 40
0.8557359817
 40
0.8701973196
 40
0.8840488338
 40
0.8907407196
 40
0.8972740469
 40
0.9036470793
 40
0.9098582841
 40
0.9159062545
 40
0.9217898161
 40
0.9275079961
 40
0.9330600104
 40
0.9384453749
 40
0.9436638264
 40
0.9487154019
 40
0.9536004896
 40
0.9583197791
 40
0.9628744017
 40
0.9672659121
 40
0.9714963291
 40
0.9755682734
 40
0.9794849364
 40
0.9832502211
 40
0.9868688293
 40
0.9903462923
 40
0.9936891606
 40
1.0
 40
1.0
 40
1.0
 40
1.0
 10
13.6905022153
 20
7.3205383255
 30
0.0
 10
13.6920156607
 20
7.3220002016
 30
0.0
 10
13.6950410934
 20
7.325047204
 30
0.0
 10
13.6994894419
 20
7.3298797938
 30
0.0
 10
13.7039336218
 20
7.3350605671
 30
0.0
 10
13.7083714051
 20
7.3405869993
 30
0.0
 10
13.7128009646
 20
7.3464566102
 30
0.0
 10
13.7172203469
 20
7.3526668872
 30
0.0
 10
13.7216276705
 20
7.3592150738
 30
0.0
 10
13.7260209802
 20
7.3660982458
 30
0.0
 10
13.7303982423
 20
7.3733133543
 30
0.0
 10
13.7347575728
 20
7.3808571387
 30
0.0
 10
13.7390969843
 20
7.3887262511
 30
0.0
 10
13.7434145258
 20
7.3969171747
 30
0.0
 10
13.7477083079
 20
7.4054262222
 30
0.0
 10
13.7519763329
 20
7.4142496025
 30
0.0
 10
13.7562167247
 20
7.4233833392
 30
0.0
 10
13.76042757
 20
7.4328233301
 30
0.0
 10
13.7646069483
 20
7.4425653571
 30
0.0
 10
13.7702004059
 20
7.456110027
 30
0.0
 10
13.777090027
 20
7.473770866
 30
0.0
 10
13.7851090669
 20
7.4958566839
 30
0.0
 10
13.7929586489
 20
7.5190360846
 30
0.0
 10
13.8006245517
 20
7.5432673569
 30
0.0
 10
13.8080929004
 20
7.5685070169
 30
0.0
 10
13.8153501801
 20
7.5947096733
 30
0.0
 10
13.8223832503
 20
7.6218281972
 30
0.0
 10
13.8291793684
 20
7.6498137897
 30
0.0
 10
13.8357262355
 20
7.6786160633
 30
0.0
 10
13.8420120149
 20
7.7081831382
 30
0.0
 10
13.8480253348
 20
7.7384617519
 30
0.0
 10
13.8537553096
 20
7.7693973556
 30
0.0
 10
13.8591915758
 20
7.800934203
 30
0.0
 10
13.8643243163
 20
7.8330154517
 30
0.0
 10
13.8691442538
 20
7.8655832777
 30
0.0
 10
13.8736426705
 20
7.8985789803
 30
0.0
 10
13.8778114339
 20
7.9319430804
 30
0.0
 10
13.8816430256
 20
7.9656154281
 30
0.0
 10
13.8851305275
 20
7.9995353183
 30
0.0
 10
13.8882676373
 20
8.0336416004
 30
0.0
 10
13.8910486856
 20
8.0678727853
 30
0.0
 10
13.8934686672
 20
8.1021671556
 30
0.0
 10
13.895523221
 20
8.1364628813
 30
0.0
 10
13.8972086404
 20
8.1706981299
 30
0.0
 10
13.8985218819
 20
8.204811178
 30
0.0
 10
13.8994605975
 20
8.2387405232
 30
0.0
 10
13.9000231088
 20
8.2724249973
 30
0.0
 10
13.9002084126
 20
8.3058038722
 30
0.0
 10
13.9000161804
 20
8.3388169728
 30
0.0
 10
13.8994467902
 20
8.3714047886
 30
0.0
 10
13.898501298
 20
8.4035085819
 30
0.0
 10
13.8971814352
 20
8.4350704861
 30
0.0
 10
13.8954896017
 20
8.4660336162
 30
0.0
 10
13.8934288946
 20
8.4963421777
 30
0.0
 10
13.8910030788
 20
8.5259415685
 30
0.0
 10
13.8882165762
 20
8.5547784672
 30
0.0
 10
13.8850744519
 20
8.5828009367
 30
0.0
 10
13.8815824386
 20
8.6099585296
 30
0.0
 10
13.8777469093
 20
8.6362023867
 30
0.0
 10
13.8735748526
 20
8.6614852986
 30
0.0
 10
13.8690738619
 20
8.6857618605
 30
0.0
 10
13.8642521239
 20
8.7089883609
 30
0.0
 10
13.8599259006
 20
8.7276422132
 30
0.0
 10
13.8563024817
 20
8.7420029125
 30
0.0
 10
13.8535414819
 20
8.7523614346
 30
0.0
 10
13.8507070504
 20
8.7624272355
 30
0.0
 10
13.847800507
 20
8.7721958126
 30
0.0
 10
13.8448231093
 20
8.7816627648
 30
0.0
 10
13.8417762243
 20
8.7908238475
 30
0.0
 10
13.8386612488
 20
8.7996749572
 30
0.0
 10
13.83547952
 20
8.8082121101
 30
0.0
 10
13.8322325354
 20
8.8164315015
 30
0.0
 10
13.8289217173
 20
8.8243294481
 30
0.0
 10
13.8255485255
 20
8.8319024136
 30
0.0
 10
13.8221145283
 20
8.8391470438
 30
0.0
 10
13.8186211751
 20
8.8460600862
 30
0.0
 10
13.8150700529
 20
8.8526384844
 30
0.0
 10
13.8114627361
 20
8.8588793313
 30
0.0
 10
13.8078007273
 20
8.8647798262
 30
0.0
 10
13.804085688
 20
8.8703374065
 30
0.0
 10
13.8003191608
 20
8.8755495799
 30
0.0
 10
13.796502685
 20
8.8804140603
 30
0.0
 10
13.7926380387
 20
8.8849286147
 30
0.0
 10
13.7887262463
 20
8.8890915569
 30
0.0
 10
13.783550713
 20
8.894073895
 30
0.0
 10
13.7794548242
 20
8.8974314596
 30
0.0
 10
13.7766484735
 20
8.8994414318
 30
0.0
  0
SPLINE
  5
345
100
AcDbEntity
  8
0
100
AcDbSpline
 62
7
  6
CONTINUOUS
 70
0
 71
3
 72
11
 73
7
 74
0
 42
0.0000001
 43
0.0000001
 44
0.0000000001
 40
0.0
 40
0.0
 40
0.0
 40
0.0
 40
0.2705365606
 40
0.5267609057
 40
0.7695432011
 40
1.0
 40
1.0
 40
1.0
 40
1.0
 10
13.6905022153
 20
7.3205383255
 30
0.0
 10
13.6885261613
 20
7.3186296038
 30
0.0
 10
13.6845762055
 20
7.31501681
 30
0.0
 10
13.6784876655
 20
7.3101087146
 30
0.0
 10
13.6724059336
 20
7.3058682395
 30
0.0
 10
13.6682573547
 20
7.3034296032
 30
0.0
 10
13.6661896341
 20
7.3023333631
 30
0.0
  0
SPLINE
  5
346
100
AcDbEntity
  8
0
100
AcDbSpline
 62
7
  6
CONTINUOUS
 70
0
 71
3
 72
23
 73
19
 74
0
 42
0.0000001
 43
0.0000001
 44
0.0000000001
 40
0.0
 40
0.0
 40
0.0
 40
0.0
 40
0.0778953504
 40
0.1528846432
 40
0.2250762869
 40
0.2945987083
 40
0.361606941
 40
0.4262785728
 40
0.4888142882
 40
0.5494390882
 40
0.608402369
 40
0.6659782673
 40
0.7224642112
 40
0.7781765377
 40
0.8334462533
 40
0.8886130522
 40
0.9440186272
 40
1.0
 40
1.0
 40
1.0
 40
1.0
 10
13.6905022153
 20
7.5040642434
 30
0.0
 10
13.6894346067
 20
7.5030330126
 30
0.0
 10
13.6872999583
 20
7.5010490865
 30
0.0
 10
13.6840366211
 20
7.4982639812
 30
0.0
 10
13.6807752888
 20
7.4957285733
 30
0.0
 10
13.6775173225
 20
7.4934442284
 30
0.0
 10
13.6742640133
 20
7.4914119105
 30
0.0
 10
13.6710165275
 20
7.489632546
 30
0.0
 10
13.6677760365
 20
7.4881070589
 30
0.0
 10
13.664543834
 20
7.4868362132
 30
0.0
 10
13.6613212207
 20
7.4858208436
 30
0.0
 10
13.6581095777
 20
7.4850617354
 30
0.0
 10
13.6549104072
 20
7.4845593887
 30
0.0
 10
13.6517252488
 20
7.4843143209
 30
0.0
 10
13.648555769
 20
7.4843268477
 30
0.0
 10
13.64540359
 20
7.4845969493
 30
0.0
 10
13.6422706399
 20
7.4851244749
 30
0.0
 10
13.6402099922
 20
7.4856440007
 30
0.0
 10
13.6391864726
 20
7.4859445948
 30
0.0
  0
SPLINE
  5
347
100
AcDbEntity
  8
0
100
AcDbSpline
 62
7
  6
CONTINUOUS
 70
0
 71
3
 72
60
 73
56
 74
0
 42
0.0000001
 43
0.0000001
 44
0.0000000001
 40
0.0
 40
0.0
 40
0.0
 40
0.0
 40
0.0155851342
 40
0.0311191084
 40
0.0465997883
 40
0.0620297683
 40
0.077410896
 40
0.0927451922
 40
0.1080354886
 40
0.1232850091
 40
0.1384973525
 40
0.153676528
 40
0.1688268976
 40
0.1839531135
 40
0.1990600876
 40
0.2141529418
 40
0.22923694
 40
0.2443174441
 40
0.2593998578
 40
0.2744895565
 40
0.2895918417
 40
0.3047118844
 40
0.3198546584
 40
0.3350249022
 40
0.3502270679
 40
0.3654652633
 40
0.3807432305
 40
0.3960643007
 40
0.4114313545
 40
0.4268468176
 40
0.4423126243
 40
0.4578302014
 40
0.4734004782
 40
0.4890238596
 40
0.5047002375
 40
0.5204290076
 40
0.5362090556
 40
0.5520387942
 40
0.5679161787
 40
0.5838387132
 40
0.5998035021
 40
0.6158072639
 40
0.63184636
 40
0.6479168487
 40
0.6801262879
 40
0.712407754
 40
0.7447222536
 40
0.777029645
 40
0.8092900327
 40
0.8414651608
 40
0.8735197587
 40
0.9054228156
 40
0.9371488263
 40
0.9686781997
 40
1.0
 40
1.0
 40
1.0
 40
1.0
 10
11.6453125108
 20
9.6219876971
 30
0.0
 10
11.6453125108
 20
9.6253321479
 30
0.0
 10
11.6454762455
 20
9.6320112549
 30
0.0
 10
11.6462150123
 20
9.6419878007
 30
0.0
 10
11.6474451115
 20
9.6518824911
 30
0.0
 10
11.6491634672
 20
9.6616708377
 30
0.0
 10
11.6513658773
 20
9.6713295977
 30
0.0
 10
11.6540471913
 20
9.6808354126
 30
0.0
 10
11.6572009449
 20
9.6901653342
 30
0.0
 10
11.6608194685
 20
9.6992969156
 30
0.0
 10
11.66489417
 20
9.7082080929
 30
0.0
 10
11.6694151978
 20
9.7168773828
 30
0.0
 10
11.6743716154
 20
9.7252839068
 30
0.0
 10
11.6797515885
 20
9.7334073217
 30
0.0
 10
11.6855420722
 20
9.7412280772
 30
0.0
 10
11.6917291076
 20
9.748727314
 30
0.0
 10
11.6982978533
 20
9.755886872
 30
0.0
 10
11.7052323779
 20
9.7626895598
 30
0.0
 10
11.7125159946
 20
9.7691189371
 30
0.0
 10
11.7201311647
 20
9.7751594537
 30
0.0
 10
11.7280594461
 20
9.7807966364
 30
0.0
 10
11.7362817688
 20
9.7860168215
 30
0.0
 10
11.7447782878
 20
9.7908074316
 30
0.0
 10
11.7535284675
 20
9.7951570035
 30
0.0
 10
11.7625112535
 20
9.7990549582
 30
0.0
 10
11.7717049489
 20
9.8024919723
 30
0.0
 10
11.7810873735
 20
9.8054598174
 30
0.0
 10
11.7906359357
 20
9.8079512491
 30
0.0
 10
11.8003275841
 20
9.8099603878
 30
0.0
 10
11.8101389658
 20
9.8114823992
 30
0.0
 10
11.8200464414
 20
9.8125135575
 30
0.0
 10
11.8300261234
 20
9.8130515216
 30
0.0
 10
11.8400539749
 20
9.8130949526
 30
0.0
 10
11.8501058331
 20
9.8126437414
 30
0.0
 10
11.8601574935
 20
9.8116991014
 30
0.0
 10
11.8701847404
 20
9.8102632284
 30
0.0
 10
11.880163427
 20
9.8083396329
 30
0.0
 10
11.8900695435
 20
9.805933032
 30
0.0
 10
11.8998792137
 20
9.8030491265
 30
0.0
 10
11.9095688373
 20
9.7996949604
 30
0.0
 10
11.9191151169
 20
9.7958786271
 30
0.0
 10
11.928494972
 20
9.7916092792
 30
0.0
 10
11.9376861027
 20
9.7868971457
 30
0.0
 10
11.9496665972
 20
9.7800352745
 30
0.0
 10
11.9640583932
 20
9.7704086102
 30
0.0
 10
11.9802139961
 20
9.7573041926
 30
0.0
 10
11.9951185548
 20
9.7427614043
 30
0.0
 10
12.0086279701
 20
9.7269204207
 30
0.0
 10
12.0206127429
 20
9.7099330762
 30
0.0
 10
12.0309576359
 20
9.6919624369
 30
0.0
 10
12.039563094
 20
9.6731808434
 30
0.0
 10
12.0463460727
 20
9.6537686667
 30
0.0
 10
12.0512408631
 20
9.6339116158
 30
0.0
 10
12.05420005
 20
9.613802896
 30
0.0
 10
12.0548650854
 20
9.6003065489
 30
0.0
 10
12.0548650854
 20
9.5935851296
 30
0.0
  0
SPLINE
  5
348
100
AcDbEntity
  8
0
100
AcDbSpline
 62
7
  6
CONTINUOUS
 70
0
 71
3
 72
60
 73
56
 74
0
 42
0.0000001
 43
0.0000001
 44
0.0000000001
 40
0.0
 40
0.0
 40
0.0
 40
0.0
 40
0.0155851342
 40
0.0311191084
 40
0.0465997883
 40
0.0620297683
 40
0.077410896
 40
0.0927451922
 40
0.1080354886
 40
0.1232850091
 40
0.1384973525
 40
0.153676528
 40
0.1688268976
 40
0.1839531135
 40
0.1990600876
 40
0.2141529418
 40
0.22923694
 40
0.2443174441
 40
0.2593998578
 40
0.2744895565
 40
0.2895918417
 40
0.3047118844
 40
0.3198546584
 40
0.3350249022
 40
0.3502270679
 40
0.3654652633
 40
0.3807432305
 40
0.3960643007
 40
0.4114313545
 40
0.4268468176
 40
0.4423126243
 40
0.4578302014
 40
0.4734004782
 40
0.4890238596
 40
0.5047002375
 40
0.5204290076
 40
0.5362090556
 40
0.5520387942
 40
0.5679161787
 40
0.5838387132
 40
0.5998035021
 40
0.6158072639
 40
0.63184636
 40
0.6479168487
 40
0.6801262879
 40
0.712407754
 40
0.7447222536
 40
0.777029645
 40
0.8092900327
 40
0.8414651608
 40
0.8735197587
 40
0.9054228156
 40
0.9371488263
 40
0.9686781997
 40
1.0
 40
1.0
 40
1.0
 40
1.0
 10
12.0548650854
 20
9.5935851296
 30
0.0
 10
12.0548650854
 20
9.5902406787
 30
0.0
 10
12.0547013506
 20
9.5835615718
 30
0.0
 10
12.0539625838
 20
9.5735850259
 30
0.0
 10
12.0527324846
 20
9.5636903356
 30
0.0
 10
12.051014129
 20
9.553901989
 30
0.0
 10
12.0488117188
 20
9.544243229
 30
0.0
 10
12.0461304048
 20
9.534737414
 30
0.0
 10
12.0429766513
 20
9.5254074925
 30
0.0
 10
12.0393581276
 20
9.516275911
 30
0.0
 10
12.0352834261
 20
9.5073647338
 30
0.0
 10
12.0307623983
 20
9.4986954439
 30
0.0
 10
12.0258059808
 20
9.4902889199
 30
0.0
 10
12.0204260076
 20
9.4821655049
 30
0.0
 10
12.0146355239
 20
9.4743447495
 30
0.0
 10
12.0084484885
 20
9.4668455127
 30
0.0
 10
12.0018797429
 20
9.4596859547
 30
0.0
 10
11.9949452183
 20
9.4528832669
 30
0.0
 10
11.9876616015
 20
9.4464538896
 30
0.0
 10
11.9800464314
 20
9.4404133729
 30
0.0
 10
11.97211815
 20
9.4347761903
 30
0.0
 10
11.9638958273
 20
9.4295560052
 30
0.0
 10
11.9553993083
 20
9.424765395
 30
0.0
 10
11.9466491287
 20
9.4204158231
 30
0.0
 10
11.9376663426
 20
9.4165178685
 30
0.0
 10
11.9284726473
 20
9.4130808544
 30
0.0
 10
11.9190902226
 20
9.4101130092
 30
0.0
 10
11.9095416604
 20
9.4076215776
 30
0.0
 10
11.899850012
 20
9.4056124388
 30
0.0
 10
11.8900386304
 20
9.4040904275
 30
0.0
 10
11.8801311548
 20
9.4030592692
 30
0.0
 10
11.8701514727
 20
9.402521305
 30
0.0
 10
11.8601236212
 20
9.4024778741
 30
0.0
 10
11.850071763
 20
9.4029290853
 30
0.0
 10
11.8400201026
 20
9.4038737252
 30
0.0
 10
11.8299928557
 20
9.4053095983
 30
0.0
 10
11.8200141691
 20
9.4072331938
 30
0.0
 10
11.8101080526
 20
9.4096397947
 30
0.0
 10
11.8002983824
 20
9.4125237002
 30
0.0
 10
11.7906087588
 20
9.4158778663
 30
0.0
 10
11.7810624792
 20
9.4196941996
 30
0.0
 10
11.7716826241
 20
9.4239635475
 30
0.0
 10
11.7624914934
 20
9.4286756809
 30
0.0
 10
11.7505109989
 20
9.4355375522
 30
0.0
 10
11.7361192029
 20
9.4451642165
 30
0.0
 10
11.7199636
 20
9.458268634
 30
0.0
 10
11.7050590413
 20
9.4728114223
 30
0.0
 10
11.691549626
 20
9.4886524059
 30
0.0
 10
11.6795648532
 20
9.5056397505
 30
0.0
 10
11.6692199602
 20
9.5236103898
 30
0.0
 10
11.6606145021
 20
9.5423919832
 30
0.0
 10
11.6538315234
 20
9.56180416
 30
0.0
 10
11.648936733
 20
9.5816612109
 30
0.0
 10
11.6459775461
 20
9.6017699306
 30
0.0
 10
11.6453125108
 20
9.6152662778
 30
0.0
 10
11.6453125108
 20
9.6219876971
 30
0.0
  0
SPLINE
  5
349
100
AcDbEntity
  8
0
100
AcDbSpline
 62
7
  6
CONTINUOUS
 70
0
 71
3
 72
96
 73
92
 74
0
 42
0.0000001
 43
0.0000001
 44
0.0000000001
 40
0.0
 40
0.0
 40
0.0
 40
0.0
 40
0.004039218
 40
0.0082524753
 40
0.0126435912
 40
0.0172157444
 40
0.0219715922
 40
0.0269132085
 40
0.0320419457
 40
0.0373586333
 40
0.042863675
 40
0.0485570205
 40
0.054438316
 40
0.0605068233
 40
0.066761488
 40
0.0732010237
 40
0.0798238153
 40
0.0866280623
 40
0.0936117292
 40
0.1007725394
 40
0.1156154219
 40
0.1311353576
 40
0.1473080802
 40
0.1641070179
 40
0.1815035144
 40
0.1994670039
 40
0.2179652057
 40
0.2369642869
 40
0.2564290017
 40
0.2763228086
 40
0.2966080016
 40
0.3172458449
 40
0.3381966856
 40
0.3594200604
 40
0.3808748027
 40
0.4025191651
 40
0.4243109268
 40
0.4462074968
 40
0.4681660191
 40
0.4901434862
 40
0.5120968454
 40
0.5339831015
 40
0.5557594242
 40
0.5773832619
 40
0.5988124448
 40
0.6200052893
 40
0.6409207065
 40
0.6615183253
 40
0.6817585972
 40
0.7016029031
 40
0.7210136691
 40
0.7399545036
 40
0.7583903235
 40
0.7762874742
 40
0.7936138705
 40
0.8103391669
 40
0.8264349474
 40
0.8418749038
 40
0.8566350627
 40
0.8637535876
 40
0.8706944098
 40
0.8774553074
 40
0.8840342876
 40
0.890429612
 40
0.8966397248
 40
0.9026634019
 40
0.9084996704
 40
0.9141478601
 40
0.9196077008
 40
0.924879236
 40
0.9299629835
 40
0.9348599263
 40
0.9395715358
 40
0.944099947
 40
0.948447907
 40
0.9526189476
 40
0.9566174846
 40
0.9604488561
 40
0.9641195691
 40
0.9676373394
 40
0.9710112701
 40
0.9742520351
 40
0.9773719192
 40
0.9803849922
 40
0.9833070894
 40
0.9861557475
 40
0.988950071
 40
0.9917103879
 40
0.9944578623
 40
0.9972139761
 40
1.0
 40
1.0
 40
1.0
 40
1.0
 10
13.6905022153
 20
7.5040642434
 30
0.0
 10
13.6917510739
 20
7.5052705482
 30
0.0
 10
13.6942473756
 20
7.5077928333
 30
0.0
 10
13.697912054
 20
7.5118082744
 30
0.0
 10
13.7015727317
 20
7.5161321487
 30
0.0
 10
13.7052273056
 20
7.5207620224
 30
0.0
 10
13.7088740417
 20
7.5256955042
 30
0.0
 10
13.712511072
 20
7.5309301493
 30
0.0
 10
13.7161366151
 20
7.5364632598
 30
0.0
 10
13.7197487855
 20
7.5422919852
 30
0.0
 10
13.7233456623
 20
7.5484133275
 30
0.0
 10
13.7269254541
 20
7.5548240885
 30
0.0
 10
13.7304862483
 20
7.5615209793
 30
0.0
 10
13.7340262192
 20
7.5685005191
 30
0.0
 10
13.7375435457
 20
7.5757590794
 30
0.0
 10
13.7410363344
 20
7.5832929085
 30
0.0
 10
13.7445028265
 20
7.5910980684
 30
0.0
 10
13.7479411713
 20
7.599170508
 30
0.0
 10
13.751349587
 20
7.6075060326
 30
0.0
 10
13.7559064125
 20
7.6191039749
 30
0.0
 10
13.7615058386
 20
7.6342330321
 30
0.0
 10
13.7680001941
 20
7.6531553056
 30
0.0
 10
13.7743337493
 20
7.6730163439
 30
0.0
 10
13.7804932122
 20
7.6937747323
 30
0.0
 10
13.7864656396
 20
7.7153872989
 30
0.0
 10
13.7922385038
 20
7.7378089996
 30
0.0
 10
13.7977996926
 20
7.7609930869
 30
0.0
 10
13.8031375373
 20
7.7848912062
 30
0.0
 10
13.8082408323
 20
7.8094535006
 30
0.0
 10
13.8130988765
 20
7.8346287056
 30
0.0
 10
13.8177014934
 20
7.860364262
 30
0.0
 10
13.8220390368
 20
7.8866064367
 30
0.0
 10
13.8261024134
 20
7.9133004362
 30
0.0
 10
13.8298831044
 20
7.9403905155
 30
0.0
 10
13.8333732021
 20
7.9678200931
 30
0.0
 10
13.8365654017
 20
7.9955318763
 30
0.0
 10
13.8394530205
 20
8.0234679838
 30
0.0
 10
13.8420300072
 20
8.0515700634
 30
0.0
 10
13.8442909781
 20
8.0797794119
 30
0.0
 10
13.8462312128
 20
8.1080371015
 30
0.0
 10
13.8478466583
 20
8.1362841044
 30
0.0
 10
13.8491339361
 20
8.1644614146
 30
0.0
 10
13.8500903615
 20
8.1925101716
 30
0.0
 10
13.850713956
 20
8.2203717856
 30
0.0
 10
13.8510034317
 20
8.2479880603
 30
0.0
 10
13.8509581981
 20
8.2753013111
 30
0.0
 10
13.8505783622
 20
8.3022544892
 30
0.0
 10
13.8498647529
 20
8.328791305
 30
0.0
 10
13.8488188952
 20
8.3548563455
 30
0.0
 10
13.8474430091
 20
8.3803951843
 30
0.0
 10
13.8457400002
 20
8.4053544995
 30
0.0
 10
13.8437134772
 20
8.4296821938
 30
0.0
 10
13.841367736
 20
8.4533275064
 30
0.0
 10
13.8387077391
 20
8.476241112
 30
0.0
 10
13.8357391066
 20
8.4983752296
 30
0.0
 10
13.8324681094
 20
8.5196837218
 30
0.0
 10
13.8289016836
 20
8.5401222611
 30
0.0
 10
13.8250473503
 20
8.5596482192
 30
0.0
 10
13.821561607
 20
8.5753089124
 30
0.0
 10
13.8186271406
 20
8.5873452304
 30
0.0
 10
13.8163860261
 20
8.5960103387
 30
0.0
 10
13.8140792459
 20
8.6044179425
 30
0.0
 10
13.8117079785
 20
8.6125636715
 30
0.0
 10
13.8092735172
 20
8.6204432933
 30
0.0
 10
13.8067770663
 20
8.6280526992
 30
0.0
 10
13.8042199806
 20
8.6353879461
 30
0.0
 10
13.8016035843
 20
8.6424452276
 30
0.0
 10
13.7989291982
 20
8.6492208738
 30
0.0
 10
13.7961982802
 20
8.6557113976
 30
0.0
 10
13.793412177
 20
8.6619134269
 30
0.0
 10
13.7905723534
 20
8.6678237711
 30
0.0
 10
13.7876802906
 20
8.6734394012
 30
0.0
 10
13.7847373899
 20
8.6787574031
 30
0.0
 10
13.7817452189
 20
8.6837750888
 30
0.0
 10
13.7787052211
 20
8.6884898725
 30
0.0
 10
13.7756188901
 20
8.6928993388
 30
0.0
 10
13.7724877843
 20
8.6970012738
 30
0.0
 10
13.7693133055
 20
8.7007935112
 30
0.0
 10
13.7660970084
 20
8.7042741336
 30
0.0
 10
13.7628403416
 20
8.7074412905
 30
0.0
 10
13.7595447259
 20
8.7102931991
 30
0.0
 10
13.7562117064
 20
8.7128283004
 30
0.0
 10
13.7528426977
 20
8.7150449253
 30
0.0
 10
13.7494393031
 20
8.7169415988
 30
0.0
 10
13.7460032042
 20
8.7185168997
 30
0.0
 10
13.7425362002
 20
8.7197693526
 30
0.0
 10
13.7390403904
 20
8.7206978913
 30
0.0
 10
13.7355180326
 20
8.7213014635
 30
0.0
 10
13.731971499
 20
8.7215794439
 30
0.0
 10
13.728403678
 20
8.7215317563
 30
0.0
 10
13.7260304143
 20
8.7212847101
 30
0.0
 10
13.7248457431
 20
8.7211090907
 30
0.0
  0
SPLINE
  5
34A
100
AcDbEntity
  8
0
100
AcDbSpline
 62
7
  6
CONTINUOUS
 70
0
 71
3
 72
47
 73
43
 74
0
 42
0.0000001
 43
0.0000001
 44
0.0000000001
 40
0.0
 40
0.0
 40
0.0
 40
0.0
 40
0.0116642051
 40
0.0236790784
 40
0.0360377926
 40
0.0487330952
 40
0.0617571776
 40
0.0751018379
 40
0.0887584154
 40
0.1027178717
 40
0.1315069851
 40
0.161390243
 40
0.1922832381
 40
0.2240971357
 40
0.2567391883
 40
0.2901132173
 40
0.324120073
 40
0.3586580784
 40
0.3936234619
 40
0.4289107833
 40
0.464413354
 40
0.5000236558
 40
0.5356337556
 40
0.5711357215
 40
0.6064220372
 40
0.6413860185
 40
0.6759222303
 40
0.7099269085
 40
0.7432983844
 40
0.775937519
 40
0.8077481456
 40
0.83863753
 40
0.868516853
 40
0.8973017248
 40
0.9112589479
 40
0.9249132302
 40
0.9382555219
 40
0.9512771799
 40
0.9639699912
 40
0.9763261645
 40
0.9883384381
 40
1.0
 40
1.0
 40
1.0
 40
1.0
 10
13.5541917239
 20
7.6554242858
 30
0.0
 10
13.5555220843
 20
7.6587522886
 30
0.0
 10
13.5581642869
 20
7.6655318704
 30
0.0
 10
13.5620191018
 20
7.6759130165
 30
0.0
 10
13.5658218203
 20
7.6866500709
 30
0.0
 10
13.5695692825
 20
7.6977343451
 30
0.0
 10
13.5732585108
 20
7.709156903
 30
0.0
 10
13.5768864724
 20
7.7209085268
 30
0.0
 10
13.5804502734
 20
7.7329797388
 30
0.0
 10
13.5851609216
 20
7.7496592324
 30
0.0
 10
13.5908581569
 20
7.7712393648
 30
0.0
 10
13.5973262232
 20
7.7979910537
 30
0.0
 10
13.6034728396
 20
7.8257710276
 30
0.0
 10
13.6092780303
 20
7.8544895474
 30
0.0
 10
13.6147229211
 20
7.8840539533
 30
0.0
 10
13.6197898241
 20
7.9143687773
 30
0.0
 10
13.6244622861
 20
7.9453361138
 30
0.0
 10
13.628725143
 20
7.9768559271
 30
0.0
 10
13.6325645674
 20
8.0088263829
 30
0.0
 10
13.6359681122
 20
8.0411441796
 30
0.0
 10
13.6389247506
 20
8.073704886
 30
0.0
 10
13.6414249114
 20
8.1064032806
 30
0.0
 10
13.6434605094
 20
8.1391336939
 30
0.0
 10
13.6450249718
 20
8.1717903527
 30
0.0
 10
13.6461132597
 20
8.2042677228
 30
0.0
 10
13.6467218847
 20
8.2364608536
 30
0.0
 10
13.6468489214
 20
8.2682657184
 30
0.0
 10
13.6464940138
 20
8.2995795544
 30
0.0
 10
13.6456583781
 20
8.3303011971
 30
0.0
 10
13.6443448013
 20
8.3603314149
 30
0.0
 10
13.6425576297
 20
8.3895732209
 30
0.0
 10
13.6403027721
 20
8.4179322474
 30
0.0
 10
13.6375876304
 20
8.4453168677
 30
0.0
 10
13.6349223697
 20
8.4674734528
 30
0.0
 10
13.6325580743
 20
8.484640643
 30
0.0
 10
13.6306938524
 20
8.4970859704
 30
0.0
 10
13.6287219705
 20
8.5092235519
 30
0.0
 10
13.6266440081
 20
8.5210436019
 30
0.0
 10
13.6244616763
 20
8.532536575
 30
0.0
 10
13.6221767114
 20
8.5436932111
 30
0.0
 10
13.6197910264
 20
8.554504471
 30
0.0
 10
13.6181094448
 20
8.5615820984
 30
0.0
 10
13.6172509566
 20
8.565060983
 30
0.0
  0
SPLINE
  5
34B
100
AcDbEntity
  8
0
100
AcDbSpline
 62
7
  6
CONTINUOUS
 70
0
 71
3
 72
23
 73
19
 74
0
 42
0.0000001
 43
0.0000001
 44
0.0000000001
 40
0.0
 40
0.0
 40
0.0
 40
0.0
 40
0.0616482008
 40
0.1233194316
 40
0.1850364675
 40
0.2468215573
 40
0.3086962009
 40
0.3706809199
 40
0.43279501
 40
0.4950563329
 40
0.5574811898
 40
0.6200840976
 40
0.6828775607
 40
0.7458724522
 40
0.8090769387
 40
0.8724963729
 40
0.9361396553
 40
1.0
 40
1.0
 40
1.0
 40
1.0
 10
13.1020342905
 20
9.5758040481
 30
0.0
 10
13.0988809048
 20
9.57275813
 30
0.0
 10
13.0924076959
 20
9.5668336166
 30
0.0
 10
13.0822323959
 20
9.5584797642
 30
0.0
 10
13.0716152253
 20
9.5506781156
 30
0.0
 10
13.0605833135
 20
9.5434486617
 30
0.0
 10
13.0491643979
 20
9.5368094607
 30
0.0
 10
13.0373872666
 20
9.5307772637
 30
0.0
 10
13.0252815678
 20
9.5253672917
 30
0.0
 10
13.0128778377
 20
9.5205930838
 30
0.0
 10
13.0002073227
 20
9.5164666278
 30
0.0
 10
12.9873019241
 20
9.5129983546
 30
0.0
 10
12.9741941513
 20
9.5101969108
 30
0.0
 10
12.9609170103
 20
9.508069308
 30
0.0
 10
12.9475040243
 20
9.5066209051
 30
0.0
 10
12.933988587
 20
9.5058552354
 30
0.0
 10
12.9204054875
 20
9.5057743569
 30
0.0
 10
12.9113422491
 20
9.5061762459
 30
0.0
 10
12.906811582
 20
9.5064904487
 30
0.0
  0
SPLINE
  5
34C
100
AcDbEntity
  8
0
100
AcDbSpline
 62
7
  6
CONTINUOUS
 70
0
 71
3
 72
15
 73
11
 74
0
 42
0.0000001
 43
0.0000001
 44
0.0000000001
 40
0.0
 40
0.0
 40
0.0
 40
0.0
 40
0.1227231608
 40
0.2473803337
 40
0.3733361569
 40
0.4999467885
 40
0.6265641298
 40
0.7525400321
 40
0.8772305123
 40
1.0
 40
1.0
 40
1.0
 40
1.0
 10
13.5434673454
 20
7.9637969084
 30
0.0
 10
13.5452311936
 20
7.9758379497
 30
0.0
 10
13.5485410551
 20
8.0001464028
 30
0.0
 10
13.5528265456
 20
8.0369206314
 30
0.0
 10
13.5564564606
 20
8.0741527749
 30
0.0
 10
13.5594109022
 20
8.1116395061
 30
0.0
 10
13.5616737306
 20
8.1491763289
 30
0.0
 10
13.5632326193
 20
8.1865584701
 30
0.0
 10
13.5640791243
 20
8.223581772
 30
0.0
 10
13.5641663866
 20
8.2481222664
 30
0.0
 10
13.5640865471
 20
8.260296144
 30
0.0
  0
SPLINE
  5
34D
100
AcDbEntity
  8
0
100
AcDbSpline
 62
7
  6
CONTINUOUS
 70
0
 71
3
 72
60
 73
56
 74
0
 42
0.0000001
 43
0.0000001
 44
0.0000000001
 40
0.0
 40
0.0
 40
0.0
 40
0.0
 40
0.0155851342
 40
0.0311191084
 40
0.0465997883
 40
0.0620297683
 40
0.077410896
 40
0.0927451922
 40
0.1080354886
 40
0.1232850091
 40
0.1384973525
 40
0.153676528
 40
0.1688268976
 40
0.1839531135
 40
0.1990600876
 40
0.2141529418
 40
0.22923694
 40
0.2443174441
 40
0.2593998578
 40
0.2744895565
 40
0.2895918417
 40
0.3047118844
 40
0.3198546584
 40
0.3350249022
 40
0.3502270679
 40
0.3654652633
 40
0.3807432305
 40
0.3960643007
 40
0.4114313545
 40
0.4268468176
 40
0.4423126243
 40
0.4578302014
 40
0.4734004782
 40
0.4890238596
 40
0.5047002375
 40
0.5204290076
 40
0.5362090556
 40
0.5520387942
 40
0.5679161787
 40
0.5838387132
 40
0.5998035021
 40
0.6158072639
 40
0.63184636
 40
0.6479168487
 40
0.6801262879
 40
0.712407754
 40
0.7447222536
 40
0.777029645
 40
0.8092900327
 40
0.8414651608
 40
0.8735197587
 40
0.9054228156
 40
0.9371488263
 40
0.9686781997
 40
1.0
 40
1.0
 40
1.0
 40
1.0
 10
9.2304976868
 20
6.7100838771
 30
0.0
 10
9.2304976868
 20
6.713428328
 30
0.0
 10
9.2306614216
 20
6.7201074349
 30
0.0
 10
9.2314001883
 20
6.7300839808
 30
0.0
 10
9.2326302875
 20
6.7399786711
 30
0.0
 10
9.2343486432
 20
6.7497670177
 30
0.0
 10
9.2365510534
 20
6.7594257777
 30
0.0
 10
9.2392323673
 20
6.7689315927
 30
0.0
 10
9.2423861209
 20
6.7782615142
 30
0.0
 10
9.2460046446
 20
6.7873930957
 30
0.0
 10
9.250079346
 20
6.7963042729
 30
0.0
 10
9.2546003738
 20
6.8049735628
 30
0.0
 10
9.2595567914
 20
6.8133800868
 30
0.0
 10
9.2649367646
 20
6.8215035018
 30
0.0
 10
9.2707272482
 20
6.8293242572
 30
0.0
 10
9.2769142836
 20
6.836823494
 30
0.0
 10
9.2834830293
 20
6.843983052
 30
0.0
 10
9.2904175539
 20
6.8507857398
 30
0.0
 10
9.2977011707
 20
6.8572151171
 30
0.0
 10
9.3053163408
 20
6.8632556338
 30
0.0
 10
9.3132446221
 20
6.8688928164
 30
0.0
 10
9.3214669449
 20
6.8741130015
 30
0.0
 10
9.3299634638
 20
6.8789036117
 30
0.0
 10
9.3387136435
 20
6.8832531836
 30
0.0
 10
9.3476964296
 20
6.8871511382
 30
0.0
 10
9.3568901249
 20
6.8905881523
 30
0.0
 10
9.3662725496
 20
6.8935559975
 30
0.0
 10
9.3758211118
 20
6.8960474291
 30
0.0
 10
9.3855127602
 20
6.8980565679
 30
0.0
 10
9.3953241418
 20
6.8995785792
 30
0.0
 10
9.4052316174
 20
6.9006097375
 30
0.0
 10
9.4152112995
 20
6.9011477017
 30
0.0
 10
9.425239151
 20
6.9011911326
 30
0.0
 10
9.4352910092
 20
6.9007399214
 30
0.0
 10
9.4453426696
 20
6.8997952815
 30
0.0
 10
9.4553699165
 20
6.8983594084
 30
0.0
 10
9.465348603
 20
6.8964358129
 30
0.0
 10
9.4752547196
 20
6.894029212
 30
0.0
 10
9.4850643897
 20
6.8911453065
 30
0.0
 10
9.4947540133
 20
6.8877911404
 30
0.0
 10
9.5043002929
 20
6.8839748071
 30
0.0
 10
9.513680148
 20
6.8797054592
 30
0.0
 10
9.5228712788
 20
6.8749933258
 30
0.0
 10
9.5348517732
 20
6.8681314545
 30
0.0
 10
9.5492435692
 20
6.8585047902
 30
0.0
 10
9.5653991721
 20
6.8454003727
 30
0.0
 10
9.5803037309
 20
6.8308575844
 30
0.0
 10
9.5938131461
 20
6.8150166008
 30
0.0
 10
9.6057979189
 20
6.7980292562
 30
0.0
 10
9.6161428119
 20
6.7800586169
 30
0.0
 10
9.6247482701
 20
6.7612770235
 30
0.0
 10
9.6315312488
 20
6.7418648467
 30
0.0
 10
9.6364260391
 20
6.7220077958
 30
0.0
 10
9.6393852261
 20
6.7018990761
 30
0.0
 10
9.6400502614
 20
6.6884027289
 30
0.0
 10
9.6400502614
 20
6.6816813096
 30
0.0
  0
SPLINE
  5
34E
100
AcDbEntity
  8
0
100
AcDbSpline
 62
7
  6
CONTINUOUS
 70
0
 71
3
 72
39
 73
35
 74
0
 42
0.0000001
 43
0.0000001
 44
0.0000000001
 40
0.0
 40
0.0
 40
0.0
 40
0.0
 40
0.0311449443
 40
0.0624431435
 40
0.0938883559
 40
0.1254710082
 40
0.1571789104
 40
0.1889972915
 40
0.2209092118
 40
0.2528958851
 40
0.2849370693
 40
0.3170114641
 40
0.3490971276
 40
0.381171901
 40
0.4132138351
 40
0.4452016153
 40
0.4771149773
 40
0.5089351086
 40
0.5406450291
 40
0.5722299455
 40
0.6036775713
 40
0.6349784071
 40
0.6661259735
 40
0.6971169887
 40
0.7279514858
 40
0.7586328627
 40
0.7891678581
 40
0.8195664525
 40
0.8498416892
 40
0.8800094177
 40
0.9100879614
 40
0.9400977171
 40
0.9700606929
 40
1.0
 40
1.0
 40
1.0
 40
1.0
 10
8.3167318659
 20
6.2006597257
 30
0.0
 10
8.3101039182
 20
6.2011193754
 30
0.0
 10
8.2968441219
 20
6.2025260813
 30
0.0
 10
8.2771151878
 20
6.2060695945
 30
0.0
 10
8.2575975559
 20
6.2110330216
 30
0.0
 10
8.23839667
 20
6.217389644
 30
0.0
 10
8.2196145159
 20
6.2251054002
 30
0.0
 10
8.2013512874
 20
6.2341390184
 30
0.0
 10
8.1837042759
 20
6.24444222
 30
0.0
 10
8.1667675154
 20
6.2559599942
 30
0.0
 10
8.1506312454
 20
6.2686308816
 30
0.0
 10
8.1353814472
 20
6.2823873029
 30
0.0
 10
8.1210993874
 20
6.2971559155
 30
0.0
 10
8.1078611907
 20
6.312858001
 30
0.0
 10
8.0957374378
 20
6.3294098809
 30
0.0
 10
8.084792792
 20
6.3467233575
 30
0.0
 10
8.0750856581
 20
6.3647061792
 30
0.0
 10
8.066667872
 20
6.3832625258
 30
0.0
 10
8.0595844259
 20
6.4022935133
 30
0.0
 10
8.0538732281
 20
6.4216977136
 30
0.0
 10
8.0495648989
 20
6.4413716881
 30
0.0
 10
8.0466826046
 20
6.4612105318
 30
0.0
 10
8.045241929
 20
6.4811084247
 30
0.0
 10
8.0452507829
 20
6.5009591897
 30
0.0
 10
8.0467093534
 20
6.5206568533
 30
0.0
 10
8.0496100924
 20
6.5400962065
 30
0.0
 10
8.0539377432
 20
6.5591733644
 30
0.0
 10
8.0596694122
 20
6.5777863242
 30
0.0
 10
8.0667746674
 20
6.5958355051
 30
0.0
 10
8.0752157243
 20
6.6132243219
 30
0.0
 10
8.0849475063
 20
6.6298595888
 30
0.0
 10
8.095918364
 20
6.6456524901
 30
0.0
 10
8.1080685405
 20
6.6605173653
 30
0.0
 10
8.1169154954
 20
6.6697593631
 30
0.0
 10
8.1215091574
 20
6.6741964728
 30
0.0
  0
SPLINE
  5
34F
100
AcDbEntity
  8
0
100
AcDbSpline
 62
7
  6
CONTINUOUS
 70
0
 71
3
 72
23
 73
19
 74
0
 42
0.0000001
 43
0.0000001
 44
0.0000000001
 40
0.0
 40
0.0
 40
0.0
 40
0.0
 40
0.0616482008
 40
0.1233194316
 40
0.1850364675
 40
0.2468215573
 40
0.3086962009
 40
0.3706809199
 40
0.43279501
 40
0.4950563329
 40
0.5574811898
 40
0.6200840976
 40
0.6828775607
 40
0.7458724522
 40
0.8090769387
 40
0.8724963729
 40
0.9361396553
 40
1.0
 40
1.0
 40
1.0
 40
1.0
 10
8.5119545744
 20
6.269973325
 30
0.0
 10
8.5088011888
 20
6.266927407
 30
0.0
 10
8.5023279798
 20
6.2610028936
 30
0.0
 10
8.4921526798
 20
6.2526490411
 30
0.0
 10
8.4815355093
 20
6.2448473925
 30
0.0
 10
8.4705035974
 20
6.2376179387
 30
0.0
 10
8.4590846818
 20
6.2309787377
 30
0.0
 10
8.4473075505
 20
6.2249465406
 30
0.0
 10
8.4352018518
 20
6.2195365686
 30
0.0
 10
8.4227981217
 20
6.2147623607
 30
0.0
 10
8.4101276066
 20
6.2106359048
 30
0.0
 10
8.397222208
 20
6.2071676315
 30
0.0
 10
8.3841144353
 20
6.2043661878
 30
0.0
 10
8.3708372943
 20
6.202238585
 30
0.0
 10
8.3574243082
 20
6.2007901821
 30
0.0
 10
8.343908871
 20
6.2000245124
 30
0.0
 10
8.3303257714
 20
6.1999436338
 30
0.0
 10
8.3212625331
 20
6.2003455228
 30
0.0
 10
8.3167318659
 20
6.2006597257
 30
0.0
  0
SPLINE
  5
350
100
AcDbEntity
  8
0
100
AcDbSpline
 62
7
  6
CONTINUOUS
 70
0
 71
3
 72
40
 73
36
 74
0
 42
0.0000001
 43
0.0000001
 44
0.0000000001
 40
0.0
 40
0.0
 40
0.0
 40
0.0
 40
0.0299423244
 40
0.0599090252
 40
0.0899238851
 40
0.1200095184
 40
0.1501868317
 40
0.1804745387
 40
0.2108887385
 40
0.2414425702
 40
0.2721459482
 40
0.3030053829
 40
0.3340238852
 40
0.3652009527
 40
0.3965326343
 40
0.4280116653
 40
0.4596276675
 40
0.491367407
 40
0.5232151004
 40
0.5551527638
 40
0.5871605953
 40
0.6192173855
 40
0.6513009483
 40
0.6833885653
 40
0.7154574382
 40
0.7314802218
 40
0.7474899727
 40
0.7794549014
 40
0.811336703
 40
0.8431167159
 40
0.8747782922
 40
0.9063073791
 40
0.9376922159
 40
0.9689251615
 40
1.0
 40
1.0
 40
1.0
 40
1.0
 10
9.5039280239
 20
9.6686035719
 30
0.0
 10
9.5011243726
 20
9.6658954482
 30
0.0
 10
9.4952966045
 20
9.6606977658
 30
0.0
 10
9.4859596208
 20
9.653616835
 30
0.0
 10
9.4760750206
 20
9.6472869438
 30
0.0
 10
9.4656980364
 20
9.6417435991
 30
0.0
 10
9.454885719
 20
9.6370170872
 30
0.0
 10
9.44369774
 20
9.6331333905
 30
0.0
 10
9.4321957518
 20
9.6301137601
 30
0.0
 10
9.4204431226
 20
9.6279746832
 30
0.0
 10
9.4085045612
 20
9.6267277771
 30
0.0
 10
9.3964457637
 20
9.6263797444
 30
0.0
 10
9.3843330506
 20
9.6269323421
 30
0.0
 10
9.3722330045
 20
9.628382381
 30
0.0
 10
9.3602121075
 20
9.6307217499
 30
0.0
 10
9.3483363803
 20
9.6339374657
 30
0.0
 10
9.3366710247
 20
9.6380117492
 30
0.0
 10
9.3252800706
 20
9.6429221251
 30
0.0
 10
9.3142260294
 20
9.6486415478
 30
0.0
 10
9.3035695577
 20
9.6551385481
 30
0.0
 10
9.2933691218
 20
9.662377415
 30
0.0
 10
9.2836807067
 20
9.6703183551
 30
0.0
 10
9.2745574177
 20
9.6789178419
 30
0.0
 10
9.2660495374
 20
9.6881283523
 30
0.0
 10
9.259508627
 20
9.6962744253
 30
0.0
 10
9.2546284771
 20
9.703045432
 30
0.0
 10
9.2499939
 20
9.7099705498
 30
0.0
 10
9.2446654166
 20
9.7189078022
 30
0.0
 10
9.2390481715
 20
9.7300286472
 30
0.0
 10
9.2342410827
 20
9.7414805308
 30
0.0
 10
9.2302708121
 20
9.7532003237
 30
0.0
 10
9.2271592568
 20
9.765123697
 30
0.0
 10
9.2249235368
 20
9.7771854574
 30
0.0
 10
9.2235761895
 20
9.7893184222
 30
0.0
 10
9.2232743849
 20
9.7974329832
 30
0.0
 10
9.2232743849
 20
9.8014784167
 30
0.0
  0
SPLINE
  5
351
100
AcDbEntity
  8
0
100
AcDbSpline
 62
7
  6
CONTINUOUS
 70
0
 71
3
 72
40
 73
36
 74
0
 42
0.0000001
 43
0.0000001
 44
0.0000000001
 40
0.0
 40
0.0
 40
0.0
 40
0.0
 40
0.0299423244
 40
0.0599090252
 40
0.0899238851
 40
0.1200095184
 40
0.1501868317
 40
0.1804745387
 40
0.2108887385
 40
0.2414425702
 40
0.2721459482
 40
0.3030053829
 40
0.3340238852
 40
0.3652009527
 40
0.3965326343
 40
0.4280116653
 40
0.4596276675
 40
0.491367407
 40
0.5232151004
 40
0.5551527638
 40
0.5871605953
 40
0.6192173855
 40
0.6513009483
 40
0.6833885653
 40
0.7154574382
 40
0.7314802218
 40
0.7474899727
 40
0.7794549014
 40
0.811336703
 40
0.8431167159
 40
0.8747782922
 40
0.9063073791
 40
0.9376922159
 40
0.9689251615
 40
1.0
 40
1.0
 40
1.0
 40
1.0
 10
11.9786301725
 20
9.496982395
 30
0.0
 10
11.9758265212
 20
9.4942742713
 30
0.0
 10
11.9699987531
 20
9.4890765889
 30
0.0
 10
11.9606617693
 20
9.4819956581
 30
0.0
 10
11.9507771691
 20
9.4756657669
 30
0.0
 10
11.940400185
 20
9.4701224222
 30
0.0
 10
11.9295878676
 20
9.4653959103
 30
0.0
 10
11.9183998886
 20
9.4615122136
 30
0.0
 10
11.9068979004
 20
9.4584925832
 30
0.0
 10
11.8951452711
 20
9.4563535063
 30
0.0
 10
11.8832067098
 20
9.4551066002
 30
0.0
 10
11.8711479123
 20
9.4547585675
 30
0.0
 10
11.8590351992
 20
9.4553111652
 30
0.0
 10
11.8469351531
 20
9.4567612041
 30
0.0
 10
11.8349142561
 20
9.459100573
 30
0.0
 10
11.8230385289
 20
9.4623162888
 30
0.0
 10
11.8113731733
 20
9.4663905723
 30
0.0
 10
11.7999822192
 20
9.4713009482
 30
0.0
 10
11.788928178
 20
9.4770203709
 30
0.0
 10
11.7782717063
 20
9.4835173712
 30
0.0
 10
11.7680712704
 20
9.490756238
 30
0.0
 10
11.7583828553
 20
9.4986971782
 30
0.0
 10
11.7492595663
 20
9.507296665
 30
0.0
 10
11.740751686
 20
9.5165071754
 30
0.0
 10
11.7342107756
 20
9.5246532484
 30
0.0
 10
11.7293306257
 20
9.5314242551
 30
0.0
 10
11.7246960486
 20
9.5383493729
 30
0.0
 10
11.7193675652
 20
9.5472866253
 30
0.0
 10
11.7137503201
 20
9.5584074703
 30
0.0
 10
11.7089432313
 20
9.5698593538
 30
0.0
 10
11.7049729607
 20
9.5815791468
 30
0.0
 10
11.7018614054
 20
9.5935025201
 30
0.0
 10
11.6996256854
 20
9.6055642805
 30
0.0
 10
11.6982783381
 20
9.6176972452
 30
0.0
 10
11.6979765335
 20
9.6258118063
 30
0.0
 10
11.6979765335
 20
9.6298572398
 30
0.0
  0
SPLINE
  5
352
100
AcDbEntity
  8
0
100
AcDbSpline
 62
7
  6
CONTINUOUS
 70
0
 71
3
 72
40
 73
36
 74
0
 42
0.0000001
 43
0.0000001
 44
0.0000000001
 40
0.0
 40
0.0
 40
0.0
 40
0.0
 40
0.0299423244
 40
0.0599090252
 40
0.0899238851
 40
0.1200095184
 40
0.1501868317
 40
0.1804745387
 40
0.2108887385
 40
0.2414425702
 40
0.2721459482
 40
0.3030053829
 40
0.3340238852
 40
0.3652009527
 40
0.3965326343
 40
0.4280116653
 40
0.4596276675
 40
0.491367407
 40
0.5232151004
 40
0.5551527638
 40
0.5871605953
 40
0.6192173855
 40
0.6513009483
 40
0.6833885653
 40
0.7154574382
 40
0.7314802218
 40
0.7474899727
 40
0.7794549014
 40
0.811336703
 40
0.8431167159
 40
0.8747782922
 40
0.9063073791
 40
0.9376922159
 40
0.9689251615
 40
1.0
 40
1.0
 40
1.0
 40
1.0
 10
9.5638153485
 20
6.585078575
 30
0.0
 10
9.5610116973
 20
6.5823704513
 30
0.0
 10
9.5551839292
 20
6.5771727689
 30
0.0
 10
9.5458469454
 20
6.5700918381
 30
0.0
 10
9.5359623452
 20
6.5637619469
 30
0.0
 10
9.525585361
 20
6.5582186023
 30
0.0
 10
9.5147730436
 20
6.5534920903
 30
0.0
 10
9.5035850647
 20
6.5496083936
 30
0.0
 10
9.4920830764
 20
6.5465887633
 30
0.0
 10
9.4803304472
 20
6.5444496863
 30
0.0
 10
9.4683918858
 20
6.5432027803
 30
0.0
 10
9.4563330883
 20
6.5428547476
 30
0.0
 10
9.4442203752
 20
6.5434073452
 30
0.0
 10
9.4321203291
 20
6.5448573841
 30
0.0
 10
9.4200994321
 20
6.547196753
 30
0.0
 10
9.4082237049
 20
6.5504124688
 30
0.0
 10
9.3965583493
 20
6.5544867523
 30
0.0
 10
9.3851673952
 20
6.5593971282
 30
0.0
 10
9.3741133541
 20
6.565116551
 30
0.0
 10
9.3634568823
 20
6.5716135512
 30
0.0
 10
9.3532564465
 20
6.5788524181
 30
0.0
 10
9.3435680313
 20
6.5867933582
 30
0.0
 10
9.3344447423
 20
6.595392845
 30
0.0
 10
9.325936862
 20
6.6046033554
 30
0.0
 10
9.3193959517
 20
6.6127494285
 30
0.0
 10
9.3145158018
 20
6.6195204351
 30
0.0
 10
9.3098812246
 20
6.6264455529
 30
0.0
 10
9.3045527412
 20
6.6353828053
 30
0.0
 10
9.2989354961
 20
6.6465036503
 30
0.0
 10
9.2941284073
 20
6.6579555339
 30
0.0
 10
9.2901581367
 20
6.6696753268
 30
0.0
 10
9.2870465814
 20
6.6815987001
 30
0.0
 10
9.2848108614
 20
6.6936604605
 30
0.0
 10
9.2834635141
 20
6.7057934253
 30
0.0
 10
9.2831617095
 20
6.7139079863
 30
0.0
 10
9.2831617095
 20
6.7179534198
 30
0.0
  0
SPLINE
  5
353
100
AcDbEntity
  8
0
100
AcDbSpline
 62
7
  6
CONTINUOUS
 70
0
 71
3
 72
40
 73
36
 74
0
 42
0.0000001
 43
0.0000001
 44
0.0000000001
 40
0.0
 40
0.0
 40
0.0
 40
0.0
 40
0.0299423244
 40
0.0599090252
 40
0.0899238851
 40
0.1200095184
 40
0.1501868317
 40
0.1804745387
 40
0.2108887385
 40
0.2414425702
 40
0.2721459482
 40
0.3030053829
 40
0.3340238852
 40
0.3652009527
 40
0.3965326343
 40
0.4280116653
 40
0.4596276675
 40
0.491367407
 40
0.5232151004
 40
0.5551527638
 40
0.5871605953
 40
0.6192173855
 40
0.6513009483
 40
0.6833885653
 40
0.7154574382
 40
0.7314802218
 40
0.7474899727
 40
0.7794549014
 40
0.811336703
 40
0.8431167159
 40
0.8747782922
 40
0.9063073791
 40
0.9376922159
 40
0.9689251615
 40
1.0
 40
1.0
 40
1.0
 40
1.0
 10
11.9187425024
 20
6.4217638222
 30
0.0
 10
11.9159388511
 20
6.4190556985
 30
0.0
 10
11.9101110831
 20
6.4138580161
 30
0.0
 10
11.9007740993
 20
6.4067770853
 30
0.0
 10
11.8908894991
 20
6.4004471941
 30
0.0
 10
11.8805125149
 20
6.3949038494
 30
0.0
 10
11.8697001975
 20
6.3901773375
 30
0.0
 10
11.8585122185
 20
6.3862936408
 30
0.0
 10
11.8470102303
 20
6.3832740104
 30
0.0
 10
11.8352576011
 20
6.3811349335
 30
0.0
 10
11.8233190397
 20
6.3798880275
 30
0.0
 10
11.8112602422
 20
6.3795399947
 30
0.0
 10
11.7991475291
 20
6.3800925924
 30
0.0
 10
11.787047483
 20
6.3815426313
 30
0.0
 10
11.775026586
 20
6.3838820002
 30
0.0
 10
11.7631508588
 20
6.387097716
 30
0.0
 10
11.7514855032
 20
6.3911719995
 30
0.0
 10
11.7400945491
 20
6.3960823754
 30
0.0
 10
11.7290405079
 20
6.4018017981
 30
0.0
 10
11.7183840362
 20
6.4082987984
 30
0.0
 10
11.7081836003
 20
6.4155376653
 30
0.0
 10
11.6984951852
 20
6.4234786054
 30
0.0
 10
11.6893718962
 20
6.4320780922
 30
0.0
 10
11.6808640159
 20
6.4412886026
 30
0.0
 10
11.6743231055
 20
6.4494346756
 30
0.0
 10
11.6694429557
 20
6.4562056823
 30
0.0
 10
11.6648083785
 20
6.4631308001
 30
0.0
 10
11.6594798951
 20
6.4720680525
 30
0.0
 10
11.65386265
 20
6.4831888975
 30
0.0
 10
11.6490555612
 20
6.4946407811
 30
0.0
 10
11.6450852906
 20
6.506360574
 30
0.0
 10
11.6419737353
 20
6.5182839473
 30
0.0
 10
11.6397380153
 20
6.5303457077
 30
0.0
 10
11.638390668
 20
6.5424786725
 30
0.0
 10
11.6380888634
 20
6.5505932335
 30
0.0
 10
11.6380888634
 20
6.554638667
 30
0.0
  0
SPLINE
  5
354
100
AcDbEntity
  8
0
100
AcDbSpline
 62
7
  6
CONTINUOUS
 70
0
 71
3
 72
97
 73
93
 74
0
 42
0.0000001
 43
0.0000001
 44
0.0000000001
 40
0.0
 40
0.0
 40
0.0
 40
0.0
 40
0.002716409
 40
0.0054531944
 40
0.0082302424
 40
0.0110665189
 40
0.0139797038
 40
0.0169859958
 40
0.0200999376
 40
0.023334432
 40
0.0267007685
 40
0.0302086924
 40
0.033866589
 40
0.0376815271
 40
0.041659475
 40
0.0458053789
 40
0.0501232725
 40
0.054616442
 40
0.0592874183
 40
0.0641381615
 40
0.0691700565
 40
0.0743839913
 40
0.0797804526
 40
0.0853594768
 40
0.0911207988
 40
0.0970637941
 40
0.1031875495
 40
0.1094909084
 40
0.1159724158
 40
0.122630443
 40
0.129463104
 40
0.136468332
 40
0.1436438889
 40
0.1509873225
 40
0.1661671122
 40
0.1819854415
 40
0.1984175523
 40
0.2154366905
 40
0.2330142923
 40
0.2511201447
 40
0.269722526
 40
0.2887883488
 40
0.308283287
 40
0.3281718922
 40
0.3484177045
 40
0.3689833557
 40
0.3898306782
 40
0.4109208114
 40
0.4322143023
 40
0.4536712043
 40
0.4752511741
 40
0.4969135717
 40
0.5186175615
 40
0.5403222087
 40
0.5619865767
 40
0.5835698235
 40
0.6050313023
 40
0.6263306607
 40
0.6474279374
 40
0.6682836605
 40
0.6888589465
 40
0.7091156052
 40
0.7290162457
 40
0.7485243765
 40
0.7676045127
 40
0.786222287
 40
0.8043445696
 40
0.8219396007
 40
0.8389771171
 40
0.8554284968
 40
0.8712669207
 40
0.8864675598
 40
0.8938216867
 40
0.9010080866
 40
0.9080243257
 40
0.91486812
 40
0.9215374172
 40
0.9280303079
 40
0.9343451401
 40
0.9404804712
 40
0.9464350915
 40
0.9522081002
 40
0.9577988339
 40
0.9632070088
 40
0.968432666
 40
0.9734762247
 40
0.978338554
 40
0.9830209706
 40
0.9875254733
 40
0.991854655
 40
0.9960116086
 40
1.0
 40
1.0
 40
1.0
 40
1.0
 10
13.8083609465
 20
8.906710251
 30
0.0
 10
13.8098727109
 20
8.9066054045
 30
0.0
 10
13.8128998344
 20
8.9062580561
 30
0.0
 10
13.8174019824
 20
8.9053286688
 30
0.0
 10
13.8218701097
 20
8.903991022
 30
0.0
 10
13.8263010096
 20
8.9022463691
 30
0.0
 10
13.8306924397
 20
8.9000963626
 30
0.0
 10
13.8350420864
 20
8.8975425632
 30
0.0
 10
13.8393480007
 20
8.8945868887
 30
0.0
 10
13.8436082459
 20
8.8912311679
 30
0.0
 10
13.8478209564
 20
8.887477344
 30
0.0
 10
13.8519843867
 20
8.8833275315
 30
0.0
 10
13.8560966211
 20
8.8787838095
 30
0.0
 10
13.8601559282
 20
8.8738485598
 30
0.0
 10
13.8641604131
 20
8.8685241972
 30
0.0
 10
13.8681082284
 20
8.8628133598
 30
0.0
 10
13.8719975733
 20
8.8567188845
 30
0.0
 10
13.8758265044
 20
8.8502437261
 30
0.0
 10
13.8795932697
 20
8.84339112
 30
0.0
 10
13.8832959659
 20
8.8361644178
 30
0.0
 10
13.8869327967
 20
8.8285672061
 30
0.0
 10
13.8905019956
 20
8.8206032583
 30
0.0
 10
13.8940017204
 20
8.8122765102
 30
0.0
 10
13.897430312
 20
8.8035911296
 30
0.0
 10
13.9007859859
 20
8.7945514274
 30
0.0
 10
13.9040670964
 20
8.785161926
 30
0.0
 10
13.9072720071
 20
8.7754273176
 30
0.0
 10
13.910399057
 20
8.7653524639
 30
0.0
 10
13.9134467448
 20
8.7549424197
 30
0.0
 10
13.9164134671
 20
8.7442023912
 30
0.0
 10
13.9192977748
 20
8.7331377684
 30
0.0
 10
13.9220982032
 20
8.721754102
 30
0.0
 10
13.9248133285
 20
8.7100570904
 30
0.0
 10
13.9283570975
 20
8.6938721722
 30
0.0
 10
13.9325528543
 20
8.6728961069
 30
0.0
 10
13.9371728614
 20
8.6468408834
 30
0.0
 10
13.9414224309
 20
8.6196837068
 30
0.0
 10
13.9452929382
 20
8.5914791499
 30
0.0
 10
13.9487764943
 20
8.5622837599
 30
0.0
 10
13.9518660046
 20
8.5321561575
 30
0.0
 10
13.9545551847
 20
8.5011568537
 30
0.0
 10
13.9568385616
 20
8.4693481362
 30
0.0
 10
13.9587114841
 20
8.4367939303
 30
0.0
 10
13.960170132
 20
8.4035596697
 30
0.0
 10
13.9612115213
 20
8.3697121663
 30
0.0
 10
13.9618335204
 20
8.3353194763
 30
0.0
 10
13.9620348504
 20
8.3004507601
 30
0.0
 10
13.9618150796
 20
8.2651761384
 30
0.0
 10
13.9611746267
 20
8.22956655
 30
0.0
 10
13.9601147579
 20
8.1936936105
 30
0.0
 10
13.9586375883
 20
8.1576294693
 30
0.0
 10
13.9567460847
 20
8.1214466619
 30
0.0
 10
13.9544440476
 20
8.0852179629
 30
0.0
 10
13.951736105
 20
8.0490162385
 30
0.0
 10
13.948627703
 20
8.0129143012
 30
0.0
 10
13.9451250939
 20
7.9769847634
 30
0.0
 10
13.9412353358
 20
7.9412998878
 30
0.0
 10
13.9369662684
 20
7.9059314418
 30
0.0
 10
13.9323264957
 20
7.8709505536
 30
0.0
 10
13.9273253698
 20
7.8364275707
 30
0.0
 10
13.9219729702
 20
7.802431917
 30
0.0
 10
13.9162800922
 20
7.7690319485
 30
0.0
 10
13.9102582255
 20
7.7362948123
 30
0.0
 10
13.903919523
 20
7.7042863143
 30
0.0
 10
13.8972767786
 20
7.6730707878
 30
0.0
 10
13.8903434014
 20
7.6427109623
 30
0.0
 10
13.8831333889
 20
7.6132678301
 30
0.0
 10
13.8756613115
 20
7.5848005103
 30
0.0
 10
13.8679422679
 20
7.5573661465
 30
0.0
 10
13.859991858
 20
7.5310197306
 30
0.0
 10
13.8518261465
 20
7.5058141996
 30
0.0
 10
13.8447804005
 20
7.485585753
 30
0.0
 10
13.8390404741
 20
7.4700182496
 30
0.0
 10
13.8347394259
 20
7.4587875183
 30
0.0
 10
13.8303970456
 20
7.4478785421
 30
0.0
 10
13.8260154492
 20
7.4372967973
 30
0.0
 10
13.8215969133
 20
7.4270475766
 30
0.0
 10
13.8171435954
 20
7.4171360324
 30
0.0
 10
13.8126577733
 20
7.4075671196
 30
0.0
 10
13.8081416998
 20
7.3983456265
 30
0.0
 10
13.8035976012
 20
7.3894761809
 30
0.0
 10
13.7990278261
 20
7.3809631912
 30
0.0
 10
13.7944345866
 20
7.3728109327
 30
0.0
 10
13.7898202289
 20
7.3650234437
 30
0.0
 10
13.78518703
 20
7.3576046047
 30
0.0
 10
13.7805372709
 20
7.3505581279
 30
0.0
 10
13.7758733416
 20
7.3438874857
 30
0.0
 10
13.7711974407
 20
7.3375960047
 30
0.0
 10
13.7665118676
 20
7.3316867111
 30
0.0
 10
13.7618187852
 20
7.3261625044
 30
0.0
 10
13.75712073
 20
7.3210263838
 30
0.0
 10
13.7539218098
 20
7.3177969519
 30
0.0
 10
13.7523214733
 20
7.3162511454
 30
0.0
  0
SPLINE
  5
355
100
AcDbEntity
  8
0
100
AcDbSpline
 62
7
  6
CONTINUOUS
 70
0
 71
3
 72
37
 73
33
 74
0
 42
0.0000001
 43
0.0000001
 44
0.0000000001
 40
0.0
 40
0.0
 40
0.0
 40
0.0
 40
0.0311191577
 40
0.0621654222
 40
0.0931451528
 40
0.1240648366
 40
0.1549310088
 40
0.1857504564
 40
0.2165300695
 40
0.2472770298
 40
0.3086869855
 40
0.3700587396
 40
0.4007606588
 40
0.4314802612
 40
0.4622275557
 40
0.4930131841
 40
0.5238485858
 40
0.5547457514
 40
0.5857171269
 40
0.6167757229
 40
0.6479349034
 40
0.6792080579
 40
0.7106081557
 40
0.7421472507
 40
0.7738358323
 40
0.8056819909
 40
0.8376904884
 40
0.8698618481
 40
0.9021914587
 40
0.9346692958
 40
0.9672789942
 40
1.0
 40
1.0
 40
1.0
 40
1.0
 10
10.3681501099
 20
8.9679746244
 30
0.0
 10
10.36973344
 20
8.9730180619
 30
0.0
 10
10.3731248234
 20
8.9830230143
 30
0.0
 10
10.3788725659
 20
8.9977697946
 30
0.0
 10
10.3852568344
 20
9.0122156242
 30
0.0
 10
10.3922605867
 20
9.0263371856
 30
0.0
 10
10.3998679761
 20
9.0401118703
 30
0.0
 10
10.408064159
 20
9.0535165813
 30
0.0
 10
10.4168355507
 20
9.0665281737
 30
0.0
 10
10.4292726093
 20
9.0833107997
 30
0.0
 10
10.4462020398
 20
9.1031985469
 30
0.0
 10
10.4648898489
 20
9.1214374699
 30
0.0
 10
10.4808286952
 20
9.1349030681
 30
0.0
 10
10.4932734027
 20
9.1444142455
 30
0.0
 10
10.5061906833
 20
9.1532981467
 30
0.0
 10
10.5195649292
 20
9.1615164991
 30
0.0
 10
10.5333780671
 20
9.1690279718
 30
0.0
 10
10.5476093957
 20
9.1757884211
 30
0.0
 10
10.5622346683
 20
9.1817507982
 30
0.0
 10
10.5772252714
 20
9.186865341
 30
0.0
 10
10.5925472769
 20
9.1910798396
 30
0.0
 10
10.6081603484
 20
9.1943401769
 30
0.0
 10
10.6240165918
 20
9.1965912216
 30
0.0
 10
10.6400594424
 20
9.1977781343
 30
0.0
 10
10.6562226913
 20
9.1978481258
 30
0.0
 10
10.6724297946
 20
9.1967527265
 30
0.0
 10
10.6885936698
 20
9.1944505604
 30
0.0
 10
10.7046172443
 20
9.190910421
 30
0.0
 10
10.7203948365
 20
9.186114636
 30
0.0
 10
10.7358150265
 20
9.1800616311
 30
0.0
 10
10.7507625812
 20
9.1727695562
 30
0.0
 10
10.7603267077
 20
9.1671130745
 30
0.0
 10
10.7649939979
 20
9.1640947356
 30
0.0
  0
SPLINE
  5
356
100
AcDbEntity
  8
0
100
AcDbSpline
 62
7
  6
CONTINUOUS
 70
0
 71
3
 72
23
 73
19
 74
0
 42
0.0000001
 43
0.0000001
 44
0.0000000001
 40
0.0
 40
0.0
 40
0.0
 40
0.0
 40
0.061648222
 40
0.1233194599
 40
0.1850364872
 40
0.2468215826
 40
0.3086962191
 40
0.3706809311
 40
0.4327950059
 40
0.4950563306
 40
0.5574812037
 40
0.620083994
 40
0.682877569
 40
0.7458727056
 40
0.8090763209
 40
0.8724960975
 40
0.9361416631
 40
1.0
 40
1.0
 40
1.0
 40
1.0
 10
11.9584701127
 20
8.9218234594
 30
0.0
 10
11.9567194609
 20
8.9201324447
 30
0.0
 10
11.9531258187
 20
8.9168432387
 30
0.0
 10
11.9474768192
 20
8.9122054095
 30
0.0
 10
11.9415825692
 20
8.907874064
 30
0.0
 10
11.9354580272
 20
8.9038604283
 30
0.0
 10
11.9291186269
 20
8.9001744887
 30
0.0
 10
11.9225803636
 20
8.8968255157
 30
0.0
 10
11.9158596636
 20
8.8938220308
 30
0.0
 10
11.9089735232
 20
8.8911714487
 30
0.0
 10
11.9019392473
 20
8.8888805486
 30
0.0
 10
11.8947745749
 20
8.8869550261
 30
0.0
 10
11.8874975439
 20
8.8853996701
 30
0.0
 10
11.8801264928
 20
8.8842185325
 30
0.0
 10
11.872680032
 20
8.8834143435
 30
0.0
 10
11.8651766018
 20
8.8829892473
 30
0.0
 10
11.8576356541
 20
8.8829443944
 30
0.0
 10
11.8526040076
 20
8.8831674727
 30
0.0
 10
11.8500887981
 20
8.8833419031
 30
0.0
  0
SPLINE
  5
357
100
AcDbEntity
  8
0
100
AcDbSpline
 62
7
  6
CONTINUOUS
 70
0
 71
3
 72
29
 73
25
 74
0
 42
0.0000001
 43
0.0000001
 44
0.0000000001
 40
0.0
 40
0.0
 40
0.0
 40
0.0
 40
0.0222195472
 40
0.0454013838
 40
0.0695205013
 40
0.0945493594
 40
0.1204576992
 40
0.1472131349
 40
0.1747811384
 40
0.2031252187
 40
0.2322072504
 40
0.2619873075
 40
0.2924241423
 40
0.3234750015
 40
0.3872407635
 40
0.452920954
 40
0.5201356869
 40
0.5884932779
 40
0.6575933765
 40
0.7270300501
 40
0.7963948524
 40
0.8652798788
 40
0.9332808146
 40
1.0
 40
1.0
 40
1.0
 40
1.0
 10
11.4029035268
 20
7.9587032335
 30
0.0
 10
11.4041285689
 20
7.961624491
 30
0.0
 10
11.4065547787
 20
7.9676260158
 30
0.0
 10
11.4100562362
 20
7.976898887
 30
0.0
 10
11.4134928241
 20
7.9866218388
 30
0.0
 10
11.4168590221
 20
7.9967796259
 30
0.0
 10
11.4201495997
 20
8.0073563871
 30
0.0
 10
11.4233593391
 20
8.018335576
 30
0.0
 10
11.426483185
 20
8.0297000097
 30
0.0
 10
11.4295162494
 20
8.0414318871
 30
0.0
 10
11.4324537035
 20
8.0535128344
 30
0.0
 10
11.4352909788
 20
8.0659239098
 30
0.0
 10
11.4380235776
 20
8.0786456763
 30
0.0
 10
11.4415529101
 20
8.0961505464
 30
0.0
 10
11.4456630171
 20
8.1186619238
 30
0.0
 10
11.4500718279
 20
8.1463522135
 30
0.0
 10
11.453971937
 20
8.1747795819
 30
0.0
 10
11.4573387458
 20
8.2037657924
 30
0.0
 10
11.460151014
 20
8.2331292283
 30
0.0
 10
11.4623910457
 20
8.262685832
 30
0.0
 10
11.4640447851
 20
8.2922503154
 30
0.0
 10
11.4651019026
 20
8.3216374028
 30
0.0
 10
11.4655558633
 20
8.3506627043
 30
0.0
 10
11.4654534281
 20
8.3698705213
 30
0.0
 10
11.4652971608
 20
8.3793810401
 30
0.0
  0
SPLINE
  5
358
100
AcDbEntity
  8
0
100
AcDbSpline
 62
7
  6
CONTINUOUS
 70
0
 71
3
 72
60
 73
56
 74
0
 42
0.0000001
 43
0.0000001
 44
0.0000000001
 40
0.0
 40
0.0
 40
0.0
 40
0.0
 40
0.0155851342
 40
0.0311191084
 40
0.0465997883
 40
0.0620297683
 40
0.077410896
 40
0.0927451922
 40
0.1080354886
 40
0.1232850091
 40
0.1384973525
 40
0.153676528
 40
0.1688268976
 40
0.1839531135
 40
0.1990600876
 40
0.2141529418
 40
0.22923694
 40
0.2443174441
 40
0.2593998578
 40
0.2744895565
 40
0.2895918417
 40
0.3047118844
 40
0.3198546584
 40
0.3350249022
 40
0.3502270679
 40
0.3654652633
 40
0.3807432305
 40
0.3960643007
 40
0.4114313545
 40
0.4268468176
 40
0.4423126243
 40
0.4578302014
 40
0.4734004782
 40
0.4890238596
 40
0.5047002375
 40
0.5204290076
 40
0.5362090556
 40
0.5520387942
 40
0.5679161787
 40
0.5838387132
 40
0.5998035021
 40
0.6158072639
 40
0.63184636
 40
0.6479168487
 40
0.6801262879
 40
0.712407754
 40
0.7447222536
 40
0.777029645
 40
0.8092900327
 40
0.8414651608
 40
0.8735197587
 40
0.9054228156
 40
0.9371488263
 40
0.9686781997
 40
1.0
 40
1.0
 40
1.0
 40
1.0
 10
9.6400502614
 20
6.6816813096
 30
0.0
 10
9.6400502614
 20
6.6783368588
 30
0.0
 10
9.6398865266
 20
6.6716577518
 30
0.0
 10
9.6391477599
 20
6.661681206
 30
0.0
 10
9.6379176607
 20
6.6517865156
 30
0.0
 10
9.636199305
 20
6.641998169
 30
0.0
 10
9.6339968948
 20
6.632339409
 30
0.0
 10
9.6313155809
 20
6.6228335941
 30
0.0
 10
9.6281618273
 20
6.6135036725
 30
0.0
 10
9.6245433037
 20
6.6043720911
 30
0.0
 10
9.6204686022
 20
6.5954609138
 30
0.0
 10
9.6159475744
 20
6.5867916239
 30
0.0
 10
9.6109911568
 20
6.5783850999
 30
0.0
 10
9.6056111836
 20
6.570261685
 30
0.0
 10
9.5998207
 20
6.5624409295
 30
0.0
 10
9.5936336646
 20
6.5549416927
 30
0.0
 10
9.5870649189
 20
6.5477821347
 30
0.0
 10
9.5801303943
 20
6.540979447
 30
0.0
 10
9.5728467776
 20
6.5345500696
 30
0.0
 10
9.5652316074
 20
6.528509553
 30
0.0
 10
9.5573033261
 20
6.5228723703
 30
0.0
 10
9.5490810033
 20
6.5176521852
 30
0.0
 10
9.5405844844
 20
6.5128615751
 30
0.0
 10
9.5318343047
 20
6.5085120032
 30
0.0
 10
9.5228515187
 20
6.5046140485
 30
0.0
 10
9.5136578233
 20
6.5011770344
 30
0.0
 10
9.5042753987
 20
6.4982091893
 30
0.0
 10
9.4947268364
 20
6.4957177576
 30
0.0
 10
9.485035188
 20
6.4937086189
 30
0.0
 10
9.4752238064
 20
6.4921866075
 30
0.0
 10
9.4653163308
 20
6.4911554492
 30
0.0
 10
9.4553366488
 20
6.4906174851
 30
0.0
 10
9.4453087972
 20
6.4905740541
 30
0.0
 10
9.435256939
 20
6.4910252653
 30
0.0
 10
9.4252052786
 20
6.4919699053
 30
0.0
 10
9.4151780317
 20
6.4934057783
 30
0.0
 10
9.4051993452
 20
6.4953293738
 30
0.0
 10
9.3952932286
 20
6.4977359747
 30
0.0
 10
9.3854835585
 20
6.5006198802
 30
0.0
 10
9.3757939349
 20
6.5039740463
 30
0.0
 10
9.3662476553
 20
6.5077903796
 30
0.0
 10
9.3568678002
 20
6.5120597275
 30
0.0
 10
9.3476766694
 20
6.516771861
 30
0.0
 10
9.335696175
 20
6.5236337322
 30
0.0
 10
9.321304379
 20
6.5332603965
 30
0.0
 10
9.3051487761
 20
6.5463648141
 30
0.0
 10
9.2902442174
 20
6.5609076024
 30
0.0
 10
9.2767348021
 20
6.576748586
 30
0.0
 10
9.2647500293
 20
6.5937359305
 30
0.0
 10
9.2544051363
 20
6.6117065698
 30
0.0
 10
9.2457996781
 20
6.6304881633
 30
0.0
 10
9.2390166994
 20
6.64990034
 30
0.0
 10
9.2341219091
 20
6.6697573909
 30
0.0
 10
9.2311627221
 20
6.6898661107
 30
0.0
 10
9.2304976868
 20
6.7033624578
 30
0.0
 10
9.2304976868
 20
6.7100838771
 30
0.0
  0
SPLINE
  5
359
100
AcDbEntity
  8
0
100
AcDbSpline
 62
7
  6
CONTINUOUS
 70
0
 71
3
 72
56
 73
52
 74
0
 42
0.0000001
 43
0.0000001
 44
0.0000000001
 40
0.0
 40
0.0
 40
0.0
 40
0.0
 40
0.0159348127
 40
0.0319118275
 40
0.0479276311
 40
0.0639784653
 40
0.0961607999
 40
0.1284330997
 40
0.1607594519
 40
0.1931037005
 40
0.225430727
 40
0.2577075034
 40
0.289903828
 40
0.3219928855
 40
0.353951651
 40
0.3857611734
 40
0.4174067577
 40
0.448878085
 40
0.4801693218
 40
0.5112792194
 40
0.5422112066
 40
0.5576164893
 40
0.5729807891
 40
0.58830588
 40
0.6035938553
 40
0.6188470679
 40
0.6340682165
 40
0.6492602433
 40
0.6644263921
 40
0.6795701943
 40
0.6946953832
 40
0.7098059967
 40
0.7249062317
 40
0.7400004855
 40
0.755093349
 40
0.77018946
 40
0.7852935971
 40
0.8004105514
 40
0.815545062
 40
0.8307018611
 40
0.8458855008
 40
0.8611003535
 40
0.8763505918
 40
0.8916400358
 40
0.9069721577
 40
0.9223500523
 40
0.9377764081
 40
0.9532531715
 40
0.9687818753
 40
0.984364853
 40
1.0
 40
1.0
 40
1.0
 40
1.0
 10
11.3425377237
 20
7.9455368104
 30
0.0
 10
11.3388715019
 20
7.9467067126
 30
0.0
 10
11.3315837375
 20
7.9492240935
 30
0.0
 10
11.3208288853
 20
7.9535137372
 30
0.0
 10
11.3102589273
 20
7.9583099325
 30
0.0
 10
11.296434766
 20
7.965366431
 30
0.0
 10
11.2797373713
 20
7.9753831954
 30
0.0
 10
11.2608226877
 20
7.9891647539
 30
0.0
 10
11.2431574552
 20
8.004574722
 30
0.0
 10
11.2268753985
 20
8.021456242
 30
0.0
 10
11.2120904479
 20
8.0396468965
 30
0.0
 10
11.1988994823
 20
8.0589804612
 30
0.0
 10
11.1873831455
 20
8.0792893358
 30
0.0
 10
11.1776074084
 20
8.1004059817
 30
0.0
 10
11.1696249865
 20
8.1221639392
 30
0.0
 10
11.1634766955
 20
8.1443983463
 30
0.0
 10
11.1591926487
 20
8.1669461444
 30
0.0
 10
11.1567932152
 20
8.1896458298
 30
0.0
 10
11.1562898147
 20
8.2123376116
 30
0.0
 10
11.1576848767
 20
8.234861176
 30
0.0
 10
11.1604293153
 20
8.2533881446
 30
0.0
 10
11.1635662914
 20
8.2679594978
 30
0.0
 10
11.1663825435
 20
8.2787333774
 30
0.0
 10
11.1696618173
 20
8.2893456674
 30
0.0
 10
11.1734002103
 20
8.2997766776
 30
0.0
 10
11.1775929371
 20
8.3100064367
 30
0.0
 10
11.1822347205
 20
8.3200149569
 30
0.0
 10
11.187319371
 20
8.3297822941
 30
0.0
 10
11.1928399708
 20
8.3392885048
 30
0.0
 10
11.1987888352
 20
8.3485136319
 30
0.0
 10
11.2051572349
 20
8.3574379094
 30
0.0
 10
11.2119357008
 20
8.36604155
 30
0.0
 10
11.2191136595
 20
8.3743050266
 30
0.0
 10
11.2266795286
 20
8.3822090438
 30
0.0
 10
11.2346207735
 20
8.3897344788
 30
0.0
 10
11.2429235894
 20
8.3968627613
 30
0.0
 10
11.2515731658
 20
8.4035756399
 30
0.0
 10
11.2605535125
 20
8.4098554216
 30
0.0
 10
11.2698473772
 20
8.4156852066
 30
0.0
 10
11.2794364535
 20
8.4210486569
 30
0.0
 10
11.2893011751
 20
8.4259304406
 30
0.0
 10
11.2994208128
 20
8.4303162651
 30
0.0
 10
11.3097736001
 20
8.4341927548
 30
0.0
 10
11.3203366128
 20
8.4375479615
 30
0.0
 10
11.3310859484
 20
8.4403712517
 30
0.0
 10
11.3419968392
 20
8.4426532832
 30
0.0
 10
11.3530436132
 20
8.4443864429
 30
0.0
 10
11.3641998512
 20
8.4455647527
 30
0.0
 10
11.3754389841
 20
8.4461837992
 30
0.0
 10
11.3867329388
 20
8.4462409351
 30
0.0
 10
11.3942684519
 20
8.4459046369
 30
0.0
 10
11.3980353904
 20
8.4456433988
 30
0.0
  0
SPLINE
  5
35A
100
AcDbEntity
  8
0
100
AcDbSpline
 62
7
  6
CONTINUOUS
 70
0
 71
3
 72
60
 73
56
 74
0
 42
0.0000001
 43
0.0000001
 44
0.0000000001
 40
0.0
 40
0.0
 40
0.0
 40
0.0
 40
0.0155851342
 40
0.0311191084
 40
0.0465997883
 40
0.0620297683
 40
0.077410896
 40
0.0927451922
 40
0.1080354886
 40
0.1232850091
 40
0.1384973525
 40
0.153676528
 40
0.1688268976
 40
0.1839531135
 40
0.1990600876
 40
0.2141529418
 40
0.22923694
 40
0.2443174441
 40
0.2593998578
 40
0.2744895565
 40
0.2895918417
 40
0.3047118844
 40
0.3198546584
 40
0.3350249022
 40
0.3502270679
 40
0.3654652633
 40
0.3807432305
 40
0.3960643007
 40
0.4114313545
 40
0.4268468176
 40
0.4423126243
 40
0.4578302014
 40
0.4734004782
 40
0.4890238596
 40
0.5047002375
 40
0.5204290076
 40
0.5362090556
 40
0.5520387942
 40
0.5679161787
 40
0.5838387132
 40
0.5998035021
 40
0.6158072639
 40
0.63184636
 40
0.6479168487
 40
0.6801262879
 40
0.712407754
 40
0.7447222536
 40
0.777029645
 40
0.8092900327
 40
0.8414651608
 40
0.8735197587
 40
0.9054228156
 40
0.9371488263
 40
0.9686781997
 40
1.0
 40
1.0
 40
1.0
 40
1.0
 10
11.5854248407
 20
6.5467691243
 30
0.0
 10
11.5854248407
 20
6.5501135752
 30
0.0
 10
11.5855885754
 20
6.5567926821
 30
0.0
 10
11.5863273422
 20
6.566769228
 30
0.0
 10
11.5875574414
 20
6.5766639183
 30
0.0
 10
11.5892757971
 20
6.5864522649
 30
0.0
 10
11.5914782072
 20
6.5961110249
 30
0.0
 10
11.5941595212
 20
6.6056168398
 30
0.0
 10
11.5973132748
 20
6.6149467614
 30
0.0
 10
11.6009317984
 20
6.6240783429
 30
0.0
 10
11.6050064999
 20
6.6329895201
 30
0.0
 10
11.6095275277
 20
6.64165881
 30
0.0
 10
11.6144839453
 20
6.650065334
 30
0.0
 10
11.6198639185
 20
6.658188749
 30
0.0
 10
11.6256544021
 20
6.6660095044
 30
0.0
 10
11.6318414375
 20
6.6735087412
 30
0.0
 10
11.6384101832
 20
6.6806682992
 30
0.0
 10
11.6453447078
 20
6.687470987
 30
0.0
 10
11.6526283245
 20
6.6939003643
 30
0.0
 10
11.6602434947
 20
6.699940881
 30
0.0
 10
11.668171776
 20
6.7055780636
 30
0.0
 10
11.6763940988
 20
6.7107982487
 30
0.0
 10
11.6848906177
 20
6.7155888588
 30
0.0
 10
11.6936407974
 20
6.7199384307
 30
0.0
 10
11.7026235834
 20
6.7238363854
 30
0.0
 10
11.7118172788
 20
6.7272733995
 30
0.0
 10
11.7211997034
 20
6.7302412447
 30
0.0
 10
11.7307482657
 20
6.7327326763
 30
0.0
 10
11.7404399141
 20
6.7347418151
 30
0.0
 10
11.7502512957
 20
6.7362638264
 30
0.0
 10
11.7601587713
 20
6.7372949847
 30
0.0
 10
11.7701384533
 20
6.7378329488
 30
0.0
 10
11.7801663049
 20
6.7378763798
 30
0.0
 10
11.7902181631
 20
6.7374251686
 30
0.0
 10
11.8002698235
 20
6.7364805287
 30
0.0
 10
11.8102970703
 20
6.7350446556
 30
0.0
 10
11.8202757569
 20
6.7331210601
 30
0.0
 10
11.8301818735
 20
6.7307144592
 30
0.0
 10
11.8399915436
 20
6.7278305537
 30
0.0
 10
11.8496811672
 20
6.7244763876
 30
0.0
 10
11.8592274468
 20
6.7206600543
 30
0.0
 10
11.8686073019
 20
6.7163907064
 30
0.0
 10
11.8777984326
 20
6.711678573
 30
0.0
 10
11.8897789271
 20
6.7048167017
 30
0.0
 10
11.9041707231
 20
6.6951900374
 30
0.0
 10
11.920326326
 20
6.6820856199
 30
0.0
 10
11.9352308847
 20
6.6675428315
 30
0.0
 10
11.9487403
 20
6.6517018479
 30
0.0
 10
11.9607250728
 20
6.6347145034
 30
0.0
 10
11.9710699658
 20
6.6167438641
 30
0.0
 10
11.9796754239
 20
6.5979622707
 30
0.0
 10
11.9864584027
 20
6.5785500939
 30
0.0
 10
11.991353193
 20
6.558693043
 30
0.0
 10
11.9943123799
 20
6.5385843233
 30
0.0
 10
11.9949774153
 20
6.5250879761
 30
0.0
 10
11.9949774153
 20
6.5183665568
 30
0.0
  0
SPLINE
  5
35B
100
AcDbEntity
  8
0
100
AcDbSpline
 62
7
  6
CONTINUOUS
 70
0
 71
3
 72
45
 73
41
 74
0
 42
0.0000001
 43
0.0000001
 44
0.0000000001
 40
0.0
 40
0.0
 40
0.0
 40
0.0
 40
0.0628958661
 40
0.0944793587
 40
0.126132365
 40
0.1578448301
 40
0.1896069021
 40
0.2214089824
 40
0.2532416521
 40
0.2850955067
 40
0.3169611599
 40
0.3488291971
 40
0.3806899947
 40
0.4125336836
 40
0.4443501416
 40
0.4761288323
 40
0.507858674
 40
0.5395280864
 40
0.5711249727
 40
0.6026367028
 40
0.6340501254
 40
0.6653517361
 40
0.6965279994
 40
0.7275657885
 40
0.7430313576
 40
0.7584581437
 40
0.7891847887
 40
0.8197439346
 40
0.8349632781
 40
0.8501404933
 40
0.8652763758
 40
0.8803719647
 40
0.8954290651
 40
0.9104497597
 40
0.9254368779
 40
0.9403937753
 40
0.9553239066
 40
0.9702317305
 40
0.9851230819
 40
1.0
 40
1.0
 40
1.0
 40
1.0
 10
10.6003290445
 20
7.3208135145
 30
0.0
 10
10.5882908164
 20
7.32477009
 30
0.0
 10
10.5705134075
 20
7.3316996671
 30
0.0
 10
10.5475893625
 20
7.3426804535
 30
0.0
 10
10.5307516106
 20
7.3517767521
 30
0.0
 10
10.5143338285
 20
7.3616779749
 30
0.0
 10
10.4983675186
 20
7.3723460834
 30
0.0
 10
10.4828847772
 20
7.3837450809
 30
0.0
 10
10.467916948
 20
7.3958415358
 30
0.0
 10
10.4534956706
 20
7.40860389
 30
0.0
 10
10.4396532331
 20
7.4220021189
 30
0.0
 10
10.4264231302
 20
7.4360073443
 30
0.0
 10
10.4138405322
 20
7.4505913948
 30
0.0
 10
10.4019426639
 20
7.4657262588
 30
0.0
 10
10.3907692374
 20
7.4813835659
 30
0.0
 10
10.3803629315
 20
7.4975340042
 30
0.0
 10
10.3707697916
 20
7.5141466009
 30
0.0
 10
10.3620395537
 20
7.5311878982
 30
0.0
 10
10.3542259819
 20
7.5486210414
 30
0.0
 10
10.347387121
 20
7.5664046941
 30
0.0
 10
10.3415854156
 20
7.5844916805
 30
0.0
 10
10.3368875527
 20
7.6028277869
 30
0.0
 10
10.3333640808
 20
7.6213491084
 30
0.0
 10
10.3314652213
 20
7.6368972746
 30
0.0
 10
10.3306099388
 20
7.6493475182
 30
0.0
 10
10.3302094913
 20
7.6617579337
 30
0.0
 10
10.3305781666
 20
7.6772249873
 30
0.0
 10
10.3321715366
 20
7.6925749019
 30
0.0
 10
10.3342119123
 20
7.7046883639
 30
0.0
 10
10.336127775
 20
7.7136627306
 30
0.0
 10
10.3384364877
 20
7.7225184112
 30
0.0
 10
10.3411416663
 20
7.7312360006
 30
0.0
 10
10.3442459205
 20
7.7397950584
 30
0.0
 10
10.3477498089
 20
7.7481749021
 30
0.0
 10
10.3516522282
 20
7.7563545277
 30
0.0
 10
10.3559502642
 20
7.7643127854
 30
0.0
 10
10.3606384394
 20
7.7720290505
 30
0.0
 10
10.3657099087
 20
7.7794832068
 30
0.0
 10
10.3711549167
 20
7.7866553261
 30
0.0
 10
10.3750279079
 20
7.7912388271
 30
0.0
 10
10.3770217636
 20
7.7934767374
 30
0.0
  0
SPLINE
  5
35C
100
AcDbEntity
  8
0
100
AcDbSpline
 62
7
  6
CONTINUOUS
 70
0
 71
3
 72
60
 73
56
 74
0
 42
0.0000001
 43
0.0000001
 44
0.0000000001
 40
0.0
 40
0.0
 40
0.0
 40
0.0
 40
0.0155851342
 40
0.0311191084
 40
0.0465997883
 40
0.0620297683
 40
0.077410896
 40
0.0927451922
 40
0.1080354886
 40
0.1232850091
 40
0.1384973525
 40
0.153676528
 40
0.1688268976
 40
0.1839531135
 40
0.1990600876
 40
0.2141529418
 40
0.22923694
 40
0.2443174441
 40
0.2593998578
 40
0.2744895565
 40
0.2895918417
 40
0.3047118844
 40
0.3198546584
 40
0.3350249022
 40
0.3502270679
 40
0.3654652633
 40
0.3807432305
 40
0.3960643007
 40
0.4114313545
 40
0.4268468176
 40
0.4423126243
 40
0.4578302014
 40
0.4734004782
 40
0.4890238596
 40
0.5047002375
 40
0.5204290076
 40
0.5362090556
 40
0.5520387942
 40
0.5679161787
 40
0.5838387132
 40
0.5998035021
 40
0.6158072639
 40
0.63184636
 40
0.6479168487
 40
0.6801262879
 40
0.712407754
 40
0.7447222536
 40
0.777029645
 40
0.8092900327
 40
0.8414651608
 40
0.8735197587
 40
0.9054228156
 40
0.9371488263
 40
0.9686781997
 40
1.0
 40
1.0
 40
1.0
 40
1.0
 10
11.9949774153
 20
6.5183665568
 30
0.0
 10
11.9949774153
 20
6.5150221059
 30
0.0
 10
11.9948136805
 20
6.508342999
 30
0.0
 10
11.9940749138
 20
6.4983664531
 30
0.0
 10
11.9928448145
 20
6.4884717628
 30
0.0
 10
11.9911264589
 20
6.4786834162
 30
0.0
 10
11.9889240487
 20
6.4690246562
 30
0.0
 10
11.9862427347
 20
6.4595188413
 30
0.0
 10
11.9830889812
 20
6.4501889197
 30
0.0
 10
11.9794704575
 20
6.4410573383
 30
0.0
 10
11.9753957561
 20
6.432146161
 30
0.0
 10
11.9708747283
 20
6.4234768711
 30
0.0
 10
11.9659183107
 20
6.4150703471
 30
0.0
 10
11.9605383375
 20
6.4069469321
 30
0.0
 10
11.9547478539
 20
6.3991261767
 30
0.0
 10
11.9485608185
 20
6.3916269399
 30
0.0
 10
11.9419920728
 20
6.3844673819
 30
0.0
 10
11.9350575482
 20
6.3776646941
 30
0.0
 10
11.9277739314
 20
6.3712353168
 30
0.0
 10
11.9201587613
 20
6.3651948002
 30
0.0
 10
11.91223048
 20
6.3595576175
 30
0.0
 10
11.9040081572
 20
6.3543374324
 30
0.0
 10
11.8955116382
 20
6.3495468223
 30
0.0
 10
11.8867614586
 20
6.3451972504
 30
0.0
 10
11.8777786725
 20
6.3412992957
 30
0.0
 10
11.8685849772
 20
6.3378622816
 30
0.0
 10
11.8592025525
 20
6.3348944365
 30
0.0
 10
11.8496539903
 20
6.3324030048
 30
0.0
 10
11.8399623419
 20
6.330393866
 30
0.0
 10
11.8301509603
 20
6.3288718547
 30
0.0
 10
11.8202434847
 20
6.3278406964
 30
0.0
 10
11.8102638026
 20
6.3273027323
 30
0.0
 10
11.8002359511
 20
6.3272593013
 30
0.0
 10
11.7901840929
 20
6.3277105125
 30
0.0
 10
11.7801324325
 20
6.3286551524
 30
0.0
 10
11.7701051856
 20
6.3300910255
 30
0.0
 10
11.760126499
 20
6.332014621
 30
0.0
 10
11.7502203825
 20
6.3344212219
 30
0.0
 10
11.7404107124
 20
6.3373051274
 30
0.0
 10
11.7307210887
 20
6.3406592935
 30
0.0
 10
11.7211748091
 20
6.3444756268
 30
0.0
 10
11.7117949541
 20
6.3487449747
 30
0.0
 10
11.7026038233
 20
6.3534571081
 30
0.0
 10
11.6906233289
 20
6.3603189794
 30
0.0
 10
11.6762315329
 20
6.3699456437
 30
0.0
 10
11.6600759299
 20
6.3830500613
 30
0.0
 10
11.6451713712
 20
6.3975928496
 30
0.0
 10
11.6316619559
 20
6.4134338332
 30
0.0
 10
11.6196771832
 20
6.4304211777
 30
0.0
 10
11.6093322902
 20
6.448391817
 30
0.0
 10
11.600726832
 20
6.4671734104
 30
0.0
 10
11.5939438533
 20
6.4865855872
 30
0.0
 10
11.589049063
 20
6.5064426381
 30
0.0
 10
11.586089876
 20
6.5265513578
 30
0.0
 10
11.5854248407
 20
6.540047705
 30
0.0
 10
11.5854248407
 20
6.5467691243
 30
0.0
  0
SPLINE
  5
35D
100
AcDbEntity
  8
0
100
AcDbSpline
 62
7
  6
CONTINUOUS
 70
0
 71
3
 72
32
 73
28
 74
0
 42
0.0000001
 43
0.0000001
 44
0.0000000001
 40
0.0
 40
0.0
 40
0.0
 40
0.0
 40
0.031829043
 40
0.0637035991
 40
0.0956063631
 40
0.1275271485
 40
0.1594524237
 40
0.1913698833
 40
0.2232680721
 40
0.2551360638
 40
0.286964355
 40
0.3187444877
 40
0.3504688743
 40
0.3821315969
 40
0.4137275316
 40
0.4452525155
 40
0.5080661102
 40
0.5705721493
 40
0.6017137584
 40
0.6327776512
 40
0.6946660455
 40
0.7562583671
 40
0.7869520792
 40
0.8175773741
 40
0.878623679
 40
0.9394245173
 40
1.0
 40
1.0
 40
1.0
 40
1.0
 10
10.7649939979
 20
9.1640947356
 30
0.0
 10
10.7681127246
 20
9.1620778535
 30
0.0
 10
10.7742480549
 20
9.1578736257
 30
0.0
 10
10.7831072406
 20
9.1510851138
 30
0.0
 10
10.7916049936
 20
9.1438324125
 30
0.0
 10
10.7997174874
 20
9.1361428979
 30
0.0
 10
10.8074248124
 20
9.1280451149
 30
0.0
 10
10.8147102933
 20
9.1195694998
 30
0.0
 10
10.8215606577
 20
9.1107471608
 30
0.0
 10
10.8279658802
 20
9.101609444
 30
0.0
 10
10.833919293
 20
9.0921876524
 30
0.0
 10
10.8394169869
 20
9.082512366
 30
0.0
 10
10.8444575996
 20
9.0726131507
 30
0.0
 10
10.8490422371
 20
9.0625185385
 30
0.0
 10
10.8531738132
 20
9.0522552811
 30
0.0
 10
10.8580780582
 20
9.0383988506
 30
0.0
 10
10.8631066422
 20
9.0207788732
 30
0.0
 10
10.8667181515
 20
9.0028631115
 30
0.0
 10
10.8687819302
 20
8.9884549609
 30
0.0
 10
10.8703053362
 20
8.9740521676
 30
0.0
 10
10.8712309794
 20
8.95602631
 30
0.0
 10
10.8709065441
 20
8.9380243527
 30
0.0
 10
10.8699291556
 20
8.9237131606
 30
0.0
 10
10.8684885041
 20
8.9095052674
 30
0.0
 10
10.8658361264
 20
8.8918989242
 30
0.0
 10
10.8613450334
 20
8.8710785789
 30
0.0
 10
10.8575105674
 20
8.8574335571
 30
0.0
 10
10.8553933956
 20
8.850689655
 30
0.0
  0
SPLINE
  5
35E
100
AcDbEntity
  8
0
100
AcDbSpline
 62
4
  6
CONTINUOUS
 70
0
 71
3
 72
343
 73
339
 74
0
 42
0.0000001
 43
0.0000001
 44
0.0000000001
 40
0.0
 40
0.0
 40
0.0
 40
0.0
 40
0.015625
 40
0.0234375
 40
0.03125
 40
0.0390625
 40
0.04296875
 40
0.046875
 40
0.05078125
 40
0.0546875
 40
0.056640625
 40
0.05859375
 40
0.0595703125
 40
0.060546875
 40
0.0615234375
 40
0.0620117188
 40
0.0622558594
 40
0.0625
 40
0.0627441406
 40
0.0629882812
 40
0.0634765625
 40
0.064453125
 40
0.0654296875
 40
0.06640625
 40
0.068359375
 40
0.0703125
 40
0.07421875
 40
0.078125
 40
0.08203125
 40
0.0859375
 40
0.09375
 40
0.1015625
 40
0.10546875
 40
0.109375
 40
0.11328125
 40
0.1171875
 40
0.119140625
 40
0.12109375
 40
0.1220703125
 40
0.123046875
 40
0.1240234375
 40
0.1245117188
 40
0.1247558594
 40
0.125
 40
0.1252441406
 40
0.1254882812
 40
0.1259765625
 40
0.126953125
 40
0.1279296875
 40
0.12890625
 40
0.130859375
 40
0.1328125
 40
0.13671875
 40
0.140625
 40
0.14453125
 40
0.1484375
 40
0.15625
 40
0.1640625
 40
0.16796875
 40
0.171875
 40
0.17578125
 40
0.1796875
 40
0.181640625
 40
0.18359375
 40
0.1845703125
 40
0.185546875
 40
0.1865234375
 40
0.1870117188
 40
0.1872558594
 40
0.1875
 40
0.1877441406
 40
0.1879882812
 40
0.1884765625
 40
0.189453125
 40
0.1904296875
 40
0.19140625
 40
0.193359375
 40
0.1953125
 40
0.19921875
 40
0.203125
 40
0.20703125
 40
0.2109375
 40
0.21875
 40
0.2265625
 40
0.23046875
 40
0.234375
 40
0.23828125
 40
0.2421875
 40
0.244140625
 40
0.24609375
 40
0.2470703125
 40
0.248046875
 40
0.2490234375
 40
0.2495117188
 40
0.2497558594
 40
0.25
 40
0.2502441406
 40
0.2504882812
 40
0.2509765625
 40
0.251953125
 40
0.2529296875
 40
0.25390625
 40
0.255859375
 40
0.2578125
 40
0.26171875
 40
0.265625
 40
0.26953125
 40
0.2734375
 40
0.28125
 40
0.2890625
 40
0.29296875
 40
0.296875
 40
0.30078125
 40
0.3046875
 40
0.306640625
 40
0.30859375
 40
0.3095703125
 40
0.310546875
 40
0.3115234375
 40
0.3120117188
 40
0.3122558594
 40
0.3125
 40
0.3127441406
 40
0.3129882812
 40
0.3134765625
 40
0.314453125
 40
0.3154296875
 40
0.31640625
 40
0.318359375
 40
0.3203125
 40
0.32421875
 40
0.328125
 40
0.33203125
 40
0.3359375
 40
0.34375
 40
0.3515625
 40
0.359375
 40
0.36328125
 40
0.3671875
 40
0.369140625
 40
0.37109375
 40
0.373046875
 40
0.3740234375
 40
0.3745117188
 40
0.375
 40
0.3754882812
 40
0.3759765625
 40
0.376953125
 40
0.37890625
 40
0.380859375
 40
0.3828125
 40
0.38671875
 40
0.390625
 40
0.3984375
 40
0.40625
 40
0.4140625
 40
0.421875
 40
0.42578125
 40
0.4296875
 40
0.431640625
 40
0.43359375
 40
0.435546875
 40
0.4365234375
 40
0.4370117188
 40
0.4375
 40
0.4379882812
 40
0.4384765625
 40
0.439453125
 40
0.44140625
 40
0.443359375
 40
0.4453125
 40
0.44921875
 40
0.453125
 40
0.4609375
 40
0.46875
 40
0.4765625
 40
0.484375
 40
0.48828125
 40
0.4921875
 40
0.49609375
 40
0.498046875
 40
0.4990234375
 40
0.5
 40
0.5009765625
 40
0.501953125
 40
0.50390625
 40
0.5078125
 40
0.51171875
 40
0.515625
 40
0.5234375
 40
0.53125
 40
0.5390625
 40
0.546875
 40
0.55078125
 40
0.5546875
 40
0.55859375
 40
0.560546875
 40
0.5615234375
 40
0.5625
 40
0.5634765625
 40
0.564453125
 40
0.56640625
 40
0.5703125
 40
0.57421875
 40
0.578125
 40
0.5859375
 40
0.59375
 40
0.6015625
 40
0.609375
 40
0.61328125
 40
0.6171875
 40
0.62109375
 40
0.623046875
 40
0.6240234375
 40
0.625
 40
0.6259765625
 40
0.626953125
 40
0.62890625
 40
0.6328125
 40
0.63671875
 40
0.640625
 40
0.6484375
 40
0.65625
 40
0.6640625
 40
0.671875
 40
0.67578125
 40
0.6796875
 40
0.681640625
 40
0.68359375
 40
0.685546875
 40
0.6865234375
 40
0.6875
 40
0.6884765625
 40
0.689453125
 40
0.69140625
 40
0.693359375
 40
0.6953125
 40
0.69921875
 40
0.703125
 40
0.7109375
 40
0.71875
 40
0.7265625
 40
0.734375
 40
0.73828125
 40
0.7421875
 40
0.744140625
 40
0.74609375
 40
0.748046875
 40
0.7490234375
 40
0.7495117188
 40
0.75
 40
0.7504882812
 40
0.7509765625
 40
0.751953125
 40
0.75390625
 40
0.755859375
 40
0.7578125
 40
0.76171875
 40
0.765625
 40
0.7734375
 40
0.78125
 40
0.7890625
 40
0.79296875
 40
0.796875
 40
0.80078125
 40
0.8046875
 40
0.806640625
 40
0.80859375
 40
0.810546875
 40
0.8115234375
 40
0.8120117188
 40
0.8125
 40
0.8129882812
 40
0.8134765625
 40
0.814453125
 40
0.81640625
 40
0.818359375
 40
0.8203125
 40
0.82421875
 40
0.828125
 40
0.83203125
 40
0.8359375
 40
0.84375
 40
0.8515625
 40
0.85546875
 40
0.859375
 40
0.86328125
 40
0.8671875
 40
0.869140625
 40
0.87109375
 40
0.8720703125
 40
0.873046875
 40
0.8740234375
 40
0.8745117188
 40
0.8747558594
 40
0.875
 40
0.8752441406
 40
0.8754882812
 40
0.8759765625
 40
0.876953125
 40
0.8779296875
 40
0.87890625
 40
0.880859375
 40
0.8828125
 40
0.88671875
 40
0.890625
 40
0.89453125
 40
0.8984375
 40
0.90625
 40
0.9140625
 40
0.91796875
 40
0.921875
 40
0.92578125
 40
0.9296875
 40
0.931640625
 40
0.93359375
 40
0.9345703125
 40
0.935546875
 40
0.9365234375
 40
0.9370117188
 40
0.9372558594
 40
0.9375
 40
0.9377441406
 40
0.9379882812
 40
0.9384765625
 40
0.939453125
 40
0.9404296875
 40
0.94140625
 40
0.943359375
 40
0.9453125
 40
0.94921875
 40
0.953125
 40
0.95703125
 40
0.9609375
 40
0.96875
 40
0.9765625
 40
0.984375
 40
1.0
 40
1.0
 40
1.0
 40
1.0
 10
9.9629918098
 20
10.9331416672
 30
0.0
 10
9.9619271648
 20
10.9314772012
 30
0.0
 10
9.9603301973
 20
10.9289805023
 30
0.0
 10
9.9582009073
 20
10.9256515704
 30
0.0
 10
9.9566039399
 20
10.9231548715
 30
0.0
 10
9.9552731333
 20
10.921074289
 30
0.0
 10
9.954208489
 20
10.919409823
 30
0.0
 10
9.9534100032
 20
10.9181614736
 30
0.0
 10
9.9526115272
 20
10.916913124
 30
0.0
 10
9.9519460999
 20
10.9158728332
 30
0.0
 10
9.9514138267
 20
10.9150405994
 30
0.0
 10
9.9510809998
 20
10.9145204559
 30
0.0
 10
9.9508150957
 20
10.914104335
 30
0.0
 10
9.9506146893
 20
10.9137922612
 30
0.0
 10
9.9504507961
 20
10.9135321461
 30
0.0
 10
9.9503299634
 20
10.9133501706
 30
0.0
 10
9.9502704523
 20
10.9132460206
 30
0.0
 10
9.9501989554
 20
10.9131683699
 30
0.0
 10
9.9502301449
 20
10.913088954
 30
0.0
 10
9.9502359128
 20
10.9129836819
 30
0.0
 10
9.9502626948
 20
10.9127991687
 30
0.0
 10
9.95029223
 20
10.9125357285
 30
0.0
 10
9.9503314068
 20
10.912219536
 30
0.0
 10
9.9503823381
 20
10.9117979685
 30
0.0
 10
9.9504464489
 20
10.9112710014
 30
0.0
 10
9.9505487765
 20
10.9104278584
 30
0.0
 10
9.9506767717
 20
10.9093739281
 30
0.0
 10
9.9508303292
 20
10.9081092124
 30
0.0
 10
9.9509838965
 20
10.9068444966
 30
0.0
 10
9.9511886494
 20
10.9051582088
 30
0.0
 10
9.9514445919
 20
10.9030503491
 30
0.0
 10
9.9517005336
 20
10.9009424894
 30
0.0
 10
9.9519052879
 20
10.8992562016
 30
0.0
 10
9.9520588511
 20
10.8979914857
 30
0.0
 10
9.952212424
 20
10.8967267702
 30
0.0
 10
9.9523403711
 20
10.8956728395
 30
0.0
 10
9.9524427968
 20
10.8948296973
 30
0.0
 10
9.9525066579
 20
10.8943027281
 30
0.0
 10
9.9525581018
 20
10.8938811648
 30
0.0
 10
9.9525957125
 20
10.8935649596
 30
0.0
 10
9.9526301477
 20
10.8933015592
 30
0.0
 10
9.9526481824
 20
10.8931169749
 30
0.0
 10
9.9526679656
 20
10.8930118168
 30
0.0
 10
9.9526561044
 20
10.8929320507
 30
0.0
 10
9.9527462988
 20
10.8928557152
 30
0.0
 10
9.9528309597
 20
10.8927527379
 30
0.0
 10
9.9529957023
 20
10.8925730852
 30
0.0
 10
9.9532223776
 20
10.8923161469
 30
0.0
 10
9.9534980995
 20
10.8920079458
 30
0.0
 10
9.9538644323
 20
10.8915969673
 30
0.0
 10
9.9543227922
 20
10.8910832592
 30
0.0
 10
9.9550559199
 20
10.8902613178
 30
0.0
 10
9.9559724147
 20
10.889233894
 30
0.0
 10
9.957072172
 20
10.8880009842
 30
0.0
 10
9.958171939
 20
10.8867680747
 30
0.0
 10
9.9596382916
 20
10.8851241953
 30
0.0
 10
9.9614712337
 20
10.883069346
 30
0.0
 10
9.9633041749
 20
10.8810144968
 30
0.0
 10
9.9647705288
 20
10.8793706174
 30
0.0
 10
9.9658702918
 20
10.8781377077
 30
0.0
 10
9.9669700645
 20
10.8769047986
 30
0.0
 10
9.9678865112
 20
10.8758773725
 30
0.0
 10
9.9686197369
 20
10.8750554359
 30
0.0
 10
9.9690778476
 20
10.8745417158
 30
0.0
 10
9.9694446919
 20
10.8741307619
 30
0.0
 10
9.9697188511
 20
10.8738224857
 30
0.0
 10
9.9699504156
 20
10.8735657822
 30
0.0
 10
9.97010643
 20
10.8733857104
 30
0.0
 10
9.9702050757
 20
10.8732834046
 30
0.0
 10
9.9702523135
 20
10.8732050063
 30
0.0
 10
9.97040179
 20
10.8731329877
 30
0.0
 10
9.97056543
 20
10.8730347375
 30
0.0
 10
9.9708684155
 20
10.8728638366
 30
0.0
 10
9.9712925652
 20
10.8726191503
 30
0.0
 10
9.9718052631
 20
10.8723257588
 30
0.0
 10
9.9724875615
 20
10.8719344891
 30
0.0
 10
9.9733408793
 20
10.8714454297
 30
0.0
 10
9.9747059391
 20
10.8706629192
 30
0.0
 10
9.9764123492
 20
10.8696847864
 30
0.0
 10
9.9784600047
 20
10.8685110247
 30
0.0
 10
9.98050767
 20
10.8673372637
 30
0.0
 10
9.983237887
 20
10.8657722487
 30
0.0
 10
9.9866506596
 20
10.8638159801
 30
0.0
 10
9.9900634313
 20
10.8618597113
 30
0.0
 10
9.9927936495
 20
10.8602946965
 30
0.0
 10
9.9948413111
 20
10.859120935
 30
0.0
 10
9.9968889808
 20
10.857947175
 30
0.0
 10
9.9985953467
 20
10.856969037
 30
0.0
 10
9.9999604968
 20
10.856186537
 30
0.0
 10
10.0008135848
 20
10.8556974508
 30
0.0
 10
10.0014963548
 20
10.8553062362
 30
0.0
 10
10.002007612
 20
10.8550126763
 30
0.0
 10
10.0024362691
 20
10.8547685168
 30
0.0
 10
10.0027312081
 20
10.8545966756
 30
0.0
 10
10.0029077407
 20
10.8544999321
 30
0.0
 10
10.0030176153
 20
10.8544232855
 30
0.0
 10
10.0032135911
 20
10.8543622689
 30
0.0
 10
10.0034448591
 20
10.8542754616
 30
0.0
 10
10.0038635711
 20
10.8541260889
 30
0.0
 10
10.0044544155
 20
10.8539113713
 30
0.0
 10
10.00516656
 20
10.8536542786
 30
0.0
 10
10.0061149923
 20
10.8533112898
 30
0.0
 10
10.0073009072
 20
10.8528826219
 30
0.0
 10
10.0091981618
 20
10.8521967151
 30
0.0
 10
10.0115698018
 20
10.8513393447
 30
0.0
 10
10.014415739
 20
10.8503104946
 30
0.0
 10
10.0172616844
 20
10.849281646
 30
0.0
 10
10.0210562755
 20
10.8479098473
 30
0.0
 10
10.0257995153
 20
10.8461950991
 30
0.0
 10
10.0305427545
 20
10.8444803509
 30
0.0
 10
10.0343373467
 20
10.8431085524
 30
0.0
 10
10.0371832888
 20
10.8420797032
 30
0.0
 10
10.0400292384
 20
10.8410508556
 30
0.0
 10
10.0424008399
 20
10.8401934773
 30
0.0
 10
10.0442981729
 20
10.8395075865
 30
0.0
 10
10.0454838883
 20
10.839078878
 30
0.0
 10
10.0464327301
 20
10.8387359723
 30
0.0
 10
10.0471436237
 20
10.8384786259
 30
0.0
 10
10.0477383818
 20
10.8382647022
 30
0.0
 10
10.048150107
 20
10.8381139122
 30
0.0
 10
10.0483925696
 20
10.8380293758
 30
0.0
 10
10.0485541594
 20
10.8379613836
 30
0.0
 10
10.0487931822
 20
10.8379109362
 30
0.0
 10
10.0490848698
 20
10.8378375531
 30
0.0
 10
10.0496079072
 20
10.8377119841
 30
0.0
 10
10.0503485244
 20
10.837531109
 30
0.0
 10
10.0512400812
 20
10.837314697
 30
0.0
 10
10.0524278399
 20
10.8370259248
 30
0.0
 10
10.0539128751
 20
10.8366650359
 30
0.0
 10
10.0562887432
 20
10.836087571
 30
0.0
 10
10.0592586428
 20
10.8353657545
 30
0.0
 10
10.0628224948
 20
10.8344995684
 30
0.0
 10
10.066386354
 20
10.833633384
 30
0.0
 10
10.0711381642
 20
10.8324784709
 30
0.0
 10
10.0770779251
 20
10.8310348289
 30
0.0
 10
10.0842056501
 20
10.8293024626
 30
0.0
 10
10.0901453835
 20
10.8278588113
 30
0.0
 10
10.0948972541
 20
10.8267039185
 30
0.0
 10
10.0978669824
 20
10.8259820464
 30
0.0
 10
10.100243202
 20
10.8254046956
 30
0.0
 10
10.1020241703
 20
10.8249712803
 30
0.0
 10
10.1035121165
 20
10.8246113801
 30
0.0
 10
10.1045462097
 20
10.8243569397
 30
0.0
 10
10.1051487826
 20
10.8242154648
 30
0.0
 10
10.1055678587
 20
10.824098317
 30
0.0
 10
10.1061125181
 20
10.8240233757
 30
0.0
 10
10.1067949257
 20
10.8239087318
 30
0.0
 10
10.1080095485
 20
10.8237149644
 30
0.0
 10
10.1097340537
 20
10.8234345677
 30
0.0
 10
10.1118080271
 20
10.8230996266
 30
0.0
 10
10.1145717297
 20
10.8226525023
 30
0.0
 10
10.1180269042
 20
10.8220937805
 30
0.0
 10
10.1235548781
 20
10.821199723
 30
0.0
 10
10.1304649508
 20
10.8200821866
 30
0.0
 10
10.1387569903
 20
10.8187411267
 30
0.0
 10
10.1470490523
 20
10.8174000752
 30
0.0
 10
10.1539590686
 20
10.8162825176
 30
0.0
 10
10.1594871554
 20
10.8153885026
 30
0.0
 10
10.1629420429
 20
10.8148296727
 30
0.0
 10
10.1657063347
 20
10.8143827704
 30
0.0
 10
10.1677785081
 20
10.8140471512
 30
0.0
 10
10.1695086449
 20
10.8137688761
 30
0.0
 10
10.1707132143
 20
10.8135713212
 30
0.0
 10
10.1714117299
 20
10.8134627458
 30
0.0
 10
10.1719069108
 20
10.8133691641
 30
0.0
 10
10.1725118199
 20
10.8133220265
 30
0.0
 10
10.173280091
 20
10.8132429762
 30
0.0
 10
10.1746423982
 20
10.8131121861
 30
0.0
 10
10.1765792282
 20
10.8129213969
 30
0.0
 10
10.1789074147
 20
10.8126941389
 30
0.0
 10
10.1820102696
 20
10.8123905383
 30
0.0
 10
10.1858893155
 20
10.8120112397
 30
0.0
 10
10.1920955219
 20
10.8114042485
 30
0.0
 10
10.1998533737
 20
10.8106455515
 30
0.0
 10
10.2091627465
 20
10.8097350837
 30
0.0
 10
10.2184721664
 20
10.8088246742
 30
0.0
 10
10.2262299006
 20
10.8080658315
 30
0.0
 10
10.2324363421
 20
10.8074591316
 30
0.0
 10
10.2370904802
 20
10.8070030849
 30
0.0
 10
10.2409711327
 20
10.806626296
 30
0.0
 10
10.2436832641
 20
10.8063561656
 30
0.0
 10
10.2452398071
 20
10.8062117644
 30
0.0
 10
10.2463881894
 20
10.8060754089
 30
0.0
 10
10.2476092947
 20
10.8060462921
 30
0.0
 10
10.2492120685
 20
10.8059700637
 30
0.0
 10
10.2520287415
 20
10.8058540921
 30
0.0
 10
10.256046381
 20
10.8056793067
 30
0.0
 10
10.2608701932
 20
10.8054734645
 30
0.0
 10
10.2673010189
 20
10.8051976453
 30
0.0
 10
10.2753398689
 20
10.8048533421
 30
0.0
 10
10.2849863491
 20
10.8044399631
 30
0.0
 10
10.2946328795
 20
10.8040266913
 30
0.0
 10
10.302671604
 20
10.8036821202
 30
0.0
 10
10.3091026805
 20
10.8034068367
 30
0.0
 10
10.3139257277
 20
10.8031993608
 30
0.0
 10
10.3179457606
 20
10.8030296862
 30
0.0
 10
10.320758161
 20
10.8029045911
 30
0.0
 10
10.3223677805
 20
10.8028429808
 30
0.0
 10
10.3235678581
 20
10.8027689618
 30
0.0
 10
10.3247952172
 20
10.8028012515
 30
0.0
 10
10.3264221799
 20
10.8028072228
 30
0.0
 10
10.3292737984
 20
10.8028349496
 30
0.0
 10
10.3333452212
 20
10.8028655267
 30
0.0
 10
10.3382319206
 20
10.8029060855
 30
0.0
 10
10.3447471734
 20
10.802958813
 30
0.0
 10
10.3528913568
 20
10.8030251889
 30
0.0
 10
10.3626643332
 20
10.8031046268
 30
0.0
 10
10.3724372967
 20
10.803184171
 30
0.0
 10
10.3805815124
 20
10.8032502812
 30
0.0
 10
10.3870967007
 20
10.8033035403
 30
0.0
 10
10.391983597
 20
10.8033424776
 30
0.0
 10
10.3960544037
 20
10.8033781275
 30
0.0
 10
10.3989071218
 20
10.8033967984
 30
0.0
 10
10.4005323227
 20
10.8034172795
 30
0.0
 10
10.4017650936
 20
10.8034049999
 30
0.0
 10
10.4029448456
 20
10.8034983759
 30
0.0
 10
10.4045363418
 20
10.8035860233
 30
0.0
 10
10.4073128437
 20
10.8037565772
 30
0.0
 10
10.4112837798
 20
10.8039912485
 30
0.0
 10
10.4160469749
 20
10.8042766966
 30
0.0
 10
10.4223985751
 20
10.8046559519
 30
0.0
 10
10.4303378451
 20
10.8051304807
 30
0.0
 10
10.4398650645
 20
10.8056997218
 30
0.0
 10
10.4493922707
 20
10.8062690015
 30
0.0
 10
10.4573315738
 20
10.8067434337
 30
0.0
 10
10.4636831079
 20
10.8071228824
 30
0.0
 10
10.4676526054
 20
10.8073602643
 30
0.0
 10
10.4708286875
 20
10.8075496504
 30
0.0
 10
10.4732094238
 20
10.8076931126
 30
0.0
 10
10.4751975865
 20
10.8078081387
 30
0.0
 10
10.4767786614
 20
10.80791031
 30
0.0
 10
10.4779903038
 20
10.8079592026
 30
0.0
 10
10.4791033287
 20
10.8081139634
 30
0.0
 10
10.4806218103
 20
10.80828333
 30
0.0
 10
10.4825080932
 20
10.8085077263
 30
0.0
 10
10.4847766916
 20
10.8087715709
 30
0.0
 10
10.4877997225
 20
10.8091252607
 30
0.0
 10
10.4915791161
 20
10.8095667234
 30
0.0
 10
10.4976258078
 20
10.8102734267
 30
0.0
 10
10.5051842878
 20
10.8111566815
 30
0.0
 10
10.5142544173
 20
10.8122166395
 30
0.0
 10
10.5233245485
 20
10.8132765875
 30
0.0
 10
10.5308830241
 20
10.8141598674
 30
0.0
 10
10.5369297246
 20
10.8148665204
 30
0.0
 10
10.5407090959
 20
10.8153081109
 30
0.0
 10
10.5437321726
 20
10.8156615384
 30
0.0
 10
10.5460006309
 20
10.8159261844
 30
0.0
 10
10.5478873523
 20
10.8161480734
 30
0.0
 10
10.5492152408
 20
10.816300745
 30
0.0
 10
10.5499628178
 20
10.8163921249
 30
0.0
 10
10.5505550974
 20
10.8164490001
 30
0.0
 10
10.5510265977
 20
10.8165504446
 30
0.0
 10
10.5516973939
 20
10.8166701576
 30
0.0
 10
10.5528516584
 20
10.8168868987
 30
0.0
 10
10.5545108699
 20
10.817192742
 30
0.0
 10
10.5564975311
 20
10.8175613748
 30
0.0
 10
10.5591479471
 20
10.8180523191
 30
0.0
 10
10.5624604416
 20
10.8186661934
 30
0.0
 10
10.5677607265
 20
10.8196482838
 30
0.0
 10
10.574385982
 20
10.8208759339
 30
0.0
 10
10.582336331
 20
10.8223490984
 30
0.0
 10
10.5889616148
 20
10.8235767382
 30
0.0
 10
10.5942618375
 20
10.8245588513
 30
0.0
 10
10.5982370219
 20
10.8252954309
 30
0.0
 10
10.6022121387
 20
10.8260320306
 30
0.0
 10
10.6055249471
 20
10.8266458012
 30
0.0
 10
10.608174721
 20
10.8271369575
 30
0.0
 10
10.6101633432
 20
10.8275049428
 30
0.0
 10
10.6118164195
 20
10.827812812
 30
0.0
 10
10.6129816364
 20
10.8280259365
 30
0.0
 10
10.6136348841
 20
10.8281514442
 30
0.0
 10
10.6141602875
 20
10.8282350892
 30
0.0
 10
10.6145501159
 20
10.8283588164
 30
0.0
 10
10.6151171771
 20
10.8285098049
 30
0.0
 10
10.616087501
 20
10.8287805487
 30
0.0
 10
10.6174851972
 20
10.8291639201
 30
0.0
 10
10.619157502
 20
10.8296254235
 30
0.0
 10
10.621388964
 20
10.8302402521
 30
0.0
 10
10.6241777006
 20
10.8310089626
 30
0.0
 10
10.6275244379
 20
10.8319313402
 30
0.0
 10
10.6308711073
 20
10.832853738
 30
0.0
 10
10.635333357
 20
10.8340835946
 30
0.0
 10
10.6409111608
 20
10.8356209178
 30
0.0
 10
10.646488968
 20
10.83715824
 30
0.0
 10
10.6509512123
 20
10.8383880982
 30
0.0
 10
10.6542978977
 20
10.8393104913
 30
0.0
 10
10.6576445753
 20
10.8402328861
 30
0.0
 10
10.6604334975
 20
10.8410015435
 30
0.0
 10
10.6626645809
 20
10.8416164803
 30
0.0
 10
10.6640591319
 20
10.8420007911
 30
0.0
 10
10.665174489
 20
10.8423082963
 30
0.0
 10
10.6660117837
 20
10.8425387704
 30
0.0
 10
10.6667070581
 20
10.8427313246
 30
0.0
 10
10.6671985996
 20
10.842865146
 30
0.0
 10
10.6674719085
 20
10.8429431246
 30
0.0
 10
10.6676982207
 20
10.842997357
 30
0.0
 10
10.6678429964
 20
10.8430678411
 30
0.0
 10
10.6680644715
 20
10.843156151
 30
0.0
 10
10.6684388017
 20
10.8433133347
 30
0.0
 10
10.668980487
 20
10.8435365019
 30
0.0
 10
10.6696275441
 20
10.8438048936
 30
0.0
 10
10.6704913226
 20
10.8441625427
 30
0.0
 10
10.6715706911
 20
10.8446096748
 30
0.0
 10
10.6732978789
 20
10.8453250467
 30
0.0
 10
10.6754567956
 20
10.8462192751
 30
0.0
 10
10.6780475248
 20
10.8472923434
 30
0.0
 10
10.6806382462
 20
10.8483654132
 30
0.0
 10
10.6840925442
 20
10.8497961724
 30
0.0
 10
10.6884104156
 20
10.8515846217
 30
0.0
 10
10.6927282877
 20
10.8533730708
 30
0.0
 10
10.6961825845
 20
10.8548038302
 30
0.0
 10
10.6987733094
 20
10.8558768994
 30
0.0
 10
10.7013640256
 20
10.85694997
 30
0.0
 10
10.7035229826
 20
10.8578441912
 30
0.0
 10
10.7052500883
 20
10.8585595777
 30
0.0
 10
10.7063296657
 20
10.8590066727
 30
0.0
 10
10.7071930154
 20
10.8593643981
 30
0.0
 10
10.7078413825
 20
10.8596325568
 30
0.0
 10
10.7083789691
 20
10.8598564528
 30
0.0
 10
10.7087606162
 20
10.8600123354
 30
0.0
 10
10.7089703679
 20
10.8601027299
 30
0.0
 10
10.709151154
 20
10.860166811
 30
0.0
 10
10.709242217
 20
10.860245092
 30
0.0
 10
10.7093949307
 20
10.8603445135
 30
0.0
 10
10.7096475981
 20
10.860520809
 30
0.0
 10
10.7100161749
 20
10.8607714531
 30
0.0
 10
10.7104552041
 20
10.8610727425
 30
0.0
 10
10.711041716
 20
10.8614742813
 30
0.0
 10
10.7117744657
 20
10.8619762666
 30
0.0
 10
10.7129470832
 20
10.8627794086
 30
0.0
 10
10.7144127804
 20
10.8637833479
 30
0.0
 10
10.716171649
 20
10.8649880699
 30
0.0
 10
10.717930509
 20
10.8661927933
 30
0.0
 10
10.7202756588
 20
10.8677990907
 30
0.0
 10
10.7232070949
 20
10.8698069626
 30
0.0
 10
10.7267248187
 20
10.8722164089
 30
0.0
 10
10.7314151169
 20
10.8754290039
 30
0.0
 10
10.7349328407
 20
10.8778384501
 30
0.0
 10
10.7372779898
 20
10.8794447476
 30
0.0
  0
SPLINE
  5
35F
100
AcDbEntity
  8
0
100
AcDbSpline
 62
4
  6
CONTINUOUS
 70
0
 71
3
 72
343
 73
339
 74
0
 42
0.0000001
 43
0.0000001
 44
0.0000000001
 40
0.0
 40
0.0
 40
0.0
 40
0.0
 40
0.015625
 40
0.0234375
 40
0.03125
 40
0.0390625
 40
0.04296875
 40
0.046875
 40
0.05078125
 40
0.0546875
 40
0.056640625
 40
0.05859375
 40
0.0595703125
 40
0.060546875
 40
0.0615234375
 40
0.0620117188
 40
0.0622558594
 40
0.0625
 40
0.0627441406
 40
0.0629882812
 40
0.0634765625
 40
0.064453125
 40
0.0654296875
 40
0.06640625
 40
0.068359375
 40
0.0703125
 40
0.07421875
 40
0.078125
 40
0.08203125
 40
0.0859375
 40
0.09375
 40
0.1015625
 40
0.10546875
 40
0.109375
 40
0.11328125
 40
0.1171875
 40
0.119140625
 40
0.12109375
 40
0.1220703125
 40
0.123046875
 40
0.1240234375
 40
0.1245117188
 40
0.1247558594
 40
0.125
 40
0.1252441406
 40
0.1254882812
 40
0.1259765625
 40
0.126953125
 40
0.1279296875
 40
0.12890625
 40
0.130859375
 40
0.1328125
 40
0.13671875
 40
0.140625
 40
0.14453125
 40
0.1484375
 40
0.15625
 40
0.1640625
 40
0.16796875
 40
0.171875
 40
0.17578125
 40
0.1796875
 40
0.181640625
 40
0.18359375
 40
0.1845703125
 40
0.185546875
 40
0.1865234375
 40
0.1870117188
 40
0.1872558594
 40
0.1875
 40
0.1877441406
 40
0.1879882812
 40
0.1884765625
 40
0.189453125
 40
0.1904296875
 40
0.19140625
 40
0.193359375
 40
0.1953125
 40
0.19921875
 40
0.203125
 40
0.20703125
 40
0.2109375
 40
0.21875
 40
0.2265625
 40
0.23046875
 40
0.234375
 40
0.23828125
 40
0.2421875
 40
0.244140625
 40
0.24609375
 40
0.2470703125
 40
0.248046875
 40
0.2490234375
 40
0.2495117188
 40
0.2497558594
 40
0.25
 40
0.2502441406
 40
0.2504882812
 40
0.2509765625
 40
0.251953125
 40
0.2529296875
 40
0.25390625
 40
0.255859375
 40
0.2578125
 40
0.26171875
 40
0.265625
 40
0.26953125
 40
0.2734375
 40
0.28125
 40
0.2890625
 40
0.29296875
 40
0.296875
 40
0.30078125
 40
0.3046875
 40
0.306640625
 40
0.30859375
 40
0.3095703125
 40
0.310546875
 40
0.3115234375
 40
0.3120117188
 40
0.3122558594
 40
0.3125
 40
0.3127441406
 40
0.3129882812
 40
0.3134765625
 40
0.314453125
 40
0.3154296875
 40
0.31640625
 40
0.318359375
 40
0.3203125
 40
0.32421875
 40
0.328125
 40
0.33203125
 40
0.3359375
 40
0.34375
 40
0.3515625
 40
0.359375
 40
0.36328125
 40
0.3671875
 40
0.369140625
 40
0.37109375
 40
0.373046875
 40
0.3740234375
 40
0.3745117188
 40
0.375
 40
0.3754882812
 40
0.3759765625
 40
0.376953125
 40
0.37890625
 40
0.380859375
 40
0.3828125
 40
0.38671875
 40
0.390625
 40
0.3984375
 40
0.40625
 40
0.4140625
 40
0.421875
 40
0.42578125
 40
0.4296875
 40
0.431640625
 40
0.43359375
 40
0.435546875
 40
0.4365234375
 40
0.4370117188
 40
0.4375
 40
0.4379882812
 40
0.4384765625
 40
0.439453125
 40
0.44140625
 40
0.443359375
 40
0.4453125
 40
0.44921875
 40
0.453125
 40
0.4609375
 40
0.46875
 40
0.4765625
 40
0.484375
 40
0.48828125
 40
0.4921875
 40
0.49609375
 40
0.498046875
 40
0.4990234375
 40
0.5
 40
0.5009765625
 40
0.501953125
 40
0.50390625
 40
0.5078125
 40
0.51171875
 40
0.515625
 40
0.5234375
 40
0.53125
 40
0.5390625
 40
0.546875
 40
0.55078125
 40
0.5546875
 40
0.55859375
 40
0.560546875
 40
0.5615234375
 40
0.5625
 40
0.5634765625
 40
0.564453125
 40
0.56640625
 40
0.5703125
 40
0.57421875
 40
0.578125
 40
0.5859375
 40
0.59375
 40
0.6015625
 40
0.609375
 40
0.61328125
 40
0.6171875
 40
0.62109375
 40
0.623046875
 40
0.6240234375
 40
0.625
 40
0.6259765625
 40
0.626953125
 40
0.62890625
 40
0.6328125
 40
0.63671875
 40
0.640625
 40
0.6484375
 40
0.65625
 40
0.6640625
 40
0.671875
 40
0.67578125
 40
0.6796875
 40
0.681640625
 40
0.68359375
 40
0.685546875
 40
0.6865234375
 40
0.6875
 40
0.6884765625
 40
0.689453125
 40
0.69140625
 40
0.693359375
 40
0.6953125
 40
0.69921875
 40
0.703125
 40
0.7109375
 40
0.71875
 40
0.7265625
 40
0.734375
 40
0.73828125
 40
0.7421875
 40
0.744140625
 40
0.74609375
 40
0.748046875
 40
0.7490234375
 40
0.7495117188
 40
0.75
 40
0.7504882812
 40
0.7509765625
 40
0.751953125
 40
0.75390625
 40
0.755859375
 40
0.7578125
 40
0.76171875
 40
0.765625
 40
0.7734375
 40
0.78125
 40
0.7890625
 40
0.79296875
 40
0.796875
 40
0.80078125
 40
0.8046875
 40
0.806640625
 40
0.80859375
 40
0.810546875
 40
0.8115234375
 40
0.8120117188
 40
0.8125
 40
0.8129882812
 40
0.8134765625
 40
0.814453125
 40
0.81640625
 40
0.818359375
 40
0.8203125
 40
0.82421875
 40
0.828125
 40
0.83203125
 40
0.8359375
 40
0.84375
 40
0.8515625
 40
0.85546875
 40
0.859375
 40
0.86328125
 40
0.8671875
 40
0.869140625
 40
0.87109375
 40
0.8720703125
 40
0.873046875
 40
0.8740234375
 40
0.8745117188
 40
0.8747558594
 40
0.875
 40
0.8752441406
 40
0.8754882812
 40
0.8759765625
 40
0.876953125
 40
0.8779296875
 40
0.87890625
 40
0.880859375
 40
0.8828125
 40
0.88671875
 40
0.890625
 40
0.89453125
 40
0.8984375
 40
0.90625
 40
0.9140625
 40
0.91796875
 40
0.921875
 40
0.92578125
 40
0.9296875
 40
0.931640625
 40
0.93359375
 40
0.9345703125
 40
0.935546875
 40
0.9365234375
 40
0.9370117188
 40
0.9372558594
 40
0.9375
 40
0.9377441406
 40
0.9379882812
 40
0.9384765625
 40
0.939453125
 40
0.9404296875
 40
0.94140625
 40
0.943359375
 40
0.9453125
 40
0.94921875
 40
0.953125
 40
0.95703125
 40
0.9609375
 40
0.96875
 40
0.9765625
 40
0.984375
 40
1.0
 40
1.0
 40
1.0
 40
1.0
 10
10.7372779807
 20
10.8794447389
 30
0.0
 10
10.7383426257
 20
10.8811092048
 30
0.0
 10
10.7399395932
 20
10.8836059038
 30
0.0
 10
10.7420688832
 20
10.8869348357
 30
0.0
 10
10.7436658506
 20
10.8894315346
 30
0.0
 10
10.7449966572
 20
10.891512117
 30
0.0
 10
10.7460613015
 20
10.893176583
 30
0.0
 10
10.7468597873
 20
10.8944249324
 30
0.0
 10
10.7476582633
 20
10.895673282
 30
0.0
 10
10.7483236906
 20
10.8967135729
 30
0.0
 10
10.7488559639
 20
10.8975458067
 30
0.0
 10
10.7491887907
 20
10.8980659501
 30
0.0
 10
10.7494546948
 20
10.898482071
 30
0.0
 10
10.7496551012
 20
10.8987941449
 30
0.0
 10
10.7498189945
 20
10.89905426
 30
0.0
 10
10.7499398271
 20
10.8992362355
 30
0.0
 10
10.7499993382
 20
10.8993403855
 30
0.0
 10
10.7500708351
 20
10.8994180361
 30
0.0
 10
10.7500396456
 20
10.899497452
 30
0.0
 10
10.7500338778
 20
10.8996027242
 30
0.0
 10
10.7500070957
 20
10.8997872373
 30
0.0
 10
10.7499775605
 20
10.9000506776
 30
0.0
 10
10.7499383837
 20
10.90036687
 30
0.0
 10
10.7498874524
 20
10.9007884375
 30
0.0
 10
10.7498233416
 20
10.9013154046
 30
0.0
 10
10.749721014
 20
10.9021585477
 30
0.0
 10
10.7495930189
 20
10.9032124779
 30
0.0
 10
10.7494394614
 20
10.9044771936
 30
0.0
 10
10.7492858941
 20
10.9057419095
 30
0.0
 10
10.7490811411
 20
10.9074281972
 30
0.0
 10
10.7488251986
 20
10.909536057
 30
0.0
 10
10.748569257
 20
10.9116439167
 30
0.0
 10
10.7483645026
 20
10.9133302044
 30
0.0
 10
10.7482109394
 20
10.9145949203
 30
0.0
 10
10.7480573665
 20
10.9158596359
 30
0.0
 10
10.7479294194
 20
10.9169135666
 30
0.0
 10
10.7478269937
 20
10.9177567088
 30
0.0
 10
10.7477631327
 20
10.9182836779
 30
0.0
 10
10.7477116887
 20
10.9187052413
 30
0.0
 10
10.7476740781
 20
10.9190214465
 30
0.0
 10
10.7476396429
 20
10.9192848468
 30
0.0
 10
10.7476216081
 20
10.9194694311
 30
0.0
 10
10.7476018249
 20
10.9195745893
 30
0.0
 10
10.7476136861
 20
10.9196543553
 30
0.0
 10
10.7475234918
 20
10.9197306909
 30
0.0
 10
10.7474388308
 20
10.9198336682
 30
0.0
 10
10.7472740882
 20
10.9200133209
 30
0.0
 10
10.747047413
 20
10.9202702592
 30
0.0
 10
10.7467716911
 20
10.9205784603
 30
0.0
 10
10.7464053583
 20
10.9209894387
 30
0.0
 10
10.7459469984
 20
10.9215031469
 30
0.0
 10
10.7452138706
 20
10.9223250882
 30
0.0
 10
10.7442973758
 20
10.923352512
 30
0.0
 10
10.7431976186
 20
10.9245854219
 30
0.0
 10
10.7420978515
 20
10.9258183313
 30
0.0
 10
10.7406314989
 20
10.9274622108
 30
0.0
 10
10.7387985569
 20
10.92951706
 30
0.0
 10
10.7369656157
 20
10.9315719093
 30
0.0
 10
10.7354992617
 20
10.9332157887
 30
0.0
 10
10.7343994988
 20
10.9344486983
 30
0.0
 10
10.7332997261
 20
10.9356816074
 30
0.0
 10
10.7323832793
 20
10.9367090335
 30
0.0
 10
10.7316500536
 20
10.9375309702
 30
0.0
 10
10.7311919429
 20
10.9380446903
 30
0.0
 10
10.7308250986
 20
10.9384556442
 30
0.0
 10
10.7305509394
 20
10.9387639204
 30
0.0
 10
10.7303193749
 20
10.9390206238
 30
0.0
 10
10.7301633605
 20
10.9392006957
 30
0.0
 10
10.7300647148
 20
10.9393030015
 30
0.0
 10
10.730017477
 20
10.9393813997
 30
0.0
 10
10.7298680005
 20
10.9394534184
 30
0.0
 10
10.7297043606
 20
10.9395516685
 30
0.0
 10
10.729401375
 20
10.9397225695
 30
0.0
 10
10.7289772253
 20
10.9399672557
 30
0.0
 10
10.7284645275
 20
10.9402606472
 30
0.0
 10
10.727782229
 20
10.9406519169
 30
0.0
 10
10.7269289113
 20
10.9411409763
 30
0.0
 10
10.7255638514
 20
10.9419234868
 30
0.0
 10
10.7238574414
 20
10.9429016197
 30
0.0
 10
10.7218097858
 20
10.9440753813
 30
0.0
 10
10.7197621205
 20
10.9452491424
 30
0.0
 10
10.7170319035
 20
10.9468141574
 30
0.0
 10
10.713619131
 20
10.948770426
 30
0.0
 10
10.7102063592
 20
10.9507266947
 30
0.0
 10
10.707476141
 20
10.9522917095
 30
0.0
 10
10.7054284795
 20
10.953465471
 30
0.0
 10
10.7033808097
 20
10.9546392311
 30
0.0
 10
10.7016744439
 20
10.9556173691
 30
0.0
 10
10.7003092938
 20
10.956399869
 30
0.0
 10
10.6994562058
 20
10.9568889553
 30
0.0
 10
10.6987734358
 20
10.9572801699
 30
0.0
 10
10.6982621785
 20
10.9575737297
 30
0.0
 10
10.6978335214
 20
10.9578178892
 30
0.0
 10
10.6975385824
 20
10.9579897305
 30
0.0
 10
10.6973620498
 20
10.958086474
 30
0.0
 10
10.6972521752
 20
10.9581631206
 30
0.0
 10
10.6970561994
 20
10.9582241371
 30
0.0
 10
10.6968249314
 20
10.9583109445
 30
0.0
 10
10.6964062194
 20
10.9584603172
 30
0.0
 10
10.6958153751
 20
10.9586750348
 30
0.0
 10
10.6951032305
 20
10.9589321274
 30
0.0
 10
10.6941547982
 20
10.9592751162
 30
0.0
 10
10.6929688833
 20
10.9597037842
 30
0.0
 10
10.6910716288
 20
10.960389691
 30
0.0
 10
10.6886999888
 20
10.9612470614
 30
0.0
 10
10.6858540516
 20
10.9622759115
 30
0.0
 10
10.6830081061
 20
10.9633047601
 30
0.0
 10
10.6792135151
 20
10.9646765588
 30
0.0
 10
10.6744702752
 20
10.9663913069
 30
0.0
 10
10.669727036
 20
10.9681060552
 30
0.0
 10
10.6659324439
 20
10.9694778536
 30
0.0
 10
10.6630865017
 20
10.9705067029
 30
0.0
 10
10.6602405522
 20
10.9715355505
 30
0.0
 10
10.6578689506
 20
10.9723929287
 30
0.0
 10
10.6559716177
 20
10.9730788196
 30
0.0
 10
10.6547859022
 20
10.973507528
 30
0.0
 10
10.6538370605
 20
10.9738504338
 30
0.0
 10
10.6531261668
 20
10.9741077802
 30
0.0
 10
10.6525314087
 20
10.9743217038
 30
0.0
 10
10.6521196835
 20
10.9744724939
 30
0.0
 10
10.6518772209
 20
10.9745570303
 30
0.0
 10
10.6517156311
 20
10.9746250224
 30
0.0
 10
10.6514766083
 20
10.9746754699
 30
0.0
 10
10.6511849208
 20
10.9747488529
 30
0.0
 10
10.6506618833
 20
10.974874422
 30
0.0
 10
10.6499212661
 20
10.975055297
 30
0.0
 10
10.6490297093
 20
10.975271709
 30
0.0
 10
10.6478419506
 20
10.9755604812
 30
0.0
 10
10.6463569154
 20
10.9759213701
 30
0.0
 10
10.6439810474
 20
10.9764988351
 30
0.0
 10
10.6410111477
 20
10.9772206516
 30
0.0
 10
10.6374472958
 20
10.9780868377
 30
0.0
 10
10.6338834365
 20
10.9789530221
 30
0.0
 10
10.6291316263
 20
10.9801079352
 30
0.0
 10
10.6231918654
 20
10.9815515772
 30
0.0
 10
10.6160641404
 20
10.9832839435
 30
0.0
 10
10.610124407
 20
10.9847275947
 30
0.0
 10
10.6053725364
 20
10.9858824875
 30
0.0
 10
10.6024028081
 20
10.9866043596
 30
0.0
 10
10.6000265885
 20
10.9871817105
 30
0.0
 10
10.5982456202
 20
10.9876151257
 30
0.0
 10
10.596757674
 20
10.9879750259
 30
0.0
 10
10.5957235808
 20
10.9882294664
 30
0.0
 10
10.5951210079
 20
10.9883709413
 30
0.0
 10
10.5947019318
 20
10.9884880891
 30
0.0
 10
10.5941572725
 20
10.9885630304
 30
0.0
 10
10.5934748648
 20
10.9886776742
 30
0.0
 10
10.592260242
 20
10.9888714417
 30
0.0
 10
10.5905357369
 20
10.9891518384
 30
0.0
 10
10.5884617635
 20
10.9894867795
 30
0.0
 10
10.5856980608
 20
10.9899339038
 30
0.0
 10
10.5822428863
 20
10.9904926256
 30
0.0
 10
10.5767149124
 20
10.991386683
 30
0.0
 10
10.5698048397
 20
10.9925042194
 30
0.0
 10
10.5615128003
 20
10.9938452794
 30
0.0
 10
10.5532207382
 20
10.9951863308
 30
0.0
 10
10.546310722
 20
10.9963038885
 30
0.0
 10
10.5407826351
 20
10.9971979034
 30
0.0
 10
10.5373277477
 20
10.9977567333
 30
0.0
 10
10.5345634559
 20
10.9982036357
 30
0.0
 10
10.5324912824
 20
10.9985392549
 30
0.0
 10
10.5307611457
 20
10.99881753
 30
0.0
 10
10.5295565762
 20
10.9990150849
 30
0.0
 10
10.5288580606
 20
10.9991236603
 30
0.0
 10
10.5283628798
 20
10.999217242
 30
0.0
 10
10.5277579706
 20
10.9992643795
 30
0.0
 10
10.5269896995
 20
10.9993434299
 30
0.0
 10
10.5256273923
 20
10.99947422
 30
0.0
 10
10.5236905624
 20
10.9996650092
 30
0.0
 10
10.5213623758
 20
10.9998922672
 30
0.0
 10
10.5182595209
 20
11.0001958677
 30
0.0
 10
10.514380475
 20
11.0005751664
 30
0.0
 10
10.5081742686
 20
11.0011821576
 30
0.0
 10
10.5004164168
 20
11.0019408546
 30
0.0
 10
10.491107044
 20
11.0028513224
 30
0.0
 10
10.4817976241
 20
11.0037617319
 30
0.0
 10
10.4740398899
 20
11.0045205745
 30
0.0
 10
10.4678334484
 20
11.0051272745
 30
0.0
 10
10.4631793103
 20
11.0055833212
 30
0.0
 10
10.4592986578
 20
11.0059601101
 30
0.0
 10
10.4565865264
 20
11.0062302404
 30
0.0
 10
10.4550299834
 20
11.0063746417
 30
0.0
 10
10.4538816011
 20
11.0065109972
 30
0.0
 10
10.4526604958
 20
11.0065401139
 30
0.0
 10
10.451057722
 20
11.0066163424
 30
0.0
 10
10.448241049
 20
11.006732314
 30
0.0
 10
10.4442234095
 20
11.0069070993
 30
0.0
 10
10.4393995973
 20
11.0071129416
 30
0.0
 10
10.4329687716
 20
11.0073887607
 30
0.0
 10
10.4249299217
 20
11.007733064
 30
0.0
 10
10.4152834414
 20
11.0081464429
 30
0.0
 10
10.405636911
 20
11.0085597148
 30
0.0
 10
10.3975981865
 20
11.0089042858
 30
0.0
 10
10.39116711
 20
11.0091795694
 30
0.0
 10
10.3863440628
 20
11.0093870453
 30
0.0
 10
10.3823240299
 20
11.0095567199
 30
0.0
 10
10.3795116295
 20
11.0096818149
 30
0.0
 10
10.37790201
 20
11.0097434253
 30
0.0
 10
10.3767019324
 20
11.0098174442
 30
0.0
 10
10.3754745733
 20
11.0097851545
 30
0.0
 10
10.3738476106
 20
11.0097791832
 30
0.0
 10
10.3709959921
 20
11.0097514564
 30
0.0
 10
10.3669245694
 20
11.0097208794
 30
0.0
 10
10.36203787
 20
11.0096803205
 30
0.0
 10
10.3555226171
 20
11.0096275931
 30
0.0
 10
10.3473784337
 20
11.0095612171
 30
0.0
 10
10.3376054573
 20
11.0094817792
 30
0.0
 10
10.3278324938
 20
11.009402235
 30
0.0
 10
10.3196882782
 20
11.0093361249
 30
0.0
 10
10.3131730899
 20
11.0092828658
 30
0.0
 10
10.3082861936
 20
11.0092439285
 30
0.0
 10
10.3042153868
 20
11.0092082786
 30
0.0
 10
10.3013626687
 20
11.0091896076
 30
0.0
 10
10.2997374678
 20
11.0091691266
 30
0.0
 10
10.2985046969
 20
11.0091814062
 30
0.0
 10
10.297324945
 20
11.0090880302
 30
0.0
 10
10.2957334487
 20
11.0090003828
 30
0.0
 10
10.2929569468
 20
11.0088298289
 30
0.0
 10
10.2889860107
 20
11.0085951576
 30
0.0
 10
10.2842228156
 20
11.0083097095
 30
0.0
 10
10.2778712154
 20
11.0079304542
 30
0.0
 10
10.2699319454
 20
11.0074559253
 30
0.0
 10
10.260404726
 20
11.0068866843
 30
0.0
 10
10.2508775198
 20
11.0063174045
 30
0.0
 10
10.2429382167
 20
11.0058429723
 30
0.0
 10
10.2365866827
 20
11.0054635237
 30
0.0
 10
10.2326171851
 20
11.0052261417
 30
0.0
 10
10.2294411031
 20
11.0050367557
 30
0.0
 10
10.2270603668
 20
11.0048932935
 30
0.0
 10
10.2250722041
 20
11.0047782674
 30
0.0
 10
10.2234911292
 20
11.0046760961
 30
0.0
 10
10.2222794867
 20
11.0046272034
 30
0.0
 10
10.2211664618
 20
11.0044724426
 30
0.0
 10
10.2196479802
 20
11.004303076
 30
0.0
 10
10.2177616974
 20
11.0040786798
 30
0.0
 10
10.215493099
 20
11.0038148351
 30
0.0
 10
10.2124700681
 20
11.0034611454
 30
0.0
 10
10.2086906745
 20
11.0030196827
 30
0.0
 10
10.2026439827
 20
11.0023129794
 30
0.0
 10
10.1950855027
 20
11.0014297246
 30
0.0
 10
10.1860153733
 20
11.0003697666
 30
0.0
 10
10.1769452421
 20
10.9993098186
 30
0.0
 10
10.1693867664
 20
10.9984265387
 30
0.0
 10
10.1633400659
 20
10.9977198856
 30
0.0
 10
10.1595606947
 20
10.9972782951
 30
0.0
 10
10.1565376179
 20
10.9969248677
 30
0.0
 10
10.1542691596
 20
10.9966602217
 30
0.0
 10
10.1523824382
 20
10.9964383326
 30
0.0
 10
10.1510545497
 20
10.9962856611
 30
0.0
 10
10.1503069727
 20
10.9961942812
 30
0.0
 10
10.1497146931
 20
10.9961374059
 30
0.0
 10
10.1492431929
 20
10.9960359615
 30
0.0
 10
10.1485723967
 20
10.9959162484
 30
0.0
 10
10.1474181321
 20
10.9956995073
 30
0.0
 10
10.1457589206
 20
10.995393664
 30
0.0
 10
10.1437722594
 20
10.9950250312
 30
0.0
 10
10.1411218435
 20
10.9945340869
 30
0.0
 10
10.1378093489
 20
10.9939202127
 30
0.0
 10
10.132509064
 20
10.9929381223
 30
0.0
 10
10.1258838085
 20
10.9917104722
 30
0.0
 10
10.1179334595
 20
10.9902373077
 30
0.0
 10
10.1113081757
 20
10.9890096678
 30
0.0
 10
10.1060079531
 20
10.9880275548
 30
0.0
 10
10.1020327686
 20
10.9872909751
 30
0.0
 10
10.0980576519
 20
10.9865543755
 30
0.0
 10
10.0947448435
 20
10.9859406049
 30
0.0
 10
10.0920950695
 20
10.9854494486
 30
0.0
 10
10.0901064473
 20
10.9850814633
 30
0.0
 10
10.0884533711
 20
10.9847735941
 30
0.0
 10
10.0872881542
 20
10.9845604696
 30
0.0
 10
10.0866349064
 20
10.9844349618
 30
0.0
 10
10.086109503
 20
10.9843513169
 30
0.0
 10
10.0857196747
 20
10.9842275897
 30
0.0
 10
10.0851526134
 20
10.9840766012
 30
0.0
 10
10.0841822896
 20
10.9838058573
 30
0.0
 10
10.0827845934
 20
10.983422486
 30
0.0
 10
10.0811122886
 20
10.9829609826
 30
0.0
 10
10.0788808265
 20
10.982346154
 30
0.0
 10
10.0760920899
 20
10.9815774435
 30
0.0
 10
10.0727453527
 20
10.9806550658
 30
0.0
 10
10.0693986832
 20
10.9797326681
 30
0.0
 10
10.0649364335
 20
10.9785028115
 30
0.0
 10
10.0593586297
 20
10.9769654883
 30
0.0
 10
10.0537808226
 20
10.975428166
 30
0.0
 10
10.0493185782
 20
10.9741983079
 30
0.0
 10
10.0459718928
 20
10.9732759147
 30
0.0
 10
10.0426252153
 20
10.97235352
 30
0.0
 10
10.039836293
 20
10.9715848625
 30
0.0
 10
10.0376052096
 20
10.9709699258
 30
0.0
 10
10.0362106586
 20
10.970585615
 30
0.0
 10
10.0350953015
 20
10.9702781098
 30
0.0
 10
10.0342580069
 20
10.9700476357
 30
0.0
 10
10.0335627325
 20
10.9698550814
 30
0.0
 10
10.0330711909
 20
10.96972126
 30
0.0
 10
10.0327978821
 20
10.9696432814
 30
0.0
 10
10.0325715698
 20
10.969589049
 30
0.0
 10
10.0324267941
 20
10.969518565
 30
0.0
 10
10.0322053191
 20
10.969430255
 30
0.0
 10
10.0318309888
 20
10.9692730714
 30
0.0
 10
10.0312893035
 20
10.9690499042
 30
0.0
 10
10.0306422464
 20
10.9687815125
 30
0.0
 10
10.0297784679
 20
10.9684238634
 30
0.0
 10
10.0286990994
 20
10.9679767312
 30
0.0
 10
10.0269719116
 20
10.9672613594
 30
0.0
 10
10.0248129949
 20
10.966367131
 30
0.0
 10
10.0222222657
 20
10.9652940627
 30
0.0
 10
10.0196315443
 20
10.9642209929
 30
0.0
 10
10.0161772464
 20
10.9627902336
 30
0.0
 10
10.0118593749
 20
10.9610017844
 30
0.0
 10
10.0075415028
 20
10.9592133353
 30
0.0
 10
10.004087206
 20
10.9577825759
 30
0.0
 10
10.0014964812
 20
10.9567095067
 30
0.0
 10
9.9989057649
 20
10.9556364361
 30
0.0
 10
9.9967468079
 20
10.9547422148
 30
0.0
 10
9.9950197022
 20
10.9540268284
 30
0.0
 10
9.9939401248
 20
10.9535797334
 30
0.0
 10
9.9930767751
 20
10.953222008
 30
0.0
 10
9.9924284081
 20
10.9529538492
 30
0.0
 10
9.9918908214
 20
10.9527299533
 30
0.0
 10
9.9915091743
 20
10.9525740706
 30
0.0
 10
9.9912994226
 20
10.9524836761
 30
0.0
 10
9.9911186365
 20
10.9524195951
 30
0.0
 10
9.9910275736
 20
10.9523413141
 30
0.0
 10
9.9908748599
 20
10.9522418925
 30
0.0
 10
9.9906221925
 20
10.9520655971
 30
0.0
 10
9.9902536156
 20
10.9518149529
 30
0.0
 10
9.9898145865
 20
10.9515136635
 30
0.0
 10
9.9892280745
 20
10.9511121247
 30
0.0
 10
9.9884953249
 20
10.9506101394
 30
0.0
 10
9.9873227073
 20
10.9498069975
 30
0.0
 10
9.9858570102
 20
10.9488030582
 30
0.0
 10
9.9840981415
 20
10.9475983362
 30
0.0
 10
9.9823392815
 20
10.9463936127
 30
0.0
 10
9.9799941318
 20
10.9447873153
 30
0.0
 10
9.9770626956
 20
10.9427794434
 30
0.0
 10
9.9735449718
 20
10.9403699972
 30
0.0
 10
9.9688546736
 20
10.9371574022
 30
0.0
 10
9.9653369499
 20
10.9347479559
 30
0.0
 10
9.9629918007
 20
10.9331416584
 30
0.0
  0
ELLIPSE
  5
360
100
AcDbEntity
  8
0
100
AcDbEllipse
 62
7
  6
CONTINUOUS
 10
9.8274399003
 20
8.2991687655
 30
0.0
 11
-0.0481054245
 21
0.2823785924
 31
0.0
 40
0.8380289501
 41
0.0
 42
6.2831853072
  0
ENDSEC
  0
SECTION
  2
OBJECTS
  0
DICTIONARY
  5
C
100
AcDbDictionary
280
0
281
1
  3
ACAD_GROUP
350
D
  3
ACAD_MLINESTYLE
350
17
  3
ACAD_LAYOUT
350
1A
  3
ACAD_PLOTSETTINGS
350
19
  3
ACAD_PLOTSTYLENAME
350
E
  3
ACAD_IMAGE_DICT
350
       362
  3
ACAD_IMAGE_VARS
350
       363
  3
ACAD_TABLESTYLE
350
       364
  0
IMAGEDEF_REACTOR
  5
361
100
AcDbRasterImageDefReactor
 90
2
330
275
  0
DICTIONARY
  5
D
102
{ACAD_REACTORS
330
C
102
}
100
AcDbDictionary
280
0
281
1
  0
ACDBDICTIONARYWDFLT
  5
E
102
{ACAD_REACTORS
330
C
102
}
100
AcDbDictionary
281
1
  3
Normal
350
F
100
AcDbDictionaryWithDefault
340
F
  0
DICTIONARY
  5
362
330
C
100
AcDbDictionary
281
1
  3
Z2E_assy_2_img_1
350
       367
  0
RASTERVARIABLES
  5
363
330
C
100
AcDbRasterVariables
 90
0
 70
0
 71
1
 72
5
  0
DICTIONARY
  5
17
102
{ACAD_REACTORS
330
C
102
}
100
AcDbDictionary
280
0
281
1
  3
Standard
350
18
  0
DICTIONARY
  5
364
330
C
100
AcDbDictionary
281
1
  3
Standard
350
       368
  3
Standard1
350
       369
  0
DICTIONARY
  5
19
102
{ACAD_REACTORS
330
C
102
}
100
AcDbDictionary
281
1
  0
DICTIONARY
  5
1A
102
{ACAD_REACTORS
330
C
102
}
100
AcDbDictionary
281
1
  3
Model
350
365
  3
Layout1
350
366
  0
ACDBPLACEHOLDER
  5
F
102
{ACAD_REACTORS
330
E
102
}
  0
MLINESTYLE
  5
18
102
{ACAD_REACTORS
330
17
102
}
100
AcDbMlineStyle
  2
STANDARD
 70
0
  3

 62
256
 51
90.0
 52
90.0
 71
2
 49
0.5
 62
256
  6
BYLAYER
 49
-0.5
 62
256
  6
BYLAYER
  0
LAYOUT
  5
365
102
{ACAD_REACTORS
330
1A
102
}
100
AcDbPlotSettings
  1

  2
none_device
  4
ANSI_C_(22.00_x_17.00_Inches)
  6

 40
0.0
 41
0.0
 42
0.0
 43
0.0
 44
558.8
 45
431.8
 46
0.0
 47
0.0
 48
0.0
 49
0.0
140
0.0
141
0.0
142
1.0
143
1.0
 70
1024
 72
0
 73
0
 74
0
  7

 75
0
147
1.0
148
0.0
149
0.0
100
AcDbLayout
  1
Model
 70
0
 71
0
 10
0.0
 20
0.0
 11
22.0
 21
17.0
 12
0.0
 22
0.0
 32
0.0
 14
0.0
 24
0.0
 34
0.0
 15
0.0
 25
0.0
 35
0.0
146
0.0
 13
0.0
 23
0.0
 33
0.0
 16
1.0
 26
0.0
 36
0.0
 17
0.0
 27
1.0
 37
0.0
 76
0
330
204
345
0
346
0
  0
LAYOUT
  5
366
102
{ACAD_REACTORS
330
1A
102
}
100
AcDbPlotSettings
  1

  2
none_device
  4
ANSI_C_(22.00_x_17.00_Inches)
  6

 40
0.0
 41
0.0
 42
0.0
 43
0.0
 44
558.8
 45
431.8
 46
0.0
 47
0.0
 48
0.0
 49
0.0
140
0.0
141
0.0
142
1.0
143
1.0
 70
0
 72
0
 73
0
 74
0
  7

 75
0
147
1.0
148
0.0
149
0.0
100
AcDbLayout
  1
Layout1
 70
0
 71
1
 10
0.0
 20
0.0
 11
22.0
 21
17.0
 12
0.0
 22
0.0
 32
0.0
 14
0.0
 24
0.0
 34
0.0
 15
0.0
 25
0.0
 35
0.0
146
0.0
 13
0.0
 23
0.0
 33
0.0
 16
1.0
 26
0.0
 36
0.0
 17
0.0
 27
1.0
 37
0.0
 76
0
330
205
345
0
346
0
  0
IMAGEDEF
  5
367
102
{ACAD_REACTORS
330
362
330
361
102
}
100
AcDbRasterImageDef
 90
0
  1
Z2E_assy_2_img_1.png
 10
369.0
 20
92.0
 11
0.0066666667
 21
0.0066666667
280
1
281
0
  0
TABLESTYLE
  5
368
102
{ACAD_REACTORS
330
364
330
278
330
279
102
}
330
364
100
AcDbTableStyle
  3
Standard
 70
0
 71
0
 40
0.06
 41
0.06
280
1
281
1
  7
Standard
140
0.18
170
1
 62
0
 63
7
283
0
  7
Standard
140
0.18
170
1
 62
0
 63
7
283
0
  7
Standard
140
0.18
170
1
 62
0
 63
7
283
0
  0
TABLESTYLE
  5
369
102
{ACAD_REACTORS
330
364
330
277
102
}
330
364
100
AcDbTableStyle
  3
Standard1
 70
1
 71
0
 40
0.06
 41
0.06
280
1
281
1
  7
Standard
140
0.18
170
1
 62
0
 63
7
283
0
  7
Standard
140
0.18
170
1
 62
0
 63
7
283
0
  7
Standard
140
0.18
170
1
 62
0
 63
7
283
0
  0
ENDSEC
  0
EOF
