999
DXF file: YWC_assy_2.dxf
999
Pro/ENGINEER 2014200 by Parametric Technology Corporation
  0
SECTION
  2
HEADER
  9
$ACADVER
  1
AC1021
  9
$DWGCODEPAGE
  3
ANSI_1252
  9
$EXTMAX
 10
22.0
 20
17.0
 30
0.0
  9
$EXTMIN
 10
0.0
 20
0.0
 30
0.0
  9
$LIMMIN
 10
0.0
 20
0.0
  9
$LIMMAX
 10
22.0
 20
17.0
  9
$VIEWCTR
 10
11.0
 20
8.5
  9
$VIEWSIZE
 40
17.0
  9
$CLAYER
  8
0
  9
$LTSCALE
 40
1.21
  9
$CELTYPE
  6
BYLAYER
  9
$DIMSCALE
 40
1.0
  9
$DIMASZ
 40
0.1875
  9
$DIMEXO
 40
0.0625
  9
$DIMDLI
 40
0.836
  9
$DIMEXE
 40
0.125
  9
$DIMCEN
 40
0.198
  9
$DIMLFAC
 40
1.0
  9
$DIMBLK
  1
_FILLED
  9
$DIMTXT
 40
0.1
  9
$DIMTOL
 70
0
  9
$DIMLIM
 70
0
  9
$DIMTFAC
 40
1.0
  9
$DIMGAP
 40
0.09
  9
$DIMDSEP
 70
46
  9
$AUNITS
 70
0
  9
$PDMODE
 70
3
  9
$PDSIZE
 40
0.3125
  9
$HANDSEED
  5
379
  9
$TILEMODE
 70
1
  9
$MEASUREMENT
 70
0
  9
$INSUNITS
 70
1
  0
ENDSEC
  0
SECTION
  2
CLASSES
  0
CLASS
  1
ACDBDICTIONARYWDFLT
  2
AcDbDictionaryWithDefault
  3
AutoCAD 2000
 90
0
 91
1
280
0
281
0
  0
CLASS
  1
ACDBPLACEHOLDER
  2
AcDbPlaceHolder
  3
AutoCAD 2000
 90
0
 91
1
280
0
281
0
  0
CLASS
  1
LAYOUT
  2
AcDbLayout
  3
AutoCAD 2000
 90
0
 91
0
280
0
281
0
  0
CLASS
  1
RASTERVARIABLES
  2
AcDbRasterVariables
  3
ISM
 90
0
 91
1
280
0
281
0
  0
CLASS
  1
IMAGEDEF
  2
AcDbRasterImageDef
  3
ISM
 90
0
 91
1
280
0
281
0
  0
CLASS
  1
IMAGEDEF_REACTOR
  2
AcDbRasterImageDefReactor
  3
ISM
 90
0
 91
1
280
0
281
0
  0
CLASS
  1
IMAGE
  2
AcDbRasterImage
  3
ISM
 90
127
 91
1
280
0
281
1
  0
CLASS
  1
TABLESTYLE
  2
AcDbTableStyle
  3
ObjectDBX Classes
 90
2047
 91
1
280
0
281
0
  0
CLASS
  1
ACAD_TABLE
  2
AcDbTable
  3
ObjectDBX Classes
 90
1025
 91
3
280
0
281
1
  0
ENDSEC
  0
SECTION
  2
TABLES
  0
TABLE
  2
VPORT
  5
8
100
AcDbSymbolTable
 70
2
  0
VPORT
  5
1F4
100
AcDbSymbolTableRecord
100
AcDbViewportTableRecord
  2
*ACTIVE
 70
0
 10
0.0
 20
0.0
 11
1.0
 21
1.0
 12
11.0
 22
8.5
 13
0.0
 23
0.0
 14
1.0
 24
1.0
 15
0.0
 25
0.0
 16
0.0
 26
0.0
 36
1.0
 17
0.0
 27
0.0
 37
0.0
 40
17.0
 41
1.2941176471
 42
50.0
 43
0.0
 44
0.0
 50
0.0
 51
0.0
 71
0
 72
100
 73
1
 74
1
 75
0
 76
0
 77
0
 78
0
  0
ENDTAB
  0
TABLE
  2
LTYPE
  5
5
100
AcDbSymbolTable
 70
6
  0
LTYPE
  5
14
100
AcDbSymbolTableRecord
100
AcDbLinetypeTableRecord
  2
BYBLOCK
 70
0
  3

 72
65
 73
0
 40
0.0
  0
LTYPE
  5
15
100
AcDbSymbolTableRecord
100
AcDbLinetypeTableRecord
  2
BYLAYER
 70
0
  3

 72
65
 73
0
 40
0.0
  0
LTYPE
  5
16
100
AcDbSymbolTableRecord
100
AcDbLinetypeTableRecord
  2
CONTINUOUS
 70
64
  3
Solid line
 72
65
 73
0
 40
0.0
  0
LTYPE
  5
1F5
100
AcDbSymbolTableRecord
100
AcDbLinetypeTableRecord
  2
CENTER
 70
64
  3
____ _ ____ _ ____ _ ____ _ ____ _ ____ _ ____
 72
65
 73
4
 40
0.6
 49
0.375
 74
0
 49
-0.075
 74
0
 49
0.075
 74
0
 49
-0.075
 74
0
  0
LTYPE
  5
1F6
100
AcDbSymbolTableRecord
100
AcDbLinetypeTableRecord
  2
HIDDEN
 70
64
  3
- - - - - - - - - - - - - - - - - - - -
 72
65
 73
2
 40
0.2
 49
0.1
 74
0
 49
-0.1
 74
0
  0
LTYPE
  5
1F7
100
AcDbSymbolTableRecord
100
AcDbLinetypeTableRecord
  2
PHANTOM
 70
64
  3
_____ _ _ _____ _ _ _____ _ _ _____
 72
65
 73
6
 40
0.8
 49
0.45
 74
0
 49
-0.05
 74
0
 49
0.1
 74
0
 49
-0.05
 74
0
 49
0.1
 74
0
 49
-0.05
 74
0
  0
LTYPE
  5
1F8
100
AcDbSymbolTableRecord
100
AcDbLinetypeTableRecord
  2
DOT
 70
64
  3
. . . . . . . . . . . . . . . . . . . .
 72
65
 73
2
 40
0.2
 49
0.1
 74
0
 49
-0.1
 74
0
  0
LTYPE
  5
1F9
100
AcDbSymbolTableRecord
100
AcDbLinetypeTableRecord
  2
DASHED
 70
64
  3
- - - - - - - - - - - - - - - - - - - -
 72
65
 73
2
 40
0.2
 49
0.1
 74
0
 49
-0.1
 74
0
  0
ENDTAB
  0
TABLE
  2
LAYER
  5
2
100
AcDbSymbolTable
 70
36
  0
LAYER
  5
10
100
AcDbSymbolTableRecord
100
AcDbLayerTableRecord
  2
0
 70
0
 62
7
  6
CONTINUOUS
370
-3
390
F
  0
LAYER
  5
1FA
100
AcDbSymbolTableRecord
100
AcDbLayerTableRecord
  2
DEFAULT_1
 70
0
 62
7
  6
CENTER
370
-3
390
F
  0
LAYER
  5
1FB
100
AcDbSymbolTableRecord
100
AcDbLayerTableRecord
  2
DEFAULT_2
 70
0
 62
8
  6
HIDDEN
370
-3
390
F
  0
LAYER
  5
1FC
100
AcDbSymbolTableRecord
100
AcDbLayerTableRecord
  2
DEFAULT_3
 70
0
 62
7
  6
PHANTOM
370
-3
390
F
  0
LAYER
  5
1FD
100
AcDbSymbolTableRecord
100
AcDbLayerTableRecord
  2
DATUM_PLANES
 70
0
 62
7
  6
CONTINUOUS
370
-3
390
F
  0
LAYER
  5
1FE
100
AcDbSymbolTableRecord
100
AcDbLayerTableRecord
  2
PORT_AREAS
 70
0
 62
7
  6
CONTINUOUS
370
-3
390
F
  0
LAYER
  5
1FF
100
AcDbSymbolTableRecord
100
AcDbLayerTableRecord
  2
SUNNBOMCOSMETIC
 70
0
 62
7
  6
CONTINUOUS
370
-3
390
F
  0
LAYER
  5
200
100
AcDbSymbolTableRecord
100
AcDbLayerTableRecord
  2
SUNNBOMSTAMPING
 70
0
 62
7
  6
CONTINUOUS
370
-3
390
F
  0
LAYER
  5
201
100
AcDbSymbolTableRecord
100
AcDbLayerTableRecord
  2
THREADS
 70
0
 62
7
  6
CONTINUOUS
370
-3
390
F
  0
ENDTAB
  0
TABLE
  2
STYLE
  5
3
100
AcDbSymbolTable
 70
1
  0
STYLE
  5
11
100
AcDbSymbolTableRecord
100
AcDbTextStyleTableRecord
  2
STANDARD
 70
0
 40
0.0
 41
0.8
 50
0.0
 71
0
 42
0.2
  3
txt
  4

  0
STYLE
  5
202
100
AcDbSymbolTableRecord
100
AcDbTextStyleTableRecord
  2
TEXTSTYLE_1
 70
0
 40
0.0
 41
0.8
 50
0.0
 71
0
 42
0.2
  3
gdt
  4

  0
ENDTAB
  0
TABLE
  2
VIEW
  5
6
100
AcDbSymbolTable
 70
0
  0
ENDTAB
  0
TABLE
  2
UCS
  5
7
100
AcDbSymbolTable
 70
0
  0
ENDTAB
  0
TABLE
  2
APPID
  5
9
100
AcDbSymbolTable
 70
1
  0
APPID
  5
203
100
AcDbSymbolTableRecord
100
AcDbRegAppTableRecord
  2
ACAD
 70
0
  0
ENDTAB
  0
TABLE
  2
BLOCK_RECORD
  5
1
100
AcDbSymbolTable
 70
0
  0
BLOCK_RECORD
  5
204
100
AcDbSymbolTableRecord
100
AcDbBlockTableRecord
  2
*Model_Space
  0
BLOCK_RECORD
  5
205
100
AcDbSymbolTableRecord
100
AcDbBlockTableRecord
  2
*Paper_Space
  0
BLOCK_RECORD
  5
206
100
AcDbSymbolTableRecord
100
AcDbBlockTableRecord
  2
SUN_FIRST_THIRD_ANGLE_BL0
  0
BLOCK_RECORD
  5
207
100
AcDbSymbolTableRecord
100
AcDbBlockTableRecord
  2
*T1
  0
BLOCK_RECORD
  5
208
100
AcDbSymbolTableRecord
100
AcDbBlockTableRecord
  2
*T2
  0
BLOCK_RECORD
  5
209
100
AcDbSymbolTableRecord
100
AcDbBlockTableRecord
  2
*T3
  0
ENDTAB
  0
TABLE
  2
DIMSTYLE
  5
A
100
AcDbSymbolTable
 70
1
100
AcDbDimStyleTable
 71
0
  0
DIMSTYLE
105
20A
100
AcDbSymbolTableRecord
100
AcDbDimStyleTableRecord
  2
STANDARD
 70
0
  3

  4

 40
1.0
 41
0.1875
 42
0.0625
 43
0.38
 44
0.125
 45
0.0
 46
0.0
 47
0.001
 48
0.001
140
0.1
141
0.09
142
0.0
143
25.4
144
1.0
145
0.0
146
1.0
147
0.09
 71
0.0
 72
0.0
 73
1
 74
1
 75
0
 76
0
 77
0
 78
4
170
0
171
2
172
0
173
0
174
0
175
0
176
0
177
0
178
0
270
2
271
3
272
3
273
2
274
2
275
0
280
0
281
0
282
0
283
1
284
4
285
0
286
0
287
3
288
0
340
11
278
46
  0
ENDTAB
  0
ENDSEC
  0
SECTION
  2
BLOCKS
  0
BLOCK
  5
20
100
AcDbEntity
  8
0
100
AcDbBlockBegin
  2
*Model_Space
 70
0
 10
0.0
 20
0.0
 30
0.0
  3
*Model_Space
  1

  0
ENDBLK
  5
21
100
AcDbEntity
  8
0
100
AcDbBlockEnd
  0
BLOCK
  5
1C
100
AcDbEntity
  8
0
100
AcDbBlockBegin
  2
*Paper_Space
 70
0
 10
0.0
 20
0.0
 30
0.0
  3
*Paper_Space
  1

  0
ENDBLK
  5
1D
100
AcDbEntity
  8
0
100
AcDbBlockEnd
  0
BLOCK
  5
20B
100
AcDbEntity
  8
0
100
AcDbBlockBegin
 62
2
  6
CONTINUOUS
  2
SUN_FIRST_THIRD_ANGLE_BL0
 70
64
 10
20.4816717061
 20
1.2289683772
  3
SUN_FIRST_THIRD_ANGLE_BL0
  1

  0
TEXT
  5
20C
100
AcDbEntity
  8
0
100
AcDbText
 62
2
  6
CONTINUOUS
 10
19.4750896608
 20
1.4136269581
  7
STANDARD
 40
0.08
  1
FIRST ANGLE
 41
0.8
 72
0
100
AcDbText
  0
TEXT
  5
20D
100
AcDbEntity
  8
0
100
AcDbText
 62
2
  6
CONTINUOUS
 10
20.7842537513
 20
1.4047600029
  7
STANDARD
 40
0.08
  1
THIRD ANGLE
 41
0.8
 72
0
100
AcDbText
  0
LINE
  5
20E
100
AcDbEntity
  8
0
100
AcDbLine
 62
7
  6
CONTINUOUS
 10
19.4767170086
 20
1.1727031207
 11
19.6334271527
 21
1.1717972817
  0
LINE
  5
20F
100
AcDbEntity
  8
0
100
AcDbLine
 62
7
  6
CONTINUOUS
 10
19.6596964832
 20
1.1717972817
 11
19.6950230232
 21
1.171593082
  0
LINE
  5
210
100
AcDbEntity
  8
0
100
AcDbLine
 62
7
  6
CONTINUOUS
 10
19.7194818561
 20
1.1708914427
 11
19.8852396156
 21
1.1699333054
  0
LINE
  5
211
100
AcDbEntity
  8
0
100
AcDbLine
 62
7
  6
CONTINUOUS
 10
19.4758111696
 20
1.2723454088
 11
19.88525039
 21
1.3511534004
  0
LINE
  5
212
100
AcDbEntity
  8
0
100
AcDbLine
 62
7
  6
CONTINUOUS
 10
19.88525039
 20
1.3511534004
 11
19.8831348489
 21
0.9851647912
  0
LINE
  5
213
100
AcDbEntity
  8
0
100
AcDbLine
 62
7
  6
CONTINUOUS
 10
19.8831348489
 20
0.9851647912
 11
19.4767170086
 21
1.0658141206
  0
LINE
  5
214
100
AcDbEntity
  8
0
100
AcDbLine
 62
7
  6
CONTINUOUS
 10
19.4767170086
 20
1.0658141206
 11
19.4779056764
 21
1.2714536432
  0
CIRCLE
  5
215
100
AcDbEntity
  8
0
100
AcDbCircle
 62
7
  6
CONTINUOUS
 10
20.2068232291
 20
1.1717972817
 40
0.175742101
  0
CIRCLE
  5
216
100
AcDbEntity
  8
0
100
AcDbCircle
 62
7
  6
CONTINUOUS
 10
20.2068232291
 20
1.1717972817
 40
0.1005522074
  0
LINE
  5
217
100
AcDbEntity
  8
0
100
AcDbLine
 62
7
  6
CONTINUOUS
 10
20.2077290681
 20
1.3756110529
 11
20.2071171714
 21
1.2379342989
  0
LINE
  5
218
100
AcDbEntity
  8
0
100
AcDbLine
 62
7
  6
CONTINUOUS
 10
20.2077290681
 20
1.2016899681
 11
20.2074674401
 21
1.1428236749
  0
LINE
  5
219
100
AcDbEntity
  8
0
100
AcDbLine
 62
7
  6
CONTINUOUS
 10
20.208634907
 20
1.101141841
 11
20.2080230104
 21
0.963465087
  0
LINE
  5
21A
100
AcDbEntity
  8
0
100
AcDbLine
 62
7
  6
CONTINUOUS
 10
20.0066328138
 20
1.1745147986
 11
20.1443095678
 21
1.1739029019
  0
LINE
  5
21B
100
AcDbEntity
  8
0
100
AcDbLine
 62
7
  6
CONTINUOUS
 10
20.1832714155
 20
1.1727031207
 11
20.238153505
 21
1.172335442
  0
LINE
  5
21C
100
AcDbEntity
  8
0
100
AcDbLine
 62
7
  6
CONTINUOUS
 10
20.2756669918
 20
1.1717972817
 11
20.407916871
 21
1.1712095044
  0
CIRCLE
  5
21D
100
AcDbEntity
  8
0
100
AcDbCircle
 62
7
  6
CONTINUOUS
 10
20.7509457401
 20
1.1693297793
 40
0.1722024983
  0
CIRCLE
  5
21E
100
AcDbEntity
  8
0
100
AcDbCircle
 62
7
  6
CONTINUOUS
 10
20.7509457401
 20
1.1693297793
 40
0.0985164967
  0
LINE
  5
21F
100
AcDbEntity
  8
0
100
AcDbLine
 62
7
  6
CONTINUOUS
 10
20.7169767782
 20
1.170462078
 11
20.7825395137
 21
1.1682766535
  0
LINE
  5
220
100
AcDbEntity
  8
0
100
AcDbLine
 62
7
  6
CONTINUOUS
 10
20.8177513651
 20
1.1693297793
 11
20.947965719
 21
1.1693297793
  0
LINE
  5
221
100
AcDbEntity
  8
0
100
AcDbLine
 62
7
  6
CONTINUOUS
 10
20.6875370113
 20
1.170462078
 11
20.5573226574
 21
1.170462078
  0
LINE
  5
222
100
AcDbEntity
  8
0
100
AcDbLine
 62
7
  6
CONTINUOUS
 10
20.7486811426
 20
1.1987695462
 11
20.7486811426
 21
1.1432869085
  0
LINE
  5
223
100
AcDbEntity
  8
0
100
AcDbLine
 62
7
  6
CONTINUOUS
 10
20.7498134414
 20
1.1059210505
 11
20.7498134414
 21
0.9757066966
  0
LINE
  5
224
100
AcDbEntity
  8
0
100
AcDbLine
 62
7
  6
CONTINUOUS
 10
20.7486811426
 20
1.2338708068
 11
20.7486811426
 21
1.3640851607
  0
LINE
  5
225
100
AcDbEntity
  8
0
100
AcDbLine
 62
7
  6
CONTINUOUS
 10
21.0702539817
 20
1.2701043662
 11
21.4790138229
 21
1.3448360823
  0
LINE
  5
226
100
AcDbEntity
  8
0
100
AcDbLine
 62
7
  6
CONTINUOUS
 10
21.4790138229
 20
1.3448360823
 11
21.4790138229
 21
0.9779712941
  0
LINE
  5
227
100
AcDbEntity
  8
0
100
AcDbLine
 62
7
  6
CONTINUOUS
 10
21.4790138229
 20
0.9779712941
 11
21.069121683
 21
1.0617614
  0
LINE
  5
228
100
AcDbEntity
  8
0
100
AcDbLine
 62
7
  6
CONTINUOUS
 10
21.0702539817
 20
1.2701043662
 11
21.069121683
 21
1.0617614
  0
LINE
  5
229
100
AcDbEntity
  8
0
100
AcDbLine
 62
7
  6
CONTINUOUS
 10
21.4790138229
 20
1.1693297793
 11
21.3159628059
 21
1.1693297793
  0
LINE
  5
22A
100
AcDbEntity
  8
0
100
AcDbLine
 62
7
  6
CONTINUOUS
 10
21.2876553377
 20
1.1693297793
 11
21.2502894796
 21
1.1693297793
  0
LINE
  5
22B
100
AcDbEntity
  8
0
100
AcDbLine
 62
7
  6
CONTINUOUS
 10
21.2208497126
 20
1.1659328831
 11
21.0713862804
 21
1.1659328831
  0
LINE
  5
22C
100
AcDbEntity
  8
0
100
AcDbLine
 62
7
  6
CONTINUOUS
 10
20.4796138713
 20
1.5284908897
 11
20.4766766948
 21
0.9294458646
  0
ENDBLK
  5
22D
100
AcDbEntity
  8
0
  6
BYBLOCK
 62
0
100
AcDbBlockEnd
  0
BLOCK
  5
22E
100
AcDbEntity
  8
0
100
AcDbBlockBegin
  2
*T1
 70
1
 10
0.0
 20
0.0
  3
*T1
  1

  0
LINE
  5
22F
100
AcDbEntity
  8
0
100
AcDbLine
 62
2
  6
CONTINUOUS
 10
9.275
 20
0.0
 11
-0.0
 21
0.0
  0
LINE
  5
230
100
AcDbEntity
  8
0
100
AcDbLine
 62
2
  6
CONTINUOUS
 10
9.275
 20
0.0
 11
9.275
 21
1.25
  0
LINE
  5
231
100
AcDbEntity
  8
0
100
AcDbLine
 62
2
  6
CONTINUOUS
 10
9.275
 20
0.625
 11
-0.0
 21
0.625
  0
LINE
  5
232
100
AcDbEntity
  8
0
100
AcDbLine
 62
2
  6
CONTINUOUS
 10
9.275
 20
1.25
 11
-0.0
 21
1.25
  0
LINE
  5
233
100
AcDbEntity
  8
0
100
AcDbLine
 62
2
  6
CONTINUOUS
 10
6.8
 20
0.0
 11
6.8
 21
1.25
  0
LINE
  5
234
100
AcDbEntity
  8
0
100
AcDbLine
 62
2
  6
CONTINUOUS
 10
6.4
 20
0.0
 11
6.4
 21
0.625
  0
LINE
  5
235
100
AcDbEntity
  8
0
100
AcDbLine
 62
2
  6
CONTINUOUS
 10
5.9
 20
0.0
 11
5.9
 21
0.625
  0
LINE
  5
236
100
AcDbEntity
  8
0
100
AcDbLine
 62
2
  6
CONTINUOUS
 10
5.2
 20
0.0
 11
5.2
 21
0.625
  0
LINE
  5
237
100
AcDbEntity
  8
0
100
AcDbLine
 62
2
  6
CONTINUOUS
 10
4.1
 20
0.0
 11
4.1
 21
1.25
  0
LINE
  5
238
100
AcDbEntity
  8
0
100
AcDbLine
 62
2
  6
CONTINUOUS
 10
-0.0
 20
0.0
 11
-0.0
 21
1.25
  0
MTEXT
  5
239
100
AcDbEntity
  8
0
100
AcDbMText
 62
2
  6
CONTINUOUS
  7
STANDARD
 71
2
 72
1
 10
6.6
 20
0.325
 30
0.0
 11
1.0
 21
0.0
 31
0.0
 44
0.9
  1
2
 40
0.125
 41
0.2
  0
MTEXT
  5
23A
100
AcDbEntity
  8
0
100
AcDbMText
 62
2
  6
CONTINUOUS
  7
STANDARD
 71
2
 72
1
 10
6.15
 20
0.325
 30
0.0
 11
1.0
 21
0.0
 31
0.0
 44
0.9
  1
C
 40
0.125
 41
0.2
  0
MTEXT
  5
23B
100
AcDbEntity
  8
0
100
AcDbMText
 62
2
  6
CONTINUOUS
  7
STANDARD
 71
2
 72
1
 10
5.55
 20
0.325
 30
0.0
 11
1.0
 21
0.0
 31
0.0
 44
0.9
  1
2.000
 40
0.125
 41
1.0
  0
MTEXT
  5
23C
100
AcDbEntity
  8
0
100
AcDbMText
 62
2
  6
CONTINUOUS
  7
STANDARD
 71
2
 72
1
 10
4.65
 20
0.325
 30
0.0
 11
1.0
 21
0.0
 31
0.0
 44
0.9
  1
Oct-15-19
 40
0.125
 41
1.8
  0
MTEXT
  5
23D
100
AcDbEntity
  8
0
100
AcDbMText
 62
2
  6
CONTINUOUS
  7
STANDARD
 71
2
 72
1
 10
2.05
 20
0.4625
 30
0.0
 11
1.0
 21
0.0
 31
0.0
 44
0.9
  1
T-11A Motor mount Eaton/Char-Lynn H & S\PCross pilot
 40
0.125
 41
7.8
  0
MTEXT
  5
23E
100
AcDbEntity
  8
0
100
AcDbMText
 62
2
  6
CONTINUOUS
  7
STANDARD
 71
1
 72
1
 10
6.45
 20
0.5625
 30
0.0
 11
1.0
 21
0.0
 31
0.0
 44
0.9
  1
SHEET
 40
0.06
 41
0.48
  0
MTEXT
  5
23F
100
AcDbEntity
  8
0
100
AcDbMText
 62
2
  6
CONTINUOUS
  7
STANDARD
 71
1
 72
1
 10
5.95
 20
0.5625
 30
0.0
 11
1.0
 21
0.0
 31
0.0
 44
0.9
  1
DWG SIZE
 40
0.06
 41
0.768
  0
MTEXT
  5
240
100
AcDbEntity
  8
0
100
AcDbMText
 62
2
  6
CONTINUOUS
  7
STANDARD
 71
1
 72
1
 10
5.25
 20
0.5625
 30
0.0
 11
1.0
 21
0.0
 31
0.0
 44
0.9
  1
SCALE
 40
0.06
 41
0.48
  0
MTEXT
  5
241
100
AcDbEntity
  8
0
100
AcDbMText
 62
2
  6
CONTINUOUS
  7
STANDARD
 71
1
 72
1
 10
4.15
 20
0.5625
 30
0.0
 11
1.0
 21
0.0
 31
0.0
 44
0.9
  1
DATE
 40
0.06
 41
0.384
  0
MTEXT
  5
242
100
AcDbEntity
  8
0
100
AcDbMText
 62
2
  6
CONTINUOUS
  7
STANDARD
 71
1
 72
1
 10
0.05
 20
0.5625
 30
0.0
 11
1.0
 21
0.0
 31
0.0
 44
0.9
  1
DESCRIPTION
 40
0.06
 41
1.056
  0
MTEXT
  5
243
100
AcDbEntity
  8
0
100
AcDbMText
 62
2
  6
CONTINUOUS
  7
STANDARD
 71
2
 72
1
 10
5.45
 20
1.0375
 30
0.0
 11
1.0
 21
0.0
 31
0.0
 44
0.9
  1
ALL DIMENSIONS IN INCH\PVIEWS ARE THIRD ANGLE
 40
0.12
 41
4.224
  0
MTEXT
  5
244
100
AcDbEntity
  8
0
100
AcDbMText
 62
2
  6
CONTINUOUS
  7
STANDARD
 71
2
 72
1
 10
2.05
 20
0.95
 30
0.0
 11
1.0
 21
0.0
 31
0.0
 44
0.9
  1
YWC
 40
0.125
 41
0.6
  0
MTEXT
  5
245
100
AcDbEntity
  8
0
100
AcDbMText
 62
2
  6
CONTINUOUS
  7
STANDARD
 71
1
 72
1
 10
0.05
 20
1.1875
 30
0.0
 11
1.0
 21
0.0
 31
0.0
 44
0.9
  1
MODEL
 40
0.06
 41
0.48
  0
ENDBLK
  5
246
100
AcDbEntity
  8
0
  6
BYBLOCK
 62
0
100
AcDbBlockEnd
  0
BLOCK
  5
247
100
AcDbEntity
  8
0
100
AcDbBlockBegin
  2
*T2
 70
1
 10
0.0
 20
0.0
  3
*T2
  1

  0
LINE
  5
248
100
AcDbEntity
  8
0
100
AcDbLine
 62
2
  6
CONTINUOUS
 10
0.0
 20
0.0
 11
9.055
 21
0.0
  0
LINE
  5
249
100
AcDbEntity
  8
0
100
AcDbLine
 62
2
  6
CONTINUOUS
 10
0.0
 20
0.0
 11
0.0
 21
-1.844
  0
LINE
  5
24A
100
AcDbEntity
  8
0
100
AcDbLine
 62
2
  6
CONTINUOUS
 10
0.0
 20
-0.344
 11
9.055
 21
-0.344
  0
LINE
  5
24B
100
AcDbEntity
  8
0
100
AcDbLine
 62
2
  6
CONTINUOUS
 10
0.0
 20
-0.594
 11
9.055
 21
-0.594
  0
LINE
  5
24C
100
AcDbEntity
  8
0
100
AcDbLine
 62
2
  6
CONTINUOUS
 10
0.0
 20
-0.844
 11
9.055
 21
-0.844
  0
LINE
  5
24D
100
AcDbEntity
  8
0
100
AcDbLine
 62
2
  6
CONTINUOUS
 10
0.0
 20
-1.094
 11
9.055
 21
-1.094
  0
LINE
  5
24E
100
AcDbEntity
  8
0
100
AcDbLine
 62
2
  6
CONTINUOUS
 10
0.0
 20
-1.344
 11
9.055
 21
-1.344
  0
LINE
  5
24F
100
AcDbEntity
  8
0
100
AcDbLine
 62
2
  6
CONTINUOUS
 10
0.0
 20
-1.594
 11
9.055
 21
-1.594
  0
LINE
  5
250
100
AcDbEntity
  8
0
100
AcDbLine
 62
2
  6
CONTINUOUS
 10
0.0
 20
-1.844
 11
9.055
 21
-1.844
  0
LINE
  5
251
100
AcDbEntity
  8
0
100
AcDbLine
 62
2
  6
CONTINUOUS
 10
3.055
 20
0.0
 11
3.055
 21
-1.844
  0
LINE
  5
252
100
AcDbEntity
  8
0
100
AcDbLine
 62
2
  6
CONTINUOUS
 10
9.055
 20
0.0
 11
9.055
 21
-1.844
  0
MTEXT
  5
253
100
AcDbEntity
  8
0
100
AcDbMText
 62
2
  6
CONTINUOUS
  7
STANDARD
 71
2
 72
1
 10
1.5275
 20
-0.0995
 30
0.0
 11
1.0
 21
0.0
 31
0.0
 44
0.9
  1
Technical Data
 40
0.145
 41
3.248
  0
MTEXT
  5
254
100
AcDbEntity
  8
0
100
AcDbMText
 62
2
  6
CONTINUOUS
  7
STANDARD
 71
2
 72
1
 10
4.555
 20
-0.0995
 30
0.0
 11
1.0
 21
0.0
 31
0.0
 44
0.9
  1
U.S. Units
 40
0.145
 41
2.32
  0
MTEXT
  5
255
100
AcDbEntity
  8
0
100
AcDbMText
 62
2
  6
CONTINUOUS
  7
STANDARD
 71
2
 72
1
 10
7.555
 20
-0.0995
 30
0.0
 11
1.0
 21
0.0
 31
0.0
 44
0.9
  1
Metric Units
 40
0.145
 41
2.784
  0
MTEXT
  5
256
100
AcDbEntity
  8
0
100
AcDbMText
 62
2
  6
CONTINUOUS
  7
STANDARD
 71
2
 72
1
 10
1.5275
 20
-0.4065
 30
0.0
 11
1.0
 21
0.0
 31
0.0
 44
0.9
  1
Cavity
 40
0.125
 41
1.2
  0
MTEXT
  5
257
100
AcDbEntity
  8
0
100
AcDbMText
 62
2
  6
CONTINUOUS
  7
STANDARD
 71
2
 72
1
 10
6.055
 20
-0.4065
 30
0.0
 11
1.0
 21
0.0
 31
0.0
 44
0.9
  1
T-11A
 40
0.125
 41
1.0
  0
MTEXT
  5
258
100
AcDbEntity
  8
0
100
AcDbMText
 62
2
  6
CONTINUOUS
  7
STANDARD
 71
2
 72
1
 10
1.5275
 20
-0.6565
 30
0.0
 11
1.0
 21
0.0
 31
0.0
 44
0.9
  1
Body Features
 40
0.125
 41
2.6
  0
MTEXT
  5
259
100
AcDbEntity
  8
0
100
AcDbMText
 62
2
  6
CONTINUOUS
  7
STANDARD
 71
2
 72
1
 10
6.055
 20
-0.6565
 30
0.0
 11
1.0
 21
0.0
 31
0.0
 44
0.9
  1
Cross pilot
 40
0.125
 41
2.2
  0
MTEXT
  5
25A
100
AcDbEntity
  8
0
100
AcDbMText
 62
2
  6
CONTINUOUS
  7
STANDARD
 71
2
 72
1
 10
1.5275
 20
-0.9065
 30
0.0
 11
1.0
 21
0.0
 31
0.0
 44
0.9
  1
Body Type
 40
0.125
 41
1.8
  0
MTEXT
  5
25B
100
AcDbEntity
  8
0
100
AcDbMText
 62
2
  6
CONTINUOUS
  7
STANDARD
 71
2
 72
1
 10
6.055
 20
-0.9065
 30
0.0
 11
1.0
 21
0.0
 31
0.0
 44
0.9
  1
Motor mount
 40
0.125
 41
2.2
  0
MTEXT
  5
25C
100
AcDbEntity
  8
0
100
AcDbMText
 62
2
  6
CONTINUOUS
  7
STANDARD
 71
2
 72
1
 10
1.5275
 20
-1.1565
 30
0.0
 11
1.0
 21
0.0
 31
0.0
 44
0.9
  1
Interface
 40
0.125
 41
1.8
  0
MTEXT
  5
25D
100
AcDbEntity
  8
0
100
AcDbMText
 62
2
  6
CONTINUOUS
  7
STANDARD
 71
2
 72
1
 10
6.055
 20
-1.1565
 30
0.0
 11
1.0
 21
0.0
 31
0.0
 44
0.9
  1
Eaton/Char-Lynn H & S
 40
0.125
 41
4.2
  0
MTEXT
  5
25E
100
AcDbEntity
  8
0
100
AcDbMText
 62
2
  6
CONTINUOUS
  7
STANDARD
 71
2
 72
1
 10
1.5275
 20
-1.4065
 30
0.0
 11
1.0
 21
0.0
 31
0.0
 44
0.9
  1
Open Cavity Quantity
 40
0.125
 41
4.0
  0
MTEXT
  5
25F
100
AcDbEntity
  8
0
100
AcDbMText
 62
2
  6
CONTINUOUS
  7
STANDARD
 71
2
 72
1
 10
6.055
 20
-1.4065
 30
0.0
 11
1.0
 21
0.0
 31
0.0
 44
0.9
  1
2
 40
0.125
 41
0.2
  0
MTEXT
  5
260
100
AcDbEntity
  8
0
100
AcDbMText
 62
2
  6
CONTINUOUS
  7
STANDARD
 71
2
 72
1
 10
1.5275
 20
-1.6565
 30
0.0
 11
1.0
 21
0.0
 31
0.0
 44
0.9
  1
Weight
 40
0.125
 41
1.2
  0
MTEXT
  5
261
100
AcDbEntity
  8
0
100
AcDbMText
 62
2
  6
CONTINUOUS
  7
STANDARD
 71
2
 72
1
 10
4.555
 20
-1.6565
 30
0.0
 11
1.0
 21
0.0
 31
0.0
 44
0.9
  1
1.678 lb.
 40
0.125
 41
1.8
  0
MTEXT
  5
262
100
AcDbEntity
  8
0
100
AcDbMText
 62
2
  6
CONTINUOUS
  7
STANDARD
 71
2
 72
1
 10
7.555
 20
-1.6565
 30
0.0
 11
1.0
 21
0.0
 31
0.0
 44
0.9
  1
0,761 kg.
 40
0.125
 41
1.8
  0
ENDBLK
  5
263
100
AcDbEntity
  8
0
  6
BYBLOCK
 62
0
100
AcDbBlockEnd
  0
BLOCK
  5
264
100
AcDbEntity
  8
0
100
AcDbBlockBegin
  2
*T3
 70
1
 10
0.0
 20
0.0
  3
*T3
  1

  0
LINE
  5
265
100
AcDbEntity
  8
0
100
AcDbLine
 62
2
  6
CONTINUOUS
 10
0.0
 20
0.0
 11
4.6
 21
0.0
  0
LINE
  5
266
100
AcDbEntity
  8
0
100
AcDbLine
 62
2
  6
CONTINUOUS
 10
0.0
 20
0.0
 11
0.0
 21
-0.93775
  0
LINE
  5
267
100
AcDbEntity
  8
0
100
AcDbLine
 62
2
  6
CONTINUOUS
 10
0.0
 20
-0.34375
 11
4.6
 21
-0.34375
  0
LINE
  5
268
100
AcDbEntity
  8
0
100
AcDbLine
 62
2
  6
CONTINUOUS
 10
0.0
 20
-0.68775
 11
4.6
 21
-0.68775
  0
LINE
  5
269
100
AcDbEntity
  8
0
100
AcDbLine
 62
2
  6
CONTINUOUS
 10
0.0
 20
-0.93775
 11
4.6
 21
-0.93775
  0
LINE
  5
26A
100
AcDbEntity
  8
0
100
AcDbLine
 62
2
  6
CONTINUOUS
 10
1.3
 20
-0.34375
 11
1.3
 21
-0.93775
  0
LINE
  5
26B
100
AcDbEntity
  8
0
100
AcDbLine
 62
2
  6
CONTINUOUS
 10
3.3
 20
-0.34375
 11
3.3
 21
-0.93775
  0
LINE
  5
26C
100
AcDbEntity
  8
0
100
AcDbLine
 62
2
  6
CONTINUOUS
 10
4.6
 20
0.0
 11
4.6
 21
-0.93775
  0
MTEXT
  5
26D
100
AcDbEntity
  8
0
100
AcDbMText
 62
2
  6
CONTINUOUS
  7
STANDARD
 71
2
 72
1
 10
2.3
 20
-0.099375
 30
0.0
 11
1.0
 21
0.0
 31
0.0
 44
0.9
  1
Port Headings
 40
0.145
 41
3.016
  0
MTEXT
  5
26E
100
AcDbEntity
  8
0
100
AcDbMText
 62
2
  6
CONTINUOUS
  7
STANDARD
 71
2
 72
1
 10
0.65
 20
-0.44325
 30
0.0
 11
1.0
 21
0.0
 31
0.0
 44
0.9
  1
Product
 40
0.145
 41
1.624
  0
MTEXT
  5
26F
100
AcDbEntity
  8
0
100
AcDbMText
 62
2
  6
CONTINUOUS
  7
STANDARD
 71
2
 72
1
 10
2.3
 20
-0.44325
 30
0.0
 11
1.0
 21
0.0
 31
0.0
 44
0.9
  1
Port
 40
0.145
 41
0.928
  0
MTEXT
  5
270
100
AcDbEntity
  8
0
100
AcDbMText
 62
2
  6
CONTINUOUS
  7
STANDARD
 71
2
 72
1
 10
3.95
 20
-0.44325
 30
0.0
 11
1.0
 21
0.0
 31
0.0
 44
0.9
  1
Size
 40
0.145
 41
0.928
  0
MTEXT
  5
271
100
AcDbEntity
  8
0
100
AcDbMText
 62
2
  6
CONTINUOUS
  7
STANDARD
 71
2
 72
1
 10
0.65
 20
-0.75025
 30
0.0
 11
1.0
 21
0.0
 31
0.0
 44
0.9
  1
YWC
 40
0.125
 41
0.6
  0
MTEXT
  5
272
100
AcDbEntity
  8
0
100
AcDbMText
 62
2
  6
CONTINUOUS
  7
STANDARD
 71
2
 72
1
 10
2.3
 20
-0.75025
 30
0.0
 11
1.0
 21
0.0
 31
0.0
 44
0.9
  1
Ports VA & VB
 40
0.125
 41
2.6
  0
MTEXT
  5
273
100
AcDbEntity
  8
0
100
AcDbMText
 62
2
  6
CONTINUOUS
  7
STANDARD
 71
2
 72
1
 10
3.95
 20
-0.75025
 30
0.0
 11
1.0
 21
0.0
 31
0.0
 44
0.9
  1
SAE 8
 40
0.125
 41
1.0
  0
ENDBLK
  5
274
100
AcDbEntity
  8
0
  6
BYBLOCK
 62
0
100
AcDbBlockEnd
  0
ENDSEC
  0
SECTION
  2
ENTITIES
  0
IMAGE
  5
275
100
AcDbEntity
  8
0
100
AcDbRasterImage
 62
7
  6
CONTINUOUS
 10
19.2297077316
 20
0.3094318264
 30
0.0
 11
0.0066666667
 21
0.0
 31
0.0
 12
0.0
 22
0.0066666667
 32
0.0
 13
369.0
 23
92.0
340
       376
 70
9
280
0
281
50
282
50
283
0
360
       370
 71
1
 91
2
 14
-0.5
 24
-0.5
 14
368.5
 24
91.5
  0
INSERT
  5
276
100
AcDbEntity
  8
0
100
AcDbBlockReference
 62
2
  6
CONTINUOUS
  2
SUN_FIRST_THIRD_ANGLE_BL0
 10
20.4816717061
 20
1.2289683772
  0
ACAD_TABLE
  5
277
100
AcDbEntity
  8
0
 62
2
  6
CONTINUOUS
100
AcDbBlockReference
  2
*T1
 10
12.42375
 20
0.30125
 30
0.0
100
AcDbTable
342
       378
343
207
 11
1.0
 21
0.0
 31
0.0
 90
6
 91
4
 92
6
 93
20
 94
0
 95
0
 96
0
 70
1
 41
0.0
141
0.525
141
0.1
141
0.525
141
0.1
142
4.1
142
1.1
142
0.7
142
0.5
142
0.4
142
2.475
171
1
172
0
173
0
174
0
175
1
176
1
 91
33
178
0
145
0.0
301
CELL_VALUE
 90
4
  1
T-11A Motor mount Eaton/Char-Lynn H & S\PCross pilot
304
ACVALUE_END
170
2
140
0.125
171
1
172
0
173
0
174
0
175
1
176
1
 91
33
178
0
145
0.0
301
CELL_VALUE
 90
4
  1
Oct-15-19
304
ACVALUE_END
170
5
140
0.125
171
1
172
0
173
0
174
0
175
1
176
1
 91
33
178
0
145
0.0
301
CELL_VALUE
 90
4
  1
2.000
304
ACVALUE_END
170
5
140
0.125
171
1
172
0
173
0
174
0
175
1
176
1
 91
33
178
0
145
0.0
301
CELL_VALUE
 90
4
  1
C
304
ACVALUE_END
170
5
140
0.125
171
1
172
0
173
0
174
0
175
1
176
1
 91
33
178
0
145
0.0
301
CELL_VALUE
 90
4
  1
2
304
ACVALUE_END
170
5
140
0.125
171
1
172
0
173
0
174
0
175
1
176
1
 91
33
178
0
145
0.0
301
CELL_VALUE
 90
4
  1
 
304
ACVALUE_END
170
1
140
0.125
171
1
172
0
173
0
174
0
175
1
176
1
 91
33
178
0
145
0.0
301
CELL_VALUE
 90
4
  1
DESCRIPTION
304
ACVALUE_END
170
1
140
0.06
171
1
172
0
173
0
174
0
175
1
176
1
 91
33
178
0
145
0.0
301
CELL_VALUE
 90
4
  1
DATE
304
ACVALUE_END
170
1
140
0.06
171
1
172
0
173
0
174
0
175
1
176
1
 91
33
178
0
145
0.0
301
CELL_VALUE
 90
4
  1
SCALE
304
ACVALUE_END
170
1
140
0.06
171
1
172
0
173
0
174
0
175
1
176
1
 91
33
178
0
145
0.0
301
CELL_VALUE
 90
4
  1
DWG SIZE
304
ACVALUE_END
170
1
140
0.06
171
1
172
0
173
0
174
0
175
1
176
1
 91
33
178
0
145
0.0
301
CELL_VALUE
 90
4
  1
SHEET
304
ACVALUE_END
170
1
140
0.06
171
1
172
0
173
0
174
0
175
1
176
1
 91
33
178
0
145
0.0
301
CELL_VALUE
 90
4
  1
 
304
ACVALUE_END
170
1
140
0.125
171
1
172
0
173
0
174
0
175
1
176
1
 91
33
178
0
145
0.0
301
CELL_VALUE
 90
4
  1
YWC
304
ACVALUE_END
170
5
140
0.125
171
1
172
0
173
0
174
0
175
4
176
1
 91
33
178
0
145
0.0
301
CELL_VALUE
 90
4
  1
ALL DIMENSIONS IN INCH\PVIEWS ARE THIRD ANGLE
304
ACVALUE_END
170
5
140
0.12
171
1
172
0
173
1
174
0
175
1
176
1
 91
1
178
0
145
0.0
170
1
171
1
172
0
173
1
174
0
175
1
176
1
 91
1
178
0
145
0.0
170
1
171
1
172
0
173
1
174
0
175
1
176
1
 91
1
178
0
145
0.0
170
5
171
1
172
0
173
0
174
0
175
1
176
1
 91
33
178
0
145
0.0
301
CELL_VALUE
 90
4
  1
 
304
ACVALUE_END
170
1
140
0.125
171
1
172
0
173
0
174
0
175
1
176
1
 91
33
178
0
145
0.0
301
CELL_VALUE
 90
4
  1
MODEL
304
ACVALUE_END
170
1
140
0.06
171
1
172
0
173
0
174
0
175
1
176
1
 91
33
178
0
145
0.0
301
CELL_VALUE
 90
4
  1
 
304
ACVALUE_END
170
1
140
0.125
171
1
172
0
173
0
174
0
175
1
176
1
 91
33
178
0
145
0.0
301
CELL_VALUE
 90
4
  1
 
304
ACVALUE_END
170
1
140
0.125
171
1
172
0
173
0
174
0
175
1
176
1
 91
33
178
0
145
0.0
301
CELL_VALUE
 90
4
  1
 
304
ACVALUE_END
170
1
140
0.125
171
1
172
0
173
0
174
0
175
1
176
1
 91
33
178
0
145
0.0
301
CELL_VALUE
 90
4
  1
 
304
ACVALUE_END
170
1
140
0.125
171
1
172
0
173
0
174
0
175
1
176
1
 91
33
178
0
145
0.0
301
CELL_VALUE
 90
4
  1
 
304
ACVALUE_END
170
1
140
0.125
  0
ACAD_TABLE
  5
278
100
AcDbEntity
  8
0
 62
2
  6
CONTINUOUS
100
AcDbBlockReference
  2
*T2
 10
12.4237499994
 20
16.47875
 30
0.0
100
AcDbTable
342
       377
343
208
 11
1.0
 21
0.0
 31
0.0
 90
22
 91
7
 92
3
 93
16
 94
0
 95
0
 96
0
 41
0.028
141
0.344
141
0.25
141
0.25
141
0.25
141
0.25
141
0.25
141
0.25
142
3.055
142
3.0
142
3.0
171
1
172
0
173
0
174
0
175
1
176
1
 91
33
178
0
145
0.0
301
CELL_VALUE
 90
4
  1
Technical Data
304
ACVALUE_END
170
5
140
0.145
171
1
172
0
173
0
174
0
175
1
176
1
 91
33
178
0
145
0.0
301
CELL_VALUE
 90
4
  1
U.S. Units
304
ACVALUE_END
170
5
140
0.145
171
1
172
0
173
0
174
0
175
1
176
1
 91
33
178
0
145
0.0
301
CELL_VALUE
 90
4
  1
Metric Units
304
ACVALUE_END
170
5
140
0.145
171
1
172
0
173
0
174
0
175
1
176
1
 91
33
178
0
145
0.0
301
CELL_VALUE
 90
4
  1
Cavity
304
ACVALUE_END
170
5
140
0.125
171
1
172
0
173
0
174
0
175
2
176
1
 91
33
178
0
145
0.0
301
CELL_VALUE
 90
4
  1
T-11A
304
ACVALUE_END
170
5
140
0.125
171
1
172
0
173
1
174
0
175
1
176
1
 91
1
178
0
145
0.0
170
1
171
1
172
0
173
0
174
0
175
1
176
1
 91
33
178
0
145
0.0
301
CELL_VALUE
 90
4
  1
Body Features
304
ACVALUE_END
170
5
140
0.125
171
1
172
0
173
0
174
0
175
2
176
1
 91
33
178
0
145
0.0
301
CELL_VALUE
 90
4
  1
Cross pilot
304
ACVALUE_END
170
5
140
0.125
171
1
172
0
173
1
174
0
175
1
176
1
 91
1
178
0
145
0.0
170
1
171
1
172
0
173
0
174
0
175
1
176
1
 91
33
178
0
145
0.0
301
CELL_VALUE
 90
4
  1
Body Type
304
ACVALUE_END
170
5
140
0.125
171
1
172
0
173
0
174
0
175
2
176
1
 91
33
178
0
145
0.0
301
CELL_VALUE
 90
4
  1
Motor mount
304
ACVALUE_END
170
5
140
0.125
171
1
172
0
173
1
174
0
175
1
176
1
 91
1
178
0
145
0.0
170
1
171
1
172
0
173
0
174
0
175
1
176
1
 91
33
178
0
145
0.0
301
CELL_VALUE
 90
4
  1
Interface
304
ACVALUE_END
170
5
140
0.125
171
1
172
0
173
0
174
0
175
2
176
1
 91
33
178
0
145
0.0
301
CELL_VALUE
 90
4
  1
Eaton/Char-Lynn H & S
304
ACVALUE_END
170
5
140
0.125
171
1
172
0
173
1
174
0
175
1
176
1
 91
1
178
0
145
0.0
170
1
171
1
172
0
173
0
174
0
175
1
176
1
 91
33
178
0
145
0.0
301
CELL_VALUE
 90
4
  1
Open Cavity Quantity
304
ACVALUE_END
170
5
140
0.125
171
1
172
0
173
0
174
0
175
2
176
1
 91
33
178
0
145
0.0
301
CELL_VALUE
 90
4
  1
2
304
ACVALUE_END
170
5
140
0.125
171
1
172
0
173
1
174
0
175
1
176
1
 91
1
178
0
145
0.0
170
1
171
1
172
0
173
0
174
0
175
1
176
1
 91
33
178
0
145
0.0
301
CELL_VALUE
 90
4
  1
Weight
304
ACVALUE_END
170
5
140
0.125
171
1
172
0
173
0
174
0
175
1
176
1
 91
33
178
0
145
0.0
301
CELL_VALUE
 90
4
  1
1.678 lb.
304
ACVALUE_END
170
5
140
0.125
171
1
172
0
173
0
174
0
175
1
176
1
 91
33
178
0
145
0.0
301
CELL_VALUE
 90
4
  1
0,761 kg.
304
ACVALUE_END
170
5
140
0.125
  0
ACAD_TABLE
  5
279
100
AcDbEntity
  8
0
 62
2
  6
CONTINUOUS
100
AcDbBlockReference
  2
*T3
 10
0.52125
 20
1.459
 30
0.0
100
AcDbTable
342
       377
343
209
 11
1.0
 21
0.0
 31
0.0
 90
22
 91
3
 92
3
 93
16
 94
0
 95
0
 96
0
 41
0.05
141
0.34375
141
0.344
141
0.25
142
1.3
142
2.0
142
1.3
171
1
172
0
173
0
174
0
175
3
176
1
 91
33
178
0
145
0.0
301
CELL_VALUE
 90
4
  1
Port Headings
304
ACVALUE_END
170
5
140
0.145
171
1
172
0
173
1
174
0
175
1
176
1
 91
1
178
0
145
0.0
170
1
171
1
172
0
173
1
174
0
175
1
176
1
 91
1
178
0
145
0.0
170
1
171
1
172
0
173
0
174
0
175
1
176
1
 91
33
178
0
145
0.0
301
CELL_VALUE
 90
4
  1
Product
304
ACVALUE_END
170
5
140
0.145
171
1
172
0
173
0
174
0
175
1
176
1
 91
33
178
0
145
0.0
301
CELL_VALUE
 90
4
  1
Port
304
ACVALUE_END
170
5
140
0.145
171
1
172
0
173
0
174
0
175
1
176
1
 91
33
178
0
145
0.0
301
CELL_VALUE
 90
4
  1
Size
304
ACVALUE_END
170
5
140
0.145
171
1
172
0
173
0
174
0
175
1
176
1
 91
33
178
0
145
0.0
301
CELL_VALUE
 90
4
  1
YWC
304
ACVALUE_END
170
5
140
0.125
171
1
172
0
173
0
174
0
175
1
176
1
 91
33
178
0
145
0.0
301
CELL_VALUE
 90
4
  1
Ports VA & VB
304
ACVALUE_END
170
5
140
0.125
171
1
172
0
173
0
174
0
175
1
176
1
 91
33
178
0
145
0.0
301
CELL_VALUE
 90
4
  1
SAE 8
304
ACVALUE_END
170
5
140
0.125
  0
MTEXT
  5
27A
100
AcDbEntity
  8
0
100
AcDbMText
 62
2
  6
CONTINUOUS
  7
STANDARD
 71
1
 72
1
 10
0.52125
 20
5.75995
 30
0.0
 11
1.0
 21
0.0
 31
0.0
 44
0.6
  3
Notes\P \P1. Important: Carefully consider\P   the maximum system pressure. The\P   pressure rating of the manifold is\P   dependent on the manifold material,\P   with the port type/size a secondary\P   consideration. Manifolds\P   constructed of alu
  1
minum are not\P   rated for pressures higher than\P   3000 psi (210 bar), regardless of\P   the port type/size specified.
 40
0.1
 41
3.04
  0
LINE
  5
27B
100
AcDbEntity
  8
0
100
AcDbLine
 62
7
  6
CONTINUOUS
 10
0.30125
 20
0.30125
 11
0.30125
 21
16.69875
  0
LINE
  5
27C
100
AcDbEntity
  8
0
100
AcDbLine
 62
7
  6
CONTINUOUS
 10
0.30125
 20
0.30125
 11
21.69875
 21
0.30125
  0
LINE
  5
27D
100
AcDbEntity
  8
0
100
AcDbLine
 62
7
  6
CONTINUOUS
 10
0.30125
 20
16.69875
 11
21.69875
 21
16.69875
  0
LINE
  5
27E
100
AcDbEntity
  8
0
100
AcDbLine
 62
7
  6
CONTINUOUS
 10
21.69875
 20
0.30125
 11
21.69875
 21
16.69875
  0
LINE
  5
27F
100
AcDbEntity
  8
0
100
AcDbLine
 62
7
  6
CONTINUOUS
 10
7.1476985082
 20
5.9069979507
 11
7.1476985082
 21
9.6509266052
  0
LINE
  5
280
100
AcDbEntity
  8
0
100
AcDbLine
 62
7
  6
CONTINUOUS
 10
9.0567461906
 20
11.4949251746
 11
7.1476985082
 21
9.6509266052
  0
LINE
  5
281
100
AcDbEntity
  8
0
100
AcDbLine
 62
7
  6
CONTINUOUS
 10
7.1476985082
 20
5.9069979507
 11
12.9432538094
 21
5.5050748254
  0
LINE
  5
282
100
AcDbEntity
  8
0
100
AcDbLine
 62
4
  6
CONTINUOUS
 10
8.5042351999
 20
9.8612404615
 11
8.4939072785
 21
9.9262644532
  0
LINE
  5
283
100
AcDbEntity
  8
0
100
AcDbLine
 62
4
  6
CONTINUOUS
 10
10.2495014453
 20
10.7698953913
 11
10.2361907622
 21
10.757038258
  0
LINE
  5
284
100
AcDbEntity
  8
0
100
AcDbLine
 62
4
  6
CONTINUOUS
 10
10.3266691909
 20
10.7415767371
 11
10.3133585092
 21
10.7287196051
  0
LINE
  5
285
100
AcDbEntity
  8
0
100
AcDbLine
 62
4
  6
CONTINUOUS
 10
10.497882318
 20
10.7526701193
 11
10.4623871655
 21
10.7183844327
  0
LINE
  5
286
100
AcDbEntity
  8
0
100
AcDbLine
 62
4
  6
CONTINUOUS
 10
11.5766284782
 20
10.8689446985
 11
11.4825833445
 21
10.829532644
  0
LINE
  5
287
100
AcDbEntity
  8
0
100
AcDbLine
 62
4
  6
CONTINUOUS
 10
8.6387961578
 20
9.9162163752
 11
8.5042351999
 21
9.8612404615
  0
LINE
  5
288
100
AcDbEntity
  8
0
100
AcDbLine
 62
4
  6
CONTINUOUS
 10
8.798173925
 20
9.9051634895
 11
8.6636129672
 21
9.8501875758
  0
LINE
  5
289
100
AcDbEntity
  8
0
100
AcDbLine
 62
4
  6
CONTINUOUS
 10
10.5229963553
 20
10.6912141178
 11
10.5329528063
 21
10.6951170478
  0
LINE
  5
28A
100
AcDbEntity
  8
0
100
AcDbLine
 62
4
  6
CONTINUOUS
 10
8.8085018464
 20
9.8401394979
 11
8.798173925
 21
9.9051634895
  0
LINE
  5
28B
100
AcDbEntity
  8
0
100
AcDbLine
 62
4
  6
CONTINUOUS
 10
10.5906324288
 20
10.750831288
 11
10.5462634862
 21
10.7079741779
  0
LINE
  5
28C
100
AcDbEntity
  8
0
100
AcDbLine
 62
4
  6
CONTINUOUS
 10
10.5329528063
 20
10.6951170478
 11
10.5285159106
 21
10.6908313353
  0
LINE
  5
28D
100
AcDbEntity
  8
0
100
AcDbLine
 62
4
  6
CONTINUOUS
 10
10.9460636871
 20
11.0541515606
 11
10.8839471689
 21
10.9941516079
  0
LINE
  5
28E
100
AcDbEntity
  8
0
100
AcDbLine
 62
4
  6
CONTINUOUS
 10
10.9866538389
 20
10.9962156968
 11
11.0310227806
 21
11.039072806
  0
LINE
  5
28F
100
AcDbEntity
  8
0
100
AcDbLine
 62
4
  6
CONTINUOUS
 10
10.7352240802
 20
10.7362104122
 11
10.6775444564
 21
10.6804961706
  0
LINE
  5
290
100
AcDbEntity
  8
0
100
AcDbLine
 62
4
  6
CONTINUOUS
 10
10.8058958592
 20
10.7359027184
 11
10.7615269166
 21
10.6930456083
  0
LINE
  5
291
100
AcDbEntity
  8
0
100
AcDbLine
 62
4
  6
CONTINUOUS
 10
11.1558076728
 20
11.0396057658
 11
11.0936911546
 21
10.9796058131
  0
LINE
  5
292
100
AcDbEntity
  8
0
100
AcDbLine
 62
4
  6
CONTINUOUS
 10
10.8608793541
 20
10.6861554934
 11
10.9008114024
 21
10.7247268924
  0
LINE
  5
293
100
AcDbEntity
  8
0
100
AcDbLine
 62
4
  6
CONTINUOUS
 10
11.168799827
 20
10.9835838296
 11
11.2131687687
 21
11.0264409388
  0
LINE
  5
294
100
AcDbEntity
  8
0
100
AcDbLine
 62
4
  6
CONTINUOUS
 10
10.9714831814
 20
10.7244191986
 11
10.9359880266
 21
10.6901335098
  0
LINE
  5
295
100
AcDbEntity
  8
0
100
AcDbLine
 62
4
  6
CONTINUOUS
 10
11.4772760959
 20
10.8758348097
 11
11.3654833866
 21
10.8192799125
  0
LINE
  5
296
100
AcDbEntity
  8
0
100
AcDbLine
 62
4
  6
CONTINUOUS
 10
12.2762816265
 20
10.9619006332
 11
12.1479301961
 21
10.9064940873
  0
LINE
  5
297
100
AcDbEntity
  8
0
100
AcDbLine
 62
4
  6
CONTINUOUS
 10
11.5106325717
 20
10.70234043
 11
11.3852390972
 21
10.6497910217
  0
LINE
  5
298
100
AcDbEntity
  8
0
100
AcDbLine
 62
4
  6
CONTINUOUS
 10
11.3290798722
 20
11.0184024764
 11
11.2847109305
 21
10.9755453673
  0
LINE
  5
299
100
AcDbEntity
  8
0
100
AcDbLine
 62
4
  6
CONTINUOUS
 10
11.066398614
 20
10.7132433802
 11
11.053087931
 21
10.7003862469
  0
LINE
  5
29A
100
AcDbEntity
  8
0
100
AcDbLine
 62
4
  6
CONTINUOUS
 10
11.3028150403
 20
10.8787469034
 11
11.2584460986
 21
10.8358897942
  0
LINE
  5
29B
100
AcDbEntity
  8
0
100
AcDbLine
 62
4
  6
CONTINUOUS
 10
11.102658012
 20
10.6739814987
 11
11.1115317998
 21
10.68255292
  0
LINE
  5
29C
100
AcDbEntity
  8
0
100
AcDbLine
 62
4
  6
CONTINUOUS
 10
11.5222649708
 20
11.0050050444
 11
11.4778960292
 21
10.9621479352
  0
LINE
  5
29D
100
AcDbEntity
  8
0
100
AcDbLine
 62
4
  6
CONTINUOUS
 10
11.2198640542
 20
10.7071939266
 11
11.1754951115
 21
10.6643368165
  0
LINE
  5
29E
100
AcDbEntity
  8
0
100
AcDbLine
 62
4
  6
CONTINUOUS
 10
11.2239825312
 20
10.6426005614
 11
11.2860990494
 21
10.7026005141
  0
LINE
  5
29F
100
AcDbEntity
  8
0
100
AcDbLine
 62
4
  6
CONTINUOUS
 10
11.381014482
 20
10.6914246957
 11
11.3455193295
 21
10.6571390091
  0
LINE
  5
2A0
100
AcDbEntity
  8
0
100
AcDbLine
 62
4
  6
CONTINUOUS
 10
11.8788721251
 20
10.9894610757
 11
11.8167556069
 21
10.929461123
  0
LINE
  5
2A1
100
AcDbEntity
  8
0
100
AcDbLine
 62
4
  6
CONTINUOUS
 10
11.7232793322
 20
10.8220271411
 11
11.758774487
 21
10.8563128299
  0
LINE
  5
2A2
100
AcDbEntity
  8
0
100
AcDbLine
 62
4
  6
CONTINUOUS
 10
11.5552632599
 20
10.6425932182
 11
11.5951953068
 21
10.6811646158
  0
LINE
  5
2A3
100
AcDbEntity
  8
0
100
AcDbLine
 62
4
  6
CONTINUOUS
 10
11.694547689
 20
10.6742745047
 11
11.6324311708
 21
10.614274552
  0
LINE
  5
2A4
100
AcDbEntity
  8
0
100
AcDbLine
 62
4
  6
CONTINUOUS
 10
12.0113419497
 20
10.9802742622
 11
11.9492254315
 21
10.9202743095
  0
LINE
  5
2A5
100
AcDbEntity
  8
0
100
AcDbLine
 62
4
  6
CONTINUOUS
 10
11.9429286171
 20
10.6570492288
 11
11.8808120989
 21
10.5970492761
  0
LINE
  5
2A6
100
AcDbEntity
  8
0
100
AcDbLine
 62
4
  6
CONTINUOUS
 10
12.3168716955
 20
10.9039647751
 11
12.3612406372
 21
10.9468218843
  0
LINE
  5
2A7
100
AcDbEntity
  8
0
100
AcDbLine
 62
4
  6
CONTINUOUS
 10
12.0588397205
 20
10.6490107665
 11
11.9967232023
 21
10.5890108138
  0
LINE
  5
2A8
100
AcDbEntity
  8
0
100
AcDbLine
 62
4
  6
CONTINUOUS
 10
12.1162008441
 20
10.6358459375
 11
12.0629581146
 21
10.584417407
  0
LINE
  5
2A9
100
AcDbEntity
  8
0
100
AcDbLine
 62
4
  6
CONTINUOUS
 10
12.4860255155
 20
10.9473548451
 11
12.4239089973
 21
10.8873548924
  0
LINE
  5
2AA
100
AcDbEntity
  8
0
100
AcDbLine
 62
4
  6
CONTINUOUS
 10
12.178869218
 20
10.5763789447
 11
12.2321119475
 21
10.6278074752
  0
LINE
  5
2AB
100
AcDbEntity
  8
0
100
AcDbLine
 62
4
  6
CONTINUOUS
 10
12.2983468598
 20
10.6232140684
 11
12.2894730711
 21
10.6146426462
  0
LINE
  5
2AC
100
AcDbEntity
  8
0
100
AcDbLine
 62
4
  6
CONTINUOUS
 10
12.1209590196
 20
9.6747275606
 11
11.9863980617
 21
9.6197516468
  0
LINE
  5
2AD
100
AcDbEntity
  8
0
100
AcDbLine
 62
4
  6
CONTINUOUS
 10
12.3787628093
 20
10.5808899182
 11
12.3698890216
 21
10.5723184969
  0
LINE
  5
2AE
100
AcDbEntity
  8
0
100
AcDbLine
 62
4
  6
CONTINUOUS
 10
11.8208285076
 20
9.684823724
 11
11.805299379
 21
9.6698237367
  0
LINE
  5
2AF
100
AcDbEntity
  8
0
100
AcDbLine
 62
4
  6
CONTINUOUS
 10
11.8042591356
 20
9.6538189389
 11
11.788730006
 21
9.6388189508
  0
LINE
  5
2B0
100
AcDbEntity
  8
0
100
AcDbLine
 62
4
  6
CONTINUOUS
 10
11.8994647342
 20
9.6257804936
 11
11.9615812523
 21
9.6857804463
  0
LINE
  5
2B1
100
AcDbEntity
  8
0
100
AcDbLine
 62
4
  6
CONTINUOUS
 10
11.5641881373
 20
10.8054996912
 11
11.5766284782
 21
10.8689446985
  0
LINE
  5
2B2
100
AcDbEntity
  8
0
100
AcDbLine
 62
7
  6
CONTINUOUS
 10
12.9432538094
 20
9.24900348
 11
14.8523014918
 21
11.0930020493
  0
LINE
  5
2B3
100
AcDbEntity
  8
0
100
AcDbLine
 62
4
  6
CONTINUOUS
 10
11.8239244025
 20
9.6578141296
 11
11.8042591356
 21
9.6538189389
  0
LINE
  5
2B4
100
AcDbEntity
  8
0
100
AcDbLine
 62
4
  6
CONTINUOUS
 10
11.8601590368
 20
9.6928141008
 11
11.8208285076
 21
9.684823724
  0
LINE
  5
2B5
100
AcDbEntity
  8
0
100
AcDbLine
 62
7
  6
CONTINUOUS
 10
7.1476985082
 20
9.6509266052
 11
12.9432538094
 21
9.24900348
  0
LINE
  5
2B6
100
AcDbEntity
  8
0
100
AcDbLine
 62
4
  6
CONTINUOUS
 10
11.4845914242
 20
10.6429009144
 11
11.4792841481
 21
10.689203082
  0
LINE
  5
2B7
100
AcDbEntity
  8
0
100
AcDbLine
 62
4
  6
CONTINUOUS
 10
11.4825833445
 20
10.829532644
 11
11.4772760959
 21
10.8758348097
  0
LINE
  5
2B8
100
AcDbEntity
  8
0
100
AcDbLine
 62
4
  6
CONTINUOUS
 10
12.1479301961
 20
10.9064940873
 11
12.1438117743
 21
10.9710874487
  0
LINE
  5
2B9
100
AcDbEntity
  8
0
100
AcDbLine
 62
4
  6
CONTINUOUS
 10
11.7980425187
 20
9.6328141481
 11
11.8994647342
 21
9.6257804936
  0
LINE
  5
2BA
100
AcDbEntity
  8
0
100
AcDbLine
 62
4
  6
CONTINUOUS
 10
11.925346618
 20
9.6507804751
 11
11.8239244025
 21
9.6578141296
  0
LINE
  5
2BB
100
AcDbEntity
  8
0
100
AcDbLine
 62
4
  6
CONTINUOUS
 10
8.5891128752
 20
9.898226006
 11
8.5021795476
 21
9.9042548527
  0
LINE
  5
2BC
100
AcDbEntity
  8
0
100
AcDbLine
 62
4
  6
CONTINUOUS
 10
11.9615812523
 20
9.6857804463
 11
11.8601590368
 21
9.6928141008
  0
LINE
  5
2BD
100
AcDbEntity
  8
0
100
AcDbLine
 62
4
  6
CONTINUOUS
 10
10.9359880266
 20
10.6901335098
 11
10.9436729047
 21
10.6804137411
  0
LINE
  5
2BE
100
AcDbEntity
  8
0
100
AcDbLine
 62
4
  6
CONTINUOUS
 10
12.131286941
 20
9.6097035689
 11
12.1209590196
 21
9.6747275606
  0
LINE
  5
2BF
100
AcDbEntity
  8
0
100
AcDbLine
 62
4
  6
CONTINUOUS
 10
11.788730006
 20
9.6388189508
 11
11.7980425187
 21
9.6328141481
  0
LINE
  5
2C0
100
AcDbEntity
  8
0
100
AcDbLine
 62
4
  6
CONTINUOUS
 10
11.805299379
 20
9.6698237367
 11
11.8239244025
 21
9.6578141296
  0
LINE
  5
2C1
100
AcDbEntity
  8
0
100
AcDbLine
 62
7
  6
CONTINUOUS
 10
12.9432538094
 20
5.5050748254
 11
12.9432538094
 21
9.24900348
  0
LINE
  5
2C2
100
AcDbEntity
  8
0
100
AcDbLine
 62
4
  6
CONTINUOUS
 10
12.3698890216
 20
10.5723184969
 11
12.3278977742
 21
10.5660437792
  0
LINE
  5
2C3
100
AcDbEntity
  8
0
100
AcDbLine
 62
4
  6
CONTINUOUS
 10
12.3403381047
 20
10.6294887873
 11
12.2983468598
 21
10.6232140684
  0
LINE
  5
2C4
100
AcDbEntity
  8
0
100
AcDbLine
 62
4
  6
CONTINUOUS
 10
12.1581920751
 20
10.6421206573
 11
12.1162008441
 21
10.6358459375
  0
LINE
  5
2C5
100
AcDbEntity
  8
0
100
AcDbLine
 62
4
  6
CONTINUOUS
 10
10.2361907622
 20
10.757038258
 11
10.2497914988
 21
10.7530327702
  0
LINE
  5
2C6
100
AcDbEntity
  8
0
100
AcDbLine
 62
4
  6
CONTINUOUS
 10
10.3130684542
 20
10.7455822249
 11
10.3266691909
 21
10.7415767371
  0
LINE
  5
2C7
100
AcDbEntity
  8
0
100
AcDbLine
 62
4
  6
CONTINUOUS
 10
10.2261280629
 20
10.7301756449
 11
10.2140062927
 21
10.7356097048
  0
LINE
  5
2C8
100
AcDbEntity
  8
0
100
AcDbLine
 62
4
  6
CONTINUOUS
 10
10.3488536617
 20
10.7630052917
 11
10.3367318902
 21
10.7684393502
  0
LINE
  5
2C9
100
AcDbEntity
  8
0
100
AcDbLine
 62
4
  6
CONTINUOUS
 10
10.4857605465
 20
10.7581041778
 11
10.497882318
 21
10.7526701193
  0
LINE
  5
2CA
100
AcDbEntity
  8
0
100
AcDbLine
 62
4
  6
CONTINUOUS
 10
10.7231021981
 20
10.7416444783
 11
10.7352240802
 21
10.7362104122
  0
LINE
  5
2CB
100
AcDbEntity
  8
0
100
AcDbLine
 62
4
  6
CONTINUOUS
 10
10.9008114024
 20
10.7247268924
 11
10.8886895203
 21
10.7301609585
  0
LINE
  5
2CC
100
AcDbEntity
  8
0
100
AcDbLine
 62
4
  6
CONTINUOUS
 10
11.1092602269
 20
10.6689302213
 11
11.102658012
 21
10.6739814987
  0
LINE
  5
2CD
100
AcDbEntity
  8
0
100
AcDbLine
 62
4
  6
CONTINUOUS
 10
11.7232793322
 20
10.8220271411
 11
11.6304230496
 21
10.8009062845
  0
LINE
  5
2CE
100
AcDbEntity
  8
0
100
AcDbLine
 62
4
  6
CONTINUOUS
 10
12.3612406372
 20
10.9468218843
 11
12.403231882
 21
10.9530966031
  0
LINE
  5
2CF
100
AcDbEntity
  8
0
100
AcDbLine
 62
4
  6
CONTINUOUS
 10
11.2584460986
 20
10.8358897942
 11
11.2164548132
 21
10.8296150792
  0
LINE
  5
2D0
100
AcDbEntity
  8
0
100
AcDbLine
 62
4
  6
CONTINUOUS
 10
10.4623871655
 20
10.7183844327
 11
10.4413916039
 21
10.7152470677
  0
LINE
  5
2D1
100
AcDbEntity
  8
0
100
AcDbLine
 62
4
  6
CONTINUOUS
 10
10.3133585092
 20
10.7287196051
 11
10.2923629476
 21
10.7255822401
  0
LINE
  5
2D2
100
AcDbEntity
  8
0
100
AcDbLine
 62
4
  6
CONTINUOUS
 10
11.3455193295
 20
10.6571390091
 11
11.3079649914
 21
10.6551499991
  0
LINE
  5
2D3
100
AcDbEntity
  8
0
100
AcDbLine
 62
4
  6
CONTINUOUS
 10
11.053087931
 20
10.7003862469
 11
11.0155335948
 21
10.6983972387
  0
LINE
  5
2D4
100
AcDbEntity
  8
0
100
AcDbLine
 62
4
  6
CONTINUOUS
 10
12.3278977742
 20
10.5660437792
 11
12.2616628584
 21
10.5706371863
  0
LINE
  5
2D5
100
AcDbEntity
  8
0
100
AcDbLine
 62
4
  6
CONTINUOUS
 10
10.5285159106
 20
10.6908313353
 11
10.5229963553
 21
10.6912141178
  0
LINE
  5
2D6
100
AcDbEntity
  8
0
100
AcDbLine
 62
4
  6
CONTINUOUS
 10
11.6501787464
 20
10.6314173946
 11
11.5673850853
 21
10.6371591545
  0
LINE
  5
2D7
100
AcDbEntity
  8
0
100
AcDbLine
 62
4
  6
CONTINUOUS
 10
11.3079649914
 20
10.6551499991
 11
11.2417301068
 21
10.659743404
  0
LINE
  5
2D8
100
AcDbEntity
  8
0
100
AcDbLine
 62
4
  6
CONTINUOUS
 10
11.1754951115
 20
10.6643368165
 11
11.1092602269
 21
10.6689302213
  0
LINE
  5
2D9
100
AcDbEntity
  8
0
100
AcDbLine
 62
4
  6
CONTINUOUS
 10
10.4413916039
 20
10.7152470677
 11
10.3751564981
 21
10.7198404878
  0
LINE
  5
2DA
100
AcDbEntity
  8
0
100
AcDbLine
 62
4
  6
CONTINUOUS
 10
10.2923629476
 20
10.7255822401
 11
10.2261280629
 21
10.7301756449
  0
LINE
  5
2DB
100
AcDbEntity
  8
0
100
AcDbLine
 62
4
  6
CONTINUOUS
 10
10.9436729047
 20
10.6804137411
 11
11.0264665658
 21
10.6746719812
  0
LINE
  5
2DC
100
AcDbEntity
  8
0
100
AcDbLine
 62
4
  6
CONTINUOUS
 10
11.0155335948
 20
10.6983972387
 11
10.9492987101
 21
10.7029906436
  0
LINE
  5
2DD
100
AcDbEntity
  8
0
100
AcDbLine
 62
4
  6
CONTINUOUS
 10
12.4065730221
 20
10.6248953801
 11
12.3403381047
 21
10.6294887873
  0
LINE
  5
2DE
100
AcDbEntity
  8
0
100
AcDbLine
 62
4
  6
CONTINUOUS
 10
12.2078682801
 20
10.6386756008
 11
12.1581920751
 21
10.6421206573
  0
LINE
  5
2DF
100
AcDbEntity
  8
0
100
AcDbLine
 62
4
  6
CONTINUOUS
 10
10.8886895203
 20
10.7301609585
 11
10.8058958592
 21
10.7359027184
  0
LINE
  5
2E0
100
AcDbEntity
  8
0
100
AcDbLine
 62
4
  6
CONTINUOUS
 10
10.3367318902
 20
10.7684393502
 11
10.2704970055
 21
10.773032755
  0
LINE
  5
2E1
100
AcDbEntity
  8
0
100
AcDbLine
 62
4
  6
CONTINUOUS
 10
10.4195254407
 20
10.7626975979
 11
10.4857605465
 21
10.7581041778
  0
LINE
  5
2E2
100
AcDbEntity
  8
0
100
AcDbLine
 62
4
  6
CONTINUOUS
 10
10.6899847558
 20
10.7439411807
 11
10.7231021981
 21
10.7416444783
  0
LINE
  5
2E3
100
AcDbEntity
  8
0
100
AcDbLine
 62
4
  6
CONTINUOUS
 10
10.9714831814
 20
10.7244191986
 11
11.0377180661
 21
10.7198257938
  0
LINE
  5
2E4
100
AcDbEntity
  8
0
100
AcDbLine
 62
4
  6
CONTINUOUS
 10
11.2860990494
 20
10.7026005141
 11
11.352333934
 21
10.6980071092
  0
LINE
  5
2E5
100
AcDbEntity
  8
0
100
AcDbLine
 62
4
  6
CONTINUOUS
 10
11.543750014
 20
10.7000437276
 11
11.5106325717
 21
10.70234043
  0
LINE
  5
2E6
100
AcDbEntity
  8
0
100
AcDbLine
 62
4
  6
CONTINUOUS
 10
10.2497914988
 20
10.7530327702
 11
10.3130684542
 21
10.7455822249
  0
LINE
  5
2E7
100
AcDbEntity
  8
0
100
AcDbLine
 62
4
  6
CONTINUOUS
 10
11.0377180661
 20
10.7198257938
 11
11.066398614
 21
10.7132433802
  0
LINE
  5
2E8
100
AcDbEntity
  8
0
100
AcDbLine
 62
4
  6
CONTINUOUS
 10
11.352333934
 20
10.6980071092
 11
11.381014482
 21
10.6914246957
  0
LINE
  5
2E9
100
AcDbEntity
  8
0
100
AcDbLine
 62
4
  6
CONTINUOUS
 10
11.5673850853
 20
10.6371591545
 11
11.5552632599
 21
10.6425932182
  0
LINE
  5
2EA
100
AcDbEntity
  8
0
100
AcDbLine
 62
4
  6
CONTINUOUS
 10
11.0108974935
 20
10.985347573
 11
10.9866538389
 21
10.9962156968
  0
LINE
  5
2EB
100
AcDbEntity
  8
0
100
AcDbLine
 62
4
  6
CONTINUOUS
 10
11.2785713314
 20
10.8896150319
 11
11.3028150403
 21
10.8787469034
  0
LINE
  5
2EC
100
AcDbEntity
  8
0
100
AcDbLine
 62
4
  6
CONTINUOUS
 10
11.762892888
 20
10.79171947
 11
11.7232793322
 21
10.8220271411
  0
LINE
  5
2ED
100
AcDbEntity
  8
0
100
AcDbLine
 62
4
  6
CONTINUOUS
 10
11.9967232023
 20
10.5890108138
 11
11.9429286171
 21
10.6570492288
  0
LINE
  5
2EE
100
AcDbEntity
  8
0
100
AcDbLine
 62
4
  6
CONTINUOUS
 10
10.2704970055
 20
10.773032755
 11
10.2495014453
 21
10.7698953913
  0
LINE
  5
2EF
100
AcDbEntity
  8
0
100
AcDbLine
 62
4
  6
CONTINUOUS
 10
11.4778960292
 20
10.9621479352
 11
11.435904799
 21
10.9558732163
  0
LINE
  5
2F0
100
AcDbEntity
  8
0
100
AcDbLine
 62
4
  6
CONTINUOUS
 10
11.2847109305
 20
10.9755453673
 11
11.2427197004
 21
10.9692706484
  0
LINE
  5
2F1
100
AcDbEntity
  8
0
100
AcDbLine
 62
4
  6
CONTINUOUS
 10
11.2131687687
 20
11.0264409388
 11
11.2551599998
 21
11.0327156585
  0
LINE
  5
2F2
100
AcDbEntity
  8
0
100
AcDbLine
 62
4
  6
CONTINUOUS
 10
11.0310227806
 20
11.039072806
 11
11.0730140117
 21
11.0453475257
  0
LINE
  5
2F3
100
AcDbEntity
  8
0
100
AcDbLine
 62
4
  6
CONTINUOUS
 10
12.4917290465
 20
10.9071497442
 11
12.5918739887
 21
10.9124537649
  0
LINE
  5
2F4
100
AcDbEntity
  8
0
100
AcDbLine
 62
4
  6
CONTINUOUS
 10
10.6655418938
 20
11.0460453494
 11
10.7656868282
 21
11.0513493697
  0
LINE
  5
2F5
100
AcDbEntity
  8
0
100
AcDbLine
 62
4
  6
CONTINUOUS
 10
11.2164548132
 20
10.8296150792
 11
11.1502199286
 21
10.834208484
  0
LINE
  5
2F6
100
AcDbEntity
  8
0
100
AcDbLine
 62
4
  6
CONTINUOUS
 10
11.2123364467
 20
10.8942084367
 11
11.2785713314
 21
10.8896150319
  0
LINE
  5
2F7
100
AcDbEntity
  8
0
100
AcDbLine
 62
4
  6
CONTINUOUS
 10
12.4239089973
 20
10.8873548924
 11
12.3411153639
 21
10.8930966504
  0
LINE
  5
2F8
100
AcDbEntity
  8
0
100
AcDbLine
 62
4
  6
CONTINUOUS
 10
12.0154603715
 20
10.9156809008
 11
11.8829905469
 21
10.9248677144
  0
LINE
  5
2F9
100
AcDbEntity
  8
0
100
AcDbLine
 62
4
  6
CONTINUOUS
 10
11.8167556069
 20
10.929461123
 11
11.7174032247
 21
10.9363512342
  0
LINE
  5
2FA
100
AcDbEntity
  8
0
100
AcDbLine
 62
4
  6
CONTINUOUS
 10
11.435904799
 20
10.9558732163
 11
11.3696699144
 21
10.9604666211
  0
LINE
  5
2FB
100
AcDbEntity
  8
0
100
AcDbLine
 62
4
  6
CONTINUOUS
 10
11.2427197004
 20
10.9692706484
 11
11.1930434816
 21
10.9727157058
  0
LINE
  5
2FC
100
AcDbEntity
  8
0
100
AcDbLine
 62
4
  6
CONTINUOUS
 10
11.0936911546
 20
10.9796058131
 11
11.0108974935
 21
10.985347573
  0
LINE
  5
2FD
100
AcDbEntity
  8
0
100
AcDbLine
 62
4
  6
CONTINUOUS
 10
10.8839471689
 20
10.9941516079
 11
10.7845948419
 21
11.0010417152
  0
LINE
  5
2FE
100
AcDbEntity
  8
0
100
AcDbLine
 62
4
  6
CONTINUOUS
 10
10.8443336476
 20
11.0244592767
 11
10.9105685323
 21
11.0198658718
  0
LINE
  5
2FF
100
AcDbEntity
  8
0
100
AcDbLine
 62
4
  6
CONTINUOUS
 10
11.7771420304
 20
10.9597687956
 11
11.8433769703
 21
10.955175387
  0
LINE
  5
300
100
AcDbEntity
  8
0
100
AcDbLine
 62
4
  6
CONTINUOUS
 10
12.236455745
 20
10.9462889244
 11
12.1481425286
 21
10.9524134668
  0
LINE
  5
301
100
AcDbEntity
  8
0
100
AcDbLine
 62
4
  6
CONTINUOUS
 10
11.8788721251
 20
10.9894610757
 11
11.7795197429
 21
10.9963511869
  0
LINE
  5
302
100
AcDbEntity
  8
0
100
AcDbLine
 62
4
  6
CONTINUOUS
 10
10.9460636871
 20
11.0541515606
 11
10.8467113601
 21
11.0610416679
  0
LINE
  5
303
100
AcDbEntity
  8
0
100
AcDbLine
 62
4
  6
CONTINUOUS
 10
11.0730140117
 20
11.0453475257
 11
11.1558076728
 21
11.0396057658
  0
LINE
  5
304
100
AcDbEntity
  8
0
100
AcDbLine
 62
4
  6
CONTINUOUS
 10
11.2551599998
 20
11.0327156585
 11
11.3048362185
 21
11.0292706011
  0
LINE
  5
305
100
AcDbEntity
  8
0
100
AcDbLine
 62
4
  6
CONTINUOUS
 10
11.4317864326
 20
11.0204665738
 11
11.4980213172
 21
11.015873169
  0
LINE
  5
306
100
AcDbEntity
  8
0
100
AcDbLine
 62
4
  6
CONTINUOUS
 10
12.403231882
 20
10.9530966031
 11
12.4860255155
 21
10.9473548451
  0
LINE
  5
307
100
AcDbEntity
  8
0
100
AcDbLine
 62
4
  6
CONTINUOUS
 10
10.7420233913
 20
11.0284922435
 11
10.6655418938
 21
11.0460453494
  0
LINE
  5
308
100
AcDbEntity
  8
0
100
AcDbLine
 62
4
  6
CONTINUOUS
 10
12.2894730711
 20
10.6146426462
 11
12.3787628093
 21
10.5808899182
  0
LINE
  5
309
100
AcDbEntity
  8
0
100
AcDbLine
 62
4
  6
CONTINUOUS
 10
11.1930434816
 20
10.9727157058
 11
11.168799827
 21
10.9835838296
  0
LINE
  5
30A
100
AcDbEntity
  8
0
100
AcDbLine
 62
4
  6
CONTINUOUS
 10
12.2616628584
 20
10.5706371863
 11
12.2495410261
 21
10.5760712504
  0
LINE
  5
30B
100
AcDbEntity
  8
0
100
AcDbLine
 62
4
  6
CONTINUOUS
 10
11.3048362185
 20
11.0292706011
 11
11.3290798722
 21
11.0184024764
  0
LINE
  5
30C
100
AcDbEntity
  8
0
100
AcDbLine
 62
4
  6
CONTINUOUS
 10
12.2321119475
 20
10.6278074752
 11
12.2078682801
 21
10.6386756008
  0
LINE
  5
30D
100
AcDbEntity
  8
0
100
AcDbLine
 62
4
  6
CONTINUOUS
 10
11.4980213172
 20
11.015873169
 11
11.5222649708
 21
11.0050050444
  0
LINE
  5
30E
100
AcDbEntity
  8
0
100
AcDbLine
 62
4
  6
CONTINUOUS
 10
12.4186948576
 20
10.6194613172
 11
12.4065730221
 21
10.6248953801
  0
LINE
  5
30F
100
AcDbEntity
  8
0
100
AcDbLine
 62
7
  6
CONTINUOUS
 10
14.8523014918
 20
11.0930020493
 11
9.0567461906
 21
11.4949251746
  0
LINE
  5
310
100
AcDbEntity
  8
0
100
AcDbLine
 62
4
  6
CONTINUOUS
 10
12.5918739887
 20
10.9124537649
 11
12.5153924834
 21
10.9300068704
  0
LINE
  5
311
100
AcDbEntity
  8
0
100
AcDbLine
 62
4
  6
CONTINUOUS
 10
12.3411153639
 20
10.8930966504
 11
12.3168716955
 21
10.9039647751
  0
LINE
  5
312
100
AcDbEntity
  8
0
100
AcDbLine
 62
7
  6
CONTINUOUS
 10
12.9432538094
 20
5.5050748254
 11
14.8523014918
 21
7.3490733948
  0
LINE
  5
313
100
AcDbEntity
  8
0
100
AcDbLine
 62
7
  6
CONTINUOUS
 10
14.8523014918
 20
7.3490733948
 11
14.8523014918
 21
11.0930020493
  0
SPLINE
  5
314
100
AcDbEntity
  8
0
100
AcDbSpline
 62
7
  6
CONTINUOUS
 70
0
 71
3
 72
98
 73
94
 74
0
 42
0.0000001
 43
0.0000001
 44
0.0000000001
 40
0.0
 40
0.0
 40
0.0
 40
0.0
 40
0.0039801609
 40
0.0081240686
 40
0.0124358932
 40
0.0169192168
 40
0.0215770643
 40
0.0264117753
 40
0.0314250108
 40
0.0366179582
 40
0.0419913124
 40
0.0475454005
 40
0.0532801357
 40
0.0591950993
 40
0.0652895702
 40
0.0715625153
 40
0.0780126822
 40
0.0846385267
 40
0.091438326
 40
0.0984101156
 40
0.1055517514
 40
0.1128609125
 40
0.1279713503
 40
0.1437198495
 40
0.1600822126
 40
0.177032166
 40
0.1945415575
 40
0.212580527
 40
0.231117663
 40
0.2501201457
 40
0.2695538758
 40
0.2893835971
 40
0.3095730118
 40
0.3300848914
 40
0.3508811841
 40
0.3719231211
 40
0.3931713217
 40
0.4145858954
 40
0.4361265428
 40
0.4577526557
 40
0.4794234172
 40
0.5010979011
 40
0.5227351724
 40
0.5442943873
 40
0.5657348926
 40
0.5870163249
 40
0.6080987114
 40
0.6289425703
 40
0.6495090141
 40
0.6697598545
 40
0.6896577057
 40
0.7091660923
 40
0.7282495593
 40
0.7468737874
 40
0.7650057134
 40
0.7826136602
 40
0.7996674777
 40
0.8161386913
 40
0.8320006711
 40
0.839695559
 40
0.8472290901
 40
0.8545985526
 40
0.8618013908
 40
0.8688351984
 40
0.8756977824
 40
0.882387094
 40
0.8889013353
 40
0.8952388874
 40
0.9013983901
 40
0.9073787343
 40
0.9131790695
 40
0.9187988827
 40
0.9242379438
 40
0.9294964365
 40
0.9345749042
 40
0.9394743631
 40
0.9441963208
 40
0.9487428261
 40
0.9531165856
 40
0.9573209634
 40
0.9613601612
 40
0.96523923
 40
0.9689642447
 40
0.9725423874
 40
0.9759820659
 40
0.9792930654
 40
0.9824865961
 40
0.9855754322
 40
0.9885738806
 40
0.9914977831
 40
0.994364367
 40
0.9971920251
 40
1.0
 40
1.0
 40
1.0
 40
1.0
 10
10.207167792
 20
10.1761471762
 30
0.0
 10
10.2048307241
 20
10.1738897419
 30
0.0
 10
10.1999543078
 20
10.1693908392
 30
0.0
 10
10.1922120584
 20
10.1628198532
 30
0.0
 10
10.1839012669
 20
10.1562960016
 30
0.0
 10
10.1750264924
 20
10.1498227485
 30
0.0
 10
10.1655920618
 20
10.1434031169
 30
0.0
 10
10.1556025977
 20
10.1370402301
 30
0.0
 10
10.1450630963
 20
10.1307371388
 30
0.0
 10
10.1339787869
 20
10.124497114
 30
0.0
 10
10.1223552667
 20
10.1183231509
 30
0.0
 10
10.1101983139
 20
10.1122184257
 30
0.0
 10
10.0975140415
 20
10.1061859411
 30
0.0
 10
10.0843088113
 20
10.100228745
 30
0.0
 10
10.0705892539
 20
10.0943498762
 30
0.0
 10
10.056362289
 20
10.0885522278
 30
0.0
 10
10.0416350577
 20
10.0828388249
 30
0.0
 10
10.0264150031
 20
10.0772124571
 30
0.0
 10
10.0107097816
 20
10.0716760535
 30
0.0
 10
9.9945273319
 20
10.0662323716
 30
0.0
 10
9.9778758002
 20
10.0608841534
 30
0.0
 10
9.9548036562
 20
10.0538057503
 30
0.0
 10
9.9248436819
 20
10.0452318226
 30
0.0
 10
9.8875451953
 20
10.0354764679
 30
0.0
 10
9.848588151
 20
10.0261637833
 30
0.0
 10
9.8080512928
 20
10.0173127321
 30
0.0
 10
9.7660163611
 20
10.0089413509
 30
0.0
 10
9.7225682544
 20
10.0010666885
 30
0.0
 10
9.6777947501
 20
9.9937047798
 30
0.0
 10
9.6317863422
 20
9.986870613
 30
0.0
 10
9.5846360442
 20
9.9805780994
 30
0.0
 10
9.5364391989
 20
9.9748400457
 30
0.0
 10
9.4872932819
 20
9.9696681284
 30
0.0
 10
9.4372977034
 20
9.965072872
 30
0.0
 10
9.3865536056
 20
9.9610636218
 30
0.0
 10
9.3351636545
 20
9.9576485288
 30
0.0
 10
9.2832318287
 20
9.9548345363
 30
0.0
 10
9.2308632069
 20
9.952627365
 30
0.0
 10
9.1781637554
 20
9.9510315029
 30
0.0
 10
9.1252401129
 20
9.9500501954
 30
0.0
 10
9.0721993747
 20
9.9496854403
 30
0.0
 10
9.0191488747
 20
9.9499379787
 30
0.0
 10
8.9661959661
 20
9.9508072945
 30
0.0
 10
8.913447803
 20
9.9522916193
 30
0.0
 10
8.8610111229
 20
9.9543879352
 30
0.0
 10
8.808992031
 20
9.9570919809
 30
0.0
 10
8.7574957847
 20
9.9603982598
 30
0.0
 10
8.7066265796
 20
9.9643000519
 30
0.0
 10
8.6564873349
 20
9.9687894228
 30
0.0
 10
8.6071794831
 20
9.9738572386
 30
0.0
 10
8.5588027632
 20
9.9794931889
 30
0.0
 10
8.5114550182
 20
9.985685806
 30
0.0
 10
8.4652319947
 20
9.9924224882
 30
0.0
 10
8.4202271484
 20
9.9996895239
 30
0.0
 10
8.3765314423
 20
10.0074721198
 30
0.0
 10
8.3342331768
 20
10.0157544294
 30
0.0
 10
8.2934177221
 20
10.0245195769
 30
0.0
 10
8.2541676203
 20
10.0337497161
 30
0.0
 10
8.2225178774
 20
10.0418933738
 30
0.0
 10
8.1980485979
 20
10.0486380819
 30
0.0
 10
8.1803222017
 20
10.0537499076
 30
0.0
 10
8.1630446363
 20
10.0589635304
 30
0.0
 10
8.1462246085
 20
10.0642763103
 30
0.0
 10
8.1298706254
 20
10.069685607
 30
0.0
 10
8.1139909283
 20
10.075188598
 30
0.0
 10
8.0985935462
 20
10.0807825918
 30
0.0
 10
8.0836862286
 20
10.0864646694
 30
0.0
 10
8.0692765001
 20
10.092232019
 30
0.0
 10
8.0553716152
 20
10.0980817018
 30
0.0
 10
8.0419785647
 20
10.1040107437
 30
0.0
 10
8.0291041018
 20
10.1100162186
 30
0.0
 10
8.016754663
 20
10.1160950074
 30
0.0
 10
8.0049364797
 20
10.1222441686
 30
0.0
 10
7.9936554347
 20
10.1284605166
 30
0.0
 10
7.9829171968
 20
10.1347410261
 30
0.0
 10
7.9727271161
 20
10.1410825424
 30
0.0
 10
7.9630902589
 20
10.1474819134
 30
0.0
 10
7.9540114601
 20
10.1539360676
 30
0.0
 10
7.9454951707
 20
10.1604417561
 30
0.0
 10
7.9375457051
 20
10.1669959737
 30
0.0
 10
7.9301669449
 20
10.1735954796
 30
0.0
 10
7.9233626525
 20
10.1802372686
 30
0.0
 10
7.9171362501
 20
10.1869182249
 30
0.0
 10
7.9114909405
 20
10.1936352924
 30
0.0
 10
7.9064298166
 20
10.2003855051
 30
0.0
 10
7.9019555938
 20
10.2071657332
 30
0.0
 10
7.8980711183
 20
10.2139730247
 30
0.0
 10
7.8947787726
 20
10.2208041094
 30
0.0
 10
7.8920810833
 20
10.2276557603
 30
0.0
 10
7.8899801784
 20
10.2345243296
 30
0.0
 10
7.8884779575
 20
10.2414061705
 30
0.0
 10
7.8875760349
 20
10.2482964573
 30
0.0
 10
7.887375249
 20
10.2528997056
 30
0.0
 10
7.8873752494
 20
10.2551920575
 30
0.0
  0
SPLINE
  5
315
100
AcDbEntity
  8
0
100
AcDbSpline
 62
7
  6
CONTINUOUS
 70
0
 71
3
 72
98
 73
94
 74
0
 42
0.0000001
 43
0.0000001
 44
0.0000000001
 40
0.0
 40
0.0
 40
0.0
 40
0.0
 40
0.0039801609
 40
0.0081240686
 40
0.0124358932
 40
0.0169192168
 40
0.0215770643
 40
0.0264117753
 40
0.0314250108
 40
0.0366179582
 40
0.0419913124
 40
0.0475454005
 40
0.0532801357
 40
0.0591950993
 40
0.0652895702
 40
0.0715625153
 40
0.0780126822
 40
0.0846385267
 40
0.091438326
 40
0.0984101156
 40
0.1055517514
 40
0.1128609125
 40
0.1279713503
 40
0.1437198495
 40
0.1600822126
 40
0.177032166
 40
0.1945415575
 40
0.212580527
 40
0.231117663
 40
0.2501201457
 40
0.2695538758
 40
0.2893835971
 40
0.3095730118
 40
0.3300848914
 40
0.3508811841
 40
0.3719231211
 40
0.3931713217
 40
0.4145858954
 40
0.4361265428
 40
0.4577526557
 40
0.4794234172
 40
0.5010979011
 40
0.5227351724
 40
0.5442943873
 40
0.5657348926
 40
0.5870163249
 40
0.6080987114
 40
0.6289425703
 40
0.6495090141
 40
0.6697598545
 40
0.6896577057
 40
0.7091660923
 40
0.7282495593
 40
0.7468737874
 40
0.7650057134
 40
0.7826136602
 40
0.7996674777
 40
0.8161386913
 40
0.8320006711
 40
0.839695559
 40
0.8472290901
 40
0.8545985526
 40
0.8618013908
 40
0.8688351984
 40
0.8756977824
 40
0.882387094
 40
0.8889013353
 40
0.8952388874
 40
0.9013983901
 40
0.9073787343
 40
0.9131790695
 40
0.9187988827
 40
0.9242379438
 40
0.9294964365
 40
0.9345749042
 40
0.9394743631
 40
0.9441963208
 40
0.9487428261
 40
0.9531165856
 40
0.9573209634
 40
0.9613601612
 40
0.96523923
 40
0.9689642447
 40
0.9725423874
 40
0.9759820659
 40
0.9792930654
 40
0.9824865961
 40
0.9855754322
 40
0.9885738806
 40
0.9914977831
 40
0.994364367
 40
0.9971920251
 40
1.0
 40
1.0
 40
1.0
 40
1.0
 10
13.5879083843
 20
9.9416920198
 30
0.0
 10
13.5855713164
 20
9.9394345855
 30
0.0
 10
13.5806949001
 20
9.9349356828
 30
0.0
 10
13.5729526507
 20
9.9283646968
 30
0.0
 10
13.5646418592
 20
9.9218408452
 30
0.0
 10
13.5557670848
 20
9.9153675921
 30
0.0
 10
13.5463326541
 20
9.9089479605
 30
0.0
 10
13.53634319
 20
9.9025850737
 30
0.0
 10
13.5258036886
 20
9.8962819824
 30
0.0
 10
13.5147193792
 20
9.8900419576
 30
0.0
 10
13.503095859
 20
9.8838679945
 30
0.0
 10
13.4909389062
 20
9.8777632693
 30
0.0
 10
13.4782546338
 20
9.8717307847
 30
0.0
 10
13.4650494037
 20
9.8657735886
 30
0.0
 10
13.4513298462
 20
9.8598947198
 30
0.0
 10
13.4371028813
 20
9.8540970714
 30
0.0
 10
13.42237565
 20
9.8483836685
 30
0.0
 10
13.4071555954
 20
9.8427573007
 30
0.0
 10
13.391450374
 20
9.8372208971
 30
0.0
 10
13.3752679242
 20
9.8317772152
 30
0.0
 10
13.3586163925
 20
9.826428997
 30
0.0
 10
13.3355442486
 20
9.8193505939
 30
0.0
 10
13.3055842743
 20
9.8107766662
 30
0.0
 10
13.2682857876
 20
9.8010213115
 30
0.0
 10
13.2293287434
 20
9.7917086269
 30
0.0
 10
13.1887918852
 20
9.7828575757
 30
0.0
 10
13.1467569534
 20
9.7744861945
 30
0.0
 10
13.1033088467
 20
9.7666115321
 30
0.0
 10
13.0585353424
 20
9.7592496234
 30
0.0
 10
13.0125269345
 20
9.7524154566
 30
0.0
 10
12.9653766365
 20
9.746122943
 30
0.0
 10
12.9171797912
 20
9.7403848894
 30
0.0
 10
12.8680338742
 20
9.735212972
 30
0.0
 10
12.8180382957
 20
9.7306177156
 30
0.0
 10
12.7672941979
 20
9.7266084654
 30
0.0
 10
12.7159042468
 20
9.7231933725
 30
0.0
 10
12.663972421
 20
9.7203793799
 30
0.0
 10
12.6116037992
 20
9.7181722086
 30
0.0
 10
12.5589043477
 20
9.7165763465
 30
0.0
 10
12.5059807052
 20
9.715595039
 30
0.0
 10
12.452939967
 20
9.7152302839
 30
0.0
 10
12.399889467
 20
9.7154828224
 30
0.0
 10
12.3469365584
 20
9.7163521381
 30
0.0
 10
12.2941883953
 20
9.7178364629
 30
0.0
 10
12.2417517153
 20
9.7199327788
 30
0.0
 10
12.1897326233
 20
9.7226368245
 30
0.0
 10
12.1382363771
 20
9.7259431034
 30
0.0
 10
12.0873671719
 20
9.7298448955
 30
0.0
 10
12.0372279273
 20
9.7343342664
 30
0.0
 10
11.9879200755
 20
9.7394020822
 30
0.0
 10
11.9395433555
 20
9.7450380325
 30
0.0
 10
11.8921956105
 20
9.7512306496
 30
0.0
 10
11.8459725871
 20
9.7579673318
 30
0.0
 10
11.8009677407
 20
9.7652343675
 30
0.0
 10
11.7572720346
 20
9.7730169634
 30
0.0
 10
11.7149737691
 20
9.7812992731
 30
0.0
 10
11.6741583144
 20
9.7900644205
 30
0.0
 10
11.6349082126
 20
9.7992945597
 30
0.0
 10
11.6032584698
 20
9.8074382174
 30
0.0
 10
11.5787891902
 20
9.8141829255
 30
0.0
 10
11.5610627941
 20
9.8192947512
 30
0.0
 10
11.5437852286
 20
9.824508374
 30
0.0
 10
11.5269652008
 20
9.829821154
 30
0.0
 10
11.5106112177
 20
9.8352304506
 30
0.0
 10
11.4947315206
 20
9.8407334416
 30
0.0
 10
11.4793341386
 20
9.8463274354
 30
0.0
 10
11.4644268209
 20
9.852009513
 30
0.0
 10
11.4500170924
 20
9.8577768626
 30
0.0
 10
11.4361122075
 20
9.8636265454
 30
0.0
 10
11.422719157
 20
9.8695555873
 30
0.0
 10
11.4098446941
 20
9.8755610622
 30
0.0
 10
11.3974952553
 20
9.881639851
 30
0.0
 10
11.385677072
 20
9.8877890122
 30
0.0
 10
11.374396027
 20
9.8940053602
 30
0.0
 10
11.3636577891
 20
9.9002858697
 30
0.0
 10
11.3534677085
 20
9.906627386
 30
0.0
 10
11.3438308513
 20
9.913026757
 30
0.0
 10
11.3347520524
 20
9.9194809112
 30
0.0
 10
11.326235763
 20
9.9259865997
 30
0.0
 10
11.3182862974
 20
9.9325408173
 30
0.0
 10
11.3109075372
 20
9.9391403232
 30
0.0
 10
11.3041032448
 20
9.9457821122
 30
0.0
 10
11.2978768424
 20
9.9524630686
 30
0.0
 10
11.2922315329
 20
9.959180136
 30
0.0
 10
11.2871704089
 20
9.9659303487
 30
0.0
 10
11.2826961861
 20
9.9727105768
 30
0.0
 10
11.2788117106
 20
9.9795178683
 30
0.0
 10
11.2755193649
 20
9.986348953
 30
0.0
 10
11.2728216757
 20
9.9932006039
 30
0.0
 10
11.2707207707
 20
10.0000691732
 30
0.0
 10
11.2692185498
 20
10.0069510141
 30
0.0
 10
11.2683166273
 20
10.0138413009
 30
0.0
 10
11.2681158414
 20
10.0184445492
 30
0.0
 10
11.2681158417
 20
10.0207369011
 30
0.0
  0
SPLINE
  5
316
100
AcDbEntity
  8
0
100
AcDbSpline
 62
7
  6
CONTINUOUS
 70
0
 71
3
 72
52
 73
48
 74
0
 42
0.0000001
 43
0.0000001
 44
0.0000000001
 40
0.0
 40
0.0
 40
0.0
 40
0.0
 40
0.0417975951
 40
0.0840616288
 40
0.1266599
 40
0.1694646819
 40
0.2123442235
 40
0.2551675716
 40
0.2978037564
 40
0.3401225587
 40
0.3819950468
 40
0.4232940448
 40
0.4638946794
 40
0.5036749394
 40
0.5425162168
 40
0.5803038545
 40
0.6169277287
 40
0.6522828762
 40
0.6862702207
 40
0.7187973048
 40
0.7497791232
 40
0.7646666939
 40
0.7791400459
 40
0.7931910474
 40
0.8068124878
 40
0.8199977024
 40
0.8327409898
 40
0.8450375569
 40
0.8568834717
 40
0.8682761438
 40
0.8792139942
 40
0.8896969854
 40
0.8997266536
 40
0.9093062033
 40
0.9184411394
 40
0.9271391328
 40
0.9354107775
 40
0.9432698769
 40
0.9507338665
 40
0.9578247066
 40
0.9645691138
 40
0.9709994856
 40
0.9771542525
 40
0.9830781055
 40
0.9888220386
 40
0.9944424568
 40
1.0
 40
1.0
 40
1.0
 40
1.0
 10
9.3212660386
 20
11.2504317424
 30
0.0
 10
9.3276508953
 20
11.2499889511
 30
0.0
 10
9.3404991524
 20
11.2492005113
 30
0.0
 10
9.3598740393
 20
11.2483106323
 30
0.0
 10
9.379414343
 20
11.2477088122
 30
0.0
 10
9.399055661
 20
11.247396964
 30
0.0
 10
9.4187339083
 20
11.2473761667
 30
0.0
 10
9.438384493
 20
11.2476464749
 30
0.0
 10
9.4579430539
 20
11.2482069961
 30
0.0
 10
9.4773455017
 20
11.2490558756
 30
0.0
 10
9.4965282647
 20
11.2501903097
 30
0.0
 10
9.515428496
 20
11.2516065558
 30
0.0
 10
9.5339842788
 20
11.2532999439
 30
0.0
 10
9.5521348392
 20
11.2552648731
 30
0.0
 10
9.569820748
 20
11.2574948447
 30
0.0
 10
9.5869841121
 20
11.2599824855
 30
0.0
 10
9.6035687706
 20
11.2627195681
 30
0.0
 10
9.6195204751
 20
11.2656970451
 30
0.0
 10
9.6347871422
 20
11.2689050461
 30
0.0
 10
9.6493188339
 20
11.2723329641
 30
0.0
 10
9.6609259041
 20
11.27540268
 30
0.0
 10
9.6698031354
 20
11.2779670957
 30
0.0
 10
9.6761597529
 20
11.2799126342
 30
0.0
 10
9.6822985363
 20
11.2819044214
 30
0.0
 10
9.6882144947
 20
11.2839407617
 30
0.0
 10
9.6939027898
 20
11.2860200404
 30
0.0
 10
9.6993587886
 20
11.2881405353
 30
0.0
 10
9.7045780598
 20
11.2903004776
 30
0.0
 10
9.7095563396
 20
11.2924981784
 30
0.0
 10
9.7142896171
 20
11.2947317559
 30
0.0
 10
9.718774041
 20
11.2969994682
 30
0.0
 10
9.7230059978
 20
11.2992994584
 30
0.0
 10
9.7269821012
 20
11.3016298455
 30
0.0
 10
9.7306991218
 20
11.3039888614
 30
0.0
 10
9.7341541427
 20
11.306374548
 30
0.0
 10
9.7373443684
 20
11.3087851449
 30
0.0
 10
9.740267271
 20
11.3112187943
 30
0.0
 10
9.742920544
 20
11.3136736657
 30
0.0
 10
9.7453019527
 20
11.3161480912
 30
0.0
 10
9.7474095991
 20
11.3186402446
 30
0.0
 10
9.7492415175
 20
11.3211485338
 30
0.0
 10
9.750795936
 20
11.3236712332
 30
0.0
 10
9.7520711451
 20
11.3262065886
 30
0.0
 10
9.7530652876
 20
11.3287527211
 30
0.0
 10
9.7537769082
 20
11.3313074924
 30
0.0
 10
9.7542044649
 20
11.3338679965
 30
0.0
 10
9.7542997056
 20
11.3355810866
 30
0.0
 10
9.7542996982
 20
11.3364320768
 30
0.0
  0
SPLINE
  5
317
100
AcDbEntity
  8
0
100
AcDbSpline
 62
7
  6
CONTINUOUS
 70
0
 71
3
 72
52
 73
48
 74
0
 42
0.0000001
 43
0.0000001
 44
0.0000000001
 40
0.0
 40
0.0
 40
0.0
 40
0.0
 40
0.0417975951
 40
0.0840616288
 40
0.1266599
 40
0.1694646819
 40
0.2123442235
 40
0.2551675716
 40
0.2978037564
 40
0.3401225587
 40
0.3819950468
 40
0.4232940448
 40
0.4638946794
 40
0.5036749394
 40
0.5425162168
 40
0.5803038545
 40
0.6169277287
 40
0.6522828762
 40
0.6862702207
 40
0.7187973048
 40
0.7497791232
 40
0.7646666939
 40
0.7791400459
 40
0.7931910474
 40
0.8068124878
 40
0.8199977024
 40
0.8327409898
 40
0.8450375569
 40
0.8568834717
 40
0.8682761438
 40
0.8792139942
 40
0.8896969854
 40
0.8997266536
 40
0.9093062033
 40
0.9184411394
 40
0.9271391328
 40
0.9354107775
 40
0.9432698769
 40
0.9507338665
 40
0.9578247066
 40
0.9645691138
 40
0.9709994856
 40
0.9771542525
 40
0.9830781055
 40
0.9888220386
 40
0.9944424568
 40
1.0
 40
1.0
 40
1.0
 40
1.0
 10
14.1508954562
 20
10.9154958047
 30
0.0
 10
14.1572803129
 20
10.9150530134
 30
0.0
 10
14.17012857
 20
10.9142645736
 30
0.0
 10
14.1895034569
 20
10.9133746946
 30
0.0
 10
14.2090437606
 20
10.9127728745
 30
0.0
 10
14.2286850786
 20
10.9124610263
 30
0.0
 10
14.2483633259
 20
10.912440229
 30
0.0
 10
14.2680139106
 20
10.9127105372
 30
0.0
 10
14.2875724716
 20
10.9132710584
 30
0.0
 10
14.3069749193
 20
10.9141199379
 30
0.0
 10
14.3261576824
 20
10.9152543719
 30
0.0
 10
14.3450579136
 20
10.916670618
 30
0.0
 10
14.3636136964
 20
10.9183640061
 30
0.0
 10
14.3817642568
 20
10.9203289354
 30
0.0
 10
14.3994501656
 20
10.922558907
 30
0.0
 10
14.4166135297
 20
10.9250465478
 30
0.0
 10
14.4331981883
 20
10.9277836304
 30
0.0
 10
14.4491498927
 20
10.9307611073
 30
0.0
 10
14.4644165598
 20
10.9339691084
 30
0.0
 10
14.4789482515
 20
10.9373970264
 30
0.0
 10
14.4905553217
 20
10.9404667423
 30
0.0
 10
14.499432553
 20
10.943031158
 30
0.0
 10
14.5057891705
 20
10.9449766965
 30
0.0
 10
14.5119279539
 20
10.9469684836
 30
0.0
 10
14.5178439123
 20
10.949004824
 30
0.0
 10
14.5235322074
 20
10.9510841027
 30
0.0
 10
14.5289882062
 20
10.9532045976
 30
0.0
 10
14.5342074774
 20
10.9553645399
 30
0.0
 10
14.5391857572
 20
10.9575622407
 30
0.0
 10
14.5439190347
 20
10.9597958182
 30
0.0
 10
14.5484034586
 20
10.9620635305
 30
0.0
 10
14.5526354154
 20
10.9643635207
 30
0.0
 10
14.5566115188
 20
10.9666939078
 30
0.0
 10
14.5603285394
 20
10.9690529237
 30
0.0
 10
14.5637835603
 20
10.9714386103
 30
0.0
 10
14.566973786
 20
10.9738492072
 30
0.0
 10
14.5698966886
 20
10.9762828566
 30
0.0
 10
14.5725499617
 20
10.978737728
 30
0.0
 10
14.5749313703
 20
10.9812121535
 30
0.0
 10
14.5770390167
 20
10.9837043069
 30
0.0
 10
14.5788709351
 20
10.9862125961
 30
0.0
 10
14.5804253537
 20
10.9887352955
 30
0.0
 10
14.5817005628
 20
10.9912706509
 30
0.0
 10
14.5826947052
 20
10.9938167834
 30
0.0
 10
14.5834063258
 20
10.9963715547
 30
0.0
 10
14.5838338825
 20
10.9989320588
 30
0.0
 10
14.5839291232
 20
11.0006451489
 30
0.0
 10
14.5839291158
 20
11.0014961391
 30
0.0
  0
SPLINE
  5
318
100
AcDbEntity
  8
0
100
AcDbSpline
 62
7
  6
CONTINUOUS
 70
0
 71
3
 72
52
 73
48
 74
0
 42
0.0000001
 43
0.0000001
 44
0.0000000001
 40
0.0
 40
0.0
 40
0.0
 40
0.0
 40
0.0417975951
 40
0.0840616288
 40
0.1266599
 40
0.1694646819
 40
0.2123442235
 40
0.2551675716
 40
0.2978037564
 40
0.3401225587
 40
0.3819950468
 40
0.4232940448
 40
0.4638946794
 40
0.5036749394
 40
0.5425162168
 40
0.5803038545
 40
0.6169277287
 40
0.6522828762
 40
0.6862702207
 40
0.7187973048
 40
0.7497791232
 40
0.7646666939
 40
0.7791400459
 40
0.7931910474
 40
0.8068124878
 40
0.8199977024
 40
0.8327409898
 40
0.8450375569
 40
0.8568834717
 40
0.8682761438
 40
0.8792139942
 40
0.8896969854
 40
0.8997266536
 40
0.9093062033
 40
0.9184411394
 40
0.9271391328
 40
0.9354107775
 40
0.9432698769
 40
0.9507338665
 40
0.9578247066
 40
0.9645691138
 40
0.9709994856
 40
0.9771542525
 40
0.9830781055
 40
0.9888220386
 40
0.9944424568
 40
1.0
 40
1.0
 40
1.0
 40
1.0
 10
13.5685530853
 20
10.3529962356
 30
0.0
 10
13.574937942
 20
10.3525534443
 30
0.0
 10
13.5877861992
 20
10.3517650045
 30
0.0
 10
13.607161086
 20
10.3508751255
 30
0.0
 10
13.6267013897
 20
10.3502733054
 30
0.0
 10
13.6463427077
 20
10.3499614572
 30
0.0
 10
13.666020955
 20
10.3499406599
 30
0.0
 10
13.6856715397
 20
10.3502109681
 30
0.0
 10
13.7052301007
 20
10.3507714893
 30
0.0
 10
13.7246325484
 20
10.3516203688
 30
0.0
 10
13.7438153115
 20
10.3527548028
 30
0.0
 10
13.7627155427
 20
10.3541710489
 30
0.0
 10
13.7812713255
 20
10.355864437
 30
0.0
 10
13.799421886
 20
10.3578293663
 30
0.0
 10
13.8171077947
 20
10.3600593379
 30
0.0
 10
13.8342711588
 20
10.3625469787
 30
0.0
 10
13.8508558174
 20
10.3652840613
 30
0.0
 10
13.8668075218
 20
10.3682615382
 30
0.0
 10
13.8820741889
 20
10.3714695393
 30
0.0
 10
13.8966058806
 20
10.3748974573
 30
0.0
 10
13.9082129509
 20
10.3779671731
 30
0.0
 10
13.9170901821
 20
10.3805315889
 30
0.0
 10
13.9234467996
 20
10.3824771274
 30
0.0
 10
13.929585583
 20
10.3844689145
 30
0.0
 10
13.9355015414
 20
10.3865052549
 30
0.0
 10
13.9411898365
 20
10.3885845336
 30
0.0
 10
13.9466458353
 20
10.3907050285
 30
0.0
 10
13.9518651065
 20
10.3928649708
 30
0.0
 10
13.9568433863
 20
10.3950626716
 30
0.0
 10
13.9615766639
 20
10.3972962491
 30
0.0
 10
13.9660610877
 20
10.3995639614
 30
0.0
 10
13.9702930445
 20
10.4018639516
 30
0.0
 10
13.9742691479
 20
10.4041943387
 30
0.0
 10
13.9779861685
 20
10.4065533545
 30
0.0
 10
13.9814411894
 20
10.4089390412
 30
0.0
 10
13.9846314151
 20
10.4113496381
 30
0.0
 10
13.9875543177
 20
10.4137832875
 30
0.0
 10
13.9902075908
 20
10.4162381589
 30
0.0
 10
13.9925889995
 20
10.4187125844
 30
0.0
 10
13.9946966458
 20
10.4212047378
 30
0.0
 10
13.9965285642
 20
10.423713027
 30
0.0
 10
13.9980829828
 20
10.4262357264
 30
0.0
 10
13.9993581919
 20
10.4287710818
 30
0.0
 10
14.0003523343
 20
10.4313172143
 30
0.0
 10
14.0010639549
 20
10.4338719856
 30
0.0
 10
14.0014915116
 20
10.4364324897
 30
0.0
 10
14.0015867523
 20
10.4381455798
 30
0.0
 10
14.001586745
 20
10.43899657
 30
0.0
  0
SPLINE
  5
319
100
AcDbEntity
  8
0
100
AcDbSpline
 62
7
  6
CONTINUOUS
 70
0
 71
3
 72
52
 73
48
 74
0
 42
0.0000001
 43
0.0000001
 44
0.0000000001
 40
0.0
 40
0.0
 40
0.0
 40
0.0
 40
0.0417975951
 40
0.0840616288
 40
0.1266599
 40
0.1694646819
 40
0.2123442235
 40
0.2551675716
 40
0.2978037564
 40
0.3401225587
 40
0.3819950468
 40
0.4232940448
 40
0.4638946794
 40
0.5036749394
 40
0.5425162168
 40
0.5803038545
 40
0.6169277287
 40
0.6522828762
 40
0.6862702207
 40
0.7187973048
 40
0.7497791232
 40
0.7646666939
 40
0.7791400459
 40
0.7931910474
 40
0.8068124878
 40
0.8199977024
 40
0.8327409898
 40
0.8450375569
 40
0.8568834717
 40
0.8682761438
 40
0.8792139942
 40
0.8896969854
 40
0.8997266536
 40
0.9093062033
 40
0.9184411394
 40
0.9271391328
 40
0.9354107775
 40
0.9432698769
 40
0.9507338665
 40
0.9578247066
 40
0.9645691138
 40
0.9709994856
 40
0.9771542525
 40
0.9830781055
 40
0.9888220386
 40
0.9944424568
 40
1.0
 40
1.0
 40
1.0
 40
1.0
 10
8.7389236677
 20
10.6879321733
 30
0.0
 10
8.7453085244
 20
10.687489382
 30
0.0
 10
8.7581567815
 20
10.6867009422
 30
0.0
 10
8.7775316684
 20
10.6858110632
 30
0.0
 10
8.7970719721
 20
10.6852092431
 30
0.0
 10
8.8167132901
 20
10.6848973949
 30
0.0
 10
8.8363915374
 20
10.6848765976
 30
0.0
 10
8.8560421221
 20
10.6851469058
 30
0.0
 10
8.8756006831
 20
10.685707427
 30
0.0
 10
8.8950031308
 20
10.6865563065
 30
0.0
 10
8.9141858939
 20
10.6876907405
 30
0.0
 10
8.9330861251
 20
10.6891069866
 30
0.0
 10
8.9516419079
 20
10.6908003747
 30
0.0
 10
8.9697924683
 20
10.692765304
 30
0.0
 10
8.9874783771
 20
10.6949952756
 30
0.0
 10
9.0046417412
 20
10.6974829164
 30
0.0
 10
9.0212263998
 20
10.700219999
 30
0.0
 10
9.0371781042
 20
10.7031974759
 30
0.0
 10
9.0524447713
 20
10.706405477
 30
0.0
 10
9.066976463
 20
10.709833395
 30
0.0
 10
9.0785835332
 20
10.7129031108
 30
0.0
 10
9.0874607645
 20
10.7154675266
 30
0.0
 10
9.093817382
 20
10.7174130651
 30
0.0
 10
9.0999561654
 20
10.7194048522
 30
0.0
 10
9.1058721238
 20
10.7214411926
 30
0.0
 10
9.1115604189
 20
10.7235204713
 30
0.0
 10
9.1170164177
 20
10.7256409662
 30
0.0
 10
9.1222356889
 20
10.7278009085
 30
0.0
 10
9.1272139687
 20
10.7299986093
 30
0.0
 10
9.1319472462
 20
10.7322321868
 30
0.0
 10
9.1364316701
 20
10.7344998991
 30
0.0
 10
9.1406636269
 20
10.7367998893
 30
0.0
 10
9.1446397303
 20
10.7391302764
 30
0.0
 10
9.1483567509
 20
10.7414892923
 30
0.0
 10
9.1518117718
 20
10.7438749789
 30
0.0
 10
9.1550019975
 20
10.7462855758
 30
0.0
 10
9.1579249001
 20
10.7487192252
 30
0.0
 10
9.1605781732
 20
10.7511740966
 30
0.0
 10
9.1629595818
 20
10.7536485221
 30
0.0
 10
9.1650672282
 20
10.7561406755
 30
0.0
 10
9.1668991466
 20
10.7586489647
 30
0.0
 10
9.1684535652
 20
10.7611716641
 30
0.0
 10
9.1697287743
 20
10.7637070195
 30
0.0
 10
9.1707229167
 20
10.766253152
 30
0.0
 10
9.1714345373
 20
10.7688079233
 30
0.0
 10
9.171862094
 20
10.7713684274
 30
0.0
 10
9.1719573347
 20
10.7730815175
 30
0.0
 10
9.1719573273
 20
10.7739325077
 30
0.0
  0
SPLINE
  5
31A
100
AcDbEntity
  8
0
100
AcDbSpline
 62
7
  6
CONTINUOUS
 70
0
 71
3
 72
45
 73
41
 74
0
 42
0.0000001
 43
0.0000001
 44
0.0000000001
 40
0.0
 40
0.0
 40
0.0
 40
0.0
 40
0.0516498201
 40
0.0782424771
 40
0.1053662997
 40
0.161271308
 40
0.2194917702
 40
0.2801386243
 40
0.3432885571
 40
0.4089518184
 40
0.4427004267
 40
0.4770274596
 40
0.5118930895
 40
0.5472431875
 40
0.5830067722
 40
0.6190937612
 40
0.6553923062
 40
0.691765279
 40
0.7280455344
 40
0.7640294264
 40
0.7818351449
 40
0.7994695518
 40
0.8168927564
 40
0.8340609037
 40
0.8509261879
 40
0.8674361034
 40
0.8835341678
 40
0.8991604312
 40
0.9142514293
 40
0.9287427454
 40
0.9425701937
 40
0.9556730443
 40
0.961936332
 40
0.9679993435
 40
0.9738572589
 40
0.9795066197
 40
0.9849451985
 40
0.9901723182
 40
0.9951894735
 40
1.0
 40
1.0
 40
1.0
 40
1.0
 10
8.6579389061
 20
7.2194987227
 30
0.0
 10
8.6662403271
 20
7.214501471
 30
0.0
 10
8.6788680285
 20
7.2070175307
 30
0.0
 10
8.6959721476
 20
7.1971092262
 30
0.0
 10
8.7138353496
 20
7.1869195863
 30
0.0
 10
8.7369855685
 20
7.1740248481
 30
0.0
 10
8.7658461249
 20
7.1584640672
 30
0.0
 10
8.7961334962
 20
7.1426926675
 30
0.0
 10
8.8279118192
 20
7.1267702191
 30
0.0
 10
8.8554147747
 20
7.1135887697
 30
0.0
 10
8.8782039329
 20
7.1030934387
 30
0.0
 10
8.8958361921
 20
7.0952153023
 30
0.0
 10
8.9138426346
 20
7.0874417387
 30
0.0
 10
8.9322064466
 20
7.0798206421
 30
0.0
 10
8.9509028521
 20
7.0724093308
 30
0.0
 10
8.9698972651
 20
7.0652751909
 30
0.0
 10
8.9891429283
 20
7.0584961326
 30
0.0
 10
9.0085778651
 20
7.0521606791
 30
0.0
 10
9.0281203382
 20
7.0463678386
 30
0.0
 10
9.0444646177
 20
7.042067486
 30
0.0
 10
9.0575100404
 20
7.0390062273
 30
0.0
 10
9.0672072187
 20
7.0369259231
 30
0.0
 10
9.0768278664
 20
7.0350686919
 30
0.0
 10
9.0863453186
 20
7.0334500988
 30
0.0
 10
9.0957295528
 20
7.0320856962
 30
0.0
 10
9.1049470478
 20
7.0309906532
 30
0.0
 10
9.1139606885
 20
7.0301795244
 30
0.0
 10
9.1227297929
 20
7.0296662296
 30
0.0
 10
9.1312103294
 20
7.0294631854
 30
0.0
 10
9.1393554114
 20
7.0295814835
 30
0.0
 10
9.1471157091
 20
7.0300304655
 30
0.0
 10
9.1533104949
 20
7.0306953869
 30
0.0
 10
9.1580279476
 20
7.031408988
 30
0.0
 10
9.1613842781
 20
7.0320225
 30
0.0
 10
9.1646058974
 20
7.0327226869
 30
0.0
 10
9.1676868143
 20
7.0335094339
 30
0.0
 10
9.1706212177
 20
7.0343825594
 30
0.0
 10
9.1734035562
 20
7.0353419441
 30
0.0
 10
9.1760285839
 20
7.0363867863
 30
0.0
 10
9.1777052953
 20
7.0371559958
 30
0.0
 10
9.1785144019
 20
7.0375557051
 30
0.0
  0
SPLINE
  5
31B
100
AcDbEntity
  8
0
100
AcDbSpline
 62
7
  6
CONTINUOUS
 70
0
 71
3
 72
28
 73
24
 74
0
 42
0.0000001
 43
0.0000001
 44
0.0000000001
 40
0.0
 40
0.0
 40
0.0
 40
0.0
 40
0.0966661589
 40
0.1858878387
 40
0.268455441
 40
0.3452272004
 40
0.4169804886
 40
0.4843689896
 40
0.5166020466
 40
0.5479362175
 40
0.6080959522
 40
0.6652096282
 40
0.6927202543
 40
0.7195738691
 40
0.7714121601
 40
0.8209446195
 40
0.8449110203
 40
0.8683735883
 40
0.8913559252
 40
0.913882589
 40
0.9359811816
 40
0.9576811423
 40
1.0
 40
1.0
 40
1.0
 40
1.0
 10
11.33189377
 20
7.2286594459
 30
0.0
 10
11.3338858495
 20
7.2248524065
 30
0.0
 10
11.3380198175
 20
7.2176850971
 30
0.0
 10
11.3448116535
 20
7.2078594369
 30
0.0
 10
11.3517885673
 20
7.1992787926
 30
0.0
 10
11.358851484
 20
7.1918077941
 30
0.0
 10
11.3659355187
 20
7.1853213815
 30
0.0
 10
11.371905872
 20
7.1805797656
 30
0.0
 10
11.3766492255
 20
7.1772041121
 30
0.0
 10
11.3812374798
 20
7.1741704113
 30
0.0
 10
11.3869306859
 20
7.1708099734
 30
0.0
 10
11.3926904851
 20
7.1679267497
 30
0.0
 10
11.3972349224
 20
7.1659492308
 30
0.0
 10
11.4016287261
 20
7.1642209872
 30
0.0
 10
11.4070429258
 20
7.162423018
 30
0.0
 10
11.4124542641
 20
7.1610724001
 30
0.0
 10
11.4166930752
 20
7.1602871834
 30
0.0
 10
11.4197925285
 20
7.1598459956
 30
0.0
 10
11.4228445667
 20
7.1595460488
 30
0.0
 10
11.4258465465
 20
7.1593879666
 30
0.0
 10
11.4287958983
 20
7.1593721877
 30
0.0
 10
11.4326209636
 20
7.1595404787
 30
0.0
 10
11.435452999
 20
7.1598858289
 30
0.0
 10
11.4373038614
 20
7.1602214176
 30
0.0
  0
SPLINE
  5
31C
100
AcDbEntity
  8
0
100
AcDbSpline
 62
7
  6
CONTINUOUS
 70
0
 71
3
 72
46
 73
42
 74
0
 42
0.0000001
 43
0.0000001
 44
0.0000000001
 40
0.0
 40
0.0
 40
0.0
 40
0.0
 40
0.0446341856
 40
0.0920368771
 40
0.1419548251
 40
0.1939731471
 40
0.2475025454
 40
0.3017973534
 40
0.3560149647
 40
0.4093102452
 40
0.4609333075
 40
0.5102985098
 40
0.5570107891
 40
0.6008510763
 40
0.6417407375
 40
0.6797006251
 40
0.7148150652
 40
0.7472045913
 40
0.7770063331
 40
0.804362091
 40
0.8294115069
 40
0.8522867149
 40
0.8731130103
 40
0.8920055854
 40
0.9090740654
 40
0.9244206091
 40
0.9381467106
 40
0.9444341573
 40
0.9503554325
 40
0.9559247792
 40
0.9611568554
 40
0.9660681535
 40
0.9706774864
 40
0.9750061994
 40
0.979078072
 40
0.9829208259
 40
0.9865669101
 40
0.990053735
 40
0.9934233322
 40
0.99672213
 40
1.0
 40
1.0
 40
1.0
 40
1.0
 10
10.8208066746
 20
7.3517430406
 30
0.0
 10
10.8214793985
 20
7.3546267994
 30
0.0
 10
10.8229824862
 20
7.3605466501
 30
0.0
 10
10.8256280578
 20
7.3695871211
 30
0.0
 10
10.8287381469
 20
7.3789960185
 30
0.0
 10
10.8322987285
 20
7.3886780033
 30
0.0
 10
10.8362739759
 20
7.3985110777
 30
0.0
 10
10.8406048438
 20
7.4083522671
 30
0.0
 10
10.8452120008
 20
7.4180498173
 30
0.0
 10
10.8500033676
 20
7.4274590152
 30
0.0
 10
10.8548845468
 20
7.4364571378
 30
0.0
 10
10.8597686829
 20
7.4449532244
 30
0.0
 10
10.864583262
 20
7.4528906161
 30
0.0
 10
10.8692729192
 20
7.4602434182
 30
0.0
 10
10.873798823
 20
7.4670095562
 30
0.0
 10
10.8781361309
 20
7.4732032248
 30
0.0
 10
10.8822708237
 20
7.4788483503
 30
0.0
 10
10.8861967225
 20
7.4839736417
 30
0.0
 10
10.8899130638
 20
7.4886092221
 30
0.0
 10
10.8934224757
 20
7.4927846952
 30
0.0
 10
10.8967297388
 20
7.4965278426
 30
0.0
 10
10.899841172
 20
7.4998638236
 30
0.0
 10
10.9027630755
 20
7.5028156352
 30
0.0
 10
10.9055027242
 20
7.5054029401
 30
0.0
 10
10.9080665051
 20
7.5076436101
 30
0.0
 10
10.9104613379
 20
7.5095521359
 30
0.0
 10
10.912373299
 20
7.5109142009
 30
0.0
 10
10.9138240917
 20
7.5118398434
 30
0.0
 10
10.9148414123
 20
7.5124372466
 30
0.0
 10
10.9158206785
 20
7.5129594265
 30
0.0
 10
10.9167625773
 20
7.5134070525
 30
0.0
 10
10.9176676931
 20
7.5137807909
 30
0.0
 10
10.9185366133
 20
7.5140812588
 30
0.0
 10
10.9193698654
 20
7.5143090608
 30
0.0
 10
10.9201680225
 20
7.5144643129
 30
0.0
 10
10.9209315476
 20
7.5145470097
 30
0.0
 10
10.9216608287
 20
7.5145570581
 30
0.0
 10
10.9223561346
 20
7.5144943951
 30
0.0
 10
10.9230176234
 20
7.514358645
 30
0.0
 10
10.9236450344
 20
7.5141492432
 30
0.0
 10
10.9240398884
 20
7.5139605235
 30
0.0
 10
10.9242299557
 20
7.5138548564
 30
0.0
  0
SPLINE
  5
31D
100
AcDbEntity
  8
0
100
AcDbSpline
 62
7
  6
CONTINUOUS
 70
0
 71
3
 72
20
 73
16
 74
0
 42
0.0000001
 43
0.0000001
 44
0.0000000001
 40
0.0
 40
0.0
 40
0.0
 40
0.0
 40
0.0548579917
 40
0.1099199293
 40
0.1653872459
 40
0.2214567063
 40
0.2783181011
 40
0.3361525857
 40
0.3951315812
 40
0.4554152184
 40
0.5804413563
 40
0.6454834332
 40
0.7123556605
 40
0.8519687085
 40
1.0
 40
1.0
 40
1.0
 40
1.0
 10
10.2473752494
 20
10.2551920576
 30
0.0
 10
10.2473752491
 20
10.2535255683
 30
0.0
 10
10.2472694586
 20
10.2501854377
 30
0.0
 10
10.246793861
 20
10.2451806741
 30
0.0
 10
10.2460014736
 20
10.2401788011
 30
0.0
 10
10.2448925381
 20
10.2351816142
 30
0.0
 10
10.24346756
 20
10.2301904939
 30
0.0
 10
10.2417271468
 20
10.2252069023
 30
0.0
 10
10.2396717661
 20
10.2202320941
 30
0.0
 10
10.2364740468
 20
10.2135321899
 30
0.0
 10
10.232668947
 20
10.2069306626
 30
0.0
 10
10.2283174886
 20
10.2004487142
 30
0.0
 10
10.2234237886
 20
10.1938055791
 30
0.0
 10
10.216497373
 20
10.1855435798
 30
0.0
 10
10.2104022295
 20
10.1792714032
 30
0.0
 10
10.207167792
 20
10.1761471762
 30
0.0
  0
SPLINE
  5
31E
100
AcDbEntity
  8
0
100
AcDbSpline
 62
7
  6
CONTINUOUS
 70
0
 71
3
 72
15
 73
11
 74
0
 42
0.0000001
 43
0.0000001
 44
0.0000000001
 40
0.0
 40
0.0
 40
0.0
 40
0.0
 40
0.1101928984
 40
0.2234970519
 40
0.3405549486
 40
0.4619430663
 40
0.5881712105
 40
0.7196848944
 40
0.8568588093
 40
1.0
 40
1.0
 40
1.0
 40
1.0
 10
9.8752846858
 20
10.1783204761
 30
0.0
 10
9.8748189706
 20
10.1766459978
 30
0.0
 10
9.8737265783
 20
10.173289233
 30
0.0
 10
9.8716517095
 20
10.1683289615
 30
0.0
 10
9.8691227839
 20
10.1633850214
 30
0.0
 10
9.8661417998
 20
10.1584606014
 30
0.0
 10
9.8627109193
 20
10.15355791
 30
0.0
 10
9.8588322568
 20
10.1486794255
 30
0.0
 10
9.8545085335
 20
10.1438278354
 30
0.0
 10
9.8513990892
 20
10.1406817196
 30
0.0
 10
9.8497752151
 20
10.1391131776
 30
0.0
  0
SPLINE
  5
31F
100
AcDbEntity
  8
0
100
AcDbSpline
 62
7
  6
CONTINUOUS
 70
0
 71
3
 72
93
 73
89
 74
0
 42
0.0000001
 43
0.0000001
 44
0.0000000001
 40
0.0
 40
0.0
 40
0.0
 40
0.0
 40
0.0028891198
 40
0.0058524383
 40
0.0089045383
 40
0.0120586377
 40
0.0153265109
 40
0.0187185351
 40
0.0222437997
 40
0.0259101148
 40
0.0297241996
 40
0.0336917584
 40
0.0378175425
 40
0.0421055423
 40
0.0465589787
 40
0.0511804269
 40
0.0559719253
 40
0.0609349325
 40
0.0660704916
 40
0.0713792248
 40
0.0768613399
 40
0.0825167655
 40
0.088345071
 40
0.0943455529
 40
0.1005172856
 40
0.1068590422
 40
0.1133694253
 40
0.1200468212
 40
0.1338948685
 40
0.148386977
 40
0.1635040568
 40
0.1792247451
 40
0.1955256589
 40
0.2123816012
 40
0.229765723
 40
0.2476496464
 40
0.2660036155
 40
0.2847966307
 40
0.3039965562
 40
0.3235702089
 40
0.3434834728
 40
0.3637014074
 40
0.3841883385
 40
0.4049079391
 40
0.4258233305
 40
0.4468971792
 40
0.468091782
 40
0.4893691499
 40
0.510691103
 40
0.5320193612
 40
0.5533156276
 40
0.5745416777
 40
0.5956594534
 40
0.6166311485
 40
0.6374192927
 40
0.6579868464
 40
0.6782972994
 40
0.6983147517
 40
0.718004002
 40
0.737330651
 40
0.7562612103
 40
0.7747631869
 40
0.7928051827
 40
0.8103570169
 40
0.8273898616
 40
0.843876348
 40
0.8597907028
 40
0.8751089214
 40
0.8898089744
 40
0.9038709954
 40
0.9106573464
 40
0.9172778795
 40
0.9237308153
 40
0.9300146309
 40
0.9361279783
 40
0.9420697251
 40
0.9478390328
 40
0.9534352698
 40
0.9588581383
 40
0.9641076687
 40
0.969184191
 40
0.9740884675
 40
0.9788216452
 40
0.9833853866
 40
0.9877820027
 40
0.992014335
 40
0.9960856985
 40
1.0
 40
1.0
 40
1.0
 40
1.0
 10
8.2594658166
 20
10.1783204762
 30
0.0
 10
8.259895712
 20
10.1767747851
 30
0.0
 10
8.2608922683
 20
10.1736773634
 30
0.0
 10
8.2627598036
 20
10.16909425
 30
0.0
 10
8.2650151398
 20
10.1645244003
 30
0.0
 10
8.2676567844
 20
10.159970379
 30
0.0
 10
8.2706830976
 20
10.1554340623
 30
0.0
 10
8.2740923304
 20
10.1509174033
 30
0.0
 10
8.2778827815
 20
10.1464224202
 30
0.0
 10
8.2820524297
 20
10.1419509657
 30
0.0
 10
8.2865992726
 20
10.1375050257
 30
0.0
 10
8.2915211387
 20
10.1330865971
 30
0.0
 10
8.2968156158
 20
10.1286975724
 30
0.0
 10
8.3024802599
 20
10.1243400315
 30
0.0
 10
8.308512354
 20
10.1200159276
 30
0.0
 10
8.3149090345
 20
10.1157272372
 30
0.0
 10
8.3216673176
 20
10.1114760439
 30
0.0
 10
8.3287839507
 20
10.1072642563
 30
0.0
 10
8.3362555798
 20
10.10309391
 30
0.0
 10
8.3440786577
 20
10.0989670033
 30
0.0
 10
8.3522494309
 20
10.0948854308
 30
0.0
 10
8.3607640346
 20
10.0908512219
 30
0.0
 10
8.3696183833
 20
10.08686626
 30
0.0
 10
8.3788082421
 20
10.0829324417
 30
0.0
 10
8.3883292349
 20
10.0790517177
 30
0.0
 10
8.3981767761
 20
10.0752258821
 30
0.0
 10
8.4083461723
 20
10.0714567955
 30
0.0
 10
8.4225000214
 20
10.066448674
 30
0.0
 10
8.4409690249
 20
10.0603552224
 30
0.0
 10
8.4640747272
 20
10.0533834651
 30
0.0
 10
8.4883400714
 20
10.0466797143
 30
0.0
 10
8.5137184574
 20
10.0402569287
 30
0.0
 10
8.5401613023
 20
10.0341275347
 30
0.0
 10
8.5676178858
 20
10.0283034022
 30
0.0
 10
8.5960355252
 20
10.0227958238
 30
0.0
 10
8.6253596444
 20
10.0176154515
 30
0.0
 10
8.6555339004
 20
10.0127723032
 30
0.0
 10
8.6865003079
 20
10.0082757524
 30
0.0
 10
8.7181993472
 20
10.0041345136
 30
0.0
 10
8.7505700693
 20
10.0003565904
 30
0.0
 10
8.7835502207
 20
9.996949279
 30
0.0
 10
8.8170763756
 20
9.9939191687
 30
0.0
 10
8.8510840541
 20
9.9912721316
 30
0.0
 10
8.8855078397
 20
9.9890132803
 30
0.0
 10
8.9202815095
 20
9.9871469699
 30
0.0
 10
8.9553381685
 20
9.9856768077
 30
0.0
 10
8.9906103761
 20
9.9846056476
 30
0.0
 10
9.0260302728
 20
9.983935558
 30
0.0
 10
9.0615297133
 20
9.9836678219
 30
0.0
 10
9.0970404002
 20
9.9838029567
 30
0.0
 10
9.1324940136
 20
9.9843407132
 30
0.0
 10
9.1678223437
 20
9.9852800533
 30
0.0
 10
9.2029574243
 20
9.9866191493
 30
0.0
 10
9.237831662
 20
9.9883554129
 30
0.0
 10
9.2723779642
 20
9.9904854999
 30
0.0
 10
9.3065298734
 20
9.9930052968
 30
0.0
 10
9.340221699
 20
9.9959099195
 30
0.0
 10
9.373388638
 20
9.9991937517
 30
0.0
 10
9.4059668963
 20
10.0028504543
 30
0.0
 10
9.4378938225
 20
10.0068729622
 30
0.0
 10
9.4691080336
 20
10.0112534806
 30
0.0
 10
9.4995495259
 20
10.0159835334
 30
0.0
 10
9.5291597851
 20
10.0210539773
 30
0.0
 10
9.5578819154
 20
10.0264550082
 30
0.0
 10
9.5856607597
 20
10.0321761552
 30
0.0
 10
9.6124430013
 20
10.0382063394
 30
0.0
 10
9.6381772424
 20
10.0445338938
 30
0.0
 10
9.6628142016
 20
10.0511465779
 30
0.0
 10
9.6863065674
 20
10.0580315856
 30
0.0
 10
9.705108524
 20
10.0640540073
 30
0.0
 10
9.7195361224
 20
10.0690073594
 30
0.0
 10
9.7299147525
 20
10.0727380649
 30
0.0
 10
9.739974713
 20
10.0765267452
 30
0.0
 10
9.749711209
 20
10.0803715413
 30
0.0
 10
9.7591195718
 20
10.0842706114
 30
0.0
 10
9.768195282
 20
10.0882221291
 30
0.0
 10
9.776934022
 20
10.0922241206
 30
0.0
 10
9.7853315956
 20
10.0962747333
 30
0.0
 10
9.7933840018
 20
10.1003720171
 30
0.0
 10
9.8010874254
 20
10.104513979
 30
0.0
 10
9.8084381553
 20
10.1086987333
 30
0.0
 10
9.8154327182
 20
10.1129242012
 30
0.0
 10
9.8220677811
 20
10.1171883953
 30
0.0
 10
9.8283402065
 20
10.1214893929
 30
0.0
 10
9.8342471285
 20
10.1258251718
 30
0.0
 10
9.8397857195
 20
10.130193857
 30
0.0
 10
9.8449530876
 20
10.1345931028
 30
0.0
 10
9.848211804
 20
10.1376030384
 30
0.0
 10
9.8497752151
 20
10.1391131776
 30
0.0
  0
SPLINE
  5
320
100
AcDbEntity
  8
0
100
AcDbSpline
 62
7
  6
CONTINUOUS
 70
0
 71
3
 72
20
 73
16
 74
0
 42
0.0000001
 43
0.0000001
 44
0.0000000001
 40
0.0
 40
0.0
 40
0.0
 40
0.0
 40
0.0548579917
 40
0.1099199293
 40
0.1653872459
 40
0.2214567063
 40
0.2783181011
 40
0.3361525857
 40
0.3951315812
 40
0.4554152184
 40
0.5804413563
 40
0.6454834332
 40
0.7123556605
 40
0.8519687085
 40
1.0
 40
1.0
 40
1.0
 40
1.0
 10
13.6281158417
 20
10.0207369012
 30
0.0
 10
13.6281158415
 20
10.0190704119
 30
0.0
 10
13.628010051
 20
10.0157302813
 30
0.0
 10
13.6275344533
 20
10.0107255177
 30
0.0
 10
13.626742066
 20
10.0057236447
 30
0.0
 10
13.6256331304
 20
10.0007264578
 30
0.0
 10
13.6242081523
 20
9.9957353375
 30
0.0
 10
13.6224677392
 20
9.9907517459
 30
0.0
 10
13.6204123584
 20
9.9857769377
 30
0.0
 10
13.6172146392
 20
9.9790770335
 30
0.0
 10
13.6134095393
 20
9.9724755062
 30
0.0
 10
13.609058081
 20
9.9659935578
 30
0.0
 10
13.6041643809
 20
9.9593504227
 30
0.0
 10
13.5972379653
 20
9.9510884234
 30
0.0
 10
13.5911428219
 20
9.9448162468
 30
0.0
 10
13.5879083843
 20
9.9416920198
 30
0.0
  0
SPLINE
  5
321
100
AcDbEntity
  8
0
100
AcDbSpline
 62
7
  6
CONTINUOUS
 70
0
 71
3
 72
15
 73
11
 74
0
 42
0.0000001
 43
0.0000001
 44
0.0000000001
 40
0.0
 40
0.0
 40
0.0
 40
0.0
 40
0.1101928984
 40
0.2234970519
 40
0.3405549486
 40
0.4619430663
 40
0.5881712105
 40
0.7196848944
 40
0.8568588093
 40
1.0
 40
1.0
 40
1.0
 40
1.0
 10
13.2560252781
 20
9.9438653197
 30
0.0
 10
13.2555595629
 20
9.9421908414
 30
0.0
 10
13.2544671706
 20
9.9388340766
 30
0.0
 10
13.2523923019
 20
9.9338738051
 30
0.0
 10
13.2498633762
 20
9.928929865
 30
0.0
 10
13.2468823921
 20
9.924005445
 30
0.0
 10
13.2434515116
 20
9.9191027536
 30
0.0
 10
13.2395728491
 20
9.9142242691
 30
0.0
 10
13.2352491258
 20
9.909372679
 30
0.0
 10
13.2321396815
 20
9.9062265633
 30
0.0
 10
13.2305158074
 20
9.9046580212
 30
0.0
  0
SPLINE
  5
322
100
AcDbEntity
  8
0
100
AcDbSpline
 62
7
  6
CONTINUOUS
 70
0
 71
3
 72
93
 73
89
 74
0
 42
0.0000001
 43
0.0000001
 44
0.0000000001
 40
0.0
 40
0.0
 40
0.0
 40
0.0
 40
0.0028891198
 40
0.0058524383
 40
0.0089045383
 40
0.0120586377
 40
0.0153265109
 40
0.0187185351
 40
0.0222437997
 40
0.0259101148
 40
0.0297241996
 40
0.0336917584
 40
0.0378175425
 40
0.0421055423
 40
0.0465589787
 40
0.0511804269
 40
0.0559719253
 40
0.0609349325
 40
0.0660704916
 40
0.0713792248
 40
0.0768613399
 40
0.0825167655
 40
0.088345071
 40
0.0943455529
 40
0.1005172856
 40
0.1068590422
 40
0.1133694253
 40
0.1200468212
 40
0.1338948685
 40
0.148386977
 40
0.1635040568
 40
0.1792247451
 40
0.1955256589
 40
0.2123816012
 40
0.229765723
 40
0.2476496464
 40
0.2660036155
 40
0.2847966307
 40
0.3039965562
 40
0.3235702089
 40
0.3434834728
 40
0.3637014074
 40
0.3841883385
 40
0.4049079391
 40
0.4258233305
 40
0.4468971792
 40
0.468091782
 40
0.4893691499
 40
0.510691103
 40
0.5320193612
 40
0.5533156276
 40
0.5745416777
 40
0.5956594534
 40
0.6166311485
 40
0.6374192927
 40
0.6579868464
 40
0.6782972994
 40
0.6983147517
 40
0.718004002
 40
0.737330651
 40
0.7562612103
 40
0.7747631869
 40
0.7928051827
 40
0.8103570169
 40
0.8273898616
 40
0.843876348
 40
0.8597907028
 40
0.8751089214
 40
0.8898089744
 40
0.9038709954
 40
0.9106573464
 40
0.9172778795
 40
0.9237308153
 40
0.9300146309
 40
0.9361279783
 40
0.9420697251
 40
0.9478390328
 40
0.9534352698
 40
0.9588581383
 40
0.9641076687
 40
0.969184191
 40
0.9740884675
 40
0.9788216452
 40
0.9833853866
 40
0.9877820027
 40
0.992014335
 40
0.9960856985
 40
1.0
 40
1.0
 40
1.0
 40
1.0
 10
11.6402064089
 20
9.9438653198
 30
0.0
 10
11.6406363043
 20
9.9423196287
 30
0.0
 10
11.6416328606
 20
9.939222207
 30
0.0
 10
11.6435003959
 20
9.9346390936
 30
0.0
 10
11.6457557321
 20
9.9300692439
 30
0.0
 10
11.6483973768
 20
9.9255152226
 30
0.0
 10
11.6514236899
 20
9.9209789059
 30
0.0
 10
11.6548329227
 20
9.9164622469
 30
0.0
 10
11.6586233739
 20
9.9119672638
 30
0.0
 10
11.662793022
 20
9.9074958093
 30
0.0
 10
11.6673398649
 20
9.9030498693
 30
0.0
 10
11.672261731
 20
9.8986314407
 30
0.0
 10
11.6775562082
 20
9.894242416
 30
0.0
 10
11.6832208522
 20
9.8898848751
 30
0.0
 10
11.6892529463
 20
9.8855607712
 30
0.0
 10
11.6956496269
 20
9.8812720808
 30
0.0
 10
11.7024079099
 20
9.8770208875
 30
0.0
 10
11.7095245431
 20
9.8728090999
 30
0.0
 10
11.7169961722
 20
9.8686387536
 30
0.0
 10
11.72481925
 20
9.8645118469
 30
0.0
 10
11.7329900233
 20
9.8604302744
 30
0.0
 10
11.7415046269
 20
9.8563960655
 30
0.0
 10
11.7503589756
 20
9.8524111036
 30
0.0
 10
11.7595488344
 20
9.8484772853
 30
0.0
 10
11.7690698272
 20
9.8445965614
 30
0.0
 10
11.7789173684
 20
9.8407707257
 30
0.0
 10
11.7890867647
 20
9.8370016391
 30
0.0
 10
11.8032406137
 20
9.8319935176
 30
0.0
 10
11.8217096172
 20
9.825900066
 30
0.0
 10
11.8448153196
 20
9.8189283087
 30
0.0
 10
11.8690806637
 20
9.8122245579
 30
0.0
 10
11.8944590498
 20
9.8058017723
 30
0.0
 10
11.9209018946
 20
9.7996723783
 30
0.0
 10
11.9483584782
 20
9.7938482458
 30
0.0
 10
11.9767761175
 20
9.7883406674
 30
0.0
 10
12.0061002367
 20
9.7831602951
 30
0.0
 10
12.0362744927
 20
9.7783171468
 30
0.0
 10
12.0672409002
 20
9.773820596
 30
0.0
 10
12.0989399395
 20
9.7696793572
 30
0.0
 10
12.1313106616
 20
9.765901434
 30
0.0
 10
12.164290813
 20
9.7624941226
 30
0.0
 10
12.1978169679
 20
9.7594640123
 30
0.0
 10
12.2318246464
 20
9.7568169752
 30
0.0
 10
12.266248432
 20
9.7545581239
 30
0.0
 10
12.3010221018
 20
9.7526918135
 30
0.0
 10
12.3360787608
 20
9.7512216513
 30
0.0
 10
12.3713509685
 20
9.7501504912
 30
0.0
 10
12.4067708652
 20
9.7494804016
 30
0.0
 10
12.4422703057
 20
9.7492126655
 30
0.0
 10
12.4777809925
 20
9.7493478003
 30
0.0
 10
12.513234606
 20
9.7498855568
 30
0.0
 10
12.548562936
 20
9.7508248969
 30
0.0
 10
12.5836980166
 20
9.7521639929
 30
0.0
 10
12.6185722544
 20
9.7539002565
 30
0.0
 10
12.6531185565
 20
9.7560303435
 30
0.0
 10
12.6872704657
 20
9.7585501404
 30
0.0
 10
12.7209622913
 20
9.7614547631
 30
0.0
 10
12.7541292303
 20
9.7647385953
 30
0.0
 10
12.7867074887
 20
9.7683952979
 30
0.0
 10
12.8186344148
 20
9.7724178058
 30
0.0
 10
12.849848626
 20
9.7767983242
 30
0.0
 10
12.8802901183
 20
9.781528377
 30
0.0
 10
12.9099003774
 20
9.7865988209
 30
0.0
 10
12.9386225078
 20
9.7919998518
 30
0.0
 10
12.966401352
 20
9.7977209988
 30
0.0
 10
12.9931835936
 20
9.803751183
 30
0.0
 10
13.0189178347
 20
9.8100787375
 30
0.0
 10
13.0435547939
 20
9.8166914215
 30
0.0
 10
13.0670471597
 20
9.8235764292
 30
0.0
 10
13.0858491163
 20
9.8295988509
 30
0.0
 10
13.1002767147
 20
9.834552203
 30
0.0
 10
13.1106553448
 20
9.8382829085
 30
0.0
 10
13.1207153053
 20
9.8420715888
 30
0.0
 10
13.1304518013
 20
9.8459163849
 30
0.0
 10
13.1398601641
 20
9.849815455
 30
0.0
 10
13.1489358743
 20
9.8537669727
 30
0.0
 10
13.1576746144
 20
9.8577689642
 30
0.0
 10
13.1660721879
 20
9.8618195769
 30
0.0
 10
13.1741245942
 20
9.8659168607
 30
0.0
 10
13.1818280178
 20
9.8700588226
 30
0.0
 10
13.1891787477
 20
9.8742435769
 30
0.0
 10
13.1961733105
 20
9.8784690448
 30
0.0
 10
13.2028083734
 20
9.8827332389
 30
0.0
 10
13.2090807988
 20
9.8870342365
 30
0.0
 10
13.2149877209
 20
9.8913700154
 30
0.0
 10
13.2205263118
 20
9.8957387006
 30
0.0
 10
13.2256936799
 20
9.9001379464
 30
0.0
 10
13.2289523964
 20
9.903147882
 30
0.0
 10
13.2305158074
 20
9.9046580212
 30
0.0
  0
SPLINE
  5
323
100
AcDbEntity
  8
0
100
AcDbSpline
 62
7
  6
CONTINUOUS
 70
0
 71
3
 72
39
 73
35
 74
0
 42
0.0000001
 43
0.0000001
 44
0.0000000001
 40
0.0
 40
0.0
 40
0.0
 40
0.0
 40
0.0064813485
 40
0.0130002985
 40
0.0195937285
 40
0.026297146
 40
0.0331442162
 40
0.0401663079
 40
0.05484089
 40
0.0705272863
 40
0.0873816519
 40
0.1055233038
 40
0.1250399977
 40
0.1459941136
 40
0.1684273795
 40
0.192364659
 40
0.2178175573
 40
0.2447860489
 40
0.2732611697
 40
0.3032256797
 40
0.334655689
 40
0.3675213604
 40
0.4017874193
 40
0.4374142301
 40
0.4743575615
 40
0.5125697352
 40
0.5519993246
 40
0.5925918809
 40
0.6342900708
 40
0.6770336885
 40
0.7207603521
 40
0.8109000934
 40
0.9041686777
 40
1.0
 40
1.0
 40
1.0
 40
1.0
 10
9.0662997351
 20
11.3364312763
 30
0.0
 10
9.0662997403
 20
11.3358238426
 30
0.0
 10
9.0663480368
 20
11.334604907
 30
0.0
 10
9.0665651531
 20
11.3327796668
 30
0.0
 10
9.0669267765
 20
11.3309562043
 30
0.0
 10
9.0674325864
 20
11.3291355672
 30
0.0
 10
9.0680823072
 20
11.3273185145
 30
0.0
 10
9.069155447
 20
11.3248660989
 30
0.0
 10
9.0708768676
 20
11.3218032358
 30
0.0
 10
9.073479463
 20
11.3182144496
 30
0.0
 10
9.0766426397
 20
11.3146616702
 30
0.0
 10
9.0803603715
 20
11.3111495237
 30
0.0
 10
9.0846264656
 20
11.307682031
 30
0.0
 10
9.0894341699
 20
11.3042639659
 30
0.0
 10
9.0947759196
 20
11.3009003133
 30
0.0
 10
9.1006432097
 20
11.2975961664
 30
0.0
 10
9.1070266753
 20
11.2943568708
 30
0.0
 10
9.1139159423
 20
11.2911875672
 30
0.0
 10
9.1212997997
 20
11.2880935664
 30
0.0
 10
9.1291661058
 20
11.2850799369
 30
0.0
 10
9.1375018927
 20
11.282151729
 30
0.0
 10
9.146293367
 20
11.2793138678
 30
0.0
 10
9.155525934
 20
11.276571056
 30
0.0
 10
9.1651842552
 20
11.2739279826
 30
0.0
 10
9.1752522436
 20
11.2713890055
 30
0.0
 10
9.1857131255
 20
11.2689584657
 30
0.0
 10
9.1965494507
 20
11.2666404064
 30
0.0
 10
9.2077431371
 20
11.264438735
 30
0.0
 10
9.2192754891
 20
11.2623571849
 30
0.0
 10
9.2311272568
 20
11.2603991794
 30
0.0
 10
9.2474948748
 20
11.2579328393
 30
0.0
 10
9.2686076849
 20
11.2551929515
 30
0.0
 10
9.2946390892
 20
11.2524762748
 30
0.0
 10
9.3123062217
 20
11.2510531078
 30
0.0
 10
9.3212660386
 20
11.2504317424
 30
0.0
  0
SPLINE
  5
324
100
AcDbEntity
  8
0
100
AcDbSpline
 62
7
  6
CONTINUOUS
 70
0
 71
3
 72
39
 73
35
 74
0
 42
0.0000001
 43
0.0000001
 44
0.0000000001
 40
0.0
 40
0.0
 40
0.0
 40
0.0
 40
0.0064813485
 40
0.0130002985
 40
0.0195937285
 40
0.026297146
 40
0.0331442162
 40
0.0401663079
 40
0.05484089
 40
0.0705272863
 40
0.0873816519
 40
0.1055233038
 40
0.1250399977
 40
0.1459941136
 40
0.1684273795
 40
0.192364659
 40
0.2178175573
 40
0.2447860489
 40
0.2732611697
 40
0.3032256797
 40
0.334655689
 40
0.3675213604
 40
0.4017874193
 40
0.4374142301
 40
0.4743575615
 40
0.5125697352
 40
0.5519993246
 40
0.5925918809
 40
0.6342900708
 40
0.6770336885
 40
0.7207603521
 40
0.8109000934
 40
0.9041686777
 40
1.0
 40
1.0
 40
1.0
 40
1.0
 10
13.8959291527
 20
11.0014953386
 30
0.0
 10
13.895929158
 20
11.0008879049
 30
0.0
 10
13.8959774545
 20
10.9996689693
 30
0.0
 10
13.8961945708
 20
10.9978437291
 30
0.0
 10
13.8965561941
 20
10.9960202666
 30
0.0
 10
13.897062004
 20
10.9941996295
 30
0.0
 10
13.8977117248
 20
10.9923825768
 30
0.0
 10
13.8987848647
 20
10.9899301612
 30
0.0
 10
13.9005062852
 20
10.9868672981
 30
0.0
 10
13.9031088806
 20
10.9832785119
 30
0.0
 10
13.9062720573
 20
10.9797257325
 30
0.0
 10
13.9099897891
 20
10.976213586
 30
0.0
 10
13.9142558833
 20
10.9727460933
 30
0.0
 10
13.9190635875
 20
10.9693280282
 30
0.0
 10
13.9244053372
 20
10.9659643756
 30
0.0
 10
13.9302726273
 20
10.9626602287
 30
0.0
 10
13.9366560929
 20
10.9594209331
 30
0.0
 10
13.9435453599
 20
10.9562516295
 30
0.0
 10
13.9509292173
 20
10.9531576287
 30
0.0
 10
13.9587955234
 20
10.9501439992
 30
0.0
 10
13.9671313103
 20
10.9472157913
 30
0.0
 10
13.9759227846
 20
10.94437793
 30
0.0
 10
13.9851553516
 20
10.9416351183
 30
0.0
 10
13.9948136728
 20
10.9389920449
 30
0.0
 10
14.0048816612
 20
10.9364530678
 30
0.0
 10
14.0153425431
 20
10.934022528
 30
0.0
 10
14.0261788683
 20
10.9317044687
 30
0.0
 10
14.0373725547
 20
10.9295027973
 30
0.0
 10
14.0489049067
 20
10.9274212472
 30
0.0
 10
14.0607566744
 20
10.9254632417
 30
0.0
 10
14.0771242924
 20
10.9229969016
 30
0.0
 10
14.0982371025
 20
10.9202570138
 30
0.0
 10
14.1242685068
 20
10.9175403371
 30
0.0
 10
14.1419356393
 20
10.9161171701
 30
0.0
 10
14.1508954562
 20
10.9154958047
 30
0.0
  0
SPLINE
  5
325
100
AcDbEntity
  8
0
100
AcDbSpline
 62
7
  6
CONTINUOUS
 70
0
 71
3
 72
39
 73
35
 74
0
 42
0.0000001
 43
0.0000001
 44
0.0000000001
 40
0.0
 40
0.0
 40
0.0
 40
0.0
 40
0.0064813485
 40
0.0130002985
 40
0.0195937285
 40
0.026297146
 40
0.0331442162
 40
0.0401663079
 40
0.05484089
 40
0.0705272863
 40
0.0873816519
 40
0.1055233038
 40
0.1250399977
 40
0.1459941136
 40
0.1684273795
 40
0.192364659
 40
0.2178175573
 40
0.2447860489
 40
0.2732611697
 40
0.3032256797
 40
0.334655689
 40
0.3675213604
 40
0.4017874193
 40
0.4374142301
 40
0.4743575615
 40
0.5125697352
 40
0.5519993246
 40
0.5925918809
 40
0.6342900708
 40
0.6770336885
 40
0.7207603521
 40
0.8109000934
 40
0.9041686777
 40
1.0
 40
1.0
 40
1.0
 40
1.0
 10
13.3135867818
 20
10.4389957695
 30
0.0
 10
13.3135867871
 20
10.4383883358
 30
0.0
 10
13.3136350836
 20
10.4371694002
 30
0.0
 10
13.3138521999
 20
10.43534416
 30
0.0
 10
13.3142138232
 20
10.4335206975
 30
0.0
 10
13.3147196331
 20
10.4317000604
 30
0.0
 10
13.3153693539
 20
10.4298830077
 30
0.0
 10
13.3164424938
 20
10.4274305921
 30
0.0
 10
13.3181639143
 20
10.4243677289
 30
0.0
 10
13.3207665097
 20
10.4207789428
 30
0.0
 10
13.3239296864
 20
10.4172261634
 30
0.0
 10
13.3276474182
 20
10.4137140169
 30
0.0
 10
13.3319135124
 20
10.4102465242
 30
0.0
 10
13.3367212166
 20
10.4068284591
 30
0.0
 10
13.3420629663
 20
10.4034648065
 30
0.0
 10
13.3479302564
 20
10.4001606596
 30
0.0
 10
13.3543137221
 20
10.396921364
 30
0.0
 10
13.361202989
 20
10.3937520604
 30
0.0
 10
13.3685868464
 20
10.3906580596
 30
0.0
 10
13.3764531525
 20
10.3876444301
 30
0.0
 10
13.3847889394
 20
10.3847162222
 30
0.0
 10
13.3935804137
 20
10.3818783609
 30
0.0
 10
13.4028129807
 20
10.3791355492
 30
0.0
 10
13.412471302
 20
10.3764924758
 30
0.0
 10
13.4225392903
 20
10.3739534986
 30
0.0
 10
13.4330001722
 20
10.3715229589
 30
0.0
 10
13.4438364974
 20
10.3692048996
 30
0.0
 10
13.4550301838
 20
10.3670032282
 30
0.0
 10
13.4665625358
 20
10.3649216781
 30
0.0
 10
13.4784143035
 20
10.3629636726
 30
0.0
 10
13.4947819215
 20
10.3604973325
 30
0.0
 10
13.5158947317
 20
10.3577574447
 30
0.0
 10
13.5419261359
 20
10.355040768
 30
0.0
 10
13.5595932684
 20
10.353617601
 30
0.0
 10
13.5685530853
 20
10.3529962356
 30
0.0
  0
SPLINE
  5
326
100
AcDbEntity
  8
0
100
AcDbSpline
 62
7
  6
CONTINUOUS
 70
0
 71
3
 72
39
 73
35
 74
0
 42
0.0000001
 43
0.0000001
 44
0.0000000001
 40
0.0
 40
0.0
 40
0.0
 40
0.0
 40
0.0064813485
 40
0.0130002985
 40
0.0195937285
 40
0.026297146
 40
0.0331442162
 40
0.0401663079
 40
0.05484089
 40
0.0705272863
 40
0.0873816519
 40
0.1055233038
 40
0.1250399977
 40
0.1459941136
 40
0.1684273795
 40
0.192364659
 40
0.2178175573
 40
0.2447860489
 40
0.2732611697
 40
0.3032256797
 40
0.334655689
 40
0.3675213604
 40
0.4017874193
 40
0.4374142301
 40
0.4743575615
 40
0.5125697352
 40
0.5519993246
 40
0.5925918809
 40
0.6342900708
 40
0.6770336885
 40
0.7207603521
 40
0.8109000934
 40
0.9041686777
 40
1.0
 40
1.0
 40
1.0
 40
1.0
 10
8.4839573642
 20
10.7739317072
 30
0.0
 10
8.4839573695
 20
10.7733242735
 30
0.0
 10
8.484005666
 20
10.7721053379
 30
0.0
 10
8.4842227823
 20
10.7702800977
 30
0.0
 10
8.4845844056
 20
10.7684566352
 30
0.0
 10
8.4850902155
 20
10.7666359981
 30
0.0
 10
8.4857399363
 20
10.7648189454
 30
0.0
 10
8.4868130762
 20
10.7623665298
 30
0.0
 10
8.4885344967
 20
10.7593036667
 30
0.0
 10
8.4911370921
 20
10.7557148805
 30
0.0
 10
8.4943002688
 20
10.7521621011
 30
0.0
 10
8.4980180006
 20
10.7486499546
 30
0.0
 10
8.5022840948
 20
10.7451824619
 30
0.0
 10
8.507091799
 20
10.7417643968
 30
0.0
 10
8.5124335487
 20
10.7384007442
 30
0.0
 10
8.5183008388
 20
10.7350965973
 30
0.0
 10
8.5246843045
 20
10.7318573017
 30
0.0
 10
8.5315735714
 20
10.7286879981
 30
0.0
 10
8.5389574288
 20
10.7255939973
 30
0.0
 10
8.5468237349
 20
10.7225803678
 30
0.0
 10
8.5551595218
 20
10.7196521599
 30
0.0
 10
8.5639509961
 20
10.7168142986
 30
0.0
 10
8.5731835631
 20
10.7140714869
 30
0.0
 10
8.5828418843
 20
10.7114284135
 30
0.0
 10
8.5929098727
 20
10.7088894364
 30
0.0
 10
8.6033707546
 20
10.7064588966
 30
0.0
 10
8.6142070798
 20
10.7041408373
 30
0.0
 10
8.6254007662
 20
10.7019391659
 30
0.0
 10
8.6369331182
 20
10.6998576158
 30
0.0
 10
8.6487848859
 20
10.6978996103
 30
0.0
 10
8.6651525039
 20
10.6954332702
 30
0.0
 10
8.686265314
 20
10.6926933824
 30
0.0
 10
8.7122967183
 20
10.6899767057
 30
0.0
 10
8.7299638508
 20
10.6885535387
 30
0.0
 10
8.7389236677
 20
10.6879321733
 30
0.0
  0
SPLINE
  5
327
100
AcDbEntity
  8
0
100
AcDbSpline
 62
7
  6
CONTINUOUS
 70
0
 71
3
 72
25
 73
21
 74
0
 42
0.0000001
 43
0.0000001
 44
0.0000000001
 40
0.0
 40
0.0
 40
0.0
 40
0.0
 40
0.0616475753
 40
0.1233181765
 40
0.1850345731
 40
0.2468190243
 40
0.3086930326
 40
0.370677109
 40
0.4327905509
 40
0.4950512387
 40
0.55747545
 40
0.6200776927
 40
0.6828705879
 40
0.7143445123
 40
0.7458698784
 40
0.809073791
 40
0.8724932589
 40
0.9042878089
 40
0.9361387219
 40
1.0
 40
1.0
 40
1.0
 40
1.0
 10
8.1370790525
 20
7.6431463027
 30
0.0
 10
8.1467412397
 20
7.6524792734
 30
0.0
 10
8.1665754935
 20
7.6706326349
 30
0.0
 10
8.197753341
 20
7.696229591
 30
0.0
 10
8.2302850641
 20
7.7201346156
 30
0.0
 10
8.2640875631
 20
7.7422864528
 30
0.0
 10
8.2990759437
 20
7.762629617
 30
0.0
 10
8.3351619459
 20
7.7811128343
 30
0.0
 10
8.3722546677
 20
7.7976896291
 30
0.0
 10
8.4102605923
 20
7.8123183066
 30
0.0
 10
8.449084146
 20
7.8249621302
 30
0.0
 10
8.4886268559
 20
7.835589275
 30
0.0
 10
8.5220715027
 20
7.8427371726
 30
0.0
 10
8.5490816962
 20
7.8474249191
 30
0.0
 10
8.576292314
 20
7.8514288043
 30
0.0
 10
8.6105712228
 20
7.855130573
 30
0.0
 10
8.6450524818
 20
7.8570838821
 30
0.0
 10
8.6727390628
 20
7.857600275
 30
0.0
 10
8.7005255613
 20
7.8574175555
 30
0.0
 10
8.7213732187
 20
7.8564930652
 30
0.0
 10
8.7352558847
 20
7.8555302991
 30
0.0
  0
SPLINE
  5
328
100
AcDbEntity
  8
0
100
AcDbSpline
 62
7
  6
CONTINUOUS
 70
0
 71
3
 72
23
 73
19
 74
0
 42
0.0000001
 43
0.0000001
 44
0.0000000001
 40
0.0
 40
0.0
 40
0.0
 40
0.0
 40
0.0566527388
 40
0.1142083914
 40
0.1727836442
 40
0.2324438538
 40
0.2931972112
 40
0.3549938888
 40
0.4177314065
 40
0.4812665217
 40
0.5454316497
 40
0.6100530076
 40
0.6749668321
 40
0.7400314567
 40
0.805134161
 40
0.8701931808
 40
0.9351570257
 40
1.0
 40
1.0
 40
1.0
 40
1.0
 10
8.6163741937
 20
7.8549838159
 30
0.0
 10
8.6120047265
 20
7.8434508534
 30
0.0
 10
8.6039123878
 20
7.8199232829
 30
0.0
 10
8.5938024777
 20
7.7836726851
 30
0.0
 10
8.5856370491
 20
7.7462646035
 30
0.0
 10
8.5794232671
 20
7.707779624
 30
0.0
 10
8.5751688479
 20
7.6683246677
 30
0.0
 10
8.5728808197
 20
7.6280370012
 30
0.0
 10
8.572563116
 20
7.5870808513
 30
0.0
 10
8.5742153615
 20
7.5456413749
 30
0.0
 10
8.5778327212
 20
7.5039157347
 30
0.0
 10
8.5834070132
 20
7.4621035153
 30
0.0
 10
8.5909287128
 20
7.4203983094
 30
0.0
 10
8.6003893677
 20
7.3789819218
 30
0.0
 10
8.6117837466
 20
7.3380220181
 30
0.0
 10
8.6251117006
 20
7.297671846
 30
0.0
 10
8.6403779094
 20
7.2580752565
 30
0.0
 10
8.6518672191
 20
7.232242089
 30
0.0
 10
8.6579389061
 20
7.2194987227
 30
0.0
  0
SPLINE
  5
329
100
AcDbEntity
  8
0
100
AcDbSpline
 62
7
  6
CONTINUOUS
 70
0
 71
3
 72
53
 73
49
 74
0
 42
0.0000001
 43
0.0000001
 44
0.0000000001
 40
0.0
 40
0.0
 40
0.0
 40
0.0
 40
0.014969904
 40
0.0299427774
 40
0.0449215739
 40
0.0599092106
 40
0.0749085515
 40
0.0899223942
 40
0.1049534485
 40
0.1200043231
 40
0.1350775135
 40
0.1501753819
 40
0.1653001488
 40
0.1804538818
 40
0.1956384783
 40
0.2108556627
 40
0.2261069759
 40
0.2413937626
 40
0.2567171739
 40
0.2720781563
 40
0.2874774469
 40
0.3029155785
 40
0.3183928694
 40
0.3339094273
 40
0.349465154
 40
0.3650597386
 40
0.3806926683
 40
0.3963632322
 40
0.412070519
 40
0.4278134329
 40
0.4593959612
 40
0.4911034832
 40
0.522921206
 40
0.5548321517
 40
0.5868175094
 40
0.6188570157
 40
0.6509293577
 40
0.6830125884
 40
0.7150845505
 40
0.7471233041
 40
0.7791075507
 40
0.8110170488
 40
0.8428330164
 40
0.8745385087
 40
0.9061187714
 40
0.9375616069
 40
0.9688573156
 40
1.0
 40
1.0
 40
1.0
 40
1.0
 10
9.3334327169
 20
6.404589924
 30
0.0
 10
9.3404709462
 20
6.4113883422
 30
0.0
 10
9.3542839787
 20
6.4252638086
 30
0.0
 10
9.3741747853
 20
6.4468746086
 30
0.0
 10
9.3932125814
 20
6.4692563228
 30
0.0
 10
9.411371398
 20
6.4923787172
 30
0.0
 10
9.4286272104
 20
6.5162109036
 30
0.0
 10
9.4449568919
 20
6.5407210428
 30
0.0
 10
9.4603385803
 20
6.5658764203
 30
0.0
 10
9.4747518584
 20
6.5916433411
 30
0.0
 10
9.4881773808
 20
6.6179874321
 30
0.0
 10
9.5005972305
 20
6.6448734796
 30
0.0
 10
9.5119949305
 20
6.6722655157
 30
0.0
 10
9.5223551345
 20
6.7001269966
 30
0.0
 10
9.5316640991
 20
6.7284206622
 30
0.0
 10
9.5399094545
 20
6.7571087024
 30
0.0
 10
9.5470800684
 20
6.7861528286
 30
0.0
 10
9.5531665178
 20
6.8155142064
 30
0.0
 10
9.5581606698
 20
6.8451536267
 30
0.0
 10
9.5620557791
 20
6.8750315127
 30
0.0
 10
9.5648468154
 20
6.9051079403
 30
0.0
 10
9.5665299832
 20
6.9353427548
 30
0.0
 10
9.56710303
 20
6.9656955767
 30
0.0
 10
9.5665653388
 20
6.9961258745
 30
0.0
 10
9.5649175141
 20
7.0265930174
 30
0.0
 10
9.5621618301
 20
7.0570563155
 30
0.0
 10
9.5583020497
 20
7.0874751416
 30
0.0
 10
9.5533432405
 20
7.117808741
 30
0.0
 10
9.5472920038
 20
7.1480171004
 30
0.0
 10
9.537769189
 20
7.1881117715
 30
0.0
 10
9.5231692779
 20
7.2377163515
 30
0.0
 10
9.5014653436
 20
7.2960269209
 30
0.0
 10
9.4756726191
 20
7.3528847719
 30
0.0
 10
9.4459293695
 20
7.407984874
 30
0.0
 10
9.4123942777
 20
7.4610341591
 30
0.0
 10
9.3752463903
 20
7.5117498539
 30
0.0
 10
9.3346838257
 20
7.5598617622
 30
0.0
 10
9.2909227952
 20
7.6051134331
 30
0.0
 10
9.2441965771
 20
7.6472636958
 30
0.0
 10
9.1947542017
 20
7.6860878589
 30
0.0
 10
9.142859096
 20
7.7213788349
 30
0.0
 10
9.0887877315
 20
7.7529482669
 30
0.0
 10
9.0328282713
 20
7.7806276541
 30
0.0
 10
8.9752788157
 20
7.8042690959
 30
0.0
 10
8.9164463302
 20
7.8237460574
 30
0.0
 10
8.8566433917
 20
7.8389541606
 30
0.0
 10
8.7961929747
 20
7.8498116996
 30
0.0
 10
8.7555643109
 20
7.8541219049
 30
0.0
 10
8.7352558847
 20
7.8555302991
 30
0.0
  0
SPLINE
  5
32A
100
AcDbEntity
  8
0
100
AcDbSpline
 62
7
  6
CONTINUOUS
 70
0
 71
3
 72
39
 73
35
 74
0
 42
0.0000001
 43
0.0000001
 44
0.0000000001
 40
0.0
 40
0.0
 40
0.0
 40
0.0
 40
0.0145547992
 40
0.0293267346
 40
0.0444562437
 40
0.0600732162
 40
0.0762960686
 40
0.0932322602
 40
0.1109795945
 40
0.1296275676
 40
0.1492597401
 40
0.1699554201
 40
0.1917919121
 40
0.2148465006
 40
0.2391981785
 40
0.264929649
 40
0.292128813
 40
0.3208900658
 40
0.3513153337
 40
0.3835136433
 40
0.4176003183
 40
0.4536915039
 40
0.4918957846
 40
0.5322973951
 40
0.5749279944
 40
0.6197253124
 40
0.66648136
 40
0.7147955563
 40
0.7640638466
 40
0.8135341103
 40
0.8624276905
 40
0.9100786659
 40
0.9560203393
 40
1.0
 40
1.0
 40
1.0
 40
1.0
 10
11.3570096496
 20
7.3997421948
 30
0.0
 10
11.3560989683
 20
7.3995772122
 30
0.0
 10
11.3542800336
 20
7.3991487694
 30
0.0
 10
11.3516042087
 20
7.3982234112
 30
0.0
 10
11.3489698363
 20
7.3970137767
 30
0.0
 10
11.3463784076
 20
7.3955210236
 30
0.0
 10
11.3438316467
 20
7.3937445384
 30
0.0
 10
11.3413310769
 20
7.3916839012
 30
0.0
 10
11.3388795133
 20
7.3893366015
 30
0.0
 10
11.3364795944
 20
7.3867000604
 30
0.0
 10
11.3341354453
 20
7.3837698584
 30
0.0
 10
11.3318515148
 20
7.3805409443
 30
0.0
 10
11.3296336871
 20
7.3770066959
 30
0.0
 10
11.3274887845
 20
7.373159356
 30
0.0
 10
11.3254252931
 20
7.3689895765
 30
0.0
 10
11.3234530802
 20
7.364486622
 30
0.0
 10
11.3215846075
 20
7.3596378922
 30
0.0
 10
11.3198339718
 20
7.3544294694
 30
0.0
 10
11.3182194033
 20
7.3488455162
 30
0.0
 10
11.3167617554
 20
7.3428693203
 30
0.0
 10
11.3154870317
 20
7.3364835046
 30
0.0
 10
11.3144264169
 20
7.3296717068
 30
0.0
 10
11.3136170832
 20
7.3224210898
 30
0.0
 10
11.3131028501
 20
7.3147264966
 30
0.0
 10
11.3129336255
 20
7.3065969161
 30
0.0
 10
11.3131630942
 20
7.2980641887
 30
0.0
 10
11.3138435393
 20
7.2891925848
 30
0.0
 10
11.3150173649
 20
7.2800855348
 30
0.0
 10
11.3167067786
 20
7.2708840165
 30
0.0
 10
11.3189054914
 20
7.2617526362
 30
0.0
 10
11.3215765487
 20
7.2528554314
 30
0.0
 10
11.3246593647
 20
7.2443307148
 30
0.0
 10
11.3280813111
 20
7.2362754254
 30
0.0
 10
11.3305972099
 20
7.2311372863
 30
0.0
 10
11.33189377
 20
7.2286594459
 30
0.0
  0
SPLINE
  5
32B
100
AcDbEntity
  8
0
100
AcDbSpline
 62
7
  6
CONTINUOUS
 70
0
 71
3
 72
25
 73
21
 74
0
 42
0.0000001
 43
0.0000001
 44
0.0000000001
 40
0.0
 40
0.0
 40
0.0
 40
0.0
 40
0.0616475753
 40
0.1233181765
 40
0.1850345731
 40
0.2468190243
 40
0.3086930326
 40
0.370677109
 40
0.4327905509
 40
0.4950512387
 40
0.55747545
 40
0.6200776927
 40
0.6828705879
 40
0.7143445123
 40
0.7458698784
 40
0.809073791
 40
0.8724932589
 40
0.9042878089
 40
0.9361387219
 40
1.0
 40
1.0
 40
1.0
 40
1.0
 10
10.7953070591
 20
7.4587975643
 30
0.0
 10
10.8049692463
 20
7.468130535
 30
0.0
 10
10.8248035001
 20
7.4862838965
 30
0.0
 10
10.8559813476
 20
7.5118808526
 30
0.0
 10
10.8885130707
 20
7.5357858773
 30
0.0
 10
10.9223155696
 20
7.5579377144
 30
0.0
 10
10.9573039503
 20
7.5782808786
 30
0.0
 10
10.9933899525
 20
7.5967640959
 30
0.0
 10
11.0304826743
 20
7.6133408907
 30
0.0
 10
11.0684885989
 20
7.6279695682
 30
0.0
 10
11.1073121525
 20
7.6406133918
 30
0.0
 10
11.1468548624
 20
7.6512405366
 30
0.0
 10
11.1802995093
 20
7.6583884342
 30
0.0
 10
11.2073097028
 20
7.6630761808
 30
0.0
 10
11.2345203206
 20
7.667080066
 30
0.0
 10
11.2687992294
 20
7.6707818346
 30
0.0
 10
11.3032804883
 20
7.6727351438
 30
0.0
 10
11.3309670694
 20
7.6732515366
 30
0.0
 10
11.3587535679
 20
7.6730688172
 30
0.0
 10
11.3796012253
 20
7.6721443269
 30
0.0
 10
11.3934838913
 20
7.6711815607
 30
0.0
  0
SPLINE
  5
32C
100
AcDbEntity
  8
0
100
AcDbSpline
 62
7
  6
CONTINUOUS
 70
0
 71
3
 72
53
 73
49
 74
0
 42
0.0000001
 43
0.0000001
 44
0.0000000001
 40
0.0
 40
0.0
 40
0.0
 40
0.0
 40
0.014969904
 40
0.0299427774
 40
0.0449215739
 40
0.0599092106
 40
0.0749085515
 40
0.0899223942
 40
0.1049534485
 40
0.1200043231
 40
0.1350775135
 40
0.1501753819
 40
0.1653001488
 40
0.1804538818
 40
0.1956384783
 40
0.2108556627
 40
0.2261069759
 40
0.2413937626
 40
0.2567171739
 40
0.2720781563
 40
0.2874774469
 40
0.3029155785
 40
0.3183928694
 40
0.3339094273
 40
0.349465154
 40
0.3650597386
 40
0.3806926683
 40
0.3963632322
 40
0.412070519
 40
0.4278134329
 40
0.4593959612
 40
0.4911034832
 40
0.522921206
 40
0.5548321517
 40
0.5868175094
 40
0.6188570157
 40
0.6509293577
 40
0.6830125884
 40
0.7150845505
 40
0.7471233041
 40
0.7791075507
 40
0.8110170488
 40
0.8428330164
 40
0.8745385087
 40
0.9061187714
 40
0.9375616069
 40
0.9688573156
 40
1.0
 40
1.0
 40
1.0
 40
1.0
 10
11.9916607235
 20
6.2202411857
 30
0.0
 10
11.9986989528
 20
6.2270396038
 30
0.0
 10
12.0125119853
 20
6.2409150702
 30
0.0
 10
12.0324027919
 20
6.2625258702
 30
0.0
 10
12.051440588
 20
6.2849075845
 30
0.0
 10
12.0695994046
 20
6.3080299788
 30
0.0
 10
12.086855217
 20
6.3318621652
 30
0.0
 10
12.1031848985
 20
6.3563723044
 30
0.0
 10
12.1185665869
 20
6.3815276819
 30
0.0
 10
12.1329798649
 20
6.4072946027
 30
0.0
 10
12.1464053873
 20
6.4336386937
 30
0.0
 10
12.1588252371
 20
6.4605247412
 30
0.0
 10
12.1702229371
 20
6.4879167773
 30
0.0
 10
12.1805831411
 20
6.5157782582
 30
0.0
 10
12.1898921057
 20
6.5440719238
 30
0.0
 10
12.1981374611
 20
6.572759964
 30
0.0
 10
12.205308075
 20
6.6018040902
 30
0.0
 10
12.2113945244
 20
6.631165468
 30
0.0
 10
12.2163886764
 20
6.6608048884
 30
0.0
 10
12.2202837856
 20
6.6906827743
 30
0.0
 10
12.223074822
 20
6.7207592019
 30
0.0
 10
12.2247579898
 20
6.7509940165
 30
0.0
 10
12.2253310366
 20
6.7813468383
 30
0.0
 10
12.2247933454
 20
6.8117771361
 30
0.0
 10
12.2231455206
 20
6.842244279
 30
0.0
 10
12.2203898366
 20
6.8727075771
 30
0.0
 10
12.2165300562
 20
6.9031264032
 30
0.0
 10
12.2115712471
 20
6.9334600026
 30
0.0
 10
12.2055200103
 20
6.963668362
 30
0.0
 10
12.1959971956
 20
7.0037630331
 30
0.0
 10
12.1813972845
 20
7.0533676131
 30
0.0
 10
12.1596933502
 20
7.1116781825
 30
0.0
 10
12.1339006257
 20
7.1685360335
 30
0.0
 10
12.1041573761
 20
7.2236361356
 30
0.0
 10
12.0706222843
 20
7.2766854207
 30
0.0
 10
12.0334743968
 20
7.3274011155
 30
0.0
 10
11.9929118322
 20
7.3755130238
 30
0.0
 10
11.9491508018
 20
7.4207646947
 30
0.0
 10
11.9024245836
 20
7.4629149574
 30
0.0
 10
11.8529822083
 20
7.5017391205
 30
0.0
 10
11.8010871026
 20
7.5370300965
 30
0.0
 10
11.7470157381
 20
7.5685995285
 30
0.0
 10
11.6910562779
 20
7.5962789157
 30
0.0
 10
11.6335068223
 20
7.6199203575
 30
0.0
 10
11.5746743368
 20
7.639397319
 30
0.0
 10
11.5148713982
 20
7.6546054222
 30
0.0
 10
11.4544209813
 20
7.6654629612
 30
0.0
 10
11.4137923174
 20
7.6697731666
 30
0.0
 10
11.3934838913
 20
7.6711815607
 30
0.0
  0
SPLINE
  5
32D
100
AcDbEntity
  8
0
100
AcDbSpline
 62
7
  6
CONTINUOUS
 70
0
 71
3
 72
24
 73
20
 74
0
 42
0.0000001
 43
0.0000001
 44
0.0000000001
 40
0.0
 40
0.0
 40
0.0
 40
0.0
 40
0.0149468868
 40
0.0302740255
 40
0.0624228356
 40
0.0971802057
 40
0.1351723659
 40
0.1769480777
 40
0.2229915706
 40
0.2737369537
 40
0.3295822703
 40
0.3908993789
 40
0.4580404699
 40
0.5313414014
 40
0.6111183054
 40
0.6976615971
 40
0.7912173859
 40
0.891971509
 40
1.0
 40
1.0
 40
1.0
 40
1.0
 10
10.8278181587
 20
7.2814400658
 30
0.0
 10
10.8274951928
 20
7.2816193942
 30
0.0
 10
10.8268564275
 20
7.282011105
 30
0.0
 10
10.8256115968
 20
7.2829248999
 30
0.0
 10
10.8241252712
 20
7.2843239284
 30
0.0
 10
10.8225075782
 20
7.2863595338
 30
0.0
 10
10.8210368366
 20
7.2887856977
 30
0.0
 10
10.8197247816
 20
7.2916107147
 30
0.0
 10
10.8185843656
 20
7.2948447111
 30
0.0
 10
10.8176307433
 20
7.298498522
 30
0.0
 10
10.8168805727
 20
7.3025833727
 30
0.0
 10
10.8163527716
 20
7.3071106904
 30
0.0
 10
10.8160678042
 20
7.31209163
 30
0.0
 10
10.8160479397
 20
7.3175366798
 30
0.0
 10
10.8163171707
 20
7.3234549973
 30
0.0
 10
10.8169008175
 20
7.3298533323
 30
0.0
 10
10.8178250102
 20
7.3367348275
 30
0.0
 10
10.8191159539
 20
7.3440966104
 30
0.0
 10
10.8202001194
 20
7.3491429261
 30
0.0
 10
10.8208066746
 20
7.3517430406
 30
0.0
  0
SPLINE
  5
32E
100
AcDbEntity
  8
0
100
AcDbSpline
 62
7
  6
CONTINUOUS
 70
0
 71
3
 72
75
 73
71
 74
0
 42
0.0000001
 43
0.0000001
 44
0.0000000001
 40
0.0
 40
0.0
 40
0.0
 40
0.0
 40
0.0156747273
 40
0.0235325814
 40
0.031403181
 40
0.0471815803
 40
0.0630097508
 40
0.0788855268
 40
0.0948064622
 40
0.1107696438
 40
0.1267717932
 40
0.1347869014
 40
0.1428103611
 40
0.1588792318
 40
0.1749752631
 40
0.1910939891
 40
0.2072307449
 40
0.2233807077
 40
0.2395389397
 40
0.2557004309
 40
0.2718601429
 40
0.2880130529
 40
0.3041541969
 40
0.3202787136
 40
0.3363818874
 40
0.3524591897
 40
0.36850632
 40
0.3845192451
 40
0.4004942363
 40
0.4164279049
 40
0.4323172352
 40
0.4481596152
 40
0.4639528635
 40
0.4796952542
 40
0.4953855368
 40
0.5110229526
 40
0.526607247
 40
0.5421386771
 40
0.5576180139
 40
0.5730465408
 40
0.5884260451
 40
0.6037588059
 40
0.6190475753
 40
0.6342955548
 40
0.649506366
 40
0.6646840161
 40
0.6798328593
 40
0.6949575524
 40
0.7100630078
 40
0.725154342
 40
0.7402368221
 40
0.7553158097
 40
0.7703967041
 40
0.7854848839
 40
0.80058565
 40
0.8157041693
 40
0.8308454194
 40
0.8460141376
 40
0.8612147716
 40
0.8764514346
 40
0.8917278653
 40
0.9070473908
 40
0.9224129018
 40
0.9301142846
 40
0.9378280267
 40
0.9532922984
 40
0.9688082546
 40
0.9765865231
 40
0.9843782672
 40
1.0
 40
1.0
 40
1.0
 40
1.0
 10
11.3745901045
 20
7.7234441976
 30
0.0
 10
11.3893753036
 20
7.7224188406
 30
0.0
 10
11.4115396452
 20
7.720335772
 30
0.0
 10
11.4409830796
 20
7.7164843326
 30
0.0
 10
11.4704222229
 20
7.7119070156
 30
0.0
 10
11.5070890623
 20
7.7048388219
 30
0.0
 10
11.5507315965
 20
7.6942360918
 30
0.0
 10
11.5939497926
 20
7.6815306675
 30
0.0
 10
11.6366390698
 20
7.6667533325
 30
0.0
 10
11.6786963084
 20
7.6499399328
 30
0.0
 10
11.7131157596
 20
7.6342736092
 30
0.0
 10
11.7402358423
 20
7.6207668764
 30
0.0
 10
11.7670904218
 20
7.6066038996
 30
0.0
 10
11.800076435
 20
7.587710722
 30
0.0
 10
11.8386136245
 20
7.5632051321
 30
0.0
 10
11.8760334759
 20
7.5369125735
 30
0.0
 10
11.9122453874
 20
7.5088966622
 30
0.0
 10
11.9471623522
 20
7.4792247776
 30
0.0
 10
11.9807002921
 20
7.447968378
 30
0.0
 10
12.0127784932
 20
7.4152027014
 30
0.0
 10
12.0433197357
 20
7.3810066193
 30
0.0
 10
12.0722504967
 20
7.3454624397
 30
0.0
 10
12.0995011196
 20
7.3086557108
 30
0.0
 10
12.1250059914
 20
7.2706750219
 30
0.0
 10
12.148703696
 20
7.2316117869
 30
0.0
 10
12.1705371578
 20
7.1915600229
 30
0.0
 10
12.1904537797
 20
7.1506161261
 30
0.0
 10
12.208405569
 20
7.108878641
 30
0.0
 10
12.2243492526
 20
7.0664480252
 30
0.0
 10
12.2382463816
 20
7.0234264091
 30
0.0
 10
12.2500634237
 20
6.979917352
 30
0.0
 10
12.2597718437
 20
6.9360255941
 30
0.0
 10
12.2673481809
 20
6.8918568079
 30
0.0
 10
12.2727741053
 20
6.8475173431
 30
0.0
 10
12.2760364565
 20
6.8031139712
 30
0.0
 10
12.277127278
 20
6.7587536302
 30
0.0
 10
12.2760438379
 20
6.7145431687
 30
0.0
 10
12.2727886377
 20
6.6705890896
 30
0.0
 10
12.2673694085
 20
6.6269972952
 30
0.0
 10
12.259799095
 20
6.5838728321
 30
0.0
 10
12.2500958263
 20
6.5413196393
 30
0.0
 10
12.238282881
 20
6.4994402953
 30
0.0
 10
12.2243886358
 20
6.4583357684
 30
0.0
 10
12.2084464913
 20
6.4181051742
 30
0.0
 10
12.190494795
 20
6.3788455348
 30
0.0
 10
12.1705767514
 20
6.340651543
 30
0.0
 10
12.1487403191
 20
6.3036153318
 30
0.0
 10
12.1250380975
 20
6.2678262494
 30
0.0
 10
12.0995272
 20
6.2333706406
 30
0.0
 10
12.0722691166
 20
6.2003316362
 30
0.0
 10
12.0433295682
 20
6.1687889466
 30
0.0
 10
12.0127783505
 20
6.1388186612
 30
0.0
 10
11.9806891558
 20
6.1104930695
 30
0.0
 10
11.9471393937
 20
6.0838804828
 30
0.0
 10
11.9122100022
 20
6.0590450687
 30
0.0
 10
11.8759852494
 20
6.0360466948
 30
0.0
 10
11.8385525259
 20
6.0149407842
 30
0.0
 10
11.8000021369
 20
5.9957781821
 30
0.0
 10
11.7604270604
 20
5.9786050318
 30
0.0
 10
11.7199227987
 20
5.9634626729
 30
0.0
 10
11.678586857
 20
5.9503874983
 30
0.0
 10
11.6365195914
 20
5.9394110154
 30
0.0
 10
11.6009636978
 20
5.9320401843
 30
0.0
 10
11.5722602571
 20
5.927214742
 30
0.0
 10
11.5433519112
 20
5.9231001973
 30
0.0
 10
11.5069465446
 20
5.9193109271
 30
0.0
 10
11.4703369623
 20
5.917337593
 30
0.0
 10
11.4409460682
 20
5.9168455198
 30
0.0
 10
11.4114525516
 20
5.9170795164
 30
0.0
 10
11.3893253165
 20
5.9180726665
 30
0.0
 10
11.3745901045
 20
5.9190945569
 30
0.0
  0
SPLINE
  5
32F
100
AcDbEntity
  8
0
100
AcDbSpline
 62
7
  6
CONTINUOUS
 70
0
 71
3
 72
15
 73
11
 74
0
 42
0.0000001
 43
0.0000001
 44
0.0000000001
 40
0.0
 40
0.0
 40
0.0
 40
0.0
 40
0.1405842302
 40
0.2762096811
 40
0.4070806141
 40
0.5334386586
 40
0.6555688929
 40
0.7737929396
 40
0.8884704806
 40
1.0
 40
1.0
 40
1.0
 40
1.0
 10
7.9275827069
 20
10.2724176808
 30
0.0
 10
7.9255831998
 20
10.2704863052
 30
0.0
 10
7.9217285951
 20
10.2666140718
 30
0.0
 10
7.9162977786
 20
10.260668802
 30
0.0
 10
7.9113264695
 20
10.2546954041
 30
0.0
 10
7.9068171446
 20
10.2486962906
 30
0.0
 10
7.9027716321
 20
10.242673755
 30
0.0
 10
7.8991917526
 20
10.2366297544
 30
0.0
 10
7.8960793043
 20
10.2305669266
 30
0.0
 10
7.894294118
 20
10.2264612788
 30
0.0
 10
7.8934844305
 20
10.2244098565
 30
0.0
  0
SPLINE
  5
330
100
AcDbEntity
  8
0
100
AcDbSpline
 62
7
  6
CONTINUOUS
 70
0
 71
3
 72
52
 73
48
 74
0
 42
0.0000001
 43
0.0000001
 44
0.0000000001
 40
0.0
 40
0.0
 40
0.0
 40
0.0
 40
0.0417975951
 40
0.0840616288
 40
0.1266599
 40
0.1694646819
 40
0.2123442235
 40
0.2551675716
 40
0.2978037564
 40
0.3401225587
 40
0.3819950468
 40
0.4232940448
 40
0.4638946794
 40
0.5036749394
 40
0.5425162168
 40
0.5803038545
 40
0.6169277287
 40
0.6522828762
 40
0.6862702207
 40
0.7187973048
 40
0.7497791232
 40
0.7646666939
 40
0.7791400459
 40
0.7931910474
 40
0.8068124878
 40
0.8199977024
 40
0.8327409898
 40
0.8450375569
 40
0.8568834717
 40
0.8682761438
 40
0.8792139942
 40
0.8896969854
 40
0.8997266536
 40
0.9093062033
 40
0.9184411394
 40
0.9271391328
 40
0.9354107775
 40
0.9432698769
 40
0.9507338665
 40
0.9578247066
 40
0.9645691138
 40
0.9709994856
 40
0.9771542525
 40
0.9830781055
 40
0.9888220386
 40
0.9944424568
 40
1.0
 40
1.0
 40
1.0
 40
1.0
 10
14.3289628123
 20
11.0874956729
 30
0.0
 10
14.3225779556
 20
11.0879384643
 30
0.0
 10
14.3097296985
 20
11.0887269041
 30
0.0
 10
14.2903548116
 20
11.0896167831
 30
0.0
 10
14.2708145079
 20
11.0902186031
 30
0.0
 10
14.2511731899
 20
11.0905304514
 30
0.0
 10
14.2314949427
 20
11.0905512487
 30
0.0
 10
14.2118443579
 20
11.0902809404
 30
0.0
 10
14.192285797
 20
11.0897204193
 30
0.0
 10
14.1728833492
 20
11.0888715398
 30
0.0
 10
14.1537005862
 20
11.0877371057
 30
0.0
 10
14.1348003549
 20
11.0863208596
 30
0.0
 10
14.1162445721
 20
11.0846274715
 30
0.0
 10
14.0980940117
 20
11.0826625423
 30
0.0
 10
14.0804081029
 20
11.0804325706
 30
0.0
 10
14.0632447389
 20
11.0779449299
 30
0.0
 10
14.0466600803
 20
11.0752078473
 30
0.0
 10
14.0307083758
 20
11.0722303703
 30
0.0
 10
14.0154417087
 20
11.0690223693
 30
0.0
 10
14.0009100171
 20
11.0655944512
 30
0.0
 10
13.9893029468
 20
11.0625247354
 30
0.0
 10
13.9804257156
 20
11.0599603196
 30
0.0
 10
13.9740690981
 20
11.0580147811
 30
0.0
 10
13.9679303147
 20
11.056022994
 30
0.0
 10
13.9620143562
 20
11.0539866537
 30
0.0
 10
13.9563260611
 20
11.051907375
 30
0.0
 10
13.9508700623
 20
11.0497868801
 30
0.0
 10
13.9456507911
 20
11.0476269377
 30
0.0
 10
13.9406725113
 20
11.0454292369
 30
0.0
 10
13.9359392338
 20
11.0431956594
 30
0.0
 10
13.9314548099
 20
11.0409279472
 30
0.0
 10
13.9272228532
 20
11.0386279569
 30
0.0
 10
13.9232467497
 20
11.0362975699
 30
0.0
 10
13.9195297291
 20
11.033938554
 30
0.0
 10
13.9160747083
 20
11.0315528673
 30
0.0
 10
13.9128844825
 20
11.0291422704
 30
0.0
 10
13.90996158
 20
11.0267086211
 30
0.0
 10
13.9073083069
 20
11.0242537497
 30
0.0
 10
13.9049268982
 20
11.0217793242
 30
0.0
 10
13.9028192518
 20
11.0192871707
 30
0.0
 10
13.9009873334
 20
11.0167788815
 30
0.0
 10
13.8994329149
 20
11.0142561822
 30
0.0
 10
13.8981577058
 20
11.0117208268
 30
0.0
 10
13.8971635633
 20
11.0091746942
 30
0.0
 10
13.8964519428
 20
11.0066199229
 30
0.0
 10
13.896024386
 20
11.0040594188
 30
0.0
 10
13.8959291453
 20
11.0023463288
 30
0.0
 10
13.8959291527
 20
11.0014953386
 30
0.0
  0
SPLINE
  5
331
100
AcDbEntity
  8
0
100
AcDbSpline
 62
7
  6
CONTINUOUS
 70
0
 71
3
 72
97
 73
93
 74
0
 42
0.0000001
 43
0.0000001
 44
0.0000000001
 40
0.0
 40
0.0
 40
0.0
 40
0.0
 40
0.0038882611
 40
0.0079308702
 40
0.0121316542
 40
0.0164939046
 40
0.021020438
 40
0.0257135047
 40
0.0305747133
 40
0.0356052412
 40
0.0408058343
 40
0.0461768748
 40
0.0517184267
 40
0.057430193
 40
0.0633116426
 40
0.0693619469
 40
0.0755800537
 40
0.0819647038
 40
0.0885143952
 40
0.0952274834
 40
0.1021021023
 40
0.1091362435
 40
0.1163277437
 40
0.1236742655
 40
0.1388222294
 40
0.1545591731
 40
0.1708619712
 40
0.1877057756
 40
0.20506417
 40
0.2229093072
 40
0.2412120276
 40
0.2599419794
 40
0.2790677293
 40
0.2985568638
 40
0.3183760846
 40
0.3384912993
 40
0.3588677119
 40
0.3794699171
 40
0.4002619874
 40
0.4212075582
 40
0.4422699129
 40
0.4634120669
 40
0.4845968555
 40
0.5057870183
 40
0.5269452825
 40
0.5480344467
 40
0.5690174656
 40
0.5898575376
 40
0.6105181879
 40
0.6309633536
 40
0.6511574688
 40
0.6710655526
 40
0.6906533026
 40
0.7098871826
 40
0.7287345133
 40
0.7471635671
 40
0.7651436683
 40
0.7826453049
 40
0.7996402409
 40
0.8161016328
 40
0.8320041636
 40
0.8473241918
 40
0.8547589967
 40
0.8620401782
 40
0.8691653253
 40
0.8761321781
 40
0.8829386458
 40
0.8895827595
 40
0.8960627702
 40
0.9023770711
 40
0.9085242722
 40
0.9145032021
 40
0.9203128843
 40
0.9259526388
 40
0.9314220078
 40
0.9367208591
 40
0.9418493789
 40
0.9468080863
 40
0.9515979385
 40
0.9562202814
 40
0.9606769879
 40
0.9649704599
 40
0.9691036982
 40
0.9730804223
 40
0.9769050734
 40
0.9805829924
 40
0.9841204516
 40
0.987524782
 40
0.9908044942
 40
0.9939693178
 40
0.9970303422
 40
1.0
 40
1.0
 40
1.0
 40
1.0
 10
7.9275827069
 20
10.2724176808
 30
0.0
 10
7.9298365188
 20
10.2745946961
 30
0.0
 10
7.9345322449
 20
10.2789339726
 30
0.0
 10
7.9419744857
 20
10.2852778232
 30
0.0
 10
7.9499465682
 20
10.2915780529
 30
0.0
 10
7.95844441
 20
10.2978314667
 30
0.0
 10
7.9674641037
 20
10.3040353794
 30
0.0
 10
7.9770015737
 20
10.3101869371
 30
0.0
 10
7.987052363
 20
10.3162834418
 30
0.0
 10
7.9976118251
 20
10.3223219529
 30
0.0
 10
8.0086750073
 20
10.3282996998
 30
0.0
 10
8.0202367464
 20
10.3342139232
 30
0.0
 10
8.0322916726
 20
10.3400617924
 30
0.0
 10
8.0448341172
 20
10.3458406696
 30
0.0
 10
8.0578582378
 20
10.3515477454
 30
0.0
 10
8.0713579111
 20
10.3571803979
 30
0.0
 10
8.0853268101
 20
10.3627359719
 30
0.0
 10
8.0997583897
 20
10.368211805
 30
0.0
 10
8.1146458558
 20
10.3736054001
 30
0.0
 10
8.1299822322
 20
10.3789141231
 30
0.0
 10
8.1457602965
 20
10.384135542
 30
0.0
 10
8.1619726312
 20
10.3892671606
 30
0.0
 10
8.1786116279
 20
10.3943065611
 30
0.0
 10
8.2015899628
 20
10.4009676004
 30
0.0
 10
8.2313290919
 20
10.4090327752
 30
0.0
 10
8.2682360919
 20
10.4182103132
 30
0.0
 10
8.3066484012
 20
10.4269657174
 30
0.0
 10
8.3464936701
 20
10.435282399
 30
0.0
 10
8.3876970256
 20
10.4431445798
 30
0.0
 10
8.4301809381
 20
10.4505373458
 30
0.0
 10
8.4738654463
 20
10.4574466859
 30
0.0
 10
8.518668296
 20
10.4638595093
 30
0.0
 10
8.5645051125
 20
10.4697636644
 30
0.0
 10
8.6112895619
 20
10.4751479643
 30
0.0
 10
8.6589335132
 20
10.480002204
 30
0.0
 10
8.7073472018
 20
10.4843171874
 30
0.0
 10
8.756439401
 20
10.4880847503
 30
0.0
 10
8.8061176003
 20
10.4912977611
 30
0.0
 10
8.8562881827
 20
10.4939501368
 30
0.0
 10
8.9068566002
 20
10.4960368533
 30
0.0
 10
8.9577275501
 20
10.497553954
 30
0.0
 10
9.0088051553
 20
10.4984985727
 30
0.0
 10
9.0599931485
 20
10.4988689255
 30
0.0
 10
9.111195055
 20
10.4986643122
 30
0.0
 10
9.1623143737
 20
10.4978851186
 30
0.0
 10
9.213254758
 20
10.4965328131
 30
0.0
 10
9.2639202
 20
10.4946099549
 30
0.0
 10
9.3142152138
 20
10.4921201902
 30
0.0
 10
9.3640450159
 20
10.4890682339
 30
0.0
 10
9.4133157012
 20
10.485459863
 30
0.0
 10
9.4619344205
 20
10.481301906
 30
0.0
 10
9.5098095596
 20
10.4766022301
 30
0.0
 10
9.5568509172
 20
10.4713697426
 30
0.0
 10
9.6029698753
 20
10.4656143579
 30
0.0
 10
9.6480795631
 20
10.4593469799
 30
0.0
 10
9.692095021
 20
10.4525794829
 30
0.0
 10
9.7349333659
 20
10.4453246859
 30
0.0
 10
9.7765139643
 20
10.4375963436
 30
0.0
 10
9.8167585685
 20
10.4294091142
 30
0.0
 10
9.8555915384
 20
10.4207785281
 30
0.0
 10
9.8929397227
 20
10.4117209387
 30
0.0
 10
9.9230604477
 20
10.4037540864
 30
0.0
 10
9.9463540433
 20
10.3971694109
 30
0.0
 10
9.9632354958
 20
10.3921842581
 30
0.0
 10
9.979694779
 20
10.3871055277
 30
0.0
 10
9.9957241609
 20
10.3819355772
 30
0.0
 10
10.0113161088
 20
10.3766769106
 30
0.0
 10
10.0264632769
 20
10.37133192
 30
0.0
 10
10.041158563
 20
10.3659032126
 30
0.0
 10
10.0553950544
 20
10.3603932899
 30
0.0
 10
10.0691660673
 20
10.354804755
 30
0.0
 10
10.0824651537
 20
10.3491402841
 30
0.0
 10
10.0952860534
 20
10.3434024528
 30
0.0
 10
10.1076227911
 20
10.3375940567
 30
0.0
 10
10.1194695704
 20
10.331717738
 30
0.0
 10
10.1308208636
 20
10.3257762801
 30
0.0
 10
10.1416713855
 20
10.3197724829
 30
0.0
 10
10.1520160422
 20
10.3137090574
 30
0.0
 10
10.1618500695
 20
10.307588924
 30
0.0
 10
10.1711688493
 20
10.3014147997
 30
0.0
 10
10.1799680868
 20
10.2951895767
 30
0.0
 10
10.1882437084
 20
10.2889160865
 30
0.0
 10
10.1959918299
 20
10.2825970894
 30
0.0
 10
10.2032089307
 20
10.2762355139
 30
0.0
 10
10.2098915537
 20
10.2698340412
 30
0.0
 10
10.2160366212
 20
10.2633955443
 30
0.0
 10
10.2216411732
 20
10.2569227583
 30
0.0
 10
10.2267024113
 20
10.2504183817
 30
0.0
 10
10.2312178466
 20
10.2438852888
 30
0.0
 10
10.2351849472
 20
10.2373259887
 30
0.0
 10
10.2386013511
 20
10.2307439056
 30
0.0
 10
10.240537164
 20
10.2262805643
 30
0.0
 10
10.2414068886
 20
10.224050952
 30
0.0
  0
SPLINE
  5
332
100
AcDbEntity
  8
0
100
AcDbSpline
 62
7
  6
CONTINUOUS
 70
0
 71
3
 72
98
 73
94
 74
0
 42
0.0000001
 43
0.0000001
 44
0.0000000001
 40
0.0
 40
0.0
 40
0.0
 40
0.0
 40
0.0039801609
 40
0.0081240686
 40
0.0124358932
 40
0.0169192168
 40
0.0215770643
 40
0.0264117753
 40
0.0314250108
 40
0.0366179582
 40
0.0419913124
 40
0.0475454005
 40
0.0532801357
 40
0.0591950993
 40
0.0652895702
 40
0.0715625153
 40
0.0780126822
 40
0.0846385267
 40
0.091438326
 40
0.0984101156
 40
0.1055517514
 40
0.1128609125
 40
0.1279713503
 40
0.1437198495
 40
0.1600822126
 40
0.177032166
 40
0.1945415575
 40
0.212580527
 40
0.231117663
 40
0.2501201457
 40
0.2695538758
 40
0.2893835971
 40
0.3095730118
 40
0.3300848914
 40
0.3508811841
 40
0.3719231211
 40
0.3931713217
 40
0.4145858954
 40
0.4361265428
 40
0.4577526557
 40
0.4794234172
 40
0.5010979011
 40
0.5227351724
 40
0.5442943873
 40
0.5657348926
 40
0.5870163249
 40
0.6080987114
 40
0.6289425703
 40
0.6495090141
 40
0.6697598545
 40
0.6896577057
 40
0.7091660923
 40
0.7282495593
 40
0.7468737874
 40
0.7650057134
 40
0.7826136602
 40
0.7996674777
 40
0.8161386913
 40
0.8320006711
 40
0.839695559
 40
0.8472290901
 40
0.8545985526
 40
0.8618013908
 40
0.8688351984
 40
0.8756977824
 40
0.882387094
 40
0.8889013353
 40
0.8952388874
 40
0.9013983901
 40
0.9073787343
 40
0.9131790695
 40
0.9187988827
 40
0.9242379438
 40
0.9294964365
 40
0.9345749042
 40
0.9394743631
 40
0.9441963208
 40
0.9487428261
 40
0.9531165856
 40
0.9573209634
 40
0.9613601612
 40
0.96523923
 40
0.9689642447
 40
0.9725423874
 40
0.9759820659
 40
0.9792930654
 40
0.9824865961
 40
0.9855754322
 40
0.9885738806
 40
0.9914977831
 40
0.994364367
 40
0.9971920251
 40
1.0
 40
1.0
 40
1.0
 40
1.0
 10
11.3083232992
 20
10.0997817824
 30
0.0
 10
11.3106603671
 20
10.1020392168
 30
0.0
 10
11.3155367834
 20
10.1065381194
 30
0.0
 10
11.3232790328
 20
10.1131091054
 30
0.0
 10
11.3315898243
 20
10.1196329571
 30
0.0
 10
11.3404645987
 20
10.1261062102
 30
0.0
 10
11.3498990294
 20
10.1325258418
 30
0.0
 10
11.3598884935
 20
10.1388887286
 30
0.0
 10
11.3704279948
 20
10.1451918199
 30
0.0
 10
11.3815123043
 20
10.1514318447
 30
0.0
 10
11.3931358244
 20
10.1576058078
 30
0.0
 10
11.4052927772
 20
10.1637105329
 30
0.0
 10
11.4179770496
 20
10.1697430176
 30
0.0
 10
11.4311822798
 20
10.1757002137
 30
0.0
 10
11.4449018372
 20
10.1815790825
 30
0.0
 10
11.4591288022
 20
10.1873767309
 30
0.0
 10
11.4738560335
 20
10.1930901338
 30
0.0
 10
11.4890760881
 20
10.1987165016
 30
0.0
 10
11.5047813095
 20
10.2042529051
 30
0.0
 10
11.5209637593
 20
10.209696587
 30
0.0
 10
11.537615291
 20
10.2150448053
 30
0.0
 10
11.5606874349
 20
10.2221232084
 30
0.0
 10
11.5906474092
 20
10.2306971361
 30
0.0
 10
11.6279458958
 20
10.2404524908
 30
0.0
 10
11.6669029401
 20
10.2497651754
 30
0.0
 10
11.7074397983
 20
10.2586162266
 30
0.0
 10
11.7494747301
 20
10.2669876077
 30
0.0
 10
11.7929228367
 20
10.2748622701
 30
0.0
 10
11.8376963411
 20
10.2822241789
 30
0.0
 10
11.883704749
 20
10.2890583457
 30
0.0
 10
11.930855047
 20
10.2953508592
 30
0.0
 10
11.9790518923
 20
10.3010889129
 30
0.0
 10
12.0281978093
 20
10.3062608302
 30
0.0
 10
12.0781933877
 20
10.3108560867
 30
0.0
 10
12.1289374855
 20
10.3148653368
 30
0.0
 10
12.1803274366
 20
10.3182804298
 30
0.0
 10
12.2322592625
 20
10.3210944224
 30
0.0
 10
12.2846278842
 20
10.3233015936
 30
0.0
 10
12.3373273358
 20
10.3248974558
 30
0.0
 10
12.3902509783
 20
10.3258787633
 30
0.0
 10
12.4432917165
 20
10.3262435183
 30
0.0
 10
12.4963422165
 20
10.3259909799
 30
0.0
 10
12.549295125
 20
10.3251216641
 30
0.0
 10
12.6020432882
 20
10.3236373394
 30
0.0
 10
12.6544799682
 20
10.3215410235
 30
0.0
 10
12.7064990601
 20
10.3188369778
 30
0.0
 10
12.7579953064
 20
10.3155306989
 30
0.0
 10
12.8088645116
 20
10.3116289068
 30
0.0
 10
12.8590037562
 20
10.3071395358
 30
0.0
 10
12.908311608
 20
10.3020717201
 30
0.0
 10
12.956688328
 20
10.2964357698
 30
0.0
 10
13.004036073
 20
10.2902431526
 30
0.0
 10
13.0502590964
 20
10.2835064705
 30
0.0
 10
13.0952639428
 20
10.2762394348
 30
0.0
 10
13.1389596489
 20
10.2684568389
 30
0.0
 10
13.1812579144
 20
10.2601745292
 30
0.0
 10
13.222073369
 20
10.2514093818
 30
0.0
 10
13.2613234709
 20
10.2421792426
 30
0.0
 10
13.2929732137
 20
10.2340355849
 30
0.0
 10
13.3174424932
 20
10.2272908768
 30
0.0
 10
13.3351688894
 20
10.222179051
 30
0.0
 10
13.3524464548
 20
10.2169654282
 30
0.0
 10
13.3692664827
 20
10.2116526483
 30
0.0
 10
13.3856204657
 20
10.2062433517
 30
0.0
 10
13.4015001629
 20
10.2007403607
 30
0.0
 10
13.4168975449
 20
10.1951463669
 30
0.0
 10
13.4318048626
 20
10.1894642893
 30
0.0
 10
13.446214591
 20
10.1836969397
 30
0.0
 10
13.460119476
 20
10.1778472569
 30
0.0
 10
13.4735125265
 20
10.171918215
 30
0.0
 10
13.4863869894
 20
10.1659127401
 30
0.0
 10
13.4987364282
 20
10.1598339513
 30
0.0
 10
13.5105546115
 20
10.1536847901
 30
0.0
 10
13.5218356565
 20
10.147468442
 30
0.0
 10
13.5325738944
 20
10.1411879326
 30
0.0
 10
13.542763975
 20
10.1348464162
 30
0.0
 10
13.5524008322
 20
10.1284470452
 30
0.0
 10
13.561479631
 20
10.1219928911
 30
0.0
 10
13.5699959205
 20
10.1154872026
 30
0.0
 10
13.5779453861
 20
10.108932985
 30
0.0
 10
13.5853241462
 20
10.1023334791
 30
0.0
 10
13.5921284386
 20
10.0956916901
 30
0.0
 10
13.598354841
 20
10.0890107337
 30
0.0
 10
13.6040001506
 20
10.0822936662
 30
0.0
 10
13.6090612746
 20
10.0755434536
 30
0.0
 10
13.6135354974
 20
10.0687632254
 30
0.0
 10
13.6174199728
 20
10.061955934
 30
0.0
 10
13.6207123186
 20
10.0551248492
 30
0.0
 10
13.6234100078
 20
10.0482731984
 30
0.0
 10
13.6255109127
 20
10.0414046291
 30
0.0
 10
13.6270131336
 20
10.0345227882
 30
0.0
 10
13.6279150562
 20
10.0276325014
 30
0.0
 10
13.6281158421
 20
10.0230292531
 30
0.0
 10
13.6281158417
 20
10.0207369012
 30
0.0
  0
SPLINE
  5
333
100
AcDbEntity
  8
0
100
AcDbSpline
 62
7
  6
CONTINUOUS
 70
0
 71
3
 72
20
 73
16
 74
0
 42
0.0000001
 43
0.0000001
 44
0.0000000001
 40
0.0
 40
0.0
 40
0.0
 40
0.0
 40
0.0548579917
 40
0.1099199293
 40
0.1653872459
 40
0.2214567063
 40
0.2783181011
 40
0.3361525857
 40
0.3951315812
 40
0.4554152184
 40
0.5804413563
 40
0.6454834332
 40
0.7123556605
 40
0.8519687085
 40
1.0
 40
1.0
 40
1.0
 40
1.0
 10
7.8873752494
 20
10.2551920575
 30
0.0
 10
7.8873752497
 20
10.2568585467
 30
0.0
 10
7.8874810402
 20
10.2601986774
 30
0.0
 10
7.8879566379
 20
10.265203441
 30
0.0
 10
7.8887490252
 20
10.270205314
 30
0.0
 10
7.8898579607
 20
10.2752025009
 30
0.0
 10
7.8912829389
 20
10.2801936212
 30
0.0
 10
7.893023352
 20
10.2851772128
 30
0.0
 10
7.8950787327
 20
10.290152021
 30
0.0
 10
7.898276452
 20
10.2968519251
 30
0.0
 10
7.9020815519
 20
10.3034534525
 30
0.0
 10
7.9064330102
 20
10.3099354009
 30
0.0
 10
7.9113267102
 20
10.316578536
 30
0.0
 10
7.9182531258
 20
10.3248405352
 30
0.0
 10
7.9243482693
 20
10.3311127119
 30
0.0
 10
7.9275827069
 20
10.3342369388
 30
0.0
  0
SPLINE
  5
334
100
AcDbEntity
  8
0
100
AcDbSpline
 62
7
  6
CONTINUOUS
 70
0
 71
3
 72
98
 73
94
 74
0
 42
0.0000001
 43
0.0000001
 44
0.0000000001
 40
0.0
 40
0.0
 40
0.0
 40
0.0
 40
0.0040448149
 40
0.0082602965
 40
0.0126508419
 40
0.0172201654
 40
0.0219714014
 40
0.026907028
 40
0.0320287453
 40
0.0373377195
 40
0.0428346257
 40
0.0485196766
 40
0.0543927428
 40
0.0604532579
 40
0.0667003629
 40
0.073132895
 40
0.0797493749
 40
0.0865481279
 40
0.0935271791
 40
0.1006843658
 40
0.108017325
 40
0.1155234576
 40
0.1310438538
 40
0.1472218367
 40
0.1640309235
 40
0.1814424344
 40
0.1994257034
 40
0.217948251
 40
0.2369759558
 40
0.2564732185
 40
0.2764031019
 40
0.2967274614
 40
0.317407063
 40
0.3384017143
 40
0.3596703893
 40
0.3811713428
 40
0.4028622228
 40
0.4247001808
 40
0.4466419917
 40
0.4686441663
 40
0.4906630605
 40
0.512654985
 40
0.5345763204
 40
0.55638363
 40
0.5780337695
 40
0.599483997
 40
0.6206920876
 40
0.6416164548
 40
0.6622162611
 40
0.6824515319
 40
0.7022832743
 40
0.7216736082
 40
0.7405859013
 40
0.7589848938
 40
0.7768368394
 40
0.7941096605
 40
0.8107731327
 40
0.8267990775
 40
0.8421615695
 40
0.8495867517
 40
0.8568375234
 40
0.8639113769
 40
0.8708060643
 40
0.8775194909
 40
0.8840498284
 40
0.8903954975
 40
0.8965551444
 40
0.902527771
 40
0.9083126354
 40
0.9139093749
 40
0.9193180186
 40
0.9245389704
 40
0.9295731717
 40
0.9344220318
 40
0.9390875722
 40
0.9435724921
 40
0.9478801853
 40
0.9520149507
 40
0.9559819876
 40
0.9597875808
 40
0.9634392346
 40
0.9669457414
 40
0.9703174129
 40
0.9735661095
 40
0.9767053715
 40
0.9797504601
 40
0.9827182679
 40
0.9856272337
 40
0.9884970416
 40
0.9913482755
 40
0.9942019601
 40
0.9970790636
 40
1.0
 40
1.0
 40
1.0
 40
1.0
 10
8.2849752838
 20
10.2476324214
 30
0.0
 10
8.2866203779
 20
10.2492214604
 30
0.0
 10
8.2900566362
 20
10.2523879859
 30
0.0
 10
8.2955192125
 20
10.2570098433
 30
0.0
 10
8.3013916167
 20
10.2615976306
 30
0.0
 10
8.307670466
 20
10.2661486975
 30
0.0
 10
8.3143524864
 20
10.2706608667
 30
0.0
 10
8.3214342944
 20
10.2751317873
 30
0.0
 10
8.328912166
 20
10.2795592601
 30
0.0
 10
8.3367821963
 20
10.2839409031
 30
0.0
 10
8.3450402438
 20
10.288274395
 30
0.0
 10
8.3536819408
 20
10.2925575306
 30
0.0
 10
8.3627027752
 20
10.2967879623
 30
0.0
 10
8.3720979627
 20
10.3009635377
 30
0.0
 10
8.3818625551
 20
10.3050820072
 30
0.0
 10
8.3919913948
 20
10.3091411643
 30
0.0
 10
8.4024791079
 20
10.3131389219
 30
0.0
 10
8.4133201629
 20
10.3170730705
 30
0.0
 10
8.4245088014
 20
10.3209415882
 30
0.0
 10
8.4360390964
 20
10.3247423875
 30
0.0
 10
8.4479049497
 20
10.328473441
 30
0.0
 10
8.4643484189
 20
10.3334075292
 30
0.0
 10
8.4857015709
 20
10.3393750317
 30
0.0
 10
8.512283451
 20
10.3461498967
 30
0.0
 10
8.5400445409
 20
10.3526014299
 30
0.0
 10
8.5689258916
 20
10.3587158364
 30
0.0
 10
8.5988663218
 20
10.3644800131
 30
0.0
 10
8.6298023005
 20
10.3698816254
 30
0.0
 10
8.6616681621
 20
10.3749091229
 30
0.0
 10
8.6943962426
 20
10.3795517508
 30
0.0
 10
8.7279170356
 20
10.3837995776
 30
0.0
 10
8.7621593344
 20
10.3876435104
 30
0.0
 10
8.797050381
 20
10.3910753362
 30
0.0
 10
8.8325160269
 20
10.3940877263
 30
0.0
 10
8.8684808991
 20
10.3966742436
 30
0.0
 10
8.9048685606
 20
10.3988293583
 30
0.0
 10
8.9416016693
 20
10.4005484567
 30
0.0
 10
8.9786021422
 20
10.4018278737
 30
0.0
 10
9.0157913256
 20
10.4026648812
 30
0.0
 10
9.0530901652
 20
10.4030576915
 30
0.0
 10
9.0904193724
 20
10.4030054612
 30
0.0
 10
9.1276995923
 20
10.4025082939
 30
0.0
 10
9.1648515751
 20
10.4015672603
 30
0.0
 10
9.2017963463
 20
10.4001843742
 30
0.0
 10
9.2384553733
 20
10.3983625891
 30
0.0
 10
9.2747507307
 20
10.3961057912
 30
0.0
 10
9.3106052707
 20
10.3934187963
 30
0.0
 10
9.345942791
 20
10.3903073557
 30
0.0
 10
9.3806881962
 20
10.3867781212
 30
0.0
 10
9.4147676528
 20
10.382838636
 30
0.0
 10
9.4481087485
 20
10.3784973149
 30
0.0
 10
9.480640656
 20
10.3737634387
 30
0.0
 10
9.5122942899
 20
10.3686471424
 30
0.0
 10
9.5430024491
 20
10.3631593731
 30
0.0
 10
9.572699962
 20
10.3573118742
 30
0.0
 10
9.6013238149
 20
10.3511171508
 30
0.0
 10
9.6288133776
 20
10.3445884693
 30
0.0
 10
9.6551102884
 20
10.3377397998
 30
0.0
 10
9.6762167575
 20
10.3317118754
 30
0.0
 10
9.6924563464
 20
10.3267310297
 30
0.0
 10
9.7041654812
 20
10.322966995
 30
0.0
 10
9.7155361607
 20
10.3191341438
 30
0.0
 10
9.7265623849
 20
10.3152345741
 30
0.0
 10
9.7372382964
 20
10.3112703026
 30
0.0
 10
9.7475582452
 20
10.307243454
 30
0.0
 10
9.75751678
 20
10.3031562031
 30
0.0
 10
9.767108612
 20
10.2990106399
 30
0.0
 10
9.7763287003
 20
10.2948090513
 30
0.0
 10
9.7851721618
 20
10.2905535971
 30
0.0
 10
9.793634337
 20
10.2862465342
 30
0.0
 10
9.8017107935
 20
10.2818901809
 30
0.0
 10
9.8093972484
 20
10.2774867296
 30
0.0
 10
9.8166897136
 20
10.2730385794
 30
0.0
 10
9.8235843461
 20
10.2685479795
 30
0.0
 10
9.8300775379
 20
10.264017246
 30
0.0
 10
9.8361659413
 20
10.2594487615
 30
0.0
 10
9.8418463102
 20
10.2548447316
 30
0.0
 10
9.8471157437
 20
10.2502075605
 30
0.0
 10
9.8519714369
 20
10.2455394746
 30
0.0
 10
9.8564107896
 20
10.2408427256
 30
0.0
 10
9.8604314721
 20
10.2361196293
 30
0.0
 10
9.8640311149
 20
10.2313723033
 30
0.0
 10
9.8672077046
 20
10.2266030683
 30
0.0
 10
9.8699591856
 20
10.2218141278
 30
0.0
 10
9.8722836067
 20
10.2170077903
 30
0.0
 10
9.8741792978
 20
10.21218656
 30
0.0
 10
9.8756444287
 20
10.2073529949
 30
0.0
 10
9.8766777114
 20
10.2025100178
 30
0.0
 10
9.877277962
 20
10.1976606969
 30
0.0
 10
9.8774444217
 20
10.1928083811
 30
0.0
 10
9.877177024
 20
10.1879563748
 30
0.0
 10
9.8764760072
 20
10.1831085135
 30
0.0
 10
9.8757272673
 20
10.1799117773
 30
0.0
 10
9.8752846858
 20
10.1783204761
 30
0.0
  0
SPLINE
  5
335
100
AcDbEntity
  8
0
100
AcDbSpline
 62
7
  6
CONTINUOUS
 70
0
 71
3
 72
52
 73
48
 74
0
 42
0.0000001
 43
0.0000001
 44
0.0000000001
 40
0.0
 40
0.0
 40
0.0
 40
0.0
 40
0.0417975951
 40
0.0840616288
 40
0.1266599
 40
0.1694646819
 40
0.2123442235
 40
0.2551675716
 40
0.2978037564
 40
0.3401225587
 40
0.3819950468
 40
0.4232940448
 40
0.4638946794
 40
0.5036749394
 40
0.5425162168
 40
0.5803038545
 40
0.6169277287
 40
0.6522828762
 40
0.6862702207
 40
0.7187973048
 40
0.7497791232
 40
0.7646666939
 40
0.7791400459
 40
0.7931910474
 40
0.8068124878
 40
0.8199977024
 40
0.8327409898
 40
0.8450375569
 40
0.8568834717
 40
0.8682761438
 40
0.8792139942
 40
0.8896969854
 40
0.8997266536
 40
0.9093062033
 40
0.9184411394
 40
0.9271391328
 40
0.9354107775
 40
0.9432698769
 40
0.9507338665
 40
0.9578247066
 40
0.9645691138
 40
0.9709994856
 40
0.9771542525
 40
0.9830781055
 40
0.9888220386
 40
0.9944424568
 40
1.0
 40
1.0
 40
1.0
 40
1.0
 10
13.7466204414
 20
10.5249961038
 30
0.0
 10
13.7402355847
 20
10.5254388952
 30
0.0
 10
13.7273873276
 20
10.526227335
 30
0.0
 10
13.7080124408
 20
10.527117214
 30
0.0
 10
13.6884721371
 20
10.527719034
 30
0.0
 10
13.668830819
 20
10.5280308823
 30
0.0
 10
13.6491525718
 20
10.5280516796
 30
0.0
 10
13.6295019871
 20
10.5277813713
 30
0.0
 10
13.6099434261
 20
10.5272208502
 30
0.0
 10
13.5905409783
 20
10.5263719707
 30
0.0
 10
13.5713582153
 20
10.5252375366
 30
0.0
 10
13.552457984
 20
10.5238212905
 30
0.0
 10
13.5339022013
 20
10.5221279024
 30
0.0
 10
13.5157516408
 20
10.5201629732
 30
0.0
 10
13.498065732
 20
10.5179330015
 30
0.0
 10
13.480902368
 20
10.5154453608
 30
0.0
 10
13.4643177094
 20
10.5127082781
 30
0.0
 10
13.4483660049
 20
10.5097308012
 30
0.0
 10
13.4330993379
 20
10.5065228002
 30
0.0
 10
13.4185676462
 20
10.5030948821
 30
0.0
 10
13.4069605759
 20
10.5000251663
 30
0.0
 10
13.3980833447
 20
10.4974607505
 30
0.0
 10
13.3917267272
 20
10.495515212
 30
0.0
 10
13.3855879438
 20
10.4935234249
 30
0.0
 10
13.3796719853
 20
10.4914870845
 30
0.0
 10
13.3739836902
 20
10.4894078059
 30
0.0
 10
13.3685276914
 20
10.487287311
 30
0.0
 10
13.3633084203
 20
10.4851273686
 30
0.0
 10
13.3583301404
 20
10.4829296678
 30
0.0
 10
13.3535968629
 20
10.4806960903
 30
0.0
 10
13.3491124391
 20
10.478428378
 30
0.0
 10
13.3448804823
 20
10.4761283878
 30
0.0
 10
13.3409043788
 20
10.4737980008
 30
0.0
 10
13.3371873582
 20
10.4714389849
 30
0.0
 10
13.3337323374
 20
10.4690532982
 30
0.0
 10
13.3305421116
 20
10.4666427013
 30
0.0
 10
13.3276192091
 20
10.4642090519
 30
0.0
 10
13.324965936
 20
10.4617541806
 30
0.0
 10
13.3225845273
 20
10.4592797551
 30
0.0
 10
13.3204768809
 20
10.4567876016
 30
0.0
 10
13.3186449625
 20
10.4542793124
 30
0.0
 10
13.317090544
 20
10.451756613
 30
0.0
 10
13.3158153349
 20
10.4492212576
 30
0.0
 10
13.3148211924
 20
10.4466751251
 30
0.0
 10
13.3141095719
 20
10.4441203538
 30
0.0
 10
13.3136820151
 20
10.4415598497
 30
0.0
 10
13.3135867744
 20
10.4398467597
 30
0.0
 10
13.3135867818
 20
10.4389957695
 30
0.0
  0
SPLINE
  5
336
100
AcDbEntity
  8
0
100
AcDbSpline
 62
7
  6
CONTINUOUS
 70
0
 71
3
 72
58
 73
54
 74
0
 42
0.0000001
 43
0.0000001
 44
0.0000000001
 40
0.0
 40
0.0
 40
0.0
 40
0.0
 40
0.0100791168
 40
0.020624978
 40
0.0316337262
 40
0.0430999086
 40
0.0550168158
 40
0.0673764806
 40
0.0801698704
 40
0.0933869826
 40
0.1070168598
 40
0.1210477857
 40
0.1354671935
 40
0.1502618784
 40
0.1654179201
 40
0.1809208083
 40
0.196755464
 40
0.2129062422
 40
0.2293570524
 40
0.2460912813
 40
0.2803411417
 40
0.315515663
 40
0.3514687982
 40
0.388050071
 40
0.4251054855
 40
0.4624784181
 40
0.500010498
 40
0.5375424818
 40
0.5749151275
 40
0.6119700665
 40
0.648550678
 40
0.6845029691
 40
0.7196764671
 40
0.7369255553
 40
0.7539256006
 40
0.7706591692
 40
0.787109274
 40
0.8032593191
 40
0.8190931881
 40
0.8345952703
 40
0.8497504537
 40
0.8645442583
 40
0.8789627474
 40
0.8929927201
 40
0.9066216278
 40
0.9198377247
 40
0.9326300963
 40
0.9449886979
 40
0.9569045386
 40
0.9683696273
 40
0.9793772654
 40
0.9899220163
 40
1.0
 40
1.0
 40
1.0
 40
1.0
 10
8.4052474393
 20
10.0726183291
 30
0.0
 10
8.4093274999
 20
10.0745907475
 30
0.0
 10
8.4177424573
 20
10.0784917083
 30
0.0
 10
8.4308153965
 20
10.0840995504
 30
0.0
 10
8.4446114042
 20
10.0895904495
 30
0.0
 10
8.4591147459
 20
10.0949582083
 30
0.0
 10
8.4743091365
 20
10.1001966688
 30
0.0
 10
8.4901773894
 20
10.1052999031
 30
0.0
 10
8.5067015605
 20
10.1102620956
 30
0.0
 10
8.5238629414
 20
10.1150775478
 30
0.0
 10
8.541642077
 20
10.119740834
 30
0.0
 10
8.5600188119
 20
10.1242465465
 30
0.0
 10
8.5789722887
 20
10.1285896273
 30
0.0
 10
8.5984809959
 20
10.1327650499
 30
0.0
 10
8.6185227795
 20
10.1367680898
 30
0.0
 10
8.6390748747
 20
10.1405941693
 30
0.0
 10
8.6601139354
 20
10.1442388982
 30
0.0
 10
8.6816160481
 20
10.1476981627
 30
0.0
 10
8.703556801
 20
10.150967972
 30
0.0
 10
8.7335945273
 20
10.1551020166
 30
0.0
 10
8.7720559473
 20
10.1597572225
 30
0.0
 10
8.8192020448
 20
10.1644921676
 30
0.0
 10
8.8674759103
 20
10.1683961103
 30
0.0
 10
8.916658094
 20
10.1714511528
 30
0.0
 10
8.9665251949
 20
10.173643249
 30
0.0
 10
9.0168506052
 20
10.1749623344
 30
0.0
 10
9.0674056304
 20
10.1754023489
 30
0.0
 10
9.1179605165
 20
10.1749612733
 30
0.0
 10
9.1682855158
 20
10.1736411356
 30
0.0
 10
9.2181519208
 20
10.1714479956
 30
0.0
 10
9.2673331829
 20
10.1683919348
 30
0.0
 10
9.3156057018
 20
10.164486955
 30
0.0
 10
9.3551450697
 20
10.1605151398
 30
0.0
 10
9.3861516548
 20
10.1569178966
 30
0.0
 10
9.4088934618
 20
10.1540374613
 30
0.0
 10
9.4312469158
 20
10.1509603378
 30
0.0
 10
9.4531866308
 20
10.1476900756
 30
0.0
 10
9.474687664
 20
10.1442303721
 30
0.0
 10
9.4957255828
 20
10.1405851845
 30
0.0
 10
9.5162764811
 20
10.1367586946
 30
0.0
 10
9.5363170108
 20
10.1327552182
 30
0.0
 10
9.555824411
 20
10.1285793978
 30
0.0
 10
9.5747765272
 20
10.1242359182
 30
0.0
 10
9.5931518503
 20
10.1197298126
 30
0.0
 10
9.6109295274
 20
10.1150661712
 30
0.0
 10
9.628089399
 20
10.1102503376
 30
0.0
 10
9.6446120202
 20
10.1052878241
 30
0.0
 10
9.6604786729
 20
10.1001842361
 30
0.0
 10
9.6756714264
 20
10.0949454733
 30
0.0
 10
9.6901730867
 20
10.0895774058
 30
0.0
 10
9.7039673729
 20
10.0840862108
 30
0.0
 10
9.7170385632
 20
10.0784781146
 30
0.0
 10
9.7254523159
 20
10.0745769518
 30
0.0
 10
9.7295317668
 20
10.0726044427
 30
0.0
  0
SPLINE
  5
337
100
AcDbEntity
  8
0
100
AcDbSpline
 62
7
  6
CONTINUOUS
 70
0
 71
3
 72
44
 73
40
 74
0
 42
0.0000001
 43
0.0000001
 44
0.0000000001
 40
0.0
 40
0.0
 40
0.0
 40
0.0
 40
0.0119358018
 40
0.0241995714
 40
0.0367847404
 40
0.049684184
 40
0.062890463
 40
0.0763956657
 40
0.1042691321
 40
0.1332351296
 40
0.1632187728
 40
0.1941408032
 40
0.2259180747
 40
0.2584640024
 40
0.2916889848
 40
0.3255008067
 40
0.3598050292
 40
0.3945053704
 40
0.4295040793
 40
0.4647023076
 40
0.5000004767
 40
0.5352986433
 40
0.5704968647
 40
0.6054955629
 40
0.6401958906
 40
0.6745000981
 40
0.7083119035
 40
0.741536867
 40
0.7740827716
 40
0.8058600145
 40
0.8367820107
 40
0.8667656148
 40
0.895731569
 40
0.9236049894
 40
0.9503159055
 40
0.9632153502
 40
0.975800472
 40
0.9880642396
 40
1.0
 40
1.0
 40
1.0
 40
1.0
 10
8.5348689591
 20
10.0354654208
 30
0.0
 10
8.5389552817
 20
10.0367489187
 30
0.0
 10
8.5472614916
 20
10.0392838683
 30
0.0
 10
8.5599441967
 20
10.0429452216
 30
0.0
 10
8.5730118452
 20
10.0465148586
 30
0.0
 10
8.5864544864
 20
10.0499901394
 30
0.0
 10
8.60026197
 20
10.0533683634
 30
0.0
 10
8.619345432
 20
10.0577863396
 30
0.0
 10
8.644039222
 20
10.0630356784
 30
0.0
 10
8.6746515862
 20
10.0688445988
 30
0.0
 10
8.7064547052
 20
10.0742097574
 30
0.0
 10
8.7393521499
 20
10.0791147558
 30
0.0
 10
8.7732443152
 20
10.0835445752
 30
0.0
 10
8.8080284864
 20
10.0874856663
 30
0.0
 10
8.8435992291
 20
10.0909259765
 30
0.0
 10
8.8798486959
 20
10.0938549888
 30
0.0
 10
8.9166669641
 20
10.096263751
 30
0.0
 10
8.9539423715
 20
10.0981449027
 30
0.0
 10
8.9915618594
 20
10.0994926977
 30
0.0
 10
9.029411318
 20
10.10030302
 30
0.0
 10
9.0673759362
 20
10.1005733951
 30
0.0
 10
9.1053405517
 20
10.1003029978
 30
0.0
 10
9.1431900027
 20
10.0994926541
 30
0.0
 10
9.1808094786
 20
10.0981448388
 30
0.0
 10
9.2180848711
 20
10.0962636686
 30
0.0
 10
9.254903122
 20
10.09385489
 30
0.0
 10
9.2911525695
 20
10.0909258624
 30
0.0
 10
9.3267232894
 20
10.0874855367
 30
0.0
 10
9.3615074339
 20
10.0835444291
 30
0.0
 10
9.3953995631
 20
10.0791145913
 30
0.0
 10
9.4282969777
 20
10.074209576
 30
0.0
 10
9.4601000167
 20
10.0688443931
 30
0.0
 10
9.4907124528
 20
10.0630354751
 30
0.0
 10
9.5200415087
 20
10.0568005927
 30
0.0
 10
9.5436050097
 20
10.0512028081
 30
0.0
 10
9.5617396062
 20
10.0465146368
 30
0.0
 10
9.5748072328
 20
10.0429449376
 30
0.0
 10
9.5874899095
 20
10.0392836153
 30
0.0
 10
9.595796099
 20
10.0367486492
 30
0.0
 10
9.5998824039
 20
10.0354651444
 30
0.0
  0
SPLINE
  5
338
100
AcDbEntity
  8
0
100
AcDbSpline
 62
7
  6
CONTINUOUS
 70
0
 71
3
 72
52
 73
48
 74
0
 42
0.0000001
 43
0.0000001
 44
0.0000000001
 40
0.0
 40
0.0
 40
0.0
 40
0.0
 40
0.0417975951
 40
0.0840616288
 40
0.1266599
 40
0.1694646819
 40
0.2123442235
 40
0.2551675716
 40
0.2978037564
 40
0.3401225587
 40
0.3819950468
 40
0.4232940448
 40
0.4638946794
 40
0.5036749394
 40
0.5425162168
 40
0.5803038545
 40
0.6169277287
 40
0.6522828762
 40
0.6862702207
 40
0.7187973048
 40
0.7497791232
 40
0.7646666939
 40
0.7791400459
 40
0.7931910474
 40
0.8068124878
 40
0.8199977024
 40
0.8327409898
 40
0.8450375569
 40
0.8568834717
 40
0.8682761438
 40
0.8792139942
 40
0.8896969854
 40
0.8997266536
 40
0.9093062033
 40
0.9184411394
 40
0.9271391328
 40
0.9354107775
 40
0.9432698769
 40
0.9507338665
 40
0.9578247066
 40
0.9645691138
 40
0.9709994856
 40
0.9771542525
 40
0.9830781055
 40
0.9888220386
 40
0.9944424568
 40
1.0
 40
1.0
 40
1.0
 40
1.0
 10
8.9169910238
 20
10.8599320415
 30
0.0
 10
8.9106061671
 20
10.8603748329
 30
0.0
 10
8.89775791
 20
10.8611632727
 30
0.0
 10
8.8783830231
 20
10.8620531517
 30
0.0
 10
8.8588427194
 20
10.8626549717
 30
0.0
 10
8.8392014014
 20
10.86296682
 30
0.0
 10
8.8195231542
 20
10.8629876173
 30
0.0
 10
8.7998725694
 20
10.862717309
 30
0.0
 10
8.7803140085
 20
10.8621567879
 30
0.0
 10
8.7609115607
 20
10.8613079084
 30
0.0
 10
8.7417287977
 20
10.8601734743
 30
0.0
 10
8.7228285664
 20
10.8587572282
 30
0.0
 10
8.7042727836
 20
10.8570638401
 30
0.0
 10
8.6861222232
 20
10.8550989109
 30
0.0
 10
8.6684363144
 20
10.8528689392
 30
0.0
 10
8.6512729504
 20
10.8503812985
 30
0.0
 10
8.6346882918
 20
10.8476442159
 30
0.0
 10
8.6187365873
 20
10.8446667389
 30
0.0
 10
8.6034699202
 20
10.8414587379
 30
0.0
 10
8.5889382286
 20
10.8380308198
 30
0.0
 10
8.5773311583
 20
10.834961104
 30
0.0
 10
8.5684539271
 20
10.8323966882
 30
0.0
 10
8.5620973096
 20
10.8304511497
 30
0.0
 10
8.5559585262
 20
10.8284593626
 30
0.0
 10
8.5500425677
 20
10.8264230223
 30
0.0
 10
8.5443542726
 20
10.8243437436
 30
0.0
 10
8.5388982738
 20
10.8222232487
 30
0.0
 10
8.5336790026
 20
10.8200633063
 30
0.0
 10
8.5287007228
 20
10.8178656055
 30
0.0
 10
8.5239674453
 20
10.815632028
 30
0.0
 10
8.5194830214
 20
10.8133643158
 30
0.0
 10
8.5152510647
 20
10.8110643255
 30
0.0
 10
8.5112749612
 20
10.8087339385
 30
0.0
 10
8.5075579406
 20
10.8063749226
 30
0.0
 10
8.5041029198
 20
10.8039892359
 30
0.0
 10
8.500912694
 20
10.801578639
 30
0.0
 10
8.4979897915
 20
10.7991449896
 30
0.0
 10
8.4953365184
 20
10.7966901183
 30
0.0
 10
8.4929551097
 20
10.7942156928
 30
0.0
 10
8.4908474633
 20
10.7917235393
 30
0.0
 10
8.4890155449
 20
10.7892152501
 30
0.0
 10
8.4874611264
 20
10.7866925508
 30
0.0
 10
8.4861859173
 20
10.7841571954
 30
0.0
 10
8.4851917748
 20
10.7816110628
 30
0.0
 10
8.4844801543
 20
10.7790562915
 30
0.0
 10
8.4840525975
 20
10.7764957874
 30
0.0
 10
8.4839573568
 20
10.7747826974
 30
0.0
 10
8.4839573642
 20
10.7739317072
 30
0.0
  0
SPLINE
  5
339
100
AcDbEntity
  8
0
100
AcDbSpline
 62
7
  6
CONTINUOUS
 70
0
 71
3
 72
10
 73
6
 74
0
 42
0.0000001
 43
0.0000001
 44
0.0000000001
 40
0.0
 40
0.0
 40
0.0
 40
0.0
 40
0.2677165142
 40
0.523042681
 40
1.0
 40
1.0
 40
1.0
 40
1.0
 10
9.1785144019
 20
7.0375557051
 30
0.0
 10
9.1793812287
 20
7.0379839289
 30
0.0
 10
9.1810499515
 20
7.0388731707
 30
0.0
 10
9.1841120938
 20
7.040790053
 30
0.0
 10
9.186193896
 20
7.0424476304
 30
0.0
 10
9.1874328012
 20
7.043644321
 30
0.0
  0
SPLINE
  5
33A
100
AcDbEntity
  8
0
100
AcDbSpline
 62
7
  6
CONTINUOUS
 70
0
 71
3
 72
20
 73
16
 74
0
 42
0.0000001
 43
0.0000001
 44
0.0000000001
 40
0.0
 40
0.0
 40
0.0
 40
0.0
 40
0.0548579917
 40
0.1099199293
 40
0.1653872459
 40
0.2214567063
 40
0.2783181011
 40
0.3361525857
 40
0.3951315812
 40
0.4554152184
 40
0.5804413563
 40
0.6454834332
 40
0.7123556605
 40
0.8519687085
 40
1.0
 40
1.0
 40
1.0
 40
1.0
 10
11.2681158417
 20
10.0207369011
 30
0.0
 10
11.268115842
 20
10.0224033903
 30
0.0
 10
11.2682216325
 20
10.025743521
 30
0.0
 10
11.2686972302
 20
10.0307482846
 30
0.0
 10
11.2694896175
 20
10.0357501576
 30
0.0
 10
11.2705985531
 20
10.0407473445
 30
0.0
 10
11.2720235312
 20
10.0457384648
 30
0.0
 10
11.2737639443
 20
10.0507220564
 30
0.0
 10
11.275819325
 20
10.0556968646
 30
0.0
 10
11.2790170443
 20
10.0623967687
 30
0.0
 10
11.2828221442
 20
10.0689982961
 30
0.0
 10
11.2871736025
 20
10.0754802445
 30
0.0
 10
11.2920673026
 20
10.0821233796
 30
0.0
 10
11.2989937182
 20
10.0903853788
 30
0.0
 10
11.3050888616
 20
10.0966575555
 30
0.0
 10
11.3083232992
 20
10.0997817824
 30
0.0
  0
SPLINE
  5
33B
100
AcDbEntity
  8
0
100
AcDbSpline
 62
7
  6
CONTINUOUS
 70
0
 71
3
 72
53
 73
49
 74
0
 42
0.0000001
 43
0.0000001
 44
0.0000000001
 40
0.0
 40
0.0
 40
0.0
 40
0.0
 40
0.0311426844
 40
0.0624383931
 40
0.0938812286
 40
0.1254614913
 40
0.1571669836
 40
0.1889829512
 40
0.2208924493
 40
0.2528766959
 40
0.2849154495
 40
0.3169874116
 40
0.3490706423
 40
0.3811429843
 40
0.4131824906
 40
0.4451678483
 40
0.477078794
 40
0.5088965168
 40
0.5406040388
 40
0.5721865671
 40
0.587929481
 40
0.6036367678
 40
0.6193073317
 40
0.6349402614
 40
0.650534846
 40
0.6660905727
 40
0.6816071306
 40
0.6970844215
 40
0.7125225531
 40
0.7279218437
 40
0.7432828261
 40
0.7586062374
 40
0.7738930241
 40
0.7891443373
 40
0.8043615217
 40
0.8195461182
 40
0.8346998512
 40
0.8498246181
 40
0.8649224865
 40
0.8799956769
 40
0.8950465515
 40
0.9100776058
 40
0.9250914485
 40
0.9400907894
 40
0.9550784261
 40
0.9700572226
 40
0.985030096
 40
1.0
 40
1.0
 40
1.0
 40
1.0
 10
8.7352558847
 20
6.1922059277
 30
0.0
 10
8.7149474586
 20
6.1936143218
 30
0.0
 10
8.6743187947
 20
6.1979245272
 30
0.0
 10
8.6138683778
 20
6.2087820661
 30
0.0
 10
8.5540654392
 20
6.2239901694
 30
0.0
 10
8.4952329537
 20
6.2434671309
 30
0.0
 10
8.4376834982
 20
6.2671085727
 30
0.0
 10
8.381724038
 20
6.2947879598
 30
0.0
 10
8.3276526734
 20
6.3263573919
 30
0.0
 10
8.2757575677
 20
6.3616483679
 30
0.0
 10
8.2263151924
 20
6.400472531
 30
0.0
 10
8.1795889742
 20
6.4426227936
 30
0.0
 10
8.1358279438
 20
6.4878744645
 30
0.0
 10
8.0952653792
 20
6.5359863728
 30
0.0
 10
8.0581174918
 20
6.5867020676
 30
0.0
 10
8.0245823999
 20
6.6397513527
 30
0.0
 10
7.9948391504
 20
6.6948514548
 30
0.0
 10
7.9690464258
 20
6.7517093058
 30
0.0
 10
7.9473424916
 20
6.8100198753
 30
0.0
 10
7.9327425804
 20
6.8596244553
 30
0.0
 10
7.9232197657
 20
6.8997191264
 30
0.0
 10
7.9171685289
 20
6.9299274857
 30
0.0
 10
7.9122097198
 20
6.9602610852
 30
0.0
 10
7.9083499394
 20
6.9906799113
 30
0.0
 10
7.9055942554
 20
7.0211432093
 30
0.0
 10
7.9039464307
 20
7.0516103523
 30
0.0
 10
7.9034087394
 20
7.0820406501
 30
0.0
 10
7.9039817862
 20
7.1123934719
 30
0.0
 10
7.9056649541
 20
7.1426282864
 30
0.0
 10
7.9084559904
 20
7.1727047141
 30
0.0
 10
7.9123510997
 20
7.2025826
 30
0.0
 10
7.9173452517
 20
7.2322220203
 30
0.0
 10
7.923431701
 20
7.2615833981
 30
0.0
 10
7.9306023149
 20
7.2906275243
 30
0.0
 10
7.9388476703
 20
7.3193155645
 30
0.0
 10
7.9481566349
 20
7.3476092301
 30
0.0
 10
7.9585168389
 20
7.375470711
 30
0.0
 10
7.9699145389
 20
7.4028627471
 30
0.0
 10
7.9823343887
 20
7.4297487946
 30
0.0
 10
7.9957599111
 20
7.4560928856
 30
0.0
 10
8.0101731891
 20
7.4818598064
 30
0.0
 10
8.0255548776
 20
7.5070151839
 30
0.0
 10
8.041884559
 20
7.5315253231
 30
0.0
 10
8.0591403714
 20
7.5553575095
 30
0.0
 10
8.077299188
 20
7.5784799039
 30
0.0
 10
8.0963369841
 20
7.6008616181
 30
0.0
 10
8.1162277908
 20
7.6224724181
 30
0.0
 10
8.1300408232
 20
7.6363478846
 30
0.0
 10
8.1370790525
 20
7.6431463027
 30
0.0
  0
SPLINE
  5
33C
100
AcDbEntity
  8
0
100
AcDbSpline
 62
7
  6
CONTINUOUS
 70
0
 71
3
 72
21
 73
17
 74
0
 42
0.0000001
 43
0.0000001
 44
0.0000000001
 40
0.0
 40
0.0
 40
0.0
 40
0.0
 40
0.1267948843
 40
0.2530337259
 40
0.3159557352
 40
0.3787429632
 40
0.441397645
 40
0.5039229569
 40
0.5663224814
 40
0.6286002277
 40
0.6907607935
 40
0.752809261
 40
0.8147511882
 40
0.8765925892
 40
0.9383399052
 40
1.0
 40
1.0
 40
1.0
 40
1.0
 10
9.0724968222
 20
6.5179556781
 30
0.0
 10
9.0900015912
 20
6.5167417183
 30
0.0
 10
9.1250200923
 20
6.5154166275
 30
0.0
 10
9.1687608767
 20
6.5165426872
 30
0.0
 10
9.2035373665
 20
6.5191159874
 30
0.0
 10
9.2294627813
 20
6.5218757045
 30
0.0
 10
9.2552308907
 20
6.5254643384
 30
0.0
 10
9.2808161434
 20
6.5298784234
 30
0.0
 10
9.3061928964
 20
6.5351133491
 30
0.0
 10
9.3313356982
 20
6.5411641302
 30
0.0
 10
9.3562194088
 20
6.5480244677
 30
0.0
 10
9.3808190524
 20
6.555687724
 30
0.0
 10
9.4051100121
 20
6.5641460471
 30
0.0
 10
9.4290680082
 20
6.5733911286
 30
0.0
 10
9.4526687122
 20
6.5834135075
 30
0.0
 10
9.4681597456
 20
6.59061182
 30
0.0
 10
9.4758367435
 20
6.5943367953
 30
0.0
  0
SPLINE
  5
33D
100
AcDbEntity
  8
0
100
AcDbSpline
 62
7
  6
CONTINUOUS
 70
0
 71
3
 72
45
 73
41
 74
0
 42
0.0000001
 43
0.0000001
 44
0.0000000001
 40
0.0
 40
0.0
 40
0.0
 40
0.0
 40
0.0309549034
 40
0.0620432811
 40
0.0932611254
 40
0.1246017213
 40
0.15605678
 40
0.1876161421
 40
0.2192680867
 40
0.2509994878
 40
0.2827960299
 40
0.3146424271
 40
0.3465226554
 40
0.3784201916
 40
0.410318258
 40
0.4422000689
 40
0.4740490782
 40
0.5058492232
 40
0.5375851649
 40
0.5692425193
 40
0.6008080802
 40
0.6322700272
 40
0.6636181184
 40
0.6948438641
 40
0.7259406782
 40
0.7569040047
 40
0.7877314155
 40
0.8184226775
 40
0.833719794
 40
0.8489838096
 40
0.8642153207
 40
0.8794150599
 40
0.8945838973
 40
0.9097228295
 40
0.9248329874
 40
0.9399156194
 40
0.9549720991
 40
0.9700039099
 40
0.9850126451
 40
1.0
 40
1.0
 40
1.0
 40
1.0
 10
9.0724968222
 20
6.5179556781
 30
0.0
 10
9.0547636988
 20
6.5191854744
 30
0.0
 10
9.0192894371
 20
6.5227831073
 30
0.0
 10
8.9664208185
 20
6.5315350908
 30
0.0
 10
8.9139837292
 20
6.5436189458
 30
0.0
 10
8.8621943006
 20
6.558985158
 30
0.0
 10
8.8112625741
 20
6.5775708573
 30
0.0
 10
8.7613959295
 20
6.5993002046
 30
0.0
 10
8.7127971599
 20
6.6240845615
 30
0.0
 10
8.6656639504
 20
6.6518229206
 30
0.0
 10
8.6201880002
 20
6.6824022912
 30
0.0
 10
8.5765542692
 20
6.7156981582
 30
0.0
 10
8.5349402236
 20
6.7515749845
 30
0.0
 10
8.495515128
 20
6.7898867686
 30
0.0
 10
8.4584393612
 20
6.8304776323
 30
0.0
 10
8.4238637696
 20
6.8731824509
 30
0.0
 10
8.391929058
 20
6.9178275189
 30
0.0
 10
8.3627652216
 20
6.9642312505
 30
0.0
 10
8.3364910198
 20
7.0122049119
 30
0.0
 10
8.3132134958
 20
7.0615533816
 30
0.0
 10
8.293027529
 20
7.1120759303
 30
0.0
 10
8.2760154609
 20
7.1635670405
 30
0.0
 10
8.2622467583
 20
7.2158172207
 30
0.0
 10
8.2517777331
 20
7.2686138953
 30
0.0
 10
8.2446512881
 20
7.321742087
 30
0.0
 10
8.2408968131
 20
7.3749859237
 30
0.0
 10
8.2405297704
 20
7.428127132
 30
0.0
 10
8.2430516873
 20
7.4721994555
 30
0.0
 10
8.2467626828
 20
7.5071821522
 30
0.0
 10
8.2503842416
 20
7.5332326963
 30
0.0
 10
8.2548434113
 20
7.5590960153
 30
0.0
 10
8.260135606
 20
7.5847461138
 30
0.0
 10
8.2662554213
 20
7.6101567691
 30
0.0
 10
8.2731967383
 20
7.6353020851
 30
0.0
 10
8.2809523201
 20
7.6601564782
 30
0.0
 10
8.289514499
 20
7.6846945584
 30
0.0
 10
8.2988743104
 20
7.7088913739
 30
0.0
 10
8.3090224958
 20
7.7327222724
 30
0.0
 10
8.3199483558
 20
7.7561626984
 30
0.0
 10
8.3277490999
 20
7.7715245489
 30
0.0
 10
8.3317749363
 20
7.7791313313
 30
0.0
  0
SPLINE
  5
33E
100
AcDbEntity
  8
0
100
AcDbSpline
 62
7
  6
CONTINUOUS
 70
0
 71
3
 72
45
 73
41
 74
0
 42
0.0000001
 43
0.0000001
 44
0.0000000001
 40
0.0
 40
0.0
 40
0.0
 40
0.0
 40
0.0309847264
 40
0.0621059086
 40
0.0933592891
 40
0.1247377316
 40
0.1562324217
 40
0.1878325644
 40
0.2195257165
 40
0.2512979625
 40
0.2831341508
 40
0.3150181364
 40
0.3469330351
 40
0.3788614873
 40
0.4107859247
 40
0.442688841
 40
0.4745530608
 40
0.5063620054
 40
0.5380999521
 40
0.5697522845
 40
0.6013057297
 40
0.63274858
 40
0.6640708948
 40
0.6952646802
 40
0.7263240427
 40
0.757245313
 40
0.7880271361
 40
0.8186705262
 40
0.8339433911
 40
0.8491831205
 40
0.864390509
 40
0.8795664892
 40
0.8947121403
 40
0.90982867
 40
0.9249174243
 40
0.9399798697
 40
0.9550175957
 40
0.9700323049
 40
0.9850258035
 40
1.0
 40
1.0
 40
1.0
 40
1.0
 10
9.0724968222
 20
6.5430697511
 30
0.0
 10
9.05491894
 20
6.5442887814
 30
0.0
 10
9.0197549004
 20
6.5478799569
 30
0.0
 10
8.9673611831
 20
6.5566654212
 30
0.0
 10
8.9154142753
 20
6.5688244143
 30
0.0
 10
8.8641378281
 20
6.584304891
 30
0.0
 10
8.8137490634
 20
6.6030406854
 30
0.0
 10
8.7644622869
 20
6.624951937
 30
0.0
 10
8.7164868582
 20
6.6499452836
 30
0.0
 10
8.6700266162
 20
6.6779143297
 30
0.0
 10
8.6252789384
 20
6.7087400735
 30
0.0
 10
8.5824339254
 20
6.742291406
 30
0.0
 10
8.541673598
 20
6.7784256724
 30
0.0
 10
8.5031711359
 20
6.81698928
 30
0.0
 10
8.4670901472
 20
6.8578183437
 30
0.0
 10
8.4335839794
 20
6.9007393781
 30
0.0
 10
8.4027950731
 20
6.9455700275
 30
0.0
 10
8.3748543605
 20
6.9921198335
 30
0.0
 10
8.3498807143
 20
7.0401910377
 30
0.0
 10
8.3279804335
 20
7.0895794082
 30
0.0
 10
8.3092467929
 20
7.1400751005
 30
0.0
 10
8.2937596562
 20
7.1914635482
 30
0.0
 10
8.2815851308
 20
7.2435263502
 30
0.0
 10
8.2727752911
 20
7.2960422371
 30
0.0
 10
8.2673679218
 20
7.3487878216
 30
0.0
 10
8.2653864587
 20
7.4015392028
 30
0.0
 10
8.2668394693
 20
7.4540704451
 30
0.0
 10
8.2709129519
 20
7.497530631
 30
0.0
 10
8.2758803242
 20
7.5319569982
 30
0.0
 10
8.2804498286
 20
7.5575570475
 30
0.0
 10
8.285862249
 20
7.5829356411
 30
0.0
 10
8.2921119523
 20
7.6080661059
 30
0.0
 10
8.2991921218
 20
7.6329216371
 30
0.0
 10
8.3070954599
 20
7.6574757363
 30
0.0
 10
8.3158133184
 20
7.6817023321
 30
0.0
 10
8.3253366606
 20
7.7055755603
 30
0.0
 10
8.3356551633
 20
7.7290700459
 30
0.0
 10
8.3467580157
 20
7.7521608226
 30
0.0
 10
8.3586331685
 20
7.7748229692
 30
0.0
 10
8.3670619322
 20
7.7896389828
 30
0.0
 10
8.3714002585
 20
7.7969663766
 30
0.0
  0
SPLINE
  5
33F
100
AcDbEntity
  8
0
100
AcDbSpline
 62
7
  6
CONTINUOUS
 70
0
 71
3
 72
41
 73
37
 74
0
 42
0.0000001
 43
0.0000001
 44
0.0000000001
 40
0.0
 40
0.0
 40
0.0
 40
0.0
 40
0.0310022413
 40
0.0621426337
 40
0.0934167844
 40
0.1248173062
 40
0.156335073
 40
0.1879589182
 40
0.2196759739
 40
0.2514718622
 40
0.2833309432
 40
0.3152365715
 40
0.3471713648
 40
0.3791174808
 40
0.4110568991
 40
0.4429717044
 40
0.4748443694
 40
0.5066580332
 40
0.5383967726
 40
0.5700458624
 40
0.6015920214
 40
0.6330236409
 40
0.6643309924
 40
0.6955064095
 40
0.7265444422
 40
0.7574419784
 40
0.7881983287
 40
0.8188152715
 40
0.8492970549
 40
0.8796503544
 40
0.9098841827
 40
0.9400097534
 40
0.955038281
 40
0.9700448616
 40
0.9850314265
 40
1.0
 40
1.0
 40
1.0
 40
1.0
 10
9.0819108569
 20
6.5724474544
 30
0.0
 10
9.0645635585
 20
6.5736504937
 30
0.0
 10
9.0298606106
 20
6.5772086597
 30
0.0
 10
8.9781610831
 20
6.5859408511
 30
0.0
 10
8.9269134175
 20
6.5980421392
 30
0.0
 10
8.8763437114
 20
6.6134594436
 30
0.0
 10
8.8266714939
 20
6.6321252355
 30
0.0
 10
8.7781132498
 20
6.6539579821
 30
0.0
 10
8.7308803455
 20
6.678862356
 30
0.0
 10
8.6851784327
 20
6.7067297224
 30
0.0
 10
8.6412064645
 20
6.7374385707
 30
0.0
 10
8.5991558639
 20
6.7708550559
 30
0.0
 10
8.5592096979
 20
6.8068335871
 30
0.0
 10
8.5215418888
 20
6.8452174545
 30
0.0
 10
8.486316464
 20
6.8858395071
 30
0.0
 10
8.4536868479
 20
6.928522874
 30
0.0
 10
8.4237952004
 20
6.9730817278
 30
0.0
 10
8.396771797
 20
7.0193220827
 30
0.0
 10
8.3727344511
 20
7.0670426256
 30
0.0
 10
8.3517880204
 20
7.1160355963
 30
0.0
 10
8.3340239499
 20
7.1660876802
 30
0.0
 10
8.3195198731
 20
7.2169809269
 30
0.0
 10
8.3083392716
 20
7.2684936878
 30
0.0
 10
8.3005311934
 20
7.32040157
 30
0.0
 10
8.2961300344
 20
7.372478402
 30
0.0
 10
8.2951553573
 20
7.4244972111
 30
0.0
 10
8.2976118048
 20
7.4762311956
 30
0.0
 10
8.3034890924
 20
7.5274547522
 30
0.0
 10
8.31276195
 20
7.5779442822
 30
0.0
 10
8.3253905318
 20
7.6274798042
 30
0.0
 10
8.3413193899
 20
7.6758435451
 30
0.0
 10
8.3573016476
 20
7.7150314058
 30
0.0
 10
8.3716596508
 20
7.7455742484
 30
0.0
 10
8.3831953304
 20
7.7680439057
 30
0.0
 10
8.3954929168
 20
7.7900665864
 30
0.0
 10
8.4041957064
 20
7.8044434634
 30
0.0
 10
8.4086690126
 20
7.811548296
 30
0.0
  0
SPLINE
  5
340
100
AcDbEntity
  8
0
100
AcDbSpline
 62
7
  6
CONTINUOUS
 70
0
 71
3
 72
43
 73
39
 74
0
 42
0.0000001
 43
0.0000001
 44
0.0000000001
 40
0.0
 40
0.0
 40
0.0
 40
0.0
 40
0.0309458716
 40
0.0620243187
 40
0.0932313652
 40
0.1245604432
 40
0.1560034217
 40
0.1875503318
 40
0.219189673
 40
0.2509085586
 40
0.282692928
 40
0.3145277579
 40
0.3463972879
 40
0.3782852523
 40
0.4101751176
 40
0.4420503228
 40
0.4738945201
 40
0.5056918124
 40
0.5374269875
 40
0.5690857446
 40
0.6006549107
 40
0.6321226458
 40
0.663478632
 40
0.6947142449
 40
0.7258227047
 40
0.7567992025
 40
0.7876410008
 40
0.8183475033
 40
0.8336524017
 40
0.8489242511
 40
0.8641635946
 40
0.879371101
 40
0.9096899045
 40
0.9398926599
 40
0.9549556264
 40
0.9699934711
 40
0.9850077185
 40
1.0
 40
1.0
 40
1.0
 40
1.0
 10
9.1532482976
 20
6.6413541349
 30
0.0
 10
9.1365983805
 20
6.6425088106
 30
0.0
 10
9.1032911031
 20
6.6458793203
 30
0.0
 10
9.0536483667
 20
6.654064282
 30
0.0
 10
9.0044052652
 20
6.6653567325
 30
0.0
 10
8.9557620074
 20
6.6797110214
 30
0.0
 10
8.9079131753
 20
6.6970692264
 30
0.0
 10
8.8610509395
 20
6.7173614844
 30
0.0
 10
8.8153632749
 20
6.7405061456
 30
0.0
 10
8.7710334886
 20
6.7664101709
 30
0.0
 10
8.7282394151
 20
6.7949694766
 30
0.0
 10
8.6871527318
 20
6.8260693611
 30
0.0
 10
8.64793827
 20
6.8595849595
 30
0.0
 10
8.6107533615
 20
6.8953817432
 30
0.0
 10
8.5757472074
 20
6.9333160513
 30
0.0
 10
8.5430602869
 20
6.9732356677
 30
0.0
 10
8.5128237986
 20
7.0149804278
 30
0.0
 10
8.4851591374
 20
7.0583828559
 30
0.0
 10
8.46017741
 20
7.1032688311
 30
0.0
 10
8.4379789917
 20
7.1494582803
 30
0.0
 10
8.4186531244
 20
7.1967658924
 30
0.0
 10
8.4022775588
 20
7.2450018583
 30
0.0
 10
8.3889182407
 20
7.2939726124
 30
0.0
 10
8.3786290485
 20
7.343481645
 30
0.0
 10
8.3714515542
 20
7.393330123
 30
0.0
 10
8.3674149187
 20
7.44331827
 30
0.0
 10
8.3665354965
 20
7.4932439748
 30
0.0
 10
8.3684395187
 20
7.5346799168
 30
0.0
 10
8.3715432934
 20
7.5675902181
 30
0.0
 10
8.3746542945
 20
7.5921078634
 30
0.0
 10
8.3785476384
 20
7.6164603358
 30
0.0
 10
8.3847698366
 20
7.648641625
 30
0.0
 10
8.3944786591
 20
7.6883454248
 30
0.0
 10
8.4067509682
 20
7.7272520692
 30
0.0
 10
8.4180647047
 20
7.7577493835
 30
0.0
 10
8.4272820969
 20
7.7802727659
 30
0.0
 10
8.4372288828
 20
7.8024413449
 30
0.0
 10
8.4443450456
 20
7.8169800993
 30
0.0
 10
8.4480209959
 20
7.8241819277
 30
0.0
  0
SPLINE
  5
341
100
AcDbEntity
  8
0
100
AcDbSpline
 62
7
  6
CONTINUOUS
 70
0
 71
3
 72
45
 73
41
 74
0
 42
0.0000001
 43
0.0000001
 44
0.0000000001
 40
0.0
 40
0.0
 40
0.0
 40
0.0
 40
0.0309940926
 40
0.0621256184
 40
0.0933901778
 40
0.1247805253
 40
0.1562876746
 40
0.1879006226
 40
0.2196066948
 40
0.2513917201
 40
0.283240279
 40
0.3151359509
 40
0.3470615773
 40
0.378999532
 40
0.4109319968
 40
0.4428412388
 40
0.4747098877
 40
0.5065212078
 40
0.5382593645
 40
0.5699096791
 40
0.6014588715
 40
0.6328952856
 40
0.6642090941
 40
0.6953924803
 40
0.7264397914
 40
0.7573476614
 40
0.7881150984
 40
0.8187435345
 40
0.8340088885
 40
0.8492411418
 40
0.8644411554
 40
0.8796099266
 40
0.894748603
 40
0.9098584607
 40
0.9249409152
 40
0.9399975027
 40
0.9550298824
 40
0.9700398255
 40
0.9850292065
 40
1.0
 40
1.0
 40
1.0
 40
1.0
 10
9.1739538041
 20
6.7386281903
 30
0.0
 10
9.1583966966
 20
6.7397070793
 30
0.0
 10
9.1272750457
 20
6.7428924018
 30
0.0
 10
9.0809079556
 20
6.7506985982
 30
0.0
 10
9.0349416982
 20
6.7615102596
 30
0.0
 10
8.9895768923
 20
6.7752804613
 30
0.0
 10
8.9450083263
 20
6.7919495472
 30
0.0
 10
8.9014281394
 20
6.8114454958
 30
0.0
 10
8.8590239734
 20
6.8336840982
 30
0.0
 10
8.8179784509
 20
6.8585693931
 30
0.0
 10
8.7784683192
 20
6.8859940504
 30
0.0
 10
8.7406637195
 20
6.9158398425
 30
0.0
 10
8.7047274543
 20
6.9479781468
 30
0.0
 10
8.6708142955
 20
6.9822704978
 30
0.0
 10
8.6390703195
 20
7.0185691764
 30
0.0
 10
8.6096322825
 20
7.0567178413
 30
0.0
 10
8.5826270392
 20
7.0965522008
 30
0.0
 10
8.5581709994
 20
7.1379007127
 30
0.0
 10
8.536369629
 20
7.1805853165
 30
0.0
 10
8.5173169982
 20
7.2244221931
 30
0.0
 10
8.5010953769
 20
7.269222547
 30
0.0
 10
8.4877748798
 20
7.3147934141
 30
0.0
 10
8.4774131601
 20
7.3609384719
 30
0.0
 10
8.4700551657
 20
7.4074589192
 30
0.0
 10
8.4657329091
 20
7.4541541627
 30
0.0
 10
8.4644654317
 20
7.5008232681
 30
0.0
 10
8.4662582945
 20
7.5472636105
 30
0.0
 10
8.4703018615
 20
7.5856540702
 30
0.0
 10
8.4750567061
 20
7.6160442659
 30
0.0
 10
8.479373213
 20
7.6386325415
 30
0.0
 10
8.4844389529
 20
7.6610146221
 30
0.0
 10
8.4902486861
 20
7.6831666396
 30
0.0
 10
8.496795912
 20
7.7050646648
 30
0.0
 10
8.5040738408
 20
7.7266850132
 30
0.0
 10
8.5120743624
 20
7.7480044321
 30
0.0
 10
8.5207891047
 20
7.7689998302
 30
0.0
 10
8.5302084472
 20
7.7896486101
 30
0.0
 10
8.5403224473
 20
7.8099284967
 30
0.0
 10
8.5511198962
 20
7.829817346
 30
0.0
 10
8.5587709878
 20
7.8428097784
 30
0.0
 10
8.562706019
 20
7.8492326611
 30
0.0
  0
SPLINE
  5
342
100
AcDbEntity
  8
0
100
AcDbSpline
 62
7
  6
CONTINUOUS
 70
0
 71
3
 72
35
 73
31
 74
0
 42
0.0000001
 43
0.0000001
 44
0.0000000001
 40
0.0
 40
0.0
 40
0.0
 40
0.0
 40
0.0308202975
 40
0.0617171411
 40
0.0926876204
 40
0.123728537
 40
0.1548361463
 40
0.1860063335
 40
0.2172346354
 40
0.248516232
 40
0.279846
 40
0.3112185421
 40
0.3740582858
 40
0.4369988397
 40
0.4999903561
 40
0.5629818319
 40
0.5944669789
 40
0.6259330617
 40
0.6573739023
 40
0.6887834589
 40
0.7201558724
 40
0.7514854996
 40
0.7827669352
 40
0.813995059
 40
0.8451650607
 40
0.876272461
 40
0.907313157
 40
0.9382834369
 40
0.9691800009
 40
1.0
 40
1.0
 40
1.0
 40
1.0
 10
9.5357478066
 20
7.1925611047
 30
0.0
 10
9.5264550044
 20
7.1944588915
 30
0.0
 10
9.5079180239
 20
7.1986204039
 30
0.0
 10
9.480342118
 20
7.2059379052
 30
0.0
 10
9.4530017417
 20
7.2143272581
 30
0.0
 10
9.4259403753
 20
7.2237752459
 30
0.0
 10
9.3992003353
 20
7.2342670777
 30
0.0
 10
9.3728235996
 20
7.2457861474
 30
0.0
 10
9.346851565
 20
7.2583144851
 30
0.0
 10
9.3213251004
 20
7.2718323149
 30
0.0
 10
9.2962838025
 20
7.2863186318
 30
0.0
 10
9.2635813569
 20
7.3069030589
 30
0.0
 10
9.2241155354
 20
7.3349393938
 30
0.0
 10
9.1793401279
 20
7.372033303
 30
0.0
 10
9.1373950915
 20
7.4123672745
 30
0.0
 10
9.1050094642
 20
7.4484799182
 30
0.0
 10
9.0807691998
 20
7.4787307735
 30
0.0
 10
9.0634525037
 20
7.5020616604
 30
0.0
 10
9.0470262837
 20
7.5259991585
 30
0.0
 10
9.0315160761
 20
7.5505061477
 30
0.0
 10
9.0169462208
 20
7.5755439983
 30
0.0
 10
9.0033395811
 20
7.6010734589
 30
0.0
 10
8.990717627
 20
7.6270545057
 30
0.0
 10
8.9791000601
 20
7.6534463086
 30
0.0
 10
8.9685051662
 20
7.6802074679
 30
0.0
 10
8.958949671
 20
7.7072960237
 30
0.0
 10
8.9504484711
 20
7.7346693767
 30
0.0
 10
8.9430149595
 20
7.7622847372
 30
0.0
 10
8.9366610018
 20
7.7900982212
 30
0.0
 10
8.9331465757
 20
7.8087685158
 30
0.0
 10
8.9315731589
 20
7.8181216108
 30
0.0
  0
SPLINE
  5
343
100
AcDbEntity
  8
0
100
AcDbSpline
 62
7
  6
CONTINUOUS
 70
0
 71
3
 72
26
 73
22
 74
0
 42
0.0000001
 43
0.0000001
 44
0.0000000001
 40
0.0
 40
0.0
 40
0.0
 40
0.0
 40
0.0308876139
 40
0.0618412546
 40
0.0928581293
 40
0.1239350675
 40
0.1550686263
 40
0.1862551053
 40
0.248761601
 40
0.3114292687
 40
0.374220569
 40
0.4370956199
 40
0.5000129603
 40
0.5629303343
 40
0.6258054842
 40
0.6885969463
 40
0.7512648364
 40
0.8137716122
 40
0.8760828045
 40
0.9381677046
 40
1.0
 40
1.0
 40
1.0
 40
1.0
 10
9.5159781521
 20
7.2551658771
 30
0.0
 10
9.5081113089
 20
7.2572305108
 30
0.0
 10
9.4924318763
 20
7.2616405901
 30
0.0
 10
9.469134589
 20
7.2690787916
 30
0.0
 10
9.4460622372
 20
7.2773378868
 30
0.0
 10
9.4232453674
 20
7.2864071464
 30
0.0
 10
9.4007131705
 20
7.296274782
 30
0.0
 10
9.3710702032
 20
7.3104880467
 30
0.0
 10
9.3348766383
 20
7.3301878019
 30
0.0
 10
9.2930819498
 20
7.3567696554
 30
0.0
 10
9.25310248
 20
7.3861763392
 30
0.0
 10
9.2151472587
 20
7.4182542976
 30
0.0
 10
9.1794130451
 20
7.4528369757
 30
0.0
 10
9.1460855757
 20
7.4897446413
 30
0.0
 10
9.1153380114
 20
7.5287855979
 30
0.0
 10
9.0873301794
 20
7.5697570391
 30
0.0
 10
9.0622076795
 20
7.6124462164
 30
0.0
 10
9.040101266
 20
7.6566311917
 30
0.0
 10
9.0211258493
 20
7.7020833071
 30
0.0
 10
9.0053810654
 20
7.7485633852
 30
0.0
 10
8.9970734302
 20
7.7801500787
 30
0.0
 10
8.9934868833
 20
7.796031688
 30
0.0
  0
SPLINE
  5
344
100
AcDbEntity
  8
0
100
AcDbSpline
 62
7
  6
CONTINUOUS
 70
0
 71
3
 72
23
 73
19
 74
0
 42
0.0000001
 43
0.0000001
 44
0.0000000001
 40
0.0
 40
0.0
 40
0.0
 40
0.0
 40
0.0766666101
 40
0.1505171538
 40
0.2216740311
 40
0.2902819188
 40
0.3565130767
 40
0.4205629077
 40
0.48265058
 40
0.5430194167
 40
0.6019365605
 40
0.6596926713
 40
0.7165984255
 40
0.772979827
 40
0.8291730551
 40
0.8855178365
 40
0.9423510478
 40
1.0
 40
1.0
 40
1.0
 40
1.0
 10
8.2849752838
 20
10.2476324214
 30
0.0
 10
8.2835452521
 20
10.2462511168
 30
0.0
 10
8.2807927054
 20
10.2434814384
 30
0.0
 10
8.2769260341
 20
10.2392247211
 30
0.0
 10
8.2734023497
 20
10.2349470665
 30
0.0
 10
8.2702236296
 20
10.2306503355
 30
0.0
 10
8.2673912862
 20
10.2263363045
 30
0.0
 10
8.2649067413
 20
10.2220065833
 30
0.0
 10
8.2627713284
 20
10.2176628771
 30
0.0
 10
8.2609862117
 20
10.2133070459
 30
0.0
 10
8.2595526895
 20
10.2089409618
 30
0.0
 10
8.2584717642
 20
10.2045666927
 30
0.0
 10
8.2577441887
 20
10.2001864195
 30
0.0
 10
8.25737072
 20
10.1958024031
 30
0.0
 10
8.2573515715
 20
10.1914170696
 30
0.0
 10
8.2576867667
 20
10.1870327418
 30
0.0
 10
8.2583760606
 20
10.1826521444
 30
0.0
 10
8.2590652182
 20
10.1797608295
 30
0.0
 10
8.2594658166
 20
10.1783204762
 30
0.0
  0
SPLINE
  5
345
100
AcDbEntity
  8
0
100
AcDbSpline
 62
7
  6
CONTINUOUS
 70
0
 71
3
 72
25
 73
21
 74
0
 42
0.0000001
 43
0.0000001
 44
0.0000000001
 40
0.0
 40
0.0
 40
0.0
 40
0.0
 40
0.0638612781
 40
0.0957121911
 40
0.1275067411
 40
0.190926209
 40
0.2541301216
 40
0.2856554877
 40
0.3171294121
 40
0.3799223073
 40
0.44252455
 40
0.5049487613
 40
0.5672094491
 40
0.629322891
 40
0.6913069674
 40
0.7531809757
 40
0.8149654269
 40
0.8766818235
 40
0.9383524247
 40
1.0
 40
1.0
 40
1.0
 40
1.0
 10
8.7352558847
 20
6.1922059277
 30
0.0
 10
8.7491385508
 20
6.1912431615
 30
0.0
 10
8.7699862082
 20
6.1903186712
 30
0.0
 10
8.7977727066
 20
6.1901359518
 30
0.0
 10
8.8254592877
 20
6.1906523446
 30
0.0
 10
8.8599405466
 20
6.1926056538
 30
0.0
 10
8.8942194554
 20
6.1963074224
 30
0.0
 10
8.9214300732
 20
6.2003113076
 30
0.0
 10
8.9484402667
 20
6.2049990542
 30
0.0
 10
8.9818849136
 20
6.2121469518
 30
0.0
 10
9.0214276235
 20
6.2227740965
 30
0.0
 10
9.0602511771
 20
6.2354179202
 30
0.0
 10
9.0982571017
 20
6.2500465976
 30
0.0
 10
9.1353498235
 20
6.2666233924
 30
0.0
 10
9.1714358257
 20
6.2851066097
 30
0.0
 10
9.2064242064
 20
6.305449774
 30
0.0
 10
9.2402267054
 20
6.3276016111
 30
0.0
 10
9.2727584285
 20
6.3515066357
 30
0.0
 10
9.3039362759
 20
6.3771035918
 30
0.0
 10
9.3237705297
 20
6.3952569533
 30
0.0
 10
9.3334327169
 20
6.404589924
 30
0.0
  0
SPLINE
  5
346
100
AcDbEntity
  8
0
100
AcDbSpline
 62
7
  6
CONTINUOUS
 70
0
 71
3
 72
52
 73
48
 74
0
 42
0.0000001
 43
0.0000001
 44
0.0000000001
 40
0.0
 40
0.0
 40
0.0
 40
0.0
 40
0.0417975951
 40
0.0840616288
 40
0.1266599
 40
0.1694646819
 40
0.2123442235
 40
0.2551675716
 40
0.2978037564
 40
0.3401225587
 40
0.3819950468
 40
0.4232940448
 40
0.4638946794
 40
0.5036749394
 40
0.5425162168
 40
0.5803038545
 40
0.6169277287
 40
0.6522828762
 40
0.6862702207
 40
0.7187973048
 40
0.7497791232
 40
0.7646666939
 40
0.7791400459
 40
0.7931910474
 40
0.8068124878
 40
0.8199977024
 40
0.8327409898
 40
0.8450375569
 40
0.8568834717
 40
0.8682761438
 40
0.8792139942
 40
0.8896969854
 40
0.8997266536
 40
0.9093062033
 40
0.9184411394
 40
0.9271391328
 40
0.9354107775
 40
0.9432698769
 40
0.9507338665
 40
0.9578247066
 40
0.9645691138
 40
0.9709994856
 40
0.9771542525
 40
0.9830781055
 40
0.9888220386
 40
0.9944424568
 40
1.0
 40
1.0
 40
1.0
 40
1.0
 10
9.4993333947
 20
11.4224316107
 30
0.0
 10
9.492948538
 20
11.422874402
 30
0.0
 10
9.4801002809
 20
11.4236628418
 30
0.0
 10
9.460725394
 20
11.4245527208
 30
0.0
 10
9.4411850903
 20
11.4251545408
 30
0.0
 10
9.4215437723
 20
11.4254663891
 30
0.0
 10
9.401865525
 20
11.4254871864
 30
0.0
 10
9.3822149403
 20
11.4252168781
 30
0.0
 10
9.3626563794
 20
11.424656357
 30
0.0
 10
9.3432539316
 20
11.4238074775
 30
0.0
 10
9.3240711686
 20
11.4226730434
 30
0.0
 10
9.3051709373
 20
11.4212567973
 30
0.0
 10
9.2866151545
 20
11.4195634092
 30
0.0
 10
9.2684645941
 20
11.41759848
 30
0.0
 10
9.2507786853
 20
11.4153685083
 30
0.0
 10
9.2336153212
 20
11.4128808676
 30
0.0
 10
9.2170306627
 20
11.410143785
 30
0.0
 10
9.2010789582
 20
11.407166308
 30
0.0
 10
9.1858122911
 20
11.403958307
 30
0.0
 10
9.1712805994
 20
11.4005303889
 30
0.0
 10
9.1596735292
 20
11.3974606731
 30
0.0
 10
9.1507962979
 20
11.3948962573
 30
0.0
 10
9.1444396804
 20
11.3929507188
 30
0.0
 10
9.1383008971
 20
11.3909589317
 30
0.0
 10
9.1323849386
 20
11.3889225914
 30
0.0
 10
9.1266966435
 20
11.3868433127
 30
0.0
 10
9.1212406447
 20
11.3847228178
 30
0.0
 10
9.1160213735
 20
11.3825628754
 30
0.0
 10
9.1110430937
 20
11.3803651747
 30
0.0
 10
9.1063098162
 20
11.3781315971
 30
0.0
 10
9.1018253923
 20
11.3758638849
 30
0.0
 10
9.0975934355
 20
11.3735638946
 30
0.0
 10
9.0936173321
 20
11.3712335076
 30
0.0
 10
9.0899003115
 20
11.3688744917
 30
0.0
 10
9.0864452906
 20
11.366488805
 30
0.0
 10
9.0832550649
 20
11.3640782082
 30
0.0
 10
9.0803321623
 20
11.3616445588
 30
0.0
 10
9.0776788893
 20
11.3591896874
 30
0.0
 10
9.0752974806
 20
11.3567152619
 30
0.0
 10
9.0731898342
 20
11.3542231084
 30
0.0
 10
9.0713579158
 20
11.3517148193
 30
0.0
 10
9.0698034973
 20
11.3491921199
 30
0.0
 10
9.0685282882
 20
11.3466567645
 30
0.0
 10
9.0675341457
 20
11.3441106319
 30
0.0
 10
9.0668225251
 20
11.3415558606
 30
0.0
 10
9.0663949684
 20
11.3389953565
 30
0.0
 10
9.0662997277
 20
11.3372822665
 30
0.0
 10
9.0662997351
 20
11.3364312763
 30
0.0
  0
SPLINE
  5
347
100
AcDbEntity
  8
0
100
AcDbSpline
 62
7
  6
CONTINUOUS
 70
0
 71
3
 72
20
 73
16
 74
0
 42
0.0000001
 43
0.0000001
 44
0.0000000001
 40
0.0
 40
0.0
 40
0.0
 40
0.0
 40
0.1269277606
 40
0.1901732441
 40
0.2532681101
 40
0.3162150871
 40
0.3790159197
 40
0.4416738831
 40
0.5041930774
 40
0.6288142879
 40
0.7529442159
 40
0.8148519409
 40
0.8766582295
 40
0.9383713417
 40
1.0
 40
1.0
 40
1.0
 40
1.0
 10
9.0724968222
 20
6.5430697511
 30
0.0
 10
9.0909959108
 20
6.5417868349
 30
0.0
 10
9.1187914394
 20
6.5408137954
 30
0.0
 10
9.1557923124
 20
6.5414450633
 30
0.0
 10
9.1834151366
 20
6.5428793697
 30
0.0
 10
9.2109056269
 20
6.5452733513
 30
0.0
 10
9.2382317373
 20
6.5486243902
 30
0.0
 10
9.2653610954
 20
6.5529284083
 30
0.0
 10
9.3011854164
 20
6.5599225712
 30
0.0
 10
9.3453292814
 20
6.5710155485
 30
0.0
 10
9.3884783719
 20
6.5852226523
 30
0.0
 10
9.4222111986
 20
6.5984003643
 30
0.0
 10
9.4470754137
 20
6.6091697781
 30
0.0
 10
9.4714934237
 20
6.620819933
 30
0.0
 10
9.4874666662
 20
6.6291706501
 30
0.0
 10
9.4953679207
 20
6.6334875669
 30
0.0
  0
SPLINE
  5
348
100
AcDbEntity
  8
0
100
AcDbSpline
 62
7
  6
CONTINUOUS
 70
0
 71
3
 72
39
 73
35
 74
0
 42
0.0000001
 43
0.0000001
 44
0.0000000001
 40
0.0
 40
0.0
 40
0.0
 40
0.0
 40
0.0064813485
 40
0.0130002985
 40
0.0195937285
 40
0.026297146
 40
0.0331442162
 40
0.0401663079
 40
0.05484089
 40
0.0705272863
 40
0.0873816519
 40
0.1055233038
 40
0.1250399977
 40
0.1459941136
 40
0.1684273795
 40
0.192364659
 40
0.2178175573
 40
0.2447860489
 40
0.2732611697
 40
0.3032256797
 40
0.334655689
 40
0.3675213604
 40
0.4017874193
 40
0.4374142301
 40
0.4743575615
 40
0.5125697352
 40
0.5519993246
 40
0.5925918809
 40
0.6342900708
 40
0.6770336885
 40
0.7207603521
 40
0.8109000934
 40
0.9041686777
 40
1.0
 40
1.0
 40
1.0
 40
1.0
 10
9.7542996982
 20
11.3364320768
 30
0.0
 10
9.754299693
 20
11.3370395105
 30
0.0
 10
9.7542513965
 20
11.338258446
 30
0.0
 10
9.7540342802
 20
11.3400836862
 30
0.0
 10
9.7536726568
 20
11.3419071488
 30
0.0
 10
9.7531668469
 20
11.3437277859
 30
0.0
 10
9.7525171261
 20
11.3455448385
 30
0.0
 10
9.7514439863
 20
11.3479972541
 30
0.0
 10
9.7497225657
 20
11.3510601173
 30
0.0
 10
9.7471199703
 20
11.3546489035
 30
0.0
 10
9.7439567936
 20
11.3582016829
 30
0.0
 10
9.7402390618
 20
11.3617138293
 30
0.0
 10
9.7359729677
 20
11.3651813221
 30
0.0
 10
9.7311652634
 20
11.3685993871
 30
0.0
 10
9.7258235137
 20
11.3719630397
 30
0.0
 10
9.7199562236
 20
11.3752671866
 30
0.0
 10
9.713572758
 20
11.3785064822
 30
0.0
 10
9.706683491
 20
11.3816757858
 30
0.0
 10
9.6992996336
 20
11.3847697867
 30
0.0
 10
9.6914333276
 20
11.3877834162
 30
0.0
 10
9.6830975406
 20
11.3907116241
 30
0.0
 10
9.6743060663
 20
11.3935494853
 30
0.0
 10
9.6650734993
 20
11.3962922971
 30
0.0
 10
9.6554151781
 20
11.3989353705
 30
0.0
 10
9.6453471897
 20
11.4014743476
 30
0.0
 10
9.6348863078
 20
11.4039048873
 30
0.0
 10
9.6240499827
 20
11.4062229466
 30
0.0
 10
9.6128562962
 20
11.408424618
 30
0.0
 10
9.6013239442
 20
11.4105061681
 30
0.0
 10
9.5894721765
 20
11.4124641736
 30
0.0
 10
9.5731045585
 20
11.4149305137
 30
0.0
 10
9.5519917484
 20
11.4176704016
 30
0.0
 10
9.5259603441
 20
11.4203870782
 30
0.0
 10
9.5082932116
 20
11.4218102452
 30
0.0
 10
9.4993333947
 20
11.4224316107
 30
0.0
  0
SPLINE
  5
349
100
AcDbEntity
  8
0
100
AcDbSpline
 62
7
  6
CONTINUOUS
 70
0
 71
3
 72
23
 73
19
 74
0
 42
0.0000001
 43
0.0000001
 44
0.0000000001
 40
0.0
 40
0.0
 40
0.0
 40
0.0
 40
0.0635818389
 40
0.1270091306
 40
0.1902751703
 40
0.2533841463
 40
0.3163386361
 40
0.3791408509
 40
0.4417946838
 40
0.5043047841
 40
0.5666764136
 40
0.6289156726
 40
0.6910293913
 40
0.7530250751
 40
0.8149109089
 40
0.8766956783
 40
0.9383887458
 40
1.0
 40
1.0
 40
1.0
 40
1.0
 10
9.0819108569
 20
6.5724474544
 30
0.0
 10
9.0913528796
 20
6.5717926479
 30
0.0
 10
9.1102392146
 20
6.5708227884
 30
0.0
 10
9.1385658936
 20
6.570391211
 30
0.0
 10
9.1668196468
 20
6.5709855462
 30
0.0
 10
9.1949626594
 20
6.572604942
 30
0.0
 10
9.2229588515
 20
6.5752471242
 30
0.0
 10
9.2507717164
 20
6.5789089351
 30
0.0
 10
9.2783650042
 20
6.583585494
 30
0.0
 10
9.3057028386
 20
6.5892706951
 30
0.0
 10
9.3327496055
 20
6.5959573169
 30
0.0
 10
9.3594701327
 20
6.6036364985
 30
0.0
 10
9.3858296091
 20
6.6122983674
 30
0.0
 10
9.4117937175
 20
6.6219316832
 30
0.0
 10
9.4373286687
 20
6.6325237824
 30
0.0
 10
9.4624012694
 20
6.6440611323
 30
0.0
 10
9.4869784695
 20
6.6565283255
 30
0.0
 10
9.5030225464
 20
6.6654549943
 30
0.0
 10
9.5109498525
 20
6.6700671208
 30
0.0
  0
SPLINE
  5
34A
100
AcDbEntity
  8
0
100
AcDbSpline
 62
7
  6
CONTINUOUS
 70
0
 71
3
 72
39
 73
35
 74
0
 42
0.0000001
 43
0.0000001
 44
0.0000000001
 40
0.0
 40
0.0
 40
0.0
 40
0.0
 40
0.0064813485
 40
0.0130002985
 40
0.0195937285
 40
0.026297146
 40
0.0331442162
 40
0.0401663079
 40
0.05484089
 40
0.0705272863
 40
0.0873816519
 40
0.1055233038
 40
0.1250399977
 40
0.1459941136
 40
0.1684273795
 40
0.192364659
 40
0.2178175573
 40
0.2447860489
 40
0.2732611697
 40
0.3032256797
 40
0.334655689
 40
0.3675213604
 40
0.4017874193
 40
0.4374142301
 40
0.4743575615
 40
0.5125697352
 40
0.5519993246
 40
0.5925918809
 40
0.6342900708
 40
0.6770336885
 40
0.7207603521
 40
0.8109000934
 40
0.9041686777
 40
1.0
 40
1.0
 40
1.0
 40
1.0
 10
14.5839291158
 20
11.0014961391
 30
0.0
 10
14.5839291106
 20
11.0021035728
 30
0.0
 10
14.5838808141
 20
11.0033225083
 30
0.0
 10
14.5836636978
 20
11.0051477485
 30
0.0
 10
14.5833020744
 20
11.006971211
 30
0.0
 10
14.5827962646
 20
11.0087918482
 30
0.0
 10
14.5821465437
 20
11.0106089008
 30
0.0
 10
14.5810734039
 20
11.0130613164
 30
0.0
 10
14.5793519833
 20
11.0161241796
 30
0.0
 10
14.5767493879
 20
11.0197129658
 30
0.0
 10
14.5735862112
 20
11.0232657452
 30
0.0
 10
14.5698684794
 20
11.0267778916
 30
0.0
 10
14.5656023853
 20
11.0302453844
 30
0.0
 10
14.560794681
 20
11.0336634494
 30
0.0
 10
14.5554529313
 20
11.037027102
 30
0.0
 10
14.5495856412
 20
11.0403312489
 30
0.0
 10
14.5432021756
 20
11.0435705445
 30
0.0
 10
14.5363129086
 20
11.0467398481
 30
0.0
 10
14.5289290512
 20
11.049833849
 30
0.0
 10
14.5210627452
 20
11.0528474785
 30
0.0
 10
14.5127269582
 20
11.0557756864
 30
0.0
 10
14.5039354839
 20
11.0586135476
 30
0.0
 10
14.494702917
 20
11.0613563594
 30
0.0
 10
14.4850445957
 20
11.0639994327
 30
0.0
 10
14.4749766073
 20
11.0665384099
 30
0.0
 10
14.4645157254
 20
11.0689689496
 30
0.0
 10
14.4536794003
 20
11.0712870089
 30
0.0
 10
14.4424857138
 20
11.0734886803
 30
0.0
 10
14.4309533618
 20
11.0755702304
 30
0.0
 10
14.4191015941
 20
11.0775282359
 30
0.0
 10
14.4027339761
 20
11.079994576
 30
0.0
 10
14.381621166
 20
11.0827344639
 30
0.0
 10
14.3555897618
 20
11.0854511405
 30
0.0
 10
14.3379226292
 20
11.0868743075
 30
0.0
 10
14.3289628123
 20
11.0874956729
 30
0.0
  0
SPLINE
  5
34B
100
AcDbEntity
  8
0
100
AcDbSpline
 62
7
  6
CONTINUOUS
 70
0
 71
3
 72
18
 73
14
 74
0
 42
0.0000001
 43
0.0000001
 44
0.0000000001
 40
0.0
 40
0.0
 40
0.0
 40
0.0
 40
0.1267615068
 40
0.2529817998
 40
0.3786697411
 40
0.5038405966
 40
0.6285187253
 40
0.6906906246
 40
0.7527519087
 40
0.814707731
 40
0.8765636369
 40
0.9383256122
 40
1.0
 40
1.0
 40
1.0
 40
1.0
 10
9.1532482976
 20
6.6413541349
 30
0.0
 10
9.1693670437
 20
6.6402362961
 30
0.0
 10
9.2016130183
 20
6.6389898269
 30
0.0
 10
9.2498960654
 20
6.6401123078
 30
0.0
 10
9.2978156659
 20
6.6442263907
 30
0.0
 10
9.3451861807
 20
6.6513166287
 30
0.0
 10
9.3840956242
 20
6.6596921756
 30
0.0
 10
9.4147605826
 20
6.6678501143
 30
0.0
 10
9.4374917699
 20
6.6746851867
 30
0.0
 10
9.4599527905
 20
6.6822354026
 30
0.0
 10
9.4821226288
 20
6.6904938621
 30
0.0
 10
9.503979913
 20
6.6994523645
 30
0.0
 10
9.5183395825
 20
6.7058905598
 30
0.0
 10
9.5254594485
 20
6.7092231957
 30
0.0
  0
SPLINE
  5
34C
100
AcDbEntity
  8
0
100
AcDbSpline
 62
7
  6
CONTINUOUS
 70
0
 71
3
 72
39
 73
35
 74
0
 42
0.0000001
 43
0.0000001
 44
0.0000000001
 40
0.0
 40
0.0
 40
0.0
 40
0.0
 40
0.0064813485
 40
0.0130002985
 40
0.0195937285
 40
0.026297146
 40
0.0331442162
 40
0.0401663079
 40
0.05484089
 40
0.0705272863
 40
0.0873816519
 40
0.1055233038
 40
0.1250399977
 40
0.1459941136
 40
0.1684273795
 40
0.192364659
 40
0.2178175573
 40
0.2447860489
 40
0.2732611697
 40
0.3032256797
 40
0.334655689
 40
0.3675213604
 40
0.4017874193
 40
0.4374142301
 40
0.4743575615
 40
0.5125697352
 40
0.5519993246
 40
0.5925918809
 40
0.6342900708
 40
0.6770336885
 40
0.7207603521
 40
0.8109000934
 40
0.9041686777
 40
1.0
 40
1.0
 40
1.0
 40
1.0
 10
14.001586745
 20
10.43899657
 30
0.0
 10
14.0015867397
 20
10.4396040037
 30
0.0
 10
14.0015384432
 20
10.4408229392
 30
0.0
 10
14.0013213269
 20
10.4426481794
 30
0.0
 10
14.0009597035
 20
10.4444716419
 30
0.0
 10
14.0004538937
 20
10.4462922791
 30
0.0
 10
13.9998041728
 20
10.4481093317
 30
0.0
 10
13.998731033
 20
10.4505617473
 30
0.0
 10
13.9970096125
 20
10.4536246105
 30
0.0
 10
13.9944070171
 20
10.4572133966
 30
0.0
 10
13.9912438403
 20
10.4607661761
 30
0.0
 10
13.9875261086
 20
10.4642783225
 30
0.0
 10
13.9832600144
 20
10.4677458152
 30
0.0
 10
13.9784523101
 20
10.4711638803
 30
0.0
 10
13.9731105604
 20
10.4745275329
 30
0.0
 10
13.9672432703
 20
10.4778316798
 30
0.0
 10
13.9608598047
 20
10.4810709754
 30
0.0
 10
13.9539705377
 20
10.484240279
 30
0.0
 10
13.9465866804
 20
10.4873342799
 30
0.0
 10
13.9387203743
 20
10.4903479094
 30
0.0
 10
13.9303845873
 20
10.4932761173
 30
0.0
 10
13.921593113
 20
10.4961139785
 30
0.0
 10
13.9123605461
 20
10.4988567903
 30
0.0
 10
13.9027022248
 20
10.5014998636
 30
0.0
 10
13.8926342364
 20
10.5040388408
 30
0.0
 10
13.8821733545
 20
10.5064693805
 30
0.0
 10
13.8713370294
 20
10.5087874398
 30
0.0
 10
13.8601433429
 20
10.5109891112
 30
0.0
 10
13.8486109909
 20
10.5130706613
 30
0.0
 10
13.8367592232
 20
10.5150286668
 30
0.0
 10
13.8203916052
 20
10.5174950069
 30
0.0
 10
13.7992787951
 20
10.5202348947
 30
0.0
 10
13.7732473909
 20
10.5229515714
 30
0.0
 10
13.7555802584
 20
10.5243747384
 30
0.0
 10
13.7466204414
 20
10.5249961038
 30
0.0
  0
SPLINE
  5
34D
100
AcDbEntity
  8
0
100
AcDbSpline
 62
7
  6
CONTINUOUS
 70
0
 71
3
 72
22
 73
18
 74
0
 42
0.0000001
 43
0.0000001
 44
0.0000000001
 40
0.0
 40
0.0
 40
0.0
 40
0.0
 40
0.1269612617
 40
0.1902181596
 40
0.2533205304
 40
0.3162714665
 40
0.3790728713
 40
0.4417282523
 40
0.5042420602
 40
0.5666192766
 40
0.6288656178
 40
0.6909875165
 40
0.7529920842
 40
0.8148870285
 40
0.8766806696
 40
0.9383818741
 40
1.0
 40
1.0
 40
1.0
 40
1.0
 10
9.1739538041
 20
6.7386281903
 30
0.0
 10
9.1906309977
 20
6.737471623
 30
0.0
 10
9.2156905019
 20
6.7366163383
 30
0.0
 10
9.2490443101
 20
6.7372596336
 30
0.0
 10
9.2739392443
 20
6.7386304599
 30
0.0
 10
9.2987086707
 20
6.7408884708
 30
0.0
 10
9.3233223313
 20
6.7440310893
 30
0.0
 10
9.347749159
 20
6.7480541679
 30
0.0
 10
9.3719586171
 20
6.7529528755
 30
0.0
 10
9.3959204227
 20
6.7587209663
 30
0.0
 10
9.4196045723
 20
6.7653512704
 30
0.0
 10
9.4429813814
 20
6.7728355837
 30
0.0
 10
9.4660216501
 20
6.7811643788
 30
0.0
 10
9.4886964208
 20
6.790327448
 30
0.0
 10
9.5109774849
 20
6.8003131893
 30
0.0
 10
9.5328364919
 20
6.811109021
 30
0.0
 10
9.5471194026
 20
6.8188426136
 30
0.0
 10
9.5541801066
 20
6.8228392965
 30
0.0
  0
SPLINE
  5
34E
100
AcDbEntity
  8
0
100
AcDbSpline
 62
7
  6
CONTINUOUS
 70
0
 71
3
 72
20
 73
16
 74
0
 42
0.0000001
 43
0.0000001
 44
0.0000000001
 40
0.0
 40
0.0
 40
0.0
 40
0.0
 40
0.1256039945
 40
0.2506076644
 40
0.3752138951
 40
0.4374453993
 40
0.4996619948
 40
0.56189292
 40
0.6241653437
 40
0.6865062797
 40
0.7489397643
 40
0.8114884363
 40
0.8741712133
 40
0.9370042645
 40
1.0
 40
1.0
 40
1.0
 40
1.0
 10
8.9792255427
 20
7.529837801
 30
0.0
 10
8.9715467826
 20
7.5412442911
 30
0.0
 10
8.9568433303
 20
7.5644265418
 30
0.0
 10
8.9368548375
 20
7.6003360299
 30
0.0
 10
8.9220564494
 20
7.6311264977
 30
0.0
 10
8.9114073348
 20
7.6562297649
 30
0.0
 10
8.9040267362
 20
7.6752908167
 30
0.0
 10
8.8972650154
 20
7.6945847584
 30
0.0
 10
8.8911364896
 20
7.714103512
 30
0.0
 10
8.8856558775
 20
7.7338371108
 30
0.0
 10
8.8808366132
 20
7.7537737724
 30
0.0
 10
8.8766918507
 20
7.7738997698
 30
0.0
 10
8.873233116
 20
7.7941994467
 30
0.0
 10
8.8704707412
 20
7.8146547253
 30
0.0
 10
8.8691008859
 20
7.8283646555
 30
0.0
 10
8.8685341375
 20
7.8352376987
 30
0.0
  0
SPLINE
  5
34F
100
AcDbEntity
  8
0
100
AcDbSpline
 62
7
  6
CONTINUOUS
 70
0
 71
3
 72
39
 73
35
 74
0
 42
0.0000001
 43
0.0000001
 44
0.0000000001
 40
0.0
 40
0.0
 40
0.0
 40
0.0
 40
0.0064813485
 40
0.0130002985
 40
0.0195937285
 40
0.026297146
 40
0.0331442162
 40
0.0401663079
 40
0.05484089
 40
0.0705272863
 40
0.0873816519
 40
0.1055233038
 40
0.1250399977
 40
0.1459941136
 40
0.1684273795
 40
0.192364659
 40
0.2178175573
 40
0.2447860489
 40
0.2732611697
 40
0.3032256797
 40
0.334655689
 40
0.3675213604
 40
0.4017874193
 40
0.4374142301
 40
0.4743575615
 40
0.5125697352
 40
0.5519993246
 40
0.5925918809
 40
0.6342900708
 40
0.6770336885
 40
0.7207603521
 40
0.8109000934
 40
0.9041686777
 40
1.0
 40
1.0
 40
1.0
 40
1.0
 10
9.1719573273
 20
10.7739325077
 30
0.0
 10
9.1719573221
 20
10.7745399414
 30
0.0
 10
9.1719090256
 20
10.7757588769
 30
0.0
 10
9.1716919093
 20
10.7775841171
 30
0.0
 10
9.1713302859
 20
10.7794075796
 30
0.0
 10
9.1708244761
 20
10.7812282168
 30
0.0
 10
9.1701747552
 20
10.7830452694
 30
0.0
 10
9.1691016154
 20
10.785497685
 30
0.0
 10
9.1673801948
 20
10.7885605482
 30
0.0
 10
9.1647775994
 20
10.7921493344
 30
0.0
 10
9.1616144227
 20
10.7957021138
 30
0.0
 10
9.157896691
 20
10.7992142602
 30
0.0
 10
9.1536305968
 20
10.802681753
 30
0.0
 10
9.1488228925
 20
10.806099818
 30
0.0
 10
9.1434811428
 20
10.8094634706
 30
0.0
 10
9.1376138527
 20
10.8127676175
 30
0.0
 10
9.1312303871
 20
10.8160069131
 30
0.0
 10
9.1243411201
 20
10.8191762167
 30
0.0
 10
9.1169572628
 20
10.8222702176
 30
0.0
 10
9.1090909567
 20
10.8252838471
 30
0.0
 10
9.1007551697
 20
10.828212055
 30
0.0
 10
9.0919636954
 20
10.8310499162
 30
0.0
 10
9.0827311285
 20
10.833792728
 30
0.0
 10
9.0730728072
 20
10.8364358013
 30
0.0
 10
9.0630048188
 20
10.8389747785
 30
0.0
 10
9.0525439369
 20
10.8414053182
 30
0.0
 10
9.0417076118
 20
10.8437233775
 30
0.0
 10
9.0305139253
 20
10.8459250489
 30
0.0
 10
9.0189815733
 20
10.848006599
 30
0.0
 10
9.0071298056
 20
10.8499646045
 30
0.0
 10
8.9907621876
 20
10.8524309446
 30
0.0
 10
8.9696493775
 20
10.8551708325
 30
0.0
 10
8.9436179733
 20
10.8578875091
 30
0.0
 10
8.9259508407
 20
10.8593106761
 30
0.0
 10
8.9169910238
 20
10.8599320415
 30
0.0
  0
SPLINE
  5
350
100
AcDbEntity
  8
0
100
AcDbSpline
 62
7
  6
CONTINUOUS
 70
0
 71
3
 72
60
 73
56
 74
0
 42
0.0000001
 43
0.0000001
 44
0.0000000001
 40
0.0
 40
0.0
 40
0.0
 40
0.0
 40
0.004138163
 40
0.0081556241
 40
0.012082463
 40
0.0159522031
 40
0.0198002974
 40
0.0236620697
 40
0.0275715662
 40
0.0315600824
 40
0.035655586
 40
0.0398819996
 40
0.0442590424
 40
0.0488022939
 40
0.0535234633
 40
0.0584308446
 40
0.0635296527
 40
0.0688224989
 40
0.0743098453
 40
0.0799903162
 40
0.0858609806
 40
0.0919177757
 40
0.098155728
 40
0.1045689774
 40
0.1178953428
 40
0.1318426823
 40
0.1463534694
 40
0.161369769
 40
0.1768353503
 40
0.1926967508
 40
0.2089037412
 40
0.2254098327
 40
0.2421725119
 40
0.2591529936
 40
0.2763161289
 40
0.293630434
 40
0.3110676821
 40
0.3462123996
 40
0.3815822366
 40
0.4170473912
 40
0.4525102834
 40
0.4878997479
 40
0.5231661548
 40
0.5582772907
 40
0.5932137625
 40
0.6279664837
 40
0.6625345079
 40
0.6969211033
 40
0.731134925
 40
0.7651853977
 40
0.799084876
 40
0.8664747027
 40
0.8999967817
 40
0.9334183691
 40
1.0
 40
1.0
 40
1.0
 40
1.0
 10
9.1874328012
 20
7.043644321
 30
0.0
 10
9.1879726373
 20
7.0441657627
 30
0.0
 10
9.1889941897
 20
7.0452386546
 30
0.0
 10
9.1903572954
 20
7.0469584404
 30
0.0
 10
9.1915238344
 20
7.0487598901
 30
0.0
 10
9.1924929562
 20
7.0506403623
 30
0.0
 10
9.1932652834
 20
7.0525971853
 30
0.0
 10
9.1938416851
 20
7.054627769
 30
0.0
 10
9.1942249219
 20
7.0567291613
 30
0.0
 10
9.1944176613
 20
7.0588987815
 30
0.0
 10
9.1944238774
 20
7.0611340749
 30
0.0
 10
9.1942482313
 20
7.0634328111
 30
0.0
 10
9.193895211
 20
7.065792876
 30
0.0
 10
9.1933705301
 20
7.0682123917
 30
0.0
 10
9.1926796586
 20
7.070689538
 30
0.0
 10
9.1918283495
 20
7.0732225226
 30
0.0
 10
9.1908230044
 20
7.0758097671
 30
0.0
 10
9.1896697966
 20
7.0784496088
 30
0.0
 10
9.1883751837
 20
7.0811404762
 30
0.0
 10
9.186945901
 20
7.0838809359
 30
0.0
 10
9.1853885746
 20
7.0866695267
 30
0.0
 10
9.1837099032
 20
7.0895048717
 30
0.0
 10
9.181916666
 20
7.0923857111
 30
0.0
 10
9.1793488907
 20
7.0963364326
 30
0.0
 10
9.1758868476
 20
7.1013720893
 30
0.0
 10
9.1714327692
 20
7.1075043336
 30
0.0
 10
9.1666762652
 20
7.1137936691
 30
0.0
 10
9.1616640893
 20
7.1202336684
 30
0.0
 10
9.1564399132
 20
7.1268184984
 30
0.0
 10
9.1510443423
 20
7.1335427812
 30
0.0
 10
9.1455149638
 20
7.140401606
 30
0.0
 10
9.1398862726
 20
7.1473903429
 30
0.0
 10
9.1341896201
 20
7.1545044545
 30
0.0
 10
9.128453527
 20
7.1617395505
 30
0.0
 10
9.1227038316
 20
7.1690913184
 30
0.0
 10
9.1169636071
 20
7.1765553356
 30
0.0
 10
9.1093303625
 20
7.1866771226
 30
0.0
 10
9.0999289739
 20
7.1995662622
 30
0.0
 10
9.0889894303
 20
7.2153741242
 30
0.0
 10
9.0784552917
 20
7.2315244238
 30
0.0
 10
9.06839444
 20
7.2479781966
 30
0.0
 10
9.0588536391
 20
7.2646975663
 30
0.0
 10
9.0498622608
 20
7.2816465799
 30
0.0
 10
9.0414354258
 20
7.2987917131
 30
0.0
 10
9.0335781664
 20
7.3161028813
 30
0.0
 10
9.0262868426
 20
7.3335530786
 30
0.0
 10
9.0195519214
 20
7.3511185486
 30
0.0
 10
9.0133601036
 20
7.3687790366
 30
0.0
 10
9.0076950665
 20
7.3865167521
 30
0.0
 10
9.0025389261
 20
7.4043170452
 30
0.0
 10
8.996331071
 20
7.4280682707
 30
0.0
 10
8.99104822
 20
7.4519538124
 30
0.0
 10
8.986634632
 20
7.4759168149
 30
0.0
 10
8.9827904887
 20
7.4998292457
 30
0.0
 10
8.9805024307
 20
7.5178294141
 30
0.0
 10
8.9792255427
 20
7.529837801
 30
0.0
  0
SPLINE
  5
351
100
AcDbEntity
  8
0
100
AcDbSpline
 62
7
  6
CONTINUOUS
 70
0
 71
3
 72
23
 73
19
 74
0
 42
0.0000001
 43
0.0000001
 44
0.0000000001
 40
0.0
 40
0.0
 40
0.0
 40
0.0
 40
0.0515576543
 40
0.1049918555
 40
0.1602267047
 40
0.2171811298
 40
0.2757694787
 40
0.335901905
 40
0.397484608
 40
0.4604202257
 40
0.5246082361
 40
0.5899451844
 40
0.6563248303
 40
0.7236388686
 40
0.7917766159
 40
0.8606248243
 40
0.930073062
 40
1.0
 40
1.0
 40
1.0
 40
1.0
 10
8.5814473769
 20
7.4775515388
 30
0.0
 10
8.5881159434
 20
7.4793583751
 30
0.0
 10
8.6017361242
 20
7.4828903126
 30
0.0
 10
8.6226237924
 20
7.4878675802
 30
0.0
 10
8.644306375
 20
7.4926124091
 30
0.0
 10
8.6667450581
 20
7.4971162562
 30
0.0
 10
8.6898998334
 20
7.5013710298
 30
0.0
 10
8.7137293573
 20
7.5053690575
 30
0.0
 10
8.7381910704
 20
7.5091031598
 30
0.0
 10
8.7632412668
 20
7.5125666373
 30
0.0
 10
8.7888351913
 20
7.5157532574
 30
0.0
 10
8.8149271
 20
7.5186572772
 30
0.0
 10
8.841470369
 20
7.5212735052
 30
0.0
 10
8.8684175502
 20
7.5235972357
 30
0.0
 10
8.8957203688
 20
7.5256242713
 30
0.0
 10
8.9233303712
 20
7.5273510293
 30
0.0
 10
8.9511977051
 20
7.5287743165
 30
0.0
 10
8.9698604358
 20
7.5295170787
 30
0.0
 10
8.9792255427
 20
7.529837801
 30
0.0
  0
SPLINE
  5
352
100
AcDbEntity
  8
0
100
AcDbSpline
 62
7
  6
CONTINUOUS
 70
0
 71
3
 72
75
 73
71
 74
0
 42
0.0000001
 43
0.0000001
 44
0.0000000001
 40
0.0
 40
0.0
 40
0.0
 40
0.0
 40
0.0156747273
 40
0.0235325814
 40
0.031403181
 40
0.0471815803
 40
0.0630097508
 40
0.0788855268
 40
0.0948064622
 40
0.1107696438
 40
0.1267717932
 40
0.1347869014
 40
0.1428103611
 40
0.1588792318
 40
0.1749752631
 40
0.1910939891
 40
0.2072307449
 40
0.2233807077
 40
0.2395389397
 40
0.2557004309
 40
0.2718601429
 40
0.2880130529
 40
0.3041541969
 40
0.3202787136
 40
0.3363818874
 40
0.3524591897
 40
0.36850632
 40
0.3845192451
 40
0.4004942363
 40
0.4164279049
 40
0.4323172352
 40
0.4481596152
 40
0.4639528635
 40
0.4796952542
 40
0.4953855368
 40
0.5110229526
 40
0.526607247
 40
0.5421386771
 40
0.5576180139
 40
0.5730465408
 40
0.5884260451
 40
0.6037588059
 40
0.6190475753
 40
0.6342955548
 40
0.649506366
 40
0.6646840161
 40
0.6798328593
 40
0.6949575524
 40
0.7100630078
 40
0.725154342
 40
0.7402368221
 40
0.7553158097
 40
0.7703967041
 40
0.7854848839
 40
0.80058565
 40
0.8157041693
 40
0.8308454194
 40
0.8460141376
 40
0.8612147716
 40
0.8764514346
 40
0.8917278653
 40
0.9070473908
 40
0.9224129018
 40
0.9301142846
 40
0.9378280267
 40
0.9532922984
 40
0.9688082546
 40
0.9765865231
 40
0.9843782672
 40
1.0
 40
1.0
 40
1.0
 40
1.0
 10
8.7163620979
 20
6.1034432953
 30
0.0
 10
8.7015768989
 20
6.1044686524
 30
0.0
 10
8.6794125573
 20
6.1065517209
 30
0.0
 10
8.6499691228
 20
6.1104031603
 30
0.0
 10
8.6205299795
 20
6.1149804774
 30
0.0
 10
8.5838631402
 20
6.122048671
 30
0.0
 10
8.540220606
 20
6.1326514012
 30
0.0
 10
8.4970024099
 20
6.1453568254
 30
0.0
 10
8.4543131326
 20
6.1601341605
 30
0.0
 10
8.412255894
 20
6.1769475602
 30
0.0
 10
8.3778364428
 20
6.1926138838
 30
0.0
 10
8.3507163601
 20
6.2061206165
 30
0.0
 10
8.3238617806
 20
6.2202835934
 30
0.0
 10
8.2908757674
 20
6.239176771
 30
0.0
 10
8.2523385779
 20
6.2636823609
 30
0.0
 10
8.2149187265
 20
6.2899749194
 30
0.0
 10
8.1787068151
 20
6.3179908308
 30
0.0
 10
8.1437898502
 20
6.3476627153
 30
0.0
 10
8.1102519103
 20
6.3789191149
 30
0.0
 10
8.0781737092
 20
6.4116847916
 30
0.0
 10
8.0476324667
 20
6.4458808736
 30
0.0
 10
8.0187017058
 20
6.4814250533
 30
0.0
 10
7.9914510829
 20
6.5182317822
 30
0.0
 10
7.965946211
 20
6.556212471
 30
0.0
 10
7.9422485064
 20
6.595275706
 30
0.0
 10
7.9204150446
 20
6.63532747
 30
0.0
 10
7.9004984227
 20
6.6762713668
 30
0.0
 10
7.8825466334
 20
6.7180088519
 30
0.0
 10
7.8666029498
 20
6.7604394677
 30
0.0
 10
7.8527058209
 20
6.8034610839
 30
0.0
 10
7.8408887787
 20
6.846970141
 30
0.0
 10
7.8311803587
 20
6.8908618988
 30
0.0
 10
7.8236040215
 20
6.9350306851
 30
0.0
 10
7.8181780971
 20
6.9793701499
 30
0.0
 10
7.8149157459
 20
7.0237735217
 30
0.0
 10
7.8138249244
 20
7.0681338627
 30
0.0
 10
7.8149083645
 20
7.1123443243
 30
0.0
 10
7.8181635647
 20
7.1562984033
 30
0.0
 10
7.823582794
 20
7.1998901978
 30
0.0
 10
7.8311531074
 20
7.2430146608
 30
0.0
 10
7.8408563761
 20
7.2855678536
 30
0.0
 10
7.8526693215
 20
7.3274471977
 30
0.0
 10
7.8665635666
 20
7.3685517246
 30
0.0
 10
7.8825057111
 20
7.4087823188
 30
0.0
 10
7.9004574074
 20
7.4480419582
 30
0.0
 10
7.9203754511
 20
7.4862359499
 30
0.0
 10
7.9422118833
 20
7.5232721611
 30
0.0
 10
7.9659141049
 20
7.5590612436
 30
0.0
 10
7.9914250024
 20
7.5935168524
 30
0.0
 10
8.0186830858
 20
7.6265558568
 30
0.0
 10
8.0476226343
 20
7.6580985464
 30
0.0
 10
8.0781738519
 20
7.6880688317
 30
0.0
 10
8.1102630467
 20
7.7163944234
 30
0.0
 10
8.1438128087
 20
7.7430070101
 30
0.0
 10
8.1787422002
 20
7.7678424243
 30
0.0
 10
8.2149669531
 20
7.7908407981
 30
0.0
 10
8.2523996765
 20
7.8119467087
 30
0.0
 10
8.2909500655
 20
7.8311093109
 30
0.0
 10
8.3305251421
 20
7.8482824611
 30
0.0
 10
8.3710294038
 20
7.86342482
 30
0.0
 10
8.4123653454
 20
7.8764999946
 30
0.0
 10
8.454432611
 20
7.8874764775
 30
0.0
 10
8.4899885047
 20
7.8948473086
 30
0.0
 10
8.5186919453
 20
7.8996727509
 30
0.0
 10
8.5476002913
 20
7.9037872956
 30
0.0
 10
8.5840056578
 20
7.9075765658
 30
0.0
 10
8.6206152401
 20
7.9095499
 30
0.0
 10
8.6500061342
 20
7.9100419731
 30
0.0
 10
8.6794996508
 20
7.9098079765
 30
0.0
 10
8.701626886
 20
7.9088148264
 30
0.0
 10
8.7163620979
 20
7.907792936
 30
0.0
  0
SPLINE
  5
353
100
AcDbEntity
  8
0
100
AcDbSpline
 62
7
  6
CONTINUOUS
 70
0
 71
3
 72
27
 73
23
 74
0
 42
0.0000001
 43
0.0000001
 44
0.0000000001
 40
0.0
 40
0.0
 40
0.0
 40
0.0
 40
0.1039124663
 40
0.2012768364
 40
0.2920297366
 40
0.3762510806
 40
0.4541228394
 40
0.5258950376
 40
0.5918704017
 40
0.6523968645
 40
0.7078670542
 40
0.7587233424
 40
0.8054659366
 40
0.8486618931
 40
0.8691377294
 40
0.888974669
 40
0.9082654868
 40
0.9271065033
 40
0.945597378
 40
0.9638409302
 40
0.981940737
 40
1.0
 40
1.0
 40
1.0
 40
1.0
 10
11.4325564257
 20
7.3258921106
 30
0.0
 10
11.4307683891
 20
7.329309206
 30
0.0
 10
11.4272175273
 20
7.3358828402
 30
0.0
 10
11.4217969017
 20
7.3452701407
 30
0.0
 10
11.4164758548
 20
7.3538658493
 30
0.0
 10
11.4112682687
 20
7.3616749129
 30
0.0
 10
11.4061799855
 20
7.3687097052
 30
0.0
 10
11.4012114664
 20
7.3749866853
 30
0.0
 10
11.3963597821
 20
7.3805242539
 30
0.0
 10
11.3916198539
 20
7.3853414342
 30
0.0
 10
11.3869854155
 20
7.3894569289
 30
0.0
 10
11.3824492788
 20
7.3928885199
 30
0.0
 10
11.3780049226
 20
7.3956520677
 30
0.0
 10
11.374307114
 20
7.3974408722
 30
0.0
 10
11.3714032187
 20
7.3985292492
 30
0.0
 10
11.3692849158
 20
7.3991723178
 30
0.0
 10
11.3671872796
 20
7.3996580883
 30
0.0
 10
11.3651099789
 20
7.3999877975
 30
0.0
 10
11.3630528824
 20
7.4001624771
 30
0.0
 10
11.3610159173
 20
7.4001832709
 30
0.0
 10
11.3589992798
 20
7.4000511478
 30
0.0
 10
11.3576691701
 20
7.3998616762
 30
0.0
 10
11.3570096496
 20
7.3997421948
 30
0.0
  0
SPLINE
  5
354
100
AcDbEntity
  8
0
100
AcDbSpline
 62
7
  6
CONTINUOUS
 70
0
 71
3
 72
75
 73
71
 74
0
 42
0.0000001
 43
0.0000001
 44
0.0000000001
 40
0.0
 40
0.0
 40
0.0
 40
0.0
 40
0.0156747273
 40
0.0235325814
 40
0.031403181
 40
0.0471815803
 40
0.0630097508
 40
0.0788855268
 40
0.0948064622
 40
0.1107696438
 40
0.1267717932
 40
0.1347869014
 40
0.1428103611
 40
0.1588792318
 40
0.1749752631
 40
0.1910939891
 40
0.2072307449
 40
0.2233807077
 40
0.2395389397
 40
0.2557004309
 40
0.2718601429
 40
0.2880130529
 40
0.3041541969
 40
0.3202787136
 40
0.3363818874
 40
0.3524591897
 40
0.36850632
 40
0.3845192451
 40
0.4004942363
 40
0.4164279049
 40
0.4323172352
 40
0.4481596152
 40
0.4639528635
 40
0.4796952542
 40
0.4953855368
 40
0.5110229526
 40
0.526607247
 40
0.5421386771
 40
0.5576180139
 40
0.5730465408
 40
0.5884260451
 40
0.6037588059
 40
0.6190475753
 40
0.6342955548
 40
0.649506366
 40
0.6646840161
 40
0.6798328593
 40
0.6949575524
 40
0.7100630078
 40
0.725154342
 40
0.7402368221
 40
0.7553158097
 40
0.7703967041
 40
0.7854848839
 40
0.80058565
 40
0.8157041693
 40
0.8308454194
 40
0.8460141376
 40
0.8612147716
 40
0.8764514346
 40
0.8917278653
 40
0.9070473908
 40
0.9224129018
 40
0.9301142846
 40
0.9378280267
 40
0.9532922984
 40
0.9688082546
 40
0.9765865231
 40
0.9843782672
 40
1.0
 40
1.0
 40
1.0
 40
1.0
 10
8.7163620979
 20
7.907792936
 30
0.0
 10
8.731147297
 20
7.906767579
 30
0.0
 10
8.7533116386
 20
7.9046845104
 30
0.0
 10
8.782755073
 20
7.900833071
 30
0.0
 10
8.8121942164
 20
7.896255754
 30
0.0
 10
8.8488610557
 20
7.8891875603
 30
0.0
 10
8.8925035899
 20
7.8785848302
 30
0.0
 10
8.935721786
 20
7.8658794059
 30
0.0
 10
8.9784110632
 20
7.8511020709
 30
0.0
 10
9.0204683018
 20
7.8342886712
 30
0.0
 10
9.054887753
 20
7.8186223476
 30
0.0
 10
9.0820078357
 20
7.8051156148
 30
0.0
 10
9.1088624152
 20
7.790952638
 30
0.0
 10
9.1418484284
 20
7.7720594603
 30
0.0
 10
9.180385618
 20
7.7475538705
 30
0.0
 10
9.2178054694
 20
7.7212613119
 30
0.0
 10
9.2540173808
 20
7.6932454006
 30
0.0
 10
9.2889343456
 20
7.663573516
 30
0.0
 10
9.3224722855
 20
7.6323171164
 30
0.0
 10
9.3545504866
 20
7.5995514398
 30
0.0
 10
9.3850917292
 20
7.5653553577
 30
0.0
 10
9.4140224901
 20
7.5298111781
 30
0.0
 10
9.441273113
 20
7.4930044492
 30
0.0
 10
9.4667779848
 20
7.4550237603
 30
0.0
 10
9.4904756894
 20
7.4159605253
 30
0.0
 10
9.5123091512
 20
7.3759087613
 30
0.0
 10
9.5322257731
 20
7.3349648645
 30
0.0
 10
9.5501775624
 20
7.2932273794
 30
0.0
 10
9.5661212461
 20
7.2507967636
 30
0.0
 10
9.580018375
 20
7.2077751475
 30
0.0
 10
9.5918354171
 20
7.1642660904
 30
0.0
 10
9.6015438371
 20
7.1203743325
 30
0.0
 10
9.6091201743
 20
7.0762055463
 30
0.0
 10
9.6145460988
 20
7.0318660815
 30
0.0
 10
9.6178084499
 20
6.9874627096
 30
0.0
 10
9.6188992714
 20
6.9431023686
 30
0.0
 10
9.6178158313
 20
6.898891907
 30
0.0
 10
9.6145606311
 20
6.854937828
 30
0.0
 10
9.6091414019
 20
6.8113460336
 30
0.0
 10
9.6015710884
 20
6.7682215705
 30
0.0
 10
9.5918678197
 20
6.7256683777
 30
0.0
 10
9.5800548744
 20
6.6837890337
 30
0.0
 10
9.5661606293
 20
6.6426845068
 30
0.0
 10
9.5502184847
 20
6.6024539126
 30
0.0
 10
9.5322667884
 20
6.5631942731
 30
0.0
 10
9.5123487448
 20
6.5250002814
 30
0.0
 10
9.4905123126
 20
6.4879640702
 30
0.0
 10
9.4668100909
 20
6.4521749878
 30
0.0
 10
9.4412991935
 20
6.417719379
 30
0.0
 10
9.41404111
 20
6.3846803746
 30
0.0
 10
9.3851015616
 20
6.353137685
 30
0.0
 10
9.3545503439
 20
6.3231673996
 30
0.0
 10
9.3224611492
 20
6.2948418079
 30
0.0
 10
9.2889113872
 20
6.2682292212
 30
0.0
 10
9.2539819957
 20
6.2433938071
 30
0.0
 10
9.2177572428
 20
6.2203954332
 30
0.0
 10
9.1803245193
 20
6.1992895226
 30
0.0
 10
9.1417741303
 20
6.1801269205
 30
0.0
 10
9.1021990538
 20
6.1629537702
 30
0.0
 10
9.0616947921
 20
6.1478114113
 30
0.0
 10
9.0203588504
 20
6.1347362367
 30
0.0
 10
8.9782915848
 20
6.1237597538
 30
0.0
 10
8.9427356912
 20
6.1163889227
 30
0.0
 10
8.9140322506
 20
6.1115634804
 30
0.0
 10
8.8851239046
 20
6.1074489357
 30
0.0
 10
8.848718538
 20
6.1036596655
 30
0.0
 10
8.8121089557
 20
6.1016863314
 30
0.0
 10
8.7827180616
 20
6.1011942582
 30
0.0
 10
8.753224545
 20
6.1014282548
 30
0.0
 10
8.7310973099
 20
6.1024214049
 30
0.0
 10
8.7163620979
 20
6.1034432953
 30
0.0
  0
SPLINE
  5
355
100
AcDbEntity
  8
0
100
AcDbSpline
 62
7
  6
CONTINUOUS
 70
0
 71
3
 72
98
 73
94
 74
0
 42
0.0000001
 43
0.0000001
 44
0.0000000001
 40
0.0
 40
0.0
 40
0.0
 40
0.0
 40
0.0039801609
 40
0.0081240686
 40
0.0124358932
 40
0.0169192168
 40
0.0215770643
 40
0.0264117753
 40
0.0314250108
 40
0.0366179582
 40
0.0419913124
 40
0.0475454005
 40
0.0532801357
 40
0.0591950993
 40
0.0652895702
 40
0.0715625153
 40
0.0780126822
 40
0.0846385267
 40
0.091438326
 40
0.0984101156
 40
0.1055517514
 40
0.1128609125
 40
0.1279713503
 40
0.1437198495
 40
0.1600822126
 40
0.177032166
 40
0.1945415575
 40
0.212580527
 40
0.231117663
 40
0.2501201457
 40
0.2695538758
 40
0.2893835971
 40
0.3095730118
 40
0.3300848914
 40
0.3508811841
 40
0.3719231211
 40
0.3931713217
 40
0.4145858954
 40
0.4361265428
 40
0.4577526557
 40
0.4794234172
 40
0.5010979011
 40
0.5227351724
 40
0.5442943873
 40
0.5657348926
 40
0.5870163249
 40
0.6080987114
 40
0.6289425703
 40
0.6495090141
 40
0.6697598545
 40
0.6896577057
 40
0.7091660923
 40
0.7282495593
 40
0.7468737874
 40
0.7650057134
 40
0.7826136602
 40
0.7996674777
 40
0.8161386913
 40
0.8320006711
 40
0.839695559
 40
0.8472290901
 40
0.8545985526
 40
0.8618013908
 40
0.8688351984
 40
0.8756977824
 40
0.882387094
 40
0.8889013353
 40
0.8952388874
 40
0.9013983901
 40
0.9073787343
 40
0.9131790695
 40
0.9187988827
 40
0.9242379438
 40
0.9294964365
 40
0.9345749042
 40
0.9394743631
 40
0.9441963208
 40
0.9487428261
 40
0.9531165856
 40
0.9573209634
 40
0.9613601612
 40
0.96523923
 40
0.9689642447
 40
0.9725423874
 40
0.9759820659
 40
0.9792930654
 40
0.9824865961
 40
0.9855754322
 40
0.9885738806
 40
0.9914977831
 40
0.994364367
 40
0.9971920251
 40
1.0
 40
1.0
 40
1.0
 40
1.0
 10
7.9275827069
 20
10.3342369388
 30
0.0
 10
7.9299197747
 20
10.3364943732
 30
0.0
 10
7.9347961911
 20
10.3409932758
 30
0.0
 10
7.9425384405
 20
10.3475642618
 30
0.0
 10
7.9508492319
 20
10.3540881135
 30
0.0
 10
7.9597240064
 20
10.3605613665
 30
0.0
 10
7.969158437
 20
10.3669809982
 30
0.0
 10
7.9791479011
 20
10.373343885
 30
0.0
 10
7.9896874025
 20
10.3796469763
 30
0.0
 10
8.0007717119
 20
10.3858870011
 30
0.0
 10
8.0123952321
 20
10.3920609642
 30
0.0
 10
8.0245521849
 20
10.3981656893
 30
0.0
 10
8.0372364573
 20
10.404198174
 30
0.0
 10
8.0504416875
 20
10.4101553701
 30
0.0
 10
8.0641612449
 20
10.4160342388
 30
0.0
 10
8.0783882098
 20
10.4218318873
 30
0.0
 10
8.0931154411
 20
10.4275452902
 30
0.0
 10
8.1083354957
 20
10.433171658
 30
0.0
 10
8.1240407172
 20
10.4387080615
 30
0.0
 10
8.1402231669
 20
10.4441517434
 30
0.0
 10
8.1568746986
 20
10.4494999617
 30
0.0
 10
8.1799468426
 20
10.4565783648
 30
0.0
 10
8.2099068169
 20
10.4651522925
 30
0.0
 10
8.2472053035
 20
10.4749076472
 30
0.0
 10
8.2861623478
 20
10.4842203318
 30
0.0
 10
8.326699206
 20
10.493071383
 30
0.0
 10
8.3687341377
 20
10.5014427641
 30
0.0
 10
8.4121822444
 20
10.5093174265
 30
0.0
 10
8.4569557487
 20
10.5166793353
 30
0.0
 10
8.5029641567
 20
10.523513502
 30
0.0
 10
8.5501144546
 20
10.5298060156
 30
0.0
 10
8.5983113
 20
10.5355440693
 30
0.0
 10
8.6474572169
 20
10.5407159866
 30
0.0
 10
8.6974527954
 20
10.5453112431
 30
0.0
 10
8.7481968932
 20
10.5493204932
 30
0.0
 10
8.7995868443
 20
10.5527355862
 30
0.0
 10
8.8515186701
 20
10.5555495788
 30
0.0
 10
8.9038872919
 20
10.55775675
 30
0.0
 10
8.9565867435
 20
10.5593526122
 30
0.0
 10
9.009510386
 20
10.5603339197
 30
0.0
 10
9.0625511241
 20
10.5606986747
 30
0.0
 10
9.1156016241
 20
10.5604461363
 30
0.0
 10
9.1685545327
 20
10.5595768205
 30
0.0
 10
9.2213026958
 20
10.5580924958
 30
0.0
 10
9.2737393759
 20
10.5559961799
 30
0.0
 10
9.3257584678
 20
10.5532921342
 30
0.0
 10
9.3772547141
 20
10.5499858553
 30
0.0
 10
9.4281239192
 20
10.5460840632
 30
0.0
 10
9.4782631639
 20
10.5415946922
 30
0.0
 10
9.5275710157
 20
10.5365268765
 30
0.0
 10
9.5759477356
 20
10.5308909262
 30
0.0
 10
9.6232954807
 20
10.524698309
 30
0.0
 10
9.6695185041
 20
10.5179616269
 30
0.0
 10
9.7145233505
 20
10.5106945912
 30
0.0
 10
9.7582190565
 20
10.5029119953
 30
0.0
 10
9.800517322
 20
10.4946296856
 30
0.0
 10
9.8413327767
 20
10.4858645382
 30
0.0
 10
9.8805828786
 20
10.476634399
 30
0.0
 10
9.9122326214
 20
10.4684907413
 30
0.0
 10
9.9367019009
 20
10.4617460332
 30
0.0
 10
9.9544282971
 20
10.4566342074
 30
0.0
 10
9.9717058625
 20
10.4514205846
 30
0.0
 10
9.9885258903
 20
10.4461078047
 30
0.0
 10
10.0048798734
 20
10.4406985081
 30
0.0
 10
10.0207595705
 20
10.4351955171
 30
0.0
 10
10.0361569526
 20
10.4296015233
 30
0.0
 10
10.0510642702
 20
10.4239194457
 30
0.0
 10
10.0654739987
 20
10.4181520961
 30
0.0
 10
10.0793788836
 20
10.4123024133
 30
0.0
 10
10.0927719342
 20
10.4063733714
 30
0.0
 10
10.1056463971
 20
10.4003678965
 30
0.0
 10
10.1179958358
 20
10.3942891077
 30
0.0
 10
10.1298140191
 20
10.3881399465
 30
0.0
 10
10.1410950641
 20
10.3819235984
 30
0.0
 10
10.151833302
 20
10.375643089
 30
0.0
 10
10.1620233827
 20
10.3693015726
 30
0.0
 10
10.1716602399
 20
10.3629022016
 30
0.0
 10
10.1807390387
 20
10.3564480475
 30
0.0
 10
10.1892553281
 20
10.3499423589
 30
0.0
 10
10.1972047937
 20
10.3433881414
 30
0.0
 10
10.2045835539
 20
10.3367886355
 30
0.0
 10
10.2113878463
 20
10.3301468465
 30
0.0
 10
10.2176142487
 20
10.3234658901
 30
0.0
 10
10.2232595583
 20
10.3167488226
 30
0.0
 10
10.2283206823
 20
10.30999861
 30
0.0
 10
10.232794905
 20
10.3032183818
 30
0.0
 10
10.2366793805
 20
10.2964110904
 30
0.0
 10
10.2399717262
 20
10.2895800056
 30
0.0
 10
10.2426694155
 20
10.2827283548
 30
0.0
 10
10.2447703204
 20
10.2758597855
 30
0.0
 10
10.2462725413
 20
10.2689779445
 30
0.0
 10
10.2471744639
 20
10.2620876577
 30
0.0
 10
10.2473752498
 20
10.2574844095
 30
0.0
 10
10.2473752494
 20
10.2551920576
 30
0.0
  0
SPLINE
  5
356
100
AcDbEntity
  8
0
100
AcDbSpline
 62
7
  6
CONTINUOUS
 70
0
 71
3
 72
53
 73
49
 74
0
 42
0.0000001
 43
0.0000001
 44
0.0000000001
 40
0.0
 40
0.0
 40
0.0
 40
0.0
 40
0.0311426844
 40
0.0624383931
 40
0.0938812286
 40
0.1254614913
 40
0.1571669836
 40
0.1889829512
 40
0.2208924493
 40
0.2528766959
 40
0.2849154495
 40
0.3169874116
 40
0.3490706423
 40
0.3811429843
 40
0.4131824906
 40
0.4451678483
 40
0.477078794
 40
0.5088965168
 40
0.5406040388
 40
0.5721865671
 40
0.587929481
 40
0.6036367678
 40
0.6193073317
 40
0.6349402614
 40
0.650534846
 40
0.6660905727
 40
0.6816071306
 40
0.6970844215
 40
0.7125225531
 40
0.7279218437
 40
0.7432828261
 40
0.7586062374
 40
0.7738930241
 40
0.7891443373
 40
0.8043615217
 40
0.8195461182
 40
0.8346998512
 40
0.8498246181
 40
0.8649224865
 40
0.8799956769
 40
0.8950465515
 40
0.9100776058
 40
0.9250914485
 40
0.9400907894
 40
0.9550784261
 40
0.9700572226
 40
0.985030096
 40
1.0
 40
1.0
 40
1.0
 40
1.0
 10
11.3934838913
 20
6.0078571893
 30
0.0
 10
11.3731754652
 20
6.0092655834
 30
0.0
 10
11.3325468013
 20
6.0135757888
 30
0.0
 10
11.2720963844
 20
6.0244333278
 30
0.0
 10
11.2122934458
 20
6.039641431
 30
0.0
 10
11.1534609603
 20
6.0591183925
 30
0.0
 10
11.0959115047
 20
6.0827598343
 30
0.0
 10
11.0399520445
 20
6.1104392214
 30
0.0
 10
10.98588068
 20
6.1420086535
 30
0.0
 10
10.9339855743
 20
6.1772996295
 30
0.0
 10
10.884543199
 20
6.2161237926
 30
0.0
 10
10.8378169808
 20
6.2582740552
 30
0.0
 10
10.7940559504
 20
6.3035257261
 30
0.0
 10
10.7534933858
 20
6.3516376344
 30
0.0
 10
10.7163454984
 20
6.4023533292
 30
0.0
 10
10.6828104065
 20
6.4554026143
 30
0.0
 10
10.6530671569
 20
6.5105027164
 30
0.0
 10
10.6272744324
 20
6.5673605675
 30
0.0
 10
10.6055704982
 20
6.6256711369
 30
0.0
 10
10.590970587
 20
6.6752757169
 30
0.0
 10
10.5814477723
 20
6.715370388
 30
0.0
 10
10.5753965355
 20
6.7455787474
 30
0.0
 10
10.5704377264
 20
6.7759123468
 30
0.0
 10
10.566577946
 20
6.8063311729
 30
0.0
 10
10.563822262
 20
6.836794471
 30
0.0
 10
10.5621744372
 20
6.8672616139
 30
0.0
 10
10.561636746
 20
6.8976919117
 30
0.0
 10
10.5622097928
 20
6.9280447335
 30
0.0
 10
10.5638929606
 20
6.958279548
 30
0.0
 10
10.566683997
 20
6.9883559757
 30
0.0
 10
10.5705791062
 20
7.0182338616
 30
0.0
 10
10.5755732582
 20
7.0478732819
 30
0.0
 10
10.5816597076
 20
7.0772346597
 30
0.0
 10
10.5888303215
 20
7.1062787859
 30
0.0
 10
10.5970756769
 20
7.1349668261
 30
0.0
 10
10.6063846415
 20
7.1632604917
 30
0.0
 10
10.6167448455
 20
7.1911219727
 30
0.0
 10
10.6281425455
 20
7.2185140087
 30
0.0
 10
10.6405623953
 20
7.2454000563
 30
0.0
 10
10.6539879177
 20
7.2717441472
 30
0.0
 10
10.6684011957
 20
7.297511068
 30
0.0
 10
10.6837828841
 20
7.3226664455
 30
0.0
 10
10.7001125656
 20
7.3471765847
 30
0.0
 10
10.717368378
 20
7.3710087711
 30
0.0
 10
10.7355271946
 20
7.3941311655
 30
0.0
 10
10.7545649907
 20
7.4165128797
 30
0.0
 10
10.7744557974
 20
7.4381236797
 30
0.0
 10
10.7882688298
 20
7.4519991462
 30
0.0
 10
10.7953070591
 20
7.4587975643
 30
0.0
  0
SPLINE
  5
357
100
AcDbEntity
  8
0
100
AcDbSpline
 62
7
  6
CONTINUOUS
 70
0
 71
3
 72
43
 73
39
 74
0
 42
0.0000001
 43
0.0000001
 44
0.0000000001
 40
0.0
 40
0.0
 40
0.0
 40
0.0
 40
0.0448295013
 40
0.0932520614
 40
0.1446361849
 40
0.197957833
 40
0.2519564224
 40
0.3054028904
 40
0.3573262263
 40
0.4070960355
 40
0.4543831818
 40
0.4990704547
 40
0.5411687528
 40
0.5807567082
 40
0.617943521
 40
0.6528471877
 40
0.6855837371
 40
0.7162624987
 40
0.7449826915
 40
0.7718353864
 40
0.796902681
 40
0.8202600231
 40
0.841978934
 40
0.8621275901
 40
0.8807767051
 40
0.8979999075
 40
0.9138823621
 40
0.9285231578
 40
0.9420470203
 40
0.9546098565
 40
0.9605959308
 40
0.9664207265
 40
0.9721167175
 40
0.9777197291
 40
0.9832683483
 40
0.9888030065
 40
0.9943658583
 40
1.0
 40
1.0
 40
1.0
 40
1.0
 10
10.9214693304
 20
7.4489757053
 30
0.0
 10
10.9207796493
 20
7.446019256
 30
0.0
 10
10.9192917966
 20
7.4398817142
 30
0.0
 10
10.9168315099
 20
7.430400658
 30
0.0
 10
10.9140676232
 20
7.4204055515
 30
0.0
 10
10.911038089
 20
7.4100935291
 30
0.0
 10
10.9078001563
 20
7.3996986315
 30
0.0
 10
10.9044195767
 20
7.3894488864
 30
0.0
 10
10.90095844
 20
7.3795288555
 30
0.0
 10
10.8974665402
 20
7.3700629804
 30
0.0
 10
10.8939790117
 20
7.3611195082
 30
0.0
 10
10.8905181415
 20
7.3527250324
 30
0.0
 10
10.8870968277
 20
7.3448800664
 30
0.0
 10
10.88372185
 20
7.3375709833
 30
0.0
 10
10.8803963278
 20
7.3307778054
 30
0.0
 10
10.8771213261
 20
7.324478738
 30
0.0
 10
10.8738969246
 20
7.3186525589
 30
0.0
 10
10.8707229221
 20
7.3132798036
 30
0.0
 10
10.8675989193
 20
7.3083433586
 30
0.0
 10
10.8645249898
 20
7.3038284132
 30
0.0
 10
10.8615013891
 20
7.2997225765
 30
0.0
 10
10.8585288353
 20
7.2960156419
 30
0.0
 10
10.8556086255
 20
7.2926993581
 30
0.0
 10
10.8527422622
 20
7.2897674584
 30
0.0
 10
10.8499320517
 20
7.2872151537
 30
0.0
 10
10.8471802752
 20
7.285039517
 30
0.0
 10
10.8444900637
 20
7.2832388006
 30
0.0
 10
10.8418641882
 20
7.2818132649
 30
0.0
 10
10.8393068389
 20
7.2807645495
 30
0.0
 10
10.8372018513
 20
7.2801993965
 30
0.0
 10
10.8355685873
 20
7.2799513216
 30
0.0
 10
10.8343848614
 20
7.2798651367
 30
0.0
 10
10.8332239271
 20
7.279876691
 30
0.0
 10
10.8320868496
 20
7.2799867525
 30
0.0
 10
10.830974846
 20
7.2801960633
 30
0.0
 10
10.829889223
 20
7.2805055874
 30
0.0
 10
10.8288315112
 20
7.2809161447
 30
0.0
 10
10.828151728
 20
7.2812548499
 30
0.0
 10
10.8278181587
 20
7.2814400658
 30
0.0
  0
SPLINE
  5
358
100
AcDbEntity
  8
0
100
AcDbSpline
 62
7
  6
CONTINUOUS
 70
0
 71
3
 72
75
 73
71
 74
0
 42
0.0000001
 43
0.0000001
 44
0.0000000001
 40
0.0
 40
0.0
 40
0.0
 40
0.0
 40
0.0156747273
 40
0.0235325814
 40
0.031403181
 40
0.0471815803
 40
0.0630097508
 40
0.0788855268
 40
0.0948064622
 40
0.1107696438
 40
0.1267717932
 40
0.1347869014
 40
0.1428103611
 40
0.1588792318
 40
0.1749752631
 40
0.1910939891
 40
0.2072307449
 40
0.2233807077
 40
0.2395389397
 40
0.2557004309
 40
0.2718601429
 40
0.2880130529
 40
0.3041541969
 40
0.3202787136
 40
0.3363818874
 40
0.3524591897
 40
0.36850632
 40
0.3845192451
 40
0.4004942363
 40
0.4164279049
 40
0.4323172352
 40
0.4481596152
 40
0.4639528635
 40
0.4796952542
 40
0.4953855368
 40
0.5110229526
 40
0.526607247
 40
0.5421386771
 40
0.5576180139
 40
0.5730465408
 40
0.5884260451
 40
0.6037588059
 40
0.6190475753
 40
0.6342955548
 40
0.649506366
 40
0.6646840161
 40
0.6798328593
 40
0.6949575524
 40
0.7100630078
 40
0.725154342
 40
0.7402368221
 40
0.7553158097
 40
0.7703967041
 40
0.7854848839
 40
0.80058565
 40
0.8157041693
 40
0.8308454194
 40
0.8460141376
 40
0.8612147716
 40
0.8764514346
 40
0.8917278653
 40
0.9070473908
 40
0.9224129018
 40
0.9301142846
 40
0.9378280267
 40
0.9532922984
 40
0.9688082546
 40
0.9765865231
 40
0.9843782672
 40
1.0
 40
1.0
 40
1.0
 40
1.0
 10
11.3745901045
 20
5.9190945569
 30
0.0
 10
11.3598049054
 20
5.920119914
 30
0.0
 10
11.3376405638
 20
5.9222029825
 30
0.0
 10
11.3081971294
 20
5.9260544219
 30
0.0
 10
11.2787579861
 20
5.930631739
 30
0.0
 10
11.2420911467
 20
5.9376999326
 30
0.0
 10
11.1984486125
 20
5.9483026628
 30
0.0
 10
11.1552304164
 20
5.961008087
 30
0.0
 10
11.1125411392
 20
5.9757854221
 30
0.0
 10
11.0704839006
 20
5.9925988218
 30
0.0
 10
11.0360644494
 20
6.0082651454
 30
0.0
 10
11.0089443667
 20
6.0217718781
 30
0.0
 10
10.9820897872
 20
6.035934855
 30
0.0
 10
10.949103774
 20
6.0548280326
 30
0.0
 10
10.9105665845
 20
6.0793336225
 30
0.0
 10
10.8731467331
 20
6.105626181
 30
0.0
 10
10.8369348217
 20
6.1336420924
 30
0.0
 10
10.8020178568
 20
6.163313977
 30
0.0
 10
10.7684799169
 20
6.1945703765
 30
0.0
 10
10.7364017158
 20
6.2273360532
 30
0.0
 10
10.7058604733
 20
6.2615321352
 30
0.0
 10
10.6769297123
 20
6.2970763149
 30
0.0
 10
10.6496790895
 20
6.3338830438
 30
0.0
 10
10.6241742176
 20
6.3718637326
 30
0.0
 10
10.600476513
 20
6.4109269676
 30
0.0
 10
10.5786430512
 20
6.4509787316
 30
0.0
 10
10.5587264293
 20
6.4919226285
 30
0.0
 10
10.54077464
 20
6.5336601135
 30
0.0
 10
10.5248309564
 20
6.5760907293
 30
0.0
 10
10.5109338275
 20
6.6191123455
 30
0.0
 10
10.4991167853
 20
6.6626214026
 30
0.0
 10
10.4894083653
 20
6.7065131604
 30
0.0
 10
10.4818320281
 20
6.7506819467
 30
0.0
 10
10.4764061037
 20
6.7950214115
 30
0.0
 10
10.4731437525
 20
6.8394247834
 30
0.0
 10
10.472052931
 20
6.8837851243
 30
0.0
 10
10.4731363711
 20
6.9279955859
 30
0.0
 10
10.4763915713
 20
6.971949665
 30
0.0
 10
10.4818108006
 20
7.0155414594
 30
0.0
 10
10.489381114
 20
7.0586659224
 30
0.0
 10
10.4990843827
 20
7.1012191153
 30
0.0
 10
10.5108973281
 20
7.1430984593
 30
0.0
 10
10.5247915732
 20
7.1842029862
 30
0.0
 10
10.5407337177
 20
7.2244335804
 30
0.0
 10
10.558685414
 20
7.2636932198
 30
0.0
 10
10.5786034577
 20
7.3018872116
 30
0.0
 10
10.6004398899
 20
7.3389234227
 30
0.0
 10
10.6241421115
 20
7.3747125052
 30
0.0
 10
10.649653009
 20
7.409168114
 30
0.0
 10
10.6769110924
 20
7.4422071184
 30
0.0
 10
10.7058506409
 20
7.473749808
 30
0.0
 10
10.7364018585
 20
7.5037200933
 30
0.0
 10
10.7684910533
 20
7.5320456851
 30
0.0
 10
10.8020408153
 20
7.5586582718
 30
0.0
 10
10.8369702068
 20
7.5834936859
 30
0.0
 10
10.8731949596
 20
7.6064920597
 30
0.0
 10
10.9106276831
 20
7.6275979703
 30
0.0
 10
10.9491780721
 20
7.6467605725
 30
0.0
 10
10.9887531486
 20
7.6639337228
 30
0.0
 10
11.0292574103
 20
7.6790760816
 30
0.0
 10
11.070593352
 20
7.6921512562
 30
0.0
 10
11.1126606176
 20
7.7031277391
 30
0.0
 10
11.1482165113
 20
7.7104985702
 30
0.0
 10
11.1769199519
 20
7.7153240125
 30
0.0
 10
11.2058282979
 20
7.7194385572
 30
0.0
 10
11.2422336644
 20
7.7232278274
 30
0.0
 10
11.2788432467
 20
7.7252011616
 30
0.0
 10
11.3082341408
 20
7.7256932347
 30
0.0
 10
11.3377276574
 20
7.7254592382
 30
0.0
 10
11.3598548926
 20
7.724466088
 30
0.0
 10
11.3745901045
 20
7.7234441976
 30
0.0
  0
SPLINE
  5
359
100
AcDbEntity
  8
0
100
AcDbSpline
 62
7
  6
CONTINUOUS
 70
0
 71
3
 72
21
 73
17
 74
0
 42
0.0000001
 43
0.0000001
 44
0.0000000001
 40
0.0
 40
0.0
 40
0.0
 40
0.0
 40
0.1267948843
 40
0.2530337259
 40
0.3159557352
 40
0.3787429632
 40
0.441397645
 40
0.5039229569
 40
0.5663224814
 40
0.6286002277
 40
0.6907607935
 40
0.752809261
 40
0.8147511882
 40
0.8765925892
 40
0.9383399052
 40
1.0
 40
1.0
 40
1.0
 40
1.0
 10
11.7307248288
 20
6.3336069397
 30
0.0
 10
11.7482295977
 20
6.3323929799
 30
0.0
 10
11.7832480988
 20
6.3310678891
 30
0.0
 10
11.8269888833
 20
6.3321939488
 30
0.0
 10
11.8617653731
 20
6.3347672491
 30
0.0
 10
11.8876907878
 20
6.3375269661
 30
0.0
 10
11.9134588973
 20
6.3411156
 30
0.0
 10
11.9390441499
 20
6.345529685
 30
0.0
 10
11.964420903
 20
6.3507646107
 30
0.0
 10
11.9895637048
 20
6.3568153918
 30
0.0
 10
12.0144474154
 20
6.3636757293
 30
0.0
 10
12.0390470589
 20
6.3713389856
 30
0.0
 10
12.0633380187
 20
6.3797973087
 30
0.0
 10
12.0872960147
 20
6.3890423902
 30
0.0
 10
12.1108967188
 20
6.3990647691
 30
0.0
 10
12.1263877522
 20
6.4062630816
 30
0.0
 10
12.1340647501
 20
6.4099880569
 30
0.0
  0
SPLINE
  5
35A
100
AcDbEntity
  8
0
100
AcDbSpline
 62
7
  6
CONTINUOUS
 70
0
 71
3
 72
45
 73
41
 74
0
 42
0.0000001
 43
0.0000001
 44
0.0000000001
 40
0.0
 40
0.0
 40
0.0
 40
0.0
 40
0.0309549034
 40
0.0620432811
 40
0.0932611254
 40
0.1246017213
 40
0.15605678
 40
0.1876161421
 40
0.2192680867
 40
0.2509994878
 40
0.2827960299
 40
0.3146424271
 40
0.3465226554
 40
0.3784201916
 40
0.410318258
 40
0.4422000689
 40
0.4740490782
 40
0.5058492232
 40
0.5375851649
 40
0.5692425193
 40
0.6008080802
 40
0.6322700272
 40
0.6636181184
 40
0.6948438641
 40
0.7259406782
 40
0.7569040047
 40
0.7877314155
 40
0.8184226775
 40
0.833719794
 40
0.8489838096
 40
0.8642153207
 40
0.8794150599
 40
0.8945838973
 40
0.9097228295
 40
0.9248329874
 40
0.9399156194
 40
0.9549720991
 40
0.9700039099
 40
0.9850126451
 40
1.0
 40
1.0
 40
1.0
 40
1.0
 10
11.7307248288
 20
6.3336069397
 30
0.0
 10
11.7129917053
 20
6.334836736
 30
0.0
 10
11.6775174436
 20
6.3384343689
 30
0.0
 10
11.6246488251
 20
6.3471863524
 30
0.0
 10
11.5722117358
 20
6.3592702074
 30
0.0
 10
11.5204223072
 20
6.3746364196
 30
0.0
 10
11.4694905807
 20
6.3932221189
 30
0.0
 10
11.4196239361
 20
6.4149514662
 30
0.0
 10
11.3710251665
 20
6.4397358232
 30
0.0
 10
11.3238919569
 20
6.4674741822
 30
0.0
 10
11.2784160067
 20
6.4980535528
 30
0.0
 10
11.2347822758
 20
6.5313494198
 30
0.0
 10
11.1931682302
 20
6.5672262461
 30
0.0
 10
11.1537431346
 20
6.6055380302
 30
0.0
 10
11.1166673678
 20
6.646128894
 30
0.0
 10
11.0820917762
 20
6.6888337125
 30
0.0
 10
11.0501570646
 20
6.7334787805
 30
0.0
 10
11.0209932282
 20
6.7798825121
 30
0.0
 10
10.9947190264
 20
6.8278561735
 30
0.0
 10
10.9714415024
 20
6.8772046432
 30
0.0
 10
10.9512555356
 20
6.9277271919
 30
0.0
 10
10.9342434675
 20
6.9792183021
 30
0.0
 10
10.9204747649
 20
7.0314684823
 30
0.0
 10
10.9100057397
 20
7.0842651569
 30
0.0
 10
10.9028792947
 20
7.1373933486
 30
0.0
 10
10.8991248197
 20
7.1906371853
 30
0.0
 10
10.8987577769
 20
7.2437783936
 30
0.0
 10
10.9012796939
 20
7.2878507171
 30
0.0
 10
10.9049906894
 20
7.3228334138
 30
0.0
 10
10.9086122482
 20
7.3488839579
 30
0.0
 10
10.9130714179
 20
7.3747472769
 30
0.0
 10
10.9183636126
 20
7.4003973754
 30
0.0
 10
10.9244834279
 20
7.4258080307
 30
0.0
 10
10.9314247449
 20
7.4509533467
 30
0.0
 10
10.9391803267
 20
7.4758077398
 30
0.0
 10
10.9477425056
 20
7.50034582
 30
0.0
 10
10.957102317
 20
7.5245426355
 30
0.0
 10
10.9672505024
 20
7.548373534
 30
0.0
 10
10.9781763624
 20
7.57181396
 30
0.0
 10
10.9859771065
 20
7.5871758105
 30
0.0
 10
10.9900029428
 20
7.5947825929
 30
0.0
  0
SPLINE
  5
35B
100
AcDbEntity
  8
0
100
AcDbSpline
 62
7
  6
CONTINUOUS
 70
0
 71
3
 72
45
 73
41
 74
0
 42
0.0000001
 43
0.0000001
 44
0.0000000001
 40
0.0
 40
0.0
 40
0.0
 40
0.0
 40
0.0309847264
 40
0.0621059086
 40
0.0933592891
 40
0.1247377316
 40
0.1562324217
 40
0.1878325644
 40
0.2195257165
 40
0.2512979625
 40
0.2831341508
 40
0.3150181364
 40
0.3469330351
 40
0.3788614873
 40
0.4107859247
 40
0.442688841
 40
0.4745530608
 40
0.5063620054
 40
0.5380999521
 40
0.5697522845
 40
0.6013057297
 40
0.63274858
 40
0.6640708948
 40
0.6952646802
 40
0.7263240427
 40
0.757245313
 40
0.7880271361
 40
0.8186705262
 40
0.8339433911
 40
0.8491831205
 40
0.864390509
 40
0.8795664892
 40
0.8947121403
 40
0.90982867
 40
0.9249174243
 40
0.9399798697
 40
0.9550175957
 40
0.9700323049
 40
0.9850258035
 40
1.0
 40
1.0
 40
1.0
 40
1.0
 10
11.7307248288
 20
6.3587210127
 30
0.0
 10
11.7131469466
 20
6.359940043
 30
0.0
 10
11.677982907
 20
6.3635312185
 30
0.0
 10
11.6255891897
 20
6.3723166828
 30
0.0
 10
11.5736422819
 20
6.3844756759
 30
0.0
 10
11.5223658347
 20
6.3999561526
 30
0.0
 10
11.4719770699
 20
6.418691947
 30
0.0
 10
11.4226902935
 20
6.4406031986
 30
0.0
 10
11.3747148648
 20
6.4655965452
 30
0.0
 10
11.3282546228
 20
6.4935655913
 30
0.0
 10
11.283506945
 20
6.5243913351
 30
0.0
 10
11.240661932
 20
6.5579426676
 30
0.0
 10
11.1999016046
 20
6.5940769341
 30
0.0
 10
11.1613991425
 20
6.6326405416
 30
0.0
 10
11.1253181538
 20
6.6734696053
 30
0.0
 10
11.091811986
 20
6.7163906397
 30
0.0
 10
11.0610230797
 20
6.7612212891
 30
0.0
 10
11.0330823671
 20
6.8077710951
 30
0.0
 10
11.0081087209
 20
6.8558422994
 30
0.0
 10
10.9862084401
 20
6.9052306698
 30
0.0
 10
10.9674747994
 20
6.9557263621
 30
0.0
 10
10.9519876628
 20
7.0071148098
 30
0.0
 10
10.9398131373
 20
7.0591776118
 30
0.0
 10
10.9310032977
 20
7.1116934987
 30
0.0
 10
10.9255959284
 20
7.1644390833
 30
0.0
 10
10.9236144653
 20
7.2171904644
 30
0.0
 10
10.9250674759
 20
7.2697217067
 30
0.0
 10
10.9291409585
 20
7.3131818926
 30
0.0
 10
10.9341083308
 20
7.3476082598
 30
0.0
 10
10.9386778352
 20
7.3732083091
 30
0.0
 10
10.9440902556
 20
7.3985869027
 30
0.0
 10
10.9503399589
 20
7.4237173675
 30
0.0
 10
10.9574201283
 20
7.4485728987
 30
0.0
 10
10.9653234665
 20
7.473126998
 30
0.0
 10
10.9740413249
 20
7.4973535937
 30
0.0
 10
10.9835646672
 20
7.5212268219
 30
0.0
 10
10.9938831699
 20
7.5447213075
 30
0.0
 10
11.0049860223
 20
7.5678120842
 30
0.0
 10
11.0168611751
 20
7.5904742308
 30
0.0
 10
11.0252899388
 20
7.6052902444
 30
0.0
 10
11.0296282651
 20
7.6126176382
 30
0.0
  0
SPLINE
  5
35C
100
AcDbEntity
  8
0
100
AcDbSpline
 62
7
  6
CONTINUOUS
 70
0
 71
3
 72
41
 73
37
 74
0
 42
0.0000001
 43
0.0000001
 44
0.0000000001
 40
0.0
 40
0.0
 40
0.0
 40
0.0
 40
0.0310022413
 40
0.0621426337
 40
0.0934167844
 40
0.1248173062
 40
0.156335073
 40
0.1879589182
 40
0.2196759739
 40
0.2514718622
 40
0.2833309432
 40
0.3152365715
 40
0.3471713648
 40
0.3791174808
 40
0.4110568991
 40
0.4429717044
 40
0.4748443694
 40
0.5066580332
 40
0.5383967726
 40
0.5700458624
 40
0.6015920214
 40
0.6330236409
 40
0.6643309924
 40
0.6955064095
 40
0.7265444422
 40
0.7574419784
 40
0.7881983287
 40
0.8188152715
 40
0.8492970549
 40
0.8796503544
 40
0.9098841827
 40
0.9400097534
 40
0.955038281
 40
0.9700448616
 40
0.9850314265
 40
1.0
 40
1.0
 40
1.0
 40
1.0
 10
11.7401388634
 20
6.388098716
 30
0.0
 10
11.722791565
 20
6.3893017553
 30
0.0
 10
11.6880886171
 20
6.3928599213
 30
0.0
 10
11.6363890897
 20
6.4015921127
 30
0.0
 10
11.5851414241
 20
6.4136934008
 30
0.0
 10
11.5345717179
 20
6.4291107052
 30
0.0
 10
11.4848995005
 20
6.4477764972
 30
0.0
 10
11.4363412563
 20
6.4696092437
 30
0.0
 10
11.3891083521
 20
6.4945136176
 30
0.0
 10
11.3434064393
 20
6.522380984
 30
0.0
 10
11.2994344711
 20
6.5530898323
 30
0.0
 10
11.2573838705
 20
6.5865063175
 30
0.0
 10
11.2174377045
 20
6.6224848487
 30
0.0
 10
11.1797698954
 20
6.6608687161
 30
0.0
 10
11.1445444706
 20
6.7014907688
 30
0.0
 10
11.1119148545
 20
6.7441741356
 30
0.0
 10
11.082023207
 20
6.7887329894
 30
0.0
 10
11.0549998036
 20
6.8349733443
 30
0.0
 10
11.0309624576
 20
6.8826938872
 30
0.0
 10
11.010016027
 20
6.9316868579
 30
0.0
 10
10.9922519565
 20
6.9817389418
 30
0.0
 10
10.9777478797
 20
7.0326321885
 30
0.0
 10
10.9665672782
 20
7.0841449494
 30
0.0
 10
10.9587592
 20
7.1360528316
 30
0.0
 10
10.9543580409
 20
7.1881296636
 30
0.0
 10
10.9533833639
 20
7.2401484727
 30
0.0
 10
10.9558398114
 20
7.2918824572
 30
0.0
 10
10.961717099
 20
7.3431060138
 30
0.0
 10
10.9709899566
 20
7.3935955438
 30
0.0
 10
10.9836185384
 20
7.4431310658
 30
0.0
 10
10.9995473965
 20
7.4914948067
 30
0.0
 10
11.0155296542
 20
7.5306826674
 30
0.0
 10
11.0298876573
 20
7.56122551
 30
0.0
 10
11.041423337
 20
7.5836951673
 30
0.0
 10
11.0537209234
 20
7.605717848
 30
0.0
 10
11.062423713
 20
7.620094725
 30
0.0
 10
11.0668970191
 20
7.6271995576
 30
0.0
  0
SPLINE
  5
35D
100
AcDbEntity
  8
0
100
AcDbSpline
 62
7
  6
CONTINUOUS
 70
0
 71
3
 72
43
 73
39
 74
0
 42
0.0000001
 43
0.0000001
 44
0.0000000001
 40
0.0
 40
0.0
 40
0.0
 40
0.0
 40
0.0309458716
 40
0.0620243187
 40
0.0932313652
 40
0.1245604432
 40
0.1560034217
 40
0.1875503318
 40
0.219189673
 40
0.2509085586
 40
0.282692928
 40
0.3145277579
 40
0.3463972879
 40
0.3782852523
 40
0.4101751176
 40
0.4420503228
 40
0.4738945201
 40
0.5056918124
 40
0.5374269875
 40
0.5690857446
 40
0.6006549107
 40
0.6321226458
 40
0.663478632
 40
0.6947142449
 40
0.7258227047
 40
0.7567992025
 40
0.7876410008
 40
0.8183475033
 40
0.8336524017
 40
0.8489242511
 40
0.8641635946
 40
0.879371101
 40
0.9096899045
 40
0.9398926599
 40
0.9549556264
 40
0.9699934711
 40
0.9850077185
 40
1.0
 40
1.0
 40
1.0
 40
1.0
 10
11.8114763042
 20
6.4570053965
 30
0.0
 10
11.7948263871
 20
6.4581600722
 30
0.0
 10
11.7615191097
 20
6.4615305819
 30
0.0
 10
11.7118763732
 20
6.4697155436
 30
0.0
 10
11.6626332718
 20
6.4810079941
 30
0.0
 10
11.613990014
 20
6.495362283
 30
0.0
 10
11.5661411819
 20
6.5127204881
 30
0.0
 10
11.5192789461
 20
6.533012746
 30
0.0
 10
11.4735912815
 20
6.5561574072
 30
0.0
 10
11.4292614952
 20
6.5820614325
 30
0.0
 10
11.3864674217
 20
6.6106207382
 30
0.0
 10
11.3453807384
 20
6.6417206228
 30
0.0
 10
11.3061662766
 20
6.6752362212
 30
0.0
 10
11.2689813681
 20
6.7110330048
 30
0.0
 10
11.2339752139
 20
6.7489673129
 30
0.0
 10
11.2012882935
 20
6.7888869293
 30
0.0
 10
11.1710518052
 20
6.8306316894
 30
0.0
 10
11.143387144
 20
6.8740341175
 30
0.0
 10
11.1184054166
 20
6.9189200927
 30
0.0
 10
11.0962069983
 20
6.9651095419
 30
0.0
 10
11.0768811309
 20
7.0124171541
 30
0.0
 10
11.0605055654
 20
7.0606531199
 30
0.0
 10
11.0471462473
 20
7.1096238741
 30
0.0
 10
11.0368570551
 20
7.1591329066
 30
0.0
 10
11.0296795608
 20
7.2089813846
 30
0.0
 10
11.0256429253
 20
7.2589695317
 30
0.0
 10
11.0247635031
 20
7.3088952364
 30
0.0
 10
11.0266675253
 20
7.3503311784
 30
0.0
 10
11.0297712999
 20
7.3832414797
 30
0.0
 10
11.0328823011
 20
7.407759125
 30
0.0
 10
11.0367756449
 20
7.4321115974
 30
0.0
 10
11.0429978432
 20
7.4642928866
 30
0.0
 10
11.0527066656
 20
7.5039966864
 30
0.0
 10
11.0649789747
 20
7.5429033308
 30
0.0
 10
11.0762927113
 20
7.5734006451
 30
0.0
 10
11.0855101034
 20
7.5959240275
 30
0.0
 10
11.0954568894
 20
7.6180926065
 30
0.0
 10
11.1025730522
 20
7.632631361
 30
0.0
 10
11.1062490025
 20
7.6398331893
 30
0.0
  0
SPLINE
  5
35E
100
AcDbEntity
  8
0
100
AcDbSpline
 62
7
  6
CONTINUOUS
 70
0
 71
3
 72
45
 73
41
 74
0
 42
0.0000001
 43
0.0000001
 44
0.0000000001
 40
0.0
 40
0.0
 40
0.0
 40
0.0
 40
0.0309940926
 40
0.0621256184
 40
0.0933901778
 40
0.1247805253
 40
0.1562876746
 40
0.1879006226
 40
0.2196066948
 40
0.2513917201
 40
0.283240279
 40
0.3151359509
 40
0.3470615773
 40
0.378999532
 40
0.4109319968
 40
0.4428412388
 40
0.4747098877
 40
0.5065212078
 40
0.5382593645
 40
0.5699096791
 40
0.6014588715
 40
0.6328952856
 40
0.6642090941
 40
0.6953924803
 40
0.7264397914
 40
0.7573476614
 40
0.7881150984
 40
0.8187435345
 40
0.8340088885
 40
0.8492411418
 40
0.8644411554
 40
0.8796099266
 40
0.894748603
 40
0.9098584607
 40
0.9249409152
 40
0.9399975027
 40
0.9550298824
 40
0.9700398255
 40
0.9850292065
 40
1.0
 40
1.0
 40
1.0
 40
1.0
 10
11.8321818107
 20
6.5542794519
 30
0.0
 10
11.8166247031
 20
6.5553583409
 30
0.0
 10
11.7855030523
 20
6.5585436634
 30
0.0
 10
11.7391359621
 20
6.5663498598
 30
0.0
 10
11.6931697048
 20
6.5771615212
 30
0.0
 10
11.6478048989
 20
6.5909317229
 30
0.0
 10
11.6032363329
 20
6.6076008088
 30
0.0
 10
11.559656146
 20
6.6270967575
 30
0.0
 10
11.51725198
 20
6.6493353598
 30
0.0
 10
11.4762064575
 20
6.6742206547
 30
0.0
 10
11.4366963258
 20
6.7016453121
 30
0.0
 10
11.3988917261
 20
6.7314911041
 30
0.0
 10
11.3629554609
 20
6.7636294084
 30
0.0
 10
11.3290423021
 20
6.7979217595
 30
0.0
 10
11.297298326
 20
6.834220438
 30
0.0
 10
11.2678602891
 20
6.8723691029
 30
0.0
 10
11.2408550458
 20
6.9122034624
 30
0.0
 10
11.216399006
 20
6.9535519743
 30
0.0
 10
11.1945976355
 20
6.9962365782
 30
0.0
 10
11.1755450048
 20
7.0400734547
 30
0.0
 10
11.1593233835
 20
7.0848738086
 30
0.0
 10
11.1460028863
 20
7.1304446757
 30
0.0
 10
11.1356411667
 20
7.1765897335
 30
0.0
 10
11.1282831723
 20
7.2231101808
 30
0.0
 10
11.1239609157
 20
7.2698054243
 30
0.0
 10
11.1226934383
 20
7.3164745297
 30
0.0
 10
11.1244863011
 20
7.3629148721
 30
0.0
 10
11.1285298681
 20
7.4013053318
 30
0.0
 10
11.1332847127
 20
7.4316955275
 30
0.0
 10
11.1376012196
 20
7.4542838032
 30
0.0
 10
11.1426669595
 20
7.4766658837
 30
0.0
 10
11.1484766927
 20
7.4988179012
 30
0.0
 10
11.1550239185
 20
7.5207159264
 30
0.0
 10
11.1623018474
 20
7.5423362748
 30
0.0
 10
11.170302369
 20
7.5636556937
 30
0.0
 10
11.1790171113
 20
7.5846510918
 30
0.0
 10
11.1884364537
 20
7.6052998717
 30
0.0
 10
11.1985504539
 20
7.6255797583
 30
0.0
 10
11.2093479028
 20
7.6454686077
 30
0.0
 10
11.2169989944
 20
7.65846104
 30
0.0
 10
11.2209340256
 20
7.6648839227
 30
0.0
  0
SPLINE
  5
35F
100
AcDbEntity
  8
0
100
AcDbSpline
 62
7
  6
CONTINUOUS
 70
0
 71
3
 72
35
 73
31
 74
0
 42
0.0000001
 43
0.0000001
 44
0.0000000001
 40
0.0
 40
0.0
 40
0.0
 40
0.0
 40
0.0308202975
 40
0.0617171411
 40
0.0926876204
 40
0.123728537
 40
0.1548361463
 40
0.1860063335
 40
0.2172346354
 40
0.248516232
 40
0.279846
 40
0.3112185421
 40
0.3740582858
 40
0.4369988397
 40
0.4999903561
 40
0.5629818319
 40
0.5944669789
 40
0.6259330617
 40
0.6573739023
 40
0.6887834589
 40
0.7201558724
 40
0.7514854996
 40
0.7827669352
 40
0.813995059
 40
0.8451650607
 40
0.876272461
 40
0.907313157
 40
0.9382834369
 40
0.9691800009
 40
1.0
 40
1.0
 40
1.0
 40
1.0
 10
12.1939758132
 20
7.0082123663
 30
0.0
 10
12.184683011
 20
7.0101101532
 30
0.0
 10
12.1661460305
 20
7.0142716655
 30
0.0
 10
12.1385701246
 20
7.0215891669
 30
0.0
 10
12.1112297483
 20
7.0299785197
 30
0.0
 10
12.0841683819
 20
7.0394265075
 30
0.0
 10
12.0574283419
 20
7.0499183393
 30
0.0
 10
12.0310516062
 20
7.061437409
 30
0.0
 10
12.0050795716
 20
7.0739657467
 30
0.0
 10
11.979553107
 20
7.0874835765
 30
0.0
 10
11.9545118091
 20
7.1019698934
 30
0.0
 10
11.9218093635
 20
7.1225543205
 30
0.0
 10
11.8823435419
 20
7.1505906555
 30
0.0
 10
11.8375681345
 20
7.1876845646
 30
0.0
 10
11.7956230981
 20
7.2280185361
 30
0.0
 10
11.7632374708
 20
7.2641311799
 30
0.0
 10
11.7389972064
 20
7.2943820351
 30
0.0
 10
11.7216805103
 20
7.317712922
 30
0.0
 10
11.7052542903
 20
7.3416504201
 30
0.0
 10
11.6897440827
 20
7.3661574093
 30
0.0
 10
11.6751742274
 20
7.3911952599
 30
0.0
 10
11.6615675877
 20
7.4167247205
 30
0.0
 10
11.6489456336
 20
7.4427057673
 30
0.0
 10
11.6373280667
 20
7.4690975703
 30
0.0
 10
11.6267331728
 20
7.4958587295
 30
0.0
 10
11.6171776775
 20
7.5229472853
 30
0.0
 10
11.6086764777
 20
7.5503206383
 30
0.0
 10
11.6012429661
 20
7.5779359988
 30
0.0
 10
11.5948890084
 20
7.6057494828
 30
0.0
 10
11.5913745823
 20
7.6244197774
 30
0.0
 10
11.5898011655
 20
7.6337728725
 30
0.0
  0
SPLINE
  5
360
100
AcDbEntity
  8
0
100
AcDbSpline
 62
7
  6
CONTINUOUS
 70
0
 71
3
 72
26
 73
22
 74
0
 42
0.0000001
 43
0.0000001
 44
0.0000000001
 40
0.0
 40
0.0
 40
0.0
 40
0.0
 40
0.0308876139
 40
0.0618412546
 40
0.0928581293
 40
0.1239350675
 40
0.1550686263
 40
0.1862551053
 40
0.248761601
 40
0.3114292687
 40
0.374220569
 40
0.4370956199
 40
0.5000129603
 40
0.5629303343
 40
0.6258054842
 40
0.6885969463
 40
0.7512648364
 40
0.8137716122
 40
0.8760828045
 40
0.9381677046
 40
1.0
 40
1.0
 40
1.0
 40
1.0
 10
12.1742061587
 20
7.0708171387
 30
0.0
 10
12.1663393155
 20
7.0728817725
 30
0.0
 10
12.1506598829
 20
7.0772918517
 30
0.0
 10
12.1273625956
 20
7.0847300532
 30
0.0
 10
12.1042902438
 20
7.0929891484
 30
0.0
 10
12.081473374
 20
7.1020584081
 30
0.0
 10
12.0589411771
 20
7.1119260437
 30
0.0
 10
12.0292982098
 20
7.1261393083
 30
0.0
 10
11.9931046449
 20
7.1458390635
 30
0.0
 10
11.9513099564
 20
7.172420917
 30
0.0
 10
11.9113304865
 20
7.2018276008
 30
0.0
 10
11.8733752653
 20
7.2339055592
 30
0.0
 10
11.8376410517
 20
7.2684882373
 30
0.0
 10
11.8043135823
 20
7.3053959029
 30
0.0
 10
11.773566018
 20
7.3444368595
 30
0.0
 10
11.745558186
 20
7.3854083007
 30
0.0
 10
11.7204356861
 20
7.428097478
 30
0.0
 10
11.6983292725
 20
7.4722824533
 30
0.0
 10
11.6793538559
 20
7.5177345687
 30
0.0
 10
11.6636090719
 20
7.5642146468
 30
0.0
 10
11.6553014368
 20
7.5958013403
 30
0.0
 10
11.6517148899
 20
7.6116829496
 30
0.0
  0
SPLINE
  5
361
100
AcDbEntity
  8
0
100
AcDbSpline
 62
7
  6
CONTINUOUS
 70
0
 71
3
 72
25
 73
21
 74
0
 42
0.0000001
 43
0.0000001
 44
0.0000000001
 40
0.0
 40
0.0
 40
0.0
 40
0.0
 40
0.0638612781
 40
0.0957121911
 40
0.1275067411
 40
0.190926209
 40
0.2541301216
 40
0.2856554877
 40
0.3171294121
 40
0.3799223073
 40
0.44252455
 40
0.5049487613
 40
0.5672094491
 40
0.629322891
 40
0.6913069674
 40
0.7531809757
 40
0.8149654269
 40
0.8766818235
 40
0.9383524247
 40
1.0
 40
1.0
 40
1.0
 40
1.0
 10
11.3934838913
 20
6.0078571893
 30
0.0
 10
11.4073665574
 20
6.0068944231
 30
0.0
 10
11.4282142147
 20
6.0059699328
 30
0.0
 10
11.4560007132
 20
6.0057872134
 30
0.0
 10
11.4836872943
 20
6.0063036062
 30
0.0
 10
11.5181685532
 20
6.0082569154
 30
0.0
 10
11.552447462
 20
6.011958684
 30
0.0
 10
11.5796580798
 20
6.0159625692
 30
0.0
 10
11.6066682733
 20
6.0206503158
 30
0.0
 10
11.6401129202
 20
6.0277982134
 30
0.0
 10
11.6796556301
 20
6.0384253581
 30
0.0
 10
11.7184791837
 20
6.0510691818
 30
0.0
 10
11.7564851083
 20
6.0656978592
 30
0.0
 10
11.7935778301
 20
6.082274654
 30
0.0
 10
11.8296638323
 20
6.1007578713
 30
0.0
 10
11.864652213
 20
6.1211010356
 30
0.0
 10
11.8984547119
 20
6.1432528727
 30
0.0
 10
11.930986435
 20
6.1671578973
 30
0.0
 10
11.9621642825
 20
6.1927548535
 30
0.0
 10
11.9819985363
 20
6.210908215
 30
0.0
 10
11.9916607235
 20
6.2202411857
 30
0.0
  0
SPLINE
  5
362
100
AcDbEntity
  8
0
100
AcDbSpline
 62
7
  6
CONTINUOUS
 70
0
 71
3
 72
39
 73
35
 74
0
 42
0.0000001
 43
0.0000001
 44
0.0000000001
 40
0.0
 40
0.0
 40
0.0
 40
0.0
 40
0.0172604065
 40
0.0342919625
 40
0.0511615669
 40
0.0679481911
 40
0.0847449645
 40
0.1016618123
 40
0.1188263732
 40
0.1363854352
 40
0.1545055271
 40
0.1733722108
 40
0.1931896658
 40
0.2141778918
 40
0.2365708771
 40
0.2606112477
 40
0.2865452679
 40
0.3146125784
 40
0.3450334017
 40
0.3779904848
 40
0.4136046253
 40
0.4519062865
 40
0.4928084851
 40
0.5360889849
 40
0.5813896595
 40
0.6282398767
 40
0.6761009928
 40
0.7244191072
 40
0.7726740135
 40
0.8204127261
 40
0.8672651139
 40
0.9129433442
 40
0.9572393768
 40
1.0
 40
1.0
 40
1.0
 40
1.0
 10
11.4373038614
 20
7.1602214176
 30
0.0
 10
11.4383725796
 20
7.160415192
 30
0.0
 10
11.4404837795
 20
7.1608714404
 30
0.0
 10
11.4435761798
 20
7.1617770211
 30
0.0
 10
11.4465631452
 20
7.162905163
 30
0.0
 10
11.4494366719
 20
7.1642636673
 30
0.0
 10
11.4521872615
 20
7.1658631018
 30
0.0
 10
11.454805461
 20
7.1677132947
 30
0.0
 10
11.4572791249
 20
7.1698278404
 30
0.0
 10
11.459596217
 20
7.1722198695
 30
0.0
 10
11.4617418428
 20
7.1749056484
 30
0.0
 10
11.4637008367
 20
7.1779018983
 30
0.0
 10
11.4654551452
 20
7.1812279321
 30
0.0
 10
11.466986158
 20
7.1849039883
 30
0.0
 10
11.4682724013
 20
7.1889522622
 30
0.0
 10
11.4692913341
 20
7.1933955869
 30
0.0
 10
11.4700183883
 20
7.1982569379
 30
0.0
 10
11.4704278869
 20
7.2035577119
 30
0.0
 10
11.4704940171
 20
7.2093154638
 30
0.0
 10
11.4701922394
 20
7.2155407962
 30
0.0
 10
11.469501671
 20
7.2222334302
 30
0.0
 10
11.4684080274
 20
7.2293779519
 30
0.0
 10
11.4669068504
 20
7.2369401801
 30
0.0
 10
11.4650062951
 20
7.2448653398
 30
0.0
 10
11.4627285522
 20
7.2530792089
 30
0.0
 10
11.4601091636
 20
7.2614926882
 30
0.0
 10
11.4571941343
 20
7.2700090623
 30
0.0
 10
11.454035478
 20
7.2785322451
 30
0.0
 10
11.4506863841
 20
7.2869739702
 30
0.0
 10
11.4471971157
 20
7.2952586212
 30
0.0
 10
11.4436122667
 20
7.3033251594
 30
0.0
 10
11.4399694123
 20
7.311127169
 30
0.0
 10
11.4362990727
 20
7.318630601
 30
0.0
 10
11.4338039478
 20
7.3235079861
 30
0.0
 10
11.4325564257
 20
7.3258921106
 30
0.0
  0
SPLINE
  5
363
100
AcDbEntity
  8
0
100
AcDbSpline
 62
7
  6
CONTINUOUS
 70
0
 71
3
 72
15
 73
11
 74
0
 42
0.0000001
 43
0.0000001
 44
0.0000000001
 40
0.0
 40
0.0
 40
0.0
 40
0.0
 40
0.1405842302
 40
0.2762096811
 40
0.4070806141
 40
0.5334386586
 40
0.6555688929
 40
0.7737929396
 40
0.8884704806
 40
1.0
 40
1.0
 40
1.0
 40
1.0
 10
11.3083232992
 20
10.0379625244
 30
0.0
 10
11.3063237921
 20
10.0360311488
 30
0.0
 10
11.3024691874
 20
10.0321589154
 30
0.0
 10
11.2970383709
 20
10.0262136456
 30
0.0
 10
11.2920670618
 20
10.0202402477
 30
0.0
 10
11.2875577369
 20
10.0142411342
 30
0.0
 10
11.2835122244
 20
10.0082185986
 30
0.0
 10
11.2799323449
 20
10.002174598
 30
0.0
 10
11.2768198966
 20
9.9961117702
 30
0.0
 10
11.2750347104
 20
9.9920061224
 30
0.0
 10
11.2742250229
 20
9.9899547001
 30
0.0
  0
SPLINE
  5
364
100
AcDbEntity
  8
0
100
AcDbSpline
 62
7
  6
CONTINUOUS
 70
0
 71
3
 72
20
 73
16
 74
0
 42
0.0000001
 43
0.0000001
 44
0.0000000001
 40
0.0
 40
0.0
 40
0.0
 40
0.0
 40
0.1269277606
 40
0.1901732441
 40
0.2532681101
 40
0.3162150871
 40
0.3790159197
 40
0.4416738831
 40
0.5041930774
 40
0.6288142879
 40
0.7529442159
 40
0.8148519409
 40
0.8766582295
 40
0.9383713417
 40
1.0
 40
1.0
 40
1.0
 40
1.0
 10
11.7307248288
 20
6.3587210127
 30
0.0
 10
11.7492239174
 20
6.3574380966
 30
0.0
 10
11.7770194459
 20
6.356465057
 30
0.0
 10
11.814020319
 20
6.3570963249
 30
0.0
 10
11.8416431432
 20
6.3585306313
 30
0.0
 10
11.8691336335
 20
6.360924613
 30
0.0
 10
11.8964597439
 20
6.3642756518
 30
0.0
 10
11.923589102
 20
6.3685796699
 30
0.0
 10
11.959413423
 20
6.3755738328
 30
0.0
 10
12.003557288
 20
6.3866668101
 30
0.0
 10
12.0467063785
 20
6.4008739139
 30
0.0
 10
12.0804392052
 20
6.4140516259
 30
0.0
 10
12.1053034203
 20
6.4248210397
 30
0.0
 10
12.1297214303
 20
6.4364711946
 30
0.0
 10
12.1456946727
 20
6.4448219118
 30
0.0
 10
12.1535959273
 20
6.4491388285
 30
0.0
  0
SPLINE
  5
365
100
AcDbEntity
  8
0
100
AcDbSpline
 62
7
  6
CONTINUOUS
 70
0
 71
3
 72
97
 73
93
 74
0
 42
0.0000001
 43
0.0000001
 44
0.0000000001
 40
0.0
 40
0.0
 40
0.0
 40
0.0
 40
0.0038882611
 40
0.0079308702
 40
0.0121316542
 40
0.0164939046
 40
0.021020438
 40
0.0257135047
 40
0.0305747133
 40
0.0356052412
 40
0.0408058343
 40
0.0461768748
 40
0.0517184267
 40
0.057430193
 40
0.0633116426
 40
0.0693619469
 40
0.0755800537
 40
0.0819647038
 40
0.0885143952
 40
0.0952274834
 40
0.1021021023
 40
0.1091362435
 40
0.1163277437
 40
0.1236742655
 40
0.1388222294
 40
0.1545591731
 40
0.1708619712
 40
0.1877057756
 40
0.20506417
 40
0.2229093072
 40
0.2412120276
 40
0.2599419794
 40
0.2790677293
 40
0.2985568638
 40
0.3183760846
 40
0.3384912993
 40
0.3588677119
 40
0.3794699171
 40
0.4002619874
 40
0.4212075582
 40
0.4422699129
 40
0.4634120669
 40
0.4845968555
 40
0.5057870183
 40
0.5269452825
 40
0.5480344467
 40
0.5690174656
 40
0.5898575376
 40
0.6105181879
 40
0.6309633536
 40
0.6511574688
 40
0.6710655526
 40
0.6906533026
 40
0.7098871826
 40
0.7287345133
 40
0.7471635671
 40
0.7651436683
 40
0.7826453049
 40
0.7996402409
 40
0.8161016328
 40
0.8320041636
 40
0.8473241918
 40
0.8547589967
 40
0.8620401782
 40
0.8691653253
 40
0.8761321781
 40
0.8829386458
 40
0.8895827595
 40
0.8960627702
 40
0.9023770711
 40
0.9085242722
 40
0.9145032021
 40
0.9203128843
 40
0.9259526388
 40
0.9314220078
 40
0.9367208591
 40
0.9418493789
 40
0.9468080863
 40
0.9515979385
 40
0.9562202814
 40
0.9606769879
 40
0.9649704599
 40
0.9691036982
 40
0.9730804223
 40
0.9769050734
 40
0.9805829924
 40
0.9841204516
 40
0.987524782
 40
0.9908044942
 40
0.9939693178
 40
0.9970303422
 40
1.0
 40
1.0
 40
1.0
 40
1.0
 10
11.3083232992
 20
10.0379625244
 30
0.0
 10
11.3105771112
 20
10.0401395397
 30
0.0
 10
11.3152728372
 20
10.0444788162
 30
0.0
 10
11.322715078
 20
10.0508226668
 30
0.0
 10
11.3306871605
 20
10.0571228965
 30
0.0
 10
11.3391850023
 20
10.0633763103
 30
0.0
 10
11.348204696
 20
10.069580223
 30
0.0
 10
11.357742166
 20
10.0757317807
 30
0.0
 10
11.3677929553
 20
10.0818282854
 30
0.0
 10
11.3783524175
 20
10.0878667965
 30
0.0
 10
11.3894155996
 20
10.0938445434
 30
0.0
 10
11.4009773387
 20
10.0997587668
 30
0.0
 10
11.4130322649
 20
10.105606636
 30
0.0
 10
11.4255747095
 20
10.1113855132
 30
0.0
 10
11.4385988301
 20
10.117092589
 30
0.0
 10
11.4520985034
 20
10.1227252415
 30
0.0
 10
11.4660674025
 20
10.1282808155
 30
0.0
 10
11.480498982
 20
10.1337566486
 30
0.0
 10
11.4953864481
 20
10.1391502437
 30
0.0
 10
11.5107228245
 20
10.1444589667
 30
0.0
 10
11.5265008888
 20
10.1496803856
 30
0.0
 10
11.5427132235
 20
10.1548120042
 30
0.0
 10
11.5593522202
 20
10.1598514047
 30
0.0
 10
11.5823305551
 20
10.166512444
 30
0.0
 10
11.6120696842
 20
10.1745776188
 30
0.0
 10
11.6489766843
 20
10.1837551568
 30
0.0
 10
11.6873889936
 20
10.192510561
 30
0.0
 10
11.7272342624
 20
10.2008272426
 30
0.0
 10
11.7684376179
 20
10.2086894234
 30
0.0
 10
11.8109215304
 20
10.2160821894
 30
0.0
 10
11.8546060386
 20
10.2229915295
 30
0.0
 10
11.8994088883
 20
10.2294043529
 30
0.0
 10
11.9452457048
 20
10.235308508
 30
0.0
 10
11.9920301542
 20
10.2406928079
 30
0.0
 10
12.0396741055
 20
10.2455470477
 30
0.0
 10
12.0880877941
 20
10.249862031
 30
0.0
 10
12.1371799934
 20
10.2536295939
 30
0.0
 10
12.1868581926
 20
10.2568426047
 30
0.0
 10
12.237028775
 20
10.2594949804
 30
0.0
 10
12.2875971926
 20
10.2615816969
 30
0.0
 10
12.3384681424
 20
10.2630987976
 30
0.0
 10
12.3895457476
 20
10.2640434163
 30
0.0
 10
12.4407337408
 20
10.2644137691
 30
0.0
 10
12.4919356473
 20
10.2642091558
 30
0.0
 10
12.543054966
 20
10.2634299622
 30
0.0
 10
12.5939953503
 20
10.2620776567
 30
0.0
 10
12.6446607923
 20
10.2601547985
 30
0.0
 10
12.6949558062
 20
10.2576650338
 30
0.0
 10
12.7447856082
 20
10.2546130775
 30
0.0
 10
12.7940562936
 20
10.2510047066
 30
0.0
 10
12.8426750129
 20
10.2468467496
 30
0.0
 10
12.890550152
 20
10.2421470737
 30
0.0
 10
12.9375915096
 20
10.2369145862
 30
0.0
 10
12.9837104677
 20
10.2311592015
 30
0.0
 10
13.0288201554
 20
10.2248918235
 30
0.0
 10
13.0728356133
 20
10.2181243265
 30
0.0
 10
13.1156739583
 20
10.2108695295
 30
0.0
 10
13.1572545566
 20
10.2031411872
 30
0.0
 10
13.1974991608
 20
10.1949539578
 30
0.0
 10
13.2363321308
 20
10.1863233717
 30
0.0
 10
13.273680315
 20
10.1772657823
 30
0.0
 10
13.30380104
 20
10.16929893
 30
0.0
 10
13.3270946356
 20
10.1627142545
 30
0.0
 10
13.3439760881
 20
10.1577291017
 30
0.0
 10
13.3604353713
 20
10.1526503713
 30
0.0
 10
13.3764647532
 20
10.1474804208
 30
0.0
 10
13.3920567011
 20
10.1422217542
 30
0.0
 10
13.4072038692
 20
10.1368767636
 30
0.0
 10
13.4218991554
 20
10.1314480562
 30
0.0
 10
13.4361356467
 20
10.1259381335
 30
0.0
 10
13.4499066596
 20
10.1203495986
 30
0.0
 10
13.463205746
 20
10.1146851277
 30
0.0
 10
13.4760266457
 20
10.1089472964
 30
0.0
 10
13.4883633834
 20
10.1031389003
 30
0.0
 10
13.5002101627
 20
10.0972625816
 30
0.0
 10
13.5115614559
 20
10.0913211237
 30
0.0
 10
13.5224119778
 20
10.0853173265
 30
0.0
 10
13.5327566346
 20
10.079253901
 30
0.0
 10
13.5425906618
 20
10.0731337676
 30
0.0
 10
13.5519094417
 20
10.0669596434
 30
0.0
 10
13.5607086791
 20
10.0607344203
 30
0.0
 10
13.5689843007
 20
10.0544609301
 30
0.0
 10
13.5767324222
 20
10.048141933
 30
0.0
 10
13.583949523
 20
10.0417803575
 30
0.0
 10
13.590632146
 20
10.0353788848
 30
0.0
 10
13.5967772135
 20
10.0289403879
 30
0.0
 10
13.6023817655
 20
10.0224676019
 30
0.0
 10
13.6074430037
 20
10.0159632253
 30
0.0
 10
13.611958439
 20
10.0094301324
 30
0.0
 10
13.6159255395
 20
10.0028708323
 30
0.0
 10
13.6193419435
 20
9.9962887492
 30
0.0
 10
13.6212777563
 20
9.991825408
 30
0.0
 10
13.6221474809
 20
9.9895957956
 30
0.0
  0
SPLINE
  5
366
100
AcDbEntity
  8
0
100
AcDbSpline
 62
7
  6
CONTINUOUS
 70
0
 71
3
 72
23
 73
19
 74
0
 42
0.0000001
 43
0.0000001
 44
0.0000000001
 40
0.0
 40
0.0
 40
0.0
 40
0.0
 40
0.0635818389
 40
0.1270091306
 40
0.1902751703
 40
0.2533841463
 40
0.3163386361
 40
0.3791408509
 40
0.4417946838
 40
0.5043047841
 40
0.5666764136
 40
0.6289156726
 40
0.6910293913
 40
0.7530250751
 40
0.8149109089
 40
0.8766956783
 40
0.9383887458
 40
1.0
 40
1.0
 40
1.0
 40
1.0
 10
11.7401388634
 20
6.388098716
 30
0.0
 10
11.7495808862
 20
6.3874439095
 30
0.0
 10
11.7684672212
 20
6.38647405
 30
0.0
 10
11.7967939002
 20
6.3860424726
 30
0.0
 10
11.8250476534
 20
6.3866368078
 30
0.0
 10
11.853190666
 20
6.3882562036
 30
0.0
 10
11.8811868581
 20
6.3908983858
 30
0.0
 10
11.908999723
 20
6.3945601967
 30
0.0
 10
11.9365930108
 20
6.3992367556
 30
0.0
 10
11.9639308452
 20
6.4049219567
 30
0.0
 10
11.990977612
 20
6.4116085785
 30
0.0
 10
12.0176981392
 20
6.4192877602
 30
0.0
 10
12.0440576157
 20
6.427949629
 30
0.0
 10
12.0700217241
 20
6.4375829449
 30
0.0
 10
12.0955566753
 20
6.448175044
 30
0.0
 10
12.120629276
 20
6.4597123939
 30
0.0
 10
12.1452064761
 20
6.4721795871
 30
0.0
 10
12.161250553
 20
6.481106256
 30
0.0
 10
12.1691778591
 20
6.4857183824
 30
0.0
  0
SPLINE
  5
367
100
AcDbEntity
  8
0
100
AcDbSpline
 62
7
  6
CONTINUOUS
 70
0
 71
3
 72
98
 73
94
 74
0
 42
0.0000001
 43
0.0000001
 44
0.0000000001
 40
0.0
 40
0.0
 40
0.0
 40
0.0
 40
0.0040448149
 40
0.0082602965
 40
0.0126508419
 40
0.0172201654
 40
0.0219714014
 40
0.026907028
 40
0.0320287453
 40
0.0373377195
 40
0.0428346257
 40
0.0485196766
 40
0.0543927428
 40
0.0604532579
 40
0.0667003629
 40
0.073132895
 40
0.0797493749
 40
0.0865481279
 40
0.0935271791
 40
0.1006843658
 40
0.108017325
 40
0.1155234576
 40
0.1310438538
 40
0.1472218367
 40
0.1640309235
 40
0.1814424344
 40
0.1994257034
 40
0.217948251
 40
0.2369759558
 40
0.2564732185
 40
0.2764031019
 40
0.2967274614
 40
0.317407063
 40
0.3384017143
 40
0.3596703893
 40
0.3811713428
 40
0.4028622228
 40
0.4247001808
 40
0.4466419917
 40
0.4686441663
 40
0.4906630605
 40
0.512654985
 40
0.5345763204
 40
0.55638363
 40
0.5780337695
 40
0.599483997
 40
0.6206920876
 40
0.6416164548
 40
0.6622162611
 40
0.6824515319
 40
0.7022832743
 40
0.7216736082
 40
0.7405859013
 40
0.7589848938
 40
0.7768368394
 40
0.7941096605
 40
0.8107731327
 40
0.8267990775
 40
0.8421615695
 40
0.8495867517
 40
0.8568375234
 40
0.8639113769
 40
0.8708060643
 40
0.8775194909
 40
0.8840498284
 40
0.8903954975
 40
0.8965551444
 40
0.902527771
 40
0.9083126354
 40
0.9139093749
 40
0.9193180186
 40
0.9245389704
 40
0.9295731717
 40
0.9344220318
 40
0.9390875722
 40
0.9435724921
 40
0.9478801853
 40
0.9520149507
 40
0.9559819876
 40
0.9597875808
 40
0.9634392346
 40
0.9669457414
 40
0.9703174129
 40
0.9735661095
 40
0.9767053715
 40
0.9797504601
 40
0.9827182679
 40
0.9856272337
 40
0.9884970416
 40
0.9913482755
 40
0.9942019601
 40
0.9970790636
 40
1.0
 40
1.0
 40
1.0
 40
1.0
 10
11.6657158761
 20
10.013177265
 30
0.0
 10
11.6673609702
 20
10.014766304
 30
0.0
 10
11.6707972285
 20
10.0179328295
 30
0.0
 10
11.6762598048
 20
10.0225546869
 30
0.0
 10
11.682132209
 20
10.0271424742
 30
0.0
 10
11.6884110583
 20
10.0316935411
 30
0.0
 10
11.6950930788
 20
10.0362057103
 30
0.0
 10
11.7021748867
 20
10.0406766309
 30
0.0
 10
11.7096527583
 20
10.0451041037
 30
0.0
 10
11.7175227886
 20
10.0494857467
 30
0.0
 10
11.7257808361
 20
10.0538192387
 30
0.0
 10
11.7344225332
 20
10.0581023742
 30
0.0
 10
11.7434433675
 20
10.0623328059
 30
0.0
 10
11.752838555
 20
10.0665083813
 30
0.0
 10
11.7626031474
 20
10.0706268508
 30
0.0
 10
11.7727319871
 20
10.0746860079
 30
0.0
 10
11.7832197002
 20
10.0786837655
 30
0.0
 10
11.7940607552
 20
10.0826179141
 30
0.0
 10
11.8052493938
 20
10.0864864318
 30
0.0
 10
11.8167796887
 20
10.0902872311
 30
0.0
 10
11.828645542
 20
10.0940182846
 30
0.0
 10
11.8450890112
 20
10.0989523728
 30
0.0
 10
11.8664421632
 20
10.1049198753
 30
0.0
 10
11.8930240433
 20
10.1116947403
 30
0.0
 10
11.9207851333
 20
10.1181462735
 30
0.0
 10
11.9496664839
 20
10.12426068
 30
0.0
 10
11.9796069141
 20
10.1300248567
 30
0.0
 10
12.0105428928
 20
10.135426469
 30
0.0
 10
12.0424087544
 20
10.1404539665
 30
0.0
 10
12.0751368349
 20
10.1450965944
 30
0.0
 10
12.1086576279
 20
10.1493444212
 30
0.0
 10
12.1428999267
 20
10.153188354
 30
0.0
 10
12.1777909734
 20
10.1566201798
 30
0.0
 10
12.2132566193
 20
10.1596325699
 30
0.0
 10
12.2492214914
 20
10.1622190872
 30
0.0
 10
12.2856091529
 20
10.1643742019
 30
0.0
 10
12.3223422616
 20
10.1660933003
 30
0.0
 10
12.3593427345
 20
10.1673727173
 30
0.0
 10
12.3965319179
 20
10.1682097248
 30
0.0
 10
12.4338307576
 20
10.1686025351
 30
0.0
 10
12.4711599648
 20
10.1685503048
 30
0.0
 10
12.5084401846
 20
10.1680531375
 30
0.0
 10
12.5455921674
 20
10.1671121039
 30
0.0
 10
12.5825369386
 20
10.1657292178
 30
0.0
 10
12.6191959656
 20
10.1639074327
 30
0.0
 10
12.655491323
 20
10.1616506348
 30
0.0
 10
12.691345863
 20
10.1589636399
 30
0.0
 10
12.7266833833
 20
10.1558521993
 30
0.0
 10
12.7614287885
 20
10.1523229648
 30
0.0
 10
12.7955082451
 20
10.1483834796
 30
0.0
 10
12.8288493408
 20
10.1440421585
 30
0.0
 10
12.8613812483
 20
10.1393082823
 30
0.0
 10
12.8930348822
 20
10.134191986
 30
0.0
 10
12.9237430415
 20
10.1287042167
 30
0.0
 10
12.9534405544
 20
10.1228567178
 30
0.0
 10
12.9820644073
 20
10.1166619944
 30
0.0
 10
13.0095539699
 20
10.1101333129
 30
0.0
 10
13.0358508807
 20
10.1032846434
 30
0.0
 10
13.0569573498
 20
10.097256719
 30
0.0
 10
13.0731969387
 20
10.0922758733
 30
0.0
 10
13.0849060736
 20
10.0885118386
 30
0.0
 10
13.0962767531
 20
10.0846789874
 30
0.0
 10
13.1073029772
 20
10.0807794177
 30
0.0
 10
13.1179788887
 20
10.0768151462
 30
0.0
 10
13.1282988376
 20
10.0727882976
 30
0.0
 10
13.1382573723
 20
10.0687010467
 30
0.0
 10
13.1478492043
 20
10.0645554836
 30
0.0
 10
13.1570692926
 20
10.0603538949
 30
0.0
 10
13.1659127542
 20
10.0560984407
 30
0.0
 10
13.1743749293
 20
10.0517913778
 30
0.0
 10
13.1824513858
 20
10.0474350245
 30
0.0
 10
13.1901378407
 20
10.0430315732
 30
0.0
 10
13.1974303059
 20
10.038583423
 30
0.0
 10
13.2043249384
 20
10.0340928231
 30
0.0
 10
13.2108181303
 20
10.0295620896
 30
0.0
 10
13.2169065337
 20
10.0249936051
 30
0.0
 10
13.2225869025
 20
10.0203895752
 30
0.0
 10
13.2278563361
 20
10.0157524041
 30
0.0
 10
13.2327120292
 20
10.0110843182
 30
0.0
 10
13.237151382
 20
10.0063875692
 30
0.0
 10
13.2411720645
 20
10.0016644729
 30
0.0
 10
13.2447717072
 20
9.9969171469
 30
0.0
 10
13.2479482969
 20
9.9921479119
 30
0.0
 10
13.250699778
 20
9.9873589714
 30
0.0
 10
13.2530241991
 20
9.9825526339
 30
0.0
 10
13.2549198902
 20
9.9777314036
 30
0.0
 10
13.2563850211
 20
9.9728978385
 30
0.0
 10
13.2574183037
 20
9.9680548614
 30
0.0
 10
13.2580185543
 20
9.9632055405
 30
0.0
 10
13.2581850141
 20
9.9583532247
 30
0.0
 10
13.2579176163
 20
9.9535012184
 30
0.0
 10
13.2572165996
 20
9.9486533571
 30
0.0
 10
13.2564678596
 20
9.9454566209
 30
0.0
 10
13.2560252781
 20
9.9438653197
 30
0.0
  0
SPLINE
  5
368
100
AcDbEntity
  8
0
100
AcDbSpline
 62
7
  6
CONTINUOUS
 70
0
 71
3
 72
58
 73
54
 74
0
 42
0.0000001
 43
0.0000001
 44
0.0000000001
 40
0.0
 40
0.0
 40
0.0
 40
0.0
 40
0.0100791168
 40
0.020624978
 40
0.0316337262
 40
0.0430999086
 40
0.0550168158
 40
0.0673764806
 40
0.0801698704
 40
0.0933869826
 40
0.1070168598
 40
0.1210477857
 40
0.1354671935
 40
0.1502618784
 40
0.1654179201
 40
0.1809208083
 40
0.196755464
 40
0.2129062422
 40
0.2293570524
 40
0.2460912813
 40
0.2803411417
 40
0.315515663
 40
0.3514687982
 40
0.388050071
 40
0.4251054855
 40
0.4624784181
 40
0.500010498
 40
0.5375424818
 40
0.5749151275
 40
0.6119700665
 40
0.648550678
 40
0.6845029691
 40
0.7196764671
 40
0.7369255553
 40
0.7539256006
 40
0.7706591692
 40
0.787109274
 40
0.8032593191
 40
0.8190931881
 40
0.8345952703
 40
0.8497504537
 40
0.8645442583
 40
0.8789627474
 40
0.8929927201
 40
0.9066216278
 40
0.9198377247
 40
0.9326300963
 40
0.9449886979
 40
0.9569045386
 40
0.9683696273
 40
0.9793772654
 40
0.9899220163
 40
1.0
 40
1.0
 40
1.0
 40
1.0
 10
11.7859880316
 20
9.8381631727
 30
0.0
 10
11.7900680923
 20
9.8401355911
 30
0.0
 10
11.7984830496
 20
9.8440365519
 30
0.0
 10
11.8115559889
 20
9.849644394
 30
0.0
 10
11.8253519965
 20
9.8551352931
 30
0.0
 10
11.8398553382
 20
9.8605030519
 30
0.0
 10
11.8550497288
 20
9.8657415124
 30
0.0
 10
11.8709179817
 20
9.8708447467
 30
0.0
 10
11.8874421528
 20
9.8758069392
 30
0.0
 10
11.9046035337
 20
9.8806223914
 30
0.0
 10
11.9223826693
 20
9.8852856776
 30
0.0
 10
11.9407594042
 20
9.8897913901
 30
0.0
 10
11.959712881
 20
9.8941344709
 30
0.0
 10
11.9792215882
 20
9.8983098935
 30
0.0
 10
11.9992633718
 20
9.9023129334
 30
0.0
 10
12.0198154671
 20
9.9061390129
 30
0.0
 10
12.0408545277
 20
9.9097837418
 30
0.0
 10
12.0623566405
 20
9.9132430063
 30
0.0
 10
12.0842973933
 20
9.9165128156
 30
0.0
 10
12.1143351196
 20
9.9206468602
 30
0.0
 10
12.1527965397
 20
9.9253020661
 30
0.0
 10
12.1999426371
 20
9.9300370112
 30
0.0
 10
12.2482165026
 20
9.9339409539
 30
0.0
 10
12.2973986864
 20
9.9369959964
 30
0.0
 10
12.3472657872
 20
9.9391880926
 30
0.0
 10
12.3975911975
 20
9.940507178
 30
0.0
 10
12.4481462228
 20
9.9409471925
 30
0.0
 10
12.4987011089
 20
9.9405061169
 30
0.0
 10
12.5490261081
 20
9.9391859792
 30
0.0
 10
12.5988925131
 20
9.9369928392
 30
0.0
 10
12.6480737752
 20
9.9339367784
 30
0.0
 10
12.6963462941
 20
9.9300317986
 30
0.0
 10
12.735885662
 20
9.9260599834
 30
0.0
 10
12.7668922471
 20
9.9224627402
 30
0.0
 10
12.7896340542
 20
9.9195823049
 30
0.0
 10
12.8119875081
 20
9.9165051814
 30
0.0
 10
12.8339272232
 20
9.9132349192
 30
0.0
 10
12.8554282564
 20
9.9097752157
 30
0.0
 10
12.8764661752
 20
9.9061300281
 30
0.0
 10
12.8970170734
 20
9.9023035382
 30
0.0
 10
12.9170576032
 20
9.8983000618
 30
0.0
 10
12.9365650033
 20
9.8941242414
 30
0.0
 10
12.9555171195
 20
9.8897807618
 30
0.0
 10
12.9738924426
 20
9.8852746562
 30
0.0
 10
12.9916701197
 20
9.8806110148
 30
0.0
 10
13.0088299914
 20
9.8757951812
 30
0.0
 10
13.0253526125
 20
9.8708326677
 30
0.0
 10
13.0412192653
 20
9.8657290797
 30
0.0
 10
13.0564120188
 20
9.8604903169
 30
0.0
 10
13.070913679
 20
9.8551222494
 30
0.0
 10
13.0847079653
 20
9.8496310544
 30
0.0
 10
13.0977791555
 20
9.8440229582
 30
0.0
 10
13.1061929082
 20
9.8401217954
 30
0.0
 10
13.1102723591
 20
9.8381492863
 30
0.0
  0
SPLINE
  5
369
100
AcDbEntity
  8
0
100
AcDbSpline
 62
7
  6
CONTINUOUS
 70
0
 71
3
 72
18
 73
14
 74
0
 42
0.0000001
 43
0.0000001
 44
0.0000000001
 40
0.0
 40
0.0
 40
0.0
 40
0.0
 40
0.1267615068
 40
0.2529817998
 40
0.3786697411
 40
0.5038405966
 40
0.6285187253
 40
0.6906906246
 40
0.7527519087
 40
0.814707731
 40
0.8765636369
 40
0.9383256122
 40
1.0
 40
1.0
 40
1.0
 40
1.0
 10
11.8114763042
 20
6.4570053965
 30
0.0
 10
11.8275950503
 20
6.4558875577
 30
0.0
 10
11.8598410249
 20
6.4546410886
 30
0.0
 10
11.908124072
 20
6.4557635694
 30
0.0
 10
11.9560436725
 20
6.4598776523
 30
0.0
 10
12.0034141873
 20
6.4669678903
 30
0.0
 10
12.0423236307
 20
6.4753434373
 30
0.0
 10
12.0729885892
 20
6.4835013759
 30
0.0
 10
12.0957197765
 20
6.4903364483
 30
0.0
 10
12.118180797
 20
6.4978866642
 30
0.0
 10
12.1403506354
 20
6.5061451237
 30
0.0
 10
12.1622079196
 20
6.5151036261
 30
0.0
 10
12.1765675891
 20
6.5215418214
 30
0.0
 10
12.1836874551
 20
6.5248744573
 30
0.0
  0
SPLINE
  5
36A
100
AcDbEntity
  8
0
100
AcDbSpline
 62
7
  6
CONTINUOUS
 70
0
 71
3
 72
44
 73
40
 74
0
 42
0.0000001
 43
0.0000001
 44
0.0000000001
 40
0.0
 40
0.0
 40
0.0
 40
0.0
 40
0.0119358018
 40
0.0241995714
 40
0.0367847404
 40
0.049684184
 40
0.062890463
 40
0.0763956657
 40
0.1042691321
 40
0.1332351296
 40
0.1632187728
 40
0.1941408032
 40
0.2259180747
 40
0.2584640024
 40
0.2916889848
 40
0.3255008067
 40
0.3598050292
 40
0.3945053704
 40
0.4295040793
 40
0.4647023076
 40
0.5000004767
 40
0.5352986433
 40
0.5704968647
 40
0.6054955629
 40
0.6401958906
 40
0.6745000981
 40
0.7083119035
 40
0.741536867
 40
0.7740827716
 40
0.8058600145
 40
0.8367820107
 40
0.8667656148
 40
0.895731569
 40
0.9236049894
 40
0.9503159055
 40
0.9632153502
 40
0.975800472
 40
0.9880642396
 40
1.0
 40
1.0
 40
1.0
 40
1.0
 10
11.9156095514
 20
9.8010102644
 30
0.0
 10
11.9196958741
 20
9.8022937623
 30
0.0
 10
11.9280020839
 20
9.8048287119
 30
0.0
 10
11.9406847891
 20
9.8084900652
 30
0.0
 10
11.9537524375
 20
9.8120597022
 30
0.0
 10
11.9671950787
 20
9.815534983
 30
0.0
 10
11.9810025624
 20
9.818913207
 30
0.0
 10
12.0000860243
 20
9.8233311832
 30
0.0
 10
12.0247798143
 20
9.828580522
 30
0.0
 10
12.0553921785
 20
9.8343894424
 30
0.0
 10
12.0871952976
 20
9.839754601
 30
0.0
 10
12.1200927422
 20
9.8446595994
 30
0.0
 10
12.1539849075
 20
9.8490894188
 30
0.0
 10
12.1887690787
 20
9.8530305099
 30
0.0
 10
12.2243398214
 20
9.8564708201
 30
0.0
 10
12.2605892882
 20
9.8593998324
 30
0.0
 10
12.2974075564
 20
9.8618085946
 30
0.0
 10
12.3346829639
 20
9.8636897463
 30
0.0
 10
12.3723024517
 20
9.8650375413
 30
0.0
 10
12.4101519103
 20
9.8658478636
 30
0.0
 10
12.4481165285
 20
9.8661182387
 30
0.0
 10
12.4860811441
 20
9.8658478414
 30
0.0
 10
12.523930595
 20
9.8650374977
 30
0.0
 10
12.5615500709
 20
9.8636896824
 30
0.0
 10
12.5988254634
 20
9.8618085122
 30
0.0
 10
12.6356437144
 20
9.8593997336
 30
0.0
 10
12.6718931618
 20
9.856470706
 30
0.0
 10
12.7074638817
 20
9.8530303803
 30
0.0
 10
12.7422480263
 20
9.8490892727
 30
0.0
 10
12.7761401554
 20
9.8446594349
 30
0.0
 10
12.80903757
 20
9.8397544196
 30
0.0
 10
12.8408406091
 20
9.8343892367
 30
0.0
 10
12.8714530451
 20
9.8285803187
 30
0.0
 10
12.9007821011
 20
9.8223454363
 30
0.0
 10
12.924345602
 20
9.8167476517
 30
0.0
 10
12.9424801985
 20
9.8120594804
 30
0.0
 10
12.9555478252
 20
9.8084897812
 30
0.0
 10
12.9682305018
 20
9.8048284589
 30
0.0
 10
12.9765366913
 20
9.8022934928
 30
0.0
 10
12.9806229962
 20
9.801009988
 30
0.0
  0
SPLINE
  5
36B
100
AcDbEntity
  8
0
100
AcDbSpline
 62
7
  6
CONTINUOUS
 70
0
 71
3
 72
22
 73
18
 74
0
 42
0.0000001
 43
0.0000001
 44
0.0000000001
 40
0.0
 40
0.0
 40
0.0
 40
0.0
 40
0.1269612617
 40
0.1902181596
 40
0.2533205304
 40
0.3162714665
 40
0.3790728713
 40
0.4417282523
 40
0.5042420602
 40
0.5666192766
 40
0.6288656178
 40
0.6909875165
 40
0.7529920842
 40
0.8148870285
 40
0.8766806696
 40
0.9383818741
 40
1.0
 40
1.0
 40
1.0
 40
1.0
 10
11.8321818107
 20
6.5542794519
 30
0.0
 10
11.8488590043
 20
6.5531228846
 30
0.0
 10
11.8739185085
 20
6.5522675999
 30
0.0
 10
11.9072723167
 20
6.5529108952
 30
0.0
 10
11.9321672509
 20
6.5542817215
 30
0.0
 10
11.9569366773
 20
6.5565397324
 30
0.0
 10
11.9815503379
 20
6.5596823509
 30
0.0
 10
12.0059771656
 20
6.5637054295
 30
0.0
 10
12.0301866237
 20
6.5686041371
 30
0.0
 10
12.0541484293
 20
6.5743722279
 30
0.0
 10
12.0778325788
 20
6.581002532
 30
0.0
 10
12.1012093879
 20
6.5884868453
 30
0.0
 10
12.1242496567
 20
6.5968156404
 30
0.0
 10
12.1469244273
 20
6.6059787096
 30
0.0
 10
12.1692054915
 20
6.6159644509
 30
0.0
 10
12.1910644985
 20
6.6267602826
 30
0.0
 10
12.2053474092
 20
6.6344938752
 30
0.0
 10
12.2124081132
 20
6.6384905581
 30
0.0
  0
SPLINE
  5
36C
100
AcDbEntity
  8
0
100
AcDbSpline
 62
7
  6
CONTINUOUS
 70
0
 71
3
 72
31
 73
27
 74
0
 42
0.0000001
 43
0.0000001
 44
0.0000000001
 40
0.0
 40
0.0
 40
0.0
 40
0.0
 40
0.010418236
 40
0.0211152213
 40
0.0322606942
 40
0.044010486
 40
0.0565027573
 40
0.0698580274
 40
0.0841853329
 40
0.0995822325
 40
0.1161345154
 40
0.1339192533
 40
0.1530131421
 40
0.1734897079
 40
0.1954175278
 40
0.2188653238
 40
0.2439077556
 40
0.2706181995
 40
0.3293421734
 40
0.3957038698
 40
0.4704363616
 40
0.5543591844
 40
0.6483740382
 40
0.7534278586
 40
0.8704136307
 40
1.0
 40
1.0
 40
1.0
 40
1.0
 10
10.9242299557
 20
7.5138548564
 30
0.0
 10
10.9244330495
 20
7.5137419474
 30
0.0
 10
10.9248300369
 20
7.5134857121
 30
0.0
 10
10.9253818134
 20
7.513021203
 30
0.0
 10
10.9258947506
 20
7.5124727985
 30
0.0
 10
10.9263687919
 20
7.5118399724
 30
0.0
 10
10.9268042039
 20
7.5111219137
 30
0.0
 10
10.9272013257
 20
7.5103175604
 30
0.0
 10
10.9275600475
 20
7.5094253034
 30
0.0
 10
10.9278802031
 20
7.5084433455
 30
0.0
 10
10.9281616269
 20
7.507369792
 30
0.0
 10
10.9284041624
 20
7.5062025317
 30
0.0
 10
10.9286071873
 20
7.5049390936
 30
0.0
 10
10.9287700739
 20
7.5035768052
 30
0.0
 10
10.9288922431
 20
7.5021128429
 30
0.0
 10
10.9289729729
 20
7.5005440705
 30
0.0
 10
10.9290111704
 20
7.4988670127
 30
0.0
 10
10.9290036933
 20
7.4964027087
 30
0.0
 10
10.9288722516
 20
7.4930184375
 30
0.0
 10
10.9285288655
 20
7.4885740719
 30
0.0
 10
10.9279805257
 20
7.4835845474
 30
0.0
 10
10.927209513
 20
7.4780013307
 30
0.0
 10
10.9261944398
 20
7.4717710607
 30
0.0
 10
10.9249106503
 20
7.4648391284
 30
0.0
 10
10.9233313312
 20
7.4571566358
 30
0.0
 10
10.9221259521
 20
7.4517904392
 30
0.0
 10
10.9214693304
 20
7.4489757053
 30
0.0
  0
SPLINE
  5
36D
100
AcDbEntity
  8
0
100
AcDbSpline
 62
7
  6
CONTINUOUS
 70
0
 71
3
 72
23
 73
19
 74
0
 42
0.0000001
 43
0.0000001
 44
0.0000000001
 40
0.0
 40
0.0
 40
0.0
 40
0.0
 40
0.0766666101
 40
0.1505171538
 40
0.2216740311
 40
0.2902819188
 40
0.3565130767
 40
0.4205629077
 40
0.48265058
 40
0.5430194167
 40
0.6019365605
 40
0.6596926713
 40
0.7165984255
 40
0.772979827
 40
0.8291730551
 40
0.8855178365
 40
0.9423510478
 40
1.0
 40
1.0
 40
1.0
 40
1.0
 10
11.6657158761
 20
10.013177265
 30
0.0
 10
11.6642858444
 20
10.0117959604
 30
0.0
 10
11.6615332977
 20
10.009026282
 30
0.0
 10
11.6576666264
 20
10.0047695647
 30
0.0
 10
11.654142942
 20
10.0004919101
 30
0.0
 10
11.6509642219
 20
9.9961951791
 30
0.0
 10
11.6481318785
 20
9.9918811481
 30
0.0
 10
11.6456473337
 20
9.9875514269
 30
0.0
 10
11.6435119208
 20
9.9832077208
 30
0.0
 10
11.6417268041
 20
9.9788518895
 30
0.0
 10
11.6402932819
 20
9.9744858054
 30
0.0
 10
11.6392123565
 20
9.9701115363
 30
0.0
 10
11.6384847811
 20
9.9657312631
 30
0.0
 10
11.6381113123
 20
9.9613472467
 30
0.0
 10
11.6380921638
 20
9.9569619132
 30
0.0
 10
11.638427359
 20
9.9525775854
 30
0.0
 10
11.6391166529
 20
9.948196988
 30
0.0
 10
11.6398058105
 20
9.9453056731
 30
0.0
 10
11.6402064089
 20
9.9438653198
 30
0.0
  0
SPLINE
  5
36E
100
AcDbEntity
  8
0
100
AcDbSpline
 62
4
  6
CONTINUOUS
 70
0
 71
3
 72
334
 73
330
 74
0
 42
0.0000001
 43
0.0000001
 44
0.0000000001
 40
0.0
 40
0.0
 40
0.0
 40
0.0
 40
0.015625
 40
0.03125
 40
0.0390625
 40
0.046875
 40
0.05078125
 40
0.0546875
 40
0.05859375
 40
0.060546875
 40
0.0615234375
 40
0.0625
 40
0.0634765625
 40
0.064453125
 40
0.06640625
 40
0.0703125
 40
0.07421875
 40
0.078125
 40
0.0859375
 40
0.09375
 40
0.1015625
 40
0.109375
 40
0.11328125
 40
0.1171875
 40
0.12109375
 40
0.123046875
 40
0.1240234375
 40
0.125
 40
0.1259765625
 40
0.126953125
 40
0.12890625
 40
0.1328125
 40
0.13671875
 40
0.140625
 40
0.1484375
 40
0.15625
 40
0.1640625
 40
0.171875
 40
0.17578125
 40
0.1796875
 40
0.18359375
 40
0.185546875
 40
0.1865234375
 40
0.1875
 40
0.1884765625
 40
0.189453125
 40
0.19140625
 40
0.1953125
 40
0.19921875
 40
0.203125
 40
0.2109375
 40
0.21875
 40
0.2265625
 40
0.234375
 40
0.23828125
 40
0.2421875
 40
0.244140625
 40
0.24609375
 40
0.248046875
 40
0.2490234375
 40
0.2495117188
 40
0.25
 40
0.2504882812
 40
0.2509765625
 40
0.251953125
 40
0.25390625
 40
0.255859375
 40
0.2578125
 40
0.26171875
 40
0.265625
 40
0.2734375
 40
0.28125
 40
0.2890625
 40
0.296875
 40
0.30078125
 40
0.3046875
 40
0.306640625
 40
0.30859375
 40
0.310546875
 40
0.3115234375
 40
0.3120117188
 40
0.3125
 40
0.3129882812
 40
0.3134765625
 40
0.314453125
 40
0.31640625
 40
0.318359375
 40
0.3203125
 40
0.32421875
 40
0.328125
 40
0.3359375
 40
0.34375
 40
0.3515625
 40
0.35546875
 40
0.359375
 40
0.36328125
 40
0.3671875
 40
0.369140625
 40
0.37109375
 40
0.373046875
 40
0.3740234375
 40
0.3745117188
 40
0.375
 40
0.3754882812
 40
0.3759765625
 40
0.376953125
 40
0.37890625
 40
0.380859375
 40
0.3828125
 40
0.38671875
 40
0.390625
 40
0.39453125
 40
0.3984375
 40
0.40625
 40
0.4140625
 40
0.41796875
 40
0.421875
 40
0.42578125
 40
0.4296875
 40
0.431640625
 40
0.43359375
 40
0.4345703125
 40
0.435546875
 40
0.4365234375
 40
0.4370117188
 40
0.4375
 40
0.4379882812
 40
0.4384765625
 40
0.439453125
 40
0.4404296875
 40
0.44140625
 40
0.443359375
 40
0.4453125
 40
0.44921875
 40
0.453125
 40
0.45703125
 40
0.4609375
 40
0.46875
 40
0.4765625
 40
0.48046875
 40
0.484375
 40
0.48828125
 40
0.4921875
 40
0.494140625
 40
0.49609375
 40
0.4970703125
 40
0.498046875
 40
0.4990234375
 40
0.4995117188
 40
0.4997558594
 40
0.5
 40
0.5002441406
 40
0.5004882812
 40
0.5009765625
 40
0.501953125
 40
0.5029296875
 40
0.50390625
 40
0.505859375
 40
0.5078125
 40
0.51171875
 40
0.515625
 40
0.51953125
 40
0.5234375
 40
0.53125
 40
0.5390625
 40
0.54296875
 40
0.546875
 40
0.55078125
 40
0.5546875
 40
0.556640625
 40
0.55859375
 40
0.5595703125
 40
0.560546875
 40
0.5615234375
 40
0.5620117188
 40
0.5622558594
 40
0.5625
 40
0.5627441406
 40
0.5629882812
 40
0.5634765625
 40
0.564453125
 40
0.5654296875
 40
0.56640625
 40
0.568359375
 40
0.5703125
 40
0.57421875
 40
0.578125
 40
0.58203125
 40
0.5859375
 40
0.59375
 40
0.6015625
 40
0.60546875
 40
0.609375
 40
0.61328125
 40
0.6171875
 40
0.619140625
 40
0.62109375
 40
0.6220703125
 40
0.623046875
 40
0.6240234375
 40
0.6245117188
 40
0.6247558594
 40
0.625
 40
0.6252441406
 40
0.6254882812
 40
0.6259765625
 40
0.626953125
 40
0.6279296875
 40
0.62890625
 40
0.630859375
 40
0.6328125
 40
0.63671875
 40
0.640625
 40
0.64453125
 40
0.6484375
 40
0.65625
 40
0.6640625
 40
0.66796875
 40
0.671875
 40
0.67578125
 40
0.6796875
 40
0.681640625
 40
0.68359375
 40
0.6845703125
 40
0.685546875
 40
0.6865234375
 40
0.6870117188
 40
0.6872558594
 40
0.6875
 40
0.6877441406
 40
0.6879882812
 40
0.6884765625
 40
0.689453125
 40
0.6904296875
 40
0.69140625
 40
0.693359375
 40
0.6953125
 40
0.69921875
 40
0.703125
 40
0.70703125
 40
0.7109375
 40
0.71875
 40
0.7265625
 40
0.73046875
 40
0.734375
 40
0.73828125
 40
0.7421875
 40
0.744140625
 40
0.74609375
 40
0.7470703125
 40
0.748046875
 40
0.7490234375
 40
0.7495117188
 40
0.75
 40
0.7504882812
 40
0.7509765625
 40
0.751953125
 40
0.7529296875
 40
0.75390625
 40
0.755859375
 40
0.7578125
 40
0.76171875
 40
0.765625
 40
0.76953125
 40
0.7734375
 40
0.78125
 40
0.7890625
 40
0.796875
 40
0.80078125
 40
0.8046875
 40
0.806640625
 40
0.80859375
 40
0.810546875
 40
0.8115234375
 40
0.8120117188
 40
0.8125
 40
0.8129882812
 40
0.8134765625
 40
0.814453125
 40
0.81640625
 40
0.818359375
 40
0.8203125
 40
0.82421875
 40
0.828125
 40
0.8359375
 40
0.84375
 40
0.8515625
 40
0.859375
 40
0.86328125
 40
0.8671875
 40
0.869140625
 40
0.87109375
 40
0.873046875
 40
0.8740234375
 40
0.8745117188
 40
0.875
 40
0.8754882812
 40
0.8759765625
 40
0.876953125
 40
0.87890625
 40
0.880859375
 40
0.8828125
 40
0.88671875
 40
0.890625
 40
0.8984375
 40
0.90625
 40
0.9140625
 40
0.921875
 40
0.92578125
 40
0.9296875
 40
0.931640625
 40
0.93359375
 40
0.935546875
 40
0.9365234375
 40
0.9370117188
 40
0.9375
 40
0.9379882812
 40
0.9384765625
 40
0.939453125
 40
0.94140625
 40
0.943359375
 40
0.9453125
 40
0.94921875
 40
0.953125
 40
0.9609375
 40
0.96875
 40
0.9765625
 40
0.984375
 40
1.0
 40
1.0
 40
1.0
 40
1.0
 10
12.261998847
 20
10.7101616982
 30
0.0
 10
12.2555678391
 20
10.7104372484
 30
0.0
 10
12.2427058215
 20
10.7109883419
 30
0.0
 10
12.2266283082
 20
10.7116772429
 30
0.0
 10
12.2137662793
 20
10.7122282922
 30
0.0
 10
12.2057275526
 20
10.7125728596
 30
0.0
 10
12.1992964764
 20
10.7128481436
 30
0.0
 10
12.1944734291
 20
10.7130556194
 30
0.0
 10
12.1904533963
 20
10.7132252941
 30
0.0
 10
12.1876409959
 20
10.7133503891
 30
0.0
 10
12.1860313764
 20
10.7134119995
 30
0.0
 10
12.1848312988
 20
10.7134860184
 30
0.0
 10
12.1836039397
 20
10.7134537287
 30
0.0
 10
12.181976977
 20
10.7134477574
 30
0.0
 10
12.1791253585
 20
10.7134200306
 30
0.0
 10
12.1750539357
 20
10.7133894536
 30
0.0
 10
12.1701672363
 20
10.7133488947
 30
0.0
 10
12.1636519835
 20
10.7132961673
 30
0.0
 10
12.1555078001
 20
10.7132297913
 30
0.0
 10
12.1457348237
 20
10.7131503534
 30
0.0
 10
12.1359618602
 20
10.7130708092
 30
0.0
 10
12.1278176445
 20
10.7130046991
 30
0.0
 10
12.1213024562
 20
10.71295144
 30
0.0
 10
12.1164155599
 20
10.7129125027
 30
0.0
 10
12.1123447532
 20
10.7128768528
 30
0.0
 10
12.1094920351
 20
10.7128581818
 30
0.0
 10
12.1078668342
 20
10.7128377008
 30
0.0
 10
12.1066340633
 20
10.7128499804
 30
0.0
 10
12.1054543113
 20
10.7127566044
 30
0.0
 10
12.1038628151
 20
10.712668957
 30
0.0
 10
12.1010863132
 20
10.712498403
 30
0.0
 10
12.0971153771
 20
10.7122637318
 30
0.0
 10
12.0923521821
 20
10.7119782836
 30
0.0
 10
12.0860005814
 20
10.7115990288
 30
0.0
 10
12.0780613146
 20
10.7111244964
 30
0.0
 10
12.0685340819
 20
10.7105552697
 30
0.0
 10
12.0590069252
 20
10.7099859368
 30
0.0
 10
12.0510674683
 20
10.7095116698
 30
0.0
 10
12.0447162479
 20
10.7091318844
 30
0.0
 10
12.039951893
 20
10.7088480543
 30
0.0
 10
12.0359845855
 20
10.7086083212
 30
0.0
 10
12.033201606
 20
10.7084468034
 30
0.0
 10
12.0316204884
 20
10.7083446779
 30
0.0
 10
12.0304088566
 20
10.7082957738
 30
0.0
 10
12.0292958211
 20
10.7081410245
 30
0.0
 10
12.0277773822
 20
10.707971612
 30
0.0
 10
12.0251361378
 20
10.7076579386
 30
0.0
 10
12.0213545542
 20
10.7072188269
 30
0.0
 10
12.0168202397
 20
10.7066880434
 30
0.0
 10
12.0107732343
 20
10.7059816768
 30
0.0
 10
12.0032149081
 20
10.7050982569
 30
0.0
 10
11.9941447292
 20
10.704038352
 30
0.0
 10
11.9850746113
 20
10.7029783897
 30
0.0
 10
11.9775161325
 20
10.7020951132
 30
0.0
 10
11.9714694324
 20
10.7013884598
 30
0.0
 10
11.967690061
 20
10.7009468693
 30
0.0
 10
11.9646669843
 20
10.7005934419
 30
0.0
 10
11.962398526
 20
10.7003287959
 30
0.0
 10
11.9605118046
 20
10.7001069068
 30
0.0
 10
11.9591839161
 20
10.6999542353
 30
0.0
 10
11.9584363391
 20
10.6998628554
 30
0.0
 10
11.9578440595
 20
10.6998059801
 30
0.0
 10
11.9573725592
 20
10.6997045357
 30
0.0
 10
11.956701763
 20
10.6995848226
 30
0.0
 10
11.9555474985
 20
10.6993680815
 30
0.0
 10
11.953888287
 20
10.6990622382
 30
0.0
 10
11.9519016258
 20
10.6986936054
 30
0.0
 10
11.9492512098
 20
10.6982026611
 30
0.0
 10
11.9459387153
 20
10.6975887869
 30
0.0
 10
11.9406384303
 20
10.6966066965
 30
0.0
 10
11.9340131756
 20
10.6953790461
 30
0.0
 10
11.9260628232
 20
10.6939058827
 30
0.0
 10
11.9181124954
 20
10.6924327111
 30
0.0
 10
11.9114871792
 20
10.691205081
 30
0.0
 10
11.9061870172
 20
10.69022295
 30
0.0
 10
11.90287421
 20
10.689609179
 30
0.0
 10
11.9002244359
 20
10.6891180228
 30
0.0
 10
11.8982358137
 20
10.6887500375
 30
0.0
 10
11.8965827374
 20
10.6884421683
 30
0.0
 10
11.8954175205
 20
10.6882290438
 30
0.0
 10
11.8947642728
 20
10.688103536
 30
0.0
 10
11.8942388694
 20
10.6880198911
 30
0.0
 10
11.893849041
 20
10.6878961639
 30
0.0
 10
11.8932819798
 20
10.6877451754
 30
0.0
 10
11.8923116559
 20
10.6874744315
 30
0.0
 10
11.8909139597
 20
10.6870910601
 30
0.0
 10
11.8892416549
 20
10.6866295568
 30
0.0
 10
11.887010193
 20
10.6860147282
 30
0.0
 10
11.8842214552
 20
10.685246018
 30
0.0
 10
11.8797591453
 20
10.6840161792
 30
0.0
 10
11.8741813708
 20
10.6824788473
 30
0.0
 10
11.8674879939
 20
10.6806340632
 30
0.0
 10
11.8619101874
 20
10.6790967405
 30
0.0
 10
11.8574479477
 20
10.6778668815
 30
0.0
 10
11.8541012469
 20
10.6769444914
 30
0.0
 10
11.8507546276
 20
10.676022085
 30
0.0
 10
11.8479655242
 20
10.6752534637
 30
0.0
 10
11.8457348102
 20
10.6746384533
 30
0.0
 10
11.8440602209
 20
10.6741775051
 30
0.0
 10
11.8426696721
 20
10.6737923966
 30
0.0
 10
11.8416865889
 20
10.6735247539
 30
0.0
 10
11.8411399713
 20
10.6733687966
 30
0.0
 10
11.8406873467
 20
10.6732603318
 30
0.0
 10
11.8403977954
 20
10.6731193638
 30
0.0
 10
11.8399548453
 20
10.6729427438
 30
0.0
 10
11.8392061848
 20
10.6726283766
 30
0.0
 10
11.8381228141
 20
10.6721820421
 30
0.0
 10
11.8368287
 20
10.6716452588
 30
0.0
 10
11.8351011428
 20
10.6709299605
 30
0.0
 10
11.8329424072
 20
10.670035696
 30
0.0
 10
11.8303516198
 20
10.6689626393
 30
0.0
 10
11.8277609139
 20
10.6678895664
 30
0.0
 10
11.8243066109
 20
10.6664588082
 30
0.0
 10
11.8199887417
 20
10.6646703585
 30
0.0
 10
11.8156708699
 20
10.6628819094
 30
0.0
 10
11.812216571
 20
10.6614511503
 30
0.0
 10
11.809625853
 20
10.66037808
 30
0.0
 10
11.8070351108
 20
10.6593050135
 30
0.0
 10
11.8048762344
 20
10.6584107795
 30
0.0
 10
11.8031489644
 20
10.657695419
 30
0.0
 10
11.8020698053
 20
10.6572482579
 30
0.0
 10
11.801205597
 20
10.6568906684
 30
0.0
 10
11.8005598528
 20
10.6566220945
 30
0.0
 10
11.8000140599
 20
10.6563994973
 30
0.0
 10
11.7995946342
 20
10.656218696
 30
0.0
 10
11.7992330425
 20
10.6560905369
 30
0.0
 10
11.7990509362
 20
10.655933972
 30
0.0
 10
11.7987454311
 20
10.6557351413
 30
0.0
 10
11.7983850607
 20
10.6554831985
 30
0.0
 10
11.7979434088
 20
10.6551823243
 30
0.0
 10
11.7973577556
 20
10.6547806498
 30
0.0
 10
11.7966245879
 20
10.6542787309
 30
0.0
 10
11.795452135
 20
10.6534755633
 30
0.0
 10
11.7939863578
 20
10.6524716373
 30
0.0
 10
11.7922275156
 20
10.6512669117
 30
0.0
 10
11.7904686493
 20
10.6500621899
 30
0.0
 10
11.7881235025
 20
10.6484558929
 30
0.0
 10
11.7851920663
 20
10.646448022
 30
0.0
 10
11.7822606308
 20
10.6444401511
 30
0.0
 10
11.779915483
 20
10.6428338543
 30
0.0
 10
11.7781566197
 20
10.6416291318
 30
0.0
 10
11.7763977662
 20
10.6404244088
 30
0.0
 10
11.7749320241
 20
10.6394204745
 30
0.0
 10
11.7737594996
 20
10.6386173238
 30
0.0
 10
11.7730265144
 20
10.6381153618
 30
0.0
 10
11.7724404866
 20
10.6377137759
 30
0.0
 10
11.771999979
 20
10.6374126312
 30
0.0
 10
11.7716360286
 20
10.6371615347
 30
0.0
 10
11.7713751025
 20
10.636986047
 30
0.0
 10
11.7712356214
 20
10.6368853314
 30
0.0
 10
11.7711039121
 20
10.6368110256
 30
0.0
 10
11.7710757874
 20
10.6367320144
 30
0.0
 10
11.7710021563
 20
10.6366283074
 30
0.0
 10
11.7708901363
 20
10.6364460554
 30
0.0
 10
11.7707213064
 20
10.6361860952
 30
0.0
 10
11.7705224778
 20
10.6358739718
 30
0.0
 10
11.7702560572
 20
10.6354578671
 30
0.0
 10
11.769923482
 20
10.6349377158
 30
0.0
 10
11.7693911099
 20
10.634105485
 30
0.0
 10
11.7687257311
 20
10.6330651927
 30
0.0
 10
11.7679272395
 20
10.6318168436
 30
0.0
 10
11.7671287579
 20
10.630568494
 30
0.0
 10
11.7660641122
 20
10.6289040281
 30
0.0
 10
11.7647333064
 20
10.6268234456
 30
0.0
 10
11.7634024997
 20
10.6247428632
 30
0.0
 10
11.7623378554
 20
10.6230783972
 30
0.0
 10
11.7615393696
 20
10.6218300478
 30
0.0
 10
11.7607408936
 20
10.6205816982
 30
0.0
 10
11.7600754663
 20
10.6195414074
 30
0.0
 10
11.759543193
 20
10.6187091736
 30
0.0
 10
11.7592103662
 20
10.6181890301
 30
0.0
 10
11.7589444621
 20
10.6177729092
 30
0.0
 10
11.7587440557
 20
10.6174608353
 30
0.0
 10
11.7585801624
 20
10.6172007203
 30
0.0
 10
11.7584593298
 20
10.6170187447
 30
0.0
 10
11.7583998187
 20
10.6169145948
 30
0.0
 10
11.7583283218
 20
10.6168369441
 30
0.0
 10
11.7583595113
 20
10.6167575282
 30
0.0
 10
11.7583652791
 20
10.6166522561
 30
0.0
 10
11.7583920612
 20
10.6164677429
 30
0.0
 10
11.7584215964
 20
10.6162043027
 30
0.0
 10
11.7584607732
 20
10.6158881102
 30
0.0
 10
11.7585117045
 20
10.6154665427
 30
0.0
 10
11.7585758153
 20
10.6149395756
 30
0.0
 10
11.7586781429
 20
10.6140964326
 30
0.0
 10
11.7588061381
 20
10.6130425023
 30
0.0
 10
11.7589596955
 20
10.6117777866
 30
0.0
 10
11.7591132628
 20
10.6105130708
 30
0.0
 10
11.7593180158
 20
10.608826783
 30
0.0
 10
11.7595739583
 20
10.6067189233
 30
0.0
 10
11.7598298999
 20
10.6046110636
 30
0.0
 10
11.7600346543
 20
10.6029247758
 30
0.0
 10
11.7601882175
 20
10.6016600599
 30
0.0
 10
11.7603417904
 20
10.6003953444
 30
0.0
 10
11.7604697375
 20
10.5993414137
 30
0.0
 10
11.7605721632
 20
10.5984982715
 30
0.0
 10
11.7606360242
 20
10.5979713023
 30
0.0
 10
11.7606874682
 20
10.597549739
 30
0.0
 10
11.7607250788
 20
10.5972335338
 30
0.0
 10
11.760759514
 20
10.5969701334
 30
0.0
 10
11.7607775488
 20
10.5967855491
 30
0.0
 10
11.760797332
 20
10.596680391
 30
0.0
 10
11.7607854708
 20
10.5966006249
 30
0.0
 10
11.7608756651
 20
10.5965242894
 30
0.0
 10
11.7609603261
 20
10.5964213121
 30
0.0
 10
11.7611250687
 20
10.5962416594
 30
0.0
 10
11.7613517439
 20
10.5959847211
 30
0.0
 10
11.7616274658
 20
10.59567652
 30
0.0
 10
11.7619937986
 20
10.5952655415
 30
0.0
 10
11.7624521585
 20
10.5947518334
 30
0.0
 10
11.7631852863
 20
10.593929892
 30
0.0
 10
11.7641017811
 20
10.5929024682
 30
0.0
 10
11.7652015383
 20
10.5916695584
 30
0.0
 10
11.7663013054
 20
10.5904366489
 30
0.0
 10
11.767767658
 20
10.5887927695
 30
0.0
 10
11.7696006
 20
10.5867379202
 30
0.0
 10
11.7714335412
 20
10.584683071
 30
0.0
 10
11.7728998952
 20
10.5830391916
 30
0.0
 10
11.7739996581
 20
10.5818062819
 30
0.0
 10
11.7750994308
 20
10.5805733728
 30
0.0
 10
11.7760158776
 20
10.5795459467
 30
0.0
 10
11.7767491033
 20
10.5787240101
 30
0.0
 10
11.777207214
 20
10.57821029
 30
0.0
 10
11.7775740583
 20
10.5777993361
 30
0.0
 10
11.7778482175
 20
10.5774910599
 30
0.0
 10
11.778079782
 20
10.5772343564
 30
0.0
 10
11.7782357964
 20
10.5770542846
 30
0.0
 10
11.7783344421
 20
10.5769519788
 30
0.0
 10
11.7783816799
 20
10.5768735805
 30
0.0
 10
11.7785311564
 20
10.5768015619
 30
0.0
 10
11.7786947964
 20
10.5767033117
 30
0.0
 10
11.7789977819
 20
10.5765324108
 30
0.0
 10
11.7794219316
 20
10.5762877245
 30
0.0
 10
11.7799346295
 20
10.575994333
 30
0.0
 10
11.7806169279
 20
10.5756030633
 30
0.0
 10
11.7814702456
 20
10.5751140039
 30
0.0
 10
11.7828353055
 20
10.5743314934
 30
0.0
 10
11.7845417155
 20
10.5733533606
 30
0.0
 10
11.7865893711
 20
10.5721795989
 30
0.0
 10
11.7886370364
 20
10.5710058378
 30
0.0
 10
11.7913672534
 20
10.5694408229
 30
0.0
 10
11.7947800257
 20
10.5674845542
 30
0.0
 10
11.7981927985
 20
10.5655282857
 30
0.0
 10
11.8009230145
 20
10.5639632705
 30
0.0
 10
11.8029706827
 20
10.5627895102
 30
0.0
 10
11.8050183276
 20
10.5616157456
 30
0.0
 10
11.8067247708
 20
10.5606376217
 30
0.0
 10
11.8080897632
 20
10.5598550931
 30
0.0
 10
11.8089432525
 20
10.5593660797
 30
0.0
 10
11.8096251987
 20
10.5589747156
 30
0.0
 10
11.8101389729
 20
10.5586816126
 30
0.0
 10
11.810559755
 20
10.5584360235
 30
0.0
 10
11.8109128947
 20
10.5582425501
 30
0.0
 10
11.8111326253
 20
10.5580892536
 30
0.0
 10
11.8115245955
 20
10.5579672238
 30
0.0
 10
11.811987057
 20
10.5577935956
 30
0.0
 10
11.8125857763
 20
10.5575803075
 30
0.0
 10
11.8132954039
 20
10.557322758
 30
0.0
 10
11.8142446601
 20
10.5569799187
 30
0.0
 10
11.8154301736
 20
10.5565511779
 30
0.0
 10
11.8173275859
 20
10.5558652998
 30
0.0
 10
11.8196991485
 20
10.5550079153
 30
0.0
 10
11.8225451106
 20
10.5539790697
 30
0.0
 10
11.8253910494
 20
10.5529502199
 30
0.0
 10
11.829185643
 20
10.5515784217
 30
0.0
 10
11.8339288788
 20
10.5498636727
 30
0.0
 10
11.8396207783
 20
10.5478059776
 30
0.0
 10
11.8443639813
 20
10.5460912211
 30
0.0
 10
11.8481586472
 20
10.5447194394
 30
0.0
 10
11.8505300781
 20
10.5438620225
 30
0.0
 10
11.8524277616
 20
10.543176211
 30
0.0
 10
11.8538495489
 20
10.5426615182
 30
0.0
 10
11.8550390651
 20
10.5422336709
 30
0.0
 10
11.8558625156
 20
10.5419320908
 30
0.0
 10
11.8563474407
 20
10.541763018
 30
0.0
 10
11.8566706203
 20
10.5416270337
 30
0.0
 10
11.8571486659
 20
10.5415261388
 30
0.0
 10
11.857732041
 20
10.5413793727
 30
0.0
 10
11.8587781159
 20
10.5411282346
 30
0.0
 10
11.8602593503
 20
10.5407664845
 30
0.0
 10
11.8620424638
 20
10.5403336605
 30
0.0
 10
11.8644179813
 20
10.5397561161
 30
0.0
 10
11.8673880517
 20
10.5390343383
 30
0.0
 10
11.8721397877
 20
10.5378794084
 30
0.0
 10
11.8780795877
 20
10.5364357756
 30
0.0
 10
11.885207289
 20
10.5347034025
 30
0.0
 10
11.8923350172
 20
10.5329710369
 30
0.0
 10
11.8982747498
 20
10.5315273855
 30
0.0
 10
11.9030266205
 20
10.5303724927
 30
0.0
 10
11.9059963488
 20
10.5296506206
 30
0.0
 10
11.9083725684
 20
10.5290732698
 30
0.0
 10
11.9101535367
 20
10.5286398545
 30
0.0
 10
11.9116414829
 20
10.5282799543
 30
0.0
 10
11.9126755761
 20
10.5280255139
 30
0.0
 10
11.913278149
 20
10.527884039
 30
0.0
 10
11.9136972251
 20
10.5277668912
 30
0.0
 10
11.9142418844
 20
10.5276919499
 30
0.0
 10
11.9149242921
 20
10.527577306
 30
0.0
 10
11.9161389149
 20
10.5273835386
 30
0.0
 10
11.91786342
 20
10.5271031419
 30
0.0
 10
11.9199373934
 20
10.5267682007
 30
0.0
 10
11.9227010961
 20
10.5263210765
 30
0.0
 10
11.9261562706
 20
10.5257623547
 30
0.0
 10
11.9316842445
 20
10.5248682972
 30
0.0
 10
11.9385943172
 20
10.5237507608
 30
0.0
 10
11.9468863566
 20
10.5224097009
 30
0.0
 10
11.9551784187
 20
10.5210686494
 30
0.0
 10
11.962088435
 20
10.5199510918
 30
0.0
 10
11.9676165218
 20
10.5190570768
 30
0.0
 10
11.9710714092
 20
10.5184982469
 30
0.0
 10
11.973835701
 20
10.5180513446
 30
0.0
 10
11.9759078745
 20
10.5177157254
 30
0.0
 10
11.9776380112
 20
10.5174374503
 30
0.0
 10
11.9788425807
 20
10.5172398954
 30
0.0
 10
11.9795410963
 20
10.51713132
 30
0.0
 10
11.9800362771
 20
10.5170377383
 30
0.0
 10
11.9806411866
 20
10.5169906007
 30
0.0
 10
11.981409458
 20
10.5169115503
 30
0.0
 10
11.9827717658
 20
10.5167807602
 30
0.0
 10
11.9847085966
 20
10.5165899709
 30
0.0
 10
11.9870367843
 20
10.5163627129
 30
0.0
 10
11.9901396406
 20
10.5160591122
 30
0.0
 10
11.9940186882
 20
10.5156798134
 30
0.0
 10
12.0002248977
 20
10.5150728224
 30
0.0
 10
12.0079827511
 20
10.5143141223
 30
0.0
 10
12.0172921359
 20
10.5134036657
 30
0.0
 10
12.0266015312
 20
10.5124932135
 30
0.0
 10
12.0390140547
 20
10.5112792757
 30
0.0
 10
12.0483234481
 20
10.5103688226
 30
0.0
 10
12.0545297101
 20
10.5097618539
 30
0.0
  0
SPLINE
  5
36F
100
AcDbEntity
  8
0
100
AcDbSpline
 62
4
  6
CONTINUOUS
 70
0
 71
3
 72
334
 73
330
 74
0
 42
0.0000001
 43
0.0000001
 44
0.0000000001
 40
0.0
 40
0.0
 40
0.0
 40
0.0
 40
0.015625
 40
0.03125
 40
0.0390625
 40
0.046875
 40
0.05078125
 40
0.0546875
 40
0.05859375
 40
0.060546875
 40
0.0615234375
 40
0.0625
 40
0.0634765625
 40
0.064453125
 40
0.06640625
 40
0.0703125
 40
0.07421875
 40
0.078125
 40
0.0859375
 40
0.09375
 40
0.1015625
 40
0.109375
 40
0.11328125
 40
0.1171875
 40
0.12109375
 40
0.123046875
 40
0.1240234375
 40
0.125
 40
0.1259765625
 40
0.126953125
 40
0.12890625
 40
0.1328125
 40
0.13671875
 40
0.140625
 40
0.1484375
 40
0.15625
 40
0.1640625
 40
0.171875
 40
0.17578125
 40
0.1796875
 40
0.18359375
 40
0.185546875
 40
0.1865234375
 40
0.1875
 40
0.1884765625
 40
0.189453125
 40
0.19140625
 40
0.1953125
 40
0.19921875
 40
0.203125
 40
0.2109375
 40
0.21875
 40
0.2265625
 40
0.234375
 40
0.23828125
 40
0.2421875
 40
0.244140625
 40
0.24609375
 40
0.248046875
 40
0.2490234375
 40
0.2495117188
 40
0.25
 40
0.2504882812
 40
0.2509765625
 40
0.251953125
 40
0.25390625
 40
0.255859375
 40
0.2578125
 40
0.26171875
 40
0.265625
 40
0.2734375
 40
0.28125
 40
0.2890625
 40
0.296875
 40
0.30078125
 40
0.3046875
 40
0.306640625
 40
0.30859375
 40
0.310546875
 40
0.3115234375
 40
0.3120117188
 40
0.3125
 40
0.3129882812
 40
0.3134765625
 40
0.314453125
 40
0.31640625
 40
0.318359375
 40
0.3203125
 40
0.32421875
 40
0.328125
 40
0.3359375
 40
0.34375
 40
0.3515625
 40
0.35546875
 40
0.359375
 40
0.36328125
 40
0.3671875
 40
0.369140625
 40
0.37109375
 40
0.373046875
 40
0.3740234375
 40
0.3745117188
 40
0.375
 40
0.3754882812
 40
0.3759765625
 40
0.376953125
 40
0.37890625
 40
0.380859375
 40
0.3828125
 40
0.38671875
 40
0.390625
 40
0.39453125
 40
0.3984375
 40
0.40625
 40
0.4140625
 40
0.41796875
 40
0.421875
 40
0.42578125
 40
0.4296875
 40
0.431640625
 40
0.43359375
 40
0.4345703125
 40
0.435546875
 40
0.4365234375
 40
0.4370117188
 40
0.4375
 40
0.4379882812
 40
0.4384765625
 40
0.439453125
 40
0.4404296875
 40
0.44140625
 40
0.443359375
 40
0.4453125
 40
0.44921875
 40
0.453125
 40
0.45703125
 40
0.4609375
 40
0.46875
 40
0.4765625
 40
0.48046875
 40
0.484375
 40
0.48828125
 40
0.4921875
 40
0.494140625
 40
0.49609375
 40
0.4970703125
 40
0.498046875
 40
0.4990234375
 40
0.4995117188
 40
0.4997558594
 40
0.5
 40
0.5002441406
 40
0.5004882812
 40
0.5009765625
 40
0.501953125
 40
0.5029296875
 40
0.50390625
 40
0.505859375
 40
0.5078125
 40
0.51171875
 40
0.515625
 40
0.51953125
 40
0.5234375
 40
0.53125
 40
0.5390625
 40
0.54296875
 40
0.546875
 40
0.55078125
 40
0.5546875
 40
0.556640625
 40
0.55859375
 40
0.5595703125
 40
0.560546875
 40
0.5615234375
 40
0.5620117188
 40
0.5622558594
 40
0.5625
 40
0.5627441406
 40
0.5629882812
 40
0.5634765625
 40
0.564453125
 40
0.5654296875
 40
0.56640625
 40
0.568359375
 40
0.5703125
 40
0.57421875
 40
0.578125
 40
0.58203125
 40
0.5859375
 40
0.59375
 40
0.6015625
 40
0.60546875
 40
0.609375
 40
0.61328125
 40
0.6171875
 40
0.619140625
 40
0.62109375
 40
0.6220703125
 40
0.623046875
 40
0.6240234375
 40
0.6245117188
 40
0.6247558594
 40
0.625
 40
0.6252441406
 40
0.6254882812
 40
0.6259765625
 40
0.626953125
 40
0.6279296875
 40
0.62890625
 40
0.630859375
 40
0.6328125
 40
0.63671875
 40
0.640625
 40
0.64453125
 40
0.6484375
 40
0.65625
 40
0.6640625
 40
0.66796875
 40
0.671875
 40
0.67578125
 40
0.6796875
 40
0.681640625
 40
0.68359375
 40
0.6845703125
 40
0.685546875
 40
0.6865234375
 40
0.6870117188
 40
0.6872558594
 40
0.6875
 40
0.6877441406
 40
0.6879882812
 40
0.6884765625
 40
0.689453125
 40
0.6904296875
 40
0.69140625
 40
0.693359375
 40
0.6953125
 40
0.69921875
 40
0.703125
 40
0.70703125
 40
0.7109375
 40
0.71875
 40
0.7265625
 40
0.73046875
 40
0.734375
 40
0.73828125
 40
0.7421875
 40
0.744140625
 40
0.74609375
 40
0.7470703125
 40
0.748046875
 40
0.7490234375
 40
0.7495117188
 40
0.75
 40
0.7504882812
 40
0.7509765625
 40
0.751953125
 40
0.7529296875
 40
0.75390625
 40
0.755859375
 40
0.7578125
 40
0.76171875
 40
0.765625
 40
0.76953125
 40
0.7734375
 40
0.78125
 40
0.7890625
 40
0.796875
 40
0.80078125
 40
0.8046875
 40
0.806640625
 40
0.80859375
 40
0.810546875
 40
0.8115234375
 40
0.8120117188
 40
0.8125
 40
0.8129882812
 40
0.8134765625
 40
0.814453125
 40
0.81640625
 40
0.818359375
 40
0.8203125
 40
0.82421875
 40
0.828125
 40
0.8359375
 40
0.84375
 40
0.8515625
 40
0.859375
 40
0.86328125
 40
0.8671875
 40
0.869140625
 40
0.87109375
 40
0.873046875
 40
0.8740234375
 40
0.8745117188
 40
0.875
 40
0.8754882812
 40
0.8759765625
 40
0.876953125
 40
0.87890625
 40
0.880859375
 40
0.8828125
 40
0.88671875
 40
0.890625
 40
0.8984375
 40
0.90625
 40
0.9140625
 40
0.921875
 40
0.92578125
 40
0.9296875
 40
0.931640625
 40
0.93359375
 40
0.935546875
 40
0.9365234375
 40
0.9370117188
 40
0.9375
 40
0.9379882812
 40
0.9384765625
 40
0.939453125
 40
0.94140625
 40
0.943359375
 40
0.9453125
 40
0.94921875
 40
0.953125
 40
0.9609375
 40
0.96875
 40
0.9765625
 40
0.984375
 40
1.0
 40
1.0
 40
1.0
 40
1.0
 10
12.0545296763
 20
10.5097618562
 30
0.0
 10
12.0609606842
 20
10.509486306
 30
0.0
 10
12.0738227018
 20
10.5089352125
 30
0.0
 10
12.0899002151
 20
10.5082463116
 30
0.0
 10
12.102762244
 20
10.5076952622
 30
0.0
 10
12.1108009706
 20
10.5073506948
 30
0.0
 10
12.1172320469
 20
10.5070754108
 30
0.0
 10
12.1220550941
 20
10.506867935
 30
0.0
 10
12.126075127
 20
10.5066982604
 30
0.0
 10
12.1288875274
 20
10.5065731653
 30
0.0
 10
12.1304971469
 20
10.506511555
 30
0.0
 10
12.1316972245
 20
10.506437536
 30
0.0
 10
12.1329245836
 20
10.5064698257
 30
0.0
 10
12.1345515463
 20
10.506475797
 30
0.0
 10
12.1374031648
 20
10.5065035238
 30
0.0
 10
12.1414745875
 20
10.5065341009
 30
0.0
 10
12.146361287
 20
10.5065746597
 30
0.0
 10
12.1528765398
 20
10.5066273872
 30
0.0
 10
12.1610207232
 20
10.5066937631
 30
0.0
 10
12.1707936996
 20
10.506773201
 30
0.0
 10
12.1805666631
 20
10.5068527452
 30
0.0
 10
12.1887108787
 20
10.5069188553
 30
0.0
 10
12.195226067
 20
10.5069721145
 30
0.0
 10
12.2001129633
 20
10.5070110518
 30
0.0
 10
12.2041837701
 20
10.5070467017
 30
0.0
 10
12.2070364882
 20
10.5070653726
 30
0.0
 10
12.2086616891
 20
10.5070858537
 30
0.0
 10
12.20989446
 20
10.5070735741
 30
0.0
 10
12.211074212
 20
10.50716695
 30
0.0
 10
12.2126657082
 20
10.5072545975
 30
0.0
 10
12.2154422101
 20
10.5074251514
 30
0.0
 10
12.2194131462
 20
10.5076598227
 30
0.0
 10
12.2241763412
 20
10.5079452708
 30
0.0
 10
12.2305279419
 20
10.5083245257
 30
0.0
 10
12.2384672086
 20
10.508799058
 30
0.0
 10
12.2479944414
 20
10.5093682848
 30
0.0
 10
12.2575215981
 20
10.5099376176
 30
0.0
 10
12.265461055
 20
10.5104118847
 30
0.0
 10
12.2718122754
 20
10.51079167
 30
0.0
 10
12.2765766303
 20
10.5110755002
 30
0.0
 10
12.2805439378
 20
10.5113152332
 30
0.0
 10
12.2833269173
 20
10.5114767511
 30
0.0
 10
12.2849080348
 20
10.5115788766
 30
0.0
 10
12.2861196667
 20
10.5116277807
 30
0.0
 10
12.2872327022
 20
10.51178253
 30
0.0
 10
12.2887511411
 20
10.5119519424
 30
0.0
 10
12.2913923855
 20
10.5122656159
 30
0.0
 10
12.2951739691
 20
10.5127047276
 30
0.0
 10
12.2997082836
 20
10.513235511
 30
0.0
 10
12.305755289
 20
10.5139418776
 30
0.0
 10
12.3133136152
 20
10.5148252976
 30
0.0
 10
12.3223837941
 20
10.5158852025
 30
0.0
 10
12.331453912
 20
10.5169451647
 30
0.0
 10
12.3390123908
 20
10.5178284412
 30
0.0
 10
12.3450590909
 20
10.5185350947
 30
0.0
 10
12.3488384623
 20
10.5189766851
 30
0.0
 10
12.351861539
 20
10.5193301126
 30
0.0
 10
12.3541299973
 20
10.5195947586
 30
0.0
 10
12.3560167187
 20
10.5198166476
 30
0.0
 10
12.3573446072
 20
10.5199693192
 30
0.0
 10
12.3580921842
 20
10.5200606991
 30
0.0
 10
12.3586844638
 20
10.5201175743
 30
0.0
 10
12.359155964
 20
10.5202190188
 30
0.0
 10
12.3598267602
 20
10.5203387318
 30
0.0
 10
12.3609810248
 20
10.5205554729
 30
0.0
 10
12.3626402363
 20
10.5208613162
 30
0.0
 10
12.3646268975
 20
10.521229949
 30
0.0
 10
12.3672773134
 20
10.5217208933
 30
0.0
 10
12.370589808
 20
10.5223347676
 30
0.0
 10
12.375890093
 20
10.5233168579
 30
0.0
 10
12.3825153477
 20
10.5245445083
 30
0.0
 10
12.3904657001
 20
10.5260176718
 30
0.0
 10
12.3984160279
 20
10.5274908434
 30
0.0
 10
12.4050413441
 20
10.5287184734
 30
0.0
 10
12.4103415061
 20
10.5297006045
 30
0.0
 10
12.4136543133
 20
10.5303143754
 30
0.0
 10
12.4163040874
 20
10.5308055317
 30
0.0
 10
12.4182927096
 20
10.531173517
 30
0.0
 10
12.4199457858
 20
10.5314813862
 30
0.0
 10
12.4211110027
 20
10.5316945107
 30
0.0
 10
12.4217642505
 20
10.5318200184
 30
0.0
 10
12.4222896539
 20
10.5319036634
 30
0.0
 10
12.4226794822
 20
10.5320273906
 30
0.0
 10
12.4232465435
 20
10.532178379
 30
0.0
 10
12.4242168673
 20
10.5324491229
 30
0.0
 10
12.4256145635
 20
10.5328324943
 30
0.0
 10
12.4272868684
 20
10.5332939976
 30
0.0
 10
12.4295183303
 20
10.5339088263
 30
0.0
 10
12.432307068
 20
10.5346775364
 30
0.0
 10
12.436769378
 20
10.5359073752
 30
0.0
 10
12.4423471525
 20
10.5374447071
 30
0.0
 10
12.4490405294
 20
10.5392894913
 30
0.0
 10
12.4546183358
 20
10.540826814
 30
0.0
 10
12.4590805755
 20
10.542056673
 30
0.0
 10
12.4624272763
 20
10.5429790631
 30
0.0
 10
12.4657738957
 20
10.5439014694
 30
0.0
 10
12.4685629991
 20
10.5446700908
 30
0.0
 10
12.4707937131
 20
10.5452851012
 30
0.0
 10
12.4724683024
 20
10.5457460493
 30
0.0
 10
12.4738588512
 20
10.5461311578
 30
0.0
 10
12.4748419343
 20
10.5463988006
 30
0.0
 10
12.475388552
 20
10.5465547578
 30
0.0
 10
12.4758411766
 20
10.5466632226
 30
0.0
 10
12.4761307278
 20
10.5468041907
 30
0.0
 10
12.476573678
 20
10.5469808106
 30
0.0
 10
12.4773223385
 20
10.5472951779
 30
0.0
 10
12.4784057092
 20
10.5477415123
 30
0.0
 10
12.4796998233
 20
10.5482782957
 30
0.0
 10
12.4814273805
 20
10.5489935939
 30
0.0
 10
12.483586116
 20
10.5498878584
 30
0.0
 10
12.4861769035
 20
10.5509609151
 30
0.0
 10
12.4887676094
 20
10.552033988
 30
0.0
 10
12.4922219124
 20
10.5534647462
 30
0.0
 10
12.4965397816
 20
10.5552531959
 30
0.0
 10
12.5008576533
 20
10.5570416451
 30
0.0
 10
12.5043119523
 20
10.5584724042
 30
0.0
 10
12.5069026703
 20
10.5595454745
 30
0.0
 10
12.5094934125
 20
10.5606185409
 30
0.0
 10
12.5116522888
 20
10.5615127749
 30
0.0
 10
12.5133795589
 20
10.5622281354
 30
0.0
 10
12.514458718
 20
10.5626752966
 30
0.0
 10
12.5153229262
 20
10.5630328861
 30
0.0
 10
12.5159686704
 20
10.5633014599
 30
0.0
 10
12.5165144634
 20
10.5635240572
 30
0.0
 10
12.5169338891
 20
10.5637048585
 30
0.0
 10
12.5172954807
 20
10.5638330175
 30
0.0
 10
12.5174775871
 20
10.5639895825
 30
0.0
 10
12.5177830922
 20
10.5641884132
 30
0.0
 10
12.5181434626
 20
10.564440356
 30
0.0
 10
12.5185851145
 20
10.5647412301
 30
0.0
 10
12.5191707677
 20
10.5651429046
 30
0.0
 10
12.5199039354
 20
10.5656448235
 30
0.0
 10
12.5210763882
 20
10.5664479911
 30
0.0
 10
12.5225421655
 20
10.5674519172
 30
0.0
 10
12.5243010076
 20
10.5686566428
 30
0.0
 10
12.526059874
 20
10.5698613645
 30
0.0
 10
12.5284050207
 20
10.5714676616
 30
0.0
 10
12.5313364569
 20
10.5734755324
 30
0.0
 10
12.5342678925
 20
10.5754834034
 30
0.0
 10
12.5366130402
 20
10.5770897002
 30
0.0
 10
12.5383719036
 20
10.5782944227
 30
0.0
 10
12.5401307571
 20
10.5794991456
 30
0.0
 10
12.5415964992
 20
10.58050308
 30
0.0
 10
12.5427690237
 20
10.5813062306
 30
0.0
 10
12.5435020089
 20
10.5818081926
 30
0.0
 10
12.5440880367
 20
10.5822097786
 30
0.0
 10
12.5445285443
 20
10.5825109232
 30
0.0
 10
12.5448924947
 20
10.5827620197
 30
0.0
 10
12.5451534208
 20
10.5829375074
 30
0.0
 10
12.5452929018
 20
10.5830382231
 30
0.0
 10
12.5454246112
 20
10.5831125288
 30
0.0
 10
12.5454527359
 20
10.5831915401
 30
0.0
 10
12.545526367
 20
10.5832952471
 30
0.0
 10
12.545638387
 20
10.5834774991
 30
0.0
 10
12.5458072168
 20
10.5837374593
 30
0.0
 10
12.5460060454
 20
10.5840495826
 30
0.0
 10
12.546272466
 20
10.5844656873
 30
0.0
 10
12.5466050412
 20
10.5849858387
 30
0.0
 10
12.5471374134
 20
10.5858180694
 30
0.0
 10
12.5478027922
 20
10.5868583617
 30
0.0
 10
12.5486012837
 20
10.5881067109
 30
0.0
 10
12.5493997654
 20
10.5893550604
 30
0.0
 10
12.5504644111
 20
10.5910195263
 30
0.0
 10
12.5517952169
 20
10.5931001088
 30
0.0
 10
12.5531260236
 20
10.5951806912
 30
0.0
 10
12.5541906679
 20
10.5968451572
 30
0.0
 10
12.5549891537
 20
10.5980935066
 30
0.0
 10
12.5557876297
 20
10.5993418562
 30
0.0
 10
12.556453057
 20
10.600382147
 30
0.0
 10
12.5569853302
 20
10.6012143809
 30
0.0
 10
12.5573181571
 20
10.6017345243
 30
0.0
 10
12.5575840612
 20
10.6021506452
 30
0.0
 10
12.5577844676
 20
10.6024627191
 30
0.0
 10
12.5579483609
 20
10.6027228342
 30
0.0
 10
12.5580691935
 20
10.6029048097
 30
0.0
 10
12.5581287046
 20
10.6030089597
 30
0.0
 10
12.5582002015
 20
10.6030866103
 30
0.0
 10
12.558169012
 20
10.6031660262
 30
0.0
 10
12.5581632441
 20
10.6032712984
 30
0.0
 10
12.5581364621
 20
10.6034558115
 30
0.0
 10
12.5581069269
 20
10.6037192517
 30
0.0
 10
12.5580677501
 20
10.6040354442
 30
0.0
 10
12.5580168188
 20
10.6044570117
 30
0.0
 10
12.557952708
 20
10.6049839788
 30
0.0
 10
12.5578503804
 20
10.6058271219
 30
0.0
 10
12.5577223852
 20
10.6068810521
 30
0.0
 10
12.5575688277
 20
10.6081457678
 30
0.0
 10
12.5574152604
 20
10.6094104837
 30
0.0
 10
12.5572105075
 20
10.6110967714
 30
0.0
 10
12.556954565
 20
10.6132046312
 30
0.0
 10
12.5566986233
 20
10.6153124909
 30
0.0
 10
12.556493869
 20
10.6169987786
 30
0.0
 10
12.5563403058
 20
10.6182634945
 30
0.0
 10
12.5561867329
 20
10.6195282101
 30
0.0
 10
12.5560587858
 20
10.6205821408
 30
0.0
 10
12.5559563601
 20
10.621425283
 30
0.0
 10
12.555892499
 20
10.6219522521
 30
0.0
 10
12.5558410551
 20
10.6223738155
 30
0.0
 10
12.5558034444
 20
10.6226900207
 30
0.0
 10
12.5557690092
 20
10.622953421
 30
0.0
 10
12.5557509745
 20
10.6231380053
 30
0.0
 10
12.5557311913
 20
10.6232431635
 30
0.0
 10
12.5557430525
 20
10.6233229295
 30
0.0
 10
12.5556528581
 20
10.623399265
 30
0.0
 10
12.5555681972
 20
10.6235022423
 30
0.0
 10
12.5554034546
 20
10.6236818951
 30
0.0
 10
12.5551767793
 20
10.6239388333
 30
0.0
 10
12.5549010574
 20
10.6242470345
 30
0.0
 10
12.5545347246
 20
10.6246580129
 30
0.0
 10
12.5540763647
 20
10.6251717211
 30
0.0
 10
12.553343237
 20
10.6259936624
 30
0.0
 10
12.5524267422
 20
10.6270210862
 30
0.0
 10
12.5513269849
 20
10.6282539961
 30
0.0
 10
12.5502272179
 20
10.6294869055
 30
0.0
 10
12.5487608653
 20
10.631130785
 30
0.0
 10
12.5469279232
 20
10.6331856342
 30
0.0
 10
12.545094982
 20
10.6352404835
 30
0.0
 10
12.5436286281
 20
10.6368843629
 30
0.0
 10
12.5425288651
 20
10.6381172725
 30
0.0
 10
12.5414290924
 20
10.6393501816
 30
0.0
 10
12.5405126457
 20
10.6403776077
 30
0.0
 10
12.53977942
 20
10.6411995444
 30
0.0
 10
12.5393213093
 20
10.6417132645
 30
0.0
 10
12.538954465
 20
10.6421242184
 30
0.0
 10
12.5386803058
 20
10.6424324946
 30
0.0
 10
12.5384487413
 20
10.642689198
 30
0.0
 10
12.5382927269
 20
10.6428692699
 30
0.0
 10
12.5381940812
 20
10.6429715756
 30
0.0
 10
12.5381468434
 20
10.6430499739
 30
0.0
 10
12.5379973669
 20
10.6431219926
 30
0.0
 10
12.5378337269
 20
10.6432202427
 30
0.0
 10
12.5375307414
 20
10.6433911437
 30
0.0
 10
12.5371065917
 20
10.6436358299
 30
0.0
 10
12.5365938938
 20
10.6439292214
 30
0.0
 10
12.5359115954
 20
10.6443204911
 30
0.0
 10
12.5350582776
 20
10.6448095505
 30
0.0
 10
12.5336932178
 20
10.645592061
 30
0.0
 10
12.5319868077
 20
10.6465701939
 30
0.0
 10
12.5299391522
 20
10.6477439555
 30
0.0
 10
12.5278914869
 20
10.6489177166
 30
0.0
 10
12.5251612698
 20
10.6504827316
 30
0.0
 10
12.5217484976
 20
10.6524390002
 30
0.0
 10
12.5183357248
 20
10.6543952688
 30
0.0
 10
12.5156055087
 20
10.655960284
 30
0.0
 10
12.5135578406
 20
10.6571340443
 30
0.0
 10
12.5115101957
 20
10.6583078088
 30
0.0
 10
12.5098037525
 20
10.6592859328
 30
0.0
 10
12.5084387601
 20
10.6600684614
 30
0.0
 10
12.5075852708
 20
10.6605574747
 30
0.0
 10
12.5069033246
 20
10.6609488389
 30
0.0
 10
12.5063895504
 20
10.6612419418
 30
0.0
 10
12.5059687683
 20
10.6614875309
 30
0.0
 10
12.5056156286
 20
10.6616810044
 30
0.0
 10
12.505395898
 20
10.6618343009
 30
0.0
 10
12.5050039277
 20
10.6619563306
 30
0.0
 10
12.5045414663
 20
10.6621299589
 30
0.0
 10
12.5039427469
 20
10.6623432469
 30
0.0
 10
12.5032331194
 20
10.6626007965
 30
0.0
 10
12.5022838632
 20
10.6629436357
 30
0.0
 10
12.5010983497
 20
10.6633723765
 30
0.0
 10
12.4992009374
 20
10.6640582547
 30
0.0
 10
12.4968293747
 20
10.6649156392
 30
0.0
 10
12.4939834127
 20
10.6659444847
 30
0.0
 10
12.4911374739
 20
10.6669733346
 30
0.0
 10
12.4873428803
 20
10.6683451328
 30
0.0
 10
12.4825996444
 20
10.6700598817
 30
0.0
 10
12.476907745
 20
10.6721175769
 30
0.0
 10
12.4721645419
 20
10.6738323333
 30
0.0
 10
12.4683698761
 20
10.6752041151
 30
0.0
 10
12.4659984452
 20
10.676061532
 30
0.0
 10
12.4641007617
 20
10.6767473434
 30
0.0
 10
12.4626789744
 20
10.6772620363
 30
0.0
 10
12.4614894582
 20
10.6776898835
 30
0.0
 10
12.4606660077
 20
10.6779914636
 30
0.0
 10
12.4601810826
 20
10.6781605364
 30
0.0
 10
12.459857903
 20
10.6782965207
 30
0.0
 10
12.4593798574
 20
10.6783974157
 30
0.0
 10
12.4587964823
 20
10.6785441818
 30
0.0
 10
12.4577504073
 20
10.6787953199
 30
0.0
 10
12.4562691729
 20
10.67915707
 30
0.0
 10
12.4544860594
 20
10.6795898939
 30
0.0
 10
12.452110542
 20
10.6801674383
 30
0.0
 10
12.4491404716
 20
10.6808892162
 30
0.0
 10
12.4443887356
 20
10.682044146
 30
0.0
 10
12.4384489356
 20
10.6834877789
 30
0.0
 10
12.4313212343
 20
10.6852201519
 30
0.0
 10
12.4241935061
 20
10.6869525175
 30
0.0
 10
12.4182537734
 20
10.6883961689
 30
0.0
 10
12.4135019028
 20
10.6895510617
 30
0.0
 10
12.4105321745
 20
10.6902729338
 30
0.0
 10
12.4081559549
 20
10.6908502847
 30
0.0
 10
12.4063749866
 20
10.6912836999
 30
0.0
 10
12.4048870404
 20
10.6916436001
 30
0.0
 10
12.4038529472
 20
10.6918980406
 30
0.0
 10
12.4032503743
 20
10.6920395155
 30
0.0
 10
12.4028312982
 20
10.6921566633
 30
0.0
 10
12.4022866388
 20
10.6922316046
 30
0.0
 10
12.4016042312
 20
10.6923462484
 30
0.0
 10
12.4003896084
 20
10.6925400159
 30
0.0
 10
12.3986651033
 20
10.6928204126
 30
0.0
 10
12.3965911298
 20
10.6931553537
 30
0.0
 10
12.3938274272
 20
10.693602478
 30
0.0
 10
12.3903722527
 20
10.6941611998
 30
0.0
 10
12.3848442788
 20
10.6950552572
 30
0.0
 10
12.3779342061
 20
10.6961727936
 30
0.0
 10
12.3696421666
 20
10.6975138536
 30
0.0
 10
12.3613501046
 20
10.698854905
 30
0.0
 10
12.3544400883
 20
10.6999724627
 30
0.0
 10
12.3489120015
 20
10.7008664776
 30
0.0
 10
12.345457114
 20
10.7014253075
 30
0.0
 10
12.3426928223
 20
10.7018722098
 30
0.0
 10
12.3406206488
 20
10.7022078291
 30
0.0
 10
12.338890512
 20
10.7024861042
 30
0.0
 10
12.3376859426
 20
10.7026836591
 30
0.0
 10
12.336987427
 20
10.7027922344
 30
0.0
 10
12.3364922462
 20
10.7028858161
 30
0.0
 10
12.3358873367
 20
10.7029329538
 30
0.0
 10
12.3351190653
 20
10.7030120041
 30
0.0
 10
12.3337567575
 20
10.7031427943
 30
0.0
 10
12.3318199266
 20
10.7033335835
 30
0.0
 10
12.329491739
 20
10.7035608416
 30
0.0
 10
12.3263888827
 20
10.7038644422
 30
0.0
 10
12.3225098351
 20
10.7042437411
 30
0.0
 10
12.3163036256
 20
10.7048507321
 30
0.0
 10
12.3085457722
 20
10.7056094321
 30
0.0
 10
12.2992363874
 20
10.7065198888
 30
0.0
 10
12.289926992
 20
10.707430341
 30
0.0
 10
12.2775144686
 20
10.7086442788
 30
0.0
 10
12.2682050752
 20
10.7095547318
 30
0.0
 10
12.2619988131
 20
10.7101617006
 30
0.0
  0
ENDSEC
  0
SECTION
  2
OBJECTS
  0
DICTIONARY
  5
C
100
AcDbDictionary
280
0
281
1
  3
ACAD_GROUP
350
D
  3
ACAD_MLINESTYLE
350
17
  3
ACAD_LAYOUT
350
1A
  3
ACAD_PLOTSETTINGS
350
19
  3
ACAD_PLOTSTYLENAME
350
E
  3
ACAD_IMAGE_DICT
350
       371
  3
ACAD_IMAGE_VARS
350
       372
  3
ACAD_TABLESTYLE
350
       373
  0
IMAGEDEF_REACTOR
  5
370
100
AcDbRasterImageDefReactor
 90
2
330
275
  0
DICTIONARY
  5
D
102
{ACAD_REACTORS
330
C
102
}
100
AcDbDictionary
280
0
281
1
  0
ACDBDICTIONARYWDFLT
  5
E
102
{ACAD_REACTORS
330
C
102
}
100
AcDbDictionary
281
1
  3
Normal
350
F
100
AcDbDictionaryWithDefault
340
F
  0
DICTIONARY
  5
371
330
C
100
AcDbDictionary
281
1
  3
YWC_assy_2_img_1
350
       376
  0
RASTERVARIABLES
  5
372
330
C
100
AcDbRasterVariables
 90
0
 70
0
 71
1
 72
5
  0
DICTIONARY
  5
17
102
{ACAD_REACTORS
330
C
102
}
100
AcDbDictionary
280
0
281
1
  3
Standard
350
18
  0
DICTIONARY
  5
373
330
C
100
AcDbDictionary
281
1
  3
Standard
350
       377
  3
Standard1
350
       378
  0
DICTIONARY
  5
19
102
{ACAD_REACTORS
330
C
102
}
100
AcDbDictionary
281
1
  0
DICTIONARY
  5
1A
102
{ACAD_REACTORS
330
C
102
}
100
AcDbDictionary
281
1
  3
Model
350
374
  3
Layout1
350
375
  0
ACDBPLACEHOLDER
  5
F
102
{ACAD_REACTORS
330
E
102
}
  0
MLINESTYLE
  5
18
102
{ACAD_REACTORS
330
17
102
}
100
AcDbMlineStyle
  2
STANDARD
 70
0
  3

 62
256
 51
90.0
 52
90.0
 71
2
 49
0.5
 62
256
  6
BYLAYER
 49
-0.5
 62
256
  6
BYLAYER
  0
LAYOUT
  5
374
102
{ACAD_REACTORS
330
1A
102
}
100
AcDbPlotSettings
  1

  2
none_device
  4
ANSI_C_(22.00_x_17.00_Inches)
  6

 40
0.0
 41
0.0
 42
0.0
 43
0.0
 44
558.8
 45
431.8
 46
0.0
 47
0.0
 48
0.0
 49
0.0
140
0.0
141
0.0
142
1.0
143
1.0
 70
1024
 72
0
 73
0
 74
0
  7

 75
0
147
1.0
148
0.0
149
0.0
100
AcDbLayout
  1
Model
 70
0
 71
0
 10
0.0
 20
0.0
 11
22.0
 21
17.0
 12
0.0
 22
0.0
 32
0.0
 14
0.0
 24
0.0
 34
0.0
 15
0.0
 25
0.0
 35
0.0
146
0.0
 13
0.0
 23
0.0
 33
0.0
 16
1.0
 26
0.0
 36
0.0
 17
0.0
 27
1.0
 37
0.0
 76
0
330
204
345
0
346
0
  0
LAYOUT
  5
375
102
{ACAD_REACTORS
330
1A
102
}
100
AcDbPlotSettings
  1

  2
none_device
  4
ANSI_C_(22.00_x_17.00_Inches)
  6

 40
0.0
 41
0.0
 42
0.0
 43
0.0
 44
558.8
 45
431.8
 46
0.0
 47
0.0
 48
0.0
 49
0.0
140
0.0
141
0.0
142
1.0
143
1.0
 70
0
 72
0
 73
0
 74
0
  7

 75
0
147
1.0
148
0.0
149
0.0
100
AcDbLayout
  1
Layout1
 70
0
 71
1
 10
0.0
 20
0.0
 11
22.0
 21
17.0
 12
0.0
 22
0.0
 32
0.0
 14
0.0
 24
0.0
 34
0.0
 15
0.0
 25
0.0
 35
0.0
146
0.0
 13
0.0
 23
0.0
 33
0.0
 16
1.0
 26
0.0
 36
0.0
 17
0.0
 27
1.0
 37
0.0
 76
0
330
205
345
0
346
0
  0
IMAGEDEF
  5
376
102
{ACAD_REACTORS
330
371
330
370
102
}
100
AcDbRasterImageDef
 90
0
  1
YWC_assy_2_img_1.png
 10
369.0
 20
92.0
 11
0.0066666667
 21
0.0066666667
280
1
281
0
  0
TABLESTYLE
  5
377
102
{ACAD_REACTORS
330
373
330
278
330
279
102
}
330
373
100
AcDbTableStyle
  3
Standard
 70
0
 71
0
 40
0.06
 41
0.06
280
1
281
1
  7
Standard
140
0.18
170
1
 62
0
 63
7
283
0
  7
Standard
140
0.18
170
1
 62
0
 63
7
283
0
  7
Standard
140
0.18
170
1
 62
0
 63
7
283
0
  0
TABLESTYLE
  5
378
102
{ACAD_REACTORS
330
373
330
277
102
}
330
373
100
AcDbTableStyle
  3
Standard1
 70
1
 71
0
 40
0.06
 41
0.06
280
1
281
1
  7
Standard
140
0.18
170
1
 62
0
 63
7
283
0
  7
Standard
140
0.18
170
1
 62
0
 63
7
283
0
  7
Standard
140
0.18
170
1
 62
0
 63
7
283
0
  0
ENDSEC
  0
EOF
