999
DXF file: YVY_assy_2.dxf
999
Pro/ENGINEER 2014200 by Parametric Technology Corporation
  0
SECTION
  2
HEADER
  9
$ACADVER
  1
AC1021
  9
$DWGCODEPAGE
  3
ANSI_1252
  9
$EXTMAX
 10
22.0
 20
17.0
 30
0.0
  9
$EXTMIN
 10
0.0
 20
0.0
 30
0.0
  9
$LIMMIN
 10
0.0
 20
0.0
  9
$LIMMAX
 10
22.0
 20
17.0
  9
$VIEWCTR
 10
11.0
 20
8.5
  9
$VIEWSIZE
 40
17.0
  9
$CLAYER
  8
0
  9
$LTSCALE
 40
1.21
  9
$CELTYPE
  6
BYLAYER
  9
$DIMSCALE
 40
1.0
  9
$DIMASZ
 40
0.1875
  9
$DIMEXO
 40
0.0625
  9
$DIMDLI
 40
0.836
  9
$DIMEXE
 40
0.125
  9
$DIMCEN
 40
0.198
  9
$DIMLFAC
 40
1.0
  9
$DIMBLK
  1
_FILLED
  9
$DIMTXT
 40
0.1
  9
$DIMTOL
 70
0
  9
$DIMLIM
 70
0
  9
$DIMTFAC
 40
1.0
  9
$DIMGAP
 40
0.09
  9
$DIMDSEP
 70
46
  9
$AUNITS
 70
0
  9
$PDMODE
 70
3
  9
$PDSIZE
 40
0.3125
  9
$HANDSEED
  5
3A0
  9
$TILEMODE
 70
1
  9
$MEASUREMENT
 70
0
  9
$INSUNITS
 70
1
  0
ENDSEC
  0
SECTION
  2
CLASSES
  0
CLASS
  1
ACDBDICTIONARYWDFLT
  2
AcDbDictionaryWithDefault
  3
AutoCAD 2000
 90
0
 91
1
280
0
281
0
  0
CLASS
  1
ACDBPLACEHOLDER
  2
AcDbPlaceHolder
  3
AutoCAD 2000
 90
0
 91
1
280
0
281
0
  0
CLASS
  1
LAYOUT
  2
AcDbLayout
  3
AutoCAD 2000
 90
0
 91
0
280
0
281
0
  0
CLASS
  1
RASTERVARIABLES
  2
AcDbRasterVariables
  3
ISM
 90
0
 91
1
280
0
281
0
  0
CLASS
  1
IMAGEDEF
  2
AcDbRasterImageDef
  3
ISM
 90
0
 91
1
280
0
281
0
  0
CLASS
  1
IMAGEDEF_REACTOR
  2
AcDbRasterImageDefReactor
  3
ISM
 90
0
 91
1
280
0
281
0
  0
CLASS
  1
IMAGE
  2
AcDbRasterImage
  3
ISM
 90
127
 91
1
280
0
281
1
  0
CLASS
  1
TABLESTYLE
  2
AcDbTableStyle
  3
ObjectDBX Classes
 90
2047
 91
1
280
0
281
0
  0
CLASS
  1
ACAD_TABLE
  2
AcDbTable
  3
ObjectDBX Classes
 90
1025
 91
3
280
0
281
1
  0
ENDSEC
  0
SECTION
  2
TABLES
  0
TABLE
  2
VPORT
  5
8
100
AcDbSymbolTable
 70
2
  0
VPORT
  5
1F4
100
AcDbSymbolTableRecord
100
AcDbViewportTableRecord
  2
*ACTIVE
 70
0
 10
0.0
 20
0.0
 11
1.0
 21
1.0
 12
11.0
 22
8.5
 13
0.0
 23
0.0
 14
1.0
 24
1.0
 15
0.0
 25
0.0
 16
0.0
 26
0.0
 36
1.0
 17
0.0
 27
0.0
 37
0.0
 40
17.0
 41
1.2941176471
 42
50.0
 43
0.0
 44
0.0
 50
0.0
 51
0.0
 71
0
 72
100
 73
1
 74
1
 75
0
 76
0
 77
0
 78
0
  0
ENDTAB
  0
TABLE
  2
LTYPE
  5
5
100
AcDbSymbolTable
 70
6
  0
LTYPE
  5
14
100
AcDbSymbolTableRecord
100
AcDbLinetypeTableRecord
  2
BYBLOCK
 70
0
  3

 72
65
 73
0
 40
0.0
  0
LTYPE
  5
15
100
AcDbSymbolTableRecord
100
AcDbLinetypeTableRecord
  2
BYLAYER
 70
0
  3

 72
65
 73
0
 40
0.0
  0
LTYPE
  5
16
100
AcDbSymbolTableRecord
100
AcDbLinetypeTableRecord
  2
CONTINUOUS
 70
64
  3
Solid line
 72
65
 73
0
 40
0.0
  0
LTYPE
  5
1F5
100
AcDbSymbolTableRecord
100
AcDbLinetypeTableRecord
  2
CENTER
 70
64
  3
____ _ ____ _ ____ _ ____ _ ____ _ ____ _ ____
 72
65
 73
4
 40
0.6
 49
0.375
 74
0
 49
-0.075
 74
0
 49
0.075
 74
0
 49
-0.075
 74
0
  0
LTYPE
  5
1F6
100
AcDbSymbolTableRecord
100
AcDbLinetypeTableRecord
  2
HIDDEN
 70
64
  3
- - - - - - - - - - - - - - - - - - - -
 72
65
 73
2
 40
0.2
 49
0.1
 74
0
 49
-0.1
 74
0
  0
LTYPE
  5
1F7
100
AcDbSymbolTableRecord
100
AcDbLinetypeTableRecord
  2
PHANTOM
 70
64
  3
_____ _ _ _____ _ _ _____ _ _ _____
 72
65
 73
6
 40
0.8
 49
0.45
 74
0
 49
-0.05
 74
0
 49
0.1
 74
0
 49
-0.05
 74
0
 49
0.1
 74
0
 49
-0.05
 74
0
  0
LTYPE
  5
1F8
100
AcDbSymbolTableRecord
100
AcDbLinetypeTableRecord
  2
DOT
 70
64
  3
. . . . . . . . . . . . . . . . . . . .
 72
65
 73
2
 40
0.2
 49
0.1
 74
0
 49
-0.1
 74
0
  0
LTYPE
  5
1F9
100
AcDbSymbolTableRecord
100
AcDbLinetypeTableRecord
  2
DASHED
 70
64
  3
- - - - - - - - - - - - - - - - - - - -
 72
65
 73
2
 40
0.2
 49
0.1
 74
0
 49
-0.1
 74
0
  0
ENDTAB
  0
TABLE
  2
LAYER
  5
2
100
AcDbSymbolTable
 70
36
  0
LAYER
  5
10
100
AcDbSymbolTableRecord
100
AcDbLayerTableRecord
  2
0
 70
0
 62
7
  6
CONTINUOUS
370
-3
390
F
  0
LAYER
  5
1FA
100
AcDbSymbolTableRecord
100
AcDbLayerTableRecord
  2
DEFAULT_1
 70
0
 62
7
  6
CENTER
370
-3
390
F
  0
LAYER
  5
1FB
100
AcDbSymbolTableRecord
100
AcDbLayerTableRecord
  2
DEFAULT_2
 70
0
 62
8
  6
HIDDEN
370
-3
390
F
  0
LAYER
  5
1FC
100
AcDbSymbolTableRecord
100
AcDbLayerTableRecord
  2
DEFAULT_3
 70
0
 62
7
  6
PHANTOM
370
-3
390
F
  0
LAYER
  5
1FD
100
AcDbSymbolTableRecord
100
AcDbLayerTableRecord
  2
DATUM_PLANES
 70
0
 62
7
  6
CONTINUOUS
370
-3
390
F
  0
LAYER
  5
1FE
100
AcDbSymbolTableRecord
100
AcDbLayerTableRecord
  2
DIMENSIONS
 70
0
 62
7
  6
CONTINUOUS
370
-3
390
F
  0
LAYER
  5
1FF
100
AcDbSymbolTableRecord
100
AcDbLayerTableRecord
  2
DTM_500001
 70
0
 62
7
  6
CONTINUOUS
370
-3
390
F
  0
LAYER
  5
200
100
AcDbSymbolTableRecord
100
AcDbLayerTableRecord
  2
PARAMETERDIMENSIONS
 70
0
 62
7
  6
CONTINUOUS
370
-3
390
F
  0
LAYER
  5
201
100
AcDbSymbolTableRecord
100
AcDbLayerTableRecord
  2
PORT_AREAS
 70
0
 62
7
  6
CONTINUOUS
370
-3
390
F
  0
LAYER
  5
202
100
AcDbSymbolTableRecord
100
AcDbLayerTableRecord
  2
SUNNBOMCOSMETIC
 70
0
 62
7
  6
CONTINUOUS
370
-3
390
F
  0
LAYER
  5
203
100
AcDbSymbolTableRecord
100
AcDbLayerTableRecord
  2
SUNNBOMSTAMPING
 70
0
 62
7
  6
CONTINUOUS
370
-3
390
F
  0
LAYER
  5
204
100
AcDbSymbolTableRecord
100
AcDbLayerTableRecord
  2
THREADS
 70
0
 62
7
  6
CONTINUOUS
370
-3
390
F
  0
ENDTAB
  0
TABLE
  2
STYLE
  5
3
100
AcDbSymbolTable
 70
1
  0
STYLE
  5
11
100
AcDbSymbolTableRecord
100
AcDbTextStyleTableRecord
  2
STANDARD
 70
0
 40
0.0
 41
0.8
 50
0.0
 71
0
 42
0.2
  3
txt
  4

  0
STYLE
  5
205
100
AcDbSymbolTableRecord
100
AcDbTextStyleTableRecord
  2
TEXTSTYLE_1
 70
0
 40
0.0
 41
0.8
 50
0.0
 71
0
 42
0.2
  3
gdt
  4

  0
ENDTAB
  0
TABLE
  2
VIEW
  5
6
100
AcDbSymbolTable
 70
0
  0
ENDTAB
  0
TABLE
  2
UCS
  5
7
100
AcDbSymbolTable
 70
0
  0
ENDTAB
  0
TABLE
  2
APPID
  5
9
100
AcDbSymbolTable
 70
1
  0
APPID
  5
206
100
AcDbSymbolTableRecord
100
AcDbRegAppTableRecord
  2
ACAD
 70
0
  0
ENDTAB
  0
TABLE
  2
BLOCK_RECORD
  5
1
100
AcDbSymbolTable
 70
0
  0
BLOCK_RECORD
  5
207
100
AcDbSymbolTableRecord
100
AcDbBlockTableRecord
  2
*Model_Space
  0
BLOCK_RECORD
  5
208
100
AcDbSymbolTableRecord
100
AcDbBlockTableRecord
  2
*Paper_Space
  0
BLOCK_RECORD
  5
209
100
AcDbSymbolTableRecord
100
AcDbBlockTableRecord
  2
SUN_FIRST_THIRD_ANGLE_BL0
  0
BLOCK_RECORD
  5
20A
100
AcDbSymbolTableRecord
100
AcDbBlockTableRecord
  2
*T1
  0
BLOCK_RECORD
  5
20B
100
AcDbSymbolTableRecord
100
AcDbBlockTableRecord
  2
*T2
  0
BLOCK_RECORD
  5
20C
100
AcDbSymbolTableRecord
100
AcDbBlockTableRecord
  2
*T3
  0
ENDTAB
  0
TABLE
  2
DIMSTYLE
  5
A
100
AcDbSymbolTable
 70
1
100
AcDbDimStyleTable
 71
0
  0
DIMSTYLE
105
20D
100
AcDbSymbolTableRecord
100
AcDbDimStyleTableRecord
  2
STANDARD
 70
0
  3

  4

 40
1.0
 41
0.1875
 42
0.0625
 43
0.38
 44
0.125
 45
0.0
 46
0.0
 47
0.001
 48
0.001
140
0.1
141
0.09
142
0.0
143
25.4
144
1.0
145
0.0
146
1.0
147
0.09
 71
0.0
 72
0.0
 73
1
 74
1
 75
0
 76
0
 77
0
 78
4
170
0
171
2
172
0
173
0
174
0
175
0
176
0
177
0
178
0
270
2
271
3
272
3
273
2
274
2
275
0
280
0
281
0
282
0
283
1
284
4
285
0
286
0
287
3
288
0
340
11
278
46
  0
ENDTAB
  0
ENDSEC
  0
SECTION
  2
BLOCKS
  0
BLOCK
  5
20
100
AcDbEntity
  8
0
100
AcDbBlockBegin
  2
*Model_Space
 70
0
 10
0.0
 20
0.0
 30
0.0
  3
*Model_Space
  1

  0
ENDBLK
  5
21
100
AcDbEntity
  8
0
100
AcDbBlockEnd
  0
BLOCK
  5
1C
100
AcDbEntity
  8
0
100
AcDbBlockBegin
  2
*Paper_Space
 70
0
 10
0.0
 20
0.0
 30
0.0
  3
*Paper_Space
  1

  0
ENDBLK
  5
1D
100
AcDbEntity
  8
0
100
AcDbBlockEnd
  0
BLOCK
  5
20E
100
AcDbEntity
  8
0
100
AcDbBlockBegin
 62
2
  6
CONTINUOUS
  2
SUN_FIRST_THIRD_ANGLE_BL0
 70
64
 10
20.4816717061
 20
1.2289683772
  3
SUN_FIRST_THIRD_ANGLE_BL0
  1

  0
TEXT
  5
20F
100
AcDbEntity
  8
0
100
AcDbText
 62
2
  6
CONTINUOUS
 10
19.4750896608
 20
1.4136269581
  7
STANDARD
 40
0.08
  1
FIRST ANGLE
 41
0.8
 72
0
100
AcDbText
  0
TEXT
  5
210
100
AcDbEntity
  8
0
100
AcDbText
 62
2
  6
CONTINUOUS
 10
20.7842537513
 20
1.4047600029
  7
STANDARD
 40
0.08
  1
THIRD ANGLE
 41
0.8
 72
0
100
AcDbText
  0
LINE
  5
211
100
AcDbEntity
  8
0
100
AcDbLine
 62
7
  6
CONTINUOUS
 10
19.4767170086
 20
1.1727031207
 11
19.6334271527
 21
1.1717972817
  0
LINE
  5
212
100
AcDbEntity
  8
0
100
AcDbLine
 62
7
  6
CONTINUOUS
 10
19.6596964832
 20
1.1717972817
 11
19.6950230232
 21
1.171593082
  0
LINE
  5
213
100
AcDbEntity
  8
0
100
AcDbLine
 62
7
  6
CONTINUOUS
 10
19.7194818561
 20
1.1708914427
 11
19.8852396156
 21
1.1699333054
  0
LINE
  5
214
100
AcDbEntity
  8
0
100
AcDbLine
 62
7
  6
CONTINUOUS
 10
19.4758111696
 20
1.2723454088
 11
19.88525039
 21
1.3511534004
  0
LINE
  5
215
100
AcDbEntity
  8
0
100
AcDbLine
 62
7
  6
CONTINUOUS
 10
19.88525039
 20
1.3511534004
 11
19.8831348489
 21
0.9851647912
  0
LINE
  5
216
100
AcDbEntity
  8
0
100
AcDbLine
 62
7
  6
CONTINUOUS
 10
19.8831348489
 20
0.9851647912
 11
19.4767170086
 21
1.0658141206
  0
LINE
  5
217
100
AcDbEntity
  8
0
100
AcDbLine
 62
7
  6
CONTINUOUS
 10
19.4767170086
 20
1.0658141206
 11
19.4779056764
 21
1.2714536432
  0
CIRCLE
  5
218
100
AcDbEntity
  8
0
100
AcDbCircle
 62
7
  6
CONTINUOUS
 10
20.2068232291
 20
1.1717972817
 40
0.175742101
  0
CIRCLE
  5
219
100
AcDbEntity
  8
0
100
AcDbCircle
 62
7
  6
CONTINUOUS
 10
20.2068232291
 20
1.1717972817
 40
0.1005522074
  0
LINE
  5
21A
100
AcDbEntity
  8
0
100
AcDbLine
 62
7
  6
CONTINUOUS
 10
20.2077290681
 20
1.3756110529
 11
20.2071171714
 21
1.2379342989
  0
LINE
  5
21B
100
AcDbEntity
  8
0
100
AcDbLine
 62
7
  6
CONTINUOUS
 10
20.2077290681
 20
1.2016899681
 11
20.2074674401
 21
1.1428236749
  0
LINE
  5
21C
100
AcDbEntity
  8
0
100
AcDbLine
 62
7
  6
CONTINUOUS
 10
20.208634907
 20
1.101141841
 11
20.2080230104
 21
0.963465087
  0
LINE
  5
21D
100
AcDbEntity
  8
0
100
AcDbLine
 62
7
  6
CONTINUOUS
 10
20.0066328138
 20
1.1745147986
 11
20.1443095678
 21
1.1739029019
  0
LINE
  5
21E
100
AcDbEntity
  8
0
100
AcDbLine
 62
7
  6
CONTINUOUS
 10
20.1832714155
 20
1.1727031207
 11
20.238153505
 21
1.172335442
  0
LINE
  5
21F
100
AcDbEntity
  8
0
100
AcDbLine
 62
7
  6
CONTINUOUS
 10
20.2756669918
 20
1.1717972817
 11
20.407916871
 21
1.1712095044
  0
CIRCLE
  5
220
100
AcDbEntity
  8
0
100
AcDbCircle
 62
7
  6
CONTINUOUS
 10
20.7509457401
 20
1.1693297793
 40
0.1722024983
  0
CIRCLE
  5
221
100
AcDbEntity
  8
0
100
AcDbCircle
 62
7
  6
CONTINUOUS
 10
20.7509457401
 20
1.1693297793
 40
0.0985164967
  0
LINE
  5
222
100
AcDbEntity
  8
0
100
AcDbLine
 62
7
  6
CONTINUOUS
 10
20.7169767782
 20
1.170462078
 11
20.7825395137
 21
1.1682766535
  0
LINE
  5
223
100
AcDbEntity
  8
0
100
AcDbLine
 62
7
  6
CONTINUOUS
 10
20.8177513651
 20
1.1693297793
 11
20.947965719
 21
1.1693297793
  0
LINE
  5
224
100
AcDbEntity
  8
0
100
AcDbLine
 62
7
  6
CONTINUOUS
 10
20.6875370113
 20
1.170462078
 11
20.5573226574
 21
1.170462078
  0
LINE
  5
225
100
AcDbEntity
  8
0
100
AcDbLine
 62
7
  6
CONTINUOUS
 10
20.7486811426
 20
1.1987695462
 11
20.7486811426
 21
1.1432869085
  0
LINE
  5
226
100
AcDbEntity
  8
0
100
AcDbLine
 62
7
  6
CONTINUOUS
 10
20.7498134414
 20
1.1059210505
 11
20.7498134414
 21
0.9757066966
  0
LINE
  5
227
100
AcDbEntity
  8
0
100
AcDbLine
 62
7
  6
CONTINUOUS
 10
20.7486811426
 20
1.2338708068
 11
20.7486811426
 21
1.3640851607
  0
LINE
  5
228
100
AcDbEntity
  8
0
100
AcDbLine
 62
7
  6
CONTINUOUS
 10
21.0702539817
 20
1.2701043662
 11
21.4790138229
 21
1.3448360823
  0
LINE
  5
229
100
AcDbEntity
  8
0
100
AcDbLine
 62
7
  6
CONTINUOUS
 10
21.4790138229
 20
1.3448360823
 11
21.4790138229
 21
0.9779712941
  0
LINE
  5
22A
100
AcDbEntity
  8
0
100
AcDbLine
 62
7
  6
CONTINUOUS
 10
21.4790138229
 20
0.9779712941
 11
21.069121683
 21
1.0617614
  0
LINE
  5
22B
100
AcDbEntity
  8
0
100
AcDbLine
 62
7
  6
CONTINUOUS
 10
21.0702539817
 20
1.2701043662
 11
21.069121683
 21
1.0617614
  0
LINE
  5
22C
100
AcDbEntity
  8
0
100
AcDbLine
 62
7
  6
CONTINUOUS
 10
21.4790138229
 20
1.1693297793
 11
21.3159628059
 21
1.1693297793
  0
LINE
  5
22D
100
AcDbEntity
  8
0
100
AcDbLine
 62
7
  6
CONTINUOUS
 10
21.2876553377
 20
1.1693297793
 11
21.2502894796
 21
1.1693297793
  0
LINE
  5
22E
100
AcDbEntity
  8
0
100
AcDbLine
 62
7
  6
CONTINUOUS
 10
21.2208497126
 20
1.1659328831
 11
21.0713862804
 21
1.1659328831
  0
LINE
  5
22F
100
AcDbEntity
  8
0
100
AcDbLine
 62
7
  6
CONTINUOUS
 10
20.4796138713
 20
1.5284908897
 11
20.4766766948
 21
0.9294458646
  0
ENDBLK
  5
230
100
AcDbEntity
  8
0
  6
BYBLOCK
 62
0
100
AcDbBlockEnd
  0
BLOCK
  5
231
100
AcDbEntity
  8
0
100
AcDbBlockBegin
  2
*T1
 70
1
 10
0.0
 20
0.0
  3
*T1
  1

  0
LINE
  5
232
100
AcDbEntity
  8
0
100
AcDbLine
 62
2
  6
CONTINUOUS
 10
9.275
 20
0.0
 11
-0.0
 21
0.0
  0
LINE
  5
233
100
AcDbEntity
  8
0
100
AcDbLine
 62
2
  6
CONTINUOUS
 10
9.275
 20
0.0
 11
9.275
 21
1.25
  0
LINE
  5
234
100
AcDbEntity
  8
0
100
AcDbLine
 62
2
  6
CONTINUOUS
 10
9.275
 20
0.625
 11
-0.0
 21
0.625
  0
LINE
  5
235
100
AcDbEntity
  8
0
100
AcDbLine
 62
2
  6
CONTINUOUS
 10
9.275
 20
1.25
 11
-0.0
 21
1.25
  0
LINE
  5
236
100
AcDbEntity
  8
0
100
AcDbLine
 62
2
  6
CONTINUOUS
 10
6.8
 20
0.0
 11
6.8
 21
1.25
  0
LINE
  5
237
100
AcDbEntity
  8
0
100
AcDbLine
 62
2
  6
CONTINUOUS
 10
6.4
 20
0.0
 11
6.4
 21
0.625
  0
LINE
  5
238
100
AcDbEntity
  8
0
100
AcDbLine
 62
2
  6
CONTINUOUS
 10
5.9
 20
0.0
 11
5.9
 21
0.625
  0
LINE
  5
239
100
AcDbEntity
  8
0
100
AcDbLine
 62
2
  6
CONTINUOUS
 10
5.2
 20
0.0
 11
5.2
 21
0.625
  0
LINE
  5
23A
100
AcDbEntity
  8
0
100
AcDbLine
 62
2
  6
CONTINUOUS
 10
4.1
 20
0.0
 11
4.1
 21
1.25
  0
LINE
  5
23B
100
AcDbEntity
  8
0
100
AcDbLine
 62
2
  6
CONTINUOUS
 10
-0.0
 20
0.0
 11
-0.0
 21
1.25
  0
MTEXT
  5
23C
100
AcDbEntity
  8
0
100
AcDbMText
 62
2
  6
CONTINUOUS
  7
STANDARD
 71
2
 72
1
 10
6.6
 20
0.325
 30
0.0
 11
1.0
 21
0.0
 31
0.0
 44
0.9
  1
2
 40
0.125
 41
0.2
  0
MTEXT
  5
23D
100
AcDbEntity
  8
0
100
AcDbMText
 62
2
  6
CONTINUOUS
  7
STANDARD
 71
2
 72
1
 10
6.15
 20
0.325
 30
0.0
 11
1.0
 21
0.0
 31
0.0
 44
0.9
  1
C
 40
0.125
 41
0.2
  0
MTEXT
  5
23E
100
AcDbEntity
  8
0
100
AcDbMText
 62
2
  6
CONTINUOUS
  7
STANDARD
 71
2
 72
1
 10
5.55
 20
0.325
 30
0.0
 11
1.0
 21
0.0
 31
0.0
 44
0.9
  1
2.000
 40
0.125
 41
1.0
  0
MTEXT
  5
23F
100
AcDbEntity
  8
0
100
AcDbMText
 62
2
  6
CONTINUOUS
  7
STANDARD
 71
2
 72
1
 10
4.65
 20
0.325
 30
0.0
 11
1.0
 21
0.0
 31
0.0
 44
0.9
  1
Jul-03-19
 40
0.125
 41
1.8
  0
MTEXT
  5
240
100
AcDbEntity
  8
0
100
AcDbMText
 62
2
  6
CONTINUOUS
  7
STANDARD
 71
2
 72
1
 10
2.05
 20
0.4625
 30
0.0
 11
1.0
 21
0.0
 31
0.0
 44
0.9
  1
T-11A Gasket mount Sun\PDirect mount, cross pilot
 40
0.125
 41
5.0
  0
MTEXT
  5
241
100
AcDbEntity
  8
0
100
AcDbMText
 62
2
  6
CONTINUOUS
  7
STANDARD
 71
1
 72
1
 10
6.45
 20
0.5625
 30
0.0
 11
1.0
 21
0.0
 31
0.0
 44
0.9
  1
SHEET
 40
0.06
 41
0.48
  0
MTEXT
  5
242
100
AcDbEntity
  8
0
100
AcDbMText
 62
2
  6
CONTINUOUS
  7
STANDARD
 71
1
 72
1
 10
5.95
 20
0.5625
 30
0.0
 11
1.0
 21
0.0
 31
0.0
 44
0.9
  1
DWG SIZE
 40
0.06
 41
0.768
  0
MTEXT
  5
243
100
AcDbEntity
  8
0
100
AcDbMText
 62
2
  6
CONTINUOUS
  7
STANDARD
 71
1
 72
1
 10
5.25
 20
0.5625
 30
0.0
 11
1.0
 21
0.0
 31
0.0
 44
0.9
  1
SCALE
 40
0.06
 41
0.48
  0
MTEXT
  5
244
100
AcDbEntity
  8
0
100
AcDbMText
 62
2
  6
CONTINUOUS
  7
STANDARD
 71
1
 72
1
 10
4.15
 20
0.5625
 30
0.0
 11
1.0
 21
0.0
 31
0.0
 44
0.9
  1
DATE
 40
0.06
 41
0.384
  0
MTEXT
  5
245
100
AcDbEntity
  8
0
100
AcDbMText
 62
2
  6
CONTINUOUS
  7
STANDARD
 71
1
 72
1
 10
0.05
 20
0.5625
 30
0.0
 11
1.0
 21
0.0
 31
0.0
 44
0.9
  1
DESCRIPTION
 40
0.06
 41
1.056
  0
MTEXT
  5
246
100
AcDbEntity
  8
0
100
AcDbMText
 62
2
  6
CONTINUOUS
  7
STANDARD
 71
2
 72
1
 10
5.45
 20
1.0375
 30
0.0
 11
1.0
 21
0.0
 31
0.0
 44
0.9
  1
ALL DIMENSIONS IN INCH\PVIEWS ARE THIRD ANGLE
 40
0.12
 41
4.224
  0
MTEXT
  5
247
100
AcDbEntity
  8
0
100
AcDbMText
 62
2
  6
CONTINUOUS
  7
STANDARD
 71
2
 72
1
 10
2.05
 20
0.95
 30
0.0
 11
1.0
 21
0.0
 31
0.0
 44
0.9
  1
YVY
 40
0.125
 41
0.6
  0
MTEXT
  5
248
100
AcDbEntity
  8
0
100
AcDbMText
 62
2
  6
CONTINUOUS
  7
STANDARD
 71
1
 72
1
 10
0.05
 20
1.1875
 30
0.0
 11
1.0
 21
0.0
 31
0.0
 44
0.9
  1
MODEL
 40
0.06
 41
0.48
  0
ENDBLK
  5
249
100
AcDbEntity
  8
0
  6
BYBLOCK
 62
0
100
AcDbBlockEnd
  0
BLOCK
  5
24A
100
AcDbEntity
  8
0
100
AcDbBlockBegin
  2
*T2
 70
1
 10
0.0
 20
0.0
  3
*T2
  1

  0
LINE
  5
24B
100
AcDbEntity
  8
0
100
AcDbLine
 62
2
  6
CONTINUOUS
 10
0.0
 20
0.0
 11
9.055
 21
0.0
  0
LINE
  5
24C
100
AcDbEntity
  8
0
100
AcDbLine
 62
2
  6
CONTINUOUS
 10
0.0
 20
0.0
 11
0.0
 21
-3.094
  0
LINE
  5
24D
100
AcDbEntity
  8
0
100
AcDbLine
 62
2
  6
CONTINUOUS
 10
0.0
 20
-0.344
 11
9.055
 21
-0.344
  0
LINE
  5
24E
100
AcDbEntity
  8
0
100
AcDbLine
 62
2
  6
CONTINUOUS
 10
0.0
 20
-0.594
 11
9.055
 21
-0.594
  0
LINE
  5
24F
100
AcDbEntity
  8
0
100
AcDbLine
 62
2
  6
CONTINUOUS
 10
0.0
 20
-0.844
 11
9.055
 21
-0.844
  0
LINE
  5
250
100
AcDbEntity
  8
0
100
AcDbLine
 62
2
  6
CONTINUOUS
 10
0.0
 20
-1.094
 11
9.055
 21
-1.094
  0
LINE
  5
251
100
AcDbEntity
  8
0
100
AcDbLine
 62
2
  6
CONTINUOUS
 10
0.0
 20
-1.344
 11
9.055
 21
-1.344
  0
LINE
  5
252
100
AcDbEntity
  8
0
100
AcDbLine
 62
2
  6
CONTINUOUS
 10
0.0
 20
-1.594
 11
9.055
 21
-1.594
  0
LINE
  5
253
100
AcDbEntity
  8
0
100
AcDbLine
 62
2
  6
CONTINUOUS
 10
0.0
 20
-1.844
 11
9.055
 21
-1.844
  0
LINE
  5
254
100
AcDbEntity
  8
0
100
AcDbLine
 62
2
  6
CONTINUOUS
 10
0.0
 20
-2.094
 11
9.055
 21
-2.094
  0
LINE
  5
255
100
AcDbEntity
  8
0
100
AcDbLine
 62
2
  6
CONTINUOUS
 10
0.0
 20
-2.344
 11
9.055
 21
-2.344
  0
LINE
  5
256
100
AcDbEntity
  8
0
100
AcDbLine
 62
2
  6
CONTINUOUS
 10
0.0
 20
-2.594
 11
9.055
 21
-2.594
  0
LINE
  5
257
100
AcDbEntity
  8
0
100
AcDbLine
 62
2
  6
CONTINUOUS
 10
0.0
 20
-2.844
 11
9.055
 21
-2.844
  0
LINE
  5
258
100
AcDbEntity
  8
0
100
AcDbLine
 62
2
  6
CONTINUOUS
 10
0.0
 20
-3.094
 11
9.055
 21
-3.094
  0
LINE
  5
259
100
AcDbEntity
  8
0
100
AcDbLine
 62
2
  6
CONTINUOUS
 10
3.055
 20
0.0
 11
3.055
 21
-3.094
  0
LINE
  5
25A
100
AcDbEntity
  8
0
100
AcDbLine
 62
2
  6
CONTINUOUS
 10
9.055
 20
0.0
 11
9.055
 21
-3.094
  0
MTEXT
  5
25B
100
AcDbEntity
  8
0
100
AcDbMText
 62
2
  6
CONTINUOUS
  7
STANDARD
 71
2
 72
1
 10
1.5275
 20
-0.0995
 30
0.0
 11
1.0
 21
0.0
 31
0.0
 44
0.9
  1
Technical Data
 40
0.145
 41
3.248
  0
MTEXT
  5
25C
100
AcDbEntity
  8
0
100
AcDbMText
 62
2
  6
CONTINUOUS
  7
STANDARD
 71
2
 72
1
 10
4.555
 20
-0.0995
 30
0.0
 11
1.0
 21
0.0
 31
0.0
 44
0.9
  1
U.S. Units
 40
0.145
 41
2.32
  0
MTEXT
  5
25D
100
AcDbEntity
  8
0
100
AcDbMText
 62
2
  6
CONTINUOUS
  7
STANDARD
 71
2
 72
1
 10
7.555
 20
-0.0995
 30
0.0
 11
1.0
 21
0.0
 31
0.0
 44
0.9
  1
Metric Units
 40
0.145
 41
2.784
  0
MTEXT
  5
25E
100
AcDbEntity
  8
0
100
AcDbMText
 62
2
  6
CONTINUOUS
  7
STANDARD
 71
2
 72
1
 10
1.5275
 20
-0.4065
 30
0.0
 11
1.0
 21
0.0
 31
0.0
 44
0.9
  1
Cavity
 40
0.125
 41
1.2
  0
MTEXT
  5
25F
100
AcDbEntity
  8
0
100
AcDbMText
 62
2
  6
CONTINUOUS
  7
STANDARD
 71
2
 72
1
 10
6.055
 20
-0.4065
 30
0.0
 11
1.0
 21
0.0
 31
0.0
 44
0.9
  1
T-11A
 40
0.125
 41
1.0
  0
MTEXT
  5
260
100
AcDbEntity
  8
0
100
AcDbMText
 62
2
  6
CONTINUOUS
  7
STANDARD
 71
2
 72
1
 10
1.5275
 20
-0.6565
 30
0.0
 11
1.0
 21
0.0
 31
0.0
 44
0.9
  1
Body Features
 40
0.125
 41
2.6
  0
MTEXT
  5
261
100
AcDbEntity
  8
0
100
AcDbMText
 62
2
  6
CONTINUOUS
  7
STANDARD
 71
2
 72
1
 10
6.055
 20
-0.6565
 30
0.0
 11
1.0
 21
0.0
 31
0.0
 44
0.9
  1
Direct mount, cross pilot
 40
0.125
 41
5.0
  0
MTEXT
  5
262
100
AcDbEntity
  8
0
100
AcDbMText
 62
2
  6
CONTINUOUS
  7
STANDARD
 71
2
 72
1
 10
1.5275
 20
-0.9065
 30
0.0
 11
1.0
 21
0.0
 31
0.0
 44
0.9
  1
Body Type
 40
0.125
 41
1.8
  0
MTEXT
  5
263
100
AcDbEntity
  8
0
100
AcDbMText
 62
2
  6
CONTINUOUS
  7
STANDARD
 71
2
 72
1
 10
6.055
 20
-0.9065
 30
0.0
 11
1.0
 21
0.0
 31
0.0
 44
0.9
  1
Gasket mount
 40
0.125
 41
2.4
  0
MTEXT
  5
264
100
AcDbEntity
  8
0
100
AcDbMText
 62
2
  6
CONTINUOUS
  7
STANDARD
 71
2
 72
1
 10
1.5275
 20
-1.1565
 30
0.0
 11
1.0
 21
0.0
 31
0.0
 44
0.9
  1
Interface
 40
0.125
 41
1.8
  0
MTEXT
  5
265
100
AcDbEntity
  8
0
100
AcDbMText
 62
2
  6
CONTINUOUS
  7
STANDARD
 71
2
 72
1
 10
6.055
 20
-1.1565
 30
0.0
 11
1.0
 21
0.0
 31
0.0
 44
0.9
  1
Sun
 40
0.125
 41
0.6
  0
MTEXT
  5
266
100
AcDbEntity
  8
0
100
AcDbMText
 62
2
  6
CONTINUOUS
  7
STANDARD
 71
2
 72
1
 10
1.5275
 20
-1.4065
 30
0.0
 11
1.0
 21
0.0
 31
0.0
 44
0.9
  1
Open Cavity Quantity
 40
0.125
 41
4.0
  0
MTEXT
  5
267
100
AcDbEntity
  8
0
100
AcDbMText
 62
2
  6
CONTINUOUS
  7
STANDARD
 71
2
 72
1
 10
6.055
 20
-1.4065
 30
0.0
 11
1.0
 21
0.0
 31
0.0
 44
0.9
  1
2
 40
0.125
 41
0.2
  0
MTEXT
  5
268
100
AcDbEntity
  8
0
100
AcDbMText
 62
2
  6
CONTINUOUS
  7
STANDARD
 71
2
 72
1
 10
1.5275
 20
-1.6565
 30
0.0
 11
1.0
 21
0.0
 31
0.0
 44
0.9
  1
Weight
 40
0.125
 41
1.2
  0
MTEXT
  5
269
100
AcDbEntity
  8
0
100
AcDbMText
 62
2
  6
CONTINUOUS
  7
STANDARD
 71
2
 72
1
 10
4.555
 20
-1.6565
 30
0.0
 11
1.0
 21
0.0
 31
0.0
 44
0.9
  1
1.636 lb.
 40
0.125
 41
1.8
  0
MTEXT
  5
26A
100
AcDbEntity
  8
0
100
AcDbMText
 62
2
  6
CONTINUOUS
  7
STANDARD
 71
2
 72
1
 10
7.555
 20
-1.6565
 30
0.0
 11
1.0
 21
0.0
 31
0.0
 44
0.9
  1
0,742 kg.
 40
0.125
 41
1.8
  0
MTEXT
  5
26B
100
AcDbEntity
  8
0
100
AcDbMText
 62
2
  6
CONTINUOUS
  7
STANDARD
 71
2
 72
1
 10
1.5275
 20
-1.9065
 30
0.0
 11
1.0
 21
0.0
 31
0.0
 44
0.9
  1
Mounting Hole Diameter
 40
0.125
 41
4.4
  0
MTEXT
  5
26C
100
AcDbEntity
  8
0
100
AcDbMText
 62
2
  6
CONTINUOUS
  7
STANDARD
 71
2
 72
1
 10
4.555
 20
-1.9065
 30
0.0
 11
1.0
 21
0.0
 31
0.0
 44
0.9
  1
.34 in.
 40
0.125
 41
1.4
  0
MTEXT
  5
26D
100
AcDbEntity
  8
0
100
AcDbMText
 62
2
  6
CONTINUOUS
  7
STANDARD
 71
2
 72
1
 10
7.555
 20
-1.9065
 30
0.0
 11
1.0
 21
0.0
 31
0.0
 44
0.9
  1
8.6 mm
 40
0.125
 41
1.2
  0
MTEXT
  5
26E
100
AcDbEntity
  8
0
100
AcDbMText
 62
2
  6
CONTINUOUS
  7
STANDARD
 71
2
 72
1
 10
1.5275
 20
-2.1565
 30
0.0
 11
1.0
 21
0.0
 31
0.0
 44
0.9
  1
Mounting Hole Depth
 40
0.125
 41
3.8
  0
MTEXT
  5
26F
100
AcDbEntity
  8
0
100
AcDbMText
 62
2
  6
CONTINUOUS
  7
STANDARD
 71
2
 72
1
 10
6.055
 20
-2.1565
 30
0.0
 11
1.0
 21
0.0
 31
0.0
 44
0.9
  1
Through
 40
0.125
 41
1.4
  0
MTEXT
  5
270
100
AcDbEntity
  8
0
100
AcDbMText
 62
2
  6
CONTINUOUS
  7
STANDARD
 71
2
 72
1
 10
1.5275
 20
-2.4065
 30
0.0
 11
1.0
 21
0.0
 31
0.0
 44
0.9
  1
Mounting Hole Quantity
 40
0.125
 41
4.4
  0
MTEXT
  5
271
100
AcDbEntity
  8
0
100
AcDbMText
 62
2
  6
CONTINUOUS
  7
STANDARD
 71
2
 72
1
 10
6.055
 20
-2.4065
 30
0.0
 11
1.0
 21
0.0
 31
0.0
 44
0.9
  1
2
 40
0.125
 41
0.2
  0
MTEXT
  5
272
100
AcDbEntity
  8
0
100
AcDbMText
 62
2
  6
CONTINUOUS
  7
STANDARD
 71
2
 72
1
 10
1.5275
 20
-2.6565
 30
0.0
 11
1.0
 21
0.0
 31
0.0
 44
0.9
  1
Mounting Hole C'bore Diameter
 40
0.125
 41
5.8
  0
MTEXT
  5
273
100
AcDbEntity
  8
0
100
AcDbMText
 62
2
  6
CONTINUOUS
  7
STANDARD
 71
2
 72
1
 10
4.555
 20
-2.6565
 30
0.0
 11
1.0
 21
0.0
 31
0.0
 44
0.9
  1
.53 in.
 40
0.125
 41
1.4
  0
MTEXT
  5
274
100
AcDbEntity
  8
0
100
AcDbMText
 62
2
  6
CONTINUOUS
  7
STANDARD
 71
2
 72
1
 10
7.555
 20
-2.6565
 30
0.0
 11
1.0
 21
0.0
 31
0.0
 44
0.9
  1
13,5 mm
 40
0.125
 41
1.4
  0
MTEXT
  5
275
100
AcDbEntity
  8
0
100
AcDbMText
 62
2
  6
CONTINUOUS
  7
STANDARD
 71
2
 72
1
 10
1.5275
 20
-2.9065
 30
0.0
 11
1.0
 21
0.0
 31
0.0
 44
0.9
  1
Mounting Hole C'bore Depth
 40
0.125
 41
5.2
  0
MTEXT
  5
276
100
AcDbEntity
  8
0
100
AcDbMText
 62
2
  6
CONTINUOUS
  7
STANDARD
 71
2
 72
1
 10
4.555
 20
-2.9065
 30
0.0
 11
1.0
 21
0.0
 31
0.0
 44
0.9
  1
.25 in.
 40
0.125
 41
1.4
  0
MTEXT
  5
277
100
AcDbEntity
  8
0
100
AcDbMText
 62
2
  6
CONTINUOUS
  7
STANDARD
 71
2
 72
1
 10
7.555
 20
-2.9065
 30
0.0
 11
1.0
 21
0.0
 31
0.0
 44
0.9
  1
6,4 mm
 40
0.125
 41
1.2
  0
ENDBLK
  5
278
100
AcDbEntity
  8
0
  6
BYBLOCK
 62
0
100
AcDbBlockEnd
  0
BLOCK
  5
279
100
AcDbEntity
  8
0
100
AcDbBlockBegin
  2
*T3
 70
1
 10
0.0
 20
0.0
  3
*T3
  1

  0
LINE
  5
27A
100
AcDbEntity
  8
0
100
AcDbLine
 62
2
  6
CONTINUOUS
 10
0.0
 20
0.0
 11
4.6
 21
0.0
  0
LINE
  5
27B
100
AcDbEntity
  8
0
100
AcDbLine
 62
2
  6
CONTINUOUS
 10
0.0
 20
0.0
 11
0.0
 21
-0.93775
  0
LINE
  5
27C
100
AcDbEntity
  8
0
100
AcDbLine
 62
2
  6
CONTINUOUS
 10
0.0
 20
-0.34375
 11
4.6
 21
-0.34375
  0
LINE
  5
27D
100
AcDbEntity
  8
0
100
AcDbLine
 62
2
  6
CONTINUOUS
 10
0.0
 20
-0.68775
 11
4.6
 21
-0.68775
  0
LINE
  5
27E
100
AcDbEntity
  8
0
100
AcDbLine
 62
2
  6
CONTINUOUS
 10
0.0
 20
-0.93775
 11
4.6
 21
-0.93775
  0
LINE
  5
27F
100
AcDbEntity
  8
0
100
AcDbLine
 62
2
  6
CONTINUOUS
 10
1.3
 20
-0.34375
 11
1.3
 21
-0.93775
  0
LINE
  5
280
100
AcDbEntity
  8
0
100
AcDbLine
 62
2
  6
CONTINUOUS
 10
3.3
 20
-0.34375
 11
3.3
 21
-0.93775
  0
LINE
  5
281
100
AcDbEntity
  8
0
100
AcDbLine
 62
2
  6
CONTINUOUS
 10
4.6
 20
0.0
 11
4.6
 21
-0.93775
  0
MTEXT
  5
282
100
AcDbEntity
  8
0
100
AcDbMText
 62
2
  6
CONTINUOUS
  7
STANDARD
 71
2
 72
1
 10
2.3
 20
-0.099375
 30
0.0
 11
1.0
 21
0.0
 31
0.0
 44
0.9
  1
Port Headings
 40
0.145
 41
3.016
  0
MTEXT
  5
283
100
AcDbEntity
  8
0
100
AcDbMText
 62
2
  6
CONTINUOUS
  7
STANDARD
 71
2
 72
1
 10
0.65
 20
-0.44325
 30
0.0
 11
1.0
 21
0.0
 31
0.0
 44
0.9
  1
Product
 40
0.145
 41
1.624
  0
MTEXT
  5
284
100
AcDbEntity
  8
0
100
AcDbMText
 62
2
  6
CONTINUOUS
  7
STANDARD
 71
2
 72
1
 10
2.3
 20
-0.44325
 30
0.0
 11
1.0
 21
0.0
 31
0.0
 44
0.9
  1
Port
 40
0.145
 41
0.928
  0
MTEXT
  5
285
100
AcDbEntity
  8
0
100
AcDbMText
 62
2
  6
CONTINUOUS
  7
STANDARD
 71
2
 72
1
 10
3.95
 20
-0.44325
 30
0.0
 11
1.0
 21
0.0
 31
0.0
 44
0.9
  1
Size
 40
0.145
 41
0.928
  0
MTEXT
  5
286
100
AcDbEntity
  8
0
100
AcDbMText
 62
2
  6
CONTINUOUS
  7
STANDARD
 71
2
 72
1
 10
0.65
 20
-0.75025
 30
0.0
 11
1.0
 21
0.0
 31
0.0
 44
0.9
  1
YVY
 40
0.125
 41
0.6
  0
MTEXT
  5
287
100
AcDbEntity
  8
0
100
AcDbMText
 62
2
  6
CONTINUOUS
  7
STANDARD
 71
2
 72
1
 10
2.3
 20
-0.75025
 30
0.0
 11
1.0
 21
0.0
 31
0.0
 44
0.9
  1
Ports C2, V1, V2
 40
0.125
 41
3.2
  0
MTEXT
  5
288
100
AcDbEntity
  8
0
100
AcDbMText
 62
2
  6
CONTINUOUS
  7
STANDARD
 71
2
 72
1
 10
3.95
 20
-0.75025
 30
0.0
 11
1.0
 21
0.0
 31
0.0
 44
0.9
  1
SAE 6
 40
0.125
 41
1.0
  0
ENDBLK
  5
289
100
AcDbEntity
  8
0
  6
BYBLOCK
 62
0
100
AcDbBlockEnd
  0
ENDSEC
  0
SECTION
  2
ENTITIES
  0
IMAGE
  5
28A
100
AcDbEntity
  8
0
100
AcDbRasterImage
 62
7
  6
CONTINUOUS
 10
19.2297077316
 20
0.3094318264
 30
0.0
 11
0.0066666667
 21
0.0
 31
0.0
 12
0.0
 22
0.0066666667
 32
0.0
 13
369.0
 23
92.0
340
       39D
 70
9
280
0
281
50
282
50
283
0
360
       397
 71
1
 91
2
 14
-0.5
 24
-0.5
 14
368.5
 24
91.5
  0
INSERT
  5
28B
100
AcDbEntity
  8
0
100
AcDbBlockReference
 62
2
  6
CONTINUOUS
  2
SUN_FIRST_THIRD_ANGLE_BL0
 10
20.4816717061
 20
1.2289683772
  0
ACAD_TABLE
  5
28C
100
AcDbEntity
  8
0
 62
2
  6
CONTINUOUS
100
AcDbBlockReference
  2
*T1
 10
12.42375
 20
0.30125
 30
0.0
100
AcDbTable
342
       39F
343
20A
 11
1.0
 21
0.0
 31
0.0
 90
6
 91
4
 92
6
 93
20
 94
0
 95
0
 96
0
 70
1
 41
0.0
141
0.525
141
0.1
141
0.525
141
0.1
142
4.1
142
1.1
142
0.7
142
0.5
142
0.4
142
2.475
171
1
172
0
173
0
174
0
175
1
176
1
 91
33
178
0
145
0.0
301
CELL_VALUE
 90
4
  1
T-11A Gasket mount Sun\PDirect mount, cross pilot
304
ACVALUE_END
170
2
140
0.125
171
1
172
0
173
0
174
0
175
1
176
1
 91
33
178
0
145
0.0
301
CELL_VALUE
 90
4
  1
Jul-03-19
304
ACVALUE_END
170
5
140
0.125
171
1
172
0
173
0
174
0
175
1
176
1
 91
33
178
0
145
0.0
301
CELL_VALUE
 90
4
  1
2.000
304
ACVALUE_END
170
5
140
0.125
171
1
172
0
173
0
174
0
175
1
176
1
 91
33
178
0
145
0.0
301
CELL_VALUE
 90
4
  1
C
304
ACVALUE_END
170
5
140
0.125
171
1
172
0
173
0
174
0
175
1
176
1
 91
33
178
0
145
0.0
301
CELL_VALUE
 90
4
  1
2
304
ACVALUE_END
170
5
140
0.125
171
1
172
0
173
0
174
0
175
1
176
1
 91
33
178
0
145
0.0
301
CELL_VALUE
 90
4
  1
 
304
ACVALUE_END
170
1
140
0.125
171
1
172
0
173
0
174
0
175
1
176
1
 91
33
178
0
145
0.0
301
CELL_VALUE
 90
4
  1
DESCRIPTION
304
ACVALUE_END
170
1
140
0.06
171
1
172
0
173
0
174
0
175
1
176
1
 91
33
178
0
145
0.0
301
CELL_VALUE
 90
4
  1
DATE
304
ACVALUE_END
170
1
140
0.06
171
1
172
0
173
0
174
0
175
1
176
1
 91
33
178
0
145
0.0
301
CELL_VALUE
 90
4
  1
SCALE
304
ACVALUE_END
170
1
140
0.06
171
1
172
0
173
0
174
0
175
1
176
1
 91
33
178
0
145
0.0
301
CELL_VALUE
 90
4
  1
DWG SIZE
304
ACVALUE_END
170
1
140
0.06
171
1
172
0
173
0
174
0
175
1
176
1
 91
33
178
0
145
0.0
301
CELL_VALUE
 90
4
  1
SHEET
304
ACVALUE_END
170
1
140
0.06
171
1
172
0
173
0
174
0
175
1
176
1
 91
33
178
0
145
0.0
301
CELL_VALUE
 90
4
  1
 
304
ACVALUE_END
170
1
140
0.125
171
1
172
0
173
0
174
0
175
1
176
1
 91
33
178
0
145
0.0
301
CELL_VALUE
 90
4
  1
YVY
304
ACVALUE_END
170
5
140
0.125
171
1
172
0
173
0
174
0
175
4
176
1
 91
33
178
0
145
0.0
301
CELL_VALUE
 90
4
  1
ALL DIMENSIONS IN INCH\PVIEWS ARE THIRD ANGLE
304
ACVALUE_END
170
5
140
0.12
171
1
172
0
173
1
174
0
175
1
176
1
 91
1
178
0
145
0.0
170
1
171
1
172
0
173
1
174
0
175
1
176
1
 91
1
178
0
145
0.0
170
1
171
1
172
0
173
1
174
0
175
1
176
1
 91
1
178
0
145
0.0
170
5
171
1
172
0
173
0
174
0
175
1
176
1
 91
33
178
0
145
0.0
301
CELL_VALUE
 90
4
  1
 
304
ACVALUE_END
170
1
140
0.125
171
1
172
0
173
0
174
0
175
1
176
1
 91
33
178
0
145
0.0
301
CELL_VALUE
 90
4
  1
MODEL
304
ACVALUE_END
170
1
140
0.06
171
1
172
0
173
0
174
0
175
1
176
1
 91
33
178
0
145
0.0
301
CELL_VALUE
 90
4
  1
 
304
ACVALUE_END
170
1
140
0.125
171
1
172
0
173
0
174
0
175
1
176
1
 91
33
178
0
145
0.0
301
CELL_VALUE
 90
4
  1
 
304
ACVALUE_END
170
1
140
0.125
171
1
172
0
173
0
174
0
175
1
176
1
 91
33
178
0
145
0.0
301
CELL_VALUE
 90
4
  1
 
304
ACVALUE_END
170
1
140
0.125
171
1
172
0
173
0
174
0
175
1
176
1
 91
33
178
0
145
0.0
301
CELL_VALUE
 90
4
  1
 
304
ACVALUE_END
170
1
140
0.125
171
1
172
0
173
0
174
0
175
1
176
1
 91
33
178
0
145
0.0
301
CELL_VALUE
 90
4
  1
 
304
ACVALUE_END
170
1
140
0.125
  0
ACAD_TABLE
  5
28D
100
AcDbEntity
  8
0
 62
2
  6
CONTINUOUS
100
AcDbBlockReference
  2
*T2
 10
12.4237499994
 20
16.47875
 30
0.0
100
AcDbTable
342
       39E
343
20B
 11
1.0
 21
0.0
 31
0.0
 90
22
 91
12
 92
3
 93
16
 94
0
 95
0
 96
0
 41
0.028
141
0.344
141
0.25
141
0.25
141
0.25
141
0.25
141
0.25
141
0.25
141
0.25
141
0.25
141
0.25
141
0.25
141
0.25
142
3.055
142
3.0
142
3.0
171
1
172
0
173
0
174
0
175
1
176
1
 91
33
178
0
145
0.0
301
CELL_VALUE
 90
4
  1
Technical Data
304
ACVALUE_END
170
5
140
0.145
171
1
172
0
173
0
174
0
175
1
176
1
 91
33
178
0
145
0.0
301
CELL_VALUE
 90
4
  1
U.S. Units
304
ACVALUE_END
170
5
140
0.145
171
1
172
0
173
0
174
0
175
1
176
1
 91
33
178
0
145
0.0
301
CELL_VALUE
 90
4
  1
Metric Units
304
ACVALUE_END
170
5
140
0.145
171
1
172
0
173
0
174
0
175
1
176
1
 91
33
178
0
145
0.0
301
CELL_VALUE
 90
4
  1
Cavity
304
ACVALUE_END
170
5
140
0.125
171
1
172
0
173
0
174
0
175
2
176
1
 91
33
178
0
145
0.0
301
CELL_VALUE
 90
4
  1
T-11A
304
ACVALUE_END
170
5
140
0.125
171
1
172
0
173
1
174
0
175
1
176
1
 91
1
178
0
145
0.0
170
1
171
1
172
0
173
0
174
0
175
1
176
1
 91
33
178
0
145
0.0
301
CELL_VALUE
 90
4
  1
Body Features
304
ACVALUE_END
170
5
140
0.125
171
1
172
0
173
0
174
0
175
2
176
1
 91
33
178
0
145
0.0
301
CELL_VALUE
 90
4
  1
Direct mount, cross pilot
304
ACVALUE_END
170
5
140
0.125
171
1
172
0
173
1
174
0
175
1
176
1
 91
1
178
0
145
0.0
170
1
171
1
172
0
173
0
174
0
175
1
176
1
 91
33
178
0
145
0.0
301
CELL_VALUE
 90
4
  1
Body Type
304
ACVALUE_END
170
5
140
0.125
171
1
172
0
173
0
174
0
175
2
176
1
 91
33
178
0
145
0.0
301
CELL_VALUE
 90
4
  1
Gasket mount
304
ACVALUE_END
170
5
140
0.125
171
1
172
0
173
1
174
0
175
1
176
1
 91
1
178
0
145
0.0
170
1
171
1
172
0
173
0
174
0
175
1
176
1
 91
33
178
0
145
0.0
301
CELL_VALUE
 90
4
  1
Interface
304
ACVALUE_END
170
5
140
0.125
171
1
172
0
173
0
174
0
175
2
176
1
 91
33
178
0
145
0.0
301
CELL_VALUE
 90
4
  1
Sun
304
ACVALUE_END
170
5
140
0.125
171
1
172
0
173
1
174
0
175
1
176
1
 91
1
178
0
145
0.0
170
1
171
1
172
0
173
0
174
0
175
1
176
1
 91
33
178
0
145
0.0
301
CELL_VALUE
 90
4
  1
Open Cavity Quantity
304
ACVALUE_END
170
5
140
0.125
171
1
172
0
173
0
174
0
175
2
176
1
 91
33
178
0
145
0.0
301
CELL_VALUE
 90
4
  1
2
304
ACVALUE_END
170
5
140
0.125
171
1
172
0
173
1
174
0
175
1
176
1
 91
1
178
0
145
0.0
170
1
171
1
172
0
173
0
174
0
175
1
176
1
 91
33
178
0
145
0.0
301
CELL_VALUE
 90
4
  1
Weight
304
ACVALUE_END
170
5
140
0.125
171
1
172
0
173
0
174
0
175
1
176
1
 91
33
178
0
145
0.0
301
CELL_VALUE
 90
4
  1
1.636 lb.
304
ACVALUE_END
170
5
140
0.125
171
1
172
0
173
0
174
0
175
1
176
1
 91
33
178
0
145
0.0
301
CELL_VALUE
 90
4
  1
0,742 kg.
304
ACVALUE_END
170
5
140
0.125
171
1
172
0
173
0
174
0
175
1
176
1
 91
33
178
0
145
0.0
301
CELL_VALUE
 90
4
  1
Mounting Hole Diameter
304
ACVALUE_END
170
5
140
0.125
171
1
172
0
173
0
174
0
175
1
176
1
 91
33
178
0
145
0.0
301
CELL_VALUE
 90
4
  1
.34 in.
304
ACVALUE_END
170
5
140
0.125
171
1
172
0
173
0
174
0
175
1
176
1
 91
33
178
0
145
0.0
301
CELL_VALUE
 90
4
  1
8.6 mm
304
ACVALUE_END
170
5
140
0.125
171
1
172
0
173
0
174
0
175
1
176
1
 91
33
178
0
145
0.0
301
CELL_VALUE
 90
4
  1
Mounting Hole Depth
304
ACVALUE_END
170
5
140
0.125
171
1
172
0
173
0
174
0
175
2
176
1
 91
33
178
0
145
0.0
301
CELL_VALUE
 90
4
  1
Through
304
ACVALUE_END
170
5
140
0.125
171
1
172
0
173
1
174
0
175
1
176
1
 91
1
178
0
145
0.0
170
1
171
1
172
0
173
0
174
0
175
1
176
1
 91
33
178
0
145
0.0
301
CELL_VALUE
 90
4
  1
Mounting Hole Quantity
304
ACVALUE_END
170
5
140
0.125
171
1
172
0
173
0
174
0
175
2
176
1
 91
33
178
0
145
0.0
301
CELL_VALUE
 90
4
  1
2
304
ACVALUE_END
170
5
140
0.125
171
1
172
0
173
1
174
0
175
1
176
1
 91
1
178
0
145
0.0
170
1
171
1
172
0
173
0
174
0
175
1
176
1
 91
33
178
0
145
0.0
301
CELL_VALUE
 90
4
  1
Mounting Hole C'bore Diameter
304
ACVALUE_END
170
5
140
0.125
171
1
172
0
173
0
174
0
175
1
176
1
 91
33
178
0
145
0.0
301
CELL_VALUE
 90
4
  1
.53 in.
304
ACVALUE_END
170
5
140
0.125
171
1
172
0
173
0
174
0
175
1
176
1
 91
33
178
0
145
0.0
301
CELL_VALUE
 90
4
  1
13,5 mm
304
ACVALUE_END
170
5
140
0.125
171
1
172
0
173
0
174
0
175
1
176
1
 91
33
178
0
145
0.0
301
CELL_VALUE
 90
4
  1
Mounting Hole C'bore Depth
304
ACVALUE_END
170
5
140
0.125
171
1
172
0
173
0
174
0
175
1
176
1
 91
33
178
0
145
0.0
301
CELL_VALUE
 90
4
  1
.25 in.
304
ACVALUE_END
170
5
140
0.125
171
1
172
0
173
0
174
0
175
1
176
1
 91
33
178
0
145
0.0
301
CELL_VALUE
 90
4
  1
6,4 mm
304
ACVALUE_END
170
5
140
0.125
  0
ACAD_TABLE
  5
28E
100
AcDbEntity
  8
0
 62
2
  6
CONTINUOUS
100
AcDbBlockReference
  2
*T3
 10
0.52125
 20
1.459
 30
0.0
100
AcDbTable
342
       39E
343
20C
 11
1.0
 21
0.0
 31
0.0
 90
22
 91
3
 92
3
 93
16
 94
0
 95
0
 96
0
 41
0.05
141
0.34375
141
0.344
141
0.25
142
1.3
142
2.0
142
1.3
171
1
172
0
173
0
174
0
175
3
176
1
 91
33
178
0
145
0.0
301
CELL_VALUE
 90
4
  1
Port Headings
304
ACVALUE_END
170
5
140
0.145
171
1
172
0
173
1
174
0
175
1
176
1
 91
1
178
0
145
0.0
170
1
171
1
172
0
173
1
174
0
175
1
176
1
 91
1
178
0
145
0.0
170
1
171
1
172
0
173
0
174
0
175
1
176
1
 91
33
178
0
145
0.0
301
CELL_VALUE
 90
4
  1
Product
304
ACVALUE_END
170
5
140
0.145
171
1
172
0
173
0
174
0
175
1
176
1
 91
33
178
0
145
0.0
301
CELL_VALUE
 90
4
  1
Port
304
ACVALUE_END
170
5
140
0.145
171
1
172
0
173
0
174
0
175
1
176
1
 91
33
178
0
145
0.0
301
CELL_VALUE
 90
4
  1
Size
304
ACVALUE_END
170
5
140
0.145
171
1
172
0
173
0
174
0
175
1
176
1
 91
33
178
0
145
0.0
301
CELL_VALUE
 90
4
  1
YVY
304
ACVALUE_END
170
5
140
0.125
171
1
172
0
173
0
174
0
175
1
176
1
 91
33
178
0
145
0.0
301
CELL_VALUE
 90
4
  1
Ports C2, V1, V2
304
ACVALUE_END
170
5
140
0.125
171
1
172
0
173
0
174
0
175
1
176
1
 91
33
178
0
145
0.0
301
CELL_VALUE
 90
4
  1
SAE 6
304
ACVALUE_END
170
5
140
0.125
  0
MTEXT
  5
28F
100
AcDbEntity
  8
0
100
AcDbMText
 62
2
  6
CONTINUOUS
  7
STANDARD
 71
1
 72
1
 10
0.52125
 20
5.75995
 30
0.0
 11
1.0
 21
0.0
 31
0.0
 44
0.6
  3
Notes\P \P1. Important: Carefully consider\P   the maximum system pressure. The\P   pressure rating of the manifold is\P   dependent on the manifold material,\P   with the port type/size a secondary\P   consideration. Manifolds\P   constructed of alu
  1
minum are not\P   rated for pressures higher than\P   3000 psi (210 bar), regardless of\P   the port type/size specified.
 40
0.1
 41
3.04
  0
LINE
  5
290
100
AcDbEntity
  8
0
100
AcDbLine
 62
7
  6
CONTINUOUS
 10
0.30125
 20
0.30125
 11
0.30125
 21
16.69875
  0
LINE
  5
291
100
AcDbEntity
  8
0
100
AcDbLine
 62
7
  6
CONTINUOUS
 10
0.30125
 20
0.30125
 11
21.69875
 21
0.30125
  0
LINE
  5
292
100
AcDbEntity
  8
0
100
AcDbLine
 62
7
  6
CONTINUOUS
 10
0.30125
 20
16.69875
 11
21.69875
 21
16.69875
  0
LINE
  5
293
100
AcDbEntity
  8
0
100
AcDbLine
 62
7
  6
CONTINUOUS
 10
21.69875
 20
0.30125
 11
21.69875
 21
16.69875
  0
LINE
  5
294
100
AcDbEntity
  8
0
100
AcDbLine
 62
7
  6
CONTINUOUS
 10
12.14287518
 20
5.0011180454
 11
7.9159835837
 21
5.2942539733
  0
LINE
  5
295
100
AcDbEntity
  8
0
100
AcDbLine
 62
7
  6
CONTINUOUS
 10
7.9159835837
 20
5.2942539733
 11
7.9159835837
 21
10.1238833909
  0
LINE
  5
296
100
AcDbEntity
  8
0
100
AcDbLine
 62
7
  6
CONTINUOUS
 10
7.9159835837
 20
10.1238833909
 11
9.85712482
 21
11.9988819546
  0
LINE
  5
297
100
AcDbEntity
  8
0
100
AcDbLine
 62
4
  6
CONTINUOUS
 10
12.2878137253
 20
6.4489816591
 11
12.2722845958
 21
6.4484705588
  0
LINE
  5
298
100
AcDbEntity
  8
0
100
AcDbLine
 62
4
  6
CONTINUOUS
 10
12.2722845958
 20
6.622337214
 11
12.3344011139
 21
6.609892727
  0
LINE
  5
299
100
AcDbEntity
  8
0
100
AcDbLine
 62
7
  6
CONTINUOUS
 10
12.14287518
 20
9.830747463
 11
14.0840164163
 21
11.7057460267
  0
LINE
  5
29A
100
AcDbEntity
  8
0
100
AcDbLine
 62
4
  6
CONTINUOUS
 10
13.9054314222
 20
8.6016611082
 11
13.8899022927
 21
8.601150008
  0
LINE
  5
29B
100
AcDbEntity
  8
0
100
AcDbLine
 62
4
  6
CONTINUOUS
 10
13.9209605517
 20
8.891949967
 11
13.9364896813
 21
8.8924610673
  0
LINE
  5
29C
100
AcDbEntity
  8
0
100
AcDbLine
 62
4
  6
CONTINUOUS
 10
13.2257731757
 20
8.4591721765
 11
13.2878896939
 21
8.4529372169
  0
LINE
  5
29D
100
AcDbEntity
  8
0
100
AcDbLine
 62
4
  6
CONTINUOUS
 10
13.4680275966
 20
7.942509625
 11
13.4635907009
 21
7.9437434678
  0
LINE
  5
29E
100
AcDbEntity
  8
0
100
AcDbLine
 62
4
  6
CONTINUOUS
 10
12.3136956091
 20
6.3725594251
 11
12.3085192301
 21
6.3820483145
  0
LINE
  5
29F
100
AcDbEntity
  8
0
100
AcDbLine
 62
4
  6
CONTINUOUS
 10
12.2981664777
 20
6.4300038747
 11
12.2878137253
 21
6.4489816591
  0
LINE
  5
2A0
100
AcDbEntity
  8
0
100
AcDbLine
 62
4
  6
CONTINUOUS
 10
12.3240483597
 20
6.4984705182
 11
12.3292247386
 21
6.4889816287
  0
LINE
  5
2A1
100
AcDbEntity
  8
0
100
AcDbLine
 62
4
  6
CONTINUOUS
 10
13.0891168358
 20
8.9508843664
 11
13.1512333539
 21
8.9446494068
  0
LINE
  5
2A2
100
AcDbEntity
  8
0
100
AcDbLine
 62
4
  6
CONTINUOUS
 10
13.3911214312
 20
8.7789540202
 11
13.450280021
 21
8.7698619487
  0
LINE
  5
2A3
100
AcDbEntity
  8
0
100
AcDbLine
 62
4
  6
CONTINUOUS
 10
12.3344011139
 20
9.1695962576
 11
12.2722845958
 21
9.0371518652
  0
LINE
  5
2A4
100
AcDbEntity
  8
0
100
AcDbLine
 62
4
  6
CONTINUOUS
 10
12.3344011139
 20
8.865329611
 11
12.2722845958
 21
8.8053296584
  0
LINE
  5
2A5
100
AcDbEntity
  8
0
100
AcDbLine
 62
4
  6
CONTINUOUS
 10
13.450280021
 20
9.7633856609
 11
13.4591538088
 21
9.7719570822
  0
LINE
  5
2A6
100
AcDbEntity
  8
0
100
AcDbLine
 62
4
  6
CONTINUOUS
 10
13.4147848671
 20
9.6131888695
 11
13.4236586559
 21
9.6217602917
  0
LINE
  5
2A7
100
AcDbEntity
  8
0
100
AcDbLine
 62
4
  6
CONTINUOUS
 10
13.4680275966
 20
9.5983824877
 11
13.4147848671
 21
9.5469539572
  0
LINE
  5
2A8
100
AcDbEntity
  8
0
100
AcDbLine
 62
4
  6
CONTINUOUS
 10
12.2722845958
 20
9.0371518652
 11
12.3344011139
 21
9.0247073783
  0
LINE
  5
2A9
100
AcDbEntity
  8
0
100
AcDbLine
 62
4
  6
CONTINUOUS
 10
12.3085192301
 20
6.3820483145
 11
12.2981664777
 21
6.4300038747
  0
LINE
  5
2AA
100
AcDbEntity
  8
0
100
AcDbLine
 62
4
  6
CONTINUOUS
 10
12.3292247386
 20
6.4889816287
 11
12.3344011139
 21
6.4650038477
  0
LINE
  5
2AB
100
AcDbEntity
  8
0
100
AcDbLine
 62
7
  6
CONTINUOUS
 10
12.14287518
 20
9.830747463
 11
12.14287518
 21
5.0011180454
  0
LINE
  5
2AC
100
AcDbEntity
  8
0
100
AcDbLine
 62
4
  6
CONTINUOUS
 10
12.2722845958
 20
6.4484705588
 11
12.2722845958
 21
6.3325594554
  0
LINE
  5
2AD
100
AcDbEntity
  8
0
100
AcDbLine
 62
4
  6
CONTINUOUS
 10
13.0891168358
 20
9.1606282553
 11
13.1512333539
 21
9.220628208
  0
LINE
  5
2AE
100
AcDbEntity
  8
0
100
AcDbLine
 62
4
  6
CONTINUOUS
 10
13.4147848671
 20
9.4310428538
 11
13.4680275966
 21
9.4824713843
  0
LINE
  5
2AF
100
AcDbEntity
  8
0
100
AcDbLine
 62
4
  6
CONTINUOUS
 10
13.4059110784
 20
9.3562365193
 11
13.4680275966
 21
9.416236472
  0
LINE
  5
2B0
100
AcDbEntity
  8
0
100
AcDbLine
 62
4
  6
CONTINUOUS
 10
13.1423595661
 20
9.0961456971
 11
13.0979906245
 21
9.0532885879
  0
LINE
  5
2B1
100
AcDbEntity
  8
0
100
AcDbLine
 62
4
  6
CONTINUOUS
 10
13.4059110784
 20
9.2403254159
 11
13.4680275966
 21
9.3003253686
  0
LINE
  5
2B2
100
AcDbEntity
  8
0
100
AcDbLine
 62
4
  6
CONTINUOUS
 10
12.3344011139
 20
6.4650038477
 11
12.3344011139
 21
6.4360260719
  0
LINE
  5
2B3
100
AcDbEntity
  8
0
100
AcDbLine
 62
4
  6
CONTINUOUS
 10
13.0891168358
 20
8.6859446895
 11
13.1512333539
 21
8.7459446422
  0
LINE
  5
2B4
100
AcDbEntity
  8
0
100
AcDbLine
 62
4
  6
CONTINUOUS
 10
13.4059110784
 20
8.9919444878
 11
13.4680275966
 21
9.0519444405
  0
LINE
  5
2B5
100
AcDbEntity
  8
0
100
AcDbLine
 62
4
  6
CONTINUOUS
 10
13.4458431253
 20
8.9311635032
 11
13.4059110784
 21
8.8925921056
  0
LINE
  5
2B6
100
AcDbEntity
  8
0
100
AcDbLine
 62
4
  6
CONTINUOUS
 10
13.0891168358
 20
8.5534748649
 11
13.1512333539
 21
8.6134748176
  0
LINE
  5
2B7
100
AcDbEntity
  8
0
100
AcDbLine
 62
4
  6
CONTINUOUS
 10
13.2612683306
 20
8.6921626229
 11
13.2257731757
 21
8.6578769342
  0
LINE
  5
2B8
100
AcDbEntity
  8
0
100
AcDbLine
 62
4
  6
CONTINUOUS
 10
13.4103479728
 20
8.6871338863
 11
13.4458431253
 21
8.7214195728
  0
LINE
  5
2B9
100
AcDbEntity
  8
0
100
AcDbLine
 62
7
  6
CONTINUOUS
 10
7.9159835837
 20
10.1238833909
 11
12.14287518
 21
9.830747463
  0
LINE
  5
2BA
100
AcDbEntity
  8
0
100
AcDbLine
 62
4
  6
CONTINUOUS
 10
12.3344011139
 20
6.4360260719
 11
12.3292247386
 21
6.4020483012
  0
LINE
  5
2BB
100
AcDbEntity
  8
0
100
AcDbLine
 62
4
  6
CONTINUOUS
 10
12.3292247386
 20
6.4020483012
 11
12.3240483597
 21
6.3825594148
  0
LINE
  5
2BC
100
AcDbEntity
  8
0
100
AcDbLine
 62
4
  6
CONTINUOUS
 10
13.1512333539
 20
8.9446494068
 11
13.0891168358
 21
8.8184145141
  0
LINE
  5
2BD
100
AcDbEntity
  8
0
100
AcDbLine
 62
4
  6
CONTINUOUS
 10
13.4680275966
 20
8.6434958009
 11
13.4059110784
 21
8.5834958482
  0
LINE
  5
2BE
100
AcDbEntity
  8
0
100
AcDbLine
 62
4
  6
CONTINUOUS
 10
13.4059110784
 20
8.517260853
 11
13.450280021
 21
8.5601179631
  0
LINE
  5
2BF
100
AcDbEntity
  8
0
100
AcDbLine
 62
4
  6
CONTINUOUS
 10
13.0979906245
 20
8.2143129216
 11
13.1423595661
 21
8.2571700308
  0
LINE
  5
2C0
100
AcDbEntity
  8
0
100
AcDbLine
 62
4
  6
CONTINUOUS
 10
13.4458431253
 20
8.4785582554
 11
13.4369693375
 21
8.4699868341
  0
LINE
  5
2C1
100
AcDbEntity
  8
0
100
AcDbLine
 62
4
  6
CONTINUOUS
 10
13.2612683306
 20
8.3002727114
 11
13.2257731757
 21
8.2659870226
  0
LINE
  5
2C2
100
AcDbEntity
  8
0
100
AcDbLine
 62
4
  6
CONTINUOUS
 10
13.4103479728
 20
8.3725180183
 11
13.4236586559
 21
8.3853751516
  0
LINE
  5
2C3
100
AcDbEntity
  8
0
100
AcDbLine
 62
4
  6
CONTINUOUS
 10
13.0979906245
 20
8.0211278229
 11
13.1423595661
 21
8.0639849321
  0
LINE
  5
2C4
100
AcDbEntity
  8
0
100
AcDbLine
 62
4
  6
CONTINUOUS
 10
13.4059110784
 20
8.2688799802
 11
13.4414062333
 21
8.303165669
  0
LINE
  5
2C5
100
AcDbEntity
  8
0
100
AcDbLine
 62
4
  6
CONTINUOUS
 10
13.450280021
 20
8.2455022056
 11
13.4103479728
 21
8.2069308067
  0
LINE
  5
2C6
100
AcDbEntity
  8
0
100
AcDbLine
 62
4
  6
CONTINUOUS
 10
13.1423595661
 20
7.9480738286
 11
13.0979906245
 21
7.9052167194
  0
LINE
  5
2C7
100
AcDbEntity
  8
0
100
AcDbLine
 62
4
  6
CONTINUOUS
 10
13.2612683306
 20
8.3002727114
 11
13.2878896939
 21
8.259752063
  0
LINE
  5
2C8
100
AcDbEntity
  8
0
100
AcDbLine
 62
4
  6
CONTINUOUS
 10
13.0979906245
 20
7.7230707313
 11
13.0891168358
 21
7.7476167515
  0
LINE
  5
2C9
100
AcDbEntity
  8
0
100
AcDbLine
 62
4
  6
CONTINUOUS
 10
13.0979906245
 20
7.9052167194
 11
13.0891168358
 21
7.9297627396
  0
LINE
  5
2CA
100
AcDbEntity
  8
0
100
AcDbLine
 62
4
  6
CONTINUOUS
 10
13.1423595661
 20
8.0639849321
 11
13.1512333539
 21
8.039438911
  0
LINE
  5
2CB
100
AcDbEntity
  8
0
100
AcDbLine
 62
4
  6
CONTINUOUS
 10
13.0891168358
 20
8.5534748649
 11
13.0891168358
 21
8.4541224827
  0
LINE
  5
2CC
100
AcDbEntity
  8
0
100
AcDbLine
 62
4
  6
CONTINUOUS
 10
13.0891168358
 20
7.6206664269
 11
13.0891168358
 21
7.5213140999
  0
LINE
  5
2CD
100
AcDbEntity
  8
0
100
AcDbLine
 62
4
  6
CONTINUOUS
 10
13.0891168358
 20
7.7476167515
 11
13.0891168358
 21
7.8304104126
  0
LINE
  5
2CE
100
AcDbEntity
  8
0
100
AcDbLine
 62
4
  6
CONTINUOUS
 10
13.0891168358
 20
7.9297627396
 11
13.0891168358
 21
7.9794389583
  0
LINE
  5
2CF
100
AcDbEntity
  8
0
100
AcDbLine
 62
4
  6
CONTINUOUS
 10
13.0891168358
 20
8.1063891724
 11
13.0891168358
 21
8.172624057
  0
LINE
  5
2D0
100
AcDbEntity
  8
0
100
AcDbLine
 62
4
  6
CONTINUOUS
 10
13.0891168358
 20
9.0778346218
 11
13.0891168358
 21
9.1606282553
  0
LINE
  5
2D1
100
AcDbEntity
  8
0
100
AcDbLine
 62
4
  6
CONTINUOUS
 10
13.1068644132
 20
8.9459489066
 11
13.1068644132
 21
8.8576356902
  0
LINE
  5
2D2
100
AcDbEntity
  8
0
100
AcDbLine
 62
4
  6
CONTINUOUS
 10
13.1246119906
 20
7.588717231
 11
13.1246119906
 21
7.6549521157
  0
LINE
  5
2D3
100
AcDbEntity
  8
0
100
AcDbLine
 62
4
  6
CONTINUOUS
 10
13.1246119906
 20
8.5215256138
 11
13.1246119906
 21
8.5877605537
  0
LINE
  5
2D4
100
AcDbEntity
  8
0
100
AcDbLine
 62
4
  6
CONTINUOUS
 10
13.1512333539
 20
9.220628208
 11
13.1512333539
 21
9.1378345745
  0
LINE
  5
2D5
100
AcDbEntity
  8
0
100
AcDbLine
 62
4
  6
CONTINUOUS
 10
13.1512333539
 20
8.8121795822
 11
13.1512333539
 21
8.6797097576
  0
LINE
  5
2D6
100
AcDbEntity
  8
0
100
AcDbLine
 62
4
  6
CONTINUOUS
 10
13.1512333539
 20
8.6134748176
 11
13.1512333539
 21
8.5141224354
  0
LINE
  5
2D7
100
AcDbEntity
  8
0
100
AcDbLine
 62
4
  6
CONTINUOUS
 10
13.1512333539
 20
8.2326240097
 11
13.1512333539
 21
8.1663891251
  0
LINE
  5
2D8
100
AcDbEntity
  8
0
100
AcDbLine
 62
4
  6
CONTINUOUS
 10
13.1512333539
 20
8.039438911
 11
13.1512333539
 21
7.9897626923
  0
LINE
  5
2D9
100
AcDbEntity
  8
0
100
AcDbLine
 62
4
  6
CONTINUOUS
 10
13.1512333539
 20
7.8904103653
 11
13.1512333539
 21
7.8076167042
  0
LINE
  5
2DA
100
AcDbEntity
  8
0
100
AcDbLine
 62
4
  6
CONTINUOUS
 10
13.1512333539
 20
7.6806663796
 11
13.1512333539
 21
7.5813140526
  0
LINE
  5
2DB
100
AcDbEntity
  8
0
100
AcDbLine
 62
4
  6
CONTINUOUS
 10
13.115738201
 20
9.3188123594
 11
13.103906483
 21
9.2190705735
  0
LINE
  5
2DC
100
AcDbEntity
  8
0
100
AcDbLine
 62
4
  6
CONTINUOUS
 10
13.4236586559
 20
9.6217602917
 11
13.450280021
 21
9.7633856609
  0
LINE
  5
2DD
100
AcDbEntity
  8
0
100
AcDbLine
 62
4
  6
CONTINUOUS
 10
13.1512333539
 20
9.1378345745
 11
13.1423595661
 21
9.0961456971
  0
LINE
  5
2DE
100
AcDbEntity
  8
0
100
AcDbLine
 62
4
  6
CONTINUOUS
 10
13.4103479728
 20
9.7248142619
 11
13.4059110784
 21
9.703969821
  0
LINE
  5
2DF
100
AcDbEntity
  8
0
100
AcDbLine
 62
4
  6
CONTINUOUS
 10
13.0891168358
 20
8.172624057
 11
13.0979906245
 21
8.2143129216
  0
LINE
  5
2E0
100
AcDbEntity
  8
0
100
AcDbLine
 62
4
  6
CONTINUOUS
 10
13.4147848671
 20
9.5469539572
 11
13.4059110784
 21
9.5052650789
  0
LINE
  5
2E1
100
AcDbEntity
  8
0
100
AcDbLine
 62
4
  6
CONTINUOUS
 10
13.0891168358
 20
7.9794389583
 11
13.0979906245
 21
8.0211278229
  0
LINE
  5
2E2
100
AcDbEntity
  8
0
100
AcDbLine
 62
4
  6
CONTINUOUS
 10
13.4680275966
 20
9.6811761281
 11
13.4635907009
 21
9.6603316876
  0
LINE
  5
2E3
100
AcDbEntity
  8
0
100
AcDbLine
 62
4
  6
CONTINUOUS
 10
13.1512333539
 20
7.9897626923
 11
13.1423595661
 21
7.9480738286
  0
LINE
  5
2E4
100
AcDbEntity
  8
0
100
AcDbLine
 62
4
  6
CONTINUOUS
 10
13.2878896939
 20
8.7841118061
 11
13.2612683306
 21
8.6921626229
  0
LINE
  5
2E5
100
AcDbEntity
  8
0
100
AcDbLine
 62
4
  6
CONTINUOUS
 10
13.4680275966
 20
9.416236472
 11
13.4059110784
 21
9.2403254159
  0
LINE
  5
2E6
100
AcDbEntity
  8
0
100
AcDbLine
 62
4
  6
CONTINUOUS
 10
12.3344011139
 20
6.7547816063
 11
12.2722845958
 21
6.622337214
  0
LINE
  5
2E7
100
AcDbEntity
  8
0
100
AcDbLine
 62
4
  6
CONTINUOUS
 10
13.450280021
 20
8.8692142757
 11
13.4059110784
 21
8.7766809469
  0
LINE
  5
2E8
100
AcDbEntity
  8
0
100
AcDbLine
 62
4
  6
CONTINUOUS
 10
13.2878896939
 20
8.5854070553
 11
13.2257731757
 21
8.4591721765
  0
LINE
  5
2E9
100
AcDbEntity
  8
0
100
AcDbLine
 62
4
  6
CONTINUOUS
 10
13.0891168358
 20
7.8304104126
 11
13.1512333539
 21
7.8904103653
  0
LINE
  5
2EA
100
AcDbEntity
  8
0
100
AcDbLine
 62
4
  6
CONTINUOUS
 10
13.4059110784
 20
8.103292658
 11
13.450280021
 21
8.1461497681
  0
LINE
  5
2EB
100
AcDbEntity
  8
0
100
AcDbLine
 62
4
  6
CONTINUOUS
 10
13.4103479728
 20
8.0413434845
 11
13.4680275966
 21
8.097057726
  0
LINE
  5
2EC
100
AcDbEntity
  8
0
100
AcDbLine
 62
4
  6
CONTINUOUS
 10
13.1423595661
 20
7.7659278405
 11
13.0979906245
 21
7.7230707313
  0
LINE
  5
2ED
100
AcDbEntity
  8
0
100
AcDbLine
 62
4
  6
CONTINUOUS
 10
13.9416660566
 20
8.5352388639
 11
13.931313306
 21
8.5252388742
  0
LINE
  5
2EE
100
AcDbEntity
  8
0
100
AcDbLine
 62
4
  6
CONTINUOUS
 10
13.0891168358
 20
7.6206664269
 11
13.1512333539
 21
7.6806663796
  0
LINE
  5
2EF
100
AcDbEntity
  8
0
100
AcDbLine
 62
4
  6
CONTINUOUS
 10
13.4059110784
 20
7.8880292276
 11
13.450280021
 21
7.9308863377
  0
LINE
  5
2F0
100
AcDbEntity
  8
0
100
AcDbLine
 62
4
  6
CONTINUOUS
 10
13.4635907009
 20
7.9437434678
 11
13.4680275966
 21
7.9480291803
  0
LINE
  5
2F1
100
AcDbEntity
  8
0
100
AcDbLine
 62
4
  6
CONTINUOUS
 10
13.4103479728
 20
7.8040017223
 11
13.4458431253
 21
7.8382874088
  0
LINE
  5
2F2
100
AcDbEntity
  8
0
100
AcDbLine
 62
4
  6
CONTINUOUS
 10
13.2612683306
 20
8.6921626229
 11
13.2878896939
 21
8.6516419676
  0
LINE
  5
2F3
100
AcDbEntity
  8
0
100
AcDbLine
 62
4
  6
CONTINUOUS
 10
13.1423595661
 20
8.2571700308
 11
13.1512333539
 21
8.2326240097
  0
LINE
  5
2F4
100
AcDbEntity
  8
0
100
AcDbLine
 62
4
  6
CONTINUOUS
 10
13.4059110784
 20
7.5678938043
 11
13.4103479728
 21
7.5556208495
  0
LINE
  5
2F5
100
AcDbEntity
  8
0
100
AcDbLine
 62
4
  6
CONTINUOUS
 10
13.4458431253
 20
7.6892587525
 11
13.450280021
 21
7.6769857991
  0
LINE
  5
2F6
100
AcDbEntity
  8
0
100
AcDbLine
 62
4
  6
CONTINUOUS
 10
13.4458431253
 20
7.8382874088
 11
13.450280021
 21
7.8260144554
  0
LINE
  5
2F7
100
AcDbEntity
  8
0
100
AcDbLine
 62
4
  6
CONTINUOUS
 10
13.0979906245
 20
9.0532885879
 11
13.0891168358
 21
9.0778346218
  0
LINE
  5
2F8
100
AcDbEntity
  8
0
100
AcDbLine
 62
4
  6
CONTINUOUS
 10
13.115738201
 20
7.3924802645
 11
13.103906483
 21
7.4693649183
  0
LINE
  5
2F9
100
AcDbEntity
  8
0
100
AcDbLine
 62
4
  6
CONTINUOUS
 10
13.1275699198
 20
9.2419276996
 11
13.115738201
 21
9.3188123594
  0
LINE
  5
2FA
100
AcDbEntity
  8
0
100
AcDbLine
 62
4
  6
CONTINUOUS
 10
13.3911214312
 20
8.8120714626
 11
13.3911214312
 21
8.7789540202
  0
LINE
  5
2FB
100
AcDbEntity
  8
0
100
AcDbLine
 62
4
  6
CONTINUOUS
 10
13.4059110784
 20
9.703969821
 11
13.4059110784
 21
9.6377349035
  0
LINE
  5
2FC
100
AcDbEntity
  8
0
100
AcDbLine
 62
4
  6
CONTINUOUS
 10
13.4059110784
 20
9.5052650789
 11
13.4059110784
 21
9.4555888739
  0
LINE
  5
2FD
100
AcDbEntity
  8
0
100
AcDbLine
 62
4
  6
CONTINUOUS
 10
13.4059110784
 20
8.1860863191
 11
13.4059110784
 21
8.103292658
  0
LINE
  5
2FE
100
AcDbEntity
  8
0
100
AcDbLine
 62
4
  6
CONTINUOUS
 10
13.4059110784
 20
7.634128689
 11
13.4059110784
 21
7.5678938043
  0
LINE
  5
2FF
100
AcDbEntity
  8
0
100
AcDbLine
 62
4
  6
CONTINUOUS
 10
13.4059110784
 20
7.7169222395
 11
13.4059110784
 21
7.7831573453
  0
LINE
  5
300
100
AcDbEntity
  8
0
100
AcDbLine
 62
4
  6
CONTINUOUS
 10
13.4059110784
 20
7.9873815546
 11
13.4059110784
 21
8.0204989969
  0
LINE
  5
301
100
AcDbEntity
  8
0
100
AcDbLine
 62
4
  6
CONTINUOUS
 10
13.4059110784
 20
8.2688799802
 11
13.4059110784
 21
8.3351148649
  0
LINE
  5
302
100
AcDbEntity
  8
0
100
AcDbLine
 62
4
  6
CONTINUOUS
 10
13.4059110784
 20
8.5834958482
 11
13.4059110784
 21
8.6497307328
  0
LINE
  5
303
100
AcDbEntity
  8
0
100
AcDbLine
 62
4
  6
CONTINUOUS
 10
13.4280955497
 20
8.3565434199
 11
13.4280955497
 21
8.2903085353
  0
LINE
  5
304
100
AcDbEntity
  8
0
100
AcDbLine
 62
4
  6
CONTINUOUS
 10
13.450280021
 20
9.0348015979
 11
13.450280021
 21
8.9520079368
  0
LINE
  5
305
100
AcDbEntity
  8
0
100
AcDbLine
 62
4
  6
CONTINUOUS
 10
13.450280021
 20
8.6925878429
 11
13.450280021
 21
8.6263529583
  0
LINE
  5
306
100
AcDbEntity
  8
0
100
AcDbLine
 62
4
  6
CONTINUOUS
 10
13.450280021
 20
8.5601179631
 11
13.450280021
 21
8.4938830784
  0
LINE
  5
307
100
AcDbEntity
  8
0
100
AcDbLine
 62
4
  6
CONTINUOUS
 10
13.450280021
 20
7.8260144554
 11
13.450280021
 21
7.7597793496
  0
LINE
  5
308
100
AcDbEntity
  8
0
100
AcDbLine
 62
4
  6
CONTINUOUS
 10
13.450280021
 20
7.6769857991
 11
13.450280021
 21
7.6107509144
  0
LINE
  5
309
100
AcDbEntity
  8
0
100
AcDbLine
 62
4
  6
CONTINUOUS
 10
13.450280021
 20
8.3282957562
 11
13.450280021
 21
8.4110894173
  0
LINE
  5
30A
100
AcDbEntity
  8
0
100
AcDbLine
 62
4
  6
CONTINUOUS
 10
13.4680275966
 20
9.7474110439
 11
13.4680275966
 21
9.6811761281
  0
LINE
  5
30B
100
AcDbEntity
  8
0
100
AcDbLine
 62
4
  6
CONTINUOUS
 10
13.4680275966
 20
7.9480291803
 11
13.4680275966
 21
7.942509625
  0
LINE
  5
30C
100
AcDbEntity
  8
0
100
AcDbLine
 62
4
  6
CONTINUOUS
 10
13.4266165851
 20
7.5878937892
 11
13.4295745144
 21
7.6569858143
  0
LINE
  5
30D
100
AcDbEntity
  8
0
100
AcDbLine
 62
4
  6
CONTINUOUS
 10
13.1275699198
 20
7.4922220445
 11
13.115738201
 21
7.3924802645
  0
LINE
  5
30E
100
AcDbEntity
  8
0
100
AcDbLine
 62
4
  6
CONTINUOUS
 10
13.4059110784
 20
8.6497307328
 11
13.4103479728
 21
8.6871338863
  0
LINE
  5
30F
100
AcDbEntity
  8
0
100
AcDbLine
 62
4
  6
CONTINUOUS
 10
13.4059110784
 20
8.3351148649
 11
13.4103479728
 21
8.3725180183
  0
LINE
  5
310
100
AcDbEntity
  8
0
100
AcDbLine
 62
4
  6
CONTINUOUS
 10
13.4295745144
 20
7.6569858143
 11
13.4325324436
 21
7.6764016206
  0
LINE
  5
311
100
AcDbEntity
  8
0
100
AcDbLine
 62
4
  6
CONTINUOUS
 10
13.1512333539
 20
7.8076167042
 11
13.1423595661
 21
7.7659278405
  0
LINE
  5
312
100
AcDbEntity
  8
0
100
AcDbLine
 62
4
  6
CONTINUOUS
 10
13.450280021
 20
8.9520079368
 11
13.4458431253
 21
8.9311635032
  0
LINE
  5
313
100
AcDbEntity
  8
0
100
AcDbLine
 62
4
  6
CONTINUOUS
 10
13.4103479728
 20
8.2069308067
 11
13.4059110784
 21
8.1860863191
  0
LINE
  5
314
100
AcDbEntity
  8
0
100
AcDbLine
 62
4
  6
CONTINUOUS
 10
13.4059110784
 20
8.0204989969
 11
13.4103479728
 21
8.0413434845
  0
LINE
  5
315
100
AcDbEntity
  8
0
100
AcDbLine
 62
4
  6
CONTINUOUS
 10
13.4059110784
 20
7.7831573453
 11
13.4103479728
 21
7.8040017223
  0
LINE
  5
316
100
AcDbEntity
  8
0
100
AcDbLine
 62
4
  6
CONTINUOUS
 10
13.2878896939
 20
8.3922218876
 11
13.2612683306
 21
8.3002727114
  0
LINE
  5
317
100
AcDbEntity
  8
0
100
AcDbLine
 62
4
  6
CONTINUOUS
 10
13.450280021
 20
8.4938830784
 11
13.4458431253
 21
8.4785582554
  0
LINE
  5
318
100
AcDbEntity
  8
0
100
AcDbLine
 62
4
  6
CONTINUOUS
 10
13.4414062333
 20
8.303165669
 11
13.450280021
 21
8.3282957562
  0
LINE
  5
319
100
AcDbEntity
  8
0
100
AcDbLine
 62
4
  6
CONTINUOUS
 10
13.9054314222
 20
8.8624610909
 11
13.9209605517
 21
8.891949967
  0
LINE
  5
31A
100
AcDbEntity
  8
0
100
AcDbLine
 62
4
  6
CONTINUOUS
 10
13.4325324436
 20
7.6764016206
 11
13.4458431253
 21
7.6892587525
  0
LINE
  5
31B
100
AcDbEntity
  8
0
100
AcDbLine
 62
4
  6
CONTINUOUS
 10
13.4103479728
 20
7.5556208495
 11
13.4236586559
 21
7.5684779828
  0
LINE
  5
31C
100
AcDbEntity
  8
0
100
AcDbLine
 62
4
  6
CONTINUOUS
 10
12.3240483597
 20
6.3825594148
 11
12.3136956091
 21
6.3725594251
  0
LINE
  5
31D
100
AcDbEntity
  8
0
100
AcDbLine
 62
4
  6
CONTINUOUS
 10
13.4236586559
 20
8.3853751516
 11
13.4280955497
 21
8.3565434199
  0
LINE
  5
31E
100
AcDbEntity
  8
0
100
AcDbLine
 62
4
  6
CONTINUOUS
 10
13.4458431253
 20
8.7214195728
 11
13.450280021
 21
8.6925878429
  0
LINE
  5
31F
100
AcDbEntity
  8
0
100
AcDbLine
 62
4
  6
CONTINUOUS
 10
13.4236586559
 20
7.5684779828
 11
13.4266165851
 21
7.5878937892
  0
LINE
  5
320
100
AcDbEntity
  8
0
100
AcDbLine
 62
4
  6
CONTINUOUS
 10
13.8899022927
 20
8.789505551
 11
13.8950786693
 21
8.8234833231
  0
LINE
  5
321
100
AcDbEntity
  8
0
100
AcDbLine
 62
4
  6
CONTINUOUS
 10
13.4103479728
 20
7.654973066
 11
13.4059110784
 21
7.634128689
  0
LINE
  5
322
100
AcDbEntity
  8
0
100
AcDbLine
 62
4
  6
CONTINUOUS
 10
13.450280021
 20
7.6107509144
 11
13.4458431253
 21
7.5899065361
  0
LINE
  5
323
100
AcDbEntity
  8
0
100
AcDbLine
 62
4
  6
CONTINUOUS
 10
13.8950786693
 20
8.8234833231
 11
13.9054314222
 21
8.8624610909
  0
LINE
  5
324
100
AcDbEntity
  8
0
100
AcDbLine
 62
4
  6
CONTINUOUS
 10
13.9468424355
 20
8.7865499572
 11
13.9416660566
 21
8.7670610708
  0
LINE
  5
325
100
AcDbEntity
  8
0
100
AcDbLine
 62
4
  6
CONTINUOUS
 10
13.9468424355
 20
8.5547277503
 11
13.9416660566
 21
8.5352388639
  0
LINE
  5
326
100
AcDbEntity
  8
0
100
AcDbLine
 62
4
  6
CONTINUOUS
 10
13.931313306
 20
8.5252388742
 11
13.926136927
 21
8.5347277637
  0
LINE
  5
327
100
AcDbEntity
  8
0
100
AcDbLine
 62
4
  6
CONTINUOUS
 10
13.9157841746
 20
8.5826833239
 11
13.9054314222
 21
8.6016611082
  0
LINE
  5
328
100
AcDbEntity
  8
0
100
AcDbLine
 62
4
  6
CONTINUOUS
 10
13.9416660566
 20
8.6511499674
 11
13.9468424355
 21
8.6416610779
  0
LINE
  5
329
100
AcDbEntity
  8
0
100
AcDbLine
 62
4
  6
CONTINUOUS
 10
13.900255046
 20
8.7270611038
 11
13.8950786693
 21
8.7365499955
  0
LINE
  5
32A
100
AcDbEntity
  8
0
100
AcDbLine
 62
4
  6
CONTINUOUS
 10
13.9364896813
 20
8.8924610673
 11
13.9468424355
 21
8.8734832847
  0
LINE
  5
32B
100
AcDbEntity
  8
0
100
AcDbLine
 62
4
  6
CONTINUOUS
 10
13.4059110784
 20
9.4555888739
 11
13.4147848671
 21
9.4310428538
  0
LINE
  5
32C
100
AcDbEntity
  8
0
100
AcDbLine
 62
4
  6
CONTINUOUS
 10
13.4059110784
 20
9.6377349035
 11
13.4147848671
 21
9.6131888695
  0
LINE
  5
32D
100
AcDbEntity
  8
0
100
AcDbLine
 62
4
  6
CONTINUOUS
 10
13.4591538088
 20
9.7719570822
 11
13.4680275966
 21
9.7474110439
  0
LINE
  5
32E
100
AcDbEntity
  8
0
100
AcDbLine
 62
4
  6
CONTINUOUS
 10
13.8899022927
 20
8.601150008
 11
13.8899022927
 21
8.4852389045
  0
LINE
  5
32F
100
AcDbEntity
  8
0
100
AcDbLine
 62
4
  6
CONTINUOUS
 10
13.8899022927
 20
8.7605277752
 11
13.8899022927
 21
8.789505551
  0
LINE
  5
330
100
AcDbEntity
  8
0
100
AcDbLine
 62
4
  6
CONTINUOUS
 10
13.9520188108
 20
8.8495055037
 11
13.9520188108
 21
8.8205277279
  0
LINE
  5
331
100
AcDbEntity
  8
0
100
AcDbLine
 62
4
  6
CONTINUOUS
 10
13.9520188108
 20
8.6176832969
 11
13.9520188108
 21
8.588705521
  0
LINE
  5
332
100
AcDbEntity
  8
0
100
AcDbLine
 62
7
  6
CONTINUOUS
 10
14.0840164163
 20
11.7057460267
 11
14.0840164163
 21
6.8761166091
  0
LINE
  5
333
100
AcDbEntity
  8
0
100
AcDbLine
 62
4
  6
CONTINUOUS
 10
13.9520188108
 20
8.8205277279
 11
13.9468424355
 21
8.7865499572
  0
LINE
  5
334
100
AcDbEntity
  8
0
100
AcDbLine
 62
4
  6
CONTINUOUS
 10
13.9520188108
 20
8.588705521
 11
13.9468424355
 21
8.5547277503
  0
LINE
  5
335
100
AcDbEntity
  8
0
100
AcDbLine
 62
4
  6
CONTINUOUS
 10
13.926136927
 20
8.5347277637
 11
13.9157841746
 21
8.5826833239
  0
LINE
  5
336
100
AcDbEntity
  8
0
100
AcDbLine
 62
4
  6
CONTINUOUS
 10
13.8950786693
 20
8.7365499955
 11
13.8899022927
 21
8.7605277752
  0
LINE
  5
337
100
AcDbEntity
  8
0
100
AcDbLine
 62
4
  6
CONTINUOUS
 10
13.9468424355
 20
8.6416610779
 11
13.9520188108
 21
8.6176832969
  0
LINE
  5
338
100
AcDbEntity
  8
0
100
AcDbLine
 62
4
  6
CONTINUOUS
 10
13.9468424355
 20
8.8734832847
 11
13.9520188108
 21
8.8495055037
  0
LINE
  5
339
100
AcDbEntity
  8
0
100
AcDbLine
 62
7
  6
CONTINUOUS
 10
12.14287518
 20
5.0011180454
 11
14.0840164163
 21
6.8761166091
  0
LINE
  5
33A
100
AcDbEntity
  8
0
100
AcDbLine
 62
7
  6
CONTINUOUS
 10
9.85712482
 20
11.9988819546
 11
14.0840164163
 21
11.7057460267
  0
ARC
  5
33B
100
AcDbEntity
  8
0
100
AcDbCircle
 62
7
  6
CONTINUOUS
 10
10.9394426531
 20
6.6836430755
 40
2.6136268699
100
AcDbArc
 50
120.889817363
 51
121.3419158769
  0
ARC
  5
33C
100
AcDbEntity
  8
0
100
AcDbCircle
 62
7
  6
CONTINUOUS
 10
8.9916562724
 20
9.1859097679
 40
0.8567407398
100
AcDbArc
 50
134.9345616794
 51
135.5470069794
  0
ARC
  5
33D
100
AcDbEntity
  8
0
100
AcDbCircle
 62
7
  6
CONTINUOUS
 10
8.8100622413
 20
6.8435760878
 40
0.8567407398
100
AcDbArc
 50
134.9345616794
 51
135.5470069794
  0
ARC
  5
33E
100
AcDbEntity
  8
0
100
AcDbCircle
 62
7
  6
CONTINUOUS
 10
8.9870225073
 20
6.660369491
 40
0.8565445099
100
AcDbArc
 50
312.4676150361
 51
312.8997338283
  0
ARC
  5
33F
100
AcDbEntity
  8
0
100
AcDbCircle
 62
7
  6
CONTINUOUS
 10
9.1686165385
 20
9.0027031711
 40
0.8565445097
100
AcDbArc
 50
312.4676150361
 51
312.8997338283
  0
ARC
  5
340
100
AcDbEntity
  8
0
100
AcDbCircle
 62
7
  6
CONTINUOUS
 10
8.9097567766
 20
6.7102728872
 40
0.5856569587
100
AcDbArc
 50
349.3378671993
 51
0.0364000468
  0
ARC
  5
341
100
AcDbEntity
  8
0
100
AcDbCircle
 62
7
  6
CONTINUOUS
 10
9.0913508077
 20
9.0526065674
 40
0.5856569587
100
AcDbArc
 50
349.3378671993
 51
0.0364000468
  0
ARC
  5
342
100
AcDbEntity
  8
0
100
AcDbCircle
 62
7
  6
CONTINUOUS
 10
9.3873599976
 20
9.4337092476
 40
0.4831894517
100
AcDbArc
 50
170.3168198599
 51
180.0280181146
  0
ARC
  5
343
100
AcDbEntity
  8
0
100
AcDbCircle
 62
7
  6
CONTINUOUS
 10
11.6050568218
 20
7.2066707653
 40
0.3357019684
100
AcDbArc
 50
171.9309034739
 51
175.5831339162
  0
ARC
  5
344
100
AcDbEntity
  8
0
100
AcDbCircle
 62
7
  6
CONTINUOUS
 10
9.8906522022
 20
8.8463937972
 40
0.3183492654
100
AcDbArc
 50
167.3914887964
 51
173.2203388137
  0
SPLINE
  5
345
100
AcDbEntity
  8
0
100
AcDbSpline
 62
7
  6
CONTINUOUS
 70
0
 71
3
 72
28
 73
24
 74
0
 42
0.0000001
 43
0.0000001
 44
0.0000000001
 40
0.0
 40
0.0
 40
0.0
 40
0.0
 40
0.0637760561
 40
0.0955878952
 40
0.1273461456
 40
0.1907020113
 40
0.2538545498
 40
0.2853587995
 40
0.3168148476
 40
0.3795822178
 40
0.4421719615
 40
0.5045963759
 40
0.5668693678
 40
0.6290063485
 40
0.6600315374
 40
0.6910291167
 40
0.7220013686
 40
0.7529506362
 40
0.8147848192
 40
0.8765565453
 40
0.9074279109
 40
0.9382913746
 40
1.0
 40
1.0
 40
1.0
 40
1.0
 10
10.0139745677
 20
9.0124613384
 30
0.0
 10
10.0139745677
 20
8.9972792889
 30
0.0
 10
10.013429047
 20
8.9745192908
 30
0.0
 10
10.0116039557
 20
8.9442570851
 30
0.0
 10
10.0090542681
 20
8.9141471033
 30
0.0
 10
10.004507253
 20
8.8767307997
 30
0.0
 10
9.9981443406
 20
8.8396412126
 30
0.0
 10
9.9919769823
 20
8.8102572994
 30
0.0
 10
9.9851064392
 20
8.7811240912
 30
0.0
 10
9.9751897675
 20
8.7451182662
 30
0.0
 10
9.9611804664
 20
8.7026491961
 30
0.0
 10
9.9451021233
 20
8.6610447233
 30
0.0
 10
9.9269922415
 20
8.62040212
 30
0.0
 10
9.9102327316
 20
8.5873940761
 30
0.0
 10
9.8958550218
 20
8.5615672376
 30
0.0
 10
9.8845967938
 20
8.5425031384
 30
0.0
 10
9.872865569
 20
8.523747715
 30
0.0
 10
9.8566083403
 20
8.4991759259
 30
0.0
 10
9.835134942
 20
8.4692789915
 30
0.0
 10
9.8121681535
 20
8.4405372131
 30
0.0
 10
9.7929409898
 20
8.418290592
 30
0.0
 10
9.7731591018
 20
8.3965569771
 30
0.0
 10
9.7576989762
 20
8.3808350391
 30
0.0
 10
9.7471331958
 20
8.3706292944
 30
0.0
  0
SPLINE
  5
346
100
AcDbEntity
  8
0
100
AcDbSpline
 62
7
  6
CONTINUOUS
 70
0
 71
3
 72
28
 73
24
 74
0
 42
0.0000001
 43
0.0000001
 44
0.0000000001
 40
0.0
 40
0.0
 40
0.0
 40
0.0
 40
0.0637760561
 40
0.0955878952
 40
0.1273461456
 40
0.1907020113
 40
0.2538545498
 40
0.2853587995
 40
0.3168148476
 40
0.3795822178
 40
0.4421719615
 40
0.5045963759
 40
0.5668693678
 40
0.6290063485
 40
0.6600315374
 40
0.6910291167
 40
0.7220013686
 40
0.7529506362
 40
0.8147848192
 40
0.8765565453
 40
0.9074279109
 40
0.9382913746
 40
1.0
 40
1.0
 40
1.0
 40
1.0
 10
9.8323805366
 20
6.6701276582
 30
0.0
 10
9.8323805366
 20
6.6549456087
 30
0.0
 10
9.8318350159
 20
6.6321856106
 30
0.0
 10
9.8300099246
 20
6.6019234049
 30
0.0
 10
9.827460237
 20
6.5718134232
 30
0.0
 10
9.8229132219
 20
6.5343971195
 30
0.0
 10
9.8165503095
 20
6.4973075324
 30
0.0
 10
9.8103829512
 20
6.4679236192
 30
0.0
 10
9.8035124081
 20
6.438790411
 30
0.0
 10
9.7935957364
 20
6.402784586
 30
0.0
 10
9.7795864353
 20
6.3603155159
 30
0.0
 10
9.7635080922
 20
6.3187110431
 30
0.0
 10
9.7453982104
 20
6.2780684398
 30
0.0
 10
9.7286387005
 20
6.2450603959
 30
0.0
 10
9.7142609907
 20
6.2192335574
 30
0.0
 10
9.7030027627
 20
6.2001694582
 30
0.0
 10
9.6912715379
 20
6.1814140348
 30
0.0
 10
9.6750143092
 20
6.1568422457
 30
0.0
 10
9.6535409109
 20
6.1269453113
 30
0.0
 10
9.6305741224
 20
6.0982035329
 30
0.0
 10
9.6113469587
 20
6.0759569119
 30
0.0
 10
9.5915650707
 20
6.0542232969
 30
0.0
 10
9.5761049451
 20
6.0385013589
 30
0.0
 10
9.5655391647
 20
6.0282956142
 30
0.0
  0
SPLINE
  5
347
100
AcDbEntity
  8
0
100
AcDbSpline
 62
7
  6
CONTINUOUS
 70
0
 71
3
 72
53
 73
49
 74
0
 42
0.0000001
 43
0.0000001
 44
0.0000000001
 40
0.0
 40
0.0
 40
0.0
 40
0.0
 40
0.0417737855
 40
0.0840372804
 40
0.1266586658
 40
0.1695068268
 40
0.2124484817
 40
0.2553505161
 40
0.2980797819
 40
0.3405038709
 40
0.3824915641
 40
0.4239133811
 40
0.4646421101
 40
0.5045533515
 40
0.5435260687
 40
0.5814431539
 40
0.6181920188
 40
0.6536652174
 40
0.6877611189
 40
0.7203846489
 40
0.7361168986
 40
0.751448868
 40
0.7663708503
 40
0.7808738904
 40
0.7949495081
 40
0.8085900804
 40
0.821788593
 40
0.8345389529
 40
0.8468359066
 40
0.8586751859
 40
0.8700536732
 40
0.8809693639
 40
0.891421781
 40
0.9014118319
 40
0.9109423967
 40
0.9200182439
 40
0.9286466706
 40
0.9368376675
 40
0.9446045284
 40
0.9519643801
 40
0.9589387458
 40
0.9655544017
 40
0.9718438599
 40
0.9778462342
 40
0.9836073809
 40
0.9891800528
 40
0.994623075
 40
1.0
 40
1.0
 40
1.0
 40
1.0
 10
12.5230800435
 20
8.7491083564
 30
0.0
 10
12.5230800435
 20
8.7590145775
 30
0.0
 10
12.5232346006
 20
8.7789434604
 30
0.0
 10
12.5239178173
 20
8.808972524
 30
0.0
 10
12.5250518378
 20
8.8392429491
 30
0.0
 10
12.5266328748
 20
8.8696543199
 30
0.0
 10
12.528655754
 20
8.9001061979
 30
0.0
 10
12.5311137606
 20
8.9304977599
 30
0.0
 10
12.5339987654
 20
8.9607284867
 30
0.0
 10
12.5373011998
 20
8.9906983584
 30
0.0
 10
12.5410101093
 20
9.0203082344
 30
0.0
 10
12.5451131813
 20
9.0494601699
 30
0.0
 10
12.5495967871
 20
9.0780577475
 30
0.0
 10
12.5544460239
 20
9.1060064008
 30
0.0
 10
12.5596447662
 20
9.1332137297
 30
0.0
 10
12.5651757163
 20
9.159589818
 30
0.0
 10
12.571020464
 20
9.1850475185
 30
0.0
 10
12.5771595354
 20
9.2095028217
 30
0.0
 10
12.5835724956
 20
9.2328749021
 30
0.0
 10
12.5891928281
 20
9.2516046261
 30
0.0
 10
12.5938191968
 20
9.2659818987
 30
0.0
 10
12.5973019941
 20
9.2763163348
 30
0.0
 10
12.6008369795
 20
9.2863244241
 30
0.0
 10
12.6044211563
 20
9.2959979293
 30
0.0
 10
12.6080516405
 20
9.3053288524
 30
0.0
 10
12.6117253404
 20
9.314309517
 30
0.0
 10
12.6154392808
 20
9.3229325135
 30
0.0
 10
12.6191903468
 20
9.3311907544
 30
0.0
 10
12.6229754491
 20
9.3390774532
 30
0.0
 10
12.6267914875
 20
9.3465861304
 30
0.0
 10
12.6306352639
 20
9.3537106578
 30
0.0
 10
12.6345037111
 20
9.3604451835
 30
0.0
 10
12.6383935593
 20
9.3667842661
 30
0.0
 10
12.6423017728
 20
9.3727227072
 30
0.0
 10
12.6462250843
 20
9.3782557621
 30
0.0
 10
12.6501604792
 20
9.3833789204
 30
0.0
 10
12.6541047946
 20
9.3880881127
 30
0.0
 10
12.6580550496
 20
9.3923795382
 30
0.0
 10
12.6620082884
 20
9.3962497356
 30
0.0
 10
12.6659616144
 20
9.399695578
 30
0.0
 10
12.6699123405
 20
9.4027140614
 30
0.0
 10
12.6738576929
 20
9.4053025669
 30
0.0
 10
12.6777951433
 20
9.4074582935
 30
0.0
 10
12.6817218816
 20
9.4091788219
 30
0.0
 10
12.6856349876
 20
9.4104613837
 30
0.0
 10
12.6895311556
 20
9.4113036732
 30
0.0
 10
12.6934057056
 20
9.4117035297
 30
0.0
 10
12.6959780717
 20
9.4116741063
 30
0.0
 10
12.697250098
 20
9.411585881
 30
0.0
  0
SPLINE
  5
348
100
AcDbEntity
  8
0
100
AcDbSpline
 62
7
  6
CONTINUOUS
 70
0
 71
3
 72
53
 73
49
 74
0
 42
0.0000001
 43
0.0000001
 44
0.0000000001
 40
0.0
 40
0.0
 40
0.0
 40
0.0
 40
0.0417737855
 40
0.0840372804
 40
0.1266586658
 40
0.1695068268
 40
0.2124484817
 40
0.2553505161
 40
0.2980797819
 40
0.3405038709
 40
0.3824915641
 40
0.4239133811
 40
0.4646421101
 40
0.5045533515
 40
0.5435260687
 40
0.5814431539
 40
0.6181920188
 40
0.6536652174
 40
0.6877611189
 40
0.7203846489
 40
0.7361168986
 40
0.751448868
 40
0.7663708503
 40
0.7808738904
 40
0.7949495081
 40
0.8085900804
 40
0.821788593
 40
0.8345389529
 40
0.8468359066
 40
0.8586751859
 40
0.8700536732
 40
0.8809693639
 40
0.891421781
 40
0.9014118319
 40
0.9109423967
 40
0.9200182439
 40
0.9286466706
 40
0.9368376675
 40
0.9446045284
 40
0.9519643801
 40
0.9589387458
 40
0.9655544017
 40
0.9718438599
 40
0.9778462342
 40
0.9836073809
 40
0.9891800528
 40
0.994623075
 40
1.0
 40
1.0
 40
1.0
 40
1.0
 10
12.5230800435
 20
5.9711055854
 30
0.0
 10
12.5230800435
 20
5.9810118065
 30
0.0
 10
12.5232346006
 20
6.0009406894
 30
0.0
 10
12.5239178173
 20
6.030969753
 30
0.0
 10
12.5250518378
 20
6.0612401781
 30
0.0
 10
12.5266328748
 20
6.0916515489
 30
0.0
 10
12.528655754
 20
6.1221034269
 30
0.0
 10
12.5311137606
 20
6.1524949889
 30
0.0
 10
12.5339987654
 20
6.1827257157
 30
0.0
 10
12.5373011998
 20
6.2126955874
 30
0.0
 10
12.5410101093
 20
6.2423054634
 30
0.0
 10
12.5451131813
 20
6.2714573989
 30
0.0
 10
12.5495967871
 20
6.3000549765
 30
0.0
 10
12.5544460239
 20
6.3280036298
 30
0.0
 10
12.5596447662
 20
6.3552109587
 30
0.0
 10
12.5651757163
 20
6.381587047
 30
0.0
 10
12.571020464
 20
6.4070447475
 30
0.0
 10
12.5771595354
 20
6.4315000507
 30
0.0
 10
12.5835724956
 20
6.4548721311
 30
0.0
 10
12.5891928281
 20
6.4736018551
 30
0.0
 10
12.5938191968
 20
6.4879791277
 30
0.0
 10
12.5973019941
 20
6.4983135638
 30
0.0
 10
12.6008369795
 20
6.5083216531
 30
0.0
 10
12.6044211563
 20
6.5179951583
 30
0.0
 10
12.6080516405
 20
6.5273260814
 30
0.0
 10
12.6117253404
 20
6.536306746
 30
0.0
 10
12.6154392808
 20
6.5449297425
 30
0.0
 10
12.6191903468
 20
6.5531879834
 30
0.0
 10
12.6229754491
 20
6.5610746822
 30
0.0
 10
12.6267914875
 20
6.5685833594
 30
0.0
 10
12.6306352639
 20
6.5757078868
 30
0.0
 10
12.6345037111
 20
6.5824424125
 30
0.0
 10
12.6383935593
 20
6.5887814951
 30
0.0
 10
12.6423017728
 20
6.5947199362
 30
0.0
 10
12.6462250843
 20
6.6002529911
 30
0.0
 10
12.6501604792
 20
6.6053761494
 30
0.0
 10
12.6541047946
 20
6.6100853417
 30
0.0
 10
12.6580550496
 20
6.6143767672
 30
0.0
 10
12.6620082884
 20
6.6182469646
 30
0.0
 10
12.6659616144
 20
6.621692807
 30
0.0
 10
12.6699123405
 20
6.6247112904
 30
0.0
 10
12.6738576929
 20
6.6272997959
 30
0.0
 10
12.6777951433
 20
6.6294555225
 30
0.0
 10
12.6817218816
 20
6.6311760509
 30
0.0
 10
12.6856349876
 20
6.6324586127
 30
0.0
 10
12.6895311556
 20
6.6333009022
 30
0.0
 10
12.6934057056
 20
6.6337007587
 30
0.0
 10
12.6959780717
 20
6.6336713353
 30
0.0
 10
12.697250098
 20
6.63358311
 30
0.0
  0
SPLINE
  5
349
100
AcDbEntity
  8
0
100
AcDbSpline
 62
7
  6
CONTINUOUS
 70
0
 71
3
 72
66
 73
62
 74
0
 42
0.0000001
 43
0.0000001
 44
0.0000000001
 40
0.0
 40
0.0
 40
0.0
 40
0.0
 40
0.0712856657
 40
0.1069818862
 40
0.1427480275
 40
0.1606679236
 40
0.1786186636
 40
0.2146337235
 40
0.2327115764
 40
0.2508456198
 40
0.2873158566
 40
0.32412507
 40
0.3613756979
 40
0.3992016934
 40
0.4377819222
 40
0.4574294857
 40
0.4773639886
 40
0.497630899
 40
0.5182836111
 40
0.5393840872
 40
0.5610014942
 40
0.5832061997
 40
0.6060517287
 40
0.6177180348
 40
0.6295326128
 40
0.6414688718
 40
0.6534809656
 40
0.6654987044
 40
0.6774254477
 40
0.6891423794
 40
0.7005212999
 40
0.7114440452
 40
0.7218214339
 40
0.7407702689
 40
0.7573891426
 40
0.7720126247
 40
0.7850483726
 40
0.7968614061
 40
0.8077468608
 40
0.8129178472
 40
0.817938849
 40
0.8228306971
 40
0.8276116173
 40
0.8369009444
 40
0.8459177547
 40
0.850352131
 40
0.8547485692
 40
0.8591149058
 40
0.8634580874
 40
0.8677844464
 40
0.8720996169
 40
0.8807145015
 40
0.8893385569
 40
0.906713426
 40
0.9155117629
 40
0.924402977
 40
0.9333999391
 40
0.9425126028
 40
0.9611154732
 40
0.9802662415
 40
1.0
 40
1.0
 40
1.0
 40
1.0
 10
11.6060446696
 20
7.1718268134
 30
0.0
 10
11.5915017962
 20
7.1713216391
 30
0.0
 10
11.5696583817
 20
7.1709806115
 30
0.0
 10
11.5405210083
 20
7.1714349284
 30
0.0
 10
11.5222863376
 20
7.1721196662
 30
0.0
 10
11.5076847351
 20
7.1729217477
 30
0.0
 10
11.4930431243
 20
7.1739021473
 30
0.0
 10
11.4783883843
 20
7.1751559297
 30
0.0
 10
11.4637257099
 20
7.1767040398
 30
0.0
 10
11.4489933702
 20
7.1784641121
 30
0.0
 10
11.4305136812
 20
7.1810758258
 30
0.0
 10
11.4082783722
 20
7.1849282639
 30
0.0
 10
11.3859164775
 20
7.1895990272
 30
0.0
 10
11.3633983273
 20
7.1952114257
 30
0.0
 10
11.3445891384
 20
7.2007776928
 30
0.0
 10
11.3294682723
 20
7.205875165
 30
0.0
 10
11.3180003904
 20
7.2100924472
 30
0.0
 10
11.3064723717
 20
7.2147256155
 30
0.0
 10
11.2948837233
 20
7.2198293789
 30
0.0
 10
11.2832392699
 20
7.225470866
 30
0.0
 10
11.2715539142
 20
7.2317317333
 30
0.0
 10
11.2598632353
 20
7.2387084709
 30
0.0
 10
11.2502440476
 20
7.2451641823
 30
0.0
 10
11.2426413996
 20
7.2507905044
 30
0.0
 10
11.2369761338
 20
7.2552844892
 30
0.0
 10
11.2314243059
 20
7.2600276463
 30
0.0
 10
11.2260336601
 20
7.2650149977
 30
0.0
 10
11.2208631551
 20
7.2702280048
 30
0.0
 10
11.2159804646
 20
7.2756310793
 30
0.0
 10
11.2114559299
 20
7.2811705485
 30
0.0
 10
11.2073535327
 20
7.2867777244
 30
0.0
 10
11.2037207807
 20
7.2923773449
 30
0.0
 10
11.1996579124
 20
7.2995227016
 30
0.0
 10
11.1957420891
 20
7.3080729011
 30
0.0
 10
11.1926547801
 20
7.3178697092
 30
0.0
 10
11.1910273972
 20
7.3267841478
 30
0.0
 10
11.1905627559
 20
7.3348481559
 30
0.0
 10
11.1910171574
 20
7.342144958
 30
0.0
 10
11.192025377
 20
7.3477572387
 30
0.0
 10
11.1931392143
 20
7.3519149488
 30
0.0
 10
11.1940949718
 20
7.3548435048
 30
0.0
 10
11.1951729453
 20
7.3576440194
 30
0.0
 10
11.1967460621
 20
7.3611821958
 30
0.0
 10
11.1989731405
 20
7.3653443211
 30
0.0
 10
11.2015360997
 20
7.369222442
 30
0.0
 10
11.2037377044
 20
7.3721263476
 30
0.0
 10
11.2054536768
 20
7.3742041048
 30
0.0
 10
11.2072387448
 20
7.3761977334
 30
0.0
 10
11.2090889267
 20
7.3781111735
 30
0.0
 10
11.2110012775
 20
7.3799474108
 30
0.0
 10
11.2136280903
 20
7.3822952999
 30
0.0
 10
11.217057025
 20
7.3850581217
 30
0.0
 10
11.222831716
 20
7.3891359073
 30
0.0
 10
11.2289846109
 20
7.3927182761
 30
0.0
 10
11.2354217692
 20
7.3958518231
 30
0.0
 10
11.2404253428
 20
7.3980108965
 30
0.0
 10
11.245575392
 20
7.3999787597
 30
0.0
 10
11.2526762402
 20
7.4023796587
 30
0.0
 10
11.2619000204
 20
7.4049486938
 30
0.0
 10
11.2733821757
 20
7.4073992231
 30
0.0
 10
11.2812249516
 20
7.408645923
 30
0.0
 10
11.2852162774
 20
7.4091903128
 30
0.0
  0
SPLINE
  5
34A
100
AcDbEntity
  8
0
100
AcDbSpline
 62
7
  6
CONTINUOUS
 70
0
 71
3
 72
48
 73
44
 74
0
 42
0.0000001
 43
0.0000001
 44
0.0000000001
 40
0.0
 40
0.0
 40
0.0
 40
0.0
 40
0.0063158757
 40
0.0126706723
 40
0.0191025153
 40
0.0256480656
 40
0.0323419735
 40
0.0392163471
 40
0.0536142197
 40
0.0611949889
 40
0.0690567529
 40
0.0772179107
 40
0.0856943607
 40
0.0944997659
 40
0.103645921
 40
0.1131427623
 40
0.1229985381
 40
0.1332201926
 40
0.1438133623
 40
0.1547824065
 40
0.1661307821
 40
0.177861045
 40
0.189974755
 40
0.2153542741
 40
0.242270138
 40
0.2707124992
 40
0.3006635018
 40
0.3320987844
 40
0.3649881127
 40
0.3992959802
 40
0.4349824885
 40
0.4720034577
 40
0.510310969
 40
0.5498538267
 40
0.5905775201
 40
0.6324247899
 40
0.6753357769
 40
0.7192480049
 40
0.7640970224
 40
0.8098164065
 40
0.8563370501
 40
0.9035891101
 40
1.0
 40
1.0
 40
1.0
 40
1.0
 10
12.6237755881
 20
5.5741278575
 30
0.0
 10
12.6228781015
 20
5.5741901055
 30
0.0
 10
12.6210818388
 20
5.5743884468
 30
0.0
 10
12.6184075864
 20
5.5749054653
 30
0.0
 10
12.615751204
 20
5.575641878
 30
0.0
 10
12.6131142418
 20
5.5765971255
 30
0.0
 10
12.6104977628
 20
5.5777707215
 30
0.0
 10
12.6069845213
 20
5.5796540602
 30
0.0
 10
12.6035666738
 20
5.5819595229
 30
0.0
 10
12.600259101
 20
5.5846312209
 30
0.0
 10
12.5977607363
 20
5.5868837379
 30
0.0
 10
12.5952890707
 20
5.5893491447
 30
0.0
 10
12.592844716
 20
5.5920265473
 30
0.0
 10
12.590428626
 20
5.5949147505
 30
0.0
 10
12.5880417378
 20
5.5980126271
 30
0.0
 10
12.5856849712
 20
5.6013189056
 30
0.0
 10
12.5833591947
 20
5.6048322123
 30
0.0
 10
12.5810653584
 20
5.6085511516
 30
0.0
 10
12.5788043895
 20
5.6124742238
 30
0.0
 10
12.5765771407
 20
5.6165998054
 30
0.0
 10
12.5743845384
 20
5.6209262336
 30
0.0
 10
12.5722274784
 20
5.6254517713
 30
0.0
 10
12.5693552345
 20
5.6318484868
 30
0.0
 10
12.5658696341
 20
5.6403380764
 30
0.0
 10
12.5619047959
 20
5.6511358734
 30
0.0
 10
12.5581019107
 20
5.6626792464
 30
0.0
 10
12.5544671731
 20
5.6749492829
 30
0.0
 10
12.5510066294
 20
5.6879260758
 30
0.0
 10
12.5477260349
 20
5.7015884134
 30
0.0
 10
12.5446307936
 20
5.7159139208
 30
0.0
 10
12.5417261123
 20
5.7308791003
 30
0.0
 10
12.5390168062
 20
5.7464593628
 30
0.0
 10
12.5365073683
 20
5.7626290841
 30
0.0
 10
12.5342020312
 20
5.7793616535
 30
0.0
 10
12.5321045916
 20
5.796629513
 30
0.0
 10
12.5302185545
 20
5.8144042136
 30
0.0
 10
12.5285470946
 20
5.8326564561
 30
0.0
 10
12.5270929487
 20
5.8513561494
 30
0.0
 10
12.5258585705
 20
5.8704724864
 30
0.0
 10
12.5248460416
 20
5.8899738726
 30
0.0
 10
12.5240569728
 20
5.9098281637
 30
0.0
 10
12.5232997143
 20
5.9369080407
 30
0.0
 10
12.5230800435
 20
5.9573726766
 30
0.0
 10
12.5230800435
 20
5.9711055854
 30
0.0
  0
SPLINE
  5
34B
100
AcDbEntity
  8
0
100
AcDbSpline
 62
7
  6
CONTINUOUS
 70
0
 71
3
 72
48
 73
44
 74
0
 42
0.0000001
 43
0.0000001
 44
0.0000000001
 40
0.0
 40
0.0
 40
0.0
 40
0.0
 40
0.0063158757
 40
0.0126706723
 40
0.0191025153
 40
0.0256480656
 40
0.0323419735
 40
0.0392163471
 40
0.0536142197
 40
0.0611949889
 40
0.0690567529
 40
0.0772179107
 40
0.0856943607
 40
0.0944997659
 40
0.103645921
 40
0.1131427623
 40
0.1229985381
 40
0.1332201926
 40
0.1438133623
 40
0.1547824065
 40
0.1661307821
 40
0.177861045
 40
0.189974755
 40
0.2153542741
 40
0.242270138
 40
0.2707124992
 40
0.3006635018
 40
0.3320987844
 40
0.3649881127
 40
0.3992959802
 40
0.4349824885
 40
0.4720034577
 40
0.510310969
 40
0.5498538267
 40
0.5905775201
 40
0.6324247899
 40
0.6753357769
 40
0.7192480049
 40
0.7640970224
 40
0.8098164065
 40
0.8563370501
 40
0.9035891101
 40
1.0
 40
1.0
 40
1.0
 40
1.0
 10
12.6237755881
 20
8.3521306285
 30
0.0
 10
12.6228781015
 20
8.3521928765
 30
0.0
 10
12.6210818388
 20
8.3523912178
 30
0.0
 10
12.6184075864
 20
8.3529082363
 30
0.0
 10
12.615751204
 20
8.353644649
 30
0.0
 10
12.6131142418
 20
8.3545998965
 30
0.0
 10
12.6104977628
 20
8.3557734925
 30
0.0
 10
12.6069845213
 20
8.3576568312
 30
0.0
 10
12.6035666738
 20
8.3599622939
 30
0.0
 10
12.600259101
 20
8.3626339919
 30
0.0
 10
12.5977607363
 20
8.3648865089
 30
0.0
 10
12.5952890707
 20
8.3673519157
 30
0.0
 10
12.592844716
 20
8.3700293183
 30
0.0
 10
12.590428626
 20
8.3729175215
 30
0.0
 10
12.5880417378
 20
8.3760153981
 30
0.0
 10
12.5856849712
 20
8.3793216766
 30
0.0
 10
12.5833591947
 20
8.3828349833
 30
0.0
 10
12.5810653584
 20
8.3865539226
 30
0.0
 10
12.5788043895
 20
8.3904769948
 30
0.0
 10
12.5765771407
 20
8.3946025764
 30
0.0
 10
12.5743845384
 20
8.3989290046
 30
0.0
 10
12.5722274784
 20
8.4034545423
 30
0.0
 10
12.5693552345
 20
8.4098512578
 30
0.0
 10
12.5658696341
 20
8.4183408474
 30
0.0
 10
12.5619047959
 20
8.4291386444
 30
0.0
 10
12.5581019107
 20
8.4406820174
 30
0.0
 10
12.5544671731
 20
8.4529520539
 30
0.0
 10
12.5510066294
 20
8.4659288468
 30
0.0
 10
12.5477260349
 20
8.4795911844
 30
0.0
 10
12.5446307936
 20
8.4939166918
 30
0.0
 10
12.5417261123
 20
8.5088818713
 30
0.0
 10
12.5390168062
 20
8.5244621338
 30
0.0
 10
12.5365073683
 20
8.5406318551
 30
0.0
 10
12.5342020312
 20
8.5573644245
 30
0.0
 10
12.5321045916
 20
8.574632284
 30
0.0
 10
12.5302185545
 20
8.5924069846
 30
0.0
 10
12.5285470946
 20
8.6106592271
 30
0.0
 10
12.5270929487
 20
8.6293589204
 30
0.0
 10
12.5258585705
 20
8.6484752574
 30
0.0
 10
12.5248460416
 20
8.6679766436
 30
0.0
 10
12.5240569728
 20
8.6878309347
 30
0.0
 10
12.5232997143
 20
8.7149108117
 30
0.0
 10
12.5230800435
 20
8.7353754476
 30
0.0
 10
12.5230800435
 20
8.7491083564
 30
0.0
  0
SPLINE
  5
34C
100
AcDbEntity
  8
0
100
AcDbSpline
 62
7
  6
CONTINUOUS
 70
0
 71
3
 72
25
 73
21
 74
0
 42
0.0000001
 43
0.0000001
 44
0.0000000001
 40
0.0
 40
0.0
 40
0.0
 40
0.0
 40
0.0617095203
 40
0.0925734315
 40
0.1234452457
 40
0.185217866
 40
0.2470529449
 40
0.2780026653
 40
0.3089753644
 40
0.3709940076
 40
0.4331318897
 40
0.4954057815
 40
0.5578311025
 40
0.6204217731
 40
0.6831899954
 40
0.7461464883
 40
0.8092999628
 40
0.8726562234
 40
0.9362240496
 40
1.0
 40
1.0
 40
1.0
 40
1.0
 10
9.3235178411
 20
6.4549269197
 30
0.0
 10
9.3289832435
 20
6.4602061176
 30
0.0
 10
9.3369804037
 20
6.4683386731
 30
0.0
 10
9.3472130495
 20
6.4795809746
 30
0.0
 10
9.3571587804
 20
6.4910886109
 30
0.0
 10
9.3690388974
 20
6.5059560684
 30
0.0
 10
9.3801465786
 20
6.5214209643
 30
0.0
 10
9.3885559968
 20
6.5341314609
 30
0.0
 10
9.3966500425
 20
6.5470717155
 30
0.0
 10
9.4061569643
 20
6.5636504246
 30
0.0
 10
9.416554216
 20
6.5841281769
 30
0.0
 10
9.4259221779
 20
6.6051518739
 30
0.0
 10
9.4342390442
 20
6.6266727247
 30
0.0
 10
9.441485725
 20
6.6486411752
 30
0.0
 10
9.4476456247
 20
6.6710065271
 30
0.0
 10
9.4527045721
 20
6.6937172559
 30
0.0
 10
9.4566508494
 20
6.7167208587
 30
0.0
 10
9.4594756569
 20
6.7399648182
 30
0.0
 10
9.4611721843
 20
6.7633944543
 30
0.0
 10
9.4615481006
 20
6.7790778354
 30
0.0
 10
9.4615481006
 20
6.7869310098
 30
0.0
  0
SPLINE
  5
34D
100
AcDbEntity
  8
0
100
AcDbSpline
 62
7
  6
CONTINUOUS
 70
0
 71
3
 72
47
 73
43
 74
0
 42
0.0000001
 43
0.0000001
 44
0.0000000001
 40
0.0
 40
0.0
 40
0.0
 40
0.0
 40
0.0149719693
 40
0.0299469993
 40
0.0449281277
 40
0.0599183591
 40
0.0749206416
 40
0.0899378474
 40
0.104972764
 40
0.1200280645
 40
0.1351063063
 40
0.1502099042
 40
0.165341124
 40
0.1805020692
 40
0.1956946625
 40
0.2109206497
 40
0.226181572
 40
0.2414787784
 40
0.272180884
 40
0.3030390415
 40
0.3340562613
 40
0.3652320408
 40
0.3965624282
 40
0.4280401587
 40
0.4596548546
 40
0.4913932822
 40
0.5232396586
 40
0.5551760004
 40
0.5871825062
 40
0.6192379678
 40
0.6513202011
 40
0.6834064895
 40
0.7154740361
 40
0.7475004161
 40
0.7794640242
 40
0.8113445116
 40
0.8431232028
 40
0.8747834981
 40
0.9063111923
 40
0.9376949738
 40
0.9689260966
 40
1.0
 40
1.0
 40
1.0
 40
1.0
 10
8.6162658107
 20
7.1871280569
 30
0.0
 10
8.6204882736
 20
7.1912066619
 30
0.0
 10
8.6290972474
 20
7.1991976894
 30
0.0
 10
8.6424781952
 20
7.2106629545
 30
0.0
 10
8.6563097566
 20
7.2215923787
 30
0.0
 10
8.6705724975
 20
7.2319708418
 30
0.0
 10
8.6852470035
 20
7.241783932
 30
0.0
 10
8.7003129217
 20
7.2510183346
 30
0.0
 10
8.7157496268
 20
7.259661186
 30
0.0
 10
8.7315358094
 20
7.267700703
 30
0.0
 10
8.7476497584
 20
7.2751258136
 30
0.0
 10
8.764069325
 20
7.2819262389
 30
0.0
 10
8.7807718561
 20
7.288092787
 30
0.0
 10
8.7977344366
 20
7.2936167723
 30
0.0
 10
8.8149336746
 20
7.2984908432
 30
0.0
 10
8.832345879
 20
7.3027080887
 30
0.0
 10
8.8499473819
 20
7.3062628978
 30
0.0
 10
8.873661607
 20
7.3101170956
 30
0.0
 10
8.9036661696
 20
7.313251132
 30
0.0
 10
8.9399844138
 20
7.3142991972
 30
0.0
 10
8.9764661321
 20
7.3126349111
 30
0.0
 10
9.0129094065
 20
7.3082676205
 30
0.0
 10
9.0491143764
 20
7.3012218298
 30
0.0
 10
9.0848820975
 20
7.2915366242
 30
0.0
 10
9.1200162199
 20
7.2792655569
 30
0.0
 10
9.1543238881
 20
7.2644763159
 30
0.0
 10
9.1876168266
 20
7.2472503561
 30
0.0
 10
9.2197123469
 20
7.2276824483
 30
0.0
 10
9.2504343509
 20
7.2058801776
 30
0.0
 10
9.2796142758
 20
7.1819633359
 30
0.0
 10
9.3070920073
 20
7.1560632699
 30
0.0
 10
9.3327167476
 20
7.1283221658
 30
0.0
 10
9.3563478335
 20
7.098892278
 30
0.0
 10
9.3778555007
 20
7.0679351017
 30
0.0
 10
9.3971215874
 20
7.0356204981
 30
0.0
 10
9.4140401885
 20
7.0021257739
 30
0.0
 10
9.4285182449
 20
6.9676347409
 30
0.0
 10
9.4404760099
 20
6.9323366332
 30
0.0
 10
9.4498475796
 20
6.8964253645
 30
0.0
 10
9.4565810341
 20
6.8600974569
 30
0.0
 10
9.460639181
 20
6.8235549725
 30
0.0
 10
9.4615481006
 20
6.799115323
 30
0.0
 10
9.4615481006
 20
6.7869310098
 30
0.0
  0
SPLINE
  5
34E
100
AcDbEntity
  8
0
100
AcDbSpline
 62
7
  6
CONTINUOUS
 70
0
 71
3
 72
44
 73
40
 74
0
 42
0.0000001
 43
0.0000001
 44
0.0000000001
 40
0.0
 40
0.0
 40
0.0
 40
0.0
 40
0.0151493587
 40
0.0303269837
 40
0.0455333452
 40
0.0607688268
 40
0.0913251851
 40
0.1220003076
 40
0.1373838523
 40
0.1527968479
 40
0.1837071261
 40
0.2147308954
 40
0.2458635788
 40
0.2770992929
 40
0.3084309305
 40
0.3398502561
 40
0.3713480107
 40
0.4029140274
 40
0.4345373538
 40
0.4662063822
 40
0.4979089843
 40
0.5296326519
 40
0.5613646387
 40
0.5930921046
 40
0.6248022607
 40
0.6564825137
 40
0.6881206086
 40
0.7197047694
 40
0.7512238355
 40
0.782667394
 40
0.8140259025
 40
0.8452908198
 40
0.860887221
 40
0.8764575129
 40
0.9075141298
 40
0.9384582545
 40
0.9538884322
 40
0.9692898929
 40
1.0
 40
1.0
 40
1.0
 40
1.0
 10
8.7687752625
 20
7.3437195941
 30
0.0
 10
8.7742118155
 20
7.3445526859
 30
0.0
 10
8.785119642
 20
7.346064348
 30
0.0
 10
8.8015543973
 20
7.3478649822
 30
0.0
 10
8.8180651489
 20
7.3491997711
 30
0.0
 10
8.8401828777
 20
7.3503577757
 30
0.0
 10
8.867958723
 20
7.3506327802
 30
0.0
 10
8.8957596544
 20
7.349348374
 30
0.0
 10
8.9179935324
 20
7.3473901197
 30
0.0
 10
8.9402494237
 20
7.3448070343
 30
0.0
 10
8.9680003635
 20
7.3404142573
 30
0.0
 10
9.0010495904
 20
7.3333084447
 30
0.0
 10
9.0337779162
 20
7.324385127
 30
0.0
 10
9.0660824244
 20
7.3136723827
 30
0.0
 10
9.0978623608
 20
7.3012037634
 30
0.0
 10
9.1290183966
 20
7.2870183212
 30
0.0
 10
9.1594532184
 20
7.2711604506
 30
0.0
 10
9.1890717533
 20
7.2536797598
 30
0.0
 10
9.2177814835
 20
7.2346309126
 30
0.0
 10
9.2454927292
 20
7.2140734616
 30
0.0
 10
9.2721189344
 20
7.192071669
 30
0.0
 10
9.297576928
 20
7.1686942958
 30
0.0
 10
9.3217871835
 20
7.1440143899
 30
0.0
 10
9.3446740649
 20
7.1181090583
 30
0.0
 10
9.3661660613
 20
7.0910592289
 30
0.0
 10
9.3861960091
 20
7.0629493978
 30
0.0
 10
9.4047012996
 20
7.0338673725
 30
0.0
 10
9.4216240776
 20
7.0039039805
 30
0.0
 10
9.4369114071
 20
6.9731528601
 30
0.0
 10
9.4505155044
 20
6.9417099072
 30
0.0
 10
9.4623936579
 20
6.9096739614
 30
0.0
 10
9.4708301418
 20
6.8825425614
 30
0.0
 10
9.4766796436
 20
6.8606419457
 30
0.0
 10
9.4819170673
 20
6.8386646499
 30
0.0
 10
9.4873290658
 20
6.8110121328
 30
0.0
 10
9.4912147652
 20
6.7831553676
 30
0.0
 10
9.4933926278
 20
6.7608308704
 30
0.0
 10
9.4949467055
 20
6.7385400918
 30
0.0
 10
9.4954160689
 20
6.7217943403
 30
0.0
 10
9.4954160689
 20
6.710644957
 30
0.0
  0
SPLINE
  5
34F
100
AcDbEntity
  8
0
100
AcDbSpline
 62
7
  6
CONTINUOUS
 70
0
 71
3
 72
71
 73
67
 74
0
 42
0.0000001
 43
0.0000001
 44
0.0000000001
 40
0.0
 40
0.0
 40
0.0
 40
0.0
 40
0.0149701622
 40
0.0299433828
 40
0.0449227028
 40
0.0599111246
 40
0.0749115948
 40
0.0899269886
 40
0.1049600895
 40
0.120013573
 40
0.1350899941
 40
0.1501917695
 40
0.165321163
 40
0.180480277
 40
0.1956710384
 40
0.2108951862
 40
0.2261542673
 40
0.2414496274
 40
0.2567824002
 40
0.2721535092
 40
0.2875636617
 40
0.3030133419
 40
0.3185028169
 40
0.3340321343
 40
0.34960112
 40
0.3652093858
 40
0.3808563328
 40
0.3965411509
 40
0.4122628307
 40
0.428020169
 40
0.4438117721
 40
0.4596360694
 40
0.475491322
 40
0.4913756286
 40
0.5072869404
 40
0.5232230722
 40
0.5391817101
 40
0.5551604278
 40
0.5711566993
 40
0.5871679078
 40
0.6031913633
 40
0.6192243155
 40
0.6352639647
 40
0.6513074791
 40
0.6673520087
 40
0.683394696
 40
0.6994326945
 40
0.7154631813
 40
0.7314833687
 40
0.7474905224
 40
0.7634819732
 40
0.7794551283
 40
0.7954074893
 40
0.811336662
 40
0.8272403677
 40
0.8431164596
 40
0.8589629314
 40
0.8747779261
 40
0.890559756
 40
0.9063068963
 40
0.9220180004
 40
0.9376919706
 40
0.9533277655
 40
0.9689245666
 40
0.9844825444
 40
1.0
 40
1.0
 40
1.0
 40
1.0
 10
8.1982797698
 20
7.4437904874
 30
0.0
 10
8.2064426649
 20
7.4516752267
 30
0.0
 10
8.2230855561
 20
7.4671234777
 30
0.0
 10
8.2489536966
 20
7.4892880514
 30
0.0
 10
8.2756928383
 20
7.5104168925
 30
0.0
 10
8.303265713
 20
7.5304803765
 30
0.0
 10
8.3316344398
 20
7.5494511222
 30
0.0
 10
8.3607599532
 20
7.5673029832
 30
0.0
 10
8.3906022227
 20
7.5840113328
 30
0.0
 10
8.4211201162
 20
7.5995532888
 30
0.0
 10
8.4522716438
 20
7.6139074757
 30
0.0
 10
8.4840139736
 20
7.6270540677
 30
0.0
 10
8.5163033797
 20
7.6389750962
 30
0.0
 10
8.5490954347
 20
7.6496541846
 30
0.0
 10
8.5823450477
 20
7.6590765621
 30
0.0
 10
8.6160064399
 20
7.6672293888
 30
0.0
 10
8.6500333022
 20
7.674101488
 30
0.0
 10
8.6843788432
 20
7.6796833254
 30
0.0
 10
8.7189957985
 20
7.6839673423
 30
0.0
 10
8.7538365542
 20
7.6869476976
 30
0.0
 10
8.7888531976
 20
7.688620209
 30
0.0
 10
8.8239975618
 20
7.6889826873
 30
0.0
 10
8.8592213196
 20
7.6880346952
 30
0.0
 10
8.8944760294
 20
7.6857774526
 30
0.0
 10
8.9297132142
 20
7.6822141619
 30
0.0
 10
8.9648844326
 20
7.6773497917
 30
0.0
 10
8.9999413118
 20
7.6711909473
 30
0.0
 10
9.0348356607
 20
7.6637461798
 30
0.0
 10
9.0695195223
 20
7.6550257992
 30
0.0
 10
9.1039451903
 20
7.6450417135
 30
0.0
 10
9.1380653498
 20
7.6338077146
 30
0.0
 10
9.1718331212
 20
7.6213393242
 30
0.0
 10
9.2052020534
 20
7.6076536051
 30
0.0
 10
9.2381262876
 20
7.5927694189
 30
0.0
 10
9.2705606007
 20
7.5767073051
 30
0.0
 10
9.3024603703
 20
7.5594892705
 30
0.0
 10
9.3337817554
 20
7.5411390133
 30
0.0
 10
9.364481748
 20
7.521681836
 30
0.0
 10
9.3945181053
 20
7.5011444171
 30
0.0
 10
9.4238495419
 20
7.4795550002
 30
0.0
 10
9.4524357952
 20
7.4569433368
 30
0.0
 10
9.4802375245
 20
7.4333404476
 30
0.0
 10
9.507216506
 20
7.4087787748
 30
0.0
 10
9.5333357198
 20
7.3832921507
 30
0.0
 10
9.5585592132
 20
7.3569155547
 30
0.0
 10
9.5828522933
 20
7.3296852297
 30
0.0
 10
9.6061816396
 20
7.3016386699
 30
0.0
 10
9.6285151322
 20
7.2728143816
 30
0.0
 10
9.649822035
 20
7.2432519635
 30
0.0
 10
9.6700731378
 20
7.2129921086
 30
0.0
 10
9.6892405514
 20
7.182076374
 30
0.0
 10
9.707297874
 20
7.1505472289
 30
0.0
 10
9.724220366
 20
7.1184480622
 30
0.0
 10
9.7399847141
 20
7.0858229684
 30
0.0
 10
9.7545691763
 20
7.0527167662
 30
0.0
 10
9.7679537879
 20
7.0191750049
 30
0.0
 10
9.780120101
 20
6.9852437722
 30
0.0
 10
9.7910513029
 20
6.9509696852
 30
0.0
 10
9.8007324461
 20
6.9163998929
 30
0.0
 10
9.8091501788
 20
6.8815819115
 30
0.0
 10
9.8162928418
 20
6.8465635658
 30
0.0
 10
9.8221506467
 20
6.811393034
 30
0.0
 10
9.8267155398
 20
6.7761188002
 30
0.0
 10
9.8299812243
 20
6.7407887653
 30
0.0
 10
9.8319429754
 20
6.7054526955
 30
0.0
 10
9.8323805366
 20
6.6818916648
 30
0.0
 10
9.8323805366
 20
6.6701276582
 30
0.0
  0
SPLINE
  5
350
100
AcDbEntity
  8
0
100
AcDbSpline
 62
7
  6
CONTINUOUS
 70
0
 71
3
 72
71
 73
67
 74
0
 42
0.0000001
 43
0.0000001
 44
0.0000000001
 40
0.0
 40
0.0
 40
0.0
 40
0.0
 40
0.0149701622
 40
0.0299433828
 40
0.0449227028
 40
0.0599111246
 40
0.0749115948
 40
0.0899269886
 40
0.1049600895
 40
0.120013573
 40
0.1350899941
 40
0.1501917695
 40
0.165321163
 40
0.180480277
 40
0.1956710384
 40
0.2108951862
 40
0.2261542673
 40
0.2414496274
 40
0.2567824002
 40
0.2721535092
 40
0.2875636617
 40
0.3030133419
 40
0.3185028169
 40
0.3340321343
 40
0.34960112
 40
0.3652093858
 40
0.3808563328
 40
0.3965411509
 40
0.4122628307
 40
0.428020169
 40
0.4438117721
 40
0.4596360694
 40
0.475491322
 40
0.4913756286
 40
0.5072869404
 40
0.5232230722
 40
0.5391817101
 40
0.5551604278
 40
0.5711566993
 40
0.5871679078
 40
0.6031913633
 40
0.6192243155
 40
0.6352639647
 40
0.6513074791
 40
0.6673520087
 40
0.683394696
 40
0.6994326945
 40
0.7154631813
 40
0.7314833687
 40
0.7474905224
 40
0.7634819732
 40
0.7794551283
 40
0.7954074893
 40
0.811336662
 40
0.8272403677
 40
0.8431164596
 40
0.8589629314
 40
0.8747779261
 40
0.890559756
 40
0.9063068963
 40
0.9220180004
 40
0.9376919706
 40
0.9533277655
 40
0.9689245666
 40
0.9844825444
 40
1.0
 40
1.0
 40
1.0
 40
1.0
 10
8.3798738009
 20
9.7861241676
 30
0.0
 10
8.388036696
 20
9.7940089069
 30
0.0
 10
8.4046795872
 20
9.8094571579
 30
0.0
 10
8.4305477277
 20
9.8316217316
 30
0.0
 10
8.4572868694
 20
9.8527505727
 30
0.0
 10
8.4848597441
 20
9.8728140567
 30
0.0
 10
8.5132284709
 20
9.8917848024
 30
0.0
 10
8.5423539843
 20
9.9096366634
 30
0.0
 10
8.5721962538
 20
9.926345013
 30
0.0
 10
8.6027141473
 20
9.941886969
 30
0.0
 10
8.6338656749
 20
9.9562411559
 30
0.0
 10
8.6656080047
 20
9.9693877479
 30
0.0
 10
8.6978974108
 20
9.9813087764
 30
0.0
 10
8.7306894658
 20
9.9919878648
 30
0.0
 10
8.7639390788
 20
10.0014102423
 30
0.0
 10
8.797600471
 20
10.0095630689
 30
0.0
 10
8.8316273332
 20
10.0164351682
 30
0.0
 10
8.8659728743
 20
10.0220170056
 30
0.0
 10
8.9005898296
 20
10.0263010225
 30
0.0
 10
8.9354305853
 20
10.0292813778
 30
0.0
 10
8.9704472287
 20
10.0309538892
 30
0.0
 10
9.0055915929
 20
10.0313163675
 30
0.0
 10
9.0408153507
 20
10.0303683754
 30
0.0
 10
9.0760700604
 20
10.0281111328
 30
0.0
 10
9.1113072453
 20
10.0245478421
 30
0.0
 10
9.1464784637
 20
10.0196834719
 30
0.0
 10
9.1815353429
 20
10.0135246275
 30
0.0
 10
9.2164296918
 20
10.00607986
 30
0.0
 10
9.2511135534
 20
9.9973594794
 30
0.0
 10
9.2855392214
 20
9.9873753937
 30
0.0
 10
9.3196593809
 20
9.9761413948
 30
0.0
 10
9.3534271523
 20
9.9636730044
 30
0.0
 10
9.3867960845
 20
9.9499872853
 30
0.0
 10
9.4197203187
 20
9.9351030991
 30
0.0
 10
9.4521546318
 20
9.9190409853
 30
0.0
 10
9.4840544014
 20
9.9018229507
 30
0.0
 10
9.5153757865
 20
9.8834726935
 30
0.0
 10
9.5460757791
 20
9.8640155162
 30
0.0
 10
9.5761121364
 20
9.8434780973
 30
0.0
 10
9.605443573
 20
9.8218886804
 30
0.0
 10
9.6340298263
 20
9.799277017
 30
0.0
 10
9.6618315556
 20
9.7756741278
 30
0.0
 10
9.6888105371
 20
9.751112455
 30
0.0
 10
9.7149297509
 20
9.7256258309
 30
0.0
 10
9.7401532443
 20
9.6992492349
 30
0.0
 10
9.7644463244
 20
9.6720189099
 30
0.0
 10
9.7877756707
 20
9.64397235
 30
0.0
 10
9.8101091633
 20
9.6151480618
 30
0.0
 10
9.8314160661
 20
9.5855856437
 30
0.0
 10
9.8516671689
 20
9.5553257887
 30
0.0
 10
9.8708345825
 20
9.5244100542
 30
0.0
 10
9.8888919051
 20
9.4928809091
 30
0.0
 10
9.9058143971
 20
9.4607817423
 30
0.0
 10
9.9215787452
 20
9.4281566486
 30
0.0
 10
9.9361632074
 20
9.3950504464
 30
0.0
 10
9.949547819
 20
9.3615086851
 30
0.0
 10
9.9617141321
 20
9.3275774524
 30
0.0
 10
9.972645334
 20
9.2933033654
 30
0.0
 10
9.9823264772
 20
9.2587335731
 30
0.0
 10
9.9907442099
 20
9.2239155917
 30
0.0
 10
9.9978868729
 20
9.188897246
 30
0.0
 10
10.0037446778
 20
9.1537267142
 30
0.0
 10
10.0083095709
 20
9.1184524804
 30
0.0
 10
10.0115752554
 20
9.0831224455
 30
0.0
 10
10.0135370065
 20
9.0477863757
 30
0.0
 10
10.0139745677
 20
9.024225345
 30
0.0
 10
10.0139745677
 20
9.0124613384
 30
0.0
  0
SPLINE
  5
351
100
AcDbEntity
  8
0
100
AcDbSpline
 62
7
  6
CONTINUOUS
 70
0
 71
3
 72
34
 73
30
 74
0
 42
0.0000001
 43
0.0000001
 44
0.0000000001
 40
0.0
 40
0.0
 40
0.0
 40
0.0
 40
0.0217015823
 40
0.0428607076
 40
0.0636354598
 40
0.0841909689
 40
0.1046967439
 40
0.1253210115
 40
0.1462262478
 40
0.1675667826
 40
0.1894837648
 40
0.2121044144
 40
0.235541999
 40
0.2598935408
 40
0.2852426197
 40
0.3116601128
 40
0.3392037046
 40
0.3679216198
 40
0.397852477
 40
0.4290258195
 40
0.4614652735
 40
0.4951873273
 40
0.5302027559
 40
0.56651862
 40
0.6430470906
 40
0.7247554799
 40
0.8115651363
 40
0.9033681764
 40
1.0
 40
1.0
 40
1.0
 40
1.0
 10
11.6853030968
 20
7.2142140822
 30
0.0
 10
11.685408467
 20
7.2135011768
 30
0.0
 10
11.685560596
 20
7.2120841014
 30
0.0
 10
11.6856056158
 20
7.2099688213
 30
0.0
 10
11.6854639794
 20
7.2078956645
 30
0.0
 10
11.6851359318
 20
7.2058656576
 30
0.0
 10
11.6846218241
 20
7.203879757
 30
0.0
 10
11.6839223946
 20
7.2019390348
 30
0.0
 10
11.6830386637
 20
7.200044511
 30
0.0
 10
11.6819717359
 20
7.1981972366
 30
0.0
 10
11.680722941
 20
7.1963981754
 30
0.0
 10
11.6792936433
 20
7.1946482984
 30
0.0
 10
11.6776852514
 20
7.1929486353
 30
0.0
 10
11.6758992422
 20
7.191300253
 30
0.0
 10
11.6739371258
 20
7.1897043491
 30
0.0
 10
11.6718005007
 20
7.1881622239
 30
0.0
 10
11.6694910251
 20
7.1866753226
 30
0.0
 10
11.6670104775
 20
7.1852452153
 30
0.0
 10
11.6643607497
 20
7.1838735888
 30
0.0
 10
11.6615438261
 20
7.1825622974
 30
0.0
 10
11.6585618574
 20
7.1813132654
 30
0.0
 10
11.6554171114
 20
7.1801285621
 30
0.0
 10
11.6521119609
 20
7.1790103555
 30
0.0
 10
11.6474122818
 20
7.177586208
 30
0.0
 10
11.6411460313
 20
7.1759975549
 30
0.0
 10
11.6331582132
 20
7.1744268635
 30
0.0
 10
11.6246005184
 20
7.1731809844
 30
0.0
 10
11.6155017763
 20
7.172282272
 30
0.0
 10
11.609251615
 20
7.1719382127
 30
0.0
 10
11.6060446696
 20
7.1718268134
 30
0.0
  0
SPLINE
  5
352
100
AcDbEntity
  8
0
100
AcDbSpline
 62
7
  6
CONTINUOUS
 70
0
 71
3
 72
44
 73
40
 74
0
 42
0.0000001
 43
0.0000001
 44
0.0000000001
 40
0.0
 40
0.0
 40
0.0
 40
0.0
 40
0.0151493587
 40
0.0303269837
 40
0.0455333452
 40
0.0607688268
 40
0.0913251851
 40
0.1220003076
 40
0.1373838523
 40
0.1527968479
 40
0.1837071261
 40
0.2147308954
 40
0.2458635788
 40
0.2770992929
 40
0.3084309305
 40
0.3398502561
 40
0.3713480107
 40
0.4029140274
 40
0.4345373538
 40
0.4662063822
 40
0.4979089843
 40
0.5296326519
 40
0.5613646387
 40
0.5930921046
 40
0.6248022607
 40
0.6564825137
 40
0.6881206086
 40
0.7197047694
 40
0.7512238355
 40
0.782667394
 40
0.8140259025
 40
0.8452908198
 40
0.860887221
 40
0.8764575129
 40
0.9075141298
 40
0.9384582545
 40
0.9538884322
 40
0.9692898929
 40
1.0
 40
1.0
 40
1.0
 40
1.0
 10
8.9503692936
 20
9.6860532743
 30
0.0
 10
8.9558058466
 20
9.686886366
 30
0.0
 10
8.9667136731
 20
9.6883980282
 30
0.0
 10
8.9831484284
 20
9.6901986624
 30
0.0
 10
8.99965918
 20
9.6915334513
 30
0.0
 10
9.0217769088
 20
9.6926914559
 30
0.0
 10
9.0495527541
 20
9.6929664604
 30
0.0
 10
9.0773536855
 20
9.6916820542
 30
0.0
 10
9.0995875635
 20
9.6897237999
 30
0.0
 10
9.1218434548
 20
9.6871407145
 30
0.0
 10
9.1495943946
 20
9.6827479375
 30
0.0
 10
9.1826436215
 20
9.6756421249
 30
0.0
 10
9.2153719473
 20
9.6667188071
 30
0.0
 10
9.2476764555
 20
9.6560060629
 30
0.0
 10
9.2794563919
 20
9.6435374436
 30
0.0
 10
9.3106124277
 20
9.6293520014
 30
0.0
 10
9.3410472495
 20
9.6134941308
 30
0.0
 10
9.3706657844
 20
9.59601344
 30
0.0
 10
9.3993755146
 20
9.5769645928
 30
0.0
 10
9.4270867603
 20
9.5564071418
 30
0.0
 10
9.4537129654
 20
9.5344053492
 30
0.0
 10
9.4791709591
 20
9.511027976
 30
0.0
 10
9.5033812146
 20
9.4863480701
 30
0.0
 10
9.526268096
 20
9.4604427385
 30
0.0
 10
9.5477600924
 20
9.4333929091
 30
0.0
 10
9.5677900401
 20
9.4052830779
 30
0.0
 10
9.5862953307
 20
9.3762010526
 30
0.0
 10
9.6032181087
 20
9.3462376607
 30
0.0
 10
9.6185054382
 20
9.3154865402
 30
0.0
 10
9.6321095355
 20
9.2840435874
 30
0.0
 10
9.643987689
 20
9.2520076416
 30
0.0
 10
9.6524241729
 20
9.2248762416
 30
0.0
 10
9.6582736747
 20
9.2029756258
 30
0.0
 10
9.6635110984
 20
9.1809983301
 30
0.0
 10
9.6689230969
 20
9.153345813
 30
0.0
 10
9.6728087963
 20
9.1254890478
 30
0.0
 10
9.6749866589
 20
9.1031645506
 30
0.0
 10
9.6765407366
 20
9.080873772
 30
0.0
 10
9.6770101
 20
9.0641280205
 30
0.0
 10
9.6770101
 20
9.0529786372
 30
0.0
  0
SPLINE
  5
353
100
AcDbEntity
  8
0
100
AcDbSpline
 62
7
  6
CONTINUOUS
 70
0
 71
3
 72
47
 73
43
 74
0
 42
0.0000001
 43
0.0000001
 44
0.0000000001
 40
0.0
 40
0.0
 40
0.0
 40
0.0
 40
0.0149719693
 40
0.0299469993
 40
0.0449281277
 40
0.0599183591
 40
0.0749206416
 40
0.0899378474
 40
0.104972764
 40
0.1200280645
 40
0.1351063063
 40
0.1502099042
 40
0.165341124
 40
0.1805020692
 40
0.1956946625
 40
0.2109206497
 40
0.226181572
 40
0.2414787784
 40
0.272180884
 40
0.3030390415
 40
0.3340562613
 40
0.3652320408
 40
0.3965624282
 40
0.4280401587
 40
0.4596548546
 40
0.4913932822
 40
0.5232396586
 40
0.5551760004
 40
0.5871825062
 40
0.6192379678
 40
0.6513202011
 40
0.6834064895
 40
0.7154740361
 40
0.7475004161
 40
0.7794640242
 40
0.8113445116
 40
0.8431232028
 40
0.8747834981
 40
0.9063111923
 40
0.9376949738
 40
0.9689260966
 40
1.0
 40
1.0
 40
1.0
 40
1.0
 10
8.7978598418
 20
9.5294617371
 30
0.0
 10
8.8020823047
 20
9.533540342
 30
0.0
 10
8.8106912785
 20
9.5415313696
 30
0.0
 10
8.8240722263
 20
9.5529966347
 30
0.0
 10
8.8379037877
 20
9.5639260589
 30
0.0
 10
8.8521665286
 20
9.574304522
 30
0.0
 10
8.8668410346
 20
9.5841176122
 30
0.0
 10
8.8819069528
 20
9.5933520148
 30
0.0
 10
8.8973436579
 20
9.6019948662
 30
0.0
 10
8.9131298405
 20
9.6100343832
 30
0.0
 10
8.9292437895
 20
9.6174594938
 30
0.0
 10
8.9456633561
 20
9.6242599191
 30
0.0
 10
8.9623658872
 20
9.6304264672
 30
0.0
 10
8.9793284677
 20
9.6359504525
 30
0.0
 10
8.9965277057
 20
9.6408245233
 30
0.0
 10
9.0139399101
 20
9.6450417689
 30
0.0
 10
9.031541413
 20
9.648596578
 30
0.0
 10
9.0552556381
 20
9.6524507758
 30
0.0
 10
9.0852602007
 20
9.6555848122
 30
0.0
 10
9.1215784449
 20
9.6566328774
 30
0.0
 10
9.1580601632
 20
9.6549685913
 30
0.0
 10
9.1945034376
 20
9.6506013007
 30
0.0
 10
9.2307084075
 20
9.64355551
 30
0.0
 10
9.2664761286
 20
9.6338703044
 30
0.0
 10
9.301610251
 20
9.6215992371
 30
0.0
 10
9.3359179192
 20
9.6068099961
 30
0.0
 10
9.3692108577
 20
9.5895840363
 30
0.0
 10
9.401306378
 20
9.5700161285
 30
0.0
 10
9.432028382
 20
9.5482138578
 30
0.0
 10
9.4612083069
 20
9.5242970161
 30
0.0
 10
9.4886860384
 20
9.4983969501
 30
0.0
 10
9.5143107787
 20
9.470655846
 30
0.0
 10
9.5379418646
 20
9.4412259582
 30
0.0
 10
9.5594495318
 20
9.4102687819
 30
0.0
 10
9.5787156185
 20
9.3779541783
 30
0.0
 10
9.5956342196
 20
9.3444594541
 30
0.0
 10
9.610112276
 20
9.3099684211
 30
0.0
 10
9.622070041
 20
9.2746703134
 30
0.0
 10
9.6314416107
 20
9.2387590447
 30
0.0
 10
9.6381750652
 20
9.2024311371
 30
0.0
 10
9.6422332121
 20
9.1658886527
 30
0.0
 10
9.6431421317
 20
9.1414490032
 30
0.0
 10
9.6431421317
 20
9.12926469
 30
0.0
  0
SPLINE
  5
354
100
AcDbEntity
  8
0
100
AcDbSpline
 62
7
  6
CONTINUOUS
 70
0
 71
3
 72
25
 73
21
 74
0
 42
0.0000001
 43
0.0000001
 44
0.0000000001
 40
0.0
 40
0.0
 40
0.0
 40
0.0
 40
0.0617095203
 40
0.0925734315
 40
0.1234452457
 40
0.185217866
 40
0.2470529449
 40
0.2780026653
 40
0.3089753644
 40
0.3709940076
 40
0.4331318897
 40
0.4954057815
 40
0.5578311025
 40
0.6204217731
 40
0.6831899954
 40
0.7461464883
 40
0.8092999628
 40
0.8726562234
 40
0.9362240496
 40
1.0
 40
1.0
 40
1.0
 40
1.0
 10
9.5051118722
 20
8.7972605999
 30
0.0
 10
9.5105772746
 20
8.8025397978
 30
0.0
 10
9.5185744348
 20
8.8106723533
 30
0.0
 10
9.5288070806
 20
8.8219146548
 30
0.0
 10
9.5387528115
 20
8.8334222911
 30
0.0
 10
9.5506329285
 20
8.8482897486
 30
0.0
 10
9.5617406097
 20
8.8637546445
 30
0.0
 10
9.5701500279
 20
8.8764651411
 30
0.0
 10
9.5782440736
 20
8.8894053957
 30
0.0
 10
9.5877509954
 20
8.9059841048
 30
0.0
 10
9.5981482471
 20
8.9264618571
 30
0.0
 10
9.607516209
 20
8.9474855541
 30
0.0
 10
9.6158330753
 20
8.9690064049
 30
0.0
 10
9.6230797561
 20
8.9909748554
 30
0.0
 10
9.6292396558
 20
9.0133402073
 30
0.0
 10
9.6342986032
 20
9.036050936
 30
0.0
 10
9.6382448805
 20
9.0590545389
 30
0.0
 10
9.641069688
 20
9.0822984984
 30
0.0
 10
9.6427662154
 20
9.1057281345
 30
0.0
 10
9.6431421317
 20
9.1214115156
 30
0.0
 10
9.6431421317
 20
9.12926469
 30
0.0
  0
SPLINE
  5
355
100
AcDbEntity
  8
0
100
AcDbSpline
 62
7
  6
CONTINUOUS
 70
0
 71
3
 72
32
 73
28
 74
0
 42
0.0000001
 43
0.0000001
 44
0.0000000001
 40
0.0
 40
0.0
 40
0.0
 40
0.0
 40
0.0951811323
 40
0.1871018683
 40
0.2754347022
 40
0.3598675547
 40
0.4401069191
 40
0.5158824137
 40
0.5869527361
 40
0.6206602409
 40
0.6531180174
 40
0.6843069603
 40
0.7142127334
 40
0.7428224871
 40
0.7701295168
 40
0.7961296928
 40
0.8208236433
 40
0.844217995
 40
0.8663219133
 40
0.8871528504
 40
0.9067320798
 40
0.9250870916
 40
0.9422540141
 40
0.958273443
 40
0.9731963697
 40
0.987082594
 40
1.0
 40
1.0
 40
1.0
 40
1.0
 10
9.5244135367
 20
8.8172418972
 30
0.0
 10
9.5210326409
 20
8.8143957425
 30
0.0
 10
9.5142915392
 20
8.8089125856
 30
0.0
 10
9.5040852863
 20
8.801201785
 30
0.0
 10
9.4940066878
 20
8.7941636957
 30
0.0
 10
9.4841171568
 20
8.7878177249
 30
0.0
 10
9.4744793523
 20
8.7821760204
 30
0.0
 10
9.4651565121
 20
8.7772437065
 30
0.0
 10
9.4575731785
 20
8.7736617233
 30
0.0
 10
9.4517146807
 20
8.7711541203
 30
0.0
 10
9.4475154043
 20
8.7694796935
 30
0.0
 10
9.4434396699
 20
8.7679759856
 30
0.0
 10
9.4394940642
 20
8.7666400565
 30
0.0
 10
9.4356846078
 20
8.7654689122
 30
0.0
 10
9.4320170422
 20
8.7644588889
 30
0.0
 10
9.4284965399
 20
8.7636060905
 30
0.0
 10
9.4251277576
 20
8.7629063468
 30
0.0
 10
9.4219148935
 20
8.7623550023
 30
0.0
 10
9.4188614599
 20
8.7619473841
 30
0.0
 10
9.4159704969
 20
8.7616784205
 30
0.0
 10
9.4132443962
 20
8.76154292
 30
0.0
 10
9.4106849654
 20
8.7615356527
 30
0.0
 10
9.4082934718
 20
8.7616511559
 30
0.0
 10
9.4060705765
 20
8.7618840533
 30
0.0
 10
9.4040163777
 20
8.7622290059
 30
0.0
 10
9.4021306982
 20
8.7626805648
 30
0.0
 10
9.4009445016
 20
8.763062443
 30
0.0
 10
9.4003822246
 20
8.763271184
 30
0.0
  0
SPLINE
  5
356
100
AcDbEntity
  8
0
100
AcDbSpline
 62
7
  6
CONTINUOUS
 70
0
 71
3
 72
18
 73
14
 74
0
 42
0.0000001
 43
0.0000001
 44
0.0000000001
 40
0.0
 40
0.0
 40
0.0
 40
0.0
 40
0.0857726651
 40
0.1322284737
 40
0.1812151624
 40
0.2328435614
 40
0.2872235075
 40
0.3444549677
 40
0.4046334718
 40
0.5341517153
 40
0.6763588364
 40
0.831611073
 40
1.0
 40
1.0
 40
1.0
 40
1.0
 10
8.8807311996
 20
9.5417215987
 30
0.0
 10
8.8806349093
 20
9.5435149993
 30
0.0
 10
8.8806201905
 20
9.5462883037
 30
0.0
 10
8.88083029
 20
9.5500774575
 30
0.0
 10
8.8811224498
 20
9.5531439522
 30
0.0
 10
8.8815522295
 20
9.5563615033
 30
0.0
 10
8.8821267424
 20
9.5597316568
 30
0.0
 10
8.8828533342
 20
9.5632553121
 30
0.0
 10
8.8840646851
 20
9.5682826364
 30
0.0
 10
8.8860208639
 20
9.5749563441
 30
0.0
 10
8.8890355064
 20
9.5833780926
 30
0.0
 10
8.8928212245
 20
9.5923726281
 30
0.0
 10
8.8957674597
 20
9.5984789613
 30
0.0
 10
8.8973727114
 20
9.6016182236
 30
0.0
  0
SPLINE
  5
357
100
AcDbEntity
  8
0
100
AcDbSpline
 62
7
  6
CONTINUOUS
 70
0
 71
3
 72
28
 73
24
 74
0
 42
0.0000001
 43
0.0000001
 44
0.0000000001
 40
0.0
 40
0.0
 40
0.0
 40
0.0
 40
0.0148897462
 40
0.0240403903
 40
0.0345412785
 40
0.0465011381
 40
0.0599945866
 40
0.0750758124
 40
0.0917858643
 40
0.1101554294
 40
0.1302058256
 40
0.1519536911
 40
0.1754125992
 40
0.2274938006
 40
0.2864842974
 40
0.352381686
 40
0.425143204
 40
0.5047004642
 40
0.5909515929
 40
0.683771548
 40
0.7830071998
 40
0.8884829127
 40
1.0
 40
1.0
 40
1.0
 40
1.0
 10
10.4650481329
 20
7.7331882547
 30
0.0
 10
10.4649424669
 20
7.7333616495
 30
0.0
 10
10.4648473836
 20
7.7336865505
 30
0.0
 10
10.4648098367
 20
7.7341555084
 30
0.0
 10
10.4648234315
 20
7.7345875472
 30
0.0
 10
10.4648816078
 20
7.7350747295
 30
0.0
 10
10.4649847269
 20
7.7356182035
 30
0.0
 10
10.4651334627
 20
7.7362178323
 30
0.0
 10
10.4653284064
 20
7.7368737302
 30
0.0
 10
10.4655701352
 20
7.7375857907
 30
0.0
 10
10.4658591756
 20
7.7383538492
 30
0.0
 10
10.4661960218
 20
7.7391776727
 30
0.0
 10
10.466728432
 20
7.7403930167
 30
0.0
 10
10.4675209314
 20
7.742048231
 30
0.0
 10
10.46863841
 20
7.7441877032
 30
0.0
 10
10.4699557628
 20
7.7465396141
 30
0.0
 10
10.4714749084
 20
7.7490988166
 30
0.0
 10
10.4731971921
 20
7.7518592595
 30
0.0
 10
10.4751231839
 20
7.7548141714
 30
0.0
 10
10.4772527314
 20
7.757955975
 30
0.0
 10
10.4795849175
 20
7.761276452
 30
0.0
 10
10.4821180281
 20
7.7647667339
 30
0.0
 10
10.4838909307
 20
7.7671361656
 30
0.0
 10
10.4848101859
 20
7.7683476692
 30
0.0
  0
SPLINE
  5
358
100
AcDbEntity
  8
0
100
AcDbSpline
 62
7
  6
CONTINUOUS
 70
0
 71
3
 72
54
 73
50
 74
0
 42
0.0000001
 43
0.0000001
 44
0.0000000001
 40
0.0
 40
0.0
 40
0.0
 40
0.0
 40
0.0149714205
 40
0.0299459006
 40
0.0449264792
 40
0.0599161603
 40
0.0749178921
 40
0.0899345472
 40
0.1049689108
 40
0.1200236601
 40
0.1351013475
 40
0.1502043911
 40
0.1653350566
 40
0.1804954436
 40
0.1956874807
 40
0.2109129081
 40
0.2261732707
 40
0.2414699153
 40
0.2568039766
 40
0.2721763765
 40
0.2875878234
 40
0.3030388016
 40
0.3185295776
 40
0.3340601997
 40
0.3496304932
 40
0.3652400703
 40
0.380888332
 40
0.3965744676
 40
0.4122974686
 40
0.428056131
 40
0.4438490605
 40
0.459674688
 40
0.4914119511
 40
0.5232571588
 40
0.5551923276
 40
0.5871976582
 40
0.6192519435
 40
0.6513329996
 40
0.6834181105
 40
0.7154844799
 40
0.747509684
 40
0.7794721189
 40
0.8113514357
 40
0.8431289617
 40
0.8747880907
 40
0.9063146458
 40
0.9376972376
 40
0.9689272313
 40
1.0
 40
1.0
 40
1.0
 40
1.0
 10
10.4160722355
 20
7.7099661996
 30
0.0
 10
10.4232147707
 20
7.7168653531
 30
0.0
 10
10.4377772362
 20
7.7303826597
 30
0.0
 10
10.4604118727
 20
7.7497766769
 30
0.0
 10
10.4838086313
 20
7.7682644265
 30
0.0
 10
10.5079348389
 20
7.7858200845
 30
0.0
 10
10.5327574895
 20
7.8024194989
 30
0.0
 10
10.5582423219
 20
7.818039894
 30
0.0
 10
10.5843542661
 20
7.8326598096
 30
0.0
 10
10.6110574414
 20
7.846259025
 30
0.0
 10
10.638315034
 20
7.8588189621
 30
0.0
 10
10.6660895491
 20
7.8703223315
 30
0.0
 10
10.694342798
 20
7.8807532321
 30
0.0
 10
10.7230358523
 20
7.8900974651
 30
0.0
 10
10.7521292568
 20
7.8983421319
 30
0.0
 10
10.781582992
 20
7.9054758575
 30
0.0
 10
10.8113565051
 20
7.9114889809
 30
0.0
 10
10.8414088598
 20
7.9163731556
 30
0.0
 10
10.8716987116
 20
7.9201216784
 30
0.0
 10
10.9021843856
 20
7.9227295293
 30
0.0
 10
10.9328239634
 20
7.9241930221
 30
0.0
 10
10.9635752987
 20
7.9245102073
 30
0.0
 10
10.9943961047
 20
7.9236807542
 30
0.0
 10
11.0252439942
 20
7.921705691
 30
0.0
 10
11.0560765508
 20
7.9185878387
 30
0.0
 10
11.086851389
 20
7.9143315503
 30
0.0
 10
11.1175261783
 20
7.9089425666
 30
0.0
 10
11.1480587537
 20
7.9024284353
 30
0.0
 10
11.1784071782
 20
7.8947981186
 30
0.0
 10
11.2085295771
 20
7.8860620712
 30
0.0
 10
11.2383850373
 20
7.8762322373
 30
0.0
 10
11.2778139942
 20
7.8616736737
 30
0.0
 10
11.3262264718
 20
7.8408044567
 30
0.0
 10
11.3825419453
 20
7.8116662613
 30
0.0
 10
11.4368335433
 20
7.7785660394
 30
0.0
 10
11.4888013369
 20
7.741686414
 30
0.0
 10
11.538160713
 20
7.7012298087
 30
0.0
 10
11.5846407291
 20
7.6574185101
 30
0.0
 10
11.6279863282
 20
7.6104929989
 30
0.0
 10
11.667959505
 20
7.5607107819
 30
0.0
 10
11.7043408253
 20
7.508345095
 30
0.0
 10
11.7369304406
 20
7.4536832767
 30
0.0
 10
11.7655491398
 20
7.3970252068
 30
0.0
 10
11.7900395156
 20
7.3386818271
 30
0.0
 10
11.8102667424
 20
7.2789732441
 30
0.0
 10
11.8261192216
 20
7.2182274731
 30
0.0
 10
11.8375091959
 20
7.1567769245
 30
0.0
 10
11.8443737372
 20
7.0949634165
 30
0.0
 10
11.8459112379
 20
7.0536224621
 30
0.0
 10
11.8459112379
 20
7.0330120579
 30
0.0
  0
SPLINE
  5
359
100
AcDbEntity
  8
0
100
AcDbSpline
 62
7
  6
CONTINUOUS
 70
0
 71
3
 72
28
 73
24
 74
0
 42
0.0000001
 43
0.0000001
 44
0.0000000001
 40
0.0
 40
0.0
 40
0.0
 40
0.0
 40
0.0308555399
 40
0.0617137224
 40
0.0925771844
 40
0.1234485457
 40
0.1852202674
 40
0.2470544482
 40
0.2780037146
 40
0.3089759646
 40
0.3709937009
 40
0.4331306768
 40
0.4954036634
 40
0.557828071
 40
0.6204178126
 40
0.683185178
 40
0.7146412158
 40
0.7461454681
 40
0.8092980338
 40
0.872653783
 40
0.9044120924
 40
0.9362241051
 40
1.0
 40
1.0
 40
1.0
 40
1.0
 10
11.6124258688
 20
6.4714098531
 30
0.0
 10
11.6170485717
 20
6.4758750375
 30
0.0
 10
11.6261799552
 20
6.484925136
 30
0.0
 10
11.639523828
 20
6.4988487928
 30
0.0
 10
11.6525076971
 20
6.5131135421
 30
0.0
 10
11.669331191
 20
6.5325791857
 30
0.0
 10
11.6894271826
 20
6.5577282933
 30
0.0
 10
11.7082163191
 20
6.5838879906
 30
0.0
 10
11.7224413234
 20
6.6053884403
 30
0.0
 10
11.7361327596
 20
6.6272775933
 30
0.0
 10
11.7522142666
 20
6.6553213093
 30
0.0
 10
11.7698017588
 20
6.6899605041
 30
0.0
 10
11.7856481171
 20
6.7255231703
 30
0.0
 10
11.7997165588
 20
6.7619268995
 30
0.0
 10
11.811974678
 20
6.7990873031
 30
0.0
 10
11.8206517397
 20
6.8305923337
 30
0.0
 10
11.8266634079
 20
6.8560838538
 30
0.0
 10
11.8320598542
 20
6.8817947314
 30
0.0
 10
11.8376273514
 20
6.9142480508
 30
0.0
 10
11.8416059879
 20
6.9469872492
 30
0.0
 10
11.843836967
 20
6.9733334596
 30
0.0
 10
11.8454338938
 20
6.999812858
 30
0.0
 10
11.8459112379
 20
7.0197278222
 30
0.0
 10
11.8459112379
 20
7.0330120579
 30
0.0
  0
SPLINE
  5
35A
100
AcDbEntity
  8
0
100
AcDbSpline
 62
7
  6
CONTINUOUS
 70
0
 71
3
 72
23
 73
19
 74
0
 42
0.0000001
 43
0.0000001
 44
0.0000000001
 40
0.0
 40
0.0
 40
0.0
 40
0.0
 40
0.0720086796
 40
0.1430108272
 40
0.2128990314
 40
0.2815908622
 40
0.3490078375
 40
0.4150861544
 40
0.4797761751
 40
0.5430434315
 40
0.6048704656
 40
0.6652581936
 40
0.7242270256
 40
0.7818182756
 40
0.8380949099
 40
0.893140987
 40
0.9470683372
 40
1.0
 40
1.0
 40
1.0
 40
1.0
 10
11.272678467
 20
7.253792319
 30
0.0
 10
11.2733155224
 20
7.2582810238
 30
0.0
 10
11.2747656895
 20
7.2671706765
 30
0.0
 10
11.2774888794
 20
7.2802994358
 30
0.0
 10
11.2807373477
 20
7.2930932936
 30
0.0
 10
11.2845002257
 20
7.305509915
 30
0.0
 10
11.2887655557
 20
7.3175090495
 30
0.0
 10
11.2935194475
 20
7.3290514331
 30
0.0
 10
11.2987465249
 20
7.3400994042
 30
0.0
 10
11.3044299408
 20
7.3506168601
 30
0.0
 10
11.3105513977
 20
7.3605693839
 30
0.0
 10
11.3170911536
 20
7.3699243958
 30
0.0
 10
11.3240281366
 20
7.3786512101
 30
0.0
 10
11.3313400582
 20
7.3867210946
 30
0.0
 10
11.339003315
 20
7.3941072125
 30
0.0
 10
11.3469933893
 20
7.4007853755
 30
0.0
 10
11.3552836458
 20
7.4067324193
 30
0.0
 10
11.3610424718
 20
7.4102267133
 30
0.0
 10
11.3639586713
 20
7.4118397693
 30
0.0
  0
SPLINE
  5
35B
100
AcDbEntity
  8
0
100
AcDbSpline
 62
7
  6
CONTINUOUS
 70
0
 71
3
 72
71
 73
67
 74
0
 42
0.0000001
 43
0.0000001
 44
0.0000000001
 40
0.0
 40
0.0
 40
0.0
 40
0.0
 40
0.0155102642
 40
0.0310607021
 40
0.0466495005
 40
0.0622768583
 40
0.0779420333
 40
0.0936439839
 40
0.1093816471
 40
0.1251537254
 40
0.140958738
 40
0.1567950463
 40
0.1726608501
 40
0.1885542029
 40
0.2044730181
 40
0.2204150829
 40
0.2363780712
 40
0.2523595506
 40
0.2683569995
 40
0.2843678188
 40
0.3003893412
 40
0.3164188499
 40
0.3324535885
 40
0.3484907735
 40
0.3645276121
 40
0.3805613115
 40
0.3965890937
 40
0.412608212
 40
0.428615959
 40
0.4446096842
 40
0.4605868068
 40
0.4765448247
 40
0.4924813322
 40
0.5083940301
 40
0.5242807345
 40
0.5401393942
 40
0.5559680979
 40
0.5717650825
 40
0.5875287495
 40
0.603257668
 40
0.618950584
 40
0.6346064332
 40
0.6502243408
 40
0.6658036304
 40
0.6813438327
 40
0.6968446823
 40
0.7123061255
 40
0.7277283236
 40
0.7431116474
 40
0.7584566823
 40
0.7737642271
 40
0.7890352849
 40
0.8042710656
 40
0.8194729795
 40
0.8346426252
 40
0.849781789
 40
0.8648924328
 40
0.8799766804
 40
0.8950368124
 40
0.9100752501
 40
0.9250945399
 40
0.9400973439
 40
0.9550864214
 40
0.9700646114
 40
0.9850348197
 40
1.0
 40
1.0
 40
1.0
 40
1.0
 10
7.9480028035
 20
6.8179584314
 30
0.0
 10
7.9480028035
 20
6.8063188348
 30
0.0
 10
7.9484311636
 20
6.783007268
 30
0.0
 10
7.9503516811
 20
6.7480447496
 30
0.0
 10
7.9535488238
 20
6.713087115
 30
0.0
 10
7.9580180684
 20
6.6781826328
 30
0.0
 10
7.9637533069
 20
6.6433776606
 30
0.0
 10
7.9707469057
 20
6.6087191691
 30
0.0
 10
7.9789894554
 20
6.5742538561
 30
0.0
 10
7.9884697203
 20
6.5400280468
 30
0.0
 10
7.9991749999
 20
6.5060878221
 30
0.0
 10
8.0110909116
 20
6.4724788804
 30
0.0
 10
8.0242012807
 20
6.4392464031
 30
0.0
 10
8.0384885386
 20
6.4064351432
 30
0.0
 10
8.0539334595
 20
6.3740892659
 30
0.0
 10
8.0705151412
 20
6.3422522449
 30
0.0
 10
8.0882113602
 20
6.3109669719
 30
0.0
 10
8.1069982771
 20
6.2802755418
 30
0.0
 10
8.1268505197
 20
6.2502192001
 30
0.0
 10
8.1477414723
 20
6.2208384606
 30
0.0
 10
8.1696429745
 20
6.1921728346
 30
0.0
 10
8.1925254915
 20
6.1642608475
 30
0.0
 10
8.2163583312
 20
6.137140145
 30
0.0
 10
8.2411093582
 20
6.1108471742
 30
0.0
 10
8.2667452314
 20
6.0854172817
 30
0.0
 10
8.2932315469
 20
6.0608847868
 30
0.0
 10
8.3205325896
 20
6.0372826315
 30
0.0
 10
8.3486116123
 20
6.0146425622
 30
0.0
 10
8.3774309097
 20
5.992995152
 30
0.0
 10
8.4069516258
 20
5.972369441
 30
0.0
 10
8.4371340469
 20
5.9527931977
 30
0.0
 10
8.4679376179
 20
5.9342928711
 30
0.0
 10
8.4993208183
 20
5.9168932534
 30
0.0
 10
8.5312414417
 20
5.9006178031
 30
0.0
 10
8.5636565714
 20
5.8854885168
 30
0.0
 10
8.5965225295
 20
5.8715256455
 30
0.0
 10
8.629795119
 20
5.8587480554
 30
0.0
 10
8.6634295822
 20
5.8471730173
 30
0.0
 10
8.6973806132
 20
5.8368160021
 30
0.0
 10
8.7316025514
 20
5.827691055
 30
0.0
 10
8.7660493423
 20
5.8198105054
 30
0.0
 10
8.8006745992
 20
5.8131848635
 30
0.0
 10
8.8354317425
 20
5.8078231802
 30
0.0
 10
8.8702739829
 20
5.8037326895
 30
0.0
 10
8.9051544111
 20
5.8009188183
 30
0.0
 10
8.940026085
 20
5.7993855084
 30
0.0
 10
8.9748420526
 20
5.7991348076
 30
0.0
 10
9.0095554448
 20
5.8001669973
 30
0.0
 10
9.0441195199
 20
5.8024808543
 30
0.0
 10
9.0784877385
 20
5.8060732142
 30
0.0
 10
9.1126138324
 20
5.8109392114
 30
0.0
 10
9.1464518243
 20
5.8170724615
 30
0.0
 10
9.1799561568
 20
5.8244646279
 30
0.0
 10
9.2130817167
 20
5.8331057562
 30
0.0
 10
9.2457838488
 20
5.8429843662
 30
0.0
 10
9.278018536
 20
5.854087054
 30
0.0
 10
9.3097423593
 20
5.8663988942
 30
0.0
 10
9.3409125333
 20
5.8799034374
 30
0.0
 10
9.3714871175
 20
5.8945823816
 30
0.0
 10
9.4014249094
 20
5.9104160067
 30
0.0
 10
9.430685519
 20
5.9273830812
 30
0.0
 10
9.4592296023
 20
5.9454606441
 30
0.0
 10
9.4870186327
 20
5.964624377
 30
0.0
 10
9.5140152551
 20
5.9848486522
 30
0.0
 10
9.5401826869
 20
6.0061056402
 30
0.0
 10
9.5570542431
 20
6.0209490932
 30
0.0
 10
9.5653385529
 20
6.0285316568
 30
0.0
  0
SPLINE
  5
35C
100
AcDbEntity
  8
0
100
AcDbSpline
 62
7
  6
CONTINUOUS
 70
0
 71
3
 72
27
 73
23
 74
0
 42
0.0000001
 43
0.0000001
 44
0.0000000001
 40
0.0
 40
0.0
 40
0.0
 40
0.0
 40
0.0637524161
 40
0.0955551799
 40
0.1273059718
 40
0.1906518368
 40
0.2538007217
 40
0.2853051024
 40
0.3167625513
 40
0.3795364825
 40
0.442136527
 40
0.5045738401
 40
0.5668610768
 40
0.6290122747
 40
0.6910427424
 40
0.7220201544
 40
0.7529736365
 40
0.8148129451
 40
0.8765836336
 40
0.907451514
 40
0.9383093705
 40
1.0
 40
1.0
 40
1.0
 40
1.0
 10
7.9480028035
 20
6.8179584314
 30
0.0
 10
7.9480028035
 20
6.8326455642
 30
0.0
 10
7.9485133568
 20
6.8546639212
 30
0.0
 10
7.9502212018
 20
6.8839445292
 30
0.0
 10
7.9526073629
 20
6.9130842315
 30
0.0
 10
7.9568630374
 20
6.9493056222
 30
0.0
 10
7.96281872
 20
6.9852293257
 30
0.0
 10
7.9685923642
 20
7.0137054308
 30
0.0
 10
7.9750251741
 20
7.041951244
 30
0.0
 10
7.9843117067
 20
7.0768834899
 30
0.0
 10
7.9974344957
 20
7.1181302654
 30
0.0
 10
8.0125005302
 20
7.158588576
 30
0.0
 10
8.0294773317
 20
7.1981706716
 30
0.0
 10
8.0483280397
 20
7.2367907211
 30
0.0
 10
8.0655734342
 20
7.2681186232
 30
0.0
 10
8.080262419
 20
7.2926121261
 30
0.0
 10
8.0955278354
 20
7.3166985095
 30
0.0
 10
8.1157000852
 20
7.346060217
 30
0.0
 10
8.1372908977
 20
7.3743703265
 30
0.0
 10
8.1553764578
 20
7.3963365354
 30
0.0
 10
8.1739898315
 20
7.4178321192
 30
0.0
 10
8.1885459629
 20
7.4334270816
 30
0.0
 10
8.1984990654
 20
7.4435720687
 30
0.0
  0
SPLINE
  5
35D
100
AcDbEntity
  8
0
100
AcDbSpline
 62
7
  6
CONTINUOUS
 70
0
 71
3
 72
39
 73
35
 74
0
 42
0.0000001
 43
0.0000001
 44
0.0000000001
 40
0.0
 40
0.0
 40
0.0
 40
0.0
 40
0.0319628111
 40
0.0638343112
 40
0.0956118204
 40
0.1272989113
 40
0.158897751
 40
0.1904110968
 40
0.2218427079
 40
0.2531968159
 40
0.2844782418
 40
0.3156923763
 40
0.3468451205
 40
0.3779428547
 40
0.4089923799
 40
0.4400008752
 40
0.4709758464
 40
0.5019250581
 40
0.5328564768
 40
0.5637782159
 40
0.5946984624
 40
0.6256254113
 40
0.6565672104
 40
0.6875318895
 40
0.7185272918
 40
0.7495610233
 40
0.7806403916
 40
0.8117723396
 40
0.8429634051
 40
0.8742196733
 40
0.9055467189
 40
0.9369495786
 40
0.9684327207
 40
1.0
 40
1.0
 40
1.0
 40
1.0
 10
8.3015316768
 20
6.7934411208
 30
0.0
 10
8.3015316768
 20
6.8018335124
 30
0.0
 10
8.3018853291
 20
6.8185965161
 30
0.0
 10
8.3034807974
 20
6.8436575605
 30
0.0
 10
8.3061381016
 20
6.8685560767
 30
0.0
 10
8.3098523131
 20
6.8932465376
 30
0.0
 10
8.3146168398
 20
6.9176854326
 30
0.0
 10
8.3204232399
 20
6.9418290202
 30
0.0
 10
8.3272612424
 20
6.9656341623
 30
0.0
 10
8.335118601
 20
6.9890584032
 30
0.0
 10
8.3439812978
 20
7.0120599292
 30
0.0
 10
8.3538336469
 20
7.0345976229
 30
0.0
 10
8.3646580057
 20
7.0566312694
 30
0.0
 10
8.3764350396
 20
7.0781215413
 30
0.0
 10
8.3891438478
 20
7.0990299975
 30
0.0
 10
8.402761687
 20
7.1193193292
 30
0.0
 10
8.4172642171
 20
7.1389533298
 30
0.0
 10
8.4326256492
 20
7.1578968576
 30
0.0
 10
8.4488185049
 20
7.1761161136
 30
0.0
 10
8.465813831
 20
7.1935786015
 30
0.0
 10
8.4835813642
 20
7.2102530511
 30
0.0
 10
8.5020893337
 20
7.2261097194
 30
0.0
 10
8.521304643
 20
7.2411203489
 30
0.0
 10
8.5411930441
 20
7.2552580503
 30
0.0
 10
8.5617189871
 20
7.2684976152
 30
0.0
 10
8.5828457718
 20
7.2808154836
 30
0.0
 10
8.6045357217
 20
7.2921895827
 30
0.0
 10
8.6267500828
 20
7.3025996423
 30
0.0
 10
8.6494491467
 20
7.3120271783
 30
0.0
 10
8.672592432
 20
7.3204552913
 30
0.0
 10
8.6961385618
 20
7.3278689639
 30
0.0
 10
8.7200456314
 20
7.3342551068
 30
0.0
 10
8.7442703851
 20
7.3396021689
 30
0.0
 10
8.7605823602
 20
7.3424641223
 30
0.0
 10
8.7687752625
 20
7.3437195941
 30
0.0
  0
SPLINE
  5
35E
100
AcDbEntity
  8
0
100
AcDbSpline
 62
7
  6
CONTINUOUS
 70
0
 71
3
 72
39
 73
35
 74
0
 42
0.0000001
 43
0.0000001
 44
0.0000000001
 40
0.0
 40
0.0
 40
0.0
 40
0.0
 40
0.0319789903
 40
0.0638712265
 40
0.0956733029
 40
0.127388516
 40
0.1590191048
 40
0.1905672727
 40
0.2220362976
 40
0.2534299432
 40
0.2847524043
 40
0.3160084158
 40
0.3472031801
 40
0.3783423114
 40
0.4094318314
 40
0.4404781108
 40
0.4714878226
 40
0.5024679126
 40
0.533425532
 40
0.5643679936
 40
0.595302727
 40
0.6262372096
 40
0.6571789229
 40
0.6881353016
 40
0.7191136655
 40
0.7501211811
 40
0.7811648083
 40
0.8122512383
 40
0.8433868664
 40
0.8745777361
 40
0.9058294924
 40
0.9371473648
 40
0.9685361123
 40
1.0
 40
1.0
 40
1.0
 40
1.0
 10
8.3999278127
 20
6.8434225042
 30
0.0
 10
8.3999278127
 20
6.8508554555
 30
0.0
 10
8.4002270805
 20
6.8657029665
 30
0.0
 10
8.4015769404
 20
6.8879053812
 30
0.0
 10
8.4038254169
 20
6.909973661
 30
0.0
 10
8.4069686964
 20
6.9318708689
 30
0.0
 10
8.4110015445
 20
6.9535618785
 30
0.0
 10
8.4159176474
 20
6.9750112602
 30
0.0
 10
8.4217089306
 20
6.996184034
 30
0.0
 10
8.4283658982
 20
7.0170457646
 30
0.0
 10
8.435877907
 20
7.0375624102
 30
0.0
 10
8.4442325989
 20
7.0577005838
 30
0.0
 10
8.4534164052
 20
7.0774274722
 30
0.0
 10
8.4634144848
 20
7.0967108766
 30
0.0
 10
8.4742104102
 20
7.1155194517
 30
0.0
 10
8.4857867167
 20
7.1338224869
 30
0.0
 10
8.4981245481
 20
7.1515901483
 30
0.0
 10
8.511203713
 20
7.1687935514
 30
0.0
 10
8.5250030464
 20
7.1854045523
 30
0.0
 10
8.5394999719
 20
7.2013961508
 30
0.0
 10
8.5546708625
 20
7.2167423014
 30
0.0
 10
8.5704910953
 20
7.2314178922
 30
0.0
 10
8.5869347692
 20
7.2453991375
 30
0.0
 10
8.603975154
 20
7.2586631863
 30
0.0
 10
8.6215844947
 20
7.2711883973
 30
0.0
 10
8.6397340109
 20
7.2829544889
 30
0.0
 10
8.6583942152
 20
7.2939421592
 30
0.0
 10
8.6775346476
 20
7.3041335887
 30
0.0
 10
8.6971240944
 20
7.3135122357
 30
0.0
 10
8.7171307084
 20
7.3220626913
 30
0.0
 10
8.7375217863
 20
7.3297711876
 30
0.0
 10
8.7582642612
 20
7.3366251613
 30
0.0
 10
8.7793238711
 20
7.342613274
 30
0.0
 10
8.793535784
 20
7.3460178284
 30
0.0
 10
8.8006817303
 20
7.3475730481
 30
0.0
  0
SPLINE
  5
35F
100
AcDbEntity
  8
0
100
AcDbSpline
 62
7
  6
CONTINUOUS
 70
0
 71
3
 72
25
 73
21
 74
0
 42
0.0000001
 43
0.0000001
 44
0.0000000001
 40
0.0
 40
0.0
 40
0.0
 40
0.0
 40
0.0637759504
 40
0.1273437766
 40
0.1907000372
 40
0.2538535117
 40
0.3168100046
 40
0.3795782269
 40
0.4421688975
 40
0.5045942185
 40
0.5668681103
 40
0.6290059924
 40
0.6910246356
 40
0.7219973347
 40
0.7529470551
 40
0.814782134
 40
0.8765547543
 40
0.9074265685
 40
0.9382904797
 40
1.0
 40
1.0
 40
1.0
 40
1.0
 10
8.4782355512
 20
6.8551239668
 30
0.0
 10
8.4782355512
 20
6.8629771411
 30
0.0
 10
8.4786114675
 20
6.8786605223
 30
0.0
 10
8.4803079949
 20
6.9020901584
 30
0.0
 10
8.4831328024
 20
6.9253341179
 30
0.0
 10
8.4870790797
 20
6.9483377207
 30
0.0
 10
8.492138027
 20
6.9710484495
 30
0.0
 10
8.4982979268
 20
6.9934138014
 30
0.0
 10
8.5055446076
 20
7.0153822518
 30
0.0
 10
8.5138614739
 20
7.0369031027
 30
0.0
 10
8.5232294358
 20
7.0579267997
 30
0.0
 10
8.5336266874
 20
7.078404552
 30
0.0
 10
8.5431336093
 20
7.0949832611
 30
0.0
 10
8.551227655
 20
7.1079235157
 30
0.0
 10
8.5596370732
 20
7.1206340123
 30
0.0
 10
8.5707447543
 20
7.1360989081
 30
0.0
 10
8.5826248713
 20
7.1509663657
 30
0.0
 10
8.5925706023
 20
7.162474002
 30
0.0
 10
8.6028032481
 20
7.1737163035
 30
0.0
 10
8.6108004083
 20
7.181848859
 30
0.0
 10
8.6162658107
 20
7.1871280569
 30
0.0
  0
SPLINE
  5
360
100
AcDbEntity
  8
0
100
AcDbSpline
 62
7
  6
CONTINUOUS
 70
0
 71
3
 72
42
 73
38
 74
0
 42
0.0000001
 43
0.0000001
 44
0.0000000001
 40
0.0
 40
0.0
 40
0.0
 40
0.0
 40
0.03084396
 40
0.0618208012
 40
0.0929271898
 40
0.1241581911
 40
0.1555067547
 40
0.1869641666
 40
0.218520065
 40
0.250162655
 40
0.2818788771
 40
0.3136546095
 40
0.345474876
 40
0.3773240642
 40
0.4091861502
 40
0.4410449265
 40
0.4728842329
 40
0.5046881858
 40
0.5364414057
 40
0.568129239
 40
0.5997379729
 40
0.6312550398
 40
0.6626692102
 40
0.6939707701
 40
0.7251516803
 40
0.7562057166
 40
0.7871285849
 40
0.8179180121
 40
0.8332644525
 40
0.848577637
 40
0.8638578736
 40
0.8791055997
 40
0.909502
 40
0.9397768181
 40
0.9548730934
 40
0.9699421718
 40
1.0
 40
1.0
 40
1.0
 40
1.0
 10
8.7225765726
 20
7.0911392837
 30
0.0
 10
8.7225765726
 20
7.0808376724
 30
0.0
 10
8.7232259245
 20
7.060184371
 30
0.0
 10
8.7261292668
 20
7.0292646728
 30
0.0
 10
8.7309524789
 20
6.9984539172
 30
0.0
 10
8.7376763669
 20
6.9678748629
 30
0.0
 10
8.7462743874
 20
6.9376472205
 30
0.0
 10
8.7567125802
 20
6.9078898929
 30
0.0
 10
8.7689498122
 20
6.8787197541
 30
0.0
 10
8.7829378844
 20
6.8502514037
 30
0.0
 10
8.7986217471
 20
6.8225966648
 30
0.0
 10
8.8159397057
 20
6.7958641638
 30
0.0
 10
8.8348236663
 20
6.7701589031
 30
0.0
 10
8.8551994004
 20
6.745581854
 30
0.0
 10
8.8769868357
 20
6.7222295623
 30
0.0
 10
8.9001003682
 20
6.7001937724
 30
0.0
 10
8.9244491965
 20
6.6795610694
 30
0.0
 10
8.9499376755
 20
6.6604125414
 30
0.0
 10
8.9764656894
 20
6.6428234626
 30
0.0
 10
9.0039290418
 20
6.6268629993
 30
0.0
 10
9.0322198606
 20
6.6125939393
 30
0.0
 10
9.06122702
 20
6.6000724461
 30
0.0
 10
9.0908365657
 20
6.5893478376
 30
0.0
 10
9.1209321839
 20
6.580462393
 30
0.0
 10
9.1513955578
 20
6.5734511825
 30
0.0
 10
9.1821071839
 20
6.5683419352
 30
0.0
 10
9.2129455161
 20
6.5651548983
 30
0.0
 10
9.2386796949
 20
6.5641103744
 30
0.0
 10
9.2592054908
 20
6.564247916
 30
0.0
 10
9.2745403956
 20
6.5648356838
 30
0.0
 10
9.2898160338
 20
6.5659077634
 30
0.0
 10
9.3100614414
 20
6.5679789534
 30
0.0
 10
9.3351516332
 20
6.5717692831
 30
0.0
 10
9.3598956074
 20
6.5771604677
 30
0.0
 10
9.3793891205
 20
6.5824169341
 30
0.0
 10
9.3986306029
 20
6.5882854967
 30
0.0
 10
9.4128270951
 20
6.5933900153
 30
0.0
 10
9.4221566411
 20
6.5970970491
 30
0.0
  0
SPLINE
  5
361
100
AcDbEntity
  8
0
100
AcDbSpline
 62
7
  6
CONTINUOUS
 70
0
 71
3
 72
15
 73
11
 74
0
 42
0.0000001
 43
0.0000001
 44
0.0000000001
 40
0.0
 40
0.0
 40
0.0
 40
0.0
 40
0.126449588
 40
0.2524648963
 40
0.3780435627
 40
0.5032027568
 40
0.6279558703
 40
0.7523231894
 40
0.8763286492
 40
1.0
 40
1.0
 40
1.0
 40
1.0
 10
8.7225765726
 20
7.0911392837
 30
0.0
 10
8.7225765726
 20
7.0993608482
 30
0.0
 10
8.7229885364
 20
7.1157787974
 30
0.0
 10
8.7248481073
 20
7.1402982796
 30
0.0
 10
8.7279439445
 20
7.1646086934
 30
0.0
 10
8.7322679516
 20
7.1886475241
 30
0.0
 10
8.7378094931
 20
7.2123544348
 30
0.0
 10
8.7445546476
 20
7.2356695721
 30
0.0
 10
8.7524860792
 20
7.2585332302
 30
0.0
 10
8.7585597496
 20
7.2734570512
 30
0.0
 10
8.761786863
 20
7.2808219855
 30
0.0
  0
SPLINE
  5
362
100
AcDbEntity
  8
0
100
AcDbSpline
 62
7
  6
CONTINUOUS
 70
0
 71
3
 72
71
 73
67
 74
0
 42
0.0000001
 43
0.0000001
 44
0.0000000001
 40
0.0
 40
0.0
 40
0.0
 40
0.0
 40
0.0156285867
 40
0.0313077222
 40
0.0470353444
 40
0.0628112778
 40
0.0786338433
 40
0.0945012086
 40
0.1104112169
 40
0.1263613146
 40
0.1423486447
 40
0.1583700501
 40
0.1744221054
 40
0.1905011442
 40
0.2066032857
 40
0.2227244711
 40
0.2388604951
 40
0.2550070356
 40
0.2711596882
 40
0.2873140037
 40
0.3034655202
 40
0.319609795
 40
0.3357424422
 40
0.3518591675
 40
0.367955799
 40
0.3840283188
 40
0.4000728997
 40
0.4160859344
 40
0.4320640619
 40
0.4480041976
 40
0.4639035631
 40
0.4797597075
 40
0.4955705273
 40
0.5113342908
 40
0.5270496564
 40
0.5427156837
 40
0.5583318437
 40
0.5738980328
 40
0.5894145762
 40
0.6048822256
 40
0.6203021578
 40
0.6356759723
 40
0.6510056791
 40
0.666293681
 40
0.6815427575
 40
0.6967560453
 40
0.7119370097
 40
0.7270894126
 40
0.7422172818
 40
0.7573248766
 40
0.7724166464
 40
0.7874971882
 40
0.8025712054
 40
0.8176434646
 40
0.8327187492
 40
0.8478018123
 40
0.8628973332
 40
0.8780098752
 40
0.8931438415
 40
0.9083034321
 40
0.923492608
 40
0.9387150563
 40
0.9539741588
 40
0.9692729615
 40
0.9846141293
 40
1.0
 40
1.0
 40
1.0
 40
1.0
 10
8.3015316768
 20
6.7934411208
 30
0.0
 10
8.3015316768
 20
6.7842331425
 30
0.0
 10
8.301958694
 20
6.7657846236
 30
0.0
 10
8.3038712867
 20
6.7381294214
 30
0.0
 10
8.3070532635
 20
6.7105034744
 30
0.0
 10
8.3114974223
 20
6.6829669471
 30
0.0
 10
8.3171944857
 20
6.6555780439
 30
0.0
 10
8.3241321425
 20
6.6283953625
 30
0.0
 10
8.3322955256
 20
6.6014768563
 30
0.0
 10
8.3416672549
 20
6.5748799601
 30
0.0
 10
8.3522273003
 20
6.5486614184
 30
0.0
 10
8.3639530511
 20
6.5228771332
 30
0.0
 10
8.3768194718
 20
6.4975820981
 30
0.0
 10
8.3907991483
 20
6.4728302939
 30
0.0
 10
8.4058622174
 20
6.4486745045
 30
0.0
 10
8.421976495
 20
6.4251662267
 30
0.0
 10
8.4391076077
 20
6.4023556045
 30
0.0
 10
8.4572190546
 20
6.380291332
 30
0.0
 10
8.4762721543
 20
6.3590204414
 30
0.0
 10
8.496226243
 20
6.3385882846
 30
0.0
 10
8.5170387767
 20
6.319038463
 30
0.0
 10
8.5386653955
 20
6.3004127227
 30
0.0
 10
8.5610599272
 20
6.2827507534
 30
0.0
 10
8.5841746018
 20
6.2660902269
 30
0.0
 10
8.6079601452
 20
6.2504667291
 30
0.0
 10
8.632365838
 20
6.235913628
 30
0.0
 10
8.6573395937
 20
6.2224619335
 30
0.0
 10
8.682828149
 20
6.2101403595
 30
0.0
 10
8.7087771636
 20
6.1989752706
 30
0.0
 10
8.7351312822
 20
6.1889905117
 30
0.0
 10
8.7618342713
 20
6.1802073683
 30
0.0
 10
8.7888291742
 20
6.1726446215
 30
0.0
 10
8.8160584175
 20
6.1663185122
 30
0.0
 10
8.843463895
 20
6.1612425452
 30
0.0
 10
8.8709871281
 20
6.1574275607
 30
0.0
 10
8.8985693911
 20
6.1548817662
 30
0.0
 10
8.9261518226
 20
6.1536107088
 30
0.0
 10
8.9536755459
 20
6.1536170918
 30
0.0
 10
8.9810818127
 20
6.1549009334
 30
0.0
 10
9.0083121137
 20
6.1574595815
 30
0.0
 10
9.0353082989
 20
6.1612876704
 30
0.0
 10
9.0620127265
 20
6.1663770114
 30
0.0
 10
9.088368369
 20
6.1727167808
 30
0.0
 10
9.114318917
 20
6.180293541
 30
0.0
 10
9.1398089234
 20
6.1890911673
 30
0.0
 10
9.1647839467
 20
6.199090853
 30
0.0
 10
9.1891906238
 20
6.2102712804
 30
0.0
 10
9.2129767675
 20
6.2226086599
 30
0.0
 10
9.2360915484
 20
6.2360766404
 30
0.0
 10
9.2584855884
 20
6.2506464305
 30
0.0
 10
9.2801110198
 20
6.2662869312
 30
0.0
 10
9.300921577
 20
6.2829647902
 30
0.0
 10
9.3208728113
 20
6.3006443329
 30
0.0
 10
9.3399221056
 20
6.3192877618
 30
0.0
 10
9.3580287354
 20
6.3388552567
 30
0.0
 10
9.3751539674
 20
6.3593050334
 30
0.0
 10
9.3912612673
 20
6.380593336
 30
0.0
 10
9.4063162466
 20
6.4026746566
 30
0.0
 10
9.420286722
 20
6.4255018247
 30
0.0
 10
9.4331428429
 20
6.4490260632
 30
0.0
 10
9.4448572317
 20
6.4731970573
 30
0.0
 10
9.4554049082
 20
6.4979631697
 30
0.0
 10
9.4647633171
 20
6.5232714494
 30
0.0
 10
9.4729125497
 20
6.5490680197
 30
0.0
 10
9.4798351654
 20
6.5752969793
 30
0.0
 10
9.4836174012
 20
6.5930093293
 30
0.0
 10
9.485300177
 20
6.6019167451
 30
0.0
  0
SPLINE
  5
363
100
AcDbEntity
  8
0
100
AcDbSpline
 62
7
  6
CONTINUOUS
 70
0
 71
3
 72
71
 73
67
 74
0
 42
0.0000001
 43
0.0000001
 44
0.0000000001
 40
0.0
 40
0.0
 40
0.0
 40
0.0
 40
0.0156234292
 40
0.0312966177
 40
0.0470173016
 40
0.0627854457
 40
0.0785994895
 40
0.0944576498
 40
0.1103579078
 40
0.1262978414
 40
0.142274737
 40
0.1582856039
 40
0.1743271871
 40
0.1903959969
 40
0.2064883407
 40
0.2226003498
 40
0.2387280055
 40
0.2548671729
 40
0.2710136342
 40
0.2871631146
 40
0.3033113163
 40
0.319453954
 40
0.3355867824
 40
0.3517056268
 40
0.36780642
 40
0.3838852298
 40
0.3999382855
 40
0.4159620129
 40
0.4319530616
 40
0.4479083267
 40
0.4638249775
 40
0.4797004851
 40
0.495532638
 40
0.5113195616
 40
0.5270597429
 40
0.5427520411
 40
0.5583956963
 40
0.5739903457
 40
0.58953603
 40
0.6050331915
 40
0.620482676
 40
0.6358857353
 40
0.6512440143
 40
0.6665595386
 40
0.6818347069
 40
0.697072271
 40
0.7122753102
 40
0.7274472097
 40
0.7425916347
 40
0.7577124963
 40
0.7728139149
 40
0.7879001894
 40
0.8029757574
 40
0.8180451521
 40
0.8331129619
 40
0.8481837924
 40
0.8632622215
 40
0.8783527553
 40
0.8934597907
 40
0.9085875769
 40
0.9237401741
 40
0.9389214172
 40
0.9541348867
 40
0.9693838786
 40
0.9846713749
 40
1.0
 40
1.0
 40
1.0
 40
1.0
 10
8.3999278127
 20
6.8434225042
 30
0.0
 10
8.3999278127
 20
6.8350454231
 30
0.0
 10
8.4003090397
 20
6.8182621445
 30
0.0
 10
8.402016627
 20
6.7931018971
 30
0.0
 10
8.4048577359
 20
6.7679657706
 30
0.0
 10
8.408826185
 20
6.7429065685
 30
0.0
 10
8.413913933
 20
6.7179752386
 30
0.0
 10
8.420110419
 20
6.6932231513
 30
0.0
 10
8.4274028764
 20
6.6687011523
 30
0.0
 10
8.4357763723
 20
6.6444596315
 30
0.0
 10
8.4452135852
 20
6.6205483694
 30
0.0
 10
8.4556950978
 20
6.5970164787
 30
0.0
 10
8.4671994322
 20
6.5739123339
 30
0.0
 10
8.4797028885
 20
6.5512833775
 30
0.0
 10
8.4931797232
 20
6.5291760665
 30
0.0
 10
8.5076022851
 20
6.507635839
 30
0.0
 10
8.5229409575
 20
6.486706962
 30
0.0
 10
8.539164155
 20
6.466432379
 30
0.0
 10
8.5562385567
 20
6.4468537418
 30
0.0
 10
8.5741291434
 20
6.4280113264
 30
0.0
 10
8.5927991071
 20
6.4099437956
 30
0.0
 10
8.6122100773
 20
6.3926882451
 30
0.0
 10
8.6323222278
 20
6.3762801808
 30
0.0
 10
8.6530942413
 20
6.36075332
 30
0.0
 10
8.6744834087
 20
6.3461395131
 30
0.0
 10
8.6964458149
 20
6.332468817
 30
0.0
 10
8.7189363812
 20
6.3197693935
 30
0.0
 10
8.7419088664
 20
6.3080672796
 30
0.0
 10
8.7653160813
 20
6.2973865252
 30
0.0
 10
8.789109976
 20
6.2877491735
 30
0.0
 10
8.813241655
 20
6.2791750237
 30
0.0
 10
8.8376615269
 20
6.2716816684
 30
0.0
 10
8.8623194383
 20
6.2652845826
 30
0.0
 10
8.887164734
 20
6.2599969924
 30
0.0
 10
8.9121463437
 20
6.2558297174
 30
0.0
 10
8.9372129375
 20
6.2527913643
 30
0.0
 10
8.962313008
 20
6.2508883062
 30
0.0
 10
8.9873949569
 20
6.2501244361
 30
0.0
 10
9.0124072297
 20
6.250501329
 30
0.0
 10
9.0372984059
 20
6.2520183219
 30
0.0
 10
9.0620173013
 20
6.2546723566
 30
0.0
 10
9.0865130945
 20
6.2584579422
 30
0.0
 10
9.1107354093
 20
6.2633673616
 30
0.0
 10
9.1346344034
 20
6.2693906413
 30
0.0
 10
9.1581609301
 20
6.2765153541
 30
0.0
 10
9.1812665981
 20
6.2847268665
 30
0.0
 10
9.2039038369
 20
6.2940084007
 30
0.0
 10
9.226026065
 20
6.3043408767
 30
0.0
 10
9.2475877851
 20
6.3157030064
 30
0.0
 10
9.2685446041
 20
6.3280714766
 30
0.0
 10
9.2888533516
 20
6.3414209091
 30
0.0
 10
9.3084722738
 20
6.3557237736
 30
0.0
 10
9.3273609961
 20
6.3709506503
 30
0.0
 10
9.3454805825
 20
6.3870702803
 30
0.0
 10
9.3627937712
 20
6.4040494516
 30
0.0
 10
9.3792649702
 20
6.4218531886
 30
0.0
 10
9.3948602444
 20
6.4404448917
 30
0.0
 10
9.4095474814
 20
6.4597863096
 30
0.0
 10
9.423296539
 20
6.4798375777
 30
0.0
 10
9.4360791348
 20
6.5005574377
 30
0.0
 10
9.447868912
 20
6.5219032823
 30
0.0
 10
9.4586417075
 20
6.5438311502
 30
0.0
 10
9.4683754042
 20
6.5662958561
 30
0.0
 10
9.4770499953
 20
6.5892513863
 30
0.0
 10
9.4846474743
 20
6.6126498168
 30
0.0
 10
9.488978497
 20
6.6284915507
 30
0.0
 10
9.4909599963
 20
6.6364681289
 30
0.0
  0
SPLINE
  5
364
100
AcDbEntity
  8
0
100
AcDbSpline
 62
7
  6
CONTINUOUS
 70
0
 71
3
 72
47
 73
43
 74
0
 42
0.0000001
 43
0.0000001
 44
0.0000000001
 40
0.0
 40
0.0
 40
0.0
 40
0.0
 40
0.0310739034
 40
0.0623050262
 40
0.0936888077
 40
0.1252165019
 40
0.1568767972
 40
0.1886554884
 40
0.2205359758
 40
0.2524995839
 40
0.2845259639
 40
0.3165935105
 40
0.3486797989
 40
0.3807620322
 40
0.4128174938
 40
0.4448239996
 40
0.4767603414
 40
0.5086067178
 40
0.5403451454
 40
0.5719598413
 40
0.6034375718
 40
0.6347679592
 40
0.6659437387
 40
0.6969609585
 40
0.727819116
 40
0.7585212216
 40
0.773818428
 40
0.7890793503
 40
0.8043053375
 40
0.8194979308
 40
0.834658876
 40
0.8497900958
 40
0.8648936937
 40
0.8799719355
 40
0.895027236
 40
0.9100621526
 40
0.9250793584
 40
0.9400816409
 40
0.9550718723
 40
0.9700530007
 40
0.9850280307
 40
1.0
 40
1.0
 40
1.0
 40
1.0
 10
8.4782355512
 20
6.8551239668
 30
0.0
 10
8.4782355512
 20
6.8429396536
 30
0.0
 10
8.4791444708
 20
6.818500004
 30
0.0
 10
8.4832026177
 20
6.7819575196
 30
0.0
 10
8.4899360721
 20
6.7456296121
 30
0.0
 10
8.4993076419
 20
6.7097183434
 30
0.0
 10
8.5112654069
 20
6.6744202357
 30
0.0
 10
8.5257434633
 20
6.6399292026
 30
0.0
 10
8.5426620644
 20
6.6064344785
 30
0.0
 10
8.5619281511
 20
6.5741198749
 30
0.0
 10
8.5834358183
 20
6.5431626986
 30
0.0
 10
8.6070669042
 20
6.5137328107
 30
0.0
 10
8.6326916445
 20
6.4859917067
 30
0.0
 10
8.660169376
 20
6.4600916407
 30
0.0
 10
8.6893493009
 20
6.436174799
 30
0.0
 10
8.7200713049
 20
6.4143725283
 30
0.0
 10
8.7521668252
 20
6.3948046205
 30
0.0
 10
8.7854597637
 20
6.3775786607
 30
0.0
 10
8.8197674318
 20
6.3627894197
 30
0.0
 10
8.8549015543
 20
6.3505183524
 30
0.0
 10
8.8906692754
 20
6.3408331468
 30
0.0
 10
8.9268742453
 20
6.3337873561
 30
0.0
 10
8.9633175197
 20
6.3294200655
 30
0.0
 10
8.999799238
 20
6.3277557794
 30
0.0
 10
9.0361174822
 20
6.3288038446
 30
0.0
 10
9.0661220448
 20
6.331937881
 30
0.0
 10
9.0898362699
 20
6.3357920788
 30
0.0
 10
9.1074377728
 20
6.3393468879
 30
0.0
 10
9.1248499772
 20
6.3435641334
 30
0.0
 10
9.1420492152
 20
6.3484382043
 30
0.0
 10
9.1590117957
 20
6.3539621896
 30
0.0
 10
9.1757143267
 20
6.3601287377
 30
0.0
 10
9.1921338934
 20
6.366929163
 30
0.0
 10
9.2082478424
 20
6.3743542736
 30
0.0
 10
9.224034025
 20
6.3823937906
 30
0.0
 10
9.2394707301
 20
6.391036642
 30
0.0
 10
9.2545366483
 20
6.4002710446
 30
0.0
 10
9.2692111543
 20
6.4100841348
 30
0.0
 10
9.2834738952
 20
6.4204625979
 30
0.0
 10
9.2973054565
 20
6.4313920221
 30
0.0
 10
9.3106864044
 20
6.4428572872
 30
0.0
 10
9.3192953782
 20
6.4508483147
 30
0.0
 10
9.3235178411
 20
6.4549269197
 30
0.0
  0
SPLINE
  5
365
100
AcDbEntity
  8
0
100
AcDbSpline
 62
7
  6
CONTINUOUS
 70
0
 71
3
 72
28
 73
24
 74
0
 42
0.0000001
 43
0.0000001
 44
0.0000000001
 40
0.0
 40
0.0
 40
0.0
 40
0.0
 40
0.0637760561
 40
0.0955878952
 40
0.1273461456
 40
0.1907020113
 40
0.2538545498
 40
0.2853587995
 40
0.3168148476
 40
0.3795822178
 40
0.4421719615
 40
0.5045963759
 40
0.5668693678
 40
0.6290063485
 40
0.6600315374
 40
0.6910291167
 40
0.7220013686
 40
0.7529506362
 40
0.8147848192
 40
0.8765565453
 40
0.9074279109
 40
0.9382913746
 40
1.0
 40
1.0
 40
1.0
 40
1.0
 10
8.1130324289
 20
9.1442921235
 30
0.0
 10
8.1130324289
 20
9.159474173
 30
0.0
 10
8.1135779497
 20
9.1822341712
 30
0.0
 10
8.115403041
 20
9.2124963769
 30
0.0
 10
8.1179527285
 20
9.2426063586
 30
0.0
 10
8.1224997436
 20
9.2800226623
 30
0.0
 10
8.128862656
 20
9.3171122494
 30
0.0
 10
8.1350300144
 20
9.3464961626
 30
0.0
 10
8.1419005575
 20
9.3756293708
 30
0.0
 10
8.1518172291
 20
9.4116351958
 30
0.0
 10
8.1658265303
 20
9.4541042659
 30
0.0
 10
8.1819048734
 20
9.4957087387
 30
0.0
 10
8.2000147552
 20
9.5363513419
 30
0.0
 10
8.2167742651
 20
9.5693593858
 30
0.0
 10
8.2311519748
 20
9.5951862243
 30
0.0
 10
8.2424102029
 20
9.6142503235
 30
0.0
 10
8.2541414277
 20
9.633005747
 30
0.0
 10
8.2703986563
 20
9.657577536
 30
0.0
 10
8.2918720547
 20
9.6874744704
 30
0.0
 10
8.3148388431
 20
9.7162162488
 30
0.0
 10
8.3340660068
 20
9.7384628699
 30
0.0
 10
8.3538478948
 20
9.7601964849
 30
0.0
 10
8.3693080205
 20
9.7759184228
 30
0.0
 10
8.3798738009
 20
9.7861241676
 30
0.0
  0
SPLINE
  5
366
100
AcDbEntity
  8
0
100
AcDbSpline
 62
7
  6
CONTINUOUS
 70
0
 71
3
 72
15
 73
11
 74
0
 42
0.0000001
 43
0.0000001
 44
0.0000000001
 40
0.0
 40
0.0
 40
0.0
 40
0.0
 40
0.1268948016
 40
0.2531873636
 40
0.3788903593
 40
0.5040365461
 40
0.6286647644
 40
0.7528264594
 40
0.8765818979
 40
1.0
 40
1.0
 40
1.0
 40
1.0
 10
9.0636226582
 20
7.1615645253
 30
0.0
 10
9.0636226582
 20
7.1671270598
 30
0.0
 10
9.0640064713
 20
7.1782296897
 30
0.0
 10
9.0657405581
 20
7.1947609848
 30
0.0
 10
9.0686236602
 20
7.2110542184
 30
0.0
 10
9.0726419072
 20
7.2270300132
 30
0.0
 10
9.0777762575
 20
7.2426118911
 30
0.0
 10
9.0840022713
 20
7.2577251079
 30
0.0
 10
9.0912895804
 20
7.2722960199
 30
0.0
 10
9.0968399868
 20
7.2816149494
 30
0.0
 10
9.0997781856
 20
7.2861576909
 30
0.0
  0
SPLINE
  5
367
100
AcDbEntity
  8
0
100
AcDbSpline
 62
7
  6
CONTINUOUS
 70
0
 71
3
 72
15
 73
11
 74
0
 42
0.0000001
 43
0.0000001
 44
0.0000000001
 40
0.0
 40
0.0
 40
0.0
 40
0.0
 40
0.1262800222
 40
0.2521865701
 40
0.377707356
 40
0.5028580632
 40
0.627648637
 40
0.7520910739
 40
0.8762019554
 40
1.0
 40
1.0
 40
1.0
 40
1.0
 10
8.8026295869
 20
7.1434645623
 30
0.0
 10
8.8026295869
 20
7.150288809
 30
0.0
 10
8.8029281699
 20
7.1639190455
 30
0.0
 10
8.8042752418
 20
7.1842924347
 30
0.0
 10
8.8065186964
 20
7.2045257501
 30
0.0
 10
8.8096540571
 20
7.2245790832
 30
0.0
 10
8.8136752688
 20
7.2444143195
 30
0.0
 10
8.8185747458
 20
7.2639933219
 30
0.0
 10
8.8243429591
 20
7.2832778318
 30
0.0
 10
8.8287659084
 20
7.2959296888
 30
0.0
 10
8.8311181973
 20
7.3021926299
 30
0.0
  0
SPLINE
  5
368
100
AcDbEntity
  8
0
100
AcDbSpline
 62
7
  6
CONTINUOUS
 70
0
 71
3
 72
44
 73
40
 74
0
 42
0.0000001
 43
0.0000001
 44
0.0000000001
 40
0.0
 40
0.0
 40
0.0
 40
0.0
 40
0.0308110823
 40
0.0462674421
 40
0.0617552726
 40
0.0928221152
 40
0.1240107959
 40
0.1396504982
 40
0.1553180808
 40
0.1867291191
 40
0.2182376742
 40
0.2498327743
 40
0.2815022415
 40
0.3132328789
 40
0.3450106542
 40
0.3768208948
 40
0.408648489
 40
0.4404780905
 40
0.4722943259
 40
0.5040820022
 40
0.5358263124
 40
0.567513038
 40
0.5991287454
 40
0.6306609748
 40
0.662098419
 40
0.6934310904
 40
0.7246504738
 40
0.7557496619
 40
0.7867234727
 40
0.8175685446
 40
0.8329440662
 40
0.848287011
 40
0.8635975043
 40
0.8788757834
 40
0.9093335916
 40
0.9396684511
 40
0.9547935463
 40
0.9698904115
 40
1.0
 40
1.0
 40
1.0
 40
1.0
 10
8.8026295869
 20
7.1434645623
 30
0.0
 10
8.8026295869
 20
7.1339188095
 30
0.0
 10
8.8030689772
 20
7.119579508
 30
0.0
 10
8.8045228165
 20
7.1005000358
 30
0.0
 10
8.8065601558
 20
7.081393685
 30
0.0
 10
8.8101943255
 20
7.0575678766
 30
0.0
 10
8.8152520725
 20
7.0339552634
 30
0.0
 10
8.8201433645
 20
7.0152185069
 30
0.0
 10
8.8256042147
 20
6.9965679946
 30
0.0
 10
8.8334745056
 20
6.9735115611
 30
0.0
 10
8.8445410068
 20
6.9463837008
 30
0.0
 10
8.8571970208
 20
6.919870816
 30
0.0
 10
8.8713950693
 20
6.8940724445
 30
0.0
 10
8.8870821498
 20
6.8690846683
 30
0.0
 10
8.9041996626
 20
6.845000756
 30
0.0
 10
8.922683701
 20
6.8219105492
 30
0.0
 10
8.9424652689
 20
6.7999002021
 30
0.0
 10
8.9634705419
 20
6.7790518432
 30
0.0
 10
8.9856211399
 20
6.759443276
 30
0.0
 10
9.0088344176
 20
6.7411476896
 30
0.0
 10
9.0330237702
 20
6.7242333869
 30
0.0
 10
9.0580989535
 20
6.7087635301
 30
0.0
 10
9.0839664189
 20
6.6947959069
 30
0.0
 10
9.1105296607
 20
6.6823827163
 30
0.0
 10
9.1376895669
 20
6.6715703734
 30
0.0
 10
9.1653448081
 20
6.6623993365
 30
0.0
 10
9.1933921286
 20
6.6549039555
 30
0.0
 10
9.2217270377
 20
6.6491123403
 30
0.0
 10
9.2502430449
 20
6.6450462617
 30
0.0
 10
9.2740964098
 20
6.643106491
 30
0.0
 10
9.2931602904
 20
6.6424323453
 30
0.0
 10
9.307422936
 20
6.6423650465
 30
0.0
 10
9.3216508018
 20
6.6427356414
 30
0.0
 10
9.3405358472
 20
6.6438119161
 30
0.0
 10
9.3639940611
 20
6.6462463619
 30
0.0
 10
9.3872075164
 20
6.650134973
 30
0.0
 10
9.4055465498
 20
6.6541073486
 30
0.0
 10
9.4236824047
 20
6.658640627
 30
0.0
 10
9.4371049282
 20
6.6626834668
 30
0.0
 10
9.4459462252
 20
6.6656585081
 30
0.0
  0
SPLINE
  5
369
100
AcDbEntity
  8
0
100
AcDbSpline
 62
7
  6
CONTINUOUS
 70
0
 71
3
 72
71
 73
67
 74
0
 42
0.0000001
 43
0.0000001
 44
0.0000000001
 40
0.0
 40
0.0
 40
0.0
 40
0.0
 40
0.0155102642
 40
0.0310607021
 40
0.0466495005
 40
0.0622768583
 40
0.0779420333
 40
0.0936439839
 40
0.1093816471
 40
0.1251537254
 40
0.140958738
 40
0.1567950463
 40
0.1726608501
 40
0.1885542029
 40
0.2044730181
 40
0.2204150829
 40
0.2363780712
 40
0.2523595506
 40
0.2683569995
 40
0.2843678188
 40
0.3003893412
 40
0.3164188499
 40
0.3324535885
 40
0.3484907735
 40
0.3645276121
 40
0.3805613115
 40
0.3965890937
 40
0.412608212
 40
0.428615959
 40
0.4446096842
 40
0.4605868068
 40
0.4765448247
 40
0.4924813322
 40
0.5083940301
 40
0.5242807345
 40
0.5401393942
 40
0.5559680979
 40
0.5717650825
 40
0.5875287495
 40
0.603257668
 40
0.618950584
 40
0.6346064332
 40
0.6502243408
 40
0.6658036304
 40
0.6813438327
 40
0.6968446823
 40
0.7123061255
 40
0.7277283236
 40
0.7431116474
 40
0.7584566823
 40
0.7737642271
 40
0.7890352849
 40
0.8042710656
 40
0.8194729795
 40
0.8346426252
 40
0.849781789
 40
0.8648924328
 40
0.8799766804
 40
0.8950368124
 40
0.9100752501
 40
0.9250945399
 40
0.9400973439
 40
0.9550864214
 40
0.9700646114
 40
0.9850348197
 40
1.0
 40
1.0
 40
1.0
 40
1.0
 10
8.1295968346
 20
9.1602921116
 30
0.0
 10
8.1295968346
 20
9.1486525149
 30
0.0
 10
8.1300251947
 20
9.1253409482
 30
0.0
 10
8.1319457122
 20
9.0903784298
 30
0.0
 10
8.1351428549
 20
9.0554207952
 30
0.0
 10
8.1396120995
 20
9.020516313
 30
0.0
 10
8.145347338
 20
8.9857113408
 30
0.0
 10
8.1523409368
 20
8.9510528492
 30
0.0
 10
8.1605834865
 20
8.9165875363
 30
0.0
 10
8.1700637514
 20
8.882361727
 30
0.0
 10
8.180769031
 20
8.8484215023
 30
0.0
 10
8.1926849427
 20
8.8148125606
 30
0.0
 10
8.2057953118
 20
8.7815800833
 30
0.0
 10
8.2200825697
 20
8.7487688234
 30
0.0
 10
8.2355274906
 20
8.7164229461
 30
0.0
 10
8.2521091723
 20
8.6845859251
 30
0.0
 10
8.2698053913
 20
8.653300652
 30
0.0
 10
8.2885923082
 20
8.622609222
 30
0.0
 10
8.3084445508
 20
8.5925528803
 30
0.0
 10
8.3293355034
 20
8.5631721408
 30
0.0
 10
8.3512370055
 20
8.5345065148
 30
0.0
 10
8.3741195226
 20
8.5065945277
 30
0.0
 10
8.3979523623
 20
8.4794738251
 30
0.0
 10
8.4227033893
 20
8.4531808544
 30
0.0
 10
8.4483392625
 20
8.4277509619
 30
0.0
 10
8.474825578
 20
8.403218467
 30
0.0
 10
8.5021266207
 20
8.3796163117
 30
0.0
 10
8.5302056434
 20
8.3569762424
 30
0.0
 10
8.5590249408
 20
8.3353288322
 30
0.0
 10
8.5885456569
 20
8.3147031211
 30
0.0
 10
8.618728078
 20
8.2951268779
 30
0.0
 10
8.649531649
 20
8.2766265513
 30
0.0
 10
8.6809148494
 20
8.2592269335
 30
0.0
 10
8.7128354728
 20
8.2429514833
 30
0.0
 10
8.7452506025
 20
8.227822197
 30
0.0
 10
8.7781165606
 20
8.2138593257
 30
0.0
 10
8.8113891501
 20
8.2010817356
 30
0.0
 10
8.8450236133
 20
8.1895066975
 30
0.0
 10
8.8789746443
 20
8.1791496822
 30
0.0
 10
8.9131965825
 20
8.1700247351
 30
0.0
 10
8.9476433734
 20
8.1621441856
 30
0.0
 10
8.9822686303
 20
8.1555185437
 30
0.0
 10
9.0170257736
 20
8.1501568603
 30
0.0
 10
9.051868014
 20
8.1460663697
 30
0.0
 10
9.0867484422
 20
8.1432524985
 30
0.0
 10
9.1216201161
 20
8.1417191886
 30
0.0
 10
9.1564360837
 20
8.1414684877
 30
0.0
 10
9.1911494759
 20
8.1425006775
 30
0.0
 10
9.225713551
 20
8.1448145345
 30
0.0
 10
9.2600817696
 20
8.1484068944
 30
0.0
 10
9.2942078635
 20
8.1532728916
 30
0.0
 10
9.3280458554
 20
8.1594061417
 30
0.0
 10
9.3615501879
 20
8.1667983081
 30
0.0
 10
9.3946757478
 20
8.1754394364
 30
0.0
 10
9.4273778799
 20
8.1853180464
 30
0.0
 10
9.4596125671
 20
8.1964207341
 30
0.0
 10
9.4913363904
 20
8.2087325744
 30
0.0
 10
9.5225065644
 20
8.2222371176
 30
0.0
 10
9.5530811486
 20
8.2369160618
 30
0.0
 10
9.5830189405
 20
8.2527496869
 30
0.0
 10
9.6122795501
 20
8.2697167614
 30
0.0
 10
9.6408236334
 20
8.2877943242
 30
0.0
 10
9.6686126638
 20
8.3069580572
 30
0.0
 10
9.6956092862
 20
8.3271823324
 30
0.0
 10
9.721776718
 20
8.3484393203
 30
0.0
 10
9.7386482742
 20
8.3632827734
 30
0.0
 10
9.746932584
 20
8.370865337
 30
0.0
  0
SPLINE
  5
36A
100
AcDbEntity
  8
0
100
AcDbSpline
 62
7
  6
CONTINUOUS
 70
0
 71
3
 72
27
 73
23
 74
0
 42
0.0000001
 43
0.0000001
 44
0.0000000001
 40
0.0
 40
0.0
 40
0.0
 40
0.0
 40
0.0637524161
 40
0.0955551799
 40
0.1273059718
 40
0.1906518368
 40
0.2538007217
 40
0.2853051024
 40
0.3167625513
 40
0.3795364825
 40
0.442136527
 40
0.5045738401
 40
0.5668610768
 40
0.6290122747
 40
0.6910427424
 40
0.7220201544
 40
0.7529736365
 40
0.8148129451
 40
0.8765836336
 40
0.907451514
 40
0.9383093705
 40
1.0
 40
1.0
 40
1.0
 40
1.0
 10
8.1295968346
 20
9.1602921116
 30
0.0
 10
8.1295968346
 20
9.1749792444
 30
0.0
 10
8.1301073879
 20
9.1969976014
 30
0.0
 10
8.1318152329
 20
9.2262782094
 30
0.0
 10
8.134201394
 20
9.2554179117
 30
0.0
 10
8.1384570685
 20
9.2916393023
 30
0.0
 10
8.1444127511
 20
9.3275630059
 30
0.0
 10
8.1501863953
 20
9.356039111
 30
0.0
 10
8.1566192052
 20
9.3842849242
 30
0.0
 10
8.1659057378
 20
9.41921717
 30
0.0
 10
8.1790285268
 20
9.4604639456
 30
0.0
 10
8.1940945613
 20
9.5009222562
 30
0.0
 10
8.2110713628
 20
9.5405043518
 30
0.0
 10
8.2299220708
 20
9.5791244013
 30
0.0
 10
8.2471674653
 20
9.6104523034
 30
0.0
 10
8.2618564501
 20
9.6349458063
 30
0.0
 10
8.2771218665
 20
9.6590321897
 30
0.0
 10
8.2972941163
 20
9.6883938972
 30
0.0
 10
8.3188849288
 20
9.7167040067
 30
0.0
 10
8.3369704889
 20
9.7386702156
 30
0.0
 10
8.3555838626
 20
9.7601657994
 30
0.0
 10
8.3701399939
 20
9.7757607618
 30
0.0
 10
8.3800930965
 20
9.7859057489
 30
0.0
  0
SPLINE
  5
36B
100
AcDbEntity
  8
0
100
AcDbSpline
 62
7
  6
CONTINUOUS
 70
0
 71
3
 72
39
 73
35
 74
0
 42
0.0000001
 43
0.0000001
 44
0.0000000001
 40
0.0
 40
0.0
 40
0.0
 40
0.0
 40
0.0319628111
 40
0.0638343112
 40
0.0956118204
 40
0.1272989113
 40
0.158897751
 40
0.1904110968
 40
0.2218427079
 40
0.2531968159
 40
0.2844782418
 40
0.3156923763
 40
0.3468451205
 40
0.3779428547
 40
0.4089923799
 40
0.4400008752
 40
0.4709758464
 40
0.5019250581
 40
0.5328564768
 40
0.5637782159
 40
0.5946984624
 40
0.6256254113
 40
0.6565672104
 40
0.6875318895
 40
0.7185272918
 40
0.7495610233
 40
0.7806403916
 40
0.8117723396
 40
0.8429634051
 40
0.8742196733
 40
0.9055467189
 40
0.9369495786
 40
0.9684327207
 40
1.0
 40
1.0
 40
1.0
 40
1.0
 10
8.4831257079
 20
9.135774801
 30
0.0
 10
8.4831257079
 20
9.1441671926
 30
0.0
 10
8.4834793602
 20
9.1609301963
 30
0.0
 10
8.4850748285
 20
9.1859912407
 30
0.0
 10
8.4877321326
 20
9.2108897569
 30
0.0
 10
8.4914463442
 20
9.2355802178
 30
0.0
 10
8.4962108709
 20
9.2600191127
 30
0.0
 10
8.502017271
 20
9.2841627004
 30
0.0
 10
8.5088552735
 20
9.3079678425
 30
0.0
 10
8.5167126321
 20
9.3313920834
 30
0.0
 10
8.5255753289
 20
9.3543936094
 30
0.0
 10
8.535427678
 20
9.3769313031
 30
0.0
 10
8.5462520368
 20
9.3989649496
 30
0.0
 10
8.5580290707
 20
9.4204552215
 30
0.0
 10
8.5707378789
 20
9.4413636777
 30
0.0
 10
8.5843557181
 20
9.4616530094
 30
0.0
 10
8.5988582482
 20
9.48128701
 30
0.0
 10
8.6142196803
 20
9.5002305377
 30
0.0
 10
8.630412536
 20
9.5184497938
 30
0.0
 10
8.6474078621
 20
9.5359122817
 30
0.0
 10
8.6651753953
 20
9.5525867313
 30
0.0
 10
8.6836833648
 20
9.5684433995
 30
0.0
 10
8.7028986741
 20
9.5834540291
 30
0.0
 10
8.7227870752
 20
9.5975917305
 30
0.0
 10
8.7433130182
 20
9.6108312954
 30
0.0
 10
8.7644398029
 20
9.6231491638
 30
0.0
 10
8.7861297528
 20
9.6345232629
 30
0.0
 10
8.8083441139
 20
9.6449333225
 30
0.0
 10
8.8310431778
 20
9.6543608585
 30
0.0
 10
8.8541864631
 20
9.6627889714
 30
0.0
 10
8.8777325929
 20
9.6702026441
 30
0.0
 10
8.9016396624
 20
9.676588787
 30
0.0
 10
8.9258644162
 20
9.6819358491
 30
0.0
 10
8.9421763913
 20
9.6847978025
 30
0.0
 10
8.9503692936
 20
9.6860532743
 30
0.0
  0
SPLINE
  5
36C
100
AcDbEntity
  8
0
100
AcDbSpline
 62
7
  6
CONTINUOUS
 70
0
 71
3
 72
39
 73
35
 74
0
 42
0.0000001
 43
0.0000001
 44
0.0000000001
 40
0.0
 40
0.0
 40
0.0
 40
0.0
 40
0.0319789903
 40
0.0638712265
 40
0.0956733029
 40
0.127388516
 40
0.1590191048
 40
0.1905672727
 40
0.2220362976
 40
0.2534299432
 40
0.2847524043
 40
0.3160084158
 40
0.3472031801
 40
0.3783423114
 40
0.4094318314
 40
0.4404781108
 40
0.4714878226
 40
0.5024679126
 40
0.533425532
 40
0.5643679936
 40
0.595302727
 40
0.6262372096
 40
0.6571789229
 40
0.6881353016
 40
0.7191136655
 40
0.7501211811
 40
0.7811648083
 40
0.8122512383
 40
0.8433868664
 40
0.8745777361
 40
0.9058294924
 40
0.9371473648
 40
0.9685361123
 40
1.0
 40
1.0
 40
1.0
 40
1.0
 10
8.5815218437
 20
9.1857561844
 30
0.0
 10
8.5815218437
 20
9.1931891357
 30
0.0
 10
8.5818211116
 20
9.2080366467
 30
0.0
 10
8.5831709715
 20
9.2302390614
 30
0.0
 10
8.585419448
 20
9.2523073411
 30
0.0
 10
8.5885627275
 20
9.2742045491
 30
0.0
 10
8.5925955756
 20
9.2958955587
 30
0.0
 10
8.5975116785
 20
9.3173449404
 30
0.0
 10
8.6033029617
 20
9.3385177142
 30
0.0
 10
8.6099599293
 20
9.3593794448
 30
0.0
 10
8.6174719381
 20
9.3798960904
 30
0.0
 10
8.62582663
 20
9.400034264
 30
0.0
 10
8.6350104363
 20
9.4197611524
 30
0.0
 10
8.6450085159
 20
9.4390445568
 30
0.0
 10
8.6558044413
 20
9.4578531319
 30
0.0
 10
8.6673807478
 20
9.4761561671
 30
0.0
 10
8.6797185792
 20
9.4939238285
 30
0.0
 10
8.6927977441
 20
9.5111272316
 30
0.0
 10
8.7065970775
 20
9.5277382325
 30
0.0
 10
8.721094003
 20
9.543729831
 30
0.0
 10
8.7362648935
 20
9.5590759816
 30
0.0
 10
8.7520851264
 20
9.5737515724
 30
0.0
 10
8.7685288003
 20
9.5877328177
 30
0.0
 10
8.7855691851
 20
9.6009968665
 30
0.0
 10
8.8031785258
 20
9.6135220775
 30
0.0
 10
8.821328042
 20
9.6252881691
 30
0.0
 10
8.8399882463
 20
9.6362758394
 30
0.0
 10
8.8591286786
 20
9.6464672689
 30
0.0
 10
8.8787181255
 20
9.6558459158
 30
0.0
 10
8.8987247395
 20
9.6643963715
 30
0.0
 10
8.9191158174
 20
9.6721048678
 30
0.0
 10
8.9398582923
 20
9.6789588414
 30
0.0
 10
8.9609179022
 20
9.6849469542
 30
0.0
 10
8.9751298151
 20
9.6883515086
 30
0.0
 10
8.9822757614
 20
9.6899067283
 30
0.0
  0
SPLINE
  5
36D
100
AcDbEntity
  8
0
100
AcDbSpline
 62
7
  6
CONTINUOUS
 70
0
 71
3
 72
53
 73
49
 74
0
 42
0.0000001
 43
0.0000001
 44
0.0000000001
 40
0.0
 40
0.0
 40
0.0
 40
0.0
 40
0.0417737855
 40
0.0840372804
 40
0.1266586658
 40
0.1695068268
 40
0.2124484817
 40
0.2553505161
 40
0.2980797819
 40
0.3405038709
 40
0.3824915641
 40
0.4239133811
 40
0.4646421101
 40
0.5045533515
 40
0.5435260687
 40
0.5814431539
 40
0.6181920188
 40
0.6536652174
 40
0.6877611189
 40
0.7203846489
 40
0.7361168986
 40
0.751448868
 40
0.7663708503
 40
0.7808738904
 40
0.7949495081
 40
0.8085900804
 40
0.821788593
 40
0.8345389529
 40
0.8468359066
 40
0.8586751859
 40
0.8700536732
 40
0.8809693639
 40
0.891421781
 40
0.9014118319
 40
0.9109423967
 40
0.9200182439
 40
0.9286466706
 40
0.9368376675
 40
0.9446045284
 40
0.9519643801
 40
0.9589387458
 40
0.9655544017
 40
0.9718438599
 40
0.9778462342
 40
0.9836073809
 40
0.9891800528
 40
0.994623075
 40
1.0
 40
1.0
 40
1.0
 40
1.0
 10
12.7979456425
 20
6.2366053821
 30
0.0
 10
12.7979456425
 20
6.226699161
 30
0.0
 10
12.7977910854
 20
6.2067702781
 30
0.0
 10
12.7971078687
 20
6.1767412144
 30
0.0
 10
12.7959738482
 20
6.1464707894
 30
0.0
 10
12.7943928112
 20
6.1160594185
 30
0.0
 10
12.792369932
 20
6.0856075406
 30
0.0
 10
12.7899119254
 20
6.0552159786
 30
0.0
 10
12.7870269206
 20
6.0249852518
 30
0.0
 10
12.7837244862
 20
5.9950153801
 30
0.0
 10
12.7800155767
 20
5.9654055041
 30
0.0
 10
12.7759125048
 20
5.9362535686
 30
0.0
 10
12.771428899
 20
5.9076559909
 30
0.0
 10
12.7665796621
 20
5.8797073377
 30
0.0
 10
12.7613809198
 20
5.8525000088
 30
0.0
 10
12.7558499697
 20
5.8261239205
 30
0.0
 10
12.750005222
 20
5.80066622
 30
0.0
 10
12.7438661506
 20
5.7762109168
 30
0.0
 10
12.7374531904
 20
5.7528388364
 30
0.0
 10
12.731832858
 20
5.7341091124
 30
0.0
 10
12.7272064892
 20
5.7197318398
 30
0.0
 10
12.7237236919
 20
5.7093974037
 30
0.0
 10
12.7201887065
 20
5.6993893144
 30
0.0
 10
12.7166045297
 20
5.6897158092
 30
0.0
 10
12.7129740455
 20
5.6803848861
 30
0.0
 10
12.7093003456
 20
5.6714042214
 30
0.0
 10
12.7055864052
 20
5.662781225
 30
0.0
 10
12.7018353392
 20
5.6545229841
 30
0.0
 10
12.698050237
 20
5.6466362853
 30
0.0
 10
12.6942341986
 20
5.6391276081
 30
0.0
 10
12.6903904222
 20
5.6320030807
 30
0.0
 10
12.6865219749
 20
5.625268555
 30
0.0
 10
12.6826321267
 20
5.6189294724
 30
0.0
 10
12.6787239132
 20
5.6129910313
 30
0.0
 10
12.6748006017
 20
5.6074579764
 30
0.0
 10
12.6708652068
 20
5.6023348181
 30
0.0
 10
12.6669208914
 20
5.5976256258
 30
0.0
 10
12.6629706364
 20
5.5933342003
 30
0.0
 10
12.6590173976
 20
5.5894640029
 30
0.0
 10
12.6550640717
 20
5.5860181605
 30
0.0
 10
12.6511133455
 20
5.5829996771
 30
0.0
 10
12.6471679931
 20
5.5804111716
 30
0.0
 10
12.6432305427
 20
5.578255445
 30
0.0
 10
12.6393038044
 20
5.5765349166
 30
0.0
 10
12.6353906984
 20
5.5752523548
 30
0.0
 10
12.6314945304
 20
5.5744100653
 30
0.0
 10
12.6276199805
 20
5.5740102087
 30
0.0
 10
12.6250476143
 20
5.5740396322
 30
0.0
 10
12.6237755881
 20
5.5741278575
 30
0.0
  0
SPLINE
  5
36E
100
AcDbEntity
  8
0
100
AcDbSpline
 62
7
  6
CONTINUOUS
 70
0
 71
3
 72
23
 73
19
 74
0
 42
0.0000001
 43
0.0000001
 44
0.0000000001
 40
0.0
 40
0.0
 40
0.0
 40
0.0
 40
0.0600823969
 40
0.1183017561
 40
0.1748302612
 40
0.2299250244
 40
0.28391405
 40
0.3372359111
 40
0.3904493407
 40
0.4442122269
 40
0.4993041631
 40
0.55658816
 40
0.6169964725
 40
0.681498907
 40
0.7510796769
 40
0.8267179289
 40
0.9093785372
 40
1.0
 40
1.0
 40
1.0
 40
1.0
 10
8.9110545998
 20
9.5149817169
 30
0.0
 10
8.9101242864
 20
9.5148240908
 30
0.0
 10
8.90828176
 20
9.5145725668
 30
0.0
 10
8.9055388048
 20
9.5144012875
 30
0.0
 10
8.9028686696
 20
9.5144535958
 30
0.0
 10
8.9002797192
 20
9.5147408797
 30
0.0
 10
8.8977812807
 20
9.5152768091
 30
0.0
 10
8.8953844268
 20
9.5160757014
 30
0.0
 10
8.893101435
 20
9.5171513754
 30
0.0
 10
8.8909473524
 20
9.5185201328
 30
0.0
 10
8.8889384087
 20
9.5201965113
 30
0.0
 10
8.8870929343
 20
9.5221960939
 30
0.0
 10
8.8854305848
 20
9.5245340611
 30
0.0
 10
8.8839721524
 20
9.5272258542
 30
0.0
 10
8.8827404796
 20
9.5302876016
 30
0.0
 10
8.8817600475
 20
9.5337358162
 30
0.0
 10
8.8810579113
 20
9.5375868839
 30
0.0
 10
8.8808075022
 20
9.5403004681
 30
0.0
 10
8.8807311996
 20
9.5417215987
 30
0.0
  0
SPLINE
  5
36F
100
AcDbEntity
  8
0
100
AcDbSpline
 62
7
  6
CONTINUOUS
 70
0
 71
3
 72
25
 73
21
 74
0
 42
0.0000001
 43
0.0000001
 44
0.0000000001
 40
0.0
 40
0.0
 40
0.0
 40
0.0
 40
0.0637759504
 40
0.1273437766
 40
0.1907000372
 40
0.2538535117
 40
0.3168100046
 40
0.3795782269
 40
0.4421688975
 40
0.5045942185
 40
0.5668681103
 40
0.6290059924
 40
0.6910246356
 40
0.7219973347
 40
0.7529470551
 40
0.814782134
 40
0.8765547543
 40
0.9074265685
 40
0.9382904797
 40
1.0
 40
1.0
 40
1.0
 40
1.0
 10
8.6598295823
 20
9.1974576469
 30
0.0
 10
8.6598295823
 20
9.2053108213
 30
0.0
 10
8.6602054986
 20
9.2209942025
 30
0.0
 10
8.661902026
 20
9.2444238386
 30
0.0
 10
8.6647268335
 20
9.2676677981
 30
0.0
 10
8.6686731108
 20
9.2906714009
 30
0.0
 10
8.6737320581
 20
9.3133821297
 30
0.0
 10
8.6798919579
 20
9.3357474816
 30
0.0
 10
8.6871386387
 20
9.357715932
 30
0.0
 10
8.695455505
 20
9.3792367829
 30
0.0
 10
8.7048234669
 20
9.4002604799
 30
0.0
 10
8.7152207185
 20
9.4207382322
 30
0.0
 10
8.7247276404
 20
9.4373169413
 30
0.0
 10
8.7328216861
 20
9.4502571959
 30
0.0
 10
8.7412311043
 20
9.4629676925
 30
0.0
 10
8.7523387854
 20
9.4784325883
 30
0.0
 10
8.7642189024
 20
9.4933000459
 30
0.0
 10
8.7741646334
 20
9.5048076821
 30
0.0
 10
8.7843972792
 20
9.5160499837
 30
0.0
 10
8.7923944394
 20
9.5241825392
 30
0.0
 10
8.7978598418
 20
9.5294617371
 30
0.0
  0
SPLINE
  5
370
100
AcDbEntity
  8
0
100
AcDbSpline
 62
7
  6
CONTINUOUS
 70
0
 71
3
 72
42
 73
38
 74
0
 42
0.0000001
 43
0.0000001
 44
0.0000000001
 40
0.0
 40
0.0
 40
0.0
 40
0.0
 40
0.030844038
 40
0.0618209571
 40
0.0929274384
 40
0.1241585354
 40
0.1555072014
 40
0.1869647189
 40
0.2185207252
 40
0.2501634233
 40
0.2818797516
 40
0.3136555861
 40
0.3454759485
 40
0.3773252242
 40
0.4091873871
 40
0.4410462278
 40
0.4728855843
 40
0.5046895714
 40
0.5364428084
 40
0.5681306407
 40
0.5997393549
 40
0.6312563833
 40
0.6626704968
 40
0.6939719819
 40
0.7251528008
 40
0.756206731
 40
0.7871294807
 40
0.8179187793
 40
0.8332651535
 40
0.8485782696
 40
0.8638584379
 40
0.8791060946
 40
0.9095023563
 40
0.9397770427
 40
0.9548732584
 40
0.9699422674
 40
1.0
 40
1.0
 40
1.0
 40
1.0
 10
8.9041706037
 20
9.4334729639
 30
0.0
 10
8.9041706037
 20
9.4231707494
 30
0.0
 10
8.9048200311
 20
9.402516238
 30
0.0
 10
8.9077237132
 20
9.3715947385
 30
0.0
 10
8.9125474849
 20
9.3407822095
 30
0.0
 10
8.9192721523
 20
9.3102014288
 30
0.0
 10
8.9278711627
 20
9.2799721296
 30
0.0
 10
8.9383105497
 20
9.2502132343
 30
0.0
 10
8.9505491699
 20
9.2210416371
 30
0.0
 10
8.9645388136
 20
9.1925719565
 30
0.0
 10
8.9802244184
 20
9.1649160339
 30
0.0
 10
8.9975442757
 20
9.138182513
 30
0.0
 10
9.0164302762
 20
9.1124764125
 30
0.0
 10
9.0368081747
 20
9.0878987186
 30
0.0
 10
9.0585978811
 20
9.0645459911
 30
0.0
 10
9.0817137725
 20
9.0425099868
 30
0.0
 10
9.1060650277
 20
9.0218773017
 30
0.0
 10
9.1315559808
 20
9.0027290333
 30
0.0
 10
9.1580864948
 20
8.9851404635
 30
0.0
 10
9.1855523511
 20
8.9691807647
 30
0.0
 10
9.2138456554
 20
8.9549127292
 30
0.0
 10
9.242855259
 20
8.9423925228
 30
0.0
 10
9.2724671848
 20
8.9316694644
 30
0.0
 10
9.3025650961
 20
8.9227858319
 30
0.0
 10
9.3330306532
 20
8.9157766924
 30
0.0
 10
9.36374433
 20
8.9106697711
 30
0.0
 10
9.3945845583
 20
8.907485304
 30
0.0
 10
9.4203201741
 20
8.9064431345
 30
0.0
 10
9.4408470194
 20
8.9065826492
 30
0.0
 10
9.4561826571
 20
8.9071719811
 30
0.0
 10
9.4714589754
 20
8.9082456446
 30
0.0
 10
9.4917052097
 20
8.9103190549
 30
0.0
 10
9.5167962935
 20
8.9141122525
 30
0.0
 10
9.5415409451
 20
8.9195064867
 30
0.0
 10
9.5610348649
 20
8.924765457
 30
0.0
 10
9.5802766611
 20
8.9306365968
 30
0.0
 10
9.5944732884
 20
8.935743082
 30
0.0
 10
9.6038028647
 20
8.9394514762
 30
0.0
  0
SPLINE
  5
371
100
AcDbEntity
  8
0
100
AcDbSpline
 62
7
  6
CONTINUOUS
 70
0
 71
3
 72
27
 73
23
 74
0
 42
0.0000001
 43
0.0000001
 44
0.0000000001
 40
0.0
 40
0.0
 40
0.0
 40
0.0
 40
0.0611263751
 40
0.1225277077
 40
0.1841912962
 40
0.2461007224
 40
0.3082368795
 40
0.370578285
 40
0.433101729
 40
0.4957827826
 40
0.5585963422
 40
0.621517137
 40
0.6530153868
 40
0.6845311609
 40
0.7160614875
 40
0.7476034055
 40
0.810699582
 40
0.8738084111
 40
0.9053660404
 40
0.9369184081
 40
0.9684645049
 40
1.0
 40
1.0
 40
1.0
 40
1.0
 10
8.9110545998
 20
9.5149817169
 30
0.0
 10
8.9142615639
 20
9.5097626334
 30
0.0
 10
8.9210838828
 20
9.4995374329
 30
0.0
 10
8.9324465023
 20
9.4849707362
 30
0.0
 10
8.9449031485
 20
9.4712204284
 30
0.0
 10
8.9583867062
 20
9.4583690317
 30
0.0
 10
8.9728257512
 20
9.4464939872
 30
0.0
 10
8.9881435006
 20
9.4356692293
 30
0.0
 10
9.0042580168
 20
9.4259643226
 30
0.0
 10
9.0210824323
 20
9.4174440561
 30
0.0
 10
9.038523944
 20
9.4101680886
 30
0.0
 10
9.0534893002
 20
9.4051872555
 30
0.0
 10
9.0656694679
 20
9.4018743725
 30
0.0
 10
9.0749003984
 20
9.3997295847
 30
0.0
 10
9.0842093651
 20
9.3979305729
 30
0.0
 10
9.0967070137
 20
9.3959981824
 30
0.0
 10
9.1124568558
 20
9.3944658997
 30
0.0
 10
9.1282792632
 20
9.3941286891
 30
0.0
 10
9.1409224789
 20
9.3945800094
 30
0.0
 10
9.1503848573
 20
9.39527909
 30
0.0
 10
9.159811254
 20
9.3963379684
 30
0.0
 10
9.1660636425
 20
9.3972829441
 30
0.0
 10
9.169178833
 20
9.3978147452
 30
0.0
  0
SPLINE
  5
372
100
AcDbEntity
  8
0
100
AcDbSpline
 62
7
  6
CONTINUOUS
 70
0
 71
3
 72
23
 73
19
 74
0
 42
0.0000001
 43
0.0000001
 44
0.0000000001
 40
0.0
 40
0.0
 40
0.0
 40
0.0
 40
0.0613211146
 40
0.1230064769
 40
0.18503594
 40
0.2473764645
 40
0.3099866709
 40
0.3728170288
 40
0.4358115906
 40
0.4989096585
 40
0.5620475537
 40
0.6251604536
 40
0.6881842555
 40
0.7510574141
 40
0.8137227247
 40
0.8761292242
 40
0.9382325913
 40
1.0
 40
1.0
 40
1.0
 40
1.0
 10
9.4134073095
 20
9.1695656382
 30
0.0
 10
9.4060527165
 20
9.1700756809
 30
0.0
 10
9.3913373659
 20
9.1717564505
 30
0.0
 10
9.3695150681
 20
9.176211806
 30
0.0
 10
9.3480412445
 20
9.1825735341
 30
0.0
 10
9.3270882907
 20
9.1907907764
 30
0.0
 10
9.3068216405
 20
9.2007980382
 30
0.0
 10
9.2874019353
 20
9.2125157067
 30
0.0
 10
9.2689828941
 20
9.2258507174
 30
0.0
 10
9.2517103842
 20
9.2406972947
 30
0.0
 10
9.2357212216
 20
9.2569377727
 30
0.0
 10
9.2211420531
 20
9.2744434542
 30
0.0
 10
9.2080884269
 20
9.2930756703
 30
0.0
 10
9.196663892
 20
9.3126869254
 30
0.0
 10
9.1869591976
 20
9.3331217873
 30
0.0
 10
9.1790514819
 20
9.3542189479
 30
0.0
 10
9.1730039119
 20
9.3758091231
 30
0.0
 10
9.1702359981
 20
9.3904644675
 30
0.0
 10
9.169178833
 20
9.3978147452
 30
0.0
  0
SPLINE
  5
373
100
AcDbEntity
  8
0
100
AcDbSpline
 62
7
  6
CONTINUOUS
 70
0
 71
3
 72
26
 73
22
 74
0
 42
0.0000001
 43
0.0000001
 44
0.0000000001
 40
0.0
 40
0.0
 40
0.0
 40
0.0
 40
0.0639981245
 40
0.0958982197
 40
0.1277268215
 40
0.1911697231
 40
0.2543467748
 40
0.3172698694
 40
0.3799567992
 40
0.4424288466
 40
0.5047110711
 40
0.566831798
 40
0.628822157
 40
0.6907155649
 40
0.7216412652
 40
0.7525559969
 40
0.8143619578
 40
0.8761789653
 40
0.9071074547
 40
0.9380523322
 40
1.0
 40
1.0
 40
1.0
 40
1.0
 10
9.4134073095
 20
9.1695656382
 30
0.0
 10
9.4185951084
 20
9.1692058631
 30
0.0
 10
9.4263887026
 20
9.1689107472
 30
0.0
 10
9.4367680973
 20
9.1690124089
 30
0.0
 10
9.4470942041
 20
9.1694428802
 30
0.0
 10
9.4599270463
 20
9.170596169
 30
0.0
 10
9.4751563288
 20
9.1729633553
 30
0.0
 10
9.4901397758
 20
9.1763031559
 30
0.0
 10
9.5048170315
 20
9.1806022238
 30
0.0
 10
9.5191295016
 20
9.1858435236
 30
0.0
 10
9.5330198593
 20
9.1920061401
 30
0.0
 10
9.5464326114
 20
9.1990655596
 30
0.0
 10
9.5593137254
 20
9.20699332
 30
0.0
 10
9.5695661188
 20
9.2143000609
 30
0.0
 10
9.5774484615
 20
9.2205441163
 30
0.0
 10
9.5851096733
 20
9.2270466682
 30
0.0
 10
9.5942657895
 20
9.2356551051
 30
0.0
 10
9.6028185792
 20
9.2448646746
 30
0.0
 10
9.6092766624
 20
9.2525681612
 30
0.0
 10
9.6154770075
 20
9.2604935669
 30
0.0
 10
9.6198251639
 20
9.2666726838
 30
0.0
 10
9.622581854
 20
9.2708843646
 30
0.0
  0
SPLINE
  5
374
100
AcDbEntity
  8
0
100
AcDbSpline
 62
7
  6
CONTINUOUS
 70
0
 71
3
 72
75
 73
71
 74
0
 42
0.0000001
 43
0.0000001
 44
0.0000000001
 40
0.0
 40
0.0
 40
0.0
 40
0.0
 40
0.0155842192
 40
0.0233572755
 40
0.0311169608
 40
0.046596236
 40
0.0620247854
 40
0.0697211414
 40
0.0774055104
 40
0.0927382729
 40
0.1080270414
 40
0.123275021
 40
0.1384858323
 40
0.1536634824
 40
0.1688123253
 40
0.1839370178
 40
0.1990424723
 40
0.2141338055
 40
0.2292162847
 40
0.2442952718
 40
0.2593761658
 40
0.2744643456
 40
0.2895651118
 40
0.304683631
 40
0.3198248809
 40
0.3349935985
 40
0.3501942316
 40
0.3654308936
 40
0.3807073232
 40
0.3960268487
 40
0.4113923571
 40
0.4268062686
 40
0.4422705168
 40
0.4577865339
 40
0.4733552422
 40
0.4889770495
 40
0.5046518511
 40
0.5203790354
 40
0.5361574949
 40
0.5519856415
 40
0.5678614254
 40
0.5837823585
 40
0.5997455407
 40
0.6157476895
 40
0.6317851725
 40
0.6478540421
 40
0.6639500724
 40
0.6800687979
 40
0.6962055534
 40
0.7123555163
 40
0.7285137483
 40
0.7446752392
 40
0.7608349505
 40
0.7769878595
 40
0.7931290025
 40
0.8092535185
 40
0.8253566919
 40
0.8414339942
 40
0.8574811246
 40
0.8654926466
 40
0.8734951387
 40
0.8894701295
 40
0.9054037966
 40
0.9212931282
 40
0.9371354993
 40
0.9529287706
 40
0.9686711003
 40
0.9765233353
 40
0.9843626592
 40
1.0
 40
1.0
 40
1.0
 40
1.0
 10
10.093180445
 20
7.1350040649
 30
0.0
 10
10.093180445
 20
7.1497391992
 30
0.0
 10
10.093721825
 20
7.171829024
 30
0.0
 10
10.0955332171
 20
7.2011969655
 30
0.0
 10
10.0980635871
 20
7.2304127037
 30
0.0
 10
10.1025759352
 20
7.2667101142
 30
0.0
 10
10.1088899477
 20
7.3026773661
 30
0.0
 10
10.1150092104
 20
7.3311608717
 30
0.0
 10
10.121825454
 20
7.3593924224
 30
0.0
 10
10.131662567
 20
7.3942674385
 30
0.0
 10
10.1455567143
 20
7.435371549
 30
0.0
 10
10.1614988683
 20
7.4756022621
 30
0.0
 10
10.1794505521
 20
7.5148618761
 30
0.0
 10
10.1993686021
 20
7.5530558749
 30
0.0
 10
10.2212050454
 20
7.5900920778
 30
0.0
 10
10.2449072798
 20
7.6258811519
 30
0.0
 10
10.2704181864
 20
7.6603367523
 30
0.0
 10
10.2976762711
 20
7.6933757537
 30
0.0
 10
10.326615812
 20
7.7249184487
 30
0.0
 10
10.357167019
 20
7.7548887443
 30
0.0
 10
10.3892562042
 20
7.7832143473
 30
0.0
 10
10.4228059614
 20
7.809826942
 30
0.0
 10
10.4577353558
 20
7.8346623547
 30
0.0
 10
10.4939601164
 20
7.8576607187
 30
0.0
 10
10.5313928473
 20
7.8787666161
 30
0.0
 10
10.5699432438
 20
7.8979292067
 30
0.0
 10
10.609518313
 20
7.9151023511
 30
0.0
 10
10.6500226006
 20
7.9302447206
 30
0.0
 10
10.6913584238
 20
7.9433198942
 30
0.0
 10
10.7334261087
 20
7.9542964451
 30
0.0
 10
10.7761242316
 20
7.9631480134
 30
0.0
 10
10.8193498655
 20
7.9698533659
 30
0.0
 10
10.8629988268
 20
7.9743964531
 30
0.0
 10
10.9069659291
 20
7.9767664435
 30
0.0
 10
10.9511452373
 20
7.9769577397
 30
0.0
 10
10.9954303221
 20
7.9749699914
 30
0.0
 10
11.0397145155
 20
7.9708080932
 30
0.0
 10
11.0838911661
 20
7.9644821705
 30
0.0
 10
11.1278538946
 20
7.9560075538
 30
0.0
 10
11.1714968483
 20
7.9454047399
 30
0.0
 10
11.2147149537
 20
7.9326993407
 30
0.0
 10
11.2574041693
 20
7.9179220265
 30
0.0
 10
11.2994617372
 20
7.9011084531
 30
0.0
 10
11.3407864256
 20
7.8822991668
 30
0.0
 10
11.3812787719
 20
7.8615395082
 30
0.0
 10
11.42084132
 20
7.8388795025
 30
0.0
 10
11.4593788532
 20
7.8143737395
 30
0.0
 10
11.4967986219
 20
7.7880812423
 30
0.0
 10
11.5330105654
 20
7.7600653264
 30
0.0
 10
11.5679275265
 20
7.7303934465
 30
0.0
 10
11.6014654632
 20
7.6991370387
 30
0.0
 10
11.6335436543
 20
7.6663713525
 30
0.0
 10
11.6640848866
 20
7.6321752611
 30
0.0
 10
11.6930156391
 20
7.5966310789
 30
0.0
 10
11.7202662664
 20
7.5598243459
 30
0.0
 10
11.7457711358
 20
7.5218436894
 30
0.0
 10
11.7694688963
 20
7.4827803672
 30
0.0
 10
11.7913022078
 20
7.4427289597
 30
0.0
 10
11.8079087896
 20
7.4085896766
 30
0.0
 10
11.8202099954
 20
7.3808807701
 30
0.0
 10
11.8318355121
 20
7.3529555421
 30
0.0
 10
11.8451145267
 20
7.3176163992
 30
0.0
 10
11.8590115039
 20
7.2745951248
 30
0.0
 10
11.8708285628
 20
7.2310860047
 30
0.0
 10
11.8805370015
 20
7.1871941539
 30
0.0
 10
11.888113284
 20
7.1430257947
 30
0.0
 10
11.892638808
 20
7.1060441353
 30
0.0
 10
11.895174569
 20
7.0764285975
 30
0.0
 10
11.8969840964
 20
7.0468598682
 30
0.0
 10
11.8975300857
 20
7.024657354
 30
0.0
 10
11.8975300857
 20
7.0098719923
 30
0.0
  0
SPLINE
  5
375
100
AcDbEntity
  8
0
100
AcDbSpline
 62
7
  6
CONTINUOUS
 70
0
 71
3
 72
71
 73
67
 74
0
 42
0.0000001
 43
0.0000001
 44
0.0000000001
 40
0.0
 40
0.0
 40
0.0
 40
0.0
 40
0.0156285867
 40
0.0313077222
 40
0.0470353444
 40
0.0628112778
 40
0.0786338433
 40
0.0945012086
 40
0.1104112169
 40
0.1263613146
 40
0.1423486447
 40
0.1583700501
 40
0.1744221054
 40
0.1905011442
 40
0.2066032857
 40
0.2227244711
 40
0.2388604951
 40
0.2550070356
 40
0.2711596882
 40
0.2873140037
 40
0.3034655202
 40
0.319609795
 40
0.3357424422
 40
0.3518591675
 40
0.367955799
 40
0.3840283188
 40
0.4000728997
 40
0.4160859344
 40
0.4320640619
 40
0.4480041976
 40
0.4639035631
 40
0.4797597075
 40
0.4955705273
 40
0.5113342908
 40
0.5270496564
 40
0.5427156837
 40
0.5583318437
 40
0.5738980328
 40
0.5894145762
 40
0.6048822256
 40
0.6203021578
 40
0.6356759723
 40
0.6510056791
 40
0.666293681
 40
0.6815427575
 40
0.6967560453
 40
0.7119370097
 40
0.7270894126
 40
0.7422172818
 40
0.7573248766
 40
0.7724166464
 40
0.7874971882
 40
0.8025712054
 40
0.8176434646
 40
0.8327187492
 40
0.8478018123
 40
0.8628973332
 40
0.8780098752
 40
0.8931438415
 40
0.9083034321
 40
0.923492608
 40
0.9387150563
 40
0.9539741588
 40
0.9692729615
 40
0.9846141293
 40
1.0
 40
1.0
 40
1.0
 40
1.0
 10
8.4831257079
 20
9.135774801
 30
0.0
 10
8.4831257079
 20
9.1265668227
 30
0.0
 10
8.4835527251
 20
9.1081183038
 30
0.0
 10
8.4854653178
 20
9.0804631016
 30
0.0
 10
8.4886472946
 20
9.0528371546
 30
0.0
 10
8.4930914534
 20
9.0253006273
 30
0.0
 10
8.4987885168
 20
8.9979117241
 30
0.0
 10
8.5057261736
 20
8.9707290427
 30
0.0
 10
8.5138895567
 20
8.9438105365
 30
0.0
 10
8.523261286
 20
8.9172136403
 30
0.0
 10
8.5338213314
 20
8.8909950986
 30
0.0
 10
8.5455470822
 20
8.8652108134
 30
0.0
 10
8.5584135029
 20
8.8399157783
 30
0.0
 10
8.5723931794
 20
8.8151639741
 30
0.0
 10
8.5874562485
 20
8.7910081847
 30
0.0
 10
8.6035705261
 20
8.7674999069
 30
0.0
 10
8.6207016388
 20
8.7446892847
 30
0.0
 10
8.6388130857
 20
8.7226250121
 30
0.0
 10
8.6578661854
 20
8.7013541216
 30
0.0
 10
8.6778202741
 20
8.6809219648
 30
0.0
 10
8.6986328078
 20
8.6613721432
 30
0.0
 10
8.7202594266
 20
8.6427464029
 30
0.0
 10
8.7426539583
 20
8.6250844336
 30
0.0
 10
8.7657686329
 20
8.6084239071
 30
0.0
 10
8.7895541763
 20
8.5928004093
 30
0.0
 10
8.8139598691
 20
8.5782473082
 30
0.0
 10
8.8389336248
 20
8.5647956137
 30
0.0
 10
8.8644221801
 20
8.5524740397
 30
0.0
 10
8.8903711947
 20
8.5413089508
 30
0.0
 10
8.9167253133
 20
8.5313241919
 30
0.0
 10
8.9434283024
 20
8.5225410485
 30
0.0
 10
8.9704232053
 20
8.5149783017
 30
0.0
 10
8.9976524486
 20
8.5086521924
 30
0.0
 10
9.0250579261
 20
8.5035762254
 30
0.0
 10
9.0525811592
 20
8.4997612409
 30
0.0
 10
9.0801634222
 20
8.4972154464
 30
0.0
 10
9.1077458537
 20
8.495944389
 30
0.0
 10
9.135269577
 20
8.495950772
 30
0.0
 10
9.1626758438
 20
8.4972346135
 30
0.0
 10
9.1899061448
 20
8.4997932616
 30
0.0
 10
9.21690233
 20
8.5036213505
 30
0.0
 10
9.2436067576
 20
8.5087106915
 30
0.0
 10
9.2699624001
 20
8.515050461
 30
0.0
 10
9.2959129481
 20
8.5226272212
 30
0.0
 10
9.3214029545
 20
8.5314248475
 30
0.0
 10
9.3463779778
 20
8.5414245332
 30
0.0
 10
9.3707846549
 20
8.5526049606
 30
0.0
 10
9.3945707986
 20
8.5649423401
 30
0.0
 10
9.4176855795
 20
8.5784103206
 30
0.0
 10
9.4400796195
 20
8.5929801107
 30
0.0
 10
9.4617050509
 20
8.6086206114
 30
0.0
 10
9.4825156081
 20
8.6252984704
 30
0.0
 10
9.5024668424
 20
8.6429780131
 30
0.0
 10
9.5215161367
 20
8.661621442
 30
0.0
 10
9.5396227665
 20
8.6811889369
 30
0.0
 10
9.5567479985
 20
8.7016387136
 30
0.0
 10
9.5728552984
 20
8.7229270162
 30
0.0
 10
9.5879102777
 20
8.7450083368
 30
0.0
 10
9.6018807531
 20
8.7678355049
 30
0.0
 10
9.614736874
 20
8.7913597434
 30
0.0
 10
9.6264512627
 20
8.8155307375
 30
0.0
 10
9.6369989393
 20
8.8402968499
 30
0.0
 10
9.6463573482
 20
8.8656051296
 30
0.0
 10
9.6545065808
 20
8.8914016999
 30
0.0
 10
9.6614291965
 20
8.9176306595
 30
0.0
 10
9.6652114323
 20
8.9353430095
 30
0.0
 10
9.6668942081
 20
8.9442504253
 30
0.0
  0
SPLINE
  5
376
100
AcDbEntity
  8
0
100
AcDbSpline
 62
7
  6
CONTINUOUS
 70
0
 71
3
 72
71
 73
67
 74
0
 42
0.0000001
 43
0.0000001
 44
0.0000000001
 40
0.0
 40
0.0
 40
0.0
 40
0.0
 40
0.0156234292
 40
0.0312966177
 40
0.0470173016
 40
0.0627854457
 40
0.0785994895
 40
0.0944576498
 40
0.1103579078
 40
0.1262978414
 40
0.142274737
 40
0.1582856039
 40
0.1743271871
 40
0.1903959969
 40
0.2064883407
 40
0.2226003498
 40
0.2387280055
 40
0.2548671729
 40
0.2710136342
 40
0.2871631146
 40
0.3033113163
 40
0.319453954
 40
0.3355867824
 40
0.3517056268
 40
0.36780642
 40
0.3838852298
 40
0.3999382855
 40
0.4159620129
 40
0.4319530616
 40
0.4479083267
 40
0.4638249775
 40
0.4797004851
 40
0.495532638
 40
0.5113195616
 40
0.5270597429
 40
0.5427520411
 40
0.5583956963
 40
0.5739903457
 40
0.58953603
 40
0.6050331915
 40
0.620482676
 40
0.6358857353
 40
0.6512440143
 40
0.6665595386
 40
0.6818347069
 40
0.697072271
 40
0.7122753102
 40
0.7274472097
 40
0.7425916347
 40
0.7577124963
 40
0.7728139149
 40
0.7879001894
 40
0.8029757574
 40
0.8180451521
 40
0.8331129619
 40
0.8481837924
 40
0.8632622215
 40
0.8783527553
 40
0.8934597907
 40
0.9085875769
 40
0.9237401741
 40
0.9389214172
 40
0.9541348867
 40
0.9693838786
 40
0.9846713749
 40
1.0
 40
1.0
 40
1.0
 40
1.0
 10
8.5815218437
 20
9.1857561844
 30
0.0
 10
8.5815218437
 20
9.1773791033
 30
0.0
 10
8.5819030708
 20
9.1605958247
 30
0.0
 10
8.5836106581
 20
9.1354355773
 30
0.0
 10
8.586451767
 20
9.1102994508
 30
0.0
 10
8.5904202161
 20
9.0852402487
 30
0.0
 10
8.595507964
 20
9.0603089187
 30
0.0
 10
8.6017044501
 20
9.0355568315
 30
0.0
 10
8.6089969075
 20
9.0110348325
 30
0.0
 10
8.6173704034
 20
8.9867933117
 30
0.0
 10
8.6268076163
 20
8.9628820496
 30
0.0
 10
8.6372891289
 20
8.9393501589
 30
0.0
 10
8.6487934633
 20
8.9162460141
 30
0.0
 10
8.6612969196
 20
8.8936170577
 30
0.0
 10
8.6747737543
 20
8.8715097467
 30
0.0
 10
8.6891963162
 20
8.8499695192
 30
0.0
 10
8.7045349886
 20
8.8290406422
 30
0.0
 10
8.7207581861
 20
8.8087660592
 30
0.0
 10
8.7378325878
 20
8.789187422
 30
0.0
 10
8.7557231745
 20
8.7703450066
 30
0.0
 10
8.7743931382
 20
8.7522774758
 30
0.0
 10
8.7938041084
 20
8.7350219253
 30
0.0
 10
8.8139162589
 20
8.718613861
 30
0.0
 10
8.8346882724
 20
8.7030870002
 30
0.0
 10
8.8560774398
 20
8.6884731933
 30
0.0
 10
8.878039846
 20
8.6748024972
 30
0.0
 10
8.9005304123
 20
8.6621030737
 30
0.0
 10
8.9235028975
 20
8.6504009598
 30
0.0
 10
8.9469101124
 20
8.6397202054
 30
0.0
 10
8.9707040071
 20
8.6300828537
 30
0.0
 10
8.9948356861
 20
8.6215087039
 30
0.0
 10
9.019255558
 20
8.6140153486
 30
0.0
 10
9.0439134694
 20
8.6076182628
 30
0.0
 10
9.0687587651
 20
8.6023306726
 30
0.0
 10
9.0937403748
 20
8.5981633975
 30
0.0
 10
9.1188069686
 20
8.5951250445
 30
0.0
 10
9.1439070391
 20
8.5932219864
 30
0.0
 10
9.168988988
 20
8.5924581163
 30
0.0
 10
9.1940012608
 20
8.5928350092
 30
0.0
 10
9.218892437
 20
8.5943520021
 30
0.0
 10
9.2436113324
 20
8.5970060368
 30
0.0
 10
9.2681071256
 20
8.6007916224
 30
0.0
 10
9.2923294404
 20
8.6057010418
 30
0.0
 10
9.3162284345
 20
8.6117243215
 30
0.0
 10
9.3397549612
 20
8.6188490343
 30
0.0
 10
9.3628606292
 20
8.6270605467
 30
0.0
 10
9.385497868
 20
8.6363420809
 30
0.0
 10
9.4076200961
 20
8.6466745569
 30
0.0
 10
9.4291818162
 20
8.6580366866
 30
0.0
 10
9.4501386352
 20
8.6704051568
 30
0.0
 10
9.4704473827
 20
8.6837545893
 30
0.0
 10
9.4900663049
 20
8.6980574538
 30
0.0
 10
9.5089550272
 20
8.7132843305
 30
0.0
 10
9.5270746136
 20
8.7294039605
 30
0.0
 10
9.5443878023
 20
8.7463831318
 30
0.0
 10
9.5608590013
 20
8.7641868688
 30
0.0
 10
9.5764542755
 20
8.7827785719
 30
0.0
 10
9.5911415125
 20
8.8021199898
 30
0.0
 10
9.6048905701
 20
8.8221712579
 30
0.0
 10
9.6176731659
 20
8.8428911179
 30
0.0
 10
9.6294629431
 20
8.8642369625
 30
0.0
 10
9.6402357386
 20
8.8861648304
 30
0.0
 10
9.6499694353
 20
8.9086295363
 30
0.0
 10
9.6586440264
 20
8.9315850665
 30
0.0
 10
9.6662415054
 20
8.954983497
 30
0.0
 10
9.6705725281
 20
8.9708252309
 30
0.0
 10
9.6725540274
 20
8.9788018091
 30
0.0
  0
SPLINE
  5
377
100
AcDbEntity
  8
0
100
AcDbSpline
 62
7
  6
CONTINUOUS
 70
0
 71
3
 72
47
 73
43
 74
0
 42
0.0000001
 43
0.0000001
 44
0.0000000001
 40
0.0
 40
0.0
 40
0.0
 40
0.0
 40
0.0310739034
 40
0.0623050262
 40
0.0936888077
 40
0.1252165019
 40
0.1568767972
 40
0.1886554884
 40
0.2205359758
 40
0.2524995839
 40
0.2845259639
 40
0.3165935105
 40
0.3486797989
 40
0.3807620322
 40
0.4128174938
 40
0.4448239996
 40
0.4767603414
 40
0.5086067178
 40
0.5403451454
 40
0.5719598413
 40
0.6034375718
 40
0.6347679592
 40
0.6659437387
 40
0.6969609585
 40
0.727819116
 40
0.7585212216
 40
0.773818428
 40
0.7890793503
 40
0.8043053375
 40
0.8194979308
 40
0.834658876
 40
0.8497900958
 40
0.8648936937
 40
0.8799719355
 40
0.895027236
 40
0.9100621526
 40
0.9250793584
 40
0.9400816409
 40
0.9550718723
 40
0.9700530007
 40
0.9850280307
 40
1.0
 40
1.0
 40
1.0
 40
1.0
 10
8.6598295823
 20
9.1974576469
 30
0.0
 10
8.6598295823
 20
9.1852733338
 30
0.0
 10
8.6607385019
 20
9.1608336842
 30
0.0
 10
8.6647966488
 20
9.1242911998
 30
0.0
 10
8.6715301032
 20
9.0879632922
 30
0.0
 10
8.680901673
 20
9.0520520236
 30
0.0
 10
8.692859438
 20
9.0167539159
 30
0.0
 10
8.7073374944
 20
8.9822628828
 30
0.0
 10
8.7242560955
 20
8.9487681587
 30
0.0
 10
8.7435221822
 20
8.916453555
 30
0.0
 10
8.7650298494
 20
8.8854963788
 30
0.0
 10
8.7886609352
 20
8.8560664909
 30
0.0
 10
8.8142856756
 20
8.8283253869
 30
0.0
 10
8.8417634071
 20
8.8024253209
 30
0.0
 10
8.870943332
 20
8.7785084792
 30
0.0
 10
8.901665336
 20
8.7567062085
 30
0.0
 10
8.9337608563
 20
8.7371383007
 30
0.0
 10
8.9670537948
 20
8.7199123408
 30
0.0
 10
9.0013614629
 20
8.7051230999
 30
0.0
 10
9.0364955854
 20
8.6928520326
 30
0.0
 10
9.0722633065
 20
8.683166827
 30
0.0
 10
9.1084682764
 20
8.6761210363
 30
0.0
 10
9.1449115508
 20
8.6717537457
 30
0.0
 10
9.1813932691
 20
8.6700894596
 30
0.0
 10
9.2177115133
 20
8.6711375248
 30
0.0
 10
9.2477160758
 20
8.6742715612
 30
0.0
 10
9.271430301
 20
8.678125759
 30
0.0
 10
9.2890318039
 20
8.6816805681
 30
0.0
 10
9.3064440083
 20
8.6858978136
 30
0.0
 10
9.3236432463
 20
8.6907718845
 30
0.0
 10
9.3406058268
 20
8.6962958698
 30
0.0
 10
9.3573083578
 20
8.7024624179
 30
0.0
 10
9.3737279245
 20
8.7092628432
 30
0.0
 10
9.3898418735
 20
8.7166879538
 30
0.0
 10
9.4056280561
 20
8.7247274708
 30
0.0
 10
9.4210647612
 20
8.7333703222
 30
0.0
 10
9.4361306794
 20
8.7426047248
 30
0.0
 10
9.4508051854
 20
8.752417815
 30
0.0
 10
9.4650679263
 20
8.7627962781
 30
0.0
 10
9.4788994876
 20
8.7737257023
 30
0.0
 10
9.4922804355
 20
8.7851909674
 30
0.0
 10
9.5008894093
 20
8.7931819949
 30
0.0
 10
9.5051118722
 20
8.7972605999
 30
0.0
  0
SPLINE
  5
378
100
AcDbEntity
  8
0
100
AcDbSpline
 62
7
  6
CONTINUOUS
 70
0
 71
3
 72
22
 73
18
 74
0
 42
0.0000001
 43
0.0000001
 44
0.0000000001
 40
0.0
 40
0.0
 40
0.0
 40
0.0
 40
0.0598698555
 40
0.1210396016
 40
0.1831547693
 40
0.2458898809
 40
0.30898294
 40
0.3722420771
 40
0.4987630902
 40
0.5619140436
 40
0.6249393787
 40
0.6878240091
 40
0.7505609181
 40
0.8131472915
 40
0.8755814887
 40
0.9378689758
 40
1.0
 40
1.0
 40
1.0
 40
1.0
 10
9.3315139393
 20
9.5153889003
 30
0.0
 10
9.3290418153
 20
9.5121620906
 30
0.0
 10
9.3239308664
 20
9.5057242647
 30
0.0
 10
9.315883425
 20
9.4962410499
 30
0.0
 10
9.307403835
 20
9.4868777429
 30
0.0
 10
9.2985330745
 20
9.4777016514
 30
0.0
 10
9.289304166
 20
9.4687731044
 30
0.0
 10
9.2765564785
 20
9.4572683637
 30
0.0
 10
9.2631893829
 20
9.4464563432
 30
0.0
 10
9.2492393924
 20
9.4364618487
 30
0.0
 10
9.2385085247
 20
9.4294104905
 30
0.0
 10
9.2275173932
 20
9.4228266572
 30
0.0
 10
9.216279856
 20
9.4167345335
 30
0.0
 10
9.2048119908
 20
9.4111571146
 30
0.0
 10
9.193131524
 20
9.406115672
 30
0.0
 10
9.181259428
 20
9.4016308064
 30
0.0
 10
9.1732212796
 20
9.3990205764
 30
0.0
 10
9.169178833
 20
9.3978147452
 30
0.0
  0
SPLINE
  5
379
100
AcDbEntity
  8
0
100
AcDbSpline
 62
7
  6
CONTINUOUS
 70
0
 71
3
 72
28
 73
24
 74
0
 42
0.0000001
 43
0.0000001
 44
0.0000000001
 40
0.0
 40
0.0
 40
0.0
 40
0.0
 40
0.0637758949
 40
0.0955879076
 40
0.127346217
 40
0.1907019662
 40
0.2538545319
 40
0.2853587842
 40
0.316814822
 40
0.3795821874
 40
0.442171929
 40
0.5045963366
 40
0.5668693232
 40
0.6290062991
 40
0.6910240354
 40
0.7219962854
 40
0.7529455518
 40
0.8147797326
 40
0.8765514543
 40
0.9074228156
 40
0.9382862776
 40
0.9691444601
 40
1.0
 40
1.0
 40
1.0
 40
1.0
 10
10.1825868665
 20
7.1483639948
 30
0.0
 10
10.1825868665
 20
7.1616482305
 30
0.0
 10
10.1830642106
 20
7.1815631947
 30
0.0
 10
10.1846611373
 20
7.2080425931
 30
0.0
 10
10.1868921165
 20
7.2343888034
 30
0.0
 10
10.1908707529
 20
7.2671280019
 30
0.0
 10
10.1964382502
 20
7.2995813212
 30
0.0
 10
10.2018346965
 20
7.3252921988
 30
0.0
 10
10.2078463646
 20
7.350783719
 30
0.0
 10
10.2165234264
 20
7.3822887496
 30
0.0
 10
10.2287815455
 20
7.4194491532
 30
0.0
 10
10.2428499873
 20
7.4558528824
 30
0.0
 10
10.2586963455
 20
7.4914155486
 30
0.0
 10
10.2762838377
 20
7.5260547434
 30
0.0
 10
10.2923653447
 20
7.5540984594
 30
0.0
 10
10.306056781
 20
7.5759876124
 30
0.0
 10
10.3202817853
 20
7.5974880621
 30
0.0
 10
10.3390709217
 20
7.6236477593
 30
0.0
 10
10.3591669133
 20
7.6487968669
 30
0.0
 10
10.3759904072
 20
7.6682625106
 30
0.0
 10
10.3889742764
 20
7.6825272599
 30
0.0
 10
10.4023181491
 20
7.6964509167
 30
0.0
 10
10.4114495327
 20
7.7055010151
 30
0.0
 10
10.4160722355
 20
7.7099661996
 30
0.0
  0
SPLINE
  5
37A
100
AcDbEntity
  8
0
100
AcDbSpline
 62
7
  6
CONTINUOUS
 70
0
 71
3
 72
38
 73
34
 74
0
 42
0.0000001
 43
0.0000001
 44
0.0000000001
 40
0.0
 40
0.0
 40
0.0
 40
0.0
 40
0.1099355118
 40
0.2147413751
 40
0.314166511
 40
0.4079598948
 40
0.4958649161
 40
0.5776138847
 40
0.6529259117
 40
0.7215067326
 40
0.7531777387
 40
0.7830501581
 40
0.81108407
 40
0.837240452
 40
0.8614800746
 40
0.8837651389
 40
0.9040603935
 40
0.9223338005
 40
0.9385596925
 40
0.9459001488
 40
0.9527242551
 40
0.959032921
 40
0.9648289893
 40
0.970118027
 40
0.9749094502
 40
0.9792181243
 40
0.9830669686
 40
0.9864909426
 40
0.9895427924
 40
0.9922999488
 40
0.994869942
 40
0.9973878152
 40
1.0
 40
1.0
 40
1.0
 40
1.0
 10
10.5251268444
 20
7.7967989654
 30
0.0
 10
10.5230706353
 20
7.7942761087
 30
0.0
 10
10.5190531706
 20
7.7893489191
 30
0.0
 10
10.5131627
 20
7.7821509891
 30
0.0
 10
10.5075525113
 20
7.7753412474
 30
0.0
 10
10.5022288089
 20
7.7689438702
 30
0.0
 10
10.4971990003
 20
7.7629829216
 30
0.0
 10
10.4924721335
 20
7.7574825676
 30
0.0
 10
10.4880590697
 20
7.7524674127
 30
0.0
 10
10.4845670261
 20
7.7486172522
 30
0.0
 10
10.4819361696
 20
7.7458030547
 30
0.0
 10
10.480103266
 20
7.7438863764
 30
0.0
 10
10.4783599983
 20
7.7421101452
 30
0.0
 10
10.4767086847
 20
7.7404776632
 30
0.0
 10
10.4751519418
 20
7.7389920388
 30
0.0
 10
10.4736924659
 20
7.7376563996
 30
0.0
 10
10.4723330343
 20
7.736473812
 30
0.0
 10
10.4710766918
 20
7.7354471363
 30
0.0
 10
10.4700876695
 20
7.7347006066
 30
0.0
 10
10.4693489117
 20
7.7341868835
 30
0.0
 10
10.46884128
 20
7.733855514
 30
0.0
 10
10.4683617499
 20
7.7335652882
 30
0.0
 10
10.4679106958
 20
7.7333165145
 30
0.0
 10
10.4674884835
 20
7.7331094734
 30
0.0
 10
10.4670954657
 20
7.7329443814
 30
0.0
 10
10.4667319269
 20
7.7328214589
 30
0.0
 10
10.4663980523
 20
7.7327409614
 30
0.0
 10
10.4660938921
 20
7.7327032788
 30
0.0
 10
10.4658194173
 20
7.7327091082
 30
0.0
 10
10.4655748355
 20
7.7327596179
 30
0.0
 10
10.4653612979
 20
7.7328564336
 30
0.0
 10
10.4651813707
 20
7.7330001349
 30
0.0
 10
10.4650883763
 20
7.7331222165
 30
0.0
 10
10.4650481329
 20
7.7331882547
 30
0.0
  0
SPLINE
  5
37B
100
AcDbEntity
  8
0
100
AcDbSpline
 62
7
  6
CONTINUOUS
 70
0
 71
3
 72
45
 73
41
 74
0
 42
0.0000001
 43
0.0000001
 44
0.0000000001
 40
0.0
 40
0.0
 40
0.0
 40
0.0
 40
0.0308888763
 40
0.0619149959
 40
0.0930753644
 40
0.1243640716
 40
0.1557734808
 40
0.1872939167
 40
0.2189139717
 40
0.2506206707
 40
0.2823996921
 40
0.3142355978
 40
0.3461120772
 40
0.3780122001
 40
0.409918676
 40
0.4418141177
 40
0.4736813058
 40
0.5055034513
 40
0.5372644542
 40
0.5689491544
 40
0.6005435716
 40
0.6320351322
 40
0.6634128795
 40
0.6946676637
 40
0.7257923093
 40
0.7567817559
 40
0.7722268217
 40
0.7876372148
 40
0.8030129446
 40
0.8183541596
 40
0.8336611625
 40
0.8489343971
 40
0.8641744555
 40
0.8793820745
 40
0.9096993754
 40
0.9398991779
 40
0.9549604764
 40
0.9699965997
 40
0.9850091916
 40
1.0
 40
1.0
 40
1.0
 40
1.0
 10
10.5198278039
 20
7.4741137453
 30
0.0
 10
10.5198278039
 20
7.4560796724
 30
0.0
 10
10.5210043447
 20
7.419920725
 30
0.0
 10
10.5262636173
 20
7.365799505
 30
0.0
 10
10.5349985648
 20
7.3118911199
 30
0.0
 10
10.5471722507
 20
7.2584253572
 30
0.0
 10
10.5627330123
 20
7.2056264921
 30
0.0
 10
10.5816151343
 20
7.1537168535
 30
0.0
 10
10.6037389052
 20
7.1029147572
 30
0.0
 10
10.6290110455
 20
7.0534339083
 30
0.0
 10
10.6573250532
 20
7.0054824156
 30
0.0
 10
10.6885616695
 20
6.9592619507
 30
0.0
 10
10.7225893854
 20
6.9149669068
 30
0.0
 10
10.7592649897
 20
6.8727835892
 30
0.0
 10
10.7984341683
 20
6.8328894392
 30
0.0
 10
10.8399321465
 20
6.7954522941
 30
0.0
 10
10.8835843788
 20
6.7606296886
 30
0.0
 10
10.9292072695
 20
6.7285681893
 30
0.0
 10
10.9766089345
 20
6.6994027727
 30
0.0
 10
11.0255900168
 20
6.6732562765
 30
0.0
 10
11.0759445014
 20
6.650238883
 30
0.0
 10
11.1274606199
 20
6.6304476549
 30
0.0
 10
11.1799215539
 20
6.6139661343
 30
0.0
 10
11.2331069956
 20
6.6008639621
 30
0.0
 10
11.2867916177
 20
6.5911966774
 30
0.0
 10
11.3318121947
 20
6.5860311717
 30
0.0
 10
11.367846535
 20
6.5836560546
 30
0.0
 10
11.3948279006
 20
6.5827538151
 30
0.0
 10
11.421763459
 20
6.5827298033
 30
0.0
 10
11.4486251808
 20
6.583584224
 30
0.0
 10
11.4753847033
 20
6.5853159762
 30
0.0
 10
11.5020137527
 20
6.587923423
 30
0.0
 10
11.52848463
 20
6.5914037829
 30
0.0
 10
11.5634908793
 20
6.5971965493
 30
0.0
 10
11.6067273011
 20
6.6065951593
 30
0.0
 10
11.6491514517
 20
6.6188598341
 30
0.0
 10
11.6824340093
 20
6.6303478543
 30
0.0
 10
11.7070277518
 20
6.639785237
 30
0.0
 10
11.7312464186
 20
6.6500407631
 30
0.0
 10
11.7471371584
 20
6.657421557
 30
0.0
 10
11.7550103645
 20
6.6612443132
 30
0.0
  0
SPLINE
  5
37C
100
AcDbEntity
  8
0
100
AcDbSpline
 62
7
  6
CONTINUOUS
 70
0
 71
3
 72
15
 73
11
 74
0
 42
0.0000001
 43
0.0000001
 44
0.0000000001
 40
0.0
 40
0.0
 40
0.0
 40
0.0
 40
0.1266657107
 40
0.2528159899
 40
0.3784623416
 40
0.5036223797
 40
0.6283213213
 40
0.7525908691
 40
0.876469128
 40
1.0
 40
1.0
 40
1.0
 40
1.0
 10
10.5198278039
 20
7.4741137453
 30
0.0
 10
10.5198278039
 20
7.4904238739
 30
0.0
 10
10.5207859834
 20
7.5229861425
 30
0.0
 10
10.5251136755
 20
7.5715540417
 30
0.0
 10
10.5323139987
 20
7.6195858852
 30
0.0
 10
10.5423622513
 20
7.66691251
 30
0.0
 10
10.5552236136
 20
7.7133696891
 30
0.0
 10
10.5708539126
 20
7.7587962166
 30
0.0
 10
10.5891978534
 20
7.8030318501
 30
0.0
 10
10.6032144437
 20
7.8316674822
 30
0.0
 10
10.6106504445
 20
7.8457288371
 30
0.0
  0
SPLINE
  5
37D
100
AcDbEntity
  8
0
100
AcDbSpline
 62
7
  6
CONTINUOUS
 70
0
 71
3
 72
21
 73
17
 74
0
 42
0.0000001
 43
0.0000001
 44
0.0000000001
 40
0.0
 40
0.0
 40
0.0
 40
0.0
 40
0.1267811194
 40
0.2529974271
 40
0.3159071122
 40
0.3786820335
 40
0.4413252199
 40
0.5038406716
 40
0.5662328071
 40
0.6285064862
 40
0.6906671687
 40
0.7527208059
 40
0.8146738218
 40
0.8765330958
 40
0.9383059209
 40
1.0
 40
1.0
 40
1.0
 40
1.0
 10
10.5449418769
 20
7.4723720784
 30
0.0
 10
10.5449418769
 20
7.4896909668
 30
0.0
 10
10.5460556508
 20
7.5242615446
 30
0.0
 10
10.5502544576
 20
7.5672434811
 30
0.0
 10
10.5552860988
 20
7.6012898376
 30
0.0
 10
10.5598860156
 20
7.6266066626
 30
0.0
 10
10.5653110794
 20
7.6517042897
 30
0.0
 10
10.5715557939
 20
7.6765568079
 30
0.0
 10
10.578613445
 20
7.7011383043
 30
0.0
 10
10.5864769424
 20
7.7254230925
 30
0.0
 10
10.5951378444
 20
7.7493859167
 30
0.0
 10
10.6045873528
 20
7.7730017221
 30
0.0
 10
10.6148154455
 20
7.7962459193
 30
0.0
 10
10.6258116156
 20
7.8190943185
 30
0.0
 10
10.6375641814
 20
7.8415227632
 30
0.0
 10
10.6459007587
 20
7.8561890571
 30
0.0
 10
10.6501904882
 20
7.8634433179
 30
0.0
  0
SPLINE
  5
37E
100
AcDbEntity
  8
0
100
AcDbSpline
 62
7
  6
CONTINUOUS
 70
0
 71
3
 72
21
 73
17
 74
0
 42
0.0000001
 43
0.0000001
 44
0.0000000001
 40
0.0
 40
0.0
 40
0.0
 40
0.0
 40
0.1268496787
 40
0.2531064616
 40
0.3160276163
 40
0.3788078695
 40
0.4414509476
 40
0.5039614291
 40
0.5663443396
 40
0.6286053272
 40
0.6907506632
 40
0.752787199
 40
0.8147222916
 40
0.8765638244
 40
0.9383201393
 40
1.0
 40
1.0
 40
1.0
 40
1.0
 10
10.5746403551
 20
7.4800586072
 30
0.0
 10
10.5746403551
 20
7.4977784008
 30
0.0
 10
10.575836296
 20
7.5331464062
 30
0.0
 10
10.5803458731
 20
7.5770982686
 30
0.0
 10
10.5857486993
 20
7.6118835624
 30
0.0
 10
10.5906869746
 20
7.6377316452
 30
0.0
 10
10.5965098018
 20
7.663335883
 30
0.0
 10
10.6032107162
 20
7.6886671603
 30
0.0
 10
10.6107818811
 20
7.7136963387
 30
0.0
 10
10.6192146812
 20
7.7383946625
 30
0.0
 10
10.6284994808
 20
7.7627337246
 30
0.0
 10
10.6386254899
 20
7.7866856254
 30
0.0
 10
10.6495812709
 20
7.8102227278
 30
0.0
 10
10.661354102
 20
7.8333181793
 30
0.0
 10
10.673930397
 20
7.8559449824
 30
0.0
 10
10.6828461968
 20
7.870709136
 30
0.0
 10
10.6874325223
 20
7.8780032063
 30
0.0
  0
SPLINE
  5
37F
100
AcDbEntity
  8
0
100
AcDbSpline
 62
7
  6
CONTINUOUS
 70
0
 71
3
 72
15
 73
11
 74
0
 42
0.0000001
 43
0.0000001
 44
0.0000000001
 40
0.0
 40
0.0
 40
0.0
 40
0.0
 40
0.126624159
 40
0.2527485726
 40
0.3783827735
 40
0.5035435336
 40
0.6282536459
 40
0.7525422464
 40
0.8764442497
 40
1.0
 40
1.0
 40
1.0
 40
1.0
 10
10.6459777959
 20
7.5489652877
 30
0.0
 10
10.6459777959
 20
7.5639321153
 30
0.0
 10
10.6468312657
 20
7.59381394
 30
0.0
 10
10.6506856611
 20
7.6383958501
 30
0.0
 10
10.6570993232
 20
7.682509084
 30
0.0
 10
10.6660514353
 20
7.7260072388
 30
0.0
 10
10.6775128297
 20
7.7687481861
 30
0.0
 10
10.6914463988
 20
7.8105922093
 30
0.0
 10
10.7078056915
 20
7.8514003001
 30
0.0
 10
10.720311805
 20
7.8778643108
 30
0.0
 10
10.7269485794
 20
7.8908733186
 30
0.0
  0
SPLINE
  5
380
100
AcDbEntity
  8
0
100
AcDbSpline
 62
7
  6
CONTINUOUS
 70
0
 71
3
 72
15
 73
11
 74
0
 42
0.0000001
 43
0.0000001
 44
0.0000000001
 40
0.0
 40
0.0
 40
0.0
 40
0.0
 40
0.1268350498
 40
0.2530891189
 40
0.3787796254
 40
0.5039312012
 40
0.6285798738
 40
0.7527705364
 40
0.8765568173
 40
1.0
 40
1.0
 40
1.0
 40
1.0
 10
10.7439573731
 20
7.5636062974
 30
0.0
 10
10.7439573731
 20
7.5792638319
 30
0.0
 10
10.7449930771
 20
7.6105174195
 30
0.0
 10
10.7496724695
 20
7.6570761298
 30
0.0
 10
10.7574536864
 20
7.7030097536
 30
0.0
 10
10.7683029787
 20
7.7481130487
 30
0.0
 10
10.7821726219
 20
7.7921873317
 30
0.0
 10
10.7990022145
 20
7.8350384653
 30
0.0
 10
10.8187161663
 20
7.8764746072
 30
0.0
 10
10.8337458669
 20
7.9030716544
 30
0.0
 10
10.8417070995
 20
7.9160655094
 30
0.0
  0
SPLINE
  5
381
100
AcDbEntity
  8
0
100
AcDbSpline
 62
7
  6
CONTINUOUS
 70
0
 71
3
 72
54
 73
50
 74
0
 42
0.0000001
 43
0.0000001
 44
0.0000000001
 40
0.0
 40
0.0
 40
0.0
 40
0.0
 40
0.0310727687
 40
0.0623027624
 40
0.0936853542
 40
0.1252119093
 40
0.1568710383
 40
0.1886485643
 40
0.2205278811
 40
0.252490316
 40
0.2845155201
 40
0.3165818895
 40
0.3486670004
 40
0.3807480565
 40
0.4128023418
 40
0.4448076724
 40
0.4767428412
 40
0.5085880489
 40
0.540325312
 40
0.5561509395
 40
0.571943869
 40
0.5877025314
 40
0.6034255324
 40
0.619111668
 40
0.6347599297
 40
0.6503695068
 40
0.6659398003
 40
0.6814704224
 40
0.6969611984
 40
0.7124121766
 40
0.7278236235
 40
0.7431960234
 40
0.7585300847
 40
0.7738267293
 40
0.7890870919
 40
0.8043125193
 40
0.8195045564
 40
0.8346649434
 40
0.8497956089
 40
0.8648986525
 40
0.8799763399
 40
0.8950310892
 40
0.9100654528
 40
0.9250821079
 40
0.9400838397
 40
0.9550735208
 40
0.9700540994
 40
0.9850285795
 40
1.0
 40
1.0
 40
1.0
 40
1.0
 10
10.1825868665
 20
7.1483639948
 30
0.0
 10
10.1825868665
 20
7.1277535906
 30
0.0
 10
10.1841243672
 20
7.0864126362
 30
0.0
 10
10.1909889085
 20
7.0245991282
 30
0.0
 10
10.2023788827
 20
6.9631485796
 30
0.0
 10
10.218231362
 20
6.9024028085
 30
0.0
 10
10.2384585887
 20
6.8426942256
 30
0.0
 10
10.2629489646
 20
6.7843508458
 30
0.0
 10
10.2915676638
 20
6.727692776
 30
0.0
 10
10.3241572791
 20
6.6730309576
 30
0.0
 10
10.3605385994
 20
6.6206652707
 30
0.0
 10
10.4005117761
 20
6.5708830538
 30
0.0
 10
10.4438573752
 20
6.5239575426
 30
0.0
 10
10.4903373913
 20
6.480146244
 30
0.0
 10
10.5396967675
 20
6.4396896387
 30
0.0
 10
10.591664561
 20
6.4028100133
 30
0.0
 10
10.645956159
 20
6.3697097914
 30
0.0
 10
10.7022716325
 20
6.3405715959
 30
0.0
 10
10.7506841101
 20
6.3197023789
 30
0.0
 10
10.7901130671
 20
6.3051438154
 30
0.0
 10
10.8199685273
 20
6.2953139814
 30
0.0
 10
10.8500909261
 20
6.2865779341
 30
0.0
 10
10.8804393506
 20
6.2789476173
 30
0.0
 10
10.9109719261
 20
6.2724334861
 30
0.0
 10
10.9416467154
 20
6.2670445023
 30
0.0
 10
10.9724215536
 20
6.2627882139
 30
0.0
 10
11.0032541101
 20
6.2596703616
 30
0.0
 10
11.0341019997
 20
6.2576952984
 30
0.0
 10
11.0649228057
 20
6.2568658453
 30
0.0
 10
11.0956741409
 20
6.2571830305
 30
0.0
 10
11.1263137187
 20
6.2586465233
 30
0.0
 10
11.1567993927
 20
6.2612543743
 30
0.0
 10
11.1870892445
 20
6.2650028971
 30
0.0
 10
11.2171415992
 20
6.2698870717
 30
0.0
 10
11.2469151124
 20
6.2759001952
 30
0.0
 10
11.2763688475
 20
6.2830339207
 30
0.0
 10
11.305462252
 20
6.2912785876
 30
0.0
 10
11.3341553064
 20
6.3006228206
 30
0.0
 10
11.3624085552
 20
6.3110537211
 30
0.0
 10
11.3901830703
 20
6.3225570905
 30
0.0
 10
11.4174406629
 20
6.3351170277
 30
0.0
 10
11.4441438382
 20
6.3487162431
 30
0.0
 10
11.4702557825
 20
6.3633361586
 30
0.0
 10
11.4957406148
 20
6.3789565537
 30
0.0
 10
11.5205632655
 20
6.3955559682
 30
0.0
 10
11.5446894731
 20
6.4131116261
 30
0.0
 10
11.5680862316
 20
6.4315993757
 30
0.0
 10
11.5907208681
 20
6.450993393
 30
0.0
 10
11.6052833337
 20
6.4645106996
 30
0.0
 10
11.6124258688
 20
6.4714098531
 30
0.0
  0
SPLINE
  5
382
100
AcDbEntity
  8
0
100
AcDbSpline
 62
7
  6
CONTINUOUS
 70
0
 71
3
 72
42
 73
38
 74
0
 42
0.0000001
 43
0.0000001
 44
0.0000000001
 40
0.0
 40
0.0
 40
0.0
 40
0.0
 40
0.0309184643
 40
0.0619772156
 40
0.0931730516
 40
0.1244996761
 40
0.1559489503
 40
0.1875105785
 40
0.2191724359
 40
0.2509207537
 40
0.282740362
 40
0.3146149438
 40
0.3465273025
 40
0.3784596397
 40
0.4103938395
 40
0.4423117563
 40
0.4741955028
 40
0.5060277362
 40
0.537791937
 40
0.5694726796
 40
0.6010558891
 40
0.632529082
 40
0.6638815874
 40
0.6951047439
 40
0.7261920699
 40
0.7571394018
 40
0.7879449962
 40
0.8186095932
 40
0.8491364377
 40
0.8795312551
 40
0.9098021802
 40
0.924896619
 40
0.9399641769
 40
0.9550064871
 40
0.9700253002
 40
0.9850224829
 40
1.0
 40
1.0
 40
1.0
 40
1.0
 10
10.5449418769
 20
7.4723720784
 30
0.0
 10
10.5449418769
 20
7.454502114
 30
0.0
 10
10.5461331629
 20
7.4186700694
 30
0.0
 10
10.5514574057
 20
7.3650459516
 30
0.0
 10
10.5602990122
 20
7.3116473587
 30
0.0
 10
10.5726189496
 20
7.2587118818
 30
0.0
 10
10.5883626398
 20
7.2064712986
 30
0.0
 10
10.6074606782
 20
7.1551552236
 30
0.0
 10
10.62982891
 20
7.1049889286
 30
0.0
 10
10.6553688937
 20
7.0561926868
 30
0.0
 10
10.6839682821
 20
7.0089807138
 30
0.0
 10
10.7155013422
 20
6.9635602685
 30
0.0
 10
10.7498295067
 20
6.9201307483
 30
0.0
 10
10.7868019779
 20
6.8788828235
 30
0.0
 10
10.8262563845
 20
6.8399976086
 30
0.0
 10
10.8680194884
 20
6.8036458734
 30
0.0
 10
10.9119079403
 20
6.7699873028
 30
0.0
 10
10.957729063
 20
6.7391697813
 30
0.0
 10
11.0052817009
 20
6.711328756
 30
0.0
 10
11.0543570988
 20
6.6865866533
 30
0.0
 10
11.1047398071
 20
6.665052341
 30
0.0
 10
11.1562086167
 20
6.6468206525
 30
0.0
 10
11.2085375186
 20
6.6319719671
 30
0.0
 10
11.2614966841
 20
6.6205718579
 30
0.0
 10
11.3148534619
 20
6.612670778
 30
0.0
 10
11.3683733799
 20
6.6083038297
 30
0.0
 10
11.4218212183
 20
6.6074906316
 30
0.0
 10
11.4749618456
 20
6.6102351512
 30
0.0
 10
11.527561938
 20
6.6165259079
 30
0.0
 10
11.5793884336
 20
6.6263351283
 30
0.0
 10
11.621788821
 20
6.637418455
 30
0.0
 10
11.6550834413
 20
6.6479951554
 30
0.0
 10
11.6796998259
 20
6.6567660972
 30
0.0
 10
11.7039549882
 20
6.666372568
 30
0.0
 10
11.7278227326
 20
6.6768041329
 30
0.0
 10
11.751276357
 20
6.688049021
 30
0.0
 10
11.7666290821
 20
6.6960851024
 30
0.0
 10
11.7742266166
 20
6.7002340284
 30
0.0
  0
SPLINE
  5
383
100
AcDbEntity
  8
0
100
AcDbSpline
 62
7
  6
CONTINUOUS
 70
0
 71
3
 72
48
 73
44
 74
0
 42
0.0000001
 43
0.0000001
 44
0.0000000001
 40
0.0
 40
0.0
 40
0.0
 40
0.0
 40
0.0063158757
 40
0.0126706723
 40
0.0191025153
 40
0.0256480656
 40
0.0323419735
 40
0.0392163471
 40
0.0536142197
 40
0.0611949889
 40
0.0690567529
 40
0.0772179107
 40
0.0856943607
 40
0.0944997659
 40
0.103645921
 40
0.1131427623
 40
0.1229985381
 40
0.1332201926
 40
0.1438133623
 40
0.1547824065
 40
0.1661307821
 40
0.177861045
 40
0.189974755
 40
0.2153542741
 40
0.242270138
 40
0.2707124992
 40
0.3006635018
 40
0.3320987844
 40
0.3649881127
 40
0.3992959802
 40
0.4349824885
 40
0.4720034577
 40
0.510310969
 40
0.5498538267
 40
0.5905775201
 40
0.6324247899
 40
0.6753357769
 40
0.7192480049
 40
0.7640970224
 40
0.8098164065
 40
0.8563370501
 40
0.9035891101
 40
1.0
 40
1.0
 40
1.0
 40
1.0
 10
12.697250098
 20
6.63358311
 30
0.0
 10
12.6981475845
 20
6.633520862
 30
0.0
 10
12.6999438472
 20
6.6333225207
 30
0.0
 10
12.7026180996
 20
6.6328055022
 30
0.0
 10
12.705274482
 20
6.6320690895
 30
0.0
 10
12.7079114442
 20
6.631113842
 30
0.0
 10
12.7105279232
 20
6.629940246
 30
0.0
 10
12.7140411647
 20
6.6280569073
 30
0.0
 10
12.7174590122
 20
6.6257514446
 30
0.0
 10
12.720766585
 20
6.6230797466
 30
0.0
 10
12.7232649497
 20
6.6208272296
 30
0.0
 10
12.7257366153
 20
6.6183618228
 30
0.0
 10
12.72818097
 20
6.6156844202
 30
0.0
 10
12.73059706
 20
6.6127962169
 30
0.0
 10
12.7329839482
 20
6.6096983404
 30
0.0
 10
12.7353407149
 20
6.6063920619
 30
0.0
 10
12.7376664913
 20
6.6028787552
 30
0.0
 10
12.7399603276
 20
6.5991598159
 30
0.0
 10
12.7422212966
 20
6.5952367437
 30
0.0
 10
12.7444485454
 20
6.5911111621
 30
0.0
 10
12.7466411477
 20
6.5867847339
 30
0.0
 10
12.7487982077
 20
6.5822591962
 30
0.0
 10
12.7516704515
 20
6.5758624807
 30
0.0
 10
12.7551560519
 20
6.5673728911
 30
0.0
 10
12.7591208901
 20
6.556575094
 30
0.0
 10
12.7629237754
 20
6.5450317211
 30
0.0
 10
12.7665585129
 20
6.5327616846
 30
0.0
 10
12.7700190566
 20
6.5197848917
 30
0.0
 10
12.7732996511
 20
6.5061225541
 30
0.0
 10
12.7763948924
 20
6.4917970467
 30
0.0
 10
12.7792995737
 20
6.4768318672
 30
0.0
 10
12.7820088799
 20
6.4612516047
 30
0.0
 10
12.7845183178
 20
6.4450818834
 30
0.0
 10
12.7868236549
 20
6.428349314
 30
0.0
 10
12.7889210944
 20
6.4110814545
 30
0.0
 10
12.7908071316
 20
6.3933067539
 30
0.0
 10
12.7924785914
 20
6.3750545114
 30
0.0
 10
12.7939327373
 20
6.3563548181
 30
0.0
 10
12.7951671155
 20
6.3372384811
 30
0.0
 10
12.7961796444
 20
6.3177370948
 30
0.0
 10
12.7969687132
 20
6.2978828037
 30
0.0
 10
12.7977259717
 20
6.2708029268
 30
0.0
 10
12.7979456425
 20
6.2503382909
 30
0.0
 10
12.7979456425
 20
6.2366053821
 30
0.0
  0
SPLINE
  5
384
100
AcDbEntity
  8
0
100
AcDbSpline
 62
7
  6
CONTINUOUS
 70
0
 71
3
 72
48
 73
44
 74
0
 42
0.0000001
 43
0.0000001
 44
0.0000000001
 40
0.0
 40
0.0
 40
0.0
 40
0.0
 40
0.0063158757
 40
0.0126706723
 40
0.0191025153
 40
0.0256480656
 40
0.0323419735
 40
0.0392163471
 40
0.0536142197
 40
0.0611949889
 40
0.0690567529
 40
0.0772179107
 40
0.0856943607
 40
0.0944997659
 40
0.103645921
 40
0.1131427623
 40
0.1229985381
 40
0.1332201926
 40
0.1438133623
 40
0.1547824065
 40
0.1661307821
 40
0.177861045
 40
0.189974755
 40
0.2153542741
 40
0.242270138
 40
0.2707124992
 40
0.3006635018
 40
0.3320987844
 40
0.3649881127
 40
0.3992959802
 40
0.4349824885
 40
0.4720034577
 40
0.510310969
 40
0.5498538267
 40
0.5905775201
 40
0.6324247899
 40
0.6753357769
 40
0.7192480049
 40
0.7640970224
 40
0.8098164065
 40
0.8563370501
 40
0.9035891101
 40
1.0
 40
1.0
 40
1.0
 40
1.0
 10
12.697250098
 20
9.411585881
 30
0.0
 10
12.6981475845
 20
9.411523633
 30
0.0
 10
12.6999438472
 20
9.4113252917
 30
0.0
 10
12.7026180996
 20
9.4108082732
 30
0.0
 10
12.705274482
 20
9.4100718605
 30
0.0
 10
12.7079114442
 20
9.409116613
 30
0.0
 10
12.7105279232
 20
9.407943017
 30
0.0
 10
12.7140411647
 20
9.4060596783
 30
0.0
 10
12.7174590122
 20
9.4037542156
 30
0.0
 10
12.720766585
 20
9.4010825176
 30
0.0
 10
12.7232649497
 20
9.3988300006
 30
0.0
 10
12.7257366153
 20
9.3963645938
 30
0.0
 10
12.72818097
 20
9.3936871912
 30
0.0
 10
12.73059706
 20
9.3907989879
 30
0.0
 10
12.7329839482
 20
9.3877011114
 30
0.0
 10
12.7353407149
 20
9.3843948329
 30
0.0
 10
12.7376664913
 20
9.3808815262
 30
0.0
 10
12.7399603276
 20
9.3771625869
 30
0.0
 10
12.7422212966
 20
9.3732395147
 30
0.0
 10
12.7444485454
 20
9.3691139331
 30
0.0
 10
12.7466411477
 20
9.3647875049
 30
0.0
 10
12.7487982077
 20
9.3602619672
 30
0.0
 10
12.7516704515
 20
9.3538652517
 30
0.0
 10
12.7551560519
 20
9.3453756621
 30
0.0
 10
12.7591208901
 20
9.334577865
 30
0.0
 10
12.7629237754
 20
9.3230344921
 30
0.0
 10
12.7665585129
 20
9.3107644556
 30
0.0
 10
12.7700190566
 20
9.2977876627
 30
0.0
 10
12.7732996511
 20
9.2841253251
 30
0.0
 10
12.7763948924
 20
9.2697998177
 30
0.0
 10
12.7792995737
 20
9.2548346382
 30
0.0
 10
12.7820088799
 20
9.2392543757
 30
0.0
 10
12.7845183178
 20
9.2230846544
 30
0.0
 10
12.7868236549
 20
9.206352085
 30
0.0
 10
12.7889210944
 20
9.1890842255
 30
0.0
 10
12.7908071316
 20
9.1713095249
 30
0.0
 10
12.7924785914
 20
9.1530572824
 30
0.0
 10
12.7939327373
 20
9.1343575891
 30
0.0
 10
12.7951671155
 20
9.1152412521
 30
0.0
 10
12.7961796444
 20
9.0957398658
 30
0.0
 10
12.7969687132
 20
9.0758855747
 30
0.0
 10
12.7977259717
 20
9.0488056978
 30
0.0
 10
12.7979456425
 20
9.0283410619
 30
0.0
 10
12.7979456425
 20
9.0146081531
 30
0.0
  0
SPLINE
  5
385
100
AcDbEntity
  8
0
100
AcDbSpline
 62
7
  6
CONTINUOUS
 70
0
 71
3
 72
50
 73
46
 74
0
 42
0.0000001
 43
0.0000001
 44
0.0000000001
 40
0.0
 40
0.0
 40
0.0
 40
0.0
 40
0.0079428024
 40
0.0152629338
 40
0.022067342
 40
0.0284783962
 40
0.0346276663
 40
0.0406527084
 40
0.0466857069
 40
0.0528455262
 40
0.0592338694
 40
0.0659302766
 40
0.0729947228
 40
0.0804713288
 40
0.0883889283
 40
0.0967655012
 40
0.1056124768
 40
0.1149340594
 40
0.1247289885
 40
0.1349945838
 40
0.1457258179
 40
0.1569147255
 40
0.168552083
 40
0.180629929
 40
0.193139305
 40
0.2060699589
 40
0.2331540507
 40
0.2618128694
 40
0.2919733688
 40
0.3235744779
 40
0.3565589053
 40
0.3908754262
 40
0.4264848236
 40
0.4633481445
 40
0.5014386735
 40
0.5407354373
 40
0.58122013
 40
0.6228874039
 40
0.6657343052
 40
0.7097640978
 40
0.8014308128
 40
0.8491124581
 40
0.8980727241
 40
0.948352317
 40
1.0
 40
1.0
 40
1.0
 40
1.0
 10
9.4003822246
 20
8.763271184
 30
0.0
 10
9.3997526238
 20
8.7635049185
 30
0.0
 10
9.3985635637
 20
8.7640142115
 30
0.0
 10
9.3969416923
 20
8.7649459728
 30
0.0
 10
9.3955578919
 20
8.7660039479
 30
0.0
 10
9.3944098167
 20
8.7671799533
 30
0.0
 10
9.393494741
 20
8.7684654969
 30
0.0
 10
9.3928091931
 20
8.7698511241
 30
0.0
 10
9.3923479289
 20
8.7713270914
 30
0.0
 10
9.392104342
 20
8.7728844835
 30
0.0
 10
9.3920706924
 20
8.7745156863
 30
0.0
 10
9.3922391773
 20
8.7762145681
 30
0.0
 10
9.3926025149
 20
8.7779760032
 30
0.0
 10
9.393153688
 20
8.7797955415
 30
0.0
 10
9.3938861431
 20
8.7816691287
 30
0.0
 10
9.3947937461
 20
8.7835929661
 30
0.0
 10
9.3958704959
 20
8.7855635929
 30
0.0
 10
9.3971105794
 20
8.7875777729
 30
0.0
 10
9.3985084226
 20
8.7896324603
 30
0.0
 10
9.4000586539
 20
8.7917249218
 30
0.0
 10
9.4017560655
 20
8.7938527364
 30
0.0
 10
9.4035955725
 20
8.7960136149
 30
0.0
 10
9.4055723372
 20
8.7982055031
 30
0.0
 10
9.4076817831
 20
8.8004266321
 30
0.0
 10
9.4099195117
 20
8.8026754961
 30
0.0
 10
9.4131181382
 20
8.8057567769
 30
0.0
 10
9.4174169366
 20
8.8096621657
 30
0.0
 10
9.4229475066
 20
8.8143721262
 30
0.0
 10
9.4289007459
 20
8.8191702519
 30
0.0
 10
9.4352527796
 20
8.8240526865
 30
0.0
 10
9.4419823295
 20
8.8290177154
 30
0.0
 10
9.4490706294
 20
8.8340650828
 30
0.0
 10
9.4565011226
 20
8.8391955393
 30
0.0
 10
9.4642593672
 20
8.8444115536
 30
0.0
 10
9.4723329333
 20
8.8497162985
 30
0.0
 10
9.4807112069
 20
8.8551140969
 30
0.0
 10
9.4893853657
 20
8.8606104328
 30
0.0
 10
9.4983481666
 20
8.8662116339
 30
0.0
 10
9.507594075
 20
8.8719251248
 30
0.0
 10
9.5204674821
 20
8.8798103255
 30
0.0
 10
9.5337246071
 20
8.8878514633
 30
0.0
 10
9.5473493143
 20
8.896090301
 30
0.0
 10
9.5579795033
 20
8.9025184457
 30
0.0
 10
9.5688906356
 20
8.9091300451
 30
0.0
 10
9.5762527897
 20
8.9136103369
 30
0.0
 10
9.5799801374
 20
8.9158856885
 30
0.0
  0
SPLINE
  5
386
100
AcDbEntity
  8
0
100
AcDbSpline
 62
7
  6
CONTINUOUS
 70
0
 71
3
 72
44
 73
40
 74
0
 42
0.0000001
 43
0.0000001
 44
0.0000000001
 40
0.0
 40
0.0
 40
0.0
 40
0.0
 40
0.0309342641
 40
0.0620104876
 40
0.0932253567
 40
0.1245723553
 40
0.1560430558
 40
0.1876268117
 40
0.2193110905
 40
0.251081674
 40
0.2829229135
 40
0.3148179971
 40
0.3467492319
 40
0.3786983355
 40
0.4106467346
 40
0.4425758673
 40
0.474467485
 40
0.5063039512
 40
0.5380685328
 40
0.5697456806
 40
0.6013212958
 40
0.6327829786
 40
0.664120255
 40
0.6953247781
 40
0.7263904972
 40
0.7573137941
 40
0.7880935793
 40
0.8187313473
 40
0.8492311848
 40
0.8644336298
 40
0.8796042914
 40
0.8947443852
 40
0.9098552672
 40
0.9249384396
 40
0.9399955317
 40
0.9550283034
 40
0.9700386314
 40
0.9850285006
 40
1.0
 40
1.0
 40
1.0
 40
1.0
 10
10.5746403551
 20
7.4800586072
 30
0.0
 10
10.5746403551
 20
7.4624333623
 30
0.0
 10
10.5758291835
 20
7.4270908528
 30
0.0
 10
10.5811419203
 20
7.3742036906
 30
0.0
 10
10.5899637191
 20
7.3215471072
 30
0.0
 10
10.6022547132
 20
7.2693609085
 30
0.0
 10
10.6179591722
 20
7.2178789724
 30
0.0
 10
10.6370062312
 20
7.1673329074
 30
0.0
 10
10.6593099918
 20
7.1179498307
 30
0.0
 10
10.6847699739
 20
7.0699516767
 30
0.0
 10
10.7132715422
 20
7.0235541136
 30
0.0
 10
10.7446864493
 20
6.9789656208
 30
0.0
 10
10.7788734023
 20
6.9363865536
 30
0.0
 10
10.8156786947
 20
6.8960082544
 30
0.0
 10
10.854936891
 20
6.8580122015
 30
0.0
 10
10.8964715636
 20
6.8225692018
 30
0.0
 10
10.9400960592
 20
6.7898386038
 30
0.0
 10
10.9856143524
 20
6.7599676079
 30
0.0
 10
11.0328219176
 20
6.7330906101
 30
0.0
 10
11.0815066374
 20
6.7093286025
 30
0.0
 10
11.1314497442
 20
6.6887886299
 30
0.0
 10
11.182426792
 20
6.6715633137
 30
0.0
 10
11.2342086496
 20
6.6577304145
 30
0.0
 10
11.2865625078
 20
6.647352469
 30
0.0
 10
11.3392529729
 20
6.6404765382
 30
0.0
 10
11.3920429185
 20
6.6371339391
 30
0.0
 10
11.4446952505
 20
6.6373402486
 30
0.0
 10
11.4969713344
 20
6.6410946392
 30
0.0
 10
11.5400780138
 20
6.6471742089
 30
0.0
 10
11.5741300038
 20
6.6537911735
 30
0.0
 10
11.5994043382
 20
6.6596177906
 30
0.0
 10
11.6244100019
 20
6.6663066221
 30
0.0
 10
11.6491191936
 20
6.673850305
 30
0.0
 10
11.6735040393
 20
6.6822401569
 30
0.0
 10
11.6975370359
 20
6.6914669706
 30
0.0
 10
11.7211911565
 20
6.7015201481
 30
0.0
 10
11.7444398063
 20
6.7123885744
 30
0.0
 10
11.7672564482
 20
6.7240597509
 30
0.0
 10
11.7821717563
 20
6.7323721621
 30
0.0
 10
11.7895476324
 20
6.7366571652
 30
0.0
  0
SPLINE
  5
387
100
AcDbEntity
  8
0
100
AcDbSpline
 62
7
  6
CONTINUOUS
 70
0
 71
3
 72
54
 73
50
 74
0
 42
0.0000001
 43
0.0000001
 44
0.0000000001
 40
0.0
 40
0.0
 40
0.0
 40
0.0
 40
0.0150774418
 40
0.0301830135
 40
0.0453191491
 40
0.0604880859
 40
0.0756918365
 40
0.0909321934
 40
0.1062107086
 40
0.1215286846
 40
0.1368871799
 40
0.1522869861
 40
0.1677286418
 40
0.1832124229
 40
0.1987383397
 40
0.2143061522
 40
0.2455593961
 40
0.2769710869
 40
0.3085304858
 40
0.3402233913
 40
0.3720325129
 40
0.4039379021
 40
0.4359174286
 40
0.4679472944
 40
0.5000025768
 40
0.5320577869
 40
0.5640874373
 40
0.5960666095
 40
0.6279715142
 40
0.6597800325
 40
0.691472229
 40
0.7230308286
 40
0.7544416486
 40
0.7700910423
 40
0.7856997807
 40
0.8012671211
 40
0.8167925632
 40
0.8322758651
 40
0.8477170469
 40
0.8631163815
 40
0.8784744126
 40
0.8937919373
 40
0.9090700109
 40
0.9243099459
 40
0.9395132918
 40
0.9546818448
 40
0.9698176232
 40
0.984922861
 40
1.0
 40
1.0
 40
1.0
 40
1.0
 10
8.7957557555
 20
7.2927657183
 30
0.0
 10
8.7930713563
 20
7.2874468378
 30
0.0
 10
8.7879180135
 20
7.2766862436
 30
0.0
 10
8.7808555998
 20
7.260224424
 30
0.0
 10
8.7744640153
 20
7.2434517166
 30
0.0
 10
8.7687534666
 20
7.2263942924
 30
0.0
 10
8.7637325913
 20
7.2090784124
 30
0.0
 10
8.7594091244
 20
7.191530812
 30
0.0
 10
8.7557898276
 20
7.1737785306
 30
0.0
 10
8.7528800918
 20
7.1558489864
 30
0.0
 10
8.7506845481
 20
7.1377698035
 30
0.0
 10
8.7492064772
 20
7.1195688857
 30
0.0
 10
8.7484481144
 20
7.1012742729
 30
0.0
 10
8.7484107283
 20
7.0829142659
 30
0.0
 10
8.7490942392
 20
7.0645168278
 30
0.0
 10
8.7509675502
 20
7.0399464421
 30
0.0
 10
8.7551111747
 20
7.0092776982
 30
0.0
 10
8.7629167895
 20
6.9728360393
 30
0.0
 10
8.7735140819
 20
6.9369243665
 30
0.0
 10
8.7868373197
 20
6.901765157
 30
0.0
 10
8.8028041776
 20
6.8675742996
 30
0.0
 10
8.8213161287
 20
6.8345622107
 30
0.0
 10
8.8422590803
 20
6.8029319133
 30
0.0
 10
8.8655040028
 20
6.772877939
 30
0.0
 10
8.8909077857
 20
6.7445851326
 30
0.0
 10
8.9183141049
 20
6.7182275479
 30
0.0
 10
8.9475543775
 20
6.6939673912
 30
0.0
 10
8.9784487588
 20
6.6719540274
 30
0.0
 10
9.0108072535
 20
6.6523230141
 30
0.0
 10
9.0444307464
 20
6.6351953607
 30
0.0
 10
9.079112831
 20
6.6206766803
 30
0.0
 10
9.1146387096
 20
6.6088569281
 30
0.0
 10
9.1448077561
 20
6.6013068319
 30
0.0
 10
9.169141896
 20
6.5966867407
 30
0.0
 10
9.1874446556
 20
6.5939378462
 30
0.0
 10
9.2057912625
 20
6.5919055568
 30
0.0
 10
9.224153786
 20
6.5905930936
 30
0.0
 10
9.2425038156
 20
6.5900024224
 30
0.0
 10
9.2608130871
 20
6.5901344544
 30
0.0
 10
9.2790533579
 20
6.5909891261
 30
0.0
 10
9.2971965102
 20
6.592564961
 30
0.0
 10
9.3152145523
 20
6.5948597092
 30
0.0
 10
9.3330797001
 20
6.5978697688
 30
0.0
 10
9.3507644065
 20
6.6015904813
 30
0.0
 10
9.3682413666
 20
6.6060162648
 30
0.0
 10
9.3854836365
 20
6.6111401194
 30
0.0
 10
9.4024646727
 20
6.6169543514
 30
0.0
 10
9.4191579232
 20
6.623449772
 30
0.0
 10
9.4300881938
 20
6.6282320845
 30
0.0
 10
9.4354956198
 20
6.6307330457
 30
0.0
  0
SPLINE
  5
388
100
AcDbEntity
  8
0
100
AcDbSpline
 62
7
  6
CONTINUOUS
 70
0
 71
3
 72
42
 73
38
 74
0
 42
0.0000001
 43
0.0000001
 44
0.0000000001
 40
0.0
 40
0.0
 40
0.0
 40
0.0
 40
0.0299515034
 40
0.0449584053
 40
0.0599872352
 40
0.090113554
 40
0.120349257
 40
0.1355142522
 40
0.1507108597
 40
0.1811986898
 40
0.2118244439
 40
0.2425926138
 40
0.2735050575
 40
0.3045610031
 40
0.3357570991
 40
0.3670875083
 40
0.3985440419
 40
0.4301163289
 40
0.461792018
 40
0.4935570058
 40
0.5253956893
 40
0.5572912383
 40
0.5892258822
 40
0.6211812061
 40
0.6531384557
 40
0.6850788443
 40
0.7169838621
 40
0.7488355808
 40
0.7806169538
 40
0.8123121025
 40
0.8439066102
 40
0.8753876974
 40
0.9067447406
 40
0.937968606
 40
0.9535307319
 40
0.969058378
 40
1.0
 40
1.0
 40
1.0
 40
1.0
 10
9.4390960839
 20
6.9346287314
 30
0.0
 10
9.4345738294
 20
6.9319261212
 30
0.0
 10
9.4276364288
 20
6.9281118456
 30
0.0
 10
9.4181299601
 20
6.9235301127
 30
0.0
 10
9.4084376674
 20
6.9192774845
 30
0.0
 10
9.3960164823
 20
6.914600373
 30
0.0
 10
9.3832734187
 20
6.9108045915
 30
0.0
 10
9.3729108594
 20
6.9083014591
 30
0.0
 10
9.3624238883
 20
6.9061522987
 30
0.0
 10
9.3491405211
 20
6.9041450489
 30
0.0
 10
9.3330198739
 20
6.9028347677
 30
0.0
 10
9.3167725129
 20
6.9026256355
 30
0.0
 10
9.3004728564
 20
6.9035185674
 30
0.0
 10
9.2841949153
 20
6.9055093287
 30
0.0
 10
9.2680127414
 20
6.9085887405
 30
0.0
 10
9.2519998837
 20
6.912742677
 30
0.0
 10
9.2362291153
 20
6.9179521462
 30
0.0
 10
9.2207720915
 20
6.9241933747
 30
0.0
 10
9.205699033
 20
6.9314379172
 30
0.0
 10
9.1910784108
 20
6.9396527884
 30
0.0
 10
9.1769766319
 20
6.9488006004
 30
0.0
 10
9.163457743
 20
6.9588397406
 30
0.0
 10
9.1505831448
 20
6.9697245643
 30
0.0
 10
9.1384113166
 20
6.9814055995
 30
0.0
 10
9.1269975529
 20
6.9938297698
 30
0.0
 10
9.1163937152
 20
7.0069406336
 30
0.0
 10
9.1066479985
 20
7.0206786366
 30
0.0
 10
9.0978047151
 20
7.034981382
 30
0.0
 10
9.0899040905
 20
7.0497839034
 30
0.0
 10
9.0829820666
 20
7.0650189699
 30
0.0
 10
9.0770701828
 20
7.080617342
 30
0.0
 10
9.0721953323
 20
7.0965082871
 30
0.0
 10
9.068379903
 20
7.1126191205
 30
0.0
 10
9.0660949374
 20
7.1261837188
 30
0.0
 10
9.0648136182
 20
7.1370710066
 30
0.0
 10
9.0638992807
 20
7.1479450037
 30
0.0
 10
9.0636226582
 20
7.1561220786
 30
0.0
 10
9.0636226582
 20
7.1615645253
 30
0.0
  0
SPLINE
  5
389
100
AcDbEntity
  8
0
100
AcDbSpline
 62
7
  6
CONTINUOUS
 70
0
 71
3
 72
43
 73
39
 74
0
 42
0.0000001
 43
0.0000001
 44
0.0000000001
 40
0.0
 40
0.0
 40
0.0
 40
0.0
 40
0.0308800975
 40
0.0618965206
 40
0.0930463051
 40
0.1243236677
 40
0.1557211251
 40
0.1872291853
 40
0.2188366584
 40
0.2505308084
 40
0.2822975704
 40
0.3141217734
 40
0.3459873761
 40
0.3778777132
 40
0.4097757477
 40
0.4416643273
 40
0.4735264415
 40
0.5053454777
 40
0.5371054732
 40
0.5687913593
 40
0.6003891974
 40
0.6318864008
 40
0.6632719425
 40
0.694536542
 40
0.7256728322
 40
0.756675499
 40
0.7875413933
 40
0.818269611
 40
0.8335844717
 40
0.8488656282
 40
0.8641136085
 40
0.8793290906
 40
0.9096617486
 40
0.9398758855
 40
0.9549437649
 40
0.9699860083
 40
0.9850041935
 40
1.0
 40
1.0
 40
1.0
 40
1.0
 10
10.6459777959
 20
7.5489652877
 30
0.0
 10
10.6459777959
 20
7.5320302285
 30
0.0
 10
10.6470751882
 20
7.4980754563
 30
0.0
 10
10.6519809184
 20
7.4472511122
 30
0.0
 10
10.6601290399
 20
7.3966224284
 30
0.0
 10
10.6714855543
 20
7.3464023417
 30
0.0
 10
10.6860029098
 20
7.2967986954
 30
0.0
 10
10.7036206174
 20
7.2480175767
 30
0.0
 10
10.7242652902
 20
7.200261406
 30
0.0
 10
10.7478510416
 20
7.1537283911
 30
0.0
 10
10.7742798082
 20
7.1086116333
 30
0.0
 10
10.8034417685
 20
7.0650983581
 30
0.0
 10
10.8352157843
 20
7.0233691323
 30
0.0
 10
10.8694699092
 20
6.9835971259
 30
0.0
 10
10.906061935
 20
6.9459474011
 30
0.0
 10
10.9448399772
 20
6.9105762329
 30
0.0
 10
10.9856431005
 20
6.8776304655
 30
0.0
 10
11.0283019809
 20
6.8472469073
 30
0.0
 10
11.0726396023
 20
6.8195517671
 30
0.0
 10
11.118471984
 20
6.7946601327
 30
0.0
 10
11.1656089367
 20
6.7726754962
 30
0.0
 10
11.2138548432
 20
6.7536893182
 30
0.0
 10
11.263009452
 20
6.7377806464
 30
0.0
 10
11.3128687476
 20
6.7250157955
 30
0.0
 10
11.3632256193
 20
6.7154480561
 30
0.0
 10
11.413871335
 20
6.709117509
 30
0.0
 10
11.4645940872
 20
6.7060506984
 30
0.0
 10
11.506803943
 20
6.7062262143
 30
0.0
 10
11.5403925824
 20
6.7080099046
 30
0.0
 10
11.5654463036
 20
6.710163591
 30
0.0
 10
11.5903616643
 20
6.7131326889
 30
0.0
 10
11.6233257115
 20
6.7181683666
 30
0.0
 10
11.6640682386
 20
6.7264796741
 30
0.0
 10
11.7040874478
 20
6.7374716222
 30
0.0
 10
11.7355103859
 20
6.7478353055
 30
0.0
 10
11.7587435803
 20
6.7563779568
 30
0.0
 10
11.7816369619
 20
6.7656876189
 30
0.0
 10
11.7966684331
 20
6.7724042551
 30
0.0
 10
11.8041185435
 20
6.7758868413
 30
0.0
  0
SPLINE
  5
38A
100
AcDbEntity
  8
0
100
AcDbSpline
 62
7
  6
CONTINUOUS
 70
0
 71
3
 72
75
 73
71
 74
0
 42
0.0000001
 43
0.0000001
 44
0.0000000001
 40
0.0
 40
0.0
 40
0.0
 40
0.0
 40
0.0155842192
 40
0.0233572755
 40
0.0311169608
 40
0.046596236
 40
0.0620247854
 40
0.0697211414
 40
0.0774055104
 40
0.0927382729
 40
0.1080270414
 40
0.123275021
 40
0.1384858323
 40
0.1536634824
 40
0.1688123253
 40
0.1839370178
 40
0.1990424723
 40
0.2141338055
 40
0.2292162847
 40
0.2442952718
 40
0.2593761658
 40
0.2744643456
 40
0.2895651118
 40
0.304683631
 40
0.3198248809
 40
0.3349935985
 40
0.3501942316
 40
0.3654308936
 40
0.3807073232
 40
0.3960268487
 40
0.4113923571
 40
0.4268062686
 40
0.4422705168
 40
0.4577865339
 40
0.4733552422
 40
0.4889770495
 40
0.5046518511
 40
0.5203790354
 40
0.5361574949
 40
0.5519856415
 40
0.5678614254
 40
0.5837823585
 40
0.5997455407
 40
0.6157476895
 40
0.6317851725
 40
0.6478540421
 40
0.6639500724
 40
0.6800687979
 40
0.6962055534
 40
0.7123555163
 40
0.7285137483
 40
0.7446752392
 40
0.7608349505
 40
0.7769878595
 40
0.7931290025
 40
0.8092535185
 40
0.8253566919
 40
0.8414339942
 40
0.8574811246
 40
0.8654926466
 40
0.8734951387
 40
0.8894701295
 40
0.9054037966
 40
0.9212931282
 40
0.9371354993
 40
0.9529287706
 40
0.9686711003
 40
0.9765233353
 40
0.9843626592
 40
1.0
 40
1.0
 40
1.0
 40
1.0
 10
11.8975300857
 20
7.0098719923
 30
0.0
 10
11.8975300857
 20
6.9951368581
 30
0.0
 10
11.8969887057
 20
6.9730470333
 30
0.0
 10
11.8951773136
 20
6.9436790918
 30
0.0
 10
11.8926469436
 20
6.9144633536
 30
0.0
 10
11.8881345956
 20
6.8781659431
 30
0.0
 10
11.8818205831
 20
6.8421986911
 30
0.0
 10
11.8757013204
 20
6.8137151856
 30
0.0
 10
11.8688850767
 20
6.7854836348
 30
0.0
 10
11.8590479638
 20
6.7506086187
 30
0.0
 10
11.8451538164
 20
6.7095045082
 30
0.0
 10
11.8292116625
 20
6.6692737952
 30
0.0
 10
11.8112599786
 20
6.6300141811
 30
0.0
 10
11.7913419286
 20
6.5918201823
 30
0.0
 10
11.7695054853
 20
6.5547839795
 30
0.0
 10
11.745803251
 20
6.5189949053
 30
0.0
 10
11.7202923443
 20
6.4845393049
 30
0.0
 10
11.6930342596
 20
6.4515003035
 30
0.0
 10
11.6640947188
 20
6.4199576085
 30
0.0
 10
11.6335435118
 20
6.389987313
 30
0.0
 10
11.6014543265
 20
6.3616617099
 30
0.0
 10
11.5679045693
 20
6.3350491152
 30
0.0
 10
11.532975175
 20
6.3102137026
 30
0.0
 10
11.4967504143
 20
6.2872153385
 30
0.0
 10
11.4593176835
 20
6.2661094412
 30
0.0
 10
11.420767287
 20
6.2469468506
 30
0.0
 10
11.3811922178
 20
6.2297737061
 30
0.0
 10
11.3406879302
 20
6.2146313367
 30
0.0
 10
11.2993521069
 20
6.201556163
 30
0.0
 10
11.2572844221
 20
6.1905796122
 30
0.0
 10
11.2145862992
 20
6.1817280438
 30
0.0
 10
11.1713606653
 20
6.1750226913
 30
0.0
 10
11.127711704
 20
6.1704796041
 30
0.0
 10
11.0837446017
 20
6.1681096138
 30
0.0
 10
11.0395652935
 20
6.1679183176
 30
0.0
 10
10.9952802087
 20
6.1699060659
 30
0.0
 10
10.9509960153
 20
6.1740679641
 30
0.0
 10
10.9068193647
 20
6.1803938867
 30
0.0
 10
10.8628566362
 20
6.1888685035
 30
0.0
 10
10.8192136824
 20
6.1994713174
 30
0.0
 10
10.7759955771
 20
6.2121767166
 30
0.0
 10
10.7333063614
 20
6.2269540308
 30
0.0
 10
10.6912487935
 20
6.2437676041
 30
0.0
 10
10.6499241051
 20
6.2625768904
 30
0.0
 10
10.6094317588
 20
6.283336549
 30
0.0
 10
10.5698692107
 20
6.3059965547
 30
0.0
 10
10.5313316775
 20
6.3305023178
 30
0.0
 10
10.4939119088
 20
6.3567948149
 30
0.0
 10
10.4576999654
 20
6.3848107309
 30
0.0
 10
10.4227830042
 20
6.4144826108
 30
0.0
 10
10.3892450675
 20
6.4457390185
 30
0.0
 10
10.3571668765
 20
6.4785047048
 30
0.0
 10
10.3266256442
 20
6.5127007961
 30
0.0
 10
10.2976948917
 20
6.5482449784
 30
0.0
 10
10.2704442643
 20
6.5850517114
 30
0.0
 10
10.244939395
 20
6.6230323678
 30
0.0
 10
10.2212416344
 20
6.66209569
 30
0.0
 10
10.1994083229
 20
6.7021470976
 30
0.0
 10
10.1828017412
 20
6.7362863807
 30
0.0
 10
10.1705005353
 20
6.7639952872
 30
0.0
 10
10.1588750187
 20
6.7919205152
 30
0.0
 10
10.1455960041
 20
6.827259658
 30
0.0
 10
10.1316990269
 20
6.8702809325
 30
0.0
 10
10.1198819679
 20
6.9137900525
 30
0.0
 10
10.1101735292
 20
6.9576819033
 30
0.0
 10
10.1025972468
 20
7.0018502626
 30
0.0
 10
10.0980717228
 20
7.0388319219
 30
0.0
 10
10.0955359618
 20
7.0684474598
 30
0.0
 10
10.0937264343
 20
7.0980161891
 30
0.0
 10
10.093180445
 20
7.1202187033
 30
0.0
 10
10.093180445
 20
7.1350040649
 30
0.0
  0
SPLINE
  5
38B
100
AcDbEntity
  8
0
100
AcDbSpline
 62
7
  6
CONTINUOUS
 70
0
 71
3
 72
71
 73
67
 74
0
 42
0.0000001
 43
0.0000001
 44
0.0000000001
 40
0.0
 40
0.0
 40
0.0
 40
0.0
 40
0.0149701622
 40
0.0299433828
 40
0.0449227028
 40
0.0599111246
 40
0.0749115948
 40
0.0899269886
 40
0.1049600895
 40
0.120013573
 40
0.1350899941
 40
0.1501917695
 40
0.165321163
 40
0.180480277
 40
0.1956710384
 40
0.2108951862
 40
0.2261542673
 40
0.2414496274
 40
0.2567824002
 40
0.2721535092
 40
0.2875636617
 40
0.3030133419
 40
0.3185028169
 40
0.3340321343
 40
0.34960112
 40
0.3652093858
 40
0.3808563328
 40
0.3965411509
 40
0.4122628307
 40
0.428020169
 40
0.4438117721
 40
0.4596360694
 40
0.475491322
 40
0.4913756286
 40
0.5072869404
 40
0.5232230722
 40
0.5391817101
 40
0.5551604278
 40
0.5711566993
 40
0.5871679078
 40
0.6031913633
 40
0.6192243155
 40
0.6352639647
 40
0.6513074791
 40
0.6673520087
 40
0.683394696
 40
0.6994326945
 40
0.7154631813
 40
0.7314833687
 40
0.7474905224
 40
0.7634819732
 40
0.7794551283
 40
0.7954074893
 40
0.811336662
 40
0.8272403677
 40
0.8431164596
 40
0.8589629314
 40
0.8747779261
 40
0.890559756
 40
0.9063068963
 40
0.9220180004
 40
0.9376919706
 40
0.9533277655
 40
0.9689245666
 40
0.9844825444
 40
1.0
 40
1.0
 40
1.0
 40
1.0
 10
9.5655391647
 20
6.0282956142
 30
0.0
 10
9.5573762696
 20
6.0204108749
 30
0.0
 10
9.5407333784
 20
6.0049626239
 30
0.0
 10
9.5148652378
 20
5.9827980502
 30
0.0
 10
9.4881260962
 20
5.9616692091
 30
0.0
 10
9.4605532214
 20
5.9416057251
 30
0.0
 10
9.4321844947
 20
5.9226349794
 30
0.0
 10
9.4030589812
 20
5.9047831184
 30
0.0
 10
9.3732167117
 20
5.8880747688
 30
0.0
 10
9.3426988182
 20
5.8725328128
 30
0.0
 10
9.3115472907
 20
5.8581786258
 30
0.0
 10
9.2798049609
 20
5.8450320338
 30
0.0
 10
9.2475155548
 20
5.8331110054
 30
0.0
 10
9.2147234998
 20
5.822431917
 30
0.0
 10
9.1814738867
 20
5.8130095394
 30
0.0
 10
9.1478124946
 20
5.8048567128
 30
0.0
 10
9.1137856323
 20
5.7979846136
 30
0.0
 10
9.0794400912
 20
5.7924027762
 30
0.0
 10
9.044823136
 20
5.7881187592
 30
0.0
 10
9.0099823803
 20
5.785138404
 30
0.0
 10
8.9749657369
 20
5.7834658926
 30
0.0
 10
8.9398213726
 20
5.7831034143
 30
0.0
 10
8.9045976148
 20
5.7840514064
 30
0.0
 10
8.8693429051
 20
5.786308649
 30
0.0
 10
8.8341057202
 20
5.7898719397
 30
0.0
 10
8.7989345019
 20
5.7947363099
 30
0.0
 10
8.7638776226
 20
5.8008951542
 30
0.0
 10
8.7289832737
 20
5.8083399218
 30
0.0
 10
8.6942994122
 20
5.8170603024
 30
0.0
 10
8.6598737442
 20
5.827044388
 30
0.0
 10
8.6257535847
 20
5.838278387
 30
0.0
 10
8.5919858133
 20
5.8507467774
 30
0.0
 10
8.5586168811
 20
5.8644324964
 30
0.0
 10
8.5256926469
 20
5.8793166827
 30
0.0
 10
8.4932583338
 20
5.8953787965
 30
0.0
 10
8.4613585642
 20
5.9125968311
 30
0.0
 10
8.430037179
 20
5.9309470882
 30
0.0
 10
8.3993371865
 20
5.9504042656
 30
0.0
 10
8.3693008292
 20
5.9709416845
 30
0.0
 10
8.3399693926
 20
5.9925311014
 30
0.0
 10
8.3113831392
 20
6.0151427648
 30
0.0
 10
8.28358141
 20
6.038745654
 30
0.0
 10
8.2566024285
 20
6.0633073267
 30
0.0
 10
8.2304832147
 20
6.0887939509
 30
0.0
 10
8.2052597213
 20
6.1151705468
 30
0.0
 10
8.1809666411
 20
6.1424008719
 30
0.0
 10
8.1576372949
 20
6.1704474317
 30
0.0
 10
8.1353038023
 20
6.19927172
 30
0.0
 10
8.1139968995
 20
6.2288341381
 30
0.0
 10
8.0937457967
 20
6.259093993
 30
0.0
 10
8.0745783831
 20
6.2900097275
 30
0.0
 10
8.0565210605
 20
6.3215388727
 30
0.0
 10
8.0395985685
 20
6.3536380394
 30
0.0
 10
8.0238342203
 20
6.3862631332
 30
0.0
 10
8.0092497582
 20
6.4193693353
 30
0.0
 10
7.9958651466
 20
6.4529110966
 30
0.0
 10
7.9836988335
 20
6.4868423294
 30
0.0
 10
7.9727676316
 20
6.5211164163
 30
0.0
 10
7.9630864884
 20
6.5556862087
 30
0.0
 10
7.9546687557
 20
6.5905041901
 30
0.0
 10
7.9475260926
 20
6.6255225358
 30
0.0
 10
7.9416682877
 20
6.6606930675
 30
0.0
 10
7.9371033947
 20
6.6959673014
 30
0.0
 10
7.9338377101
 20
6.7312973362
 30
0.0
 10
7.9318759591
 20
6.766633406
 30
0.0
 10
7.9314383979
 20
6.7901944368
 30
0.0
 10
7.9314383979
 20
6.8019584433
 30
0.0
  0
SPLINE
  5
38C
100
AcDbEntity
  8
0
100
AcDbSpline
 62
7
  6
CONTINUOUS
 70
0
 71
3
 72
15
 73
11
 74
0
 42
0.0000001
 43
0.0000001
 44
0.0000000001
 40
0.0
 40
0.0
 40
0.0
 40
0.0
 40
0.1158145545
 40
0.2342253447
 40
0.3552574804
 40
0.4789315894
 40
0.605253848
 40
0.734216919
 40
0.8658069608
 40
1.0
 40
1.0
 40
1.0
 40
1.0
 10
11.2852162774
 20
7.4091903128
 30
0.0
 10
11.2882334917
 20
7.4096018404
 30
0.0
 10
11.294349863
 20
7.410331824
 30
0.0
 10
11.3036547536
 20
7.4111639069
 30
0.0
 10
11.3131844079
 20
7.4117643668
 30
0.0
 10
11.3229331573
 20
7.4121495988
 30
0.0
 10
11.3328961442
 20
7.4123361906
 30
0.0
 10
11.3430688876
 20
7.4123403206
 30
0.0
 10
11.3534471672
 20
7.4121764473
 30
0.0
 10
11.360432585
 20
7.4119670058
 30
0.0
 10
11.3639586713
 20
7.4118397693
 30
0.0
  0
SPLINE
  5
38D
100
AcDbEntity
  8
0
100
AcDbSpline
 62
7
  6
CONTINUOUS
 70
0
 71
3
 72
39
 73
35
 74
0
 42
0.0000001
 43
0.0000001
 44
0.0000000001
 40
0.0
 40
0.0
 40
0.0
 40
0.0
 40
0.0309283028
 40
0.0619978859
 40
0.0932054644
 40
0.1245446167
 40
0.1560070405
 40
0.187582232
 40
0.2192578303
 40
0.2510198042
 40
0.2828527048
 40
0.3147399258
 40
0.3466639805
 40
0.3786067874
 40
0.410549963
 40
0.4424751179
 40
0.4743641527
 40
0.5061995513
 40
0.5379646669
 40
0.569643999
 40
0.6012234561
 40
0.6326906008
 40
0.664034874
 40
0.6952477944
 40
0.7263231278
 40
0.7572570245
 40
0.7880481187
 40
0.8186975877
 40
0.8492091653
 40
0.8795891085
 40
0.9098461157
 40
0.9399911943
 40
0.9700374784
 40
1.0
 40
1.0
 40
1.0
 40
1.0
 10
10.7439573731
 20
7.5636062974
 30
0.0
 10
10.7439573731
 20
7.5477898959
 30
0.0
 10
10.7450190324
 20
7.516074945
 30
0.0
 10
10.7497636568
 20
7.4686144989
 30
0.0
 10
10.7576423713
 20
7.4213579184
 30
0.0
 10
10.7686199132
 20
7.374518361
 30
0.0
 10
10.782646979
 20
7.3283037278
 30
0.0
 10
10.7996608819
 20
7.2829199374
 30
0.0
 10
10.8195856166
 20
7.2385689544
 30
0.0
 10
10.8423322881
 20
7.1954481895
 30
0.0
 10
10.8677994748
 20
7.1537495488
 30
0.0
 10
10.8958736763
 20
7.1136586027
 30
0.0
 10
10.92642983
 20
7.0753537697
 30
0.0
 10
10.9593318637
 20
7.0390055313
 30
0.0
 10
10.9944332966
 20
7.0047756801
 30
0.0
 10
11.0315778864
 20
6.9728166064
 30
0.0
 10
11.0706003178
 20
6.9432706255
 30
0.0
 10
11.1113269319
 20
6.91626935
 30
0.0
 10
11.153576489
 20
6.8919331036
 30
0.0
 10
11.197160962
 20
6.8703703768
 30
0.0
 10
11.2418863751
 20
6.8516773601
 30
0.0
 10
11.2875536554
 20
6.8359375139
 30
0.0
 10
11.3339595084
 20
6.8232211964
 30
0.0
 10
11.3808973126
 20
6.8135853467
 30
0.0
 10
11.4281580271
 20
6.8070732249
 30
0.0
 10
11.4755311134
 20
6.8037142132
 30
0.0
 10
11.522805461
 20
6.8035236656
 30
0.0
 10
11.5697703283
 20
6.8065028208
 30
0.0
 10
11.6162162557
 20
6.812638785
 30
0.0
 10
11.6619360795
 20
6.8219046164
 30
0.0
 10
11.7067255455
 20
6.8342592523
 30
0.0
 10
11.7503853811
 20
6.849648323
 30
0.0
 10
11.7927179031
 20
6.8680019623
 30
0.0
 10
11.8199681982
 20
6.8821805369
 30
0.0
 10
11.833300962
 20
6.8897314814
 30
0.0
  0
SPLINE
  5
38E
100
AcDbEntity
  8
0
100
AcDbSpline
 62
7
  6
CONTINUOUS
 70
0
 71
3
 72
71
 73
67
 74
0
 42
0.0000001
 43
0.0000001
 44
0.0000000001
 40
0.0
 40
0.0
 40
0.0
 40
0.0
 40
0.0149701622
 40
0.0299433828
 40
0.0449227028
 40
0.0599111246
 40
0.0749115948
 40
0.0899269886
 40
0.1049600895
 40
0.120013573
 40
0.1350899941
 40
0.1501917695
 40
0.165321163
 40
0.180480277
 40
0.1956710384
 40
0.2108951862
 40
0.2261542673
 40
0.2414496274
 40
0.2567824002
 40
0.2721535092
 40
0.2875636617
 40
0.3030133419
 40
0.3185028169
 40
0.3340321343
 40
0.34960112
 40
0.3652093858
 40
0.3808563328
 40
0.3965411509
 40
0.4122628307
 40
0.428020169
 40
0.4438117721
 40
0.4596360694
 40
0.475491322
 40
0.4913756286
 40
0.5072869404
 40
0.5232230722
 40
0.5391817101
 40
0.5551604278
 40
0.5711566993
 40
0.5871679078
 40
0.6031913633
 40
0.6192243155
 40
0.6352639647
 40
0.6513074791
 40
0.6673520087
 40
0.683394696
 40
0.6994326945
 40
0.7154631813
 40
0.7314833687
 40
0.7474905224
 40
0.7634819732
 40
0.7794551283
 40
0.7954074893
 40
0.811336662
 40
0.8272403677
 40
0.8431164596
 40
0.8589629314
 40
0.8747779261
 40
0.890559756
 40
0.9063068963
 40
0.9220180004
 40
0.9376919706
 40
0.9533277655
 40
0.9689245666
 40
0.9844825444
 40
1.0
 40
1.0
 40
1.0
 40
1.0
 10
9.7471331958
 20
8.3706292944
 30
0.0
 10
9.7389703007
 20
8.3627445551
 30
0.0
 10
9.7223274095
 20
8.3472963041
 30
0.0
 10
9.6964592689
 20
8.3251317304
 30
0.0
 10
9.6697201273
 20
8.3040028892
 30
0.0
 10
9.6421472525
 20
8.2839394053
 30
0.0
 10
9.6137785257
 20
8.2649686596
 30
0.0
 10
9.5846530123
 20
8.2471167986
 30
0.0
 10
9.5548107428
 20
8.230408449
 30
0.0
 10
9.5242928493
 20
8.214866493
 30
0.0
 10
9.4931413218
 20
8.200512306
 30
0.0
 10
9.461398992
 20
8.187365714
 30
0.0
 10
9.4291095859
 20
8.1754446856
 30
0.0
 10
9.3963175309
 20
8.1647655972
 30
0.0
 10
9.3630679178
 20
8.1553432196
 30
0.0
 10
9.3294065257
 20
8.147190393
 30
0.0
 10
9.2953796634
 20
8.1403182938
 30
0.0
 10
9.2610341223
 20
8.1347364564
 30
0.0
 10
9.2264171671
 20
8.1304524394
 30
0.0
 10
9.1915764114
 20
8.1274720842
 30
0.0
 10
9.156559768
 20
8.1257995728
 30
0.0
 10
9.1214154037
 20
8.1254370944
 30
0.0
 10
9.0861916459
 20
8.1263850865
 30
0.0
 10
9.0509369362
 20
8.1286423292
 30
0.0
 10
9.0156997513
 20
8.1322056199
 30
0.0
 10
8.980528533
 20
8.1370699901
 30
0.0
 10
8.9454716537
 20
8.1432288344
 30
0.0
 10
8.9105773048
 20
8.150673602
 30
0.0
 10
8.8758934433
 20
8.1593939826
 30
0.0
 10
8.8414677753
 20
8.1693780682
 30
0.0
 10
8.8073476158
 20
8.1806120672
 30
0.0
 10
8.7735798444
 20
8.1930804576
 30
0.0
 10
8.7402109122
 20
8.2067661766
 30
0.0
 10
8.707286678
 20
8.2216503629
 30
0.0
 10
8.6748523649
 20
8.2377124767
 30
0.0
 10
8.6429525953
 20
8.2549305113
 30
0.0
 10
8.6116312101
 20
8.2732807684
 30
0.0
 10
8.5809312176
 20
8.2927379457
 30
0.0
 10
8.5508948603
 20
8.3132753647
 30
0.0
 10
8.5215634237
 20
8.3348647816
 30
0.0
 10
8.4929771703
 20
8.357476445
 30
0.0
 10
8.4651754411
 20
8.3810793342
 30
0.0
 10
8.4381964596
 20
8.4056410069
 30
0.0
 10
8.4120772458
 20
8.4311276311
 30
0.0
 10
8.3868537524
 20
8.457504227
 30
0.0
 10
8.3625606722
 20
8.4847345521
 30
0.0
 10
8.339231326
 20
8.5127811119
 30
0.0
 10
8.3168978334
 20
8.5416054002
 30
0.0
 10
8.2955909306
 20
8.5711678183
 30
0.0
 10
8.2753398278
 20
8.6014276732
 30
0.0
 10
8.2561724142
 20
8.6323434077
 30
0.0
 10
8.2381150916
 20
8.6638725529
 30
0.0
 10
8.2211925996
 20
8.6959717196
 30
0.0
 10
8.2054282514
 20
8.7285968134
 30
0.0
 10
8.1908437893
 20
8.7617030155
 30
0.0
 10
8.1774591777
 20
8.7952447768
 30
0.0
 10
8.1652928646
 20
8.8291760096
 30
0.0
 10
8.1543616627
 20
8.8634500965
 30
0.0
 10
8.1446805195
 20
8.8980198889
 30
0.0
 10
8.1362627868
 20
8.9328378702
 30
0.0
 10
8.1291201237
 20
8.967856216
 30
0.0
 10
8.1232623188
 20
9.0030267477
 30
0.0
 10
8.1186974258
 20
9.0383009816
 30
0.0
 10
8.1154317412
 20
9.0736310164
 30
0.0
 10
8.1134699902
 20
9.1089670862
 30
0.0
 10
8.1130324289
 20
9.132528117
 30
0.0
 10
8.1130324289
 20
9.1442921235
 30
0.0
  0
SPLINE
  5
38F
100
AcDbEntity
  8
0
100
AcDbSpline
 62
7
  6
CONTINUOUS
 70
0
 71
3
 72
56
 73
52
 74
0
 42
0.0000001
 43
0.0000001
 44
0.0000000001
 40
0.0
 40
0.0
 40
0.0
 40
0.0
 40
0.0104143655
 40
0.0212919882
 40
0.0326447888
 40
0.0444830372
 40
0.0568150542
 40
0.0696459834
 40
0.0829779697
 40
0.0968109124
 40
0.1111422535
 40
0.1259675858
 40
0.1412798879
 40
0.1570705182
 40
0.1733282814
 40
0.1900404136
 40
0.2247647574
 40
0.2611005701
 40
0.2988726079
 40
0.3378753364
 40
0.3778748066
 40
0.41861163
 40
0.4598056693
 40
0.5011608136
 40
0.5423710311
 40
0.5831304941
 40
0.6231414352
 40
0.6621203903
 40
0.6998046021
 40
0.7359573415
 40
0.7703718905
 40
0.7868719033
 40
0.8028748562
 40
0.8183644617
 40
0.8333267087
 40
0.8477499185
 40
0.8616247863
 40
0.8749444507
 40
0.8877045715
 40
0.8999034631
 40
0.9115422551
 40
0.922625086
 40
0.933159378
 40
0.9431561526
 40
0.952630473
 40
0.9616019671
 40
0.9700953529
 40
0.9781412292
 40
0.9857766274
 40
0.9930456749
 40
1.0
 40
1.0
 40
1.0
 40
1.0
 10
11.3639586713
 20
7.4118397693
 30
0.0
 10
11.3652965494
 20
7.4117914928
 30
0.0
 10
11.3680296666
 20
7.4116236841
 30
0.0
 10
11.3722036324
 20
7.4111786213
 30
0.0
 10
11.3765369125
 20
7.4105364755
 30
0.0
 10
11.3810269581
 20
7.4096995721
 30
0.0
 10
11.385671562
 20
7.4086703927
 30
0.0
 10
11.3904683495
 20
7.4074517678
 30
0.0
 10
11.3954147263
 20
7.4060469203
 30
0.0
 10
11.4005077943
 20
7.4044592425
 30
0.0
 10
11.4057445636
 20
7.4026927318
 30
0.0
 10
11.4111216605
 20
7.4007514451
 30
0.0
 10
11.4166355676
 20
7.3986400574
 30
0.0
 10
11.4222822869
 20
7.3963633466
 30
0.0
 10
11.4280576221
 20
7.3939266535
 30
0.0
 10
11.4360251132
 20
7.3904269421
 30
0.0
 10
11.4462628418
 20
7.3856811111
 30
0.0
 10
11.4588229938
 20
7.3795172585
 30
0.0
 10
11.4717556718
 20
7.3728702227
 30
0.0
 10
11.4849984088
 20
7.3658006334
 30
0.0
 10
11.4984801365
 20
7.3583725732
 30
0.0
 10
11.5121213912
 20
7.35065262
 30
0.0
 10
11.5258350485
 20
7.3427085135
 30
0.0
 10
11.5395274603
 20
7.3346077288
 30
0.0
 10
11.5531003308
 20
7.3264158194
 30
0.0
 10
11.5664530306
 20
7.3181946858
 30
0.0
 10
11.5794850729
 20
7.3100010485
 30
0.0
 10
11.5920982421
 20
7.3018853277
 30
0.0
 10
11.6041986142
 20
7.2938909687
 30
0.0
 10
11.6156981521
 20
7.2860540142
 30
0.0
 10
11.6248369134
 20
7.2795910901
 30
0.0
 10
11.6317790827
 20
7.2745111482
 30
0.0
 10
11.6367144281
 20
7.2708090663
 30
0.0
 10
11.6414440986
 20
7.2671630385
 30
0.0
 10
11.6459609017
 20
7.2635744424
 30
0.0
 10
11.6502582022
 20
7.2600443672
 30
0.0
 10
11.6543298976
 20
7.2565736136
 30
0.0
 10
11.6581704064
 20
7.2531627357
 30
0.0
 10
11.6617746509
 20
7.2498120709
 30
0.0
 10
11.6651380407
 20
7.2465217709
 30
0.0
 10
11.6682564516
 20
7.2432918309
 30
0.0
 10
11.6711262044
 20
7.2401221179
 30
0.0
 10
11.6737440418
 20
7.2370124023
 30
0.0
 10
11.6761070981
 20
7.2339623752
 30
0.0
 10
11.6782128518
 20
7.2309716597
 30
0.0
 10
11.6800591804
 20
7.2280398966
 30
0.0
 10
11.6816441174
 20
7.2251666219
 30
0.0
 10
11.682966138
 20
7.2223515501
 30
0.0
 10
11.6840236554
 20
7.2195942098
 30
0.0
 10
11.6848154948
 20
7.2168948807
 30
0.0
 10
11.685172385
 20
7.2150984411
 30
0.0
 10
11.6853030968
 20
7.2142140822
 30
0.0
  0
SPLINE
  5
390
100
AcDbEntity
  8
0
100
AcDbSpline
 62
7
  6
CONTINUOUS
 70
0
 71
3
 72
35
 73
31
 74
0
 42
0.0000001
 43
0.0000001
 44
0.0000000001
 40
0.0
 40
0.0
 40
0.0
 40
0.0
 40
0.0308202574
 40
0.0617170014
 40
0.0926874753
 40
0.1237283542
 40
0.1548359178
 40
0.1860060694
 40
0.21723433
 40
0.2485158844
 40
0.2798456145
 40
0.3112181164
 40
0.3426277424
 40
0.3740686367
 40
0.4370091288
 40
0.5000005996
 40
0.5629920495
 40
0.6259324796
 40
0.6573733282
 40
0.6887828991
 40
0.7201553354
 40
0.751484992
 40
0.7827664645
 40
0.8139946336
 40
0.8451646876
 40
0.876272148
 40
0.9073129118
 40
0.9382832666
 40
0.9691799127
 40
1.0
 40
1.0
 40
1.0
 40
1.0
 10
11.2105805374
 20
7.8848570728
 30
0.0
 10
11.2121549947
 20
7.8755044429
 30
0.0
 10
11.2156714641
 20
7.8568351407
 30
0.0
 10
11.2220284052
 20
7.8290232673
 30
0.0
 10
11.2294647284
 20
7.8014096283
 30
0.0
 10
11.2379686607
 20
7.7740381064
 30
0.0
 10
11.2475267698
 20
7.7469514856
 30
0.0
 10
11.258124103
 20
7.720192337
 30
0.0
 10
11.2697440327
 20
7.6938026501
 30
0.0
 10
11.2823682103
 20
7.6678238059
 30
0.0
 10
11.2959769058
 20
7.6422965728
 30
0.0
 10
11.3105486817
 20
7.6172611295
 30
0.0
 10
11.3260608973
 20
7.5927563076
 30
0.0
 10
11.3479699583
 20
7.5608350236
 30
0.0
 10
11.3775822083
 20
7.5224546209
 30
0.0
 10
11.4164361049
 20
7.4791380833
 30
0.0
 10
11.4583825672
 20
7.4388089379
 30
0.0
 10
11.4957155719
 20
7.4078867204
 30
0.0
 10
11.5268597686
 20
7.3848864931
 30
0.0
 10
11.5508132574
 20
7.3685358797
 30
0.0
 10
11.5753295777
 20
7.3531067959
 30
0.0
 10
11.6003706871
 20
7.33862318
 30
0.0
 10
11.6258972056
 20
7.3251079036
 30
0.0
 10
11.6518690562
 20
7.3125820706
 30
0.0
 10
11.6782455035
 20
7.3010654151
 30
0.0
 10
11.7049851847
 20
7.2905760694
 30
0.0
 10
11.7320460578
 20
7.2811304224
 30
0.0
 10
11.7593858261
 20
7.2727433372
 30
0.0
 10
11.7869610459
 20
7.2654281832
 30
0.0
 10
11.8054974541
 20
7.2612680356
 30
0.0
 10
11.8147899718
 20
7.2593710046
 30
0.0
  0
SPLINE
  5
391
100
AcDbEntity
  8
0
100
AcDbSpline
 62
7
  6
CONTINUOUS
 70
0
 71
3
 72
15
 73
11
 74
0
 42
0.0000001
 43
0.0000001
 44
0.0000000001
 40
0.0
 40
0.0
 40
0.0
 40
0.0
 40
0.1125414665
 40
0.2276172026
 40
0.3458470038
 40
0.4678204139
 40
0.5940343808
 40
0.7248122497
 40
0.860216823
 40
1.0
 40
1.0
 40
1.0
 40
1.0
 10
9.3707672106
 20
9.5881396974
 30
0.0
 10
9.3698973601
 20
9.5851448713
 30
0.0
 10
9.3679553629
 20
9.5791393841
 30
0.0
 10
9.3644897086
 20
9.570199342
 30
0.0
 10
9.3604400736
 20
9.5612208285
 30
0.0
 10
9.3558035807
 20
9.5521831668
 30
0.0
 10
9.3505802762
 20
9.5430690009
 30
0.0
 10
9.3447764913
 20
9.5338703424
 30
0.0
 10
9.3384080323
 20
9.5245939776
 30
0.0
 10
9.3338696268
 20
9.5184637279
 30
0.0
 10
9.3315139393
 20
9.5153889003
 30
0.0
  0
SPLINE
  5
392
100
AcDbEntity
  8
0
100
AcDbSpline
 62
7
  6
CONTINUOUS
 70
0
 71
3
 72
28
 73
24
 74
0
 42
0.0000001
 43
0.0000001
 44
0.0000000001
 40
0.0
 40
0.0
 40
0.0
 40
0.0
 40
0.0637760561
 40
0.0955878952
 40
0.1273461456
 40
0.1907020113
 40
0.2538545498
 40
0.2853587995
 40
0.3168148476
 40
0.3795822178
 40
0.4421719615
 40
0.5045963759
 40
0.5668693678
 40
0.6290063485
 40
0.6600315374
 40
0.6910291167
 40
0.7220013686
 40
0.7529506362
 40
0.8147848192
 40
0.8765565453
 40
0.9074279109
 40
0.9382913746
 40
1.0
 40
1.0
 40
1.0
 40
1.0
 10
7.9314383979
 20
6.8019584433
 30
0.0
 10
7.9314383979
 20
6.8171404928
 30
0.0
 10
7.9319839186
 20
6.839900491
 30
0.0
 10
7.9338090099
 20
6.8701626967
 30
0.0
 10
7.9363586974
 20
6.9002726784
 30
0.0
 10
7.9409057125
 20
6.9376889821
 30
0.0
 10
7.9472686249
 20
6.9747785692
 30
0.0
 10
7.9534359833
 20
7.0041624824
 30
0.0
 10
7.9603065264
 20
7.0332956906
 30
0.0
 10
7.970223198
 20
7.0693015156
 30
0.0
 10
7.9842324992
 20
7.1117705857
 30
0.0
 10
8.0003108423
 20
7.1533750585
 30
0.0
 10
8.0184207241
 20
7.1940176617
 30
0.0
 10
8.035180234
 20
7.2270257056
 30
0.0
 10
8.0495579437
 20
7.2528525441
 30
0.0
 10
8.0608161718
 20
7.2719166433
 30
0.0
 10
8.0725473966
 20
7.2906720668
 30
0.0
 10
8.0888046252
 20
7.3152438559
 30
0.0
 10
8.1102780236
 20
7.3451407903
 30
0.0
 10
8.133244812
 20
7.3738825687
 30
0.0
 10
8.1524719757
 20
7.3961291897
 30
0.0
 10
8.1722538637
 20
7.4178628047
 30
0.0
 10
8.1877139894
 20
7.4335847427
 30
0.0
 10
8.1982797698
 20
7.4437904874
 30
0.0
  0
SPLINE
  5
393
100
AcDbEntity
  8
0
100
AcDbSpline
 62
7
  6
CONTINUOUS
 70
0
 71
3
 72
26
 73
22
 74
0
 42
0.0000001
 43
0.0000001
 44
0.0000000001
 40
0.0
 40
0.0
 40
0.0
 40
0.0
 40
0.061831016
 40
0.1239149804
 40
0.1862255582
 40
0.2487320208
 40
0.3113998685
 40
0.374191519
 40
0.43706704
 40
0.4999849143
 40
0.5629028274
 40
0.6257784648
 40
0.6885703081
 40
0.7512384205
 40
0.813745213
 40
0.8449317777
 40
0.876065372
 40
0.9071422857
 40
0.9381590727
 40
0.9691125884
 40
1.0
 40
1.0
 40
1.0
 40
1.0
 10
11.272403357
 20
7.8631915943
 30
0.0
 10
11.2759842856
 20
7.8472978512
 30
0.0
 10
11.2842823648
 20
7.815686518
 30
0.0
 10
11.3000178017
 20
7.7691692027
 30
0.0
 10
11.3189887958
 20
7.7236798617
 30
0.0
 10
11.3410955977
 20
7.6794581976
 30
0.0
 10
11.3662231366
 20
7.6367333688
 30
0.0
 10
11.3942404541
 20
7.5957278004
 30
0.0
 10
11.4250017024
 20
7.556654707
 30
0.0
 10
11.4583467666
 20
7.5197173385
 30
0.0
 10
11.4941021583
 20
7.4851078059
 30
0.0
 10
11.5320817783
 20
7.4530062251
 30
0.0
 10
11.5720884736
 20
7.4235795004
 30
0.0
 10
11.6139127876
 20
7.3969815011
 30
0.0
 10
11.6501327244
 20
7.3772717377
 30
0.0
 10
11.6797975317
 20
7.3630526729
 30
0.0
 10
11.702346395
 20
7.3531818221
 30
0.0
 10
11.7251801761
 20
7.3441104927
 30
0.0
 10
11.7482696278
 20
7.3358504872
 30
0.0
 10
11.7715841415
 20
7.3284125654
 30
0.0
 10
11.78727513
 20
7.3240034612
 30
0.0
 10
11.7951477467
 20
7.3219395145
 30
0.0
  0
SPLINE
  5
394
100
AcDbEntity
  8
0
100
AcDbSpline
 62
7
  6
CONTINUOUS
 70
0
 71
3
 72
53
 73
49
 74
0
 42
0.0000001
 43
0.0000001
 44
0.0000000001
 40
0.0
 40
0.0
 40
0.0
 40
0.0
 40
0.0417737855
 40
0.0840372804
 40
0.1266586658
 40
0.1695068268
 40
0.2124484817
 40
0.2553505161
 40
0.2980797819
 40
0.3405038709
 40
0.3824915641
 40
0.4239133811
 40
0.4646421101
 40
0.5045533515
 40
0.5435260687
 40
0.5814431539
 40
0.6181920188
 40
0.6536652174
 40
0.6877611189
 40
0.7203846489
 40
0.7361168986
 40
0.751448868
 40
0.7663708503
 40
0.7808738904
 40
0.7949495081
 40
0.8085900804
 40
0.821788593
 40
0.8345389529
 40
0.8468359066
 40
0.8586751859
 40
0.8700536732
 40
0.8809693639
 40
0.891421781
 40
0.9014118319
 40
0.9109423967
 40
0.9200182439
 40
0.9286466706
 40
0.9368376675
 40
0.9446045284
 40
0.9519643801
 40
0.9589387458
 40
0.9655544017
 40
0.9718438599
 40
0.9778462342
 40
0.9836073809
 40
0.9891800528
 40
0.994623075
 40
1.0
 40
1.0
 40
1.0
 40
1.0
 10
12.7979456425
 20
9.0146081531
 30
0.0
 10
12.7979456425
 20
9.004701932
 30
0.0
 10
12.7977910854
 20
8.9847730491
 30
0.0
 10
12.7971078687
 20
8.9547439854
 30
0.0
 10
12.7959738482
 20
8.9244735604
 30
0.0
 10
12.7943928112
 20
8.8940621895
 30
0.0
 10
12.792369932
 20
8.8636103116
 30
0.0
 10
12.7899119254
 20
8.8332187496
 30
0.0
 10
12.7870269206
 20
8.8029880228
 30
0.0
 10
12.7837244862
 20
8.7730181511
 30
0.0
 10
12.7800155767
 20
8.7434082751
 30
0.0
 10
12.7759125048
 20
8.7142563396
 30
0.0
 10
12.771428899
 20
8.6856587619
 30
0.0
 10
12.7665796621
 20
8.6577101087
 30
0.0
 10
12.7613809198
 20
8.6305027798
 30
0.0
 10
12.7558499697
 20
8.6041266915
 30
0.0
 10
12.750005222
 20
8.578668991
 30
0.0
 10
12.7438661506
 20
8.5542136878
 30
0.0
 10
12.7374531904
 20
8.5308416074
 30
0.0
 10
12.731832858
 20
8.5121118834
 30
0.0
 10
12.7272064892
 20
8.4977346108
 30
0.0
 10
12.7237236919
 20
8.4874001747
 30
0.0
 10
12.7201887065
 20
8.4773920854
 30
0.0
 10
12.7166045297
 20
8.4677185802
 30
0.0
 10
12.7129740455
 20
8.4583876571
 30
0.0
 10
12.7093003456
 20
8.4494069924
 30
0.0
 10
12.7055864052
 20
8.440783996
 30
0.0
 10
12.7018353392
 20
8.4325257551
 30
0.0
 10
12.698050237
 20
8.4246390563
 30
0.0
 10
12.6942341986
 20
8.4171303791
 30
0.0
 10
12.6903904222
 20
8.4100058517
 30
0.0
 10
12.6865219749
 20
8.403271326
 30
0.0
 10
12.6826321267
 20
8.3969322434
 30
0.0
 10
12.6787239132
 20
8.3909938023
 30
0.0
 10
12.6748006017
 20
8.3854607474
 30
0.0
 10
12.6708652068
 20
8.3803375891
 30
0.0
 10
12.6669208914
 20
8.3756283968
 30
0.0
 10
12.6629706364
 20
8.3713369713
 30
0.0
 10
12.6590173976
 20
8.3674667739
 30
0.0
 10
12.6550640717
 20
8.3640209315
 30
0.0
 10
12.6511133455
 20
8.3610024481
 30
0.0
 10
12.6471679931
 20
8.3584139426
 30
0.0
 10
12.6432305427
 20
8.356258216
 30
0.0
 10
12.6393038044
 20
8.3545376876
 30
0.0
 10
12.6353906984
 20
8.3532551258
 30
0.0
 10
12.6314945304
 20
8.3524128363
 30
0.0
 10
12.6276199805
 20
8.3520129797
 30
0.0
 10
12.6250476143
 20
8.3520424032
 30
0.0
 10
12.6237755881
 20
8.3521306285
 30
0.0
  0
SPLINE
  5
395
100
AcDbEntity
  8
0
100
AcDbSpline
 62
4
  6
CONTINUOUS
 70
0
 71
3
 72
327
 73
323
 74
0
 42
0.0000001
 43
0.0000001
 44
0.0000000001
 40
0.0
 40
0.0
 40
0.0
 40
0.0
 40
0.015625
 40
0.0234375
 40
0.03125
 40
0.0390625
 40
0.04296875
 40
0.046875
 40
0.05078125
 40
0.0546875
 40
0.056640625
 40
0.05859375
 40
0.0595703125
 40
0.060546875
 40
0.0615234375
 40
0.0620117188
 40
0.0625
 40
0.0629882812
 40
0.0634765625
 40
0.064453125
 40
0.0654296875
 40
0.06640625
 40
0.068359375
 40
0.0703125
 40
0.07421875
 40
0.078125
 40
0.08203125
 40
0.0859375
 40
0.09375
 40
0.1015625
 40
0.109375
 40
0.11328125
 40
0.1171875
 40
0.119140625
 40
0.12109375
 40
0.123046875
 40
0.1240234375
 40
0.1245117188
 40
0.125
 40
0.1254882812
 40
0.1259765625
 40
0.126953125
 40
0.12890625
 40
0.130859375
 40
0.1328125
 40
0.13671875
 40
0.140625
 40
0.1484375
 40
0.15625
 40
0.1640625
 40
0.171875
 40
0.17578125
 40
0.1796875
 40
0.181640625
 40
0.18359375
 40
0.185546875
 40
0.1865234375
 40
0.1870117188
 40
0.1875
 40
0.1879882812
 40
0.1884765625
 40
0.189453125
 40
0.19140625
 40
0.193359375
 40
0.1953125
 40
0.19921875
 40
0.203125
 40
0.2109375
 40
0.21875
 40
0.2265625
 40
0.234375
 40
0.23828125
 40
0.2421875
 40
0.244140625
 40
0.24609375
 40
0.248046875
 40
0.2490234375
 40
0.2495117188
 40
0.25
 40
0.2504882812
 40
0.2509765625
 40
0.251953125
 40
0.25390625
 40
0.255859375
 40
0.2578125
 40
0.26171875
 40
0.265625
 40
0.2734375
 40
0.28125
 40
0.2890625
 40
0.296875
 40
0.30078125
 40
0.3046875
 40
0.30859375
 40
0.310546875
 40
0.3115234375
 40
0.3125
 40
0.3134765625
 40
0.314453125
 40
0.31640625
 40
0.3203125
 40
0.32421875
 40
0.328125
 40
0.3359375
 40
0.34375
 40
0.3515625
 40
0.359375
 40
0.36328125
 40
0.3671875
 40
0.37109375
 40
0.373046875
 40
0.3740234375
 40
0.375
 40
0.3759765625
 40
0.376953125
 40
0.37890625
 40
0.3828125
 40
0.38671875
 40
0.390625
 40
0.3984375
 40
0.40625
 40
0.4140625
 40
0.421875
 40
0.42578125
 40
0.4296875
 40
0.43359375
 40
0.435546875
 40
0.4365234375
 40
0.4375
 40
0.4384765625
 40
0.439453125
 40
0.44140625
 40
0.4453125
 40
0.44921875
 40
0.453125
 40
0.4609375
 40
0.46875
 40
0.4765625
 40
0.484375
 40
0.48828125
 40
0.4921875
 40
0.494140625
 40
0.49609375
 40
0.498046875
 40
0.4990234375
 40
0.5
 40
0.5009765625
 40
0.501953125
 40
0.50390625
 40
0.505859375
 40
0.5078125
 40
0.51171875
 40
0.515625
 40
0.5234375
 40
0.53125
 40
0.5390625
 40
0.546875
 40
0.55078125
 40
0.5546875
 40
0.556640625
 40
0.55859375
 40
0.560546875
 40
0.5615234375
 40
0.5620117188
 40
0.5625
 40
0.5629882812
 40
0.5634765625
 40
0.564453125
 40
0.56640625
 40
0.568359375
 40
0.5703125
 40
0.57421875
 40
0.578125
 40
0.5859375
 40
0.59375
 40
0.6015625
 40
0.609375
 40
0.61328125
 40
0.6171875
 40
0.619140625
 40
0.62109375
 40
0.623046875
 40
0.6240234375
 40
0.6245117188
 40
0.625
 40
0.6254882812
 40
0.6259765625
 40
0.626953125
 40
0.62890625
 40
0.630859375
 40
0.6328125
 40
0.63671875
 40
0.640625
 40
0.6484375
 40
0.65625
 40
0.6640625
 40
0.671875
 40
0.67578125
 40
0.6796875
 40
0.681640625
 40
0.68359375
 40
0.685546875
 40
0.6865234375
 40
0.6870117188
 40
0.6875
 40
0.6879882812
 40
0.6884765625
 40
0.689453125
 40
0.69140625
 40
0.693359375
 40
0.6953125
 40
0.69921875
 40
0.703125
 40
0.7109375
 40
0.71875
 40
0.7265625
 40
0.73046875
 40
0.734375
 40
0.73828125
 40
0.7421875
 40
0.744140625
 40
0.74609375
 40
0.7470703125
 40
0.748046875
 40
0.7490234375
 40
0.7495117188
 40
0.7497558594
 40
0.75
 40
0.7502441406
 40
0.7504882812
 40
0.7509765625
 40
0.751953125
 40
0.7529296875
 40
0.75390625
 40
0.755859375
 40
0.7578125
 40
0.76171875
 40
0.765625
 40
0.76953125
 40
0.7734375
 40
0.78125
 40
0.7890625
 40
0.79296875
 40
0.796875
 40
0.80078125
 40
0.8046875
 40
0.806640625
 40
0.80859375
 40
0.8095703125
 40
0.810546875
 40
0.8115234375
 40
0.8120117188
 40
0.8122558594
 40
0.8125
 40
0.8127441406
 40
0.8129882812
 40
0.8134765625
 40
0.814453125
 40
0.8154296875
 40
0.81640625
 40
0.818359375
 40
0.8203125
 40
0.82421875
 40
0.828125
 40
0.83203125
 40
0.8359375
 40
0.84375
 40
0.8515625
 40
0.85546875
 40
0.859375
 40
0.86328125
 40
0.8671875
 40
0.869140625
 40
0.87109375
 40
0.8720703125
 40
0.873046875
 40
0.8740234375
 40
0.8745117188
 40
0.8747558594
 40
0.875
 40
0.8752441406
 40
0.8754882812
 40
0.8759765625
 40
0.876953125
 40
0.8779296875
 40
0.87890625
 40
0.880859375
 40
0.8828125
 40
0.88671875
 40
0.890625
 40
0.89453125
 40
0.8984375
 40
0.90625
 40
0.9140625
 40
0.91796875
 40
0.921875
 40
0.92578125
 40
0.9296875
 40
0.931640625
 40
0.93359375
 40
0.9345703125
 40
0.935546875
 40
0.9365234375
 40
0.9370117188
 40
0.9372558594
 40
0.9375
 40
0.9377441406
 40
0.9379882812
 40
0.9384765625
 40
0.939453125
 40
0.9404296875
 40
0.94140625
 40
0.943359375
 40
0.9453125
 40
0.94921875
 40
0.953125
 40
0.95703125
 40
0.9609375
 40
0.96875
 40
0.9765625
 40
0.984375
 40
1.0
 40
1.0
 40
1.0
 40
1.0
 10
13.4369693375
 20
9.9038623814
 30
0.0
 10
13.4352902692
 20
9.9016261025
 30
0.0
 10
13.4327716667
 20
9.8982716842
 30
0.0
 10
13.4294135301
 20
9.8937991263
 30
0.0
 10
13.4268949276
 20
9.8904447083
 30
0.0
 10
13.4247960922
 20
9.8876493588
 30
0.0
 10
13.4231170238
 20
9.8854130817
 30
0.0
 10
13.4218577228
 20
9.8837358673
 30
0.0
 10
13.4205984205
 20
9.8820586778
 30
0.0
 10
13.4195490062
 20
9.8806609422
 30
0.0
 10
13.4187094651
 20
9.8795429279
 30
0.0
 10
13.418184774
 20
9.8788437723
 30
0.0
 10
13.4177649704
 20
9.8782853562
 30
0.0
 10
13.4174502567
 20
9.8778640571
 30
0.0
 10
13.4171875529
 20
9.877520886
 30
0.0
 10
13.4169783822
 20
9.877228605
 30
0.0
 10
13.4168187927
 20
9.87705788
 30
0.0
 10
13.4166695527
 20
9.8767020838
 30
0.0
 10
13.4164669508
 20
9.8762923368
 30
0.0
 10
13.4162149387
 20
9.8757579726
 30
0.0
 10
13.4159119933
 20
9.8751262295
 30
0.0
 10
13.4155082516
 20
9.8742805893
 30
0.0
 10
13.4150035109
 20
9.8732246744
 30
0.0
 10
13.4141959614
 20
9.8715345761
 30
0.0
 10
13.4131865122
 20
9.869422171
 30
0.0
 10
13.4119751785
 20
9.8668871915
 30
0.0
 10
13.4107638433
 20
9.8643522371
 30
0.0
 10
13.4091487303
 20
9.8609722886
 30
0.0
 10
13.4071298385
 20
9.8567473595
 30
0.0
 10
13.4047071704
 20
9.8516774272
 30
0.0
 10
13.4026882742
 20
9.8474525329
 30
0.0
 10
13.4010731708
 20
9.8440725078
 30
0.0
 10
13.4000637003
 20
9.8419602416
 30
0.0
 10
13.3992561946
 20
9.8402698573
 30
0.0
 10
13.3986503718
 20
9.8390036335
 30
0.0
 10
13.3981461348
 20
9.8379434704
 30
0.0
 10
13.3977919615
 20
9.8372111225
 30
0.0
 10
13.397591462
 20
9.8367773889
 30
0.0
 10
13.3974357767
 20
9.8364950455
 30
0.0
 10
13.3973003915
 20
9.8360484996
 30
0.0
 10
13.3971127971
 20
9.8355103808
 30
0.0
 10
13.3967878059
 20
9.8345419871
 30
0.0
 10
13.3963218079
 20
9.8331725191
 30
0.0
 10
13.3957633486
 20
9.8315231858
 30
0.0
 10
13.3950184784
 20
9.8293261606
 30
0.0
 10
13.3940874789
 20
9.8265791648
 30
0.0
 10
13.3925978304
 20
9.8221843709
 30
0.0
 10
13.3907357868
 20
9.8166907406
 30
0.0
 10
13.3885013266
 20
9.810098447
 30
0.0
 10
13.3862668708
 20
9.8035061229
 30
0.0
 10
13.3844048161
 20
9.7980125689
 30
0.0
 10
13.3829151898
 20
9.7936176225
 30
0.0
 10
13.3819841338
 20
9.7908710141
 30
0.0
 10
13.3812393796
 20
9.7886731938
 30
0.0
 10
13.380680566
 20
9.7870262893
 30
0.0
 10
13.3802156766
 20
9.7856492223
 30
0.0
 10
13.3798887064
 20
9.7846943942
 30
0.0
 10
13.3797042829
 20
9.7841345398
 30
0.0
 10
13.3795591576
 20
9.7837547588
 30
0.0
 10
13.3794400543
 20
9.7832216576
 30
0.0
 10
13.3792721732
 20
9.7825643357
 30
0.0
 10
13.3789826102
 20
9.7813891052
 30
0.0
 10
13.3785667378
 20
9.7797232315
 30
0.0
 10
13.3780686373
 20
9.7777186071
 30
0.0
 10
13.3774041727
 20
9.7750477221
 30
0.0
 10
13.3765737052
 20
9.7717084491
 30
0.0
 10
13.3752448939
 20
9.7663659849
 30
0.0
 10
13.3735839017
 20
9.7596877764
 30
0.0
 10
13.3715907006
 20
9.7516739833
 30
0.0
 10
13.3695975061
 20
9.7436601668
 30
0.0
 10
13.3679364976
 20
9.7369820167
 30
0.0
 10
13.3666077188
 20
9.7316394357
 30
0.0
 10
13.3657771686
 20
9.7283004596
 30
0.0
 10
13.3651128737
 20
9.725628965
 30
0.0
 10
13.364614255
 20
9.7236262031
 30
0.0
 10
13.364200004
 20
9.7219545022
 30
0.0
 10
13.3639075464
 20
9.7207896742
 30
0.0
 10
13.3637443032
 20
9.7201156849
 30
0.0
 10
13.3636109537
 20
9.7196337806
 30
0.0
 10
13.3635193345
 20
9.7190617124
 30
0.0
 10
13.3633826196
 20
9.7183304049
 30
0.0
 10
13.3631501504
 20
9.7170359636
 30
0.0
 10
13.3628145058
 20
9.7151944227
 30
0.0
 10
13.36241325
 20
9.7129812944
 30
0.0
 10
13.3618777121
 20
9.710031602
 30
0.0
 10
13.3612084714
 20
9.7063440943
 30
0.0
 10
13.3601375844
 20
9.7004443018
 30
0.0
 10
13.3587990131
 20
9.6930694819
 30
0.0
 10
13.3571927004
 20
9.6842197488
 30
0.0
 10
13.3555864362
 20
9.675369939
 30
0.0
 10
13.3542477438
 20
9.6679953109
 30
0.0
 10
13.3531770989
 20
9.6620951347
 30
0.0
 10
13.3523732716
 20
9.6576712955
 30
0.0
 10
13.3517060988
 20
9.6539806507
 30
0.0
 10
13.351233812
 20
9.651405269
 30
0.0
 10
13.350972156
 20
9.6499210223
 30
0.0
 10
13.3507527523
 20
9.6488433317
 30
0.0
 10
13.3506218841
 20
9.6476299634
 30
0.0
 10
13.350416511
 20
9.6460594648
 30
0.0
 10
13.3500714967
 20
9.6432890424
 30
0.0
 10
13.3495710965
 20
9.639342824
 30
0.0
 10
13.3489738364
 20
9.6346024276
 30
0.0
 10
13.3481763643
 20
9.6282836229
 30
0.0
 10
13.3471799131
 20
9.6203845239
 30
0.0
 10
13.3459839927
 20
9.6109058665
 30
0.0
 10
13.344788166
 20
9.6014271122
 30
0.0
 10
13.3437914804
 20
9.5935282557
 30
0.0
 10
13.3429944772
 20
9.5872089658
 30
0.0
 10
13.3423957872
 20
9.5824700494
 30
0.0
 10
13.34189986
 20
9.5785192008
 30
0.0
 10
13.3415468608
 20
9.5757570442
 30
0.0
 10
13.3413542815
 20
9.5741733017
 30
0.0
 10
13.3411841149
 20
9.5730006145
 30
0.0
 10
13.3411123097
 20
9.5717701323
 30
0.0
 10
13.34098226
 20
9.5701496488
 30
0.0
 10
13.3407706583
 20
9.56730441
 30
0.0
 10
13.3404600129
 20
9.5632446939
 30
0.0
 10
13.3400908157
 20
9.5583709325
 30
0.0
 10
13.3395973027
 20
9.5518733184
 30
0.0
 10
13.3389808435
 20
9.5437510483
 30
0.0
 10
13.3382408941
 20
9.5340044341
 30
0.0
 10
13.3375010465
 20
9.5242577839
 30
0.0
 10
13.3368843329
 20
9.5161356041
 30
0.0
 10
13.3363913286
 20
9.5096378094
 30
0.0
 10
13.3360205801
 20
9.5047645986
 30
0.0
 10
13.3357147878
 20
9.5007031602
 30
0.0
 10
13.3354945225
 20
9.4978609959
 30
0.0
 10
13.3353783541
 20
9.4962355864
 30
0.0
 10
13.3352639097
 20
9.4950202354
 30
0.0
 10
13.3352538892
 20
9.4937907175
 30
0.0
 10
13.3352041043
 20
9.4921563019
 30
0.0
 10
13.3351339514
 20
9.4892937722
 30
0.0
 10
13.3350248606
 20
9.4852056477
 30
0.0
 10
13.3348977492
 20
9.4802993831
 30
0.0
 10
13.334726941
 20
9.4737578771
 30
0.0
 10
13.334513885
 20
9.4655809317
 30
0.0
 10
13.3342580267
 20
9.4557686289
 30
0.0
 10
13.334002206
 20
9.4459563
 30
0.0
 10
13.3337890558
 20
9.4377794199
 30
0.0
 10
13.333618436
 20
9.4312377833
 30
0.0
 10
13.3335120309
 20
9.4271495616
 30
0.0
 10
13.3334263744
 20
9.4238782945
 30
0.0
 10
13.3333635897
 20
9.4214267325
 30
0.0
 10
13.3333066319
 20
9.419377757
 30
0.0
 10
13.3332714664
 20
9.4177520498
 30
0.0
 10
13.3332166722
 20
9.4164959542
 30
0.0
 10
13.3332703577
 20
9.4153803827
 30
0.0
 10
13.3333040451
 20
9.4138438672
 30
0.0
 10
13.3333591552
 20
9.4119400642
 30
0.0
 10
13.3334197226
 20
9.409648292
 30
0.0
 10
13.3335024227
 20
9.4065951135
 30
0.0
 10
13.3336051324
 20
9.4027777783
 30
0.0
 10
13.3337698398
 20
9.3966705237
 30
0.0
 10
13.3339755967
 20
9.3890362907
 30
0.0
 10
13.3342225583
 20
9.3798752796
 30
0.0
 10
13.3344695103
 20
9.370714258
 30
0.0
 10
13.3346752914
 20
9.3630800512
 30
0.0
 10
13.3348399504
 20
9.3569727442
 30
0.0
 10
13.334942783
 20
9.3531555421
 30
0.0
 10
13.3350252309
 20
9.3501020904
 30
0.0
 10
13.3350865689
 20
9.3478111529
 30
0.0
 10
13.3351392677
 20
9.3459047384
 30
0.0
 10
13.3351730488
 20
9.3445649493
 30
0.0
 10
13.3351972053
 20
9.3438076294
 30
0.0
 10
13.3352016518
 20
9.343216332
 30
0.0
 10
13.3352583552
 20
9.3427141272
 30
0.0
 10
13.3353157319
 20
9.3420134442
 30
0.0
 10
13.3354246339
 20
9.3408017282
 30
0.0
 10
13.335575768
 20
9.3390631354
 30
0.0
 10
13.3357590295
 20
9.3369800642
 30
0.0
 10
13.3360027144
 20
9.3342015042
 30
0.0
 10
13.3363075478
 20
9.3307286918
 30
0.0
 10
13.3367951541
 20
9.3251719752
 30
0.0
 10
13.3374047059
 20
9.3182261545
 30
0.0
 10
13.338136148
 20
9.3098911345
 30
0.0
 10
13.3388675999
 20
9.301556135
 30
0.0
 10
13.3394771274
 20
9.2946102633
 30
0.0
 10
13.3399647824
 20
9.2890536486
 30
0.0
 10
13.3402694919
 20
9.2855805771
 30
0.0
 10
13.340513431
 20
9.282802549
 30
0.0
 10
13.340695916
 20
9.2807178529
 30
0.0
 10
13.3408494795
 20
9.278984344
 30
0.0
 10
13.3409540447
 20
9.2777635523
 30
0.0
 10
13.3410183701
 20
9.2770774108
 30
0.0
 10
13.3410537294
 20
9.2765305392
 30
0.0
 10
13.3411383407
 20
9.2761070027
 30
0.0
 10
13.3412339761
 20
9.2754992667
 30
0.0
 10
13.3414093423
 20
9.2744557728
 30
0.0
 10
13.3416556808
 20
9.2729545879
 30
0.0
 10
13.3419530782
 20
9.2711576515
 30
0.0
 10
13.3423489823
 20
9.2687601697
 30
0.0
 10
13.3428440768
 20
9.2657638538
 30
0.0
 10
13.3436361081
 20
9.2609694484
 30
0.0
 10
13.3446261887
 20
9.2549765455
 30
0.0
 10
13.3458142665
 20
9.247785014
 30
0.0
 10
13.3470023536
 20
9.2405935082
 30
0.0
 10
13.3479924109
 20
9.2346005412
 30
0.0
 10
13.3487844888
 20
9.2298062639
 30
0.0
 10
13.3492794648
 20
9.2268096227
 30
0.0
 10
13.3496756121
 20
9.2244128085
 30
0.0
 10
13.3499722669
 20
9.2226138325
 30
0.0
 10
13.3502209285
 20
9.2211190289
 30
0.0
 10
13.3503921476
 20
9.2200641433
 30
0.0
 10
13.3504944277
 20
9.2194746597
 30
0.0
 10
13.3505586285
 20
9.2189950577
 30
0.0
 10
13.3506706462
 20
9.2186587586
 30
0.0
 10
13.3508033241
 20
9.218160374
 30
0.0
 10
13.3510432816
 20
9.2173114904
 30
0.0
 10
13.3513820151
 20
9.2160866235
 30
0.0
 10
13.3517902343
 20
9.214621995
 30
0.0
 10
13.3523339192
 20
9.2126673366
 30
0.0
 10
13.3530137333
 20
9.2102246369
 30
0.0
 10
13.3541013196
 20
9.206315969
 30
0.0
 10
13.3554608424
 20
9.2014302537
 30
0.0
 10
13.3570922526
 20
9.1955673441
 30
0.0
 10
13.358451765
 20
9.1906815975
 30
0.0
 10
13.3595393742
 20
9.1867729986
 30
0.0
 10
13.3603550808
 20
9.1838415473
 30
0.0
 10
13.361170789
 20
9.1809101051
 30
0.0
 10
13.3618505407
 20
9.1784672083
 30
0.0
 10
13.3623943537
 20
9.1765129541
 30
0.0
 10
13.3627342103
 20
9.1752914013
 30
0.0
 10
13.3630061563
 20
9.1743144888
 30
0.0
 10
13.3632099494
 20
9.1735809016
 30
0.0
 10
13.3633803066
 20
9.1729724507
 30
0.0
 10
13.3634985171
 20
9.1725408994
 30
0.0
 10
13.3635676892
 20
9.1723030983
 30
0.0
 10
13.3636149955
 20
9.1720999589
 30
0.0
 10
13.3636797816
 20
9.1719915736
 30
0.0
 10
13.3637600659
 20
9.1718140086
 30
0.0
 10
13.3639034043
 20
9.1715186689
 30
0.0
 10
13.3641066883
 20
9.1710887043
 30
0.0
 10
13.3643512647
 20
9.1705761928
 30
0.0
 10
13.3646771445
 20
9.1698916405
 30
0.0
 10
13.3650845704
 20
9.1690363622
 30
0.0
 10
13.3657364092
 20
9.1676676867
 30
0.0
 10
13.3665512224
 20
9.1659569212
 30
0.0
 10
13.3675289919
 20
9.1639039689
 30
0.0
 10
13.3685067631
 20
9.1618510256
 30
0.0
 10
13.3698104575
 20
9.1591137646
 30
0.0
 10
13.3714400757
 20
9.1556921897
 30
0.0
 10
13.3730696937
 20
9.1522706139
 30
0.0
 10
13.3743733883
 20
9.1495333543
 30
0.0
 10
13.3753511588
 20
9.1474804071
 30
0.0
 10
13.3763289308
 20
9.1454274692
 30
0.0
 10
13.3771437364
 20
9.1437166587
 30
0.0
 10
13.3777955907
 20
9.142348075
 30
0.0
 10
13.3782029772
 20
9.141492563
 30
0.0
 10
13.3785289379
 20
9.1408084906
 30
0.0
 10
13.3787732673
 20
9.1402945129
 30
0.0
 10
13.3789773242
 20
9.1398691355
 30
0.0
 10
13.3791192827
 20
9.139565607
 30
0.0
 10
13.3792017779
 20
9.1394011626
 30
0.0
 10
13.379259773
 20
9.1392524749
 30
0.0
 10
13.3793325854
 20
9.1392007045
 30
0.0
 10
13.3794245001
 20
9.1390978715
 30
0.0
 10
13.379587759
 20
9.1389336644
 30
0.0
 10
13.3798197271
 20
9.1386908483
 30
0.0
 10
13.3800986276
 20
9.1384029936
 30
0.0
 10
13.3804703067
 20
9.1380179563
 30
0.0
 10
13.3809349701
 20
9.1375370811
 30
0.0
 10
13.3816783954
 20
9.1367674453
 30
0.0
 10
13.3826076895
 20
9.1358054814
 30
0.0
 10
13.383722837
 20
9.13465109
 30
0.0
 10
13.384837986
 20
9.1334967079
 30
0.0
 10
13.3863248509
 20
9.1319575285
 30
0.0
 10
13.3881834321
 20
9.1300335555
 30
0.0
 10
13.3900420132
 20
9.1281095817
 30
0.0
 10
13.3915288782
 20
9.1265704036
 30
0.0
 10
13.3926440266
 20
9.1254160175
 30
0.0
 10
13.3937591761
 20
9.1242616411
 30
0.0
 10
13.3946884643
 20
9.1232996305
 30
0.0
 10
13.3954319016
 20
9.1225300899
 30
0.0
 10
13.3958965345
 20
9.1220489726
 30
0.0
 10
13.3962682763
 20
9.1216644324
 30
0.0
 10
13.3965469852
 20
9.1213750588
 30
0.0
 10
13.3967795528
 20
9.1211369951
 30
0.0
 10
13.3969417413
 20
9.1209643041
 30
0.0
 10
13.3970353711
 20
9.1208750645
 30
0.0
 10
13.3971029156
 20
9.1207815396
 30
0.0
 10
13.3971806961
 20
9.1207896747
 30
0.0
 10
13.3972808329
 20
9.1207650613
 30
0.0
 10
13.397457736
 20
9.1207385093
 30
0.0
 10
13.397709585
 20
9.1206919404
 30
0.0
 10
13.398012176
 20
9.1206397548
 30
0.0
 10
13.3984155006
 20
9.1205688827
 30
0.0
 10
13.398919701
 20
9.1204807347
 30
0.0
 10
13.3997263966
 20
9.1203394508
 30
0.0
 10
13.4007347748
 20
9.1201629307
 30
0.0
 10
13.4019448248
 20
9.1199510703
 30
0.0
 10
13.4031548759
 20
9.1197392196
 30
0.0
 10
13.404768277
 20
9.1194567486
 30
0.0
 10
13.4067850284
 20
9.1191036611
 30
0.0
 10
13.4088017798
 20
9.1187505727
 30
0.0
 10
13.410415181
 20
9.1184681031
 30
0.0
 10
13.4116252317
 20
9.1182562482
 30
0.0
 10
13.4128352832
 20
9.1180444034
 30
0.0
 10
13.4138436571
 20
9.1178678348
 30
0.0
 10
13.4146503613
 20
9.1177266499
 30
0.0
 10
13.4151545398
 20
9.11763825
 30
0.0
 10
13.4155579094
 20
9.117567895
 30
0.0
 10
13.4158603631
 20
9.1175141296
 30
0.0
 10
13.4161126415
 20
9.1174725034
 30
0.0
 10
13.416288778
 20
9.1174371277
 30
0.0
 10
13.4163901431
 20
9.1174266522
 30
0.0
 10
13.416464151
 20
9.1173913602
 30
0.0
 10
13.4165458647
 20
9.1174609403
 30
0.0
 10
13.4166521284
 20
9.1175171331
 30
0.0
 10
13.4168393422
 20
9.1176325143
 30
0.0
 10
13.4171061358
 20
9.1177884338
 30
0.0
 10
13.4174265684
 20
9.1179793513
 30
0.0
 10
13.4178537139
 20
9.1182325759
 30
0.0
 10
13.4183876793
 20
9.1185495626
 30
0.0
 10
13.4192420052
 20
9.1190564866
 30
0.0
 10
13.4203099191
 20
9.1196902289
 30
0.0
 10
13.421591413
 20
9.1204506823
 30
0.0
 10
13.4228729076
 20
9.1212111457
 30
0.0
 10
13.4245815668
 20
9.1222250933
 30
0.0
 10
13.4267173909
 20
9.1234925291
 30
0.0
 10
13.4292803798
 20
9.1250134515
 30
0.0
 10
13.4326976984
 20
9.1270413483
 30
0.0
 10
13.4352606873
 20
9.1285622708
 30
0.0
 10
13.4369693466
 20
9.1295762192
 30
0.0
  0
SPLINE
  5
396
100
AcDbEntity
  8
0
100
AcDbSpline
 62
4
  6
CONTINUOUS
 70
0
 71
3
 72
327
 73
323
 74
0
 42
0.0000001
 43
0.0000001
 44
0.0000000001
 40
0.0
 40
0.0
 40
0.0
 40
0.0
 40
0.015625
 40
0.0234375
 40
0.03125
 40
0.0390625
 40
0.04296875
 40
0.046875
 40
0.05078125
 40
0.0546875
 40
0.056640625
 40
0.05859375
 40
0.0595703125
 40
0.060546875
 40
0.0615234375
 40
0.0620117188
 40
0.0625
 40
0.0629882812
 40
0.0634765625
 40
0.064453125
 40
0.0654296875
 40
0.06640625
 40
0.068359375
 40
0.0703125
 40
0.07421875
 40
0.078125
 40
0.08203125
 40
0.0859375
 40
0.09375
 40
0.1015625
 40
0.109375
 40
0.11328125
 40
0.1171875
 40
0.119140625
 40
0.12109375
 40
0.123046875
 40
0.1240234375
 40
0.1245117188
 40
0.125
 40
0.1254882812
 40
0.1259765625
 40
0.126953125
 40
0.12890625
 40
0.130859375
 40
0.1328125
 40
0.13671875
 40
0.140625
 40
0.1484375
 40
0.15625
 40
0.1640625
 40
0.171875
 40
0.17578125
 40
0.1796875
 40
0.181640625
 40
0.18359375
 40
0.185546875
 40
0.1865234375
 40
0.1870117188
 40
0.1875
 40
0.1879882812
 40
0.1884765625
 40
0.189453125
 40
0.19140625
 40
0.193359375
 40
0.1953125
 40
0.19921875
 40
0.203125
 40
0.2109375
 40
0.21875
 40
0.2265625
 40
0.234375
 40
0.23828125
 40
0.2421875
 40
0.244140625
 40
0.24609375
 40
0.248046875
 40
0.2490234375
 40
0.2495117188
 40
0.25
 40
0.2504882812
 40
0.2509765625
 40
0.251953125
 40
0.25390625
 40
0.255859375
 40
0.2578125
 40
0.26171875
 40
0.265625
 40
0.2734375
 40
0.28125
 40
0.2890625
 40
0.296875
 40
0.30078125
 40
0.3046875
 40
0.30859375
 40
0.310546875
 40
0.3115234375
 40
0.3125
 40
0.3134765625
 40
0.314453125
 40
0.31640625
 40
0.3203125
 40
0.32421875
 40
0.328125
 40
0.3359375
 40
0.34375
 40
0.3515625
 40
0.359375
 40
0.36328125
 40
0.3671875
 40
0.37109375
 40
0.373046875
 40
0.3740234375
 40
0.375
 40
0.3759765625
 40
0.376953125
 40
0.37890625
 40
0.3828125
 40
0.38671875
 40
0.390625
 40
0.3984375
 40
0.40625
 40
0.4140625
 40
0.421875
 40
0.42578125
 40
0.4296875
 40
0.43359375
 40
0.435546875
 40
0.4365234375
 40
0.4375
 40
0.4384765625
 40
0.439453125
 40
0.44140625
 40
0.4453125
 40
0.44921875
 40
0.453125
 40
0.4609375
 40
0.46875
 40
0.4765625
 40
0.484375
 40
0.48828125
 40
0.4921875
 40
0.494140625
 40
0.49609375
 40
0.498046875
 40
0.4990234375
 40
0.5
 40
0.5009765625
 40
0.501953125
 40
0.50390625
 40
0.505859375
 40
0.5078125
 40
0.51171875
 40
0.515625
 40
0.5234375
 40
0.53125
 40
0.5390625
 40
0.546875
 40
0.55078125
 40
0.5546875
 40
0.556640625
 40
0.55859375
 40
0.560546875
 40
0.5615234375
 40
0.5620117188
 40
0.5625
 40
0.5629882812
 40
0.5634765625
 40
0.564453125
 40
0.56640625
 40
0.568359375
 40
0.5703125
 40
0.57421875
 40
0.578125
 40
0.5859375
 40
0.59375
 40
0.6015625
 40
0.609375
 40
0.61328125
 40
0.6171875
 40
0.619140625
 40
0.62109375
 40
0.623046875
 40
0.6240234375
 40
0.6245117188
 40
0.625
 40
0.6254882812
 40
0.6259765625
 40
0.626953125
 40
0.62890625
 40
0.630859375
 40
0.6328125
 40
0.63671875
 40
0.640625
 40
0.6484375
 40
0.65625
 40
0.6640625
 40
0.671875
 40
0.67578125
 40
0.6796875
 40
0.681640625
 40
0.68359375
 40
0.685546875
 40
0.6865234375
 40
0.6870117188
 40
0.6875
 40
0.6879882812
 40
0.6884765625
 40
0.689453125
 40
0.69140625
 40
0.693359375
 40
0.6953125
 40
0.69921875
 40
0.703125
 40
0.7109375
 40
0.71875
 40
0.7265625
 40
0.73046875
 40
0.734375
 40
0.73828125
 40
0.7421875
 40
0.744140625
 40
0.74609375
 40
0.7470703125
 40
0.748046875
 40
0.7490234375
 40
0.7495117188
 40
0.7497558594
 40
0.75
 40
0.7502441406
 40
0.7504882812
 40
0.7509765625
 40
0.751953125
 40
0.7529296875
 40
0.75390625
 40
0.755859375
 40
0.7578125
 40
0.76171875
 40
0.765625
 40
0.76953125
 40
0.7734375
 40
0.78125
 40
0.7890625
 40
0.79296875
 40
0.796875
 40
0.80078125
 40
0.8046875
 40
0.806640625
 40
0.80859375
 40
0.8095703125
 40
0.810546875
 40
0.8115234375
 40
0.8120117188
 40
0.8122558594
 40
0.8125
 40
0.8127441406
 40
0.8129882812
 40
0.8134765625
 40
0.814453125
 40
0.8154296875
 40
0.81640625
 40
0.818359375
 40
0.8203125
 40
0.82421875
 40
0.828125
 40
0.83203125
 40
0.8359375
 40
0.84375
 40
0.8515625
 40
0.85546875
 40
0.859375
 40
0.86328125
 40
0.8671875
 40
0.869140625
 40
0.87109375
 40
0.8720703125
 40
0.873046875
 40
0.8740234375
 40
0.8745117188
 40
0.8747558594
 40
0.875
 40
0.8752441406
 40
0.8754882812
 40
0.8759765625
 40
0.876953125
 40
0.8779296875
 40
0.87890625
 40
0.880859375
 40
0.8828125
 40
0.88671875
 40
0.890625
 40
0.89453125
 40
0.8984375
 40
0.90625
 40
0.9140625
 40
0.91796875
 40
0.921875
 40
0.92578125
 40
0.9296875
 40
0.931640625
 40
0.93359375
 40
0.9345703125
 40
0.935546875
 40
0.9365234375
 40
0.9370117188
 40
0.9372558594
 40
0.9375
 40
0.9377441406
 40
0.9379882812
 40
0.9384765625
 40
0.939453125
 40
0.9404296875
 40
0.94140625
 40
0.943359375
 40
0.9453125
 40
0.94921875
 40
0.953125
 40
0.95703125
 40
0.9609375
 40
0.96875
 40
0.9765625
 40
0.984375
 40
1.0
 40
1.0
 40
1.0
 40
1.0
 10
13.4369693375
 20
9.1295762104
 30
0.0
 10
13.4386484058
 20
9.1318124893
 30
0.0
 10
13.4411670083
 20
9.1351669076
 30
0.0
 10
13.444525145
 20
9.1396394655
 30
0.0
 10
13.4470437475
 20
9.1429938835
 30
0.0
 10
13.4491425828
 20
9.1457892329
 30
0.0
 10
13.4508216513
 20
9.1480255101
 30
0.0
 10
13.4520809522
 20
9.1497027245
 30
0.0
 10
13.4533402545
 20
9.151379914
 30
0.0
 10
13.4543896688
 20
9.1527776496
 30
0.0
 10
13.45522921
 20
9.1538956639
 30
0.0
 10
13.455753901
 20
9.1545948195
 30
0.0
 10
13.4561737047
 20
9.1551532356
 30
0.0
 10
13.4564884183
 20
9.1555745347
 30
0.0
 10
13.4567511221
 20
9.1559177058
 30
0.0
 10
13.4569602929
 20
9.1562099868
 30
0.0
 10
13.4571198823
 20
9.1563807118
 30
0.0
 10
13.4572691224
 20
9.1567365079
 30
0.0
 10
13.4574717243
 20
9.157146255
 30
0.0
 10
13.4577237363
 20
9.1576806192
 30
0.0
 10
13.4580266817
 20
9.1583123623
 30
0.0
 10
13.4584304235
 20
9.1591580025
 30
0.0
 10
13.4589351641
 20
9.1602139173
 30
0.0
 10
13.4597427137
 20
9.1619040156
 30
0.0
 10
13.4607521628
 20
9.1640164208
 30
0.0
 10
13.4619634966
 20
9.1665514003
 30
0.0
 10
13.4631748317
 20
9.1690863547
 30
0.0
 10
13.4647899447
 20
9.1724663032
 30
0.0
 10
13.4668088365
 20
9.1766912323
 30
0.0
 10
13.4692315047
 20
9.1817611646
 30
0.0
 10
13.4712504009
 20
9.1859860589
 30
0.0
 10
13.4728655043
 20
9.189366084
 30
0.0
 10
13.4738749748
 20
9.1914783502
 30
0.0
 10
13.4746824805
 20
9.1931687345
 30
0.0
 10
13.4752883032
 20
9.1944349583
 30
0.0
 10
13.4757925402
 20
9.1954951213
 30
0.0
 10
13.4761467135
 20
9.1962274693
 30
0.0
 10
13.476347213
 20
9.1966612029
 30
0.0
 10
13.4765028984
 20
9.1969435463
 30
0.0
 10
13.4766382835
 20
9.1973900922
 30
0.0
 10
13.476825878
 20
9.197928211
 30
0.0
 10
13.4771508692
 20
9.1988966047
 30
0.0
 10
13.4776168671
 20
9.2002660727
 30
0.0
 10
13.4781753264
 20
9.201915406
 30
0.0
 10
13.4789201966
 20
9.2041124312
 30
0.0
 10
13.4798511961
 20
9.206859427
 30
0.0
 10
13.4813408446
 20
9.2112542209
 30
0.0
 10
13.4832028882
 20
9.2167478512
 30
0.0
 10
13.4854373485
 20
9.2233401448
 30
0.0
 10
13.4876718042
 20
9.2299324688
 30
0.0
 10
13.4895338589
 20
9.2354260229
 30
0.0
 10
13.4910234852
 20
9.2398209693
 30
0.0
 10
13.4919545412
 20
9.2425675777
 30
0.0
 10
13.4926992955
 20
9.2447653979
 30
0.0
 10
13.4932581091
 20
9.2464123024
 30
0.0
 10
13.4937229984
 20
9.2477893695
 30
0.0
 10
13.4940499686
 20
9.2487441975
 30
0.0
 10
13.4942343922
 20
9.249304052
 30
0.0
 10
13.4943795174
 20
9.2496838329
 30
0.0
 10
13.4944986207
 20
9.2502169342
 30
0.0
 10
13.4946665019
 20
9.2508742561
 30
0.0
 10
13.4949560649
 20
9.2520494866
 30
0.0
 10
13.4953719373
 20
9.2537153603
 30
0.0
 10
13.4958700378
 20
9.2557199847
 30
0.0
 10
13.4965345023
 20
9.2583908696
 30
0.0
 10
13.4973649699
 20
9.2617301427
 30
0.0
 10
13.4986937812
 20
9.2670726068
 30
0.0
 10
13.5003547734
 20
9.2737508154
 30
0.0
 10
13.5023479744
 20
9.2817646085
 30
0.0
 10
13.504341169
 20
9.289778425
 30
0.0
 10
13.5060021774
 20
9.2964565751
 30
0.0
 10
13.5073309562
 20
9.3017991561
 30
0.0
 10
13.5081615064
 20
9.3051381322
 30
0.0
 10
13.5088258013
 20
9.3078096268
 30
0.0
 10
13.5093244201
 20
9.3098123887
 30
0.0
 10
13.509738671
 20
9.3114840896
 30
0.0
 10
13.5100311286
 20
9.3126489176
 30
0.0
 10
13.5101943719
 20
9.3133229069
 30
0.0
 10
13.5103277213
 20
9.3138048112
 30
0.0
 10
13.5104193405
 20
9.3143768794
 30
0.0
 10
13.5105560555
 20
9.3151081869
 30
0.0
 10
13.5107885247
 20
9.3164026282
 30
0.0
 10
13.5111241692
 20
9.3182441691
 30
0.0
 10
13.5115254251
 20
9.3204572974
 30
0.0
 10
13.5120609629
 20
9.3234069897
 30
0.0
 10
13.5127302037
 20
9.3270944974
 30
0.0
 10
13.5138010907
 20
9.33299429
 30
0.0
 10
13.515139662
 20
9.3403691099
 30
0.0
 10
13.5167459746
 20
9.349218843
 30
0.0
 10
13.5183522389
 20
9.3580686528
 30
0.0
 10
13.5196909312
 20
9.3654432809
 30
0.0
 10
13.5207615762
 20
9.371343457
 30
0.0
 10
13.5215654034
 20
9.3757672963
 30
0.0
 10
13.5222325763
 20
9.3794579411
 30
0.0
 10
13.522704863
 20
9.3820333228
 30
0.0
 10
13.5229665191
 20
9.3835175695
 30
0.0
 10
13.5231859228
 20
9.3845952601
 30
0.0
 10
13.523316791
 20
9.3858086284
 30
0.0
 10
13.5235221641
 20
9.387379127
 30
0.0
 10
13.5238671784
 20
9.3901495494
 30
0.0
 10
13.5243675785
 20
9.3940957677
 30
0.0
 10
13.5249648387
 20
9.3988361642
 30
0.0
 10
13.5257623107
 20
9.4051549689
 30
0.0
 10
13.5267587619
 20
9.4130540679
 30
0.0
 10
13.5279546824
 20
9.4225327252
 30
0.0
 10
13.529150509
 20
9.4320114796
 30
0.0
 10
13.5301471946
 20
9.439910336
 30
0.0
 10
13.5309441979
 20
9.446229626
 30
0.0
 10
13.5315428878
 20
9.4509685423
 30
0.0
 10
13.532038815
 20
9.454919391
 30
0.0
 10
13.5323918142
 20
9.4576815476
 30
0.0
 10
13.5325843935
 20
9.4592652901
 30
0.0
 10
13.5327545602
 20
9.4604379773
 30
0.0
 10
13.5328263653
 20
9.4616684595
 30
0.0
 10
13.5329564151
 20
9.463288943
 30
0.0
 10
13.5331680167
 20
9.4661341817
 30
0.0
 10
13.5334786622
 20
9.4701938979
 30
0.0
 10
13.5338478593
 20
9.4750676593
 30
0.0
 10
13.5343413723
 20
9.4815652734
 30
0.0
 10
13.5349578316
 20
9.4896875435
 30
0.0
 10
13.5356977809
 20
9.4994341576
 30
0.0
 10
13.5364376285
 20
9.5091808079
 30
0.0
 10
13.5370543421
 20
9.5173029877
 30
0.0
 10
13.5375473465
 20
9.5238007824
 30
0.0
 10
13.537918095
 20
9.5286739932
 30
0.0
 10
13.5382238872
 20
9.5327354316
 30
0.0
 10
13.5384441526
 20
9.5355775959
 30
0.0
 10
13.5385603209
 20
9.5372030054
 30
0.0
 10
13.5386747653
 20
9.5384183564
 30
0.0
 10
13.5386847858
 20
9.5396478743
 30
0.0
 10
13.5387345708
 20
9.5412822899
 30
0.0
 10
13.5388047236
 20
9.5441448196
 30
0.0
 10
13.5389138145
 20
9.5482329441
 30
0.0
 10
13.5390409258
 20
9.5531392087
 30
0.0
 10
13.5392117341
 20
9.5596807147
 30
0.0
 10
13.5394247901
 20
9.5678576601
 30
0.0
 10
13.5396806484
 20
9.5776699629
 30
0.0
 10
13.539936469
 20
9.5874822918
 30
0.0
 10
13.5401496192
 20
9.5956591718
 30
0.0
 10
13.540320239
 20
9.6022008085
 30
0.0
 10
13.5404266442
 20
9.6062890302
 30
0.0
 10
13.5405123007
 20
9.6095602973
 30
0.0
 10
13.5405750853
 20
9.6120118592
 30
0.0
 10
13.5406320432
 20
9.6140608347
 30
0.0
 10
13.5406672087
 20
9.615686542
 30
0.0
 10
13.5407220028
 20
9.6169426376
 30
0.0
 10
13.5406683173
 20
9.6180582091
 30
0.0
 10
13.54063463
 20
9.6195947246
 30
0.0
 10
13.5405795198
 20
9.6214985276
 30
0.0
 10
13.5405189525
 20
9.6237902998
 30
0.0
 10
13.5404362523
 20
9.6268434783
 30
0.0
 10
13.5403335427
 20
9.6306608135
 30
0.0
 10
13.5401688353
 20
9.6367680681
 30
0.0
 10
13.5399630784
 20
9.6444023011
 30
0.0
 10
13.5397161167
 20
9.6535633122
 30
0.0
 10
13.5394691648
 20
9.6627243338
 30
0.0
 10
13.5392633837
 20
9.6703585406
 30
0.0
 10
13.5390987246
 20
9.6764658476
 30
0.0
 10
13.5389958921
 20
9.6802830496
 30
0.0
 10
13.5389134442
 20
9.6833365013
 30
0.0
 10
13.5388521061
 20
9.6856274389
 30
0.0
 10
13.5387994073
 20
9.6875338534
 30
0.0
 10
13.5387656262
 20
9.6888736425
 30
0.0
 10
13.5387414698
 20
9.6896309624
 30
0.0
 10
13.5387370233
 20
9.6902222597
 30
0.0
 10
13.5386803199
 20
9.6907244646
 30
0.0
 10
13.5386229431
 20
9.6914251476
 30
0.0
 10
13.5385140412
 20
9.6926368636
 30
0.0
 10
13.538362907
 20
9.6943754564
 30
0.0
 10
13.5381796455
 20
9.6964585276
 30
0.0
 10
13.5379359606
 20
9.6992370875
 30
0.0
 10
13.5376311273
 20
9.7027099
 30
0.0
 10
13.5371435209
 20
9.7082666166
 30
0.0
 10
13.5365339692
 20
9.7152124373
 30
0.0
 10
13.535802527
 20
9.7235474573
 30
0.0
 10
13.5350710751
 20
9.7318824568
 30
0.0
 10
13.5344615477
 20
9.7388283285
 30
0.0
 10
13.5339738926
 20
9.7443849431
 30
0.0
 10
13.5336691831
 20
9.7478580147
 30
0.0
 10
13.5334252441
 20
9.7506360428
 30
0.0
 10
13.533242759
 20
9.7527207389
 30
0.0
 10
13.5330891955
 20
9.7544542478
 30
0.0
 10
13.5329846304
 20
9.7556750395
 30
0.0
 10
13.5329203049
 20
9.756361181
 30
0.0
 10
13.5328849456
 20
9.7569080526
 30
0.0
 10
13.5328003343
 20
9.7573315891
 30
0.0
 10
13.532704699
 20
9.7579393251
 30
0.0
 10
13.5325293327
 20
9.758982819
 30
0.0
 10
13.5322829942
 20
9.7604840039
 30
0.0
 10
13.5319855969
 20
9.7622809403
 30
0.0
 10
13.5315896927
 20
9.7646784221
 30
0.0
 10
13.5310945983
 20
9.767674738
 30
0.0
 10
13.5303025669
 20
9.7724691433
 30
0.0
 10
13.5293124863
 20
9.7784620463
 30
0.0
 10
13.5281244086
 20
9.7856535777
 30
0.0
 10
13.5269363215
 20
9.7928450836
 30
0.0
 10
13.5259462642
 20
9.7988380505
 30
0.0
 10
13.5251541863
 20
9.8036323279
 30
0.0
 10
13.5246592102
 20
9.806628969
 30
0.0
 10
13.524263063
 20
9.8090257833
 30
0.0
 10
13.5239664081
 20
9.8108247593
 30
0.0
 10
13.5237177466
 20
9.8123195628
 30
0.0
 10
13.5235465275
 20
9.8133744485
 30
0.0
 10
13.5234442473
 20
9.8139639321
 30
0.0
 10
13.5233800466
 20
9.8144435341
 30
0.0
 10
13.5232680288
 20
9.8147798332
 30
0.0
 10
13.5231353509
 20
9.8152782177
 30
0.0
 10
13.5228953935
 20
9.8161271014
 30
0.0
 10
13.52255666
 20
9.8173519683
 30
0.0
 10
13.5221484407
 20
9.8188165968
 30
0.0
 10
13.5216047558
 20
9.8207712552
 30
0.0
 10
13.5209249418
 20
9.8232139549
 30
0.0
 10
13.5198373554
 20
9.8271226228
 30
0.0
 10
13.5184778327
 20
9.8320083381
 30
0.0
 10
13.5168464224
 20
9.8378712477
 30
0.0
 10
13.5154869101
 20
9.8427569943
 30
0.0
 10
13.5143993008
 20
9.8466655932
 30
0.0
 10
13.5135835942
 20
9.8495970445
 30
0.0
 10
13.512767886
 20
9.8525284867
 30
0.0
 10
13.5120881343
 20
9.8549713835
 30
0.0
 10
13.5115443213
 20
9.8569256377
 30
0.0
 10
13.5112044648
 20
9.8581471905
 30
0.0
 10
13.5109325187
 20
9.859124103
 30
0.0
 10
13.5107287257
 20
9.8598576902
 30
0.0
 10
13.5105583684
 20
9.8604661411
 30
0.0
 10
13.5104401579
 20
9.8608976924
 30
0.0
 10
13.5103709858
 20
9.8611354935
 30
0.0
 10
13.5103236796
 20
9.8613386329
 30
0.0
 10
13.5102588934
 20
9.8614470182
 30
0.0
 10
13.5101786091
 20
9.8616245832
 30
0.0
 10
13.5100352707
 20
9.8619199229
 30
0.0
 10
13.5098319868
 20
9.8623498875
 30
0.0
 10
13.5095874104
 20
9.862862399
 30
0.0
 10
13.5092615305
 20
9.8635469513
 30
0.0
 10
13.5088541047
 20
9.8644022296
 30
0.0
 10
13.5082022658
 20
9.8657709051
 30
0.0
 10
13.5073874526
 20
9.8674816705
 30
0.0
 10
13.5064096831
 20
9.8695346229
 30
0.0
 10
13.5054319119
 20
9.8715875662
 30
0.0
 10
13.5041282175
 20
9.8743248272
 30
0.0
 10
13.5024985994
 20
9.8777464021
 30
0.0
 10
13.5008689813
 20
9.8811679779
 30
0.0
 10
13.4995652868
 20
9.8839052375
 30
0.0
 10
13.4985875162
 20
9.8859581847
 30
0.0
 10
13.4976097442
 20
9.8880111226
 30
0.0
 10
13.4967949387
 20
9.8897219331
 30
0.0
 10
13.4961430843
 20
9.8910905168
 30
0.0
 10
13.4957356979
 20
9.8919460288
 30
0.0
 10
13.4954097371
 20
9.8926301012
 30
0.0
 10
13.4951654078
 20
9.8931440789
 30
0.0
 10
13.4949613509
 20
9.8935694563
 30
0.0
 10
13.4948193924
 20
9.8938729848
 30
0.0
 10
13.4947368972
 20
9.8940374292
 30
0.0
 10
13.4946789021
 20
9.8941861169
 30
0.0
 10
13.4946060897
 20
9.8942378873
 30
0.0
 10
13.4945141749
 20
9.8943407203
 30
0.0
 10
13.494350916
 20
9.8945049274
 30
0.0
 10
13.494118948
 20
9.8947477435
 30
0.0
 10
13.4938400475
 20
9.8950355982
 30
0.0
 10
13.4934683684
 20
9.8954206355
 30
0.0
 10
13.493003705
 20
9.8959015107
 30
0.0
 10
13.4922602796
 20
9.8966711465
 30
0.0
 10
13.4913309856
 20
9.8976331104
 30
0.0
 10
13.490215838
 20
9.8987875018
 30
0.0
 10
13.489100689
 20
9.8999418839
 30
0.0
 10
13.4876138242
 20
9.9014810633
 30
0.0
 10
13.485755243
 20
9.9034050363
 30
0.0
 10
13.4838966619
 20
9.9053290101
 30
0.0
 10
13.4824097969
 20
9.9068681882
 30
0.0
 10
13.4812946484
 20
9.9080225743
 30
0.0
 10
13.4801794989
 20
9.9091769506
 30
0.0
 10
13.4792502108
 20
9.9101389612
 30
0.0
 10
13.4785067734
 20
9.9109085019
 30
0.0
 10
13.4780421406
 20
9.9113896192
 30
0.0
 10
13.4776703987
 20
9.9117741594
 30
0.0
 10
13.4773916899
 20
9.912063533
 30
0.0
 10
13.4771591222
 20
9.9123015967
 30
0.0
 10
13.4769969337
 20
9.9124742877
 30
0.0
 10
13.476903304
 20
9.9125635273
 30
0.0
 10
13.4768357595
 20
9.9126570522
 30
0.0
 10
13.476757979
 20
9.9126489171
 30
0.0
 10
13.4766578421
 20
9.9126735305
 30
0.0
 10
13.476480939
 20
9.9127000825
 30
0.0
 10
13.4762290901
 20
9.9127466514
 30
0.0
 10
13.4759264991
 20
9.912798837
 30
0.0
 10
13.4755231744
 20
9.9128697091
 30
0.0
 10
13.4750189741
 20
9.9129578571
 30
0.0
 10
13.4742122784
 20
9.913099141
 30
0.0
 10
13.4732039003
 20
9.9132756611
 30
0.0
 10
13.4719938502
 20
9.9134875215
 30
0.0
 10
13.4707837991
 20
9.9136993722
 30
0.0
 10
13.4691703981
 20
9.9139818432
 30
0.0
 10
13.4671536466
 20
9.9143349307
 30
0.0
 10
13.4651368952
 20
9.9146880191
 30
0.0
 10
13.463523494
 20
9.9149704887
 30
0.0
 10
13.4623134433
 20
9.9151823436
 30
0.0
 10
13.4611033919
 20
9.9153941884
 30
0.0
 10
13.460095018
 20
9.915570757
 30
0.0
 10
13.4592883137
 20
9.9157119419
 30
0.0
 10
13.4587841353
 20
9.9158003418
 30
0.0
 10
13.4583807657
 20
9.9158706968
 30
0.0
 10
13.4580783119
 20
9.9159244622
 30
0.0
 10
13.4578260336
 20
9.9159660883
 30
0.0
 10
13.457649897
 20
9.916001464
 30
0.0
 10
13.457548532
 20
9.9160119395
 30
0.0
 10
13.4574745241
 20
9.9160472316
 30
0.0
 10
13.4573928104
 20
9.9159776515
 30
0.0
 10
13.4572865467
 20
9.9159214586
 30
0.0
 10
13.4570993328
 20
9.9158060775
 30
0.0
 10
13.4568325392
 20
9.915650158
 30
0.0
 10
13.4565121067
 20
9.9154592404
 30
0.0
 10
13.4560849612
 20
9.9152060159
 30
0.0
 10
13.4555509957
 20
9.9148890291
 30
0.0
 10
13.4546966698
 20
9.9143821052
 30
0.0
 10
13.4536287559
 20
9.9137483629
 30
0.0
 10
13.4523472621
 20
9.9129879095
 30
0.0
 10
13.4510657675
 20
9.9122274461
 30
0.0
 10
13.4493571082
 20
9.9112134985
 30
0.0
 10
13.4472212841
 20
9.9099460627
 30
0.0
 10
13.4446582952
 20
9.9084251402
 30
0.0
 10
13.4412409766
 20
9.9063972435
 30
0.0
 10
13.4386779877
 20
9.904876321
 30
0.0
 10
13.4369693285
 20
9.9038623726
 30
0.0
  0
ENDSEC
  0
SECTION
  2
OBJECTS
  0
DICTIONARY
  5
C
100
AcDbDictionary
280
0
281
1
  3
ACAD_GROUP
350
D
  3
ACAD_MLINESTYLE
350
17
  3
ACAD_LAYOUT
350
1A
  3
ACAD_PLOTSETTINGS
350
19
  3
ACAD_PLOTSTYLENAME
350
E
  3
ACAD_IMAGE_DICT
350
       398
  3
ACAD_IMAGE_VARS
350
       399
  3
ACAD_TABLESTYLE
350
       39A
  0
IMAGEDEF_REACTOR
  5
397
100
AcDbRasterImageDefReactor
 90
2
330
28A
  0
DICTIONARY
  5
D
102
{ACAD_REACTORS
330
C
102
}
100
AcDbDictionary
280
0
281
1
  0
ACDBDICTIONARYWDFLT
  5
E
102
{ACAD_REACTORS
330
C
102
}
100
AcDbDictionary
281
1
  3
Normal
350
F
100
AcDbDictionaryWithDefault
340
F
  0
DICTIONARY
  5
398
330
C
100
AcDbDictionary
281
1
  3
YVY_assy_2_img_1
350
       39D
  0
RASTERVARIABLES
  5
399
330
C
100
AcDbRasterVariables
 90
0
 70
0
 71
1
 72
5
  0
DICTIONARY
  5
17
102
{ACAD_REACTORS
330
C
102
}
100
AcDbDictionary
280
0
281
1
  3
Standard
350
18
  0
DICTIONARY
  5
39A
330
C
100
AcDbDictionary
281
1
  3
Standard
350
       39E
  3
Standard1
350
       39F
  0
DICTIONARY
  5
19
102
{ACAD_REACTORS
330
C
102
}
100
AcDbDictionary
281
1
  0
DICTIONARY
  5
1A
102
{ACAD_REACTORS
330
C
102
}
100
AcDbDictionary
281
1
  3
Model
350
39B
  3
Layout1
350
39C
  0
ACDBPLACEHOLDER
  5
F
102
{ACAD_REACTORS
330
E
102
}
  0
MLINESTYLE
  5
18
102
{ACAD_REACTORS
330
17
102
}
100
AcDbMlineStyle
  2
STANDARD
 70
0
  3

 62
256
 51
90.0
 52
90.0
 71
2
 49
0.5
 62
256
  6
BYLAYER
 49
-0.5
 62
256
  6
BYLAYER
  0
LAYOUT
  5
39B
102
{ACAD_REACTORS
330
1A
102
}
100
AcDbPlotSettings
  1

  2
none_device
  4
ANSI_C_(22.00_x_17.00_Inches)
  6

 40
0.0
 41
0.0
 42
0.0
 43
0.0
 44
558.8
 45
431.8
 46
0.0
 47
0.0
 48
0.0
 49
0.0
140
0.0
141
0.0
142
1.0
143
1.0
 70
1024
 72
0
 73
0
 74
0
  7

 75
0
147
1.0
148
0.0
149
0.0
100
AcDbLayout
  1
Model
 70
0
 71
0
 10
0.0
 20
0.0
 11
22.0
 21
17.0
 12
0.0
 22
0.0
 32
0.0
 14
0.0
 24
0.0
 34
0.0
 15
0.0
 25
0.0
 35
0.0
146
0.0
 13
0.0
 23
0.0
 33
0.0
 16
1.0
 26
0.0
 36
0.0
 17
0.0
 27
1.0
 37
0.0
 76
0
330
207
345
0
346
0
  0
LAYOUT
  5
39C
102
{ACAD_REACTORS
330
1A
102
}
100
AcDbPlotSettings
  1

  2
none_device
  4
ANSI_C_(22.00_x_17.00_Inches)
  6

 40
0.0
 41
0.0
 42
0.0
 43
0.0
 44
558.8
 45
431.8
 46
0.0
 47
0.0
 48
0.0
 49
0.0
140
0.0
141
0.0
142
1.0
143
1.0
 70
0
 72
0
 73
0
 74
0
  7

 75
0
147
1.0
148
0.0
149
0.0
100
AcDbLayout
  1
Layout1
 70
0
 71
1
 10
0.0
 20
0.0
 11
22.0
 21
17.0
 12
0.0
 22
0.0
 32
0.0
 14
0.0
 24
0.0
 34
0.0
 15
0.0
 25
0.0
 35
0.0
146
0.0
 13
0.0
 23
0.0
 33
0.0
 16
1.0
 26
0.0
 36
0.0
 17
0.0
 27
1.0
 37
0.0
 76
0
330
208
345
0
346
0
  0
IMAGEDEF
  5
39D
102
{ACAD_REACTORS
330
398
330
397
102
}
100
AcDbRasterImageDef
 90
0
  1
YVY_assy_2_img_1.png
 10
369.0
 20
92.0
 11
0.0066666667
 21
0.0066666667
280
1
281
0
  0
TABLESTYLE
  5
39E
102
{ACAD_REACTORS
330
39A
330
28D
330
28E
102
}
330
39A
100
AcDbTableStyle
  3
Standard
 70
0
 71
0
 40
0.06
 41
0.06
280
1
281
1
  7
Standard
140
0.18
170
1
 62
0
 63
7
283
0
  7
Standard
140
0.18
170
1
 62
0
 63
7
283
0
  7
Standard
140
0.18
170
1
 62
0
 63
7
283
0
  0
TABLESTYLE
  5
39F
102
{ACAD_REACTORS
330
39A
330
28C
102
}
330
39A
100
AcDbTableStyle
  3
Standard1
 70
1
 71
0
 40
0.06
 41
0.06
280
1
281
1
  7
Standard
140
0.18
170
1
 62
0
 63
7
283
0
  7
Standard
140
0.18
170
1
 62
0
 63
7
283
0
  7
Standard
140
0.18
170
1
 62
0
 63
7
283
0
  0
ENDSEC
  0
EOF
