999
DXF file: YVX_assy_2.dxf
999
Pro/ENGINEER 2014200 by Parametric Technology Corporation
  0
SECTION
  2
HEADER
  9
$ACADVER
  1
AC1021
  9
$DWGCODEPAGE
  3
ANSI_1252
  9
$EXTMAX
 10
22.0
 20
17.0
 30
0.0
  9
$EXTMIN
 10
0.0
 20
0.0
 30
0.0
  9
$LIMMIN
 10
0.0
 20
0.0
  9
$LIMMAX
 10
22.0
 20
17.0
  9
$VIEWCTR
 10
11.0
 20
8.5
  9
$VIEWSIZE
 40
17.0
  9
$CLAYER
  8
0
  9
$LTSCALE
 40
1.21
  9
$CELTYPE
  6
BYLAYER
  9
$DIMSCALE
 40
1.0
  9
$DIMASZ
 40
0.1875
  9
$DIMEXO
 40
0.0625
  9
$DIMDLI
 40
0.836
  9
$DIMEXE
 40
0.125
  9
$DIMCEN
 40
0.198
  9
$DIMLFAC
 40
1.0
  9
$DIMBLK
  1
_FILLED
  9
$DIMTXT
 40
0.1
  9
$DIMTOL
 70
0
  9
$DIMLIM
 70
0
  9
$DIMTFAC
 40
1.0
  9
$DIMGAP
 40
0.09
  9
$DIMDSEP
 70
46
  9
$AUNITS
 70
0
  9
$PDMODE
 70
3
  9
$PDSIZE
 40
0.3125
  9
$HANDSEED
  5
398
  9
$TILEMODE
 70
1
  9
$MEASUREMENT
 70
0
  9
$INSUNITS
 70
1
  0
ENDSEC
  0
SECTION
  2
CLASSES
  0
CLASS
  1
ACDBDICTIONARYWDFLT
  2
AcDbDictionaryWithDefault
  3
AutoCAD 2000
 90
0
 91
1
280
0
281
0
  0
CLASS
  1
ACDBPLACEHOLDER
  2
AcDbPlaceHolder
  3
AutoCAD 2000
 90
0
 91
1
280
0
281
0
  0
CLASS
  1
LAYOUT
  2
AcDbLayout
  3
AutoCAD 2000
 90
0
 91
0
280
0
281
0
  0
CLASS
  1
RASTERVARIABLES
  2
AcDbRasterVariables
  3
ISM
 90
0
 91
1
280
0
281
0
  0
CLASS
  1
IMAGEDEF
  2
AcDbRasterImageDef
  3
ISM
 90
0
 91
1
280
0
281
0
  0
CLASS
  1
IMAGEDEF_REACTOR
  2
AcDbRasterImageDefReactor
  3
ISM
 90
0
 91
1
280
0
281
0
  0
CLASS
  1
IMAGE
  2
AcDbRasterImage
  3
ISM
 90
127
 91
1
280
0
281
1
  0
CLASS
  1
TABLESTYLE
  2
AcDbTableStyle
  3
ObjectDBX Classes
 90
2047
 91
1
280
0
281
0
  0
CLASS
  1
ACAD_TABLE
  2
AcDbTable
  3
ObjectDBX Classes
 90
1025
 91
3
280
0
281
1
  0
ENDSEC
  0
SECTION
  2
TABLES
  0
TABLE
  2
VPORT
  5
8
100
AcDbSymbolTable
 70
2
  0
VPORT
  5
1F4
100
AcDbSymbolTableRecord
100
AcDbViewportTableRecord
  2
*ACTIVE
 70
0
 10
0.0
 20
0.0
 11
1.0
 21
1.0
 12
11.0
 22
8.5
 13
0.0
 23
0.0
 14
1.0
 24
1.0
 15
0.0
 25
0.0
 16
0.0
 26
0.0
 36
1.0
 17
0.0
 27
0.0
 37
0.0
 40
17.0
 41
1.2941176471
 42
50.0
 43
0.0
 44
0.0
 50
0.0
 51
0.0
 71
0
 72
100
 73
1
 74
1
 75
0
 76
0
 77
0
 78
0
  0
ENDTAB
  0
TABLE
  2
LTYPE
  5
5
100
AcDbSymbolTable
 70
6
  0
LTYPE
  5
14
100
AcDbSymbolTableRecord
100
AcDbLinetypeTableRecord
  2
BYBLOCK
 70
0
  3

 72
65
 73
0
 40
0.0
  0
LTYPE
  5
15
100
AcDbSymbolTableRecord
100
AcDbLinetypeTableRecord
  2
BYLAYER
 70
0
  3

 72
65
 73
0
 40
0.0
  0
LTYPE
  5
16
100
AcDbSymbolTableRecord
100
AcDbLinetypeTableRecord
  2
CONTINUOUS
 70
64
  3
Solid line
 72
65
 73
0
 40
0.0
  0
LTYPE
  5
1F5
100
AcDbSymbolTableRecord
100
AcDbLinetypeTableRecord
  2
CENTER
 70
64
  3
____ _ ____ _ ____ _ ____ _ ____ _ ____ _ ____
 72
65
 73
4
 40
0.6
 49
0.375
 74
0
 49
-0.075
 74
0
 49
0.075
 74
0
 49
-0.075
 74
0
  0
LTYPE
  5
1F6
100
AcDbSymbolTableRecord
100
AcDbLinetypeTableRecord
  2
HIDDEN
 70
64
  3
- - - - - - - - - - - - - - - - - - - -
 72
65
 73
2
 40
0.2
 49
0.1
 74
0
 49
-0.1
 74
0
  0
LTYPE
  5
1F7
100
AcDbSymbolTableRecord
100
AcDbLinetypeTableRecord
  2
PHANTOM
 70
64
  3
_____ _ _ _____ _ _ _____ _ _ _____
 72
65
 73
6
 40
0.8
 49
0.45
 74
0
 49
-0.05
 74
0
 49
0.1
 74
0
 49
-0.05
 74
0
 49
0.1
 74
0
 49
-0.05
 74
0
  0
LTYPE
  5
1F8
100
AcDbSymbolTableRecord
100
AcDbLinetypeTableRecord
  2
DOT
 70
64
  3
. . . . . . . . . . . . . . . . . . . .
 72
65
 73
2
 40
0.2
 49
0.1
 74
0
 49
-0.1
 74
0
  0
LTYPE
  5
1F9
100
AcDbSymbolTableRecord
100
AcDbLinetypeTableRecord
  2
DASHED
 70
64
  3
- - - - - - - - - - - - - - - - - - - -
 72
65
 73
2
 40
0.2
 49
0.1
 74
0
 49
-0.1
 74
0
  0
ENDTAB
  0
TABLE
  2
LAYER
  5
2
100
AcDbSymbolTable
 70
36
  0
LAYER
  5
10
100
AcDbSymbolTableRecord
100
AcDbLayerTableRecord
  2
0
 70
0
 62
7
  6
CONTINUOUS
370
-3
390
F
  0
LAYER
  5
1FA
100
AcDbSymbolTableRecord
100
AcDbLayerTableRecord
  2
DEFAULT_1
 70
0
 62
7
  6
CENTER
370
-3
390
F
  0
LAYER
  5
1FB
100
AcDbSymbolTableRecord
100
AcDbLayerTableRecord
  2
DEFAULT_2
 70
0
 62
8
  6
HIDDEN
370
-3
390
F
  0
LAYER
  5
1FC
100
AcDbSymbolTableRecord
100
AcDbLayerTableRecord
  2
DEFAULT_3
 70
0
 62
7
  6
PHANTOM
370
-3
390
F
  0
LAYER
  5
1FD
100
AcDbSymbolTableRecord
100
AcDbLayerTableRecord
  2
DATUM_PLANES
 70
0
 62
7
  6
CONTINUOUS
370
-3
390
F
  0
LAYER
  5
1FE
100
AcDbSymbolTableRecord
100
AcDbLayerTableRecord
  2
DIMENSIONS
 70
0
 62
7
  6
CONTINUOUS
370
-3
390
F
  0
LAYER
  5
1FF
100
AcDbSymbolTableRecord
100
AcDbLayerTableRecord
  2
DTM_500001
 70
0
 62
7
  6
CONTINUOUS
370
-3
390
F
  0
LAYER
  5
200
100
AcDbSymbolTableRecord
100
AcDbLayerTableRecord
  2
PARAMETERDIMENSIONS
 70
0
 62
7
  6
CONTINUOUS
370
-3
390
F
  0
LAYER
  5
201
100
AcDbSymbolTableRecord
100
AcDbLayerTableRecord
  2
PORT_AREAS
 70
0
 62
7
  6
CONTINUOUS
370
-3
390
F
  0
LAYER
  5
202
100
AcDbSymbolTableRecord
100
AcDbLayerTableRecord
  2
SUNNBOMCOSMETIC
 70
0
 62
7
  6
CONTINUOUS
370
-3
390
F
  0
LAYER
  5
203
100
AcDbSymbolTableRecord
100
AcDbLayerTableRecord
  2
SUNNBOMSTAMPING
 70
0
 62
7
  6
CONTINUOUS
370
-3
390
F
  0
LAYER
  5
204
100
AcDbSymbolTableRecord
100
AcDbLayerTableRecord
  2
THREADS
 70
0
 62
7
  6
CONTINUOUS
370
-3
390
F
  0
ENDTAB
  0
TABLE
  2
STYLE
  5
3
100
AcDbSymbolTable
 70
1
  0
STYLE
  5
11
100
AcDbSymbolTableRecord
100
AcDbTextStyleTableRecord
  2
STANDARD
 70
0
 40
0.0
 41
0.8
 50
0.0
 71
0
 42
0.2
  3
txt
  4

  0
STYLE
  5
205
100
AcDbSymbolTableRecord
100
AcDbTextStyleTableRecord
  2
TEXTSTYLE_1
 70
0
 40
0.0
 41
0.8
 50
0.0
 71
0
 42
0.2
  3
gdt
  4

  0
ENDTAB
  0
TABLE
  2
VIEW
  5
6
100
AcDbSymbolTable
 70
0
  0
ENDTAB
  0
TABLE
  2
UCS
  5
7
100
AcDbSymbolTable
 70
0
  0
ENDTAB
  0
TABLE
  2
APPID
  5
9
100
AcDbSymbolTable
 70
1
  0
APPID
  5
206
100
AcDbSymbolTableRecord
100
AcDbRegAppTableRecord
  2
ACAD
 70
0
  0
ENDTAB
  0
TABLE
  2
BLOCK_RECORD
  5
1
100
AcDbSymbolTable
 70
0
  0
BLOCK_RECORD
  5
207
100
AcDbSymbolTableRecord
100
AcDbBlockTableRecord
  2
*Model_Space
  0
BLOCK_RECORD
  5
208
100
AcDbSymbolTableRecord
100
AcDbBlockTableRecord
  2
*Paper_Space
  0
BLOCK_RECORD
  5
209
100
AcDbSymbolTableRecord
100
AcDbBlockTableRecord
  2
SUN_FIRST_THIRD_ANGLE_BL0
  0
BLOCK_RECORD
  5
20A
100
AcDbSymbolTableRecord
100
AcDbBlockTableRecord
  2
*T1
  0
BLOCK_RECORD
  5
20B
100
AcDbSymbolTableRecord
100
AcDbBlockTableRecord
  2
*T2
  0
BLOCK_RECORD
  5
20C
100
AcDbSymbolTableRecord
100
AcDbBlockTableRecord
  2
*T3
  0
ENDTAB
  0
TABLE
  2
DIMSTYLE
  5
A
100
AcDbSymbolTable
 70
1
100
AcDbDimStyleTable
 71
0
  0
DIMSTYLE
105
20D
100
AcDbSymbolTableRecord
100
AcDbDimStyleTableRecord
  2
STANDARD
 70
0
  3

  4

 40
1.0
 41
0.1875
 42
0.0625
 43
0.38
 44
0.125
 45
0.0
 46
0.0
 47
0.001
 48
0.001
140
0.1
141
0.09
142
0.0
143
25.4
144
1.0
145
0.0
146
1.0
147
0.09
 71
0.0
 72
0.0
 73
1
 74
1
 75
0
 76
0
 77
0
 78
4
170
0
171
2
172
0
173
0
174
0
175
0
176
0
177
0
178
0
270
2
271
3
272
3
273
2
274
2
275
0
280
0
281
0
282
0
283
1
284
4
285
0
286
0
287
3
288
0
340
11
278
46
  0
ENDTAB
  0
ENDSEC
  0
SECTION
  2
BLOCKS
  0
BLOCK
  5
20
100
AcDbEntity
  8
0
100
AcDbBlockBegin
  2
*Model_Space
 70
0
 10
0.0
 20
0.0
 30
0.0
  3
*Model_Space
  1

  0
ENDBLK
  5
21
100
AcDbEntity
  8
0
100
AcDbBlockEnd
  0
BLOCK
  5
1C
100
AcDbEntity
  8
0
100
AcDbBlockBegin
  2
*Paper_Space
 70
0
 10
0.0
 20
0.0
 30
0.0
  3
*Paper_Space
  1

  0
ENDBLK
  5
1D
100
AcDbEntity
  8
0
100
AcDbBlockEnd
  0
BLOCK
  5
20E
100
AcDbEntity
  8
0
100
AcDbBlockBegin
 62
2
  6
CONTINUOUS
  2
SUN_FIRST_THIRD_ANGLE_BL0
 70
64
 10
20.4816717061
 20
1.2289683772
  3
SUN_FIRST_THIRD_ANGLE_BL0
  1

  0
TEXT
  5
20F
100
AcDbEntity
  8
0
100
AcDbText
 62
2
  6
CONTINUOUS
 10
19.4750896608
 20
1.4136269581
  7
STANDARD
 40
0.08
  1
FIRST ANGLE
 41
0.8
 72
0
100
AcDbText
  0
TEXT
  5
210
100
AcDbEntity
  8
0
100
AcDbText
 62
2
  6
CONTINUOUS
 10
20.7842537513
 20
1.4047600029
  7
STANDARD
 40
0.08
  1
THIRD ANGLE
 41
0.8
 72
0
100
AcDbText
  0
LINE
  5
211
100
AcDbEntity
  8
0
100
AcDbLine
 62
7
  6
CONTINUOUS
 10
19.4767170086
 20
1.1727031207
 11
19.6334271527
 21
1.1717972817
  0
LINE
  5
212
100
AcDbEntity
  8
0
100
AcDbLine
 62
7
  6
CONTINUOUS
 10
19.6596964832
 20
1.1717972817
 11
19.6950230232
 21
1.171593082
  0
LINE
  5
213
100
AcDbEntity
  8
0
100
AcDbLine
 62
7
  6
CONTINUOUS
 10
19.7194818561
 20
1.1708914427
 11
19.8852396156
 21
1.1699333054
  0
LINE
  5
214
100
AcDbEntity
  8
0
100
AcDbLine
 62
7
  6
CONTINUOUS
 10
19.4758111696
 20
1.2723454088
 11
19.88525039
 21
1.3511534004
  0
LINE
  5
215
100
AcDbEntity
  8
0
100
AcDbLine
 62
7
  6
CONTINUOUS
 10
19.88525039
 20
1.3511534004
 11
19.8831348489
 21
0.9851647912
  0
LINE
  5
216
100
AcDbEntity
  8
0
100
AcDbLine
 62
7
  6
CONTINUOUS
 10
19.8831348489
 20
0.9851647912
 11
19.4767170086
 21
1.0658141206
  0
LINE
  5
217
100
AcDbEntity
  8
0
100
AcDbLine
 62
7
  6
CONTINUOUS
 10
19.4767170086
 20
1.0658141206
 11
19.4779056764
 21
1.2714536432
  0
CIRCLE
  5
218
100
AcDbEntity
  8
0
100
AcDbCircle
 62
7
  6
CONTINUOUS
 10
20.2068232291
 20
1.1717972817
 40
0.175742101
  0
CIRCLE
  5
219
100
AcDbEntity
  8
0
100
AcDbCircle
 62
7
  6
CONTINUOUS
 10
20.2068232291
 20
1.1717972817
 40
0.1005522074
  0
LINE
  5
21A
100
AcDbEntity
  8
0
100
AcDbLine
 62
7
  6
CONTINUOUS
 10
20.2077290681
 20
1.3756110529
 11
20.2071171714
 21
1.2379342989
  0
LINE
  5
21B
100
AcDbEntity
  8
0
100
AcDbLine
 62
7
  6
CONTINUOUS
 10
20.2077290681
 20
1.2016899681
 11
20.2074674401
 21
1.1428236749
  0
LINE
  5
21C
100
AcDbEntity
  8
0
100
AcDbLine
 62
7
  6
CONTINUOUS
 10
20.208634907
 20
1.101141841
 11
20.2080230104
 21
0.963465087
  0
LINE
  5
21D
100
AcDbEntity
  8
0
100
AcDbLine
 62
7
  6
CONTINUOUS
 10
20.0066328138
 20
1.1745147986
 11
20.1443095678
 21
1.1739029019
  0
LINE
  5
21E
100
AcDbEntity
  8
0
100
AcDbLine
 62
7
  6
CONTINUOUS
 10
20.1832714155
 20
1.1727031207
 11
20.238153505
 21
1.172335442
  0
LINE
  5
21F
100
AcDbEntity
  8
0
100
AcDbLine
 62
7
  6
CONTINUOUS
 10
20.2756669918
 20
1.1717972817
 11
20.407916871
 21
1.1712095044
  0
CIRCLE
  5
220
100
AcDbEntity
  8
0
100
AcDbCircle
 62
7
  6
CONTINUOUS
 10
20.7509457401
 20
1.1693297793
 40
0.1722024983
  0
CIRCLE
  5
221
100
AcDbEntity
  8
0
100
AcDbCircle
 62
7
  6
CONTINUOUS
 10
20.7509457401
 20
1.1693297793
 40
0.0985164967
  0
LINE
  5
222
100
AcDbEntity
  8
0
100
AcDbLine
 62
7
  6
CONTINUOUS
 10
20.7169767782
 20
1.170462078
 11
20.7825395137
 21
1.1682766535
  0
LINE
  5
223
100
AcDbEntity
  8
0
100
AcDbLine
 62
7
  6
CONTINUOUS
 10
20.8177513651
 20
1.1693297793
 11
20.947965719
 21
1.1693297793
  0
LINE
  5
224
100
AcDbEntity
  8
0
100
AcDbLine
 62
7
  6
CONTINUOUS
 10
20.6875370113
 20
1.170462078
 11
20.5573226574
 21
1.170462078
  0
LINE
  5
225
100
AcDbEntity
  8
0
100
AcDbLine
 62
7
  6
CONTINUOUS
 10
20.7486811426
 20
1.1987695462
 11
20.7486811426
 21
1.1432869085
  0
LINE
  5
226
100
AcDbEntity
  8
0
100
AcDbLine
 62
7
  6
CONTINUOUS
 10
20.7498134414
 20
1.1059210505
 11
20.7498134414
 21
0.9757066966
  0
LINE
  5
227
100
AcDbEntity
  8
0
100
AcDbLine
 62
7
  6
CONTINUOUS
 10
20.7486811426
 20
1.2338708068
 11
20.7486811426
 21
1.3640851607
  0
LINE
  5
228
100
AcDbEntity
  8
0
100
AcDbLine
 62
7
  6
CONTINUOUS
 10
21.0702539817
 20
1.2701043662
 11
21.4790138229
 21
1.3448360823
  0
LINE
  5
229
100
AcDbEntity
  8
0
100
AcDbLine
 62
7
  6
CONTINUOUS
 10
21.4790138229
 20
1.3448360823
 11
21.4790138229
 21
0.9779712941
  0
LINE
  5
22A
100
AcDbEntity
  8
0
100
AcDbLine
 62
7
  6
CONTINUOUS
 10
21.4790138229
 20
0.9779712941
 11
21.069121683
 21
1.0617614
  0
LINE
  5
22B
100
AcDbEntity
  8
0
100
AcDbLine
 62
7
  6
CONTINUOUS
 10
21.0702539817
 20
1.2701043662
 11
21.069121683
 21
1.0617614
  0
LINE
  5
22C
100
AcDbEntity
  8
0
100
AcDbLine
 62
7
  6
CONTINUOUS
 10
21.4790138229
 20
1.1693297793
 11
21.3159628059
 21
1.1693297793
  0
LINE
  5
22D
100
AcDbEntity
  8
0
100
AcDbLine
 62
7
  6
CONTINUOUS
 10
21.2876553377
 20
1.1693297793
 11
21.2502894796
 21
1.1693297793
  0
LINE
  5
22E
100
AcDbEntity
  8
0
100
AcDbLine
 62
7
  6
CONTINUOUS
 10
21.2208497126
 20
1.1659328831
 11
21.0713862804
 21
1.1659328831
  0
LINE
  5
22F
100
AcDbEntity
  8
0
100
AcDbLine
 62
7
  6
CONTINUOUS
 10
20.4796138713
 20
1.5284908897
 11
20.4766766948
 21
0.9294458646
  0
ENDBLK
  5
230
100
AcDbEntity
  8
0
  6
BYBLOCK
 62
0
100
AcDbBlockEnd
  0
BLOCK
  5
231
100
AcDbEntity
  8
0
100
AcDbBlockBegin
  2
*T1
 70
1
 10
0.0
 20
0.0
  3
*T1
  1

  0
LINE
  5
232
100
AcDbEntity
  8
0
100
AcDbLine
 62
2
  6
CONTINUOUS
 10
9.275
 20
0.0
 11
-0.0
 21
0.0
  0
LINE
  5
233
100
AcDbEntity
  8
0
100
AcDbLine
 62
2
  6
CONTINUOUS
 10
9.275
 20
0.0
 11
9.275
 21
1.25
  0
LINE
  5
234
100
AcDbEntity
  8
0
100
AcDbLine
 62
2
  6
CONTINUOUS
 10
9.275
 20
0.625
 11
-0.0
 21
0.625
  0
LINE
  5
235
100
AcDbEntity
  8
0
100
AcDbLine
 62
2
  6
CONTINUOUS
 10
9.275
 20
1.25
 11
-0.0
 21
1.25
  0
LINE
  5
236
100
AcDbEntity
  8
0
100
AcDbLine
 62
2
  6
CONTINUOUS
 10
6.8
 20
0.0
 11
6.8
 21
1.25
  0
LINE
  5
237
100
AcDbEntity
  8
0
100
AcDbLine
 62
2
  6
CONTINUOUS
 10
6.4
 20
0.0
 11
6.4
 21
0.625
  0
LINE
  5
238
100
AcDbEntity
  8
0
100
AcDbLine
 62
2
  6
CONTINUOUS
 10
5.9
 20
0.0
 11
5.9
 21
0.625
  0
LINE
  5
239
100
AcDbEntity
  8
0
100
AcDbLine
 62
2
  6
CONTINUOUS
 10
5.2
 20
0.0
 11
5.2
 21
0.625
  0
LINE
  5
23A
100
AcDbEntity
  8
0
100
AcDbLine
 62
2
  6
CONTINUOUS
 10
4.1
 20
0.0
 11
4.1
 21
1.25
  0
LINE
  5
23B
100
AcDbEntity
  8
0
100
AcDbLine
 62
2
  6
CONTINUOUS
 10
-0.0
 20
0.0
 11
-0.0
 21
1.25
  0
MTEXT
  5
23C
100
AcDbEntity
  8
0
100
AcDbMText
 62
2
  6
CONTINUOUS
  7
STANDARD
 71
2
 72
1
 10
6.6
 20
0.325
 30
0.0
 11
1.0
 21
0.0
 31
0.0
 44
0.9
  1
2
 40
0.125
 41
0.2
  0
MTEXT
  5
23D
100
AcDbEntity
  8
0
100
AcDbMText
 62
2
  6
CONTINUOUS
  7
STANDARD
 71
2
 72
1
 10
6.15
 20
0.325
 30
0.0
 11
1.0
 21
0.0
 31
0.0
 44
0.9
  1
C
 40
0.125
 41
0.2
  0
MTEXT
  5
23E
100
AcDbEntity
  8
0
100
AcDbMText
 62
2
  6
CONTINUOUS
  7
STANDARD
 71
2
 72
1
 10
5.55
 20
0.325
 30
0.0
 11
1.0
 21
0.0
 31
0.0
 44
0.9
  1
2.000
 40
0.125
 41
1.0
  0
MTEXT
  5
23F
100
AcDbEntity
  8
0
100
AcDbMText
 62
2
  6
CONTINUOUS
  7
STANDARD
 71
2
 72
1
 10
4.65
 20
0.325
 30
0.0
 11
1.0
 21
0.0
 31
0.0
 44
0.9
  1
Aug-16-19
 40
0.125
 41
1.8
  0
MTEXT
  5
240
100
AcDbEntity
  8
0
100
AcDbMText
 62
2
  6
CONTINUOUS
  7
STANDARD
 71
2
 72
1
 10
2.05
 20
0.4625
 30
0.0
 11
1.0
 21
0.0
 31
0.0
 44
0.9
  1
T-11A Gasket mount Sun\PDirect mount, cross pilot
 40
0.125
 41
5.0
  0
MTEXT
  5
241
100
AcDbEntity
  8
0
100
AcDbMText
 62
2
  6
CONTINUOUS
  7
STANDARD
 71
1
 72
1
 10
6.45
 20
0.5625
 30
0.0
 11
1.0
 21
0.0
 31
0.0
 44
0.9
  1
SHEET
 40
0.06
 41
0.48
  0
MTEXT
  5
242
100
AcDbEntity
  8
0
100
AcDbMText
 62
2
  6
CONTINUOUS
  7
STANDARD
 71
1
 72
1
 10
5.95
 20
0.5625
 30
0.0
 11
1.0
 21
0.0
 31
0.0
 44
0.9
  1
DWG SIZE
 40
0.06
 41
0.768
  0
MTEXT
  5
243
100
AcDbEntity
  8
0
100
AcDbMText
 62
2
  6
CONTINUOUS
  7
STANDARD
 71
1
 72
1
 10
5.25
 20
0.5625
 30
0.0
 11
1.0
 21
0.0
 31
0.0
 44
0.9
  1
SCALE
 40
0.06
 41
0.48
  0
MTEXT
  5
244
100
AcDbEntity
  8
0
100
AcDbMText
 62
2
  6
CONTINUOUS
  7
STANDARD
 71
1
 72
1
 10
4.15
 20
0.5625
 30
0.0
 11
1.0
 21
0.0
 31
0.0
 44
0.9
  1
DATE
 40
0.06
 41
0.384
  0
MTEXT
  5
245
100
AcDbEntity
  8
0
100
AcDbMText
 62
2
  6
CONTINUOUS
  7
STANDARD
 71
1
 72
1
 10
0.05
 20
0.5625
 30
0.0
 11
1.0
 21
0.0
 31
0.0
 44
0.9
  1
DESCRIPTION
 40
0.06
 41
1.056
  0
MTEXT
  5
246
100
AcDbEntity
  8
0
100
AcDbMText
 62
2
  6
CONTINUOUS
  7
STANDARD
 71
2
 72
1
 10
5.45
 20
1.0375
 30
0.0
 11
1.0
 21
0.0
 31
0.0
 44
0.9
  1
ALL DIMENSIONS IN INCH\PVIEWS ARE THIRD ANGLE
 40
0.12
 41
4.224
  0
MTEXT
  5
247
100
AcDbEntity
  8
0
100
AcDbMText
 62
2
  6
CONTINUOUS
  7
STANDARD
 71
2
 72
1
 10
2.05
 20
0.95
 30
0.0
 11
1.0
 21
0.0
 31
0.0
 44
0.9
  1
YVX
 40
0.125
 41
0.6
  0
MTEXT
  5
248
100
AcDbEntity
  8
0
100
AcDbMText
 62
2
  6
CONTINUOUS
  7
STANDARD
 71
1
 72
1
 10
0.05
 20
1.1875
 30
0.0
 11
1.0
 21
0.0
 31
0.0
 44
0.9
  1
MODEL
 40
0.06
 41
0.48
  0
ENDBLK
  5
249
100
AcDbEntity
  8
0
  6
BYBLOCK
 62
0
100
AcDbBlockEnd
  0
BLOCK
  5
24A
100
AcDbEntity
  8
0
100
AcDbBlockBegin
  2
*T2
 70
1
 10
0.0
 20
0.0
  3
*T2
  1

  0
LINE
  5
24B
100
AcDbEntity
  8
0
100
AcDbLine
 62
2
  6
CONTINUOUS
 10
0.0
 20
0.0
 11
9.055
 21
0.0
  0
LINE
  5
24C
100
AcDbEntity
  8
0
100
AcDbLine
 62
2
  6
CONTINUOUS
 10
0.0
 20
0.0
 11
0.0
 21
-3.094
  0
LINE
  5
24D
100
AcDbEntity
  8
0
100
AcDbLine
 62
2
  6
CONTINUOUS
 10
0.0
 20
-0.344
 11
9.055
 21
-0.344
  0
LINE
  5
24E
100
AcDbEntity
  8
0
100
AcDbLine
 62
2
  6
CONTINUOUS
 10
0.0
 20
-0.594
 11
9.055
 21
-0.594
  0
LINE
  5
24F
100
AcDbEntity
  8
0
100
AcDbLine
 62
2
  6
CONTINUOUS
 10
0.0
 20
-0.844
 11
9.055
 21
-0.844
  0
LINE
  5
250
100
AcDbEntity
  8
0
100
AcDbLine
 62
2
  6
CONTINUOUS
 10
0.0
 20
-1.094
 11
9.055
 21
-1.094
  0
LINE
  5
251
100
AcDbEntity
  8
0
100
AcDbLine
 62
2
  6
CONTINUOUS
 10
0.0
 20
-1.344
 11
9.055
 21
-1.344
  0
LINE
  5
252
100
AcDbEntity
  8
0
100
AcDbLine
 62
2
  6
CONTINUOUS
 10
0.0
 20
-1.594
 11
9.055
 21
-1.594
  0
LINE
  5
253
100
AcDbEntity
  8
0
100
AcDbLine
 62
2
  6
CONTINUOUS
 10
0.0
 20
-1.844
 11
9.055
 21
-1.844
  0
LINE
  5
254
100
AcDbEntity
  8
0
100
AcDbLine
 62
2
  6
CONTINUOUS
 10
0.0
 20
-2.094
 11
9.055
 21
-2.094
  0
LINE
  5
255
100
AcDbEntity
  8
0
100
AcDbLine
 62
2
  6
CONTINUOUS
 10
0.0
 20
-2.344
 11
9.055
 21
-2.344
  0
LINE
  5
256
100
AcDbEntity
  8
0
100
AcDbLine
 62
2
  6
CONTINUOUS
 10
0.0
 20
-2.594
 11
9.055
 21
-2.594
  0
LINE
  5
257
100
AcDbEntity
  8
0
100
AcDbLine
 62
2
  6
CONTINUOUS
 10
0.0
 20
-2.844
 11
9.055
 21
-2.844
  0
LINE
  5
258
100
AcDbEntity
  8
0
100
AcDbLine
 62
2
  6
CONTINUOUS
 10
0.0
 20
-3.094
 11
9.055
 21
-3.094
  0
LINE
  5
259
100
AcDbEntity
  8
0
100
AcDbLine
 62
2
  6
CONTINUOUS
 10
3.055
 20
0.0
 11
3.055
 21
-3.094
  0
LINE
  5
25A
100
AcDbEntity
  8
0
100
AcDbLine
 62
2
  6
CONTINUOUS
 10
9.055
 20
0.0
 11
9.055
 21
-3.094
  0
MTEXT
  5
25B
100
AcDbEntity
  8
0
100
AcDbMText
 62
2
  6
CONTINUOUS
  7
STANDARD
 71
2
 72
1
 10
1.5275
 20
-0.0995
 30
0.0
 11
1.0
 21
0.0
 31
0.0
 44
0.9
  1
Technical Data
 40
0.145
 41
3.248
  0
MTEXT
  5
25C
100
AcDbEntity
  8
0
100
AcDbMText
 62
2
  6
CONTINUOUS
  7
STANDARD
 71
2
 72
1
 10
4.555
 20
-0.0995
 30
0.0
 11
1.0
 21
0.0
 31
0.0
 44
0.9
  1
U.S. Units
 40
0.145
 41
2.32
  0
MTEXT
  5
25D
100
AcDbEntity
  8
0
100
AcDbMText
 62
2
  6
CONTINUOUS
  7
STANDARD
 71
2
 72
1
 10
7.555
 20
-0.0995
 30
0.0
 11
1.0
 21
0.0
 31
0.0
 44
0.9
  1
Metric Units
 40
0.145
 41
2.784
  0
MTEXT
  5
25E
100
AcDbEntity
  8
0
100
AcDbMText
 62
2
  6
CONTINUOUS
  7
STANDARD
 71
2
 72
1
 10
1.5275
 20
-0.4065
 30
0.0
 11
1.0
 21
0.0
 31
0.0
 44
0.9
  1
Cavity
 40
0.125
 41
1.2
  0
MTEXT
  5
25F
100
AcDbEntity
  8
0
100
AcDbMText
 62
2
  6
CONTINUOUS
  7
STANDARD
 71
2
 72
1
 10
6.055
 20
-0.4065
 30
0.0
 11
1.0
 21
0.0
 31
0.0
 44
0.9
  1
T-11A
 40
0.125
 41
1.0
  0
MTEXT
  5
260
100
AcDbEntity
  8
0
100
AcDbMText
 62
2
  6
CONTINUOUS
  7
STANDARD
 71
2
 72
1
 10
1.5275
 20
-0.6565
 30
0.0
 11
1.0
 21
0.0
 31
0.0
 44
0.9
  1
Body Features
 40
0.125
 41
2.6
  0
MTEXT
  5
261
100
AcDbEntity
  8
0
100
AcDbMText
 62
2
  6
CONTINUOUS
  7
STANDARD
 71
2
 72
1
 10
6.055
 20
-0.6565
 30
0.0
 11
1.0
 21
0.0
 31
0.0
 44
0.9
  1
Direct mount, cross pilot
 40
0.125
 41
5.0
  0
MTEXT
  5
262
100
AcDbEntity
  8
0
100
AcDbMText
 62
2
  6
CONTINUOUS
  7
STANDARD
 71
2
 72
1
 10
1.5275
 20
-0.9065
 30
0.0
 11
1.0
 21
0.0
 31
0.0
 44
0.9
  1
Body Type
 40
0.125
 41
1.8
  0
MTEXT
  5
263
100
AcDbEntity
  8
0
100
AcDbMText
 62
2
  6
CONTINUOUS
  7
STANDARD
 71
2
 72
1
 10
6.055
 20
-0.9065
 30
0.0
 11
1.0
 21
0.0
 31
0.0
 44
0.9
  1
Gasket mount
 40
0.125
 41
2.4
  0
MTEXT
  5
264
100
AcDbEntity
  8
0
100
AcDbMText
 62
2
  6
CONTINUOUS
  7
STANDARD
 71
2
 72
1
 10
1.5275
 20
-1.1565
 30
0.0
 11
1.0
 21
0.0
 31
0.0
 44
0.9
  1
Interface
 40
0.125
 41
1.8
  0
MTEXT
  5
265
100
AcDbEntity
  8
0
100
AcDbMText
 62
2
  6
CONTINUOUS
  7
STANDARD
 71
2
 72
1
 10
6.055
 20
-1.1565
 30
0.0
 11
1.0
 21
0.0
 31
0.0
 44
0.9
  1
Sun
 40
0.125
 41
0.6
  0
MTEXT
  5
266
100
AcDbEntity
  8
0
100
AcDbMText
 62
2
  6
CONTINUOUS
  7
STANDARD
 71
2
 72
1
 10
1.5275
 20
-1.4065
 30
0.0
 11
1.0
 21
0.0
 31
0.0
 44
0.9
  1
Open Cavity Quantity
 40
0.125
 41
4.0
  0
MTEXT
  5
267
100
AcDbEntity
  8
0
100
AcDbMText
 62
2
  6
CONTINUOUS
  7
STANDARD
 71
2
 72
1
 10
6.055
 20
-1.4065
 30
0.0
 11
1.0
 21
0.0
 31
0.0
 44
0.9
  1
2
 40
0.125
 41
0.2
  0
MTEXT
  5
268
100
AcDbEntity
  8
0
100
AcDbMText
 62
2
  6
CONTINUOUS
  7
STANDARD
 71
2
 72
1
 10
1.5275
 20
-1.6565
 30
0.0
 11
1.0
 21
0.0
 31
0.0
 44
0.9
  1
Weight
 40
0.125
 41
1.2
  0
MTEXT
  5
269
100
AcDbEntity
  8
0
100
AcDbMText
 62
2
  6
CONTINUOUS
  7
STANDARD
 71
2
 72
1
 10
4.555
 20
-1.6565
 30
0.0
 11
1.0
 21
0.0
 31
0.0
 44
0.9
  1
1.623 lb.
 40
0.125
 41
1.8
  0
MTEXT
  5
26A
100
AcDbEntity
  8
0
100
AcDbMText
 62
2
  6
CONTINUOUS
  7
STANDARD
 71
2
 72
1
 10
7.555
 20
-1.6565
 30
0.0
 11
1.0
 21
0.0
 31
0.0
 44
0.9
  1
0,736 kg.
 40
0.125
 41
1.8
  0
MTEXT
  5
26B
100
AcDbEntity
  8
0
100
AcDbMText
 62
2
  6
CONTINUOUS
  7
STANDARD
 71
2
 72
1
 10
1.5275
 20
-1.9065
 30
0.0
 11
1.0
 21
0.0
 31
0.0
 44
0.9
  1
Mounting Hole Diameter
 40
0.125
 41
4.4
  0
MTEXT
  5
26C
100
AcDbEntity
  8
0
100
AcDbMText
 62
2
  6
CONTINUOUS
  7
STANDARD
 71
2
 72
1
 10
4.555
 20
-1.9065
 30
0.0
 11
1.0
 21
0.0
 31
0.0
 44
0.9
  1
.34 in.
 40
0.125
 41
1.4
  0
MTEXT
  5
26D
100
AcDbEntity
  8
0
100
AcDbMText
 62
2
  6
CONTINUOUS
  7
STANDARD
 71
2
 72
1
 10
7.555
 20
-1.9065
 30
0.0
 11
1.0
 21
0.0
 31
0.0
 44
0.9
  1
8.6 mm
 40
0.125
 41
1.2
  0
MTEXT
  5
26E
100
AcDbEntity
  8
0
100
AcDbMText
 62
2
  6
CONTINUOUS
  7
STANDARD
 71
2
 72
1
 10
1.5275
 20
-2.1565
 30
0.0
 11
1.0
 21
0.0
 31
0.0
 44
0.9
  1
Mounting Hole Depth
 40
0.125
 41
3.8
  0
MTEXT
  5
26F
100
AcDbEntity
  8
0
100
AcDbMText
 62
2
  6
CONTINUOUS
  7
STANDARD
 71
2
 72
1
 10
6.055
 20
-2.1565
 30
0.0
 11
1.0
 21
0.0
 31
0.0
 44
0.9
  1
Through
 40
0.125
 41
1.4
  0
MTEXT
  5
270
100
AcDbEntity
  8
0
100
AcDbMText
 62
2
  6
CONTINUOUS
  7
STANDARD
 71
2
 72
1
 10
1.5275
 20
-2.4065
 30
0.0
 11
1.0
 21
0.0
 31
0.0
 44
0.9
  1
Mounting Hole Quantity
 40
0.125
 41
4.4
  0
MTEXT
  5
271
100
AcDbEntity
  8
0
100
AcDbMText
 62
2
  6
CONTINUOUS
  7
STANDARD
 71
2
 72
1
 10
6.055
 20
-2.4065
 30
0.0
 11
1.0
 21
0.0
 31
0.0
 44
0.9
  1
2
 40
0.125
 41
0.2
  0
MTEXT
  5
272
100
AcDbEntity
  8
0
100
AcDbMText
 62
2
  6
CONTINUOUS
  7
STANDARD
 71
2
 72
1
 10
1.5275
 20
-2.6565
 30
0.0
 11
1.0
 21
0.0
 31
0.0
 44
0.9
  1
Mounting Hole C'bore Diameter
 40
0.125
 41
5.8
  0
MTEXT
  5
273
100
AcDbEntity
  8
0
100
AcDbMText
 62
2
  6
CONTINUOUS
  7
STANDARD
 71
2
 72
1
 10
4.555
 20
-2.6565
 30
0.0
 11
1.0
 21
0.0
 31
0.0
 44
0.9
  1
.53 in.
 40
0.125
 41
1.4
  0
MTEXT
  5
274
100
AcDbEntity
  8
0
100
AcDbMText
 62
2
  6
CONTINUOUS
  7
STANDARD
 71
2
 72
1
 10
7.555
 20
-2.6565
 30
0.0
 11
1.0
 21
0.0
 31
0.0
 44
0.9
  1
13,5 mm
 40
0.125
 41
1.4
  0
MTEXT
  5
275
100
AcDbEntity
  8
0
100
AcDbMText
 62
2
  6
CONTINUOUS
  7
STANDARD
 71
2
 72
1
 10
1.5275
 20
-2.9065
 30
0.0
 11
1.0
 21
0.0
 31
0.0
 44
0.9
  1
Mounting Hole C'bore Depth
 40
0.125
 41
5.2
  0
MTEXT
  5
276
100
AcDbEntity
  8
0
100
AcDbMText
 62
2
  6
CONTINUOUS
  7
STANDARD
 71
2
 72
1
 10
4.555
 20
-2.9065
 30
0.0
 11
1.0
 21
0.0
 31
0.0
 44
0.9
  1
.25 in.
 40
0.125
 41
1.4
  0
MTEXT
  5
277
100
AcDbEntity
  8
0
100
AcDbMText
 62
2
  6
CONTINUOUS
  7
STANDARD
 71
2
 72
1
 10
7.555
 20
-2.9065
 30
0.0
 11
1.0
 21
0.0
 31
0.0
 44
0.9
  1
6,4 mm
 40
0.125
 41
1.2
  0
ENDBLK
  5
278
100
AcDbEntity
  8
0
  6
BYBLOCK
 62
0
100
AcDbBlockEnd
  0
BLOCK
  5
279
100
AcDbEntity
  8
0
100
AcDbBlockBegin
  2
*T3
 70
1
 10
0.0
 20
0.0
  3
*T3
  1

  0
LINE
  5
27A
100
AcDbEntity
  8
0
100
AcDbLine
 62
2
  6
CONTINUOUS
 10
0.0
 20
0.0
 11
4.6
 21
0.0
  0
LINE
  5
27B
100
AcDbEntity
  8
0
100
AcDbLine
 62
2
  6
CONTINUOUS
 10
0.0
 20
0.0
 11
0.0
 21
-0.93775
  0
LINE
  5
27C
100
AcDbEntity
  8
0
100
AcDbLine
 62
2
  6
CONTINUOUS
 10
0.0
 20
-0.34375
 11
4.6
 21
-0.34375
  0
LINE
  5
27D
100
AcDbEntity
  8
0
100
AcDbLine
 62
2
  6
CONTINUOUS
 10
0.0
 20
-0.68775
 11
4.6
 21
-0.68775
  0
LINE
  5
27E
100
AcDbEntity
  8
0
100
AcDbLine
 62
2
  6
CONTINUOUS
 10
0.0
 20
-0.93775
 11
4.6
 21
-0.93775
  0
LINE
  5
27F
100
AcDbEntity
  8
0
100
AcDbLine
 62
2
  6
CONTINUOUS
 10
1.3
 20
-0.34375
 11
1.3
 21
-0.93775
  0
LINE
  5
280
100
AcDbEntity
  8
0
100
AcDbLine
 62
2
  6
CONTINUOUS
 10
3.3
 20
-0.34375
 11
3.3
 21
-0.93775
  0
LINE
  5
281
100
AcDbEntity
  8
0
100
AcDbLine
 62
2
  6
CONTINUOUS
 10
4.6
 20
0.0
 11
4.6
 21
-0.93775
  0
MTEXT
  5
282
100
AcDbEntity
  8
0
100
AcDbMText
 62
2
  6
CONTINUOUS
  7
STANDARD
 71
2
 72
1
 10
2.3
 20
-0.099375
 30
0.0
 11
1.0
 21
0.0
 31
0.0
 44
0.9
  1
Port Headings
 40
0.145
 41
3.016
  0
MTEXT
  5
283
100
AcDbEntity
  8
0
100
AcDbMText
 62
2
  6
CONTINUOUS
  7
STANDARD
 71
2
 72
1
 10
0.65
 20
-0.44325
 30
0.0
 11
1.0
 21
0.0
 31
0.0
 44
0.9
  1
Product
 40
0.145
 41
1.624
  0
MTEXT
  5
284
100
AcDbEntity
  8
0
100
AcDbMText
 62
2
  6
CONTINUOUS
  7
STANDARD
 71
2
 72
1
 10
2.3
 20
-0.44325
 30
0.0
 11
1.0
 21
0.0
 31
0.0
 44
0.9
  1
Port
 40
0.145
 41
0.928
  0
MTEXT
  5
285
100
AcDbEntity
  8
0
100
AcDbMText
 62
2
  6
CONTINUOUS
  7
STANDARD
 71
2
 72
1
 10
3.95
 20
-0.44325
 30
0.0
 11
1.0
 21
0.0
 31
0.0
 44
0.9
  1
Size
 40
0.145
 41
0.928
  0
MTEXT
  5
286
100
AcDbEntity
  8
0
100
AcDbMText
 62
2
  6
CONTINUOUS
  7
STANDARD
 71
2
 72
1
 10
0.65
 20
-0.75025
 30
0.0
 11
1.0
 21
0.0
 31
0.0
 44
0.9
  1
YVX
 40
0.125
 41
0.6
  0
MTEXT
  5
287
100
AcDbEntity
  8
0
100
AcDbMText
 62
2
  6
CONTINUOUS
  7
STANDARD
 71
2
 72
1
 10
2.3
 20
-0.75025
 30
0.0
 11
1.0
 21
0.0
 31
0.0
 44
0.9
  1
Ports C2, V1, V2
 40
0.125
 41
3.2
  0
MTEXT
  5
288
100
AcDbEntity
  8
0
100
AcDbMText
 62
2
  6
CONTINUOUS
  7
STANDARD
 71
2
 72
1
 10
3.95
 20
-0.75025
 30
0.0
 11
1.0
 21
0.0
 31
0.0
 44
0.9
  1
3/8" BSPP
 40
0.125
 41
1.8
  0
ENDBLK
  5
289
100
AcDbEntity
  8
0
  6
BYBLOCK
 62
0
100
AcDbBlockEnd
  0
ENDSEC
  0
SECTION
  2
ENTITIES
  0
IMAGE
  5
28A
100
AcDbEntity
  8
0
100
AcDbRasterImage
 62
7
  6
CONTINUOUS
 10
19.2297077316
 20
0.3094318264
 30
0.0
 11
0.0066666667
 21
0.0
 31
0.0
 12
0.0
 22
0.0066666667
 32
0.0
 13
369.0
 23
92.0
340
       395
 70
9
280
0
281
50
282
50
283
0
360
       38F
 71
1
 91
2
 14
-0.5
 24
-0.5
 14
368.5
 24
91.5
  0
INSERT
  5
28B
100
AcDbEntity
  8
0
100
AcDbBlockReference
 62
2
  6
CONTINUOUS
  2
SUN_FIRST_THIRD_ANGLE_BL0
 10
20.4816717061
 20
1.2289683772
  0
ACAD_TABLE
  5
28C
100
AcDbEntity
  8
0
 62
2
  6
CONTINUOUS
100
AcDbBlockReference
  2
*T1
 10
12.42375
 20
0.30125
 30
0.0
100
AcDbTable
342
       397
343
20A
 11
1.0
 21
0.0
 31
0.0
 90
6
 91
4
 92
6
 93
20
 94
0
 95
0
 96
0
 70
1
 41
0.0
141
0.525
141
0.1
141
0.525
141
0.1
142
4.1
142
1.1
142
0.7
142
0.5
142
0.4
142
2.475
171
1
172
0
173
0
174
0
175
1
176
1
 91
33
178
0
145
0.0
301
CELL_VALUE
 90
4
  1
T-11A Gasket mount Sun\PDirect mount, cross pilot
304
ACVALUE_END
170
2
140
0.125
171
1
172
0
173
0
174
0
175
1
176
1
 91
33
178
0
145
0.0
301
CELL_VALUE
 90
4
  1
Aug-16-19
304
ACVALUE_END
170
5
140
0.125
171
1
172
0
173
0
174
0
175
1
176
1
 91
33
178
0
145
0.0
301
CELL_VALUE
 90
4
  1
2.000
304
ACVALUE_END
170
5
140
0.125
171
1
172
0
173
0
174
0
175
1
176
1
 91
33
178
0
145
0.0
301
CELL_VALUE
 90
4
  1
C
304
ACVALUE_END
170
5
140
0.125
171
1
172
0
173
0
174
0
175
1
176
1
 91
33
178
0
145
0.0
301
CELL_VALUE
 90
4
  1
2
304
ACVALUE_END
170
5
140
0.125
171
1
172
0
173
0
174
0
175
1
176
1
 91
33
178
0
145
0.0
301
CELL_VALUE
 90
4
  1
 
304
ACVALUE_END
170
1
140
0.125
171
1
172
0
173
0
174
0
175
1
176
1
 91
33
178
0
145
0.0
301
CELL_VALUE
 90
4
  1
DESCRIPTION
304
ACVALUE_END
170
1
140
0.06
171
1
172
0
173
0
174
0
175
1
176
1
 91
33
178
0
145
0.0
301
CELL_VALUE
 90
4
  1
DATE
304
ACVALUE_END
170
1
140
0.06
171
1
172
0
173
0
174
0
175
1
176
1
 91
33
178
0
145
0.0
301
CELL_VALUE
 90
4
  1
SCALE
304
ACVALUE_END
170
1
140
0.06
171
1
172
0
173
0
174
0
175
1
176
1
 91
33
178
0
145
0.0
301
CELL_VALUE
 90
4
  1
DWG SIZE
304
ACVALUE_END
170
1
140
0.06
171
1
172
0
173
0
174
0
175
1
176
1
 91
33
178
0
145
0.0
301
CELL_VALUE
 90
4
  1
SHEET
304
ACVALUE_END
170
1
140
0.06
171
1
172
0
173
0
174
0
175
1
176
1
 91
33
178
0
145
0.0
301
CELL_VALUE
 90
4
  1
 
304
ACVALUE_END
170
1
140
0.125
171
1
172
0
173
0
174
0
175
1
176
1
 91
33
178
0
145
0.0
301
CELL_VALUE
 90
4
  1
YVX
304
ACVALUE_END
170
5
140
0.125
171
1
172
0
173
0
174
0
175
4
176
1
 91
33
178
0
145
0.0
301
CELL_VALUE
 90
4
  1
ALL DIMENSIONS IN INCH\PVIEWS ARE THIRD ANGLE
304
ACVALUE_END
170
5
140
0.12
171
1
172
0
173
1
174
0
175
1
176
1
 91
1
178
0
145
0.0
170
1
171
1
172
0
173
1
174
0
175
1
176
1
 91
1
178
0
145
0.0
170
1
171
1
172
0
173
1
174
0
175
1
176
1
 91
1
178
0
145
0.0
170
5
171
1
172
0
173
0
174
0
175
1
176
1
 91
33
178
0
145
0.0
301
CELL_VALUE
 90
4
  1
 
304
ACVALUE_END
170
1
140
0.125
171
1
172
0
173
0
174
0
175
1
176
1
 91
33
178
0
145
0.0
301
CELL_VALUE
 90
4
  1
MODEL
304
ACVALUE_END
170
1
140
0.06
171
1
172
0
173
0
174
0
175
1
176
1
 91
33
178
0
145
0.0
301
CELL_VALUE
 90
4
  1
 
304
ACVALUE_END
170
1
140
0.125
171
1
172
0
173
0
174
0
175
1
176
1
 91
33
178
0
145
0.0
301
CELL_VALUE
 90
4
  1
 
304
ACVALUE_END
170
1
140
0.125
171
1
172
0
173
0
174
0
175
1
176
1
 91
33
178
0
145
0.0
301
CELL_VALUE
 90
4
  1
 
304
ACVALUE_END
170
1
140
0.125
171
1
172
0
173
0
174
0
175
1
176
1
 91
33
178
0
145
0.0
301
CELL_VALUE
 90
4
  1
 
304
ACVALUE_END
170
1
140
0.125
171
1
172
0
173
0
174
0
175
1
176
1
 91
33
178
0
145
0.0
301
CELL_VALUE
 90
4
  1
 
304
ACVALUE_END
170
1
140
0.125
  0
ACAD_TABLE
  5
28D
100
AcDbEntity
  8
0
 62
2
  6
CONTINUOUS
100
AcDbBlockReference
  2
*T2
 10
12.4237499994
 20
16.47875
 30
0.0
100
AcDbTable
342
       396
343
20B
 11
1.0
 21
0.0
 31
0.0
 90
22
 91
12
 92
3
 93
16
 94
0
 95
0
 96
0
 41
0.028
141
0.344
141
0.25
141
0.25
141
0.25
141
0.25
141
0.25
141
0.25
141
0.25
141
0.25
141
0.25
141
0.25
141
0.25
142
3.055
142
3.0
142
3.0
171
1
172
0
173
0
174
0
175
1
176
1
 91
33
178
0
145
0.0
301
CELL_VALUE
 90
4
  1
Technical Data
304
ACVALUE_END
170
5
140
0.145
171
1
172
0
173
0
174
0
175
1
176
1
 91
33
178
0
145
0.0
301
CELL_VALUE
 90
4
  1
U.S. Units
304
ACVALUE_END
170
5
140
0.145
171
1
172
0
173
0
174
0
175
1
176
1
 91
33
178
0
145
0.0
301
CELL_VALUE
 90
4
  1
Metric Units
304
ACVALUE_END
170
5
140
0.145
171
1
172
0
173
0
174
0
175
1
176
1
 91
33
178
0
145
0.0
301
CELL_VALUE
 90
4
  1
Cavity
304
ACVALUE_END
170
5
140
0.125
171
1
172
0
173
0
174
0
175
2
176
1
 91
33
178
0
145
0.0
301
CELL_VALUE
 90
4
  1
T-11A
304
ACVALUE_END
170
5
140
0.125
171
1
172
0
173
1
174
0
175
1
176
1
 91
1
178
0
145
0.0
170
1
171
1
172
0
173
0
174
0
175
1
176
1
 91
33
178
0
145
0.0
301
CELL_VALUE
 90
4
  1
Body Features
304
ACVALUE_END
170
5
140
0.125
171
1
172
0
173
0
174
0
175
2
176
1
 91
33
178
0
145
0.0
301
CELL_VALUE
 90
4
  1
Direct mount, cross pilot
304
ACVALUE_END
170
5
140
0.125
171
1
172
0
173
1
174
0
175
1
176
1
 91
1
178
0
145
0.0
170
1
171
1
172
0
173
0
174
0
175
1
176
1
 91
33
178
0
145
0.0
301
CELL_VALUE
 90
4
  1
Body Type
304
ACVALUE_END
170
5
140
0.125
171
1
172
0
173
0
174
0
175
2
176
1
 91
33
178
0
145
0.0
301
CELL_VALUE
 90
4
  1
Gasket mount
304
ACVALUE_END
170
5
140
0.125
171
1
172
0
173
1
174
0
175
1
176
1
 91
1
178
0
145
0.0
170
1
171
1
172
0
173
0
174
0
175
1
176
1
 91
33
178
0
145
0.0
301
CELL_VALUE
 90
4
  1
Interface
304
ACVALUE_END
170
5
140
0.125
171
1
172
0
173
0
174
0
175
2
176
1
 91
33
178
0
145
0.0
301
CELL_VALUE
 90
4
  1
Sun
304
ACVALUE_END
170
5
140
0.125
171
1
172
0
173
1
174
0
175
1
176
1
 91
1
178
0
145
0.0
170
1
171
1
172
0
173
0
174
0
175
1
176
1
 91
33
178
0
145
0.0
301
CELL_VALUE
 90
4
  1
Open Cavity Quantity
304
ACVALUE_END
170
5
140
0.125
171
1
172
0
173
0
174
0
175
2
176
1
 91
33
178
0
145
0.0
301
CELL_VALUE
 90
4
  1
2
304
ACVALUE_END
170
5
140
0.125
171
1
172
0
173
1
174
0
175
1
176
1
 91
1
178
0
145
0.0
170
1
171
1
172
0
173
0
174
0
175
1
176
1
 91
33
178
0
145
0.0
301
CELL_VALUE
 90
4
  1
Weight
304
ACVALUE_END
170
5
140
0.125
171
1
172
0
173
0
174
0
175
1
176
1
 91
33
178
0
145
0.0
301
CELL_VALUE
 90
4
  1
1.623 lb.
304
ACVALUE_END
170
5
140
0.125
171
1
172
0
173
0
174
0
175
1
176
1
 91
33
178
0
145
0.0
301
CELL_VALUE
 90
4
  1
0,736 kg.
304
ACVALUE_END
170
5
140
0.125
171
1
172
0
173
0
174
0
175
1
176
1
 91
33
178
0
145
0.0
301
CELL_VALUE
 90
4
  1
Mounting Hole Diameter
304
ACVALUE_END
170
5
140
0.125
171
1
172
0
173
0
174
0
175
1
176
1
 91
33
178
0
145
0.0
301
CELL_VALUE
 90
4
  1
.34 in.
304
ACVALUE_END
170
5
140
0.125
171
1
172
0
173
0
174
0
175
1
176
1
 91
33
178
0
145
0.0
301
CELL_VALUE
 90
4
  1
8.6 mm
304
ACVALUE_END
170
5
140
0.125
171
1
172
0
173
0
174
0
175
1
176
1
 91
33
178
0
145
0.0
301
CELL_VALUE
 90
4
  1
Mounting Hole Depth
304
ACVALUE_END
170
5
140
0.125
171
1
172
0
173
0
174
0
175
2
176
1
 91
33
178
0
145
0.0
301
CELL_VALUE
 90
4
  1
Through
304
ACVALUE_END
170
5
140
0.125
171
1
172
0
173
1
174
0
175
1
176
1
 91
1
178
0
145
0.0
170
1
171
1
172
0
173
0
174
0
175
1
176
1
 91
33
178
0
145
0.0
301
CELL_VALUE
 90
4
  1
Mounting Hole Quantity
304
ACVALUE_END
170
5
140
0.125
171
1
172
0
173
0
174
0
175
2
176
1
 91
33
178
0
145
0.0
301
CELL_VALUE
 90
4
  1
2
304
ACVALUE_END
170
5
140
0.125
171
1
172
0
173
1
174
0
175
1
176
1
 91
1
178
0
145
0.0
170
1
171
1
172
0
173
0
174
0
175
1
176
1
 91
33
178
0
145
0.0
301
CELL_VALUE
 90
4
  1
Mounting Hole C'bore Diameter
304
ACVALUE_END
170
5
140
0.125
171
1
172
0
173
0
174
0
175
1
176
1
 91
33
178
0
145
0.0
301
CELL_VALUE
 90
4
  1
.53 in.
304
ACVALUE_END
170
5
140
0.125
171
1
172
0
173
0
174
0
175
1
176
1
 91
33
178
0
145
0.0
301
CELL_VALUE
 90
4
  1
13,5 mm
304
ACVALUE_END
170
5
140
0.125
171
1
172
0
173
0
174
0
175
1
176
1
 91
33
178
0
145
0.0
301
CELL_VALUE
 90
4
  1
Mounting Hole C'bore Depth
304
ACVALUE_END
170
5
140
0.125
171
1
172
0
173
0
174
0
175
1
176
1
 91
33
178
0
145
0.0
301
CELL_VALUE
 90
4
  1
.25 in.
304
ACVALUE_END
170
5
140
0.125
171
1
172
0
173
0
174
0
175
1
176
1
 91
33
178
0
145
0.0
301
CELL_VALUE
 90
4
  1
6,4 mm
304
ACVALUE_END
170
5
140
0.125
  0
ACAD_TABLE
  5
28E
100
AcDbEntity
  8
0
 62
2
  6
CONTINUOUS
100
AcDbBlockReference
  2
*T3
 10
0.52125
 20
1.459
 30
0.0
100
AcDbTable
342
       396
343
20C
 11
1.0
 21
0.0
 31
0.0
 90
22
 91
3
 92
3
 93
16
 94
0
 95
0
 96
0
 41
0.05
141
0.34375
141
0.344
141
0.25
142
1.3
142
2.0
142
1.3
171
1
172
0
173
0
174
0
175
3
176
1
 91
33
178
0
145
0.0
301
CELL_VALUE
 90
4
  1
Port Headings
304
ACVALUE_END
170
5
140
0.145
171
1
172
0
173
1
174
0
175
1
176
1
 91
1
178
0
145
0.0
170
1
171
1
172
0
173
1
174
0
175
1
176
1
 91
1
178
0
145
0.0
170
1
171
1
172
0
173
0
174
0
175
1
176
1
 91
33
178
0
145
0.0
301
CELL_VALUE
 90
4
  1
Product
304
ACVALUE_END
170
5
140
0.145
171
1
172
0
173
0
174
0
175
1
176
1
 91
33
178
0
145
0.0
301
CELL_VALUE
 90
4
  1
Port
304
ACVALUE_END
170
5
140
0.145
171
1
172
0
173
0
174
0
175
1
176
1
 91
33
178
0
145
0.0
301
CELL_VALUE
 90
4
  1
Size
304
ACVALUE_END
170
5
140
0.145
171
1
172
0
173
0
174
0
175
1
176
1
 91
33
178
0
145
0.0
301
CELL_VALUE
 90
4
  1
YVX
304
ACVALUE_END
170
5
140
0.125
171
1
172
0
173
0
174
0
175
1
176
1
 91
33
178
0
145
0.0
301
CELL_VALUE
 90
4
  1
Ports C2, V1, V2
304
ACVALUE_END
170
5
140
0.125
171
1
172
0
173
0
174
0
175
1
176
1
 91
33
178
0
145
0.0
301
CELL_VALUE
 90
4
  1
3/8" BSPP
304
ACVALUE_END
170
5
140
0.125
  0
MTEXT
  5
28F
100
AcDbEntity
  8
0
100
AcDbMText
 62
2
  6
CONTINUOUS
  7
STANDARD
 71
1
 72
1
 10
0.52125
 20
5.75995
 30
0.0
 11
1.0
 21
0.0
 31
0.0
 44
0.6
  3
Notes\P \P1. Important: Carefully consider\P   the maximum system pressure. The\P   pressure rating of the manifold is\P   dependent on the manifold material,\P   with the port type/size a secondary\P   consideration. Manifolds\P   constructed of alu
  1
minum are not\P   rated for pressures higher than\P   3000 psi (210 bar), regardless of\P   the port type/size specified.
 40
0.1
 41
3.04
  0
LINE
  5
290
100
AcDbEntity
  8
0
100
AcDbLine
 62
7
  6
CONTINUOUS
 10
0.30125
 20
0.30125
 11
0.30125
 21
16.69875
  0
LINE
  5
291
100
AcDbEntity
  8
0
100
AcDbLine
 62
7
  6
CONTINUOUS
 10
0.30125
 20
0.30125
 11
21.69875
 21
0.30125
  0
LINE
  5
292
100
AcDbEntity
  8
0
100
AcDbLine
 62
7
  6
CONTINUOUS
 10
0.30125
 20
16.69875
 11
21.69875
 21
16.69875
  0
LINE
  5
293
100
AcDbEntity
  8
0
100
AcDbLine
 62
7
  6
CONTINUOUS
 10
21.69875
 20
0.30125
 11
21.69875
 21
16.69875
  0
LINE
  5
294
100
AcDbEntity
  8
0
100
AcDbLine
 62
7
  6
CONTINUOUS
 10
12.14287518
 20
5.0011180454
 11
7.9159835837
 21
5.2942539733
  0
LINE
  5
295
100
AcDbEntity
  8
0
100
AcDbLine
 62
7
  6
CONTINUOUS
 10
7.9159835837
 20
5.2942539733
 11
7.9159835837
 21
10.1238833909
  0
LINE
  5
296
100
AcDbEntity
  8
0
100
AcDbLine
 62
7
  6
CONTINUOUS
 10
7.9159835837
 20
10.1238833909
 11
9.85712482
 21
11.9988819546
  0
LINE
  5
297
100
AcDbEntity
  8
0
100
AcDbLine
 62
7
  6
CONTINUOUS
 10
8.8778165941
 20
9.6070195301
 11
8.8763922045
 21
9.622444235
  0
LINE
  5
298
100
AcDbEntity
  8
0
100
AcDbLine
 62
4
  6
CONTINUOUS
 10
12.2878137253
 20
6.4489816591
 11
12.2722845958
 21
6.4484705588
  0
LINE
  5
299
100
AcDbEntity
  8
0
100
AcDbLine
 62
4
  6
CONTINUOUS
 10
12.2722845958
 20
6.622337214
 11
12.3344011139
 21
6.609892727
  0
LINE
  5
29A
100
AcDbEntity
  8
0
100
AcDbLine
 62
7
  6
CONTINUOUS
 10
12.14287518
 20
9.830747463
 11
14.0840164163
 21
11.7057460267
  0
LINE
  5
29B
100
AcDbEntity
  8
0
100
AcDbLine
 62
4
  6
CONTINUOUS
 10
13.9054314222
 20
8.6016611082
 11
13.8899022927
 21
8.601150008
  0
LINE
  5
29C
100
AcDbEntity
  8
0
100
AcDbLine
 62
4
  6
CONTINUOUS
 10
13.9209605517
 20
8.891949967
 11
13.9364896813
 21
8.8924610673
  0
LINE
  5
29D
100
AcDbEntity
  8
0
100
AcDbLine
 62
4
  6
CONTINUOUS
 10
13.2257731757
 20
8.4591721765
 11
13.2878896939
 21
8.4529372169
  0
LINE
  5
29E
100
AcDbEntity
  8
0
100
AcDbLine
 62
4
  6
CONTINUOUS
 10
13.4680275966
 20
7.942509625
 11
13.4635907009
 21
7.9437434678
  0
LINE
  5
29F
100
AcDbEntity
  8
0
100
AcDbLine
 62
4
  6
CONTINUOUS
 10
12.3136956091
 20
6.3725594251
 11
12.3085192301
 21
6.3820483145
  0
LINE
  5
2A0
100
AcDbEntity
  8
0
100
AcDbLine
 62
4
  6
CONTINUOUS
 10
12.2981664777
 20
6.4300038747
 11
12.2878137253
 21
6.4489816591
  0
LINE
  5
2A1
100
AcDbEntity
  8
0
100
AcDbLine
 62
4
  6
CONTINUOUS
 10
12.3240483597
 20
6.4984705182
 11
12.3292247386
 21
6.4889816287
  0
LINE
  5
2A2
100
AcDbEntity
  8
0
100
AcDbLine
 62
4
  6
CONTINUOUS
 10
13.0891168358
 20
8.9508843664
 11
13.1512333539
 21
8.9446494068
  0
LINE
  5
2A3
100
AcDbEntity
  8
0
100
AcDbLine
 62
4
  6
CONTINUOUS
 10
13.3911214312
 20
8.7789540202
 11
13.450280021
 21
8.7698619487
  0
LINE
  5
2A4
100
AcDbEntity
  8
0
100
AcDbLine
 62
4
  6
CONTINUOUS
 10
12.3344011139
 20
9.1695962576
 11
12.2722845958
 21
9.0371518652
  0
LINE
  5
2A5
100
AcDbEntity
  8
0
100
AcDbLine
 62
4
  6
CONTINUOUS
 10
12.3344011139
 20
8.865329611
 11
12.2722845958
 21
8.8053296584
  0
LINE
  5
2A6
100
AcDbEntity
  8
0
100
AcDbLine
 62
4
  6
CONTINUOUS
 10
13.450280021
 20
9.7633856609
 11
13.4591538088
 21
9.7719570822
  0
LINE
  5
2A7
100
AcDbEntity
  8
0
100
AcDbLine
 62
4
  6
CONTINUOUS
 10
13.4147848671
 20
9.6131888695
 11
13.4236586559
 21
9.6217602917
  0
LINE
  5
2A8
100
AcDbEntity
  8
0
100
AcDbLine
 62
4
  6
CONTINUOUS
 10
13.4680275966
 20
9.5983824877
 11
13.4147848671
 21
9.5469539572
  0
LINE
  5
2A9
100
AcDbEntity
  8
0
100
AcDbLine
 62
4
  6
CONTINUOUS
 10
12.2722845958
 20
9.0371518652
 11
12.3344011139
 21
9.0247073783
  0
LINE
  5
2AA
100
AcDbEntity
  8
0
100
AcDbLine
 62
4
  6
CONTINUOUS
 10
12.3085192301
 20
6.3820483145
 11
12.2981664777
 21
6.4300038747
  0
LINE
  5
2AB
100
AcDbEntity
  8
0
100
AcDbLine
 62
4
  6
CONTINUOUS
 10
12.3292247386
 20
6.4889816287
 11
12.3344011139
 21
6.4650038477
  0
LINE
  5
2AC
100
AcDbEntity
  8
0
100
AcDbLine
 62
7
  6
CONTINUOUS
 10
12.14287518
 20
9.830747463
 11
12.14287518
 21
5.0011180454
  0
LINE
  5
2AD
100
AcDbEntity
  8
0
100
AcDbLine
 62
4
  6
CONTINUOUS
 10
12.2722845958
 20
6.4484705588
 11
12.2722845958
 21
6.3325594554
  0
LINE
  5
2AE
100
AcDbEntity
  8
0
100
AcDbLine
 62
4
  6
CONTINUOUS
 10
13.0891168358
 20
9.1606282553
 11
13.1512333539
 21
9.220628208
  0
LINE
  5
2AF
100
AcDbEntity
  8
0
100
AcDbLine
 62
4
  6
CONTINUOUS
 10
13.4147848671
 20
9.4310428538
 11
13.4680275966
 21
9.4824713843
  0
LINE
  5
2B0
100
AcDbEntity
  8
0
100
AcDbLine
 62
4
  6
CONTINUOUS
 10
13.4059110784
 20
9.3562365193
 11
13.4680275966
 21
9.416236472
  0
LINE
  5
2B1
100
AcDbEntity
  8
0
100
AcDbLine
 62
4
  6
CONTINUOUS
 10
13.1423595661
 20
9.0961456971
 11
13.0979906245
 21
9.0532885879
  0
LINE
  5
2B2
100
AcDbEntity
  8
0
100
AcDbLine
 62
4
  6
CONTINUOUS
 10
13.4059110784
 20
9.2403254159
 11
13.4680275966
 21
9.3003253686
  0
LINE
  5
2B3
100
AcDbEntity
  8
0
100
AcDbLine
 62
4
  6
CONTINUOUS
 10
12.3344011139
 20
6.4650038477
 11
12.3344011139
 21
6.4360260719
  0
LINE
  5
2B4
100
AcDbEntity
  8
0
100
AcDbLine
 62
4
  6
CONTINUOUS
 10
13.0891168358
 20
8.6859446895
 11
13.1512333539
 21
8.7459446422
  0
LINE
  5
2B5
100
AcDbEntity
  8
0
100
AcDbLine
 62
4
  6
CONTINUOUS
 10
13.4059110784
 20
8.9919444878
 11
13.4680275966
 21
9.0519444405
  0
LINE
  5
2B6
100
AcDbEntity
  8
0
100
AcDbLine
 62
4
  6
CONTINUOUS
 10
13.4458431253
 20
8.9311635032
 11
13.4059110784
 21
8.8925921056
  0
LINE
  5
2B7
100
AcDbEntity
  8
0
100
AcDbLine
 62
4
  6
CONTINUOUS
 10
13.0891168358
 20
8.5534748649
 11
13.1512333539
 21
8.6134748176
  0
LINE
  5
2B8
100
AcDbEntity
  8
0
100
AcDbLine
 62
4
  6
CONTINUOUS
 10
13.2612683306
 20
8.6921626229
 11
13.2257731757
 21
8.6578769342
  0
LINE
  5
2B9
100
AcDbEntity
  8
0
100
AcDbLine
 62
4
  6
CONTINUOUS
 10
13.4103479728
 20
8.6871338863
 11
13.4458431253
 21
8.7214195728
  0
LINE
  5
2BA
100
AcDbEntity
  8
0
100
AcDbLine
 62
7
  6
CONTINUOUS
 10
7.9159835837
 20
10.1238833909
 11
12.14287518
 21
9.830747463
  0
LINE
  5
2BB
100
AcDbEntity
  8
0
100
AcDbLine
 62
4
  6
CONTINUOUS
 10
13.2257731757
 20
8.3322219349
 11
13.2878896939
 21
8.259752063
  0
LINE
  5
2BC
100
AcDbEntity
  8
0
100
AcDbLine
 62
4
  6
CONTINUOUS
 10
12.3344011139
 20
6.4360260719
 11
12.3292247386
 21
6.4020483012
  0
LINE
  5
2BD
100
AcDbEntity
  8
0
100
AcDbLine
 62
4
  6
CONTINUOUS
 10
12.3292247386
 20
6.4020483012
 11
12.3240483597
 21
6.3825594148
  0
LINE
  5
2BE
100
AcDbEntity
  8
0
100
AcDbLine
 62
4
  6
CONTINUOUS
 10
13.1512333539
 20
8.9446494068
 11
13.0891168358
 21
8.8184145141
  0
LINE
  5
2BF
100
AcDbEntity
  8
0
100
AcDbLine
 62
4
  6
CONTINUOUS
 10
13.4680275966
 20
8.6434958009
 11
13.4059110784
 21
8.5834958482
  0
LINE
  5
2C0
100
AcDbEntity
  8
0
100
AcDbLine
 62
4
  6
CONTINUOUS
 10
13.4059110784
 20
8.517260853
 11
13.450280021
 21
8.5601179631
  0
LINE
  5
2C1
100
AcDbEntity
  8
0
100
AcDbLine
 62
4
  6
CONTINUOUS
 10
13.0979906245
 20
8.2143129216
 11
13.1423595661
 21
8.2571700308
  0
LINE
  5
2C2
100
AcDbEntity
  8
0
100
AcDbLine
 62
4
  6
CONTINUOUS
 10
13.4458431253
 20
8.4785582554
 11
13.4369693375
 21
8.4699868341
  0
LINE
  5
2C3
100
AcDbEntity
  8
0
100
AcDbLine
 62
4
  6
CONTINUOUS
 10
13.4103479728
 20
8.3725180183
 11
13.4236586559
 21
8.3853751516
  0
LINE
  5
2C4
100
AcDbEntity
  8
0
100
AcDbLine
 62
4
  6
CONTINUOUS
 10
13.0979906245
 20
8.0211278229
 11
13.1423595661
 21
8.0639849321
  0
LINE
  5
2C5
100
AcDbEntity
  8
0
100
AcDbLine
 62
4
  6
CONTINUOUS
 10
13.4059110784
 20
8.2688799802
 11
13.4414062333
 21
8.303165669
  0
LINE
  5
2C6
100
AcDbEntity
  8
0
100
AcDbLine
 62
4
  6
CONTINUOUS
 10
13.450280021
 20
8.2455022056
 11
13.4103479728
 21
8.2069308067
  0
LINE
  5
2C7
100
AcDbEntity
  8
0
100
AcDbLine
 62
4
  6
CONTINUOUS
 10
13.1423595661
 20
7.9480738286
 11
13.0979906245
 21
7.9052167194
  0
LINE
  5
2C8
100
AcDbEntity
  8
0
100
AcDbLine
 62
4
  6
CONTINUOUS
 10
13.0979906245
 20
7.7230707313
 11
13.0891168358
 21
7.7476167515
  0
LINE
  5
2C9
100
AcDbEntity
  8
0
100
AcDbLine
 62
4
  6
CONTINUOUS
 10
13.0979906245
 20
7.9052167194
 11
13.0891168358
 21
7.9297627396
  0
LINE
  5
2CA
100
AcDbEntity
  8
0
100
AcDbLine
 62
4
  6
CONTINUOUS
 10
13.1423595661
 20
8.0639849321
 11
13.1512333539
 21
8.039438911
  0
LINE
  5
2CB
100
AcDbEntity
  8
0
100
AcDbLine
 62
4
  6
CONTINUOUS
 10
13.0891168358
 20
8.5534748649
 11
13.0891168358
 21
8.4541224827
  0
LINE
  5
2CC
100
AcDbEntity
  8
0
100
AcDbLine
 62
4
  6
CONTINUOUS
 10
13.0891168358
 20
7.6206664269
 11
13.0891168358
 21
7.5213140999
  0
LINE
  5
2CD
100
AcDbEntity
  8
0
100
AcDbLine
 62
4
  6
CONTINUOUS
 10
13.0891168358
 20
7.7476167515
 11
13.0891168358
 21
7.8304104126
  0
LINE
  5
2CE
100
AcDbEntity
  8
0
100
AcDbLine
 62
4
  6
CONTINUOUS
 10
13.0891168358
 20
7.9297627396
 11
13.0891168358
 21
7.9794389583
  0
LINE
  5
2CF
100
AcDbEntity
  8
0
100
AcDbLine
 62
4
  6
CONTINUOUS
 10
13.0891168358
 20
8.1063891724
 11
13.0891168358
 21
8.172624057
  0
LINE
  5
2D0
100
AcDbEntity
  8
0
100
AcDbLine
 62
4
  6
CONTINUOUS
 10
13.0891168358
 20
9.0778346218
 11
13.0891168358
 21
9.1606282553
  0
LINE
  5
2D1
100
AcDbEntity
  8
0
100
AcDbLine
 62
4
  6
CONTINUOUS
 10
13.1068644132
 20
8.9459489066
 11
13.1068644132
 21
8.8576356902
  0
LINE
  5
2D2
100
AcDbEntity
  8
0
100
AcDbLine
 62
4
  6
CONTINUOUS
 10
13.1246119906
 20
7.588717231
 11
13.1246119906
 21
7.6549521157
  0
LINE
  5
2D3
100
AcDbEntity
  8
0
100
AcDbLine
 62
4
  6
CONTINUOUS
 10
13.1246119906
 20
8.5215256138
 11
13.1246119906
 21
8.5877605537
  0
LINE
  5
2D4
100
AcDbEntity
  8
0
100
AcDbLine
 62
4
  6
CONTINUOUS
 10
13.1512333539
 20
9.220628208
 11
13.1512333539
 21
9.1378345745
  0
LINE
  5
2D5
100
AcDbEntity
  8
0
100
AcDbLine
 62
4
  6
CONTINUOUS
 10
13.1512333539
 20
8.8121795822
 11
13.1512333539
 21
8.6797097576
  0
LINE
  5
2D6
100
AcDbEntity
  8
0
100
AcDbLine
 62
4
  6
CONTINUOUS
 10
13.1512333539
 20
8.6134748176
 11
13.1512333539
 21
8.5141224354
  0
LINE
  5
2D7
100
AcDbEntity
  8
0
100
AcDbLine
 62
4
  6
CONTINUOUS
 10
13.1512333539
 20
8.2326240097
 11
13.1512333539
 21
8.1663891251
  0
LINE
  5
2D8
100
AcDbEntity
  8
0
100
AcDbLine
 62
4
  6
CONTINUOUS
 10
13.1512333539
 20
8.039438911
 11
13.1512333539
 21
7.9897626923
  0
LINE
  5
2D9
100
AcDbEntity
  8
0
100
AcDbLine
 62
4
  6
CONTINUOUS
 10
13.1512333539
 20
7.8904103653
 11
13.1512333539
 21
7.8076167042
  0
LINE
  5
2DA
100
AcDbEntity
  8
0
100
AcDbLine
 62
4
  6
CONTINUOUS
 10
13.1512333539
 20
7.6806663796
 11
13.1512333539
 21
7.5813140526
  0
LINE
  5
2DB
100
AcDbEntity
  8
0
100
AcDbLine
 62
4
  6
CONTINUOUS
 10
13.115738201
 20
9.3188123594
 11
13.103906483
 21
9.2190705735
  0
LINE
  5
2DC
100
AcDbEntity
  8
0
100
AcDbLine
 62
4
  6
CONTINUOUS
 10
13.4236586559
 20
9.6217602917
 11
13.450280021
 21
9.7633856609
  0
LINE
  5
2DD
100
AcDbEntity
  8
0
100
AcDbLine
 62
4
  6
CONTINUOUS
 10
13.1512333539
 20
9.1378345745
 11
13.1423595661
 21
9.0961456971
  0
LINE
  5
2DE
100
AcDbEntity
  8
0
100
AcDbLine
 62
4
  6
CONTINUOUS
 10
13.4103479728
 20
9.7248142619
 11
13.4059110784
 21
9.703969821
  0
LINE
  5
2DF
100
AcDbEntity
  8
0
100
AcDbLine
 62
4
  6
CONTINUOUS
 10
13.0891168358
 20
8.172624057
 11
13.0979906245
 21
8.2143129216
  0
LINE
  5
2E0
100
AcDbEntity
  8
0
100
AcDbLine
 62
4
  6
CONTINUOUS
 10
13.4147848671
 20
9.5469539572
 11
13.4059110784
 21
9.5052650789
  0
LINE
  5
2E1
100
AcDbEntity
  8
0
100
AcDbLine
 62
4
  6
CONTINUOUS
 10
13.0891168358
 20
7.9794389583
 11
13.0979906245
 21
8.0211278229
  0
LINE
  5
2E2
100
AcDbEntity
  8
0
100
AcDbLine
 62
4
  6
CONTINUOUS
 10
13.4680275966
 20
9.6811761281
 11
13.4635907009
 21
9.6603316876
  0
LINE
  5
2E3
100
AcDbEntity
  8
0
100
AcDbLine
 62
4
  6
CONTINUOUS
 10
13.1512333539
 20
7.9897626923
 11
13.1423595661
 21
7.9480738286
  0
LINE
  5
2E4
100
AcDbEntity
  8
0
100
AcDbLine
 62
4
  6
CONTINUOUS
 10
13.2878896939
 20
8.7841118061
 11
13.2612683306
 21
8.6921626229
  0
LINE
  5
2E5
100
AcDbEntity
  8
0
100
AcDbLine
 62
4
  6
CONTINUOUS
 10
13.2878896939
 20
8.3922218876
 11
13.2257731757
 21
8.1997521103
  0
LINE
  5
2E6
100
AcDbEntity
  8
0
100
AcDbLine
 62
4
  6
CONTINUOUS
 10
13.4680275966
 20
9.416236472
 11
13.4059110784
 21
9.2403254159
  0
LINE
  5
2E7
100
AcDbEntity
  8
0
100
AcDbLine
 62
4
  6
CONTINUOUS
 10
12.3344011139
 20
6.7547816063
 11
12.2722845958
 21
6.622337214
  0
LINE
  5
2E8
100
AcDbEntity
  8
0
100
AcDbLine
 62
4
  6
CONTINUOUS
 10
13.450280021
 20
8.8692142757
 11
13.4059110784
 21
8.7766809469
  0
LINE
  5
2E9
100
AcDbEntity
  8
0
100
AcDbLine
 62
4
  6
CONTINUOUS
 10
13.2878896939
 20
8.5854070553
 11
13.2257731757
 21
8.4591721765
  0
LINE
  5
2EA
100
AcDbEntity
  8
0
100
AcDbLine
 62
4
  6
CONTINUOUS
 10
13.0891168358
 20
7.8304104126
 11
13.1512333539
 21
7.8904103653
  0
LINE
  5
2EB
100
AcDbEntity
  8
0
100
AcDbLine
 62
4
  6
CONTINUOUS
 10
13.4059110784
 20
8.103292658
 11
13.450280021
 21
8.1461497681
  0
LINE
  5
2EC
100
AcDbEntity
  8
0
100
AcDbLine
 62
4
  6
CONTINUOUS
 10
13.4103479728
 20
8.0413434845
 11
13.4680275966
 21
8.097057726
  0
LINE
  5
2ED
100
AcDbEntity
  8
0
100
AcDbLine
 62
4
  6
CONTINUOUS
 10
13.1423595661
 20
7.7659278405
 11
13.0979906245
 21
7.7230707313
  0
LINE
  5
2EE
100
AcDbEntity
  8
0
100
AcDbLine
 62
4
  6
CONTINUOUS
 10
13.9416660566
 20
8.5352388639
 11
13.931313306
 21
8.5252388742
  0
LINE
  5
2EF
100
AcDbEntity
  8
0
100
AcDbLine
 62
4
  6
CONTINUOUS
 10
13.0891168358
 20
7.6206664269
 11
13.1512333539
 21
7.6806663796
  0
LINE
  5
2F0
100
AcDbEntity
  8
0
100
AcDbLine
 62
4
  6
CONTINUOUS
 10
13.4059110784
 20
7.8880292276
 11
13.450280021
 21
7.9308863377
  0
LINE
  5
2F1
100
AcDbEntity
  8
0
100
AcDbLine
 62
4
  6
CONTINUOUS
 10
13.4635907009
 20
7.9437434678
 11
13.4680275966
 21
7.9480291803
  0
LINE
  5
2F2
100
AcDbEntity
  8
0
100
AcDbLine
 62
4
  6
CONTINUOUS
 10
13.4103479728
 20
7.8040017223
 11
13.4458431253
 21
7.8382874088
  0
LINE
  5
2F3
100
AcDbEntity
  8
0
100
AcDbLine
 62
4
  6
CONTINUOUS
 10
13.2612683306
 20
8.6921626229
 11
13.2878896939
 21
8.6516419676
  0
LINE
  5
2F4
100
AcDbEntity
  8
0
100
AcDbLine
 62
4
  6
CONTINUOUS
 10
13.1423595661
 20
8.2571700308
 11
13.1512333539
 21
8.2326240097
  0
LINE
  5
2F5
100
AcDbEntity
  8
0
100
AcDbLine
 62
4
  6
CONTINUOUS
 10
13.4059110784
 20
7.5678938043
 11
13.4103479728
 21
7.5556208495
  0
LINE
  5
2F6
100
AcDbEntity
  8
0
100
AcDbLine
 62
4
  6
CONTINUOUS
 10
13.4458431253
 20
7.6892587525
 11
13.450280021
 21
7.6769857991
  0
LINE
  5
2F7
100
AcDbEntity
  8
0
100
AcDbLine
 62
4
  6
CONTINUOUS
 10
13.4458431253
 20
7.8382874088
 11
13.450280021
 21
7.8260144554
  0
LINE
  5
2F8
100
AcDbEntity
  8
0
100
AcDbLine
 62
4
  6
CONTINUOUS
 10
13.0979906245
 20
9.0532885879
 11
13.0891168358
 21
9.0778346218
  0
LINE
  5
2F9
100
AcDbEntity
  8
0
100
AcDbLine
 62
4
  6
CONTINUOUS
 10
13.115738201
 20
7.3924802645
 11
13.103906483
 21
7.4693649183
  0
LINE
  5
2FA
100
AcDbEntity
  8
0
100
AcDbLine
 62
4
  6
CONTINUOUS
 10
13.1275699198
 20
9.2419276996
 11
13.115738201
 21
9.3188123594
  0
LINE
  5
2FB
100
AcDbEntity
  8
0
100
AcDbLine
 62
4
  6
CONTINUOUS
 10
13.3911214312
 20
8.8120714626
 11
13.3911214312
 21
8.7789540202
  0
LINE
  5
2FC
100
AcDbEntity
  8
0
100
AcDbLine
 62
4
  6
CONTINUOUS
 10
13.4059110784
 20
9.703969821
 11
13.4059110784
 21
9.6377349035
  0
LINE
  5
2FD
100
AcDbEntity
  8
0
100
AcDbLine
 62
4
  6
CONTINUOUS
 10
13.4059110784
 20
9.5052650789
 11
13.4059110784
 21
9.4555888739
  0
LINE
  5
2FE
100
AcDbEntity
  8
0
100
AcDbLine
 62
4
  6
CONTINUOUS
 10
13.4059110784
 20
8.1860863191
 11
13.4059110784
 21
8.103292658
  0
LINE
  5
2FF
100
AcDbEntity
  8
0
100
AcDbLine
 62
4
  6
CONTINUOUS
 10
13.4059110784
 20
7.634128689
 11
13.4059110784
 21
7.5678938043
  0
LINE
  5
300
100
AcDbEntity
  8
0
100
AcDbLine
 62
4
  6
CONTINUOUS
 10
13.4059110784
 20
7.7169222395
 11
13.4059110784
 21
7.7831573453
  0
LINE
  5
301
100
AcDbEntity
  8
0
100
AcDbLine
 62
4
  6
CONTINUOUS
 10
13.4059110784
 20
7.9873815546
 11
13.4059110784
 21
8.0204989969
  0
LINE
  5
302
100
AcDbEntity
  8
0
100
AcDbLine
 62
4
  6
CONTINUOUS
 10
13.4059110784
 20
8.2688799802
 11
13.4059110784
 21
8.3351148649
  0
LINE
  5
303
100
AcDbEntity
  8
0
100
AcDbLine
 62
4
  6
CONTINUOUS
 10
13.4059110784
 20
8.5834958482
 11
13.4059110784
 21
8.6497307328
  0
LINE
  5
304
100
AcDbEntity
  8
0
100
AcDbLine
 62
4
  6
CONTINUOUS
 10
13.4280955497
 20
8.3565434199
 11
13.4280955497
 21
8.2903085353
  0
LINE
  5
305
100
AcDbEntity
  8
0
100
AcDbLine
 62
4
  6
CONTINUOUS
 10
13.450280021
 20
9.0348015979
 11
13.450280021
 21
8.9520079368
  0
LINE
  5
306
100
AcDbEntity
  8
0
100
AcDbLine
 62
4
  6
CONTINUOUS
 10
13.450280021
 20
8.6925878429
 11
13.450280021
 21
8.6263529583
  0
LINE
  5
307
100
AcDbEntity
  8
0
100
AcDbLine
 62
4
  6
CONTINUOUS
 10
13.450280021
 20
8.5601179631
 11
13.450280021
 21
8.4938830784
  0
LINE
  5
308
100
AcDbEntity
  8
0
100
AcDbLine
 62
4
  6
CONTINUOUS
 10
13.450280021
 20
7.8260144554
 11
13.450280021
 21
7.7597793496
  0
LINE
  5
309
100
AcDbEntity
  8
0
100
AcDbLine
 62
4
  6
CONTINUOUS
 10
13.450280021
 20
7.6769857991
 11
13.450280021
 21
7.6107509144
  0
LINE
  5
30A
100
AcDbEntity
  8
0
100
AcDbLine
 62
4
  6
CONTINUOUS
 10
13.450280021
 20
8.3282957562
 11
13.450280021
 21
8.4110894173
  0
LINE
  5
30B
100
AcDbEntity
  8
0
100
AcDbLine
 62
4
  6
CONTINUOUS
 10
13.4680275966
 20
9.7474110439
 11
13.4680275966
 21
9.6811761281
  0
LINE
  5
30C
100
AcDbEntity
  8
0
100
AcDbLine
 62
4
  6
CONTINUOUS
 10
13.4680275966
 20
7.9480291803
 11
13.4680275966
 21
7.942509625
  0
LINE
  5
30D
100
AcDbEntity
  8
0
100
AcDbLine
 62
4
  6
CONTINUOUS
 10
13.4266165851
 20
7.5878937892
 11
13.4295745144
 21
7.6569858143
  0
LINE
  5
30E
100
AcDbEntity
  8
0
100
AcDbLine
 62
4
  6
CONTINUOUS
 10
13.1275699198
 20
7.4922220445
 11
13.115738201
 21
7.3924802645
  0
LINE
  5
30F
100
AcDbEntity
  8
0
100
AcDbLine
 62
4
  6
CONTINUOUS
 10
13.4059110784
 20
8.6497307328
 11
13.4103479728
 21
8.6871338863
  0
LINE
  5
310
100
AcDbEntity
  8
0
100
AcDbLine
 62
4
  6
CONTINUOUS
 10
13.4059110784
 20
8.3351148649
 11
13.4103479728
 21
8.3725180183
  0
LINE
  5
311
100
AcDbEntity
  8
0
100
AcDbLine
 62
4
  6
CONTINUOUS
 10
13.4295745144
 20
7.6569858143
 11
13.4325324436
 21
7.6764016206
  0
LINE
  5
312
100
AcDbEntity
  8
0
100
AcDbLine
 62
4
  6
CONTINUOUS
 10
13.1512333539
 20
7.8076167042
 11
13.1423595661
 21
7.7659278405
  0
LINE
  5
313
100
AcDbEntity
  8
0
100
AcDbLine
 62
4
  6
CONTINUOUS
 10
13.450280021
 20
8.9520079368
 11
13.4458431253
 21
8.9311635032
  0
LINE
  5
314
100
AcDbEntity
  8
0
100
AcDbLine
 62
4
  6
CONTINUOUS
 10
13.4103479728
 20
8.2069308067
 11
13.4059110784
 21
8.1860863191
  0
LINE
  5
315
100
AcDbEntity
  8
0
100
AcDbLine
 62
4
  6
CONTINUOUS
 10
13.4059110784
 20
8.0204989969
 11
13.4103479728
 21
8.0413434845
  0
LINE
  5
316
100
AcDbEntity
  8
0
100
AcDbLine
 62
4
  6
CONTINUOUS
 10
13.4059110784
 20
7.7831573453
 11
13.4103479728
 21
7.8040017223
  0
LINE
  5
317
100
AcDbEntity
  8
0
100
AcDbLine
 62
4
  6
CONTINUOUS
 10
13.450280021
 20
8.4938830784
 11
13.4458431253
 21
8.4785582554
  0
LINE
  5
318
100
AcDbEntity
  8
0
100
AcDbLine
 62
4
  6
CONTINUOUS
 10
13.4414062333
 20
8.303165669
 11
13.450280021
 21
8.3282957562
  0
LINE
  5
319
100
AcDbEntity
  8
0
100
AcDbLine
 62
4
  6
CONTINUOUS
 10
13.9054314222
 20
8.8624610909
 11
13.9209605517
 21
8.891949967
  0
LINE
  5
31A
100
AcDbEntity
  8
0
100
AcDbLine
 62
4
  6
CONTINUOUS
 10
13.4325324436
 20
7.6764016206
 11
13.4458431253
 21
7.6892587525
  0
LINE
  5
31B
100
AcDbEntity
  8
0
100
AcDbLine
 62
4
  6
CONTINUOUS
 10
13.4103479728
 20
7.5556208495
 11
13.4236586559
 21
7.5684779828
  0
LINE
  5
31C
100
AcDbEntity
  8
0
100
AcDbLine
 62
4
  6
CONTINUOUS
 10
12.3240483597
 20
6.3825594148
 11
12.3136956091
 21
6.3725594251
  0
LINE
  5
31D
100
AcDbEntity
  8
0
100
AcDbLine
 62
4
  6
CONTINUOUS
 10
13.4236586559
 20
8.3853751516
 11
13.4280955497
 21
8.3565434199
  0
LINE
  5
31E
100
AcDbEntity
  8
0
100
AcDbLine
 62
4
  6
CONTINUOUS
 10
13.4458431253
 20
8.7214195728
 11
13.450280021
 21
8.6925878429
  0
LINE
  5
31F
100
AcDbEntity
  8
0
100
AcDbLine
 62
4
  6
CONTINUOUS
 10
13.4236586559
 20
7.5684779828
 11
13.4266165851
 21
7.5878937892
  0
LINE
  5
320
100
AcDbEntity
  8
0
100
AcDbLine
 62
4
  6
CONTINUOUS
 10
13.8899022927
 20
8.789505551
 11
13.8950786693
 21
8.8234833231
  0
LINE
  5
321
100
AcDbEntity
  8
0
100
AcDbLine
 62
4
  6
CONTINUOUS
 10
13.4103479728
 20
7.654973066
 11
13.4059110784
 21
7.634128689
  0
LINE
  5
322
100
AcDbEntity
  8
0
100
AcDbLine
 62
4
  6
CONTINUOUS
 10
13.450280021
 20
7.6107509144
 11
13.4458431253
 21
7.5899065361
  0
LINE
  5
323
100
AcDbEntity
  8
0
100
AcDbLine
 62
4
  6
CONTINUOUS
 10
13.8950786693
 20
8.8234833231
 11
13.9054314222
 21
8.8624610909
  0
LINE
  5
324
100
AcDbEntity
  8
0
100
AcDbLine
 62
4
  6
CONTINUOUS
 10
13.9468424355
 20
8.7865499572
 11
13.9416660566
 21
8.7670610708
  0
LINE
  5
325
100
AcDbEntity
  8
0
100
AcDbLine
 62
4
  6
CONTINUOUS
 10
13.9468424355
 20
8.5547277503
 11
13.9416660566
 21
8.5352388639
  0
LINE
  5
326
100
AcDbEntity
  8
0
100
AcDbLine
 62
4
  6
CONTINUOUS
 10
13.931313306
 20
8.5252388742
 11
13.926136927
 21
8.5347277637
  0
LINE
  5
327
100
AcDbEntity
  8
0
100
AcDbLine
 62
4
  6
CONTINUOUS
 10
13.9157841746
 20
8.5826833239
 11
13.9054314222
 21
8.6016611082
  0
LINE
  5
328
100
AcDbEntity
  8
0
100
AcDbLine
 62
4
  6
CONTINUOUS
 10
13.9416660566
 20
8.6511499674
 11
13.9468424355
 21
8.6416610779
  0
LINE
  5
329
100
AcDbEntity
  8
0
100
AcDbLine
 62
4
  6
CONTINUOUS
 10
13.900255046
 20
8.7270611038
 11
13.8950786693
 21
8.7365499955
  0
LINE
  5
32A
100
AcDbEntity
  8
0
100
AcDbLine
 62
4
  6
CONTINUOUS
 10
13.9364896813
 20
8.8924610673
 11
13.9468424355
 21
8.8734832847
  0
LINE
  5
32B
100
AcDbEntity
  8
0
100
AcDbLine
 62
4
  6
CONTINUOUS
 10
13.4059110784
 20
9.4555888739
 11
13.4147848671
 21
9.4310428538
  0
LINE
  5
32C
100
AcDbEntity
  8
0
100
AcDbLine
 62
4
  6
CONTINUOUS
 10
13.4059110784
 20
9.6377349035
 11
13.4147848671
 21
9.6131888695
  0
LINE
  5
32D
100
AcDbEntity
  8
0
100
AcDbLine
 62
4
  6
CONTINUOUS
 10
13.4591538088
 20
9.7719570822
 11
13.4680275966
 21
9.7474110439
  0
LINE
  5
32E
100
AcDbEntity
  8
0
100
AcDbLine
 62
4
  6
CONTINUOUS
 10
13.8899022927
 20
8.601150008
 11
13.8899022927
 21
8.4852389045
  0
LINE
  5
32F
100
AcDbEntity
  8
0
100
AcDbLine
 62
4
  6
CONTINUOUS
 10
13.8899022927
 20
8.7605277752
 11
13.8899022927
 21
8.789505551
  0
LINE
  5
330
100
AcDbEntity
  8
0
100
AcDbLine
 62
4
  6
CONTINUOUS
 10
13.9520188108
 20
8.8495055037
 11
13.9520188108
 21
8.8205277279
  0
LINE
  5
331
100
AcDbEntity
  8
0
100
AcDbLine
 62
4
  6
CONTINUOUS
 10
13.9520188108
 20
8.6176832969
 11
13.9520188108
 21
8.588705521
  0
LINE
  5
332
100
AcDbEntity
  8
0
100
AcDbLine
 62
7
  6
CONTINUOUS
 10
14.0840164163
 20
11.7057460267
 11
14.0840164163
 21
6.8761166091
  0
LINE
  5
333
100
AcDbEntity
  8
0
100
AcDbLine
 62
4
  6
CONTINUOUS
 10
13.9520188108
 20
8.8205277279
 11
13.9468424355
 21
8.7865499572
  0
LINE
  5
334
100
AcDbEntity
  8
0
100
AcDbLine
 62
4
  6
CONTINUOUS
 10
13.9520188108
 20
8.588705521
 11
13.9468424355
 21
8.5547277503
  0
LINE
  5
335
100
AcDbEntity
  8
0
100
AcDbLine
 62
4
  6
CONTINUOUS
 10
13.926136927
 20
8.5347277637
 11
13.9157841746
 21
8.5826833239
  0
LINE
  5
336
100
AcDbEntity
  8
0
100
AcDbLine
 62
4
  6
CONTINUOUS
 10
13.8950786693
 20
8.7365499955
 11
13.8899022927
 21
8.7605277752
  0
LINE
  5
337
100
AcDbEntity
  8
0
100
AcDbLine
 62
4
  6
CONTINUOUS
 10
13.9468424355
 20
8.6416610779
 11
13.9520188108
 21
8.6176832969
  0
LINE
  5
338
100
AcDbEntity
  8
0
100
AcDbLine
 62
4
  6
CONTINUOUS
 10
13.9468424355
 20
8.8734832847
 11
13.9520188108
 21
8.8495055037
  0
LINE
  5
339
100
AcDbEntity
  8
0
100
AcDbLine
 62
7
  6
CONTINUOUS
 10
12.14287518
 20
5.0011180454
 11
14.0840164163
 21
6.8761166091
  0
LINE
  5
33A
100
AcDbEntity
  8
0
100
AcDbLine
 62
7
  6
CONTINUOUS
 10
9.85712482
 20
11.9988819546
 11
14.0840164163
 21
11.7057460267
  0
ARC
  5
33B
100
AcDbEntity
  8
0
100
AcDbCircle
 62
7
  6
CONTINUOUS
 10
8.9947110941
 20
9.1827470987
 40
0.8271378318
100
AcDbArc
 50
134.9677698238
 51
135.6021264557
  0
ARC
  5
33C
100
AcDbEntity
  8
0
100
AcDbCircle
 62
7
  6
CONTINUOUS
 10
8.813117063
 20
6.8404134186
 40
0.8271378316
100
AcDbArc
 50
134.9677698238
 51
135.6021264558
  0
ARC
  5
33D
100
AcDbEntity
  8
0
100
AcDbCircle
 62
7
  6
CONTINUOUS
 10
9.165545301
 20
9.00588336
 40
0.8269656117
100
AcDbArc
 50
312.4125576373
 51
312.8797472179
  0
ARC
  5
33E
100
AcDbEntity
  8
0
100
AcDbCircle
 62
7
  6
CONTINUOUS
 10
8.9839512699
 20
6.6635496798
 40
0.8269656116
100
AcDbArc
 50
312.4125576373
 51
312.879747218
  0
ARC
  5
33F
100
AcDbEntity
  8
0
100
AcDbCircle
 62
7
  6
CONTINUOUS
 10
11.6050568218
 20
7.2066707653
 40
0.3357019684
100
AcDbArc
 50
171.9309034739
 51
175.5831339162
  0
ARC
  5
340
100
AcDbEntity
  8
0
100
AcDbCircle
 62
7
  6
CONTINUOUS
 10
9.0790047395
 20
9.6332955221
 40
0.2029032044
100
AcDbArc
 50
171.5135907012
 51
183.0656657009
  0
SPLINE
  5
341
100
AcDbEntity
  8
0
100
AcDbSpline
 62
7
  6
CONTINUOUS
 70
0
 71
3
 72
27
 73
23
 74
0
 42
0.0000001
 43
0.0000001
 44
0.0000000001
 40
0.0
 40
0.0
 40
0.0
 40
0.0
 40
0.0637763768
 40
0.0955883759
 40
0.127346786
 40
0.1907029703
 40
0.2538558263
 40
0.2853602345
 40
0.3168164408
 40
0.3795841266
 40
0.4421741851
 40
0.5045989134
 40
0.5668722185
 40
0.6290095117
 40
0.6910275629
 40
0.7219999706
 40
0.7529493938
 40
0.8147838878
 40
0.8765559246
 40
0.9074274454
 40
0.9382910642
 40
1.0
 40
1.0
 40
1.0
 40
1.0
 10
9.9811330877
 20
9.0147389028
 30
0.0
 10
9.9811330877
 20
9.0000814363
 30
0.0
 10
9.9806064163
 20
8.9781078609
 30
0.0
 10
9.9788443871
 20
8.9488913005
 30
0.0
 10
9.9763827985
 20
8.9198217043
 30
0.0
 10
9.9719928957
 20
8.8836982404
 30
0.0
 10
9.9658498399
 20
8.847890204
 30
0.0
 10
9.9598955815
 20
8.8195215888
 30
0.0
 10
9.9532624345
 20
8.7913950148
 30
0.0
 10
9.9436884175
 20
8.7566333021
 30
0.0
 10
9.9301631556
 20
8.7156316237
 30
0.0
 10
9.9146404461
 20
8.675464835
 30
0.0
 10
9.8971560106
 20
8.6362260619
 30
0.0
 10
9.8777504627
 20
8.5980062192
 30
0.0
 10
9.8600065239
 20
8.5670636676
 30
0.0
 10
9.8448998426
 20
8.5429117997
 30
0.0
 10
9.8292042903
 20
8.5191889191
 30
0.0
 10
9.8084728872
 20
8.4903250664
 30
0.0
 10
9.7862996584
 20
8.4625763816
 30
0.0
 10
9.767736849
 20
8.4410984468
 30
0.0
 10
9.7486384813
 20
8.4201157895
 30
0.0
 10
9.7337125471
 20
8.4049370894
 30
0.0
 10
9.7235118445
 20
8.3950839822
 30
0.0
  0
SPLINE
  5
342
100
AcDbEntity
  8
0
100
AcDbSpline
 62
7
  6
CONTINUOUS
 70
0
 71
3
 72
27
 73
23
 74
0
 42
0.0000001
 43
0.0000001
 44
0.0000000001
 40
0.0
 40
0.0
 40
0.0
 40
0.0
 40
0.0637763768
 40
0.0955883759
 40
0.127346786
 40
0.1907029703
 40
0.2538558263
 40
0.2853602345
 40
0.3168164408
 40
0.3795841266
 40
0.4421741851
 40
0.5045989134
 40
0.5668722185
 40
0.6290095117
 40
0.6910275629
 40
0.7219999706
 40
0.7529493938
 40
0.8147838878
 40
0.8765559246
 40
0.9074274454
 40
0.9382910642
 40
1.0
 40
1.0
 40
1.0
 40
1.0
 10
9.7995390566
 20
6.6724052226
 30
0.0
 10
9.7995390566
 20
6.6577477561
 30
0.0
 10
9.7990123852
 20
6.6357741807
 30
0.0
 10
9.797250356
 20
6.6065576203
 30
0.0
 10
9.7947887674
 20
6.5774880241
 30
0.0
 10
9.7903988646
 20
6.5413645602
 30
0.0
 10
9.7842558088
 20
6.5055565238
 30
0.0
 10
9.7783015504
 20
6.4771879086
 30
0.0
 10
9.7716684034
 20
6.4490613346
 30
0.0
 10
9.7620943864
 20
6.4142996219
 30
0.0
 10
9.7485691245
 20
6.3732979435
 30
0.0
 10
9.733046415
 20
6.3331311548
 30
0.0
 10
9.7155619795
 20
6.2938923817
 30
0.0
 10
9.6961564316
 20
6.255672539
 30
0.0
 10
9.6784124928
 20
6.2247299874
 30
0.0
 10
9.6633058115
 20
6.2005781195
 30
0.0
 10
9.6476102592
 20
6.1768552389
 30
0.0
 10
9.6268788561
 20
6.1479913863
 30
0.0
 10
9.6047056273
 20
6.1202427014
 30
0.0
 10
9.5861428179
 20
6.0987647666
 30
0.0
 10
9.5670444502
 20
6.0777821093
 30
0.0
 10
9.552118516
 20
6.0626034092
 30
0.0
 10
9.5419178134
 20
6.052750302
 30
0.0
  0
SPLINE
  5
343
100
AcDbEntity
  8
0
100
AcDbSpline
 62
7
  6
CONTINUOUS
 70
0
 71
3
 72
53
 73
49
 74
0
 42
0.0000001
 43
0.0000001
 44
0.0000000001
 40
0.0
 40
0.0
 40
0.0
 40
0.0
 40
0.0417737855
 40
0.0840372804
 40
0.1266586658
 40
0.1695068268
 40
0.2124484817
 40
0.2553505161
 40
0.2980797819
 40
0.3405038709
 40
0.3824915641
 40
0.4239133811
 40
0.4646421101
 40
0.5045533515
 40
0.5435260687
 40
0.5814431539
 40
0.6181920188
 40
0.6536652174
 40
0.6877611189
 40
0.7203846489
 40
0.7361168986
 40
0.751448868
 40
0.7663708503
 40
0.7808738904
 40
0.7949495081
 40
0.8085900804
 40
0.821788593
 40
0.8345389529
 40
0.8468359066
 40
0.8586751859
 40
0.8700536732
 40
0.8809693639
 40
0.891421781
 40
0.9014118319
 40
0.9109423967
 40
0.9200182439
 40
0.9286466706
 40
0.9368376675
 40
0.9446045284
 40
0.9519643801
 40
0.9589387458
 40
0.9655544017
 40
0.9718438599
 40
0.9778462342
 40
0.9836073809
 40
0.9891800528
 40
0.994623075
 40
1.0
 40
1.0
 40
1.0
 40
1.0
 10
12.5230800435
 20
8.7491083564
 30
0.0
 10
12.5230800435
 20
8.7590145775
 30
0.0
 10
12.5232346006
 20
8.7789434604
 30
0.0
 10
12.5239178173
 20
8.808972524
 30
0.0
 10
12.5250518378
 20
8.8392429491
 30
0.0
 10
12.5266328748
 20
8.8696543199
 30
0.0
 10
12.528655754
 20
8.9001061979
 30
0.0
 10
12.5311137606
 20
8.9304977599
 30
0.0
 10
12.5339987654
 20
8.9607284867
 30
0.0
 10
12.5373011998
 20
8.9906983584
 30
0.0
 10
12.5410101093
 20
9.0203082344
 30
0.0
 10
12.5451131813
 20
9.0494601699
 30
0.0
 10
12.5495967871
 20
9.0780577475
 30
0.0
 10
12.5544460239
 20
9.1060064008
 30
0.0
 10
12.5596447662
 20
9.1332137297
 30
0.0
 10
12.5651757163
 20
9.159589818
 30
0.0
 10
12.571020464
 20
9.1850475185
 30
0.0
 10
12.5771595354
 20
9.2095028217
 30
0.0
 10
12.5835724956
 20
9.2328749021
 30
0.0
 10
12.5891928281
 20
9.2516046261
 30
0.0
 10
12.5938191968
 20
9.2659818987
 30
0.0
 10
12.5973019941
 20
9.2763163348
 30
0.0
 10
12.6008369795
 20
9.2863244241
 30
0.0
 10
12.6044211563
 20
9.2959979293
 30
0.0
 10
12.6080516405
 20
9.3053288524
 30
0.0
 10
12.6117253404
 20
9.314309517
 30
0.0
 10
12.6154392808
 20
9.3229325135
 30
0.0
 10
12.6191903468
 20
9.3311907544
 30
0.0
 10
12.6229754491
 20
9.3390774532
 30
0.0
 10
12.6267914875
 20
9.3465861304
 30
0.0
 10
12.6306352639
 20
9.3537106578
 30
0.0
 10
12.6345037111
 20
9.3604451835
 30
0.0
 10
12.6383935593
 20
9.3667842661
 30
0.0
 10
12.6423017728
 20
9.3727227072
 30
0.0
 10
12.6462250843
 20
9.3782557621
 30
0.0
 10
12.6501604792
 20
9.3833789204
 30
0.0
 10
12.6541047946
 20
9.3880881127
 30
0.0
 10
12.6580550496
 20
9.3923795382
 30
0.0
 10
12.6620082884
 20
9.3962497356
 30
0.0
 10
12.6659616144
 20
9.399695578
 30
0.0
 10
12.6699123405
 20
9.4027140614
 30
0.0
 10
12.6738576929
 20
9.4053025669
 30
0.0
 10
12.6777951433
 20
9.4074582935
 30
0.0
 10
12.6817218816
 20
9.4091788219
 30
0.0
 10
12.6856349876
 20
9.4104613837
 30
0.0
 10
12.6895311556
 20
9.4113036732
 30
0.0
 10
12.6934057056
 20
9.4117035297
 30
0.0
 10
12.6959780717
 20
9.4116741063
 30
0.0
 10
12.697250098
 20
9.411585881
 30
0.0
  0
SPLINE
  5
344
100
AcDbEntity
  8
0
100
AcDbSpline
 62
7
  6
CONTINUOUS
 70
0
 71
3
 72
53
 73
49
 74
0
 42
0.0000001
 43
0.0000001
 44
0.0000000001
 40
0.0
 40
0.0
 40
0.0
 40
0.0
 40
0.0417737855
 40
0.0840372804
 40
0.1266586658
 40
0.1695068268
 40
0.2124484817
 40
0.2553505161
 40
0.2980797819
 40
0.3405038709
 40
0.3824915641
 40
0.4239133811
 40
0.4646421101
 40
0.5045533515
 40
0.5435260687
 40
0.5814431539
 40
0.6181920188
 40
0.6536652174
 40
0.6877611189
 40
0.7203846489
 40
0.7361168986
 40
0.751448868
 40
0.7663708503
 40
0.7808738904
 40
0.7949495081
 40
0.8085900804
 40
0.821788593
 40
0.8345389529
 40
0.8468359066
 40
0.8586751859
 40
0.8700536732
 40
0.8809693639
 40
0.891421781
 40
0.9014118319
 40
0.9109423967
 40
0.9200182439
 40
0.9286466706
 40
0.9368376675
 40
0.9446045284
 40
0.9519643801
 40
0.9589387458
 40
0.9655544017
 40
0.9718438599
 40
0.9778462342
 40
0.9836073809
 40
0.9891800528
 40
0.994623075
 40
1.0
 40
1.0
 40
1.0
 40
1.0
 10
12.5230800435
 20
5.9711055854
 30
0.0
 10
12.5230800435
 20
5.9810118065
 30
0.0
 10
12.5232346006
 20
6.0009406894
 30
0.0
 10
12.5239178173
 20
6.030969753
 30
0.0
 10
12.5250518378
 20
6.0612401781
 30
0.0
 10
12.5266328748
 20
6.0916515489
 30
0.0
 10
12.528655754
 20
6.1221034269
 30
0.0
 10
12.5311137606
 20
6.1524949889
 30
0.0
 10
12.5339987654
 20
6.1827257157
 30
0.0
 10
12.5373011998
 20
6.2126955874
 30
0.0
 10
12.5410101093
 20
6.2423054634
 30
0.0
 10
12.5451131813
 20
6.2714573989
 30
0.0
 10
12.5495967871
 20
6.3000549765
 30
0.0
 10
12.5544460239
 20
6.3280036298
 30
0.0
 10
12.5596447662
 20
6.3552109587
 30
0.0
 10
12.5651757163
 20
6.381587047
 30
0.0
 10
12.571020464
 20
6.4070447475
 30
0.0
 10
12.5771595354
 20
6.4315000507
 30
0.0
 10
12.5835724956
 20
6.4548721311
 30
0.0
 10
12.5891928281
 20
6.4736018551
 30
0.0
 10
12.5938191968
 20
6.4879791277
 30
0.0
 10
12.5973019941
 20
6.4983135638
 30
0.0
 10
12.6008369795
 20
6.5083216531
 30
0.0
 10
12.6044211563
 20
6.5179951583
 30
0.0
 10
12.6080516405
 20
6.5273260814
 30
0.0
 10
12.6117253404
 20
6.536306746
 30
0.0
 10
12.6154392808
 20
6.5449297425
 30
0.0
 10
12.6191903468
 20
6.5531879834
 30
0.0
 10
12.6229754491
 20
6.5610746822
 30
0.0
 10
12.6267914875
 20
6.5685833594
 30
0.0
 10
12.6306352639
 20
6.5757078868
 30
0.0
 10
12.6345037111
 20
6.5824424125
 30
0.0
 10
12.6383935593
 20
6.5887814951
 30
0.0
 10
12.6423017728
 20
6.5947199362
 30
0.0
 10
12.6462250843
 20
6.6002529911
 30
0.0
 10
12.6501604792
 20
6.6053761494
 30
0.0
 10
12.6541047946
 20
6.6100853417
 30
0.0
 10
12.6580550496
 20
6.6143767672
 30
0.0
 10
12.6620082884
 20
6.6182469646
 30
0.0
 10
12.6659616144
 20
6.621692807
 30
0.0
 10
12.6699123405
 20
6.6247112904
 30
0.0
 10
12.6738576929
 20
6.6272997959
 30
0.0
 10
12.6777951433
 20
6.6294555225
 30
0.0
 10
12.6817218816
 20
6.6311760509
 30
0.0
 10
12.6856349876
 20
6.6324586127
 30
0.0
 10
12.6895311556
 20
6.6333009022
 30
0.0
 10
12.6934057056
 20
6.6337007587
 30
0.0
 10
12.6959780717
 20
6.6336713353
 30
0.0
 10
12.697250098
 20
6.63358311
 30
0.0
  0
SPLINE
  5
345
100
AcDbEntity
  8
0
100
AcDbSpline
 62
7
  6
CONTINUOUS
 70
0
 71
3
 72
66
 73
62
 74
0
 42
0.0000001
 43
0.0000001
 44
0.0000000001
 40
0.0
 40
0.0
 40
0.0
 40
0.0
 40
0.0712856657
 40
0.1069818862
 40
0.1427480275
 40
0.1606679236
 40
0.1786186636
 40
0.2146337235
 40
0.2327115764
 40
0.2508456198
 40
0.2873158566
 40
0.32412507
 40
0.3613756979
 40
0.3992016934
 40
0.4377819222
 40
0.4574294857
 40
0.4773639886
 40
0.497630899
 40
0.5182836111
 40
0.5393840872
 40
0.5610014942
 40
0.5832061997
 40
0.6060517287
 40
0.6177180348
 40
0.6295326128
 40
0.6414688718
 40
0.6534809656
 40
0.6654987044
 40
0.6774254477
 40
0.6891423794
 40
0.7005212999
 40
0.7114440452
 40
0.7218214339
 40
0.7407702689
 40
0.7573891426
 40
0.7720126247
 40
0.7850483726
 40
0.7968614061
 40
0.8077468608
 40
0.8129178472
 40
0.817938849
 40
0.8228306971
 40
0.8276116173
 40
0.8369009444
 40
0.8459177547
 40
0.850352131
 40
0.8547485692
 40
0.8591149058
 40
0.8634580874
 40
0.8677844464
 40
0.8720996169
 40
0.8807145015
 40
0.8893385569
 40
0.906713426
 40
0.9155117629
 40
0.924402977
 40
0.9333999391
 40
0.9425126028
 40
0.9611154732
 40
0.9802662415
 40
1.0
 40
1.0
 40
1.0
 40
1.0
 10
11.6060446696
 20
7.1718268134
 30
0.0
 10
11.5915017962
 20
7.1713216391
 30
0.0
 10
11.5696583817
 20
7.1709806115
 30
0.0
 10
11.5405210083
 20
7.1714349284
 30
0.0
 10
11.5222863376
 20
7.1721196662
 30
0.0
 10
11.5076847351
 20
7.1729217477
 30
0.0
 10
11.4930431243
 20
7.1739021473
 30
0.0
 10
11.4783883843
 20
7.1751559297
 30
0.0
 10
11.4637257099
 20
7.1767040398
 30
0.0
 10
11.4489933702
 20
7.1784641121
 30
0.0
 10
11.4305136812
 20
7.1810758258
 30
0.0
 10
11.4082783722
 20
7.1849282639
 30
0.0
 10
11.3859164775
 20
7.1895990272
 30
0.0
 10
11.3633983273
 20
7.1952114257
 30
0.0
 10
11.3445891384
 20
7.2007776928
 30
0.0
 10
11.3294682723
 20
7.205875165
 30
0.0
 10
11.3180003904
 20
7.2100924472
 30
0.0
 10
11.3064723717
 20
7.2147256155
 30
0.0
 10
11.2948837233
 20
7.2198293789
 30
0.0
 10
11.2832392699
 20
7.225470866
 30
0.0
 10
11.2715539142
 20
7.2317317333
 30
0.0
 10
11.2598632353
 20
7.2387084709
 30
0.0
 10
11.2502440476
 20
7.2451641823
 30
0.0
 10
11.2426413996
 20
7.2507905044
 30
0.0
 10
11.2369761338
 20
7.2552844892
 30
0.0
 10
11.2314243059
 20
7.2600276463
 30
0.0
 10
11.2260336601
 20
7.2650149977
 30
0.0
 10
11.2208631551
 20
7.2702280048
 30
0.0
 10
11.2159804646
 20
7.2756310793
 30
0.0
 10
11.2114559299
 20
7.2811705485
 30
0.0
 10
11.2073535327
 20
7.2867777244
 30
0.0
 10
11.2037207807
 20
7.2923773449
 30
0.0
 10
11.1996579124
 20
7.2995227016
 30
0.0
 10
11.1957420891
 20
7.3080729011
 30
0.0
 10
11.1926547801
 20
7.3178697092
 30
0.0
 10
11.1910273972
 20
7.3267841478
 30
0.0
 10
11.1905627559
 20
7.3348481559
 30
0.0
 10
11.1910171574
 20
7.342144958
 30
0.0
 10
11.192025377
 20
7.3477572387
 30
0.0
 10
11.1931392143
 20
7.3519149488
 30
0.0
 10
11.1940949718
 20
7.3548435048
 30
0.0
 10
11.1951729453
 20
7.3576440194
 30
0.0
 10
11.1967460621
 20
7.3611821958
 30
0.0
 10
11.1989731405
 20
7.3653443211
 30
0.0
 10
11.2015360997
 20
7.369222442
 30
0.0
 10
11.2037377044
 20
7.3721263476
 30
0.0
 10
11.2054536768
 20
7.3742041048
 30
0.0
 10
11.2072387448
 20
7.3761977334
 30
0.0
 10
11.2090889267
 20
7.3781111735
 30
0.0
 10
11.2110012775
 20
7.3799474108
 30
0.0
 10
11.2136280903
 20
7.3822952999
 30
0.0
 10
11.217057025
 20
7.3850581217
 30
0.0
 10
11.222831716
 20
7.3891359073
 30
0.0
 10
11.2289846109
 20
7.3927182761
 30
0.0
 10
11.2354217692
 20
7.3958518231
 30
0.0
 10
11.2404253428
 20
7.3980108965
 30
0.0
 10
11.245575392
 20
7.3999787597
 30
0.0
 10
11.2526762402
 20
7.4023796587
 30
0.0
 10
11.2619000204
 20
7.4049486938
 30
0.0
 10
11.2733821757
 20
7.4073992231
 30
0.0
 10
11.2812249516
 20
7.408645923
 30
0.0
 10
11.2852162774
 20
7.4091903128
 30
0.0
  0
SPLINE
  5
346
100
AcDbEntity
  8
0
100
AcDbSpline
 62
7
  6
CONTINUOUS
 70
0
 71
3
 72
48
 73
44
 74
0
 42
0.0000001
 43
0.0000001
 44
0.0000000001
 40
0.0
 40
0.0
 40
0.0
 40
0.0
 40
0.0063158757
 40
0.0126706723
 40
0.0191025153
 40
0.0256480656
 40
0.0323419735
 40
0.0392163471
 40
0.0536142197
 40
0.0611949889
 40
0.0690567529
 40
0.0772179107
 40
0.0856943607
 40
0.0944997659
 40
0.103645921
 40
0.1131427623
 40
0.1229985381
 40
0.1332201926
 40
0.1438133623
 40
0.1547824065
 40
0.1661307821
 40
0.177861045
 40
0.189974755
 40
0.2153542741
 40
0.242270138
 40
0.2707124992
 40
0.3006635018
 40
0.3320987844
 40
0.3649881127
 40
0.3992959802
 40
0.4349824885
 40
0.4720034577
 40
0.510310969
 40
0.5498538267
 40
0.5905775201
 40
0.6324247899
 40
0.6753357769
 40
0.7192480049
 40
0.7640970224
 40
0.8098164065
 40
0.8563370501
 40
0.9035891101
 40
1.0
 40
1.0
 40
1.0
 40
1.0
 10
12.6237755881
 20
5.5741278575
 30
0.0
 10
12.6228781015
 20
5.5741901055
 30
0.0
 10
12.6210818388
 20
5.5743884468
 30
0.0
 10
12.6184075864
 20
5.5749054653
 30
0.0
 10
12.615751204
 20
5.575641878
 30
0.0
 10
12.6131142418
 20
5.5765971255
 30
0.0
 10
12.6104977628
 20
5.5777707215
 30
0.0
 10
12.6069845213
 20
5.5796540602
 30
0.0
 10
12.6035666738
 20
5.5819595229
 30
0.0
 10
12.600259101
 20
5.5846312209
 30
0.0
 10
12.5977607363
 20
5.5868837379
 30
0.0
 10
12.5952890707
 20
5.5893491447
 30
0.0
 10
12.592844716
 20
5.5920265473
 30
0.0
 10
12.590428626
 20
5.5949147505
 30
0.0
 10
12.5880417378
 20
5.5980126271
 30
0.0
 10
12.5856849712
 20
5.6013189056
 30
0.0
 10
12.5833591947
 20
5.6048322123
 30
0.0
 10
12.5810653584
 20
5.6085511516
 30
0.0
 10
12.5788043895
 20
5.6124742238
 30
0.0
 10
12.5765771407
 20
5.6165998054
 30
0.0
 10
12.5743845384
 20
5.6209262336
 30
0.0
 10
12.5722274784
 20
5.6254517713
 30
0.0
 10
12.5693552345
 20
5.6318484868
 30
0.0
 10
12.5658696341
 20
5.6403380764
 30
0.0
 10
12.5619047959
 20
5.6511358734
 30
0.0
 10
12.5581019107
 20
5.6626792464
 30
0.0
 10
12.5544671731
 20
5.6749492829
 30
0.0
 10
12.5510066294
 20
5.6879260758
 30
0.0
 10
12.5477260349
 20
5.7015884134
 30
0.0
 10
12.5446307936
 20
5.7159139208
 30
0.0
 10
12.5417261123
 20
5.7308791003
 30
0.0
 10
12.5390168062
 20
5.7464593628
 30
0.0
 10
12.5365073683
 20
5.7626290841
 30
0.0
 10
12.5342020312
 20
5.7793616535
 30
0.0
 10
12.5321045916
 20
5.796629513
 30
0.0
 10
12.5302185545
 20
5.8144042136
 30
0.0
 10
12.5285470946
 20
5.8326564561
 30
0.0
 10
12.5270929487
 20
5.8513561494
 30
0.0
 10
12.5258585705
 20
5.8704724864
 30
0.0
 10
12.5248460416
 20
5.8899738726
 30
0.0
 10
12.5240569728
 20
5.9098281637
 30
0.0
 10
12.5232997143
 20
5.9369080407
 30
0.0
 10
12.5230800435
 20
5.9573726766
 30
0.0
 10
12.5230800435
 20
5.9711055854
 30
0.0
  0
SPLINE
  5
347
100
AcDbEntity
  8
0
100
AcDbSpline
 62
7
  6
CONTINUOUS
 70
0
 71
3
 72
48
 73
44
 74
0
 42
0.0000001
 43
0.0000001
 44
0.0000000001
 40
0.0
 40
0.0
 40
0.0
 40
0.0
 40
0.0063158757
 40
0.0126706723
 40
0.0191025153
 40
0.0256480656
 40
0.0323419735
 40
0.0392163471
 40
0.0536142197
 40
0.0611949889
 40
0.0690567529
 40
0.0772179107
 40
0.0856943607
 40
0.0944997659
 40
0.103645921
 40
0.1131427623
 40
0.1229985381
 40
0.1332201926
 40
0.1438133623
 40
0.1547824065
 40
0.1661307821
 40
0.177861045
 40
0.189974755
 40
0.2153542741
 40
0.242270138
 40
0.2707124992
 40
0.3006635018
 40
0.3320987844
 40
0.3649881127
 40
0.3992959802
 40
0.4349824885
 40
0.4720034577
 40
0.510310969
 40
0.5498538267
 40
0.5905775201
 40
0.6324247899
 40
0.6753357769
 40
0.7192480049
 40
0.7640970224
 40
0.8098164065
 40
0.8563370501
 40
0.9035891101
 40
1.0
 40
1.0
 40
1.0
 40
1.0
 10
12.6237755881
 20
8.3521306285
 30
0.0
 10
12.6228781015
 20
8.3521928765
 30
0.0
 10
12.6210818388
 20
8.3523912178
 30
0.0
 10
12.6184075864
 20
8.3529082363
 30
0.0
 10
12.615751204
 20
8.353644649
 30
0.0
 10
12.6131142418
 20
8.3545998965
 30
0.0
 10
12.6104977628
 20
8.3557734925
 30
0.0
 10
12.6069845213
 20
8.3576568312
 30
0.0
 10
12.6035666738
 20
8.3599622939
 30
0.0
 10
12.600259101
 20
8.3626339919
 30
0.0
 10
12.5977607363
 20
8.3648865089
 30
0.0
 10
12.5952890707
 20
8.3673519157
 30
0.0
 10
12.592844716
 20
8.3700293183
 30
0.0
 10
12.590428626
 20
8.3729175215
 30
0.0
 10
12.5880417378
 20
8.3760153981
 30
0.0
 10
12.5856849712
 20
8.3793216766
 30
0.0
 10
12.5833591947
 20
8.3828349833
 30
0.0
 10
12.5810653584
 20
8.3865539226
 30
0.0
 10
12.5788043895
 20
8.3904769948
 30
0.0
 10
12.5765771407
 20
8.3946025764
 30
0.0
 10
12.5743845384
 20
8.3989290046
 30
0.0
 10
12.5722274784
 20
8.4034545423
 30
0.0
 10
12.5693552345
 20
8.4098512578
 30
0.0
 10
12.5658696341
 20
8.4183408474
 30
0.0
 10
12.5619047959
 20
8.4291386444
 30
0.0
 10
12.5581019107
 20
8.4406820174
 30
0.0
 10
12.5544671731
 20
8.4529520539
 30
0.0
 10
12.5510066294
 20
8.4659288468
 30
0.0
 10
12.5477260349
 20
8.4795911844
 30
0.0
 10
12.5446307936
 20
8.4939166918
 30
0.0
 10
12.5417261123
 20
8.5088818713
 30
0.0
 10
12.5390168062
 20
8.5244621338
 30
0.0
 10
12.5365073683
 20
8.5406318551
 30
0.0
 10
12.5342020312
 20
8.5573644245
 30
0.0
 10
12.5321045916
 20
8.574632284
 30
0.0
 10
12.5302185545
 20
8.5924069846
 30
0.0
 10
12.5285470946
 20
8.6106592271
 30
0.0
 10
12.5270929487
 20
8.6293589204
 30
0.0
 10
12.5258585705
 20
8.6484752574
 30
0.0
 10
12.5248460416
 20
8.6679766436
 30
0.0
 10
12.5240569728
 20
8.6878309347
 30
0.0
 10
12.5232997143
 20
8.7149108117
 30
0.0
 10
12.5230800435
 20
8.7353754476
 30
0.0
 10
12.5230800435
 20
8.7491083564
 30
0.0
  0
SPLINE
  5
348
100
AcDbEntity
  8
0
100
AcDbSpline
 62
7
  6
CONTINUOUS
 70
0
 71
3
 72
71
 73
67
 74
0
 42
0.0000001
 43
0.0000001
 44
0.0000000001
 40
0.0
 40
0.0
 40
0.0
 40
0.0
 40
0.0149701622
 40
0.0299433828
 40
0.0449227028
 40
0.0599111246
 40
0.0749115948
 40
0.0899269886
 40
0.1049600895
 40
0.120013573
 40
0.1350899941
 40
0.1501917695
 40
0.165321163
 40
0.180480277
 40
0.1956710384
 40
0.2108951862
 40
0.2261542673
 40
0.2414496274
 40
0.2567824002
 40
0.2721535092
 40
0.2875636617
 40
0.3030133419
 40
0.3185028169
 40
0.3340321343
 40
0.34960112
 40
0.3652093858
 40
0.3808563328
 40
0.3965411509
 40
0.4122628307
 40
0.428020169
 40
0.4438117721
 40
0.4596360694
 40
0.475491322
 40
0.4913756286
 40
0.5072869404
 40
0.5232230722
 40
0.5391817101
 40
0.5551604278
 40
0.5711566993
 40
0.5871679078
 40
0.6031913633
 40
0.6192243155
 40
0.6352639647
 40
0.6513074791
 40
0.6673520087
 40
0.683394696
 40
0.6994326945
 40
0.7154631813
 40
0.7314833687
 40
0.7474905224
 40
0.7634819732
 40
0.7794551283
 40
0.7954074893
 40
0.811336662
 40
0.8272403677
 40
0.8431164596
 40
0.8589629314
 40
0.8747779261
 40
0.890559756
 40
0.9063068963
 40
0.9220180004
 40
0.9376919706
 40
0.9533277655
 40
0.9689245666
 40
0.9844825444
 40
1.0
 40
1.0
 40
1.0
 40
1.0
 10
8.4034951522
 20
9.7616694797
 30
0.0
 10
8.4113759961
 20
9.7692817788
 30
0.0
 10
8.427443828
 20
9.7841962488
 30
0.0
 10
8.4524181507
 20
9.8055949734
 30
0.0
 10
8.4782333789
 20
9.825993753
 30
0.0
 10
8.5048535324
 20
9.8453639865
 30
0.0
 10
8.5322420389
 20
9.8636792389
 30
0.0
 10
8.560361183
 20
9.8809142673
 30
0.0
 10
8.5891723172
 20
9.8970452959
 30
0.0
 10
8.6186357306
 20
9.9120502331
 30
0.0
 10
8.6487108842
 20
9.9259084421
 30
0.0
 10
8.6793564262
 20
9.9386007819
 30
0.0
 10
8.7105301415
 20
9.9501099049
 30
0.0
 10
8.7421891376
 20
9.9604200004
 30
0.0
 10
8.774289882
 20
9.969516808
 30
0.0
 10
8.8067881772
 20
9.9773879313
 30
0.0
 10
8.8396393146
 20
9.9840225799
 30
0.0
 10
8.8727981195
 20
9.9894115489
 30
0.0
 10
8.9062189604
 20
9.9935475409
 30
0.0
 10
8.9398558689
 20
9.9964249164
 30
0.0
 10
8.9736625876
 20
9.9980396378
 30
0.0
 10
9.0075926141
 20
9.9983895914
 30
0.0
 10
9.0415992908
 20
9.9974743552
 30
0.0
 10
9.07563585
 20
9.9952951067
 30
0.0
 10
9.1096554899
 20
9.9918549378
 30
0.0
 10
9.1436114425
 20
9.9871586455
 30
0.0
 10
9.1774570068
 20
9.9812126067
 30
0.0
 10
9.2111456567
 20
9.9740250771
 30
0.0
 10
9.2446310921
 20
9.9656060104
 30
0.0
 10
9.2778672554
 20
9.9559669033
 30
0.0
 10
9.3108084662
 20
9.945121071
 30
0.0
 10
9.343409465
 20
9.933083499
 30
0.0
 10
9.3756254057
 20
9.9198706605
 30
0.0
 10
9.4074120139
 20
9.9055007652
 30
0.0
 10
9.4387256292
 20
9.8899936432
 30
0.0
 10
9.469523171
 20
9.8733705407
 30
0.0
 10
9.4997623132
 20
9.8556543371
 30
0.0
 10
9.5294015336
 20
9.8368694606
 30
0.0
 10
9.5584000493
 20
9.8170416679
 30
0.0
 10
9.5867180013
 20
9.7961982268
 30
0.0
 10
9.6143165183
 20
9.7743678608
 30
0.0
 10
9.6411576187
 20
9.7515805185
 30
0.0
 10
9.6672043996
 20
9.7278675215
 30
0.0
 10
9.6924211202
 20
9.7032615327
 30
0.0
 10
9.7167730702
 20
9.6777963232
 30
0.0
 10
9.7402267552
 20
9.6515068834
 30
0.0
 10
9.7627500062
 20
9.624429412
 30
0.0
 10
9.7843118131
 20
9.5966010849
 30
0.0
 10
9.8048825018
 20
9.5680601324
 30
0.0
 10
9.8244338713
 20
9.5388458416
 30
0.0
 10
9.8429389962
 20
9.5089983337
 30
0.0
 10
9.8603723869
 20
9.4785586103
 30
0.0
 10
9.8767101587
 20
9.4475685611
 30
0.0
 10
9.8919298038
 20
9.4160707571
 30
0.0
 10
9.9060103312
 20
9.3841084684
 30
0.0
 10
9.9189324664
 20
9.3517256704
 30
0.0
 10
9.9306783988
 20
9.3189668583
 30
0.0
 10
9.9412318966
 20
9.2858770386
 30
0.0
 10
9.9505785288
 20
9.252501731
 30
0.0
 10
9.9587054048
 20
9.2188868099
 30
0.0
 10
9.9656012685
 20
9.1850784477
 30
0.0
 10
9.9712566696
 20
9.1511231579
 30
0.0
 10
9.9756638326
 20
9.1170677492
 30
0.0
 10
9.9788166785
 20
9.0829584676
 30
0.0
 10
9.9807106454
 20
9.0488433596
 30
0.0
 10
9.9811330877
 20
9.0260964295
 30
0.0
 10
9.9811330877
 20
9.0147389028
 30
0.0
  0
SPLINE
  5
349
100
AcDbEntity
  8
0
100
AcDbSpline
 62
7
  6
CONTINUOUS
 70
0
 71
3
 72
48
 73
44
 74
0
 42
0.0000001
 43
0.0000001
 44
0.0000000001
 40
0.0
 40
0.0
 40
0.0
 40
0.0
 40
0.0149718888
 40
0.0299468355
 40
0.0449278821
 40
0.0599180319
 40
0.0749202308
 40
0.0899373559
 40
0.1049721886
 40
0.1200274073
 40
0.1351055665
 40
0.1502090808
 40
0.1653402191
 40
0.1805010795
 40
0.1956935908
 40
0.2109194937
 40
0.2261803324
 40
0.2414774555
 40
0.2568119943
 40
0.2721848753
 40
0.303042863
 40
0.3340599127
 40
0.3652355213
 40
0.3965657368
 40
0.4280432946
 40
0.4596578173
 40
0.4913960714
 40
0.5232422735
 40
0.5551784397
 40
0.5871847695
 40
0.6192400553
 40
0.6513221131
 40
0.6834082259
 40
0.7154755965
 40
0.7475018003
 40
0.779465233
 40
0.8113455458
 40
0.843124064
 40
0.8747841836
 40
0.9063117098
 40
0.937695313
 40
0.9689262549
 40
1.0
 40
1.0
 40
1.0
 40
1.0
 10
8.6813372632
 20
9.5434294429
 30
0.0
 10
8.6863146479
 20
9.5482372071
 30
0.0
 10
8.6964627028
 20
9.5576569382
 30
0.0
 10
8.7122359874
 20
9.5711719095
 30
0.0
 10
8.7285403044
 20
9.5840554158
 30
0.0
 10
8.7453530459
 20
9.5962892505
 30
0.0
 10
8.7626510235
 20
9.6078568394
 30
0.0
 10
8.7804104941
 20
9.618742126
 30
0.0
 10
8.7986069939
 20
9.6289301764
 30
0.0
 10
8.8172154428
 20
9.638407052
 30
0.0
 10
8.8362103086
 20
9.6471595619
 30
0.0
 10
8.8555653595
 20
9.6551758737
 30
0.0
 10
8.8752540342
 20
9.6624447965
 30
0.0
 10
8.8952491991
 20
9.6689564389
 30
0.0
 10
8.9155233436
 20
9.6747018738
 30
0.0
 10
8.9360485954
 20
9.6796730864
 30
0.0
 10
8.9567966986
 20
9.6838634507
 30
0.0
 10
8.9777390494
 20
9.6872670129
 30
0.0
 10
8.9988471925
 20
9.6898792591
 30
0.0
 10
9.0272054373
 20
9.6923052218
 30
0.0
 10
9.062931914
 20
9.693336614
 30
0.0
 10
9.1059346243
 20
9.6913746158
 30
0.0
 10
9.1488936428
 20
9.6862265759
 30
0.0
 10
9.1915713144
 20
9.6779211175
 30
0.0
 10
9.2337336849
 20
9.6665043834
 30
0.0
 10
9.2751491493
 20
9.6520394757
 30
0.0
 10
9.3155904052
 20
9.6346061716
 30
0.0
 10
9.3548355085
 20
9.6143005012
 30
0.0
 10
9.3926691271
 20
9.5912342053
 30
0.0
 10
9.428883679
 20
9.5655340963
 30
0.0
 10
9.4632804615
 20
9.5373413732
 30
0.0
 10
9.4956707237
 20
9.5068108514
 30
0.0
 10
9.5258766916
 20
9.4741101262
 30
0.0
 10
9.5537325698
 20
9.4394186915
 30
0.0
 10
9.5790854076
 20
9.4029269246
 30
0.0
 10
9.6017959299
 20
9.3648350592
 30
0.0
 10
9.6217392957
 20
9.3253520954
 30
0.0
 10
9.638805775
 20
9.284694692
 30
0.0
 10
9.6529013666
 20
9.2430859164
 30
0.0
 10
9.6639483887
 20
9.2007543596
 30
0.0
 10
9.6718856596
 20
9.1579316835
 30
0.0
 10
9.6766693329
 20
9.1148560653
 30
0.0
 10
9.6777407523
 20
9.086047047
 30
0.0
 10
9.6777407523
 20
9.0716843932
 30
0.0
  0
SPLINE
  5
34A
100
AcDbEntity
  8
0
100
AcDbSpline
 62
7
  6
CONTINUOUS
 70
0
 71
3
 72
25
 73
21
 74
0
 42
0.0000001
 43
0.0000001
 44
0.0000000001
 40
0.0
 40
0.0
 40
0.0
 40
0.0
 40
0.0617095354
 40
0.1234401764
 40
0.185212817
 40
0.2470479189
 40
0.2779976444
 40
0.3089703566
 40
0.3709890131
 40
0.4331269139
 40
0.4954008305
 40
0.5578261668
 40
0.6204168492
 40
0.6831851117
 40
0.7146416153
 40
0.7461463802
 40
0.809299915
 40
0.8726563025
 40
0.9362237161
 40
1.0
 40
1.0
 40
1.0
 40
1.0
 10
9.5150331811
 20
8.6803239685
 30
0.0
 10
9.5214757259
 20
8.6865469628
 30
0.0
 10
9.534045026
 20
8.6993291897
 30
0.0
 10
9.5518914599
 20
8.7194503261
 30
0.0
 10
9.5686925029
 20
8.7404760452
 30
0.0
 10
9.5817861077
 20
8.7587059761
 30
0.0
 10
9.5916990056
 20
8.7736888319
 30
0.0
 10
9.6012400484
 20
8.7889426222
 30
0.0
 10
9.6124466917
 20
8.8084852655
 30
0.0
 10
9.6247028015
 20
8.8326240703
 30
0.0
 10
9.6357455559
 20
8.8574064183
 30
0.0
 10
9.6455493221
 20
8.882774883
 30
0.0
 10
9.6540915437
 20
8.9086706366
 30
0.0
 10
9.6601383327
 20
8.93062534
 30
0.0
 10
9.664327604
 20
8.9483894822
 30
0.0
 10
9.6680882547
 20
8.9663064442
 30
0.0
 10
9.6719679946
 20
8.9889221532
 30
0.0
 10
9.6752977742
 20
9.0163214135
 30
0.0
 10
9.6772976508
 20
9.0439399131
 30
0.0
 10
9.6777407523
 20
9.0624271674
 30
0.0
 10
9.6777407523
 20
9.0716843932
 30
0.0
  0
SPLINE
  5
34B
100
AcDbEntity
  8
0
100
AcDbSpline
 62
7
  6
CONTINUOUS
 70
0
 71
3
 72
23
 73
19
 74
0
 42
0.0000001
 43
0.0000001
 44
0.0000000001
 40
0.0
 40
0.0
 40
0.0
 40
0.0
 40
0.1012469999
 40
0.1973174587
 40
0.2880755163
 40
0.3734338947
 40
0.453349093
 40
0.5278192782
 40
0.5968876999
 40
0.6606332072
 40
0.7191719565
 40
0.7726559753
 40
0.8212660818
 40
0.8652199966
 40
0.9047633228
 40
0.9401827173
 40
0.9718019363
 40
1.0
 40
1.0
 40
1.0
 40
1.0
 10
9.5652009432
 20
8.7364040817
 30
0.0
 10
9.5629204141
 20
8.7348491187
 30
0.0
 10
9.5584359191
 20
8.7318768183
 30
0.0
 10
9.5517697138
 20
8.7277227903
 30
0.0
 10
9.5453585079
 20
8.723984442
 30
0.0
 10
9.539222205
 20
8.7206555129
 30
0.0
 10
9.5333777815
 20
8.7177268867
 30
0.0
 10
9.5278393299
 20
8.7151869122
 30
0.0
 10
9.5226180947
 20
8.7130217322
 30
0.0
 10
9.5177223486
 20
8.7112159565
 30
0.0
 10
9.5131576874
 20
8.7097527804
 30
0.0
 10
9.5089270862
 20
8.7086147381
 30
0.0
 10
9.5050311204
 20
8.7077836579
 30
0.0
 10
9.5014682299
 20
8.7072415227
 30
0.0
 10
9.4982349192
 20
8.7069701578
 30
0.0
 10
9.4953258539
 20
8.7069523554
 30
0.0
 10
9.4927349504
 20
8.7071710469
 30
0.0
 10
9.4911294391
 20
8.7074810209
 30
0.0
 10
9.4903859378
 20
8.7076763759
 30
0.0
  0
SPLINE
  5
34C
100
AcDbEntity
  8
0
100
AcDbSpline
 62
7
  6
CONTINUOUS
 70
0
 71
3
 72
25
 73
21
 74
0
 42
0.0000001
 43
0.0000001
 44
0.0000000001
 40
0.0
 40
0.0
 40
0.0
 40
0.0
 40
0.0617095354
 40
0.1234401764
 40
0.185212817
 40
0.2470479189
 40
0.2779976444
 40
0.3089703566
 40
0.3709890131
 40
0.4331269139
 40
0.4954008305
 40
0.5578261668
 40
0.6204168492
 40
0.6831851117
 40
0.7146416153
 40
0.7461463802
 40
0.809299915
 40
0.8726563025
 40
0.9362237161
 40
1.0
 40
1.0
 40
1.0
 40
1.0
 10
9.33343915
 20
6.3379902883
 30
0.0
 10
9.3398816948
 20
6.3442132826
 30
0.0
 10
9.3524509949
 20
6.3569955095
 30
0.0
 10
9.3702974288
 20
6.3771166459
 30
0.0
 10
9.3870984718
 20
6.398142365
 30
0.0
 10
9.4001920766
 20
6.4163722959
 30
0.0
 10
9.4101049745
 20
6.4313551517
 30
0.0
 10
9.4196460173
 20
6.446608942
 30
0.0
 10
9.4308526606
 20
6.4661515853
 30
0.0
 10
9.4431087704
 20
6.4902903901
 30
0.0
 10
9.4541515248
 20
6.5150727381
 30
0.0
 10
9.463955291
 20
6.5404412028
 30
0.0
 10
9.4724975126
 20
6.5663369564
 30
0.0
 10
9.4785443016
 20
6.5882916598
 30
0.0
 10
9.4827335729
 20
6.606055802
 30
0.0
 10
9.4864942236
 20
6.623972764
 30
0.0
 10
9.4903739635
 20
6.646588473
 30
0.0
 10
9.4937037431
 20
6.6739877333
 30
0.0
 10
9.4957036197
 20
6.7016062329
 30
0.0
 10
9.4961467212
 20
6.7200934872
 30
0.0
 10
9.4961467212
 20
6.729350713
 30
0.0
  0
SPLINE
  5
34D
100
AcDbEntity
  8
0
100
AcDbSpline
 62
7
  6
CONTINUOUS
 70
0
 71
3
 72
48
 73
44
 74
0
 42
0.0000001
 43
0.0000001
 44
0.0000000001
 40
0.0
 40
0.0
 40
0.0
 40
0.0
 40
0.0149718888
 40
0.0299468355
 40
0.0449278821
 40
0.0599180319
 40
0.0749202308
 40
0.0899373559
 40
0.1049721886
 40
0.1200274073
 40
0.1351055665
 40
0.1502090808
 40
0.1653402191
 40
0.1805010795
 40
0.1956935908
 40
0.2109194937
 40
0.2261803324
 40
0.2414774555
 40
0.2568119943
 40
0.2721848753
 40
0.303042863
 40
0.3340599127
 40
0.3652355213
 40
0.3965657368
 40
0.4280432946
 40
0.4596578173
 40
0.4913960714
 40
0.5232422735
 40
0.5551784397
 40
0.5871847695
 40
0.6192400553
 40
0.6513221131
 40
0.6834082259
 40
0.7154755965
 40
0.7475018003
 40
0.779465233
 40
0.8113455458
 40
0.843124064
 40
0.8747841836
 40
0.9063117098
 40
0.937695313
 40
0.9689262549
 40
1.0
 40
1.0
 40
1.0
 40
1.0
 10
8.4997432321
 20
7.2010957627
 30
0.0
 10
8.5047206168
 20
7.205903527
 30
0.0
 10
8.5148686717
 20
7.215323258
 30
0.0
 10
8.5306419563
 20
7.2288382293
 30
0.0
 10
8.5469462733
 20
7.2417217356
 30
0.0
 10
8.5637590148
 20
7.2539555703
 30
0.0
 10
8.5810569924
 20
7.2655231592
 30
0.0
 10
8.598816463
 20
7.2764084458
 30
0.0
 10
8.6170129628
 20
7.2865964962
 30
0.0
 10
8.6356214117
 20
7.2960733718
 30
0.0
 10
8.6546162775
 20
7.3048258817
 30
0.0
 10
8.6739713284
 20
7.3128421935
 30
0.0
 10
8.6936600031
 20
7.3201111163
 30
0.0
 10
8.713655168
 20
7.3266227587
 30
0.0
 10
8.7339293125
 20
7.3323681936
 30
0.0
 10
8.7544545643
 20
7.3373394062
 30
0.0
 10
8.7752026675
 20
7.3415297705
 30
0.0
 10
8.7961450183
 20
7.3449333327
 30
0.0
 10
8.8172531614
 20
7.3475455789
 30
0.0
 10
8.8456114062
 20
7.3499715417
 30
0.0
 10
8.8813378829
 20
7.3510029338
 30
0.0
 10
8.9243405932
 20
7.3490409356
 30
0.0
 10
8.9672996117
 20
7.3438928957
 30
0.0
 10
9.0099772833
 20
7.3355874373
 30
0.0
 10
9.0521396538
 20
7.3241707032
 30
0.0
 10
9.0935551182
 20
7.3097057955
 30
0.0
 10
9.1339963741
 20
7.2922724914
 30
0.0
 10
9.1732414774
 20
7.271966821
 30
0.0
 10
9.211075096
 20
7.2489005251
 30
0.0
 10
9.2472896479
 20
7.2232004161
 30
0.0
 10
9.2816864304
 20
7.195007693
 30
0.0
 10
9.3140766926
 20
7.1644771712
 30
0.0
 10
9.3442826605
 20
7.131776446
 30
0.0
 10
9.3721385387
 20
7.0970850114
 30
0.0
 10
9.3974913765
 20
7.0605932444
 30
0.0
 10
9.4202018988
 20
7.022501379
 30
0.0
 10
9.4401452646
 20
6.9830184152
 30
0.0
 10
9.4572117439
 20
6.9423610118
 30
0.0
 10
9.4713073355
 20
6.9007522362
 30
0.0
 10
9.4823543576
 20
6.8584206794
 30
0.0
 10
9.4902916285
 20
6.8155980033
 30
0.0
 10
9.4950753018
 20
6.7725223852
 30
0.0
 10
9.4961467212
 20
6.7437133668
 30
0.0
 10
9.4961467212
 20
6.729350713
 30
0.0
  0
SPLINE
  5
34E
100
AcDbEntity
  8
0
100
AcDbSpline
 62
7
  6
CONTINUOUS
 70
0
 71
3
 72
54
 73
50
 74
0
 42
0.0000001
 43
0.0000001
 44
0.0000000001
 40
0.0
 40
0.0
 40
0.0
 40
0.0
 40
0.0149714205
 40
0.0299459006
 40
0.0449264792
 40
0.0599161603
 40
0.0749178921
 40
0.0899345472
 40
0.1049689108
 40
0.1200236601
 40
0.1351013475
 40
0.1502043911
 40
0.1653350566
 40
0.1804954436
 40
0.1956874807
 40
0.2109129081
 40
0.2261732707
 40
0.2414699153
 40
0.2568039766
 40
0.2721763765
 40
0.2875878234
 40
0.3030388016
 40
0.3185295776
 40
0.3340601997
 40
0.3496304932
 40
0.3652400703
 40
0.380888332
 40
0.3965744676
 40
0.4122974686
 40
0.428056131
 40
0.4438490605
 40
0.459674688
 40
0.4914119511
 40
0.5232571588
 40
0.5551923276
 40
0.5871976582
 40
0.6192519435
 40
0.6513329996
 40
0.6834181105
 40
0.7154844799
 40
0.747509684
 40
0.7794721189
 40
0.8113514357
 40
0.8431289617
 40
0.8747880907
 40
0.9063146458
 40
0.9376972376
 40
0.9689272313
 40
1.0
 40
1.0
 40
1.0
 40
1.0
 10
10.4160722355
 20
7.7099661996
 30
0.0
 10
10.4232147707
 20
7.7168653531
 30
0.0
 10
10.4377772362
 20
7.7303826597
 30
0.0
 10
10.4604118727
 20
7.7497766769
 30
0.0
 10
10.4838086313
 20
7.7682644265
 30
0.0
 10
10.5079348389
 20
7.7858200845
 30
0.0
 10
10.5327574895
 20
7.8024194989
 30
0.0
 10
10.5582423219
 20
7.818039894
 30
0.0
 10
10.5843542661
 20
7.8326598096
 30
0.0
 10
10.6110574414
 20
7.846259025
 30
0.0
 10
10.638315034
 20
7.8588189621
 30
0.0
 10
10.6660895491
 20
7.8703223315
 30
0.0
 10
10.694342798
 20
7.8807532321
 30
0.0
 10
10.7230358523
 20
7.8900974651
 30
0.0
 10
10.7521292568
 20
7.8983421319
 30
0.0
 10
10.781582992
 20
7.9054758575
 30
0.0
 10
10.8113565051
 20
7.9114889809
 30
0.0
 10
10.8414088598
 20
7.9163731556
 30
0.0
 10
10.8716987116
 20
7.9201216784
 30
0.0
 10
10.9021843856
 20
7.9227295293
 30
0.0
 10
10.9328239634
 20
7.9241930221
 30
0.0
 10
10.9635752987
 20
7.9245102073
 30
0.0
 10
10.9943961047
 20
7.9236807542
 30
0.0
 10
11.0252439942
 20
7.921705691
 30
0.0
 10
11.0560765508
 20
7.9185878387
 30
0.0
 10
11.086851389
 20
7.9143315503
 30
0.0
 10
11.1175261783
 20
7.9089425666
 30
0.0
 10
11.1480587537
 20
7.9024284353
 30
0.0
 10
11.1784071782
 20
7.8947981186
 30
0.0
 10
11.2085295771
 20
7.8860620712
 30
0.0
 10
11.2383850373
 20
7.8762322373
 30
0.0
 10
11.2778139942
 20
7.8616736737
 30
0.0
 10
11.3262264718
 20
7.8408044567
 30
0.0
 10
11.3825419453
 20
7.8116662613
 30
0.0
 10
11.4368335433
 20
7.7785660394
 30
0.0
 10
11.4888013369
 20
7.741686414
 30
0.0
 10
11.538160713
 20
7.7012298087
 30
0.0
 10
11.5846407291
 20
7.6574185101
 30
0.0
 10
11.6279863282
 20
7.6104929989
 30
0.0
 10
11.667959505
 20
7.5607107819
 30
0.0
 10
11.7043408253
 20
7.508345095
 30
0.0
 10
11.7369304406
 20
7.4536832767
 30
0.0
 10
11.7655491398
 20
7.3970252068
 30
0.0
 10
11.7900395156
 20
7.3386818271
 30
0.0
 10
11.8102667424
 20
7.2789732441
 30
0.0
 10
11.8261192216
 20
7.2182274731
 30
0.0
 10
11.8375091959
 20
7.1567769245
 30
0.0
 10
11.8443737372
 20
7.0949634165
 30
0.0
 10
11.8459112379
 20
7.0536224621
 30
0.0
 10
11.8459112379
 20
7.0330120579
 30
0.0
  0
SPLINE
  5
34F
100
AcDbEntity
  8
0
100
AcDbSpline
 62
7
  6
CONTINUOUS
 70
0
 71
3
 72
71
 73
67
 74
0
 42
0.0000001
 43
0.0000001
 44
0.0000000001
 40
0.0
 40
0.0
 40
0.0
 40
0.0
 40
0.0149701622
 40
0.0299433828
 40
0.0449227028
 40
0.0599111246
 40
0.0749115948
 40
0.0899269886
 40
0.1049600895
 40
0.120013573
 40
0.1350899941
 40
0.1501917695
 40
0.165321163
 40
0.180480277
 40
0.1956710384
 40
0.2108951862
 40
0.2261542673
 40
0.2414496274
 40
0.2567824002
 40
0.2721535092
 40
0.2875636617
 40
0.3030133419
 40
0.3185028169
 40
0.3340321343
 40
0.34960112
 40
0.3652093858
 40
0.3808563328
 40
0.3965411509
 40
0.4122628307
 40
0.428020169
 40
0.4438117721
 40
0.4596360694
 40
0.475491322
 40
0.4913756286
 40
0.5072869404
 40
0.5232230722
 40
0.5391817101
 40
0.5551604278
 40
0.5711566993
 40
0.5871679078
 40
0.6031913633
 40
0.6192243155
 40
0.6352639647
 40
0.6513074791
 40
0.6673520087
 40
0.683394696
 40
0.6994326945
 40
0.7154631813
 40
0.7314833687
 40
0.7474905224
 40
0.7634819732
 40
0.7794551283
 40
0.7954074893
 40
0.811336662
 40
0.8272403677
 40
0.8431164596
 40
0.8589629314
 40
0.8747779261
 40
0.890559756
 40
0.9063068963
 40
0.9220180004
 40
0.9376919706
 40
0.9533277655
 40
0.9689245666
 40
0.9844825444
 40
1.0
 40
1.0
 40
1.0
 40
1.0
 10
8.2219011211
 20
7.4193357995
 30
0.0
 10
8.229781965
 20
7.4269480986
 30
0.0
 10
8.2458497969
 20
7.4418625686
 30
0.0
 10
8.2708241196
 20
7.4632612932
 30
0.0
 10
8.2966393478
 20
7.4836600728
 30
0.0
 10
8.3232595013
 20
7.5030303063
 30
0.0
 10
8.3506480078
 20
7.5213455587
 30
0.0
 10
8.3787671519
 20
7.5385805871
 30
0.0
 10
8.4075782861
 20
7.5547116157
 30
0.0
 10
8.4370416995
 20
7.5697165529
 30
0.0
 10
8.4671168531
 20
7.5835747619
 30
0.0
 10
8.4977623951
 20
7.5962671017
 30
0.0
 10
8.5289361104
 20
7.6077762247
 30
0.0
 10
8.5605951065
 20
7.6180863202
 30
0.0
 10
8.5926958509
 20
7.6271831278
 30
0.0
 10
8.6251941461
 20
7.6350542511
 30
0.0
 10
8.6580452835
 20
7.6416888997
 30
0.0
 10
8.6912040884
 20
7.6470778687
 30
0.0
 10
8.7246249293
 20
7.6512138607
 30
0.0
 10
8.7582618378
 20
7.6540912362
 30
0.0
 10
8.7920685565
 20
7.6557059576
 30
0.0
 10
8.825998583
 20
7.6560559112
 30
0.0
 10
8.8600052597
 20
7.655140675
 30
0.0
 10
8.8940418189
 20
7.6529614265
 30
0.0
 10
8.9280614588
 20
7.6495212576
 30
0.0
 10
8.9620174114
 20
7.6448249653
 30
0.0
 10
8.9958629757
 20
7.6388789265
 30
0.0
 10
9.0295516256
 20
7.6316913969
 30
0.0
 10
9.063037061
 20
7.6232723302
 30
0.0
 10
9.0962732243
 20
7.6136332231
 30
0.0
 10
9.1292144351
 20
7.6027873908
 30
0.0
 10
9.1618154339
 20
7.5907498188
 30
0.0
 10
9.1940313746
 20
7.5775369803
 30
0.0
 10
9.2258179828
 20
7.563167085
 30
0.0
 10
9.2571315981
 20
7.547659963
 30
0.0
 10
9.2879291399
 20
7.5310368605
 30
0.0
 10
9.3181682821
 20
7.5133206569
 30
0.0
 10
9.3478075025
 20
7.4945357804
 30
0.0
 10
9.3768060182
 20
7.4747079877
 30
0.0
 10
9.4051239702
 20
7.4538645466
 30
0.0
 10
9.4327224872
 20
7.4320341806
 30
0.0
 10
9.4595635876
 20
7.4092468383
 30
0.0
 10
9.4856103685
 20
7.3855338413
 30
0.0
 10
9.5108270891
 20
7.3609278525
 30
0.0
 10
9.5351790391
 20
7.335462643
 30
0.0
 10
9.5586327241
 20
7.3091732032
 30
0.0
 10
9.5811559751
 20
7.2820957318
 30
0.0
 10
9.602717782
 20
7.2542674047
 30
0.0
 10
9.6232884707
 20
7.2257264522
 30
0.0
 10
9.6428398402
 20
7.1965121614
 30
0.0
 10
9.6613449651
 20
7.1666646535
 30
0.0
 10
9.6787783558
 20
7.1362249301
 30
0.0
 10
9.6951161276
 20
7.1052348809
 30
0.0
 10
9.7103357727
 20
7.0737370769
 30
0.0
 10
9.7244163001
 20
7.0417747882
 30
0.0
 10
9.7373384353
 20
7.0093919903
 30
0.0
 10
9.7490843677
 20
6.9766331781
 30
0.0
 10
9.7596378655
 20
6.9435433584
 30
0.0
 10
9.7689844977
 20
6.9101680508
 30
0.0
 10
9.7771113737
 20
6.8765531297
 30
0.0
 10
9.7840072374
 20
6.8427447675
 30
0.0
 10
9.7896626385
 20
6.8087894777
 30
0.0
 10
9.7940698015
 20
6.774734069
 30
0.0
 10
9.7972226474
 20
6.7406247874
 30
0.0
 10
9.7991166143
 20
6.7065096794
 30
0.0
 10
9.7995390566
 20
6.6837627493
 30
0.0
 10
9.7995390566
 20
6.6724052226
 30
0.0
  0
SPLINE
  5
350
100
AcDbEntity
  8
0
100
AcDbSpline
 62
7
  6
CONTINUOUS
 70
0
 71
3
 72
34
 73
30
 74
0
 42
0.0000001
 43
0.0000001
 44
0.0000000001
 40
0.0
 40
0.0
 40
0.0
 40
0.0
 40
0.0217015823
 40
0.0428607076
 40
0.0636354598
 40
0.0841909689
 40
0.1046967439
 40
0.1253210115
 40
0.1462262478
 40
0.1675667826
 40
0.1894837648
 40
0.2121044144
 40
0.235541999
 40
0.2598935408
 40
0.2852426197
 40
0.3116601128
 40
0.3392037046
 40
0.3679216198
 40
0.397852477
 40
0.4290258195
 40
0.4614652735
 40
0.4951873273
 40
0.5302027559
 40
0.56651862
 40
0.6430470906
 40
0.7247554799
 40
0.8115651363
 40
0.9033681764
 40
1.0
 40
1.0
 40
1.0
 40
1.0
 10
11.6853030968
 20
7.2142140822
 30
0.0
 10
11.685408467
 20
7.2135011768
 30
0.0
 10
11.685560596
 20
7.2120841014
 30
0.0
 10
11.6856056158
 20
7.2099688213
 30
0.0
 10
11.6854639794
 20
7.2078956645
 30
0.0
 10
11.6851359318
 20
7.2058656576
 30
0.0
 10
11.6846218241
 20
7.203879757
 30
0.0
 10
11.6839223946
 20
7.2019390348
 30
0.0
 10
11.6830386637
 20
7.200044511
 30
0.0
 10
11.6819717359
 20
7.1981972366
 30
0.0
 10
11.680722941
 20
7.1963981754
 30
0.0
 10
11.6792936433
 20
7.1946482984
 30
0.0
 10
11.6776852514
 20
7.1929486353
 30
0.0
 10
11.6758992422
 20
7.191300253
 30
0.0
 10
11.6739371258
 20
7.1897043491
 30
0.0
 10
11.6718005007
 20
7.1881622239
 30
0.0
 10
11.6694910251
 20
7.1866753226
 30
0.0
 10
11.6670104775
 20
7.1852452153
 30
0.0
 10
11.6643607497
 20
7.1838735888
 30
0.0
 10
11.6615438261
 20
7.1825622974
 30
0.0
 10
11.6585618574
 20
7.1813132654
 30
0.0
 10
11.6554171114
 20
7.1801285621
 30
0.0
 10
11.6521119609
 20
7.1790103555
 30
0.0
 10
11.6474122818
 20
7.177586208
 30
0.0
 10
11.6411460313
 20
7.1759975549
 30
0.0
 10
11.6331582132
 20
7.1744268635
 30
0.0
 10
11.6246005184
 20
7.1731809844
 30
0.0
 10
11.6155017763
 20
7.172282272
 30
0.0
 10
11.609251615
 20
7.1719382127
 30
0.0
 10
11.6060446696
 20
7.1718268134
 30
0.0
  0
SPLINE
  5
351
100
AcDbEntity
  8
0
100
AcDbSpline
 62
7
  6
CONTINUOUS
 70
0
 71
3
 72
28
 73
24
 74
0
 42
0.0000001
 43
0.0000001
 44
0.0000000001
 40
0.0
 40
0.0
 40
0.0
 40
0.0
 40
0.0308555399
 40
0.0617137224
 40
0.0925771844
 40
0.1234485457
 40
0.1852202674
 40
0.2470544482
 40
0.2780037146
 40
0.3089759646
 40
0.3709937009
 40
0.4331306768
 40
0.4954036634
 40
0.557828071
 40
0.6204178126
 40
0.683185178
 40
0.7146412158
 40
0.7461454681
 40
0.8092980338
 40
0.872653783
 40
0.9044120924
 40
0.9362241051
 40
1.0
 40
1.0
 40
1.0
 40
1.0
 10
11.6124258688
 20
6.4714098531
 30
0.0
 10
11.6170485717
 20
6.4758750375
 30
0.0
 10
11.6261799552
 20
6.484925136
 30
0.0
 10
11.639523828
 20
6.4988487928
 30
0.0
 10
11.6525076971
 20
6.5131135421
 30
0.0
 10
11.669331191
 20
6.5325791857
 30
0.0
 10
11.6894271826
 20
6.5577282933
 30
0.0
 10
11.7082163191
 20
6.5838879906
 30
0.0
 10
11.7224413234
 20
6.6053884403
 30
0.0
 10
11.7361327596
 20
6.6272775933
 30
0.0
 10
11.7522142666
 20
6.6553213093
 30
0.0
 10
11.7698017588
 20
6.6899605041
 30
0.0
 10
11.7856481171
 20
6.7255231703
 30
0.0
 10
11.7997165588
 20
6.7619268995
 30
0.0
 10
11.811974678
 20
6.7990873031
 30
0.0
 10
11.8206517397
 20
6.8305923337
 30
0.0
 10
11.8266634079
 20
6.8560838538
 30
0.0
 10
11.8320598542
 20
6.8817947314
 30
0.0
 10
11.8376273514
 20
6.9142480508
 30
0.0
 10
11.8416059879
 20
6.9469872492
 30
0.0
 10
11.843836967
 20
6.9733334596
 30
0.0
 10
11.8454338938
 20
6.999812858
 30
0.0
 10
11.8459112379
 20
7.0197278222
 30
0.0
 10
11.8459112379
 20
7.0330120579
 30
0.0
  0
SPLINE
  5
352
100
AcDbEntity
  8
0
100
AcDbSpline
 62
7
  6
CONTINUOUS
 70
0
 71
3
 72
28
 73
24
 74
0
 42
0.0000001
 43
0.0000001
 44
0.0000000001
 40
0.0
 40
0.0
 40
0.0
 40
0.0
 40
0.0148897462
 40
0.0240403903
 40
0.0345412785
 40
0.0465011381
 40
0.0599945866
 40
0.0750758124
 40
0.0917858643
 40
0.1101554294
 40
0.1302058256
 40
0.1519536911
 40
0.1754125992
 40
0.2274938006
 40
0.2864842974
 40
0.352381686
 40
0.425143204
 40
0.5047004642
 40
0.5909515929
 40
0.683771548
 40
0.7830071998
 40
0.8884829127
 40
1.0
 40
1.0
 40
1.0
 40
1.0
 10
10.4650481329
 20
7.7331882547
 30
0.0
 10
10.4649424669
 20
7.7333616495
 30
0.0
 10
10.4648473836
 20
7.7336865505
 30
0.0
 10
10.4648098367
 20
7.7341555084
 30
0.0
 10
10.4648234315
 20
7.7345875472
 30
0.0
 10
10.4648816078
 20
7.7350747295
 30
0.0
 10
10.4649847269
 20
7.7356182035
 30
0.0
 10
10.4651334627
 20
7.7362178323
 30
0.0
 10
10.4653284064
 20
7.7368737302
 30
0.0
 10
10.4655701352
 20
7.7375857907
 30
0.0
 10
10.4658591756
 20
7.7383538492
 30
0.0
 10
10.4661960218
 20
7.7391776727
 30
0.0
 10
10.466728432
 20
7.7403930167
 30
0.0
 10
10.4675209314
 20
7.742048231
 30
0.0
 10
10.46863841
 20
7.7441877032
 30
0.0
 10
10.4699557628
 20
7.7465396141
 30
0.0
 10
10.4714749084
 20
7.7490988166
 30
0.0
 10
10.4731971921
 20
7.7518592595
 30
0.0
 10
10.4751231839
 20
7.7548141714
 30
0.0
 10
10.4772527314
 20
7.757955975
 30
0.0
 10
10.4795849175
 20
7.761276452
 30
0.0
 10
10.4821180281
 20
7.7647667339
 30
0.0
 10
10.4838909307
 20
7.7671361656
 30
0.0
 10
10.4848101859
 20
7.7683476692
 30
0.0
  0
SPLINE
  5
353
100
AcDbEntity
  8
0
100
AcDbSpline
 62
7
  6
CONTINUOUS
 70
0
 71
3
 72
27
 73
23
 74
0
 42
0.0000001
 43
0.0000001
 44
0.0000000001
 40
0.0
 40
0.0
 40
0.0
 40
0.0
 40
0.0637763768
 40
0.0955883759
 40
0.127346786
 40
0.1907029703
 40
0.2538558263
 40
0.2853602345
 40
0.3168164408
 40
0.3795841266
 40
0.4421741851
 40
0.5045989134
 40
0.5668722185
 40
0.6290095117
 40
0.6910275629
 40
0.7219999706
 40
0.7529493938
 40
0.8147838878
 40
0.8765559246
 40
0.9074274454
 40
0.9382910642
 40
1.0
 40
1.0
 40
1.0
 40
1.0
 10
8.145873909
 20
9.1420145591
 30
0.0
 10
8.145873909
 20
9.1566720256
 30
0.0
 10
8.1464005804
 20
9.1786456011
 30
0.0
 10
8.1481626096
 20
9.2078621615
 30
0.0
 10
8.1506241982
 20
9.2369317577
 30
0.0
 10
8.155014101
 20
9.2730552215
 30
0.0
 10
8.1611571567
 20
9.308863258
 30
0.0
 10
8.1671114151
 20
9.3372318731
 30
0.0
 10
8.1737445621
 20
9.3653584472
 30
0.0
 10
8.1833185792
 20
9.4001201599
 30
0.0
 10
8.1968438411
 20
9.4411218382
 30
0.0
 10
8.2123665505
 20
9.481288627
 30
0.0
 10
8.229850986
 20
9.5205274
 30
0.0
 10
8.249256534
 20
9.5587472427
 30
0.0
 10
8.2670004728
 20
9.5896897944
 30
0.0
 10
8.282107154
 20
9.6138416622
 30
0.0
 10
8.2978027064
 20
9.6375645428
 30
0.0
 10
8.3185341095
 20
9.6664283955
 30
0.0
 10
8.3407073382
 20
9.6941770804
 30
0.0
 10
8.3592701476
 20
9.7156550152
 30
0.0
 10
8.3783685154
 20
9.7366376725
 30
0.0
 10
8.3932944496
 20
9.7518163725
 30
0.0
 10
8.4034951522
 20
9.7616694797
 30
0.0
  0
SPLINE
  5
354
100
AcDbEntity
  8
0
100
AcDbSpline
 62
7
  6
CONTINUOUS
 70
0
 71
3
 72
23
 73
19
 74
0
 42
0.0000001
 43
0.0000001
 44
0.0000000001
 40
0.0
 40
0.0
 40
0.0
 40
0.0
 40
0.0720086796
 40
0.1430108272
 40
0.2128990314
 40
0.2815908622
 40
0.3490078375
 40
0.4150861544
 40
0.4797761751
 40
0.5430434315
 40
0.6048704656
 40
0.6652581936
 40
0.7242270256
 40
0.7818182756
 40
0.8380949099
 40
0.893140987
 40
0.9470683372
 40
1.0
 40
1.0
 40
1.0
 40
1.0
 10
11.272678467
 20
7.253792319
 30
0.0
 10
11.2733155224
 20
7.2582810238
 30
0.0
 10
11.2747656895
 20
7.2671706765
 30
0.0
 10
11.2774888794
 20
7.2802994358
 30
0.0
 10
11.2807373477
 20
7.2930932936
 30
0.0
 10
11.2845002257
 20
7.305509915
 30
0.0
 10
11.2887655557
 20
7.3175090495
 30
0.0
 10
11.2935194475
 20
7.3290514331
 30
0.0
 10
11.2987465249
 20
7.3400994042
 30
0.0
 10
11.3044299408
 20
7.3506168601
 30
0.0
 10
11.3105513977
 20
7.3605693839
 30
0.0
 10
11.3170911536
 20
7.3699243958
 30
0.0
 10
11.3240281366
 20
7.3786512101
 30
0.0
 10
11.3313400582
 20
7.3867210946
 30
0.0
 10
11.339003315
 20
7.3941072125
 30
0.0
 10
11.3469933893
 20
7.4007853755
 30
0.0
 10
11.3552836458
 20
7.4067324193
 30
0.0
 10
11.3610424718
 20
7.4102267133
 30
0.0
 10
11.3639586713
 20
7.4118397693
 30
0.0
  0
SPLINE
  5
355
100
AcDbEntity
  8
0
100
AcDbSpline
 62
7
  6
CONTINUOUS
 70
0
 71
3
 72
67
 73
63
 74
0
 42
0.0000001
 43
0.0000001
 44
0.0000000001
 40
0.0
 40
0.0
 40
0.0
 40
0.0
 40
0.0155102973
 40
0.0310607543
 40
0.0466495571
 40
0.062276905
 40
0.0779420574
 40
0.0936439733
 40
0.109381591
 40
0.1251536146
 40
0.1409585646
 40
0.1567948045
 40
0.1726605358
 40
0.1885538142
 40
0.2044725551
 40
0.2204145481
 40
0.2363774695
 40
0.252358889
 40
0.2683562877
 40
0.2843670688
 40
0.3164133635
 40
0.3484806362
 40
0.3805466167
 40
0.41258906
 40
0.4285969778
 40
0.444590906
 40
0.4605682651
 40
0.476526554
 40
0.4924633676
 40
0.5083764071
 40
0.5242634889
 40
0.5401225616
 40
0.5559517135
 40
0.5717491808
 40
0.587513364
 40
0.6032428309
 40
0.6189363257
 40
0.6345927823
 40
0.6502113235
 40
0.6657912703
 40
0.6813321506
 40
0.6968336958
 40
0.7122958486
 40
0.7277187667
 40
0.7431028167
 40
0.7584485801
 40
0.7737568512
 40
0.7890286282
 40
0.8042651167
 40
0.8194677218
 40
0.8346380374
 40
0.8497778448
 40
0.8648891009
 40
0.8799739246
 40
0.8950345915
 40
0.9100735183
 40
0.9250932468
 40
0.9400964347
 40
0.9550858371
 40
0.9700642892
 40
0.9850346934
 40
1.0
 40
1.0
 40
1.0
 40
1.0
 10
7.9808442835
 20
6.8156808671
 30
0.0
 10
7.9808442835
 20
6.8044477469
 30
0.0
 10
7.9812575264
 20
6.7819502757
 30
0.0
 10
7.9831102688
 20
6.7482087117
 30
0.0
 10
7.9861945872
 20
6.7144718244
 30
0.0
 10
7.9905061211
 20
6.6807861618
 30
0.0
 10
7.9960389817
 20
6.6471964283
 30
0.0
 10
8.0027858117
 20
6.6137479197
 30
0.0
 10
8.0107375397
 20
6.5804856695
 30
0.0
 10
8.0198833345
 20
6.5474543514
 30
0.0
 10
8.0302109545
 20
6.5146984046
 30
0.0
 10
8.0417065335
 20
6.4822618989
 30
0.0
 10
8.0543544795
 20
6.4501884061
 30
0.0
 10
8.0681378577
 20
6.4185210867
 30
0.0
 10
8.0830381339
 20
6.3873025306
 30
0.0
 10
8.099035153
 20
6.3565746725
 30
0.0
 10
8.116107517
 20
6.3263788499
 30
0.0
 10
8.1342321514
 20
6.2967557687
 30
0.0
 10
8.1533849358
 20
6.2677447999
 30
0.0
 10
8.1802632131
 20
6.229924998
 30
0.0
 10
8.2162990409
 20
6.1843779826
 30
0.0
 10
8.263191326
 20
6.1327968148
 30
0.0
 10
8.3134982841
 20
6.0845440994
 30
0.0
 10
8.3580614387
 20
6.0473074798
 30
0.0
 10
8.3951440079
 20
6.0194331494
 30
0.0
 10
8.4236271555
 20
5.9995170079
 30
0.0
 10
8.4527487568
 20
5.980613296
 30
0.0
 10
8.4824701098
 20
5.9627471839
 30
0.0
 10
8.5127510759
 20
5.9459426875
 30
0.0
 10
8.5435509933
 20
5.9302224258
 30
0.0
 10
8.5748284737
 20
5.9156076306
 30
0.0
 10
8.6065414062
 20
5.9021178475
 30
0.0
 10
8.6386471789
 20
5.8897712955
 30
0.0
 10
8.671102634
 20
5.8785846431
 30
0.0
 10
8.7038640879
 20
5.8685728328
 30
0.0
 10
8.736887515
 20
5.8597494361
 30
0.0
 10
8.7701285053
 20
5.8521263581
 30
0.0
 10
8.8035423313
 20
5.845713761
 30
0.0
 10
8.837084078
 20
5.8405204025
 30
0.0
 10
8.8707086252
 20
5.8365532752
 30
0.0
 10
8.9043707386
 20
5.8338176437
 30
0.0
 10
8.9380251503
 20
5.8323173397
 30
0.0
 10
8.9716265816
 20
5.8320543562
 30
0.0
 10
9.005129833
 20
5.8330289999
 30
0.0
 10
9.0384898268
 20
5.8352401216
 30
0.0
 10
9.0716616795
 20
5.8386846905
 30
0.0
 10
9.1046007672
 20
5.8433580528
 30
0.0
 10
9.1372627454
 20
5.8492540818
 30
0.0
 10
9.1696036754
 20
5.8563647614
 30
0.0
 10
9.2015800416
 20
5.8646805333
 30
0.0
 10
9.2331487717
 20
5.8741903545
 30
0.0
 10
9.2642674086
 20
5.884881326
 30
0.0
 10
9.294894065
 20
5.8967390972
 30
0.0
 10
9.3249874693
 20
5.9097478307
 30
0.0
 10
9.3545071621
 20
5.9238899076
 30
0.0
 10
9.383413388
 20
5.9391463534
 30
0.0
 10
9.4116671833
 20
5.9554967172
 30
0.0
 10
9.4392305869
 20
5.97291889
 30
0.0
 10
9.4660664184
 20
5.9913894618
 30
0.0
 10
9.4921386386
 20
6.0108837406
 30
0.0
 10
9.5174117503
 20
6.0313749237
 30
0.0
 10
9.5337079017
 20
6.0456846114
 30
0.0
 10
9.5417099863
 20
6.0529947378
 30
0.0
  0
SPLINE
  5
356
100
AcDbEntity
  8
0
100
AcDbSpline
 62
7
  6
CONTINUOUS
 70
0
 71
3
 72
27
 73
23
 74
0
 42
0.0000001
 43
0.0000001
 44
0.0000000001
 40
0.0
 40
0.0
 40
0.0
 40
0.0
 40
0.0637515296
 40
0.0955539443
 40
0.1273044473
 40
0.1906499143
 40
0.2537986266
 40
0.2853029921
 40
0.3167604723
 40
0.3795346017
 40
0.4421349824
 40
0.5045727299
 40
0.5668604558
 40
0.6290121498
 40
0.6910430695
 40
0.7220206684
 40
0.7529743062
 40
0.8148138167
 40
0.8765844995
 40
0.907452276
 40
0.9383099559
 40
1.0
 40
1.0
 40
1.0
 40
1.0
 10
7.9808442835
 20
6.8156808671
 30
0.0
 10
7.9808442835
 20
6.8298434153
 30
0.0
 10
7.9813360079
 20
6.8510753461
 30
0.0
 10
7.9829808605
 20
6.8793102963
 30
0.0
 10
7.9852790186
 20
6.9074095912
 30
0.0
 10
7.9893777513
 20
6.942338098
 30
0.0
 10
7.9951138148
 20
6.9769801749
 30
0.0
 10
8.000674586
 20
7.0044408951
 30
0.0
 10
8.00687025
 20
7.0316799661
 30
0.0
 10
8.0158144906
 20
7.0653679376
 30
0.0
 10
8.0284537099
 20
7.1051470076
 30
0.0
 10
8.0429647438
 20
7.1441674121
 30
0.0
 10
8.0593163854
 20
7.1823447242
 30
0.0
 10
8.0774732182
 20
7.2195963589
 30
0.0
 10
8.0940841265
 20
7.2498162965
 30
0.0
 10
8.1082329042
 20
7.2734449252
 30
0.0
 10
8.1229370515
 20
7.2966817482
 30
0.0
 10
8.1423679189
 20
7.3250097007
 30
0.0
 10
8.1631657399
 20
7.3523258611
 30
0.0
 10
8.1805874031
 20
7.3735226492
 30
0.0
 10
8.198517704
 20
7.3942665042
 30
0.0
 10
8.2125399706
 20
7.4093175961
 30
0.0
 10
8.222128202
 20
7.4191095036
 30
0.0
  0
SPLINE
  5
357
100
AcDbEntity
  8
0
100
AcDbSpline
 62
7
  6
CONTINUOUS
 70
0
 71
3
 72
72
 73
68
 74
0
 42
0.0000001
 43
0.0000001
 44
0.0000000001
 40
0.0
 40
0.0
 40
0.0
 40
0.0
 40
0.0155841391
 40
0.0311159426
 40
0.0465951818
 40
0.0620238062
 40
0.0697201947
 40
0.0774045852
 40
0.0927373969
 40
0.1080262197
 40
0.1232742503
 40
0.138485114
 40
0.1536628168
 40
0.1688117118
 40
0.1839364561
 40
0.1990419623
 40
0.2141333478
 40
0.2292158796
 40
0.2442949189
 40
0.2593758645
 40
0.2744640955
 40
0.2895649133
 40
0.3046834847
 40
0.3198247871
 40
0.3349935569
 40
0.3501942419
 40
0.3654309563
 40
0.3807074392
 40
0.3960270182
 40
0.4113925792
 40
0.4268065428
 40
0.4422708435
 40
0.4577869144
 40
0.4733556768
 40
0.488977538
 40
0.5046523931
 40
0.5203796315
 40
0.536158146
 40
0.5519863475
 40
0.5678621856
 40
0.5837831726
 40
0.5997464093
 40
0.6157486138
 40
0.6317861525
 40
0.6478550774
 40
0.6639511628
 40
0.6800699439
 40
0.6962067554
 40
0.7123567737
 40
0.7285150605
 40
0.7446766066
 40
0.7608363741
 40
0.7769893393
 40
0.793130538
 40
0.8092551091
 40
0.8253583378
 40
0.8414356957
 40
0.8574828813
 40
0.8734958611
 40
0.8894709055
 40
0.90540463
 40
0.9212940135
 40
0.93713644
 40
0.9529297866
 40
0.9686720809
 40
0.9843627385
 40
1.0
 40
1.0
 40
1.0
 40
1.0
 10
8.2513035309
 20
6.7969244546
 30
0.0
 10
8.2513035309
 20
6.8074945345
 30
0.0
 10
8.2518208376
 20
6.8286029255
 30
0.0
 10
8.2541558602
 20
6.8601325963
 30
0.0
 10
8.25804337
 20
6.8914029303
 30
0.0
 10
8.2625726215
 20
6.9172040355
 30
0.0
 10
8.2669623218
 20
6.9376364981
 30
0.0
 10
8.2718518285
 20
6.9578882782
 30
0.0
 10
8.2789084899
 20
6.9829056637
 30
0.0
 10
8.2888753833
 20
7.0123914769
 30
0.0
 10
8.3003114122
 20
7.0412507629
 30
0.0
 10
8.3131889431
 20
7.0694134449
 30
0.0
 10
8.3274770392
 20
7.096811715
 30
0.0
 10
8.3431413076
 20
7.1233794329
 30
0.0
 10
8.3601439864
 20
7.1490525312
 30
0.0
 10
8.3784440946
 20
7.1737690778
 30
0.0
 10
8.3979975232
 20
7.1974694432
 30
0.0
 10
8.4187571455
 20
7.2200964346
 30
0.0
 10
8.4406729099
 20
7.2415954508
 30
0.0
 10
8.4636919285
 20
7.2619146585
 30
0.0
 10
8.4877586681
 20
7.2810050622
 30
0.0
 10
8.5128150721
 20
7.2988206303
 30
0.0
 10
8.5388007065
 20
7.3153183957
 30
0.0
 10
8.5656528856
 20
7.3304585874
 30
0.0
 10
8.5933068116
 20
7.3442047641
 30
0.0
 10
8.6216957749
 20
7.3565238348
 30
0.0
 10
8.6507513056
 20
7.3673861498
 30
0.0
 10
8.6804033413
 20
7.3767655565
 30
0.0
 10
8.7105803799
 20
7.3846395028
 30
0.0
 10
8.7412096549
 20
7.3909891146
 30
0.0
 10
8.772217332
 20
7.395799171
 30
0.0
 10
8.8035286802
 20
7.3990581547
 30
0.0
 10
8.8350682489
 20
7.4007582616
 30
0.0
 10
8.8667600428
 20
7.4008954715
 30
0.0
 10
8.8985277139
 20
7.3994695642
 30
0.0
 10
8.9302947461
 20
7.3964840552
 30
0.0
 10
8.9619846353
 20
7.3919462031
 30
0.0
 10
8.993521066
 20
7.3858669746
 30
0.0
 10
9.0248281029
 20
7.3782610789
 30
0.0
 10
9.0558303793
 20
7.3691469212
 30
0.0
 10
9.0864532655
 20
7.3585465065
 30
0.0
 10
9.1166230482
 20
7.3464854013
 30
0.0
 10
9.146267096
 20
7.3329926591
 30
0.0
 10
9.1753140596
 20
7.3181008127
 30
0.0
 10
9.2036940409
 20
7.3018457717
 30
0.0
 10
9.2313387399
 20
7.2842666979
 30
0.0
 10
9.2581816211
 20
7.2654059249
 30
0.0
 10
9.2841580608
 20
7.2453088462
 30
0.0
 10
9.3092055455
 20
7.2240238659
 30
0.0
 10
9.333263806
 20
7.2016022476
 30
0.0
 10
9.3562749382
 20
7.1780979679
 30
0.0
 10
9.3781835469
 20
7.1535675974
 30
0.0
 10
9.3989368655
 20
7.1280701597
 30
0.0
 10
9.4184849426
 20
7.1016670386
 30
0.0
 10
9.4367807284
 20
7.0744217941
 30
0.0
 10
9.4537801666
 20
7.0463999983
 30
0.0
 10
9.4694423041
 20
7.0176690862
 30
0.0
 10
9.4837293792
 20
6.9882981928
 30
0.0
 10
9.4966069826
 20
6.9583580215
 30
0.0
 10
9.5080440951
 20
6.9279206421
 30
0.0
 10
9.5180131336
 20
6.897059315
 30
0.0
 10
9.526490034
 20
6.8658483335
 30
0.0
 10
9.5334543277
 20
6.8343627768
 30
0.0
 10
9.5388891004
 20
6.8026786441
 30
0.0
 10
9.5427814729
 20
6.7708716602
 30
0.0
 10
9.5451216104
 20
6.7390197824
 30
0.0
 10
9.5456442148
 20
6.7177677339
 30
0.0
 10
9.5456442148
 20
6.7071616233
 30
0.0
  0
SPLINE
  5
358
100
AcDbEntity
  8
0
100
AcDbSpline
 62
7
  6
CONTINUOUS
 70
0
 71
3
 72
25
 73
21
 74
0
 42
0.0000001
 43
0.0000001
 44
0.0000000001
 40
0.0
 40
0.0
 40
0.0
 40
0.0
 40
0.0637762839
 40
0.1273436975
 40
0.190700085
 40
0.2538536198
 40
0.2853583847
 40
0.3168148883
 40
0.3795831508
 40
0.4421738332
 40
0.5045991695
 40
0.5668730861
 40
0.6290109869
 40
0.6910296434
 40
0.7220023556
 40
0.7529520811
 40
0.814787183
 40
0.8765598236
 40
0.9382904646
 40
1.0
 40
1.0
 40
1.0
 40
1.0
 10
8.3370356609
 20
6.809735338
 30
0.0
 10
8.3370356609
 20
6.8189925638
 30
0.0
 10
8.3374787624
 20
6.8374798181
 30
0.0
 10
8.339478639
 20
6.8650983177
 30
0.0
 10
8.3428084186
 20
6.892497578
 30
0.0
 10
8.3466881585
 20
6.915113287
 30
0.0
 10
8.3504488092
 20
6.933030249
 30
0.0
 10
8.3546380805
 20
6.9507943912
 30
0.0
 10
8.3606848695
 20
6.9727490946
 30
0.0
 10
8.3692270911
 20
6.9986448482
 30
0.0
 10
8.3790308573
 20
7.0240133129
 30
0.0
 10
8.3900736117
 20
7.0487956609
 30
0.0
 10
8.4023297215
 20
7.0729344657
 30
0.0
 10
8.4135363648
 20
7.092477109
 30
0.0
 10
8.4230774076
 20
7.1077308993
 30
0.0
 10
8.4329903055
 20
7.1227137551
 30
0.0
 10
8.4460839103
 20
7.140943686
 30
0.0
 10
8.4628849534
 20
7.1619694051
 30
0.0
 10
8.4807313872
 20
7.1820905415
 30
0.0
 10
8.4933006873
 20
7.1948727684
 30
0.0
 10
8.4997432321
 20
7.2010957627
 30
0.0
  0
SPLINE
  5
359
100
AcDbEntity
  8
0
100
AcDbSpline
 62
7
  6
CONTINUOUS
 70
0
 71
3
 72
43
 73
39
 74
0
 42
0.0000001
 43
0.0000001
 44
0.0000000001
 40
0.0
 40
0.0
 40
0.0
 40
0.0
 40
0.0308442723
 40
0.0618213502
 40
0.09292812
 40
0.1241594861
 40
0.155508461
 40
0.186966297
 40
0.2185226323
 40
0.2501656593
 40
0.2818823084
 40
0.3136584465
 40
0.345479086
 40
0.3773286032
 40
0.4091909633
 40
0.4410499484
 40
0.4728893891
 40
0.5046933936
 40
0.5364465759
 40
0.5681342775
 40
0.5997427825
 40
0.6312595228
 40
0.6626732704
 40
0.6939743152
 40
0.7251546246
 40
0.7562079833
 40
0.7871301089
 40
0.8179187421
 40
0.8332647705
 40
0.8485775404
 40
0.8638573548
 40
0.87910466
 40
0.9095002181
 40
0.9397742188
 40
0.9548701026
 40
0.9699388053
 40
0.9849816306
 40
1.0
 40
1.0
 40
1.0
 40
1.0
 10
8.6243245639
 20
7.0872351255
 30
0.0
 10
8.6243245639
 20
7.0750880466
 30
0.0
 10
8.6250904686
 20
7.0507348645
 30
0.0
 10
8.6285149795
 20
7.014276191
 30
0.0
 10
8.6342039279
 20
6.9779461215
 30
0.0
 10
8.6421347322
 20
6.94188945
 30
0.0
 10
8.6522760131
 20
6.9062474521
 30
0.0
 10
8.6645877205
 20
6.8711603996
 30
0.0
 10
8.6790212945
 20
6.8367661876
 30
0.0
 10
8.6955198571
 20
6.8032000204
 30
0.0
 10
8.7140184367
 20
6.7705938258
 30
0.0
 10
8.7344442236
 20
6.7390757569
 30
0.0
 10
8.7567168545
 20
6.7087696892
 30
0.0
 10
8.780748728
 20
6.6797947382
 30
0.0
 10
8.8064453463
 20
6.6522647956
 30
0.0
 10
8.8337056848
 20
6.6262880845
 30
0.0
 10
8.8624225861
 20
6.6019667373
 30
0.0
 10
8.8924831783
 20
6.5793963971
 30
0.0
 10
8.923769315
 20
6.5586658435
 30
0.0
 10
8.9561580359
 20
6.5398566463
 30
0.0
 10
8.9895220454
 20
6.5230428453
 30
0.0
 10
9.0237302103
 20
6.5082906607
 30
0.0
 10
9.0586480624
 20
6.4956582322
 30
0.0
 10
9.0941383519
 20
6.4851953906
 30
0.0
 10
9.1300614683
 20
6.4769434584
 30
0.0
 10
9.1662764043
 20
6.4709350889
 30
0.0
 10
9.202639746
 20
6.4671941194
 30
0.0
 10
9.2329835762
 20
6.4659772769
 30
0.0
 10
9.2571854698
 20
6.4661517167
 30
0.0
 10
9.2752664937
 20
6.466854053
 30
0.0
 10
9.2932773157
 20
6.4681276971
 30
0.0
 10
9.3171473447
 20
6.4705827069
 30
0.0
 10
9.3467286361
 20
6.4750684099
 30
0.0
 10
9.3759007281
 20
6.4814422236
 30
0.0
 10
9.3988814671
 20
6.487653816
 30
0.0
 10
9.415910599
 20
6.4928591158
 30
0.0
 10
9.4327306639
 20
6.4986100272
 30
0.0
 10
9.4438030453
 20
6.5028073019
 30
0.0
 10
9.4492981639
 20
6.5049948382
 30
0.0
  0
SPLINE
  5
35A
100
AcDbEntity
  8
0
100
AcDbSpline
 62
7
  6
CONTINUOUS
 70
0
 71
3
 72
15
 73
11
 74
0
 42
0.0000001
 43
0.0000001
 44
0.0000000001
 40
0.0
 40
0.0
 40
0.0
 40
0.0
 40
0.1264551771
 40
0.2524731711
 40
0.3780537914
 40
0.5032131073
 40
0.6279649871
 40
0.7523300205
 40
0.8763323181
 40
1.0
 40
1.0
 40
1.0
 40
1.0
 10
8.6243245639
 20
7.0872351255
 30
0.0
 10
8.6243245639
 20
7.0969652324
 30
0.0
 10
8.6248140421
 20
7.1163954541
 30
0.0
 10
8.6270236226
 20
7.1454128466
 30
0.0
 10
8.6307020613
 20
7.1741812065
 30
0.0
 10
8.6358397426
 20
7.202626046
 30
0.0
 10
8.6424238659
 20
7.2306753355
 30
0.0
 10
8.6504377669
 20
7.2582577131
 30
0.0
 10
8.6598607123
 20
7.2853019741
 30
0.0
 10
8.6670762699
 20
7.3029515243
 30
0.0
 10
8.6709099301
 20
7.3116607222
 30
0.0
  0
SPLINE
  5
35B
100
AcDbEntity
  8
0
100
AcDbSpline
 62
7
  6
CONTINUOUS
 70
0
 71
3
 72
72
 73
68
 74
0
 42
0.0000001
 43
0.0000001
 44
0.0000000001
 40
0.0
 40
0.0
 40
0.0
 40
0.0
 40
0.0156372615
 40
0.0313279191
 40
0.0470702134
 40
0.06286356
 40
0.0787059865
 40
0.09459537
 40
0.1105290945
 40
0.1265041389
 40
0.1425171187
 40
0.1585643043
 40
0.1746416622
 40
0.1907448909
 40
0.206869462
 40
0.2230106607
 40
0.2391636259
 40
0.2553233934
 40
0.2714849395
 40
0.2876432263
 40
0.3037932446
 40
0.3199300561
 40
0.3360488372
 40
0.3521449226
 40
0.3682138475
 40
0.3842513862
 40
0.4002535907
 40
0.4162168274
 40
0.4321378144
 40
0.4480136525
 40
0.463841854
 40
0.4796203685
 40
0.4953476069
 40
0.511022462
 40
0.5266443232
 40
0.5422130856
 40
0.5577291565
 40
0.5731934572
 40
0.5886074208
 40
0.6039729818
 40
0.6192925608
 40
0.6345690437
 40
0.6498057581
 40
0.6650064431
 40
0.6801752129
 40
0.6953165153
 40
0.7104350867
 40
0.7255359045
 40
0.7406241355
 40
0.7557050811
 40
0.7707841204
 40
0.7858666522
 40
0.8009580377
 40
0.8160635439
 40
0.8311882882
 40
0.8463371832
 40
0.861514886
 40
0.8767257497
 40
0.8919737803
 40
0.9072626031
 40
0.9225954148
 40
0.9302798053
 40
0.9379761938
 40
0.9534048182
 40
0.9688840574
 40
0.9844158609
 40
1.0
 40
1.0
 40
1.0
 40
1.0
 10
8.2513035309
 20
6.7969244546
 30
0.0
 10
8.2513035309
 20
6.7863183439
 30
0.0
 10
8.2518261353
 20
6.7650662954
 30
0.0
 10
8.2541662728
 20
6.7332144176
 30
0.0
 10
8.2580586453
 20
6.7014074337
 30
0.0
 10
8.263493418
 20
6.669723301
 30
0.0
 10
8.2704577117
 20
6.6382377443
 30
0.0
 10
8.2789346121
 20
6.6070267628
 30
0.0
 10
8.2889036506
 20
6.5761654357
 30
0.0
 10
8.3003407631
 20
6.5457280563
 30
0.0
 10
8.3132183665
 20
6.515787885
 30
0.0
 10
8.3275054416
 20
6.4864169916
 30
0.0
 10
8.3431675791
 20
6.4576860795
 30
0.0
 10
8.3601670172
 20
6.4296642837
 30
0.0
 10
8.3784628031
 20
6.4024190392
 30
0.0
 10
8.3980108802
 20
6.3760159181
 30
0.0
 10
8.4187641988
 20
6.3505184804
 30
0.0
 10
8.4406728075
 20
6.32598811
 30
0.0
 10
8.4636839397
 20
6.3024838302
 30
0.0
 10
8.4877422002
 20
6.2800622119
 30
0.0
 10
8.5127896849
 20
6.2587772316
 30
0.0
 10
8.5387661246
 20
6.238680153
 30
0.0
 10
8.5656090058
 20
6.2198193799
 30
0.0
 10
8.5932537048
 20
6.2022403061
 30
0.0
 10
8.6216336861
 20
6.1859852651
 30
0.0
 10
8.6506806497
 20
6.1710934187
 30
0.0
 10
8.6803246975
 20
6.1576006765
 30
0.0
 10
8.7104944802
 20
6.1455395713
 30
0.0
 10
8.7411173664
 20
6.1349391566
 30
0.0
 10
8.7721196427
 20
6.1258249989
 30
0.0
 10
8.8034266797
 20
6.1182191032
 30
0.0
 10
8.8349631104
 20
6.1121398747
 30
0.0
 10
8.8666529996
 20
6.1076020226
 30
0.0
 10
8.8984200317
 20
6.1046165136
 30
0.0
 10
8.9301877029
 20
6.1031906063
 30
0.0
 10
8.9618794968
 20
6.1033278162
 30
0.0
 10
8.9934190655
 20
6.1050279231
 30
0.0
 10
9.0247304137
 20
6.1082869068
 30
0.0
 10
9.0557380908
 20
6.1130969632
 30
0.0
 10
9.0863673658
 20
6.1194465751
 30
0.0
 10
9.1165444044
 20
6.1273205213
 30
0.0
 10
9.1461964401
 20
6.136699928
 30
0.0
 10
9.1752519708
 20
6.1475622431
 30
0.0
 10
9.2036409341
 20
6.1598813137
 30
0.0
 10
9.2312948601
 20
6.1736274904
 30
0.0
 10
9.2581470391
 20
6.1887676821
 30
0.0
 10
9.2841326736
 20
6.2052654475
 30
0.0
 10
9.3091890776
 20
6.2230810157
 30
0.0
 10
9.3332558172
 20
6.2421714193
 30
0.0
 10
9.3562748358
 20
6.262490627
 30
0.0
 10
9.3781906002
 20
6.2839896433
 30
0.0
 10
9.3989502225
 20
6.3066166346
 30
0.0
 10
9.4185036511
 20
6.330317
 30
0.0
 10
9.4368037593
 20
6.3550335466
 30
0.0
 10
9.453806438
 20
6.3807066449
 30
0.0
 10
9.4694707065
 20
6.4072743629
 30
0.0
 10
9.4837588026
 20
6.4346726329
 30
0.0
 10
9.4966363335
 20
6.4628353149
 30
0.0
 10
9.5080723624
 20
6.4916946009
 30
0.0
 10
9.5180392558
 20
6.5211804142
 30
0.0
 10
9.5250959172
 20
6.5461977996
 30
0.0
 10
9.5299854239
 20
6.5664495797
 30
0.0
 10
9.5343751242
 20
6.5868820423
 30
0.0
 10
9.5389043757
 20
6.6126831475
 30
0.0
 10
9.5427918855
 20
6.6439534815
 30
0.0
 10
9.545126908
 20
6.6754831523
 30
0.0
 10
9.5456442148
 20
6.6965915433
 30
0.0
 10
9.5456442148
 20
6.7071616233
 30
0.0
  0
SPLINE
  5
35C
100
AcDbEntity
  8
0
100
AcDbSpline
 62
7
  6
CONTINUOUS
 70
0
 71
3
 72
48
 73
44
 74
0
 42
0.0000001
 43
0.0000001
 44
0.0000000001
 40
0.0
 40
0.0
 40
0.0
 40
0.0
 40
0.0310737451
 40
0.062304687
 40
0.0936882902
 40
0.1252158164
 40
0.156875936
 40
0.1886544542
 40
0.220534767
 40
0.2524981997
 40
0.2845244035
 40
0.3165917741
 40
0.3486778869
 40
0.3807599447
 40
0.4128152305
 40
0.4448215603
 40
0.4767577265
 40
0.5086039286
 40
0.5403421827
 40
0.5719567054
 40
0.6034342632
 40
0.6347644787
 40
0.6659400873
 40
0.696957137
 40
0.7278151247
 40
0.7431880057
 40
0.7585225445
 40
0.7738196676
 40
0.7890805063
 40
0.8043064092
 40
0.8194989205
 40
0.8346597809
 40
0.8497909192
 40
0.8648944335
 40
0.8799725927
 40
0.8950278114
 40
0.9100626441
 40
0.9250797692
 40
0.9400819681
 40
0.9550721179
 40
0.9700531645
 40
0.9850281112
 40
1.0
 40
1.0
 40
1.0
 40
1.0
 10
8.3370356609
 20
6.809735338
 30
0.0
 10
8.3370356609
 20
6.7953726842
 30
0.0
 10
8.3381070803
 20
6.7665636658
 30
0.0
 10
8.3428907536
 20
6.7234880477
 30
0.0
 10
8.3508280245
 20
6.6806653716
 30
0.0
 10
8.3618750466
 20
6.6383338148
 30
0.0
 10
8.3759706382
 20
6.5967250392
 30
0.0
 10
8.3930371175
 20
6.5560676358
 30
0.0
 10
8.4129804833
 20
6.516584672
 30
0.0
 10
8.4356910056
 20
6.4784928066
 30
0.0
 10
8.4610438434
 20
6.4420010396
 30
0.0
 10
8.4888997216
 20
6.407309605
 30
0.0
 10
8.5191056895
 20
6.3746088798
 30
0.0
 10
8.5514959517
 20
6.344078358
 30
0.0
 10
8.5858927342
 20
6.3158856349
 30
0.0
 10
8.6221072861
 20
6.2901855259
 30
0.0
 10
8.6599409047
 20
6.26711923
 30
0.0
 10
8.699186008
 20
6.2468135596
 30
0.0
 10
8.7396272639
 20
6.2293802555
 30
0.0
 10
8.7810427283
 20
6.2149153478
 30
0.0
 10
8.8232050988
 20
6.2034986137
 30
0.0
 10
8.8658827704
 20
6.1951931553
 30
0.0
 10
8.9088417889
 20
6.1900451154
 30
0.0
 10
8.9518444992
 20
6.1880831172
 30
0.0
 10
8.9875709759
 20
6.1891145093
 30
0.0
 10
9.0159292207
 20
6.1915404721
 30
0.0
 10
9.0370373638
 20
6.1941527183
 30
0.0
 10
9.0579797146
 20
6.1975562805
 30
0.0
 10
9.0787278178
 20
6.2017466448
 30
0.0
 10
9.0992530696
 20
6.2067178574
 30
0.0
 10
9.1195272141
 20
6.2124632923
 30
0.0
 10
9.139522379
 20
6.2189749347
 30
0.0
 10
9.1592110537
 20
6.2262438575
 30
0.0
 10
9.1785661046
 20
6.2342601693
 30
0.0
 10
9.1975609704
 20
6.2430126792
 30
0.0
 10
9.2161694193
 20
6.2524895548
 30
0.0
 10
9.2343659191
 20
6.2626776052
 30
0.0
 10
9.2521253897
 20
6.2735628918
 30
0.0
 10
9.2694233673
 20
6.2851304807
 30
0.0
 10
9.2862361088
 20
6.2973643154
 30
0.0
 10
9.3025404258
 20
6.3102478217
 30
0.0
 10
9.3183137104
 20
6.323762793
 30
0.0
 10
9.3284617653
 20
6.333182524
 30
0.0
 10
9.33343915
 20
6.3379902883
 30
0.0
  0
SPLINE
  5
35D
100
AcDbEntity
  8
0
100
AcDbSpline
 62
7
  6
CONTINUOUS
 70
0
 71
3
 72
53
 73
49
 74
0
 42
0.0000001
 43
0.0000001
 44
0.0000000001
 40
0.0
 40
0.0
 40
0.0
 40
0.0
 40
0.0417737855
 40
0.0840372804
 40
0.1266586658
 40
0.1695068268
 40
0.2124484817
 40
0.2553505161
 40
0.2980797819
 40
0.3405038709
 40
0.3824915641
 40
0.4239133811
 40
0.4646421101
 40
0.5045533515
 40
0.5435260687
 40
0.5814431539
 40
0.6181920188
 40
0.6536652174
 40
0.6877611189
 40
0.7203846489
 40
0.7361168986
 40
0.751448868
 40
0.7663708503
 40
0.7808738904
 40
0.7949495081
 40
0.8085900804
 40
0.821788593
 40
0.8345389529
 40
0.8468359066
 40
0.8586751859
 40
0.8700536732
 40
0.8809693639
 40
0.891421781
 40
0.9014118319
 40
0.9109423967
 40
0.9200182439
 40
0.9286466706
 40
0.9368376675
 40
0.9446045284
 40
0.9519643801
 40
0.9589387458
 40
0.9655544017
 40
0.9718438599
 40
0.9778462342
 40
0.9836073809
 40
0.9891800528
 40
0.994623075
 40
1.0
 40
1.0
 40
1.0
 40
1.0
 10
12.7979456425
 20
6.2366053821
 30
0.0
 10
12.7979456425
 20
6.226699161
 30
0.0
 10
12.7977910854
 20
6.2067702781
 30
0.0
 10
12.7971078687
 20
6.1767412144
 30
0.0
 10
12.7959738482
 20
6.1464707894
 30
0.0
 10
12.7943928112
 20
6.1160594185
 30
0.0
 10
12.792369932
 20
6.0856075406
 30
0.0
 10
12.7899119254
 20
6.0552159786
 30
0.0
 10
12.7870269206
 20
6.0249852518
 30
0.0
 10
12.7837244862
 20
5.9950153801
 30
0.0
 10
12.7800155767
 20
5.9654055041
 30
0.0
 10
12.7759125048
 20
5.9362535686
 30
0.0
 10
12.771428899
 20
5.9076559909
 30
0.0
 10
12.7665796621
 20
5.8797073377
 30
0.0
 10
12.7613809198
 20
5.8525000088
 30
0.0
 10
12.7558499697
 20
5.8261239205
 30
0.0
 10
12.750005222
 20
5.80066622
 30
0.0
 10
12.7438661506
 20
5.7762109168
 30
0.0
 10
12.7374531904
 20
5.7528388364
 30
0.0
 10
12.731832858
 20
5.7341091124
 30
0.0
 10
12.7272064892
 20
5.7197318398
 30
0.0
 10
12.7237236919
 20
5.7093974037
 30
0.0
 10
12.7201887065
 20
5.6993893144
 30
0.0
 10
12.7166045297
 20
5.6897158092
 30
0.0
 10
12.7129740455
 20
5.6803848861
 30
0.0
 10
12.7093003456
 20
5.6714042214
 30
0.0
 10
12.7055864052
 20
5.662781225
 30
0.0
 10
12.7018353392
 20
5.6545229841
 30
0.0
 10
12.698050237
 20
5.6466362853
 30
0.0
 10
12.6942341986
 20
5.6391276081
 30
0.0
 10
12.6903904222
 20
5.6320030807
 30
0.0
 10
12.6865219749
 20
5.625268555
 30
0.0
 10
12.6826321267
 20
5.6189294724
 30
0.0
 10
12.6787239132
 20
5.6129910313
 30
0.0
 10
12.6748006017
 20
5.6074579764
 30
0.0
 10
12.6708652068
 20
5.6023348181
 30
0.0
 10
12.6669208914
 20
5.5976256258
 30
0.0
 10
12.6629706364
 20
5.5933342003
 30
0.0
 10
12.6590173976
 20
5.5894640029
 30
0.0
 10
12.6550640717
 20
5.5860181605
 30
0.0
 10
12.6511133455
 20
5.5829996771
 30
0.0
 10
12.6471679931
 20
5.5804111716
 30
0.0
 10
12.6432305427
 20
5.578255445
 30
0.0
 10
12.6393038044
 20
5.5765349166
 30
0.0
 10
12.6353906984
 20
5.5752523548
 30
0.0
 10
12.6314945304
 20
5.5744100653
 30
0.0
 10
12.6276199805
 20
5.5740102087
 30
0.0
 10
12.6250476143
 20
5.5740396322
 30
0.0
 10
12.6237755881
 20
5.5741278575
 30
0.0
  0
SPLINE
  5
35E
100
AcDbEntity
  8
0
100
AcDbSpline
 62
7
  6
CONTINUOUS
 70
0
 71
3
 72
15
 73
11
 74
0
 42
0.0000001
 43
0.0000001
 44
0.0000000001
 40
0.0
 40
0.0
 40
0.0
 40
0.0
 40
0.1270961475
 40
0.2534980276
 40
0.3792337328
 40
0.5043465358
 40
0.6288974555
 40
0.7529621518
 40
0.8766296839
 40
1.0
 40
1.0
 40
1.0
 40
1.0
 10
9.0636226582
 20
7.1615645253
 30
0.0
 10
9.0636226582
 20
7.1679496371
 30
0.0
 10
9.0641282838
 20
7.1806910046
 30
0.0
 10
9.0664138034
 20
7.1996254858
 30
0.0
 10
9.0702101106
 20
7.218215666
 30
0.0
 10
9.0754935685
 20
7.236342238
 30
0.0
 10
9.0822308796
 20
7.2538905647
 30
0.0
 10
9.0903799182
 20
7.2707495855
 30
0.0
 10
9.0998881456
 20
7.2868109018
 30
0.0
 10
9.1071022308
 20
7.2969313526
 30
0.0
 10
9.1109113585
 20
7.3018206169
 30
0.0
  0
SPLINE
  5
35F
100
AcDbEntity
  8
0
100
AcDbSpline
 62
7
  6
CONTINUOUS
 70
0
 71
3
 72
15
 73
11
 74
0
 42
0.0000001
 43
0.0000001
 44
0.0000000001
 40
0.0
 40
0.0
 40
0.0
 40
0.0
 40
0.1266455811
 40
0.2527856782
 40
0.3784256596
 40
0.5035864036
 40
0.6282904159
 40
0.7525687482
 40
0.8764578499
 40
1.0
 40
1.0
 40
1.0
 40
1.0
 10
8.8026295869
 20
7.1434645623
 30
0.0
 10
8.8026295869
 20
7.1525088152
 30
0.0
 10
8.803153765
 20
7.1705657406
 30
0.0
 10
8.8055209326
 20
7.1975016449
 30
0.0
 10
8.8094598007
 20
7.2241468866
 30
0.0
 10
8.81495691
 20
7.2504099546
 30
0.0
 10
8.8219939442
 20
7.2762023433
 30
0.0
 10
8.8305472676
 20
7.3014369027
 30
0.0
 10
8.8405874879
 20
7.3260270446
 30
0.0
 10
8.8482609191
 20
7.3419585428
 30
0.0
 10
8.8523323914
 20
7.349785536
 30
0.0
  0
SPLINE
  5
360
100
AcDbEntity
  8
0
100
AcDbSpline
 62
7
  6
CONTINUOUS
 70
0
 71
3
 72
43
 73
39
 74
0
 42
0.0000001
 43
0.0000001
 44
0.0000000001
 40
0.0
 40
0.0
 40
0.0
 40
0.0
 40
0.030884901
 40
0.061906898
 40
0.0930625199
 40
0.1243462154
 40
0.1557503142
 40
0.1872652538
 40
0.2188797186
 40
0.2505808442
 40
0.282354426
 40
0.3141851481
 40
0.3460568228
 40
0.3779526407
 40
0.4098554266
 40
0.4417479003
 40
0.4736129373
 40
0.5054338286
 40
0.5371945364
 40
0.5688799415
 40
0.6004760818
 40
0.6319703768
 40
0.6633518367
 40
0.6946112511
 40
0.7257413559
 40
0.7567369738
 40
0.7875951245
 40
0.8183151037
 40
0.8336257475
 40
0.8489026513
 40
0.8641463748
 40
0.87935763
 40
0.9096820246
 40
0.9398884415
 40
0.9549527735
 40
0.9699917194
 40
0.9850068873
 40
1.0
 40
1.0
 40
1.0
 40
1.0
 10
8.8026295869
 20
7.1434645623
 30
0.0
 10
8.8026295869
 20
7.1333580194
 30
0.0
 10
8.8032869258
 20
7.1130941266
 30
0.0
 10
8.8062252826
 20
7.082763379
 30
0.0
 10
8.8111056907
 20
7.0525507263
 30
0.0
 10
8.8179075262
 20
7.022584251
 30
0.0
 10
8.8266021717
 20
6.9929888256
 30
0.0
 10
8.8371530979
 20
6.9638883338
 30
0.0
 10
8.849516045
 20
6.9354044129
 30
0.0
 10
8.8636391956
 20
6.9076561519
 30
0.0
 10
8.8794633978
 20
6.8807595453
 30
0.0
 10
8.8969224098
 20
6.8548270266
 30
0.0
 10
8.9159431766
 20
6.8299669995
 30
0.0
 10
8.9364461339
 20
6.8062833892
 30
0.0
 10
8.9583455383
 20
6.7838752119
 30
0.0
 10
8.9815498237
 20
6.762836164
 30
0.0
 10
9.0059619809
 20
6.7432542332
 30
0.0
 10
9.0314799599
 20
6.7252113334
 30
0.0
 10
9.057997093
 20
6.7087829641
 30
0.0
 10
9.0854025367
 20
6.6940378966
 30
0.0
 10
9.1135817298
 20
6.6810378872
 30
0.0
 10
9.1424168698
 20
6.6698374197
 30
0.0
 10
9.1717873929
 20
6.6604834768
 30
0.0
 10
9.2015704998
 20
6.6530153438
 30
0.0
 10
9.2316415623
 20
6.647464435
 30
0.0
 10
9.2618750145
 20
6.6438541868
 30
0.0
 10
9.2921434816
 20
6.6421998481
 30
0.0
 10
9.3173221149
 20
6.6424576077
 30
0.0
 10
9.3373515679
 20
6.6436478239
 30
0.0
 10
9.3522881373
 20
6.6450289123
 30
0.0
 10
9.3671387506
 20
6.6468980452
 30
0.0
 10
9.3867819388
 20
6.6500345931
 30
0.0
 10
9.4110511041
 20
6.6551619029
 30
0.0
 10
9.43487582
 20
6.6618925175
 30
0.0
 10
9.453574156
 20
6.6682153584
 30
0.0
 10
9.4673947695
 20
6.6734174225
 30
0.0
 10
9.4810085612
 20
6.6790776634
 30
0.0
 10
9.489943866
 20
6.6831557908
 30
0.0
 10
9.4943716678
 20
6.6852690108
 30
0.0
  0
SPLINE
  5
361
100
AcDbEntity
  8
0
100
AcDbSpline
 62
7
  6
CONTINUOUS
 70
0
 71
3
 72
9
 73
5
 74
0
 42
0.0000001
 43
0.0000001
 44
0.0000000001
 40
0.0
 40
0.0
 40
0.0
 40
0.0
 40
0.5046742617
 40
1.0
 40
1.0
 40
1.0
 40
1.0
 10
9.5705593258
 20
8.8066512862
 30
0.0
 10
9.5722235494
 20
8.7991414986
 30
0.0
 10
9.5761733726
 20
8.7843971867
 30
0.0
 10
9.5814529399
 20
8.7700725786
 30
0.0
 10
9.5844000794
 20
8.7631220942
 30
0.0
  0
SPLINE
  5
362
100
AcDbEntity
  8
0
100
AcDbSpline
 62
7
  6
CONTINUOUS
 70
0
 71
3
 72
67
 73
63
 74
0
 42
0.0000001
 43
0.0000001
 44
0.0000000001
 40
0.0
 40
0.0
 40
0.0
 40
0.0
 40
0.0155102973
 40
0.0310607543
 40
0.0466495571
 40
0.062276905
 40
0.0779420574
 40
0.0936439733
 40
0.109381591
 40
0.1251536146
 40
0.1409585646
 40
0.1567948045
 40
0.1726605358
 40
0.1885538142
 40
0.2044725551
 40
0.2204145481
 40
0.2363774695
 40
0.252358889
 40
0.2683562877
 40
0.2843670688
 40
0.3164133635
 40
0.3484806362
 40
0.3805466167
 40
0.41258906
 40
0.4285969778
 40
0.444590906
 40
0.4605682651
 40
0.476526554
 40
0.4924633676
 40
0.5083764071
 40
0.5242634889
 40
0.5401225616
 40
0.5559517135
 40
0.5717491808
 40
0.587513364
 40
0.6032428309
 40
0.6189363257
 40
0.6345927823
 40
0.6502113235
 40
0.6657912703
 40
0.6813321506
 40
0.6968336958
 40
0.7122958486
 40
0.7277187667
 40
0.7431028167
 40
0.7584485801
 40
0.7737568512
 40
0.7890286282
 40
0.8042651167
 40
0.8194677218
 40
0.8346380374
 40
0.8497778448
 40
0.8648891009
 40
0.8799739246
 40
0.8950345915
 40
0.9100735183
 40
0.9250932468
 40
0.9400964347
 40
0.9550858371
 40
0.9700642892
 40
0.9850346934
 40
1.0
 40
1.0
 40
1.0
 40
1.0
 10
8.1624383146
 20
9.1580145473
 30
0.0
 10
8.1624383146
 20
9.1467814271
 30
0.0
 10
8.1628515575
 20
9.1242839559
 30
0.0
 10
8.1647042999
 20
9.0905423919
 30
0.0
 10
8.1677886183
 20
9.0568055046
 30
0.0
 10
8.1721001522
 20
9.023119842
 30
0.0
 10
8.1776330128
 20
8.9895301085
 30
0.0
 10
8.1843798428
 20
8.9560815999
 30
0.0
 10
8.1923315708
 20
8.9228193496
 30
0.0
 10
8.2014773656
 20
8.8897880316
 30
0.0
 10
8.2118049856
 20
8.8570320848
 30
0.0
 10
8.2233005646
 20
8.8245955791
 30
0.0
 10
8.2359485106
 20
8.7925220862
 30
0.0
 10
8.2497318888
 20
8.7608547669
 30
0.0
 10
8.264632165
 20
8.7296362108
 30
0.0
 10
8.2806291841
 20
8.6989083527
 30
0.0
 10
8.2977015481
 20
8.6687125301
 30
0.0
 10
8.3158261825
 20
8.6390894489
 30
0.0
 10
8.3349789669
 20
8.6100784801
 30
0.0
 10
8.3618572441
 20
8.5722586782
 30
0.0
 10
8.397893072
 20
8.5267116628
 30
0.0
 10
8.4447853571
 20
8.475130495
 30
0.0
 10
8.4950923152
 20
8.4268777796
 30
0.0
 10
8.5396554698
 20
8.38964116
 30
0.0
 10
8.576738039
 20
8.3617668296
 30
0.0
 10
8.6052211866
 20
8.3418506881
 30
0.0
 10
8.6343427879
 20
8.3229469762
 30
0.0
 10
8.6640641409
 20
8.3050808641
 30
0.0
 10
8.694345107
 20
8.2882763677
 30
0.0
 10
8.7251450244
 20
8.2725561059
 30
0.0
 10
8.7564225048
 20
8.2579413107
 30
0.0
 10
8.7881354373
 20
8.2444515277
 30
0.0
 10
8.82024121
 20
8.2321049756
 30
0.0
 10
8.8526966651
 20
8.2209183233
 30
0.0
 10
8.885458119
 20
8.210906513
 30
0.0
 10
8.9184815461
 20
8.2020831163
 30
0.0
 10
8.9517225364
 20
8.1944600383
 30
0.0
 10
8.9851363624
 20
8.1880474412
 30
0.0
 10
9.0186781091
 20
8.1828540827
 30
0.0
 10
9.0523026563
 20
8.1788869554
 30
0.0
 10
9.0859647697
 20
8.1761513239
 30
0.0
 10
9.1196191814
 20
8.1746510199
 30
0.0
 10
9.1532206127
 20
8.1743880364
 30
0.0
 10
9.1867238641
 20
8.1753626801
 30
0.0
 10
9.2200838579
 20
8.1775738018
 30
0.0
 10
9.2532557106
 20
8.1810183707
 30
0.0
 10
9.2861947983
 20
8.185691733
 30
0.0
 10
9.3188567765
 20
8.191587762
 30
0.0
 10
9.3511977065
 20
8.1986984416
 30
0.0
 10
9.3831740727
 20
8.2070142135
 30
0.0
 10
9.4147428028
 20
8.2165240347
 30
0.0
 10
9.4458614397
 20
8.2272150062
 30
0.0
 10
9.4764880961
 20
8.2390727774
 30
0.0
 10
9.5065815004
 20
8.2520815109
 30
0.0
 10
9.5361011932
 20
8.2662235878
 30
0.0
 10
9.5650074191
 20
8.2814800336
 30
0.0
 10
9.5932612144
 20
8.2978303974
 30
0.0
 10
9.620824618
 20
8.3152525702
 30
0.0
 10
9.6476604495
 20
8.333723142
 30
0.0
 10
9.6737326697
 20
8.3532174208
 30
0.0
 10
9.6990057814
 20
8.3737086039
 30
0.0
 10
9.7153019328
 20
8.3880182916
 30
0.0
 10
9.7233040174
 20
8.395328418
 30
0.0
  0
SPLINE
  5
363
100
AcDbEntity
  8
0
100
AcDbSpline
 62
7
  6
CONTINUOUS
 70
0
 71
3
 72
27
 73
23
 74
0
 42
0.0000001
 43
0.0000001
 44
0.0000000001
 40
0.0
 40
0.0
 40
0.0
 40
0.0
 40
0.0637515296
 40
0.0955539443
 40
0.1273044473
 40
0.1906499143
 40
0.2537986266
 40
0.2853029921
 40
0.3167604723
 40
0.3795346017
 40
0.4421349824
 40
0.5045727299
 40
0.5668604558
 40
0.6290121498
 40
0.6910430695
 40
0.7220206684
 40
0.7529743062
 40
0.8148138167
 40
0.8765844995
 40
0.907452276
 40
0.9383099559
 40
1.0
 40
1.0
 40
1.0
 40
1.0
 10
8.1624383146
 20
9.1580145473
 30
0.0
 10
8.1624383146
 20
9.1721770955
 30
0.0
 10
8.162930039
 20
9.1934090263
 30
0.0
 10
8.1645748916
 20
9.2216439765
 30
0.0
 10
8.1668730497
 20
9.2497432714
 30
0.0
 10
8.1709717824
 20
9.2846717782
 30
0.0
 10
8.1767078459
 20
9.3193138551
 30
0.0
 10
8.1822686171
 20
9.3467745752
 30
0.0
 10
8.1884642811
 20
9.3740136463
 30
0.0
 10
8.1974085216
 20
9.4077016178
 30
0.0
 10
8.210047741
 20
9.4474806878
 30
0.0
 10
8.2245587749
 20
9.4865010923
 30
0.0
 10
8.2409104165
 20
9.5246784044
 30
0.0
 10
8.2590672493
 20
9.5619300391
 30
0.0
 10
8.2756781576
 20
9.5921499766
 30
0.0
 10
8.2898269353
 20
9.6157786054
 30
0.0
 10
8.3045310826
 20
9.6390154284
 30
0.0
 10
8.32396195
 20
9.6673433809
 30
0.0
 10
8.344759771
 20
9.6946595413
 30
0.0
 10
8.3621814342
 20
9.7158563294
 30
0.0
 10
8.3801117351
 20
9.7366001844
 30
0.0
 10
8.3941340017
 20
9.7516512763
 30
0.0
 10
8.4037222331
 20
9.7614431838
 30
0.0
  0
SPLINE
  5
364
100
AcDbEntity
  8
0
100
AcDbSpline
 62
7
  6
CONTINUOUS
 70
0
 71
3
 72
72
 73
68
 74
0
 42
0.0000001
 43
0.0000001
 44
0.0000000001
 40
0.0
 40
0.0
 40
0.0
 40
0.0
 40
0.0155841391
 40
0.0311159426
 40
0.0465951818
 40
0.0620238062
 40
0.0697201947
 40
0.0774045852
 40
0.0927373969
 40
0.1080262197
 40
0.1232742503
 40
0.138485114
 40
0.1536628168
 40
0.1688117118
 40
0.1839364561
 40
0.1990419623
 40
0.2141333478
 40
0.2292158796
 40
0.2442949189
 40
0.2593758645
 40
0.2744640955
 40
0.2895649133
 40
0.3046834847
 40
0.3198247871
 40
0.3349935569
 40
0.3501942419
 40
0.3654309563
 40
0.3807074392
 40
0.3960270182
 40
0.4113925792
 40
0.4268065428
 40
0.4422708435
 40
0.4577869144
 40
0.4733556768
 40
0.488977538
 40
0.5046523931
 40
0.5203796315
 40
0.536158146
 40
0.5519863475
 40
0.5678621856
 40
0.5837831726
 40
0.5997464093
 40
0.6157486138
 40
0.6317861525
 40
0.6478550774
 40
0.6639511628
 40
0.6800699439
 40
0.6962067554
 40
0.7123567737
 40
0.7285150605
 40
0.7446766066
 40
0.7608363741
 40
0.7769893393
 40
0.793130538
 40
0.8092551091
 40
0.8253583378
 40
0.8414356957
 40
0.8574828813
 40
0.8734958611
 40
0.8894709055
 40
0.90540463
 40
0.9212940135
 40
0.93713644
 40
0.9529297866
 40
0.9686720809
 40
0.9843627385
 40
1.0
 40
1.0
 40
1.0
 40
1.0
 10
8.432897562
 20
9.1392581348
 30
0.0
 10
8.432897562
 20
9.1498282147
 30
0.0
 10
8.4334148687
 20
9.1709366057
 30
0.0
 10
8.4357498913
 20
9.2024662765
 30
0.0
 10
8.4396374011
 20
9.2337366105
 30
0.0
 10
8.4441666526
 20
9.2595377157
 30
0.0
 10
8.4485563529
 20
9.2799701783
 30
0.0
 10
8.4534458596
 20
9.3002219584
 30
0.0
 10
8.460502521
 20
9.3252393438
 30
0.0
 10
8.4704694144
 20
9.3547251571
 30
0.0
 10
8.4819054433
 20
9.3835844431
 30
0.0
 10
8.4947829742
 20
9.4117471251
 30
0.0
 10
8.5090710703
 20
9.4391453952
 30
0.0
 10
8.5247353387
 20
9.4657131131
 30
0.0
 10
8.5417380175
 20
9.4913862114
 30
0.0
 10
8.5600381257
 20
9.516102758
 30
0.0
 10
8.5795915543
 20
9.5398031234
 30
0.0
 10
8.6003511766
 20
9.5624301148
 30
0.0
 10
8.622266941
 20
9.583929131
 30
0.0
 10
8.6452859596
 20
9.6042483387
 30
0.0
 10
8.6693526992
 20
9.6233387423
 30
0.0
 10
8.6944091032
 20
9.6411543105
 30
0.0
 10
8.7203947376
 20
9.6576520759
 30
0.0
 10
8.7472469167
 20
9.6727922676
 30
0.0
 10
8.7749008427
 20
9.6865384443
 30
0.0
 10
8.803289806
 20
9.6988575149
 30
0.0
 10
8.8323453367
 20
9.70971983
 30
0.0
 10
8.8619973724
 20
9.7190992367
 30
0.0
 10
8.892174411
 20
9.726973183
 30
0.0
 10
8.922803686
 20
9.7333227948
 30
0.0
 10
8.9538113631
 20
9.7381328512
 30
0.0
 10
8.9851227113
 20
9.7413918349
 30
0.0
 10
9.01666228
 20
9.7430919418
 30
0.0
 10
9.0483540739
 20
9.7432291517
 30
0.0
 10
9.080121745
 20
9.7418032444
 30
0.0
 10
9.1118887772
 20
9.7388177354
 30
0.0
 10
9.1435786664
 20
9.7342798833
 30
0.0
 10
9.1751150971
 20
9.7282006548
 30
0.0
 10
9.206422134
 20
9.7205947591
 30
0.0
 10
9.2374244104
 20
9.7114806014
 30
0.0
 10
9.2680472966
 20
9.7008801867
 30
0.0
 10
9.2982170793
 20
9.6888190815
 30
0.0
 10
9.3278611271
 20
9.6753263393
 30
0.0
 10
9.3569080907
 20
9.6604344929
 30
0.0
 10
9.385288072
 20
9.6441794519
 30
0.0
 10
9.412932771
 20
9.6266003781
 30
0.0
 10
9.4397756522
 20
9.607739605
 30
0.0
 10
9.4657520919
 20
9.5876425264
 30
0.0
 10
9.4907995766
 20
9.5663575461
 30
0.0
 10
9.5148578371
 20
9.5439359278
 30
0.0
 10
9.5378689693
 20
9.5204316481
 30
0.0
 10
9.559777578
 20
9.4959012776
 30
0.0
 10
9.5805308966
 20
9.4704038399
 30
0.0
 10
9.6000789737
 20
9.4440007188
 30
0.0
 10
9.6183747595
 20
9.4167554743
 30
0.0
 10
9.6353741977
 20
9.3887336785
 30
0.0
 10
9.6510363352
 20
9.3600027664
 30
0.0
 10
9.6653234103
 20
9.330631873
 30
0.0
 10
9.6782010137
 20
9.3006917017
 30
0.0
 10
9.6896381262
 20
9.2702543223
 30
0.0
 10
9.6996071646
 20
9.2393929952
 30
0.0
 10
9.7080840651
 20
9.2081820137
 30
0.0
 10
9.7150483588
 20
9.176696457
 30
0.0
 10
9.7204831315
 20
9.1450123243
 30
0.0
 10
9.724375504
 20
9.1132053404
 30
0.0
 10
9.7267156415
 20
9.0813534626
 30
0.0
 10
9.7272382459
 20
9.0601014141
 30
0.0
 10
9.7272382459
 20
9.0494953034
 30
0.0
  0
SPLINE
  5
365
100
AcDbEntity
  8
0
100
AcDbSpline
 62
7
  6
CONTINUOUS
 70
0
 71
3
 72
25
 73
21
 74
0
 42
0.0000001
 43
0.0000001
 44
0.0000000001
 40
0.0
 40
0.0
 40
0.0
 40
0.0
 40
0.0637762839
 40
0.1273436975
 40
0.190700085
 40
0.2538536198
 40
0.2853583847
 40
0.3168148883
 40
0.3795831508
 40
0.4421738332
 40
0.5045991695
 40
0.5668730861
 40
0.6290109869
 40
0.6910296434
 40
0.7220023556
 40
0.7529520811
 40
0.814787183
 40
0.8765598236
 40
0.9382904646
 40
1.0
 40
1.0
 40
1.0
 40
1.0
 10
8.518629692
 20
9.1520690182
 30
0.0
 10
8.518629692
 20
9.161326244
 30
0.0
 10
8.5190727935
 20
9.1798134983
 30
0.0
 10
8.5210726701
 20
9.2074319979
 30
0.0
 10
8.5244024497
 20
9.2348312582
 30
0.0
 10
8.5282821896
 20
9.2574469672
 30
0.0
 10
8.5320428403
 20
9.2753639292
 30
0.0
 10
8.5362321116
 20
9.2931280714
 30
0.0
 10
8.5422789006
 20
9.3150827748
 30
0.0
 10
8.5508211222
 20
9.3409785284
 30
0.0
 10
8.5606248884
 20
9.366346993
 30
0.0
 10
8.5716676428
 20
9.3911293411
 30
0.0
 10
8.5839237526
 20
9.4152681458
 30
0.0
 10
8.5951303959
 20
9.4348107891
 30
0.0
 10
8.6046714387
 20
9.4500645795
 30
0.0
 10
8.6145843366
 20
9.4650474353
 30
0.0
 10
8.6276779414
 20
9.4832773662
 30
0.0
 10
8.6444789844
 20
9.5043030853
 30
0.0
 10
8.6623254183
 20
9.5244242216
 30
0.0
 10
8.6748947184
 20
9.5372064486
 30
0.0
 10
8.6813372632
 20
9.5434294429
 30
0.0
  0
SPLINE
  5
366
100
AcDbEntity
  8
0
100
AcDbSpline
 62
7
  6
CONTINUOUS
 70
0
 71
3
 72
54
 73
50
 74
0
 42
0.0000001
 43
0.0000001
 44
0.0000000001
 40
0.0
 40
0.0
 40
0.0
 40
0.0
 40
0.015148381
 40
0.0303313337
 40
0.0455484925
 40
0.0608020089
 40
0.0760932745
 40
0.0914230669
 40
0.1067921589
 40
0.1222011186
 40
0.1376502321
 40
0.1531395697
 40
0.168668987
 40
0.1842381034
 40
0.1998463266
 40
0.2154928457
 40
0.23117664
 40
0.2468964922
 40
0.2784333858
 40
0.3100952364
 40
0.3418659184
 40
0.3737270343
 40
0.4056583173
 40
0.4376380602
 40
0.4696435662
 40
0.5016516135
 40
0.5336389292
 40
0.5655826624
 40
0.5974608508
 40
0.6292528755
 40
0.6609398972
 40
0.6925052638
 40
0.7239348826
 40
0.7552175507
 40
0.786345236
 40
0.8018520728
 40
0.8173187178
 40
0.8327451509
 40
0.8481315711
 40
0.8634784096
 40
0.8787863264
 40
0.8940562039
 40
0.9092891388
 40
0.9244864497
 40
0.9396497254
 40
0.954780617
 40
0.9698808899
 40
0.9849533078
 40
1.0
 40
1.0
 40
1.0
 40
1.0
 10
8.8778165941
 20
9.6070195301
 30
0.0
 10
8.8756058779
 20
9.6007452776
 30
0.0
 10
8.8714254054
 20
9.5880942339
 30
0.0
 10
8.8658934885
 20
9.5688670363
 30
0.0
 10
8.8611013133
 20
9.5493944055
 30
0.0
 10
8.8570557442
 20
9.5297046467
 30
0.0
 10
8.8537621826
 20
9.5098251062
 30
0.0
 10
8.8512255133
 20
9.4897837665
 30
0.0
 10
8.8494491213
 20
9.4696089369
 30
0.0
 10
8.8484355488
 20
9.4493290027
 30
0.0
 10
8.8481862523
 20
9.4289725158
 30
0.0
 10
8.8487014355
 20
9.4085681439
 30
0.0
 10
8.8499805286
 20
9.3881446203
 30
0.0
 10
8.8520215688
 20
9.3677306972
 30
0.0
 10
8.8548217282
 20
9.3473550921
 30
0.0
 10
8.8583770764
 20
9.3270465886
 30
0.0
 10
8.8626825683
 20
9.3068334203
 30
0.0
 10
8.8694217139
 20
9.2800224099
 30
0.0
 10
8.8796944945
 20
9.246888813
 30
0.0
 10
8.8948850963
 20
9.2080111109
 30
0.0
 10
8.9128681258
 20
9.170185041
 30
0.0
 10
8.9335419083
 20
9.1336245415
 30
0.0
 10
8.9567901416
 20
9.0985346176
 30
0.0
 10
8.982482019
 20
9.0651125065
 30
0.0
 10
9.0104731063
 20
9.0335459759
 30
0.0
 10
9.040606059
 20
9.0040124062
 30
0.0
 10
9.0727115334
 20
8.9766777693
 30
0.0
 10
9.1066091497
 20
8.9516957451
 30
0.0
 10
9.1421084867
 20
8.9292068576
 30
0.0
 10
9.1790101275
 20
8.9093377036
 30
0.0
 10
9.2171067778
 20
8.8922001761
 30
0.0
 10
9.2561842707
 20
8.8778908927
 30
0.0
 10
9.2960234194
 20
8.8664906321
 30
0.0
 10
9.3363987571
 20
8.8580639953
 30
0.0
 10
9.3703516129
 20
8.8535535907
 30
0.0
 10
9.3975491175
 20
8.8514776278
 30
0.0
 10
9.4179150717
 20
8.850687519
 30
0.0
 10
9.4382432108
 20
8.8506636414
 30
0.0
 10
9.4585052634
 20
8.8514061611
 30
0.0
 10
9.4786726044
 20
8.8529139145
 30
0.0
 10
9.4987168597
 20
8.8551848521
 30
0.0
 10
9.5186097779
 20
8.8582158496
 30
0.0
 10
9.5383233633
 20
8.8620025065
 30
0.0
 10
9.5578298337
 20
8.8665396797
 30
0.0
 10
9.5771017246
 20
8.8718208919
 30
0.0
 10
9.5961117812
 20
8.8778386909
 30
0.0
 10
9.6148334837
 20
8.8845847325
 30
0.0
 10
9.6332402174
 20
8.8920494157
 30
0.0
 10
9.6452947582
 20
8.8975029164
 30
0.0
 10
9.6512597541
 20
8.9003454848
 30
0.0
  0
SPLINE
  5
367
100
AcDbEntity
  8
0
100
AcDbSpline
 62
7
  6
CONTINUOUS
 70
0
 71
3
 72
43
 73
39
 74
0
 42
0.0000001
 43
0.0000001
 44
0.0000000001
 40
0.0
 40
0.0
 40
0.0
 40
0.0
 40
0.0308445704
 40
0.0618219369
 40
0.0929290612
 40
0.1241607915
 40
0.1555101575
 40
0.1869683977
 40
0.218525146
 40
0.2501685863
 40
0.2818856412
 40
0.3136621687
 40
0.3454831726
 40
0.3773330205
 40
0.4091956689
 40
0.4410548925
 40
0.4728945143
 40
0.5046986366
 40
0.5364518681
 40
0.5681395467
 40
0.5997479544
 40
0.6312645223
 40
0.6626780237
 40
0.6939787514
 40
0.725158678
 40
0.756211595
 40
0.7871332287
 40
0.817921331
 40
0.833267087
 40
0.8485795733
 40
0.863859107
 40
0.8791061284
 40
0.9095011047
 40
0.9397746075
 40
0.9548702263
 40
0.9699384822
 40
0.984981113
 40
1.0
 40
1.0
 40
1.0
 40
1.0
 10
8.805918595
 20
9.4295688056
 30
0.0
 10
8.805918595
 20
9.417418884
 30
0.0
 10
8.8066848554
 20
9.3930600034
 30
0.0
 10
8.8101109688
 20
9.3565928453
 30
0.0
 10
8.8158025542
 20
9.320254425
 30
0.0
 10
8.8237370324
 20
9.2841896218
 30
0.0
 10
8.8338829782
 20
9.2485398214
 30
0.0
 10
8.8462003136
 20
9.2134453868
 30
0.0
 10
8.8606404295
 20
9.1790443075
 30
0.0
 10
8.8771463975
 20
9.1454718777
 30
0.0
 10
8.8956531859
 20
9.1128601111
 30
0.0
 10
8.9160879188
 20
9.0813372425
 30
0.0
 10
8.9383701606
 20
9.0510272236
 30
0.0
 10
8.9624122312
 20
9.0220492412
 30
0.0
 10
8.9881195487
 20
8.9945172517
 30
0.0
 10
9.0153909994
 20
8.9685395369
 30
0.0
 10
9.0441193325
 20
8.9442182805
 30
0.0
 10
9.0741915785
 20
8.92164917
 30
0.0
 10
9.1054894902
 20
8.9009210215
 30
0.0
 10
9.1378900039
 20
8.8821154335
 30
0.0
 10
9.1712657183
 20
8.8653064662
 30
0.0
 10
9.2054853932
 20
8.8505603517
 30
0.0
 10
9.2404144523
 20
8.8379352333
 30
0.0
 10
9.275915538
 20
8.8274809365
 30
0.0
 10
9.3118489321
 20
8.8192387681
 30
0.0
 10
9.348073521
 20
8.8132413652
 30
0.0
 10
9.3844457861
 20
8.8095125085
 30
0.0
 10
9.4147963773
 20
8.8083067691
 30
0.0
 10
9.4390032073
 20
8.8084904997
 30
0.0
 10
9.4570876775
 20
8.8092002177
 30
0.0
 10
9.475101699
 20
8.8104813159
 30
0.0
 10
9.4989756088
 20
8.8129468066
 30
0.0
 10
9.5285611087
 20
8.8174460069
 30
0.0
 10
9.5577363754
 20
8.8238342355
 30
0.0
 10
9.5807189805
 20
8.8300575669
 30
0.0
 10
9.5977491298
 20
8.8352719821
 30
0.0
 10
9.6145702061
 20
8.8410321137
 30
0.0
 10
9.6256431018
 20
8.8452358891
 30
0.0
 10
9.6311385574
 20
8.8474267163
 30
0.0
  0
SPLINE
  5
368
100
AcDbEntity
  8
0
100
AcDbSpline
 62
7
  6
CONTINUOUS
 70
0
 71
3
 72
15
 73
11
 74
0
 42
0.0000001
 43
0.0000001
 44
0.0000000001
 40
0.0
 40
0.0
 40
0.0
 40
0.0
 40
0.1264549798
 40
0.2524733753
 40
0.3780538663
 40
0.5032132079
 40
0.6279650905
 40
0.7523300863
 40
0.8763323562
 40
1.0
 40
1.0
 40
1.0
 40
1.0
 10
8.805918595
 20
9.4295688056
 30
0.0
 10
8.805918595
 20
9.4392992775
 30
0.0
 10
8.8064081201
 20
9.458730274
 30
0.0
 10
8.8086178623
 20
9.4877488012
 30
0.0
 10
8.8122966014
 20
9.5165182893
 30
0.0
 10
8.8174346766
 20
9.5449641982
 30
0.0
 10
8.8240193161
 20
9.5730145234
 30
0.0
 10
8.8320338557
 20
9.6005978804
 30
0.0
 10
8.8414575412
 20
9.6276430601
 30
0.0
 10
8.8486736304
 20
9.6452931939
 30
0.0
 10
8.8525075976
 20
9.6540026596
 30
0.0
  0
SPLINE
  5
369
100
AcDbEntity
  8
0
100
AcDbSpline
 62
7
  6
CONTINUOUS
 70
0
 71
3
 72
75
 73
71
 74
0
 42
0.0000001
 43
0.0000001
 44
0.0000000001
 40
0.0
 40
0.0
 40
0.0
 40
0.0
 40
0.0155842192
 40
0.0233572755
 40
0.0311169608
 40
0.046596236
 40
0.0620247854
 40
0.0697211414
 40
0.0774055104
 40
0.0927382729
 40
0.1080270414
 40
0.123275021
 40
0.1384858323
 40
0.1536634824
 40
0.1688123253
 40
0.1839370178
 40
0.1990424723
 40
0.2141338055
 40
0.2292162847
 40
0.2442952718
 40
0.2593761658
 40
0.2744643456
 40
0.2895651118
 40
0.304683631
 40
0.3198248809
 40
0.3349935985
 40
0.3501942316
 40
0.3654308936
 40
0.3807073232
 40
0.3960268487
 40
0.4113923571
 40
0.4268062686
 40
0.4422705168
 40
0.4577865339
 40
0.4733552422
 40
0.4889770495
 40
0.5046518511
 40
0.5203790354
 40
0.5361574949
 40
0.5519856415
 40
0.5678614254
 40
0.5837823585
 40
0.5997455407
 40
0.6157476895
 40
0.6317851725
 40
0.6478540421
 40
0.6639500724
 40
0.6800687979
 40
0.6962055534
 40
0.7123555163
 40
0.7285137483
 40
0.7446752392
 40
0.7608349505
 40
0.7769878595
 40
0.7931290025
 40
0.8092535185
 40
0.8253566919
 40
0.8414339942
 40
0.8574811246
 40
0.8654926466
 40
0.8734951387
 40
0.8894701295
 40
0.9054037966
 40
0.9212931282
 40
0.9371354993
 40
0.9529287706
 40
0.9686711003
 40
0.9765233353
 40
0.9843626592
 40
1.0
 40
1.0
 40
1.0
 40
1.0
 10
10.093180445
 20
7.1350040649
 30
0.0
 10
10.093180445
 20
7.1497391992
 30
0.0
 10
10.093721825
 20
7.171829024
 30
0.0
 10
10.0955332171
 20
7.2011969655
 30
0.0
 10
10.0980635871
 20
7.2304127037
 30
0.0
 10
10.1025759352
 20
7.2667101142
 30
0.0
 10
10.1088899477
 20
7.3026773661
 30
0.0
 10
10.1150092104
 20
7.3311608717
 30
0.0
 10
10.121825454
 20
7.3593924224
 30
0.0
 10
10.131662567
 20
7.3942674385
 30
0.0
 10
10.1455567143
 20
7.435371549
 30
0.0
 10
10.1614988683
 20
7.4756022621
 30
0.0
 10
10.1794505521
 20
7.5148618761
 30
0.0
 10
10.1993686021
 20
7.5530558749
 30
0.0
 10
10.2212050454
 20
7.5900920778
 30
0.0
 10
10.2449072798
 20
7.6258811519
 30
0.0
 10
10.2704181864
 20
7.6603367523
 30
0.0
 10
10.2976762711
 20
7.6933757537
 30
0.0
 10
10.326615812
 20
7.7249184487
 30
0.0
 10
10.357167019
 20
7.7548887443
 30
0.0
 10
10.3892562042
 20
7.7832143473
 30
0.0
 10
10.4228059614
 20
7.809826942
 30
0.0
 10
10.4577353558
 20
7.8346623547
 30
0.0
 10
10.4939601164
 20
7.8576607187
 30
0.0
 10
10.5313928473
 20
7.8787666161
 30
0.0
 10
10.5699432438
 20
7.8979292067
 30
0.0
 10
10.609518313
 20
7.9151023511
 30
0.0
 10
10.6500226006
 20
7.9302447206
 30
0.0
 10
10.6913584238
 20
7.9433198942
 30
0.0
 10
10.7334261087
 20
7.9542964451
 30
0.0
 10
10.7761242316
 20
7.9631480134
 30
0.0
 10
10.8193498655
 20
7.9698533659
 30
0.0
 10
10.8629988268
 20
7.9743964531
 30
0.0
 10
10.9069659291
 20
7.9767664435
 30
0.0
 10
10.9511452373
 20
7.9769577397
 30
0.0
 10
10.9954303221
 20
7.9749699914
 30
0.0
 10
11.0397145155
 20
7.9708080932
 30
0.0
 10
11.0838911661
 20
7.9644821705
 30
0.0
 10
11.1278538946
 20
7.9560075538
 30
0.0
 10
11.1714968483
 20
7.9454047399
 30
0.0
 10
11.2147149537
 20
7.9326993407
 30
0.0
 10
11.2574041693
 20
7.9179220265
 30
0.0
 10
11.2994617372
 20
7.9011084531
 30
0.0
 10
11.3407864256
 20
7.8822991668
 30
0.0
 10
11.3812787719
 20
7.8615395082
 30
0.0
 10
11.42084132
 20
7.8388795025
 30
0.0
 10
11.4593788532
 20
7.8143737395
 30
0.0
 10
11.4967986219
 20
7.7880812423
 30
0.0
 10
11.5330105654
 20
7.7600653264
 30
0.0
 10
11.5679275265
 20
7.7303934465
 30
0.0
 10
11.6014654632
 20
7.6991370387
 30
0.0
 10
11.6335436543
 20
7.6663713525
 30
0.0
 10
11.6640848866
 20
7.6321752611
 30
0.0
 10
11.6930156391
 20
7.5966310789
 30
0.0
 10
11.7202662664
 20
7.5598243459
 30
0.0
 10
11.7457711358
 20
7.5218436894
 30
0.0
 10
11.7694688963
 20
7.4827803672
 30
0.0
 10
11.7913022078
 20
7.4427289597
 30
0.0
 10
11.8079087896
 20
7.4085896766
 30
0.0
 10
11.8202099954
 20
7.3808807701
 30
0.0
 10
11.8318355121
 20
7.3529555421
 30
0.0
 10
11.8451145267
 20
7.3176163992
 30
0.0
 10
11.8590115039
 20
7.2745951248
 30
0.0
 10
11.8708285628
 20
7.2310860047
 30
0.0
 10
11.8805370015
 20
7.1871941539
 30
0.0
 10
11.888113284
 20
7.1430257947
 30
0.0
 10
11.892638808
 20
7.1060441353
 30
0.0
 10
11.895174569
 20
7.0764285975
 30
0.0
 10
11.8969840964
 20
7.0468598682
 30
0.0
 10
11.8975300857
 20
7.024657354
 30
0.0
 10
11.8975300857
 20
7.0098719923
 30
0.0
  0
SPLINE
  5
36A
100
AcDbEntity
  8
0
100
AcDbSpline
 62
7
  6
CONTINUOUS
 70
0
 71
3
 72
72
 73
68
 74
0
 42
0.0000001
 43
0.0000001
 44
0.0000000001
 40
0.0
 40
0.0
 40
0.0
 40
0.0
 40
0.0156372615
 40
0.0313279191
 40
0.0470702134
 40
0.06286356
 40
0.0787059865
 40
0.09459537
 40
0.1105290945
 40
0.1265041389
 40
0.1425171187
 40
0.1585643043
 40
0.1746416622
 40
0.1907448909
 40
0.206869462
 40
0.2230106607
 40
0.2391636259
 40
0.2553233934
 40
0.2714849395
 40
0.2876432263
 40
0.3037932446
 40
0.3199300561
 40
0.3360488372
 40
0.3521449226
 40
0.3682138475
 40
0.3842513862
 40
0.4002535907
 40
0.4162168274
 40
0.4321378144
 40
0.4480136525
 40
0.463841854
 40
0.4796203685
 40
0.4953476069
 40
0.511022462
 40
0.5266443232
 40
0.5422130856
 40
0.5577291565
 40
0.5731934572
 40
0.5886074208
 40
0.6039729818
 40
0.6192925608
 40
0.6345690437
 40
0.6498057581
 40
0.6650064431
 40
0.6801752129
 40
0.6953165153
 40
0.7104350867
 40
0.7255359045
 40
0.7406241355
 40
0.7557050811
 40
0.7707841204
 40
0.7858666522
 40
0.8009580377
 40
0.8160635439
 40
0.8311882882
 40
0.8463371832
 40
0.861514886
 40
0.8767257497
 40
0.8919737803
 40
0.9072626031
 40
0.9225954148
 40
0.9302798053
 40
0.9379761938
 40
0.9534048182
 40
0.9688840574
 40
0.9844158609
 40
1.0
 40
1.0
 40
1.0
 40
1.0
 10
8.432897562
 20
9.1392581348
 30
0.0
 10
8.432897562
 20
9.1286520241
 30
0.0
 10
8.4334201664
 20
9.1073999756
 30
0.0
 10
8.4357603039
 20
9.0755480978
 30
0.0
 10
8.4396526764
 20
9.0437411139
 30
0.0
 10
8.4450874491
 20
9.0120569812
 30
0.0
 10
8.4520517428
 20
8.9805714245
 30
0.0
 10
8.4605286432
 20
8.949360443
 30
0.0
 10
8.4704976817
 20
8.9184991159
 30
0.0
 10
8.4819347942
 20
8.8880617365
 30
0.0
 10
8.4948123976
 20
8.8581215652
 30
0.0
 10
8.5090994727
 20
8.8287506718
 30
0.0
 10
8.5247616102
 20
8.8000197597
 30
0.0
 10
8.5417610483
 20
8.7719979639
 30
0.0
 10
8.5600568342
 20
8.7447527194
 30
0.0
 10
8.5796049113
 20
8.7183495983
 30
0.0
 10
8.6003582299
 20
8.6928521606
 30
0.0
 10
8.6222668386
 20
8.6683217901
 30
0.0
 10
8.6452779708
 20
8.6448175104
 30
0.0
 10
8.6693362313
 20
8.6223958921
 30
0.0
 10
8.694383716
 20
8.6011109118
 30
0.0
 10
8.7203601557
 20
8.5810138332
 30
0.0
 10
8.7472030369
 20
8.5621530601
 30
0.0
 10
8.7748477359
 20
8.5445739863
 30
0.0
 10
8.8032277172
 20
8.5283189453
 30
0.0
 10
8.8322746808
 20
8.5134270989
 30
0.0
 10
8.8619187286
 20
8.4999343567
 30
0.0
 10
8.8920885113
 20
8.4878732515
 30
0.0
 10
8.9227113975
 20
8.4772728368
 30
0.0
 10
8.9537136738
 20
8.4681586791
 30
0.0
 10
8.9850207108
 20
8.4605527834
 30
0.0
 10
9.0165571415
 20
8.4544735549
 30
0.0
 10
9.0482470307
 20
8.4499357028
 30
0.0
 10
9.0800140628
 20
8.4469501938
 30
0.0
 10
9.111781734
 20
8.4455242865
 30
0.0
 10
9.1434735279
 20
8.4456614964
 30
0.0
 10
9.1750130966
 20
8.4473616033
 30
0.0
 10
9.2063244448
 20
8.450620587
 30
0.0
 10
9.2373321219
 20
8.4554306434
 30
0.0
 10
9.2679613969
 20
8.4617802552
 30
0.0
 10
9.2981384355
 20
8.4696542015
 30
0.0
 10
9.3277904712
 20
8.4790336082
 30
0.0
 10
9.3568460019
 20
8.4898959232
 30
0.0
 10
9.3852349652
 20
8.5022149939
 30
0.0
 10
9.4128888912
 20
8.5159611706
 30
0.0
 10
9.4397410702
 20
8.5311013623
 30
0.0
 10
9.4657267047
 20
8.5475991277
 30
0.0
 10
9.4907831087
 20
8.5654146958
 30
0.0
 10
9.5148498483
 20
8.5845050995
 30
0.0
 10
9.5378688669
 20
8.6048243072
 30
0.0
 10
9.5597846313
 20
8.6263233234
 30
0.0
 10
9.5805442536
 20
8.6489503148
 30
0.0
 10
9.6000976822
 20
8.6726506802
 30
0.0
 10
9.6183977904
 20
8.6973672268
 30
0.0
 10
9.6354004691
 20
8.7230403251
 30
0.0
 10
9.6510647376
 20
8.749608043
 30
0.0
 10
9.6653528337
 20
8.7770063131
 30
0.0
 10
9.6782303646
 20
8.8051689951
 30
0.0
 10
9.6896663935
 20
8.8340282811
 30
0.0
 10
9.6996332869
 20
8.8635140943
 30
0.0
 10
9.7066899482
 20
8.8885314798
 30
0.0
 10
9.711579455
 20
8.9087832599
 30
0.0
 10
9.7159691553
 20
8.9292157225
 30
0.0
 10
9.7204984068
 20
8.9550168277
 30
0.0
 10
9.7243859166
 20
8.9862871617
 30
0.0
 10
9.7267209391
 20
9.0178168325
 30
0.0
 10
9.7272382459
 20
9.0389252235
 30
0.0
 10
9.7272382459
 20
9.0494953034
 30
0.0
  0
SPLINE
  5
36B
100
AcDbEntity
  8
0
100
AcDbSpline
 62
7
  6
CONTINUOUS
 70
0
 71
3
 72
48
 73
44
 74
0
 42
0.0000001
 43
0.0000001
 44
0.0000000001
 40
0.0
 40
0.0
 40
0.0
 40
0.0
 40
0.0310737451
 40
0.062304687
 40
0.0936882902
 40
0.1252158164
 40
0.156875936
 40
0.1886544542
 40
0.220534767
 40
0.2524981997
 40
0.2845244035
 40
0.3165917741
 40
0.3486778869
 40
0.3807599447
 40
0.4128152305
 40
0.4448215603
 40
0.4767577265
 40
0.5086039286
 40
0.5403421827
 40
0.5719567054
 40
0.6034342632
 40
0.6347644787
 40
0.6659400873
 40
0.696957137
 40
0.7278151247
 40
0.7431880057
 40
0.7585225445
 40
0.7738196676
 40
0.7890805063
 40
0.8043064092
 40
0.8194989205
 40
0.8346597809
 40
0.8497909192
 40
0.8648944335
 40
0.8799725927
 40
0.8950278114
 40
0.9100626441
 40
0.9250797692
 40
0.9400819681
 40
0.9550721179
 40
0.9700531645
 40
0.9850281112
 40
1.0
 40
1.0
 40
1.0
 40
1.0
 10
8.518629692
 20
9.1520690182
 30
0.0
 10
8.518629692
 20
9.1377063644
 30
0.0
 10
8.5197011114
 20
9.108897346
 30
0.0
 10
8.5244847847
 20
9.0658217279
 30
0.0
 10
8.5324220556
 20
9.0229990518
 30
0.0
 10
8.5434690777
 20
8.980667495
 30
0.0
 10
8.5575646693
 20
8.9390587194
 30
0.0
 10
8.5746311486
 20
8.898401316
 30
0.0
 10
8.5945745144
 20
8.8589183522
 30
0.0
 10
8.6172850367
 20
8.8208264868
 30
0.0
 10
8.6426378745
 20
8.7843347198
 30
0.0
 10
8.6704937527
 20
8.7496432852
 30
0.0
 10
8.7006997206
 20
8.71694256
 30
0.0
 10
8.7330899828
 20
8.6864120382
 30
0.0
 10
8.7674867653
 20
8.6582193151
 30
0.0
 10
8.8037013172
 20
8.6325192061
 30
0.0
 10
8.8415349358
 20
8.6094529102
 30
0.0
 10
8.8807800391
 20
8.5891472398
 30
0.0
 10
8.921221295
 20
8.5717139357
 30
0.0
 10
8.9626367594
 20
8.5572490279
 30
0.0
 10
9.0047991299
 20
8.5458322939
 30
0.0
 10
9.0474768015
 20
8.5375268355
 30
0.0
 10
9.09043582
 20
8.5323787956
 30
0.0
 10
9.1334385303
 20
8.5304167974
 30
0.0
 10
9.169165007
 20
8.5314481895
 30
0.0
 10
9.1975232518
 20
8.5338741523
 30
0.0
 10
9.2186313949
 20
8.5364863985
 30
0.0
 10
9.2395737457
 20
8.5398899607
 30
0.0
 10
9.2603218489
 20
8.544080325
 30
0.0
 10
9.2808471007
 20
8.5490515376
 30
0.0
 10
9.3011212452
 20
8.5547969725
 30
0.0
 10
9.3211164101
 20
8.5613086149
 30
0.0
 10
9.3408050848
 20
8.5685775377
 30
0.0
 10
9.3601601357
 20
8.5765938495
 30
0.0
 10
9.3791550015
 20
8.5853463594
 30
0.0
 10
9.3977634504
 20
8.594823235
 30
0.0
 10
9.4159599502
 20
8.6050112854
 30
0.0
 10
9.4337194208
 20
8.615896572
 30
0.0
 10
9.4510173984
 20
8.6274641609
 30
0.0
 10
9.4678301399
 20
8.6396979955
 30
0.0
 10
9.4841344569
 20
8.6525815019
 30
0.0
 10
9.4999077415
 20
8.6660964732
 30
0.0
 10
9.5100557964
 20
8.6755162042
 30
0.0
 10
9.5150331811
 20
8.6803239685
 30
0.0
  0
SPLINE
  5
36C
100
AcDbEntity
  8
0
100
AcDbSpline
 62
7
  6
CONTINUOUS
 70
0
 71
3
 72
15
 73
11
 74
0
 42
0.0000001
 43
0.0000001
 44
0.0000000001
 40
0.0
 40
0.0
 40
0.0
 40
0.0
 40
0.0989555247
 40
0.2058762664
 40
0.3205332613
 40
0.4426770592
 40
0.5720206332
 40
0.7082512435
 40
0.8510319608
 40
1.0
 40
1.0
 40
1.0
 40
1.0
 10
9.5705593258
 20
8.8066512862
 30
0.0
 10
9.5723916353
 20
8.8079887591
 30
0.0
 10
9.5762455557
 20
8.8107142811
 30
0.0
 10
9.5823426174
 20
8.8148164373
 30
0.0
 10
9.5889624132
 20
8.8190912566
 30
0.0
 10
9.5960817081
 20
8.8235381109
 30
0.0
 10
9.6036754524
 20
8.828157611
 30
0.0
 10
9.611716435
 20
8.8329513593
 30
0.0
 10
9.6201755797
 20
8.8379217668
 30
0.0
 10
9.6259556909
 20
8.841286737
 30
0.0
 10
9.6289086448
 20
8.8430021304
 30
0.0
  0
LINE
  5
36D
100
AcDbEntity
  8
0
100
AcDbLine
 62
7
  6
CONTINUOUS
 10
8.8778165941
 20
9.6070195301
 11
8.8791516047
 21
9.6028024562
  0
SPLINE
  5
36E
100
AcDbEntity
  8
0
100
AcDbSpline
 62
7
  6
CONTINUOUS
 70
0
 71
3
 72
18
 73
14
 74
0
 42
0.0000001
 43
0.0000001
 44
0.0000000001
 40
0.0
 40
0.0
 40
0.0
 40
0.0
 40
0.1258736418
 40
0.2521413295
 40
0.3786792419
 40
0.5052517696
 40
0.6314491211
 40
0.6942187556
 40
0.7566272185
 40
0.818549702
 40
0.8798482644
 40
0.9403789085
 40
1.0
 40
1.0
 40
1.0
 40
1.0
 10
9.2160479143
 20
9.4617383011
 30
0.0
 10
9.2216224465
 20
9.4646092172
 30
0.0
 10
9.232610267
 20
9.4707141487
 30
0.0
 10
9.248523335
 20
9.4808637068
 30
0.0
 10
9.2638479317
 20
9.4919411555
 30
0.0
 10
9.2785282512
 20
9.5038516352
 30
0.0
 10
9.2901939042
 20
9.5143983349
 30
0.0
 10
9.2991498011
 20
9.5231519526
 30
0.0
 10
9.3056464764
 20
9.5298364661
 30
0.0
 10
9.3119203855
 20
9.5366309663
 30
0.0
 10
9.317956278
 20
9.5435138812
 30
0.0
 10
9.3237380328
 20
9.5504630505
 30
0.0
 10
9.3274432368
 20
9.5551647547
 30
0.0
 10
9.3292491705
 20
9.5575226319
 30
0.0
  0
SPLINE
  5
36F
100
AcDbEntity
  8
0
100
AcDbSpline
 62
7
  6
CONTINUOUS
 70
0
 71
3
 72
13
 73
9
 74
0
 42
0.0000001
 43
0.0000001
 44
0.0000000001
 40
0.0
 40
0.0
 40
0.0
 40
0.0
 40
0.1340143122
 40
0.2656030037
 40
0.3945886513
 40
0.5208979913
 40
0.7654754085
 40
1.0
 40
1.0
 40
1.0
 40
1.0
 10
9.3292491705
 20
9.5575226319
 30
0.0
 10
9.3309170096
 20
9.5597002088
 30
0.0
 10
9.3341676238
 20
9.5640583489
 30
0.0
 10
9.3388223812
 20
9.5706592948
 30
0.0
 10
9.3432044251
 20
9.5772560878
 30
0.0
 10
9.3486150264
 20
9.585940772
 30
0.0
 10
9.3546871785
 20
9.5967519053
 30
0.0
 10
9.3589048359
 20
9.6056151151
 30
0.0
 10
9.36080268
 20
9.6100240724
 30
0.0
  0
SPLINE
  5
370
100
AcDbEntity
  8
0
100
AcDbSpline
 62
7
  6
CONTINUOUS
 70
0
 71
3
 72
28
 73
24
 74
0
 42
0.0000001
 43
0.0000001
 44
0.0000000001
 40
0.0
 40
0.0
 40
0.0
 40
0.0
 40
0.0637758949
 40
0.0955879076
 40
0.127346217
 40
0.1907019662
 40
0.2538545319
 40
0.2853587842
 40
0.316814822
 40
0.3795821874
 40
0.442171929
 40
0.5045963366
 40
0.5668693232
 40
0.6290062991
 40
0.6910240354
 40
0.7219962854
 40
0.7529455518
 40
0.8147797326
 40
0.8765514543
 40
0.9074228156
 40
0.9382862776
 40
0.9691444601
 40
1.0
 40
1.0
 40
1.0
 40
1.0
 10
10.1825868665
 20
7.1483639948
 30
0.0
 10
10.1825868665
 20
7.1616482305
 30
0.0
 10
10.1830642106
 20
7.1815631947
 30
0.0
 10
10.1846611373
 20
7.2080425931
 30
0.0
 10
10.1868921165
 20
7.2343888034
 30
0.0
 10
10.1908707529
 20
7.2671280019
 30
0.0
 10
10.1964382502
 20
7.2995813212
 30
0.0
 10
10.2018346965
 20
7.3252921988
 30
0.0
 10
10.2078463646
 20
7.350783719
 30
0.0
 10
10.2165234264
 20
7.3822887496
 30
0.0
 10
10.2287815455
 20
7.4194491532
 30
0.0
 10
10.2428499873
 20
7.4558528824
 30
0.0
 10
10.2586963455
 20
7.4914155486
 30
0.0
 10
10.2762838377
 20
7.5260547434
 30
0.0
 10
10.2923653447
 20
7.5540984594
 30
0.0
 10
10.306056781
 20
7.5759876124
 30
0.0
 10
10.3202817853
 20
7.5974880621
 30
0.0
 10
10.3390709217
 20
7.6236477593
 30
0.0
 10
10.3591669133
 20
7.6487968669
 30
0.0
 10
10.3759904072
 20
7.6682625106
 30
0.0
 10
10.3889742764
 20
7.6825272599
 30
0.0
 10
10.4023181491
 20
7.6964509167
 30
0.0
 10
10.4114495327
 20
7.7055010151
 30
0.0
 10
10.4160722355
 20
7.7099661996
 30
0.0
  0
SPLINE
  5
371
100
AcDbEntity
  8
0
100
AcDbSpline
 62
7
  6
CONTINUOUS
 70
0
 71
3
 72
38
 73
34
 74
0
 42
0.0000001
 43
0.0000001
 44
0.0000000001
 40
0.0
 40
0.0
 40
0.0
 40
0.0
 40
0.1099355118
 40
0.2147413751
 40
0.314166511
 40
0.4079598948
 40
0.4958649161
 40
0.5776138847
 40
0.6529259117
 40
0.7215067326
 40
0.7531777387
 40
0.7830501581
 40
0.81108407
 40
0.837240452
 40
0.8614800746
 40
0.8837651389
 40
0.9040603935
 40
0.9223338005
 40
0.9385596925
 40
0.9459001488
 40
0.9527242551
 40
0.959032921
 40
0.9648289893
 40
0.970118027
 40
0.9749094502
 40
0.9792181243
 40
0.9830669686
 40
0.9864909426
 40
0.9895427924
 40
0.9922999488
 40
0.994869942
 40
0.9973878152
 40
1.0
 40
1.0
 40
1.0
 40
1.0
 10
10.5251268444
 20
7.7967989654
 30
0.0
 10
10.5230706353
 20
7.7942761087
 30
0.0
 10
10.5190531706
 20
7.7893489191
 30
0.0
 10
10.5131627
 20
7.7821509891
 30
0.0
 10
10.5075525113
 20
7.7753412474
 30
0.0
 10
10.5022288089
 20
7.7689438702
 30
0.0
 10
10.4971990003
 20
7.7629829216
 30
0.0
 10
10.4924721335
 20
7.7574825676
 30
0.0
 10
10.4880590697
 20
7.7524674127
 30
0.0
 10
10.4845670261
 20
7.7486172522
 30
0.0
 10
10.4819361696
 20
7.7458030547
 30
0.0
 10
10.480103266
 20
7.7438863764
 30
0.0
 10
10.4783599983
 20
7.7421101452
 30
0.0
 10
10.4767086847
 20
7.7404776632
 30
0.0
 10
10.4751519418
 20
7.7389920388
 30
0.0
 10
10.4736924659
 20
7.7376563996
 30
0.0
 10
10.4723330343
 20
7.736473812
 30
0.0
 10
10.4710766918
 20
7.7354471363
 30
0.0
 10
10.4700876695
 20
7.7347006066
 30
0.0
 10
10.4693489117
 20
7.7341868835
 30
0.0
 10
10.46884128
 20
7.733855514
 30
0.0
 10
10.4683617499
 20
7.7335652882
 30
0.0
 10
10.4679106958
 20
7.7333165145
 30
0.0
 10
10.4674884835
 20
7.7331094734
 30
0.0
 10
10.4670954657
 20
7.7329443814
 30
0.0
 10
10.4667319269
 20
7.7328214589
 30
0.0
 10
10.4663980523
 20
7.7327409614
 30
0.0
 10
10.4660938921
 20
7.7327032788
 30
0.0
 10
10.4658194173
 20
7.7327091082
 30
0.0
 10
10.4655748355
 20
7.7327596179
 30
0.0
 10
10.4653612979
 20
7.7328564336
 30
0.0
 10
10.4651813707
 20
7.7330001349
 30
0.0
 10
10.4650883763
 20
7.7331222165
 30
0.0
 10
10.4650481329
 20
7.7331882547
 30
0.0
  0
SPLINE
  5
372
100
AcDbEntity
  8
0
100
AcDbSpline
 62
7
  6
CONTINUOUS
 70
0
 71
3
 72
45
 73
41
 74
0
 42
0.0000001
 43
0.0000001
 44
0.0000000001
 40
0.0
 40
0.0
 40
0.0
 40
0.0
 40
0.0308888763
 40
0.0619149959
 40
0.0930753644
 40
0.1243640716
 40
0.1557734808
 40
0.1872939167
 40
0.2189139717
 40
0.2506206707
 40
0.2823996921
 40
0.3142355978
 40
0.3461120772
 40
0.3780122001
 40
0.409918676
 40
0.4418141177
 40
0.4736813058
 40
0.5055034513
 40
0.5372644542
 40
0.5689491544
 40
0.6005435716
 40
0.6320351322
 40
0.6634128795
 40
0.6946676637
 40
0.7257923093
 40
0.7567817559
 40
0.7722268217
 40
0.7876372148
 40
0.8030129446
 40
0.8183541596
 40
0.8336611625
 40
0.8489343971
 40
0.8641744555
 40
0.8793820745
 40
0.9096993754
 40
0.9398991779
 40
0.9549604764
 40
0.9699965997
 40
0.9850091916
 40
1.0
 40
1.0
 40
1.0
 40
1.0
 10
10.5198278039
 20
7.4741137453
 30
0.0
 10
10.5198278039
 20
7.4560796724
 30
0.0
 10
10.5210043447
 20
7.419920725
 30
0.0
 10
10.5262636173
 20
7.365799505
 30
0.0
 10
10.5349985648
 20
7.3118911199
 30
0.0
 10
10.5471722507
 20
7.2584253572
 30
0.0
 10
10.5627330123
 20
7.2056264921
 30
0.0
 10
10.5816151343
 20
7.1537168535
 30
0.0
 10
10.6037389052
 20
7.1029147572
 30
0.0
 10
10.6290110455
 20
7.0534339083
 30
0.0
 10
10.6573250532
 20
7.0054824156
 30
0.0
 10
10.6885616695
 20
6.9592619507
 30
0.0
 10
10.7225893854
 20
6.9149669068
 30
0.0
 10
10.7592649897
 20
6.8727835892
 30
0.0
 10
10.7984341683
 20
6.8328894392
 30
0.0
 10
10.8399321465
 20
6.7954522941
 30
0.0
 10
10.8835843788
 20
6.7606296886
 30
0.0
 10
10.9292072695
 20
6.7285681893
 30
0.0
 10
10.9766089345
 20
6.6994027727
 30
0.0
 10
11.0255900168
 20
6.6732562765
 30
0.0
 10
11.0759445014
 20
6.650238883
 30
0.0
 10
11.1274606199
 20
6.6304476549
 30
0.0
 10
11.1799215539
 20
6.6139661343
 30
0.0
 10
11.2331069956
 20
6.6008639621
 30
0.0
 10
11.2867916177
 20
6.5911966774
 30
0.0
 10
11.3318121947
 20
6.5860311717
 30
0.0
 10
11.367846535
 20
6.5836560546
 30
0.0
 10
11.3948279006
 20
6.5827538151
 30
0.0
 10
11.421763459
 20
6.5827298033
 30
0.0
 10
11.4486251808
 20
6.583584224
 30
0.0
 10
11.4753847033
 20
6.5853159762
 30
0.0
 10
11.5020137527
 20
6.587923423
 30
0.0
 10
11.52848463
 20
6.5914037829
 30
0.0
 10
11.5634908793
 20
6.5971965493
 30
0.0
 10
11.6067273011
 20
6.6065951593
 30
0.0
 10
11.6491514517
 20
6.6188598341
 30
0.0
 10
11.6824340093
 20
6.6303478543
 30
0.0
 10
11.7070277518
 20
6.639785237
 30
0.0
 10
11.7312464186
 20
6.6500407631
 30
0.0
 10
11.7471371584
 20
6.657421557
 30
0.0
 10
11.7550103645
 20
6.6612443132
 30
0.0
  0
SPLINE
  5
373
100
AcDbEntity
  8
0
100
AcDbSpline
 62
7
  6
CONTINUOUS
 70
0
 71
3
 72
15
 73
11
 74
0
 42
0.0000001
 43
0.0000001
 44
0.0000000001
 40
0.0
 40
0.0
 40
0.0
 40
0.0
 40
0.1266657107
 40
0.2528159899
 40
0.3784623416
 40
0.5036223797
 40
0.6283213213
 40
0.7525908691
 40
0.876469128
 40
1.0
 40
1.0
 40
1.0
 40
1.0
 10
10.5198278039
 20
7.4741137453
 30
0.0
 10
10.5198278039
 20
7.4904238739
 30
0.0
 10
10.5207859834
 20
7.5229861425
 30
0.0
 10
10.5251136755
 20
7.5715540417
 30
0.0
 10
10.5323139987
 20
7.6195858852
 30
0.0
 10
10.5423622513
 20
7.66691251
 30
0.0
 10
10.5552236136
 20
7.7133696891
 30
0.0
 10
10.5708539126
 20
7.7587962166
 30
0.0
 10
10.5891978534
 20
7.8030318501
 30
0.0
 10
10.6032144437
 20
7.8316674822
 30
0.0
 10
10.6106504445
 20
7.8457288371
 30
0.0
  0
SPLINE
  5
374
100
AcDbEntity
  8
0
100
AcDbSpline
 62
7
  6
CONTINUOUS
 70
0
 71
3
 72
21
 73
17
 74
0
 42
0.0000001
 43
0.0000001
 44
0.0000000001
 40
0.0
 40
0.0
 40
0.0
 40
0.0
 40
0.1267811194
 40
0.2529974271
 40
0.3159071122
 40
0.3786820335
 40
0.4413252199
 40
0.5038406716
 40
0.5662328071
 40
0.6285064862
 40
0.6906671687
 40
0.7527208059
 40
0.8146738218
 40
0.8765330958
 40
0.9383059209
 40
1.0
 40
1.0
 40
1.0
 40
1.0
 10
10.5449418769
 20
7.4723720784
 30
0.0
 10
10.5449418769
 20
7.4896909668
 30
0.0
 10
10.5460556508
 20
7.5242615446
 30
0.0
 10
10.5502544576
 20
7.5672434811
 30
0.0
 10
10.5552860988
 20
7.6012898376
 30
0.0
 10
10.5598860156
 20
7.6266066626
 30
0.0
 10
10.5653110794
 20
7.6517042897
 30
0.0
 10
10.5715557939
 20
7.6765568079
 30
0.0
 10
10.578613445
 20
7.7011383043
 30
0.0
 10
10.5864769424
 20
7.7254230925
 30
0.0
 10
10.5951378444
 20
7.7493859167
 30
0.0
 10
10.6045873528
 20
7.7730017221
 30
0.0
 10
10.6148154455
 20
7.7962459193
 30
0.0
 10
10.6258116156
 20
7.8190943185
 30
0.0
 10
10.6375641814
 20
7.8415227632
 30
0.0
 10
10.6459007587
 20
7.8561890571
 30
0.0
 10
10.6501904882
 20
7.8634433179
 30
0.0
  0
SPLINE
  5
375
100
AcDbEntity
  8
0
100
AcDbSpline
 62
7
  6
CONTINUOUS
 70
0
 71
3
 72
21
 73
17
 74
0
 42
0.0000001
 43
0.0000001
 44
0.0000000001
 40
0.0
 40
0.0
 40
0.0
 40
0.0
 40
0.1268496787
 40
0.2531064616
 40
0.3160276163
 40
0.3788078695
 40
0.4414509476
 40
0.5039614291
 40
0.5663443396
 40
0.6286053272
 40
0.6907506632
 40
0.752787199
 40
0.8147222916
 40
0.8765638244
 40
0.9383201393
 40
1.0
 40
1.0
 40
1.0
 40
1.0
 10
10.5746403551
 20
7.4800586072
 30
0.0
 10
10.5746403551
 20
7.4977784008
 30
0.0
 10
10.575836296
 20
7.5331464062
 30
0.0
 10
10.5803458731
 20
7.5770982686
 30
0.0
 10
10.5857486993
 20
7.6118835624
 30
0.0
 10
10.5906869746
 20
7.6377316452
 30
0.0
 10
10.5965098018
 20
7.663335883
 30
0.0
 10
10.6032107162
 20
7.6886671603
 30
0.0
 10
10.6107818811
 20
7.7136963387
 30
0.0
 10
10.6192146812
 20
7.7383946625
 30
0.0
 10
10.6284994808
 20
7.7627337246
 30
0.0
 10
10.6386254899
 20
7.7866856254
 30
0.0
 10
10.6495812709
 20
7.8102227278
 30
0.0
 10
10.661354102
 20
7.8333181793
 30
0.0
 10
10.673930397
 20
7.8559449824
 30
0.0
 10
10.6828461968
 20
7.870709136
 30
0.0
 10
10.6874325223
 20
7.8780032063
 30
0.0
  0
SPLINE
  5
376
100
AcDbEntity
  8
0
100
AcDbSpline
 62
7
  6
CONTINUOUS
 70
0
 71
3
 72
15
 73
11
 74
0
 42
0.0000001
 43
0.0000001
 44
0.0000000001
 40
0.0
 40
0.0
 40
0.0
 40
0.0
 40
0.126624159
 40
0.2527485726
 40
0.3783827735
 40
0.5035435336
 40
0.6282536459
 40
0.7525422464
 40
0.8764442497
 40
1.0
 40
1.0
 40
1.0
 40
1.0
 10
10.6459777959
 20
7.5489652877
 30
0.0
 10
10.6459777959
 20
7.5639321153
 30
0.0
 10
10.6468312657
 20
7.59381394
 30
0.0
 10
10.6506856611
 20
7.6383958501
 30
0.0
 10
10.6570993232
 20
7.682509084
 30
0.0
 10
10.6660514353
 20
7.7260072388
 30
0.0
 10
10.6775128297
 20
7.7687481861
 30
0.0
 10
10.6914463988
 20
7.8105922093
 30
0.0
 10
10.7078056915
 20
7.8514003001
 30
0.0
 10
10.720311805
 20
7.8778643108
 30
0.0
 10
10.7269485794
 20
7.8908733186
 30
0.0
  0
SPLINE
  5
377
100
AcDbEntity
  8
0
100
AcDbSpline
 62
7
  6
CONTINUOUS
 70
0
 71
3
 72
15
 73
11
 74
0
 42
0.0000001
 43
0.0000001
 44
0.0000000001
 40
0.0
 40
0.0
 40
0.0
 40
0.0
 40
0.1268350498
 40
0.2530891189
 40
0.3787796254
 40
0.5039312012
 40
0.6285798738
 40
0.7527705364
 40
0.8765568173
 40
1.0
 40
1.0
 40
1.0
 40
1.0
 10
10.7439573731
 20
7.5636062974
 30
0.0
 10
10.7439573731
 20
7.5792638319
 30
0.0
 10
10.7449930771
 20
7.6105174195
 30
0.0
 10
10.7496724695
 20
7.6570761298
 30
0.0
 10
10.7574536864
 20
7.7030097536
 30
0.0
 10
10.7683029787
 20
7.7481130487
 30
0.0
 10
10.7821726219
 20
7.7921873317
 30
0.0
 10
10.7990022145
 20
7.8350384653
 30
0.0
 10
10.8187161663
 20
7.8764746072
 30
0.0
 10
10.8337458669
 20
7.9030716544
 30
0.0
 10
10.8417070995
 20
7.9160655094
 30
0.0
  0
SPLINE
  5
378
100
AcDbEntity
  8
0
100
AcDbSpline
 62
7
  6
CONTINUOUS
 70
0
 71
3
 72
54
 73
50
 74
0
 42
0.0000001
 43
0.0000001
 44
0.0000000001
 40
0.0
 40
0.0
 40
0.0
 40
0.0
 40
0.0310727687
 40
0.0623027624
 40
0.0936853542
 40
0.1252119093
 40
0.1568710383
 40
0.1886485643
 40
0.2205278811
 40
0.252490316
 40
0.2845155201
 40
0.3165818895
 40
0.3486670004
 40
0.3807480565
 40
0.4128023418
 40
0.4448076724
 40
0.4767428412
 40
0.5085880489
 40
0.540325312
 40
0.5561509395
 40
0.571943869
 40
0.5877025314
 40
0.6034255324
 40
0.619111668
 40
0.6347599297
 40
0.6503695068
 40
0.6659398003
 40
0.6814704224
 40
0.6969611984
 40
0.7124121766
 40
0.7278236235
 40
0.7431960234
 40
0.7585300847
 40
0.7738267293
 40
0.7890870919
 40
0.8043125193
 40
0.8195045564
 40
0.8346649434
 40
0.8497956089
 40
0.8648986525
 40
0.8799763399
 40
0.8950310892
 40
0.9100654528
 40
0.9250821079
 40
0.9400838397
 40
0.9550735208
 40
0.9700540994
 40
0.9850285795
 40
1.0
 40
1.0
 40
1.0
 40
1.0
 10
10.1825868665
 20
7.1483639948
 30
0.0
 10
10.1825868665
 20
7.1277535906
 30
0.0
 10
10.1841243672
 20
7.0864126362
 30
0.0
 10
10.1909889085
 20
7.0245991282
 30
0.0
 10
10.2023788827
 20
6.9631485796
 30
0.0
 10
10.218231362
 20
6.9024028085
 30
0.0
 10
10.2384585887
 20
6.8426942256
 30
0.0
 10
10.2629489646
 20
6.7843508458
 30
0.0
 10
10.2915676638
 20
6.727692776
 30
0.0
 10
10.3241572791
 20
6.6730309576
 30
0.0
 10
10.3605385994
 20
6.6206652707
 30
0.0
 10
10.4005117761
 20
6.5708830538
 30
0.0
 10
10.4438573752
 20
6.5239575426
 30
0.0
 10
10.4903373913
 20
6.480146244
 30
0.0
 10
10.5396967675
 20
6.4396896387
 30
0.0
 10
10.591664561
 20
6.4028100133
 30
0.0
 10
10.645956159
 20
6.3697097914
 30
0.0
 10
10.7022716325
 20
6.3405715959
 30
0.0
 10
10.7506841101
 20
6.3197023789
 30
0.0
 10
10.7901130671
 20
6.3051438154
 30
0.0
 10
10.8199685273
 20
6.2953139814
 30
0.0
 10
10.8500909261
 20
6.2865779341
 30
0.0
 10
10.8804393506
 20
6.2789476173
 30
0.0
 10
10.9109719261
 20
6.2724334861
 30
0.0
 10
10.9416467154
 20
6.2670445023
 30
0.0
 10
10.9724215536
 20
6.2627882139
 30
0.0
 10
11.0032541101
 20
6.2596703616
 30
0.0
 10
11.0341019997
 20
6.2576952984
 30
0.0
 10
11.0649228057
 20
6.2568658453
 30
0.0
 10
11.0956741409
 20
6.2571830305
 30
0.0
 10
11.1263137187
 20
6.2586465233
 30
0.0
 10
11.1567993927
 20
6.2612543743
 30
0.0
 10
11.1870892445
 20
6.2650028971
 30
0.0
 10
11.2171415992
 20
6.2698870717
 30
0.0
 10
11.2469151124
 20
6.2759001952
 30
0.0
 10
11.2763688475
 20
6.2830339207
 30
0.0
 10
11.305462252
 20
6.2912785876
 30
0.0
 10
11.3341553064
 20
6.3006228206
 30
0.0
 10
11.3624085552
 20
6.3110537211
 30
0.0
 10
11.3901830703
 20
6.3225570905
 30
0.0
 10
11.4174406629
 20
6.3351170277
 30
0.0
 10
11.4441438382
 20
6.3487162431
 30
0.0
 10
11.4702557825
 20
6.3633361586
 30
0.0
 10
11.4957406148
 20
6.3789565537
 30
0.0
 10
11.5205632655
 20
6.3955559682
 30
0.0
 10
11.5446894731
 20
6.4131116261
 30
0.0
 10
11.5680862316
 20
6.4315993757
 30
0.0
 10
11.5907208681
 20
6.450993393
 30
0.0
 10
11.6052833337
 20
6.4645106996
 30
0.0
 10
11.6124258688
 20
6.4714098531
 30
0.0
  0
SPLINE
  5
379
100
AcDbEntity
  8
0
100
AcDbSpline
 62
7
  6
CONTINUOUS
 70
0
 71
3
 72
42
 73
38
 74
0
 42
0.0000001
 43
0.0000001
 44
0.0000000001
 40
0.0
 40
0.0
 40
0.0
 40
0.0
 40
0.0309184643
 40
0.0619772156
 40
0.0931730516
 40
0.1244996761
 40
0.1559489503
 40
0.1875105785
 40
0.2191724359
 40
0.2509207537
 40
0.282740362
 40
0.3146149438
 40
0.3465273025
 40
0.3784596397
 40
0.4103938395
 40
0.4423117563
 40
0.4741955028
 40
0.5060277362
 40
0.537791937
 40
0.5694726796
 40
0.6010558891
 40
0.632529082
 40
0.6638815874
 40
0.6951047439
 40
0.7261920699
 40
0.7571394018
 40
0.7879449962
 40
0.8186095932
 40
0.8491364377
 40
0.8795312551
 40
0.9098021802
 40
0.924896619
 40
0.9399641769
 40
0.9550064871
 40
0.9700253002
 40
0.9850224829
 40
1.0
 40
1.0
 40
1.0
 40
1.0
 10
10.5449418769
 20
7.4723720784
 30
0.0
 10
10.5449418769
 20
7.454502114
 30
0.0
 10
10.5461331629
 20
7.4186700694
 30
0.0
 10
10.5514574057
 20
7.3650459516
 30
0.0
 10
10.5602990122
 20
7.3116473587
 30
0.0
 10
10.5726189496
 20
7.2587118818
 30
0.0
 10
10.5883626398
 20
7.2064712986
 30
0.0
 10
10.6074606782
 20
7.1551552236
 30
0.0
 10
10.62982891
 20
7.1049889286
 30
0.0
 10
10.6553688937
 20
7.0561926868
 30
0.0
 10
10.6839682821
 20
7.0089807138
 30
0.0
 10
10.7155013422
 20
6.9635602685
 30
0.0
 10
10.7498295067
 20
6.9201307483
 30
0.0
 10
10.7868019779
 20
6.8788828235
 30
0.0
 10
10.8262563845
 20
6.8399976086
 30
0.0
 10
10.8680194884
 20
6.8036458734
 30
0.0
 10
10.9119079403
 20
6.7699873028
 30
0.0
 10
10.957729063
 20
6.7391697813
 30
0.0
 10
11.0052817009
 20
6.711328756
 30
0.0
 10
11.0543570988
 20
6.6865866533
 30
0.0
 10
11.1047398071
 20
6.665052341
 30
0.0
 10
11.1562086167
 20
6.6468206525
 30
0.0
 10
11.2085375186
 20
6.6319719671
 30
0.0
 10
11.2614966841
 20
6.6205718579
 30
0.0
 10
11.3148534619
 20
6.612670778
 30
0.0
 10
11.3683733799
 20
6.6083038297
 30
0.0
 10
11.4218212183
 20
6.6074906316
 30
0.0
 10
11.4749618456
 20
6.6102351512
 30
0.0
 10
11.527561938
 20
6.6165259079
 30
0.0
 10
11.5793884336
 20
6.6263351283
 30
0.0
 10
11.621788821
 20
6.637418455
 30
0.0
 10
11.6550834413
 20
6.6479951554
 30
0.0
 10
11.6796998259
 20
6.6567660972
 30
0.0
 10
11.7039549882
 20
6.666372568
 30
0.0
 10
11.7278227326
 20
6.6768041329
 30
0.0
 10
11.751276357
 20
6.688049021
 30
0.0
 10
11.7666290821
 20
6.6960851024
 30
0.0
 10
11.7742266166
 20
6.7002340284
 30
0.0
  0
SPLINE
  5
37A
100
AcDbEntity
  8
0
100
AcDbSpline
 62
7
  6
CONTINUOUS
 70
0
 71
3
 72
44
 73
40
 74
0
 42
0.0000001
 43
0.0000001
 44
0.0000000001
 40
0.0
 40
0.0
 40
0.0
 40
0.0
 40
0.0309342641
 40
0.0620104876
 40
0.0932253567
 40
0.1245723553
 40
0.1560430558
 40
0.1876268117
 40
0.2193110905
 40
0.251081674
 40
0.2829229135
 40
0.3148179971
 40
0.3467492319
 40
0.3786983355
 40
0.4106467346
 40
0.4425758673
 40
0.474467485
 40
0.5063039512
 40
0.5380685328
 40
0.5697456806
 40
0.6013212958
 40
0.6327829786
 40
0.664120255
 40
0.6953247781
 40
0.7263904972
 40
0.7573137941
 40
0.7880935793
 40
0.8187313473
 40
0.8492311848
 40
0.8644336298
 40
0.8796042914
 40
0.8947443852
 40
0.9098552672
 40
0.9249384396
 40
0.9399955317
 40
0.9550283034
 40
0.9700386314
 40
0.9850285006
 40
1.0
 40
1.0
 40
1.0
 40
1.0
 10
10.5746403551
 20
7.4800586072
 30
0.0
 10
10.5746403551
 20
7.4624333623
 30
0.0
 10
10.5758291835
 20
7.4270908528
 30
0.0
 10
10.5811419203
 20
7.3742036906
 30
0.0
 10
10.5899637191
 20
7.3215471072
 30
0.0
 10
10.6022547132
 20
7.2693609085
 30
0.0
 10
10.6179591722
 20
7.2178789724
 30
0.0
 10
10.6370062312
 20
7.1673329074
 30
0.0
 10
10.6593099918
 20
7.1179498307
 30
0.0
 10
10.6847699739
 20
7.0699516767
 30
0.0
 10
10.7132715422
 20
7.0235541136
 30
0.0
 10
10.7446864493
 20
6.9789656208
 30
0.0
 10
10.7788734023
 20
6.9363865536
 30
0.0
 10
10.8156786947
 20
6.8960082544
 30
0.0
 10
10.854936891
 20
6.8580122015
 30
0.0
 10
10.8964715636
 20
6.8225692018
 30
0.0
 10
10.9400960592
 20
6.7898386038
 30
0.0
 10
10.9856143524
 20
6.7599676079
 30
0.0
 10
11.0328219176
 20
6.7330906101
 30
0.0
 10
11.0815066374
 20
6.7093286025
 30
0.0
 10
11.1314497442
 20
6.6887886299
 30
0.0
 10
11.182426792
 20
6.6715633137
 30
0.0
 10
11.2342086496
 20
6.6577304145
 30
0.0
 10
11.2865625078
 20
6.647352469
 30
0.0
 10
11.3392529729
 20
6.6404765382
 30
0.0
 10
11.3920429185
 20
6.6371339391
 30
0.0
 10
11.4446952505
 20
6.6373402486
 30
0.0
 10
11.4969713344
 20
6.6410946392
 30
0.0
 10
11.5400780138
 20
6.6471742089
 30
0.0
 10
11.5741300038
 20
6.6537911735
 30
0.0
 10
11.5994043382
 20
6.6596177906
 30
0.0
 10
11.6244100019
 20
6.6663066221
 30
0.0
 10
11.6491191936
 20
6.673850305
 30
0.0
 10
11.6735040393
 20
6.6822401569
 30
0.0
 10
11.6975370359
 20
6.6914669706
 30
0.0
 10
11.7211911565
 20
6.7015201481
 30
0.0
 10
11.7444398063
 20
6.7123885744
 30
0.0
 10
11.7672564482
 20
6.7240597509
 30
0.0
 10
11.7821717563
 20
6.7323721621
 30
0.0
 10
11.7895476324
 20
6.7366571652
 30
0.0
  0
SPLINE
  5
37B
100
AcDbEntity
  8
0
100
AcDbSpline
 62
7
  6
CONTINUOUS
 70
0
 71
3
 72
43
 73
39
 74
0
 42
0.0000001
 43
0.0000001
 44
0.0000000001
 40
0.0
 40
0.0
 40
0.0
 40
0.0
 40
0.0308800975
 40
0.0618965206
 40
0.0930463051
 40
0.1243236677
 40
0.1557211251
 40
0.1872291853
 40
0.2188366584
 40
0.2505308084
 40
0.2822975704
 40
0.3141217734
 40
0.3459873761
 40
0.3778777132
 40
0.4097757477
 40
0.4416643273
 40
0.4735264415
 40
0.5053454777
 40
0.5371054732
 40
0.5687913593
 40
0.6003891974
 40
0.6318864008
 40
0.6632719425
 40
0.694536542
 40
0.7256728322
 40
0.756675499
 40
0.7875413933
 40
0.818269611
 40
0.8335844717
 40
0.8488656282
 40
0.8641136085
 40
0.8793290906
 40
0.9096617486
 40
0.9398758855
 40
0.9549437649
 40
0.9699860083
 40
0.9850041935
 40
1.0
 40
1.0
 40
1.0
 40
1.0
 10
10.6459777959
 20
7.5489652877
 30
0.0
 10
10.6459777959
 20
7.5320302285
 30
0.0
 10
10.6470751882
 20
7.4980754563
 30
0.0
 10
10.6519809184
 20
7.4472511122
 30
0.0
 10
10.6601290399
 20
7.3966224284
 30
0.0
 10
10.6714855543
 20
7.3464023417
 30
0.0
 10
10.6860029098
 20
7.2967986954
 30
0.0
 10
10.7036206174
 20
7.2480175767
 30
0.0
 10
10.7242652902
 20
7.200261406
 30
0.0
 10
10.7478510416
 20
7.1537283911
 30
0.0
 10
10.7742798082
 20
7.1086116333
 30
0.0
 10
10.8034417685
 20
7.0650983581
 30
0.0
 10
10.8352157843
 20
7.0233691323
 30
0.0
 10
10.8694699092
 20
6.9835971259
 30
0.0
 10
10.906061935
 20
6.9459474011
 30
0.0
 10
10.9448399772
 20
6.9105762329
 30
0.0
 10
10.9856431005
 20
6.8776304655
 30
0.0
 10
11.0283019809
 20
6.8472469073
 30
0.0
 10
11.0726396023
 20
6.8195517671
 30
0.0
 10
11.118471984
 20
6.7946601327
 30
0.0
 10
11.1656089367
 20
6.7726754962
 30
0.0
 10
11.2138548432
 20
6.7536893182
 30
0.0
 10
11.263009452
 20
6.7377806464
 30
0.0
 10
11.3128687476
 20
6.7250157955
 30
0.0
 10
11.3632256193
 20
6.7154480561
 30
0.0
 10
11.413871335
 20
6.709117509
 30
0.0
 10
11.4645940872
 20
6.7060506984
 30
0.0
 10
11.506803943
 20
6.7062262143
 30
0.0
 10
11.5403925824
 20
6.7080099046
 30
0.0
 10
11.5654463036
 20
6.710163591
 30
0.0
 10
11.5903616643
 20
6.7131326889
 30
0.0
 10
11.6233257115
 20
6.7181683666
 30
0.0
 10
11.6640682386
 20
6.7264796741
 30
0.0
 10
11.7040874478
 20
6.7374716222
 30
0.0
 10
11.7355103859
 20
6.7478353055
 30
0.0
 10
11.7587435803
 20
6.7563779568
 30
0.0
 10
11.7816369619
 20
6.7656876189
 30
0.0
 10
11.7966684331
 20
6.7724042551
 30
0.0
 10
11.8041185435
 20
6.7758868413
 30
0.0
  0
SPLINE
  5
37C
100
AcDbEntity
  8
0
100
AcDbSpline
 62
7
  6
CONTINUOUS
 70
0
 71
3
 72
39
 73
35
 74
0
 42
0.0000001
 43
0.0000001
 44
0.0000000001
 40
0.0
 40
0.0
 40
0.0
 40
0.0
 40
0.0309283028
 40
0.0619978859
 40
0.0932054644
 40
0.1245446167
 40
0.1560070405
 40
0.187582232
 40
0.2192578303
 40
0.2510198042
 40
0.2828527048
 40
0.3147399258
 40
0.3466639805
 40
0.3786067874
 40
0.410549963
 40
0.4424751179
 40
0.4743641527
 40
0.5061995513
 40
0.5379646669
 40
0.569643999
 40
0.6012234561
 40
0.6326906008
 40
0.664034874
 40
0.6952477944
 40
0.7263231278
 40
0.7572570245
 40
0.7880481187
 40
0.8186975877
 40
0.8492091653
 40
0.8795891085
 40
0.9098461157
 40
0.9399911943
 40
0.9700374784
 40
1.0
 40
1.0
 40
1.0
 40
1.0
 10
10.7439573731
 20
7.5636062974
 30
0.0
 10
10.7439573731
 20
7.5477898959
 30
0.0
 10
10.7450190324
 20
7.516074945
 30
0.0
 10
10.7497636568
 20
7.4686144989
 30
0.0
 10
10.7576423713
 20
7.4213579184
 30
0.0
 10
10.7686199132
 20
7.374518361
 30
0.0
 10
10.782646979
 20
7.3283037278
 30
0.0
 10
10.7996608819
 20
7.2829199374
 30
0.0
 10
10.8195856166
 20
7.2385689544
 30
0.0
 10
10.8423322881
 20
7.1954481895
 30
0.0
 10
10.8677994748
 20
7.1537495488
 30
0.0
 10
10.8958736763
 20
7.1136586027
 30
0.0
 10
10.92642983
 20
7.0753537697
 30
0.0
 10
10.9593318637
 20
7.0390055313
 30
0.0
 10
10.9944332966
 20
7.0047756801
 30
0.0
 10
11.0315778864
 20
6.9728166064
 30
0.0
 10
11.0706003178
 20
6.9432706255
 30
0.0
 10
11.1113269319
 20
6.91626935
 30
0.0
 10
11.153576489
 20
6.8919331036
 30
0.0
 10
11.197160962
 20
6.8703703768
 30
0.0
 10
11.2418863751
 20
6.8516773601
 30
0.0
 10
11.2875536554
 20
6.8359375139
 30
0.0
 10
11.3339595084
 20
6.8232211964
 30
0.0
 10
11.3808973126
 20
6.8135853467
 30
0.0
 10
11.4281580271
 20
6.8070732249
 30
0.0
 10
11.4755311134
 20
6.8037142132
 30
0.0
 10
11.522805461
 20
6.8035236656
 30
0.0
 10
11.5697703283
 20
6.8065028208
 30
0.0
 10
11.6162162557
 20
6.812638785
 30
0.0
 10
11.6619360795
 20
6.8219046164
 30
0.0
 10
11.7067255455
 20
6.8342592523
 30
0.0
 10
11.7503853811
 20
6.849648323
 30
0.0
 10
11.7927179031
 20
6.8680019623
 30
0.0
 10
11.8199681982
 20
6.8821805369
 30
0.0
 10
11.833300962
 20
6.8897314814
 30
0.0
  0
SPLINE
  5
37D
100
AcDbEntity
  8
0
100
AcDbSpline
 62
7
  6
CONTINUOUS
 70
0
 71
3
 72
56
 73
52
 74
0
 42
0.0000001
 43
0.0000001
 44
0.0000000001
 40
0.0
 40
0.0
 40
0.0
 40
0.0
 40
0.0104143655
 40
0.0212919882
 40
0.0326447888
 40
0.0444830372
 40
0.0568150542
 40
0.0696459834
 40
0.0829779697
 40
0.0968109124
 40
0.1111422535
 40
0.1259675858
 40
0.1412798879
 40
0.1570705182
 40
0.1733282814
 40
0.1900404136
 40
0.2247647574
 40
0.2611005701
 40
0.2988726079
 40
0.3378753364
 40
0.3778748066
 40
0.41861163
 40
0.4598056693
 40
0.5011608136
 40
0.5423710311
 40
0.5831304941
 40
0.6231414352
 40
0.6621203903
 40
0.6998046021
 40
0.7359573415
 40
0.7703718905
 40
0.7868719033
 40
0.8028748562
 40
0.8183644617
 40
0.8333267087
 40
0.8477499185
 40
0.8616247863
 40
0.8749444507
 40
0.8877045715
 40
0.8999034631
 40
0.9115422551
 40
0.922625086
 40
0.933159378
 40
0.9431561526
 40
0.952630473
 40
0.9616019671
 40
0.9700953529
 40
0.9781412292
 40
0.9857766274
 40
0.9930456749
 40
1.0
 40
1.0
 40
1.0
 40
1.0
 10
11.3639586713
 20
7.4118397693
 30
0.0
 10
11.3652965494
 20
7.4117914928
 30
0.0
 10
11.3680296666
 20
7.4116236841
 30
0.0
 10
11.3722036324
 20
7.4111786213
 30
0.0
 10
11.3765369125
 20
7.4105364755
 30
0.0
 10
11.3810269581
 20
7.4096995721
 30
0.0
 10
11.385671562
 20
7.4086703927
 30
0.0
 10
11.3904683495
 20
7.4074517678
 30
0.0
 10
11.3954147263
 20
7.4060469203
 30
0.0
 10
11.4005077943
 20
7.4044592425
 30
0.0
 10
11.4057445636
 20
7.4026927318
 30
0.0
 10
11.4111216605
 20
7.4007514451
 30
0.0
 10
11.4166355676
 20
7.3986400574
 30
0.0
 10
11.4222822869
 20
7.3963633466
 30
0.0
 10
11.4280576221
 20
7.3939266535
 30
0.0
 10
11.4360251132
 20
7.3904269421
 30
0.0
 10
11.4462628418
 20
7.3856811111
 30
0.0
 10
11.4588229938
 20
7.3795172585
 30
0.0
 10
11.4717556718
 20
7.3728702227
 30
0.0
 10
11.4849984088
 20
7.3658006334
 30
0.0
 10
11.4984801365
 20
7.3583725732
 30
0.0
 10
11.5121213912
 20
7.35065262
 30
0.0
 10
11.5258350485
 20
7.3427085135
 30
0.0
 10
11.5395274603
 20
7.3346077288
 30
0.0
 10
11.5531003308
 20
7.3264158194
 30
0.0
 10
11.5664530306
 20
7.3181946858
 30
0.0
 10
11.5794850729
 20
7.3100010485
 30
0.0
 10
11.5920982421
 20
7.3018853277
 30
0.0
 10
11.6041986142
 20
7.2938909687
 30
0.0
 10
11.6156981521
 20
7.2860540142
 30
0.0
 10
11.6248369134
 20
7.2795910901
 30
0.0
 10
11.6317790827
 20
7.2745111482
 30
0.0
 10
11.6367144281
 20
7.2708090663
 30
0.0
 10
11.6414440986
 20
7.2671630385
 30
0.0
 10
11.6459609017
 20
7.2635744424
 30
0.0
 10
11.6502582022
 20
7.2600443672
 30
0.0
 10
11.6543298976
 20
7.2565736136
 30
0.0
 10
11.6581704064
 20
7.2531627357
 30
0.0
 10
11.6617746509
 20
7.2498120709
 30
0.0
 10
11.6651380407
 20
7.2465217709
 30
0.0
 10
11.6682564516
 20
7.2432918309
 30
0.0
 10
11.6711262044
 20
7.2401221179
 30
0.0
 10
11.6737440418
 20
7.2370124023
 30
0.0
 10
11.6761070981
 20
7.2339623752
 30
0.0
 10
11.6782128518
 20
7.2309716597
 30
0.0
 10
11.6800591804
 20
7.2280398966
 30
0.0
 10
11.6816441174
 20
7.2251666219
 30
0.0
 10
11.682966138
 20
7.2223515501
 30
0.0
 10
11.6840236554
 20
7.2195942098
 30
0.0
 10
11.6848154948
 20
7.2168948807
 30
0.0
 10
11.685172385
 20
7.2150984411
 30
0.0
 10
11.6853030968
 20
7.2142140822
 30
0.0
  0
SPLINE
  5
37E
100
AcDbEntity
  8
0
100
AcDbSpline
 62
7
  6
CONTINUOUS
 70
0
 71
3
 72
35
 73
31
 74
0
 42
0.0000001
 43
0.0000001
 44
0.0000000001
 40
0.0
 40
0.0
 40
0.0
 40
0.0
 40
0.0308202574
 40
0.0617170014
 40
0.0926874753
 40
0.1237283542
 40
0.1548359178
 40
0.1860060694
 40
0.21723433
 40
0.2485158844
 40
0.2798456145
 40
0.3112181164
 40
0.3426277424
 40
0.3740686367
 40
0.4370091288
 40
0.5000005996
 40
0.5629920495
 40
0.6259324796
 40
0.6573733282
 40
0.6887828991
 40
0.7201553354
 40
0.751484992
 40
0.7827664645
 40
0.8139946336
 40
0.8451646876
 40
0.876272148
 40
0.9073129118
 40
0.9382832666
 40
0.9691799127
 40
1.0
 40
1.0
 40
1.0
 40
1.0
 10
11.2105805374
 20
7.8848570728
 30
0.0
 10
11.2121549947
 20
7.8755044429
 30
0.0
 10
11.2156714641
 20
7.8568351407
 30
0.0
 10
11.2220284052
 20
7.8290232673
 30
0.0
 10
11.2294647284
 20
7.8014096283
 30
0.0
 10
11.2379686607
 20
7.7740381064
 30
0.0
 10
11.2475267698
 20
7.7469514856
 30
0.0
 10
11.258124103
 20
7.720192337
 30
0.0
 10
11.2697440327
 20
7.6938026501
 30
0.0
 10
11.2823682103
 20
7.6678238059
 30
0.0
 10
11.2959769058
 20
7.6422965728
 30
0.0
 10
11.3105486817
 20
7.6172611295
 30
0.0
 10
11.3260608973
 20
7.5927563076
 30
0.0
 10
11.3479699583
 20
7.5608350236
 30
0.0
 10
11.3775822083
 20
7.5224546209
 30
0.0
 10
11.4164361049
 20
7.4791380833
 30
0.0
 10
11.4583825672
 20
7.4388089379
 30
0.0
 10
11.4957155719
 20
7.4078867204
 30
0.0
 10
11.5268597686
 20
7.3848864931
 30
0.0
 10
11.5508132574
 20
7.3685358797
 30
0.0
 10
11.5753295777
 20
7.3531067959
 30
0.0
 10
11.6003706871
 20
7.33862318
 30
0.0
 10
11.6258972056
 20
7.3251079036
 30
0.0
 10
11.6518690562
 20
7.3125820706
 30
0.0
 10
11.6782455035
 20
7.3010654151
 30
0.0
 10
11.7049851847
 20
7.2905760694
 30
0.0
 10
11.7320460578
 20
7.2811304224
 30
0.0
 10
11.7593858261
 20
7.2727433372
 30
0.0
 10
11.7869610459
 20
7.2654281832
 30
0.0
 10
11.8054974541
 20
7.2612680356
 30
0.0
 10
11.8147899718
 20
7.2593710046
 30
0.0
  0
SPLINE
  5
37F
100
AcDbEntity
  8
0
100
AcDbSpline
 62
7
  6
CONTINUOUS
 70
0
 71
3
 72
26
 73
22
 74
0
 42
0.0000001
 43
0.0000001
 44
0.0000000001
 40
0.0
 40
0.0
 40
0.0
 40
0.0
 40
0.061831016
 40
0.1239149804
 40
0.1862255582
 40
0.2487320208
 40
0.3113998685
 40
0.374191519
 40
0.43706704
 40
0.4999849143
 40
0.5629028274
 40
0.6257784648
 40
0.6885703081
 40
0.7512384205
 40
0.813745213
 40
0.8449317777
 40
0.876065372
 40
0.9071422857
 40
0.9381590727
 40
0.9691125884
 40
1.0
 40
1.0
 40
1.0
 40
1.0
 10
11.272403357
 20
7.8631915943
 30
0.0
 10
11.2759842856
 20
7.8472978512
 30
0.0
 10
11.2842823648
 20
7.815686518
 30
0.0
 10
11.3000178017
 20
7.7691692027
 30
0.0
 10
11.3189887958
 20
7.7236798617
 30
0.0
 10
11.3410955977
 20
7.6794581976
 30
0.0
 10
11.3662231366
 20
7.6367333688
 30
0.0
 10
11.3942404541
 20
7.5957278004
 30
0.0
 10
11.4250017024
 20
7.556654707
 30
0.0
 10
11.4583467666
 20
7.5197173385
 30
0.0
 10
11.4941021583
 20
7.4851078059
 30
0.0
 10
11.5320817783
 20
7.4530062251
 30
0.0
 10
11.5720884736
 20
7.4235795004
 30
0.0
 10
11.6139127876
 20
7.3969815011
 30
0.0
 10
11.6501327244
 20
7.3772717377
 30
0.0
 10
11.6797975317
 20
7.3630526729
 30
0.0
 10
11.702346395
 20
7.3531818221
 30
0.0
 10
11.7251801761
 20
7.3441104927
 30
0.0
 10
11.7482696278
 20
7.3358504872
 30
0.0
 10
11.7715841415
 20
7.3284125654
 30
0.0
 10
11.78727513
 20
7.3240034612
 30
0.0
 10
11.7951477467
 20
7.3219395145
 30
0.0
  0
SPLINE
  5
380
100
AcDbEntity
  8
0
100
AcDbSpline
 62
7
  6
CONTINUOUS
 70
0
 71
3
 72
48
 73
44
 74
0
 42
0.0000001
 43
0.0000001
 44
0.0000000001
 40
0.0
 40
0.0
 40
0.0
 40
0.0
 40
0.0063158757
 40
0.0126706723
 40
0.0191025153
 40
0.0256480656
 40
0.0323419735
 40
0.0392163471
 40
0.0536142197
 40
0.0611949889
 40
0.0690567529
 40
0.0772179107
 40
0.0856943607
 40
0.0944997659
 40
0.103645921
 40
0.1131427623
 40
0.1229985381
 40
0.1332201926
 40
0.1438133623
 40
0.1547824065
 40
0.1661307821
 40
0.177861045
 40
0.189974755
 40
0.2153542741
 40
0.242270138
 40
0.2707124992
 40
0.3006635018
 40
0.3320987844
 40
0.3649881127
 40
0.3992959802
 40
0.4349824885
 40
0.4720034577
 40
0.510310969
 40
0.5498538267
 40
0.5905775201
 40
0.6324247899
 40
0.6753357769
 40
0.7192480049
 40
0.7640970224
 40
0.8098164065
 40
0.8563370501
 40
0.9035891101
 40
1.0
 40
1.0
 40
1.0
 40
1.0
 10
12.697250098
 20
6.63358311
 30
0.0
 10
12.6981475845
 20
6.633520862
 30
0.0
 10
12.6999438472
 20
6.6333225207
 30
0.0
 10
12.7026180996
 20
6.6328055022
 30
0.0
 10
12.705274482
 20
6.6320690895
 30
0.0
 10
12.7079114442
 20
6.631113842
 30
0.0
 10
12.7105279232
 20
6.629940246
 30
0.0
 10
12.7140411647
 20
6.6280569073
 30
0.0
 10
12.7174590122
 20
6.6257514446
 30
0.0
 10
12.720766585
 20
6.6230797466
 30
0.0
 10
12.7232649497
 20
6.6208272296
 30
0.0
 10
12.7257366153
 20
6.6183618228
 30
0.0
 10
12.72818097
 20
6.6156844202
 30
0.0
 10
12.73059706
 20
6.6127962169
 30
0.0
 10
12.7329839482
 20
6.6096983404
 30
0.0
 10
12.7353407149
 20
6.6063920619
 30
0.0
 10
12.7376664913
 20
6.6028787552
 30
0.0
 10
12.7399603276
 20
6.5991598159
 30
0.0
 10
12.7422212966
 20
6.5952367437
 30
0.0
 10
12.7444485454
 20
6.5911111621
 30
0.0
 10
12.7466411477
 20
6.5867847339
 30
0.0
 10
12.7487982077
 20
6.5822591962
 30
0.0
 10
12.7516704515
 20
6.5758624807
 30
0.0
 10
12.7551560519
 20
6.5673728911
 30
0.0
 10
12.7591208901
 20
6.556575094
 30
0.0
 10
12.7629237754
 20
6.5450317211
 30
0.0
 10
12.7665585129
 20
6.5327616846
 30
0.0
 10
12.7700190566
 20
6.5197848917
 30
0.0
 10
12.7732996511
 20
6.5061225541
 30
0.0
 10
12.7763948924
 20
6.4917970467
 30
0.0
 10
12.7792995737
 20
6.4768318672
 30
0.0
 10
12.7820088799
 20
6.4612516047
 30
0.0
 10
12.7845183178
 20
6.4450818834
 30
0.0
 10
12.7868236549
 20
6.428349314
 30
0.0
 10
12.7889210944
 20
6.4110814545
 30
0.0
 10
12.7908071316
 20
6.3933067539
 30
0.0
 10
12.7924785914
 20
6.3750545114
 30
0.0
 10
12.7939327373
 20
6.3563548181
 30
0.0
 10
12.7951671155
 20
6.3372384811
 30
0.0
 10
12.7961796444
 20
6.3177370948
 30
0.0
 10
12.7969687132
 20
6.2978828037
 30
0.0
 10
12.7977259717
 20
6.2708029268
 30
0.0
 10
12.7979456425
 20
6.2503382909
 30
0.0
 10
12.7979456425
 20
6.2366053821
 30
0.0
  0
SPLINE
  5
381
100
AcDbEntity
  8
0
100
AcDbSpline
 62
7
  6
CONTINUOUS
 70
0
 71
3
 72
48
 73
44
 74
0
 42
0.0000001
 43
0.0000001
 44
0.0000000001
 40
0.0
 40
0.0
 40
0.0
 40
0.0
 40
0.0063158757
 40
0.0126706723
 40
0.0191025153
 40
0.0256480656
 40
0.0323419735
 40
0.0392163471
 40
0.0536142197
 40
0.0611949889
 40
0.0690567529
 40
0.0772179107
 40
0.0856943607
 40
0.0944997659
 40
0.103645921
 40
0.1131427623
 40
0.1229985381
 40
0.1332201926
 40
0.1438133623
 40
0.1547824065
 40
0.1661307821
 40
0.177861045
 40
0.189974755
 40
0.2153542741
 40
0.242270138
 40
0.2707124992
 40
0.3006635018
 40
0.3320987844
 40
0.3649881127
 40
0.3992959802
 40
0.4349824885
 40
0.4720034577
 40
0.510310969
 40
0.5498538267
 40
0.5905775201
 40
0.6324247899
 40
0.6753357769
 40
0.7192480049
 40
0.7640970224
 40
0.8098164065
 40
0.8563370501
 40
0.9035891101
 40
1.0
 40
1.0
 40
1.0
 40
1.0
 10
12.697250098
 20
9.411585881
 30
0.0
 10
12.6981475845
 20
9.411523633
 30
0.0
 10
12.6999438472
 20
9.4113252917
 30
0.0
 10
12.7026180996
 20
9.4108082732
 30
0.0
 10
12.705274482
 20
9.4100718605
 30
0.0
 10
12.7079114442
 20
9.409116613
 30
0.0
 10
12.7105279232
 20
9.407943017
 30
0.0
 10
12.7140411647
 20
9.4060596783
 30
0.0
 10
12.7174590122
 20
9.4037542156
 30
0.0
 10
12.720766585
 20
9.4010825176
 30
0.0
 10
12.7232649497
 20
9.3988300006
 30
0.0
 10
12.7257366153
 20
9.3963645938
 30
0.0
 10
12.72818097
 20
9.3936871912
 30
0.0
 10
12.73059706
 20
9.3907989879
 30
0.0
 10
12.7329839482
 20
9.3877011114
 30
0.0
 10
12.7353407149
 20
9.3843948329
 30
0.0
 10
12.7376664913
 20
9.3808815262
 30
0.0
 10
12.7399603276
 20
9.3771625869
 30
0.0
 10
12.7422212966
 20
9.3732395147
 30
0.0
 10
12.7444485454
 20
9.3691139331
 30
0.0
 10
12.7466411477
 20
9.3647875049
 30
0.0
 10
12.7487982077
 20
9.3602619672
 30
0.0
 10
12.7516704515
 20
9.3538652517
 30
0.0
 10
12.7551560519
 20
9.3453756621
 30
0.0
 10
12.7591208901
 20
9.334577865
 30
0.0
 10
12.7629237754
 20
9.3230344921
 30
0.0
 10
12.7665585129
 20
9.3107644556
 30
0.0
 10
12.7700190566
 20
9.2977876627
 30
0.0
 10
12.7732996511
 20
9.2841253251
 30
0.0
 10
12.7763948924
 20
9.2697998177
 30
0.0
 10
12.7792995737
 20
9.2548346382
 30
0.0
 10
12.7820088799
 20
9.2392543757
 30
0.0
 10
12.7845183178
 20
9.2230846544
 30
0.0
 10
12.7868236549
 20
9.206352085
 30
0.0
 10
12.7889210944
 20
9.1890842255
 30
0.0
 10
12.7908071316
 20
9.1713095249
 30
0.0
 10
12.7924785914
 20
9.1530572824
 30
0.0
 10
12.7939327373
 20
9.1343575891
 30
0.0
 10
12.7951671155
 20
9.1152412521
 30
0.0
 10
12.7961796444
 20
9.0957398658
 30
0.0
 10
12.7969687132
 20
9.0758855747
 30
0.0
 10
12.7977259717
 20
9.0488056978
 30
0.0
 10
12.7979456425
 20
9.0283410619
 30
0.0
 10
12.7979456425
 20
9.0146081531
 30
0.0
  0
SPLINE
  5
382
100
AcDbEntity
  8
0
100
AcDbSpline
 62
7
  6
CONTINUOUS
 70
0
 71
3
 72
45
 73
41
 74
0
 42
0.0000001
 43
0.0000001
 44
0.0000000001
 40
0.0
 40
0.0
 40
0.0
 40
0.0
 40
0.0094175852
 40
0.0182175861
 40
0.0264802743
 40
0.0342923321
 40
0.041747383
 40
0.0489445196
 40
0.0559839648
 40
0.0629632824
 40
0.06997535
 40
0.0771049336
 40
0.0844251389
 40
0.0919964706
 40
0.0998686087
 40
0.1080820592
 40
0.1166675742
 40
0.1256474035
 40
0.1350369335
 40
0.1448480079
 40
0.1550888425
 40
0.1657636925
 40
0.1884135821
 40
0.2127905762
 40
0.2388696754
 40
0.2666067626
 40
0.29595513
 40
0.3268692232
 40
0.3592958846
 40
0.3931849802
 40
0.4284936832
 40
0.4651760822
 40
0.5031860648
 40
0.5424877378
 40
0.5830465942
 40
0.6248264336
 40
0.7119268584
 40
0.8035952811
 40
0.8996593175
 40
1.0
 40
1.0
 40
1.0
 40
1.0
 10
9.4903859378
 20
8.7076763759
 30
0.0
 10
9.4899573571
 20
8.7077889854
 30
0.0
 10
9.4891361436
 20
8.7080387947
 30
0.0
 10
9.4879790723
 20
8.7085056263
 30
0.0
 10
9.4869394024
 20
8.7090476027
 30
0.0
 10
9.4860152394
 20
8.7096612945
 30
0.0
 10
9.4852047101
 20
8.7103435028
 30
0.0
 10
9.4845060775
 20
8.7110910335
 30
0.0
 10
9.4839174657
 20
8.7119004434
 30
0.0
 10
9.4834367293
 20
8.7127681857
 30
0.0
 10
9.4830616063
 20
8.7136909346
 30
0.0
 10
9.4827896065
 20
8.7146655847
 30
0.0
 10
9.4826180324
 20
8.7156892531
 30
0.0
 10
9.4825441403
 20
8.7167593344
 30
0.0
 10
9.482565349
 20
8.7178735577
 30
0.0
 10
9.4826792435
 20
8.7190299004
 30
0.0
 10
9.4828834505
 20
8.7202264809
 30
0.0
 10
9.4831756809
 20
8.7214614459
 30
0.0
 10
9.4835537289
 20
8.7227330533
 30
0.0
 10
9.4840155649
 20
8.7240396813
 30
0.0
 10
9.4845592029
 20
8.725379869
 30
0.0
 10
9.4854074365
 20
8.7272465666
 30
0.0
 10
9.486669704
 20
8.7296529874
 30
0.0
 10
9.4884510832
 20
8.7325976126
 30
0.0
 10
9.4905148786
 20
8.7356451968
 30
0.0
 10
9.4928483197
 20
8.7387878105
 30
0.0
 10
9.4954397104
 20
8.7420183976
 30
0.0
 10
9.4982779359
 20
8.7453307095
 30
0.0
 10
9.5013524755
 20
8.7487193049
 30
0.0
 10
9.5046535998
 20
8.7521793687
 30
0.0
 10
9.5081723073
 20
8.755706795
 30
0.0
 10
9.5119000579
 20
8.7592980416
 30
0.0
 10
9.5158288872
 20
8.7629500676
 30
0.0
 10
9.5199515941
 20
8.7666603103
 30
0.0
 10
9.5242614938
 20
8.770426768
 30
0.0
 10
9.5303338309
 20
8.7755933042
 30
0.0
 10
9.5383597139
 20
8.7821734167
 30
0.0
 10
9.5485221256
 20
8.79017177
 30
0.0
 10
9.5593121646
 20
8.7983767098
 30
0.0
 10
9.5667458372
 20
8.8038676747
 30
0.0
 10
9.5705593258
 20
8.8066512862
 30
0.0
  0
SPLINE
  5
383
100
AcDbEntity
  8
0
100
AcDbSpline
 62
7
  6
CONTINUOUS
 70
0
 71
3
 72
75
 73
71
 74
0
 42
0.0000001
 43
0.0000001
 44
0.0000000001
 40
0.0
 40
0.0
 40
0.0
 40
0.0
 40
0.0155842192
 40
0.0233572755
 40
0.0311169608
 40
0.046596236
 40
0.0620247854
 40
0.0697211414
 40
0.0774055104
 40
0.0927382729
 40
0.1080270414
 40
0.123275021
 40
0.1384858323
 40
0.1536634824
 40
0.1688123253
 40
0.1839370178
 40
0.1990424723
 40
0.2141338055
 40
0.2292162847
 40
0.2442952718
 40
0.2593761658
 40
0.2744643456
 40
0.2895651118
 40
0.304683631
 40
0.3198248809
 40
0.3349935985
 40
0.3501942316
 40
0.3654308936
 40
0.3807073232
 40
0.3960268487
 40
0.4113923571
 40
0.4268062686
 40
0.4422705168
 40
0.4577865339
 40
0.4733552422
 40
0.4889770495
 40
0.5046518511
 40
0.5203790354
 40
0.5361574949
 40
0.5519856415
 40
0.5678614254
 40
0.5837823585
 40
0.5997455407
 40
0.6157476895
 40
0.6317851725
 40
0.6478540421
 40
0.6639500724
 40
0.6800687979
 40
0.6962055534
 40
0.7123555163
 40
0.7285137483
 40
0.7446752392
 40
0.7608349505
 40
0.7769878595
 40
0.7931290025
 40
0.8092535185
 40
0.8253566919
 40
0.8414339942
 40
0.8574811246
 40
0.8654926466
 40
0.8734951387
 40
0.8894701295
 40
0.9054037966
 40
0.9212931282
 40
0.9371354993
 40
0.9529287706
 40
0.9686711003
 40
0.9765233353
 40
0.9843626592
 40
1.0
 40
1.0
 40
1.0
 40
1.0
 10
11.8975300857
 20
7.0098719923
 30
0.0
 10
11.8975300857
 20
6.9951368581
 30
0.0
 10
11.8969887057
 20
6.9730470333
 30
0.0
 10
11.8951773136
 20
6.9436790918
 30
0.0
 10
11.8926469436
 20
6.9144633536
 30
0.0
 10
11.8881345956
 20
6.8781659431
 30
0.0
 10
11.8818205831
 20
6.8421986911
 30
0.0
 10
11.8757013204
 20
6.8137151856
 30
0.0
 10
11.8688850767
 20
6.7854836348
 30
0.0
 10
11.8590479638
 20
6.7506086187
 30
0.0
 10
11.8451538164
 20
6.7095045082
 30
0.0
 10
11.8292116625
 20
6.6692737952
 30
0.0
 10
11.8112599786
 20
6.6300141811
 30
0.0
 10
11.7913419286
 20
6.5918201823
 30
0.0
 10
11.7695054853
 20
6.5547839795
 30
0.0
 10
11.745803251
 20
6.5189949053
 30
0.0
 10
11.7202923443
 20
6.4845393049
 30
0.0
 10
11.6930342596
 20
6.4515003035
 30
0.0
 10
11.6640947188
 20
6.4199576085
 30
0.0
 10
11.6335435118
 20
6.389987313
 30
0.0
 10
11.6014543265
 20
6.3616617099
 30
0.0
 10
11.5679045693
 20
6.3350491152
 30
0.0
 10
11.532975175
 20
6.3102137026
 30
0.0
 10
11.4967504143
 20
6.2872153385
 30
0.0
 10
11.4593176835
 20
6.2661094412
 30
0.0
 10
11.420767287
 20
6.2469468506
 30
0.0
 10
11.3811922178
 20
6.2297737061
 30
0.0
 10
11.3406879302
 20
6.2146313367
 30
0.0
 10
11.2993521069
 20
6.201556163
 30
0.0
 10
11.2572844221
 20
6.1905796122
 30
0.0
 10
11.2145862992
 20
6.1817280438
 30
0.0
 10
11.1713606653
 20
6.1750226913
 30
0.0
 10
11.127711704
 20
6.1704796041
 30
0.0
 10
11.0837446017
 20
6.1681096138
 30
0.0
 10
11.0395652935
 20
6.1679183176
 30
0.0
 10
10.9952802087
 20
6.1699060659
 30
0.0
 10
10.9509960153
 20
6.1740679641
 30
0.0
 10
10.9068193647
 20
6.1803938867
 30
0.0
 10
10.8628566362
 20
6.1888685035
 30
0.0
 10
10.8192136824
 20
6.1994713174
 30
0.0
 10
10.7759955771
 20
6.2121767166
 30
0.0
 10
10.7333063614
 20
6.2269540308
 30
0.0
 10
10.6912487935
 20
6.2437676041
 30
0.0
 10
10.6499241051
 20
6.2625768904
 30
0.0
 10
10.6094317588
 20
6.283336549
 30
0.0
 10
10.5698692107
 20
6.3059965547
 30
0.0
 10
10.5313316775
 20
6.3305023178
 30
0.0
 10
10.4939119088
 20
6.3567948149
 30
0.0
 10
10.4576999654
 20
6.3848107309
 30
0.0
 10
10.4227830042
 20
6.4144826108
 30
0.0
 10
10.3892450675
 20
6.4457390185
 30
0.0
 10
10.3571668765
 20
6.4785047048
 30
0.0
 10
10.3266256442
 20
6.5127007961
 30
0.0
 10
10.2976948917
 20
6.5482449784
 30
0.0
 10
10.2704442643
 20
6.5850517114
 30
0.0
 10
10.244939395
 20
6.6230323678
 30
0.0
 10
10.2212416344
 20
6.66209569
 30
0.0
 10
10.1994083229
 20
6.7021470976
 30
0.0
 10
10.1828017412
 20
6.7362863807
 30
0.0
 10
10.1705005353
 20
6.7639952872
 30
0.0
 10
10.1588750187
 20
6.7919205152
 30
0.0
 10
10.1455960041
 20
6.827259658
 30
0.0
 10
10.1316990269
 20
6.8702809325
 30
0.0
 10
10.1198819679
 20
6.9137900525
 30
0.0
 10
10.1101735292
 20
6.9576819033
 30
0.0
 10
10.1025972468
 20
7.0018502626
 30
0.0
 10
10.0980717228
 20
7.0388319219
 30
0.0
 10
10.0955359618
 20
7.0684474598
 30
0.0
 10
10.0937264343
 20
7.0980161891
 30
0.0
 10
10.093180445
 20
7.1202187033
 30
0.0
 10
10.093180445
 20
7.1350040649
 30
0.0
  0
SPLINE
  5
384
100
AcDbEntity
  8
0
100
AcDbSpline
 62
7
  6
CONTINUOUS
 70
0
 71
3
 72
71
 73
67
 74
0
 42
0.0000001
 43
0.0000001
 44
0.0000000001
 40
0.0
 40
0.0
 40
0.0
 40
0.0
 40
0.0149701622
 40
0.0299433828
 40
0.0449227028
 40
0.0599111246
 40
0.0749115948
 40
0.0899269886
 40
0.1049600895
 40
0.120013573
 40
0.1350899941
 40
0.1501917695
 40
0.165321163
 40
0.180480277
 40
0.1956710384
 40
0.2108951862
 40
0.2261542673
 40
0.2414496274
 40
0.2567824002
 40
0.2721535092
 40
0.2875636617
 40
0.3030133419
 40
0.3185028169
 40
0.3340321343
 40
0.34960112
 40
0.3652093858
 40
0.3808563328
 40
0.3965411509
 40
0.4122628307
 40
0.428020169
 40
0.4438117721
 40
0.4596360694
 40
0.475491322
 40
0.4913756286
 40
0.5072869404
 40
0.5232230722
 40
0.5391817101
 40
0.5551604278
 40
0.5711566993
 40
0.5871679078
 40
0.6031913633
 40
0.6192243155
 40
0.6352639647
 40
0.6513074791
 40
0.6673520087
 40
0.683394696
 40
0.6994326945
 40
0.7154631813
 40
0.7314833687
 40
0.7474905224
 40
0.7634819732
 40
0.7794551283
 40
0.7954074893
 40
0.811336662
 40
0.8272403677
 40
0.8431164596
 40
0.8589629314
 40
0.8747779261
 40
0.890559756
 40
0.9063068963
 40
0.9220180004
 40
0.9376919706
 40
0.9533277655
 40
0.9689245666
 40
0.9844825444
 40
1.0
 40
1.0
 40
1.0
 40
1.0
 10
9.7235118445
 20
8.3950839822
 30
0.0
 10
9.7156310006
 20
8.3874716831
 30
0.0
 10
9.6995631686
 20
8.3725572131
 30
0.0
 10
9.674588846
 20
8.3511584885
 30
0.0
 10
9.6487736177
 20
8.330759709
 30
0.0
 10
9.6221534643
 20
8.3113894754
 30
0.0
 10
9.5947649577
 20
8.293074223
 30
0.0
 10
9.5666458137
 20
8.2758391946
 30
0.0
 10
9.5378346795
 20
8.259708166
 30
0.0
 10
9.5083712661
 20
8.2447032288
 30
0.0
 10
9.4782961125
 20
8.2308450199
 30
0.0
 10
9.4476505704
 20
8.2181526801
 30
0.0
 10
9.4164768552
 20
8.206643557
 30
0.0
 10
9.384817859
 20
8.1963334616
 30
0.0
 10
9.3527171147
 20
8.187236654
 30
0.0
 10
9.3202188195
 20
8.1793655307
 30
0.0
 10
9.2873676821
 20
8.1727308821
 30
0.0
 10
9.2542088772
 20
8.167341913
 30
0.0
 10
9.2207880362
 20
8.163205921
 30
0.0
 10
9.1871511278
 20
8.1603285455
 30
0.0
 10
9.153344409
 20
8.1587138242
 30
0.0
 10
9.1194143826
 20
8.1583638705
 30
0.0
 10
9.0854077059
 20
8.1592791068
 30
0.0
 10
9.0513711467
 20
8.1614583552
 30
0.0
 10
9.0173515068
 20
8.1648985241
 30
0.0
 10
8.9833955542
 20
8.1695948165
 30
0.0
 10
8.9495499898
 20
8.1755408553
 30
0.0
 10
8.91586134
 20
8.1827283849
 30
0.0
 10
8.8823759045
 20
8.1911474515
 30
0.0
 10
8.8491397413
 20
8.2007865586
 30
0.0
 10
8.8161985304
 20
8.2116323909
 30
0.0
 10
8.7835975316
 20
8.223669963
 30
0.0
 10
8.7513815909
 20
8.2368828015
 30
0.0
 10
8.7195949827
 20
8.2512526967
 30
0.0
 10
8.6882813674
 20
8.2667598188
 30
0.0
 10
8.6574838257
 20
8.2833829213
 30
0.0
 10
8.6272446835
 20
8.3010991249
 30
0.0
 10
8.597605463
 20
8.3198840013
 30
0.0
 10
8.5686069474
 20
8.339711794
 30
0.0
 10
8.5402889954
 20
8.3605552351
 30
0.0
 10
8.5126904784
 20
8.3823856012
 30
0.0
 10
8.485849378
 20
8.4051729434
 30
0.0
 10
8.4598025971
 20
8.4288859405
 30
0.0
 10
8.4345858764
 20
8.4534919292
 30
0.0
 10
8.4102339265
 20
8.4789571388
 30
0.0
 10
8.3867802414
 20
8.5052465786
 30
0.0
 10
8.3642569905
 20
8.53232405
 30
0.0
 10
8.3426951836
 20
8.5601523771
 30
0.0
 10
8.3221244949
 20
8.5886933295
 30
0.0
 10
8.3025731253
 20
8.6179076203
 30
0.0
 10
8.2840680004
 20
8.6477551282
 30
0.0
 10
8.2666346097
 20
8.6781948517
 30
0.0
 10
8.250296838
 20
8.7091849009
 30
0.0
 10
8.2350771929
 20
8.7406827048
 30
0.0
 10
8.2209966654
 20
8.7726449935
 30
0.0
 10
8.2080745302
 20
8.8050277915
 30
0.0
 10
8.1963285979
 20
8.8377866036
 30
0.0
 10
8.1857751001
 20
8.8708764233
 30
0.0
 10
8.1764284679
 20
8.904251731
 30
0.0
 10
8.1683015918
 20
8.937866652
 30
0.0
 10
8.1614057281
 20
8.9716750142
 30
0.0
 10
8.1557503271
 20
9.0056303041
 30
0.0
 10
8.1513431641
 20
9.0396857128
 30
0.0
 10
8.1481903182
 20
9.0737949944
 30
0.0
 10
8.1462963512
 20
9.1079101024
 30
0.0
 10
8.145873909
 20
9.1306570325
 30
0.0
 10
8.145873909
 20
9.1420145591
 30
0.0
  0
SPLINE
  5
385
100
AcDbEntity
  8
0
100
AcDbSpline
 62
7
  6
CONTINUOUS
 70
0
 71
3
 72
51
 73
47
 74
0
 42
0.0000001
 43
0.0000001
 44
0.0000000001
 40
0.0
 40
0.0
 40
0.0
 40
0.0
 40
0.0150464129
 40
0.0301187006
 40
0.0452196095
 40
0.0603509857
 40
0.0755146254
 40
0.0907122543
 40
0.1059453371
 40
0.1212151325
 40
0.1365226946
 40
0.1518688649
 40
0.1672542641
 40
0.1826792883
 40
0.2136434123
 40
0.2447654232
 40
0.2760406839
 40
0.3074612717
 40
0.3390161908
 40
0.3706916415
 40
0.4024713367
 40
0.4343368623
 40
0.4662680673
 40
0.4982434805
 40
0.5302407461
 40
0.5622370725
 40
0.594209687
 40
0.6261362903
 40
0.6579955031
 40
0.6897673009
 40
0.7214334299
 40
0.7529777957
 40
0.784386818
 40
0.8156497433
 40
0.8312265033
 40
0.8467641416
 40
0.8622622149
 40
0.8777205048
 40
0.8931390019
 40
0.9085179056
 40
0.9238576985
 40
0.9391590387
 40
0.9544225907
 40
0.9696496898
 40
0.9848423426
 40
1.0
 40
1.0
 40
1.0
 40
1.0
 10
9.6517756361
 20
8.9026435203
 30
0.0
 10
9.6458459568
 20
8.8998761832
 30
0.0
 10
9.6338661772
 20
8.8945695207
 30
0.0
 10
9.6155830673
 20
8.8873126748
 30
0.0
 10
9.5969957876
 20
8.8807618509
 30
0.0
 10
9.5781302334
 20
8.8749262613
 30
0.0
 10
9.559012459
 20
8.8698138571
 30
0.0
 10
9.5396688579
 20
8.8654318366
 30
0.0
 10
9.5201261515
 20
8.8617860405
 30
0.0
 10
9.5004113025
 20
8.8588816372
 30
0.0
 10
9.4805515168
 20
8.8567225673
 30
0.0
 10
9.4605743021
 20
8.8553117246
 30
0.0
 10
9.4405068752
 20
8.8546512295
 30
0.0
 10
9.4136364318
 20
8.8547719379
 30
0.0
 10
9.3799548437
 20
8.856808165
 30
0.0
 10
9.3396813788
 20
8.862239379
 30
0.0
 10
9.2997156968
 20
8.870631066
 30
0.0
 10
9.2602795716
 20
8.8819365506
 30
0.0
 10
9.2215898767
 20
8.8960931505
 30
0.0
 10
9.183859838
 20
8.9130225277
 30
0.0
 10
9.1472972034
 20
8.9326311023
 30
0.0
 10
9.1121033105
 20
8.9548106179
 30
0.0
 10
9.0784719438
 20
8.9794387256
 30
0.0
 10
9.0465882975
 20
9.0063796563
 30
0.0
 10
9.0166279667
 20
9.0354849585
 30
0.0
 10
8.988755954
 20
9.0665942734
 30
0.0
 10
8.9631258026
 20
9.0995362508
 30
0.0
 10
8.9398787618
 20
9.1341294835
 30
0.0
 10
8.9191430163
 20
9.1701834798
 30
0.0
 10
8.9010329903
 20
9.207499747
 30
0.0
 10
8.8856486921
 20
9.2458726779
 30
0.0
 10
8.8730751171
 20
9.2850913181
 30
0.0
 10
8.8633820384
 20
9.3249381709
 30
0.0
 10
8.8577422352
 20
9.3585309062
 30
0.0
 10
8.8547223553
 20
9.3854950339
 30
0.0
 10
8.853205774
 20
9.4057146484
 30
0.0
 10
8.8524374897
 20
9.4259247068
 30
0.0
 10
8.8524183653
 20
9.4460976451
 30
0.0
 10
8.8531485129
 20
9.4662055328
 30
0.0
 10
8.854626984
 20
9.4862206474
 30
0.0
 10
8.8568516281
 20
9.5061153823
 30
0.0
 10
8.8598195881
 20
9.5258621897
 30
0.0
 10
8.8635265238
 20
9.5454338362
 30
0.0
 10
8.8679675972
 20
9.5648036976
 30
0.0
 10
8.8731365936
 20
9.5839441494
 30
0.0
 10
8.8770674213
 20
9.5965485827
 30
0.0
 10
8.8791516047
 20
9.6028024562
 30
0.0
  0
SPLINE
  5
386
100
AcDbEntity
  8
0
100
AcDbSpline
 62
7
  6
CONTINUOUS
 70
0
 71
3
 72
40
 73
36
 74
0
 42
0.0000001
 43
0.0000001
 44
0.0000000001
 40
0.0
 40
0.0
 40
0.0
 40
0.0
 40
0.0298239208
 40
0.0596770713
 40
0.0895691557
 40
0.1195147116
 40
0.1345127208
 40
0.1495280737
 40
0.1796122876
 40
0.2097803124
 40
0.2400402752
 40
0.2703992619
 40
0.3008632437
 40
0.3314371459
 40
0.3621248981
 40
0.3929294682
 40
0.423852908
 40
0.4548964486
 40
0.4860605919
 40
0.5173451736
 40
0.5487494428
 40
0.5802722113
 40
0.6119119079
 40
0.6436667081
 40
0.6755346633
 40
0.7075135332
 40
0.7396008691
 40
0.7717943647
 40
0.8040923114
 40
0.8364933392
 40
0.8689962275
 40
0.9015998493
 40
0.9343029998
 40
0.9671038762
 40
1.0
 40
1.0
 40
1.0
 40
1.0
 10
8.8791516047
 20
9.6028024562
 30
0.0
 10
8.8799239796
 20
9.5986461036
 30
0.0
 10
8.8817318907
 20
9.5903756493
 30
0.0
 10
8.8852197367
 20
9.5781594622
 30
0.0
 10
8.8894736752
 20
9.56616991
 30
0.0
 10
8.8936433564
 20
9.5564077249
 30
0.0
 10
8.897345296
 20
9.5487558704
 30
0.0
 10
8.9012935621
 20
9.5412059693
 30
0.0
 10
8.9066790566
 20
9.5319871452
 30
0.0
 10
8.9138321117
 20
9.5213264641
 30
0.0
 10
8.9216565537
 20
9.5110989677
 30
0.0
 10
8.9301259442
 20
9.5013433148
 30
0.0
 10
8.9392115998
 20
9.4920963889
 30
0.0
 10
8.9488824489
 20
9.4833935783
 30
0.0
 10
8.9591051971
 20
9.4752684741
 30
0.0
 10
8.9698444047
 20
9.4677527058
 30
0.0
 10
8.9810625498
 20
9.4608756352
 30
0.0
 10
8.9927201954
 20
9.4546641287
 30
0.0
 10
9.0047762126
 20
9.4491423963
 30
0.0
 10
9.0171879857
 20
9.4443317834
 30
0.0
 10
9.0299116377
 20
9.4402505129
 30
0.0
 10
9.0429023086
 20
9.4369134424
 30
0.0
 10
9.0561145207
 20
9.4343320182
 30
0.0
 10
9.0695025227
 20
9.4325141785
 30
0.0
 10
9.083020615
 20
9.4314642424
 30
0.0
 10
9.0966235022
 20
9.4311827508
 30
0.0
 10
9.1102667114
 20
9.4316666655
 30
0.0
 10
9.123907056
 20
9.4329094661
 30
0.0
 10
9.1375030705
 20
9.4349011485
 30
0.0
 10
9.1510153347
 20
9.4376285344
 30
0.0
 10
9.1644067091
 20
9.4410754972
 30
0.0
 10
9.1776425056
 20
9.4452231812
 30
0.0
 10
9.190690774
 20
9.4500503282
 30
0.0
 10
9.2035218318
 20
9.4555332103
 30
0.0
 10
9.2119023887
 20
9.4596033315
 30
0.0
 10
9.2160479143
 20
9.4617383011
 30
0.0
  0
SPLINE
  5
387
100
AcDbEntity
  8
0
100
AcDbSpline
 62
7
  6
CONTINUOUS
 70
0
 71
3
 72
67
 73
63
 74
0
 42
0.0000001
 43
0.0000001
 44
0.0000000001
 40
0.0
 40
0.0
 40
0.0
 40
0.0
 40
0.0150578896
 40
0.0301369511
 40
0.0452408113
 40
0.060372898
 40
0.0755364074
 40
0.0907342767
 40
0.1059691719
 40
0.1212434611
 40
0.1365591954
 40
0.1519181053
 40
0.1673215825
 40
0.182770669
 40
0.1982660631
 40
0.213808109
 40
0.2293967945
 40
0.2450317656
 40
0.2607123232
 40
0.2764374295
 40
0.2922057288
 40
0.308015551
 40
0.323864925
 40
0.3397516051
 40
0.3556730785
 40
0.3716265867
 40
0.387609153
 40
0.4036175959
 40
0.4196485543
 40
0.4356985172
 40
0.4678341754
 40
0.5000009342
 40
0.5321676789
 40
0.5643032951
 40
0.5803532276
 40
0.596384149
 40
0.6123925475
 40
0.6283750652
 40
0.6443285186
 40
0.660249931
 40
0.6761365472
 40
0.6919858522
 40
0.7077956005
 40
0.7235638248
 40
0.7392888521
 40
0.7549693277
 40
0.7706042174
 40
0.7861928192
 40
0.8017347802
 40
0.8172300921
 40
0.8326790957
 40
0.848082491
 40
0.8634413232
 40
0.8787569812
 40
0.894031197
 40
0.9092660246
 40
0.9244638296
 40
0.939627279
 40
0.954759313
 40
0.9698631257
 40
0.9849421447
 40
1.0
 40
1.0
 40
1.0
 40
1.0
 10
8.831173797
 20
7.3485804988
 30
0.0
 10
8.8274487285
 20
7.3432017486
 30
0.0
 10
8.8202411447
 20
7.3322626399
 30
0.0
 10
8.810190597
 20
7.3153612783
 30
0.0
 10
8.8009117462
 20
7.2979872453
 30
0.0
 10
8.7924223353
 20
7.2801736334
 30
0.0
 10
8.7847383044
 20
7.2619537592
 30
0.0
 10
8.7778739871
 20
7.2433619413
 30
0.0
 10
8.7718422523
 20
7.2244330975
 30
0.0
 10
8.7666545047
 20
7.2052027674
 30
0.0
 10
8.7623203498
 20
7.1857071105
 30
0.0
 10
8.7588479108
 20
7.1659827396
 30
0.0
 10
8.756243777
 20
7.146066689
 30
0.0
 10
8.7545126939
 20
7.1259963791
 30
0.0
 10
8.7536579008
 20
7.1058094908
 30
0.0
 10
8.7536810664
 20
7.0855439279
 30
0.0
 10
8.754582002
 20
7.0652377394
 30
0.0
 10
8.756359013
 20
7.0449290409
 30
0.0
 10
8.7590088237
 20
7.0246559654
 30
0.0
 10
8.762526319
 20
7.0044565506
 30
0.0
 10
8.7669049026
 20
6.9843687066
 30
0.0
 10
8.772136413
 20
6.9644301533
 30
0.0
 10
8.7782108984
 20
6.9446782784
 30
0.0
 10
8.7851169735
 20
6.9251501515
 30
0.0
 10
8.7928417328
 20
6.9058824425
 30
0.0
 10
8.8013705515
 20
6.8869112687
 30
0.0
 10
8.8106874688
 20
6.8682722121
 30
0.0
 10
8.8207749774
 20
6.8500003726
 30
0.0
 10
8.831614313
 20
6.832129629
 30
0.0
 10
8.8470459339
 20
6.808875416
 30
0.0
 10
8.8681103135
 20
6.7809800679
 30
0.0
 10
8.8960207447
 20
6.7496473102
 30
0.0
 10
8.9263695412
 20
6.7206700235
 30
0.0
 10
8.9535197666
 20
6.6986536416
 30
0.0
 10
8.976226357
 20
6.6824270757
 30
0.0
 10
8.9937115456
 20
6.6709762741
 30
0.0
 10
9.0116235794
 20
6.6602629833
 30
0.0
 10
9.0299292272
 20
6.650307082
 30
0.0
 10
9.04859407
 20
6.6411273824
 30
0.0
 10
9.0675830654
 20
6.6327410067
 30
0.0
 10
9.0868606097
 20
6.6251637764
 30
0.0
 10
9.1063905425
 20
6.6184099643
 30
0.0
 10
9.1261361828
 20
6.612492164
 30
0.0
 10
9.1460605027
 20
6.6074215735
 30
0.0
 10
9.1661261143
 20
6.6032077642
 30
0.0
 10
9.186295339
 20
6.5998585661
 30
0.0
 10
9.2065303379
 20
6.5973803699
 30
0.0
 10
9.2267931268
 20
6.5957778797
 30
0.0
 10
9.2470456617
 20
6.5950540287
 30
0.0
 10
9.267249927
 20
6.5952102892
 30
0.0
 10
9.287367982
 20
6.5962464153
 30
0.0
 10
9.3073620566
 20
6.5981603902
 30
0.0
 10
9.3271945971
 20
6.6009487387
 30
0.0
 10
9.3468283467
 20
6.6046062645
 30
0.0
 10
9.3662264457
 20
6.6091260298
 30
0.0
 10
9.3853524347
 20
6.6144996661
 30
0.0
 10
9.4041703704
 20
6.6207171067
 30
0.0
 10
9.4226449352
 20
6.627766612
 30
0.0
 10
9.440741347
 20
6.6356350312
 30
0.0
 10
9.4584257133
 20
6.6443076813
 30
0.0
 10
9.4756643879
 20
6.6537678863
 30
0.0
 10
9.4868461153
 20
6.6605929478
 30
0.0
 10
9.4923504203
 20
6.6641298278
 30
0.0
  0
SPLINE
  5
388
100
AcDbEntity
  8
0
100
AcDbSpline
 62
7
  6
CONTINUOUS
 70
0
 71
3
 72
42
 73
38
 74
0
 42
0.0000001
 43
0.0000001
 44
0.0000000001
 40
0.0
 40
0.0
 40
0.0
 40
0.0
 40
0.0299270119
 40
0.0449145894
 40
0.0599197631
 40
0.0899870165
 40
0.120151447
 40
0.1352775438
 40
0.1504335165
 40
0.1808361434
 40
0.2113748129
 40
0.2420571611
 40
0.2728879183
 40
0.303868855
 40
0.3349987904
 40
0.3662736578
 40
0.3976866221
 40
0.4292282453
 40
0.4608866947
 40
0.4926479873
 40
0.5244962661
 40
0.556414103
 40
0.5883828222
 40
0.6203828396
 40
0.6523940147
 40
0.6843960091
 40
0.7163686473
 40
0.7323399388
 40
0.7482965908
 40
0.7801524309
 40
0.8119229151
 40
0.8435920321
 40
0.8751455638
 40
0.9065715783
 40
0.9378600642
 40
0.9690046694
 40
1.0
 40
1.0
 40
1.0
 40
1.0
 10
9.4555107431
 20
6.9454659934
 30
0.0
 10
9.4510939086
 20
6.9422558813
 30
0.0
 10
9.4442806915
 20
6.9376845543
 30
0.0
 10
9.4348742343
 20
6.9321102616
 30
0.0
 10
9.4252436982
 20
6.9268777673
 30
0.0
 10
9.4128233931
 20
6.9210015552
 30
0.0
 10
9.3999824651
 20
6.9160510775
 30
0.0
 10
9.3894877555
 20
6.9126548944
 30
0.0
 10
9.3788341594
 20
6.909632634
 30
0.0
 10
9.3652773343
 20
6.9065761027
 30
0.0
 10
9.3487333836
 20
6.9040834161
 30
0.0
 10
9.3319754811
 20
6.9027733608
 30
0.0
 10
9.3150865137
 20
6.9026523757
 30
0.0
 10
9.2981492921
 20
6.9037208355
 30
0.0
 10
9.2812470126
 20
6.9059733377
 30
0.0
 10
9.2644626183
 20
6.9093986635
 30
0.0
 10
9.2478784595
 20
6.9139798585
 30
0.0
 10
9.231575878
 20
6.9196943139
 30
0.0
 10
9.2156348177
 20
6.9265138822
 30
0.0
 10
9.2001334363
 20
6.9344050158
 30
0.0
 10
9.1851477277
 20
6.9433289338
 30
0.0
 10
9.1707511549
 20
6.953241808
 30
0.0
 10
9.1570142871
 20
6.9640949896
 30
0.0
 10
9.144004487
 20
6.9758352003
 30
0.0
 10
9.1317854728
 20
6.9884049629
 30
0.0
 10
9.1204174215
 20
7.0017422391
 30
0.0
 10
9.1116954915
 20
7.013447465
 30
0.0
 10
9.1051971447
 20
7.0231292308
 30
0.0
 10
9.0990318237
 20
7.0330012698
 30
0.0
 10
9.0919522727
 20
7.0456913576
 30
0.0
 10
9.084499313
 20
7.0614133125
 30
0.0
 10
9.0781290357
 20
7.0775454718
 30
0.0
 10
9.0728730018
 20
7.0940083739
 30
0.0
 10
9.0687571145
 20
7.1107212825
 30
0.0
 10
9.0658015885
 20
7.1276025636
 30
0.0
 10
9.0640212409
 20
7.1445682057
 30
0.0
 10
9.0636226582
 20
7.1559094609
 30
0.0
 10
9.0636226582
 20
7.1615645253
 30
0.0
  0
SPLINE
  5
389
100
AcDbEntity
  8
0
100
AcDbSpline
 62
7
  6
CONTINUOUS
 70
0
 71
3
 72
71
 73
67
 74
0
 42
0.0000001
 43
0.0000001
 44
0.0000000001
 40
0.0
 40
0.0
 40
0.0
 40
0.0
 40
0.0149701622
 40
0.0299433828
 40
0.0449227028
 40
0.0599111246
 40
0.0749115948
 40
0.0899269886
 40
0.1049600895
 40
0.120013573
 40
0.1350899941
 40
0.1501917695
 40
0.165321163
 40
0.180480277
 40
0.1956710384
 40
0.2108951862
 40
0.2261542673
 40
0.2414496274
 40
0.2567824002
 40
0.2721535092
 40
0.2875636617
 40
0.3030133419
 40
0.3185028169
 40
0.3340321343
 40
0.34960112
 40
0.3652093858
 40
0.3808563328
 40
0.3965411509
 40
0.4122628307
 40
0.428020169
 40
0.4438117721
 40
0.4596360694
 40
0.475491322
 40
0.4913756286
 40
0.5072869404
 40
0.5232230722
 40
0.5391817101
 40
0.5551604278
 40
0.5711566993
 40
0.5871679078
 40
0.6031913633
 40
0.6192243155
 40
0.6352639647
 40
0.6513074791
 40
0.6673520087
 40
0.683394696
 40
0.6994326945
 40
0.7154631813
 40
0.7314833687
 40
0.7474905224
 40
0.7634819732
 40
0.7794551283
 40
0.7954074893
 40
0.811336662
 40
0.8272403677
 40
0.8431164596
 40
0.8589629314
 40
0.8747779261
 40
0.890559756
 40
0.9063068963
 40
0.9220180004
 40
0.9376919706
 40
0.9533277655
 40
0.9689245666
 40
0.9844825444
 40
1.0
 40
1.0
 40
1.0
 40
1.0
 10
9.5419178134
 20
6.052750302
 30
0.0
 10
9.5340369695
 20
6.0451380029
 30
0.0
 10
9.5179691375
 20
6.030223533
 30
0.0
 10
9.4929948149
 20
6.0088248083
 30
0.0
 10
9.4671795866
 20
5.9884260288
 30
0.0
 10
9.4405594332
 20
5.9690557953
 30
0.0
 10
9.4131709266
 20
5.9507405428
 30
0.0
 10
9.3850517826
 20
5.9335055144
 30
0.0
 10
9.3562406484
 20
5.9173744858
 30
0.0
 10
9.326777235
 20
5.9023695486
 30
0.0
 10
9.2967020814
 20
5.8885113397
 30
0.0
 10
9.2660565393
 20
5.8758189999
 30
0.0
 10
9.2348828241
 20
5.8643098769
 30
0.0
 10
9.2032238279
 20
5.8539997814
 30
0.0
 10
9.1711230836
 20
5.8449029738
 30
0.0
 10
9.1386247884
 20
5.8370318505
 30
0.0
 10
9.105773651
 20
5.8303972019
 30
0.0
 10
9.0726148461
 20
5.8250082328
 30
0.0
 10
9.0391940051
 20
5.8208722409
 30
0.0
 10
9.0055570967
 20
5.8179948653
 30
0.0
 10
8.971750378
 20
5.816380144
 30
0.0
 10
8.9378203515
 20
5.8160301903
 30
0.0
 10
8.9038136748
 20
5.8169454266
 30
0.0
 10
8.8697771156
 20
5.8191246751
 30
0.0
 10
8.8357574757
 20
5.8225648439
 30
0.0
 10
8.8018015231
 20
5.8272611363
 30
0.0
 10
8.7679559587
 20
5.8332071751
 30
0.0
 10
8.7342673089
 20
5.8403947047
 30
0.0
 10
8.7007818734
 20
5.8488137713
 30
0.0
 10
8.6675457102
 20
5.8584528784
 30
0.0
 10
8.6346044993
 20
5.8692987107
 30
0.0
 10
8.6020035005
 20
5.8813362828
 30
0.0
 10
8.5697875599
 20
5.8945491213
 30
0.0
 10
8.5380009516
 20
5.9089190165
 30
0.0
 10
8.5066873363
 20
5.9244261386
 30
0.0
 10
8.4758897946
 20
5.9410492411
 30
0.0
 10
8.4456506524
 20
5.9587654447
 30
0.0
 10
8.4160114319
 20
5.9775503211
 30
0.0
 10
8.3870129163
 20
5.9973781138
 30
0.0
 10
8.3586949643
 20
6.0182215549
 30
0.0
 10
8.3310964473
 20
6.040051921
 30
0.0
 10
8.3042553469
 20
6.0628392632
 30
0.0
 10
8.278208566
 20
6.0865522603
 30
0.0
 10
8.2529918453
 20
6.111158249
 30
0.0
 10
8.2286398954
 20
6.1366234586
 30
0.0
 10
8.2051862103
 20
6.1629128984
 30
0.0
 10
8.1826629594
 20
6.1899903698
 30
0.0
 10
8.1611011525
 20
6.2178186969
 30
0.0
 10
8.1405304638
 20
6.2463596493
 30
0.0
 10
8.1209790942
 20
6.2755739401
 30
0.0
 10
8.1024739693
 20
6.305421448
 30
0.0
 10
8.0850405786
 20
6.3358611715
 30
0.0
 10
8.0687028069
 20
6.3668512207
 30
0.0
 10
8.0534831618
 20
6.3983490246
 30
0.0
 10
8.0394026343
 20
6.4303113133
 30
0.0
 10
8.0264804991
 20
6.4626941113
 30
0.0
 10
8.0147345668
 20
6.4954529234
 30
0.0
 10
8.004181069
 20
6.5285427431
 30
0.0
 10
7.9948344368
 20
6.5619180508
 30
0.0
 10
7.9867075607
 20
6.5955329718
 30
0.0
 10
7.979811697
 20
6.6293413341
 30
0.0
 10
7.974156296
 20
6.6632966239
 30
0.0
 10
7.969749133
 20
6.6973520326
 30
0.0
 10
7.9665962871
 20
6.7314613142
 30
0.0
 10
7.9647023201
 20
6.7655764222
 30
0.0
 10
7.9642798779
 20
6.7883233523
 30
0.0
 10
7.9642798779
 20
6.7996808789
 30
0.0
  0
SPLINE
  5
38A
100
AcDbEntity
  8
0
100
AcDbSpline
 62
7
  6
CONTINUOUS
 70
0
 71
3
 72
15
 73
11
 74
0
 42
0.0000001
 43
0.0000001
 44
0.0000000001
 40
0.0
 40
0.0
 40
0.0
 40
0.0
 40
0.1158145545
 40
0.2342253447
 40
0.3552574804
 40
0.4789315894
 40
0.605253848
 40
0.734216919
 40
0.8658069608
 40
1.0
 40
1.0
 40
1.0
 40
1.0
 10
11.2852162774
 20
7.4091903128
 30
0.0
 10
11.2882334917
 20
7.4096018404
 30
0.0
 10
11.294349863
 20
7.410331824
 30
0.0
 10
11.3036547536
 20
7.4111639069
 30
0.0
 10
11.3131844079
 20
7.4117643668
 30
0.0
 10
11.3229331573
 20
7.4121495988
 30
0.0
 10
11.3328961442
 20
7.4123361906
 30
0.0
 10
11.3430688876
 20
7.4123403206
 30
0.0
 10
11.3534471672
 20
7.4121764473
 30
0.0
 10
11.360432585
 20
7.4119670058
 30
0.0
 10
11.3639586713
 20
7.4118397693
 30
0.0
  0
SPLINE
  5
38B
100
AcDbEntity
  8
0
100
AcDbSpline
 62
7
  6
CONTINUOUS
 70
0
 71
3
 72
27
 73
23
 74
0
 42
0.0000001
 43
0.0000001
 44
0.0000000001
 40
0.0
 40
0.0
 40
0.0
 40
0.0
 40
0.0637763768
 40
0.0955883759
 40
0.127346786
 40
0.1907029703
 40
0.2538558263
 40
0.2853602345
 40
0.3168164408
 40
0.3795841266
 40
0.4421741851
 40
0.5045989134
 40
0.5668722185
 40
0.6290095117
 40
0.6910275629
 40
0.7219999706
 40
0.7529493938
 40
0.8147838878
 40
0.8765559246
 40
0.9074274454
 40
0.9382910642
 40
1.0
 40
1.0
 40
1.0
 40
1.0
 10
7.9642798779
 20
6.7996808789
 30
0.0
 10
7.9642798779
 20
6.8143383455
 30
0.0
 10
7.9648065493
 20
6.8363119209
 30
0.0
 10
7.9665685785
 20
6.8655284813
 30
0.0
 10
7.9690301671
 20
6.8945980775
 30
0.0
 10
7.9734200699
 20
6.9307215413
 30
0.0
 10
7.9795631256
 20
6.9665295778
 30
0.0
 10
7.985517384
 20
6.9948981929
 30
0.0
 10
7.992150531
 20
7.023024767
 30
0.0
 10
8.0017245481
 20
7.0577864797
 30
0.0
 10
8.01524981
 20
7.0987881581
 30
0.0
 10
8.0307725194
 20
7.1389549468
 30
0.0
 10
8.0482569549
 20
7.1781937198
 30
0.0
 10
8.0676625029
 20
7.2164135625
 30
0.0
 10
8.0854064417
 20
7.2473561142
 30
0.0
 10
8.1005131229
 20
7.271507982
 30
0.0
 10
8.1162086753
 20
7.2952308626
 30
0.0
 10
8.1369400784
 20
7.3240947153
 30
0.0
 10
8.1591133071
 20
7.3518434002
 30
0.0
 10
8.1776761165
 20
7.373321335
 30
0.0
 10
8.1967744843
 20
7.3943039923
 30
0.0
 10
8.2117004185
 20
7.4094826923
 30
0.0
 10
8.2219011211
 20
7.4193357995
 30
0.0
  0
SPLINE
  5
38C
100
AcDbEntity
  8
0
100
AcDbSpline
 62
7
  6
CONTINUOUS
 70
0
 71
3
 72
53
 73
49
 74
0
 42
0.0000001
 43
0.0000001
 44
0.0000000001
 40
0.0
 40
0.0
 40
0.0
 40
0.0
 40
0.0417737855
 40
0.0840372804
 40
0.1266586658
 40
0.1695068268
 40
0.2124484817
 40
0.2553505161
 40
0.2980797819
 40
0.3405038709
 40
0.3824915641
 40
0.4239133811
 40
0.4646421101
 40
0.5045533515
 40
0.5435260687
 40
0.5814431539
 40
0.6181920188
 40
0.6536652174
 40
0.6877611189
 40
0.7203846489
 40
0.7361168986
 40
0.751448868
 40
0.7663708503
 40
0.7808738904
 40
0.7949495081
 40
0.8085900804
 40
0.821788593
 40
0.8345389529
 40
0.8468359066
 40
0.8586751859
 40
0.8700536732
 40
0.8809693639
 40
0.891421781
 40
0.9014118319
 40
0.9109423967
 40
0.9200182439
 40
0.9286466706
 40
0.9368376675
 40
0.9446045284
 40
0.9519643801
 40
0.9589387458
 40
0.9655544017
 40
0.9718438599
 40
0.9778462342
 40
0.9836073809
 40
0.9891800528
 40
0.994623075
 40
1.0
 40
1.0
 40
1.0
 40
1.0
 10
12.7979456425
 20
9.0146081531
 30
0.0
 10
12.7979456425
 20
9.004701932
 30
0.0
 10
12.7977910854
 20
8.9847730491
 30
0.0
 10
12.7971078687
 20
8.9547439854
 30
0.0
 10
12.7959738482
 20
8.9244735604
 30
0.0
 10
12.7943928112
 20
8.8940621895
 30
0.0
 10
12.792369932
 20
8.8636103116
 30
0.0
 10
12.7899119254
 20
8.8332187496
 30
0.0
 10
12.7870269206
 20
8.8029880228
 30
0.0
 10
12.7837244862
 20
8.7730181511
 30
0.0
 10
12.7800155767
 20
8.7434082751
 30
0.0
 10
12.7759125048
 20
8.7142563396
 30
0.0
 10
12.771428899
 20
8.6856587619
 30
0.0
 10
12.7665796621
 20
8.6577101087
 30
0.0
 10
12.7613809198
 20
8.6305027798
 30
0.0
 10
12.7558499697
 20
8.6041266915
 30
0.0
 10
12.750005222
 20
8.578668991
 30
0.0
 10
12.7438661506
 20
8.5542136878
 30
0.0
 10
12.7374531904
 20
8.5308416074
 30
0.0
 10
12.731832858
 20
8.5121118834
 30
0.0
 10
12.7272064892
 20
8.4977346108
 30
0.0
 10
12.7237236919
 20
8.4874001747
 30
0.0
 10
12.7201887065
 20
8.4773920854
 30
0.0
 10
12.7166045297
 20
8.4677185802
 30
0.0
 10
12.7129740455
 20
8.4583876571
 30
0.0
 10
12.7093003456
 20
8.4494069924
 30
0.0
 10
12.7055864052
 20
8.440783996
 30
0.0
 10
12.7018353392
 20
8.4325257551
 30
0.0
 10
12.698050237
 20
8.4246390563
 30
0.0
 10
12.6942341986
 20
8.4171303791
 30
0.0
 10
12.6903904222
 20
8.4100058517
 30
0.0
 10
12.6865219749
 20
8.403271326
 30
0.0
 10
12.6826321267
 20
8.3969322434
 30
0.0
 10
12.6787239132
 20
8.3909938023
 30
0.0
 10
12.6748006017
 20
8.3854607474
 30
0.0
 10
12.6708652068
 20
8.3803375891
 30
0.0
 10
12.6669208914
 20
8.3756283968
 30
0.0
 10
12.6629706364
 20
8.3713369713
 30
0.0
 10
12.6590173976
 20
8.3674667739
 30
0.0
 10
12.6550640717
 20
8.3640209315
 30
0.0
 10
12.6511133455
 20
8.3610024481
 30
0.0
 10
12.6471679931
 20
8.3584139426
 30
0.0
 10
12.6432305427
 20
8.356258216
 30
0.0
 10
12.6393038044
 20
8.3545376876
 30
0.0
 10
12.6353906984
 20
8.3532551258
 30
0.0
 10
12.6314945304
 20
8.3524128363
 30
0.0
 10
12.6276199805
 20
8.3520129797
 30
0.0
 10
12.6250476143
 20
8.3520424032
 30
0.0
 10
12.6237755881
 20
8.3521306285
 30
0.0
  0
SPLINE
  5
38D
100
AcDbEntity
  8
0
100
AcDbSpline
 62
4
  6
CONTINUOUS
 70
0
 71
3
 72
327
 73
323
 74
0
 42
0.0000001
 43
0.0000001
 44
0.0000000001
 40
0.0
 40
0.0
 40
0.0
 40
0.0
 40
0.015625
 40
0.0234375
 40
0.03125
 40
0.0390625
 40
0.04296875
 40
0.046875
 40
0.05078125
 40
0.0546875
 40
0.056640625
 40
0.05859375
 40
0.0595703125
 40
0.060546875
 40
0.0615234375
 40
0.0620117188
 40
0.0625
 40
0.0629882812
 40
0.0634765625
 40
0.064453125
 40
0.0654296875
 40
0.06640625
 40
0.068359375
 40
0.0703125
 40
0.07421875
 40
0.078125
 40
0.08203125
 40
0.0859375
 40
0.09375
 40
0.1015625
 40
0.109375
 40
0.11328125
 40
0.1171875
 40
0.119140625
 40
0.12109375
 40
0.123046875
 40
0.1240234375
 40
0.1245117188
 40
0.125
 40
0.1254882812
 40
0.1259765625
 40
0.126953125
 40
0.12890625
 40
0.130859375
 40
0.1328125
 40
0.13671875
 40
0.140625
 40
0.1484375
 40
0.15625
 40
0.1640625
 40
0.171875
 40
0.17578125
 40
0.1796875
 40
0.181640625
 40
0.18359375
 40
0.185546875
 40
0.1865234375
 40
0.1870117188
 40
0.1875
 40
0.1879882812
 40
0.1884765625
 40
0.189453125
 40
0.19140625
 40
0.193359375
 40
0.1953125
 40
0.19921875
 40
0.203125
 40
0.2109375
 40
0.21875
 40
0.2265625
 40
0.234375
 40
0.23828125
 40
0.2421875
 40
0.244140625
 40
0.24609375
 40
0.248046875
 40
0.2490234375
 40
0.2495117188
 40
0.25
 40
0.2504882812
 40
0.2509765625
 40
0.251953125
 40
0.25390625
 40
0.255859375
 40
0.2578125
 40
0.26171875
 40
0.265625
 40
0.2734375
 40
0.28125
 40
0.2890625
 40
0.296875
 40
0.30078125
 40
0.3046875
 40
0.30859375
 40
0.310546875
 40
0.3115234375
 40
0.3125
 40
0.3134765625
 40
0.314453125
 40
0.31640625
 40
0.3203125
 40
0.32421875
 40
0.328125
 40
0.3359375
 40
0.34375
 40
0.3515625
 40
0.359375
 40
0.36328125
 40
0.3671875
 40
0.37109375
 40
0.373046875
 40
0.3740234375
 40
0.375
 40
0.3759765625
 40
0.376953125
 40
0.37890625
 40
0.3828125
 40
0.38671875
 40
0.390625
 40
0.3984375
 40
0.40625
 40
0.4140625
 40
0.421875
 40
0.42578125
 40
0.4296875
 40
0.43359375
 40
0.435546875
 40
0.4365234375
 40
0.4375
 40
0.4384765625
 40
0.439453125
 40
0.44140625
 40
0.4453125
 40
0.44921875
 40
0.453125
 40
0.4609375
 40
0.46875
 40
0.4765625
 40
0.484375
 40
0.48828125
 40
0.4921875
 40
0.494140625
 40
0.49609375
 40
0.498046875
 40
0.4990234375
 40
0.5
 40
0.5009765625
 40
0.501953125
 40
0.50390625
 40
0.505859375
 40
0.5078125
 40
0.51171875
 40
0.515625
 40
0.5234375
 40
0.53125
 40
0.5390625
 40
0.546875
 40
0.55078125
 40
0.5546875
 40
0.556640625
 40
0.55859375
 40
0.560546875
 40
0.5615234375
 40
0.5620117188
 40
0.5625
 40
0.5629882812
 40
0.5634765625
 40
0.564453125
 40
0.56640625
 40
0.568359375
 40
0.5703125
 40
0.57421875
 40
0.578125
 40
0.5859375
 40
0.59375
 40
0.6015625
 40
0.609375
 40
0.61328125
 40
0.6171875
 40
0.619140625
 40
0.62109375
 40
0.623046875
 40
0.6240234375
 40
0.6245117188
 40
0.625
 40
0.6254882812
 40
0.6259765625
 40
0.626953125
 40
0.62890625
 40
0.630859375
 40
0.6328125
 40
0.63671875
 40
0.640625
 40
0.6484375
 40
0.65625
 40
0.6640625
 40
0.671875
 40
0.67578125
 40
0.6796875
 40
0.681640625
 40
0.68359375
 40
0.685546875
 40
0.6865234375
 40
0.6870117188
 40
0.6875
 40
0.6879882812
 40
0.6884765625
 40
0.689453125
 40
0.69140625
 40
0.693359375
 40
0.6953125
 40
0.69921875
 40
0.703125
 40
0.7109375
 40
0.71875
 40
0.7265625
 40
0.73046875
 40
0.734375
 40
0.73828125
 40
0.7421875
 40
0.744140625
 40
0.74609375
 40
0.7470703125
 40
0.748046875
 40
0.7490234375
 40
0.7495117188
 40
0.7497558594
 40
0.75
 40
0.7502441406
 40
0.7504882812
 40
0.7509765625
 40
0.751953125
 40
0.7529296875
 40
0.75390625
 40
0.755859375
 40
0.7578125
 40
0.76171875
 40
0.765625
 40
0.76953125
 40
0.7734375
 40
0.78125
 40
0.7890625
 40
0.79296875
 40
0.796875
 40
0.80078125
 40
0.8046875
 40
0.806640625
 40
0.80859375
 40
0.8095703125
 40
0.810546875
 40
0.8115234375
 40
0.8120117188
 40
0.8122558594
 40
0.8125
 40
0.8127441406
 40
0.8129882812
 40
0.8134765625
 40
0.814453125
 40
0.8154296875
 40
0.81640625
 40
0.818359375
 40
0.8203125
 40
0.82421875
 40
0.828125
 40
0.83203125
 40
0.8359375
 40
0.84375
 40
0.8515625
 40
0.85546875
 40
0.859375
 40
0.86328125
 40
0.8671875
 40
0.869140625
 40
0.87109375
 40
0.8720703125
 40
0.873046875
 40
0.8740234375
 40
0.8745117188
 40
0.8747558594
 40
0.875
 40
0.8752441406
 40
0.8754882812
 40
0.8759765625
 40
0.876953125
 40
0.8779296875
 40
0.87890625
 40
0.880859375
 40
0.8828125
 40
0.88671875
 40
0.890625
 40
0.89453125
 40
0.8984375
 40
0.90625
 40
0.9140625
 40
0.91796875
 40
0.921875
 40
0.92578125
 40
0.9296875
 40
0.931640625
 40
0.93359375
 40
0.9345703125
 40
0.935546875
 40
0.9365234375
 40
0.9370117188
 40
0.9372558594
 40
0.9375
 40
0.9377441406
 40
0.9379882812
 40
0.9384765625
 40
0.939453125
 40
0.9404296875
 40
0.94140625
 40
0.943359375
 40
0.9453125
 40
0.94921875
 40
0.953125
 40
0.95703125
 40
0.9609375
 40
0.96875
 40
0.9765625
 40
0.984375
 40
1.0
 40
1.0
 40
1.0
 40
1.0
 10
13.4369693375
 20
9.9038623814
 30
0.0
 10
13.4352902692
 20
9.9016261025
 30
0.0
 10
13.4327716667
 20
9.8982716842
 30
0.0
 10
13.4294135301
 20
9.8937991263
 30
0.0
 10
13.4268949276
 20
9.8904447083
 30
0.0
 10
13.4247960922
 20
9.8876493588
 30
0.0
 10
13.4231170238
 20
9.8854130817
 30
0.0
 10
13.4218577228
 20
9.8837358673
 30
0.0
 10
13.4205984205
 20
9.8820586778
 30
0.0
 10
13.4195490062
 20
9.8806609422
 30
0.0
 10
13.4187094651
 20
9.8795429279
 30
0.0
 10
13.418184774
 20
9.8788437723
 30
0.0
 10
13.4177649704
 20
9.8782853562
 30
0.0
 10
13.4174502567
 20
9.8778640571
 30
0.0
 10
13.4171875529
 20
9.877520886
 30
0.0
 10
13.4169783822
 20
9.877228605
 30
0.0
 10
13.4168187927
 20
9.87705788
 30
0.0
 10
13.4166695527
 20
9.8767020838
 30
0.0
 10
13.4164669508
 20
9.8762923368
 30
0.0
 10
13.4162149387
 20
9.8757579726
 30
0.0
 10
13.4159119933
 20
9.8751262295
 30
0.0
 10
13.4155082516
 20
9.8742805893
 30
0.0
 10
13.4150035109
 20
9.8732246744
 30
0.0
 10
13.4141959614
 20
9.8715345761
 30
0.0
 10
13.4131865122
 20
9.869422171
 30
0.0
 10
13.4119751785
 20
9.8668871915
 30
0.0
 10
13.4107638433
 20
9.8643522371
 30
0.0
 10
13.4091487303
 20
9.8609722886
 30
0.0
 10
13.4071298385
 20
9.8567473595
 30
0.0
 10
13.4047071704
 20
9.8516774272
 30
0.0
 10
13.4026882742
 20
9.8474525329
 30
0.0
 10
13.4010731708
 20
9.8440725078
 30
0.0
 10
13.4000637003
 20
9.8419602416
 30
0.0
 10
13.3992561946
 20
9.8402698573
 30
0.0
 10
13.3986503718
 20
9.8390036335
 30
0.0
 10
13.3981461348
 20
9.8379434704
 30
0.0
 10
13.3977919615
 20
9.8372111225
 30
0.0
 10
13.397591462
 20
9.8367773889
 30
0.0
 10
13.3974357767
 20
9.8364950455
 30
0.0
 10
13.3973003915
 20
9.8360484996
 30
0.0
 10
13.3971127971
 20
9.8355103808
 30
0.0
 10
13.3967878059
 20
9.8345419871
 30
0.0
 10
13.3963218079
 20
9.8331725191
 30
0.0
 10
13.3957633486
 20
9.8315231858
 30
0.0
 10
13.3950184784
 20
9.8293261606
 30
0.0
 10
13.3940874789
 20
9.8265791648
 30
0.0
 10
13.3925978304
 20
9.8221843709
 30
0.0
 10
13.3907357868
 20
9.8166907406
 30
0.0
 10
13.3885013266
 20
9.810098447
 30
0.0
 10
13.3862668708
 20
9.8035061229
 30
0.0
 10
13.3844048161
 20
9.7980125689
 30
0.0
 10
13.3829151898
 20
9.7936176225
 30
0.0
 10
13.3819841338
 20
9.7908710141
 30
0.0
 10
13.3812393796
 20
9.7886731938
 30
0.0
 10
13.380680566
 20
9.7870262893
 30
0.0
 10
13.3802156766
 20
9.7856492223
 30
0.0
 10
13.3798887064
 20
9.7846943942
 30
0.0
 10
13.3797042829
 20
9.7841345398
 30
0.0
 10
13.3795591576
 20
9.7837547588
 30
0.0
 10
13.3794400543
 20
9.7832216576
 30
0.0
 10
13.3792721732
 20
9.7825643357
 30
0.0
 10
13.3789826102
 20
9.7813891052
 30
0.0
 10
13.3785667378
 20
9.7797232315
 30
0.0
 10
13.3780686373
 20
9.7777186071
 30
0.0
 10
13.3774041727
 20
9.7750477221
 30
0.0
 10
13.3765737052
 20
9.7717084491
 30
0.0
 10
13.3752448939
 20
9.7663659849
 30
0.0
 10
13.3735839017
 20
9.7596877764
 30
0.0
 10
13.3715907006
 20
9.7516739833
 30
0.0
 10
13.3695975061
 20
9.7436601668
 30
0.0
 10
13.3679364976
 20
9.7369820167
 30
0.0
 10
13.3666077188
 20
9.7316394357
 30
0.0
 10
13.3657771686
 20
9.7283004596
 30
0.0
 10
13.3651128737
 20
9.725628965
 30
0.0
 10
13.364614255
 20
9.7236262031
 30
0.0
 10
13.364200004
 20
9.7219545022
 30
0.0
 10
13.3639075464
 20
9.7207896742
 30
0.0
 10
13.3637443032
 20
9.7201156849
 30
0.0
 10
13.3636109537
 20
9.7196337806
 30
0.0
 10
13.3635193345
 20
9.7190617124
 30
0.0
 10
13.3633826196
 20
9.7183304049
 30
0.0
 10
13.3631501504
 20
9.7170359636
 30
0.0
 10
13.3628145058
 20
9.7151944227
 30
0.0
 10
13.36241325
 20
9.7129812944
 30
0.0
 10
13.3618777121
 20
9.710031602
 30
0.0
 10
13.3612084714
 20
9.7063440943
 30
0.0
 10
13.3601375844
 20
9.7004443018
 30
0.0
 10
13.3587990131
 20
9.6930694819
 30
0.0
 10
13.3571927004
 20
9.6842197488
 30
0.0
 10
13.3555864362
 20
9.675369939
 30
0.0
 10
13.3542477438
 20
9.6679953109
 30
0.0
 10
13.3531770989
 20
9.6620951347
 30
0.0
 10
13.3523732716
 20
9.6576712955
 30
0.0
 10
13.3517060988
 20
9.6539806507
 30
0.0
 10
13.351233812
 20
9.651405269
 30
0.0
 10
13.350972156
 20
9.6499210223
 30
0.0
 10
13.3507527523
 20
9.6488433317
 30
0.0
 10
13.3506218841
 20
9.6476299634
 30
0.0
 10
13.350416511
 20
9.6460594648
 30
0.0
 10
13.3500714967
 20
9.6432890424
 30
0.0
 10
13.3495710965
 20
9.639342824
 30
0.0
 10
13.3489738364
 20
9.6346024276
 30
0.0
 10
13.3481763643
 20
9.6282836229
 30
0.0
 10
13.3471799131
 20
9.6203845239
 30
0.0
 10
13.3459839927
 20
9.6109058665
 30
0.0
 10
13.344788166
 20
9.6014271122
 30
0.0
 10
13.3437914804
 20
9.5935282557
 30
0.0
 10
13.3429944772
 20
9.5872089658
 30
0.0
 10
13.3423957872
 20
9.5824700494
 30
0.0
 10
13.34189986
 20
9.5785192008
 30
0.0
 10
13.3415468608
 20
9.5757570442
 30
0.0
 10
13.3413542815
 20
9.5741733017
 30
0.0
 10
13.3411841149
 20
9.5730006145
 30
0.0
 10
13.3411123097
 20
9.5717701323
 30
0.0
 10
13.34098226
 20
9.5701496488
 30
0.0
 10
13.3407706583
 20
9.56730441
 30
0.0
 10
13.3404600129
 20
9.5632446939
 30
0.0
 10
13.3400908157
 20
9.5583709325
 30
0.0
 10
13.3395973027
 20
9.5518733184
 30
0.0
 10
13.3389808435
 20
9.5437510483
 30
0.0
 10
13.3382408941
 20
9.5340044341
 30
0.0
 10
13.3375010465
 20
9.5242577839
 30
0.0
 10
13.3368843329
 20
9.5161356041
 30
0.0
 10
13.3363913286
 20
9.5096378094
 30
0.0
 10
13.3360205801
 20
9.5047645986
 30
0.0
 10
13.3357147878
 20
9.5007031602
 30
0.0
 10
13.3354945225
 20
9.4978609959
 30
0.0
 10
13.3353783541
 20
9.4962355864
 30
0.0
 10
13.3352639097
 20
9.4950202354
 30
0.0
 10
13.3352538892
 20
9.4937907175
 30
0.0
 10
13.3352041043
 20
9.4921563019
 30
0.0
 10
13.3351339514
 20
9.4892937722
 30
0.0
 10
13.3350248606
 20
9.4852056477
 30
0.0
 10
13.3348977492
 20
9.4802993831
 30
0.0
 10
13.334726941
 20
9.4737578771
 30
0.0
 10
13.334513885
 20
9.4655809317
 30
0.0
 10
13.3342580267
 20
9.4557686289
 30
0.0
 10
13.334002206
 20
9.4459563
 30
0.0
 10
13.3337890558
 20
9.4377794199
 30
0.0
 10
13.333618436
 20
9.4312377833
 30
0.0
 10
13.3335120309
 20
9.4271495616
 30
0.0
 10
13.3334263744
 20
9.4238782945
 30
0.0
 10
13.3333635897
 20
9.4214267325
 30
0.0
 10
13.3333066319
 20
9.419377757
 30
0.0
 10
13.3332714664
 20
9.4177520498
 30
0.0
 10
13.3332166722
 20
9.4164959542
 30
0.0
 10
13.3332703577
 20
9.4153803827
 30
0.0
 10
13.3333040451
 20
9.4138438672
 30
0.0
 10
13.3333591552
 20
9.4119400642
 30
0.0
 10
13.3334197226
 20
9.409648292
 30
0.0
 10
13.3335024227
 20
9.4065951135
 30
0.0
 10
13.3336051324
 20
9.4027777783
 30
0.0
 10
13.3337698398
 20
9.3966705237
 30
0.0
 10
13.3339755967
 20
9.3890362907
 30
0.0
 10
13.3342225583
 20
9.3798752796
 30
0.0
 10
13.3344695103
 20
9.370714258
 30
0.0
 10
13.3346752914
 20
9.3630800512
 30
0.0
 10
13.3348399504
 20
9.3569727442
 30
0.0
 10
13.334942783
 20
9.3531555421
 30
0.0
 10
13.3350252309
 20
9.3501020904
 30
0.0
 10
13.3350865689
 20
9.3478111529
 30
0.0
 10
13.3351392677
 20
9.3459047384
 30
0.0
 10
13.3351730488
 20
9.3445649493
 30
0.0
 10
13.3351972053
 20
9.3438076294
 30
0.0
 10
13.3352016518
 20
9.343216332
 30
0.0
 10
13.3352583552
 20
9.3427141272
 30
0.0
 10
13.3353157319
 20
9.3420134442
 30
0.0
 10
13.3354246339
 20
9.3408017282
 30
0.0
 10
13.335575768
 20
9.3390631354
 30
0.0
 10
13.3357590295
 20
9.3369800642
 30
0.0
 10
13.3360027144
 20
9.3342015042
 30
0.0
 10
13.3363075478
 20
9.3307286918
 30
0.0
 10
13.3367951541
 20
9.3251719752
 30
0.0
 10
13.3374047059
 20
9.3182261545
 30
0.0
 10
13.338136148
 20
9.3098911345
 30
0.0
 10
13.3388675999
 20
9.301556135
 30
0.0
 10
13.3394771274
 20
9.2946102633
 30
0.0
 10
13.3399647824
 20
9.2890536486
 30
0.0
 10
13.3402694919
 20
9.2855805771
 30
0.0
 10
13.340513431
 20
9.282802549
 30
0.0
 10
13.340695916
 20
9.2807178529
 30
0.0
 10
13.3408494795
 20
9.278984344
 30
0.0
 10
13.3409540447
 20
9.2777635523
 30
0.0
 10
13.3410183701
 20
9.2770774108
 30
0.0
 10
13.3410537294
 20
9.2765305392
 30
0.0
 10
13.3411383407
 20
9.2761070027
 30
0.0
 10
13.3412339761
 20
9.2754992667
 30
0.0
 10
13.3414093423
 20
9.2744557728
 30
0.0
 10
13.3416556808
 20
9.2729545879
 30
0.0
 10
13.3419530782
 20
9.2711576515
 30
0.0
 10
13.3423489823
 20
9.2687601697
 30
0.0
 10
13.3428440768
 20
9.2657638538
 30
0.0
 10
13.3436361081
 20
9.2609694484
 30
0.0
 10
13.3446261887
 20
9.2549765455
 30
0.0
 10
13.3458142665
 20
9.247785014
 30
0.0
 10
13.3470023536
 20
9.2405935082
 30
0.0
 10
13.3479924109
 20
9.2346005412
 30
0.0
 10
13.3487844888
 20
9.2298062639
 30
0.0
 10
13.3492794648
 20
9.2268096227
 30
0.0
 10
13.3496756121
 20
9.2244128085
 30
0.0
 10
13.3499722669
 20
9.2226138325
 30
0.0
 10
13.3502209285
 20
9.2211190289
 30
0.0
 10
13.3503921476
 20
9.2200641433
 30
0.0
 10
13.3504944277
 20
9.2194746597
 30
0.0
 10
13.3505586285
 20
9.2189950577
 30
0.0
 10
13.3506706462
 20
9.2186587586
 30
0.0
 10
13.3508033241
 20
9.218160374
 30
0.0
 10
13.3510432816
 20
9.2173114904
 30
0.0
 10
13.3513820151
 20
9.2160866235
 30
0.0
 10
13.3517902343
 20
9.214621995
 30
0.0
 10
13.3523339192
 20
9.2126673366
 30
0.0
 10
13.3530137333
 20
9.2102246369
 30
0.0
 10
13.3541013196
 20
9.206315969
 30
0.0
 10
13.3554608424
 20
9.2014302537
 30
0.0
 10
13.3570922526
 20
9.1955673441
 30
0.0
 10
13.358451765
 20
9.1906815975
 30
0.0
 10
13.3595393742
 20
9.1867729986
 30
0.0
 10
13.3603550808
 20
9.1838415473
 30
0.0
 10
13.361170789
 20
9.1809101051
 30
0.0
 10
13.3618505407
 20
9.1784672083
 30
0.0
 10
13.3623943537
 20
9.1765129541
 30
0.0
 10
13.3627342103
 20
9.1752914013
 30
0.0
 10
13.3630061563
 20
9.1743144888
 30
0.0
 10
13.3632099494
 20
9.1735809016
 30
0.0
 10
13.3633803066
 20
9.1729724507
 30
0.0
 10
13.3634985171
 20
9.1725408994
 30
0.0
 10
13.3635676892
 20
9.1723030983
 30
0.0
 10
13.3636149955
 20
9.1720999589
 30
0.0
 10
13.3636797816
 20
9.1719915736
 30
0.0
 10
13.3637600659
 20
9.1718140086
 30
0.0
 10
13.3639034043
 20
9.1715186689
 30
0.0
 10
13.3641066883
 20
9.1710887043
 30
0.0
 10
13.3643512647
 20
9.1705761928
 30
0.0
 10
13.3646771445
 20
9.1698916405
 30
0.0
 10
13.3650845704
 20
9.1690363622
 30
0.0
 10
13.3657364092
 20
9.1676676867
 30
0.0
 10
13.3665512224
 20
9.1659569212
 30
0.0
 10
13.3675289919
 20
9.1639039689
 30
0.0
 10
13.3685067631
 20
9.1618510256
 30
0.0
 10
13.3698104575
 20
9.1591137646
 30
0.0
 10
13.3714400757
 20
9.1556921897
 30
0.0
 10
13.3730696937
 20
9.1522706139
 30
0.0
 10
13.3743733883
 20
9.1495333543
 30
0.0
 10
13.3753511588
 20
9.1474804071
 30
0.0
 10
13.3763289308
 20
9.1454274692
 30
0.0
 10
13.3771437364
 20
9.1437166587
 30
0.0
 10
13.3777955907
 20
9.142348075
 30
0.0
 10
13.3782029772
 20
9.141492563
 30
0.0
 10
13.3785289379
 20
9.1408084906
 30
0.0
 10
13.3787732673
 20
9.1402945129
 30
0.0
 10
13.3789773242
 20
9.1398691355
 30
0.0
 10
13.3791192827
 20
9.139565607
 30
0.0
 10
13.3792017779
 20
9.1394011626
 30
0.0
 10
13.379259773
 20
9.1392524749
 30
0.0
 10
13.3793325854
 20
9.1392007045
 30
0.0
 10
13.3794245001
 20
9.1390978715
 30
0.0
 10
13.379587759
 20
9.1389336644
 30
0.0
 10
13.3798197271
 20
9.1386908483
 30
0.0
 10
13.3800986276
 20
9.1384029936
 30
0.0
 10
13.3804703067
 20
9.1380179563
 30
0.0
 10
13.3809349701
 20
9.1375370811
 30
0.0
 10
13.3816783954
 20
9.1367674453
 30
0.0
 10
13.3826076895
 20
9.1358054814
 30
0.0
 10
13.383722837
 20
9.13465109
 30
0.0
 10
13.384837986
 20
9.1334967079
 30
0.0
 10
13.3863248509
 20
9.1319575285
 30
0.0
 10
13.3881834321
 20
9.1300335555
 30
0.0
 10
13.3900420132
 20
9.1281095817
 30
0.0
 10
13.3915288782
 20
9.1265704036
 30
0.0
 10
13.3926440266
 20
9.1254160175
 30
0.0
 10
13.3937591761
 20
9.1242616411
 30
0.0
 10
13.3946884643
 20
9.1232996305
 30
0.0
 10
13.3954319016
 20
9.1225300899
 30
0.0
 10
13.3958965345
 20
9.1220489726
 30
0.0
 10
13.3962682763
 20
9.1216644324
 30
0.0
 10
13.3965469852
 20
9.1213750588
 30
0.0
 10
13.3967795528
 20
9.1211369951
 30
0.0
 10
13.3969417413
 20
9.1209643041
 30
0.0
 10
13.3970353711
 20
9.1208750645
 30
0.0
 10
13.3971029156
 20
9.1207815396
 30
0.0
 10
13.3971806961
 20
9.1207896747
 30
0.0
 10
13.3972808329
 20
9.1207650613
 30
0.0
 10
13.397457736
 20
9.1207385093
 30
0.0
 10
13.397709585
 20
9.1206919404
 30
0.0
 10
13.398012176
 20
9.1206397548
 30
0.0
 10
13.3984155006
 20
9.1205688827
 30
0.0
 10
13.398919701
 20
9.1204807347
 30
0.0
 10
13.3997263966
 20
9.1203394508
 30
0.0
 10
13.4007347748
 20
9.1201629307
 30
0.0
 10
13.4019448248
 20
9.1199510703
 30
0.0
 10
13.4031548759
 20
9.1197392196
 30
0.0
 10
13.404768277
 20
9.1194567486
 30
0.0
 10
13.4067850284
 20
9.1191036611
 30
0.0
 10
13.4088017798
 20
9.1187505727
 30
0.0
 10
13.410415181
 20
9.1184681031
 30
0.0
 10
13.4116252317
 20
9.1182562482
 30
0.0
 10
13.4128352832
 20
9.1180444034
 30
0.0
 10
13.4138436571
 20
9.1178678348
 30
0.0
 10
13.4146503613
 20
9.1177266499
 30
0.0
 10
13.4151545398
 20
9.11763825
 30
0.0
 10
13.4155579094
 20
9.117567895
 30
0.0
 10
13.4158603631
 20
9.1175141296
 30
0.0
 10
13.4161126415
 20
9.1174725034
 30
0.0
 10
13.416288778
 20
9.1174371277
 30
0.0
 10
13.4163901431
 20
9.1174266522
 30
0.0
 10
13.416464151
 20
9.1173913602
 30
0.0
 10
13.4165458647
 20
9.1174609403
 30
0.0
 10
13.4166521284
 20
9.1175171331
 30
0.0
 10
13.4168393422
 20
9.1176325143
 30
0.0
 10
13.4171061358
 20
9.1177884338
 30
0.0
 10
13.4174265684
 20
9.1179793513
 30
0.0
 10
13.4178537139
 20
9.1182325759
 30
0.0
 10
13.4183876793
 20
9.1185495626
 30
0.0
 10
13.4192420052
 20
9.1190564866
 30
0.0
 10
13.4203099191
 20
9.1196902289
 30
0.0
 10
13.421591413
 20
9.1204506823
 30
0.0
 10
13.4228729076
 20
9.1212111457
 30
0.0
 10
13.4245815668
 20
9.1222250933
 30
0.0
 10
13.4267173909
 20
9.1234925291
 30
0.0
 10
13.4292803798
 20
9.1250134515
 30
0.0
 10
13.4326976984
 20
9.1270413483
 30
0.0
 10
13.4352606873
 20
9.1285622708
 30
0.0
 10
13.4369693466
 20
9.1295762192
 30
0.0
  0
SPLINE
  5
38E
100
AcDbEntity
  8
0
100
AcDbSpline
 62
4
  6
CONTINUOUS
 70
0
 71
3
 72
327
 73
323
 74
0
 42
0.0000001
 43
0.0000001
 44
0.0000000001
 40
0.0
 40
0.0
 40
0.0
 40
0.0
 40
0.015625
 40
0.0234375
 40
0.03125
 40
0.0390625
 40
0.04296875
 40
0.046875
 40
0.05078125
 40
0.0546875
 40
0.056640625
 40
0.05859375
 40
0.0595703125
 40
0.060546875
 40
0.0615234375
 40
0.0620117188
 40
0.0625
 40
0.0629882812
 40
0.0634765625
 40
0.064453125
 40
0.0654296875
 40
0.06640625
 40
0.068359375
 40
0.0703125
 40
0.07421875
 40
0.078125
 40
0.08203125
 40
0.0859375
 40
0.09375
 40
0.1015625
 40
0.109375
 40
0.11328125
 40
0.1171875
 40
0.119140625
 40
0.12109375
 40
0.123046875
 40
0.1240234375
 40
0.1245117188
 40
0.125
 40
0.1254882812
 40
0.1259765625
 40
0.126953125
 40
0.12890625
 40
0.130859375
 40
0.1328125
 40
0.13671875
 40
0.140625
 40
0.1484375
 40
0.15625
 40
0.1640625
 40
0.171875
 40
0.17578125
 40
0.1796875
 40
0.181640625
 40
0.18359375
 40
0.185546875
 40
0.1865234375
 40
0.1870117188
 40
0.1875
 40
0.1879882812
 40
0.1884765625
 40
0.189453125
 40
0.19140625
 40
0.193359375
 40
0.1953125
 40
0.19921875
 40
0.203125
 40
0.2109375
 40
0.21875
 40
0.2265625
 40
0.234375
 40
0.23828125
 40
0.2421875
 40
0.244140625
 40
0.24609375
 40
0.248046875
 40
0.2490234375
 40
0.2495117188
 40
0.25
 40
0.2504882812
 40
0.2509765625
 40
0.251953125
 40
0.25390625
 40
0.255859375
 40
0.2578125
 40
0.26171875
 40
0.265625
 40
0.2734375
 40
0.28125
 40
0.2890625
 40
0.296875
 40
0.30078125
 40
0.3046875
 40
0.30859375
 40
0.310546875
 40
0.3115234375
 40
0.3125
 40
0.3134765625
 40
0.314453125
 40
0.31640625
 40
0.3203125
 40
0.32421875
 40
0.328125
 40
0.3359375
 40
0.34375
 40
0.3515625
 40
0.359375
 40
0.36328125
 40
0.3671875
 40
0.37109375
 40
0.373046875
 40
0.3740234375
 40
0.375
 40
0.3759765625
 40
0.376953125
 40
0.37890625
 40
0.3828125
 40
0.38671875
 40
0.390625
 40
0.3984375
 40
0.40625
 40
0.4140625
 40
0.421875
 40
0.42578125
 40
0.4296875
 40
0.43359375
 40
0.435546875
 40
0.4365234375
 40
0.4375
 40
0.4384765625
 40
0.439453125
 40
0.44140625
 40
0.4453125
 40
0.44921875
 40
0.453125
 40
0.4609375
 40
0.46875
 40
0.4765625
 40
0.484375
 40
0.48828125
 40
0.4921875
 40
0.494140625
 40
0.49609375
 40
0.498046875
 40
0.4990234375
 40
0.5
 40
0.5009765625
 40
0.501953125
 40
0.50390625
 40
0.505859375
 40
0.5078125
 40
0.51171875
 40
0.515625
 40
0.5234375
 40
0.53125
 40
0.5390625
 40
0.546875
 40
0.55078125
 40
0.5546875
 40
0.556640625
 40
0.55859375
 40
0.560546875
 40
0.5615234375
 40
0.5620117188
 40
0.5625
 40
0.5629882812
 40
0.5634765625
 40
0.564453125
 40
0.56640625
 40
0.568359375
 40
0.5703125
 40
0.57421875
 40
0.578125
 40
0.5859375
 40
0.59375
 40
0.6015625
 40
0.609375
 40
0.61328125
 40
0.6171875
 40
0.619140625
 40
0.62109375
 40
0.623046875
 40
0.6240234375
 40
0.6245117188
 40
0.625
 40
0.6254882812
 40
0.6259765625
 40
0.626953125
 40
0.62890625
 40
0.630859375
 40
0.6328125
 40
0.63671875
 40
0.640625
 40
0.6484375
 40
0.65625
 40
0.6640625
 40
0.671875
 40
0.67578125
 40
0.6796875
 40
0.681640625
 40
0.68359375
 40
0.685546875
 40
0.6865234375
 40
0.6870117188
 40
0.6875
 40
0.6879882812
 40
0.6884765625
 40
0.689453125
 40
0.69140625
 40
0.693359375
 40
0.6953125
 40
0.69921875
 40
0.703125
 40
0.7109375
 40
0.71875
 40
0.7265625
 40
0.73046875
 40
0.734375
 40
0.73828125
 40
0.7421875
 40
0.744140625
 40
0.74609375
 40
0.7470703125
 40
0.748046875
 40
0.7490234375
 40
0.7495117188
 40
0.7497558594
 40
0.75
 40
0.7502441406
 40
0.7504882812
 40
0.7509765625
 40
0.751953125
 40
0.7529296875
 40
0.75390625
 40
0.755859375
 40
0.7578125
 40
0.76171875
 40
0.765625
 40
0.76953125
 40
0.7734375
 40
0.78125
 40
0.7890625
 40
0.79296875
 40
0.796875
 40
0.80078125
 40
0.8046875
 40
0.806640625
 40
0.80859375
 40
0.8095703125
 40
0.810546875
 40
0.8115234375
 40
0.8120117188
 40
0.8122558594
 40
0.8125
 40
0.8127441406
 40
0.8129882812
 40
0.8134765625
 40
0.814453125
 40
0.8154296875
 40
0.81640625
 40
0.818359375
 40
0.8203125
 40
0.82421875
 40
0.828125
 40
0.83203125
 40
0.8359375
 40
0.84375
 40
0.8515625
 40
0.85546875
 40
0.859375
 40
0.86328125
 40
0.8671875
 40
0.869140625
 40
0.87109375
 40
0.8720703125
 40
0.873046875
 40
0.8740234375
 40
0.8745117188
 40
0.8747558594
 40
0.875
 40
0.8752441406
 40
0.8754882812
 40
0.8759765625
 40
0.876953125
 40
0.8779296875
 40
0.87890625
 40
0.880859375
 40
0.8828125
 40
0.88671875
 40
0.890625
 40
0.89453125
 40
0.8984375
 40
0.90625
 40
0.9140625
 40
0.91796875
 40
0.921875
 40
0.92578125
 40
0.9296875
 40
0.931640625
 40
0.93359375
 40
0.9345703125
 40
0.935546875
 40
0.9365234375
 40
0.9370117188
 40
0.9372558594
 40
0.9375
 40
0.9377441406
 40
0.9379882812
 40
0.9384765625
 40
0.939453125
 40
0.9404296875
 40
0.94140625
 40
0.943359375
 40
0.9453125
 40
0.94921875
 40
0.953125
 40
0.95703125
 40
0.9609375
 40
0.96875
 40
0.9765625
 40
0.984375
 40
1.0
 40
1.0
 40
1.0
 40
1.0
 10
13.4369693375
 20
9.1295762104
 30
0.0
 10
13.4386484058
 20
9.1318124893
 30
0.0
 10
13.4411670083
 20
9.1351669076
 30
0.0
 10
13.444525145
 20
9.1396394655
 30
0.0
 10
13.4470437475
 20
9.1429938835
 30
0.0
 10
13.4491425828
 20
9.1457892329
 30
0.0
 10
13.4508216513
 20
9.1480255101
 30
0.0
 10
13.4520809522
 20
9.1497027245
 30
0.0
 10
13.4533402545
 20
9.151379914
 30
0.0
 10
13.4543896688
 20
9.1527776496
 30
0.0
 10
13.45522921
 20
9.1538956639
 30
0.0
 10
13.455753901
 20
9.1545948195
 30
0.0
 10
13.4561737047
 20
9.1551532356
 30
0.0
 10
13.4564884183
 20
9.1555745347
 30
0.0
 10
13.4567511221
 20
9.1559177058
 30
0.0
 10
13.4569602929
 20
9.1562099868
 30
0.0
 10
13.4571198823
 20
9.1563807118
 30
0.0
 10
13.4572691224
 20
9.1567365079
 30
0.0
 10
13.4574717243
 20
9.157146255
 30
0.0
 10
13.4577237363
 20
9.1576806192
 30
0.0
 10
13.4580266817
 20
9.1583123623
 30
0.0
 10
13.4584304235
 20
9.1591580025
 30
0.0
 10
13.4589351641
 20
9.1602139173
 30
0.0
 10
13.4597427137
 20
9.1619040156
 30
0.0
 10
13.4607521628
 20
9.1640164208
 30
0.0
 10
13.4619634966
 20
9.1665514003
 30
0.0
 10
13.4631748317
 20
9.1690863547
 30
0.0
 10
13.4647899447
 20
9.1724663032
 30
0.0
 10
13.4668088365
 20
9.1766912323
 30
0.0
 10
13.4692315047
 20
9.1817611646
 30
0.0
 10
13.4712504009
 20
9.1859860589
 30
0.0
 10
13.4728655043
 20
9.189366084
 30
0.0
 10
13.4738749748
 20
9.1914783502
 30
0.0
 10
13.4746824805
 20
9.1931687345
 30
0.0
 10
13.4752883032
 20
9.1944349583
 30
0.0
 10
13.4757925402
 20
9.1954951213
 30
0.0
 10
13.4761467135
 20
9.1962274693
 30
0.0
 10
13.476347213
 20
9.1966612029
 30
0.0
 10
13.4765028984
 20
9.1969435463
 30
0.0
 10
13.4766382835
 20
9.1973900922
 30
0.0
 10
13.476825878
 20
9.197928211
 30
0.0
 10
13.4771508692
 20
9.1988966047
 30
0.0
 10
13.4776168671
 20
9.2002660727
 30
0.0
 10
13.4781753264
 20
9.201915406
 30
0.0
 10
13.4789201966
 20
9.2041124312
 30
0.0
 10
13.4798511961
 20
9.206859427
 30
0.0
 10
13.4813408446
 20
9.2112542209
 30
0.0
 10
13.4832028882
 20
9.2167478512
 30
0.0
 10
13.4854373485
 20
9.2233401448
 30
0.0
 10
13.4876718042
 20
9.2299324688
 30
0.0
 10
13.4895338589
 20
9.2354260229
 30
0.0
 10
13.4910234852
 20
9.2398209693
 30
0.0
 10
13.4919545412
 20
9.2425675777
 30
0.0
 10
13.4926992955
 20
9.2447653979
 30
0.0
 10
13.4932581091
 20
9.2464123024
 30
0.0
 10
13.4937229984
 20
9.2477893695
 30
0.0
 10
13.4940499686
 20
9.2487441975
 30
0.0
 10
13.4942343922
 20
9.249304052
 30
0.0
 10
13.4943795174
 20
9.2496838329
 30
0.0
 10
13.4944986207
 20
9.2502169342
 30
0.0
 10
13.4946665019
 20
9.2508742561
 30
0.0
 10
13.4949560649
 20
9.2520494866
 30
0.0
 10
13.4953719373
 20
9.2537153603
 30
0.0
 10
13.4958700378
 20
9.2557199847
 30
0.0
 10
13.4965345023
 20
9.2583908696
 30
0.0
 10
13.4973649699
 20
9.2617301427
 30
0.0
 10
13.4986937812
 20
9.2670726068
 30
0.0
 10
13.5003547734
 20
9.2737508154
 30
0.0
 10
13.5023479744
 20
9.2817646085
 30
0.0
 10
13.504341169
 20
9.289778425
 30
0.0
 10
13.5060021774
 20
9.2964565751
 30
0.0
 10
13.5073309562
 20
9.3017991561
 30
0.0
 10
13.5081615064
 20
9.3051381322
 30
0.0
 10
13.5088258013
 20
9.3078096268
 30
0.0
 10
13.5093244201
 20
9.3098123887
 30
0.0
 10
13.509738671
 20
9.3114840896
 30
0.0
 10
13.5100311286
 20
9.3126489176
 30
0.0
 10
13.5101943719
 20
9.3133229069
 30
0.0
 10
13.5103277213
 20
9.3138048112
 30
0.0
 10
13.5104193405
 20
9.3143768794
 30
0.0
 10
13.5105560555
 20
9.3151081869
 30
0.0
 10
13.5107885247
 20
9.3164026282
 30
0.0
 10
13.5111241692
 20
9.3182441691
 30
0.0
 10
13.5115254251
 20
9.3204572974
 30
0.0
 10
13.5120609629
 20
9.3234069897
 30
0.0
 10
13.5127302037
 20
9.3270944974
 30
0.0
 10
13.5138010907
 20
9.33299429
 30
0.0
 10
13.515139662
 20
9.3403691099
 30
0.0
 10
13.5167459746
 20
9.349218843
 30
0.0
 10
13.5183522389
 20
9.3580686528
 30
0.0
 10
13.5196909312
 20
9.3654432809
 30
0.0
 10
13.5207615762
 20
9.371343457
 30
0.0
 10
13.5215654034
 20
9.3757672963
 30
0.0
 10
13.5222325763
 20
9.3794579411
 30
0.0
 10
13.522704863
 20
9.3820333228
 30
0.0
 10
13.5229665191
 20
9.3835175695
 30
0.0
 10
13.5231859228
 20
9.3845952601
 30
0.0
 10
13.523316791
 20
9.3858086284
 30
0.0
 10
13.5235221641
 20
9.387379127
 30
0.0
 10
13.5238671784
 20
9.3901495494
 30
0.0
 10
13.5243675785
 20
9.3940957677
 30
0.0
 10
13.5249648387
 20
9.3988361642
 30
0.0
 10
13.5257623107
 20
9.4051549689
 30
0.0
 10
13.5267587619
 20
9.4130540679
 30
0.0
 10
13.5279546824
 20
9.4225327252
 30
0.0
 10
13.529150509
 20
9.4320114796
 30
0.0
 10
13.5301471946
 20
9.439910336
 30
0.0
 10
13.5309441979
 20
9.446229626
 30
0.0
 10
13.5315428878
 20
9.4509685423
 30
0.0
 10
13.532038815
 20
9.454919391
 30
0.0
 10
13.5323918142
 20
9.4576815476
 30
0.0
 10
13.5325843935
 20
9.4592652901
 30
0.0
 10
13.5327545602
 20
9.4604379773
 30
0.0
 10
13.5328263653
 20
9.4616684595
 30
0.0
 10
13.5329564151
 20
9.463288943
 30
0.0
 10
13.5331680167
 20
9.4661341817
 30
0.0
 10
13.5334786622
 20
9.4701938979
 30
0.0
 10
13.5338478593
 20
9.4750676593
 30
0.0
 10
13.5343413723
 20
9.4815652734
 30
0.0
 10
13.5349578316
 20
9.4896875435
 30
0.0
 10
13.5356977809
 20
9.4994341576
 30
0.0
 10
13.5364376285
 20
9.5091808079
 30
0.0
 10
13.5370543421
 20
9.5173029877
 30
0.0
 10
13.5375473465
 20
9.5238007824
 30
0.0
 10
13.537918095
 20
9.5286739932
 30
0.0
 10
13.5382238872
 20
9.5327354316
 30
0.0
 10
13.5384441526
 20
9.5355775959
 30
0.0
 10
13.5385603209
 20
9.5372030054
 30
0.0
 10
13.5386747653
 20
9.5384183564
 30
0.0
 10
13.5386847858
 20
9.5396478743
 30
0.0
 10
13.5387345708
 20
9.5412822899
 30
0.0
 10
13.5388047236
 20
9.5441448196
 30
0.0
 10
13.5389138145
 20
9.5482329441
 30
0.0
 10
13.5390409258
 20
9.5531392087
 30
0.0
 10
13.5392117341
 20
9.5596807147
 30
0.0
 10
13.5394247901
 20
9.5678576601
 30
0.0
 10
13.5396806484
 20
9.5776699629
 30
0.0
 10
13.539936469
 20
9.5874822918
 30
0.0
 10
13.5401496192
 20
9.5956591718
 30
0.0
 10
13.540320239
 20
9.6022008085
 30
0.0
 10
13.5404266442
 20
9.6062890302
 30
0.0
 10
13.5405123007
 20
9.6095602973
 30
0.0
 10
13.5405750853
 20
9.6120118592
 30
0.0
 10
13.5406320432
 20
9.6140608347
 30
0.0
 10
13.5406672087
 20
9.615686542
 30
0.0
 10
13.5407220028
 20
9.6169426376
 30
0.0
 10
13.5406683173
 20
9.6180582091
 30
0.0
 10
13.54063463
 20
9.6195947246
 30
0.0
 10
13.5405795198
 20
9.6214985276
 30
0.0
 10
13.5405189525
 20
9.6237902998
 30
0.0
 10
13.5404362523
 20
9.6268434783
 30
0.0
 10
13.5403335427
 20
9.6306608135
 30
0.0
 10
13.5401688353
 20
9.6367680681
 30
0.0
 10
13.5399630784
 20
9.6444023011
 30
0.0
 10
13.5397161167
 20
9.6535633122
 30
0.0
 10
13.5394691648
 20
9.6627243338
 30
0.0
 10
13.5392633837
 20
9.6703585406
 30
0.0
 10
13.5390987246
 20
9.6764658476
 30
0.0
 10
13.5389958921
 20
9.6802830496
 30
0.0
 10
13.5389134442
 20
9.6833365013
 30
0.0
 10
13.5388521061
 20
9.6856274389
 30
0.0
 10
13.5387994073
 20
9.6875338534
 30
0.0
 10
13.5387656262
 20
9.6888736425
 30
0.0
 10
13.5387414698
 20
9.6896309624
 30
0.0
 10
13.5387370233
 20
9.6902222597
 30
0.0
 10
13.5386803199
 20
9.6907244646
 30
0.0
 10
13.5386229431
 20
9.6914251476
 30
0.0
 10
13.5385140412
 20
9.6926368636
 30
0.0
 10
13.538362907
 20
9.6943754564
 30
0.0
 10
13.5381796455
 20
9.6964585276
 30
0.0
 10
13.5379359606
 20
9.6992370875
 30
0.0
 10
13.5376311273
 20
9.7027099
 30
0.0
 10
13.5371435209
 20
9.7082666166
 30
0.0
 10
13.5365339692
 20
9.7152124373
 30
0.0
 10
13.535802527
 20
9.7235474573
 30
0.0
 10
13.5350710751
 20
9.7318824568
 30
0.0
 10
13.5344615477
 20
9.7388283285
 30
0.0
 10
13.5339738926
 20
9.7443849431
 30
0.0
 10
13.5336691831
 20
9.7478580147
 30
0.0
 10
13.5334252441
 20
9.7506360428
 30
0.0
 10
13.533242759
 20
9.7527207389
 30
0.0
 10
13.5330891955
 20
9.7544542478
 30
0.0
 10
13.5329846304
 20
9.7556750395
 30
0.0
 10
13.5329203049
 20
9.756361181
 30
0.0
 10
13.5328849456
 20
9.7569080526
 30
0.0
 10
13.5328003343
 20
9.7573315891
 30
0.0
 10
13.532704699
 20
9.7579393251
 30
0.0
 10
13.5325293327
 20
9.758982819
 30
0.0
 10
13.5322829942
 20
9.7604840039
 30
0.0
 10
13.5319855969
 20
9.7622809403
 30
0.0
 10
13.5315896927
 20
9.7646784221
 30
0.0
 10
13.5310945983
 20
9.767674738
 30
0.0
 10
13.5303025669
 20
9.7724691433
 30
0.0
 10
13.5293124863
 20
9.7784620463
 30
0.0
 10
13.5281244086
 20
9.7856535777
 30
0.0
 10
13.5269363215
 20
9.7928450836
 30
0.0
 10
13.5259462642
 20
9.7988380505
 30
0.0
 10
13.5251541863
 20
9.8036323279
 30
0.0
 10
13.5246592102
 20
9.806628969
 30
0.0
 10
13.524263063
 20
9.8090257833
 30
0.0
 10
13.5239664081
 20
9.8108247593
 30
0.0
 10
13.5237177466
 20
9.8123195628
 30
0.0
 10
13.5235465275
 20
9.8133744485
 30
0.0
 10
13.5234442473
 20
9.8139639321
 30
0.0
 10
13.5233800466
 20
9.8144435341
 30
0.0
 10
13.5232680288
 20
9.8147798332
 30
0.0
 10
13.5231353509
 20
9.8152782177
 30
0.0
 10
13.5228953935
 20
9.8161271014
 30
0.0
 10
13.52255666
 20
9.8173519683
 30
0.0
 10
13.5221484407
 20
9.8188165968
 30
0.0
 10
13.5216047558
 20
9.8207712552
 30
0.0
 10
13.5209249418
 20
9.8232139549
 30
0.0
 10
13.5198373554
 20
9.8271226228
 30
0.0
 10
13.5184778327
 20
9.8320083381
 30
0.0
 10
13.5168464224
 20
9.8378712477
 30
0.0
 10
13.5154869101
 20
9.8427569943
 30
0.0
 10
13.5143993008
 20
9.8466655932
 30
0.0
 10
13.5135835942
 20
9.8495970445
 30
0.0
 10
13.512767886
 20
9.8525284867
 30
0.0
 10
13.5120881343
 20
9.8549713835
 30
0.0
 10
13.5115443213
 20
9.8569256377
 30
0.0
 10
13.5112044648
 20
9.8581471905
 30
0.0
 10
13.5109325187
 20
9.859124103
 30
0.0
 10
13.5107287257
 20
9.8598576902
 30
0.0
 10
13.5105583684
 20
9.8604661411
 30
0.0
 10
13.5104401579
 20
9.8608976924
 30
0.0
 10
13.5103709858
 20
9.8611354935
 30
0.0
 10
13.5103236796
 20
9.8613386329
 30
0.0
 10
13.5102588934
 20
9.8614470182
 30
0.0
 10
13.5101786091
 20
9.8616245832
 30
0.0
 10
13.5100352707
 20
9.8619199229
 30
0.0
 10
13.5098319868
 20
9.8623498875
 30
0.0
 10
13.5095874104
 20
9.862862399
 30
0.0
 10
13.5092615305
 20
9.8635469513
 30
0.0
 10
13.5088541047
 20
9.8644022296
 30
0.0
 10
13.5082022658
 20
9.8657709051
 30
0.0
 10
13.5073874526
 20
9.8674816705
 30
0.0
 10
13.5064096831
 20
9.8695346229
 30
0.0
 10
13.5054319119
 20
9.8715875662
 30
0.0
 10
13.5041282175
 20
9.8743248272
 30
0.0
 10
13.5024985994
 20
9.8777464021
 30
0.0
 10
13.5008689813
 20
9.8811679779
 30
0.0
 10
13.4995652868
 20
9.8839052375
 30
0.0
 10
13.4985875162
 20
9.8859581847
 30
0.0
 10
13.4976097442
 20
9.8880111226
 30
0.0
 10
13.4967949387
 20
9.8897219331
 30
0.0
 10
13.4961430843
 20
9.8910905168
 30
0.0
 10
13.4957356979
 20
9.8919460288
 30
0.0
 10
13.4954097371
 20
9.8926301012
 30
0.0
 10
13.4951654078
 20
9.8931440789
 30
0.0
 10
13.4949613509
 20
9.8935694563
 30
0.0
 10
13.4948193924
 20
9.8938729848
 30
0.0
 10
13.4947368972
 20
9.8940374292
 30
0.0
 10
13.4946789021
 20
9.8941861169
 30
0.0
 10
13.4946060897
 20
9.8942378873
 30
0.0
 10
13.4945141749
 20
9.8943407203
 30
0.0
 10
13.494350916
 20
9.8945049274
 30
0.0
 10
13.494118948
 20
9.8947477435
 30
0.0
 10
13.4938400475
 20
9.8950355982
 30
0.0
 10
13.4934683684
 20
9.8954206355
 30
0.0
 10
13.493003705
 20
9.8959015107
 30
0.0
 10
13.4922602796
 20
9.8966711465
 30
0.0
 10
13.4913309856
 20
9.8976331104
 30
0.0
 10
13.490215838
 20
9.8987875018
 30
0.0
 10
13.489100689
 20
9.8999418839
 30
0.0
 10
13.4876138242
 20
9.9014810633
 30
0.0
 10
13.485755243
 20
9.9034050363
 30
0.0
 10
13.4838966619
 20
9.9053290101
 30
0.0
 10
13.4824097969
 20
9.9068681882
 30
0.0
 10
13.4812946484
 20
9.9080225743
 30
0.0
 10
13.4801794989
 20
9.9091769506
 30
0.0
 10
13.4792502108
 20
9.9101389612
 30
0.0
 10
13.4785067734
 20
9.9109085019
 30
0.0
 10
13.4780421406
 20
9.9113896192
 30
0.0
 10
13.4776703987
 20
9.9117741594
 30
0.0
 10
13.4773916899
 20
9.912063533
 30
0.0
 10
13.4771591222
 20
9.9123015967
 30
0.0
 10
13.4769969337
 20
9.9124742877
 30
0.0
 10
13.476903304
 20
9.9125635273
 30
0.0
 10
13.4768357595
 20
9.9126570522
 30
0.0
 10
13.476757979
 20
9.9126489171
 30
0.0
 10
13.4766578421
 20
9.9126735305
 30
0.0
 10
13.476480939
 20
9.9127000825
 30
0.0
 10
13.4762290901
 20
9.9127466514
 30
0.0
 10
13.4759264991
 20
9.912798837
 30
0.0
 10
13.4755231744
 20
9.9128697091
 30
0.0
 10
13.4750189741
 20
9.9129578571
 30
0.0
 10
13.4742122784
 20
9.913099141
 30
0.0
 10
13.4732039003
 20
9.9132756611
 30
0.0
 10
13.4719938502
 20
9.9134875215
 30
0.0
 10
13.4707837991
 20
9.9136993722
 30
0.0
 10
13.4691703981
 20
9.9139818432
 30
0.0
 10
13.4671536466
 20
9.9143349307
 30
0.0
 10
13.4651368952
 20
9.9146880191
 30
0.0
 10
13.463523494
 20
9.9149704887
 30
0.0
 10
13.4623134433
 20
9.9151823436
 30
0.0
 10
13.4611033919
 20
9.9153941884
 30
0.0
 10
13.460095018
 20
9.915570757
 30
0.0
 10
13.4592883137
 20
9.9157119419
 30
0.0
 10
13.4587841353
 20
9.9158003418
 30
0.0
 10
13.4583807657
 20
9.9158706968
 30
0.0
 10
13.4580783119
 20
9.9159244622
 30
0.0
 10
13.4578260336
 20
9.9159660883
 30
0.0
 10
13.457649897
 20
9.916001464
 30
0.0
 10
13.457548532
 20
9.9160119395
 30
0.0
 10
13.4574745241
 20
9.9160472316
 30
0.0
 10
13.4573928104
 20
9.9159776515
 30
0.0
 10
13.4572865467
 20
9.9159214586
 30
0.0
 10
13.4570993328
 20
9.9158060775
 30
0.0
 10
13.4568325392
 20
9.915650158
 30
0.0
 10
13.4565121067
 20
9.9154592404
 30
0.0
 10
13.4560849612
 20
9.9152060159
 30
0.0
 10
13.4555509957
 20
9.9148890291
 30
0.0
 10
13.4546966698
 20
9.9143821052
 30
0.0
 10
13.4536287559
 20
9.9137483629
 30
0.0
 10
13.4523472621
 20
9.9129879095
 30
0.0
 10
13.4510657675
 20
9.9122274461
 30
0.0
 10
13.4493571082
 20
9.9112134985
 30
0.0
 10
13.4472212841
 20
9.9099460627
 30
0.0
 10
13.4446582952
 20
9.9084251402
 30
0.0
 10
13.4412409766
 20
9.9063972435
 30
0.0
 10
13.4386779877
 20
9.904876321
 30
0.0
 10
13.4369693285
 20
9.9038623726
 30
0.0
  0
ENDSEC
  0
SECTION
  2
OBJECTS
  0
DICTIONARY
  5
C
100
AcDbDictionary
280
0
281
1
  3
ACAD_GROUP
350
D
  3
ACAD_MLINESTYLE
350
17
  3
ACAD_LAYOUT
350
1A
  3
ACAD_PLOTSETTINGS
350
19
  3
ACAD_PLOTSTYLENAME
350
E
  3
ACAD_IMAGE_DICT
350
       390
  3
ACAD_IMAGE_VARS
350
       391
  3
ACAD_TABLESTYLE
350
       392
  0
IMAGEDEF_REACTOR
  5
38F
100
AcDbRasterImageDefReactor
 90
2
330
28A
  0
DICTIONARY
  5
D
102
{ACAD_REACTORS
330
C
102
}
100
AcDbDictionary
280
0
281
1
  0
ACDBDICTIONARYWDFLT
  5
E
102
{ACAD_REACTORS
330
C
102
}
100
AcDbDictionary
281
1
  3
Normal
350
F
100
AcDbDictionaryWithDefault
340
F
  0
DICTIONARY
  5
390
330
C
100
AcDbDictionary
281
1
  3
YVX_assy_2_img_1
350
       395
  0
RASTERVARIABLES
  5
391
330
C
100
AcDbRasterVariables
 90
0
 70
0
 71
1
 72
5
  0
DICTIONARY
  5
17
102
{ACAD_REACTORS
330
C
102
}
100
AcDbDictionary
280
0
281
1
  3
Standard
350
18
  0
DICTIONARY
  5
392
330
C
100
AcDbDictionary
281
1
  3
Standard
350
       396
  3
Standard1
350
       397
  0
DICTIONARY
  5
19
102
{ACAD_REACTORS
330
C
102
}
100
AcDbDictionary
281
1
  0
DICTIONARY
  5
1A
102
{ACAD_REACTORS
330
C
102
}
100
AcDbDictionary
281
1
  3
Model
350
393
  3
Layout1
350
394
  0
ACDBPLACEHOLDER
  5
F
102
{ACAD_REACTORS
330
E
102
}
  0
MLINESTYLE
  5
18
102
{ACAD_REACTORS
330
17
102
}
100
AcDbMlineStyle
  2
STANDARD
 70
0
  3

 62
256
 51
90.0
 52
90.0
 71
2
 49
0.5
 62
256
  6
BYLAYER
 49
-0.5
 62
256
  6
BYLAYER
  0
LAYOUT
  5
393
102
{ACAD_REACTORS
330
1A
102
}
100
AcDbPlotSettings
  1

  2
none_device
  4
ANSI_C_(22.00_x_17.00_Inches)
  6

 40
0.0
 41
0.0
 42
0.0
 43
0.0
 44
558.8
 45
431.8
 46
0.0
 47
0.0
 48
0.0
 49
0.0
140
0.0
141
0.0
142
1.0
143
1.0
 70
1024
 72
0
 73
0
 74
0
  7

 75
0
147
1.0
148
0.0
149
0.0
100
AcDbLayout
  1
Model
 70
0
 71
0
 10
0.0
 20
0.0
 11
22.0
 21
17.0
 12
0.0
 22
0.0
 32
0.0
 14
0.0
 24
0.0
 34
0.0
 15
0.0
 25
0.0
 35
0.0
146
0.0
 13
0.0
 23
0.0
 33
0.0
 16
1.0
 26
0.0
 36
0.0
 17
0.0
 27
1.0
 37
0.0
 76
0
330
207
345
0
346
0
  0
LAYOUT
  5
394
102
{ACAD_REACTORS
330
1A
102
}
100
AcDbPlotSettings
  1

  2
none_device
  4
ANSI_C_(22.00_x_17.00_Inches)
  6

 40
0.0
 41
0.0
 42
0.0
 43
0.0
 44
558.8
 45
431.8
 46
0.0
 47
0.0
 48
0.0
 49
0.0
140
0.0
141
0.0
142
1.0
143
1.0
 70
0
 72
0
 73
0
 74
0
  7

 75
0
147
1.0
148
0.0
149
0.0
100
AcDbLayout
  1
Layout1
 70
0
 71
1
 10
0.0
 20
0.0
 11
22.0
 21
17.0
 12
0.0
 22
0.0
 32
0.0
 14
0.0
 24
0.0
 34
0.0
 15
0.0
 25
0.0
 35
0.0
146
0.0
 13
0.0
 23
0.0
 33
0.0
 16
1.0
 26
0.0
 36
0.0
 17
0.0
 27
1.0
 37
0.0
 76
0
330
208
345
0
346
0
  0
IMAGEDEF
  5
395
102
{ACAD_REACTORS
330
390
330
38F
102
}
100
AcDbRasterImageDef
 90
0
  1
YVX_assy_2_img_1.png
 10
369.0
 20
92.0
 11
0.0066666667
 21
0.0066666667
280
1
281
0
  0
TABLESTYLE
  5
396
102
{ACAD_REACTORS
330
392
330
28D
330
28E
102
}
330
392
100
AcDbTableStyle
  3
Standard
 70
0
 71
0
 40
0.06
 41
0.06
280
1
281
1
  7
Standard
140
0.18
170
1
 62
0
 63
7
283
0
  7
Standard
140
0.18
170
1
 62
0
 63
7
283
0
  7
Standard
140
0.18
170
1
 62
0
 63
7
283
0
  0
TABLESTYLE
  5
397
102
{ACAD_REACTORS
330
392
330
28C
102
}
330
392
100
AcDbTableStyle
  3
Standard1
 70
1
 71
0
 40
0.06
 41
0.06
280
1
281
1
  7
Standard
140
0.18
170
1
 62
0
 63
7
283
0
  7
Standard
140
0.18
170
1
 62
0
 63
7
283
0
  7
Standard
140
0.18
170
1
 62
0
 63
7
283
0
  0
ENDSEC
  0
EOF
