999
DXF file: YVW_assy_2.dxf
999
Pro/ENGINEER 2014200 by Parametric Technology Corporation
  0
SECTION
  2
HEADER
  9
$ACADVER
  1
AC1021
  9
$DWGCODEPAGE
  3
ANSI_1252
  9
$EXTMAX
 10
22.0
 20
17.0
 30
0.0
  9
$EXTMIN
 10
0.0
 20
0.0
 30
0.0
  9
$LIMMIN
 10
0.0
 20
0.0
  9
$LIMMAX
 10
22.0
 20
17.0
  9
$VIEWCTR
 10
11.0
 20
8.5
  9
$VIEWSIZE
 40
17.0
  9
$CLAYER
  8
0
  9
$LTSCALE
 40
1.21
  9
$CELTYPE
  6
BYLAYER
  9
$DIMSCALE
 40
1.0
  9
$DIMASZ
 40
0.1875
  9
$DIMEXO
 40
0.0625
  9
$DIMDLI
 40
0.836
  9
$DIMEXE
 40
0.125
  9
$DIMCEN
 40
0.198
  9
$DIMLFAC
 40
1.0
  9
$DIMBLK
  1
_FILLED
  9
$DIMTXT
 40
0.1
  9
$DIMTOL
 70
0
  9
$DIMLIM
 70
0
  9
$DIMTFAC
 40
1.0
  9
$DIMGAP
 40
0.09
  9
$DIMDSEP
 70
46
  9
$AUNITS
 70
0
  9
$PDMODE
 70
3
  9
$PDSIZE
 40
0.3125
  9
$HANDSEED
  5
387
  9
$TILEMODE
 70
1
  9
$MEASUREMENT
 70
0
  9
$INSUNITS
 70
1
  0
ENDSEC
  0
SECTION
  2
CLASSES
  0
CLASS
  1
ACDBDICTIONARYWDFLT
  2
AcDbDictionaryWithDefault
  3
AutoCAD 2000
 90
0
 91
1
280
0
281
0
  0
CLASS
  1
ACDBPLACEHOLDER
  2
AcDbPlaceHolder
  3
AutoCAD 2000
 90
0
 91
1
280
0
281
0
  0
CLASS
  1
LAYOUT
  2
AcDbLayout
  3
AutoCAD 2000
 90
0
 91
0
280
0
281
0
  0
CLASS
  1
RASTERVARIABLES
  2
AcDbRasterVariables
  3
ISM
 90
0
 91
1
280
0
281
0
  0
CLASS
  1
IMAGEDEF
  2
AcDbRasterImageDef
  3
ISM
 90
0
 91
1
280
0
281
0
  0
CLASS
  1
IMAGEDEF_REACTOR
  2
AcDbRasterImageDefReactor
  3
ISM
 90
0
 91
1
280
0
281
0
  0
CLASS
  1
IMAGE
  2
AcDbRasterImage
  3
ISM
 90
127
 91
1
280
0
281
1
  0
CLASS
  1
TABLESTYLE
  2
AcDbTableStyle
  3
ObjectDBX Classes
 90
2047
 91
1
280
0
281
0
  0
CLASS
  1
ACAD_TABLE
  2
AcDbTable
  3
ObjectDBX Classes
 90
1025
 91
3
280
0
281
1
  0
ENDSEC
  0
SECTION
  2
TABLES
  0
TABLE
  2
VPORT
  5
8
100
AcDbSymbolTable
 70
2
  0
VPORT
  5
1F4
100
AcDbSymbolTableRecord
100
AcDbViewportTableRecord
  2
*ACTIVE
 70
0
 10
0.0
 20
0.0
 11
1.0
 21
1.0
 12
11.0
 22
8.5
 13
0.0
 23
0.0
 14
1.0
 24
1.0
 15
0.0
 25
0.0
 16
0.0
 26
0.0
 36
1.0
 17
0.0
 27
0.0
 37
0.0
 40
17.0
 41
1.2941176471
 42
50.0
 43
0.0
 44
0.0
 50
0.0
 51
0.0
 71
0
 72
100
 73
1
 74
1
 75
0
 76
0
 77
0
 78
0
  0
ENDTAB
  0
TABLE
  2
LTYPE
  5
5
100
AcDbSymbolTable
 70
6
  0
LTYPE
  5
14
100
AcDbSymbolTableRecord
100
AcDbLinetypeTableRecord
  2
BYBLOCK
 70
0
  3

 72
65
 73
0
 40
0.0
  0
LTYPE
  5
15
100
AcDbSymbolTableRecord
100
AcDbLinetypeTableRecord
  2
BYLAYER
 70
0
  3

 72
65
 73
0
 40
0.0
  0
LTYPE
  5
16
100
AcDbSymbolTableRecord
100
AcDbLinetypeTableRecord
  2
CONTINUOUS
 70
64
  3
Solid line
 72
65
 73
0
 40
0.0
  0
LTYPE
  5
1F5
100
AcDbSymbolTableRecord
100
AcDbLinetypeTableRecord
  2
CENTER
 70
64
  3
____ _ ____ _ ____ _ ____ _ ____ _ ____ _ ____
 72
65
 73
4
 40
0.6
 49
0.375
 74
0
 49
-0.075
 74
0
 49
0.075
 74
0
 49
-0.075
 74
0
  0
LTYPE
  5
1F6
100
AcDbSymbolTableRecord
100
AcDbLinetypeTableRecord
  2
HIDDEN
 70
64
  3
- - - - - - - - - - - - - - - - - - - -
 72
65
 73
2
 40
0.2
 49
0.1
 74
0
 49
-0.1
 74
0
  0
LTYPE
  5
1F7
100
AcDbSymbolTableRecord
100
AcDbLinetypeTableRecord
  2
PHANTOM
 70
64
  3
_____ _ _ _____ _ _ _____ _ _ _____
 72
65
 73
6
 40
0.8
 49
0.45
 74
0
 49
-0.05
 74
0
 49
0.1
 74
0
 49
-0.05
 74
0
 49
0.1
 74
0
 49
-0.05
 74
0
  0
LTYPE
  5
1F8
100
AcDbSymbolTableRecord
100
AcDbLinetypeTableRecord
  2
DOT
 70
64
  3
. . . . . . . . . . . . . . . . . . . .
 72
65
 73
2
 40
0.2
 49
0.1
 74
0
 49
-0.1
 74
0
  0
LTYPE
  5
1F9
100
AcDbSymbolTableRecord
100
AcDbLinetypeTableRecord
  2
DASHED
 70
64
  3
- - - - - - - - - - - - - - - - - - - -
 72
65
 73
2
 40
0.2
 49
0.1
 74
0
 49
-0.1
 74
0
  0
ENDTAB
  0
TABLE
  2
LAYER
  5
2
100
AcDbSymbolTable
 70
36
  0
LAYER
  5
10
100
AcDbSymbolTableRecord
100
AcDbLayerTableRecord
  2
0
 70
0
 62
7
  6
CONTINUOUS
370
-3
390
F
  0
LAYER
  5
1FA
100
AcDbSymbolTableRecord
100
AcDbLayerTableRecord
  2
DEFAULT_1
 70
0
 62
7
  6
CENTER
370
-3
390
F
  0
LAYER
  5
1FB
100
AcDbSymbolTableRecord
100
AcDbLayerTableRecord
  2
DEFAULT_2
 70
0
 62
8
  6
HIDDEN
370
-3
390
F
  0
LAYER
  5
1FC
100
AcDbSymbolTableRecord
100
AcDbLayerTableRecord
  2
DEFAULT_3
 70
0
 62
7
  6
PHANTOM
370
-3
390
F
  0
LAYER
  5
1FD
100
AcDbSymbolTableRecord
100
AcDbLayerTableRecord
  2
DATUM_PLANES
 70
0
 62
7
  6
CONTINUOUS
370
-3
390
F
  0
LAYER
  5
1FE
100
AcDbSymbolTableRecord
100
AcDbLayerTableRecord
  2
DIMENSIONS
 70
0
 62
7
  6
CONTINUOUS
370
-3
390
F
  0
LAYER
  5
1FF
100
AcDbSymbolTableRecord
100
AcDbLayerTableRecord
  2
DTM_500001
 70
0
 62
7
  6
CONTINUOUS
370
-3
390
F
  0
LAYER
  5
200
100
AcDbSymbolTableRecord
100
AcDbLayerTableRecord
  2
PARAMETERDIMENSIONS
 70
0
 62
7
  6
CONTINUOUS
370
-3
390
F
  0
LAYER
  5
201
100
AcDbSymbolTableRecord
100
AcDbLayerTableRecord
  2
PORT_AREAS
 70
0
 62
7
  6
CONTINUOUS
370
-3
390
F
  0
LAYER
  5
202
100
AcDbSymbolTableRecord
100
AcDbLayerTableRecord
  2
SUNNBOMCOSMETIC
 70
0
 62
7
  6
CONTINUOUS
370
-3
390
F
  0
LAYER
  5
203
100
AcDbSymbolTableRecord
100
AcDbLayerTableRecord
  2
SUNNBOMSTAMPING
 70
0
 62
7
  6
CONTINUOUS
370
-3
390
F
  0
LAYER
  5
204
100
AcDbSymbolTableRecord
100
AcDbLayerTableRecord
  2
THREADS
 70
0
 62
7
  6
CONTINUOUS
370
-3
390
F
  0
ENDTAB
  0
TABLE
  2
STYLE
  5
3
100
AcDbSymbolTable
 70
1
  0
STYLE
  5
11
100
AcDbSymbolTableRecord
100
AcDbTextStyleTableRecord
  2
STANDARD
 70
0
 40
0.0
 41
0.8
 50
0.0
 71
0
 42
0.2
  3
txt
  4

  0
STYLE
  5
205
100
AcDbSymbolTableRecord
100
AcDbTextStyleTableRecord
  2
TEXTSTYLE_1
 70
0
 40
0.0
 41
0.8
 50
0.0
 71
0
 42
0.2
  3
gdt
  4

  0
ENDTAB
  0
TABLE
  2
VIEW
  5
6
100
AcDbSymbolTable
 70
0
  0
ENDTAB
  0
TABLE
  2
UCS
  5
7
100
AcDbSymbolTable
 70
0
  0
ENDTAB
  0
TABLE
  2
APPID
  5
9
100
AcDbSymbolTable
 70
1
  0
APPID
  5
206
100
AcDbSymbolTableRecord
100
AcDbRegAppTableRecord
  2
ACAD
 70
0
  0
ENDTAB
  0
TABLE
  2
BLOCK_RECORD
  5
1
100
AcDbSymbolTable
 70
0
  0
BLOCK_RECORD
  5
207
100
AcDbSymbolTableRecord
100
AcDbBlockTableRecord
  2
*Model_Space
  0
BLOCK_RECORD
  5
208
100
AcDbSymbolTableRecord
100
AcDbBlockTableRecord
  2
*Paper_Space
  0
BLOCK_RECORD
  5
209
100
AcDbSymbolTableRecord
100
AcDbBlockTableRecord
  2
SUN_FIRST_THIRD_ANGLE_BL0
  0
BLOCK_RECORD
  5
20A
100
AcDbSymbolTableRecord
100
AcDbBlockTableRecord
  2
*T1
  0
BLOCK_RECORD
  5
20B
100
AcDbSymbolTableRecord
100
AcDbBlockTableRecord
  2
*T2
  0
BLOCK_RECORD
  5
20C
100
AcDbSymbolTableRecord
100
AcDbBlockTableRecord
  2
*T3
  0
ENDTAB
  0
TABLE
  2
DIMSTYLE
  5
A
100
AcDbSymbolTable
 70
1
100
AcDbDimStyleTable
 71
0
  0
DIMSTYLE
105
20D
100
AcDbSymbolTableRecord
100
AcDbDimStyleTableRecord
  2
STANDARD
 70
0
  3

  4

 40
1.0
 41
0.1875
 42
0.0625
 43
0.38
 44
0.125
 45
0.0
 46
0.0
 47
0.001
 48
0.001
140
0.1
141
0.09
142
0.0
143
25.4
144
1.0
145
0.0
146
1.0
147
0.09
 71
0.0
 72
0.0
 73
1
 74
1
 75
0
 76
0
 77
0
 78
4
170
0
171
2
172
0
173
0
174
0
175
0
176
0
177
0
178
0
270
2
271
3
272
3
273
2
274
2
275
0
280
0
281
0
282
0
283
1
284
4
285
0
286
0
287
3
288
0
340
11
278
46
  0
ENDTAB
  0
ENDSEC
  0
SECTION
  2
BLOCKS
  0
BLOCK
  5
20
100
AcDbEntity
  8
0
100
AcDbBlockBegin
  2
*Model_Space
 70
0
 10
0.0
 20
0.0
 30
0.0
  3
*Model_Space
  1

  0
ENDBLK
  5
21
100
AcDbEntity
  8
0
100
AcDbBlockEnd
  0
BLOCK
  5
1C
100
AcDbEntity
  8
0
100
AcDbBlockBegin
  2
*Paper_Space
 70
0
 10
0.0
 20
0.0
 30
0.0
  3
*Paper_Space
  1

  0
ENDBLK
  5
1D
100
AcDbEntity
  8
0
100
AcDbBlockEnd
  0
BLOCK
  5
20E
100
AcDbEntity
  8
0
100
AcDbBlockBegin
 62
2
  6
CONTINUOUS
  2
SUN_FIRST_THIRD_ANGLE_BL0
 70
64
 10
20.4816717061
 20
1.2289683772
  3
SUN_FIRST_THIRD_ANGLE_BL0
  1

  0
TEXT
  5
20F
100
AcDbEntity
  8
0
100
AcDbText
 62
2
  6
CONTINUOUS
 10
19.4750896608
 20
1.4136269581
  7
STANDARD
 40
0.08
  1
FIRST ANGLE
 41
0.8
 72
0
100
AcDbText
  0
TEXT
  5
210
100
AcDbEntity
  8
0
100
AcDbText
 62
2
  6
CONTINUOUS
 10
20.7842537513
 20
1.4047600029
  7
STANDARD
 40
0.08
  1
THIRD ANGLE
 41
0.8
 72
0
100
AcDbText
  0
LINE
  5
211
100
AcDbEntity
  8
0
100
AcDbLine
 62
7
  6
CONTINUOUS
 10
19.4767170086
 20
1.1727031207
 11
19.6334271527
 21
1.1717972817
  0
LINE
  5
212
100
AcDbEntity
  8
0
100
AcDbLine
 62
7
  6
CONTINUOUS
 10
19.6596964832
 20
1.1717972817
 11
19.6950230232
 21
1.171593082
  0
LINE
  5
213
100
AcDbEntity
  8
0
100
AcDbLine
 62
7
  6
CONTINUOUS
 10
19.7194818561
 20
1.1708914427
 11
19.8852396156
 21
1.1699333054
  0
LINE
  5
214
100
AcDbEntity
  8
0
100
AcDbLine
 62
7
  6
CONTINUOUS
 10
19.4758111696
 20
1.2723454088
 11
19.88525039
 21
1.3511534004
  0
LINE
  5
215
100
AcDbEntity
  8
0
100
AcDbLine
 62
7
  6
CONTINUOUS
 10
19.88525039
 20
1.3511534004
 11
19.8831348489
 21
0.9851647912
  0
LINE
  5
216
100
AcDbEntity
  8
0
100
AcDbLine
 62
7
  6
CONTINUOUS
 10
19.8831348489
 20
0.9851647912
 11
19.4767170086
 21
1.0658141206
  0
LINE
  5
217
100
AcDbEntity
  8
0
100
AcDbLine
 62
7
  6
CONTINUOUS
 10
19.4767170086
 20
1.0658141206
 11
19.4779056764
 21
1.2714536432
  0
CIRCLE
  5
218
100
AcDbEntity
  8
0
100
AcDbCircle
 62
7
  6
CONTINUOUS
 10
20.2068232291
 20
1.1717972817
 40
0.175742101
  0
CIRCLE
  5
219
100
AcDbEntity
  8
0
100
AcDbCircle
 62
7
  6
CONTINUOUS
 10
20.2068232291
 20
1.1717972817
 40
0.1005522074
  0
LINE
  5
21A
100
AcDbEntity
  8
0
100
AcDbLine
 62
7
  6
CONTINUOUS
 10
20.2077290681
 20
1.3756110529
 11
20.2071171714
 21
1.2379342989
  0
LINE
  5
21B
100
AcDbEntity
  8
0
100
AcDbLine
 62
7
  6
CONTINUOUS
 10
20.2077290681
 20
1.2016899681
 11
20.2074674401
 21
1.1428236749
  0
LINE
  5
21C
100
AcDbEntity
  8
0
100
AcDbLine
 62
7
  6
CONTINUOUS
 10
20.208634907
 20
1.101141841
 11
20.2080230104
 21
0.963465087
  0
LINE
  5
21D
100
AcDbEntity
  8
0
100
AcDbLine
 62
7
  6
CONTINUOUS
 10
20.0066328138
 20
1.1745147986
 11
20.1443095678
 21
1.1739029019
  0
LINE
  5
21E
100
AcDbEntity
  8
0
100
AcDbLine
 62
7
  6
CONTINUOUS
 10
20.1832714155
 20
1.1727031207
 11
20.238153505
 21
1.172335442
  0
LINE
  5
21F
100
AcDbEntity
  8
0
100
AcDbLine
 62
7
  6
CONTINUOUS
 10
20.2756669918
 20
1.1717972817
 11
20.407916871
 21
1.1712095044
  0
CIRCLE
  5
220
100
AcDbEntity
  8
0
100
AcDbCircle
 62
7
  6
CONTINUOUS
 10
20.7509457401
 20
1.1693297793
 40
0.1722024983
  0
CIRCLE
  5
221
100
AcDbEntity
  8
0
100
AcDbCircle
 62
7
  6
CONTINUOUS
 10
20.7509457401
 20
1.1693297793
 40
0.0985164967
  0
LINE
  5
222
100
AcDbEntity
  8
0
100
AcDbLine
 62
7
  6
CONTINUOUS
 10
20.7169767782
 20
1.170462078
 11
20.7825395137
 21
1.1682766535
  0
LINE
  5
223
100
AcDbEntity
  8
0
100
AcDbLine
 62
7
  6
CONTINUOUS
 10
20.8177513651
 20
1.1693297793
 11
20.947965719
 21
1.1693297793
  0
LINE
  5
224
100
AcDbEntity
  8
0
100
AcDbLine
 62
7
  6
CONTINUOUS
 10
20.6875370113
 20
1.170462078
 11
20.5573226574
 21
1.170462078
  0
LINE
  5
225
100
AcDbEntity
  8
0
100
AcDbLine
 62
7
  6
CONTINUOUS
 10
20.7486811426
 20
1.1987695462
 11
20.7486811426
 21
1.1432869085
  0
LINE
  5
226
100
AcDbEntity
  8
0
100
AcDbLine
 62
7
  6
CONTINUOUS
 10
20.7498134414
 20
1.1059210505
 11
20.7498134414
 21
0.9757066966
  0
LINE
  5
227
100
AcDbEntity
  8
0
100
AcDbLine
 62
7
  6
CONTINUOUS
 10
20.7486811426
 20
1.2338708068
 11
20.7486811426
 21
1.3640851607
  0
LINE
  5
228
100
AcDbEntity
  8
0
100
AcDbLine
 62
7
  6
CONTINUOUS
 10
21.0702539817
 20
1.2701043662
 11
21.4790138229
 21
1.3448360823
  0
LINE
  5
229
100
AcDbEntity
  8
0
100
AcDbLine
 62
7
  6
CONTINUOUS
 10
21.4790138229
 20
1.3448360823
 11
21.4790138229
 21
0.9779712941
  0
LINE
  5
22A
100
AcDbEntity
  8
0
100
AcDbLine
 62
7
  6
CONTINUOUS
 10
21.4790138229
 20
0.9779712941
 11
21.069121683
 21
1.0617614
  0
LINE
  5
22B
100
AcDbEntity
  8
0
100
AcDbLine
 62
7
  6
CONTINUOUS
 10
21.0702539817
 20
1.2701043662
 11
21.069121683
 21
1.0617614
  0
LINE
  5
22C
100
AcDbEntity
  8
0
100
AcDbLine
 62
7
  6
CONTINUOUS
 10
21.4790138229
 20
1.1693297793
 11
21.3159628059
 21
1.1693297793
  0
LINE
  5
22D
100
AcDbEntity
  8
0
100
AcDbLine
 62
7
  6
CONTINUOUS
 10
21.2876553377
 20
1.1693297793
 11
21.2502894796
 21
1.1693297793
  0
LINE
  5
22E
100
AcDbEntity
  8
0
100
AcDbLine
 62
7
  6
CONTINUOUS
 10
21.2208497126
 20
1.1659328831
 11
21.0713862804
 21
1.1659328831
  0
LINE
  5
22F
100
AcDbEntity
  8
0
100
AcDbLine
 62
7
  6
CONTINUOUS
 10
20.4796138713
 20
1.5284908897
 11
20.4766766948
 21
0.9294458646
  0
ENDBLK
  5
230
100
AcDbEntity
  8
0
  6
BYBLOCK
 62
0
100
AcDbBlockEnd
  0
BLOCK
  5
231
100
AcDbEntity
  8
0
100
AcDbBlockBegin
  2
*T1
 70
1
 10
0.0
 20
0.0
  3
*T1
  1

  0
LINE
  5
232
100
AcDbEntity
  8
0
100
AcDbLine
 62
2
  6
CONTINUOUS
 10
9.275
 20
0.0
 11
-0.0
 21
0.0
  0
LINE
  5
233
100
AcDbEntity
  8
0
100
AcDbLine
 62
2
  6
CONTINUOUS
 10
9.275
 20
0.0
 11
9.275
 21
1.25
  0
LINE
  5
234
100
AcDbEntity
  8
0
100
AcDbLine
 62
2
  6
CONTINUOUS
 10
9.275
 20
0.625
 11
-0.0
 21
0.625
  0
LINE
  5
235
100
AcDbEntity
  8
0
100
AcDbLine
 62
2
  6
CONTINUOUS
 10
9.275
 20
1.25
 11
-0.0
 21
1.25
  0
LINE
  5
236
100
AcDbEntity
  8
0
100
AcDbLine
 62
2
  6
CONTINUOUS
 10
6.8
 20
0.0
 11
6.8
 21
1.25
  0
LINE
  5
237
100
AcDbEntity
  8
0
100
AcDbLine
 62
2
  6
CONTINUOUS
 10
6.4
 20
0.0
 11
6.4
 21
0.625
  0
LINE
  5
238
100
AcDbEntity
  8
0
100
AcDbLine
 62
2
  6
CONTINUOUS
 10
5.9
 20
0.0
 11
5.9
 21
0.625
  0
LINE
  5
239
100
AcDbEntity
  8
0
100
AcDbLine
 62
2
  6
CONTINUOUS
 10
5.2
 20
0.0
 11
5.2
 21
0.625
  0
LINE
  5
23A
100
AcDbEntity
  8
0
100
AcDbLine
 62
2
  6
CONTINUOUS
 10
4.1
 20
0.0
 11
4.1
 21
1.25
  0
LINE
  5
23B
100
AcDbEntity
  8
0
100
AcDbLine
 62
2
  6
CONTINUOUS
 10
-0.0
 20
0.0
 11
-0.0
 21
1.25
  0
MTEXT
  5
23C
100
AcDbEntity
  8
0
100
AcDbMText
 62
2
  6
CONTINUOUS
  7
STANDARD
 71
2
 72
1
 10
6.6
 20
0.325
 30
0.0
 11
1.0
 21
0.0
 31
0.0
 44
0.9
  1
2
 40
0.125
 41
0.2
  0
MTEXT
  5
23D
100
AcDbEntity
  8
0
100
AcDbMText
 62
2
  6
CONTINUOUS
  7
STANDARD
 71
2
 72
1
 10
6.15
 20
0.325
 30
0.0
 11
1.0
 21
0.0
 31
0.0
 44
0.9
  1
C
 40
0.125
 41
0.2
  0
MTEXT
  5
23E
100
AcDbEntity
  8
0
100
AcDbMText
 62
2
  6
CONTINUOUS
  7
STANDARD
 71
2
 72
1
 10
5.55
 20
0.325
 30
0.0
 11
1.0
 21
0.0
 31
0.0
 44
0.9
  1
1.000
 40
0.125
 41
1.0
  0
MTEXT
  5
23F
100
AcDbEntity
  8
0
100
AcDbMText
 62
2
  6
CONTINUOUS
  7
STANDARD
 71
2
 72
1
 10
4.65
 20
0.325
 30
0.0
 11
1.0
 21
0.0
 31
0.0
 44
0.9
  1
Oct-16-19
 40
0.125
 41
1.8
  0
MTEXT
  5
240
100
AcDbEntity
  8
0
100
AcDbMText
 62
2
  6
CONTINUOUS
  7
STANDARD
 71
2
 72
1
 10
2.05
 20
0.4625
 30
0.0
 11
1.0
 21
0.0
 31
0.0
 44
0.9
  1
T-2A Gasket mount Sun\PDirect mount, cross pilot
 40
0.125
 41
5.0
  0
MTEXT
  5
241
100
AcDbEntity
  8
0
100
AcDbMText
 62
2
  6
CONTINUOUS
  7
STANDARD
 71
1
 72
1
 10
6.45
 20
0.5625
 30
0.0
 11
1.0
 21
0.0
 31
0.0
 44
0.9
  1
SHEET
 40
0.06
 41
0.48
  0
MTEXT
  5
242
100
AcDbEntity
  8
0
100
AcDbMText
 62
2
  6
CONTINUOUS
  7
STANDARD
 71
1
 72
1
 10
5.95
 20
0.5625
 30
0.0
 11
1.0
 21
0.0
 31
0.0
 44
0.9
  1
DWG SIZE
 40
0.06
 41
0.768
  0
MTEXT
  5
243
100
AcDbEntity
  8
0
100
AcDbMText
 62
2
  6
CONTINUOUS
  7
STANDARD
 71
1
 72
1
 10
5.25
 20
0.5625
 30
0.0
 11
1.0
 21
0.0
 31
0.0
 44
0.9
  1
SCALE
 40
0.06
 41
0.48
  0
MTEXT
  5
244
100
AcDbEntity
  8
0
100
AcDbMText
 62
2
  6
CONTINUOUS
  7
STANDARD
 71
1
 72
1
 10
4.15
 20
0.5625
 30
0.0
 11
1.0
 21
0.0
 31
0.0
 44
0.9
  1
DATE
 40
0.06
 41
0.384
  0
MTEXT
  5
245
100
AcDbEntity
  8
0
100
AcDbMText
 62
2
  6
CONTINUOUS
  7
STANDARD
 71
1
 72
1
 10
0.05
 20
0.5625
 30
0.0
 11
1.0
 21
0.0
 31
0.0
 44
0.9
  1
DESCRIPTION
 40
0.06
 41
1.056
  0
MTEXT
  5
246
100
AcDbEntity
  8
0
100
AcDbMText
 62
2
  6
CONTINUOUS
  7
STANDARD
 71
2
 72
1
 10
5.45
 20
1.0375
 30
0.0
 11
1.0
 21
0.0
 31
0.0
 44
0.9
  1
ALL DIMENSIONS IN INCH\PVIEWS ARE THIRD ANGLE
 40
0.12
 41
4.224
  0
MTEXT
  5
247
100
AcDbEntity
  8
0
100
AcDbMText
 62
2
  6
CONTINUOUS
  7
STANDARD
 71
2
 72
1
 10
2.05
 20
0.95
 30
0.0
 11
1.0
 21
0.0
 31
0.0
 44
0.9
  1
YVW
 40
0.125
 41
0.6
  0
MTEXT
  5
248
100
AcDbEntity
  8
0
100
AcDbMText
 62
2
  6
CONTINUOUS
  7
STANDARD
 71
1
 72
1
 10
0.05
 20
1.1875
 30
0.0
 11
1.0
 21
0.0
 31
0.0
 44
0.9
  1
MODEL
 40
0.06
 41
0.48
  0
ENDBLK
  5
249
100
AcDbEntity
  8
0
  6
BYBLOCK
 62
0
100
AcDbBlockEnd
  0
BLOCK
  5
24A
100
AcDbEntity
  8
0
100
AcDbBlockBegin
  2
*T2
 70
1
 10
0.0
 20
0.0
  3
*T2
  1

  0
LINE
  5
24B
100
AcDbEntity
  8
0
100
AcDbLine
 62
2
  6
CONTINUOUS
 10
0.0
 20
0.0
 11
9.055
 21
0.0
  0
LINE
  5
24C
100
AcDbEntity
  8
0
100
AcDbLine
 62
2
  6
CONTINUOUS
 10
0.0
 20
0.0
 11
0.0
 21
-3.094
  0
LINE
  5
24D
100
AcDbEntity
  8
0
100
AcDbLine
 62
2
  6
CONTINUOUS
 10
0.0
 20
-0.344
 11
9.055
 21
-0.344
  0
LINE
  5
24E
100
AcDbEntity
  8
0
100
AcDbLine
 62
2
  6
CONTINUOUS
 10
0.0
 20
-0.594
 11
9.055
 21
-0.594
  0
LINE
  5
24F
100
AcDbEntity
  8
0
100
AcDbLine
 62
2
  6
CONTINUOUS
 10
0.0
 20
-0.844
 11
9.055
 21
-0.844
  0
LINE
  5
250
100
AcDbEntity
  8
0
100
AcDbLine
 62
2
  6
CONTINUOUS
 10
0.0
 20
-1.094
 11
9.055
 21
-1.094
  0
LINE
  5
251
100
AcDbEntity
  8
0
100
AcDbLine
 62
2
  6
CONTINUOUS
 10
0.0
 20
-1.344
 11
9.055
 21
-1.344
  0
LINE
  5
252
100
AcDbEntity
  8
0
100
AcDbLine
 62
2
  6
CONTINUOUS
 10
0.0
 20
-1.594
 11
9.055
 21
-1.594
  0
LINE
  5
253
100
AcDbEntity
  8
0
100
AcDbLine
 62
2
  6
CONTINUOUS
 10
0.0
 20
-1.844
 11
9.055
 21
-1.844
  0
LINE
  5
254
100
AcDbEntity
  8
0
100
AcDbLine
 62
2
  6
CONTINUOUS
 10
0.0
 20
-2.094
 11
9.055
 21
-2.094
  0
LINE
  5
255
100
AcDbEntity
  8
0
100
AcDbLine
 62
2
  6
CONTINUOUS
 10
0.0
 20
-2.344
 11
9.055
 21
-2.344
  0
LINE
  5
256
100
AcDbEntity
  8
0
100
AcDbLine
 62
2
  6
CONTINUOUS
 10
0.0
 20
-2.594
 11
9.055
 21
-2.594
  0
LINE
  5
257
100
AcDbEntity
  8
0
100
AcDbLine
 62
2
  6
CONTINUOUS
 10
0.0
 20
-2.844
 11
9.055
 21
-2.844
  0
LINE
  5
258
100
AcDbEntity
  8
0
100
AcDbLine
 62
2
  6
CONTINUOUS
 10
0.0
 20
-3.094
 11
9.055
 21
-3.094
  0
LINE
  5
259
100
AcDbEntity
  8
0
100
AcDbLine
 62
2
  6
CONTINUOUS
 10
3.055
 20
0.0
 11
3.055
 21
-3.094
  0
LINE
  5
25A
100
AcDbEntity
  8
0
100
AcDbLine
 62
2
  6
CONTINUOUS
 10
9.055
 20
0.0
 11
9.055
 21
-3.094
  0
MTEXT
  5
25B
100
AcDbEntity
  8
0
100
AcDbMText
 62
2
  6
CONTINUOUS
  7
STANDARD
 71
2
 72
1
 10
1.5275
 20
-0.0995
 30
0.0
 11
1.0
 21
0.0
 31
0.0
 44
0.9
  1
Technical Data
 40
0.145
 41
3.248
  0
MTEXT
  5
25C
100
AcDbEntity
  8
0
100
AcDbMText
 62
2
  6
CONTINUOUS
  7
STANDARD
 71
2
 72
1
 10
4.555
 20
-0.0995
 30
0.0
 11
1.0
 21
0.0
 31
0.0
 44
0.9
  1
U.S. Units
 40
0.145
 41
2.32
  0
MTEXT
  5
25D
100
AcDbEntity
  8
0
100
AcDbMText
 62
2
  6
CONTINUOUS
  7
STANDARD
 71
2
 72
1
 10
7.555
 20
-0.0995
 30
0.0
 11
1.0
 21
0.0
 31
0.0
 44
0.9
  1
Metric Units
 40
0.145
 41
2.784
  0
MTEXT
  5
25E
100
AcDbEntity
  8
0
100
AcDbMText
 62
2
  6
CONTINUOUS
  7
STANDARD
 71
2
 72
1
 10
1.5275
 20
-0.4065
 30
0.0
 11
1.0
 21
0.0
 31
0.0
 44
0.9
  1
Cavity
 40
0.125
 41
1.2
  0
MTEXT
  5
25F
100
AcDbEntity
  8
0
100
AcDbMText
 62
2
  6
CONTINUOUS
  7
STANDARD
 71
2
 72
1
 10
6.055
 20
-0.4065
 30
0.0
 11
1.0
 21
0.0
 31
0.0
 44
0.9
  1
T-2A
 40
0.125
 41
0.8
  0
MTEXT
  5
260
100
AcDbEntity
  8
0
100
AcDbMText
 62
2
  6
CONTINUOUS
  7
STANDARD
 71
2
 72
1
 10
1.5275
 20
-0.6565
 30
0.0
 11
1.0
 21
0.0
 31
0.0
 44
0.9
  1
Body Features
 40
0.125
 41
2.6
  0
MTEXT
  5
261
100
AcDbEntity
  8
0
100
AcDbMText
 62
2
  6
CONTINUOUS
  7
STANDARD
 71
2
 72
1
 10
6.055
 20
-0.6565
 30
0.0
 11
1.0
 21
0.0
 31
0.0
 44
0.9
  1
Direct mount, cross pilot
 40
0.125
 41
5.0
  0
MTEXT
  5
262
100
AcDbEntity
  8
0
100
AcDbMText
 62
2
  6
CONTINUOUS
  7
STANDARD
 71
2
 72
1
 10
1.5275
 20
-0.9065
 30
0.0
 11
1.0
 21
0.0
 31
0.0
 44
0.9
  1
Body Type
 40
0.125
 41
1.8
  0
MTEXT
  5
263
100
AcDbEntity
  8
0
100
AcDbMText
 62
2
  6
CONTINUOUS
  7
STANDARD
 71
2
 72
1
 10
6.055
 20
-0.9065
 30
0.0
 11
1.0
 21
0.0
 31
0.0
 44
0.9
  1
Gasket mount
 40
0.125
 41
2.4
  0
MTEXT
  5
264
100
AcDbEntity
  8
0
100
AcDbMText
 62
2
  6
CONTINUOUS
  7
STANDARD
 71
2
 72
1
 10
1.5275
 20
-1.1565
 30
0.0
 11
1.0
 21
0.0
 31
0.0
 44
0.9
  1
Interface
 40
0.125
 41
1.8
  0
MTEXT
  5
265
100
AcDbEntity
  8
0
100
AcDbMText
 62
2
  6
CONTINUOUS
  7
STANDARD
 71
2
 72
1
 10
6.055
 20
-1.1565
 30
0.0
 11
1.0
 21
0.0
 31
0.0
 44
0.9
  1
Sun
 40
0.125
 41
0.6
  0
MTEXT
  5
266
100
AcDbEntity
  8
0
100
AcDbMText
 62
2
  6
CONTINUOUS
  7
STANDARD
 71
2
 72
1
 10
1.5275
 20
-1.4065
 30
0.0
 11
1.0
 21
0.0
 31
0.0
 44
0.9
  1
Open Cavity Quantity
 40
0.125
 41
4.0
  0
MTEXT
  5
267
100
AcDbEntity
  8
0
100
AcDbMText
 62
2
  6
CONTINUOUS
  7
STANDARD
 71
2
 72
1
 10
6.055
 20
-1.4065
 30
0.0
 11
1.0
 21
0.0
 31
0.0
 44
0.9
  1
2
 40
0.125
 41
0.2
  0
MTEXT
  5
268
100
AcDbEntity
  8
0
100
AcDbMText
 62
2
  6
CONTINUOUS
  7
STANDARD
 71
2
 72
1
 10
1.5275
 20
-1.6565
 30
0.0
 11
1.0
 21
0.0
 31
0.0
 44
0.9
  1
Weight
 40
0.125
 41
1.2
  0
MTEXT
  5
269
100
AcDbEntity
  8
0
100
AcDbMText
 62
2
  6
CONTINUOUS
  7
STANDARD
 71
2
 72
1
 10
4.555
 20
-1.6565
 30
0.0
 11
1.0
 21
0.0
 31
0.0
 44
0.9
  1
2.734 lb.
 40
0.125
 41
1.8
  0
MTEXT
  5
26A
100
AcDbEntity
  8
0
100
AcDbMText
 62
2
  6
CONTINUOUS
  7
STANDARD
 71
2
 72
1
 10
7.555
 20
-1.6565
 30
0.0
 11
1.0
 21
0.0
 31
0.0
 44
0.9
  1
1,240 kg.
 40
0.125
 41
1.8
  0
MTEXT
  5
26B
100
AcDbEntity
  8
0
100
AcDbMText
 62
2
  6
CONTINUOUS
  7
STANDARD
 71
2
 72
1
 10
1.5275
 20
-1.9065
 30
0.0
 11
1.0
 21
0.0
 31
0.0
 44
0.9
  1
Mounting Hole Diameter
 40
0.125
 41
4.4
  0
MTEXT
  5
26C
100
AcDbEntity
  8
0
100
AcDbMText
 62
2
  6
CONTINUOUS
  7
STANDARD
 71
2
 72
1
 10
4.555
 20
-1.9065
 30
0.0
 11
1.0
 21
0.0
 31
0.0
 44
0.9
  1
.42 in.
 40
0.125
 41
1.4
  0
MTEXT
  5
26D
100
AcDbEntity
  8
0
100
AcDbMText
 62
2
  6
CONTINUOUS
  7
STANDARD
 71
2
 72
1
 10
7.555
 20
-1.9065
 30
0.0
 11
1.0
 21
0.0
 31
0.0
 44
0.9
  1
10,7 mm
 40
0.125
 41
1.4
  0
MTEXT
  5
26E
100
AcDbEntity
  8
0
100
AcDbMText
 62
2
  6
CONTINUOUS
  7
STANDARD
 71
2
 72
1
 10
1.5275
 20
-2.1565
 30
0.0
 11
1.0
 21
0.0
 31
0.0
 44
0.9
  1
Mounting Hole Depth
 40
0.125
 41
3.8
  0
MTEXT
  5
26F
100
AcDbEntity
  8
0
100
AcDbMText
 62
2
  6
CONTINUOUS
  7
STANDARD
 71
2
 72
1
 10
6.055
 20
-2.1565
 30
0.0
 11
1.0
 21
0.0
 31
0.0
 44
0.9
  1
Through
 40
0.125
 41
1.4
  0
MTEXT
  5
270
100
AcDbEntity
  8
0
100
AcDbMText
 62
2
  6
CONTINUOUS
  7
STANDARD
 71
2
 72
1
 10
1.5275
 20
-2.4065
 30
0.0
 11
1.0
 21
0.0
 31
0.0
 44
0.9
  1
Mounting Hole Quantity
 40
0.125
 41
4.4
  0
MTEXT
  5
271
100
AcDbEntity
  8
0
100
AcDbMText
 62
2
  6
CONTINUOUS
  7
STANDARD
 71
2
 72
1
 10
6.055
 20
-2.4065
 30
0.0
 11
1.0
 21
0.0
 31
0.0
 44
0.9
  1
2
 40
0.125
 41
0.2
  0
MTEXT
  5
272
100
AcDbEntity
  8
0
100
AcDbMText
 62
2
  6
CONTINUOUS
  7
STANDARD
 71
2
 72
1
 10
1.5275
 20
-2.6565
 30
0.0
 11
1.0
 21
0.0
 31
0.0
 44
0.9
  1
Mounting Hole C'bore Diameter
 40
0.125
 41
5.8
  0
MTEXT
  5
273
100
AcDbEntity
  8
0
100
AcDbMText
 62
2
  6
CONTINUOUS
  7
STANDARD
 71
2
 72
1
 10
4.555
 20
-2.6565
 30
0.0
 11
1.0
 21
0.0
 31
0.0
 44
0.9
  1
.59 in.
 40
0.125
 41
1.4
  0
MTEXT
  5
274
100
AcDbEntity
  8
0
100
AcDbMText
 62
2
  6
CONTINUOUS
  7
STANDARD
 71
2
 72
1
 10
7.555
 20
-2.6565
 30
0.0
 11
1.0
 21
0.0
 31
0.0
 44
0.9
  1
15,0 mm
 40
0.125
 41
1.4
  0
MTEXT
  5
275
100
AcDbEntity
  8
0
100
AcDbMText
 62
2
  6
CONTINUOUS
  7
STANDARD
 71
2
 72
1
 10
1.5275
 20
-2.9065
 30
0.0
 11
1.0
 21
0.0
 31
0.0
 44
0.9
  1
Mounting Hole C'bore Depth
 40
0.125
 41
5.2
  0
MTEXT
  5
276
100
AcDbEntity
  8
0
100
AcDbMText
 62
2
  6
CONTINUOUS
  7
STANDARD
 71
2
 72
1
 10
4.555
 20
-2.9065
 30
0.0
 11
1.0
 21
0.0
 31
0.0
 44
0.9
  1
.31 in.
 40
0.125
 41
1.4
  0
MTEXT
  5
277
100
AcDbEntity
  8
0
100
AcDbMText
 62
2
  6
CONTINUOUS
  7
STANDARD
 71
2
 72
1
 10
7.555
 20
-2.9065
 30
0.0
 11
1.0
 21
0.0
 31
0.0
 44
0.9
  1
8 mm
 40
0.125
 41
0.8
  0
ENDBLK
  5
278
100
AcDbEntity
  8
0
  6
BYBLOCK
 62
0
100
AcDbBlockEnd
  0
BLOCK
  5
279
100
AcDbEntity
  8
0
100
AcDbBlockBegin
  2
*T3
 70
1
 10
0.0
 20
0.0
  3
*T3
  1

  0
LINE
  5
27A
100
AcDbEntity
  8
0
100
AcDbLine
 62
2
  6
CONTINUOUS
 10
0.0
 20
0.0
 11
4.6
 21
0.0
  0
LINE
  5
27B
100
AcDbEntity
  8
0
100
AcDbLine
 62
2
  6
CONTINUOUS
 10
0.0
 20
0.0
 11
0.0
 21
-0.93775
  0
LINE
  5
27C
100
AcDbEntity
  8
0
100
AcDbLine
 62
2
  6
CONTINUOUS
 10
0.0
 20
-0.34375
 11
4.6
 21
-0.34375
  0
LINE
  5
27D
100
AcDbEntity
  8
0
100
AcDbLine
 62
2
  6
CONTINUOUS
 10
0.0
 20
-0.68775
 11
4.6
 21
-0.68775
  0
LINE
  5
27E
100
AcDbEntity
  8
0
100
AcDbLine
 62
2
  6
CONTINUOUS
 10
0.0
 20
-0.93775
 11
4.6
 21
-0.93775
  0
LINE
  5
27F
100
AcDbEntity
  8
0
100
AcDbLine
 62
2
  6
CONTINUOUS
 10
1.3
 20
-0.34375
 11
1.3
 21
-0.93775
  0
LINE
  5
280
100
AcDbEntity
  8
0
100
AcDbLine
 62
2
  6
CONTINUOUS
 10
3.3
 20
-0.34375
 11
3.3
 21
-0.93775
  0
LINE
  5
281
100
AcDbEntity
  8
0
100
AcDbLine
 62
2
  6
CONTINUOUS
 10
4.6
 20
0.0
 11
4.6
 21
-0.93775
  0
MTEXT
  5
282
100
AcDbEntity
  8
0
100
AcDbMText
 62
2
  6
CONTINUOUS
  7
STANDARD
 71
2
 72
1
 10
2.3
 20
-0.099375
 30
0.0
 11
1.0
 21
0.0
 31
0.0
 44
0.9
  1
Port Headings
 40
0.145
 41
3.016
  0
MTEXT
  5
283
100
AcDbEntity
  8
0
100
AcDbMText
 62
2
  6
CONTINUOUS
  7
STANDARD
 71
2
 72
1
 10
0.65
 20
-0.44325
 30
0.0
 11
1.0
 21
0.0
 31
0.0
 44
0.9
  1
Product
 40
0.145
 41
1.624
  0
MTEXT
  5
284
100
AcDbEntity
  8
0
100
AcDbMText
 62
2
  6
CONTINUOUS
  7
STANDARD
 71
2
 72
1
 10
2.3
 20
-0.44325
 30
0.0
 11
1.0
 21
0.0
 31
0.0
 44
0.9
  1
Port
 40
0.145
 41
0.928
  0
MTEXT
  5
285
100
AcDbEntity
  8
0
100
AcDbMText
 62
2
  6
CONTINUOUS
  7
STANDARD
 71
2
 72
1
 10
3.95
 20
-0.44325
 30
0.0
 11
1.0
 21
0.0
 31
0.0
 44
0.9
  1
Size
 40
0.145
 41
0.928
  0
MTEXT
  5
286
100
AcDbEntity
  8
0
100
AcDbMText
 62
2
  6
CONTINUOUS
  7
STANDARD
 71
2
 72
1
 10
0.65
 20
-0.75025
 30
0.0
 11
1.0
 21
0.0
 31
0.0
 44
0.9
  1
YVW
 40
0.125
 41
0.6
  0
MTEXT
  5
287
100
AcDbEntity
  8
0
100
AcDbMText
 62
2
  6
CONTINUOUS
  7
STANDARD
 71
2
 72
1
 10
2.3
 20
-0.75025
 30
0.0
 11
1.0
 21
0.0
 31
0.0
 44
0.9
  1
Ports C2, V1, V2
 40
0.125
 41
3.2
  0
MTEXT
  5
288
100
AcDbEntity
  8
0
100
AcDbMText
 62
2
  6
CONTINUOUS
  7
STANDARD
 71
2
 72
1
 10
3.95
 20
-0.75025
 30
0.0
 11
1.0
 21
0.0
 31
0.0
 44
0.9
  1
1/2" NPTF
 40
0.125
 41
1.8
  0
ENDBLK
  5
289
100
AcDbEntity
  8
0
  6
BYBLOCK
 62
0
100
AcDbBlockEnd
  0
ENDSEC
  0
SECTION
  2
ENTITIES
  0
IMAGE
  5
28A
100
AcDbEntity
  8
0
100
AcDbRasterImage
 62
7
  6
CONTINUOUS
 10
19.2297077316
 20
0.3094318264
 30
0.0
 11
0.0066666667
 21
0.0
 31
0.0
 12
0.0
 22
0.0066666667
 32
0.0
 13
369.0
 23
92.0
340
       384
 70
9
280
0
281
50
282
50
283
0
360
       37E
 71
1
 91
2
 14
-0.5
 24
-0.5
 14
368.5
 24
91.5
  0
INSERT
  5
28B
100
AcDbEntity
  8
0
100
AcDbBlockReference
 62
2
  6
CONTINUOUS
  2
SUN_FIRST_THIRD_ANGLE_BL0
 10
20.4816717061
 20
1.2289683772
  0
ACAD_TABLE
  5
28C
100
AcDbEntity
  8
0
 62
2
  6
CONTINUOUS
100
AcDbBlockReference
  2
*T1
 10
12.42375
 20
0.30125
 30
0.0
100
AcDbTable
342
       386
343
20A
 11
1.0
 21
0.0
 31
0.0
 90
6
 91
4
 92
6
 93
20
 94
0
 95
0
 96
0
 70
1
 41
0.0
141
0.525
141
0.1
141
0.525
141
0.1
142
4.1
142
1.1
142
0.7
142
0.5
142
0.4
142
2.475
171
1
172
0
173
0
174
0
175
1
176
1
 91
33
178
0
145
0.0
301
CELL_VALUE
 90
4
  1
T-2A Gasket mount Sun\PDirect mount, cross pilot
304
ACVALUE_END
170
2
140
0.125
171
1
172
0
173
0
174
0
175
1
176
1
 91
33
178
0
145
0.0
301
CELL_VALUE
 90
4
  1
Oct-16-19
304
ACVALUE_END
170
5
140
0.125
171
1
172
0
173
0
174
0
175
1
176
1
 91
33
178
0
145
0.0
301
CELL_VALUE
 90
4
  1
1.000
304
ACVALUE_END
170
5
140
0.125
171
1
172
0
173
0
174
0
175
1
176
1
 91
33
178
0
145
0.0
301
CELL_VALUE
 90
4
  1
C
304
ACVALUE_END
170
5
140
0.125
171
1
172
0
173
0
174
0
175
1
176
1
 91
33
178
0
145
0.0
301
CELL_VALUE
 90
4
  1
2
304
ACVALUE_END
170
5
140
0.125
171
1
172
0
173
0
174
0
175
1
176
1
 91
33
178
0
145
0.0
301
CELL_VALUE
 90
4
  1
 
304
ACVALUE_END
170
1
140
0.125
171
1
172
0
173
0
174
0
175
1
176
1
 91
33
178
0
145
0.0
301
CELL_VALUE
 90
4
  1
DESCRIPTION
304
ACVALUE_END
170
1
140
0.06
171
1
172
0
173
0
174
0
175
1
176
1
 91
33
178
0
145
0.0
301
CELL_VALUE
 90
4
  1
DATE
304
ACVALUE_END
170
1
140
0.06
171
1
172
0
173
0
174
0
175
1
176
1
 91
33
178
0
145
0.0
301
CELL_VALUE
 90
4
  1
SCALE
304
ACVALUE_END
170
1
140
0.06
171
1
172
0
173
0
174
0
175
1
176
1
 91
33
178
0
145
0.0
301
CELL_VALUE
 90
4
  1
DWG SIZE
304
ACVALUE_END
170
1
140
0.06
171
1
172
0
173
0
174
0
175
1
176
1
 91
33
178
0
145
0.0
301
CELL_VALUE
 90
4
  1
SHEET
304
ACVALUE_END
170
1
140
0.06
171
1
172
0
173
0
174
0
175
1
176
1
 91
33
178
0
145
0.0
301
CELL_VALUE
 90
4
  1
 
304
ACVALUE_END
170
1
140
0.125
171
1
172
0
173
0
174
0
175
1
176
1
 91
33
178
0
145
0.0
301
CELL_VALUE
 90
4
  1
YVW
304
ACVALUE_END
170
5
140
0.125
171
1
172
0
173
0
174
0
175
4
176
1
 91
33
178
0
145
0.0
301
CELL_VALUE
 90
4
  1
ALL DIMENSIONS IN INCH\PVIEWS ARE THIRD ANGLE
304
ACVALUE_END
170
5
140
0.12
171
1
172
0
173
1
174
0
175
1
176
1
 91
1
178
0
145
0.0
170
1
171
1
172
0
173
1
174
0
175
1
176
1
 91
1
178
0
145
0.0
170
1
171
1
172
0
173
1
174
0
175
1
176
1
 91
1
178
0
145
0.0
170
5
171
1
172
0
173
0
174
0
175
1
176
1
 91
33
178
0
145
0.0
301
CELL_VALUE
 90
4
  1
 
304
ACVALUE_END
170
1
140
0.125
171
1
172
0
173
0
174
0
175
1
176
1
 91
33
178
0
145
0.0
301
CELL_VALUE
 90
4
  1
MODEL
304
ACVALUE_END
170
1
140
0.06
171
1
172
0
173
0
174
0
175
1
176
1
 91
33
178
0
145
0.0
301
CELL_VALUE
 90
4
  1
 
304
ACVALUE_END
170
1
140
0.125
171
1
172
0
173
0
174
0
175
1
176
1
 91
33
178
0
145
0.0
301
CELL_VALUE
 90
4
  1
 
304
ACVALUE_END
170
1
140
0.125
171
1
172
0
173
0
174
0
175
1
176
1
 91
33
178
0
145
0.0
301
CELL_VALUE
 90
4
  1
 
304
ACVALUE_END
170
1
140
0.125
171
1
172
0
173
0
174
0
175
1
176
1
 91
33
178
0
145
0.0
301
CELL_VALUE
 90
4
  1
 
304
ACVALUE_END
170
1
140
0.125
171
1
172
0
173
0
174
0
175
1
176
1
 91
33
178
0
145
0.0
301
CELL_VALUE
 90
4
  1
 
304
ACVALUE_END
170
1
140
0.125
  0
ACAD_TABLE
  5
28D
100
AcDbEntity
  8
0
 62
2
  6
CONTINUOUS
100
AcDbBlockReference
  2
*T2
 10
12.4237499994
 20
16.47875
 30
0.0
100
AcDbTable
342
       385
343
20B
 11
1.0
 21
0.0
 31
0.0
 90
22
 91
12
 92
3
 93
16
 94
0
 95
0
 96
0
 41
0.028
141
0.344
141
0.25
141
0.25
141
0.25
141
0.25
141
0.25
141
0.25
141
0.25
141
0.25
141
0.25
141
0.25
141
0.25
142
3.055
142
3.0
142
3.0
171
1
172
0
173
0
174
0
175
1
176
1
 91
33
178
0
145
0.0
301
CELL_VALUE
 90
4
  1
Technical Data
304
ACVALUE_END
170
5
140
0.145
171
1
172
0
173
0
174
0
175
1
176
1
 91
33
178
0
145
0.0
301
CELL_VALUE
 90
4
  1
U.S. Units
304
ACVALUE_END
170
5
140
0.145
171
1
172
0
173
0
174
0
175
1
176
1
 91
33
178
0
145
0.0
301
CELL_VALUE
 90
4
  1
Metric Units
304
ACVALUE_END
170
5
140
0.145
171
1
172
0
173
0
174
0
175
1
176
1
 91
33
178
0
145
0.0
301
CELL_VALUE
 90
4
  1
Cavity
304
ACVALUE_END
170
5
140
0.125
171
1
172
0
173
0
174
0
175
2
176
1
 91
33
178
0
145
0.0
301
CELL_VALUE
 90
4
  1
T-2A
304
ACVALUE_END
170
5
140
0.125
171
1
172
0
173
1
174
0
175
1
176
1
 91
1
178
0
145
0.0
170
1
171
1
172
0
173
0
174
0
175
1
176
1
 91
33
178
0
145
0.0
301
CELL_VALUE
 90
4
  1
Body Features
304
ACVALUE_END
170
5
140
0.125
171
1
172
0
173
0
174
0
175
2
176
1
 91
33
178
0
145
0.0
301
CELL_VALUE
 90
4
  1
Direct mount, cross pilot
304
ACVALUE_END
170
5
140
0.125
171
1
172
0
173
1
174
0
175
1
176
1
 91
1
178
0
145
0.0
170
1
171
1
172
0
173
0
174
0
175
1
176
1
 91
33
178
0
145
0.0
301
CELL_VALUE
 90
4
  1
Body Type
304
ACVALUE_END
170
5
140
0.125
171
1
172
0
173
0
174
0
175
2
176
1
 91
33
178
0
145
0.0
301
CELL_VALUE
 90
4
  1
Gasket mount
304
ACVALUE_END
170
5
140
0.125
171
1
172
0
173
1
174
0
175
1
176
1
 91
1
178
0
145
0.0
170
1
171
1
172
0
173
0
174
0
175
1
176
1
 91
33
178
0
145
0.0
301
CELL_VALUE
 90
4
  1
Interface
304
ACVALUE_END
170
5
140
0.125
171
1
172
0
173
0
174
0
175
2
176
1
 91
33
178
0
145
0.0
301
CELL_VALUE
 90
4
  1
Sun
304
ACVALUE_END
170
5
140
0.125
171
1
172
0
173
1
174
0
175
1
176
1
 91
1
178
0
145
0.0
170
1
171
1
172
0
173
0
174
0
175
1
176
1
 91
33
178
0
145
0.0
301
CELL_VALUE
 90
4
  1
Open Cavity Quantity
304
ACVALUE_END
170
5
140
0.125
171
1
172
0
173
0
174
0
175
2
176
1
 91
33
178
0
145
0.0
301
CELL_VALUE
 90
4
  1
2
304
ACVALUE_END
170
5
140
0.125
171
1
172
0
173
1
174
0
175
1
176
1
 91
1
178
0
145
0.0
170
1
171
1
172
0
173
0
174
0
175
1
176
1
 91
33
178
0
145
0.0
301
CELL_VALUE
 90
4
  1
Weight
304
ACVALUE_END
170
5
140
0.125
171
1
172
0
173
0
174
0
175
1
176
1
 91
33
178
0
145
0.0
301
CELL_VALUE
 90
4
  1
2.734 lb.
304
ACVALUE_END
170
5
140
0.125
171
1
172
0
173
0
174
0
175
1
176
1
 91
33
178
0
145
0.0
301
CELL_VALUE
 90
4
  1
1,240 kg.
304
ACVALUE_END
170
5
140
0.125
171
1
172
0
173
0
174
0
175
1
176
1
 91
33
178
0
145
0.0
301
CELL_VALUE
 90
4
  1
Mounting Hole Diameter
304
ACVALUE_END
170
5
140
0.125
171
1
172
0
173
0
174
0
175
1
176
1
 91
33
178
0
145
0.0
301
CELL_VALUE
 90
4
  1
.42 in.
304
ACVALUE_END
170
5
140
0.125
171
1
172
0
173
0
174
0
175
1
176
1
 91
33
178
0
145
0.0
301
CELL_VALUE
 90
4
  1
10,7 mm
304
ACVALUE_END
170
5
140
0.125
171
1
172
0
173
0
174
0
175
1
176
1
 91
33
178
0
145
0.0
301
CELL_VALUE
 90
4
  1
Mounting Hole Depth
304
ACVALUE_END
170
5
140
0.125
171
1
172
0
173
0
174
0
175
2
176
1
 91
33
178
0
145
0.0
301
CELL_VALUE
 90
4
  1
Through
304
ACVALUE_END
170
5
140
0.125
171
1
172
0
173
1
174
0
175
1
176
1
 91
1
178
0
145
0.0
170
1
171
1
172
0
173
0
174
0
175
1
176
1
 91
33
178
0
145
0.0
301
CELL_VALUE
 90
4
  1
Mounting Hole Quantity
304
ACVALUE_END
170
5
140
0.125
171
1
172
0
173
0
174
0
175
2
176
1
 91
33
178
0
145
0.0
301
CELL_VALUE
 90
4
  1
2
304
ACVALUE_END
170
5
140
0.125
171
1
172
0
173
1
174
0
175
1
176
1
 91
1
178
0
145
0.0
170
1
171
1
172
0
173
0
174
0
175
1
176
1
 91
33
178
0
145
0.0
301
CELL_VALUE
 90
4
  1
Mounting Hole C'bore Diameter
304
ACVALUE_END
170
5
140
0.125
171
1
172
0
173
0
174
0
175
1
176
1
 91
33
178
0
145
0.0
301
CELL_VALUE
 90
4
  1
.59 in.
304
ACVALUE_END
170
5
140
0.125
171
1
172
0
173
0
174
0
175
1
176
1
 91
33
178
0
145
0.0
301
CELL_VALUE
 90
4
  1
15,0 mm
304
ACVALUE_END
170
5
140
0.125
171
1
172
0
173
0
174
0
175
1
176
1
 91
33
178
0
145
0.0
301
CELL_VALUE
 90
4
  1
Mounting Hole C'bore Depth
304
ACVALUE_END
170
5
140
0.125
171
1
172
0
173
0
174
0
175
1
176
1
 91
33
178
0
145
0.0
301
CELL_VALUE
 90
4
  1
.31 in.
304
ACVALUE_END
170
5
140
0.125
171
1
172
0
173
0
174
0
175
1
176
1
 91
33
178
0
145
0.0
301
CELL_VALUE
 90
4
  1
8 mm
304
ACVALUE_END
170
5
140
0.125
  0
ACAD_TABLE
  5
28E
100
AcDbEntity
  8
0
 62
2
  6
CONTINUOUS
100
AcDbBlockReference
  2
*T3
 10
0.52125
 20
1.459
 30
0.0
100
AcDbTable
342
       385
343
20C
 11
1.0
 21
0.0
 31
0.0
 90
22
 91
3
 92
3
 93
16
 94
0
 95
0
 96
0
 41
0.05
141
0.34375
141
0.344
141
0.25
142
1.3
142
2.0
142
1.3
171
1
172
0
173
0
174
0
175
3
176
1
 91
33
178
0
145
0.0
301
CELL_VALUE
 90
4
  1
Port Headings
304
ACVALUE_END
170
5
140
0.145
171
1
172
0
173
1
174
0
175
1
176
1
 91
1
178
0
145
0.0
170
1
171
1
172
0
173
1
174
0
175
1
176
1
 91
1
178
0
145
0.0
170
1
171
1
172
0
173
0
174
0
175
1
176
1
 91
33
178
0
145
0.0
301
CELL_VALUE
 90
4
  1
Product
304
ACVALUE_END
170
5
140
0.145
171
1
172
0
173
0
174
0
175
1
176
1
 91
33
178
0
145
0.0
301
CELL_VALUE
 90
4
  1
Port
304
ACVALUE_END
170
5
140
0.145
171
1
172
0
173
0
174
0
175
1
176
1
 91
33
178
0
145
0.0
301
CELL_VALUE
 90
4
  1
Size
304
ACVALUE_END
170
5
140
0.145
171
1
172
0
173
0
174
0
175
1
176
1
 91
33
178
0
145
0.0
301
CELL_VALUE
 90
4
  1
YVW
304
ACVALUE_END
170
5
140
0.125
171
1
172
0
173
0
174
0
175
1
176
1
 91
33
178
0
145
0.0
301
CELL_VALUE
 90
4
  1
Ports C2, V1, V2
304
ACVALUE_END
170
5
140
0.125
171
1
172
0
173
0
174
0
175
1
176
1
 91
33
178
0
145
0.0
301
CELL_VALUE
 90
4
  1
1/2" NPTF
304
ACVALUE_END
170
5
140
0.125
  0
MTEXT
  5
28F
100
AcDbEntity
  8
0
100
AcDbMText
 62
2
  6
CONTINUOUS
  7
STANDARD
 71
1
 72
1
 10
0.52125
 20
5.75995
 30
0.0
 11
1.0
 21
0.0
 31
0.0
 44
0.6
  3
Notes\P \P1. Important: Carefully consider\P   the maximum system pressure. The\P   pressure rating of the manifold is\P   dependent on the manifold material,\P   with the port type/size a secondary\P   consideration. Manifolds\P   constructed of alu
  1
minum are not\P   rated for pressures higher than\P   3000 psi (210 bar), regardless of\P   the port type/size specified.
 40
0.1
 41
3.04
  0
LINE
  5
290
100
AcDbEntity
  8
0
100
AcDbLine
 62
7
  6
CONTINUOUS
 10
0.30125
 20
0.30125
 11
0.30125
 21
16.69875
  0
LINE
  5
291
100
AcDbEntity
  8
0
100
AcDbLine
 62
7
  6
CONTINUOUS
 10
0.30125
 20
0.30125
 11
21.69875
 21
0.30125
  0
LINE
  5
292
100
AcDbEntity
  8
0
100
AcDbLine
 62
7
  6
CONTINUOUS
 10
0.30125
 20
16.69875
 11
21.69875
 21
16.69875
  0
LINE
  5
293
100
AcDbEntity
  8
0
100
AcDbLine
 62
7
  6
CONTINUOUS
 10
21.69875
 20
0.30125
 11
21.69875
 21
16.69875
  0
LINE
  5
294
100
AcDbEntity
  8
0
100
AcDbLine
 62
7
  6
CONTINUOUS
 10
9.1218618932
 20
9.5097466151
 11
10.2218419271
 21
10.5722458012
  0
LINE
  5
295
100
AcDbEntity
  8
0
100
AcDbLine
 62
7
  6
CONTINUOUS
 10
9.1218618932
 20
9.5097466151
 11
9.1218618932
 21
6.6119689645
  0
LINE
  5
296
100
AcDbEntity
  8
0
100
AcDbLine
 62
7
  6
CONTINUOUS
 10
11.7781580729
 20
6.4277541988
 11
9.1218618932
 21
6.6119689645
  0
LINE
  5
297
100
AcDbEntity
  8
0
100
AcDbLine
 62
4
  6
CONTINUOUS
 10
11.8247454639
 20
7.4048726687
 11
11.8169808992
 21
7.4046171186
  0
LINE
  5
298
100
AcDbEntity
  8
0
100
AcDbLine
 62
4
  6
CONTINUOUS
 10
11.8169808992
 20
7.4915504462
 11
11.8480391583
 21
7.4853282027
  0
LINE
  5
299
100
AcDbEntity
  8
0
100
AcDbLine
 62
4
  6
CONTINUOUS
 10
12.3196070708
 20
8.2768320469
 11
12.3506653299
 21
8.2819939139
  0
LINE
  5
29A
100
AcDbEntity
  8
0
100
AcDbLine
 62
7
  6
CONTINUOUS
 10
12.8781381068
 20
10.3880310355
 11
11.7781580729
 21
9.3255318494
  0
LINE
  5
29B
100
AcDbEntity
  8
0
100
AcDbLine
 62
4
  6
CONTINUOUS
 10
12.8237862112
 20
8.5751312638
 11
12.8160216465
 21
8.5748757136
  0
LINE
  5
29C
100
AcDbEntity
  8
0
100
AcDbLine
 62
4
  6
CONTINUOUS
 10
12.831550776
 20
8.7202756932
 11
12.8393153408
 21
8.7205312433
  0
LINE
  5
29D
100
AcDbEntity
  8
0
100
AcDbLine
 62
4
  6
CONTINUOUS
 10
12.3196070708
 20
8.4148214406
 11
12.3506653299
 21
8.4117039608
  0
LINE
  5
29E
100
AcDbEntity
  8
0
100
AcDbLine
 62
4
  6
CONTINUOUS
 10
12.3196070708
 20
8.3265082242
 11
12.3417915421
 21
8.3230986837
  0
LINE
  5
29F
100
AcDbEntity
  8
0
100
AcDbLine
 62
4
  6
CONTINUOUS
 10
12.4407342812
 20
8.1399314595
 11
12.4385158333
 21
8.1405483809
  0
LINE
  5
2A0
100
AcDbEntity
  8
0
100
AcDbLine
 62
4
  6
CONTINUOUS
 10
11.8376864058
 20
7.3666615517
 11
11.8350982163
 21
7.3714059965
  0
LINE
  5
2A1
100
AcDbEntity
  8
0
100
AcDbLine
 62
4
  6
CONTINUOUS
 10
11.8299218401
 20
7.3953837766
 11
11.8247454639
 21
7.4048726687
  0
LINE
  5
2A2
100
AcDbEntity
  8
0
100
AcDbLine
 62
4
  6
CONTINUOUS
 10
12.2512789008
 20
8.6441188301
 11
12.2823371599
 21
8.6410013503
  0
LINE
  5
2A3
100
AcDbEntity
  8
0
100
AcDbLine
 62
4
  6
CONTINUOUS
 10
12.4022811985
 20
8.5581536571
 11
12.4318604934
 21
8.5536076213
  0
LINE
  5
2A4
100
AcDbEntity
  8
0
100
AcDbLine
 62
4
  6
CONTINUOUS
 10
11.8428627811
 20
7.4296170983
 11
11.8454509706
 21
7.4248726536
  0
LINE
  5
2A5
100
AcDbEntity
  8
0
100
AcDbLine
 62
4
  6
CONTINUOUS
 10
11.8480391583
 20
8.7386170338
 11
11.8169808992
 21
8.7086170574
  0
LINE
  5
2A6
100
AcDbEntity
  8
0
100
AcDbLine
 62
4
  6
CONTINUOUS
 10
11.8169808992
 20
8.8245281608
 11
11.8480391583
 21
8.8183059174
  0
LINE
  5
2A7
100
AcDbEntity
  8
0
100
AcDbLine
 62
4
  6
CONTINUOUS
 10
11.8350982163
 20
7.3714059965
 11
11.8299218401
 21
7.3953837766
  0
LINE
  5
2A8
100
AcDbEntity
  8
0
100
AcDbLine
 62
4
  6
CONTINUOUS
 10
11.8480391583
 20
8.890750357
 11
11.8169808992
 21
8.8245281608
  0
LINE
  5
2A9
100
AcDbEntity
  8
0
100
AcDbLine
 62
4
  6
CONTINUOUS
 10
12.4318604934
 20
9.0503694774
 11
12.4362973873
 21
9.054655188
  0
LINE
  5
2AA
100
AcDbEntity
  8
0
100
AcDbLine
 62
4
  6
CONTINUOUS
 10
12.4141129165
 20
8.9752710817
 11
12.4185498108
 21
8.9795567928
  0
LINE
  5
2AB
100
AcDbEntity
  8
0
100
AcDbLine
 62
4
  6
CONTINUOUS
 10
12.4407342812
 20
8.9678678908
 11
12.4141129165
 21
8.9421536256
  0
LINE
  5
2AC
100
AcDbEntity
  8
0
100
AcDbLine
 62
4
  6
CONTINUOUS
 10
12.2512789008
 20
8.7489907746
 11
12.2823371599
 21
8.778990751
  0
LINE
  5
2AD
100
AcDbEntity
  8
0
100
AcDbLine
 62
4
  6
CONTINUOUS
 10
12.4141129165
 20
8.8841980739
 11
12.4407342812
 21
8.9099123391
  0
LINE
  5
2AE
100
AcDbEntity
  8
0
100
AcDbLine
 62
4
  6
CONTINUOUS
 10
12.4096760221
 20
8.8467949066
 11
12.4407342812
 21
8.876794883
  0
LINE
  5
2AF
100
AcDbEntity
  8
0
100
AcDbLine
 62
4
  6
CONTINUOUS
 10
12.277900266
 20
8.7167494955
 11
12.2557157951
 21
8.6953209409
  0
LINE
  5
2B0
100
AcDbEntity
  8
0
100
AcDbLine
 62
4
  6
CONTINUOUS
 10
11.8454509706
 20
7.4248726536
 11
11.8480391583
 21
7.4128837631
  0
LINE
  5
2B1
100
AcDbEntity
  8
0
100
AcDbLine
 62
7
  6
CONTINUOUS
 10
11.7781580729
 20
9.3255318494
 11
11.7781580729
 21
6.4277541988
  0
LINE
  5
2B2
100
AcDbEntity
  8
0
100
AcDbLine
 62
4
  6
CONTINUOUS
 10
11.8169808992
 20
7.4046171186
 11
11.8169808992
 21
7.3466615669
  0
LINE
  5
2B3
100
AcDbEntity
  8
0
100
AcDbLine
 62
4
  6
CONTINUOUS
 10
11.8480391583
 20
7.4128837631
 11
11.8480391583
 21
7.3983948751
  0
LINE
  5
2B4
100
AcDbEntity
  8
0
100
AcDbLine
 62
4
  6
CONTINUOUS
 10
12.4096760221
 20
8.7888393549
 11
12.4407342812
 21
8.8188393312
  0
LINE
  5
2B5
100
AcDbEntity
  8
0
100
AcDbLine
 62
4
  6
CONTINUOUS
 10
12.2512789008
 20
8.5116489917
 11
12.2823371599
 21
8.5416489681
  0
LINE
  5
2B6
100
AcDbEntity
  8
0
100
AcDbLine
 62
4
  6
CONTINUOUS
 10
12.4096760221
 20
8.6646488909
 11
12.4407342812
 21
8.6946488672
  0
LINE
  5
2B7
100
AcDbEntity
  8
0
100
AcDbLine
 62
4
  6
CONTINUOUS
 10
12.4296420455
 20
8.6342583986
 11
12.4096760221
 21
8.6149726998
  0
LINE
  5
2B8
100
AcDbEntity
  8
0
100
AcDbLine
 62
4
  6
CONTINUOUS
 10
12.3373546482
 20
8.5313166639
 11
12.3196070708
 21
8.5141738195
  0
LINE
  5
2B9
100
AcDbEntity
  8
0
100
AcDbLine
 62
4
  6
CONTINUOUS
 10
12.2512789008
 20
8.4454140794
 11
12.2823371599
 21
8.4754140558
  0
LINE
  5
2BA
100
AcDbEntity
  8
0
100
AcDbLine
 62
7
  6
CONTINUOUS
 10
11.7781580729
 20
9.3255318494
 11
9.1218618932
 21
9.5097466151
  0
LINE
  5
2BB
100
AcDbEntity
  8
0
100
AcDbLine
 62
4
  6
CONTINUOUS
 10
11.8480391583
 20
7.3983948751
 11
11.8454509706
 21
7.3814059898
  0
LINE
  5
2BC
100
AcDbEntity
  8
0
100
AcDbLine
 62
4
  6
CONTINUOUS
 10
11.8454509706
 20
7.3814059898
 11
11.8428627811
 21
7.3716615466
  0
LINE
  5
2BD
100
AcDbEntity
  8
0
100
AcDbLine
 62
4
  6
CONTINUOUS
 10
12.2823371599
 20
8.6410013503
 11
12.2512789008
 21
8.577883904
  0
LINE
  5
2BE
100
AcDbEntity
  8
0
100
AcDbLine
 62
4
  6
CONTINUOUS
 10
12.4118944693
 20
8.5122435901
 11
12.4296420455
 21
8.5293864334
  0
LINE
  5
2BF
100
AcDbEntity
  8
0
100
AcDbLine
 62
4
  6
CONTINUOUS
 10
12.4407342812
 20
8.4904245474
 11
12.4096760221
 21
8.4604245711
  0
LINE
  5
2C0
100
AcDbEntity
  8
0
100
AcDbLine
 62
4
  6
CONTINUOUS
 10
12.4096760221
 20
8.4273070735
 11
12.4318604934
 21
8.4487356285
  0
LINE
  5
2C1
100
AcDbEntity
  8
0
100
AcDbLine
 62
4
  6
CONTINUOUS
 10
12.2557157951
 20
8.2758331077
 11
12.277900266
 21
8.2972616623
  0
LINE
  5
2C2
100
AcDbEntity
  8
0
100
AcDbLine
 62
4
  6
CONTINUOUS
 10
12.4296420455
 20
8.4079557746
 11
12.4252051517
 21
8.403670064
  0
LINE
  5
2C3
100
AcDbEntity
  8
0
100
AcDbLine
 62
4
  6
CONTINUOUS
 10
12.4118944693
 20
8.3549356561
 11
12.4185498108
 21
8.3613642228
  0
LINE
  5
2C4
100
AcDbEntity
  8
0
100
AcDbLine
 62
4
  6
CONTINUOUS
 10
12.2557157951
 20
8.1792405584
 11
12.277900266
 21
8.200669113
  0
LINE
  5
2C5
100
AcDbEntity
  8
0
100
AcDbLine
 62
4
  6
CONTINUOUS
 10
12.4096760221
 20
8.3031166371
 11
12.4274235995
 21
8.3202594815
  0
LINE
  5
2C6
100
AcDbEntity
  8
0
100
AcDbLine
 62
4
  6
CONTINUOUS
 10
12.3373546482
 20
8.5313166639
 11
12.3506653299
 21
8.5110563362
  0
LINE
  5
2C7
100
AcDbEntity
  8
0
100
AcDbLine
 62
4
  6
CONTINUOUS
 10
12.2557157951
 20
8.0302120126
 11
12.2512789008
 21
8.0424850227
  0
LINE
  5
2C8
100
AcDbEntity
  8
0
100
AcDbLine
 62
4
  6
CONTINUOUS
 10
12.2557157951
 20
8.1212850067
 11
12.2512789008
 21
8.1335580167
  0
LINE
  5
2C9
100
AcDbEntity
  8
0
100
AcDbLine
 62
4
  6
CONTINUOUS
 10
12.277900266
 20
8.200669113
 11
12.2823371599
 21
8.1883961025
  0
LINE
  5
2CA
100
AcDbEntity
  8
0
100
AcDbLine
 62
4
  6
CONTINUOUS
 10
12.277900266
 20
8.2972616623
 11
12.2823371599
 21
8.2849886518
  0
LINE
  5
2CB
100
AcDbEntity
  8
0
100
AcDbLine
 62
4
  6
CONTINUOUS
 10
12.4096760221
 20
7.9526235491
 11
12.4118944693
 21
7.9464870717
  0
LINE
  5
2CC
100
AcDbEntity
  8
0
100
AcDbLine
 62
4
  6
CONTINUOUS
 10
12.2512789008
 20
8.4454140794
 11
12.2512789008
 21
8.3957378883
  0
LINE
  5
2CD
100
AcDbEntity
  8
0
100
AcDbLine
 62
4
  6
CONTINUOUS
 10
12.2512789008
 20
7.9790098604
 11
12.2512789008
 21
7.9293336969
  0
LINE
  5
2CE
100
AcDbEntity
  8
0
100
AcDbLine
 62
4
  6
CONTINUOUS
 10
12.2512789008
 20
8.0424850227
 11
12.2512789008
 21
8.0838818532
  0
LINE
  5
2CF
100
AcDbEntity
  8
0
100
AcDbLine
 62
4
  6
CONTINUOUS
 10
12.2512789008
 20
8.1335580167
 11
12.2512789008
 21
8.1583961261
  0
LINE
  5
2D0
100
AcDbEntity
  8
0
100
AcDbLine
 62
4
  6
CONTINUOUS
 10
12.2512789008
 20
8.2218712331
 11
12.2512789008
 21
8.2549886755
  0
LINE
  5
2D1
100
AcDbEntity
  8
0
100
AcDbLine
 62
4
  6
CONTINUOUS
 10
12.2512789008
 20
8.7075939579
 11
12.2512789008
 21
8.7489907746
  0
LINE
  5
2D2
100
AcDbEntity
  8
0
100
AcDbLine
 62
4
  6
CONTINUOUS
 10
12.2601526895
 20
8.6416511003
 11
12.2601526895
 21
8.5974944921
  0
LINE
  5
2D3
100
AcDbEntity
  8
0
100
AcDbLine
 62
4
  6
CONTINUOUS
 10
12.2690264782
 20
7.9630352625
 11
12.2690264782
 21
7.9961527048
  0
LINE
  5
2D4
100
AcDbEntity
  8
0
100
AcDbLine
 62
4
  6
CONTINUOUS
 10
12.2690264782
 20
8.4294394539
 11
12.2690264782
 21
8.4625569238
  0
LINE
  5
2D5
100
AcDbEntity
  8
0
100
AcDbLine
 62
4
  6
CONTINUOUS
 10
12.2823371599
 20
8.778990751
 11
12.2823371599
 21
8.7375939342
  0
LINE
  5
2D6
100
AcDbEntity
  8
0
100
AcDbLine
 62
4
  6
CONTINUOUS
 10
12.2823371599
 20
8.574766438
 11
12.2823371599
 21
8.5085315257
  0
LINE
  5
2D7
100
AcDbEntity
  8
0
100
AcDbLine
 62
4
  6
CONTINUOUS
 10
12.2823371599
 20
8.4754140558
 11
12.2823371599
 21
8.4257378646
  0
LINE
  5
2D8
100
AcDbEntity
  8
0
100
AcDbLine
 62
4
  6
CONTINUOUS
 10
12.2823371599
 20
8.2849886518
 11
12.2823371599
 21
8.2518712095
  0
LINE
  5
2D9
100
AcDbEntity
  8
0
100
AcDbLine
 62
4
  6
CONTINUOUS
 10
12.2823371599
 20
8.1883961025
 11
12.2823371599
 21
8.1635579931
  0
LINE
  5
2DA
100
AcDbEntity
  8
0
100
AcDbLine
 62
4
  6
CONTINUOUS
 10
12.2823371599
 20
8.1138818296
 11
12.2823371599
 21
8.072484999
  0
LINE
  5
2DB
100
AcDbEntity
  8
0
100
AcDbLine
 62
4
  6
CONTINUOUS
 10
12.2823371599
 20
8.0090098368
 11
12.2823371599
 21
7.9593336733
  0
LINE
  5
2DC
100
AcDbEntity
  8
0
100
AcDbLine
 62
4
  6
CONTINUOUS
 10
12.2645895834
 20
8.8280828267
 11
12.2586737244
 21
8.7782119337
  0
LINE
  5
2DD
100
AcDbEntity
  8
0
100
AcDbLine
 62
4
  6
CONTINUOUS
 10
12.4185498108
 20
8.9795567928
 11
12.4318604934
 21
9.0503694774
  0
LINE
  5
2DE
100
AcDbEntity
  8
0
100
AcDbLine
 62
4
  6
CONTINUOUS
 10
12.2823371599
 20
8.7375939342
 11
12.277900266
 21
8.7167494955
  0
LINE
  5
2DF
100
AcDbEntity
  8
0
100
AcDbLine
 62
4
  6
CONTINUOUS
 10
12.4118944693
 20
9.0310837779
 11
12.4096760221
 21
9.0206615574
  0
LINE
  5
2E0
100
AcDbEntity
  8
0
100
AcDbLine
 62
4
  6
CONTINUOUS
 10
12.2512789008
 20
8.2549886755
 11
12.2557157951
 21
8.2758331077
  0
LINE
  5
2E1
100
AcDbEntity
  8
0
100
AcDbLine
 62
4
  6
CONTINUOUS
 10
12.4141129165
 20
8.9421536256
 11
12.4096760221
 21
8.9213091864
  0
LINE
  5
2E2
100
AcDbEntity
  8
0
100
AcDbLine
 62
4
  6
CONTINUOUS
 10
12.2512789008
 20
8.1583961261
 11
12.2557157951
 21
8.1792405584
  0
LINE
  5
2E3
100
AcDbEntity
  8
0
100
AcDbLine
 62
4
  6
CONTINUOUS
 10
12.4407342812
 20
9.009264711
 11
12.4385158333
 21
8.9988424908
  0
LINE
  5
2E4
100
AcDbEntity
  8
0
100
AcDbLine
 62
4
  6
CONTINUOUS
 10
12.2823371599
 20
8.1635579931
 11
12.277900266
 21
8.1427135613
  0
LINE
  5
2E5
100
AcDbEntity
  8
0
100
AcDbLine
 62
4
  6
CONTINUOUS
 10
12.3506653299
 20
8.5772912554
 11
12.3373546482
 21
8.5313166639
  0
LINE
  5
2E6
100
AcDbEntity
  8
0
100
AcDbLine
 62
4
  6
CONTINUOUS
 10
12.4407342812
 20
8.876794883
 11
12.4096760221
 21
8.7888393549
  0
LINE
  5
2E7
100
AcDbEntity
  8
0
100
AcDbLine
 62
4
  6
CONTINUOUS
 10
11.8480391583
 20
7.5577726424
 11
11.8169808992
 21
7.4915504462
  0
LINE
  5
2E8
100
AcDbEntity
  8
0
100
AcDbLine
 62
4
  6
CONTINUOUS
 10
12.4318604934
 20
8.6032837848
 11
12.4096760221
 21
8.5570171204
  0
LINE
  5
2E9
100
AcDbEntity
  8
0
100
AcDbLine
 62
4
  6
CONTINUOUS
 10
12.3417915421
 20
8.3230986837
 11
12.3196070708
 21
8.2768320469
  0
LINE
  5
2EA
100
AcDbEntity
  8
0
100
AcDbLine
 62
4
  6
CONTINUOUS
 10
12.3506653299
 20
8.4779388801
 11
12.3196070708
 21
8.4148214406
  0
LINE
  5
2EB
100
AcDbEntity
  8
0
100
AcDbLine
 62
4
  6
CONTINUOUS
 10
12.3506653299
 20
8.3813462962
 11
12.3196070708
 21
8.3265082242
  0
LINE
  5
2EC
100
AcDbEntity
  8
0
100
AcDbLine
 62
4
  6
CONTINUOUS
 10
12.4318604934
 20
8.2914277498
 11
12.4118944693
 21
8.2721420503
  0
LINE
  5
2ED
100
AcDbEntity
  8
0
100
AcDbLine
 62
4
  6
CONTINUOUS
 10
12.277900266
 20
8.1427135613
 11
12.2557157951
 21
8.1212850067
  0
LINE
  5
2EE
100
AcDbEntity
  8
0
100
AcDbLine
 62
4
  6
CONTINUOUS
 10
12.2512789008
 20
8.0838818532
 11
12.2823371599
 21
8.1138818296
  0
LINE
  5
2EF
100
AcDbEntity
  8
0
100
AcDbLine
 62
4
  6
CONTINUOUS
 10
12.4096760221
 20
8.220322976
 11
12.4318604934
 21
8.241751531
  0
LINE
  5
2F0
100
AcDbEntity
  8
0
100
AcDbLine
 62
4
  6
CONTINUOUS
 10
12.4118944693
 20
8.1893483892
 11
12.4407342812
 21
8.21720551
  0
LINE
  5
2F1
100
AcDbEntity
  8
0
100
AcDbLine
 62
4
  6
CONTINUOUS
 10
12.277900266
 20
8.0516405672
 11
12.2557157951
 21
8.0302120126
  0
LINE
  5
2F2
100
AcDbEntity
  8
0
100
AcDbLine
 62
4
  6
CONTINUOUS
 10
12.2512789008
 20
7.9790098604
 11
12.2823371599
 21
8.0090098368
  0
LINE
  5
2F3
100
AcDbEntity
  8
0
100
AcDbLine
 62
4
  6
CONTINUOUS
 10
12.8419035284
 20
8.5419201416
 11
12.8367271531
 21
8.5369201467
  0
LINE
  5
2F4
100
AcDbEntity
  8
0
100
AcDbLine
 62
4
  6
CONTINUOUS
 10
12.4096760221
 20
8.1126912608
 11
12.4318604934
 21
8.1341198158
  0
LINE
  5
2F5
100
AcDbEntity
  8
0
100
AcDbLine
 62
4
  6
CONTINUOUS
 10
12.4385158333
 20
8.1405483809
 11
12.4407342812
 21
8.1426912371
  0
LINE
  5
2F6
100
AcDbEntity
  8
0
100
AcDbLine
 62
4
  6
CONTINUOUS
 10
12.4118944693
 20
8.0706775081
 11
12.4296420455
 21
8.0878203514
  0
LINE
  5
2F7
100
AcDbEntity
  8
0
100
AcDbLine
 62
4
  6
CONTINUOUS
 10
12.4296420455
 20
8.0133060232
 11
12.4318604934
 21
8.0071695465
  0
LINE
  5
2F8
100
AcDbEntity
  8
0
100
AcDbLine
 62
4
  6
CONTINUOUS
 10
12.4296420455
 20
8.0878203514
 11
12.4318604934
 21
8.0816838747
  0
LINE
  5
2F9
100
AcDbEntity
  8
0
100
AcDbLine
 62
4
  6
CONTINUOUS
 10
12.2557157951
 20
8.6953209409
 11
12.2512789008
 21
8.7075939579
  0
LINE
  5
2FA
100
AcDbEntity
  8
0
100
AcDbLine
 62
4
  6
CONTINUOUS
 10
12.2645895834
 20
7.8649167792
 11
12.2586737244
 21
7.9033591061
  0
LINE
  5
2FB
100
AcDbEntity
  8
0
100
AcDbLine
 62
4
  6
CONTINUOUS
 10
12.2705054428
 20
8.7896404968
 11
12.2645895834
 21
8.8280828267
  0
LINE
  5
2FC
100
AcDbEntity
  8
0
100
AcDbLine
 62
4
  6
CONTINUOUS
 10
12.4022811985
 20
8.5747123783
 11
12.4022811985
 21
8.5581536571
  0
LINE
  5
2FD
100
AcDbEntity
  8
0
100
AcDbLine
 62
4
  6
CONTINUOUS
 10
12.4096760221
 20
9.0206615574
 11
12.4096760221
 21
8.9875440987
  0
LINE
  5
2FE
100
AcDbEntity
  8
0
100
AcDbLine
 62
4
  6
CONTINUOUS
 10
12.4096760221
 20
8.9213091864
 11
12.4096760221
 21
8.8964710839
  0
LINE
  5
2FF
100
AcDbEntity
  8
0
100
AcDbLine
 62
4
  6
CONTINUOUS
 10
12.4096760221
 20
8.2617198065
 11
12.4096760221
 21
8.220322976
  0
LINE
  5
300
100
AcDbEntity
  8
0
100
AcDbLine
 62
4
  6
CONTINUOUS
 10
12.4096760221
 20
7.9857409915
 11
12.4096760221
 21
7.9526235491
  0
LINE
  5
301
100
AcDbEntity
  8
0
100
AcDbLine
 62
4
  6
CONTINUOUS
 10
12.4096760221
 20
8.0271377667
 11
12.4096760221
 21
8.0602553196
  0
LINE
  5
302
100
AcDbEntity
  8
0
100
AcDbLine
 62
4
  6
CONTINUOUS
 10
12.4096760221
 20
8.1623674243
 11
12.4096760221
 21
8.1789261454
  0
LINE
  5
303
100
AcDbEntity
  8
0
100
AcDbLine
 62
4
  6
CONTINUOUS
 10
12.4096760221
 20
8.3031166371
 11
12.4096760221
 21
8.3362340794
  0
LINE
  5
304
100
AcDbEntity
  8
0
100
AcDbLine
 62
4
  6
CONTINUOUS
 10
12.4096760221
 20
8.4604245711
 11
12.4096760221
 21
8.4935420134
  0
LINE
  5
305
100
AcDbEntity
  8
0
100
AcDbLine
 62
4
  6
CONTINUOUS
 10
12.4207682578
 20
8.3469483569
 11
12.4207682578
 21
8.3138309146
  0
LINE
  5
306
100
AcDbEntity
  8
0
100
AcDbLine
 62
4
  6
CONTINUOUS
 10
12.4318604934
 20
8.6860774459
 11
12.4318604934
 21
8.6446806154
  0
LINE
  5
307
100
AcDbEntity
  8
0
100
AcDbLine
 62
4
  6
CONTINUOUS
 10
12.4318604934
 20
8.5149705684
 11
12.4318604934
 21
8.4818531261
  0
LINE
  5
308
100
AcDbEntity
  8
0
100
AcDbLine
 62
4
  6
CONTINUOUS
 10
12.4318604934
 20
8.4487356285
 11
12.4318604934
 21
8.4156181862
  0
LINE
  5
309
100
AcDbEntity
  8
0
100
AcDbLine
 62
4
  6
CONTINUOUS
 10
12.4318604934
 20
8.0816838747
 11
12.4318604934
 21
8.0485663218
  0
LINE
  5
30A
100
AcDbEntity
  8
0
100
AcDbLine
 62
4
  6
CONTINUOUS
 10
12.4318604934
 20
8.0071695465
 11
12.4318604934
 21
7.9740521042
  0
LINE
  5
30B
100
AcDbEntity
  8
0
100
AcDbLine
 62
4
  6
CONTINUOUS
 10
12.4318604934
 20
8.3328245251
 11
12.4318604934
 21
8.3742213556
  0
LINE
  5
30C
100
AcDbEntity
  8
0
100
AcDbLine
 62
4
  6
CONTINUOUS
 10
12.4407342812
 20
9.0423821689
 11
12.4407342812
 21
9.009264711
  0
LINE
  5
30D
100
AcDbEntity
  8
0
100
AcDbLine
 62
4
  6
CONTINUOUS
 10
12.4407342812
 20
8.1426912371
 11
12.4407342812
 21
8.1399314595
  0
LINE
  5
30E
100
AcDbEntity
  8
0
100
AcDbLine
 62
4
  6
CONTINUOUS
 10
12.4200287755
 20
7.9626235415
 11
12.4215077401
 21
7.9971695541
  0
LINE
  5
30F
100
AcDbEntity
  8
0
100
AcDbLine
 62
4
  6
CONTINUOUS
 10
12.2705054428
 20
7.9147876692
 11
12.2645895834
 21
7.8649167792
  0
LINE
  5
310
100
AcDbEntity
  8
0
100
AcDbLine
 62
4
  6
CONTINUOUS
 10
12.4096760221
 20
8.4935420134
 11
12.4118944693
 21
8.5122435901
  0
LINE
  5
311
100
AcDbEntity
  8
0
100
AcDbLine
 62
4
  6
CONTINUOUS
 10
12.4096760221
 20
8.3362340794
 11
12.4118944693
 21
8.3549356561
  0
LINE
  5
312
100
AcDbEntity
  8
0
100
AcDbLine
 62
4
  6
CONTINUOUS
 10
12.4215077401
 20
7.9971695541
 11
12.4229867047
 21
8.0068774573
  0
LINE
  5
313
100
AcDbEntity
  8
0
100
AcDbLine
 62
4
  6
CONTINUOUS
 10
12.4185498108
 20
7.9529156384
 11
12.4200287755
 21
7.9626235415
  0
LINE
  5
314
100
AcDbEntity
  8
0
100
AcDbLine
 62
4
  6
CONTINUOUS
 10
12.2823371599
 20
8.072484999
 11
12.277900266
 21
8.0516405672
  0
LINE
  5
315
100
AcDbEntity
  8
0
100
AcDbLine
 62
4
  6
CONTINUOUS
 10
12.4318604934
 20
8.6446806154
 11
12.4296420455
 21
8.6342583986
  0
LINE
  5
316
100
AcDbEntity
  8
0
100
AcDbLine
 62
4
  6
CONTINUOUS
 10
12.4118944693
 20
8.2721420503
 11
12.4096760221
 21
8.2617198065
  0
LINE
  5
317
100
AcDbEntity
  8
0
100
AcDbLine
 62
4
  6
CONTINUOUS
 10
12.4096760221
 20
8.1789261454
 11
12.4118944693
 21
8.1893483892
  0
LINE
  5
318
100
AcDbEntity
  8
0
100
AcDbLine
 62
4
  6
CONTINUOUS
 10
12.4096760221
 20
8.0602553196
 11
12.4118944693
 21
8.0706775081
  0
LINE
  5
319
100
AcDbEntity
  8
0
100
AcDbLine
 62
4
  6
CONTINUOUS
 10
12.4118944693
 20
7.99616318
 11
12.4096760221
 21
7.9857409915
  0
LINE
  5
31A
100
AcDbEntity
  8
0
100
AcDbLine
 62
4
  6
CONTINUOUS
 10
12.4318604934
 20
7.9740521042
 11
12.4296420455
 21
7.963629915
  0
LINE
  5
31B
100
AcDbEntity
  8
0
100
AcDbLine
 62
4
  6
CONTINUOUS
 10
12.4318604934
 20
8.4156181862
 11
12.4296420455
 21
8.4079557746
  0
LINE
  5
31C
100
AcDbEntity
  8
0
100
AcDbLine
 62
4
  6
CONTINUOUS
 10
12.4274235995
 20
8.3202594815
 11
12.4318604934
 21
8.3328245251
  0
LINE
  5
31D
100
AcDbEntity
  8
0
100
AcDbLine
 62
4
  6
CONTINUOUS
 10
12.4229867047
 20
8.0068774573
 11
12.4296420455
 21
8.0133060232
  0
LINE
  5
31E
100
AcDbEntity
  8
0
100
AcDbLine
 62
4
  6
CONTINUOUS
 10
12.4118944693
 20
7.9464870717
 11
12.4185498108
 21
7.9529156384
  0
LINE
  5
31F
100
AcDbEntity
  8
0
100
AcDbLine
 62
4
  6
CONTINUOUS
 10
11.8428627811
 20
7.3716615466
 11
11.8376864058
 21
7.3666615517
  0
LINE
  5
320
100
AcDbEntity
  8
0
100
AcDbLine
 62
4
  6
CONTINUOUS
 10
12.4096760221
 20
8.8964710839
 11
12.4141129165
 21
8.8841980739
  0
LINE
  5
321
100
AcDbEntity
  8
0
100
AcDbLine
 62
4
  6
CONTINUOUS
 10
12.4096760221
 20
8.9875440987
 11
12.4141129165
 21
8.9752710817
  0
LINE
  5
322
100
AcDbEntity
  8
0
100
AcDbLine
 62
4
  6
CONTINUOUS
 10
12.4185498108
 20
8.3613642228
 11
12.4207682578
 21
8.3469483569
  0
LINE
  5
323
100
AcDbEntity
  8
0
100
AcDbLine
 62
4
  6
CONTINUOUS
 10
12.4296420455
 20
8.5293864334
 11
12.4318604934
 21
8.5149705684
  0
LINE
  5
324
100
AcDbEntity
  8
0
100
AcDbLine
 62
4
  6
CONTINUOUS
 10
12.8237862112
 20
8.7055312551
 11
12.831550776
 21
8.7202756932
  0
LINE
  5
325
100
AcDbEntity
  8
0
100
AcDbLine
 62
4
  6
CONTINUOUS
 10
12.8367271531
 20
8.5369201467
 11
12.8341389637
 21
8.5416645915
  0
LINE
  5
326
100
AcDbEntity
  8
0
100
AcDbLine
 62
4
  6
CONTINUOUS
 10
12.8289625874
 20
8.5656423716
 11
12.8237862112
 21
8.5751312638
  0
LINE
  5
327
100
AcDbEntity
  8
0
100
AcDbLine
 62
4
  6
CONTINUOUS
 10
12.8419035284
 20
8.5998756933
 11
12.8444917179
 21
8.5951312486
  0
LINE
  5
328
100
AcDbEntity
  8
0
100
AcDbLine
 62
4
  6
CONTINUOUS
 10
12.8211980231
 20
8.6378312616
 11
12.8186098348
 21
8.6425757074
  0
LINE
  5
329
100
AcDbEntity
  8
0
100
AcDbLine
 62
4
  6
CONTINUOUS
 10
12.4362973873
 20
9.054655188
 11
12.4407342812
 21
9.0423821689
  0
LINE
  5
32A
100
AcDbEntity
  8
0
100
AcDbLine
 62
4
  6
CONTINUOUS
 10
12.8160216465
 20
8.5748757136
 11
12.8160216465
 21
8.5169201619
  0
LINE
  5
32B
100
AcDbEntity
  8
0
100
AcDbLine
 62
4
  6
CONTINUOUS
 10
12.8160216465
 20
8.6545645972
 11
12.8160216465
 21
8.6690534852
  0
LINE
  5
32C
100
AcDbEntity
  8
0
100
AcDbLine
 62
4
  6
CONTINUOUS
 10
12.8470799056
 20
8.6990534615
 11
12.8470799056
 21
8.6845645736
  0
LINE
  5
32D
100
AcDbEntity
  8
0
100
AcDbLine
 62
4
  6
CONTINUOUS
 10
12.8470799056
 20
8.5831423581
 11
12.8470799056
 21
8.5686534702
  0
LINE
  5
32E
100
AcDbEntity
  8
0
100
AcDbLine
 62
7
  6
CONTINUOUS
 10
12.8781381068
 20
10.3880310355
 11
12.8781381068
 21
7.4902533849
  0
LINE
  5
32F
100
AcDbEntity
  8
0
100
AcDbLine
 62
4
  6
CONTINUOUS
 10
12.8160216465
 20
8.6690534852
 11
12.8186098348
 21
8.6860423712
  0
LINE
  5
330
100
AcDbEntity
  8
0
100
AcDbLine
 62
4
  6
CONTINUOUS
 10
12.8470799056
 20
8.6845645736
 11
12.8444917179
 21
8.6675756882
  0
LINE
  5
331
100
AcDbEntity
  8
0
100
AcDbLine
 62
4
  6
CONTINUOUS
 10
12.8470799056
 20
8.5686534702
 11
12.8444917179
 21
8.5516645848
  0
LINE
  5
332
100
AcDbEntity
  8
0
100
AcDbLine
 62
4
  6
CONTINUOUS
 10
12.8186098348
 20
8.6860423712
 11
12.8237862112
 21
8.7055312551
  0
LINE
  5
333
100
AcDbEntity
  8
0
100
AcDbLine
 62
4
  6
CONTINUOUS
 10
12.8444917179
 20
8.6675756882
 11
12.8419035284
 21
8.657831245
  0
LINE
  5
334
100
AcDbEntity
  8
0
100
AcDbLine
 62
4
  6
CONTINUOUS
 10
12.8444917179
 20
8.5516645848
 11
12.8419035284
 21
8.5419201416
  0
LINE
  5
335
100
AcDbEntity
  8
0
100
AcDbLine
 62
4
  6
CONTINUOUS
 10
12.8393153408
 20
8.7205312433
 11
12.8444917179
 21
8.711042352
  0
LINE
  5
336
100
AcDbEntity
  8
0
100
AcDbLine
 62
4
  6
CONTINUOUS
 10
12.8341389637
 20
8.5416645915
 11
12.8289625874
 21
8.5656423716
  0
LINE
  5
337
100
AcDbEntity
  8
0
100
AcDbLine
 62
4
  6
CONTINUOUS
 10
12.8186098348
 20
8.6425757074
 11
12.8160216465
 21
8.6545645972
  0
LINE
  5
338
100
AcDbEntity
  8
0
100
AcDbLine
 62
4
  6
CONTINUOUS
 10
12.8444917179
 20
8.5951312486
 11
12.8470799056
 21
8.5831423581
  0
LINE
  5
339
100
AcDbEntity
  8
0
100
AcDbLine
 62
4
  6
CONTINUOUS
 10
12.8444917179
 20
8.711042352
 11
12.8470799056
 21
8.6990534615
  0
LINE
  5
33A
100
AcDbEntity
  8
0
100
AcDbLine
 62
7
  6
CONTINUOUS
 10
12.8781381068
 20
7.4902533849
 11
11.7781580729
 21
6.4277541988
  0
LINE
  5
33B
100
AcDbEntity
  8
0
100
AcDbLine
 62
7
  6
CONTINUOUS
 10
10.2218419271
 20
10.5722458012
 11
12.8781381068
 21
10.3880310355
  0
ARC
  5
33C
100
AcDbEntity
  8
0
100
AcDbCircle
 62
7
  6
CONTINUOUS
 10
11.1449360274
 20
7.7126896754
 40
0.527175871
100
AcDbArc
 50
0.0103690036
 51
5.8455856794
  0
ARC
  5
33D
100
AcDbEntity
  8
0
100
AcDbCircle
 62
7
  6
CONTINUOUS
 10
11.5937119064
 20
8.2142134193
 40
0.4466856142
100
AcDbArc
 50
172.7798471755
 51
180.0156606901
  0
ARC
  5
33E
100
AcDbEntity
  8
0
100
AcDbCircle
 62
7
  6
CONTINUOUS
 10
11.6024421348
 20
8.2196724951
 40
0.4186734944
100
AcDbArc
 50
173.5636974109
 51
180.0124246758
  0
SPLINE
  5
33F
100
AcDbEntity
  8
0
100
AcDbSpline
 62
7
  6
CONTINUOUS
 70
0
 71
3
 72
50
 73
46
 74
0
 42
0.0000001
 43
0.0000001
 44
0.0000000001
 40
0.0
 40
0.0
 40
0.0
 40
0.0
 40
0.0417738954
 40
0.0840375015
 40
0.126658999
 40
0.1695072728
 40
0.2124490406
 40
0.2553511879
 40
0.2980805661
 40
0.3405047668
 40
0.3824925704
 40
0.4239144964
 40
0.4646433325
 40
0.504554679
 40
0.5435274987
 40
0.5814446837
 40
0.6181936452
 40
0.6536669372
 40
0.6877629283
 40
0.7203865442
 40
0.7514501111
 40
0.7808743474
 40
0.8085895768
 40
0.8217881241
 40
0.8345385176
 40
0.8468355036
 40
0.8586748141
 40
0.8700533313
 40
0.8809690507
 40
0.8914214953
 40
0.9014115725
 40
0.9109421624
 40
0.9200180335
 40
0.9286464829
 40
0.9368375013
 40
0.9446043826
 40
0.9519642537
 40
0.9589386378
 40
0.9655543111
 40
0.9718437858
 40
0.9778461759
 40
0.9836073377
 40
0.9891800243
 40
0.9946230608
 40
1.0
 40
1.0
 40
1.0
 40
1.0
 10
12.0167890309
 20
8.6809028003
 30
0.0
 10
12.0167890309
 20
8.686443568
 30
0.0
 10
12.0168754781
 20
8.6975902313
 30
0.0
 10
12.0172576162
 20
8.7143861483
 30
0.0
 10
12.0178918989
 20
8.731317064
 30
0.0
 10
12.0187762077
 20
8.7483268138
 30
0.0
 10
12.0199076486
 20
8.7653592201
 30
0.0
 10
12.0212824659
 20
8.7823578903
 30
0.0
 10
12.0228961126
 20
8.799266602
 30
0.0
 10
12.0247432369
 20
8.8160294116
 30
0.0
 10
12.0268177117
 20
8.8325908676
 30
0.0
 10
12.0291126503
 20
8.8488961875
 30
0.0
 10
12.0316204298
 20
8.8648914428
 30
0.0
 10
12.0343327148
 20
8.8805237403
 30
0.0
 10
12.0372404859
 20
8.8957413992
 30
0.0
 10
12.0403340684
 20
8.9104941253
 30
0.0
 10
12.0436031639
 20
8.9247331824
 30
0.0
 10
12.0470368841
 20
8.9384115573
 30
0.0
 10
12.050623786
 20
8.9514841297
 30
0.0
 10
12.0543519126
 20
8.9639078115
 30
0.0
 10
12.0582088292
 20
8.9756417794
 30
0.0
 10
12.0621816898
 20
8.9866473732
 30
0.0
 10
12.065631868
 20
8.9953176198
 30
0.0
 10
12.0684475744
 20
9.0018552932
 30
0.0
 10
12.0705456445
 20
9.0064743115
 30
0.0
 10
12.0726627314
 20
9.0108855153
 30
0.0
 10
12.0747971268
 20
9.015085284
 30
0.0
 10
12.0769470354
 20
9.0190701892
 30
0.0
 10
12.0791107433
 20
9.0228369578
 30
0.0
 10
12.0812864211
 20
9.0263825464
 30
0.0
 10
12.083472371
 20
9.0297040473
 30
0.0
 10
12.0856667655
 20
9.0327988069
 30
0.0
 10
12.0878679186
 20
9.0356643022
 30
0.0
 10
12.0900740612
 20
9.0382982572
 30
0.0
 10
12.0922835258
 20
9.040698546
 30
0.0
 10
12.0944946594
 20
9.0428632327
 30
0.0
 10
12.0967058417
 20
9.0447905683
 30
0.0
 10
12.0989155699
 20
9.0464788726
 30
0.0
 10
12.1011222924
 20
9.0479266807
 30
0.0
 10
12.1033245952
 20
9.0491324261
 30
0.0
 10
12.1055209064
 20
9.0500947556
 30
0.0
 10
12.1077095928
 20
9.0508121206
 30
0.0
 10
12.1098888054
 20
9.0512832317
 30
0.0
 10
12.1120559266
 20
9.0515068803
 30
0.0
 10
12.1134947077
 20
9.0514904231
 30
0.0
 10
12.11420618
 20
9.0514410767
 30
0.0
  0
SPLINE
  5
340
100
AcDbEntity
  8
0
100
AcDbSpline
 62
7
  6
CONTINUOUS
 70
0
 71
3
 72
50
 73
46
 74
0
 42
0.0000001
 43
0.0000001
 44
0.0000000001
 40
0.0
 40
0.0
 40
0.0
 40
0.0
 40
0.0417738954
 40
0.0840375015
 40
0.126658999
 40
0.1695072728
 40
0.2124490406
 40
0.2553511879
 40
0.2980805661
 40
0.3405047668
 40
0.3824925704
 40
0.4239144964
 40
0.4646433325
 40
0.504554679
 40
0.5435274987
 40
0.5814446837
 40
0.6181936452
 40
0.6536669372
 40
0.6877629283
 40
0.7203865442
 40
0.7514501111
 40
0.7808743474
 40
0.8085895768
 40
0.8217881241
 40
0.8345385176
 40
0.8468355036
 40
0.8586748141
 40
0.8700533313
 40
0.8809690507
 40
0.8914214953
 40
0.9014115725
 40
0.9109421624
 40
0.9200180335
 40
0.9286464829
 40
0.9368375013
 40
0.9446043826
 40
0.9519642537
 40
0.9589386378
 40
0.9655543111
 40
0.9718437858
 40
0.9778461759
 40
0.9836073377
 40
0.9891800243
 40
0.9946230608
 40
1.0
 40
1.0
 40
1.0
 40
1.0
 10
12.0167890309
 20
6.9905326193
 30
0.0
 10
12.0167890309
 20
6.996073387
 30
0.0
 10
12.0168754781
 20
7.0072200503
 30
0.0
 10
12.0172576162
 20
7.0240159673
 30
0.0
 10
12.0178918989
 20
7.040946883
 30
0.0
 10
12.0187762077
 20
7.0579566328
 30
0.0
 10
12.0199076486
 20
7.0749890391
 30
0.0
 10
12.0212824659
 20
7.0919877093
 30
0.0
 10
12.0228961126
 20
7.108896421
 30
0.0
 10
12.0247432369
 20
7.1256592306
 30
0.0
 10
12.0268177117
 20
7.1422206866
 30
0.0
 10
12.0291126503
 20
7.1585260065
 30
0.0
 10
12.0316204298
 20
7.1745212618
 30
0.0
 10
12.0343327148
 20
7.1901535593
 30
0.0
 10
12.0372404859
 20
7.2053712182
 30
0.0
 10
12.0403340684
 20
7.2201239443
 30
0.0
 10
12.0436031639
 20
7.2343630014
 30
0.0
 10
12.0470368841
 20
7.2480413763
 30
0.0
 10
12.050623786
 20
7.2611139487
 30
0.0
 10
12.0543519126
 20
7.2735376305
 30
0.0
 10
12.0582088292
 20
7.2852715984
 30
0.0
 10
12.0621816898
 20
7.2962771921
 30
0.0
 10
12.065631868
 20
7.3049474387
 30
0.0
 10
12.0684475744
 20
7.3114851121
 30
0.0
 10
12.0705456445
 20
7.3161041305
 30
0.0
 10
12.0726627314
 20
7.3205153343
 30
0.0
 10
12.0747971268
 20
7.324715103
 30
0.0
 10
12.0769470354
 20
7.3287000082
 30
0.0
 10
12.0791107433
 20
7.3324667768
 30
0.0
 10
12.0812864211
 20
7.3360123653
 30
0.0
 10
12.083472371
 20
7.3393338663
 30
0.0
 10
12.0856667655
 20
7.3424286259
 30
0.0
 10
12.0878679186
 20
7.3452941211
 30
0.0
 10
12.0900740612
 20
7.3479280762
 30
0.0
 10
12.0922835258
 20
7.350328365
 30
0.0
 10
12.0944946594
 20
7.3524930517
 30
0.0
 10
12.0967058417
 20
7.3544203873
 30
0.0
 10
12.0989155699
 20
7.3561086916
 30
0.0
 10
12.1011222924
 20
7.3575564997
 30
0.0
 10
12.1033245952
 20
7.3587622451
 30
0.0
 10
12.1055209064
 20
7.3597245746
 30
0.0
 10
12.1077095928
 20
7.3604419396
 30
0.0
 10
12.1098888054
 20
7.3609130507
 30
0.0
 10
12.1120559266
 20
7.3611366993
 30
0.0
 10
12.1134947077
 20
7.3611202421
 30
0.0
 10
12.11420618
 20
7.3610708957
 30
0.0
  0
SPLINE
  5
341
100
AcDbEntity
  8
0
100
AcDbSpline
 62
7
  6
CONTINUOUS
 70
0
 71
3
 72
24
 73
20
 74
0
 42
0.0000001
 43
0.0000001
 44
0.0000000001
 40
0.0
 40
0.0
 40
0.0
 40
0.0
 40
0.0637774298
 40
0.1273438979
 40
0.1907011028
 40
0.2538548461
 40
0.3168115792
 40
0.3795801785
 40
0.4421711488
 40
0.5045967878
 40
0.5668710022
 40
0.6290092041
 40
0.6910281625
 40
0.7220010202
 40
0.7529508971
 40
0.8147862935
 40
0.87655923
 40
0.9382901685
 40
1.0
 40
1.0
 40
1.0
 40
1.0
 10
11.6883269657
 20
7.6114476418
 30
0.0
 10
11.6883269657
 20
7.6013108581
 30
0.0
 10
11.6878418219
 20
7.5810673843
 30
0.0
 10
11.6856518905
 20
7.5508252307
 30
0.0
 10
11.6820058111
 20
7.5208229178
 30
0.0
 10
11.6769120447
 20
7.4911306088
 30
0.0
 10
11.6703821683
 20
7.4618164084
 30
0.0
 10
11.6624312196
 20
7.432947999
 30
0.0
 10
11.6530774313
 20
7.404591902
 30
0.0
 10
11.6423423341
 20
7.3768135432
 30
0.0
 10
11.6302505469
 20
7.3496768756
 30
0.0
 10
11.616830159
 20
7.3232449029
 30
0.0
 10
11.6045589283
 20
7.3018457135
 30
0.0
 10
11.5941114676
 20
7.285142852
 30
0.0
 10
11.5832568873
 20
7.2687366252
 30
0.0
 10
11.5689193979
 20
7.2487748808
 30
0.0
 10
11.550522318
 20
7.2257517153
 30
0.0
 10
11.5309805283
 20
7.2037190663
 30
0.0
 10
11.5172171447
 20
7.1897225614
 30
0.0
 10
11.5101625844
 20
7.1829083722
 30
0.0
  0
SPLINE
  5
342
100
AcDbEntity
  8
0
100
AcDbSpline
 62
7
  6
CONTINUOUS
 70
0
 71
3
 72
59
 73
55
 74
0
 42
0.0000001
 43
0.0000001
 44
0.0000000001
 40
0.0
 40
0.0
 40
0.0
 40
0.0
 40
0.0701466669
 40
0.1051982258
 40
0.1402872198
 40
0.1754634173
 40
0.2107864877
 40
0.2285260582
 40
0.2463310736
 40
0.2821859368
 40
0.3184683099
 40
0.3553286849
 40
0.3929665594
 40
0.4121599933
 40
0.4316563522
 40
0.4515053082
 40
0.471764723
 40
0.5137804433
 40
0.5357001985
 40
0.5583193851
 40
0.5816675374
 40
0.5936013771
 40
0.6056794508
 40
0.6300892571
 40
0.6543840721
 40
0.6778585696
 40
0.6998745252
 40
0.7200933494
 40
0.7384908781
 40
0.7552275134
 40
0.7630442625
 40
0.770530105
 40
0.7846137214
 40
0.7976769379
 40
0.8038794852
 40
0.8098863636
 40
0.8213743617
 40
0.8322566893
 40
0.8375017275
 40
0.8426297744
 40
0.8525708559
 40
0.8621504555
 40
0.8714281572
 40
0.8804564235
 40
0.8892816087
 40
0.8979452224
 40
0.9064845469
 40
0.9149334718
 40
0.9233224733
 40
0.9316796844
 40
0.948392615
 40
0.9652565766
 40
0.9824184855
 40
1.0
 40
1.0
 40
1.0
 40
1.0
 10
11.3222614548
 20
7.6938493912
 30
0.0
 10
11.3122869349
 20
7.6946237651
 30
0.0
 10
11.2973497135
 20
7.6961055167
 30
0.0
 10
11.2775215668
 20
7.69879501
 30
0.0
 10
11.2626919806
 20
7.7011946179
 30
0.0
 10
11.2478957031
 20
7.7040073807
 30
0.0
 10
11.2356050606
 20
7.7067231466
 30
0.0
 10
11.2257909907
 20
7.7091420946
 30
0.0
 10
11.2159457148
 20
7.71174528
 30
0.0
 10
11.203632735
 20
7.7153542616
 30
0.0
 10
11.1888931554
 20
7.7203087191
 30
0.0
 10
11.1741465977
 20
7.7259962049
 30
0.0
 10
11.1619267612
 20
7.7314204063
 30
0.0
 10
11.1521725671
 20
7.7362570639
 30
0.0
 10
11.1448091868
 20
7.7401952942
 30
0.0
 10
11.1374496989
 20
7.7444541626
 30
0.0
 10
11.1275310005
 20
7.750686994
 30
0.0
 10
11.117754355
 20
7.7576915482
 30
0.0
 10
11.1082621233
 20
7.7655912489
 30
0.0
 10
11.1011658548
 20
7.7721862148
 30
0.0
 10
11.0954688436
 20
7.7781733004
 30
0.0
 10
11.0910694151
 20
7.7833004893
 30
0.0
 10
11.0867661814
 20
7.7887036069
 30
0.0
 10
11.0817626307
 20
7.7957954395
 30
0.0
 10
11.0765552888
 20
7.8046909931
 30
0.0
 10
11.0723196732
 20
7.8137136959
 30
0.0
 10
11.0691432248
 20
7.8225453494
 30
0.0
 10
11.0669862094
 20
7.8309324557
 30
0.0
 10
11.0657230026
 20
7.8387358285
 30
0.0
 10
11.0652785134
 20
7.8448537259
 30
0.0
 10
11.0652430411
 20
7.8494242853
 30
0.0
 10
11.0653835218
 20
7.8536140909
 30
0.0
 10
11.0658435445
 20
7.8585376082
 30
0.0
 10
11.0666560957
 20
7.8632291498
 30
0.0
 10
11.0674760351
 20
7.8667398887
 30
0.0
 10
11.0683668451
 20
7.8700008739
 30
0.0
 10
11.069646077
 20
7.873844633
 30
0.0
 10
11.0711563001
 20
7.8774859967
 30
0.0
 10
11.072466325
 20
7.8802204506
 30
0.0
 10
11.0738080333
 20
7.8827888818
 30
0.0
 10
11.0755950651
 20
7.8858197253
 30
0.0
 10
11.0779169588
 20
7.8892114035
 30
0.0
 10
11.080378514
 20
7.892338894
 30
0.0
 10
11.0829657692
 20
7.8952198578
 30
0.0
 10
11.0856685879
 20
7.8978687864
 30
0.0
 10
11.0884778776
 20
7.9002989384
 30
0.0
 10
11.09138623
 20
7.9025221021
 30
0.0
 10
11.0943880287
 20
7.9045478508
 30
0.0
 10
11.0974777269
 20
7.9063864135
 30
0.0
 10
11.1017087259
 20
7.908597791
 30
0.0
 10
11.1072230602
 20
7.9109426556
 30
0.0
 10
11.1141364203
 20
7.9131150237
 30
0.0
 10
11.1213335211
 20
7.9146962773
 30
0.0
 10
11.1262474882
 20
7.915374305
 30
0.0
 10
11.1287418204
 20
7.9156312348
 30
0.0
  0
SPLINE
  5
343
100
AcDbEntity
  8
0
100
AcDbSpline
 62
7
  6
CONTINUOUS
 70
0
 71
3
 72
11
 73
7
 74
0
 42
0.0000001
 43
0.0000001
 44
0.0000000001
 40
0.0
 40
0.0
 40
0.0
 40
0.0
 40
0.2518305105
 40
0.5022985382
 40
0.7516073063
 40
1.0
 40
1.0
 40
1.0
 40
1.0
 10
11.3987694151
 20
7.6917961891
 30
0.0
 10
11.392343702
 20
7.6916649683
 30
0.0
 10
11.3795236125
 20
7.6915465754
 30
0.0
 10
11.3603417183
 20
7.6918157071
 30
0.0
 10
11.3412595779
 20
7.6925474762
 30
0.0
 10
11.3285817516
 20
7.6933587137
 30
0.0
 10
11.3222614548
 20
7.6938493912
 30
0.0
  0
SPLINE
  5
344
100
AcDbEntity
  8
0
100
AcDbSpline
 62
7
  6
CONTINUOUS
 70
0
 71
3
 72
50
 73
46
 74
0
 42
0.0000001
 43
0.0000001
 44
0.0000000001
 40
0.0
 40
0.0
 40
0.0
 40
0.0
 40
0.0149717278
 40
0.0299465149
 40
0.044927401
 40
0.0599173893
 40
0.0749194283
 40
0.0899363919
 40
0.1049710634
 40
0.1200261205
 40
0.1351041177
 40
0.1502074705
 40
0.165338445
 40
0.1804991437
 40
0.1956914918
 40
0.21091723
 40
0.2261779061
 40
0.2414748638
 40
0.2568092383
 40
0.2721819537
 40
0.287593716
 40
0.3030450104
 40
0.3185361039
 40
0.3340670439
 40
0.3652423167
 40
0.3965721964
 40
0.4280494165
 40
0.4596636006
 40
0.4914015142
 40
0.5232473741
 40
0.5551831985
 40
0.5871891855
 40
0.6192441282
 40
0.6513258427
 40
0.683411612
 40
0.7154786397
 40
0.7475045014
 40
0.7794675918
 40
0.8113475634
 40
0.8431257421
 40
0.8747855204
 40
0.9063127266
 40
0.9376959415
 40
0.9689266162
 40
1.0
 40
1.0
 40
1.0
 40
1.0
 10
10.5972647361
 20
8.1280080757
 30
0.0
 10
10.6027149605
 20
8.1332725938
 30
0.0
 10
10.6138270859
 20
8.143587202
 30
0.0
 10
10.631098796
 20
8.1583861532
 30
0.0
 10
10.6489520666
 20
8.1724935512
 30
0.0
 10
10.6673619665
 20
8.1858896855
 30
0.0
 10
10.6863032681
 20
8.198556189
 30
0.0
 10
10.7057498881
 20
8.210475593
 30
0.0
 10
10.7256750396
 20
8.2216315549
 30
0.0
 10
10.7460513057
 20
8.2320087228
 30
0.0
 10
10.7668506642
 20
8.2415927851
 30
0.0
 10
10.7880444679
 20
8.2503706122
 30
0.0
 10
10.8096035497
 20
8.2583301507
 30
0.0
 10
10.8314982607
 20
8.2654604151
 30
0.0
 10
10.8536984635
 20
8.2717516358
 30
0.0
 10
10.8761736058
 20
8.2771952057
 30
0.0
 10
10.898892777
 20
8.2817836152
 30
0.0
 10
10.9218247207
 20
8.2855105614
 30
0.0
 10
10.9449378859
 20
8.2883709839
 30
0.0
 10
10.9682004772
 20
8.290360949
 30
0.0
 10
10.9915805288
 20
8.291477694
 30
0.0
 10
11.0150457748
 20
8.291719772
 30
0.0
 10
11.0385643476
 20
8.2910868053
 30
0.0
 10
11.0699856975
 20
8.2890751753
 30
0.0
 10
11.1092398016
 20
8.2843713793
 30
0.0
 10
11.155970874
 20
8.2752769508
 30
0.0
 10
11.2021389674
 20
8.2627756504
 30
0.0
 10
11.2474888414
 20
8.2469365599
 30
0.0
 10
11.2917720626
 20
8.2278471106
 30
0.0
 10
11.3347454871
 20
8.2056124408
 30
0.0
 10
11.3761733169
 20
8.1803548373
 30
0.0
 10
11.4158282898
 20
8.1522132395
 30
0.0
 10
11.4534927734
 20
8.1213421836
 30
0.0
 10
11.4889601241
 20
8.0879112505
 30
0.0
 10
11.5220357086
 20
8.0521039751
 30
0.0
 10
11.5525379058
 20
8.0141168369
 30
0.0
 10
11.5802993056
 20
7.9741583577
 30
0.0
 10
11.6051673295
 20
7.9324477419
 30
0.0
 10
11.6270053079
 20
7.8892138721
 30
0.0
 10
11.6456931396
 20
7.8446940112
 30
0.0
 10
11.6611278215
 20
7.7991323757
 30
0.0
 10
11.6732243255
 20
7.7527793258
 30
0.0
 10
11.6819156733
 20
7.7058884647
 30
0.0
 10
11.6871537392
 20
7.6587206447
 30
0.0
 10
11.6883269657
 20
7.6271747394
 30
0.0
 10
11.6883269657
 20
7.6114476418
 30
0.0
  0
SPLINE
  5
345
100
AcDbEntity
  8
0
100
AcDbSpline
 62
7
  6
CONTINUOUS
 70
0
 71
3
 72
27
 73
23
 74
0
 42
0.0000001
 43
0.0000001
 44
0.0000000001
 40
0.0
 40
0.0
 40
0.0
 40
0.0
 40
0.0615218049
 40
0.0922944414
 40
0.1230771981
 40
0.1846797992
 40
0.2463621355
 40
0.2772442864
 40
0.3081556153
 40
0.3700708991
 40
0.4321363722
 40
0.4943720273
 40
0.5567956866
 40
0.6194227958
 40
0.6822662523
 40
0.7137754578
 40
0.7453423469
 40
0.8086463675
 40
0.8721889879
 40
0.9040533719
 40
0.935977819
 40
1.0
 40
1.0
 40
1.0
 40
1.0
 10
10.7753487524
 20
8.137355622
 30
0.0
 10
10.7819248669
 20
8.1437076557
 30
0.0
 10
10.7920717242
 20
8.1529519039
 30
0.0
 10
10.8061199447
 20
8.1646682049
 30
0.0
 10
10.8205134817
 20
8.175977912
 30
0.0
 10
10.8391290619
 20
8.1893322084
 30
0.0
 10
10.8585016945
 20
8.201590029
 30
0.0
 10
10.8744218878
 20
8.2107200583
 30
0.0
 10
10.8906299028
 20
8.2194022713
 30
0.0
 10
10.9113852813
 20
8.2293886372
 30
0.0
 10
10.9369849504
 20
8.2399403987
 30
0.0
 10
10.9632174814
 20
8.2490367384
 30
0.0
 10
10.9900046699
 20
8.2566504955
 30
0.0
 10
11.017266654
 20
8.262759197
 30
0.0
 10
11.0402947333
 20
8.2665774031
 30
0.0
 10
11.0588697254
 20
8.2688653445
 30
0.0
 10
11.0775692573
 20
8.2706434774
 30
0.0
 10
11.1010908823
 20
8.2718978836
 30
0.0
 10
11.1246898337
 20
8.2718594453
 30
0.0
 10
11.1435980373
 20
8.2710562004
 30
0.0
 10
11.1625481341
 20
8.2697353038
 30
0.0
 10
11.176729631
 20
8.2681662506
 30
0.0
 10
11.1861550506
 20
8.2668670198
 30
0.0
  0
SPLINE
  5
346
100
AcDbEntity
  8
0
100
AcDbSpline
 62
7
  6
CONTINUOUS
 70
0
 71
3
 72
23
 73
19
 74
0
 42
0.0000001
 43
0.0000001
 44
0.0000000001
 40
0.0
 40
0.0
 40
0.0
 40
0.0
 40
0.0617101436
 40
0.1234413945
 40
0.1852146442
 40
0.2470503545
 40
0.3089683499
 40
0.3709876203
 40
0.4331261332
 40
0.4954006601
 40
0.5578266118
 40
0.6204179016
 40
0.6831868196
 40
0.7461438598
 40
0.8092979876
 40
0.872655304
 40
0.9362225276
 40
1.0
 40
1.0
 40
1.0
 40
1.0
 10
11.5256750729
 20
7.3605607008
 30
0.0
 10
11.5314733538
 20
7.3661614055
 30
0.0
 10
11.5427857576
 20
7.3776653964
 30
0.0
 10
11.5588475055
 20
7.395774371
 30
0.0
 10
11.5739685654
 20
7.4146977323
 30
0.0
 10
11.5881134627
 20
7.4343912405
 30
0.0
 10
11.6012497541
 20
7.4548096149
 30
0.0
 10
11.6133471335
 20
7.4759056998
 30
0.0
 10
11.6243777493
 20
7.4976308367
 30
0.0
 10
11.6343161994
 20
7.5199349076
 30
0.0
 10
11.6431396088
 20
7.542766469
 30
0.0
 10
11.6508276746
 20
7.5660728697
 30
0.0
 10
11.6573627095
 20
7.589800358
 30
0.0
 10
11.6627297424
 20
7.6138942563
 30
0.0
 10
11.6669163883
 20
7.6382989049
 30
0.0
 10
11.6699132025
 20
7.6629584038
 30
0.0
 10
11.6717131258
 20
7.6878149928
 30
0.0
 10
11.6721118897
 20
7.7044535037
 30
0.0
 10
11.6721118897
 20
7.7127850801
 30
0.0
  0
SPLINE
  5
347
100
AcDbEntity
  8
0
100
AcDbSpline
 62
7
  6
CONTINUOUS
 70
0
 71
3
 72
37
 73
33
 74
0
 42
0.0000001
 43
0.0000001
 44
0.0000000001
 40
0.0
 40
0.0
 40
0.0
 40
0.0
 40
0.0063161056
 40
0.0126711335
 40
0.0191032106
 40
0.0256489991
 40
0.0392093745
 40
0.0536077711
 40
0.0690451722
 40
0.0856788319
 40
0.1036274206
 40
0.1229778506
 40
0.1437911075
 40
0.1661074541
 40
0.1899507493
 40
0.2153311921
 40
0.2422480356
 40
0.270691432
 40
0.3006435247
 40
0.3320799515
 40
0.3649704769
 40
0.399279593
 40
0.4349674002
 40
0.4719897169
 40
0.5102986224
 40
0.5498429193
 40
0.590568095
 40
0.6324168879
 40
0.7192412156
 40
0.8098111096
 40
0.903585601
 40
1.0
 40
1.0
 40
1.0
 40
1.0
 10
12.0731102676
 20
6.7684942291
 30
0.0
 10
12.0726082837
 20
6.7685290457
 30
0.0
 10
12.0716035923
 20
6.7686399841
 30
0.0
 10
12.0701078331
 20
6.7689291563
 30
0.0
 10
12.0686220263
 20
6.7693410766
 30
0.0
 10
12.066632493
 20
6.7700617067
 30
0.0
 10
12.0641603794
 20
6.7712868767
 30
0.0
 10
12.0612872764
 20
6.7732253513
 30
0.0
 10
12.0584742808
 20
6.7756433827
 30
0.0
 10
12.0557245013
 20
6.7785354549
 30
0.0
 10
12.0530403811
 20
6.7818964494
 30
0.0
 10
12.0504250728
 20
6.7857210601
 30
0.0
 10
12.0478819424
 20
6.7900034039
 30
0.0
 10
12.0454145849
 20
6.7947368836
 30
0.0
 10
12.0430267666
 20
6.7999141483
 30
0.0
 10
12.0407221947
 20
6.8055270128
 30
0.0
 10
12.0385045695
 20
6.8115665239
 30
0.0
 10
12.0363775331
 20
6.8180229677
 30
0.0
 10
12.0343445439
 20
6.824885875
 30
0.0
 10
12.0324089857
 20
6.8321440796
 30
0.0
 10
12.0305740769
 20
6.8397857265
 30
0.0
 10
12.0288428403
 20
6.8477982984
 30
0.0
 10
12.0272181879
 20
6.8561686531
 30
0.0
 10
12.0257028136
 20
6.864883037
 30
0.0
 10
12.0242992286
 20
6.873927119
 30
0.0
 10
12.0230098072
 20
6.8832860113
 30
0.0
 10
12.0218366457
 20
6.8929443152
 30
0.0
 10
12.0204126902
 20
6.9063649967
 30
0.0
 10
12.0189486539
 20
6.9237725704
 30
0.0
 10
12.017701437
 20
6.9453421462
 30
0.0
 10
12.0169517428
 20
6.9676989914
 30
0.0
 10
12.0167890309
 20
6.9828515008
 30
0.0
 10
12.0167890309
 20
6.9905326193
 30
0.0
  0
SPLINE
  5
348
100
AcDbEntity
  8
0
100
AcDbSpline
 62
7
  6
CONTINUOUS
 70
0
 71
3
 72
37
 73
33
 74
0
 42
0.0000001
 43
0.0000001
 44
0.0000000001
 40
0.0
 40
0.0
 40
0.0
 40
0.0
 40
0.0063161056
 40
0.0126711335
 40
0.0191032106
 40
0.0256489991
 40
0.0392093745
 40
0.0536077711
 40
0.0690451722
 40
0.0856788319
 40
0.1036274206
 40
0.1229778506
 40
0.1437911075
 40
0.1661074541
 40
0.1899507493
 40
0.2153311921
 40
0.2422480356
 40
0.270691432
 40
0.3006435247
 40
0.3320799515
 40
0.3649704769
 40
0.399279593
 40
0.4349674002
 40
0.4719897169
 40
0.5102986224
 40
0.5498429193
 40
0.590568095
 40
0.6324168879
 40
0.7192412156
 40
0.8098111096
 40
0.903585601
 40
1.0
 40
1.0
 40
1.0
 40
1.0
 10
12.0731102676
 20
8.4588644101
 30
0.0
 10
12.0726082837
 20
8.4588992267
 30
0.0
 10
12.0716035923
 20
8.4590101651
 30
0.0
 10
12.0701078331
 20
8.4592993373
 30
0.0
 10
12.0686220263
 20
8.4597112576
 30
0.0
 10
12.066632493
 20
8.4604318877
 30
0.0
 10
12.0641603794
 20
8.4616570578
 30
0.0
 10
12.0612872764
 20
8.4635955323
 30
0.0
 10
12.0584742808
 20
8.4660135637
 30
0.0
 10
12.0557245013
 20
8.468905636
 30
0.0
 10
12.0530403811
 20
8.4722666304
 30
0.0
 10
12.0504250728
 20
8.4760912411
 30
0.0
 10
12.0478819424
 20
8.4803735849
 30
0.0
 10
12.0454145849
 20
8.4851070646
 30
0.0
 10
12.0430267666
 20
8.4902843293
 30
0.0
 10
12.0407221947
 20
8.4958971938
 30
0.0
 10
12.0385045695
 20
8.5019367049
 30
0.0
 10
12.0363775331
 20
8.5083931488
 30
0.0
 10
12.0343445439
 20
8.515256056
 30
0.0
 10
12.0324089857
 20
8.5225142607
 30
0.0
 10
12.0305740769
 20
8.5301559075
 30
0.0
 10
12.0288428403
 20
8.5381684794
 30
0.0
 10
12.0272181879
 20
8.5465388341
 30
0.0
 10
12.0257028136
 20
8.555253218
 30
0.0
 10
12.0242992286
 20
8.5642973
 30
0.0
 10
12.0230098072
 20
8.5736561923
 30
0.0
 10
12.0218366457
 20
8.5833144962
 30
0.0
 10
12.0204126902
 20
8.5967351777
 30
0.0
 10
12.0189486539
 20
8.6141427514
 30
0.0
 10
12.017701437
 20
8.6357123272
 30
0.0
 10
12.0169517428
 20
8.6580691724
 30
0.0
 10
12.0167890309
 20
8.6732216818
 30
0.0
 10
12.0167890309
 20
8.6809028003
 30
0.0
  0
SPLINE
  5
349
100
AcDbEntity
  8
0
100
AcDbSpline
 62
7
  6
CONTINUOUS
 70
0
 71
3
 72
39
 73
35
 74
0
 42
0.0000001
 43
0.0000001
 44
0.0000000001
 40
0.0
 40
0.0
 40
0.0
 40
0.0
 40
0.029942471
 40
0.0599093183
 40
0.0899243244
 40
0.1200101034
 40
0.1501875624
 40
0.1804754148
 40
0.2108897596
 40
0.2414437361
 40
0.2721472598
 40
0.3030068424
 40
0.3340254951
 40
0.3652027149
 40
0.3965345496
 40
0.4280137343
 40
0.459629891
 40
0.4913697854
 40
0.5232176334
 40
0.5551554501
 40
0.5871634341
 40
0.6192203766
 40
0.6513040925
 40
0.6833918636
 40
0.7154608915
 40
0.7474887505
 40
0.7794538351
 40
0.8113357956
 40
0.8431159562
 40
0.8747777121
 40
0.9063068677
 40
0.9376920929
 40
0.9689246489
 40
1.0
 40
1.0
 40
1.0
 40
1.0
 10
9.6823075371
 20
9.1240923067
 30
0.0
 10
9.688138817
 20
9.1297248669
 30
0.0
 10
9.7002598674
 20
9.1405354514
 30
0.0
 10
9.7196797018
 20
9.155262938
 30
0.0
 10
9.7402384997
 20
9.1684283656
 30
0.0
 10
9.7618214008
 20
9.1799578663
 30
0.0
 10
9.7843097474
 20
9.1897884407
 30
0.0
 10
9.807579425
 20
9.1978660544
 30
0.0
 10
9.8315022
 20
9.2041465219
 30
0.0
 10
9.855946275
 20
9.208595557
 30
0.0
 10
9.880777067
 20
9.2111889911
 30
0.0
 10
9.9058579387
 20
9.2119128724
 30
0.0
 10
9.9310509499
 20
9.2107635345
 30
0.0
 10
9.9562176155
 20
9.2077476233
 30
0.0
 10
9.9812196612
 20
9.2028820138
 30
0.0
 10
10.0059197716
 20
9.1961937091
 30
0.0
 10
10.0301823343
 20
9.1877196843
 30
0.0
 10
10.0538741692
 20
9.1775066736
 30
0.0
 10
10.0768652592
 20
9.165610935
 30
0.0
 10
10.099029454
 20
9.15209793
 30
0.0
 10
10.1202451456
 20
9.1370419495
 30
0.0
 10
10.1403959274
 20
9.1205257125
 30
0.0
 10
10.1593712227
 20
9.1026399152
 30
0.0
 10
10.1770668855
 20
9.0834827403
 30
0.0
 10
10.1933857875
 20
9.0631593415
 30
0.0
 10
10.208238325
 20
9.041781248
 30
0.0
 10
10.221542906
 20
9.0194657636
 30
0.0
 10
10.2332263944
 20
8.9963353273
 30
0.0
 10
10.2432245069
 20
8.9725168651
 30
0.0
 10
10.2514821743
 20
8.9481410574
 30
0.0
 10
10.2579538881
 20
8.9233418204
 30
0.0
 10
10.2626038059
 20
8.8982548693
 30
0.0
 10
10.2654062412
 20
8.8730197363
 30
0.0
 10
10.2660339144
 20
8.8561424531
 30
0.0
 10
10.2660339144
 20
8.8477283317
 30
0.0
  0
SPLINE
  5
34A
100
AcDbEntity
  8
0
100
AcDbSpline
 62
7
  6
CONTINUOUS
 70
0
 71
3
 72
23
 73
19
 74
0
 42
0.0000001
 43
0.0000001
 44
0.0000000001
 40
0.0
 40
0.0
 40
0.0
 40
0.0
 40
0.0617101439
 40
0.1234413935
 40
0.1852146431
 40
0.2470503547
 40
0.3089683495
 40
0.3709876176
 40
0.4331261309
 40
0.4954006615
 40
0.5578266134
 40
0.6204179128
 40
0.6831867943
 40
0.7461438773
 40
0.8092980348
 40
0.872655047
 40
0.9362230873
 40
1.0
 40
1.0
 40
1.0
 40
1.0
 10
10.1707143956
 20
8.6184563496
 30
0.0
 10
10.1744886531
 20
8.6221019871
 30
0.0
 10
10.1818521732
 20
8.6295902499
 30
0.0
 10
10.192307186
 20
8.6413778455
 30
0.0
 10
10.2021498816
 20
8.6536955477
 30
0.0
 10
10.2113571578
 20
8.6665145657
 30
0.0
 10
10.2199079046
 20
8.6798054183
 30
0.0
 10
10.227782407
 20
8.6935374037
 30
0.0
 10
10.2349625333
 20
8.7076788523
 30
0.0
 10
10.2414317255
 20
8.722197152
 30
0.0
 10
10.247175095
 20
8.7370588148
 30
0.0
 10
10.252179449
 20
8.7522295547
 30
0.0
 10
10.2564332933
 20
8.7676743873
 30
0.0
 10
10.259926843
 20
8.7833577321
 30
0.0
 10
10.2626520179
 20
8.7992433338
 30
0.0
 10
10.2646027426
 20
8.815294885
 30
0.0
 10
10.265774329
 20
8.8314746812
 30
0.0
 10
10.2660339144
 20
8.8423051403
 30
0.0
 10
10.2660339144
 20
8.8477283317
 30
0.0
  0
SPLINE
  5
34B
100
AcDbEntity
  8
0
100
AcDbSpline
 62
7
  6
CONTINUOUS
 70
0
 71
3
 72
25
 73
21
 74
0
 42
0.0000001
 43
0.0000001
 44
0.0000000001
 40
0.0
 40
0.0
 40
0.0
 40
0.0
 40
0.0197908571
 40
0.039700639
 40
0.0598423206
 40
0.0803231301
 40
0.1226741564
 40
0.1674871064
 40
0.2153257948
 40
0.2666160309
 40
0.3216634765
 40
0.380675548
 40
0.443778293
 40
0.5110337872
 40
0.5824542666
 40
0.6580108399
 40
0.7376407544
 40
0.8212566961
 40
0.9087570949
 40
1.0
 40
1.0
 40
1.0
 40
1.0
 10
11.4563850186
 20
7.7154323829
 30
0.0
 10
11.4562742844
 20
7.7150124945
 30
0.0
 10
11.4560189155
 20
7.7141785616
 30
0.0
 10
11.4555371427
 20
7.7129557637
 30
0.0
 10
11.4549564045
 20
7.7117598063
 30
0.0
 10
11.454040866
 20
7.7101845316
 30
0.0
 10
11.4526344151
 20
7.7082768551
 30
0.0
 10
11.4505783672
 20
7.7061346942
 30
0.0
 10
11.4481416402
 20
7.7041159016
 30
0.0
 10
11.445331137
 20
7.7022244532
 30
0.0
 10
11.4421538677
 20
7.7004648069
 30
0.0
 10
11.4386176802
 20
7.6988426951
 30
0.0
 10
11.4347313815
 20
7.6973647913
 30
0.0
 10
11.4305048709
 20
7.6960386112
 30
0.0
 10
11.4259491412
 20
7.6948723259
 30
0.0
 10
11.4210762758
 20
7.6938747
 30
0.0
 10
11.4158994365
 20
7.6930548602
 30
0.0
 10
11.4104325987
 20
7.6924222476
 30
0.0
 10
11.4046911394
 20
7.691986651
 30
0.0
 10
11.40077102
 20
7.6918370643
 30
0.0
 10
11.3987694151
 20
7.6917961891
 30
0.0
  0
SPLINE
  5
34C
100
AcDbEntity
  8
0
100
AcDbSpline
 62
7
  6
CONTINUOUS
 70
0
 71
3
 72
49
 73
45
 74
0
 42
0.0000001
 43
0.0000001
 44
0.0000000001
 40
0.0
 40
0.0
 40
0.0
 40
0.0
 40
0.0148236798
 40
0.0289053787
 40
0.0422515494
 40
0.0548788195
 40
0.0668347259
 40
0.0782051543
 40
0.0891344054
 40
0.094505803
 40
0.0998587176
 40
0.1052366708
 40
0.1106893684
 40
0.1162717841
 40
0.1220443499
 40
0.128071411
 40
0.1344200976
 40
0.141159853
 40
0.148360821
 40
0.1560936779
 40
0.1644294712
 40
0.1734384538
 40
0.1831900356
 40
0.1937527641
 40
0.2051917818
 40
0.2175697446
 40
0.2309427179
 40
0.2453604178
 40
0.2608607359
 40
0.2774705445
 40
0.2951982613
 40
0.3140366056
 40
0.3339566032
 40
0.3768284883
 40
0.4232329479
 40
0.4724117753
 40
0.5235776578
 40
0.5760302923
 40
0.6292126612
 40
0.6827161772
 40
0.7362582225
 40
0.7896528679
 40
0.8955687774
 40
1.0
 40
1.0
 40
1.0
 40
1.0
 10
11.0296851257
 20
8.1658384852
 30
0.0
 10
11.029152836
 20
8.1655098868
 30
0.0
 10
11.0280982511
 20
8.16489542
 30
0.0
 10
11.0265044995
 20
8.1640932746
 30
0.0
 10
11.0249423956
 20
8.1634430361
 30
0.0
 10
11.0234150861
 20
8.1629565484
 30
0.0
 10
11.0219265802
 20
8.1626464935
 30
0.0
 10
11.0204816259
 20
8.162528285
 30
0.0
 10
11.0193109586
 20
8.1626067417
 30
0.0
 10
11.0184137898
 20
8.1627857044
 30
0.0
 10
11.0177614428
 20
8.1629795495
 30
0.0
 10
11.017127593
 20
8.1632366849
 30
0.0
 10
11.0165137286
 20
8.1635599656
 30
0.0
 10
11.0159218719
 20
8.1639530465
 30
0.0
 10
11.0153541888
 20
8.1644195067
 30
0.0
 10
11.0148126618
 20
8.1649627626
 30
0.0
 10
11.014299724
 20
8.1655868659
 30
0.0
 10
11.0138181531
 20
8.1662961467
 30
0.0
 10
11.0133704237
 20
8.167094862
 30
0.0
 10
11.0129596895
 20
8.1679878579
 30
0.0
 10
11.0125893938
 20
8.1689801558
 30
0.0
 10
11.0122628971
 20
8.1700768359
 30
0.0
 10
11.0119844199
 20
8.1712832694
 30
0.0
 10
11.0117580991
 20
8.1726046618
 30
0.0
 10
11.0115885608
 20
8.1740461345
 30
0.0
 10
11.011480669
 20
8.1756123681
 30
0.0
 10
11.0114393448
 20
8.1773074613
 30
0.0
 10
11.0114697033
 20
8.1791345249
 30
0.0
 10
11.0115765405
 20
8.181095486
 30
0.0
 10
11.0117645336
 20
8.1831905843
 30
0.0
 10
11.012037567
 20
8.1854182572
 30
0.0
 10
11.0123989008
 20
8.1877747252
 30
0.0
 10
11.0130165491
 20
8.1911640178
 30
0.0
 10
11.014023848
 20
8.1956626786
 30
0.0
 10
11.0155569637
 20
8.2013023466
 30
0.0
 10
11.0174167077
 20
8.2072107028
 30
0.0
 10
11.0195651493
 20
8.2132913689
 30
0.0
 10
11.0219597901
 20
8.2194607131
 30
0.0
 10
11.0245594663
 20
8.2256534317
 30
0.0
 10
11.0273279084
 20
8.2318228344
 30
0.0
 10
11.0302349322
 20
8.2379379776
 30
0.0
 10
11.0342527521
 20
8.2459720278
 30
0.0
 10
11.0395016224
 20
8.2557888622
 30
0.0
 10
11.0439294934
 20
8.2634836835
 30
0.0
 10
11.0461798551
 20
8.2672727139
 30
0.0
  0
SPLINE
  5
34D
100
AcDbEntity
  8
0
100
AcDbSpline
 62
7
  6
CONTINUOUS
 70
0
 71
3
 72
23
 73
19
 74
0
 42
0.0000001
 43
0.0000001
 44
0.0000000001
 40
0.0
 40
0.0
 40
0.0
 40
0.0
 40
0.0617101439
 40
0.1234413935
 40
0.1852146431
 40
0.2470503547
 40
0.3089683495
 40
0.3709876176
 40
0.4331261309
 40
0.4954006615
 40
0.5578266134
 40
0.6204179128
 40
0.6831867943
 40
0.7461438773
 40
0.8092980348
 40
0.872655047
 40
0.9362230873
 40
1.0
 40
1.0
 40
1.0
 40
1.0
 10
9.990086278
 20
7.3028348623
 30
0.0
 10
9.9938605355
 20
7.3064804998
 30
0.0
 10
10.0012240555
 20
7.3139687626
 30
0.0
 10
10.0116790684
 20
7.3257563581
 30
0.0
 10
10.0215217639
 20
7.3380740604
 30
0.0
 10
10.0307290402
 20
7.3508930784
 30
0.0
 10
10.039279787
 20
7.364183931
 30
0.0
 10
10.0471542894
 20
7.3779159163
 30
0.0
 10
10.0543344156
 20
7.392057365
 30
0.0
 10
10.0608036079
 20
7.4065756647
 30
0.0
 10
10.0665469774
 20
7.4214373275
 30
0.0
 10
10.0715513313
 20
7.4366080674
 30
0.0
 10
10.0758051757
 20
7.4520529
 30
0.0
 10
10.0792987253
 20
7.4677362447
 30
0.0
 10
10.0820239002
 20
7.4836218465
 30
0.0
 10
10.0839746249
 20
7.4996733976
 30
0.0
 10
10.0851462114
 20
7.5158531939
 30
0.0
 10
10.0854057967
 20
7.526683653
 30
0.0
 10
10.0854057967
 20
7.5321068444
 30
0.0
  0
SPLINE
  5
34E
100
AcDbEntity
  8
0
100
AcDbSpline
 62
7
  6
CONTINUOUS
 70
0
 71
3
 72
39
 73
35
 74
0
 42
0.0000001
 43
0.0000001
 44
0.0000000001
 40
0.0
 40
0.0
 40
0.0
 40
0.0
 40
0.029942471
 40
0.0599093183
 40
0.0899243244
 40
0.1200101034
 40
0.1501875624
 40
0.1804754148
 40
0.2108897596
 40
0.2414437361
 40
0.2721472598
 40
0.3030068424
 40
0.3340254951
 40
0.3652027149
 40
0.3965345496
 40
0.4280137343
 40
0.459629891
 40
0.4913697854
 40
0.5232176334
 40
0.5551554501
 40
0.5871634341
 40
0.6192203766
 40
0.6513040925
 40
0.6833918636
 40
0.7154608915
 40
0.7474887505
 40
0.7794538351
 40
0.8113357956
 40
0.8431159562
 40
0.8747777121
 40
0.9063068677
 40
0.9376920929
 40
0.9689246489
 40
1.0
 40
1.0
 40
1.0
 40
1.0
 10
9.5016794194
 20
7.8084708193
 30
0.0
 10
9.5075106994
 20
7.8141033796
 30
0.0
 10
9.5196317497
 20
7.824913964
 30
0.0
 10
9.5390515842
 20
7.8396414507
 30
0.0
 10
9.5596103821
 20
7.8528068783
 30
0.0
 10
9.5811932831
 20
7.864336379
 30
0.0
 10
9.6036816297
 20
7.8741669534
 30
0.0
 10
9.6269513074
 20
7.8822445671
 30
0.0
 10
9.6508740823
 20
7.8885250345
 30
0.0
 10
9.6753181573
 20
7.8929740696
 30
0.0
 10
9.7001489494
 20
7.8955675038
 30
0.0
 10
9.725229821
 20
7.8962913851
 30
0.0
 10
9.7504228322
 20
7.8951420472
 30
0.0
 10
9.7755894979
 20
7.892126136
 30
0.0
 10
9.8005915435
 20
7.8872605264
 30
0.0
 10
9.825291654
 20
7.8805722218
 30
0.0
 10
9.8495542167
 20
7.872098197
 30
0.0
 10
9.8732460516
 20
7.8618851862
 30
0.0
 10
9.8962371415
 20
7.8499894477
 30
0.0
 10
9.9184013363
 20
7.8364764427
 30
0.0
 10
9.939617028
 20
7.8214204621
 30
0.0
 10
9.9597678097
 20
7.8049042252
 30
0.0
 10
9.978743105
 20
7.7870184278
 30
0.0
 10
9.9964387678
 20
7.767861253
 30
0.0
 10
10.0127576699
 20
7.7475378542
 30
0.0
 10
10.0276102073
 20
7.7261597607
 30
0.0
 10
10.0409147883
 20
7.7038442763
 30
0.0
 10
10.0525982768
 20
7.6807138399
 30
0.0
 10
10.0625963892
 20
7.6568953778
 30
0.0
 10
10.0708540566
 20
7.6325195701
 30
0.0
 10
10.0773257704
 20
7.6077203331
 30
0.0
 10
10.0819756883
 20
7.582633382
 30
0.0
 10
10.0847781236
 20
7.557398249
 30
0.0
 10
10.0854057967
 20
7.5405209658
 30
0.0
 10
10.0854057967
 20
7.5321068444
 30
0.0
  0
SPLINE
  5
34F
100
AcDbEntity
  8
0
100
AcDbSpline
 62
7
  6
CONTINUOUS
 70
0
 71
3
 72
57
 73
53
 74
0
 42
0.0000001
 43
0.0000001
 44
0.0000000001
 40
0.0
 40
0.0
 40
0.0
 40
0.0
 40
0.0110807287
 40
0.0227020996
 40
0.0348712767
 40
0.0475935612
 40
0.0608711023
 40
0.0747018738
 40
0.0890810007
 40
0.1040007649
 40
0.11945113
 40
0.1354193773
 40
0.1518907442
 40
0.1688481323
 40
0.2041424885
 40
0.2411273668
 40
0.2795979793
 40
0.3193229993
 40
0.3600474599
 40
0.4014963086
 40
0.4433787894
 40
0.485393195
 40
0.5272316953
 40
0.5685890014
 40
0.6091683359
 40
0.6486858795
 40
0.686875889
 40
0.7234949811
 40
0.7583256476
 40
0.7750103384
 40
0.7911796394
 40
0.8068149467
 40
0.8218997848
 40
0.8364199508
 40
0.8503636486
 40
0.8637216551
 40
0.8764875294
 40
0.8886578797
 40
0.9002326955
 40
0.9112157674
 40
0.9216152135
 40
0.9314441326
 40
0.9407213874
 40
0.949472531
 40
0.957730896
 40
0.9655386456
 40
0.9692903552
 40
0.9729498098
 40
0.9800228441
 40
0.9868328161
 40
0.9934620434
 40
1.0
 40
1.0
 40
1.0
 40
1.0
 10
11.2196270217
 20
7.9030323141
 30
0.0
 10
11.2207311426
 20
7.9027412009
 30
0.0
 10
11.2229791405
 20
7.9020902755
 30
0.0
 10
11.2263868844
 20
7.9009473634
 30
0.0
 10
11.2299079679
 20
7.8996188166
 30
0.0
 10
11.233540689
 20
7.8981092329
 30
0.0
 10
11.2372834816
 20
7.8964232213
 30
0.0
 10
11.2411346832
 20
7.8945659501
 30
0.0
 10
11.2450923277
 20
7.8925427483
 30
0.0
 10
11.2491543952
 20
7.8903594463
 30
0.0
 10
11.2533185838
 20
7.8880220515
 30
0.0
 10
11.2575824346
 20
7.8855369686
 30
0.0
 10
11.2619431787
 20
7.8829108346
 30
0.0
 10
11.2679630985
 20
7.879180558
 30
0.0
 10
11.275697211
 20
7.8742049112
 30
0.0
 10
11.2851883693
 20
7.8678665722
 30
0.0
 10
11.2949722255
 20
7.8611464517
 30
0.0
 10
11.3050052631
 20
7.8541097219
 30
0.0
 10
11.3152371353
 20
7.8468226865
 30
0.0
 10
11.3256107295
 20
7.8393517713
 30
0.0
 10
11.3360625718
 20
7.8317622477
 30
0.0
 10
11.3465234901
 20
7.8241170028
 30
0.0
 10
11.356919814
 20
7.8164751755
 30
0.0
 10
11.3671748161
 20
7.8088908605
 30
0.0
 10
11.3772103001
 20
7.8014120673
 30
0.0
 10
11.3869479878
 20
7.7940800798
 30
0.0
 10
11.396310891
 20
7.7869291452
 30
0.0
 10
11.40522449
 20
7.7799863591
 30
0.0
 10
11.4123170472
 20
7.7743129054
 30
0.0
 10
11.4177051842
 20
7.7698837609
 30
0.0
 10
11.4215327364
 20
7.7666715335
 30
0.0
 10
11.4251973577
 20
7.7635220961
 30
0.0
 10
11.428691833
 20
7.7604360083
 30
0.0
 10
11.4320093126
 20
7.7574135894
 30
0.0
 10
11.4351433027
 20
7.7544549211
 30
0.0
 10
11.438087676
 20
7.7515598865
 30
0.0
 10
11.4408366735
 20
7.7487281993
 30
0.0
 10
11.4433849089
 20
7.7459594346
 30
0.0
 10
11.4457273688
 20
7.7432530567
 30
0.0
 10
11.447859412
 20
7.7406084443
 30
0.0
 10
11.4497767654
 20
7.7380249159
 30
0.0
 10
11.4514755149
 20
7.7355017445
 30
0.0
 10
11.4529520884
 20
7.7330382044
 30
0.0
 10
11.454203233
 20
7.7306335106
 30
0.0
 10
11.4552258972
 20
7.7282871147
 30
0.0
 10
11.4558941803
 20
7.7263545948
 30
0.0
 10
11.4563066099
 20
7.7248409755
 30
0.0
 10
11.4566316883
 20
7.7233837814
 30
0.0
 10
11.4568966345
 20
7.7215921503
 30
0.0
 10
11.4569796489
 20
7.7194756284
 30
0.0
 10
11.4568228245
 20
7.7174183978
 30
0.0
 10
11.456556822
 20
7.7160838368
 30
0.0
 10
11.4563850186
 20
7.7154323829
 30
0.0
  0
SPLINE
  5
350
100
AcDbEntity
  8
0
100
AcDbSpline
 62
7
  6
CONTINUOUS
 70
0
 71
3
 72
14
 73
10
 74
0
 42
0.0000001
 43
0.0000001
 44
0.0000000001
 40
0.0
 40
0.0
 40
0.0
 40
0.0
 40
0.1216435027
 40
0.2448800383
 40
0.3694065597
 40
0.4949094859
 40
0.6210616515
 40
0.7475297935
 40
1.0
 40
1.0
 40
1.0
 40
1.0
 10
11.1793175064
 20
7.8166469316
 30
0.0
 10
11.1786505675
 20
7.8129107858
 30
0.0
 10
11.1774968824
 20
7.8053545746
 30
0.0
 10
11.1763112279
 20
7.7938862674
 30
0.0
 10
11.1756632271
 20
7.7822542588
 30
0.0
 10
11.1755559216
 20
7.7705140447
 30
0.0
 10
11.1759898677
 20
7.7587203114
 30
0.0
 10
11.177286241
 20
7.7430116213
 30
0.0
 10
11.1790607427
 20
7.7313009092
 30
0.0
 10
11.1805981891
 20
7.7235754846
 30
0.0
  0
SPLINE
  5
351
100
AcDbEntity
  8
0
100
AcDbSpline
 62
7
  6
CONTINUOUS
 70
0
 71
3
 72
15
 73
11
 74
0
 42
0.0000001
 43
0.0000001
 44
0.0000000001
 40
0.0
 40
0.0
 40
0.0
 40
0.0
 40
0.1372493754
 40
0.2715353493
 40
0.4025013281
 40
0.5298495877
 40
0.6533593462
 40
0.7728954474
 40
0.8884181778
 40
1.0
 40
1.0
 40
1.0
 40
1.0
 10
11.1793175064
 20
7.8166469316
 30
0.0
 10
11.1800946704
 20
7.8210005516
 30
0.0
 10
11.1818849932
 20
7.8295711971
 30
0.0
 10
11.1853149417
 20
7.8420872986
 30
0.0
 10
11.1894406996
 20
7.8540558089
 30
0.0
 10
11.1942354014
 20
7.8653970797
 30
0.0
 10
11.199667828
 20
7.8760361695
 30
0.0
 10
11.2057031594
 20
7.8859028161
 30
0.0
 10
11.2123015246
 20
7.8949305895
 30
0.0
 10
11.2171309827
 20
7.900444541
 30
0.0
 10
11.2196270217
 20
7.9030323141
 30
0.0
  0
SPLINE
  5
352
100
AcDbEntity
  8
0
100
AcDbSpline
 62
7
  6
CONTINUOUS
 70
0
 71
3
 72
13
 73
9
 74
0
 42
0.0000001
 43
0.0000001
 44
0.0000000001
 40
0.0
 40
0.0
 40
0.0
 40
0.0
 40
0.2521204804
 40
0.5027522125
 40
0.6275617162
 40
0.7520269825
 40
0.8761668095
 40
1.0
 40
1.0
 40
1.0
 40
1.0
 10
9.7809727348
 20
9.0821951833
 30
0.0
 10
9.7809727348
 20
9.0919117958
 30
0.0
 10
9.781805326
 20
9.1112976672
 30
0.0
 10
9.784948054
 20
9.1353112576
 30
0.0
 10
9.7887079968
 20
9.1542124487
 30
0.0
 10
9.7921397732
 20
9.1681936511
 30
0.0
 10
9.7961805875
 20
9.1819714228
 30
0.0
 10
9.7992796039
 20
9.1910158086
 30
0.0
 10
9.8009279136
 20
9.1954946041
 30
0.0
  0
SPLINE
  5
353
100
AcDbEntity
  8
0
100
AcDbSpline
 62
7
  6
CONTINUOUS
 70
0
 71
3
 72
41
 73
37
 74
0
 42
0.0000001
 43
0.0000001
 44
0.0000000001
 40
0.0
 40
0.0
 40
0.0
 40
0.0
 40
0.0308069277
 40
0.061742793
 40
0.0928045338
 40
0.1239876398
 40
0.1552856447
 40
0.186690552
 40
0.2181928352
 40
0.249781631
 40
0.2814448832
 40
0.3131695221
 40
0.3449416454
 40
0.3767467107
 40
0.4085697331
 40
0.4403954869
 40
0.4722087098
 40
0.5039943075
 40
0.5357375565
 40
0.5674243032
 40
0.5990411587
 40
0.6305756845
 40
0.66201657
 40
0.693353798
 40
0.724578796
 40
0.7556845716
 40
0.7866658293
 40
0.8175190666
 40
0.8482426469
 40
0.8635576288
 40
0.8788404627
 40
0.9093074916
 40
0.939651484
 40
0.9547810193
 40
0.9698822086
 40
1.0
 40
1.0
 40
1.0
 40
1.0
 10
9.7809727348
 20
9.0821951833
 30
0.0
 10
9.7809727348
 20
9.0752881716
 30
0.0
 10
9.7813954039
 20
9.0614416358
 30
0.0
 10
9.7832856431
 20
9.0407086311
 30
0.0
 10
9.7864263631
 20
9.0200419387
 30
0.0
 10
9.7908057816
 20
8.9995191938
 30
0.0
 10
9.7964076013
 20
8.9792161469
 30
0.0
 10
9.8032109618
 20
8.9592080986
 30
0.0
 10
9.8111905864
 20
8.9395691425
 30
0.0
 10
9.8203168417
 20
8.9203720256
 30
0.0
 10
9.8305558633
 20
8.9016878462
 30
0.0
 10
9.8418696749
 20
8.8835858016
 30
0.0
 10
9.854216331
 20
8.8661329321
 30
0.0
 10
9.8675500709
 20
8.8493938752
 30
0.0
 10
9.8818214875
 20
8.8334306279
 30
0.0
 10
9.8969777092
 20
8.8183023187
 30
0.0
 10
9.9129625949
 20
8.8040649904
 30
0.0
 10
9.9297169397
 20
8.7907713934
 30
0.0
 10
9.9471786934
 20
8.778470792
 30
0.0
 10
9.9652831881
 20
8.7672087827
 30
0.0
 10
9.9839633759
 20
8.7570271261
 30
0.0
 10
10.003150075
 20
8.7479635924
 30
0.0
 10
10.0227722245
 20
8.7400518225
 30
0.0
 10
10.0427571411
 20
8.7333212021
 30
0.0
 10
10.0630308014
 20
8.7277967537
 30
0.0
 10
10.0835180554
 20
8.7234990407
 30
0.0
 10
10.1041431177
 20
8.7204440957
 30
0.0
 10
10.1248290463
 20
8.718643338
 30
0.0
 10
10.1420741974
 20
8.7181930776
 30
0.0
 10
10.1558218039
 20
8.7184663918
 30
0.0
 10
10.1694970855
 20
8.7191592272
 30
0.0
 10
10.1864890999
 20
8.7208107831
 30
0.0
 10
10.2033116095
 20
8.7235113171
 30
0.0
 10
10.2166067056
 20
8.7262936362
 30
0.0
 10
10.2297578474
 20
8.7294810917
 30
0.0
 10
10.2394952073
 20
8.7323358319
 30
0.0
 10
10.2459111022
 20
8.7344412102
 30
0.0
  0
SPLINE
  5
354
100
AcDbEntity
  8
0
100
AcDbSpline
 62
7
  6
CONTINUOUS
 70
0
 71
3
 72
23
 73
19
 74
0
 42
0.0000001
 43
0.0000001
 44
0.0000000001
 40
0.0
 40
0.0
 40
0.0
 40
0.0
 40
0.0637009368
 40
0.1272126838
 40
0.1905342952
 40
0.253671455
 40
0.3166284144
 40
0.3794117887
 40
0.4420293548
 40
0.5044901987
 40
0.5668046797
 40
0.6289843155
 40
0.691041716
 40
0.7529904858
 40
0.8148451194
 40
0.8766208847
 40
0.9383336992
 40
1.0
 40
1.0
 40
1.0
 40
1.0
 10
10.4856168039
 20
7.763718766
 30
0.0
 10
10.4856168039
 20
7.7728657029
 30
0.0
 10
10.486011888
 20
7.7911349291
 30
0.0
 10
10.4877947279
 20
7.8184442647
 30
0.0
 10
10.490763818
 20
7.8455693733
 30
0.0
 10
10.4949133977
 20
7.8724584665
 30
0.0
 10
10.5002358864
 20
7.8990614769
 30
0.0
 10
10.5067212903
 20
7.9253283623
 30
0.0
 10
10.5143574825
 20
7.9512098734
 30
0.0
 10
10.5231301655
 20
7.9766574387
 30
0.0
 10
10.5330229122
 20
8.0016233008
 30
0.0
 10
10.544017204
 20
8.0260605976
 30
0.0
 10
10.5560924515
 20
8.049923446
 30
0.0
 10
10.5692260132
 20
8.073167067
 30
0.0
 10
10.5833932194
 20
8.095747789
 30
0.0
 10
10.5985676361
 20
8.1176233673
 30
0.0
 10
10.6147202974
 20
8.1387521712
 30
0.0
 10
10.6261252287
 20
8.1523189953
 30
0.0
 10
10.6319787888
 20
8.1589630119
 30
0.0
  0
SPLINE
  5
355
100
AcDbEntity
  8
0
100
AcDbSpline
 62
7
  6
CONTINUOUS
 70
0
 71
3
 72
23
 73
19
 74
0
 42
0.0000001
 43
0.0000001
 44
0.0000000001
 40
0.0
 40
0.0
 40
0.0
 40
0.0
 40
0.0637774724
 40
0.127344696
 40
0.1907020124
 40
0.2538561402
 40
0.3168131804
 40
0.3795820984
 40
0.4421733882
 40
0.5045993399
 40
0.5668738668
 40
0.6290123797
 40
0.6910316501
 40
0.7529496455
 40
0.8147853558
 40
0.8765586055
 40
0.9382898564
 40
1.0
 40
1.0
 40
1.0
 40
1.0
 10
10.6289119355
 20
7.7851312427
 30
0.0
 10
10.6289119355
 20
7.7934628191
 30
0.0
 10
10.6293106994
 20
7.81010133
 30
0.0
 10
10.6311106227
 20
7.834957919
 30
0.0
 10
10.634107437
 20
7.8596174179
 30
0.0
 10
10.6382940828
 20
7.8840220665
 30
0.0
 10
10.6436611158
 20
7.9081159648
 30
0.0
 10
10.6501961506
 20
7.9318434531
 30
0.0
 10
10.6578842165
 20
7.9551498538
 30
0.0
 10
10.6667076259
 20
7.9779814152
 30
0.0
 10
10.676646076
 20
8.0002854861
 30
0.0
 10
10.6876766917
 20
8.022010623
 30
0.0
 10
10.6997740711
 20
8.0431067079
 30
0.0
 10
10.7129103625
 20
8.0635250824
 30
0.0
 10
10.7270552599
 20
8.0832185905
 30
0.0
 10
10.7421763198
 20
8.1021419518
 30
0.0
 10
10.7582380677
 20
8.1202509264
 30
0.0
 10
10.7695504714
 20
8.1317549173
 30
0.0
 10
10.7753487524
 20
8.137355622
 30
0.0
  0
SPLINE
  5
356
100
AcDbEntity
  8
0
100
AcDbSpline
 62
7
  6
CONTINUOUS
 70
0
 71
3
 72
50
 73
46
 74
0
 42
0.0000001
 43
0.0000001
 44
0.0000000001
 40
0.0
 40
0.0
 40
0.0
 40
0.0
 40
0.0417738954
 40
0.0840375015
 40
0.126658999
 40
0.1695072728
 40
0.2124490406
 40
0.2553511879
 40
0.2980805661
 40
0.3405047668
 40
0.3824925704
 40
0.4239144964
 40
0.4646433325
 40
0.504554679
 40
0.5435274987
 40
0.5814446837
 40
0.6181936452
 40
0.6536669372
 40
0.6877629283
 40
0.7203865442
 40
0.7514501111
 40
0.7808743474
 40
0.8085895768
 40
0.8217881241
 40
0.8345385176
 40
0.8468355036
 40
0.8586748141
 40
0.8700533313
 40
0.8809690507
 40
0.8914214953
 40
0.9014115725
 40
0.9109421624
 40
0.9200180335
 40
0.9286464829
 40
0.9368375013
 40
0.9446043826
 40
0.9519642537
 40
0.9589386378
 40
0.9655543111
 40
0.9718437858
 40
0.9778461759
 40
0.9836073377
 40
0.9891800243
 40
0.9946230608
 40
1.0
 40
1.0
 40
1.0
 40
1.0
 10
12.1705274168
 20
7.1390325055
 30
0.0
 10
12.1705274168
 20
7.1334917378
 30
0.0
 10
12.1704409695
 20
7.1223450745
 30
0.0
 10
12.1700588314
 20
7.1055491575
 30
0.0
 10
12.1694245488
 20
7.0886182418
 30
0.0
 10
12.1685402399
 20
7.071608492
 30
0.0
 10
12.167408799
 20
7.0545760857
 30
0.0
 10
12.1660339818
 20
7.0375774155
 30
0.0
 10
12.164420335
 20
7.0206687038
 30
0.0
 10
12.1625732107
 20
7.0039058942
 30
0.0
 10
12.1604987359
 20
6.9873444382
 30
0.0
 10
12.1582037973
 20
6.9710391183
 30
0.0
 10
12.1556960178
 20
6.955043863
 30
0.0
 10
12.1529837328
 20
6.9394115655
 30
0.0
 10
12.1500759617
 20
6.9241939066
 30
0.0
 10
12.1469823793
 20
6.9094411805
 30
0.0
 10
12.1437132838
 20
6.8952021234
 30
0.0
 10
12.1402795636
 20
6.8815237485
 30
0.0
 10
12.1366926616
 20
6.8684511761
 30
0.0
 10
12.1329645351
 20
6.8560274943
 30
0.0
 10
12.1291076185
 20
6.8442935264
 30
0.0
 10
12.1251347578
 20
6.8332879327
 30
0.0
 10
12.1216845796
 20
6.8246176861
 30
0.0
 10
12.1188688732
 20
6.8180800127
 30
0.0
 10
12.1167708031
 20
6.8134609943
 30
0.0
 10
12.1146537162
 20
6.8090497905
 30
0.0
 10
12.1125193208
 20
6.8048500218
 30
0.0
 10
12.1103694122
 20
6.8008651166
 30
0.0
 10
12.1082057044
 20
6.797098348
 30
0.0
 10
12.1060300265
 20
6.7935527595
 30
0.0
 10
12.1038440766
 20
6.7902312585
 30
0.0
 10
12.1016496821
 20
6.7871364989
 30
0.0
 10
12.099448529
 20
6.7842710037
 30
0.0
 10
12.0972423865
 20
6.7816370486
 30
0.0
 10
12.0950329218
 20
6.7792367598
 30
0.0
 10
12.0928217883
 20
6.7770720731
 30
0.0
 10
12.0906106059
 20
6.7751447375
 30
0.0
 10
12.0884008777
 20
6.7734564332
 30
0.0
 10
12.0861941552
 20
6.7720086251
 30
0.0
 10
12.0839918524
 20
6.7708028797
 30
0.0
 10
12.0817955412
 20
6.7698405502
 30
0.0
 10
12.0796068548
 20
6.7691231852
 30
0.0
 10
12.0774276422
 20
6.7686520741
 30
0.0
 10
12.075260521
 20
6.7684284255
 30
0.0
 10
12.07382174
 20
6.7684448827
 30
0.0
 10
12.0731102676
 20
6.7684942291
 30
0.0
  0
SPLINE
  5
357
100
AcDbEntity
  8
0
100
AcDbSpline
 62
7
  6
CONTINUOUS
 70
0
 71
3
 72
43
 73
39
 74
0
 42
0.0000001
 43
0.0000001
 44
0.0000000001
 40
0.0
 40
0.0
 40
0.0
 40
0.0
 40
0.0309202825
 40
0.0619810447
 40
0.0931790821
 40
0.1245080736
 40
0.1559598399
 40
0.1875240469
 40
0.2191885196
 40
0.2509394355
 40
0.2827615672
 40
0.3146385386
 40
0.3465530936
 40
0.3784873755
 40
0.4104232131
 40
0.4423424101
 40
0.4742270357
 40
0.5060597114
 40
0.5378238915
 40
0.5695041344
 40
0.6010863606
 40
0.6325580952
 40
0.6639086901
 40
0.695129521
 40
0.7262141567
 40
0.7571584973
 40
0.7879608756
 40
0.8186221208
 40
0.8339029551
 40
0.8491499693
 40
0.8643639736
 40
0.8795459224
 40
0.9098137239
 40
0.9399683677
 40
0.9550094307
 40
0.9700271215
 40
0.9850233171
 40
1.0
 40
1.0
 40
1.0
 40
1.0
 10
10.8069792916
 20
7.9571311109
 30
0.0
 10
10.8069792916
 20
7.9455580761
 30
0.0
 10
10.8077518976
 20
7.9223522609
 30
0.0
 10
10.8112048831
 20
7.8876241545
 30
0.0
 10
10.8169389628
 20
7.8530427461
 30
0.0
 10
10.8249287498
 20
7.8187623345
 30
0.0
 10
10.8351387538
 20
7.7849334425
 30
0.0
 10
10.8475238368
 20
7.751705182
 30
0.0
 10
10.8620292776
 20
7.7192238367
 30
0.0
 10
10.8785910428
 20
7.6876324259
 30
0.0
 10
10.8971360723
 20
7.6570700265
 30
0.0
 10
10.917582608
 20
7.6276711869
 30
0.0
 10
10.9398405499
 20
7.599565336
 30
0.0
 10
10.9638118499
 20
7.5728762207
 30
0.0
 10
10.9893909417
 20
7.5477213686
 30
0.0
 10
11.0164651868
 20
7.524211559
 30
0.0
 10
11.0449153769
 20
7.5024503454
 30
0.0
 10
11.0746162599
 20
7.4825336099
 30
0.0
 10
11.105437084
 20
7.4645491433
 30
0.0
 10
11.1372421665
 20
7.4485762601
 30
0.0
 10
11.1698914856
 20
7.4346854543
 30
0.0
 10
11.203241284
 20
7.4229380717
 30
0.0
 10
11.2371446912
 20
7.41338604
 30
0.0
 10
11.2714524003
 20
7.4060716557
 30
0.0
 10
11.3060131932
 20
7.4010273756
 30
0.0
 10
11.3406750533
 20
7.3982757281
 30
0.0
 10
11.3752841436
 20
7.3978289862
 30
0.0
 10
11.4039902479
 20
7.3993815545
 30
0.0
 10
11.4267705539
 20
7.4017764669
 30
0.0
 10
11.4437301386
 20
7.4041433911
 30
0.0
 10
11.460562807
 20
7.4070803356
 30
0.0
 10
11.4827875103
 20
7.4117467387
 30
0.0
 10
11.5101684616
 20
7.4189850527
 30
0.0
 10
11.5369330743
 20
7.4280849036
 30
0.0
 10
11.557865154
 20
7.4364478524
 30
0.0
 10
11.5732999331
 20
7.4432497919
 30
0.0
 10
11.5884644361
 20
7.4505785838
 30
0.0
 10
11.5983895698
 20
7.4558137387
 30
0.0
 10
11.6033007469
 20
7.4585160905
 30
0.0
  0
SPLINE
  5
358
100
AcDbEntity
  8
0
100
AcDbSpline
 62
7
  6
CONTINUOUS
 70
0
 71
3
 72
15
 73
11
 74
0
 42
0.0000001
 43
0.0000001
 44
0.0000000001
 40
0.0
 40
0.0
 40
0.0
 40
0.0
 40
0.1268026816
 40
0.2530372138
 40
0.3787199841
 40
0.5038739791
 40
0.6285329036
 40
0.752738808
 40
0.8765419821
 40
1.0
 40
1.0
 40
1.0
 40
1.0
 10
10.8069792916
 20
7.9571311109
 30
0.0
 10
10.8069792916
 20
7.9683947416
 30
0.0
 10
10.8077078363
 20
7.9908785731
 30
0.0
 10
10.810999261
 20
8.0243813756
 30
0.0
 10
10.8164730811
 20
8.0574508271
 30
0.0
 10
10.8241065958
 20
8.0899456767
 30
0.0
 10
10.8338677023
 20
8.1217290835
 30
0.0
 10
10.8457157561
 20
8.1526672233
 30
0.0
 10
10.8595999011
 20
8.1826276807
 30
0.0
 10
10.8701899974
 20
8.2018931191
 30
0.0
 10
10.8758013888
 20
8.2113152784
 30
0.0
  0
SPLINE
  5
359
100
AcDbEntity
  8
0
100
AcDbSpline
 62
7
  6
CONTINUOUS
 70
0
 71
3
 72
15
 73
11
 74
0
 42
0.0000001
 43
0.0000001
 44
0.0000000001
 40
0.0
 40
0.0
 40
0.0
 40
0.0
 40
0.1269217366
 40
0.2532267895
 40
0.3789359499
 40
0.5040788944
 40
0.6286983953
 40
0.7528479497
 40
0.8765910699
 40
1.0
 40
1.0
 40
1.0
 40
1.0
 10
10.8195363281
 20
7.9562602775
 30
0.0
 10
10.8195363281
 20
7.9681924761
 30
0.0
 10
10.8203740409
 20
7.9920077054
 30
0.0
 10
10.8241594887
 20
8.0274597738
 30
0.0
 10
10.8304521383
 20
8.0623860384
 30
0.0
 10
10.8392212346
 20
8.0966106091
 30
0.0
 10
10.8504233775
 20
8.1299635439
 30
0.0
 10
10.864003553
 20
8.16227922
 30
0.0
 10
10.879893
 20
8.1933945767
 30
0.0
 10
10.8919902376
 20
8.2132625061
 30
0.0
 10
10.8983922018
 20
8.222938256
 30
0.0
  0
SPLINE
  5
35A
100
AcDbEntity
  8
0
100
AcDbSpline
 62
7
  6
CONTINUOUS
 70
0
 71
3
 72
19
 73
15
 74
0
 42
0.0000001
 43
0.0000001
 44
0.0000000001
 40
0.0
 40
0.0
 40
0.0
 40
0.0
 40
0.1269788673
 40
0.2533113913
 40
0.3790211814
 40
0.5041427314
 40
0.5665093346
 40
0.6287483294
 40
0.6908677816
 40
0.7528764391
 40
0.814783709
 40
0.8765996107
 40
0.9383346947
 40
1.0
 40
1.0
 40
1.0
 40
1.0
 10
10.8343855672
 20
7.9601035419
 30
0.0
 10
10.8343855672
 20
7.9723659997
 30
0.0
 10
10.8352882331
 20
7.9968384149
 30
0.0
 10
10.8393678486
 20
8.0332459825
 30
0.0
 10
10.8461471065
 20
8.0690676488
 30
0.0
 10
10.854026249
 20
8.0983025016
 30
0.0
 10
10.8616365446
 20
8.1211918039
 30
0.0
 10
10.867983492
 20
8.1380751126
 30
0.0
 10
10.874966405
 20
8.1546677157
 30
0.0
 10
10.8825758979
 20
8.1709472242
 30
0.0
 10
10.890801512
 20
8.1868912738
 30
0.0
 10
10.8996320305
 20
8.2024781854
 30
0.0
 10
10.9090552568
 20
8.2176862856
 30
0.0
 10
10.9157277895
 20
8.2275643608
 30
0.0
 10
10.9191578769
 20
8.2324323557
 30
0.0
  0
SPLINE
  5
35B
100
AcDbEntity
  8
0
100
AcDbSpline
 62
7
  6
CONTINUOUS
 70
0
 71
3
 72
15
 73
11
 74
0
 42
0.0000001
 43
0.0000001
 44
0.0000000001
 40
0.0
 40
0.0
 40
0.0
 40
0.0
 40
0.1268161449
 40
0.2530587956
 40
0.3787448209
 40
0.5038978674
 40
0.6285525722
 40
0.7527521565
 40
0.8765482683
 40
1.0
 40
1.0
 40
1.0
 40
1.0
 10
10.8700542876
 20
7.9945568821
 30
0.0
 10
10.8700542876
 20
8.0054313222
 30
0.0
 10
10.8707642463
 20
8.0271379501
 30
0.0
 10
10.8739717844
 20
8.0594792943
 30
0.0
 10
10.879305849
 20
8.0913957834
 30
0.0
 10
10.8867439027
 20
8.1227485156
 30
0.0
 10
10.8962540778
 20
8.1534029622
 30
0.0
 10
10.907796026
 20
8.1832276092
 30
0.0
 10
10.9213192747
 20
8.2120923895
 30
0.0
 10
10.9316320976
 20
8.2306397048
 30
0.0
 10
10.9370958585
 20
8.2397066503
 30
0.0
  0
SPLINE
  5
35C
100
AcDbEntity
  8
0
100
AcDbSpline
 62
7
  6
CONTINUOUS
 70
0
 71
3
 72
21
 73
17
 74
0
 42
0.0000001
 43
0.0000001
 44
0.0000000001
 40
0.0
 40
0.0
 40
0.0
 40
0.0
 40
0.1270486164
 40
0.2534157354
 40
0.3163645148
 40
0.3791539147
 40
0.441789869
 40
0.5042790516
 40
0.5666290787
 40
0.6288484966
 40
0.6909466941
 40
0.7529338602
 40
0.8148209059
 40
0.8766194105
 40
0.9383415499
 40
1.0
 40
1.0
 40
1.0
 40
1.0
 10
10.9288420339
 20
8.0033414879
 30
0.0
 10
10.9288420339
 20
8.0150762714
 30
0.0
 10
10.9297532084
 20
8.0384927944
 30
0.0
 10
10.9331910621
 20
8.0675429304
 30
0.0
 10
10.9373068752
 20
8.0904672771
 30
0.0
 10
10.9410659028
 20
8.1074604185
 30
0.0
 10
10.9454950766
 20
8.1242472341
 30
0.0
 10
10.9505876469
 20
8.1408024807
 30
0.0
 10
10.9563358637
 20
8.1571008781
 30
0.0
 10
10.9627310533
 20
8.173117606
 30
0.0
 10
10.9697634415
 20
8.1888282864
 30
0.0
 10
10.9774223266
 20
8.2042090104
 30
0.0
 10
10.9856961022
 20
8.2192363
 30
0.0
 10
10.9945722006
 20
8.2338873721
 30
0.0
 10
11.0040368539
 20
8.2481396214
 30
0.0
 10
11.0107330209
 20
8.2573656048
 30
0.0
 10
11.0141735856
 20
8.2619039017
 30
0.0
  0
SPLINE
  5
35D
100
AcDbEntity
  8
0
100
AcDbSpline
 62
7
  6
CONTINUOUS
 70
0
 71
3
 72
28
 73
24
 74
0
 42
0.0000001
 43
0.0000001
 44
0.0000000001
 40
0.0
 40
0.0
 40
0.0
 40
0.0
 40
0.0809649918
 40
0.1599746967
 40
0.2369439819
 40
0.3117874669
 40
0.3844126797
 40
0.4547216965
 40
0.5226108494
 40
0.5879626076
 40
0.6506528438
 40
0.7105352029
 40
0.7674503749
 40
0.7947375814
 40
0.821212729
 40
0.8468455723
 40
0.8716059577
 40
0.8954653942
 40
0.9183875637
 40
0.9403367415
 40
0.9612802405
 40
0.9811780746
 40
1.0
 40
1.0
 40
1.0
 40
1.0
 10
11.106633135
 20
8.2715515237
 30
0.0
 10
11.1048258786
 20
8.2684955378
 30
0.0
 10
11.1012494284
 20
8.2624606626
 30
0.0
 10
11.0959228798
 20
8.253539642
 30
0.0
 10
11.0906919586
 20
8.2448742734
 30
0.0
 10
11.085550813
 20
8.2364819346
 30
0.0
 10
11.080493934
 20
8.228380814
 30
0.0
 10
11.0755163752
 20
8.2205901926
 30
0.0
 10
11.070614024
 20
8.2131307772
 30
0.0
 10
11.065783398
 20
8.2060251252
 30
0.0
 10
11.0610225894
 20
8.1992981076
 30
0.0
 10
11.05633059
 20
8.1929779165
 30
0.0
 10
11.0524262318
 20
8.1880090031
 30
0.0
 10
11.0493310454
 20
8.1842704694
 30
0.0
 10
11.0470610114
 20
8.1816304495
 30
0.0
 10
11.0448104367
 20
8.1791207368
 30
0.0
 10
11.0425803681
 20
8.1767478141
 30
0.0
 10
11.0403724671
 20
8.1745185555
 30
0.0
 10
11.0381883169
 20
8.1724410108
 30
0.0
 10
11.0360299893
 20
8.1705241199
 30
0.0
 10
11.0339004575
 20
8.1687773826
 30
0.0
 10
11.0318025424
 20
8.1672125044
 30
0.0
 10
11.0303874377
 20
8.1662720436
 30
0.0
 10
11.0296851257
 20
8.1658384852
 30
0.0
  0
SPLINE
  5
35E
100
AcDbEntity
  8
0
100
AcDbSpline
 62
7
  6
CONTINUOUS
 70
0
 71
3
 72
46
 73
42
 74
0
 42
0.0000001
 43
0.0000001
 44
0.0000000001
 40
0.0
 40
0.0
 40
0.0
 40
0.0
 40
0.0310302702
 40
0.0622128425
 40
0.0935434882
 40
0.1250143632
 40
0.156615069
 40
0.1883326519
 40
0.2201519008
 40
0.2520556608
 40
0.2840251754
 40
0.3160404517
 40
0.348080639
 40
0.3801244214
 40
0.4121504161
 40
0.4441375727
 40
0.4760655668
 40
0.5079151847
 40
0.5396686957
 40
0.5713102001
 40
0.602825951
 40
0.6342046496
 40
0.6654376949
 40
0.6965193898
 40
0.7274471012
 40
0.7582213578
 40
0.7888458829
 40
0.8041066368
 40
0.8193328019
 40
0.8345257186
 40
0.8496869063
 40
0.8648180577
 40
0.8799210339
 40
0.8949978501
 40
0.9100506672
 40
0.9250817828
 40
0.9400936151
 40
0.9550886909
 40
0.9700696341
 40
0.9850391479
 40
1.0
 40
1.0
 40
1.0
 40
1.0
 10
10.4856168039
 20
7.763718766
 30
0.0
 10
10.4856168039
 20
7.7484790897
 30
0.0
 10
10.486718286
 20
7.7179139147
 30
0.0
 10
10.4916375788
 20
7.6722000037
 30
0.0
 10
10.4998019918
 20
7.6267310648
 30
0.0
 10
10.5111691644
 20
7.5817446527
 30
0.0
 10
10.5256799742
 20
7.5374719686
 30
0.0
 10
10.5432592546
 20
7.4941414648
 30
0.0
 10
10.5638161359
 20
7.4519764543
 30
0.0
 10
10.587244349
 20
7.4111942501
 30
0.0
 10
10.6134229189
 20
7.3720050125
 30
0.0
 10
10.642216816
 20
7.3346107498
 30
0.0
 10
10.6734774862
 20
7.299204167
 30
0.0
 10
10.7070437301
 20
7.2659677543
 30
0.0
 10
10.7427425621
 20
7.235072916
 30
0.0
 10
10.7803899583
 20
7.2066789535
 30
0.0
 10
10.819791884
 20
7.1809323259
 30
0.0
 10
10.8607453192
 20
7.1579659814
 30
0.0
 10
10.9030391874
 20
7.1378985145
 30
0.0
 10
10.9464554919
 20
7.1208336258
 30
0.0
 10
10.9907704567
 20
7.1068596918
 30
0.0
 10
11.03575558
 20
7.0960491285
 30
0.0
 10
11.0811788884
 20
7.0884580793
 30
0.0
 10
11.1268059402
 20
7.0841262014
 30
0.0
 10
11.1724016886
 20
7.0830764157
 30
0.0
 10
11.2177290994
 20
7.0853142593
 30
0.0
 10
11.2551333262
 20
7.0899162763
 30
0.0
 10
11.2846788557
 20
7.0952260856
 30
0.0
 10
11.3066026262
 20
7.1000107954
 30
0.0
 10
11.3282855167
 20
7.1055958806
 30
0.0
 10
11.3496998856
 20
7.1119742307
 30
0.0
 10
11.370817957
 20
7.11913761
 30
0.0
 10
11.3916124913
 20
7.127076722
 30
0.0
 10
11.4120565874
 20
7.1357813821
 30
0.0
 10
11.4321238271
 20
7.1452403485
 30
0.0
 10
11.4517883004
 20
7.155441356
 30
0.0
 10
11.4710245695
 20
7.166371298
 30
0.0
 10
11.4898077509
 20
7.1780160282
 30
0.0
 10
11.5081136885
 20
7.1903605317
 30
0.0
 10
11.5259183512
 20
7.2033886489
 30
0.0
 10
11.5374420452
 20
7.2125213147
 30
0.0
 10
11.5431116384
 20
7.2171949845
 30
0.0
  0
SPLINE
  5
35F
100
AcDbEntity
  8
0
100
AcDbSpline
 62
7
  6
CONTINUOUS
 70
0
 71
3
 72
47
 73
43
 74
0
 42
0.0000001
 43
0.0000001
 44
0.0000000001
 40
0.0
 40
0.0
 40
0.0
 40
0.0
 40
0.0310739092
 40
0.0623050493
 40
0.093688793
 40
0.1252165054
 40
0.1568767965
 40
0.1886554889
 40
0.2205359759
 40
0.252499584
 40
0.2845259636
 40
0.3165935101
 40
0.3486797987
 40
0.3807620323
 40
0.4128174943
 40
0.4448239996
 40
0.4767603407
 40
0.5086067173
 40
0.5403451453
 40
0.5719598413
 40
0.6034375724
 40
0.6347679604
 40
0.6659437388
 40
0.6969609577
 40
0.7278191155
 40
0.7585212212
 40
0.7738184273
 40
0.7890793501
 40
0.8043053363
 40
0.819497931
 40
0.8346588746
 40
0.8497900954
 40
0.8648936935
 40
0.8799719343
 40
0.8950272361
 40
0.9100621516
 40
0.925079358
 40
0.9400816404
 40
0.9550718718
 40
0.9700530002
 40
0.9850280299
 40
1.0
 40
1.0
 40
1.0
 40
1.0
 10
10.6289119355
 20
7.7851312427
 30
0.0
 10
10.6289119355
 20
7.7722048568
 30
0.0
 10
10.6298762217
 20
7.746276732
 30
0.0
 10
10.6341815089
 20
7.7075086782
 30
0.0
 10
10.6413250468
 20
7.6689682645
 30
0.0
 10
10.6512673683
 20
7.6308698715
 30
0.0
 10
10.6639534338
 20
7.5934219797
 30
0.0
 10
10.6793132514
 20
7.556830313
 30
0.0
 10
10.6972622613
 20
7.521295635
 30
0.0
 10
10.7177017413
 20
7.4870129615
 30
0.0
 10
10.7405192941
 20
7.4541703704
 30
0.0
 10
10.7655895794
 20
7.422948074
 30
0.0
 10
10.7927749715
 20
7.3935174402
 30
0.0
 10
10.8219262052
 20
7.3660399693
 30
0.0
 10
10.85288329
 20
7.3406664939
 30
0.0
 10
10.885476388
 20
7.3175363954
 30
0.0
 10
10.9195266564
 20
7.2967767484
 30
0.0
 10
10.9548472502
 20
7.2785016468
 30
0.0
 10
10.9912443762
 20
7.2628116657
 30
0.0
 10
11.0285183029
 20
7.2497932555
 30
0.0
 10
11.0664644108
 20
7.2395181807
 30
0.0
 10
11.1048743966
 20
7.2320432605
 30
0.0
 10
11.1435372061
 20
7.2274100113
 30
0.0
 10
11.1822407969
 20
7.2256443829
 30
0.0
 10
11.2207709581
 20
7.2267562597
 30
0.0
 10
11.2526029118
 20
7.2300811663
 30
0.0
 10
11.2777614224
 20
7.2341700964
 30
0.0
 10
11.2964349229
 20
7.2379414058
 30
0.0
 10
11.3149075909
 20
7.2424155161
 30
0.0
 10
11.3331543409
 20
7.2475863882
 30
0.0
 10
11.3511499806
 20
7.2534468825
 30
0.0
 10
11.3688697893
 20
7.2599889108
 30
0.0
 10
11.3862893455
 20
7.2672035675
 30
0.0
 10
11.4033846999
 20
7.27508088
 30
0.0
 10
11.4201323359
 20
7.2836100047
 30
0.0
 10
11.4365091651
 20
7.2927792897
 30
0.0
 10
11.4524926836
 20
7.3025760531
 30
0.0
 10
11.4680608966
 20
7.3129868357
 30
0.0
 10
11.483192316
 20
7.3239973529
 30
0.0
 10
11.4978662412
 20
7.3355924572
 30
0.0
 10
11.5120621805
 20
7.3477559523
 30
0.0
 10
11.5211954341
 20
7.3562337056
 30
0.0
 10
11.5256750729
 20
7.3605607008
 30
0.0
  0
SPLINE
  5
360
100
AcDbEntity
  8
0
100
AcDbSpline
 62
7
  6
CONTINUOUS
 70
0
 71
3
 72
43
 73
39
 74
0
 42
0.0000001
 43
0.0000001
 44
0.0000000001
 40
0.0
 40
0.0
 40
0.0
 40
0.0
 40
0.0309485948
 40
0.0620406286
 40
0.093272685
 40
0.124638059
 40
0.1561280529
 40
0.1877317075
 40
0.219436121
 40
0.2512266705
 40
0.2830872772
 40
0.3150006856
 40
0.3469487586
 40
0.3789127818
 40
0.4108737765
 40
0.4428128141
 40
0.4747113311
 40
0.5065514381
 40
0.5383162228
 40
0.5699900405
 40
0.6015587898
 40
0.6330101668
 40
0.6643338962
 40
0.6955219342
 40
0.7265686398
 40
0.7574709078
 40
0.788228259
 40
0.818842886
 40
0.8341003909
 40
0.8493242608
 40
0.8645155082
 40
0.8796753067
 40
0.909901273
 40
0.9400191537
 40
0.9550444074
 40
0.9700482213
 40
0.9850326877
 40
1.0
 40
1.0
 40
1.0
 40
1.0
 10
10.8195363281
 20
7.9562602775
 30
0.0
 10
10.8195363281
 20
7.9447320427
 30
0.0
 10
10.8203219339
 20
7.9216147108
 30
0.0
 10
10.8238324051
 20
7.8870240771
 30
0.0
 10
10.8296611284
 20
7.8525890424
 30
0.0
 10
10.8377812147
 20
7.8184696557
 30
0.0
 10
10.8481550973
 20
7.7848219738
 30
0.0
 10
10.8607350054
 20
7.7518004934
 30
0.0
 10
10.8754630273
 20
7.7195566369
 30
0.0
 10
10.8922714344
 20
7.6882382876
 30
0.0
 10
10.9110829968
 20
7.6579890643
 30
0.0
 10
10.9318113335
 20
7.6289476858
 30
0.0
 10
10.954361309
 20
7.6012473412
 30
0.0
 10
10.9786294546
 20
7.5750150787
 30
0.0
 10
11.0045044291
 20
7.550371213
 30
0.0
 10
11.0318675504
 20
7.5274288
 30
0.0
 10
11.0605933298
 20
7.5062931201
 30
0.0
 10
11.0905500416
 20
7.4870612005
 30
0.0
 10
11.1216003202
 20
7.4698213751
 30
0.0
 10
11.1536017672
 20
7.4546528494
 30
0.0
 10
11.1864076153
 20
7.441625365
 30
0.0
 10
11.2198673953
 20
7.4307988825
 30
0.0
 10
11.253827607
 20
7.4222233022
 30
0.0
 10
11.2881324482
 20
7.4159382439
 30
0.0
 10
11.3226243882
 20
7.4119728096
 30
0.0
 10
11.3571453619
 20
7.4103455253
 30
0.0
 10
11.3915357364
 20
7.4110639895
 30
0.0
 10
11.419990233
 20
7.4136185032
 30
0.0
 10
11.4425243897
 20
7.4168296977
 30
0.0
 10
11.4592769706
 20
7.4198147337
 30
0.0
 10
11.4758794478
 20
7.4233757129
 30
0.0
 10
11.4977665629
 20
7.428879798
 30
0.0
 10
11.5246659843
 20
7.4371761827
 30
0.0
 10
11.5508624496
 20
7.4473428299
 30
0.0
 10
11.5712880519
 20
7.4565588973
 30
0.0
 10
11.5863181524
 20
7.4639998939
 30
0.0
 10
11.6010517559
 20
7.4719658275
 30
0.0
 10
11.6106710142
 20
7.4776236491
 30
0.0
 10
11.6154248052
 20
7.4805365646
 30
0.0
  0
SPLINE
  5
361
100
AcDbEntity
  8
0
100
AcDbSpline
 62
7
  6
CONTINUOUS
 70
0
 71
3
 72
42
 73
38
 74
0
 42
0.0000001
 43
0.0000001
 44
0.0000000001
 40
0.0
 40
0.0
 40
0.0
 40
0.0
 40
0.0309664565
 40
0.0620782184
 40
0.0933317265
 40
0.1247200295
 40
0.1562340915
 40
0.1878625482
 40
0.2195920266
 40
0.2514073874
 40
0.2832920027
 40
0.3152280527
 40
0.3471968365
 40
0.379179095
 40
0.41115534
 40
0.4431061858
 40
0.475012679
 40
0.506856624
 40
0.5386209001
 40
0.5702897636
 40
0.6018491332
 40
0.6332868528
 40
0.6645929289
 40
0.6957597373
 40
0.7267821909
 40
0.742240692
 40
0.7576624269
 40
0.7883916534
 40
0.8189775369
 40
0.8494259474
 40
0.8797454395
 40
0.894862645
 40
0.9099519896
 40
0.9250152255
 40
0.9400542425
 40
0.9700628065
 40
1.0
 40
1.0
 40
1.0
 40
1.0
 10
10.8343855672
 20
7.9601035419
 30
0.0
 10
10.8343855672
 20
7.9486607032
 30
0.0
 10
10.8351753497
 20
7.9257137688
 30
0.0
 10
10.8387040919
 20
7.8913813322
 30
0.0
 10
10.8445626275
 20
7.8572093921
 30
0.0
 10
10.8527232319
 20
7.8233608427
 30
0.0
 10
10.8631471911
 20
7.7899944654
 30
0.0
 10
10.8757852703
 20
7.7572673885
 30
0.0
 10
10.8905777898
 20
7.7253335197
 30
0.0
 10
10.9074549885
 20
7.6943430698
 30
0.0
 10
10.9263373392
 20
7.6644417917
 30
0.0
 10
10.9471359247
 20
7.6357703231
 30
0.0
 10
10.9697528469
 20
7.6084635264
 30
0.0
 10
10.9940816571
 20
7.5826498363
 30
0.0
 10
11.0200078892
 20
7.5584506863
 30
0.0
 10
11.0474095886
 20
7.5359799427
 30
0.0
 10
11.0761578812
 20
7.5153433763
 30
0.0
 10
11.1061175662
 20
7.4966381642
 30
0.0
 10
11.1371477316
 20
7.4799524037
 30
0.0
 10
11.1691024274
 20
7.4653647367
 30
0.0
 10
11.201831371
 20
7.4529439764
 30
0.0
 10
11.2351805246
 20
7.4427487905
 30
0.0
 10
11.268993253
 20
7.434827401
 30
0.0
 10
11.3031093883
 20
7.4292173673
 30
0.0
 10
11.3316961568
 20
7.4264873314
 30
0.0
 10
11.3545525832
 20
7.4254845217
 30
0.0
 10
11.3773215645
 20
7.4252684836
 30
0.0
 10
11.4056769735
 20
7.426467121
 30
0.0
 10
11.4394005448
 20
7.4302592509
 30
0.0
 10
11.4726254376
 20
7.4363854355
 30
0.0
 10
11.4997968257
 20
7.4434201582
 30
0.0
 10
11.5211202201
 20
7.4501817664
 30
0.0
 10
11.5368776824
 20
7.4558086755
 30
0.0
 10
11.5523952241
 20
7.4619892425
 30
0.0
 10
11.5727241396
 20
7.4709507253
 30
0.0
 10
11.5974562036
 20
7.4835007009
 30
0.0
 10
11.6164458606
 20
7.4949500407
 30
0.0
 10
11.6257039221
 20
7.5010053889
 30
0.0
  0
SPLINE
  5
362
100
AcDbEntity
  8
0
100
AcDbSpline
 62
7
  6
CONTINUOUS
 70
0
 71
3
 72
43
 73
39
 74
0
 42
0.0000001
 43
0.0000001
 44
0.0000000001
 40
0.0
 40
0.0
 40
0.0
 40
0.0
 40
0.0309230566
 40
0.0619868819
 40
0.0931882515
 40
0.1245208071
 40
0.1559763197
 40
0.1875443952
 40
0.2192127887
 40
0.2509676005
 40
0.2827935212
 40
0.3146740897
 40
0.3465919645
 40
0.3785292058
 40
0.4104675632
 40
0.4423887689
 40
0.4742748293
 40
0.506108315
 40
0.5378726427
 40
0.5695523483
 40
0.6011333474
 40
0.6326031784
 40
0.6639512258
 40
0.6951689176
 40
0.7262498951
 40
0.7571901504
 40
0.7879881273
 40
0.8186447833
 40
0.8339233078
 40
0.8491680201
 40
0.8643797502
 40
0.8795594736
 40
0.9098230315
 40
0.9399738803
 40
0.9550132791
 40
0.9700294821
 40
0.9850243884
 40
1.0
 40
1.0
 40
1.0
 40
1.0
 10
10.8700542876
 20
7.9945568821
 30
0.0
 10
10.8700542876
 20
7.983465098
 30
0.0
 10
10.8707962689
 20
7.9612241421
 30
0.0
 10
10.8741123278
 20
7.9279404421
 30
0.0
 10
10.8796189504
 20
7.894798219
 30
0.0
 10
10.8872916576
 20
7.8619459468
 30
0.0
 10
10.8970962306
 20
7.8295284593
 30
0.0
 10
10.9089891489
 20
7.7976892237
 30
0.0
 10
10.9229176538
 20
7.766568974
 30
0.0
 10
10.938820009
 20
7.7363052883
 30
0.0
 10
10.9566257815
 20
7.7070319357
 30
0.0
 10
10.9762561559
 20
7.6788783094
 30
0.0
 10
10.9976242808
 20
7.6519688569
 30
0.0
 10
11.0206356489
 20
7.6264225359
 30
0.0
 10
11.045188513
 20
7.6023522961
 30
0.0
 10
11.0711743154
 20
7.579864566
 30
0.0
 10
11.0984781802
 20
7.5590587982
 30
0.0
 10
11.1269794179
 20
7.5400270364
 30
0.0
 10
11.1565520521
 20
7.5228535112
 30
0.0
 10
11.1870653705
 20
7.5076142691
 30
0.0
 10
11.2183844959
 20
7.4943768408
 30
0.0
 10
11.250370969
 20
7.4831999197
 30
0.0
 10
11.2828833553
 20
7.4741331163
 30
0.0
 10
11.315777895
 20
7.4672167455
 30
0.0
 10
11.3489090125
 20
7.4624816273
 30
0.0
 10
11.3821303889
 20
7.4599490059
 30
0.0
 10
11.4152939825
 20
7.4596302252
 30
0.0
 10
11.4427946568
 20
7.4612131015
 30
0.0
 10
11.4646140738
 20
7.4635861723
 30
0.0
 10
11.4808560853
 20
7.4659138063
 30
0.0
 10
11.4969742641
 20
7.4687885389
 30
0.0
 10
11.5182524771
 20
7.473341655
 30
0.0
 10
11.5444612708
 20
7.4803815609
 30
0.0
 10
11.5700710869
 20
7.4892072742
 30
0.0
 10
11.5900942487
 20
7.4973063569
 30
0.0
 10
11.6048559127
 20
7.5038885362
 30
0.0
 10
11.6193559981
 20
7.5109757173
 30
0.0
 10
11.6288440473
 20
7.5160352651
 30
0.0
 10
11.633538386
 20
7.5186462528
 30
0.0
  0
SPLINE
  5
363
100
AcDbEntity
  8
0
100
AcDbSpline
 62
7
  6
CONTINUOUS
 70
0
 71
3
 72
39
 73
35
 74
0
 42
0.0000001
 43
0.0000001
 44
0.0000000001
 40
0.0
 40
0.0
 40
0.0
 40
0.0
 40
0.0309878122
 40
0.0621231533
 40
0.0934022942
 40
0.1248179697
 40
0.156360741
 40
0.1880187445
 40
0.2197780353
 40
0.2516228452
 40
0.28353588
 40
0.3154986371
 40
0.3474917369
 40
0.3794952669
 40
0.411489132
 40
0.4434534068
 40
0.4753686853
 40
0.5072164241
 40
0.5389792772
 40
0.5706414128
 40
0.6021888113
 40
0.6336095369
 40
0.6648939808
 40
0.6960350702
 40
0.7270284345
 40
0.7578725256
 40
0.7885686884
 40
0.8191211762
 40
0.8495371094
 40
0.8798263705
 40
0.9100014369
 40
0.9400771544
 40
0.9700704512
 40
1.0
 40
1.0
 40
1.0
 40
1.0
 10
10.9288420339
 20
8.0033414879
 30
0.0
 10
10.9288420339
 20
7.9928062435
 30
0.0
 10
10.929580132
 20
7.9716784274
 30
0.0
 10
10.9328775147
 20
7.9400712989
 30
0.0
 10
10.9383513474
 20
7.9086186917
 30
0.0
 10
10.945974943
 20
7.8774750565
 30
0.0
 10
10.9557110403
 20
7.8467908859
 30
0.0
 10
10.9675122687
 20
7.8167150295
 30
0.0
 10
10.9813212229
 20
7.7873931869
 30
0.0
 10
10.9970708178
 20
7.7589674354
 30
0.0
 10
11.0146846051
 20
7.7315754914
 30
0.0
 10
11.0340771422
 20
7.7053500692
 30
0.0
 10
11.055154405
 20
7.6804182439
 30
0.0
 10
11.0778142094
 20
7.6569008172
 30
0.0
 10
11.1019467313
 20
7.634911755
 30
0.0
 10
11.1274350362
 20
7.6145576464
 30
0.0
 10
11.1541556377
 20
7.5959371899
 30
0.0
 10
11.1819790903
 20
7.579140725
 30
0.0
 10
11.210770589
 20
7.5642497617
 30
0.0
 10
11.2403906347
 20
7.5513366102
 30
0.0
 10
11.270695704
 20
7.5404640401
 30
0.0
 10
11.3015389328
 20
7.5316849723
 30
0.0
 10
11.3327708184
 20
7.5250422271
 30
0.0
 10
11.3642399265
 20
7.5205682711
 30
0.0
 10
11.3957936273
 20
7.5182850784
 30
0.0
 10
11.4272788268
 20
7.5182040269
 30
0.0
 10
11.4585426995
 20
7.5203258272
 30
0.0
 10
11.4894334266
 20
7.5246405152
 30
0.0
 10
11.519800921
 20
7.5311274344
 30
0.0
 10
11.5494976174
 20
7.5397553835
 30
0.0
 10
11.5783789763
 20
7.5504826175
 30
0.0
 10
11.6063049868
 20
7.5632575839
 30
0.0
 10
11.6331379126
 20
7.5780171096
 30
0.0
 10
11.6502296349
 20
7.5891446024
 30
0.0
 10
11.6585443446
 20
7.5950102228
 30
0.0
  0
SPLINE
  5
364
100
AcDbEntity
  8
0
100
AcDbSpline
 62
7
  6
CONTINUOUS
 70
0
 71
3
 72
24
 73
20
 74
0
 42
0.0000001
 43
0.0000001
 44
0.0000000001
 40
0.0
 40
0.0
 40
0.0
 40
0.0
 40
0.0637774298
 40
0.1273438979
 40
0.1907011028
 40
0.2538548461
 40
0.3168115792
 40
0.3795801785
 40
0.4421711488
 40
0.5045967878
 40
0.5668710022
 40
0.6290092041
 40
0.6910281625
 40
0.7220010202
 40
0.7529508971
 40
0.8147862935
 40
0.87655923
 40
0.9382901685
 40
1.0
 40
1.0
 40
1.0
 40
1.0
 10
10.4191003548
 20
7.6994688062
 30
0.0
 10
10.4191003548
 20
7.7096055898
 30
0.0
 10
10.4195854986
 20
7.7298490637
 30
0.0
 10
10.42177543
 20
7.7600912173
 30
0.0
 10
10.4254215094
 20
7.7900935301
 30
0.0
 10
10.4305152758
 20
7.8197858391
 30
0.0
 10
10.4370451522
 20
7.8491000395
 30
0.0
 10
10.4449961009
 20
7.877968449
 30
0.0
 10
10.4543498892
 20
7.906324546
 30
0.0
 10
10.4650849864
 20
7.9341029047
 30
0.0
 10
10.4771767736
 20
7.9612395723
 30
0.0
 10
10.4905971615
 20
7.9876715451
 30
0.0
 10
10.5028683922
 20
8.0090707344
 30
0.0
 10
10.5133158529
 20
8.0257735959
 30
0.0
 10
10.5241704332
 20
8.0421798228
 30
0.0
 10
10.5385079226
 20
8.0621415672
 30
0.0
 10
10.5569050025
 20
8.0851647326
 30
0.0
 10
10.5764467922
 20
8.1071973817
 30
0.0
 10
10.5902101758
 20
8.1211938866
 30
0.0
 10
10.5972647361
 20
8.1280080757
 30
0.0
  0
SPLINE
  5
365
100
AcDbEntity
  8
0
100
AcDbSpline
 62
7
  6
CONTINUOUS
 70
0
 71
3
 72
39
 73
35
 74
0
 42
0.0000001
 43
0.0000001
 44
0.0000000001
 40
0.0
 40
0.0
 40
0.0
 40
0.0
 40
0.0306777852
 40
0.0614699456
 40
0.0923740137
 40
0.1233870611
 40
0.154504434
 40
0.1857205199
 40
0.2170285347
 40
0.2484207091
 40
0.2798883482
 40
0.3114219428
 40
0.3430112738
 40
0.374645526
 40
0.4063134063
 40
0.4380032648
 40
0.4697032188
 40
0.5014012794
 40
0.5330854773
 40
0.56474399
 40
0.5963652669
 40
0.6279381527
 40
0.659452008
 40
0.6908968256
 40
0.7222633421
 40
0.7535431434
 40
0.7847287633
 40
0.8158137741
 40
0.8467928669
 40
0.8776619231
 40
0.908418073
 40
0.9390597422
 40
0.9695866846
 40
1.0
 40
1.0
 40
1.0
 40
1.0
 10
11.1470263088
 20
8.2140913265
 30
0.0
 10
11.1470263088
 20
8.2059187166
 30
0.0
 10
11.1474701329
 20
8.189539655
 30
0.0
 10
11.1494565785
 20
8.1650001956
 30
0.0
 10
11.152759169
 20
8.1405122363
 30
0.0
 10
11.1573680832
 20
8.1161483644
 30
0.0
 10
11.1632698447
 20
8.0919794677
 30
0.0
 10
11.1704471007
 20
8.0680762589
 30
0.0
 10
11.1788788357
 20
8.0445085482
 30
0.0
 10
11.18854035
 20
8.0213451932
 30
0.0
 10
11.1994033703
 20
7.9986538569
 30
0.0
 10
11.2114361164
 20
7.9765008224
 30
0.0
 10
11.2246034004
 20
7.9549507983
 30
0.0
 10
11.2388667268
 20
7.9340667313
 30
0.0
 10
11.2541844057
 20
7.9139096238
 30
0.0
 10
11.2705116736
 20
7.8945383562
 30
0.0
 10
11.2878008239
 20
7.8760095169
 30
0.0
 10
11.306001344
 20
7.8583772357
 30
0.0
 10
11.3250600638
 20
7.8416930281
 30
0.0
 10
11.34492131
 20
7.8260056454
 30
0.0
 10
11.3655270679
 20
7.8113609329
 30
0.0
 10
11.3868171497
 20
7.7978016969
 30
0.0
 10
11.4087293692
 20
7.7853675797
 30
0.0
 10
11.4311997226
 20
7.7740949445
 30
0.0
 10
11.4541625733
 20
7.7640167691
 30
0.0
 10
11.4775508432
 20
7.75516255
 30
0.0
 10
11.5012962062
 20
7.7475582156
 30
0.0
 10
11.5253292882
 20
7.7412260501
 30
0.0
 10
11.5495798607
 20
7.7361846277
 30
0.0
 10
11.5739770742
 20
7.7324487596
 30
0.0
 10
11.598449551
 20
7.7300294386
 30
0.0
 10
11.6229260125
 20
7.728933848
 30
0.0
 10
11.6473339266
 20
7.7291651737
 30
0.0
 10
11.6635447731
 20
7.730205776
 30
0.0
 10
11.6716129146
 20
7.7309473984
 30
0.0
  0
SPLINE
  5
366
100
AcDbEntity
  8
0
100
AcDbSpline
 62
7
  6
CONTINUOUS
 70
0
 71
3
 72
39
 73
35
 74
0
 42
0.0000001
 43
0.0000001
 44
0.0000000001
 40
0.0
 40
0.0
 40
0.0
 40
0.0
 40
0.0306705073
 40
0.0614546036
 40
0.0923496381
 40
0.1233529206
 40
0.1544598298
 40
0.1856649067
 40
0.2169615111
 40
0.2483420467
 40
0.2797980056
 40
0.3113200785
 40
0.3428982551
 40
0.3745219342
 40
0.4061800376
 40
0.4378611281
 40
0.4695535288
 40
0.5012454455
 40
0.5329250892
 40
0.5645807983
 40
0.5962011607
 40
0.6277751331
 40
0.6592921587
 40
0.6907422805
 40
0.7221162502
 40
0.7534056323
 40
0.7846029001
 40
0.8157015252
 40
0.8466960576
 40
0.8775821964
 40
0.9083568489
 40
0.9390181789
 40
0.9695656406
 40
1.0
 40
1.0
 40
1.0
 40
1.0
 10
11.1837686503
 20
8.2195817051
 30
0.0
 10
11.1837686503
 20
8.2119922621
 30
0.0
 10
11.1841775777
 20
8.1967821854
 30
0.0
 10
11.1860078953
 20
8.1739933813
 30
0.0
 10
11.189051047
 20
8.1512509816
 30
0.0
 10
11.1932980826
 20
8.1286213818
 30
0.0
 10
11.1987368068
 20
8.1061693751
 30
0.0
 10
11.2053514608
 20
8.0839596408
 30
0.0
 10
11.2131229851
 20
8.0620560323
 30
0.0
 10
11.2220289659
 20
8.0405215519
 30
0.0
 10
11.2320437473
 20
8.0194181274
 30
0.0
 10
11.2431384866
 20
7.9988064467
 30
0.0
 10
11.2552812443
 20
7.9787457821
 30
0.0
 10
11.268437071
 20
7.9592938202
 30
0.0
 10
11.2825681084
 20
7.9405064959
 30
0.0
 10
11.2976337006
 20
7.9224378348
 30
0.0
 10
11.3135905096
 20
7.9051397978
 30
0.0
 10
11.3303926399
 20
7.8886621334
 30
0.0
 10
11.3479917693
 20
7.8730522348
 30
0.0
 10
11.3663372875
 20
7.8583550049
 30
0.0
 10
11.3853764402
 20
7.8446127278
 30
0.0
 10
11.4050544802
 20
7.8318649474
 30
0.0
 10
11.4253148237
 20
7.8201483544
 30
0.0
 10
11.4460992115
 20
7.8094966813
 30
0.0
 10
11.4673478745
 20
7.7999406017
 30
0.0
 10
11.4889997057
 20
7.7915076445
 30
0.0
 10
11.5109924348
 20
7.784222116
 30
0.0
 10
11.5332628079
 20
7.7781050291
 30
0.0
 10
11.5557467601
 20
7.7731740425
 30
0.0
 10
11.5783796264
 20
7.7694434107
 30
0.0
 10
11.6010962229
 20
7.766923934
 30
0.0
 10
11.6238314167
 20
7.7656229579
 30
0.0
 10
11.6465188871
 20
7.7655442318
 30
0.0
 10
11.661598323
 20
7.7663083682
 30
0.0
 10
11.6691064768
 20
7.7668946337
 30
0.0
  0
SPLINE
  5
367
100
AcDbEntity
  8
0
100
AcDbSpline
 62
7
  6
CONTINUOUS
 70
0
 71
3
 72
8
 73
4
 74
0
 42
0.0000001
 43
0.0000001
 44
0.0000000001
 40
0.0
 40
0.0
 40
0.0
 40
0.0
 40
1.0
 40
1.0
 40
1.0
 40
1.0
 10
11.6691064768
 20
7.7668946337
 30
0.0
 10
11.6691341136
 20
7.7668967945
 30
0.0
 10
11.6691617504
 20
7.7668989553
 30
0.0
 10
11.6691893871
 20
7.766901116
 30
0.0
  0
SPLINE
  5
368
100
AcDbEntity
  8
0
100
AcDbSpline
 62
7
  6
CONTINUOUS
 70
0
 71
3
 72
23
 73
19
 74
0
 42
0.0000001
 43
0.0000001
 44
0.0000000001
 40
0.0
 40
0.0
 40
0.0
 40
0.0
 40
0.0620433451
 40
0.1242632334
 40
0.1866388041
 40
0.2491472183
 40
0.3117639583
 40
0.3744631447
 40
0.4372178672
 40
0.5000005227
 40
0.5627831606
 40
0.6255378306
 40
0.6882369303
 40
0.7508535504
 40
0.8133618136
 40
0.8757372039
 40
0.9379568845
 40
1.0
 40
1.0
 40
1.0
 40
1.0
 10
11.3736739925
 20
8.1809696532
 30
0.0
 10
11.3758030866
 20
8.1746680544
 30
0.0
 10
11.3804239904
 20
8.1621642786
 30
0.0
 10
11.38840242
 20
8.143803782
 30
0.0
 10
11.3974118922
 20
8.1258701697
 30
0.0
 10
11.407421098
 20
8.108425952
 30
0.0
 10
11.4183956179
 20
8.0915309438
 30
0.0
 10
11.4302976328
 20
8.0752433414
 30
0.0
 10
11.4430861634
 20
8.0596191792
 30
0.0
 10
11.4567171807
 20
8.044712231
 30
0.0
 10
11.4711437648
 20
8.0305738017
 30
0.0
 10
11.4863162641
 20
8.0172525575
 30
0.0
 10
11.5021824598
 20
8.0047943608
 30
0.0
 10
11.5186877684
 20
7.993242104
 30
0.0
 10
11.5357753364
 20
7.9826355963
 30
0.0
 10
11.5533865753
 20
7.9730113046
 30
0.0
 10
11.5714600959
 20
7.9644026824
 30
0.0
 10
11.5837965372
 20
7.9593521249
 30
0.0
 10
11.5900207106
 20
7.9570063783
 30
0.0
  0
SPLINE
  5
369
100
AcDbEntity
  8
0
100
AcDbSpline
 62
7
  6
CONTINUOUS
 70
0
 71
3
 72
25
 73
21
 74
0
 42
0.0000001
 43
0.0000001
 44
0.0000000001
 40
0.0
 40
0.0
 40
0.0
 40
0.0
 40
0.0307904021
 40
0.0616625058
 40
0.123627961
 40
0.1858806309
 40
0.2483846714
 40
0.3110978402
 40
0.3739726169
 40
0.4369574392
 40
0.4999980123
 40
0.5630386576
 40
0.6260236953
 40
0.6888988254
 40
0.7516124755
 40
0.8141171147
 40
0.8763704863
 40
0.9383367334
 40
0.9692092511
 40
1.0
 40
1.0
 40
1.0
 40
1.0
 10
11.2682903421
 20
8.2377119968
 30
0.0
 10
11.2691084235
 20
8.231860261
 30
0.0
 10
11.2709853035
 20
8.2201730272
 30
0.0
 10
11.2756908632
 20
8.1969152211
 30
0.0
 10
11.2833500611
 20
8.168119948
 30
0.0
 10
11.2952966928
 20
8.1342996778
 30
0.0
 10
11.3099296119
 20
8.101394016
 30
0.0
 10
11.327148245
 20
8.0696294879
 30
0.0
 10
11.346834606
 20
8.0392226635
 30
0.0
 10
11.36885395
 20
8.010381434
 30
0.0
 10
11.3930556864
 20
7.9833028776
 30
0.0
 10
11.4192742847
 20
7.9581720121
 30
0.0
 10
11.447330619
 20
7.935160732
 30
0.0
 10
11.4770329508
 20
7.9144263686
 30
0.0
 10
11.508178242
 20
7.8961108767
 30
0.0
 10
11.5405541415
 20
7.8803396835
 30
0.0
 10
11.5739377761
 20
7.8672212085
 30
0.0
 10
11.6024488904
 20
7.8585627352
 30
0.0
 10
11.6255287972
 20
7.8530491287
 30
0.0
 10
11.6371436319
 20
7.8507658896
 30
0.0
 10
11.6429633532
 20
7.8497442737
 30
0.0
  0
SPLINE
  5
36A
100
AcDbEntity
  8
0
100
AcDbSpline
 62
7
  6
CONTINUOUS
 70
0
 71
3
 72
71
 73
67
 74
0
 42
0.0000001
 43
0.0000001
 44
0.0000000001
 40
0.0
 40
0.0
 40
0.0
 40
0.0
 40
0.0155842125
 40
0.0311159548
 40
0.0465952452
 40
0.0620238832
 40
0.077403449
 40
0.0927362827
 40
0.1080251236
 40
0.1232731733
 40
0.1384840551
 40
0.1536617757
 40
0.1688106896
 40
0.1839354533
 40
0.1990409787
 40
0.2141323824
 40
0.2292149319
 40
0.2442939892
 40
0.2593749538
 40
0.2744632042
 40
0.289564041
 40
0.3046826304
 40
0.3198239505
 40
0.3349927388
 40
0.3501934431
 40
0.365430177
 40
0.3807066786
 40
0.3960262757
 40
0.4113918552
 40
0.4268058381
 40
0.4422701582
 40
0.4577862482
 40
0.4733550295
 40
0.4889769098
 40
0.5046517844
 40
0.5203790421
 40
0.5361575756
 40
0.5519857966
 40
0.5678616546
 40
0.5837826615
 40
0.5997459176
 40
0.6157481409
 40
0.6317856994
 40
0.6478546448
 40
0.6639507505
 40
0.6800695509
 40
0.6962063814
 40
0.7123564195
 40
0.7285147271
 40
0.7446762936
 40
0.7608360803
 40
0.7769890646
 40
0.7931302831
 40
0.8092548749
 40
0.8253581239
 40
0.841435501
 40
0.8574827056
 40
0.873495705
 40
0.8894707701
 40
0.9054045133
 40
0.9212939187
 40
0.9371363615
 40
0.9529297228
 40
0.9686720688
 40
0.9843626653
 40
1.0
 40
1.0
 40
1.0
 40
1.0
 10
9.4908455581
 20
8.8804538338
 30
0.0
 10
9.4908455581
 20
8.8872376401
 30
0.0
 10
9.4911775535
 20
8.9007848177
 30
0.0
 10
9.4926761547
 20
8.9210202254
 30
0.0
 10
9.4951711511
 20
8.9410894213
 30
0.0
 10
9.4986563781
 20
8.9609432329
 30
0.0
 10
9.5031236286
 20
8.9805341226
 30
0.0
 10
9.5085621247
 20
8.9998147594
 30
0.0
 10
9.5149588372
 20
9.0187386841
 30
0.0
 10
9.5222983721
 20
9.037260261
 30
0.0
 10
9.5305630712
 20
9.0553348261
 30
0.0
 10
9.5397330443
 20
9.0729187848
 30
0.0
 10
9.5497862141
 20
9.0899697197
 30
0.0
 10
9.5606983729
 20
9.1064464907
 30
0.0
 10
9.5724432274
 20
9.1223093434
 30
0.0
 10
9.5849924567
 20
9.1375200139
 30
0.0
 10
9.5983158004
 20
9.1520418092
 30
0.0
 10
9.6123811283
 20
9.165839698
 30
0.0
 10
9.627154518
 20
9.1788803964
 30
0.0
 10
9.6426003392
 20
9.1911324443
 30
0.0
 10
9.6586813273
 20
9.2025662996
 30
0.0
 10
9.6753586795
 20
9.2131544089
 30
0.0
 10
9.69259216
 20
9.2228712599
 30
0.0
 10
9.7103401959
 20
9.2316934453
 30
0.0
 10
9.7285599774
 20
9.2395997188
 30
0.0
 10
9.7472075631
 20
9.246571041
 30
0.0
 10
9.7662379772
 20
9.2525906495
 30
0.0
 10
9.7856053276
 20
9.2576440856
 30
0.0
 10
9.8052629201
 20
9.2617192177
 30
0.0
 10
9.8251633695
 20
9.2648062717
 30
0.0
 10
9.8452587135
 20
9.2668978528
 30
0.0
 10
9.8655005265
 20
9.26798896
 30
0.0
 10
9.8858400359
 20
9.2680770247
 30
0.0
 10
9.9062282429
 20
9.2671618921
 30
0.0
 10
9.9266160396
 20
9.2652458172
 30
0.0
 10
9.946954326
 20
9.2623334598
 30
0.0
 10
9.9671941258
 20
9.2584318715
 30
0.0
 10
9.9872867032
 20
9.2535504809
 30
0.0
 10
10.0071836862
 20
9.2477010934
 30
0.0
 10
10.026837178
 20
9.2408978344
 30
0.0
 10
10.046199871
 20
9.2331571179
 30
0.0
 10
10.0652251592
 20
9.2244976068
 30
0.0
 10
10.0838672474
 20
9.2149401662
 30
0.0
 10
10.102081264
 20
9.2045078225
 30
0.0
 10
10.1198233776
 20
9.1932257191
 30
0.0
 10
10.1370508906
 20
9.1811210336
 30
0.0
 10
10.153722342
 20
9.1682229165
 30
0.0
 10
10.1697976062
 20
9.1545624215
 30
0.0
 10
10.1852379853
 20
9.1401724294
 30
0.0
 10
10.2000063134
 20
9.125087582
 30
0.0
 10
10.2140670491
 20
9.1093441989
 30
0.0
 10
10.2273863472
 20
9.0929801762
 30
0.0
 10
10.2399321417
 20
9.0760348995
 30
0.0
 10
10.251674222
 20
9.0585491504
 30
0.0
 10
10.2625843011
 20
9.0405650071
 30
0.0
 10
10.2726361035
 20
9.0221257561
 30
0.0
 10
10.2818054221
 20
9.0032757816
 30
0.0
 10
10.2900701641
 20
8.9840604524
 30
0.0
 10
10.2974104074
 20
8.9645260173
 30
0.0
 10
10.3038084474
 20
8.9447194926
 30
0.0
 10
10.3092488299
 20
8.9246885604
 30
0.0
 10
10.3137184518
 20
8.9044814151
 30
0.0
 10
10.3172064526
 20
8.8841468135
 30
0.0
 10
10.3197045304
 20
8.8637333977
 30
0.0
 10
10.321206425
 20
8.8432911463
 30
0.0
 10
10.321541818
 20
8.8296517829
 30
0.0
 10
10.321541818
 20
8.8228448525
 30
0.0
  0
SPLINE
  5
36B
100
AcDbEntity
  8
0
100
AcDbSpline
 62
7
  6
CONTINUOUS
 70
0
 71
3
 72
50
 73
46
 74
0
 42
0.0000001
 43
0.0000001
 44
0.0000000001
 40
0.0
 40
0.0
 40
0.0
 40
0.0
 40
0.0417738954
 40
0.0840375015
 40
0.126658999
 40
0.1695072728
 40
0.2124490406
 40
0.2553511879
 40
0.2980805661
 40
0.3405047668
 40
0.3824925704
 40
0.4239144964
 40
0.4646433325
 40
0.504554679
 40
0.5435274987
 40
0.5814446837
 40
0.6181936452
 40
0.6536669372
 40
0.6877629283
 40
0.7203865442
 40
0.7514501111
 40
0.7808743474
 40
0.8085895768
 40
0.8217881241
 40
0.8345385176
 40
0.8468355036
 40
0.8586748141
 40
0.8700533313
 40
0.8809690507
 40
0.8914214953
 40
0.9014115725
 40
0.9109421624
 40
0.9200180335
 40
0.9286464829
 40
0.9368375013
 40
0.9446043826
 40
0.9519642537
 40
0.9589386378
 40
0.9655543111
 40
0.9718437858
 40
0.9778461759
 40
0.9836073377
 40
0.9891800243
 40
0.9946230608
 40
1.0
 40
1.0
 40
1.0
 40
1.0
 10
12.1705274168
 20
8.8294026865
 30
0.0
 10
12.1705274168
 20
8.8238619188
 30
0.0
 10
12.1704409695
 20
8.8127152555
 30
0.0
 10
12.1700588314
 20
8.7959193386
 30
0.0
 10
12.1694245488
 20
8.7789884229
 30
0.0
 10
12.1685402399
 20
8.7619786731
 30
0.0
 10
12.167408799
 20
8.7449462667
 30
0.0
 10
12.1660339818
 20
8.7279475965
 30
0.0
 10
12.164420335
 20
8.7110388849
 30
0.0
 10
12.1625732107
 20
8.6942760753
 30
0.0
 10
12.1604987359
 20
8.6777146192
 30
0.0
 10
12.1582037973
 20
8.6614092994
 30
0.0
 10
12.1556960178
 20
8.645414044
 30
0.0
 10
12.1529837328
 20
8.6297817466
 30
0.0
 10
12.1500759617
 20
8.6145640877
 30
0.0
 10
12.1469823793
 20
8.5998113615
 30
0.0
 10
12.1437132838
 20
8.5855723044
 30
0.0
 10
12.1402795636
 20
8.5718939296
 30
0.0
 10
12.1366926616
 20
8.5588213571
 30
0.0
 10
12.1329645351
 20
8.5463976753
 30
0.0
 10
12.1291076185
 20
8.5346637074
 30
0.0
 10
12.1251347578
 20
8.5236581137
 30
0.0
 10
12.1216845796
 20
8.5149878671
 30
0.0
 10
12.1188688732
 20
8.5084501937
 30
0.0
 10
12.1167708031
 20
8.5038311753
 30
0.0
 10
12.1146537162
 20
8.4994199715
 30
0.0
 10
12.1125193208
 20
8.4952202028
 30
0.0
 10
12.1103694122
 20
8.4912352977
 30
0.0
 10
12.1082057044
 20
8.487468529
 30
0.0
 10
12.1060300265
 20
8.4839229405
 30
0.0
 10
12.1038440766
 20
8.4806014395
 30
0.0
 10
12.1016496821
 20
8.47750668
 30
0.0
 10
12.099448529
 20
8.4746411847
 30
0.0
 10
12.0972423865
 20
8.4720072296
 30
0.0
 10
12.0950329218
 20
8.4696069408
 30
0.0
 10
12.0928217883
 20
8.4674422541
 30
0.0
 10
12.0906106059
 20
8.4655149185
 30
0.0
 10
12.0884008777
 20
8.4638266143
 30
0.0
 10
12.0861941552
 20
8.4623788061
 30
0.0
 10
12.0839918524
 20
8.4611730607
 30
0.0
 10
12.0817955412
 20
8.4602107313
 30
0.0
 10
12.0796068548
 20
8.4594933662
 30
0.0
 10
12.0774276422
 20
8.4590222551
 30
0.0
 10
12.075260521
 20
8.4587986065
 30
0.0
 10
12.07382174
 20
8.4588150638
 30
0.0
 10
12.0731102676
 20
8.4588644101
 30
0.0
  0
SPLINE
  5
36C
100
AcDbEntity
  8
0
100
AcDbSpline
 62
7
  6
CONTINUOUS
 70
0
 71
3
 72
71
 73
67
 74
0
 42
0.0000001
 43
0.0000001
 44
0.0000000001
 40
0.0
 40
0.0
 40
0.0
 40
0.0
 40
0.0155842125
 40
0.0311159548
 40
0.0465952452
 40
0.0620238832
 40
0.077403449
 40
0.0927362827
 40
0.1080251236
 40
0.1232731733
 40
0.1384840551
 40
0.1536617757
 40
0.1688106896
 40
0.1839354533
 40
0.1990409787
 40
0.2141323824
 40
0.2292149319
 40
0.2442939892
 40
0.2593749538
 40
0.2744632042
 40
0.289564041
 40
0.3046826304
 40
0.3198239505
 40
0.3349927388
 40
0.3501934431
 40
0.365430177
 40
0.3807066786
 40
0.3960262757
 40
0.4113918552
 40
0.4268058381
 40
0.4422701582
 40
0.4577862482
 40
0.4733550295
 40
0.4889769098
 40
0.5046517844
 40
0.5203790421
 40
0.5361575756
 40
0.5519857966
 40
0.5678616546
 40
0.5837826615
 40
0.5997459176
 40
0.6157481409
 40
0.6317856994
 40
0.6478546448
 40
0.6639507505
 40
0.6800695509
 40
0.6962063814
 40
0.7123564195
 40
0.7285147271
 40
0.7446762936
 40
0.7608360803
 40
0.7769890646
 40
0.7931302831
 40
0.8092548749
 40
0.8253581239
 40
0.841435501
 40
0.8574827056
 40
0.873495705
 40
0.8894707701
 40
0.9054045133
 40
0.9212939187
 40
0.9371363615
 40
0.9529297228
 40
0.9686720688
 40
0.9843626653
 40
1.0
 40
1.0
 40
1.0
 40
1.0
 10
10.321541818
 20
8.8228448525
 30
0.0
 10
10.321541818
 20
8.8160610462
 30
0.0
 10
10.3212098226
 20
8.8025138687
 30
0.0
 10
10.3197112214
 20
8.782278461
 30
0.0
 10
10.317216225
 20
8.7622092651
 30
0.0
 10
10.313730998
 20
8.7423554535
 30
0.0
 10
10.3092637475
 20
8.7227645638
 30
0.0
 10
10.3038252514
 20
8.703483927
 30
0.0
 10
10.2974285389
 20
8.6845600023
 30
0.0
 10
10.290089004
 20
8.6660384254
 30
0.0
 10
10.2818243049
 20
8.6479638603
 30
0.0
 10
10.2726543318
 20
8.6303799016
 30
0.0
 10
10.262601162
 20
8.6133289667
 30
0.0
 10
10.2516890032
 20
8.5968521956
 30
0.0
 10
10.2399441487
 20
8.580989343
 30
0.0
 10
10.2273949195
 20
8.5657786724
 30
0.0
 10
10.2140715757
 20
8.5512568772
 30
0.0
 10
10.2000062478
 20
8.5374589883
 30
0.0
 10
10.1852328581
 20
8.52441829
 30
0.0
 10
10.1697870369
 20
8.512166242
 30
0.0
 10
10.1537060488
 20
8.5007323867
 30
0.0
 10
10.1370286967
 20
8.4901442775
 30
0.0
 10
10.1197952161
 20
8.4804274265
 30
0.0
 10
10.1020471802
 20
8.471605241
 30
0.0
 10
10.0838273987
 20
8.4636989676
 30
0.0
 10
10.065179813
 20
8.4567276454
 30
0.0
 10
10.0461493989
 20
8.4507080369
 30
0.0
 10
10.0267820485
 20
8.4456546008
 30
0.0
 10
10.007124456
 20
8.4415794686
 30
0.0
 10
9.9872240066
 20
8.4384924146
 30
0.0
 10
9.9671286627
 20
8.4364008336
 30
0.0
 10
9.9468868496
 20
8.4353097264
 30
0.0
 10
9.9265473402
 20
8.4352216616
 30
0.0
 10
9.9061591332
 20
8.4361367943
 30
0.0
 10
9.8857713365
 20
8.4380528691
 30
0.0
 10
9.8654330501
 20
8.4409652265
 30
0.0
 10
9.8451932504
 20
8.4448668149
 30
0.0
 10
9.8251006729
 20
8.4497482054
 30
0.0
 10
9.8052036899
 20
8.455597593
 30
0.0
 10
9.7855501981
 20
8.462400852
 30
0.0
 10
9.7661875051
 20
8.4701415685
 30
0.0
 10
9.7471622169
 20
8.4788010796
 30
0.0
 10
9.7285201287
 20
8.4883585202
 30
0.0
 10
9.7103061121
 20
8.4987908639
 30
0.0
 10
9.6925639985
 20
8.5100729673
 30
0.0
 10
9.6753364855
 20
8.5221776528
 30
0.0
 10
9.6586650341
 20
8.5350757699
 30
0.0
 10
9.64258977
 20
8.5487362649
 30
0.0
 10
9.6271493908
 20
8.5631262569
 30
0.0
 10
9.6123810627
 20
8.5782111044
 30
0.0
 10
9.5983203271
 20
8.5939544875
 30
0.0
 10
9.5850010289
 20
8.6103185102
 30
0.0
 10
9.5724552344
 20
8.6272637868
 30
0.0
 10
9.5607131542
 20
8.644749536
 30
0.0
 10
9.549803075
 20
8.6627336793
 30
0.0
 10
9.5397512726
 20
8.6811729302
 30
0.0
 10
9.530581954
 20
8.7000229048
 30
0.0
 10
9.5223172121
 20
8.7192382339
 30
0.0
 10
9.5149769687
 20
8.738772669
 30
0.0
 10
9.5085789287
 20
8.7585791937
 30
0.0
 10
9.5031385462
 20
8.7786101259
 30
0.0
 10
9.4986689243
 20
8.7988172713
 30
0.0
 10
9.4951809235
 20
8.8191518729
 30
0.0
 10
9.4926828458
 20
8.8395652886
 30
0.0
 10
9.4911809512
 20
8.8600075401
 30
0.0
 10
9.4908455581
 20
8.8736469034
 30
0.0
 10
9.4908455581
 20
8.8804538338
 30
0.0
  0
SPLINE
  5
36D
100
AcDbEntity
  8
0
100
AcDbSpline
 62
7
  6
CONTINUOUS
 70
0
 71
3
 72
23
 73
19
 74
0
 42
0.0000001
 43
0.0000001
 44
0.0000000001
 40
0.0
 40
0.0
 40
0.0
 40
0.0
 40
0.0637769127
 40
0.127344953
 40
0.1907019652
 40
0.2538561227
 40
0.3168132057
 40
0.3795820872
 40
0.4421733866
 40
0.5045993385
 40
0.5668738691
 40
0.6290123824
 40
0.6910316505
 40
0.7529496453
 40
0.8147853569
 40
0.8765586065
 40
0.9382898561
 40
1.0
 40
1.0
 40
1.0
 40
1.0
 10
9.5869880183
 20
8.8948203246
 30
0.0
 10
9.5869880183
 20
8.900243516
 30
0.0
 10
9.5872476037
 20
8.9110739751
 30
0.0
 10
9.5884191901
 20
8.9272537713
 30
0.0
 10
9.5903699148
 20
8.9433053225
 30
0.0
 10
9.5930950897
 20
8.9591909242
 30
0.0
 10
9.5965886394
 20
8.974874269
 30
0.0
 10
9.6008424837
 20
8.9903191016
 30
0.0
 10
9.6058468376
 20
9.0054898415
 30
0.0
 10
9.6115902071
 20
9.0203515043
 30
0.0
 10
9.6180593994
 20
9.034869804
 30
0.0
 10
9.6252395256
 20
9.0490112526
 30
0.0
 10
9.633114028
 20
9.062743238
 30
0.0
 10
9.6416647748
 20
9.0760340906
 30
0.0
 10
9.6508720511
 20
9.0888531086
 30
0.0
 10
9.6607147466
 20
9.1011708109
 30
0.0
 10
9.6711697595
 20
9.1129584064
 30
0.0
 10
9.6785332795
 20
9.1204466692
 30
0.0
 10
9.6823075371
 20
9.1240923067
 30
0.0
  0
SPLINE
  5
36E
100
AcDbEntity
  8
0
100
AcDbSpline
 62
7
  6
CONTINUOUS
 70
0
 71
3
 72
71
 73
67
 74
0
 42
0.0000001
 43
0.0000001
 44
0.0000000001
 40
0.0
 40
0.0
 40
0.0
 40
0.0
 40
0.0155842125
 40
0.0311159548
 40
0.0465952452
 40
0.0620238832
 40
0.077403449
 40
0.0927362827
 40
0.1080251236
 40
0.1232731733
 40
0.1384840551
 40
0.1536617757
 40
0.1688106896
 40
0.1839354533
 40
0.1990409787
 40
0.2141323824
 40
0.2292149319
 40
0.2442939892
 40
0.2593749538
 40
0.2744632042
 40
0.289564041
 40
0.3046826304
 40
0.3198239505
 40
0.3349927388
 40
0.3501934431
 40
0.365430177
 40
0.3807066786
 40
0.3960262757
 40
0.4113918552
 40
0.4268058381
 40
0.4422701582
 40
0.4577862482
 40
0.4733550295
 40
0.4889769098
 40
0.5046517844
 40
0.5203790421
 40
0.5361575756
 40
0.5519857966
 40
0.5678616546
 40
0.5837826615
 40
0.5997459176
 40
0.6157481409
 40
0.6317856994
 40
0.6478546448
 40
0.6639507505
 40
0.6800695509
 40
0.6962063814
 40
0.7123564195
 40
0.7285147271
 40
0.7446762936
 40
0.7608360803
 40
0.7769890646
 40
0.7931302831
 40
0.8092548749
 40
0.8253581239
 40
0.841435501
 40
0.8574827056
 40
0.873495705
 40
0.8894707701
 40
0.9054045133
 40
0.9212939187
 40
0.9371363615
 40
0.9529297228
 40
0.9686720688
 40
0.9843626653
 40
1.0
 40
1.0
 40
1.0
 40
1.0
 10
9.3102174405
 20
7.5648323465
 30
0.0
 10
9.3102174405
 20
7.5716161528
 30
0.0
 10
9.3105494359
 20
7.5851633303
 30
0.0
 10
9.312048037
 20
7.605398738
 30
0.0
 10
9.3145430335
 20
7.625467934
 30
0.0
 10
9.3180282604
 20
7.6453217456
 30
0.0
 10
9.322495511
 20
7.6649126353
 30
0.0
 10
9.3279340071
 20
7.684193272
 30
0.0
 10
9.3343307196
 20
7.7031171967
 30
0.0
 10
9.3416702545
 20
7.7216387736
 30
0.0
 10
9.3499349536
 20
7.7397133387
 30
0.0
 10
9.3591049267
 20
7.7572972975
 30
0.0
 10
9.3691580965
 20
7.7743482323
 30
0.0
 10
9.3800702552
 20
7.7908250034
 30
0.0
 10
9.3918151098
 20
7.8066878561
 30
0.0
 10
9.404364339
 20
7.8218985266
 30
0.0
 10
9.4176876827
 20
7.8364203218
 30
0.0
 10
9.4317530107
 20
7.8502182107
 30
0.0
 10
9.4465264004
 20
7.863258909
 30
0.0
 10
9.4619722215
 20
7.875510957
 30
0.0
 10
9.4780532097
 20
7.8869448123
 30
0.0
 10
9.4947305618
 20
7.8975329216
 30
0.0
 10
9.5119640424
 20
7.9072497725
 30
0.0
 10
9.5297120782
 20
7.916071958
 30
0.0
 10
9.5479318598
 20
7.9239782315
 30
0.0
 10
9.5665794454
 20
7.9309495536
 30
0.0
 10
9.5856098595
 20
7.9369691622
 30
0.0
 10
9.60497721
 20
7.9420225983
 30
0.0
 10
9.6246348025
 20
7.9460977304
 30
0.0
 10
9.6445352518
 20
7.9491847844
 30
0.0
 10
9.6646305958
 20
7.9512763654
 30
0.0
 10
9.6848724089
 20
7.9523674726
 30
0.0
 10
9.7052119183
 20
7.9524555374
 30
0.0
 10
9.7256001253
 20
7.9515404048
 30
0.0
 10
9.745987922
 20
7.9496243299
 30
0.0
 10
9.7663262083
 20
7.9467119725
 30
0.0
 10
9.7865660081
 20
7.9428103841
 30
0.0
 10
9.8066585855
 20
7.9379289936
 30
0.0
 10
9.8265555686
 20
7.932079606
 30
0.0
 10
9.8462090604
 20
7.925276347
 30
0.0
 10
9.8655717534
 20
7.9175356306
 30
0.0
 10
9.8845970416
 20
7.9088761194
 30
0.0
 10
9.9032391297
 20
7.8993186789
 30
0.0
 10
9.9214531463
 20
7.8888863351
 30
0.0
 10
9.93919526
 20
7.8776042317
 30
0.0
 10
9.9564227729
 20
7.8654995463
 30
0.0
 10
9.9730942244
 20
7.8526014291
 30
0.0
 10
9.9891694885
 20
7.8389409341
 30
0.0
 10
10.0046098677
 20
7.8245509421
 30
0.0
 10
10.0193781957
 20
7.8094660947
 30
0.0
 10
10.0334389314
 20
7.7937227115
 30
0.0
 10
10.0467582295
 20
7.7773586888
 30
0.0
 10
10.0593040241
 20
7.7604134122
 30
0.0
 10
10.0710461043
 20
7.742927663
 30
0.0
 10
10.0819561835
 20
7.7249435197
 30
0.0
 10
10.0920079859
 20
7.7065042688
 30
0.0
 10
10.1011773045
 20
7.6876542942
 30
0.0
 10
10.1094420464
 20
7.6684389651
 30
0.0
 10
10.1167822897
 20
7.64890453
 30
0.0
 10
10.1231803298
 20
7.6290980053
 30
0.0
 10
10.1286207122
 20
7.6090670731
 30
0.0
 10
10.1330903342
 20
7.5888599277
 30
0.0
 10
10.1365783349
 20
7.5685253261
 30
0.0
 10
10.1390764127
 20
7.5481119104
 30
0.0
 10
10.1405783073
 20
7.527669659
 30
0.0
 10
10.1409137003
 20
7.5140302956
 30
0.0
 10
10.1409137003
 20
7.5072233652
 30
0.0
  0
SPLINE
  5
36F
100
AcDbEntity
  8
0
100
AcDbSpline
 62
7
  6
CONTINUOUS
 70
0
 71
3
 72
39
 73
35
 74
0
 42
0.0000001
 43
0.0000001
 44
0.0000000001
 40
0.0
 40
0.0
 40
0.0
 40
0.0
 40
0.0310753511
 40
0.0623079071
 40
0.0936931323
 40
0.1252222879
 40
0.1568840438
 40
0.1886642044
 40
0.2205461649
 40
0.2525112495
 40
0.2845391085
 40
0.3166081364
 40
0.3486959075
 40
0.3807796234
 40
0.4128365659
 40
0.4448445499
 40
0.4767823666
 40
0.5086302146
 40
0.540370109
 40
0.5719862657
 40
0.6034654504
 40
0.6347972851
 40
0.6659745049
 40
0.6969931576
 40
0.7278527402
 40
0.7585562639
 40
0.7891102404
 40
0.8195245852
 40
0.8498124376
 40
0.8799898966
 40
0.9100756756
 40
0.9400906817
 40
0.970057529
 40
1.0
 40
1.0
 40
1.0
 40
1.0
 10
9.5869880183
 20
8.8948203246
 30
0.0
 10
9.5869880183
 20
8.8864062032
 30
0.0
 10
9.5876156915
 20
8.86952892
 30
0.0
 10
9.5904181267
 20
8.844293787
 30
0.0
 10
9.5950680446
 20
8.8192068359
 30
0.0
 10
9.6015397584
 20
8.7944075989
 30
0.0
 10
9.6097974258
 20
8.7700317912
 30
0.0
 10
9.6197955382
 20
8.746213329
 30
0.0
 10
9.6314790267
 20
8.7230828927
 30
0.0
 10
9.6447836077
 20
8.7007674083
 30
0.0
 10
9.6596361452
 20
8.6793893148
 30
0.0
 10
9.6759550472
 20
8.659065916
 30
0.0
 10
9.69365071
 20
8.6399087411
 30
0.0
 10
9.7126260053
 20
8.6220229438
 30
0.0
 10
9.732776787
 20
8.6055067068
 30
0.0
 10
9.7539924787
 20
8.5904507263
 30
0.0
 10
9.7761566735
 20
8.5769377213
 30
0.0
 10
9.7991477634
 20
8.5650419827
 30
0.0
 10
9.8228395983
 20
8.554828972
 30
0.0
 10
9.8471021611
 20
8.5463549472
 30
0.0
 10
9.8718022715
 20
8.5396666425
 30
0.0
 10
9.8968043171
 20
8.534801033
 30
0.0
 10
9.9219709828
 20
8.5317851218
 30
0.0
 10
9.947163994
 20
8.5306357839
 30
0.0
 10
9.9722448656
 20
8.5313596652
 30
0.0
 10
9.9970756577
 20
8.5339530993
 30
0.0
 10
10.0215197327
 20
8.5384021344
 30
0.0
 10
10.0454425076
 20
8.5446826019
 30
0.0
 10
10.0687121853
 20
8.5527602156
 30
0.0
 10
10.0912005319
 20
8.56259079
 30
0.0
 10
10.1127834329
 20
8.5741202907
 30
0.0
 10
10.1333422308
 20
8.5872857183
 30
0.0
 10
10.1527620653
 20
8.6020132049
 30
0.0
 10
10.1648831157
 20
8.6128237894
 30
0.0
 10
10.1707143956
 20
8.6184563496
 30
0.0
  0
SPLINE
  5
370
100
AcDbEntity
  8
0
100
AcDbSpline
 62
7
  6
CONTINUOUS
 70
0
 71
3
 72
71
 73
67
 74
0
 42
0.0000001
 43
0.0000001
 44
0.0000000001
 40
0.0
 40
0.0
 40
0.0
 40
0.0
 40
0.0155842125
 40
0.0311159548
 40
0.0465952452
 40
0.0620238832
 40
0.077403449
 40
0.0927362827
 40
0.1080251236
 40
0.1232731733
 40
0.1384840551
 40
0.1536617757
 40
0.1688106896
 40
0.1839354533
 40
0.1990409787
 40
0.2141323824
 40
0.2292149319
 40
0.2442939892
 40
0.2593749538
 40
0.2744632042
 40
0.289564041
 40
0.3046826304
 40
0.3198239505
 40
0.3349927388
 40
0.3501934431
 40
0.365430177
 40
0.3807066786
 40
0.3960262757
 40
0.4113918552
 40
0.4268058381
 40
0.4422701582
 40
0.4577862482
 40
0.4733550295
 40
0.4889769098
 40
0.5046517844
 40
0.5203790421
 40
0.5361575756
 40
0.5519857966
 40
0.5678616546
 40
0.5837826615
 40
0.5997459176
 40
0.6157481409
 40
0.6317856994
 40
0.6478546448
 40
0.6639507505
 40
0.6800695509
 40
0.6962063814
 40
0.7123564195
 40
0.7285147271
 40
0.7446762936
 40
0.7608360803
 40
0.7769890646
 40
0.7931302831
 40
0.8092548749
 40
0.8253581239
 40
0.841435501
 40
0.8574827056
 40
0.873495705
 40
0.8894707701
 40
0.9054045133
 40
0.9212939187
 40
0.9371363615
 40
0.9529297228
 40
0.9686720688
 40
0.9843626653
 40
1.0
 40
1.0
 40
1.0
 40
1.0
 10
10.1409137003
 20
7.5072233652
 30
0.0
 10
10.1409137003
 20
7.5004395589
 30
0.0
 10
10.140581705
 20
7.4868923814
 30
0.0
 10
10.1390831038
 20
7.4666569737
 30
0.0
 10
10.1365881073
 20
7.4465877777
 30
0.0
 10
10.1331028804
 20
7.4267339661
 30
0.0
 10
10.1286356299
 20
7.4071430764
 30
0.0
 10
10.1231971337
 20
7.3878624397
 30
0.0
 10
10.1168004212
 20
7.368938515
 30
0.0
 10
10.1094608864
 20
7.3504169381
 30
0.0
 10
10.1011961873
 20
7.332342373
 30
0.0
 10
10.0920262141
 20
7.3147584142
 30
0.0
 10
10.0819730443
 20
7.2977074793
 30
0.0
 10
10.0710608856
 20
7.2812307083
 30
0.0
 10
10.0593160311
 20
7.2653678556
 30
0.0
 10
10.0467668018
 20
7.2501571851
 30
0.0
 10
10.0334434581
 20
7.2356353898
 30
0.0
 10
10.0193781301
 20
7.221837501
 30
0.0
 10
10.0046047405
 20
7.2087968027
 30
0.0
 10
9.9891589193
 20
7.1965447547
 30
0.0
 10
9.9730779312
 20
7.1851108994
 30
0.0
 10
9.956400579
 20
7.1745227901
 30
0.0
 10
9.9391670984
 20
7.1648059392
 30
0.0
 10
9.9214190626
 20
7.1559837537
 30
0.0
 10
9.903199281
 20
7.1480774802
 30
0.0
 10
9.8845516954
 20
7.1411061581
 30
0.0
 10
9.8655212813
 20
7.1350865495
 30
0.0
 10
9.8461539308
 20
7.1300331134
 30
0.0
 10
9.8264963384
 20
7.1259579813
 30
0.0
 10
9.806595889
 20
7.1228709273
 30
0.0
 10
9.786500545
 20
7.1207793463
 30
0.0
 10
9.766258732
 20
7.119688239
 30
0.0
 10
9.7459192225
 20
7.1196001743
 30
0.0
 10
9.7255310155
 20
7.1205153069
 30
0.0
 10
9.7051432188
 20
7.1224313818
 30
0.0
 10
9.6848049325
 20
7.1253437392
 30
0.0
 10
9.6645651327
 20
7.1292453276
 30
0.0
 10
9.6444725553
 20
7.1341267181
 30
0.0
 10
9.6245755723
 20
7.1399761057
 30
0.0
 10
9.6049220804
 20
7.1467793647
 30
0.0
 10
9.5855593874
 20
7.1545200811
 30
0.0
 10
9.5665340992
 20
7.1631795922
 30
0.0
 10
9.5478920111
 20
7.1727370328
 30
0.0
 10
9.5296779945
 20
7.1831693766
 30
0.0
 10
9.5119358809
 20
7.19445148
 30
0.0
 10
9.4947083679
 20
7.2065561654
 30
0.0
 10
9.4780369165
 20
7.2194542826
 30
0.0
 10
9.4619616523
 20
7.2331147776
 30
0.0
 10
9.4465212732
 20
7.2475047696
 30
0.0
 10
9.4317529451
 20
7.262589617
 30
0.0
 10
9.4176922094
 20
7.2783330002
 30
0.0
 10
9.4043729113
 20
7.2946970229
 30
0.0
 10
9.3918271168
 20
7.3116422995
 30
0.0
 10
9.3800850365
 20
7.3291280487
 30
0.0
 10
9.3691749574
 20
7.347112192
 30
0.0
 10
9.359123155
 20
7.3655514429
 30
0.0
 10
9.3499538363
 20
7.3844014174
 30
0.0
 10
9.3416890944
 20
7.4036167466
 30
0.0
 10
9.3343488511
 20
7.4231511817
 30
0.0
 10
9.327950811
 20
7.4429577064
 30
0.0
 10
9.3225104286
 20
7.4629886386
 30
0.0
 10
9.3180408066
 20
7.4831957839
 30
0.0
 10
9.3145528059
 20
7.5035303855
 30
0.0
 10
9.3120547281
 20
7.5239438013
 30
0.0
 10
9.3105528335
 20
7.5443860527
 30
0.0
 10
9.3102174405
 20
7.5580254161
 30
0.0
 10
9.3102174405
 20
7.5648323465
 30
0.0
  0
SPLINE
  5
371
100
AcDbEntity
  8
0
100
AcDbSpline
 62
7
  6
CONTINUOUS
 70
0
 71
3
 72
39
 73
35
 74
0
 42
0.0000001
 43
0.0000001
 44
0.0000000001
 40
0.0
 40
0.0
 40
0.0
 40
0.0
 40
0.0291307662
 40
0.0583606612
 40
0.0877067318
 40
0.1171811659
 40
0.1467945509
 40
0.1765554052
 40
0.2064702824
 40
0.2365438972
 40
0.2667792239
 40
0.2971777043
 40
0.3277393863
 40
0.358463175
 40
0.3893470246
 40
0.4203881697
 40
0.451583358
 40
0.4829290666
 40
0.5144217236
 40
0.5460579552
 40
0.5778347829
 40
0.6097496052
 40
0.6418002809
 40
0.6739854396
 40
0.7063045794
 40
0.7387572878
 40
0.7713418968
 40
0.8040529545
 40
0.8368763487
 40
0.8697805351
 40
0.9027019052
 40
0.9355233228
 40
0.9680500763
 40
1.0
 40
1.0
 40
1.0
 40
1.0
 10
9.804235135
 20
9.1964060206
 30
0.0
 10
9.8054098632
 20
9.1933055103
 30
0.0
 10
9.8079903828
 20
9.1871773136
 30
0.0
 10
9.8125222712
 20
9.1782735376
 30
0.0
 10
9.8177005977
 20
9.1696833059
 30
0.0
 10
9.8235011597
 20
9.1614472215
 30
0.0
 10
9.829897046
 20
9.1536034945
 30
0.0
 10
9.8368586933
 20
9.1461885445
 30
0.0
 10
9.8443541234
 20
9.1392365408
 30
0.0
 10
9.8523490984
 20
9.1327792455
 30
0.0
 10
9.8608073694
 20
9.1268458116
 30
0.0
 10
9.8696909047
 20
9.1214625956
 30
0.0
 10
9.8789601712
 20
9.1166530043
 30
0.0
 10
9.8885744122
 20
9.1124373436
 30
0.0
 10
9.8984919639
 20
9.1088327119
 30
0.0
 10
9.9086705843
 20
9.1058529372
 30
0.0
 10
9.9190677872
 20
9.1035085385
 30
0.0
 10
9.9296411833
 20
9.1018067239
 30
0.0
 10
9.9403488249
 20
9.1007514312
 30
0.0
 10
9.9511495451
 20
9.1003433936
 30
0.0
 10
9.9620032677
 20
9.1005802261
 30
0.0
 10
9.9728712941
 20
9.1014565777
 30
0.0
 10
9.9837165888
 20
9.1029642905
 30
0.0
 10
9.994504067
 20
9.1050925747
 30
0.0
 10
10.0052007899
 20
9.1078281366
 30
0.0
 10
10.0157759673
 20
9.1111553112
 30
0.0
 10
10.0262007046
 20
9.1150559947
 30
0.0
 10
10.0364473619
 20
9.1195093241
 30
0.0
 10
10.0464882658
 20
9.1244907652
 30
0.0
 10
10.0562933355
 20
9.129970406
 30
0.0
 10
10.0658262854
 20
9.1359098747
 30
0.0
 10
10.0750396592
 20
9.1422581829
 30
0.0
 10
10.0838697616
 20
9.1489473581
 30
0.0
 10
10.0895186119
 20
9.1536365008
 30
0.0
 10
10.0922625957
 20
9.1560227962
 30
0.0
  0
SPLINE
  5
372
100
AcDbEntity
  8
0
100
AcDbSpline
 62
7
  6
CONTINUOUS
 70
0
 71
3
 72
23
 73
19
 74
0
 42
0.0000001
 43
0.0000001
 44
0.0000000001
 40
0.0
 40
0.0
 40
0.0
 40
0.0
 40
0.0637769127
 40
0.127344953
 40
0.1907019652
 40
0.2538561227
 40
0.3168132057
 40
0.3795820872
 40
0.4421733866
 40
0.5045993385
 40
0.5668738691
 40
0.6290123824
 40
0.6910316505
 40
0.7529496453
 40
0.8147853569
 40
0.8765586065
 40
0.9382898561
 40
1.0
 40
1.0
 40
1.0
 40
1.0
 10
9.4063599006
 20
7.5791988372
 30
0.0
 10
9.4063599006
 20
7.5846220287
 30
0.0
 10
9.406619486
 20
7.5954524877
 30
0.0
 10
9.4077910725
 20
7.611632284
 30
0.0
 10
9.4097417972
 20
7.6276838351
 30
0.0
 10
9.4124669721
 20
7.6435694369
 30
0.0
 10
9.4159605217
 20
7.6592527817
 30
0.0
 10
9.420214366
 20
7.6746976142
 30
0.0
 10
9.42521872
 20
7.6898683541
 30
0.0
 10
9.4309620895
 20
7.7047300169
 30
0.0
 10
9.4374312818
 20
7.7192483167
 30
0.0
 10
9.444611408
 20
7.7333897653
 30
0.0
 10
9.4524859104
 20
7.7471217507
 30
0.0
 10
9.4610366572
 20
7.7604126033
 30
0.0
 10
9.4702439335
 20
7.7732316213
 30
0.0
 10
9.480086629
 20
7.7855493235
 30
0.0
 10
9.4905416418
 20
7.7973369191
 30
0.0
 10
9.4979051619
 20
7.8048251818
 30
0.0
 10
9.5016794194
 20
7.8084708193
 30
0.0
  0
SPLINE
  5
373
100
AcDbEntity
  8
0
100
AcDbSpline
 62
7
  6
CONTINUOUS
 70
0
 71
3
 72
39
 73
35
 74
0
 42
0.0000001
 43
0.0000001
 44
0.0000000001
 40
0.0
 40
0.0
 40
0.0
 40
0.0
 40
0.0310753511
 40
0.0623079071
 40
0.0936931323
 40
0.1252222879
 40
0.1568840438
 40
0.1886642044
 40
0.2205461649
 40
0.2525112495
 40
0.2845391085
 40
0.3166081364
 40
0.3486959075
 40
0.3807796234
 40
0.4128365659
 40
0.4448445499
 40
0.4767823666
 40
0.5086302146
 40
0.540370109
 40
0.5719862657
 40
0.6034654504
 40
0.6347972851
 40
0.6659745049
 40
0.6969931576
 40
0.7278527402
 40
0.7585562639
 40
0.7891102404
 40
0.8195245852
 40
0.8498124376
 40
0.8799898966
 40
0.9100756756
 40
0.9400906817
 40
0.970057529
 40
1.0
 40
1.0
 40
1.0
 40
1.0
 10
9.4063599006
 20
7.5791988372
 30
0.0
 10
9.4063599006
 20
7.5707847159
 30
0.0
 10
9.4069875738
 20
7.5539074326
 30
0.0
 10
9.4097900091
 20
7.5286722997
 30
0.0
 10
9.4144399269
 20
7.5035853486
 30
0.0
 10
9.4209116407
 20
7.4787861115
 30
0.0
 10
9.4291693081
 20
7.4544103038
 30
0.0
 10
9.4391674206
 20
7.4305918417
 30
0.0
 10
9.450850909
 20
7.4074614054
 30
0.0
 10
9.46415549
 20
7.3851459209
 30
0.0
 10
9.4790080275
 20
7.3637678274
 30
0.0
 10
9.4953269295
 20
7.3434444286
 30
0.0
 10
9.5130225923
 20
7.3242872538
 30
0.0
 10
9.5319978876
 20
7.3064014564
 30
0.0
 10
9.5521486694
 20
7.2898852195
 30
0.0
 10
9.573364361
 20
7.274829239
 30
0.0
 10
9.5955285559
 20
7.2613162339
 30
0.0
 10
9.6185196458
 20
7.2494204954
 30
0.0
 10
9.6422114807
 20
7.2392074846
 30
0.0
 10
9.6664740434
 20
7.2307334599
 30
0.0
 10
9.6911741539
 20
7.2240451552
 30
0.0
 10
9.7161761995
 20
7.2191795456
 30
0.0
 10
9.7413428651
 20
7.2161636344
 30
0.0
 10
9.7665358764
 20
7.2150142965
 30
0.0
 10
9.791616748
 20
7.2157381779
 30
0.0
 10
9.81644754
 20
7.218331612
 30
0.0
 10
9.840891615
 20
7.2227806471
 30
0.0
 10
9.86481439
 20
7.2290611146
 30
0.0
 10
9.8880840676
 20
7.2371387282
 30
0.0
 10
9.9105724142
 20
7.2469693027
 30
0.0
 10
9.9321553153
 20
7.2584988033
 30
0.0
 10
9.9527141132
 20
7.271664231
 30
0.0
 10
9.9721339477
 20
7.2863917176
 30
0.0
 10
9.984254998
 20
7.297202302
 30
0.0
 10
9.990086278
 20
7.3028348623
 30
0.0
  0
SPLINE
  5
374
100
AcDbEntity
  8
0
100
AcDbSpline
 62
7
  6
CONTINUOUS
 70
0
 71
3
 72
50
 73
46
 74
0
 42
0.0000001
 43
0.0000001
 44
0.0000000001
 40
0.0
 40
0.0
 40
0.0
 40
0.0
 40
0.0149717278
 40
0.0299465149
 40
0.044927401
 40
0.0599173893
 40
0.0749194283
 40
0.0899363919
 40
0.1049710634
 40
0.1200261205
 40
0.1351041177
 40
0.1502074705
 40
0.165338445
 40
0.1804991437
 40
0.1956914918
 40
0.21091723
 40
0.2261779061
 40
0.2414748638
 40
0.2568092383
 40
0.2721819537
 40
0.287593716
 40
0.3030450104
 40
0.3185361039
 40
0.3340670439
 40
0.3652423167
 40
0.3965721964
 40
0.4280494165
 40
0.4596636006
 40
0.4914015142
 40
0.5232473741
 40
0.5551831985
 40
0.5871891855
 40
0.6192441282
 40
0.6513258427
 40
0.683411612
 40
0.7154786397
 40
0.7475045014
 40
0.7794675918
 40
0.8113475634
 40
0.8431257421
 40
0.8747855204
 40
0.9063127266
 40
0.9376959415
 40
0.9689266162
 40
1.0
 40
1.0
 40
1.0
 40
1.0
 10
11.5101625844
 20
7.1829083722
 30
0.0
 10
11.50471236
 20
7.1776438542
 30
0.0
 10
11.4936002346
 20
7.1673292459
 30
0.0
 10
11.4763285246
 20
7.1525302948
 30
0.0
 10
11.4584752539
 20
7.1384228967
 30
0.0
 10
11.440065354
 20
7.1250267624
 30
0.0
 10
11.4211240524
 20
7.1123602589
 30
0.0
 10
11.4016774324
 20
7.100440855
 30
0.0
 10
11.3817522809
 20
7.0892848931
 30
0.0
 10
11.3613760148
 20
7.0789077251
 30
0.0
 10
11.3405766563
 20
7.0693236628
 30
0.0
 10
11.3193828527
 20
7.0605458357
 30
0.0
 10
11.2978237708
 20
7.0525862972
 30
0.0
 10
11.2759290598
 20
7.0454560329
 30
0.0
 10
11.253728857
 20
7.0391648121
 30
0.0
 10
11.2312537147
 20
7.0337212422
 30
0.0
 10
11.2085345436
 20
7.0291328327
 30
0.0
 10
11.1856025998
 20
7.0254058865
 30
0.0
 10
11.1624894346
 20
7.022545464
 30
0.0
 10
11.1392268433
 20
7.0205554989
 30
0.0
 10
11.1158467917
 20
7.0194387539
 30
0.0
 10
11.0923815457
 20
7.019196676
 30
0.0
 10
11.0688629729
 20
7.0198296426
 30
0.0
 10
11.037441623
 20
7.0218412726
 30
0.0
 10
10.9981875189
 20
7.0265450687
 30
0.0
 10
10.9514564465
 20
7.0356394972
 30
0.0
 10
10.9052883531
 20
7.0481407975
 30
0.0
 10
10.8599384791
 20
7.063979888
 30
0.0
 10
10.8156552579
 20
7.0830693373
 30
0.0
 10
10.7726818334
 20
7.1053040072
 30
0.0
 10
10.7312540036
 20
7.1305616107
 30
0.0
 10
10.6915990307
 20
7.1587032084
 30
0.0
 10
10.6539345471
 20
7.1895742643
 30
0.0
 10
10.6184671964
 20
7.2230051974
 30
0.0
 10
10.5853916119
 20
7.2588124728
 30
0.0
 10
10.5548894147
 20
7.296799611
 30
0.0
 10
10.5271280149
 20
7.3367580903
 30
0.0
 10
10.502259991
 20
7.3784687061
 30
0.0
 10
10.4804220126
 20
7.4217025759
 30
0.0
 10
10.4617341809
 20
7.4662224368
 30
0.0
 10
10.446299499
 20
7.5117840722
 30
0.0
 10
10.434202995
 20
7.5581371222
 30
0.0
 10
10.4255116472
 20
7.6050279832
 30
0.0
 10
10.4202735813
 20
7.6521958032
 30
0.0
 10
10.4191003548
 20
7.6837417085
 30
0.0
 10
10.4191003548
 20
7.6994688062
 30
0.0
  0
SPLINE
  5
375
100
AcDbEntity
  8
0
100
AcDbSpline
 62
7
  6
CONTINUOUS
 70
0
 71
3
 72
15
 73
11
 74
0
 42
0.0000001
 43
0.0000001
 44
0.0000000001
 40
0.0
 40
0.0
 40
0.0
 40
0.0
 40
0.1271898686
 40
0.2536381275
 40
0.3793794719
 40
0.5044664109
 40
0.6289731338
 40
0.7529910505
 40
0.8766270459
 40
1.0
 40
1.0
 40
1.0
 40
1.0
 10
9.8529725259
 20
7.7840935319
 30
0.0
 10
9.8529725259
 20
7.7875051512
 30
0.0
 10
9.853261211
 20
7.7943121822
 30
0.0
 10
9.8545663541
 20
7.804416471
 30
0.0
 10
9.8567330728
 20
7.8143148934
 30
0.0
 10
9.8597459768
 20
7.8239348565
 30
0.0
 10
9.8635833687
 20
7.8332068259
 30
0.0
 10
9.8682178353
 20
7.8420637196
 30
0.0
 10
9.8736152186
 20
7.8504404626
 30
0.0
 10
9.8777007532
 20
7.8556701321
 30
0.0
 10
9.8798546719
 20
7.85818244
 30
0.0
  0
SPLINE
  5
376
100
AcDbEntity
  8
0
100
AcDbSpline
 62
7
  6
CONTINUOUS
 70
0
 71
3
 72
13
 73
9
 74
0
 42
0.0000001
 43
0.0000001
 44
0.0000000001
 40
0.0
 40
0.0
 40
0.0
 40
0.0
 40
0.2521222219
 40
0.5027549839
 40
0.6275646502
 40
0.7520312743
 40
0.876170514
 40
1.0
 40
1.0
 40
1.0
 40
1.0
 10
9.6003446172
 20
7.766573696
 30
0.0
 10
9.6003446172
 20
7.7762934502
 30
0.0
 10
9.601177738
 20
7.7956855706
 30
0.0
 10
9.6043225235
 20
7.8197067556
 30
0.0
 10
9.6080848672
 20
7.8386137905
 30
0.0
 10
9.6115188656
 20
7.8525991791
 30
0.0
 10
9.615562226
 20
7.8663808229
 30
0.0
 10
9.6186631275
 20
7.8754275889
 30
0.0
 10
9.6203124396
 20
7.8799074725
 30
0.0
  0
SPLINE
  5
377
100
AcDbEntity
  8
0
100
AcDbSpline
 62
7
  6
CONTINUOUS
 70
0
 71
3
 72
37
 73
33
 74
0
 42
0.0000001
 43
0.0000001
 44
0.0000000001
 40
0.0
 40
0.0
 40
0.0
 40
0.0
 40
0.0063161056
 40
0.0126711335
 40
0.0191032106
 40
0.0256489991
 40
0.0392093745
 40
0.0536077711
 40
0.0690451722
 40
0.0856788319
 40
0.1036274206
 40
0.1229778506
 40
0.1437911075
 40
0.1661074541
 40
0.1899507493
 40
0.2153311921
 40
0.2422480356
 40
0.270691432
 40
0.3006435247
 40
0.3320799515
 40
0.3649704769
 40
0.399279593
 40
0.4349674002
 40
0.4719897169
 40
0.5102986224
 40
0.5498429193
 40
0.590568095
 40
0.6324168879
 40
0.7192412156
 40
0.8098111096
 40
0.903585601
 40
1.0
 40
1.0
 40
1.0
 40
1.0
 10
12.11420618
 20
7.3610708957
 30
0.0
 10
12.114708164
 20
7.3610360791
 30
0.0
 10
12.1157128553
 20
7.3609251407
 30
0.0
 10
12.1172086146
 20
7.3606359685
 30
0.0
 10
12.1186944214
 20
7.3602240482
 30
0.0
 10
12.1206839547
 20
7.3595034181
 30
0.0
 10
12.1231560682
 20
7.3582782481
 30
0.0
 10
12.1260291712
 20
7.3563397735
 30
0.0
 10
12.1288421669
 20
7.3539217421
 30
0.0
 10
12.1315919463
 20
7.3510296699
 30
0.0
 10
12.1342760665
 20
7.3476686754
 30
0.0
 10
12.1368913748
 20
7.3438440647
 30
0.0
 10
12.1394345052
 20
7.3395617209
 30
0.0
 10
12.1419018627
 20
7.3348282412
 30
0.0
 10
12.144289681
 20
7.3296509765
 30
0.0
 10
12.146594253
 20
7.324038112
 30
0.0
 10
12.1488118781
 20
7.3179986009
 30
0.0
 10
12.1509389145
 20
7.3115421571
 30
0.0
 10
12.1529719037
 20
7.3046792498
 30
0.0
 10
12.1549074619
 20
7.2974210452
 30
0.0
 10
12.1567423707
 20
7.2897793983
 30
0.0
 10
12.1584736073
 20
7.2817668264
 30
0.0
 10
12.1600982597
 20
7.2733964717
 30
0.0
 10
12.161613634
 20
7.2646820878
 30
0.0
 10
12.1630172191
 20
7.2556380058
 30
0.0
 10
12.1643066405
 20
7.2462791135
 30
0.0
 10
12.1654798019
 20
7.2366208096
 30
0.0
 10
12.1669037574
 20
7.2232001281
 30
0.0
 10
12.1683677937
 20
7.2057925544
 30
0.0
 10
12.1696150107
 20
7.1842229786
 30
0.0
 10
12.1703647049
 20
7.1618661334
 30
0.0
 10
12.1705274168
 20
7.146713624
 30
0.0
 10
12.1705274168
 20
7.1390325055
 30
0.0
  0
SPLINE
  5
378
100
AcDbEntity
  8
0
100
AcDbSpline
 62
7
  6
CONTINUOUS
 70
0
 71
3
 72
37
 73
33
 74
0
 42
0.0000001
 43
0.0000001
 44
0.0000000001
 40
0.0
 40
0.0
 40
0.0
 40
0.0
 40
0.0063161056
 40
0.0126711335
 40
0.0191032106
 40
0.0256489991
 40
0.0392093745
 40
0.0536077711
 40
0.0690451722
 40
0.0856788319
 40
0.1036274206
 40
0.1229778506
 40
0.1437911075
 40
0.1661074541
 40
0.1899507493
 40
0.2153311921
 40
0.2422480356
 40
0.270691432
 40
0.3006435247
 40
0.3320799515
 40
0.3649704769
 40
0.399279593
 40
0.4349674002
 40
0.4719897169
 40
0.5102986224
 40
0.5498429193
 40
0.590568095
 40
0.6324168879
 40
0.7192412156
 40
0.8098111096
 40
0.903585601
 40
1.0
 40
1.0
 40
1.0
 40
1.0
 10
12.11420618
 20
9.0514410767
 30
0.0
 10
12.114708164
 20
9.0514062601
 30
0.0
 10
12.1157128553
 20
9.0512953217
 30
0.0
 10
12.1172086146
 20
9.0510061495
 30
0.0
 10
12.1186944214
 20
9.0505942292
 30
0.0
 10
12.1206839547
 20
9.0498735991
 30
0.0
 10
12.1231560682
 20
9.0486484291
 30
0.0
 10
12.1260291712
 20
9.0467099545
 30
0.0
 10
12.1288421669
 20
9.0442919232
 30
0.0
 10
12.1315919463
 20
9.0413998509
 30
0.0
 10
12.1342760665
 20
9.0380388564
 30
0.0
 10
12.1368913748
 20
9.0342142457
 30
0.0
 10
12.1394345052
 20
9.029931902
 30
0.0
 10
12.1419018627
 20
9.0251984222
 30
0.0
 10
12.144289681
 20
9.0200211575
 30
0.0
 10
12.146594253
 20
9.014408293
 30
0.0
 10
12.1488118781
 20
9.0083687819
 30
0.0
 10
12.1509389145
 20
9.0019123381
 30
0.0
 10
12.1529719037
 20
8.9950494308
 30
0.0
 10
12.1549074619
 20
8.9877912262
 30
0.0
 10
12.1567423707
 20
8.9801495793
 30
0.0
 10
12.1584736073
 20
8.9721370075
 30
0.0
 10
12.1600982597
 20
8.9637666528
 30
0.0
 10
12.161613634
 20
8.9550522688
 30
0.0
 10
12.1630172191
 20
8.9460081868
 30
0.0
 10
12.1643066405
 20
8.9366492945
 30
0.0
 10
12.1654798019
 20
8.9269909906
 30
0.0
 10
12.1669037574
 20
8.9135703092
 30
0.0
 10
12.1683677937
 20
8.8961627354
 30
0.0
 10
12.1696150107
 20
8.8745931596
 30
0.0
 10
12.1703647049
 20
8.8522363144
 30
0.0
 10
12.1705274168
 20
8.8370838051
 30
0.0
 10
12.1705274168
 20
8.8294026865
 30
0.0
  0
SPLINE
  5
379
100
AcDbEntity
  8
0
100
AcDbSpline
 62
7
  6
CONTINUOUS
 70
0
 71
3
 72
39
 73
35
 74
0
 42
0.0000001
 43
0.0000001
 44
0.0000000001
 40
0.0
 40
0.0
 40
0.0
 40
0.0
 40
0.0299252117
 40
0.0598996256
 40
0.0899440596
 40
0.1200777637
 40
0.1503180055
 40
0.1806797095
 40
0.211175159
 40
0.2418137672
 40
0.2726019176
 40
0.3035428743
 40
0.3346367594
 40
0.3658805969
 40
0.3972684159
 40
0.4287914092
 40
0.4604381407
 40
0.4921947968
 40
0.5240454754
 40
0.5559725057
 40
0.5879567916
 40
0.6199781738
 40
0.6520158075
 40
0.6840485476
 40
0.716055338
 40
0.7480156007
 40
0.7799096202
 40
0.811718911
 40
0.8434265952
 40
0.8750176462
 40
0.9064794966
 40
0.9378013964
 40
0.9689769763
 40
1.0
 40
1.0
 40
1.0
 40
1.0
 10
10.0529949816
 20
7.6791574936
 30
0.0
 10
10.0508247073
 20
7.6774185289
 30
0.0
 10
10.0463453798
 20
7.6741027549
 30
0.0
 10
10.039260754
 20
7.6696524721
 30
0.0
 10
10.0318410154
 20
7.6657439576
 30
0.0
 10
10.0241246632
 20
7.6623975541
 30
0.0
 10
10.0161510623
 20
7.6596302074
 30
0.0
 10
10.0079610511
 20
7.6574560227
 30
0.0
 10
9.9995965116
 20
7.6558860187
 30
0.0
 10
9.9911002099
 20
7.6549281239
 30
0.0
 10
9.982515559
 20
7.6545871334
 30
0.0
 10
9.9738864023
 20
7.6548646914
 30
0.0
 10
9.9652567891
 20
7.6557592873
 30
0.0
 10
9.9566707527
 20
7.6572662677
 30
0.0
 10
9.9481720882
 20
7.6593778631
 30
0.0
 10
9.9398041319
 20
7.6620832298
 30
0.0
 10
9.931609544
 20
7.6653685084
 30
0.0
 10
9.9236300912
 20
7.669216888
 30
0.0
 10
9.9159064369
 20
7.6736086981
 30
0.0
 10
9.9084779378
 20
7.6785215104
 30
0.0
 10
9.9013824457
 20
7.6839302527
 30
0.0
 10
9.894656117
 20
7.6898073358
 30
0.0
 10
9.8883332311
 20
7.6961227929
 30
0.0
 10
9.8824460174
 20
7.7028444311
 30
0.0
 10
9.8770244926
 20
7.7099379931
 30
0.0
 10
9.8720963097
 20
7.7173673307
 30
0.0
 10
9.8676866129
 20
7.7250945832
 30
0.0
 10
9.8638179092
 20
7.7330803731
 30
0.0
 10
9.8605099726
 20
7.7412839997
 30
0.0
 10
9.857779695
 20
7.7496636691
 30
0.0
 10
9.8556411164
 20
7.7581766018
 30
0.0
 10
9.8541051144
 20
7.7667796084
 30
0.0
 10
9.8531797431
 20
7.7754281578
 30
0.0
 10
9.8529725259
 20
7.7812104866
 30
0.0
 10
9.8529725259
 20
7.7840935319
 30
0.0
  0
SPLINE
  5
37A
100
AcDbEntity
  8
0
100
AcDbSpline
 62
7
  6
CONTINUOUS
 70
0
 71
3
 72
15
 73
11
 74
0
 42
0.0000001
 43
0.0000001
 44
0.0000000001
 40
0.0
 40
0.0
 40
0.0
 40
0.0
 40
0.1065778881
 40
0.2177104066
 40
0.3339272257
 40
0.4555958523
 40
0.5829537719
 40
0.7161296713
 40
0.8551634639
 40
1.0
 40
1.0
 40
1.0
 40
1.0
 10
11.1287418204
 20
7.9156312348
 30
0.0
 10
11.1320007221
 20
7.9159669195
 30
0.0
 10
11.1386909329
 20
7.9163523221
 30
0.0
 10
11.1489614339
 20
7.9161730268
 30
0.0
 10
11.1596615776
 20
7.9153140987
 30
0.0
 10
11.1707956728
 20
7.9138393564
 30
0.0
 10
11.1823706545
 20
7.9118107141
 30
0.0
 10
11.1943933975
 20
7.9092896676
 30
0.0
 10
11.2068697031
 20
7.906337663
 30
0.0
 10
11.2153219512
 20
7.9041673918
 30
0.0
 10
11.2196270217
 20
7.9030323141
 30
0.0
  0
SPLINE
  5
37B
100
AcDbEntity
  8
0
100
AcDbSpline
 62
7
  6
CONTINUOUS
 70
0
 71
3
 72
41
 73
37
 74
0
 42
0.0000001
 43
0.0000001
 44
0.0000000001
 40
0.0
 40
0.0
 40
0.0
 40
0.0
 40
0.0301175093
 40
0.0452185488
 40
0.0603479329
 40
0.0906916115
 40
0.121158324
 40
0.1364410016
 40
0.1517558305
 40
0.1824791133
 40
0.2133320732
 40
0.2443130793
 40
0.275418634
 40
0.3066434459
 40
0.3379805255
 40
0.3694213023
 40
0.4009557599
 40
0.4325725879
 40
0.4642593471
 40
0.4960026467
 40
0.527788331
 40
0.5596016735
 40
0.5914275762
 40
0.623250773
 40
0.6550560339
 40
0.6868283694
 40
0.7185532325
 40
0.7502167166
 40
0.7818057468
 40
0.813308264
 40
0.8447133973
 40
0.8760116273
 40
0.9071949241
 40
0.9382568997
 40
0.9691928585
 40
1.0
 40
1.0
 40
1.0
 40
1.0
 10
10.0653631105
 20
7.4188460345
 30
0.0
 10
10.0589470338
 20
7.4167386994
 30
0.0
 10
10.0492092819
 20
7.413881112
 30
0.0
 10
10.0360574324
 20
7.4106899304
 30
0.0
 10
10.0227614883
 20
7.4079040224
 30
0.0
 10
10.0059376923
 20
7.4051991177
 30
0.0
 10
9.9889440998
 20
7.403543466
 30
0.0
 10
9.975267399
 20
7.4028474916
 30
0.0
 10
9.9615182644
 20
7.4025711588
 30
0.0
 10
9.9442710169
 20
7.4030178339
 30
0.0
 10
9.9235823148
 20
7.4048146455
 30
0.0
 10
9.902954245
 20
7.4078659989
 30
0.0
 10
9.8824637812
 20
7.4121604879
 30
0.0
 10
9.8621867402
 20
7.4176820869
 30
0.0
 10
9.8421983043
 20
7.4244102377
 30
0.0
 10
9.8225725291
 20
7.4323199207
 30
0.0
 10
9.8033821304
 20
7.4413817499
 30
0.0
 10
9.7846982013
 20
7.4515620821
 30
0.0
 10
9.7665899556
 20
7.462823142
 30
0.0
 10
9.7491244726
 20
7.4751231617
 30
0.0
 10
9.7323664507
 20
7.488416535
 30
0.0
 10
9.7163779702
 20
7.5026539855
 30
0.0
 10
9.7012182643
 20
7.5177827483
 30
0.0
 10
9.6869435019
 20
7.5337467647
 30
0.0
 10
9.6736065808
 20
7.5504868875
 30
0.0
 10
9.6612569325
 20
7.5679410999
 30
0.0
 10
9.6499403409
 20
7.5860447425
 30
0.0
 10
9.6396987727
 20
7.6047307517
 30
0.0
 10
9.6305702229
 20
7.623929905
 30
0.0
 10
9.6225885749
 20
7.6435710783
 30
0.0
 10
9.6157834733
 20
7.663581498
 30
0.0
 10
9.6101802168
 20
7.6838870395
 30
0.0
 10
9.6057996576
 20
7.7044123831
 30
0.0
 10
9.6026581351
 20
7.7250817249
 30
0.0
 10
9.6007673917
 20
7.745817429
 30
0.0
 10
9.6003446172
 20
7.7596657706
 30
0.0
 10
9.6003446172
 20
7.766573696
 30
0.0
  0
SPLINE
  5
37C
100
AcDbEntity
  8
0
100
AcDbSpline
 62
4
  6
CONTINUOUS
 70
0
 71
3
 72
299
 73
295
 74
0
 42
0.0000001
 43
0.0000001
 44
0.0000000001
 40
0.0
 40
0.0
 40
0.0
 40
0.0
 40
0.015625
 40
0.0234375
 40
0.03125
 40
0.0390625
 40
0.046875
 40
0.05078125
 40
0.0546875
 40
0.056640625
 40
0.05859375
 40
0.060546875
 40
0.0615234375
 40
0.0620117188
 40
0.0625
 40
0.0629882812
 40
0.0634765625
 40
0.064453125
 40
0.06640625
 40
0.068359375
 40
0.0703125
 40
0.07421875
 40
0.078125
 40
0.0859375
 40
0.09375
 40
0.1015625
 40
0.109375
 40
0.11328125
 40
0.1171875
 40
0.119140625
 40
0.12109375
 40
0.123046875
 40
0.1240234375
 40
0.1245117188
 40
0.125
 40
0.1254882812
 40
0.1259765625
 40
0.126953125
 40
0.12890625
 40
0.130859375
 40
0.1328125
 40
0.13671875
 40
0.140625
 40
0.1484375
 40
0.15625
 40
0.1640625
 40
0.171875
 40
0.17578125
 40
0.1796875
 40
0.181640625
 40
0.18359375
 40
0.185546875
 40
0.1865234375
 40
0.1870117188
 40
0.1875
 40
0.1879882812
 40
0.1884765625
 40
0.189453125
 40
0.19140625
 40
0.193359375
 40
0.1953125
 40
0.19921875
 40
0.203125
 40
0.2109375
 40
0.21875
 40
0.2265625
 40
0.234375
 40
0.23828125
 40
0.2421875
 40
0.24609375
 40
0.248046875
 40
0.2490234375
 40
0.25
 40
0.2509765625
 40
0.251953125
 40
0.25390625
 40
0.2578125
 40
0.26171875
 40
0.265625
 40
0.2734375
 40
0.28125
 40
0.2890625
 40
0.296875
 40
0.30078125
 40
0.3046875
 40
0.30859375
 40
0.310546875
 40
0.3115234375
 40
0.3125
 40
0.3134765625
 40
0.314453125
 40
0.31640625
 40
0.3203125
 40
0.32421875
 40
0.328125
 40
0.3359375
 40
0.34375
 40
0.3515625
 40
0.359375
 40
0.36328125
 40
0.3671875
 40
0.37109375
 40
0.373046875
 40
0.3740234375
 40
0.375
 40
0.3759765625
 40
0.376953125
 40
0.37890625
 40
0.3828125
 40
0.38671875
 40
0.390625
 40
0.3984375
 40
0.40625
 40
0.4140625
 40
0.421875
 40
0.42578125
 40
0.4296875
 40
0.43359375
 40
0.435546875
 40
0.4375
 40
0.439453125
 40
0.44140625
 40
0.4453125
 40
0.44921875
 40
0.453125
 40
0.4609375
 40
0.46875
 40
0.4765625
 40
0.484375
 40
0.48828125
 40
0.4921875
 40
0.49609375
 40
0.498046875
 40
0.4990234375
 40
0.5
 40
0.5009765625
 40
0.501953125
 40
0.50390625
 40
0.5078125
 40
0.51171875
 40
0.515625
 40
0.5234375
 40
0.53125
 40
0.5390625
 40
0.546875
 40
0.55078125
 40
0.5546875
 40
0.556640625
 40
0.55859375
 40
0.560546875
 40
0.5615234375
 40
0.5625
 40
0.5634765625
 40
0.564453125
 40
0.56640625
 40
0.568359375
 40
0.5703125
 40
0.57421875
 40
0.578125
 40
0.5859375
 40
0.59375
 40
0.6015625
 40
0.609375
 40
0.61328125
 40
0.6171875
 40
0.619140625
 40
0.62109375
 40
0.623046875
 40
0.6240234375
 40
0.6245117188
 40
0.625
 40
0.6254882812
 40
0.6259765625
 40
0.626953125
 40
0.62890625
 40
0.630859375
 40
0.6328125
 40
0.63671875
 40
0.640625
 40
0.6484375
 40
0.65625
 40
0.6640625
 40
0.671875
 40
0.67578125
 40
0.6796875
 40
0.681640625
 40
0.68359375
 40
0.685546875
 40
0.6865234375
 40
0.6870117188
 40
0.6875
 40
0.6879882812
 40
0.6884765625
 40
0.689453125
 40
0.69140625
 40
0.693359375
 40
0.6953125
 40
0.69921875
 40
0.703125
 40
0.7109375
 40
0.71875
 40
0.7265625
 40
0.734375
 40
0.73828125
 40
0.7421875
 40
0.744140625
 40
0.74609375
 40
0.748046875
 40
0.7490234375
 40
0.7495117188
 40
0.75
 40
0.7504882812
 40
0.7509765625
 40
0.751953125
 40
0.75390625
 40
0.755859375
 40
0.7578125
 40
0.76171875
 40
0.765625
 40
0.7734375
 40
0.78125
 40
0.7890625
 40
0.79296875
 40
0.796875
 40
0.80078125
 40
0.8046875
 40
0.806640625
 40
0.80859375
 40
0.810546875
 40
0.8115234375
 40
0.8120117188
 40
0.8125
 40
0.8129882812
 40
0.8134765625
 40
0.814453125
 40
0.81640625
 40
0.818359375
 40
0.8203125
 40
0.82421875
 40
0.828125
 40
0.83203125
 40
0.8359375
 40
0.84375
 40
0.8515625
 40
0.85546875
 40
0.859375
 40
0.86328125
 40
0.8671875
 40
0.869140625
 40
0.87109375
 40
0.8720703125
 40
0.873046875
 40
0.8740234375
 40
0.8745117188
 40
0.875
 40
0.8754882812
 40
0.8759765625
 40
0.876953125
 40
0.8779296875
 40
0.87890625
 40
0.880859375
 40
0.8828125
 40
0.88671875
 40
0.890625
 40
0.89453125
 40
0.8984375
 40
0.90625
 40
0.9140625
 40
0.91796875
 40
0.921875
 40
0.92578125
 40
0.9296875
 40
0.931640625
 40
0.93359375
 40
0.9345703125
 40
0.935546875
 40
0.9365234375
 40
0.9370117188
 40
0.9375
 40
0.9379882812
 40
0.9384765625
 40
0.939453125
 40
0.9404296875
 40
0.94140625
 40
0.943359375
 40
0.9453125
 40
0.94921875
 40
0.953125
 40
0.95703125
 40
0.9609375
 40
0.96875
 40
0.9765625
 40
0.984375
 40
1.0
 40
1.0
 40
1.0
 40
1.0
 10
12.4252051517
 20
9.1206078376
 30
0.0
 10
12.4243656175
 20
9.1194896982
 30
0.0
 10
12.4231063162
 20
9.1178124893
 30
0.0
 10
12.421427248
 20
9.1155762098
 30
0.0
 10
12.4201679466
 20
9.1138990025
 30
0.0
 10
12.4189086458
 20
9.1122217863
 30
0.0
 10
12.4178592268
 20
9.1108241338
 30
0.0
 10
12.4170196952
 20
9.10970595
 30
0.0
 10
12.41649498
 20
9.1090072257
 30
0.0
 10
12.4160752259
 20
9.1084479243
 30
0.0
 10
12.415760361
 20
9.1080293297
 30
0.0
 10
12.4154981304
 20
9.107677697
 30
0.0
 10
12.4153142612
 20
9.1074370566
 30
0.0
 10
12.4152096736
 20
9.1072909561
 30
0.0
 10
12.4151298795
 20
9.1072055836
 30
0.0
 10
12.4150552589
 20
9.1070276956
 30
0.0
 10
12.4149539601
 20
9.106822782
 30
0.0
 10
12.4147775282
 20
9.1064491477
 30
0.0
 10
12.4145250429
 20
9.1059232452
 30
0.0
 10
12.4142222488
 20
9.1052887976
 30
0.0
 10
12.4138184576
 20
9.1044440427
 30
0.0
 10
12.413313741
 20
9.1033876966
 30
0.0
 10
12.412506182
 20
9.1016977678
 30
0.0
 10
12.4114967375
 20
9.0995852792
 30
0.0
 10
12.4102854021
 20
9.0970503281
 30
0.0
 10
12.4090740681
 20
9.0945153602
 30
0.0
 10
12.40806462
 20
9.0924029135
 30
0.0
 10
12.4072570683
 20
9.0907129009
 30
0.0
 10
12.406752333
 20
9.0896567678
 30
0.0
 10
12.4063485802
 20
9.0888115756
 30
0.0
 10
12.4060456688
 20
9.0881784637
 30
0.0
 10
12.4057935503
 20
9.0876483822
 30
0.0
 10
12.4056164637
 20
9.0872822082
 30
0.0
 10
12.4055162139
 20
9.0870653414
 30
0.0
 10
12.4054383712
 20
9.0869241697
 30
0.0
 10
12.4053706787
 20
9.0867008968
 30
0.0
 10
12.4052768814
 20
9.0864318374
 30
0.0
 10
12.4051143858
 20
9.0859476405
 30
0.0
 10
12.4048813869
 20
9.0852629065
 30
0.0
 10
12.4046021572
 20
9.0844382399
 30
0.0
 10
12.4042297221
 20
9.0833397273
 30
0.0
 10
12.4037642224
 20
9.0819662294
 30
0.0
 10
12.4030193981
 20
9.0797688324
 30
0.0
 10
12.4020883763
 20
9.0770220173
 30
0.0
 10
12.4009711462
 20
9.0737258705
 30
0.0
 10
12.3998539183
 20
9.0704297084
 30
0.0
 10
12.3989228909
 20
9.0676829314
 30
0.0
 10
12.3981780778
 20
9.0654854582
 30
0.0
 10
12.3977125498
 20
9.064112154
 30
0.0
 10
12.3973401727
 20
9.0630132439
 30
0.0
 10
12.3970607659
 20
9.0621897916
 30
0.0
 10
12.3968283212
 20
9.0615012581
 30
0.0
 10
12.3966648361
 20
9.0610238441
 30
0.0
 10
12.3965726243
 20
9.0607439169
 30
0.0
 10
12.3965000617
 20
9.0605540264
 30
0.0
 10
12.3964405101
 20
9.0602874757
 30
0.0
 10
12.3963565695
 20
9.0599588148
 30
0.0
 10
12.396211788
 20
9.0593711996
 30
0.0
 10
12.3960038518
 20
9.0585382627
 30
0.0
 10
12.3957548015
 20
9.0575359505
 30
0.0
 10
12.3954225692
 20
9.056200508
 30
0.0
 10
12.3950073355
 20
9.0545308715
 30
0.0
 10
12.3943429297
 20
9.0518596397
 30
0.0
 10
12.3935124346
 20
9.0485205333
 30
0.0
 10
12.3925158301
 20
9.0445136454
 30
0.0
 10
12.3915192477
 20
9.040506705
 30
0.0
 10
12.3906886971
 20
9.03716773
 30
0.0
 10
12.3900244022
 20
9.0344962353
 30
0.0
 10
12.3895257835
 20
9.0324934734
 30
0.0
 10
12.3891115325
 20
9.0308217725
 30
0.0
 10
12.3888190749
 20
9.0296569445
 30
0.0
 10
12.3886558317
 20
9.0289829552
 30
0.0
 10
12.3885224823
 20
9.0285010509
 30
0.0
 10
12.388430863
 20
9.0279289827
 30
0.0
 10
12.3882941481
 20
9.0271976752
 30
0.0
 10
12.3880616789
 20
9.0259032339
 30
0.0
 10
12.3877260343
 20
9.024061693
 30
0.0
 10
12.3873247785
 20
9.0218485647
 30
0.0
 10
12.3867892405
 20
9.0188988726
 30
0.0
 10
12.3861200012
 20
9.0152113625
 30
0.0
 10
12.3853168299
 20
9.0107865282
 30
0.0
 10
12.3845137018
 20
9.0063616146
 30
0.0
 10
12.3838443547
 20
9.0026743026
 30
0.0
 10
12.3833090324
 20
8.9997242143
 30
0.0
 10
12.3829071187
 20
8.9975122947
 30
0.0
 10
12.3825735323
 20
8.9956669723
 30
0.0
 10
12.3823373889
 20
8.9943792815
 30
0.0
 10
12.3822065609
 20
8.9936371581
 30
0.0
 10
12.382096859
 20
8.9930983128
 30
0.0
 10
12.3820314249
 20
8.9924916286
 30
0.0
 10
12.3819287384
 20
8.9917063794
 30
0.0
 10
12.3817562312
 20
8.9903211682
 30
0.0
 10
12.3815060312
 20
8.988348059
 30
0.0
 10
12.3812074011
 20
8.9859778608
 30
0.0
 10
12.380808665
 20
8.9828184584
 30
0.0
 10
12.3803104395
 20
8.9788689089
 30
0.0
 10
12.3797124792
 20
8.9741295802
 30
0.0
 10
12.3791145659
 20
8.969390203
 30
0.0
 10
12.3786162231
 20
8.9654407748
 30
0.0
 10
12.3782177215
 20
8.9622811299
 30
0.0
 10
12.3779183765
 20
8.9599116717
 30
0.0
 10
12.3776704129
 20
8.9579362474
 30
0.0
 10
12.3774939133
 20
8.9565551691
 30
0.0
 10
12.3773976237
 20
8.9557632978
 30
0.0
 10
12.3773125403
 20
8.9551769542
 30
0.0
 10
12.3772766378
 20
8.9545617131
 30
0.0
 10
12.3772116129
 20
8.9537514714
 30
0.0
 10
12.3771058121
 20
8.952328852
 30
0.0
 10
12.3769504894
 20
8.9502989939
 30
0.0
 10
12.3767658906
 20
8.9478621132
 30
0.0
 10
12.3765191348
 20
8.9446133061
 30
0.0
 10
12.3762109001
 20
8.9405521717
 30
0.0
 10
12.3758409466
 20
8.9356788618
 30
0.0
 10
12.375470944
 20
8.9308055474
 30
0.0
 10
12.3751628323
 20
8.9267444242
 30
0.0
 10
12.3749158303
 20
8.9234955947
 30
0.0
 10
12.3747319824
 20
8.9210587822
 30
0.0
 10
12.3745743108
 20
8.9190287108
 30
0.0
 10
12.3744581877
 20
8.9174032952
 30
0.0
 10
12.374343732
 20
8.9161879458
 30
0.0
 10
12.3743337228
 20
8.9149584263
 30
0.0
 10
12.3742838927
 20
8.9133240168
 30
0.0
 10
12.3742341226
 20
8.9112793067
 30
0.0
 10
12.3741690407
 20
8.9088263816
 30
0.0
 10
12.3740841361
 20
8.9055555604
 30
0.0
 10
12.3739773648
 20
8.9014671233
 30
0.0
 10
12.3738495071
 20
8.8965609517
 30
0.0
 10
12.3737216028
 20
8.8916548254
 30
0.0
 10
12.3736149482
 20
8.8875662751
 30
0.0
 10
12.3735298102
 20
8.8842956803
 30
0.0
 10
12.3734654404
 20
8.8818420648
 30
0.0
 10
12.3734134423
 20
8.8797995143
 30
0.0
 10
12.3733738184
 20
8.8783655508
 30
0.0
 10
12.3733562122
 20
8.8775526668
 30
0.0
 10
12.373328821
 20
8.8769246266
 30
0.0
 10
12.3733556578
 20
8.8763668333
 30
0.0
 10
12.373372525
 20
8.8755986059
 30
0.0
 10
12.3734108555
 20
8.8742656244
 30
0.0
 10
12.3734610059
 20
8.8723553965
 30
0.0
 10
12.3735231584
 20
8.8700656778
 30
0.0
 10
12.3736053397
 20
8.8670118271
 30
0.0
 10
12.3737083023
 20
8.8631948193
 30
0.0
 10
12.3738317579
 20
8.858614282
 30
0.0
 10
12.3739552337
 20
8.8540337679
 30
0.0
 10
12.3740581459
 20
8.8502167022
 30
0.0
 10
12.3741404278
 20
8.8471629674
 30
0.0
 10
12.3741919658
 20
8.8452545739
 30
0.0
 10
12.3742329398
 20
8.8437274219
 30
0.0
 10
12.3742643726
 20
8.8425832553
 30
0.0
 10
12.3742883322
 20
8.8416259737
 30
0.0
 10
12.3743125113
 20
8.8408686924
 30
0.0
 10
12.3743169521
 20
8.8402773854
 30
0.0
 10
12.3743736612
 20
8.8397751902
 30
0.0
 10
12.3744310153
 20
8.8390744686
 30
0.0
 10
12.3745089722
 20
8.8382092466
 30
0.0
 10
12.3745998391
 20
8.8371664088
 30
0.0
 10
12.3747219316
 20
8.835777555
 30
0.0
 10
12.3748742264
 20
8.8340409411
 30
0.0
 10
12.3751180775
 20
8.8312626644
 30
0.0
 10
12.3754228299
 20
8.8277897141
 30
0.0
 10
12.3757885585
 20
8.823622217
 30
0.0
 10
12.3761542824
 20
8.8194547137
 30
0.0
 10
12.3764590466
 20
8.8159817787
 30
0.0
 10
12.3767028741
 20
8.8132034713
 30
0.0
 10
12.3768552289
 20
8.8114669355
 30
0.0
 10
12.3769771984
 20
8.8100779214
 30
0.0
 10
12.3770684409
 20
8.8090355734
 30
0.0
 10
12.3771452227
 20
8.808168819
 30
0.0
 10
12.3771975052
 20
8.8075584231
 30
0.0
 10
12.3772296679
 20
8.8072153524
 30
0.0
 10
12.3772473476
 20
8.8069419166
 30
0.0
 10
12.3772896532
 20
8.8067301483
 30
0.0
 10
12.3773374709
 20
8.8064262803
 30
0.0
 10
12.3774251541
 20
8.8059045334
 30
0.0
 10
12.3775483233
 20
8.8051539409
 30
0.0
 10
12.377697022
 20
8.8042554727
 30
0.0
 10
12.3778949741
 20
8.8030567318
 30
0.0
 10
12.3781425213
 20
8.8015585739
 30
0.0
 10
12.378538537
 20
8.7991613712
 30
0.0
 10
12.3790335772
 20
8.7961649197
 30
0.0
 10
12.3796276161
 20
8.792569154
 30
0.0
 10
12.3802216597
 20
8.7889734011
 30
0.0
 10
12.3807166883
 20
8.7859769176
 30
0.0
 10
12.3811127273
 20
8.7835797789
 30
0.0
 10
12.3813602153
 20
8.7820814583
 30
0.0
 10
12.3815582889
 20
8.7808830512
 30
0.0
 10
12.3817066164
 20
8.7799835632
 30
0.0
 10
12.3818309471
 20
8.7792361614
 30
0.0
 10
12.3819165567
 20
8.7787087186
 30
0.0
 10
12.3819676968
 20
8.7784139768
 30
0.0
 10
12.3819997971
 20
8.7781741758
 30
0.0
 10
12.382055806
 20
8.7780060262
 30
0.0
 10
12.382122145
 20
8.777756834
 30
0.0
 10
12.3822421237
 20
8.7773323921
 30
0.0
 10
12.3824114904
 20
8.7767199587
 30
0.0
 10
12.3826156
 20
8.7759876445
 30
0.0
 10
12.3828874425
 20
8.7750103153
 30
0.0
 10
12.3832273495
 20
8.7737889654
 30
0.0
 10
12.3837711427
 20
8.7718346314
 30
0.0
 10
12.3844509042
 20
8.7693917742
 30
0.0
 10
12.3852666089
 20
8.7664603175
 30
0.0
 10
12.3860823177
 20
8.7635288767
 30
0.0
 10
12.3867620692
 20
8.7610859796
 30
0.0
 10
12.3873058822
 20
8.7591317255
 30
0.0
 10
12.3876457388
 20
8.7579101726
 30
0.0
 10
12.3879176848
 20
8.7569332601
 30
0.0
 10
12.3881214779
 20
8.7561996729
 30
0.0
 10
12.3882918352
 20
8.755591222
 30
0.0
 10
12.3884100456
 20
8.7551596708
 30
0.0
 10
12.3884792178
 20
8.7549218696
 30
0.0
 10
12.388526524
 20
8.7547187303
 30
0.0
 10
12.3885913101
 20
8.7546103449
 30
0.0
 10
12.3886715945
 20
8.7544327799
 30
0.0
 10
12.3888149328
 20
8.7541374403
 30
0.0
 10
12.3890182168
 20
8.7537074756
 30
0.0
 10
12.3892627932
 20
8.7531949641
 30
0.0
 10
12.389588673
 20
8.7525104118
 30
0.0
 10
12.3899960989
 20
8.7516551336
 30
0.0
 10
12.3906479377
 20
8.750286458
 30
0.0
 10
12.3914627509
 20
8.7485756925
 30
0.0
 10
12.3924405205
 20
8.7465227406
 30
0.0
 10
12.3932553296
 20
8.744811953
 30
0.0
 10
12.3939071773
 20
8.743443326
 30
0.0
 10
12.3943960612
 20
8.7424168432
 30
0.0
 10
12.3948849525
 20
8.7413904089
 30
0.0
 10
12.3952923388
 20
8.740534896
 30
0.0
 10
12.3956182995
 20
8.7398508237
 30
0.0
 10
12.3958626289
 20
8.739336846
 30
0.0
 10
12.3960666858
 20
8.7389114686
 30
0.0
 10
12.3962086443
 20
8.7386079401
 30
0.0
 10
12.3962911395
 20
8.7384434956
 30
0.0
 10
12.3963491346
 20
8.738294808
 30
0.0
 10
12.396421947
 20
8.7382430376
 30
0.0
 10
12.3965138618
 20
8.7381402045
 30
0.0
 10
12.3966771207
 20
8.7379759975
 30
0.0
 10
12.3969090887
 20
8.7377331814
 30
0.0
 10
12.3971879892
 20
8.7374453267
 30
0.0
 10
12.3975596683
 20
8.7370602893
 30
0.0
 10
12.3980243318
 20
8.736579415
 30
0.0
 10
12.3985819003
 20
8.7360021847
 30
0.0
 10
12.3991394762
 20
8.7354250028
 30
0.0
 10
12.3998829082
 20
8.7346554101
 30
0.0
 10
12.400812199
 20
8.7336934249
 30
0.0
 10
12.4017414895
 20
8.7327314382
 30
0.0
 10
12.4024849219
 20
8.731961848
 30
0.0
 10
12.4030424965
 20
8.7313846588
 30
0.0
 10
12.4036000698
 20
8.730807456
 30
0.0
 10
12.4040647185
 20
8.7303264963
 30
0.0
 10
12.4044364278
 20
8.7299416329
 30
0.0
 10
12.404668768
 20
8.7297013112
 30
0.0
 10
12.40485459
 20
8.7295085547
 30
0.0
 10
12.404994094
 20
8.7293653538
 30
0.0
 10
12.4051099098
 20
8.7292416729
 30
0.0
 10
12.4052035439
 20
8.7291524773
 30
0.0
 10
12.4052710873
 20
8.7290589415
 30
0.0
 10
12.4053488689
 20
8.7290670875
 30
0.0
 10
12.4054490014
 20
8.7290424301
 30
0.0
 10
12.4055753939
 20
8.7290237946
 30
0.0
 10
12.4057265398
 20
8.7289962159
 30
0.0
 10
12.4059282511
 20
8.7289612662
 30
0.0
 10
12.4061803274
 20
8.7289169553
 30
0.0
 10
12.4065836846
 20
8.7288464064
 30
0.0
 10
12.4070878691
 20
8.7287581008
 30
0.0
 10
12.4076928956
 20
8.7286521852
 30
0.0
 10
12.4082979208
 20
8.7285462559
 30
0.0
 10
12.4091046214
 20
8.7284050217
 30
0.0
 10
12.4101129971
 20
8.7282284772
 30
0.0
 10
12.4111213729
 20
8.7280519338
 30
0.0
 10
12.4119280733
 20
8.7279106977
 30
0.0
 10
12.412533099
 20
8.7278047743
 30
0.0
 10
12.4131381236
 20
8.7276988367
 30
0.0
 10
12.413642314
 20
8.7276105995
 30
0.0
 10
12.4140456591
 20
8.727539911
 30
0.0
 10
12.4142977663
 20
8.7274959555
 30
0.0
 10
12.4144994142
 20
8.7274602762
 30
0.0
 10
12.4146507537
 20
8.7274349264
 30
0.0
 10
12.4147765405
 20
8.7274093174
 30
0.0
 10
12.4148779089
 20
8.7273988873
 30
0.0
 10
12.414951916
 20
8.7273635839
 30
0.0
 10
12.4150336305
 20
8.7274331754
 30
0.0
 10
12.4151398909
 20
8.7274893228
 30
0.0
 10
12.41527364
 20
8.7275720785
 30
0.0
 10
12.4154337437
 20
8.7276660044
 30
0.0
 10
12.4156473533
 20
8.7277931184
 30
0.0
 10
12.4159143181
 20
8.7279513674
 30
0.0
 10
12.4163414881
 20
8.7282049254
 30
0.0
 10
12.4168754416
 20
8.7285217495
 30
0.0
 10
12.4175161896
 20
8.7289019913
 30
0.0
 10
12.4181569366
 20
8.729282219
 30
0.0
 10
12.4190112663
 20
8.7297891941
 30
0.0
 10
12.4200791784
 20
8.7304229114
 30
0.0
 10
12.4213606728
 20
8.7311833728
 30
0.0
 10
12.4230693321
 20
8.7321973211
 30
0.0
 10
12.4243508266
 20
8.7329577824
 30
0.0
 10
12.4252051562
 20
8.7334647566
 30
0.0
  0
SPLINE
  5
37D
100
AcDbEntity
  8
0
100
AcDbSpline
 62
4
  6
CONTINUOUS
 70
0
 71
3
 72
299
 73
295
 74
0
 42
0.0000001
 43
0.0000001
 44
0.0000000001
 40
0.0
 40
0.0
 40
0.0
 40
0.0
 40
0.015625
 40
0.0234375
 40
0.03125
 40
0.0390625
 40
0.046875
 40
0.05078125
 40
0.0546875
 40
0.056640625
 40
0.05859375
 40
0.060546875
 40
0.0615234375
 40
0.0620117188
 40
0.0625
 40
0.0629882812
 40
0.0634765625
 40
0.064453125
 40
0.06640625
 40
0.068359375
 40
0.0703125
 40
0.07421875
 40
0.078125
 40
0.0859375
 40
0.09375
 40
0.1015625
 40
0.109375
 40
0.11328125
 40
0.1171875
 40
0.119140625
 40
0.12109375
 40
0.123046875
 40
0.1240234375
 40
0.1245117188
 40
0.125
 40
0.1254882812
 40
0.1259765625
 40
0.126953125
 40
0.12890625
 40
0.130859375
 40
0.1328125
 40
0.13671875
 40
0.140625
 40
0.1484375
 40
0.15625
 40
0.1640625
 40
0.171875
 40
0.17578125
 40
0.1796875
 40
0.181640625
 40
0.18359375
 40
0.185546875
 40
0.1865234375
 40
0.1870117188
 40
0.1875
 40
0.1879882812
 40
0.1884765625
 40
0.189453125
 40
0.19140625
 40
0.193359375
 40
0.1953125
 40
0.19921875
 40
0.203125
 40
0.2109375
 40
0.21875
 40
0.2265625
 40
0.234375
 40
0.23828125
 40
0.2421875
 40
0.24609375
 40
0.248046875
 40
0.2490234375
 40
0.25
 40
0.2509765625
 40
0.251953125
 40
0.25390625
 40
0.2578125
 40
0.26171875
 40
0.265625
 40
0.2734375
 40
0.28125
 40
0.2890625
 40
0.296875
 40
0.30078125
 40
0.3046875
 40
0.30859375
 40
0.310546875
 40
0.3115234375
 40
0.3125
 40
0.3134765625
 40
0.314453125
 40
0.31640625
 40
0.3203125
 40
0.32421875
 40
0.328125
 40
0.3359375
 40
0.34375
 40
0.3515625
 40
0.359375
 40
0.36328125
 40
0.3671875
 40
0.37109375
 40
0.373046875
 40
0.3740234375
 40
0.375
 40
0.3759765625
 40
0.376953125
 40
0.37890625
 40
0.3828125
 40
0.38671875
 40
0.390625
 40
0.3984375
 40
0.40625
 40
0.4140625
 40
0.421875
 40
0.42578125
 40
0.4296875
 40
0.43359375
 40
0.435546875
 40
0.4375
 40
0.439453125
 40
0.44140625
 40
0.4453125
 40
0.44921875
 40
0.453125
 40
0.4609375
 40
0.46875
 40
0.4765625
 40
0.484375
 40
0.48828125
 40
0.4921875
 40
0.49609375
 40
0.498046875
 40
0.4990234375
 40
0.5
 40
0.5009765625
 40
0.501953125
 40
0.50390625
 40
0.5078125
 40
0.51171875
 40
0.515625
 40
0.5234375
 40
0.53125
 40
0.5390625
 40
0.546875
 40
0.55078125
 40
0.5546875
 40
0.556640625
 40
0.55859375
 40
0.560546875
 40
0.5615234375
 40
0.5625
 40
0.5634765625
 40
0.564453125
 40
0.56640625
 40
0.568359375
 40
0.5703125
 40
0.57421875
 40
0.578125
 40
0.5859375
 40
0.59375
 40
0.6015625
 40
0.609375
 40
0.61328125
 40
0.6171875
 40
0.619140625
 40
0.62109375
 40
0.623046875
 40
0.6240234375
 40
0.6245117188
 40
0.625
 40
0.6254882812
 40
0.6259765625
 40
0.626953125
 40
0.62890625
 40
0.630859375
 40
0.6328125
 40
0.63671875
 40
0.640625
 40
0.6484375
 40
0.65625
 40
0.6640625
 40
0.671875
 40
0.67578125
 40
0.6796875
 40
0.681640625
 40
0.68359375
 40
0.685546875
 40
0.6865234375
 40
0.6870117188
 40
0.6875
 40
0.6879882812
 40
0.6884765625
 40
0.689453125
 40
0.69140625
 40
0.693359375
 40
0.6953125
 40
0.69921875
 40
0.703125
 40
0.7109375
 40
0.71875
 40
0.7265625
 40
0.734375
 40
0.73828125
 40
0.7421875
 40
0.744140625
 40
0.74609375
 40
0.748046875
 40
0.7490234375
 40
0.7495117188
 40
0.75
 40
0.7504882812
 40
0.7509765625
 40
0.751953125
 40
0.75390625
 40
0.755859375
 40
0.7578125
 40
0.76171875
 40
0.765625
 40
0.7734375
 40
0.78125
 40
0.7890625
 40
0.79296875
 40
0.796875
 40
0.80078125
 40
0.8046875
 40
0.806640625
 40
0.80859375
 40
0.810546875
 40
0.8115234375
 40
0.8120117188
 40
0.8125
 40
0.8129882812
 40
0.8134765625
 40
0.814453125
 40
0.81640625
 40
0.818359375
 40
0.8203125
 40
0.82421875
 40
0.828125
 40
0.83203125
 40
0.8359375
 40
0.84375
 40
0.8515625
 40
0.85546875
 40
0.859375
 40
0.86328125
 40
0.8671875
 40
0.869140625
 40
0.87109375
 40
0.8720703125
 40
0.873046875
 40
0.8740234375
 40
0.8745117188
 40
0.875
 40
0.8754882812
 40
0.8759765625
 40
0.876953125
 40
0.8779296875
 40
0.87890625
 40
0.880859375
 40
0.8828125
 40
0.88671875
 40
0.890625
 40
0.89453125
 40
0.8984375
 40
0.90625
 40
0.9140625
 40
0.91796875
 40
0.921875
 40
0.92578125
 40
0.9296875
 40
0.931640625
 40
0.93359375
 40
0.9345703125
 40
0.935546875
 40
0.9365234375
 40
0.9370117188
 40
0.9375
 40
0.9379882812
 40
0.9384765625
 40
0.939453125
 40
0.9404296875
 40
0.94140625
 40
0.943359375
 40
0.9453125
 40
0.94921875
 40
0.953125
 40
0.95703125
 40
0.9609375
 40
0.96875
 40
0.9765625
 40
0.984375
 40
1.0
 40
1.0
 40
1.0
 40
1.0
 10
12.4252051517
 20
8.7334647522
 30
0.0
 10
12.4260446858
 20
8.7345828916
 30
0.0
 10
12.4273039871
 20
8.7362601005
 30
0.0
 10
12.4289830554
 20
8.73849638
 30
0.0
 10
12.4302423567
 20
8.7401735873
 30
0.0
 10
12.4315016576
 20
8.7418508035
 30
0.0
 10
12.4325510765
 20
8.7432484561
 30
0.0
 10
12.4333906082
 20
8.7443666398
 30
0.0
 10
12.4339153233
 20
8.7450653641
 30
0.0
 10
12.4343350775
 20
8.7456246655
 30
0.0
 10
12.4346499423
 20
8.7460432601
 30
0.0
 10
12.4349121729
 20
8.7463948928
 30
0.0
 10
12.4350960421
 20
8.7466355332
 30
0.0
 10
12.4352006297
 20
8.7467816337
 30
0.0
 10
12.4352804239
 20
8.7468670062
 30
0.0
 10
12.4353550445
 20
8.7470448943
 30
0.0
 10
12.4354563432
 20
8.7472498079
 30
0.0
 10
12.4356327751
 20
8.7476234421
 30
0.0
 10
12.4358852604
 20
8.7481493446
 30
0.0
 10
12.4361880545
 20
8.7487837922
 30
0.0
 10
12.4365918458
 20
8.7496285472
 30
0.0
 10
12.4370965623
 20
8.7506848932
 30
0.0
 10
12.4379041214
 20
8.752374822
 30
0.0
 10
12.4389135658
 20
8.7544873107
 30
0.0
 10
12.4401249012
 20
8.7570222618
 30
0.0
 10
12.4413362352
 20
8.7595572296
 30
0.0
 10
12.4423456833
 20
8.7616696764
 30
0.0
 10
12.443153235
 20
8.763359689
 30
0.0
 10
12.4436579703
 20
8.764415822
 30
0.0
 10
12.4440617231
 20
8.7652610142
 30
0.0
 10
12.4443646345
 20
8.7658941261
 30
0.0
 10
12.444616753
 20
8.7664242076
 30
0.0
 10
12.4447938397
 20
8.7667903816
 30
0.0
 10
12.4448940894
 20
8.7670072484
 30
0.0
 10
12.4449719321
 20
8.7671484201
 30
0.0
 10
12.4450396247
 20
8.767371693
 30
0.0
 10
12.4451334219
 20
8.7676407525
 30
0.0
 10
12.4452959175
 20
8.7681249493
 30
0.0
 10
12.4455289165
 20
8.7688096833
 30
0.0
 10
12.4458081461
 20
8.7696343499
 30
0.0
 10
12.4461805812
 20
8.7707328626
 30
0.0
 10
12.4466460809
 20
8.7721063605
 30
0.0
 10
12.4473909052
 20
8.7743037574
 30
0.0
 10
12.448321927
 20
8.7770505726
 30
0.0
 10
12.4494391571
 20
8.7803467194
 30
0.0
 10
12.450556385
 20
8.7836428814
 30
0.0
 10
12.4514874124
 20
8.7863896584
 30
0.0
 10
12.4522322255
 20
8.7885871316
 30
0.0
 10
12.4526977535
 20
8.7899604358
 30
0.0
 10
12.4530701306
 20
8.7910593459
 30
0.0
 10
12.4533495374
 20
8.7918827982
 30
0.0
 10
12.4535819821
 20
8.7925713317
 30
0.0
 10
12.4537454672
 20
8.7930487457
 30
0.0
 10
12.453837679
 20
8.793328673
 30
0.0
 10
12.4539102416
 20
8.7935185634
 30
0.0
 10
12.4539697933
 20
8.7937851141
 30
0.0
 10
12.4540537338
 20
8.794113775
 30
0.0
 10
12.4541985153
 20
8.7947013903
 30
0.0
 10
12.4544064515
 20
8.7955343271
 30
0.0
 10
12.4546555018
 20
8.7965366393
 30
0.0
 10
12.4549877341
 20
8.7978720818
 30
0.0
 10
12.4554029678
 20
8.7995417184
 30
0.0
 10
12.4560673736
 20
8.8022129502
 30
0.0
 10
12.4568978687
 20
8.8055520565
 30
0.0
 10
12.4578944733
 20
8.8095589444
 30
0.0
 10
12.4588910556
 20
8.8135658849
 30
0.0
 10
12.4597216062
 20
8.8169048598
 30
0.0
 10
12.4603859011
 20
8.8195763545
 30
0.0
 10
12.4608845199
 20
8.8215791164
 30
0.0
 10
12.4612987708
 20
8.8232508173
 30
0.0
 10
12.4615912284
 20
8.8244156453
 30
0.0
 10
12.4617544716
 20
8.8250896346
 30
0.0
 10
12.4618878211
 20
8.8255715389
 30
0.0
 10
12.4619794403
 20
8.8261436071
 30
0.0
 10
12.4621161552
 20
8.8268749146
 30
0.0
 10
12.4623486245
 20
8.8281693559
 30
0.0
 10
12.462684269
 20
8.8300108968
 30
0.0
 10
12.4630855248
 20
8.8322240252
 30
0.0
 10
12.4636210628
 20
8.8351737172
 30
0.0
 10
12.4642903021
 20
8.8388612273
 30
0.0
 10
12.4650934734
 20
8.8432860616
 30
0.0
 10
12.4658966015
 20
8.8477109752
 30
0.0
 10
12.4665659486
 20
8.8513982872
 30
0.0
 10
12.467101271
 20
8.8543483755
 30
0.0
 10
12.4675031846
 20
8.8565602951
 30
0.0
 10
12.467836771
 20
8.8584056175
 30
0.0
 10
12.4680729144
 20
8.8596933084
 30
0.0
 10
12.4682037424
 20
8.8604354317
 30
0.0
 10
12.4683134443
 20
8.860974277
 30
0.0
 10
12.4683788784
 20
8.8615809612
 30
0.0
 10
12.4684815649
 20
8.8623662104
 30
0.0
 10
12.4686540721
 20
8.8637514217
 30
0.0
 10
12.4689042721
 20
8.8657245308
 30
0.0
 10
12.4692029022
 20
8.8680947291
 30
0.0
 10
12.4696016383
 20
8.8712541314
 30
0.0
 10
12.4700998639
 20
8.8752036809
 30
0.0
 10
12.4706978241
 20
8.8799430096
 30
0.0
 10
12.4712957374
 20
8.8846823868
 30
0.0
 10
12.4717940802
 20
8.888631815
 30
0.0
 10
12.4721925818
 20
8.89179146
 30
0.0
 10
12.4724919268
 20
8.8941609181
 30
0.0
 10
12.4727398904
 20
8.8961363425
 30
0.0
 10
12.47291639
 20
8.8975174208
 30
0.0
 10
12.4730126797
 20
8.898309292
 30
0.0
 10
12.473097763
 20
8.8988956356
 30
0.0
 10
12.4731336655
 20
8.8995108767
 30
0.0
 10
12.4731986904
 20
8.9003211185
 30
0.0
 10
12.4733044913
 20
8.9017437378
 30
0.0
 10
12.4734598139
 20
8.9037735959
 30
0.0
 10
12.4736444127
 20
8.9062104766
 30
0.0
 10
12.4738911685
 20
8.9094592838
 30
0.0
 10
12.4741994033
 20
8.9135204181
 30
0.0
 10
12.4745693567
 20
8.918393728
 30
0.0
 10
12.4749393593
 20
8.9232670425
 30
0.0
 10
12.475247471
 20
8.9273281656
 30
0.0
 10
12.475494473
 20
8.9305769952
 30
0.0
 10
12.4756783209
 20
8.9330138076
 30
0.0
 10
12.4758359925
 20
8.935043879
 30
0.0
 10
12.4759521156
 20
8.9366692946
 30
0.0
 10
12.4760665713
 20
8.9378846441
 30
0.0
 10
12.4760765805
 20
8.9391141635
 30
0.0
 10
12.4761264107
 20
8.940748573
 30
0.0
 10
12.4761761807
 20
8.9427932831
 30
0.0
 10
12.4762412626
 20
8.9452462083
 30
0.0
 10
12.4763261672
 20
8.9485170294
 30
0.0
 10
12.4764329385
 20
8.9526054665
 30
0.0
 10
12.4765607962
 20
8.9575116381
 30
0.0
 10
12.4766887005
 20
8.9624177644
 30
0.0
 10
12.4767953551
 20
8.9665063148
 30
0.0
 10
12.4768804932
 20
8.9697769095
 30
0.0
 10
12.4769448629
 20
8.972230525
 30
0.0
 10
12.476996861
 20
8.9742730756
 30
0.0
 10
12.4770364849
 20
8.975707039
 30
0.0
 10
12.4770540912
 20
8.976519923
 30
0.0
 10
12.4770814823
 20
8.9771479632
 30
0.0
 10
12.4770546455
 20
8.9777057566
 30
0.0
 10
12.4770377783
 20
8.9784739839
 30
0.0
 10
12.4769994478
 20
8.9798069654
 30
0.0
 10
12.4769492975
 20
8.9817171933
 30
0.0
 10
12.4768871449
 20
8.9840069121
 30
0.0
 10
12.4768049636
 20
8.9870607627
 30
0.0
 10
12.4767020011
 20
8.9908777705
 30
0.0
 10
12.4765785454
 20
8.9954583078
 30
0.0
 10
12.4764550697
 20
9.000038822
 30
0.0
 10
12.4763521574
 20
9.0038558877
 30
0.0
 10
12.4762698755
 20
9.0069096224
 30
0.0
 10
12.4762183375
 20
9.0088180159
 30
0.0
 10
12.4761773635
 20
9.0103451679
 30
0.0
 10
12.4761459307
 20
9.0114893345
 30
0.0
 10
12.4761219711
 20
9.0124466161
 30
0.0
 10
12.476097792
 20
9.0132038975
 30
0.0
 10
12.4760933512
 20
9.0137952044
 30
0.0
 10
12.4760366421
 20
9.0142973996
 30
0.0
 10
12.475979288
 20
9.0149981212
 30
0.0
 10
12.4759013311
 20
9.0158633433
 30
0.0
 10
12.4758104642
 20
9.0169061811
 30
0.0
 10
12.4756883718
 20
9.0182950348
 30
0.0
 10
12.4755360769
 20
9.0200316487
 30
0.0
 10
12.4752922258
 20
9.0228099254
 30
0.0
 10
12.4749874734
 20
9.0262828758
 30
0.0
 10
12.4746217448
 20
9.0304503729
 30
0.0
 10
12.4742560209
 20
9.0346178761
 30
0.0
 10
12.4739512567
 20
9.0380908111
 30
0.0
 10
12.4737074292
 20
9.0408691186
 30
0.0
 10
12.4735550744
 20
9.0426056543
 30
0.0
 10
12.4734331049
 20
9.0439946684
 30
0.0
 10
12.4733418624
 20
9.0450370164
 30
0.0
 10
12.4732650807
 20
9.0459037709
 30
0.0
 10
12.4732127981
 20
9.0465141667
 30
0.0
 10
12.4731806354
 20
9.0468572374
 30
0.0
 10
12.4731629557
 20
9.0471306732
 30
0.0
 10
12.4731206501
 20
9.0473424415
 30
0.0
 10
12.4730728324
 20
9.0476463095
 30
0.0
 10
12.4729851493
 20
9.0481680565
 30
0.0
 10
12.47286198
 20
9.0489186489
 30
0.0
 10
12.4727132813
 20
9.0498171171
 30
0.0
 10
12.4725153292
 20
9.051015858
 30
0.0
 10
12.472267782
 20
9.052514016
 30
0.0
 10
12.4718717663
 20
9.0549112186
 30
0.0
 10
12.4713767261
 20
9.0579076701
 30
0.0
 10
12.4707826872
 20
9.0615034358
 30
0.0
 10
12.4701886436
 20
9.0650991888
 30
0.0
 10
12.469693615
 20
9.0680956722
 30
0.0
 10
12.469297576
 20
9.0704928109
 30
0.0
 10
12.469050088
 20
9.0719911315
 30
0.0
 10
12.4688520144
 20
9.0731895386
 30
0.0
 10
12.468703687
 20
9.0740890266
 30
0.0
 10
12.4685793562
 20
9.0748364284
 30
0.0
 10
12.4684937466
 20
9.0753638712
 30
0.0
 10
12.4684426066
 20
9.075658613
 30
0.0
 10
12.4684105062
 20
9.075898414
 30
0.0
 10
12.4683544973
 20
9.0760665636
 30
0.0
 10
12.4682881583
 20
9.0763157558
 30
0.0
 10
12.4681681796
 20
9.0767401977
 30
0.0
 10
12.4679988129
 20
9.0773526311
 30
0.0
 10
12.4677947033
 20
9.0780849454
 30
0.0
 10
12.4675228608
 20
9.0790622746
 30
0.0
 10
12.4671829538
 20
9.0802836244
 30
0.0
 10
12.4666391606
 20
9.0822379584
 30
0.0
 10
12.4659593991
 20
9.0846808156
 30
0.0
 10
12.4651436944
 20
9.0876122723
 30
0.0
 10
12.4643279857
 20
9.0905437131
 30
0.0
 10
12.4636482341
 20
9.0929866102
 30
0.0
 10
12.4631044211
 20
9.0949408643
 30
0.0
 10
12.4627645645
 20
9.0961624172
 30
0.0
 10
12.4624926185
 20
9.0971393297
 30
0.0
 10
12.4622888254
 20
9.0978729169
 30
0.0
 10
12.4621184682
 20
9.0984813678
 30
0.0
 10
12.4620002577
 20
9.0989129191
 30
0.0
 10
12.4619310856
 20
9.0991507202
 30
0.0
 10
12.4618837794
 20
9.0993538596
 30
0.0
 10
12.4618189932
 20
9.0994622449
 30
0.0
 10
12.4617387089
 20
9.0996398099
 30
0.0
 10
12.4615953705
 20
9.0999351496
 30
0.0
 10
12.4613920866
 20
9.1003651142
 30
0.0
 10
12.4611475101
 20
9.1008776257
 30
0.0
 10
12.4608216303
 20
9.101562178
 30
0.0
 10
12.4604142044
 20
9.1024174563
 30
0.0
 10
12.4597623656
 20
9.1037861318
 30
0.0
 10
12.4589475524
 20
9.1054968973
 30
0.0
 10
12.4579697828
 20
9.1075498492
 30
0.0
 10
12.4571549737
 20
9.1092606368
 30
0.0
 10
12.456503126
 20
9.1106292639
 30
0.0
 10
12.4560142421
 20
9.1116557466
 30
0.0
 10
12.4555253508
 20
9.112682181
 30
0.0
 10
12.4551179645
 20
9.1135376938
 30
0.0
 10
12.4547920038
 20
9.1142217662
 30
0.0
 10
12.4545476744
 20
9.1147357438
 30
0.0
 10
12.4543436175
 20
9.1151611213
 30
0.0
 10
12.454201659
 20
9.1154646498
 30
0.0
 10
12.4541191638
 20
9.1156290942
 30
0.0
 10
12.4540611687
 20
9.1157777819
 30
0.0
 10
12.4539883563
 20
9.1158295523
 30
0.0
 10
12.4538964416
 20
9.1159323853
 30
0.0
 10
12.4537331827
 20
9.1160965923
 30
0.0
 10
12.4535012146
 20
9.1163394085
 30
0.0
 10
12.4532223141
 20
9.1166272631
 30
0.0
 10
12.452850635
 20
9.1170123006
 30
0.0
 10
12.4523859715
 20
9.1174931749
 30
0.0
 10
12.451828403
 20
9.1180704052
 30
0.0
 10
12.4512708271
 20
9.118647587
 30
0.0
 10
12.4505273952
 20
9.1194171797
 30
0.0
 10
12.4495981043
 20
9.1203791649
 30
0.0
 10
12.4486688138
 20
9.1213411516
 30
0.0
 10
12.4479253814
 20
9.1221107418
 30
0.0
 10
12.4473678068
 20
9.122687931
 30
0.0
 10
12.4468102335
 20
9.1232651339
 30
0.0
 10
12.4463455848
 20
9.1237460935
 30
0.0
 10
12.4459738755
 20
9.1241309569
 30
0.0
 10
12.4457415353
 20
9.1243712787
 30
0.0
 10
12.4455557133
 20
9.1245640351
 30
0.0
 10
12.4454162093
 20
9.124707236
 30
0.0
 10
12.4453003936
 20
9.1248309169
 30
0.0
 10
12.4452067594
 20
9.1249201125
 30
0.0
 10
12.445139216
 20
9.1250136484
 30
0.0
 10
12.4450614344
 20
9.1250055023
 30
0.0
 10
12.444961302
 20
9.1250301598
 30
0.0
 10
12.4448349094
 20
9.1250487952
 30
0.0
 10
12.4446837635
 20
9.1250763739
 30
0.0
 10
12.4444820522
 20
9.1251113236
 30
0.0
 10
12.4442299759
 20
9.1251556345
 30
0.0
 10
12.4438266187
 20
9.1252261834
 30
0.0
 10
12.4433224342
 20
9.1253144891
 30
0.0
 10
12.4427174077
 20
9.1254204046
 30
0.0
 10
12.4421123826
 20
9.1255263339
 30
0.0
 10
12.4413056819
 20
9.1256675681
 30
0.0
 10
12.4402973062
 20
9.1258441127
 30
0.0
 10
12.4392889305
 20
9.126020656
 30
0.0
 10
12.43848223
 20
9.1261618922
 30
0.0
 10
12.4378772043
 20
9.1262678156
 30
0.0
 10
12.4372721797
 20
9.1263737531
 30
0.0
 10
12.4367679893
 20
9.1264619903
 30
0.0
 10
12.4363646442
 20
9.1265326788
 30
0.0
 10
12.436112537
 20
9.1265766343
 30
0.0
 10
12.4359108891
 20
9.1266123136
 30
0.0
 10
12.4357595496
 20
9.1266376634
 30
0.0
 10
12.4356337628
 20
9.1266632724
 30
0.0
 10
12.4355323944
 20
9.1266737025
 30
0.0
 10
12.4354583874
 20
9.1267090059
 30
0.0
 10
12.4353766728
 20
9.1266394145
 30
0.0
 10
12.4352704125
 20
9.126583267
 30
0.0
 10
12.4351366633
 20
9.1265005113
 30
0.0
 10
12.4349765596
 20
9.1264065854
 30
0.0
 10
12.43476295
 20
9.1262794714
 30
0.0
 10
12.4344959852
 20
9.1261212224
 30
0.0
 10
12.4340688152
 20
9.1258676644
 30
0.0
 10
12.4335348617
 20
9.1255508403
 30
0.0
 10
12.4328941137
 20
9.1251705985
 30
0.0
 10
12.4322533667
 20
9.1247903709
 30
0.0
 10
12.431399037
 20
9.1242833957
 30
0.0
 10
12.430331125
 20
9.1236496785
 30
0.0
 10
12.4290496305
 20
9.122889217
 30
0.0
 10
12.4273409712
 20
9.1218752687
 30
0.0
 10
12.4260594768
 20
9.1211148074
 30
0.0
 10
12.4252051471
 20
9.1206078333
 30
0.0
  0
ENDSEC
  0
SECTION
  2
OBJECTS
  0
DICTIONARY
  5
C
100
AcDbDictionary
280
0
281
1
  3
ACAD_GROUP
350
D
  3
ACAD_MLINESTYLE
350
17
  3
ACAD_LAYOUT
350
1A
  3
ACAD_PLOTSETTINGS
350
19
  3
ACAD_PLOTSTYLENAME
350
E
  3
ACAD_IMAGE_DICT
350
       37F
  3
ACAD_IMAGE_VARS
350
       380
  3
ACAD_TABLESTYLE
350
       381
  0
IMAGEDEF_REACTOR
  5
37E
100
AcDbRasterImageDefReactor
 90
2
330
28A
  0
DICTIONARY
  5
D
102
{ACAD_REACTORS
330
C
102
}
100
AcDbDictionary
280
0
281
1
  0
ACDBDICTIONARYWDFLT
  5
E
102
{ACAD_REACTORS
330
C
102
}
100
AcDbDictionary
281
1
  3
Normal
350
F
100
AcDbDictionaryWithDefault
340
F
  0
DICTIONARY
  5
37F
330
C
100
AcDbDictionary
281
1
  3
YVW_assy_2_img_1
350
       384
  0
RASTERVARIABLES
  5
380
330
C
100
AcDbRasterVariables
 90
0
 70
0
 71
1
 72
5
  0
DICTIONARY
  5
17
102
{ACAD_REACTORS
330
C
102
}
100
AcDbDictionary
280
0
281
1
  3
Standard
350
18
  0
DICTIONARY
  5
381
330
C
100
AcDbDictionary
281
1
  3
Standard
350
       385
  3
Standard1
350
       386
  0
DICTIONARY
  5
19
102
{ACAD_REACTORS
330
C
102
}
100
AcDbDictionary
281
1
  0
DICTIONARY
  5
1A
102
{ACAD_REACTORS
330
C
102
}
100
AcDbDictionary
281
1
  3
Model
350
382
  3
Layout1
350
383
  0
ACDBPLACEHOLDER
  5
F
102
{ACAD_REACTORS
330
E
102
}
  0
MLINESTYLE
  5
18
102
{ACAD_REACTORS
330
17
102
}
100
AcDbMlineStyle
  2
STANDARD
 70
0
  3

 62
256
 51
90.0
 52
90.0
 71
2
 49
0.5
 62
256
  6
BYLAYER
 49
-0.5
 62
256
  6
BYLAYER
  0
LAYOUT
  5
382
102
{ACAD_REACTORS
330
1A
102
}
100
AcDbPlotSettings
  1

  2
none_device
  4
ANSI_C_(22.00_x_17.00_Inches)
  6

 40
0.0
 41
0.0
 42
0.0
 43
0.0
 44
558.8
 45
431.8
 46
0.0
 47
0.0
 48
0.0
 49
0.0
140
0.0
141
0.0
142
1.0
143
1.0
 70
1024
 72
0
 73
0
 74
0
  7

 75
0
147
1.0
148
0.0
149
0.0
100
AcDbLayout
  1
Model
 70
0
 71
0
 10
0.0
 20
0.0
 11
22.0
 21
17.0
 12
0.0
 22
0.0
 32
0.0
 14
0.0
 24
0.0
 34
0.0
 15
0.0
 25
0.0
 35
0.0
146
0.0
 13
0.0
 23
0.0
 33
0.0
 16
1.0
 26
0.0
 36
0.0
 17
0.0
 27
1.0
 37
0.0
 76
0
330
207
345
0
346
0
  0
LAYOUT
  5
383
102
{ACAD_REACTORS
330
1A
102
}
100
AcDbPlotSettings
  1

  2
none_device
  4
ANSI_C_(22.00_x_17.00_Inches)
  6

 40
0.0
 41
0.0
 42
0.0
 43
0.0
 44
558.8
 45
431.8
 46
0.0
 47
0.0
 48
0.0
 49
0.0
140
0.0
141
0.0
142
1.0
143
1.0
 70
0
 72
0
 73
0
 74
0
  7

 75
0
147
1.0
148
0.0
149
0.0
100
AcDbLayout
  1
Layout1
 70
0
 71
1
 10
0.0
 20
0.0
 11
22.0
 21
17.0
 12
0.0
 22
0.0
 32
0.0
 14
0.0
 24
0.0
 34
0.0
 15
0.0
 25
0.0
 35
0.0
146
0.0
 13
0.0
 23
0.0
 33
0.0
 16
1.0
 26
0.0
 36
0.0
 17
0.0
 27
1.0
 37
0.0
 76
0
330
208
345
0
346
0
  0
IMAGEDEF
  5
384
102
{ACAD_REACTORS
330
37F
330
37E
102
}
100
AcDbRasterImageDef
 90
0
  1
YVW_assy_2_img_1.png
 10
369.0
 20
92.0
 11
0.0066666667
 21
0.0066666667
280
1
281
0
  0
TABLESTYLE
  5
385
102
{ACAD_REACTORS
330
381
330
28D
330
28E
102
}
330
381
100
AcDbTableStyle
  3
Standard
 70
0
 71
0
 40
0.06
 41
0.06
280
1
281
1
  7
Standard
140
0.18
170
1
 62
0
 63
7
283
0
  7
Standard
140
0.18
170
1
 62
0
 63
7
283
0
  7
Standard
140
0.18
170
1
 62
0
 63
7
283
0
  0
TABLESTYLE
  5
386
102
{ACAD_REACTORS
330
381
330
28C
102
}
330
381
100
AcDbTableStyle
  3
Standard1
 70
1
 71
0
 40
0.06
 41
0.06
280
1
281
1
  7
Standard
140
0.18
170
1
 62
0
 63
7
283
0
  7
Standard
140
0.18
170
1
 62
0
 63
7
283
0
  7
Standard
140
0.18
170
1
 62
0
 63
7
283
0
  0
ENDSEC
  0
EOF
