999
DXF file: YVV_assy_2.dxf
999
Pro/ENGINEER 2014200 by Parametric Technology Corporation
  0
SECTION
  2
HEADER
  9
$ACADVER
  1
AC1021
  9
$DWGCODEPAGE
  3
ANSI_1252
  9
$EXTMAX
 10
22.0
 20
17.0
 30
0.0
  9
$EXTMIN
 10
0.0
 20
0.0
 30
0.0
  9
$LIMMIN
 10
0.0
 20
0.0
  9
$LIMMAX
 10
22.0
 20
17.0
  9
$VIEWCTR
 10
11.0
 20
8.5
  9
$VIEWSIZE
 40
17.0
  9
$CLAYER
  8
0
  9
$LTSCALE
 40
1.21
  9
$CELTYPE
  6
BYLAYER
  9
$DIMSCALE
 40
1.0
  9
$DIMASZ
 40
0.1875
  9
$DIMEXO
 40
0.0625
  9
$DIMDLI
 40
0.836
  9
$DIMEXE
 40
0.125
  9
$DIMCEN
 40
0.198
  9
$DIMLFAC
 40
1.0
  9
$DIMBLK
  1
_FILLED
  9
$DIMTXT
 40
0.1
  9
$DIMTOL
 70
0
  9
$DIMLIM
 70
0
  9
$DIMTFAC
 40
1.0
  9
$DIMGAP
 40
0.09
  9
$DIMDSEP
 70
46
  9
$AUNITS
 70
0
  9
$PDMODE
 70
3
  9
$PDSIZE
 40
0.3125
  9
$HANDSEED
  5
38C
  9
$TILEMODE
 70
1
  9
$MEASUREMENT
 70
0
  9
$INSUNITS
 70
1
  0
ENDSEC
  0
SECTION
  2
CLASSES
  0
CLASS
  1
ACDBDICTIONARYWDFLT
  2
AcDbDictionaryWithDefault
  3
AutoCAD 2000
 90
0
 91
1
280
0
281
0
  0
CLASS
  1
ACDBPLACEHOLDER
  2
AcDbPlaceHolder
  3
AutoCAD 2000
 90
0
 91
1
280
0
281
0
  0
CLASS
  1
LAYOUT
  2
AcDbLayout
  3
AutoCAD 2000
 90
0
 91
0
280
0
281
0
  0
CLASS
  1
RASTERVARIABLES
  2
AcDbRasterVariables
  3
ISM
 90
0
 91
1
280
0
281
0
  0
CLASS
  1
IMAGEDEF
  2
AcDbRasterImageDef
  3
ISM
 90
0
 91
1
280
0
281
0
  0
CLASS
  1
IMAGEDEF_REACTOR
  2
AcDbRasterImageDefReactor
  3
ISM
 90
0
 91
1
280
0
281
0
  0
CLASS
  1
IMAGE
  2
AcDbRasterImage
  3
ISM
 90
127
 91
1
280
0
281
1
  0
CLASS
  1
TABLESTYLE
  2
AcDbTableStyle
  3
ObjectDBX Classes
 90
2047
 91
1
280
0
281
0
  0
CLASS
  1
ACAD_TABLE
  2
AcDbTable
  3
ObjectDBX Classes
 90
1025
 91
3
280
0
281
1
  0
ENDSEC
  0
SECTION
  2
TABLES
  0
TABLE
  2
VPORT
  5
8
100
AcDbSymbolTable
 70
2
  0
VPORT
  5
1F4
100
AcDbSymbolTableRecord
100
AcDbViewportTableRecord
  2
*ACTIVE
 70
0
 10
0.0
 20
0.0
 11
1.0
 21
1.0
 12
11.0
 22
8.5
 13
0.0
 23
0.0
 14
1.0
 24
1.0
 15
0.0
 25
0.0
 16
0.0
 26
0.0
 36
1.0
 17
0.0
 27
0.0
 37
0.0
 40
17.0
 41
1.2941176471
 42
50.0
 43
0.0
 44
0.0
 50
0.0
 51
0.0
 71
0
 72
100
 73
1
 74
1
 75
0
 76
0
 77
0
 78
0
  0
ENDTAB
  0
TABLE
  2
LTYPE
  5
5
100
AcDbSymbolTable
 70
6
  0
LTYPE
  5
14
100
AcDbSymbolTableRecord
100
AcDbLinetypeTableRecord
  2
BYBLOCK
 70
0
  3

 72
65
 73
0
 40
0.0
  0
LTYPE
  5
15
100
AcDbSymbolTableRecord
100
AcDbLinetypeTableRecord
  2
BYLAYER
 70
0
  3

 72
65
 73
0
 40
0.0
  0
LTYPE
  5
16
100
AcDbSymbolTableRecord
100
AcDbLinetypeTableRecord
  2
CONTINUOUS
 70
64
  3
Solid line
 72
65
 73
0
 40
0.0
  0
LTYPE
  5
1F5
100
AcDbSymbolTableRecord
100
AcDbLinetypeTableRecord
  2
CENTER
 70
64
  3
____ _ ____ _ ____ _ ____ _ ____ _ ____ _ ____
 72
65
 73
4
 40
0.6
 49
0.375
 74
0
 49
-0.075
 74
0
 49
0.075
 74
0
 49
-0.075
 74
0
  0
LTYPE
  5
1F6
100
AcDbSymbolTableRecord
100
AcDbLinetypeTableRecord
  2
HIDDEN
 70
64
  3
- - - - - - - - - - - - - - - - - - - -
 72
65
 73
2
 40
0.2
 49
0.1
 74
0
 49
-0.1
 74
0
  0
LTYPE
  5
1F7
100
AcDbSymbolTableRecord
100
AcDbLinetypeTableRecord
  2
PHANTOM
 70
64
  3
_____ _ _ _____ _ _ _____ _ _ _____
 72
65
 73
6
 40
0.8
 49
0.45
 74
0
 49
-0.05
 74
0
 49
0.1
 74
0
 49
-0.05
 74
0
 49
0.1
 74
0
 49
-0.05
 74
0
  0
LTYPE
  5
1F8
100
AcDbSymbolTableRecord
100
AcDbLinetypeTableRecord
  2
DOT
 70
64
  3
. . . . . . . . . . . . . . . . . . . .
 72
65
 73
2
 40
0.2
 49
0.1
 74
0
 49
-0.1
 74
0
  0
LTYPE
  5
1F9
100
AcDbSymbolTableRecord
100
AcDbLinetypeTableRecord
  2
DASHED
 70
64
  3
- - - - - - - - - - - - - - - - - - - -
 72
65
 73
2
 40
0.2
 49
0.1
 74
0
 49
-0.1
 74
0
  0
ENDTAB
  0
TABLE
  2
LAYER
  5
2
100
AcDbSymbolTable
 70
36
  0
LAYER
  5
10
100
AcDbSymbolTableRecord
100
AcDbLayerTableRecord
  2
0
 70
0
 62
7
  6
CONTINUOUS
370
-3
390
F
  0
LAYER
  5
1FA
100
AcDbSymbolTableRecord
100
AcDbLayerTableRecord
  2
DEFAULT_1
 70
0
 62
7
  6
CENTER
370
-3
390
F
  0
LAYER
  5
1FB
100
AcDbSymbolTableRecord
100
AcDbLayerTableRecord
  2
DEFAULT_2
 70
0
 62
8
  6
HIDDEN
370
-3
390
F
  0
LAYER
  5
1FC
100
AcDbSymbolTableRecord
100
AcDbLayerTableRecord
  2
DEFAULT_3
 70
0
 62
7
  6
PHANTOM
370
-3
390
F
  0
LAYER
  5
1FD
100
AcDbSymbolTableRecord
100
AcDbLayerTableRecord
  2
DATUM_PLANES
 70
0
 62
7
  6
CONTINUOUS
370
-3
390
F
  0
LAYER
  5
1FE
100
AcDbSymbolTableRecord
100
AcDbLayerTableRecord
  2
DIMENSIONS
 70
0
 62
7
  6
CONTINUOUS
370
-3
390
F
  0
LAYER
  5
1FF
100
AcDbSymbolTableRecord
100
AcDbLayerTableRecord
  2
DTM_500001
 70
0
 62
7
  6
CONTINUOUS
370
-3
390
F
  0
LAYER
  5
200
100
AcDbSymbolTableRecord
100
AcDbLayerTableRecord
  2
PARAMETERDIMENSIONS
 70
0
 62
7
  6
CONTINUOUS
370
-3
390
F
  0
LAYER
  5
201
100
AcDbSymbolTableRecord
100
AcDbLayerTableRecord
  2
PORT_AREAS
 70
0
 62
7
  6
CONTINUOUS
370
-3
390
F
  0
LAYER
  5
202
100
AcDbSymbolTableRecord
100
AcDbLayerTableRecord
  2
SUNNBOMCOSMETIC
 70
0
 62
7
  6
CONTINUOUS
370
-3
390
F
  0
LAYER
  5
203
100
AcDbSymbolTableRecord
100
AcDbLayerTableRecord
  2
SUNNBOMSTAMPING
 70
0
 62
7
  6
CONTINUOUS
370
-3
390
F
  0
LAYER
  5
204
100
AcDbSymbolTableRecord
100
AcDbLayerTableRecord
  2
THREADS
 70
0
 62
7
  6
CONTINUOUS
370
-3
390
F
  0
ENDTAB
  0
TABLE
  2
STYLE
  5
3
100
AcDbSymbolTable
 70
1
  0
STYLE
  5
11
100
AcDbSymbolTableRecord
100
AcDbTextStyleTableRecord
  2
STANDARD
 70
0
 40
0.0
 41
0.8
 50
0.0
 71
0
 42
0.2
  3
txt
  4

  0
STYLE
  5
205
100
AcDbSymbolTableRecord
100
AcDbTextStyleTableRecord
  2
TEXTSTYLE_1
 70
0
 40
0.0
 41
0.8
 50
0.0
 71
0
 42
0.2
  3
gdt
  4

  0
ENDTAB
  0
TABLE
  2
VIEW
  5
6
100
AcDbSymbolTable
 70
0
  0
ENDTAB
  0
TABLE
  2
UCS
  5
7
100
AcDbSymbolTable
 70
0
  0
ENDTAB
  0
TABLE
  2
APPID
  5
9
100
AcDbSymbolTable
 70
1
  0
APPID
  5
206
100
AcDbSymbolTableRecord
100
AcDbRegAppTableRecord
  2
ACAD
 70
0
  0
ENDTAB
  0
TABLE
  2
BLOCK_RECORD
  5
1
100
AcDbSymbolTable
 70
0
  0
BLOCK_RECORD
  5
207
100
AcDbSymbolTableRecord
100
AcDbBlockTableRecord
  2
*Model_Space
  0
BLOCK_RECORD
  5
208
100
AcDbSymbolTableRecord
100
AcDbBlockTableRecord
  2
*Paper_Space
  0
BLOCK_RECORD
  5
209
100
AcDbSymbolTableRecord
100
AcDbBlockTableRecord
  2
SUN_FIRST_THIRD_ANGLE_BL0
  0
BLOCK_RECORD
  5
20A
100
AcDbSymbolTableRecord
100
AcDbBlockTableRecord
  2
*T1
  0
BLOCK_RECORD
  5
20B
100
AcDbSymbolTableRecord
100
AcDbBlockTableRecord
  2
*T2
  0
BLOCK_RECORD
  5
20C
100
AcDbSymbolTableRecord
100
AcDbBlockTableRecord
  2
*T3
  0
ENDTAB
  0
TABLE
  2
DIMSTYLE
  5
A
100
AcDbSymbolTable
 70
1
100
AcDbDimStyleTable
 71
0
  0
DIMSTYLE
105
20D
100
AcDbSymbolTableRecord
100
AcDbDimStyleTableRecord
  2
STANDARD
 70
0
  3

  4

 40
1.0
 41
0.1875
 42
0.0625
 43
0.38
 44
0.125
 45
0.0
 46
0.0
 47
0.001
 48
0.001
140
0.1
141
0.09
142
0.0
143
25.4
144
1.0
145
0.0
146
1.0
147
0.09
 71
0.0
 72
0.0
 73
1
 74
1
 75
0
 76
0
 77
0
 78
4
170
0
171
2
172
0
173
0
174
0
175
0
176
0
177
0
178
0
270
2
271
3
272
3
273
2
274
2
275
0
280
0
281
0
282
0
283
1
284
4
285
0
286
0
287
3
288
0
340
11
278
46
  0
ENDTAB
  0
ENDSEC
  0
SECTION
  2
BLOCKS
  0
BLOCK
  5
20
100
AcDbEntity
  8
0
100
AcDbBlockBegin
  2
*Model_Space
 70
0
 10
0.0
 20
0.0
 30
0.0
  3
*Model_Space
  1

  0
ENDBLK
  5
21
100
AcDbEntity
  8
0
100
AcDbBlockEnd
  0
BLOCK
  5
1C
100
AcDbEntity
  8
0
100
AcDbBlockBegin
  2
*Paper_Space
 70
0
 10
0.0
 20
0.0
 30
0.0
  3
*Paper_Space
  1

  0
ENDBLK
  5
1D
100
AcDbEntity
  8
0
100
AcDbBlockEnd
  0
BLOCK
  5
20E
100
AcDbEntity
  8
0
100
AcDbBlockBegin
 62
2
  6
CONTINUOUS
  2
SUN_FIRST_THIRD_ANGLE_BL0
 70
64
 10
20.4816717061
 20
1.2289683772
  3
SUN_FIRST_THIRD_ANGLE_BL0
  1

  0
TEXT
  5
20F
100
AcDbEntity
  8
0
100
AcDbText
 62
2
  6
CONTINUOUS
 10
19.4750896608
 20
1.4136269581
  7
STANDARD
 40
0.08
  1
FIRST ANGLE
 41
0.8
 72
0
100
AcDbText
  0
TEXT
  5
210
100
AcDbEntity
  8
0
100
AcDbText
 62
2
  6
CONTINUOUS
 10
20.7842537513
 20
1.4047600029
  7
STANDARD
 40
0.08
  1
THIRD ANGLE
 41
0.8
 72
0
100
AcDbText
  0
LINE
  5
211
100
AcDbEntity
  8
0
100
AcDbLine
 62
7
  6
CONTINUOUS
 10
19.4767170086
 20
1.1727031207
 11
19.6334271527
 21
1.1717972817
  0
LINE
  5
212
100
AcDbEntity
  8
0
100
AcDbLine
 62
7
  6
CONTINUOUS
 10
19.6596964832
 20
1.1717972817
 11
19.6950230232
 21
1.171593082
  0
LINE
  5
213
100
AcDbEntity
  8
0
100
AcDbLine
 62
7
  6
CONTINUOUS
 10
19.7194818561
 20
1.1708914427
 11
19.8852396156
 21
1.1699333054
  0
LINE
  5
214
100
AcDbEntity
  8
0
100
AcDbLine
 62
7
  6
CONTINUOUS
 10
19.4758111696
 20
1.2723454088
 11
19.88525039
 21
1.3511534004
  0
LINE
  5
215
100
AcDbEntity
  8
0
100
AcDbLine
 62
7
  6
CONTINUOUS
 10
19.88525039
 20
1.3511534004
 11
19.8831348489
 21
0.9851647912
  0
LINE
  5
216
100
AcDbEntity
  8
0
100
AcDbLine
 62
7
  6
CONTINUOUS
 10
19.8831348489
 20
0.9851647912
 11
19.4767170086
 21
1.0658141206
  0
LINE
  5
217
100
AcDbEntity
  8
0
100
AcDbLine
 62
7
  6
CONTINUOUS
 10
19.4767170086
 20
1.0658141206
 11
19.4779056764
 21
1.2714536432
  0
CIRCLE
  5
218
100
AcDbEntity
  8
0
100
AcDbCircle
 62
7
  6
CONTINUOUS
 10
20.2068232291
 20
1.1717972817
 40
0.175742101
  0
CIRCLE
  5
219
100
AcDbEntity
  8
0
100
AcDbCircle
 62
7
  6
CONTINUOUS
 10
20.2068232291
 20
1.1717972817
 40
0.1005522074
  0
LINE
  5
21A
100
AcDbEntity
  8
0
100
AcDbLine
 62
7
  6
CONTINUOUS
 10
20.2077290681
 20
1.3756110529
 11
20.2071171714
 21
1.2379342989
  0
LINE
  5
21B
100
AcDbEntity
  8
0
100
AcDbLine
 62
7
  6
CONTINUOUS
 10
20.2077290681
 20
1.2016899681
 11
20.2074674401
 21
1.1428236749
  0
LINE
  5
21C
100
AcDbEntity
  8
0
100
AcDbLine
 62
7
  6
CONTINUOUS
 10
20.208634907
 20
1.101141841
 11
20.2080230104
 21
0.963465087
  0
LINE
  5
21D
100
AcDbEntity
  8
0
100
AcDbLine
 62
7
  6
CONTINUOUS
 10
20.0066328138
 20
1.1745147986
 11
20.1443095678
 21
1.1739029019
  0
LINE
  5
21E
100
AcDbEntity
  8
0
100
AcDbLine
 62
7
  6
CONTINUOUS
 10
20.1832714155
 20
1.1727031207
 11
20.238153505
 21
1.172335442
  0
LINE
  5
21F
100
AcDbEntity
  8
0
100
AcDbLine
 62
7
  6
CONTINUOUS
 10
20.2756669918
 20
1.1717972817
 11
20.407916871
 21
1.1712095044
  0
CIRCLE
  5
220
100
AcDbEntity
  8
0
100
AcDbCircle
 62
7
  6
CONTINUOUS
 10
20.7509457401
 20
1.1693297793
 40
0.1722024983
  0
CIRCLE
  5
221
100
AcDbEntity
  8
0
100
AcDbCircle
 62
7
  6
CONTINUOUS
 10
20.7509457401
 20
1.1693297793
 40
0.0985164967
  0
LINE
  5
222
100
AcDbEntity
  8
0
100
AcDbLine
 62
7
  6
CONTINUOUS
 10
20.7169767782
 20
1.170462078
 11
20.7825395137
 21
1.1682766535
  0
LINE
  5
223
100
AcDbEntity
  8
0
100
AcDbLine
 62
7
  6
CONTINUOUS
 10
20.8177513651
 20
1.1693297793
 11
20.947965719
 21
1.1693297793
  0
LINE
  5
224
100
AcDbEntity
  8
0
100
AcDbLine
 62
7
  6
CONTINUOUS
 10
20.6875370113
 20
1.170462078
 11
20.5573226574
 21
1.170462078
  0
LINE
  5
225
100
AcDbEntity
  8
0
100
AcDbLine
 62
7
  6
CONTINUOUS
 10
20.7486811426
 20
1.1987695462
 11
20.7486811426
 21
1.1432869085
  0
LINE
  5
226
100
AcDbEntity
  8
0
100
AcDbLine
 62
7
  6
CONTINUOUS
 10
20.7498134414
 20
1.1059210505
 11
20.7498134414
 21
0.9757066966
  0
LINE
  5
227
100
AcDbEntity
  8
0
100
AcDbLine
 62
7
  6
CONTINUOUS
 10
20.7486811426
 20
1.2338708068
 11
20.7486811426
 21
1.3640851607
  0
LINE
  5
228
100
AcDbEntity
  8
0
100
AcDbLine
 62
7
  6
CONTINUOUS
 10
21.0702539817
 20
1.2701043662
 11
21.4790138229
 21
1.3448360823
  0
LINE
  5
229
100
AcDbEntity
  8
0
100
AcDbLine
 62
7
  6
CONTINUOUS
 10
21.4790138229
 20
1.3448360823
 11
21.4790138229
 21
0.9779712941
  0
LINE
  5
22A
100
AcDbEntity
  8
0
100
AcDbLine
 62
7
  6
CONTINUOUS
 10
21.4790138229
 20
0.9779712941
 11
21.069121683
 21
1.0617614
  0
LINE
  5
22B
100
AcDbEntity
  8
0
100
AcDbLine
 62
7
  6
CONTINUOUS
 10
21.0702539817
 20
1.2701043662
 11
21.069121683
 21
1.0617614
  0
LINE
  5
22C
100
AcDbEntity
  8
0
100
AcDbLine
 62
7
  6
CONTINUOUS
 10
21.4790138229
 20
1.1693297793
 11
21.3159628059
 21
1.1693297793
  0
LINE
  5
22D
100
AcDbEntity
  8
0
100
AcDbLine
 62
7
  6
CONTINUOUS
 10
21.2876553377
 20
1.1693297793
 11
21.2502894796
 21
1.1693297793
  0
LINE
  5
22E
100
AcDbEntity
  8
0
100
AcDbLine
 62
7
  6
CONTINUOUS
 10
21.2208497126
 20
1.1659328831
 11
21.0713862804
 21
1.1659328831
  0
LINE
  5
22F
100
AcDbEntity
  8
0
100
AcDbLine
 62
7
  6
CONTINUOUS
 10
20.4796138713
 20
1.5284908897
 11
20.4766766948
 21
0.9294458646
  0
ENDBLK
  5
230
100
AcDbEntity
  8
0
  6
BYBLOCK
 62
0
100
AcDbBlockEnd
  0
BLOCK
  5
231
100
AcDbEntity
  8
0
100
AcDbBlockBegin
  2
*T1
 70
1
 10
0.0
 20
0.0
  3
*T1
  1

  0
LINE
  5
232
100
AcDbEntity
  8
0
100
AcDbLine
 62
2
  6
CONTINUOUS
 10
9.275
 20
0.0
 11
-0.0
 21
0.0
  0
LINE
  5
233
100
AcDbEntity
  8
0
100
AcDbLine
 62
2
  6
CONTINUOUS
 10
9.275
 20
0.0
 11
9.275
 21
1.25
  0
LINE
  5
234
100
AcDbEntity
  8
0
100
AcDbLine
 62
2
  6
CONTINUOUS
 10
9.275
 20
0.625
 11
-0.0
 21
0.625
  0
LINE
  5
235
100
AcDbEntity
  8
0
100
AcDbLine
 62
2
  6
CONTINUOUS
 10
9.275
 20
1.25
 11
-0.0
 21
1.25
  0
LINE
  5
236
100
AcDbEntity
  8
0
100
AcDbLine
 62
2
  6
CONTINUOUS
 10
6.8
 20
0.0
 11
6.8
 21
1.25
  0
LINE
  5
237
100
AcDbEntity
  8
0
100
AcDbLine
 62
2
  6
CONTINUOUS
 10
6.4
 20
0.0
 11
6.4
 21
0.625
  0
LINE
  5
238
100
AcDbEntity
  8
0
100
AcDbLine
 62
2
  6
CONTINUOUS
 10
5.9
 20
0.0
 11
5.9
 21
0.625
  0
LINE
  5
239
100
AcDbEntity
  8
0
100
AcDbLine
 62
2
  6
CONTINUOUS
 10
5.2
 20
0.0
 11
5.2
 21
0.625
  0
LINE
  5
23A
100
AcDbEntity
  8
0
100
AcDbLine
 62
2
  6
CONTINUOUS
 10
4.1
 20
0.0
 11
4.1
 21
1.25
  0
LINE
  5
23B
100
AcDbEntity
  8
0
100
AcDbLine
 62
2
  6
CONTINUOUS
 10
-0.0
 20
0.0
 11
-0.0
 21
1.25
  0
MTEXT
  5
23C
100
AcDbEntity
  8
0
100
AcDbMText
 62
2
  6
CONTINUOUS
  7
STANDARD
 71
2
 72
1
 10
6.6
 20
0.325
 30
0.0
 11
1.0
 21
0.0
 31
0.0
 44
0.9
  1
2
 40
0.125
 41
0.2
  0
MTEXT
  5
23D
100
AcDbEntity
  8
0
100
AcDbMText
 62
2
  6
CONTINUOUS
  7
STANDARD
 71
2
 72
1
 10
6.15
 20
0.325
 30
0.0
 11
1.0
 21
0.0
 31
0.0
 44
0.9
  1
C
 40
0.125
 41
0.2
  0
MTEXT
  5
23E
100
AcDbEntity
  8
0
100
AcDbMText
 62
2
  6
CONTINUOUS
  7
STANDARD
 71
2
 72
1
 10
5.55
 20
0.325
 30
0.0
 11
1.0
 21
0.0
 31
0.0
 44
0.9
  1
1.000
 40
0.125
 41
1.0
  0
MTEXT
  5
23F
100
AcDbEntity
  8
0
100
AcDbMText
 62
2
  6
CONTINUOUS
  7
STANDARD
 71
2
 72
1
 10
4.65
 20
0.325
 30
0.0
 11
1.0
 21
0.0
 31
0.0
 44
0.9
  1
Jun-22-23
 40
0.125
 41
1.8
  0
MTEXT
  5
240
100
AcDbEntity
  8
0
100
AcDbMText
 62
2
  6
CONTINUOUS
  7
STANDARD
 71
2
 72
1
 10
2.05
 20
0.4625
 30
0.0
 11
1.0
 21
0.0
 31
0.0
 44
0.9
  1
T-2A Gasket mount Sun\PDirect mount, cross pilot
 40
0.125
 41
5.0
  0
MTEXT
  5
241
100
AcDbEntity
  8
0
100
AcDbMText
 62
2
  6
CONTINUOUS
  7
STANDARD
 71
1
 72
1
 10
6.45
 20
0.5625
 30
0.0
 11
1.0
 21
0.0
 31
0.0
 44
0.9
  1
SHEET
 40
0.06
 41
0.48
  0
MTEXT
  5
242
100
AcDbEntity
  8
0
100
AcDbMText
 62
2
  6
CONTINUOUS
  7
STANDARD
 71
1
 72
1
 10
5.95
 20
0.5625
 30
0.0
 11
1.0
 21
0.0
 31
0.0
 44
0.9
  1
DWG SIZE
 40
0.06
 41
0.768
  0
MTEXT
  5
243
100
AcDbEntity
  8
0
100
AcDbMText
 62
2
  6
CONTINUOUS
  7
STANDARD
 71
1
 72
1
 10
5.25
 20
0.5625
 30
0.0
 11
1.0
 21
0.0
 31
0.0
 44
0.9
  1
SCALE
 40
0.06
 41
0.48
  0
MTEXT
  5
244
100
AcDbEntity
  8
0
100
AcDbMText
 62
2
  6
CONTINUOUS
  7
STANDARD
 71
1
 72
1
 10
4.15
 20
0.5625
 30
0.0
 11
1.0
 21
0.0
 31
0.0
 44
0.9
  1
DATE
 40
0.06
 41
0.384
  0
MTEXT
  5
245
100
AcDbEntity
  8
0
100
AcDbMText
 62
2
  6
CONTINUOUS
  7
STANDARD
 71
1
 72
1
 10
0.05
 20
0.5625
 30
0.0
 11
1.0
 21
0.0
 31
0.0
 44
0.9
  1
DESCRIPTION
 40
0.06
 41
1.056
  0
MTEXT
  5
246
100
AcDbEntity
  8
0
100
AcDbMText
 62
2
  6
CONTINUOUS
  7
STANDARD
 71
2
 72
1
 10
5.45
 20
1.0375
 30
0.0
 11
1.0
 21
0.0
 31
0.0
 44
0.9
  1
ALL DIMENSIONS IN INCH\PVIEWS ARE THIRD ANGLE
 40
0.12
 41
4.224
  0
MTEXT
  5
247
100
AcDbEntity
  8
0
100
AcDbMText
 62
2
  6
CONTINUOUS
  7
STANDARD
 71
2
 72
1
 10
2.05
 20
0.95
 30
0.0
 11
1.0
 21
0.0
 31
0.0
 44
0.9
  1
YVV
 40
0.125
 41
0.6
  0
MTEXT
  5
248
100
AcDbEntity
  8
0
100
AcDbMText
 62
2
  6
CONTINUOUS
  7
STANDARD
 71
1
 72
1
 10
0.05
 20
1.1875
 30
0.0
 11
1.0
 21
0.0
 31
0.0
 44
0.9
  1
MODEL
 40
0.06
 41
0.48
  0
ENDBLK
  5
249
100
AcDbEntity
  8
0
  6
BYBLOCK
 62
0
100
AcDbBlockEnd
  0
BLOCK
  5
24A
100
AcDbEntity
  8
0
100
AcDbBlockBegin
  2
*T2
 70
1
 10
0.0
 20
0.0
  3
*T2
  1

  0
LINE
  5
24B
100
AcDbEntity
  8
0
100
AcDbLine
 62
2
  6
CONTINUOUS
 10
0.0
 20
0.0
 11
9.055
 21
0.0
  0
LINE
  5
24C
100
AcDbEntity
  8
0
100
AcDbLine
 62
2
  6
CONTINUOUS
 10
0.0
 20
0.0
 11
0.0
 21
-3.094
  0
LINE
  5
24D
100
AcDbEntity
  8
0
100
AcDbLine
 62
2
  6
CONTINUOUS
 10
0.0
 20
-0.344
 11
9.055
 21
-0.344
  0
LINE
  5
24E
100
AcDbEntity
  8
0
100
AcDbLine
 62
2
  6
CONTINUOUS
 10
0.0
 20
-0.594
 11
9.055
 21
-0.594
  0
LINE
  5
24F
100
AcDbEntity
  8
0
100
AcDbLine
 62
2
  6
CONTINUOUS
 10
0.0
 20
-0.844
 11
9.055
 21
-0.844
  0
LINE
  5
250
100
AcDbEntity
  8
0
100
AcDbLine
 62
2
  6
CONTINUOUS
 10
0.0
 20
-1.094
 11
9.055
 21
-1.094
  0
LINE
  5
251
100
AcDbEntity
  8
0
100
AcDbLine
 62
2
  6
CONTINUOUS
 10
0.0
 20
-1.344
 11
9.055
 21
-1.344
  0
LINE
  5
252
100
AcDbEntity
  8
0
100
AcDbLine
 62
2
  6
CONTINUOUS
 10
0.0
 20
-1.594
 11
9.055
 21
-1.594
  0
LINE
  5
253
100
AcDbEntity
  8
0
100
AcDbLine
 62
2
  6
CONTINUOUS
 10
0.0
 20
-1.844
 11
9.055
 21
-1.844
  0
LINE
  5
254
100
AcDbEntity
  8
0
100
AcDbLine
 62
2
  6
CONTINUOUS
 10
0.0
 20
-2.094
 11
9.055
 21
-2.094
  0
LINE
  5
255
100
AcDbEntity
  8
0
100
AcDbLine
 62
2
  6
CONTINUOUS
 10
0.0
 20
-2.344
 11
9.055
 21
-2.344
  0
LINE
  5
256
100
AcDbEntity
  8
0
100
AcDbLine
 62
2
  6
CONTINUOUS
 10
0.0
 20
-2.594
 11
9.055
 21
-2.594
  0
LINE
  5
257
100
AcDbEntity
  8
0
100
AcDbLine
 62
2
  6
CONTINUOUS
 10
0.0
 20
-2.844
 11
9.055
 21
-2.844
  0
LINE
  5
258
100
AcDbEntity
  8
0
100
AcDbLine
 62
2
  6
CONTINUOUS
 10
0.0
 20
-3.094
 11
9.055
 21
-3.094
  0
LINE
  5
259
100
AcDbEntity
  8
0
100
AcDbLine
 62
2
  6
CONTINUOUS
 10
3.055
 20
0.0
 11
3.055
 21
-3.094
  0
LINE
  5
25A
100
AcDbEntity
  8
0
100
AcDbLine
 62
2
  6
CONTINUOUS
 10
9.055
 20
0.0
 11
9.055
 21
-3.094
  0
MTEXT
  5
25B
100
AcDbEntity
  8
0
100
AcDbMText
 62
2
  6
CONTINUOUS
  7
STANDARD
 71
2
 72
1
 10
1.5275
 20
-0.0995
 30
0.0
 11
1.0
 21
0.0
 31
0.0
 44
0.9
  1
Technical Data
 40
0.145
 41
3.248
  0
MTEXT
  5
25C
100
AcDbEntity
  8
0
100
AcDbMText
 62
2
  6
CONTINUOUS
  7
STANDARD
 71
2
 72
1
 10
4.555
 20
-0.0995
 30
0.0
 11
1.0
 21
0.0
 31
0.0
 44
0.9
  1
U.S. Units
 40
0.145
 41
2.32
  0
MTEXT
  5
25D
100
AcDbEntity
  8
0
100
AcDbMText
 62
2
  6
CONTINUOUS
  7
STANDARD
 71
2
 72
1
 10
7.555
 20
-0.0995
 30
0.0
 11
1.0
 21
0.0
 31
0.0
 44
0.9
  1
Metric Units
 40
0.145
 41
2.784
  0
MTEXT
  5
25E
100
AcDbEntity
  8
0
100
AcDbMText
 62
2
  6
CONTINUOUS
  7
STANDARD
 71
2
 72
1
 10
1.5275
 20
-0.4065
 30
0.0
 11
1.0
 21
0.0
 31
0.0
 44
0.9
  1
Cavity
 40
0.125
 41
1.2
  0
MTEXT
  5
25F
100
AcDbEntity
  8
0
100
AcDbMText
 62
2
  6
CONTINUOUS
  7
STANDARD
 71
2
 72
1
 10
6.055
 20
-0.4065
 30
0.0
 11
1.0
 21
0.0
 31
0.0
 44
0.9
  1
T-2A
 40
0.125
 41
0.8
  0
MTEXT
  5
260
100
AcDbEntity
  8
0
100
AcDbMText
 62
2
  6
CONTINUOUS
  7
STANDARD
 71
2
 72
1
 10
1.5275
 20
-0.6565
 30
0.0
 11
1.0
 21
0.0
 31
0.0
 44
0.9
  1
Body Features
 40
0.125
 41
2.6
  0
MTEXT
  5
261
100
AcDbEntity
  8
0
100
AcDbMText
 62
2
  6
CONTINUOUS
  7
STANDARD
 71
2
 72
1
 10
6.055
 20
-0.6565
 30
0.0
 11
1.0
 21
0.0
 31
0.0
 44
0.9
  1
Direct mount, cross pilot
 40
0.125
 41
5.0
  0
MTEXT
  5
262
100
AcDbEntity
  8
0
100
AcDbMText
 62
2
  6
CONTINUOUS
  7
STANDARD
 71
2
 72
1
 10
1.5275
 20
-0.9065
 30
0.0
 11
1.0
 21
0.0
 31
0.0
 44
0.9
  1
Body Type
 40
0.125
 41
1.8
  0
MTEXT
  5
263
100
AcDbEntity
  8
0
100
AcDbMText
 62
2
  6
CONTINUOUS
  7
STANDARD
 71
2
 72
1
 10
6.055
 20
-0.9065
 30
0.0
 11
1.0
 21
0.0
 31
0.0
 44
0.9
  1
Gasket mount
 40
0.125
 41
2.4
  0
MTEXT
  5
264
100
AcDbEntity
  8
0
100
AcDbMText
 62
2
  6
CONTINUOUS
  7
STANDARD
 71
2
 72
1
 10
1.5275
 20
-1.1565
 30
0.0
 11
1.0
 21
0.0
 31
0.0
 44
0.9
  1
Interface
 40
0.125
 41
1.8
  0
MTEXT
  5
265
100
AcDbEntity
  8
0
100
AcDbMText
 62
2
  6
CONTINUOUS
  7
STANDARD
 71
2
 72
1
 10
6.055
 20
-1.1565
 30
0.0
 11
1.0
 21
0.0
 31
0.0
 44
0.9
  1
Sun
 40
0.125
 41
0.6
  0
MTEXT
  5
266
100
AcDbEntity
  8
0
100
AcDbMText
 62
2
  6
CONTINUOUS
  7
STANDARD
 71
2
 72
1
 10
1.5275
 20
-1.4065
 30
0.0
 11
1.0
 21
0.0
 31
0.0
 44
0.9
  1
Open Cavity Quantity
 40
0.125
 41
4.0
  0
MTEXT
  5
267
100
AcDbEntity
  8
0
100
AcDbMText
 62
2
  6
CONTINUOUS
  7
STANDARD
 71
2
 72
1
 10
6.055
 20
-1.4065
 30
0.0
 11
1.0
 21
0.0
 31
0.0
 44
0.9
  1
2
 40
0.125
 41
0.2
  0
MTEXT
  5
268
100
AcDbEntity
  8
0
100
AcDbMText
 62
2
  6
CONTINUOUS
  7
STANDARD
 71
2
 72
1
 10
1.5275
 20
-1.6565
 30
0.0
 11
1.0
 21
0.0
 31
0.0
 44
0.9
  1
Weight
 40
0.125
 41
1.2
  0
MTEXT
  5
269
100
AcDbEntity
  8
0
100
AcDbMText
 62
2
  6
CONTINUOUS
  7
STANDARD
 71
2
 72
1
 10
4.555
 20
-1.6565
 30
0.0
 11
1.0
 21
0.0
 31
0.0
 44
0.9
  1
2.736 lb.
 40
0.125
 41
1.8
  0
MTEXT
  5
26A
100
AcDbEntity
  8
0
100
AcDbMText
 62
2
  6
CONTINUOUS
  7
STANDARD
 71
2
 72
1
 10
7.555
 20
-1.6565
 30
0.0
 11
1.0
 21
0.0
 31
0.0
 44
0.9
  1
1,241 kg.
 40
0.125
 41
1.8
  0
MTEXT
  5
26B
100
AcDbEntity
  8
0
100
AcDbMText
 62
2
  6
CONTINUOUS
  7
STANDARD
 71
2
 72
1
 10
1.5275
 20
-1.9065
 30
0.0
 11
1.0
 21
0.0
 31
0.0
 44
0.9
  1
Mounting Hole Diameter
 40
0.125
 41
4.4
  0
MTEXT
  5
26C
100
AcDbEntity
  8
0
100
AcDbMText
 62
2
  6
CONTINUOUS
  7
STANDARD
 71
2
 72
1
 10
4.555
 20
-1.9065
 30
0.0
 11
1.0
 21
0.0
 31
0.0
 44
0.9
  1
.42 in.
 40
0.125
 41
1.4
  0
MTEXT
  5
26D
100
AcDbEntity
  8
0
100
AcDbMText
 62
2
  6
CONTINUOUS
  7
STANDARD
 71
2
 72
1
 10
7.555
 20
-1.9065
 30
0.0
 11
1.0
 21
0.0
 31
0.0
 44
0.9
  1
10,7 mm
 40
0.125
 41
1.4
  0
MTEXT
  5
26E
100
AcDbEntity
  8
0
100
AcDbMText
 62
2
  6
CONTINUOUS
  7
STANDARD
 71
2
 72
1
 10
1.5275
 20
-2.1565
 30
0.0
 11
1.0
 21
0.0
 31
0.0
 44
0.9
  1
Mounting Hole Depth
 40
0.125
 41
3.8
  0
MTEXT
  5
26F
100
AcDbEntity
  8
0
100
AcDbMText
 62
2
  6
CONTINUOUS
  7
STANDARD
 71
2
 72
1
 10
6.055
 20
-2.1565
 30
0.0
 11
1.0
 21
0.0
 31
0.0
 44
0.9
  1
Through
 40
0.125
 41
1.4
  0
MTEXT
  5
270
100
AcDbEntity
  8
0
100
AcDbMText
 62
2
  6
CONTINUOUS
  7
STANDARD
 71
2
 72
1
 10
1.5275
 20
-2.4065
 30
0.0
 11
1.0
 21
0.0
 31
0.0
 44
0.9
  1
Mounting Hole Quantity
 40
0.125
 41
4.4
  0
MTEXT
  5
271
100
AcDbEntity
  8
0
100
AcDbMText
 62
2
  6
CONTINUOUS
  7
STANDARD
 71
2
 72
1
 10
6.055
 20
-2.4065
 30
0.0
 11
1.0
 21
0.0
 31
0.0
 44
0.9
  1
2
 40
0.125
 41
0.2
  0
MTEXT
  5
272
100
AcDbEntity
  8
0
100
AcDbMText
 62
2
  6
CONTINUOUS
  7
STANDARD
 71
2
 72
1
 10
1.5275
 20
-2.6565
 30
0.0
 11
1.0
 21
0.0
 31
0.0
 44
0.9
  1
Mounting Hole C'bore Diameter
 40
0.125
 41
5.8
  0
MTEXT
  5
273
100
AcDbEntity
  8
0
100
AcDbMText
 62
2
  6
CONTINUOUS
  7
STANDARD
 71
2
 72
1
 10
4.555
 20
-2.6565
 30
0.0
 11
1.0
 21
0.0
 31
0.0
 44
0.9
  1
.59 in.
 40
0.125
 41
1.4
  0
MTEXT
  5
274
100
AcDbEntity
  8
0
100
AcDbMText
 62
2
  6
CONTINUOUS
  7
STANDARD
 71
2
 72
1
 10
7.555
 20
-2.6565
 30
0.0
 11
1.0
 21
0.0
 31
0.0
 44
0.9
  1
15,0 mm
 40
0.125
 41
1.4
  0
MTEXT
  5
275
100
AcDbEntity
  8
0
100
AcDbMText
 62
2
  6
CONTINUOUS
  7
STANDARD
 71
2
 72
1
 10
1.5275
 20
-2.9065
 30
0.0
 11
1.0
 21
0.0
 31
0.0
 44
0.9
  1
Mounting Hole C'bore Depth
 40
0.125
 41
5.2
  0
MTEXT
  5
276
100
AcDbEntity
  8
0
100
AcDbMText
 62
2
  6
CONTINUOUS
  7
STANDARD
 71
2
 72
1
 10
4.555
 20
-2.9065
 30
0.0
 11
1.0
 21
0.0
 31
0.0
 44
0.9
  1
.31 in.
 40
0.125
 41
1.4
  0
MTEXT
  5
277
100
AcDbEntity
  8
0
100
AcDbMText
 62
2
  6
CONTINUOUS
  7
STANDARD
 71
2
 72
1
 10
7.555
 20
-2.9065
 30
0.0
 11
1.0
 21
0.0
 31
0.0
 44
0.9
  1
8 mm
 40
0.125
 41
0.8
  0
ENDBLK
  5
278
100
AcDbEntity
  8
0
  6
BYBLOCK
 62
0
100
AcDbBlockEnd
  0
BLOCK
  5
279
100
AcDbEntity
  8
0
100
AcDbBlockBegin
  2
*T3
 70
1
 10
0.0
 20
0.0
  3
*T3
  1

  0
LINE
  5
27A
100
AcDbEntity
  8
0
100
AcDbLine
 62
2
  6
CONTINUOUS
 10
0.0
 20
0.0
 11
4.6
 21
0.0
  0
LINE
  5
27B
100
AcDbEntity
  8
0
100
AcDbLine
 62
2
  6
CONTINUOUS
 10
0.0
 20
0.0
 11
0.0
 21
-0.93775
  0
LINE
  5
27C
100
AcDbEntity
  8
0
100
AcDbLine
 62
2
  6
CONTINUOUS
 10
0.0
 20
-0.34375
 11
4.6
 21
-0.34375
  0
LINE
  5
27D
100
AcDbEntity
  8
0
100
AcDbLine
 62
2
  6
CONTINUOUS
 10
0.0
 20
-0.68775
 11
4.6
 21
-0.68775
  0
LINE
  5
27E
100
AcDbEntity
  8
0
100
AcDbLine
 62
2
  6
CONTINUOUS
 10
0.0
 20
-0.93775
 11
4.6
 21
-0.93775
  0
LINE
  5
27F
100
AcDbEntity
  8
0
100
AcDbLine
 62
2
  6
CONTINUOUS
 10
1.3
 20
-0.34375
 11
1.3
 21
-0.93775
  0
LINE
  5
280
100
AcDbEntity
  8
0
100
AcDbLine
 62
2
  6
CONTINUOUS
 10
3.3
 20
-0.34375
 11
3.3
 21
-0.93775
  0
LINE
  5
281
100
AcDbEntity
  8
0
100
AcDbLine
 62
2
  6
CONTINUOUS
 10
4.6
 20
0.0
 11
4.6
 21
-0.93775
  0
MTEXT
  5
282
100
AcDbEntity
  8
0
100
AcDbMText
 62
2
  6
CONTINUOUS
  7
STANDARD
 71
2
 72
1
 10
2.3
 20
-0.099375
 30
0.0
 11
1.0
 21
0.0
 31
0.0
 44
0.9
  1
Port Headings
 40
0.145
 41
3.016
  0
MTEXT
  5
283
100
AcDbEntity
  8
0
100
AcDbMText
 62
2
  6
CONTINUOUS
  7
STANDARD
 71
2
 72
1
 10
0.65
 20
-0.44325
 30
0.0
 11
1.0
 21
0.0
 31
0.0
 44
0.9
  1
Product
 40
0.145
 41
1.624
  0
MTEXT
  5
284
100
AcDbEntity
  8
0
100
AcDbMText
 62
2
  6
CONTINUOUS
  7
STANDARD
 71
2
 72
1
 10
2.3
 20
-0.44325
 30
0.0
 11
1.0
 21
0.0
 31
0.0
 44
0.9
  1
Port
 40
0.145
 41
0.928
  0
MTEXT
  5
285
100
AcDbEntity
  8
0
100
AcDbMText
 62
2
  6
CONTINUOUS
  7
STANDARD
 71
2
 72
1
 10
3.95
 20
-0.44325
 30
0.0
 11
1.0
 21
0.0
 31
0.0
 44
0.9
  1
Size
 40
0.145
 41
0.928
  0
MTEXT
  5
286
100
AcDbEntity
  8
0
100
AcDbMText
 62
2
  6
CONTINUOUS
  7
STANDARD
 71
2
 72
1
 10
0.65
 20
-0.75025
 30
0.0
 11
1.0
 21
0.0
 31
0.0
 44
0.9
  1
YVV
 40
0.125
 41
0.6
  0
MTEXT
  5
287
100
AcDbEntity
  8
0
100
AcDbMText
 62
2
  6
CONTINUOUS
  7
STANDARD
 71
2
 72
1
 10
2.3
 20
-0.75025
 30
0.0
 11
1.0
 21
0.0
 31
0.0
 44
0.9
  1
Ports C2, V1, V2
 40
0.125
 41
3.2
  0
MTEXT
  5
288
100
AcDbEntity
  8
0
100
AcDbMText
 62
2
  6
CONTINUOUS
  7
STANDARD
 71
2
 72
1
 10
3.95
 20
-0.75025
 30
0.0
 11
1.0
 21
0.0
 31
0.0
 44
0.9
  1
SAE 8
 40
0.125
 41
1.0
  0
ENDBLK
  5
289
100
AcDbEntity
  8
0
  6
BYBLOCK
 62
0
100
AcDbBlockEnd
  0
ENDSEC
  0
SECTION
  2
ENTITIES
  0
IMAGE
  5
28A
100
AcDbEntity
  8
0
100
AcDbRasterImage
 62
7
  6
CONTINUOUS
 10
19.2297077316
 20
0.3094318264
 30
0.0
 11
0.0066666667
 21
0.0
 31
0.0
 12
0.0
 22
0.0066666667
 32
0.0
 13
369.0
 23
92.0
340
       389
 70
9
280
0
281
50
282
50
283
0
360
       383
 71
1
 91
2
 14
-0.5
 24
-0.5
 14
368.5
 24
91.5
  0
INSERT
  5
28B
100
AcDbEntity
  8
0
100
AcDbBlockReference
 62
2
  6
CONTINUOUS
  2
SUN_FIRST_THIRD_ANGLE_BL0
 10
20.4816717061
 20
1.2289683772
  0
ACAD_TABLE
  5
28C
100
AcDbEntity
  8
0
 62
2
  6
CONTINUOUS
100
AcDbBlockReference
  2
*T1
 10
12.42375
 20
0.30125
 30
0.0
100
AcDbTable
342
       38B
343
20A
 11
1.0
 21
0.0
 31
0.0
 90
6
 91
4
 92
6
 93
20
 94
0
 95
0
 96
0
 70
1
 41
0.0
141
0.525
141
0.1
141
0.525
141
0.1
142
4.1
142
1.1
142
0.7
142
0.5
142
0.4
142
2.475
171
1
172
0
173
0
174
0
175
1
176
1
 91
33
178
0
145
0.0
301
CELL_VALUE
 90
4
  1
T-2A Gasket mount Sun\PDirect mount, cross pilot
304
ACVALUE_END
170
2
140
0.125
171
1
172
0
173
0
174
0
175
1
176
1
 91
33
178
0
145
0.0
301
CELL_VALUE
 90
4
  1
Jun-22-23
304
ACVALUE_END
170
5
140
0.125
171
1
172
0
173
0
174
0
175
1
176
1
 91
33
178
0
145
0.0
301
CELL_VALUE
 90
4
  1
1.000
304
ACVALUE_END
170
5
140
0.125
171
1
172
0
173
0
174
0
175
1
176
1
 91
33
178
0
145
0.0
301
CELL_VALUE
 90
4
  1
C
304
ACVALUE_END
170
5
140
0.125
171
1
172
0
173
0
174
0
175
1
176
1
 91
33
178
0
145
0.0
301
CELL_VALUE
 90
4
  1
2
304
ACVALUE_END
170
5
140
0.125
171
1
172
0
173
0
174
0
175
1
176
1
 91
33
178
0
145
0.0
301
CELL_VALUE
 90
4
  1
 
304
ACVALUE_END
170
1
140
0.125
171
1
172
0
173
0
174
0
175
1
176
1
 91
33
178
0
145
0.0
301
CELL_VALUE
 90
4
  1
DESCRIPTION
304
ACVALUE_END
170
1
140
0.06
171
1
172
0
173
0
174
0
175
1
176
1
 91
33
178
0
145
0.0
301
CELL_VALUE
 90
4
  1
DATE
304
ACVALUE_END
170
1
140
0.06
171
1
172
0
173
0
174
0
175
1
176
1
 91
33
178
0
145
0.0
301
CELL_VALUE
 90
4
  1
SCALE
304
ACVALUE_END
170
1
140
0.06
171
1
172
0
173
0
174
0
175
1
176
1
 91
33
178
0
145
0.0
301
CELL_VALUE
 90
4
  1
DWG SIZE
304
ACVALUE_END
170
1
140
0.06
171
1
172
0
173
0
174
0
175
1
176
1
 91
33
178
0
145
0.0
301
CELL_VALUE
 90
4
  1
SHEET
304
ACVALUE_END
170
1
140
0.06
171
1
172
0
173
0
174
0
175
1
176
1
 91
33
178
0
145
0.0
301
CELL_VALUE
 90
4
  1
 
304
ACVALUE_END
170
1
140
0.125
171
1
172
0
173
0
174
0
175
1
176
1
 91
33
178
0
145
0.0
301
CELL_VALUE
 90
4
  1
YVV
304
ACVALUE_END
170
5
140
0.125
171
1
172
0
173
0
174
0
175
4
176
1
 91
33
178
0
145
0.0
301
CELL_VALUE
 90
4
  1
ALL DIMENSIONS IN INCH\PVIEWS ARE THIRD ANGLE
304
ACVALUE_END
170
5
140
0.12
171
1
172
0
173
1
174
0
175
1
176
1
 91
1
178
0
145
0.0
170
1
171
1
172
0
173
1
174
0
175
1
176
1
 91
1
178
0
145
0.0
170
1
171
1
172
0
173
1
174
0
175
1
176
1
 91
1
178
0
145
0.0
170
5
171
1
172
0
173
0
174
0
175
1
176
1
 91
33
178
0
145
0.0
301
CELL_VALUE
 90
4
  1
 
304
ACVALUE_END
170
1
140
0.125
171
1
172
0
173
0
174
0
175
1
176
1
 91
33
178
0
145
0.0
301
CELL_VALUE
 90
4
  1
MODEL
304
ACVALUE_END
170
1
140
0.06
171
1
172
0
173
0
174
0
175
1
176
1
 91
33
178
0
145
0.0
301
CELL_VALUE
 90
4
  1
 
304
ACVALUE_END
170
1
140
0.125
171
1
172
0
173
0
174
0
175
1
176
1
 91
33
178
0
145
0.0
301
CELL_VALUE
 90
4
  1
 
304
ACVALUE_END
170
1
140
0.125
171
1
172
0
173
0
174
0
175
1
176
1
 91
33
178
0
145
0.0
301
CELL_VALUE
 90
4
  1
 
304
ACVALUE_END
170
1
140
0.125
171
1
172
0
173
0
174
0
175
1
176
1
 91
33
178
0
145
0.0
301
CELL_VALUE
 90
4
  1
 
304
ACVALUE_END
170
1
140
0.125
171
1
172
0
173
0
174
0
175
1
176
1
 91
33
178
0
145
0.0
301
CELL_VALUE
 90
4
  1
 
304
ACVALUE_END
170
1
140
0.125
  0
ACAD_TABLE
  5
28D
100
AcDbEntity
  8
0
 62
2
  6
CONTINUOUS
100
AcDbBlockReference
  2
*T2
 10
12.4237499994
 20
16.47875
 30
0.0
100
AcDbTable
342
       38A
343
20B
 11
1.0
 21
0.0
 31
0.0
 90
22
 91
12
 92
3
 93
16
 94
0
 95
0
 96
0
 41
0.028
141
0.344
141
0.25
141
0.25
141
0.25
141
0.25
141
0.25
141
0.25
141
0.25
141
0.25
141
0.25
141
0.25
141
0.25
142
3.055
142
3.0
142
3.0
171
1
172
0
173
0
174
0
175
1
176
1
 91
33
178
0
145
0.0
301
CELL_VALUE
 90
4
  1
Technical Data
304
ACVALUE_END
170
5
140
0.145
171
1
172
0
173
0
174
0
175
1
176
1
 91
33
178
0
145
0.0
301
CELL_VALUE
 90
4
  1
U.S. Units
304
ACVALUE_END
170
5
140
0.145
171
1
172
0
173
0
174
0
175
1
176
1
 91
33
178
0
145
0.0
301
CELL_VALUE
 90
4
  1
Metric Units
304
ACVALUE_END
170
5
140
0.145
171
1
172
0
173
0
174
0
175
1
176
1
 91
33
178
0
145
0.0
301
CELL_VALUE
 90
4
  1
Cavity
304
ACVALUE_END
170
5
140
0.125
171
1
172
0
173
0
174
0
175
2
176
1
 91
33
178
0
145
0.0
301
CELL_VALUE
 90
4
  1
T-2A
304
ACVALUE_END
170
5
140
0.125
171
1
172
0
173
1
174
0
175
1
176
1
 91
1
178
0
145
0.0
170
1
171
1
172
0
173
0
174
0
175
1
176
1
 91
33
178
0
145
0.0
301
CELL_VALUE
 90
4
  1
Body Features
304
ACVALUE_END
170
5
140
0.125
171
1
172
0
173
0
174
0
175
2
176
1
 91
33
178
0
145
0.0
301
CELL_VALUE
 90
4
  1
Direct mount, cross pilot
304
ACVALUE_END
170
5
140
0.125
171
1
172
0
173
1
174
0
175
1
176
1
 91
1
178
0
145
0.0
170
1
171
1
172
0
173
0
174
0
175
1
176
1
 91
33
178
0
145
0.0
301
CELL_VALUE
 90
4
  1
Body Type
304
ACVALUE_END
170
5
140
0.125
171
1
172
0
173
0
174
0
175
2
176
1
 91
33
178
0
145
0.0
301
CELL_VALUE
 90
4
  1
Gasket mount
304
ACVALUE_END
170
5
140
0.125
171
1
172
0
173
1
174
0
175
1
176
1
 91
1
178
0
145
0.0
170
1
171
1
172
0
173
0
174
0
175
1
176
1
 91
33
178
0
145
0.0
301
CELL_VALUE
 90
4
  1
Interface
304
ACVALUE_END
170
5
140
0.125
171
1
172
0
173
0
174
0
175
2
176
1
 91
33
178
0
145
0.0
301
CELL_VALUE
 90
4
  1
Sun
304
ACVALUE_END
170
5
140
0.125
171
1
172
0
173
1
174
0
175
1
176
1
 91
1
178
0
145
0.0
170
1
171
1
172
0
173
0
174
0
175
1
176
1
 91
33
178
0
145
0.0
301
CELL_VALUE
 90
4
  1
Open Cavity Quantity
304
ACVALUE_END
170
5
140
0.125
171
1
172
0
173
0
174
0
175
2
176
1
 91
33
178
0
145
0.0
301
CELL_VALUE
 90
4
  1
2
304
ACVALUE_END
170
5
140
0.125
171
1
172
0
173
1
174
0
175
1
176
1
 91
1
178
0
145
0.0
170
1
171
1
172
0
173
0
174
0
175
1
176
1
 91
33
178
0
145
0.0
301
CELL_VALUE
 90
4
  1
Weight
304
ACVALUE_END
170
5
140
0.125
171
1
172
0
173
0
174
0
175
1
176
1
 91
33
178
0
145
0.0
301
CELL_VALUE
 90
4
  1
2.736 lb.
304
ACVALUE_END
170
5
140
0.125
171
1
172
0
173
0
174
0
175
1
176
1
 91
33
178
0
145
0.0
301
CELL_VALUE
 90
4
  1
1,241 kg.
304
ACVALUE_END
170
5
140
0.125
171
1
172
0
173
0
174
0
175
1
176
1
 91
33
178
0
145
0.0
301
CELL_VALUE
 90
4
  1
Mounting Hole Diameter
304
ACVALUE_END
170
5
140
0.125
171
1
172
0
173
0
174
0
175
1
176
1
 91
33
178
0
145
0.0
301
CELL_VALUE
 90
4
  1
.42 in.
304
ACVALUE_END
170
5
140
0.125
171
1
172
0
173
0
174
0
175
1
176
1
 91
33
178
0
145
0.0
301
CELL_VALUE
 90
4
  1
10,7 mm
304
ACVALUE_END
170
5
140
0.125
171
1
172
0
173
0
174
0
175
1
176
1
 91
33
178
0
145
0.0
301
CELL_VALUE
 90
4
  1
Mounting Hole Depth
304
ACVALUE_END
170
5
140
0.125
171
1
172
0
173
0
174
0
175
2
176
1
 91
33
178
0
145
0.0
301
CELL_VALUE
 90
4
  1
Through
304
ACVALUE_END
170
5
140
0.125
171
1
172
0
173
1
174
0
175
1
176
1
 91
1
178
0
145
0.0
170
1
171
1
172
0
173
0
174
0
175
1
176
1
 91
33
178
0
145
0.0
301
CELL_VALUE
 90
4
  1
Mounting Hole Quantity
304
ACVALUE_END
170
5
140
0.125
171
1
172
0
173
0
174
0
175
2
176
1
 91
33
178
0
145
0.0
301
CELL_VALUE
 90
4
  1
2
304
ACVALUE_END
170
5
140
0.125
171
1
172
0
173
1
174
0
175
1
176
1
 91
1
178
0
145
0.0
170
1
171
1
172
0
173
0
174
0
175
1
176
1
 91
33
178
0
145
0.0
301
CELL_VALUE
 90
4
  1
Mounting Hole C'bore Diameter
304
ACVALUE_END
170
5
140
0.125
171
1
172
0
173
0
174
0
175
1
176
1
 91
33
178
0
145
0.0
301
CELL_VALUE
 90
4
  1
.59 in.
304
ACVALUE_END
170
5
140
0.125
171
1
172
0
173
0
174
0
175
1
176
1
 91
33
178
0
145
0.0
301
CELL_VALUE
 90
4
  1
15,0 mm
304
ACVALUE_END
170
5
140
0.125
171
1
172
0
173
0
174
0
175
1
176
1
 91
33
178
0
145
0.0
301
CELL_VALUE
 90
4
  1
Mounting Hole C'bore Depth
304
ACVALUE_END
170
5
140
0.125
171
1
172
0
173
0
174
0
175
1
176
1
 91
33
178
0
145
0.0
301
CELL_VALUE
 90
4
  1
.31 in.
304
ACVALUE_END
170
5
140
0.125
171
1
172
0
173
0
174
0
175
1
176
1
 91
33
178
0
145
0.0
301
CELL_VALUE
 90
4
  1
8 mm
304
ACVALUE_END
170
5
140
0.125
  0
ACAD_TABLE
  5
28E
100
AcDbEntity
  8
0
 62
2
  6
CONTINUOUS
100
AcDbBlockReference
  2
*T3
 10
0.52125
 20
1.459
 30
0.0
100
AcDbTable
342
       38A
343
20C
 11
1.0
 21
0.0
 31
0.0
 90
22
 91
3
 92
3
 93
16
 94
0
 95
0
 96
0
 41
0.05
141
0.34375
141
0.344
141
0.25
142
1.3
142
2.0
142
1.3
171
1
172
0
173
0
174
0
175
3
176
1
 91
33
178
0
145
0.0
301
CELL_VALUE
 90
4
  1
Port Headings
304
ACVALUE_END
170
5
140
0.145
171
1
172
0
173
1
174
0
175
1
176
1
 91
1
178
0
145
0.0
170
1
171
1
172
0
173
1
174
0
175
1
176
1
 91
1
178
0
145
0.0
170
1
171
1
172
0
173
0
174
0
175
1
176
1
 91
33
178
0
145
0.0
301
CELL_VALUE
 90
4
  1
Product
304
ACVALUE_END
170
5
140
0.145
171
1
172
0
173
0
174
0
175
1
176
1
 91
33
178
0
145
0.0
301
CELL_VALUE
 90
4
  1
Port
304
ACVALUE_END
170
5
140
0.145
171
1
172
0
173
0
174
0
175
1
176
1
 91
33
178
0
145
0.0
301
CELL_VALUE
 90
4
  1
Size
304
ACVALUE_END
170
5
140
0.145
171
1
172
0
173
0
174
0
175
1
176
1
 91
33
178
0
145
0.0
301
CELL_VALUE
 90
4
  1
YVV
304
ACVALUE_END
170
5
140
0.125
171
1
172
0
173
0
174
0
175
1
176
1
 91
33
178
0
145
0.0
301
CELL_VALUE
 90
4
  1
Ports C2, V1, V2
304
ACVALUE_END
170
5
140
0.125
171
1
172
0
173
0
174
0
175
1
176
1
 91
33
178
0
145
0.0
301
CELL_VALUE
 90
4
  1
SAE 8
304
ACVALUE_END
170
5
140
0.125
  0
MTEXT
  5
28F
100
AcDbEntity
  8
0
100
AcDbMText
 62
2
  6
CONTINUOUS
  7
STANDARD
 71
1
 72
1
 10
0.52125
 20
5.75995
 30
0.0
 11
1.0
 21
0.0
 31
0.0
 44
0.6
  3
Notes\P \P1. Important: Carefully consider\P   the maximum system pressure. The\P   pressure rating of the manifold is\P   dependent on the manifold material,\P   with the port type/size a secondary\P   consideration. Manifolds\P   constructed of alu
  3
minum are not\P   rated for pressures higher than\P   3000 psi (210 bar), regardless of\P   the port type/size specified.\P2. This drawing is for reference\P   only. It is generated by an\P   automated process and does not fall\P   under Sun's docume
  1
nt control\P   process.
 40
0.1
 41
3.04
  0
LINE
  5
290
100
AcDbEntity
  8
0
100
AcDbLine
 62
7
  6
CONTINUOUS
 10
0.30125
 20
0.30125
 11
0.30125
 21
16.69875
  0
LINE
  5
291
100
AcDbEntity
  8
0
100
AcDbLine
 62
7
  6
CONTINUOUS
 10
0.30125
 20
0.30125
 11
21.69875
 21
0.30125
  0
LINE
  5
292
100
AcDbEntity
  8
0
100
AcDbLine
 62
7
  6
CONTINUOUS
 10
0.30125
 20
16.69875
 11
21.69875
 21
16.69875
  0
LINE
  5
293
100
AcDbEntity
  8
0
100
AcDbLine
 62
7
  6
CONTINUOUS
 10
21.69875
 20
0.30125
 11
21.69875
 21
16.69875
  0
LINE
  5
294
100
AcDbEntity
  8
0
100
AcDbLine
 62
7
  6
CONTINUOUS
 10
9.1218618932
 20
9.5097466151
 11
10.2218419271
 21
10.5722458012
  0
LINE
  5
295
100
AcDbEntity
  8
0
100
AcDbLine
 62
7
  6
CONTINUOUS
 10
9.1218618932
 20
9.5097466151
 11
9.1218618932
 21
6.6119689645
  0
LINE
  5
296
100
AcDbEntity
  8
0
100
AcDbLine
 62
7
  6
CONTINUOUS
 10
11.7781580729
 20
6.4277541988
 11
9.1218618932
 21
6.6119689645
  0
LINE
  5
297
100
AcDbEntity
  8
0
100
AcDbLine
 62
4
  6
CONTINUOUS
 10
11.8118045212
 20
7.3923726772
 11
11.8040399564
 21
7.3921171271
  0
LINE
  5
298
100
AcDbEntity
  8
0
100
AcDbLine
 62
4
  6
CONTINUOUS
 10
11.8040399564
 20
7.4790504547
 11
11.8350982155
 21
7.4728282112
  0
LINE
  5
299
100
AcDbEntity
  8
0
100
AcDbLine
 62
7
  6
CONTINUOUS
 10
12.8781381068
 20
10.3880310355
 11
11.7781580729
 21
9.3255318494
  0
LINE
  5
29A
100
AcDbEntity
  8
0
100
AcDbLine
 62
4
  6
CONTINUOUS
 10
12.8211979637
 20
8.5726312084
 11
12.8134333989
 21
8.5723756583
  0
LINE
  5
29B
100
AcDbEntity
  8
0
100
AcDbLine
 62
4
  6
CONTINUOUS
 10
12.3196070684
 20
8.3016701508
 11
12.3506653282
 21
8.298552671
  0
LINE
  5
29C
100
AcDbEntity
  8
0
100
AcDbLine
 62
4
  6
CONTINUOUS
 10
12.8289625285
 20
8.7177756379
 11
12.8367270932
 21
8.718031188
  0
LINE
  5
29D
100
AcDbEntity
  8
0
100
AcDbLine
 62
4
  6
CONTINUOUS
 10
12.3196070684
 20
8.39826273
 11
12.3506653282
 21
8.3951452501
  0
LINE
  5
29E
100
AcDbEntity
  8
0
100
AcDbLine
 62
4
  6
CONTINUOUS
 10
11.8247454631
 20
7.3541615602
 11
11.8221572736
 21
7.3589060049
  0
LINE
  5
29F
100
AcDbEntity
  8
0
100
AcDbLine
 62
4
  6
CONTINUOUS
 10
11.8169808974
 20
7.382883785
 11
11.8118045212
 21
7.3923726772
  0
LINE
  5
2A0
100
AcDbEntity
  8
0
100
AcDbLine
 62
4
  6
CONTINUOUS
 10
11.8299218384
 20
7.4171171068
 11
11.8325100279
 21
7.412372662
  0
LINE
  5
2A1
100
AcDbEntity
  8
0
100
AcDbLine
 62
4
  6
CONTINUOUS
 10
12.2512788969
 20
8.6441188513
 11
12.2823371567
 21
8.6410013715
  0
LINE
  5
2A2
100
AcDbEntity
  8
0
100
AcDbLine
 62
4
  6
CONTINUOUS
 10
11.8350982155
 20
8.7261170422
 11
11.8040399564
 21
8.6961170659
  0
LINE
  5
2A3
100
AcDbEntity
  8
0
100
AcDbLine
 62
4
  6
CONTINUOUS
 10
11.8040399564
 20
8.8120281693
 11
11.8350982155
 21
8.8058059258
  0
LINE
  5
2A4
100
AcDbEntity
  8
0
100
AcDbLine
 62
4
  6
CONTINUOUS
 10
11.8221572736
 20
7.3589060049
 11
11.8169808974
 21
7.382883785
  0
LINE
  5
2A5
100
AcDbEntity
  8
0
100
AcDbLine
 62
4
  6
CONTINUOUS
 10
11.8325100279
 20
7.412372662
 11
11.8350982155
 21
7.4003837715
  0
LINE
  5
2A6
100
AcDbEntity
  8
0
100
AcDbLine
 62
4
  6
CONTINUOUS
 10
11.8350982155
 20
8.8782503655
 11
11.8040399564
 21
8.8120281693
  0
LINE
  5
2A7
100
AcDbEntity
  8
0
100
AcDbLine
 62
4
  6
CONTINUOUS
 10
12.4407342815
 20
9.0662543615
 11
12.4252051517
 21
9.051254373
  0
LINE
  5
2A8
100
AcDbEntity
  8
0
100
AcDbLine
 62
4
  6
CONTINUOUS
 10
12.4252051517
 20
8.99329882
 11
12.4096760218
 21
8.9782988315
  0
LINE
  5
2A9
100
AcDbEntity
  8
0
100
AcDbLine
 62
4
  6
CONTINUOUS
 10
12.4096760218
 20
8.949321055
 11
12.4407342815
 21
8.979321032
  0
LINE
  5
2AA
100
AcDbEntity
  8
0
100
AcDbLine
 62
4
  6
CONTINUOUS
 10
12.2512788969
 20
8.7489907982
 11
12.2823371567
 21
8.7789907752
  0
LINE
  5
2AB
100
AcDbEntity
  8
0
100
AcDbLine
 62
4
  6
CONTINUOUS
 10
12.4407342815
 20
8.921365479
 11
12.4096760218
 21
8.891365502
  0
LINE
  5
2AC
100
AcDbEntity
  8
0
100
AcDbLine
 62
4
  6
CONTINUOUS
 10
12.4407342815
 20
8.8923877025
 11
12.4096760218
 21
8.8623877255
  0
LINE
  5
2AD
100
AcDbEntity
  8
0
100
AcDbLine
 62
4
  6
CONTINUOUS
 10
12.2779002627
 20
8.7167495183
 11
12.2557157913
 21
8.6953209633
  0
LINE
  5
2AE
100
AcDbEntity
  8
0
100
AcDbLine
 62
4
  6
CONTINUOUS
 10
12.4407342815
 20
8.8344321495
 11
12.4096760218
 21
8.8044321725
  0
LINE
  5
2AF
100
AcDbEntity
  8
0
100
AcDbLine
 62
7
  6
CONTINUOUS
 10
11.7781580729
 20
9.3255318494
 11
11.7781580729
 21
6.4277541988
  0
LINE
  5
2B0
100
AcDbEntity
  8
0
100
AcDbLine
 62
4
  6
CONTINUOUS
 10
11.8040399564
 20
7.3921171271
 11
11.8040399564
 21
7.3341615754
  0
LINE
  5
2B1
100
AcDbEntity
  8
0
100
AcDbLine
 62
4
  6
CONTINUOUS
 10
11.8350982155
 20
7.4003837715
 11
11.8350982155
 21
7.3858948836
  0
LINE
  5
2B2
100
AcDbEntity
  8
0
100
AcDbLine
 62
4
  6
CONTINUOUS
 10
12.4096760218
 20
8.6885210665
 11
12.4407342815
 21
8.7185210435
  0
LINE
  5
2B3
100
AcDbEntity
  8
0
100
AcDbLine
 62
4
  6
CONTINUOUS
 10
12.2512788969
 20
8.51164901
 11
12.2823371567
 21
8.541648987
  0
LINE
  5
2B4
100
AcDbEntity
  8
0
100
AcDbLine
 62
4
  6
CONTINUOUS
 10
12.4096760218
 20
8.6305655135
 11
12.4252051517
 21
8.645565502
  0
LINE
  5
2B5
100
AcDbEntity
  8
0
100
AcDbLine
 62
4
  6
CONTINUOUS
 10
12.2512788969
 20
8.4454140962
 11
12.2823371567
 21
8.4754140732
  0
LINE
  5
2B6
100
AcDbEntity
  8
0
100
AcDbLine
 62
4
  6
CONTINUOUS
 10
12.3373546462
 20
8.5147579558
 11
12.3196070684
 21
8.497615111
  0
LINE
  5
2B7
100
AcDbEntity
  8
0
100
AcDbLine
 62
4
  6
CONTINUOUS
 10
12.4096760218
 20
8.5832351452
 11
12.4252051517
 21
8.5982351337
  0
LINE
  5
2B8
100
AcDbEntity
  8
0
100
AcDbLine
 62
7
  6
CONTINUOUS
 10
11.7781580729
 20
9.3255318494
 11
9.1218618932
 21
9.5097466151
  0
LINE
  5
2B9
100
AcDbEntity
  8
0
100
AcDbLine
 62
4
  6
CONTINUOUS
 10
11.8350982155
 20
7.3858948836
 11
11.8325100279
 21
7.3689059982
  0
LINE
  5
2BA
100
AcDbEntity
  8
0
100
AcDbLine
 62
4
  6
CONTINUOUS
 10
11.8325100279
 20
7.3689059982
 11
11.8299218384
 21
7.3591615551
  0
LINE
  5
2BB
100
AcDbEntity
  8
0
100
AcDbLine
 62
4
  6
CONTINUOUS
 10
12.2823371567
 20
8.6410013715
 11
12.2512788969
 21
8.5778839238
  0
LINE
  5
2BC
100
AcDbEntity
  8
0
100
AcDbLine
 62
4
  6
CONTINUOUS
 10
12.4252051517
 20
8.5402795807
 11
12.3941468919
 21
8.5102796036
  0
LINE
  5
2BD
100
AcDbEntity
  8
0
100
AcDbLine
 62
4
  6
CONTINUOUS
 10
12.4096760218
 20
8.4866425568
 11
12.4252051517
 21
8.5016425453
  0
LINE
  5
2BE
100
AcDbEntity
  8
0
100
AcDbLine
 62
4
  6
CONTINUOUS
 10
12.4407342815
 20
8.4586869808
 11
12.4096760218
 21
8.4286870038
  0
LINE
  5
2BF
100
AcDbEntity
  8
0
100
AcDbLine
 62
4
  6
CONTINUOUS
 10
12.2557157913
 20
8.2758331207
 11
12.2779002627
 21
8.2972616758
  0
LINE
  5
2C0
100
AcDbEntity
  8
0
100
AcDbLine
 62
4
  6
CONTINUOUS
 10
12.4252051517
 20
8.405049957
 11
12.4096760218
 21
8.3900499685
  0
LINE
  5
2C1
100
AcDbEntity
  8
0
100
AcDbLine
 62
4
  6
CONTINUOUS
 10
12.2557157913
 20
8.1792405692
 11
12.2779002627
 21
8.2006691243
  0
LINE
  5
2C2
100
AcDbEntity
  8
0
100
AcDbLine
 62
4
  6
CONTINUOUS
 10
12.4096760218
 20
8.2934573801
 11
12.420028775
 21
8.3034573724
  0
LINE
  5
2C3
100
AcDbEntity
  8
0
100
AcDbLine
 62
4
  6
CONTINUOUS
 10
12.3373546462
 20
8.5147579558
 11
12.3506653282
 21
8.4944976277
  0
LINE
  5
2C4
100
AcDbEntity
  8
0
100
AcDbLine
 62
4
  6
CONTINUOUS
 10
12.2557157913
 20
8.0302120201
 11
12.2512788969
 21
8.0424850305
  0
LINE
  5
2C5
100
AcDbEntity
  8
0
100
AcDbLine
 62
4
  6
CONTINUOUS
 10
12.2557157913
 20
8.1212850162
 11
12.2512788969
 21
8.1335580265
  0
LINE
  5
2C6
100
AcDbEntity
  8
0
100
AcDbLine
 62
4
  6
CONTINUOUS
 10
12.2779002627
 20
8.2006691243
 11
12.2823371567
 21
8.1883961135
  0
LINE
  5
2C7
100
AcDbEntity
  8
0
100
AcDbLine
 62
4
  6
CONTINUOUS
 10
12.2779002627
 20
8.2972616758
 11
12.2823371567
 21
8.284988665
  0
LINE
  5
2C8
100
AcDbEntity
  8
0
100
AcDbLine
 62
4
  6
CONTINUOUS
 10
12.2512788969
 20
8.4454140962
 11
12.2512788969
 21
8.3957379039
  0
LINE
  5
2C9
100
AcDbEntity
  8
0
100
AcDbLine
 62
4
  6
CONTINUOUS
 10
12.2512788969
 20
7.9790098668
 11
12.2512788969
 21
7.9293337021
  0
LINE
  5
2CA
100
AcDbEntity
  8
0
100
AcDbLine
 62
4
  6
CONTINUOUS
 10
12.2512788969
 20
8.0424850305
 11
12.2512788969
 21
8.0838818619
  0
LINE
  5
2CB
100
AcDbEntity
  8
0
100
AcDbLine
 62
4
  6
CONTINUOUS
 10
12.2512788969
 20
8.1335580265
 11
12.2512788969
 21
8.1583961365
  0
LINE
  5
2CC
100
AcDbEntity
  8
0
100
AcDbLine
 62
4
  6
CONTINUOUS
 10
12.2512788969
 20
8.2218712449
 11
12.2512788969
 21
8.254988688
  0
LINE
  5
2CD
100
AcDbEntity
  8
0
100
AcDbLine
 62
4
  6
CONTINUOUS
 10
12.2512788969
 20
8.7075939805
 11
12.2512788969
 21
8.7489907982
  0
LINE
  5
2CE
100
AcDbEntity
  8
0
100
AcDbLine
 62
4
  6
CONTINUOUS
 10
12.2601526858
 20
8.6416511214
 11
12.2601526858
 21
8.5974945123
  0
LINE
  5
2CF
100
AcDbEntity
  8
0
100
AcDbLine
 62
4
  6
CONTINUOUS
 10
12.2690264747
 20
7.9630352685
 11
12.2690264747
 21
7.9961527115
  0
LINE
  5
2D0
100
AcDbEntity
  8
0
100
AcDbLine
 62
4
  6
CONTINUOUS
 10
12.2690264747
 20
8.4294394703
 11
12.2690264747
 21
8.462556941
  0
LINE
  5
2D1
100
AcDbEntity
  8
0
100
AcDbLine
 62
4
  6
CONTINUOUS
 10
12.2823371567
 20
8.7789907752
 11
12.2823371567
 21
8.7375939575
  0
LINE
  5
2D2
100
AcDbEntity
  8
0
100
AcDbLine
 62
4
  6
CONTINUOUS
 10
12.2823371567
 20
8.5747664577
 11
12.2823371567
 21
8.5085315439
  0
LINE
  5
2D3
100
AcDbEntity
  8
0
100
AcDbLine
 62
4
  6
CONTINUOUS
 10
12.2823371567
 20
8.4754140732
 11
12.2823371567
 21
8.425737881
  0
LINE
  5
2D4
100
AcDbEntity
  8
0
100
AcDbLine
 62
4
  6
CONTINUOUS
 10
12.2823371567
 20
8.284988665
 11
12.2823371567
 21
8.2518712219
  0
LINE
  5
2D5
100
AcDbEntity
  8
0
100
AcDbLine
 62
4
  6
CONTINUOUS
 10
12.2823371567
 20
8.1883961135
 11
12.2823371567
 21
8.1635580036
  0
LINE
  5
2D6
100
AcDbEntity
  8
0
100
AcDbLine
 62
4
  6
CONTINUOUS
 10
12.2823371567
 20
8.113881839
 11
12.2823371567
 21
8.0724850075
  0
LINE
  5
2D7
100
AcDbEntity
  8
0
100
AcDbLine
 62
4
  6
CONTINUOUS
 10
12.2823371567
 20
8.0090098438
 11
12.2823371567
 21
7.9593336792
  0
LINE
  5
2D8
100
AcDbEntity
  8
0
100
AcDbLine
 62
4
  6
CONTINUOUS
 10
12.2645895798
 20
8.828082852
 11
12.2586737207
 21
8.7782119579
  0
LINE
  5
2D9
100
AcDbEntity
  8
0
100
AcDbLine
 62
4
  6
CONTINUOUS
 10
12.2823371567
 20
8.7375939575
 11
12.2779002627
 21
8.7167495183
  0
LINE
  5
2DA
100
AcDbEntity
  8
0
100
AcDbLine
 62
4
  6
CONTINUOUS
 10
12.2512788969
 20
8.254988688
 11
12.2557157913
 21
8.2758331207
  0
LINE
  5
2DB
100
AcDbEntity
  8
0
100
AcDbLine
 62
4
  6
CONTINUOUS
 10
12.2512788969
 20
8.1583961365
 11
12.2557157913
 21
8.1792405692
  0
LINE
  5
2DC
100
AcDbEntity
  8
0
100
AcDbLine
 62
4
  6
CONTINUOUS
 10
12.2823371567
 20
8.1635580036
 11
12.2779002627
 21
8.1427135713
  0
LINE
  5
2DD
100
AcDbEntity
  8
0
100
AcDbLine
 62
4
  6
CONTINUOUS
 10
12.3506653282
 20
8.5607325484
 11
12.3373546462
 21
8.5147579558
  0
LINE
  5
2DE
100
AcDbEntity
  8
0
100
AcDbLine
 62
4
  6
CONTINUOUS
 10
11.8350982155
 20
7.5452726508
 11
11.8040399564
 21
7.4790504547
  0
LINE
  5
2DF
100
AcDbEntity
  8
0
100
AcDbLine
 62
4
  6
CONTINUOUS
 10
12.3506653282
 20
8.4613801708
 11
12.3196070684
 21
8.39826273
  0
LINE
  5
2E0
100
AcDbEntity
  8
0
100
AcDbLine
 62
4
  6
CONTINUOUS
 10
12.3506653282
 20
8.3647875848
 11
12.3196070684
 21
8.3016701508
  0
LINE
  5
2E1
100
AcDbEntity
  8
0
100
AcDbLine
 62
4
  6
CONTINUOUS
 10
12.2779002627
 20
8.1427135713
 11
12.2557157913
 21
8.1212850162
  0
LINE
  5
2E2
100
AcDbEntity
  8
0
100
AcDbLine
 62
4
  6
CONTINUOUS
 10
12.2512788969
 20
8.0838818619
 11
12.2823371567
 21
8.113881839
  0
LINE
  5
2E3
100
AcDbEntity
  8
0
100
AcDbLine
 62
4
  6
CONTINUOUS
 10
12.4252051517
 20
8.2505018156
 11
12.4096760218
 21
8.2355018271
  0
LINE
  5
2E4
100
AcDbEntity
  8
0
100
AcDbLine
 62
4
  6
CONTINUOUS
 10
12.4252051517
 20
8.2118647803
 11
12.4096760218
 21
8.1968647917
  0
LINE
  5
2E5
100
AcDbEntity
  8
0
100
AcDbLine
 62
4
  6
CONTINUOUS
 10
12.2779002627
 20
8.0516405752
 11
12.2557157913
 21
8.0302120201
  0
LINE
  5
2E6
100
AcDbEntity
  8
0
100
AcDbLine
 62
4
  6
CONTINUOUS
 10
12.4096760218
 20
8.1389092387
 11
12.4252051517
 21
8.1539092272
  0
LINE
  5
2E7
100
AcDbEntity
  8
0
100
AcDbLine
 62
4
  6
CONTINUOUS
 10
12.2512788969
 20
7.9790098668
 11
12.2823371567
 21
8.0090098438
  0
LINE
  5
2E8
100
AcDbEntity
  8
0
100
AcDbLine
 62
4
  6
CONTINUOUS
 10
12.8393152809
 20
8.5394200863
 11
12.8341389056
 21
8.5344200914
  0
LINE
  5
2E9
100
AcDbEntity
  8
0
100
AcDbLine
 62
4
  6
CONTINUOUS
 10
12.4096760218
 20
8.1002722034
 11
12.4407342815
 21
8.1302721804
  0
LINE
  5
2EA
100
AcDbEntity
  8
0
100
AcDbLine
 62
4
  6
CONTINUOUS
 10
12.4096760218
 20
8.0616351681
 11
12.4252051517
 21
8.0766351566
  0
LINE
  5
2EB
100
AcDbEntity
  8
0
100
AcDbLine
 62
4
  6
CONTINUOUS
 10
12.4252051517
 20
8.0379981212
 11
12.4096760218
 21
8.0229981327
  0
LINE
  5
2EC
100
AcDbEntity
  8
0
100
AcDbLine
 62
4
  6
CONTINUOUS
 10
12.2557157913
 20
8.6953209633
 11
12.2512788969
 21
8.7075939805
  0
LINE
  5
2ED
100
AcDbEntity
  8
0
100
AcDbLine
 62
4
  6
CONTINUOUS
 10
12.2645895798
 20
7.864916783
 11
12.2586737207
 21
7.9033591108
  0
LINE
  5
2EE
100
AcDbEntity
  8
0
100
AcDbLine
 62
4
  6
CONTINUOUS
 10
12.2705054394
 20
8.7896405212
 11
12.2645895798
 21
8.828082852
  0
LINE
  5
2EF
100
AcDbEntity
  8
0
100
AcDbLine
 62
4
  6
CONTINUOUS
 10
12.3941468919
 20
8.5102796036
 11
12.3941468919
 21
8.548916639
  0
LINE
  5
2F0
100
AcDbEntity
  8
0
100
AcDbLine
 62
4
  6
CONTINUOUS
 10
12.4096760218
 20
8.1968647917
 11
12.4096760218
 21
8.1389092387
  0
LINE
  5
2F1
100
AcDbEntity
  8
0
100
AcDbLine
 62
4
  6
CONTINUOUS
 10
12.4096760218
 20
8.0229981327
 11
12.4096760218
 21
7.9650425797
  0
LINE
  5
2F2
100
AcDbEntity
  8
0
100
AcDbLine
 62
4
  6
CONTINUOUS
 10
12.4096760218
 20
7.8684499914
 11
12.4096760218
 21
7.9264055444
  0
LINE
  5
2F3
100
AcDbEntity
  8
0
100
AcDbLine
 62
4
  6
CONTINUOUS
 10
12.4096760218
 20
8.2355018271
 11
12.4096760218
 21
8.2934573801
  0
LINE
  5
2F4
100
AcDbEntity
  8
0
100
AcDbLine
 62
4
  6
CONTINUOUS
 10
12.4096760218
 20
8.4286870038
 11
12.4096760218
 21
8.4866425568
  0
LINE
  5
2F5
100
AcDbEntity
  8
0
100
AcDbLine
 62
4
  6
CONTINUOUS
 10
12.4096760218
 20
8.5252795921
 11
12.4096760218
 21
8.5832351452
  0
LINE
  5
2F6
100
AcDbEntity
  8
0
100
AcDbLine
 62
4
  6
CONTINUOUS
 10
12.4096760218
 20
8.891365502
 11
12.4096760218
 21
8.949321055
  0
LINE
  5
2F7
100
AcDbEntity
  8
0
100
AcDbLine
 62
4
  6
CONTINUOUS
 10
12.4096760218
 20
8.9782988315
 11
12.4096760218
 21
9.0362543845
  0
LINE
  5
2F8
100
AcDbEntity
  8
0
100
AcDbLine
 62
4
  6
CONTINUOUS
 10
12.4174405867
 20
7.9339055386
 11
12.4174405867
 21
7.8759499856
  0
LINE
  5
2F9
100
AcDbEntity
  8
0
100
AcDbLine
 62
4
  6
CONTINUOUS
 10
12.420028775
 20
8.3034573724
 11
12.420028775
 21
8.2455018194
  0
LINE
  5
2FA
100
AcDbEntity
  8
0
100
AcDbLine
 62
4
  6
CONTINUOUS
 10
12.4252051517
 20
9.051254373
 11
12.4252051517
 21
8.99329882
  0
LINE
  5
2FB
100
AcDbEntity
  8
0
100
AcDbLine
 62
4
  6
CONTINUOUS
 10
12.4252051517
 20
8.5016425453
 11
12.4252051517
 21
8.4436869923
  0
LINE
  5
2FC
100
AcDbEntity
  8
0
100
AcDbLine
 62
4
  6
CONTINUOUS
 10
12.4252051517
 20
8.405049957
 11
12.4252051517
 21
8.347094404
  0
LINE
  5
2FD
100
AcDbEntity
  8
0
100
AcDbLine
 62
4
  6
CONTINUOUS
 10
12.4252051517
 20
8.0379981212
 11
12.4252051517
 21
7.9800425682
  0
LINE
  5
2FE
100
AcDbEntity
  8
0
100
AcDbLine
 62
4
  6
CONTINUOUS
 10
12.4252051517
 20
7.9414055329
 11
12.4252051517
 21
7.8834499799
  0
LINE
  5
2FF
100
AcDbEntity
  8
0
100
AcDbLine
 62
4
  6
CONTINUOUS
 10
12.4252051517
 20
8.2505018156
 11
12.4252051517
 21
8.2891388509
  0
LINE
  5
300
100
AcDbEntity
  8
0
100
AcDbLine
 62
4
  6
CONTINUOUS
 10
12.4252051517
 20
8.645565502
 11
12.4252051517
 21
8.703521055
  0
LINE
  5
301
100
AcDbEntity
  8
0
100
AcDbLine
 62
4
  6
CONTINUOUS
 10
12.4329697166
 20
8.0913795949
 11
12.4329697166
 21
8.0768907067
  0
LINE
  5
302
100
AcDbEntity
  8
0
100
AcDbLine
 62
4
  6
CONTINUOUS
 10
12.4407342815
 20
8.8923877025
 11
12.4407342815
 21
8.8344321495
  0
LINE
  5
303
100
AcDbEntity
  8
0
100
AcDbLine
 62
4
  6
CONTINUOUS
 10
12.4407342815
 20
9.0082988085
 11
12.4407342815
 21
9.0662543615
  0
LINE
  5
304
100
AcDbEntity
  8
0
100
AcDbLine
 62
4
  6
CONTINUOUS
 10
12.2705054394
 20
7.9147876741
 11
12.2645895798
 21
7.864916783
  0
LINE
  5
305
100
AcDbEntity
  8
0
100
AcDbLine
 62
4
  6
CONTINUOUS
 10
12.2823371567
 20
8.0724850075
 11
12.2779002627
 21
8.0516405752
  0
LINE
  5
306
100
AcDbEntity
  8
0
100
AcDbLine
 62
4
  6
CONTINUOUS
 10
12.4252051517
 20
7.9414055329
 11
12.4174405867
 21
7.9339055386
  0
LINE
  5
307
100
AcDbEntity
  8
0
100
AcDbLine
 62
4
  6
CONTINUOUS
 10
11.8299218384
 20
7.3591615551
 11
11.8247454631
 21
7.3541615602
  0
LINE
  5
308
100
AcDbEntity
  8
0
100
AcDbLine
 62
4
  6
CONTINUOUS
 10
12.4174405867
 20
7.8759499856
 11
12.4096760218
 21
7.8684499914
  0
LINE
  5
309
100
AcDbEntity
  8
0
100
AcDbLine
 62
4
  6
CONTINUOUS
 10
12.8211979637
 20
8.7030311998
 11
12.8289625285
 21
8.7177756379
  0
LINE
  5
30A
100
AcDbEntity
  8
0
100
AcDbLine
 62
4
  6
CONTINUOUS
 10
12.8341389056
 20
8.5344200914
 11
12.8315507161
 21
8.5391645362
  0
LINE
  5
30B
100
AcDbEntity
  8
0
100
AcDbLine
 62
4
  6
CONTINUOUS
 10
12.8263743399
 20
8.5631423163
 11
12.8211979637
 21
8.5726312084
  0
LINE
  5
30C
100
AcDbEntity
  8
0
100
AcDbLine
 62
4
  6
CONTINUOUS
 10
12.8393152809
 20
8.597375638
 11
12.8419034704
 21
8.5926311933
  0
LINE
  5
30D
100
AcDbEntity
  8
0
100
AcDbLine
 62
4
  6
CONTINUOUS
 10
12.8186097756
 20
8.6353312062
 11
12.8160215872
 21
8.6400756521
  0
LINE
  5
30E
100
AcDbEntity
  8
0
100
AcDbLine
 62
4
  6
CONTINUOUS
 10
12.8134333989
 20
8.5723756583
 11
12.8134333989
 21
8.5144201066
  0
LINE
  5
30F
100
AcDbEntity
  8
0
100
AcDbLine
 62
4
  6
CONTINUOUS
 10
12.8134333989
 20
8.6520645419
 11
12.8134333989
 21
8.6665534299
  0
LINE
  5
310
100
AcDbEntity
  8
0
100
AcDbLine
 62
4
  6
CONTINUOUS
 10
12.844491658
 20
8.6965534062
 11
12.844491658
 21
8.6820645183
  0
LINE
  5
311
100
AcDbEntity
  8
0
100
AcDbLine
 62
4
  6
CONTINUOUS
 10
12.844491658
 20
8.5806423028
 11
12.844491658
 21
8.5661534149
  0
LINE
  5
312
100
AcDbEntity
  8
0
100
AcDbLine
 62
7
  6
CONTINUOUS
 10
12.8781381068
 20
10.3880310355
 11
12.8781381068
 21
7.4902533849
  0
LINE
  5
313
100
AcDbEntity
  8
0
100
AcDbLine
 62
4
  6
CONTINUOUS
 10
12.8134333989
 20
8.6665534299
 11
12.8160215872
 21
8.6835423159
  0
LINE
  5
314
100
AcDbEntity
  8
0
100
AcDbLine
 62
4
  6
CONTINUOUS
 10
12.844491658
 20
8.6820645183
 11
12.8419034704
 21
8.6650756329
  0
LINE
  5
315
100
AcDbEntity
  8
0
100
AcDbLine
 62
4
  6
CONTINUOUS
 10
12.844491658
 20
8.5661534149
 11
12.8419034704
 21
8.5491645295
  0
LINE
  5
316
100
AcDbEntity
  8
0
100
AcDbLine
 62
4
  6
CONTINUOUS
 10
12.8160215872
 20
8.6835423159
 11
12.8211979637
 21
8.7030311998
  0
LINE
  5
317
100
AcDbEntity
  8
0
100
AcDbLine
 62
4
  6
CONTINUOUS
 10
12.8419034704
 20
8.6650756329
 11
12.8393152809
 21
8.6553311897
  0
LINE
  5
318
100
AcDbEntity
  8
0
100
AcDbLine
 62
4
  6
CONTINUOUS
 10
12.8419034704
 20
8.5491645295
 11
12.8393152809
 21
8.5394200863
  0
LINE
  5
319
100
AcDbEntity
  8
0
100
AcDbLine
 62
4
  6
CONTINUOUS
 10
12.8367270932
 20
8.718031188
 11
12.8419034704
 21
8.7085422967
  0
LINE
  5
31A
100
AcDbEntity
  8
0
100
AcDbLine
 62
4
  6
CONTINUOUS
 10
12.8315507161
 20
8.5391645362
 11
12.8263743399
 21
8.5631423163
  0
LINE
  5
31B
100
AcDbEntity
  8
0
100
AcDbLine
 62
4
  6
CONTINUOUS
 10
12.8160215872
 20
8.6400756521
 11
12.8134333989
 21
8.6520645419
  0
LINE
  5
31C
100
AcDbEntity
  8
0
100
AcDbLine
 62
4
  6
CONTINUOUS
 10
12.8419034704
 20
8.5926311933
 11
12.844491658
 21
8.5806423028
  0
LINE
  5
31D
100
AcDbEntity
  8
0
100
AcDbLine
 62
4
  6
CONTINUOUS
 10
12.8419034704
 20
8.7085422967
 11
12.844491658
 21
8.6965534062
  0
LINE
  5
31E
100
AcDbEntity
  8
0
100
AcDbLine
 62
7
  6
CONTINUOUS
 10
12.8781381068
 20
7.4902533849
 11
11.7781580729
 21
6.4277541988
  0
LINE
  5
31F
100
AcDbEntity
  8
0
100
AcDbLine
 62
7
  6
CONTINUOUS
 10
10.2218419271
 20
10.5722458012
 11
12.8781381068
 21
10.3880310355
  0
ARC
  5
320
100
AcDbEntity
  8
0
100
AcDbCircle
 62
7
  6
CONTINUOUS
 10
11.1449360274
 20
7.7126896754
 40
0.527175871
100
AcDbArc
 50
0.0103690036
 51
5.8455856794
  0
ARC
  5
321
100
AcDbEntity
  8
0
100
AcDbCircle
 62
7
  6
CONTINUOUS
 10
9.6808245703
 20
7.5989237995
 40
0.5136781515
100
AcDbArc
 50
134.601733849
 51
135.2912825578
  0
ARC
  5
322
100
AcDbEntity
  8
0
100
AcDbCircle
 62
7
  6
CONTINUOUS
 10
9.861452688
 20
8.9145452869
 40
0.5136781515
100
AcDbArc
 50
134.601733849
 51
135.2912825578
  0
ARC
  5
323
100
AcDbEntity
  8
0
100
AcDbCircle
 62
7
  6
CONTINUOUS
 10
9.7869138902
 20
7.4890908584
 40
0.513618817
100
AcDbArc
 50
312.723220728
 51
313.5809863966
  0
ARC
  5
324
100
AcDbEntity
  8
0
100
AcDbCircle
 62
7
  6
CONTINUOUS
 10
9.9675420078
 20
8.8047123458
 40
0.513618817
100
AcDbArc
 50
312.723220728
 51
313.5809863966
  0
ARC
  5
325
100
AcDbEntity
  8
0
100
AcDbCircle
 62
7
  6
CONTINUOUS
 10
11.5937119064
 20
8.2142134193
 40
0.4466856142
100
AcDbArc
 50
172.7798471755
 51
180.0156606901
  0
ARC
  5
326
100
AcDbEntity
  8
0
100
AcDbCircle
 62
7
  6
CONTINUOUS
 10
11.6024421348
 20
8.2196724951
 40
0.4186734944
100
AcDbArc
 50
173.5636974109
 51
180.0124246758
  0
ARC
  5
327
100
AcDbEntity
  8
0
100
AcDbCircle
 62
7
  6
CONTINUOUS
 10
9.9419256679
 20
9.2066718314
 40
0.1532756678
100
AcDbArc
 50
185.9951455586
 51
192.3671702306
  0
ARC
  5
328
100
AcDbEntity
  8
0
100
AcDbCircle
 62
7
  6
CONTINUOUS
 10
9.9782124215
 20
7.7581064477
 40
0.1092057237
100
AcDbArc
 50
314.0192503947
 51
328.5157917024
  0
ARC
  5
329
100
AcDbEntity
  8
0
100
AcDbCircle
 62
7
  6
CONTINUOUS
 10
9.9562632614
 20
7.7808304812
 40
0.1092012479
100
AcDbArc
 50
119.5783675472
 51
133.9950227464
  0
SPLINE
  5
32A
100
AcDbEntity
  8
0
100
AcDbSpline
 62
7
  6
CONTINUOUS
 70
0
 71
3
 72
50
 73
46
 74
0
 42
0.0000001
 43
0.0000001
 44
0.0000000001
 40
0.0
 40
0.0
 40
0.0
 40
0.0
 40
0.0417738954
 40
0.0840375015
 40
0.126658999
 40
0.1695072728
 40
0.2124490406
 40
0.2553511879
 40
0.2980805661
 40
0.3405047668
 40
0.3824925704
 40
0.4239144964
 40
0.4646433325
 40
0.504554679
 40
0.5435274987
 40
0.5814446837
 40
0.6181936452
 40
0.6536669372
 40
0.6877629283
 40
0.7203865442
 40
0.7514501111
 40
0.7808743474
 40
0.8085895768
 40
0.8217881241
 40
0.8345385176
 40
0.8468355036
 40
0.8586748141
 40
0.8700533313
 40
0.8809690507
 40
0.8914214953
 40
0.9014115725
 40
0.9109421624
 40
0.9200180335
 40
0.9286464829
 40
0.9368375013
 40
0.9446043826
 40
0.9519642537
 40
0.9589386378
 40
0.9655543111
 40
0.9718437858
 40
0.9778461759
 40
0.9836073377
 40
0.9891800243
 40
0.9946230608
 40
1.0
 40
1.0
 40
1.0
 40
1.0
 10
12.0167890309
 20
8.6809028003
 30
0.0
 10
12.0167890309
 20
8.686443568
 30
0.0
 10
12.0168754781
 20
8.6975902313
 30
0.0
 10
12.0172576162
 20
8.7143861483
 30
0.0
 10
12.0178918989
 20
8.731317064
 30
0.0
 10
12.0187762077
 20
8.7483268138
 30
0.0
 10
12.0199076486
 20
8.7653592201
 30
0.0
 10
12.0212824659
 20
8.7823578903
 30
0.0
 10
12.0228961126
 20
8.799266602
 30
0.0
 10
12.0247432369
 20
8.8160294116
 30
0.0
 10
12.0268177117
 20
8.8325908676
 30
0.0
 10
12.0291126503
 20
8.8488961875
 30
0.0
 10
12.0316204298
 20
8.8648914428
 30
0.0
 10
12.0343327148
 20
8.8805237403
 30
0.0
 10
12.0372404859
 20
8.8957413992
 30
0.0
 10
12.0403340684
 20
8.9104941253
 30
0.0
 10
12.0436031639
 20
8.9247331824
 30
0.0
 10
12.0470368841
 20
8.9384115573
 30
0.0
 10
12.050623786
 20
8.9514841297
 30
0.0
 10
12.0543519126
 20
8.9639078115
 30
0.0
 10
12.0582088292
 20
8.9756417794
 30
0.0
 10
12.0621816898
 20
8.9866473732
 30
0.0
 10
12.065631868
 20
8.9953176198
 30
0.0
 10
12.0684475744
 20
9.0018552932
 30
0.0
 10
12.0705456445
 20
9.0064743115
 30
0.0
 10
12.0726627314
 20
9.0108855153
 30
0.0
 10
12.0747971268
 20
9.015085284
 30
0.0
 10
12.0769470354
 20
9.0190701892
 30
0.0
 10
12.0791107433
 20
9.0228369578
 30
0.0
 10
12.0812864211
 20
9.0263825464
 30
0.0
 10
12.083472371
 20
9.0297040473
 30
0.0
 10
12.0856667655
 20
9.0327988069
 30
0.0
 10
12.0878679186
 20
9.0356643022
 30
0.0
 10
12.0900740612
 20
9.0382982572
 30
0.0
 10
12.0922835258
 20
9.040698546
 30
0.0
 10
12.0944946594
 20
9.0428632327
 30
0.0
 10
12.0967058417
 20
9.0447905683
 30
0.0
 10
12.0989155699
 20
9.0464788726
 30
0.0
 10
12.1011222924
 20
9.0479266807
 30
0.0
 10
12.1033245952
 20
9.0491324261
 30
0.0
 10
12.1055209064
 20
9.0500947556
 30
0.0
 10
12.1077095928
 20
9.0508121206
 30
0.0
 10
12.1098888054
 20
9.0512832317
 30
0.0
 10
12.1120559266
 20
9.0515068803
 30
0.0
 10
12.1134947077
 20
9.0514904231
 30
0.0
 10
12.11420618
 20
9.0514410767
 30
0.0
  0
SPLINE
  5
32B
100
AcDbEntity
  8
0
100
AcDbSpline
 62
7
  6
CONTINUOUS
 70
0
 71
3
 72
50
 73
46
 74
0
 42
0.0000001
 43
0.0000001
 44
0.0000000001
 40
0.0
 40
0.0
 40
0.0
 40
0.0
 40
0.0417738954
 40
0.0840375015
 40
0.126658999
 40
0.1695072728
 40
0.2124490406
 40
0.2553511879
 40
0.2980805661
 40
0.3405047668
 40
0.3824925704
 40
0.4239144964
 40
0.4646433325
 40
0.504554679
 40
0.5435274987
 40
0.5814446837
 40
0.6181936452
 40
0.6536669372
 40
0.6877629283
 40
0.7203865442
 40
0.7514501111
 40
0.7808743474
 40
0.8085895768
 40
0.8217881241
 40
0.8345385176
 40
0.8468355036
 40
0.8586748141
 40
0.8700533313
 40
0.8809690507
 40
0.8914214953
 40
0.9014115725
 40
0.9109421624
 40
0.9200180335
 40
0.9286464829
 40
0.9368375013
 40
0.9446043826
 40
0.9519642537
 40
0.9589386378
 40
0.9655543111
 40
0.9718437858
 40
0.9778461759
 40
0.9836073377
 40
0.9891800243
 40
0.9946230608
 40
1.0
 40
1.0
 40
1.0
 40
1.0
 10
12.0167890309
 20
6.9905326193
 30
0.0
 10
12.0167890309
 20
6.996073387
 30
0.0
 10
12.0168754781
 20
7.0072200503
 30
0.0
 10
12.0172576162
 20
7.0240159673
 30
0.0
 10
12.0178918989
 20
7.040946883
 30
0.0
 10
12.0187762077
 20
7.0579566328
 30
0.0
 10
12.0199076486
 20
7.0749890391
 30
0.0
 10
12.0212824659
 20
7.0919877093
 30
0.0
 10
12.0228961126
 20
7.108896421
 30
0.0
 10
12.0247432369
 20
7.1256592306
 30
0.0
 10
12.0268177117
 20
7.1422206866
 30
0.0
 10
12.0291126503
 20
7.1585260065
 30
0.0
 10
12.0316204298
 20
7.1745212618
 30
0.0
 10
12.0343327148
 20
7.1901535593
 30
0.0
 10
12.0372404859
 20
7.2053712182
 30
0.0
 10
12.0403340684
 20
7.2201239443
 30
0.0
 10
12.0436031639
 20
7.2343630014
 30
0.0
 10
12.0470368841
 20
7.2480413763
 30
0.0
 10
12.050623786
 20
7.2611139487
 30
0.0
 10
12.0543519126
 20
7.2735376305
 30
0.0
 10
12.0582088292
 20
7.2852715984
 30
0.0
 10
12.0621816898
 20
7.2962771921
 30
0.0
 10
12.065631868
 20
7.3049474387
 30
0.0
 10
12.0684475744
 20
7.3114851121
 30
0.0
 10
12.0705456445
 20
7.3161041305
 30
0.0
 10
12.0726627314
 20
7.3205153343
 30
0.0
 10
12.0747971268
 20
7.324715103
 30
0.0
 10
12.0769470354
 20
7.3287000082
 30
0.0
 10
12.0791107433
 20
7.3324667768
 30
0.0
 10
12.0812864211
 20
7.3360123653
 30
0.0
 10
12.083472371
 20
7.3393338663
 30
0.0
 10
12.0856667655
 20
7.3424286259
 30
0.0
 10
12.0878679186
 20
7.3452941211
 30
0.0
 10
12.0900740612
 20
7.3479280762
 30
0.0
 10
12.0922835258
 20
7.350328365
 30
0.0
 10
12.0944946594
 20
7.3524930517
 30
0.0
 10
12.0967058417
 20
7.3544203873
 30
0.0
 10
12.0989155699
 20
7.3561086916
 30
0.0
 10
12.1011222924
 20
7.3575564997
 30
0.0
 10
12.1033245952
 20
7.3587622451
 30
0.0
 10
12.1055209064
 20
7.3597245746
 30
0.0
 10
12.1077095928
 20
7.3604419396
 30
0.0
 10
12.1098888054
 20
7.3609130507
 30
0.0
 10
12.1120559266
 20
7.3611366993
 30
0.0
 10
12.1134947077
 20
7.3611202421
 30
0.0
 10
12.11420618
 20
7.3610708957
 30
0.0
  0
SPLINE
  5
32C
100
AcDbEntity
  8
0
100
AcDbSpline
 62
7
  6
CONTINUOUS
 70
0
 71
3
 72
24
 73
20
 74
0
 42
0.0000001
 43
0.0000001
 44
0.0000000001
 40
0.0
 40
0.0
 40
0.0
 40
0.0
 40
0.0637774298
 40
0.1273438979
 40
0.1907011028
 40
0.2538548461
 40
0.3168115792
 40
0.3795801785
 40
0.4421711488
 40
0.5045967878
 40
0.5668710022
 40
0.6290092041
 40
0.6910281625
 40
0.7220010202
 40
0.7529508971
 40
0.8147862935
 40
0.87655923
 40
0.9382901685
 40
1.0
 40
1.0
 40
1.0
 40
1.0
 10
11.6883269657
 20
7.6114476418
 30
0.0
 10
11.6883269657
 20
7.6013108581
 30
0.0
 10
11.6878418219
 20
7.5810673843
 30
0.0
 10
11.6856518905
 20
7.5508252307
 30
0.0
 10
11.6820058111
 20
7.5208229178
 30
0.0
 10
11.6769120447
 20
7.4911306088
 30
0.0
 10
11.6703821683
 20
7.4618164084
 30
0.0
 10
11.6624312196
 20
7.432947999
 30
0.0
 10
11.6530774313
 20
7.404591902
 30
0.0
 10
11.6423423341
 20
7.3768135432
 30
0.0
 10
11.6302505469
 20
7.3496768756
 30
0.0
 10
11.616830159
 20
7.3232449029
 30
0.0
 10
11.6045589283
 20
7.3018457135
 30
0.0
 10
11.5941114676
 20
7.285142852
 30
0.0
 10
11.5832568873
 20
7.2687366252
 30
0.0
 10
11.5689193979
 20
7.2487748808
 30
0.0
 10
11.550522318
 20
7.2257517153
 30
0.0
 10
11.5309805283
 20
7.2037190663
 30
0.0
 10
11.5172171447
 20
7.1897225614
 30
0.0
 10
11.5101625844
 20
7.1829083722
 30
0.0
  0
SPLINE
  5
32D
100
AcDbEntity
  8
0
100
AcDbSpline
 62
7
  6
CONTINUOUS
 70
0
 71
3
 72
23
 73
19
 74
0
 42
0.0000001
 43
0.0000001
 44
0.0000000001
 40
0.0
 40
0.0
 40
0.0
 40
0.0
 40
0.0637776914
 40
0.1273445726
 40
0.19070205
 40
0.2538561286
 40
0.3168131755
 40
0.3795820937
 40
0.4421733816
 40
0.5045993375
 40
0.566873868
 40
0.6290123843
 40
0.691031656
 40
0.7529496505
 40
0.8147853588
 40
0.8765586069
 40
0.938289857
 40
1.0
 40
1.0
 40
1.0
 40
1.0
 10
10.4760899593
 20
8.8121269025
 30
0.0
 10
10.4760899593
 20
8.8030238819
 30
0.0
 10
10.4756542883
 20
8.7848448435
 30
0.0
 10
10.4736876971
 20
8.7576868018
 30
0.0
 10
10.4704134458
 20
8.7307441315
 30
0.0
 10
10.4658391585
 20
8.7040798621
 30
0.0
 10
10.4599752138
 20
8.6777551345
 30
0.0
 10
10.4528351233
 20
8.6518307345
 30
0.0
 10
10.4444352604
 20
8.6263664044
 30
0.0
 10
10.4347949433
 20
8.6014208719
 30
0.0
 10
10.4239363412
 20
8.577051668
 30
0.0
 10
10.411884444
 20
8.5533150024
 30
0.0
 10
10.398667009
 20
8.5302656326
 30
0.0
 10
10.3843144722
 20
8.5079567196
 30
0.0
 10
10.3688599551
 20
8.4864397779
 30
0.0
 10
10.3523389061
 20
8.465764276
 30
0.0
 10
10.3347900684
 20
8.4459785624
 30
0.0
 10
10.3224303041
 20
8.4334093836
 30
0.0
 10
10.3160951767
 20
8.4272901036
 30
0.0
  0
SPLINE
  5
32E
100
AcDbEntity
  8
0
100
AcDbSpline
 62
7
  6
CONTINUOUS
 70
0
 71
3
 72
23
 73
19
 74
0
 42
0.0000001
 43
0.0000001
 44
0.0000000001
 40
0.0
 40
0.0
 40
0.0
 40
0.0
 40
0.0637776914
 40
0.1273445726
 40
0.19070205
 40
0.2538561286
 40
0.3168131755
 40
0.3795820937
 40
0.4421733816
 40
0.5045993375
 40
0.566873868
 40
0.6290123843
 40
0.691031656
 40
0.7529496505
 40
0.8147853588
 40
0.8765586069
 40
0.938289857
 40
1.0
 40
1.0
 40
1.0
 40
1.0
 10
10.2954618417
 20
7.4965054152
 30
0.0
 10
10.2954618417
 20
7.4874023945
 30
0.0
 10
10.2950261707
 20
7.4692233562
 30
0.0
 10
10.2930595795
 20
7.4420653144
 30
0.0
 10
10.2897853282
 20
7.4151226442
 30
0.0
 10
10.2852110408
 20
7.3884583747
 30
0.0
 10
10.2793470961
 20
7.3621336472
 30
0.0
 10
10.2722070056
 20
7.3362092472
 30
0.0
 10
10.2638071428
 20
7.310744917
 30
0.0
 10
10.2541668256
 20
7.2857993846
 30
0.0
 10
10.2433082236
 20
7.2614301806
 30
0.0
 10
10.2312563263
 20
7.237693515
 30
0.0
 10
10.2180388913
 20
7.2146441453
 30
0.0
 10
10.2036863546
 20
7.1923352323
 30
0.0
 10
10.1882318374
 20
7.1708182905
 30
0.0
 10
10.1717107884
 20
7.1501427887
 30
0.0
 10
10.1541619508
 20
7.1303570751
 30
0.0
 10
10.1418021865
 20
7.1177878963
 30
0.0
 10
10.135467059
 20
7.1116686163
 30
0.0
  0
SPLINE
  5
32F
100
AcDbEntity
  8
0
100
AcDbSpline
 62
7
  6
CONTINUOUS
 70
0
 71
3
 72
59
 73
55
 74
0
 42
0.0000001
 43
0.0000001
 44
0.0000000001
 40
0.0
 40
0.0
 40
0.0
 40
0.0
 40
0.0701466669
 40
0.1051982258
 40
0.1402872198
 40
0.1754634173
 40
0.2107864877
 40
0.2285260582
 40
0.2463310736
 40
0.2821859368
 40
0.3184683099
 40
0.3553286849
 40
0.3929665594
 40
0.4121599933
 40
0.4316563522
 40
0.4515053082
 40
0.471764723
 40
0.5137804433
 40
0.5357001985
 40
0.5583193851
 40
0.5816675374
 40
0.5936013771
 40
0.6056794508
 40
0.6300892571
 40
0.6543840721
 40
0.6778585696
 40
0.6998745252
 40
0.7200933494
 40
0.7384908781
 40
0.7552275134
 40
0.7630442625
 40
0.770530105
 40
0.7846137214
 40
0.7976769379
 40
0.8038794852
 40
0.8098863636
 40
0.8213743617
 40
0.8322566893
 40
0.8375017275
 40
0.8426297744
 40
0.8525708559
 40
0.8621504555
 40
0.8714281572
 40
0.8804564235
 40
0.8892816087
 40
0.8979452224
 40
0.9064845469
 40
0.9149334718
 40
0.9233224733
 40
0.9316796844
 40
0.948392615
 40
0.9652565766
 40
0.9824184855
 40
1.0
 40
1.0
 40
1.0
 40
1.0
 10
11.3222614548
 20
7.6938493912
 30
0.0
 10
11.3122869349
 20
7.6946237651
 30
0.0
 10
11.2973497135
 20
7.6961055167
 30
0.0
 10
11.2775215668
 20
7.69879501
 30
0.0
 10
11.2626919806
 20
7.7011946179
 30
0.0
 10
11.2478957031
 20
7.7040073807
 30
0.0
 10
11.2356050606
 20
7.7067231466
 30
0.0
 10
11.2257909907
 20
7.7091420946
 30
0.0
 10
11.2159457148
 20
7.71174528
 30
0.0
 10
11.203632735
 20
7.7153542616
 30
0.0
 10
11.1888931554
 20
7.7203087191
 30
0.0
 10
11.1741465977
 20
7.7259962049
 30
0.0
 10
11.1619267612
 20
7.7314204063
 30
0.0
 10
11.1521725671
 20
7.7362570639
 30
0.0
 10
11.1448091868
 20
7.7401952942
 30
0.0
 10
11.1374496989
 20
7.7444541626
 30
0.0
 10
11.1275310005
 20
7.750686994
 30
0.0
 10
11.117754355
 20
7.7576915482
 30
0.0
 10
11.1082621233
 20
7.7655912489
 30
0.0
 10
11.1011658548
 20
7.7721862148
 30
0.0
 10
11.0954688436
 20
7.7781733004
 30
0.0
 10
11.0910694151
 20
7.7833004893
 30
0.0
 10
11.0867661814
 20
7.7887036069
 30
0.0
 10
11.0817626307
 20
7.7957954395
 30
0.0
 10
11.0765552888
 20
7.8046909931
 30
0.0
 10
11.0723196732
 20
7.8137136959
 30
0.0
 10
11.0691432248
 20
7.8225453494
 30
0.0
 10
11.0669862094
 20
7.8309324557
 30
0.0
 10
11.0657230026
 20
7.8387358285
 30
0.0
 10
11.0652785134
 20
7.8448537259
 30
0.0
 10
11.0652430411
 20
7.8494242853
 30
0.0
 10
11.0653835218
 20
7.8536140909
 30
0.0
 10
11.0658435445
 20
7.8585376082
 30
0.0
 10
11.0666560957
 20
7.8632291498
 30
0.0
 10
11.0674760351
 20
7.8667398887
 30
0.0
 10
11.0683668451
 20
7.8700008739
 30
0.0
 10
11.069646077
 20
7.873844633
 30
0.0
 10
11.0711563001
 20
7.8774859967
 30
0.0
 10
11.072466325
 20
7.8802204506
 30
0.0
 10
11.0738080333
 20
7.8827888818
 30
0.0
 10
11.0755950651
 20
7.8858197253
 30
0.0
 10
11.0779169588
 20
7.8892114035
 30
0.0
 10
11.080378514
 20
7.892338894
 30
0.0
 10
11.0829657692
 20
7.8952198578
 30
0.0
 10
11.0856685879
 20
7.8978687864
 30
0.0
 10
11.0884778776
 20
7.9002989384
 30
0.0
 10
11.09138623
 20
7.9025221021
 30
0.0
 10
11.0943880287
 20
7.9045478508
 30
0.0
 10
11.0974777269
 20
7.9063864135
 30
0.0
 10
11.1017087259
 20
7.908597791
 30
0.0
 10
11.1072230602
 20
7.9109426556
 30
0.0
 10
11.1141364203
 20
7.9131150237
 30
0.0
 10
11.1213335211
 20
7.9146962773
 30
0.0
 10
11.1262474882
 20
7.915374305
 30
0.0
 10
11.1287418204
 20
7.9156312348
 30
0.0
  0
SPLINE
  5
330
100
AcDbEntity
  8
0
100
AcDbSpline
 62
7
  6
CONTINUOUS
 70
0
 71
3
 72
11
 73
7
 74
0
 42
0.0000001
 43
0.0000001
 44
0.0000000001
 40
0.0
 40
0.0
 40
0.0
 40
0.0
 40
0.2518305105
 40
0.5022985382
 40
0.7516073063
 40
1.0
 40
1.0
 40
1.0
 40
1.0
 10
11.3987694151
 20
7.6917961891
 30
0.0
 10
11.392343702
 20
7.6916649683
 30
0.0
 10
11.3795236125
 20
7.6915465754
 30
0.0
 10
11.3603417183
 20
7.6918157071
 30
0.0
 10
11.3412595779
 20
7.6925474762
 30
0.0
 10
11.3285817516
 20
7.6933587137
 30
0.0
 10
11.3222614548
 20
7.6938493912
 30
0.0
  0
SPLINE
  5
331
100
AcDbEntity
  8
0
100
AcDbSpline
 62
7
  6
CONTINUOUS
 70
0
 71
3
 72
37
 73
33
 74
0
 42
0.0000001
 43
0.0000001
 44
0.0000000001
 40
0.0
 40
0.0
 40
0.0
 40
0.0
 40
0.0063161056
 40
0.0126711335
 40
0.0191032106
 40
0.0256489991
 40
0.0392093745
 40
0.0536077711
 40
0.0690451722
 40
0.0856788319
 40
0.1036274206
 40
0.1229778506
 40
0.1437911075
 40
0.1661074541
 40
0.1899507493
 40
0.2153311921
 40
0.2422480356
 40
0.270691432
 40
0.3006435247
 40
0.3320799515
 40
0.3649704769
 40
0.399279593
 40
0.4349674002
 40
0.4719897169
 40
0.5102986224
 40
0.5498429193
 40
0.590568095
 40
0.6324168879
 40
0.7192412156
 40
0.8098111096
 40
0.903585601
 40
1.0
 40
1.0
 40
1.0
 40
1.0
 10
12.0731102676
 20
6.7684942291
 30
0.0
 10
12.0726082837
 20
6.7685290457
 30
0.0
 10
12.0716035923
 20
6.7686399841
 30
0.0
 10
12.0701078331
 20
6.7689291563
 30
0.0
 10
12.0686220263
 20
6.7693410766
 30
0.0
 10
12.066632493
 20
6.7700617067
 30
0.0
 10
12.0641603794
 20
6.7712868767
 30
0.0
 10
12.0612872764
 20
6.7732253513
 30
0.0
 10
12.0584742808
 20
6.7756433827
 30
0.0
 10
12.0557245013
 20
6.7785354549
 30
0.0
 10
12.0530403811
 20
6.7818964494
 30
0.0
 10
12.0504250728
 20
6.7857210601
 30
0.0
 10
12.0478819424
 20
6.7900034039
 30
0.0
 10
12.0454145849
 20
6.7947368836
 30
0.0
 10
12.0430267666
 20
6.7999141483
 30
0.0
 10
12.0407221947
 20
6.8055270128
 30
0.0
 10
12.0385045695
 20
6.8115665239
 30
0.0
 10
12.0363775331
 20
6.8180229677
 30
0.0
 10
12.0343445439
 20
6.824885875
 30
0.0
 10
12.0324089857
 20
6.8321440796
 30
0.0
 10
12.0305740769
 20
6.8397857265
 30
0.0
 10
12.0288428403
 20
6.8477982984
 30
0.0
 10
12.0272181879
 20
6.8561686531
 30
0.0
 10
12.0257028136
 20
6.864883037
 30
0.0
 10
12.0242992286
 20
6.873927119
 30
0.0
 10
12.0230098072
 20
6.8832860113
 30
0.0
 10
12.0218366457
 20
6.8929443152
 30
0.0
 10
12.0204126902
 20
6.9063649967
 30
0.0
 10
12.0189486539
 20
6.9237725704
 30
0.0
 10
12.017701437
 20
6.9453421462
 30
0.0
 10
12.0169517428
 20
6.9676989914
 30
0.0
 10
12.0167890309
 20
6.9828515008
 30
0.0
 10
12.0167890309
 20
6.9905326193
 30
0.0
  0
SPLINE
  5
332
100
AcDbEntity
  8
0
100
AcDbSpline
 62
7
  6
CONTINUOUS
 70
0
 71
3
 72
37
 73
33
 74
0
 42
0.0000001
 43
0.0000001
 44
0.0000000001
 40
0.0
 40
0.0
 40
0.0
 40
0.0
 40
0.0063161056
 40
0.0126711335
 40
0.0191032106
 40
0.0256489991
 40
0.0392093745
 40
0.0536077711
 40
0.0690451722
 40
0.0856788319
 40
0.1036274206
 40
0.1229778506
 40
0.1437911075
 40
0.1661074541
 40
0.1899507493
 40
0.2153311921
 40
0.2422480356
 40
0.270691432
 40
0.3006435247
 40
0.3320799515
 40
0.3649704769
 40
0.399279593
 40
0.4349674002
 40
0.4719897169
 40
0.5102986224
 40
0.5498429193
 40
0.590568095
 40
0.6324168879
 40
0.7192412156
 40
0.8098111096
 40
0.903585601
 40
1.0
 40
1.0
 40
1.0
 40
1.0
 10
12.0731102676
 20
8.4588644101
 30
0.0
 10
12.0726082837
 20
8.4588992267
 30
0.0
 10
12.0716035923
 20
8.4590101651
 30
0.0
 10
12.0701078331
 20
8.4592993373
 30
0.0
 10
12.0686220263
 20
8.4597112576
 30
0.0
 10
12.066632493
 20
8.4604318877
 30
0.0
 10
12.0641603794
 20
8.4616570578
 30
0.0
 10
12.0612872764
 20
8.4635955323
 30
0.0
 10
12.0584742808
 20
8.4660135637
 30
0.0
 10
12.0557245013
 20
8.468905636
 30
0.0
 10
12.0530403811
 20
8.4722666304
 30
0.0
 10
12.0504250728
 20
8.4760912411
 30
0.0
 10
12.0478819424
 20
8.4803735849
 30
0.0
 10
12.0454145849
 20
8.4851070646
 30
0.0
 10
12.0430267666
 20
8.4902843293
 30
0.0
 10
12.0407221947
 20
8.4958971938
 30
0.0
 10
12.0385045695
 20
8.5019367049
 30
0.0
 10
12.0363775331
 20
8.5083931488
 30
0.0
 10
12.0343445439
 20
8.515256056
 30
0.0
 10
12.0324089857
 20
8.5225142607
 30
0.0
 10
12.0305740769
 20
8.5301559075
 30
0.0
 10
12.0288428403
 20
8.5381684794
 30
0.0
 10
12.0272181879
 20
8.5465388341
 30
0.0
 10
12.0257028136
 20
8.555253218
 30
0.0
 10
12.0242992286
 20
8.5642973
 30
0.0
 10
12.0230098072
 20
8.5736561923
 30
0.0
 10
12.0218366457
 20
8.5833144962
 30
0.0
 10
12.0204126902
 20
8.5967351777
 30
0.0
 10
12.0189486539
 20
8.6141427514
 30
0.0
 10
12.017701437
 20
8.6357123272
 30
0.0
 10
12.0169517428
 20
8.6580691724
 30
0.0
 10
12.0167890309
 20
8.6732216818
 30
0.0
 10
12.0167890309
 20
8.6809028003
 30
0.0
  0
SPLINE
  5
333
100
AcDbEntity
  8
0
100
AcDbSpline
 62
7
  6
CONTINUOUS
 70
0
 71
3
 72
25
 73
21
 74
0
 42
0.0000001
 43
0.0000001
 44
0.0000000001
 40
0.0
 40
0.0
 40
0.0
 40
0.0
 40
0.0197908571
 40
0.039700639
 40
0.0598423206
 40
0.0803231301
 40
0.1226741564
 40
0.1674871064
 40
0.2153257948
 40
0.2666160309
 40
0.3216634765
 40
0.380675548
 40
0.443778293
 40
0.5110337872
 40
0.5824542666
 40
0.6580108399
 40
0.7376407544
 40
0.8212566961
 40
0.9087570949
 40
1.0
 40
1.0
 40
1.0
 40
1.0
 10
11.4563850186
 20
7.7154323829
 30
0.0
 10
11.4562742844
 20
7.7150124945
 30
0.0
 10
11.4560189155
 20
7.7141785616
 30
0.0
 10
11.4555371427
 20
7.7129557637
 30
0.0
 10
11.4549564045
 20
7.7117598063
 30
0.0
 10
11.454040866
 20
7.7101845316
 30
0.0
 10
11.4526344151
 20
7.7082768551
 30
0.0
 10
11.4505783672
 20
7.7061346942
 30
0.0
 10
11.4481416402
 20
7.7041159016
 30
0.0
 10
11.445331137
 20
7.7022244532
 30
0.0
 10
11.4421538677
 20
7.7004648069
 30
0.0
 10
11.4386176802
 20
7.6988426951
 30
0.0
 10
11.4347313815
 20
7.6973647913
 30
0.0
 10
11.4305048709
 20
7.6960386112
 30
0.0
 10
11.4259491412
 20
7.6948723259
 30
0.0
 10
11.4210762758
 20
7.6938747
 30
0.0
 10
11.4158994365
 20
7.6930548602
 30
0.0
 10
11.4104325987
 20
7.6924222476
 30
0.0
 10
11.4046911394
 20
7.691986651
 30
0.0
 10
11.40077102
 20
7.6918370643
 30
0.0
 10
11.3987694151
 20
7.6917961891
 30
0.0
  0
SPLINE
  5
334
100
AcDbEntity
  8
0
100
AcDbSpline
 62
7
  6
CONTINUOUS
 70
0
 71
3
 72
49
 73
45
 74
0
 42
0.0000001
 43
0.0000001
 44
0.0000000001
 40
0.0
 40
0.0
 40
0.0
 40
0.0
 40
0.0148236798
 40
0.0289053787
 40
0.0422515494
 40
0.0548788195
 40
0.0668347259
 40
0.0782051543
 40
0.0891344054
 40
0.094505803
 40
0.0998587176
 40
0.1052366708
 40
0.1106893684
 40
0.1162717841
 40
0.1220443499
 40
0.128071411
 40
0.1344200976
 40
0.141159853
 40
0.148360821
 40
0.1560936779
 40
0.1644294712
 40
0.1734384538
 40
0.1831900356
 40
0.1937527641
 40
0.2051917818
 40
0.2175697446
 40
0.2309427179
 40
0.2453604178
 40
0.2608607359
 40
0.2774705445
 40
0.2951982613
 40
0.3140366056
 40
0.3339566032
 40
0.3768284883
 40
0.4232329479
 40
0.4724117753
 40
0.5235776578
 40
0.5760302923
 40
0.6292126612
 40
0.6827161772
 40
0.7362582225
 40
0.7896528679
 40
0.8955687774
 40
1.0
 40
1.0
 40
1.0
 40
1.0
 10
11.0296851257
 20
8.1658384852
 30
0.0
 10
11.029152836
 20
8.1655098868
 30
0.0
 10
11.0280982511
 20
8.16489542
 30
0.0
 10
11.0265044995
 20
8.1640932746
 30
0.0
 10
11.0249423956
 20
8.1634430361
 30
0.0
 10
11.0234150861
 20
8.1629565484
 30
0.0
 10
11.0219265802
 20
8.1626464935
 30
0.0
 10
11.0204816259
 20
8.162528285
 30
0.0
 10
11.0193109586
 20
8.1626067417
 30
0.0
 10
11.0184137898
 20
8.1627857044
 30
0.0
 10
11.0177614428
 20
8.1629795495
 30
0.0
 10
11.017127593
 20
8.1632366849
 30
0.0
 10
11.0165137286
 20
8.1635599656
 30
0.0
 10
11.0159218719
 20
8.1639530465
 30
0.0
 10
11.0153541888
 20
8.1644195067
 30
0.0
 10
11.0148126618
 20
8.1649627626
 30
0.0
 10
11.014299724
 20
8.1655868659
 30
0.0
 10
11.0138181531
 20
8.1662961467
 30
0.0
 10
11.0133704237
 20
8.167094862
 30
0.0
 10
11.0129596895
 20
8.1679878579
 30
0.0
 10
11.0125893938
 20
8.1689801558
 30
0.0
 10
11.0122628971
 20
8.1700768359
 30
0.0
 10
11.0119844199
 20
8.1712832694
 30
0.0
 10
11.0117580991
 20
8.1726046618
 30
0.0
 10
11.0115885608
 20
8.1740461345
 30
0.0
 10
11.011480669
 20
8.1756123681
 30
0.0
 10
11.0114393448
 20
8.1773074613
 30
0.0
 10
11.0114697033
 20
8.1791345249
 30
0.0
 10
11.0115765405
 20
8.181095486
 30
0.0
 10
11.0117645336
 20
8.1831905843
 30
0.0
 10
11.012037567
 20
8.1854182572
 30
0.0
 10
11.0123989008
 20
8.1877747252
 30
0.0
 10
11.0130165491
 20
8.1911640178
 30
0.0
 10
11.014023848
 20
8.1956626786
 30
0.0
 10
11.0155569637
 20
8.2013023466
 30
0.0
 10
11.0174167077
 20
8.2072107028
 30
0.0
 10
11.0195651493
 20
8.2132913689
 30
0.0
 10
11.0219597901
 20
8.2194607131
 30
0.0
 10
11.0245594663
 20
8.2256534317
 30
0.0
 10
11.0273279084
 20
8.2318228344
 30
0.0
 10
11.0302349322
 20
8.2379379776
 30
0.0
 10
11.0342527521
 20
8.2459720278
 30
0.0
 10
11.0395016224
 20
8.2557888622
 30
0.0
 10
11.0439294934
 20
8.2634836835
 30
0.0
 10
11.0461798551
 20
8.2672727139
 30
0.0
  0
SPLINE
  5
335
100
AcDbEntity
  8
0
100
AcDbSpline
 62
7
  6
CONTINUOUS
 70
0
 71
3
 72
23
 73
19
 74
0
 42
0.0000001
 43
0.0000001
 44
0.0000000001
 40
0.0
 40
0.0
 40
0.0
 40
0.0
 40
0.0617101439
 40
0.1234413935
 40
0.1852146431
 40
0.2470503547
 40
0.3089683495
 40
0.3709876176
 40
0.4331261309
 40
0.4954006615
 40
0.5578266134
 40
0.6204179128
 40
0.6831867943
 40
0.7461438773
 40
0.8092980348
 40
0.872655047
 40
0.9362230873
 40
1.0
 40
1.0
 40
1.0
 40
1.0
 10
10.0099060183
 20
7.3310163963
 30
0.0
 10
10.0136104816
 20
7.3345946181
 30
0.0
 10
10.0208378341
 20
7.3419444066
 30
0.0
 10
10.031099511
 20
7.3535140238
 30
0.0
 10
10.0407601937
 20
7.3656039449
 30
0.0
 10
10.0497972074
 20
7.3781859114
 30
0.0
 10
10.0581898323
 20
7.3912309872
 30
0.0
 10
10.065918718
 20
7.4047090383
 30
0.0
 10
10.0729660681
 20
7.4185889807
 30
0.0
 10
10.0793156309
 20
7.4328388055
 30
0.0
 10
10.084952793
 20
7.4474256438
 30
0.0
 10
10.0898646055
 20
7.4623158437
 30
0.0
 10
10.094039787
 20
7.4774750677
 30
0.0
 10
10.0974687333
 20
7.4928683933
 30
0.0
 10
10.1001435138
 20
7.5084602358
 30
0.0
 10
10.1020581654
 20
7.5242149588
 30
0.0
 10
10.1032080866
 20
7.5400955554
 30
0.0
 10
10.1034628717
 20
7.5507257357
 30
0.0
 10
10.1034628717
 20
7.5560486405
 30
0.0
  0
SPLINE
  5
336
100
AcDbEntity
  8
0
100
AcDbSpline
 62
7
  6
CONTINUOUS
 70
0
 71
3
 72
39
 73
35
 74
0
 42
0.0000001
 43
0.0000001
 44
0.0000000001
 40
0.0
 40
0.0
 40
0.0
 40
0.0
 40
0.029942471
 40
0.0599093183
 40
0.0899243244
 40
0.1200101034
 40
0.1501875624
 40
0.1804754148
 40
0.2108897596
 40
0.2414437361
 40
0.2721472598
 40
0.3030068424
 40
0.3340254951
 40
0.3652027149
 40
0.3965345496
 40
0.4280137343
 40
0.459629891
 40
0.4913697854
 40
0.5232176334
 40
0.5551554501
 40
0.5871634341
 40
0.6192203766
 40
0.6513040925
 40
0.6833918636
 40
0.7154608915
 40
0.7474887505
 40
0.7794538351
 40
0.8113357956
 40
0.8431159562
 40
0.8747777121
 40
0.9063068677
 40
0.9376920929
 40
0.9689246489
 40
1.0
 40
1.0
 40
1.0
 40
1.0
 10
9.5305308655
 20
7.8273020441
 30
0.0
 10
9.5362543124
 20
7.832830446
 30
0.0
 10
9.5481512182
 20
7.8434411192
 30
0.0
 10
9.5672119377
 20
7.8578962626
 30
0.0
 10
9.5873905586
 20
7.8708182328
 30
0.0
 10
9.6085743449
 20
7.8821345279
 30
0.0
 10
9.630646833
 20
7.8917833136
 30
0.0
 10
9.6534862037
 20
7.8997115546
 30
0.0
 10
9.6769665944
 20
7.9058758826
 30
0.0
 10
9.7009586453
 20
7.9102426454
 30
0.0
 10
9.7253302619
 20
7.9127881213
 30
0.0
 10
9.7499473337
 20
7.9134986164
 30
0.0
 10
9.7746744713
 20
7.9123705323
 30
0.0
 10
9.7993757505
 20
7.9094103919
 30
0.0
 10
9.8239154539
 20
7.904634758
 30
0.0
 10
9.8481588056
 20
7.8980701346
 30
0.0
 10
9.8719727007
 20
7.889752813
 30
0.0
 10
9.895226422
 20
7.8797286631
 30
0.0
 10
9.9177923566
 20
7.8680529026
 30
0.0
 10
9.9395466872
 20
7.8547897825
 30
0.0
 10
9.9603700546
 20
7.8400122198
 30
0.0
 10
9.9801482045
 20
7.823801404
 30
0.0
 10
9.9987726053
 20
7.806246354
 30
0.0
 10
10.0161410368
 20
7.787443437
 30
0.0
 10
10.0321581668
 20
7.7674958621
 30
0.0
 10
10.0467360485
 20
7.7465130961
 30
0.0
 10
10.0597945989
 20
7.7246102735
 30
0.0
 10
10.0712620342
 20
7.7019075693
 30
0.0
 10
10.0810752598
 20
7.6785295623
 30
0.0
 10
10.089180225
 20
7.6546045164
 30
0.0
 10
10.0955322627
 20
7.6302638712
 30
0.0
 10
10.1000961934
 20
7.6056408324
 30
0.0
 10
10.1028468056
 20
7.580872352
 30
0.0
 10
10.1034628717
 20
7.5643071664
 30
0.0
 10
10.1034628717
 20
7.5560486405
 30
0.0
  0
SPLINE
  5
337
100
AcDbEntity
  8
0
100
AcDbSpline
 62
7
  6
CONTINUOUS
 70
0
 71
3
 72
50
 73
46
 74
0
 42
0.0000001
 43
0.0000001
 44
0.0000000001
 40
0.0
 40
0.0
 40
0.0
 40
0.0
 40
0.0149717278
 40
0.0299465149
 40
0.044927401
 40
0.0599173893
 40
0.0749194283
 40
0.0899363919
 40
0.1049710634
 40
0.1200261205
 40
0.1351041177
 40
0.1502074705
 40
0.165338445
 40
0.1804991437
 40
0.1956914918
 40
0.21091723
 40
0.2261779061
 40
0.2414748638
 40
0.2568092383
 40
0.2721819537
 40
0.287593716
 40
0.3030450104
 40
0.3185361039
 40
0.3340670439
 40
0.3652423167
 40
0.3965721964
 40
0.4280494165
 40
0.4596636006
 40
0.4914015142
 40
0.5232473741
 40
0.5551831985
 40
0.5871891855
 40
0.6192441282
 40
0.6513258427
 40
0.683411612
 40
0.7154786397
 40
0.7475045014
 40
0.7794675918
 40
0.8113475634
 40
0.8431257421
 40
0.8747855204
 40
0.9063127266
 40
0.9376959415
 40
0.9689266162
 40
1.0
 40
1.0
 40
1.0
 40
1.0
 10
10.5972647361
 20
8.1280080757
 30
0.0
 10
10.6027149605
 20
8.1332725938
 30
0.0
 10
10.6138270859
 20
8.143587202
 30
0.0
 10
10.631098796
 20
8.1583861532
 30
0.0
 10
10.6489520666
 20
8.1724935512
 30
0.0
 10
10.6673619665
 20
8.1858896855
 30
0.0
 10
10.6863032681
 20
8.198556189
 30
0.0
 10
10.7057498881
 20
8.210475593
 30
0.0
 10
10.7256750396
 20
8.2216315549
 30
0.0
 10
10.7460513057
 20
8.2320087228
 30
0.0
 10
10.7668506642
 20
8.2415927851
 30
0.0
 10
10.7880444679
 20
8.2503706122
 30
0.0
 10
10.8096035497
 20
8.2583301507
 30
0.0
 10
10.8314982607
 20
8.2654604151
 30
0.0
 10
10.8536984635
 20
8.2717516358
 30
0.0
 10
10.8761736058
 20
8.2771952057
 30
0.0
 10
10.898892777
 20
8.2817836152
 30
0.0
 10
10.9218247207
 20
8.2855105614
 30
0.0
 10
10.9449378859
 20
8.2883709839
 30
0.0
 10
10.9682004772
 20
8.290360949
 30
0.0
 10
10.9915805288
 20
8.291477694
 30
0.0
 10
11.0150457748
 20
8.291719772
 30
0.0
 10
11.0385643476
 20
8.2910868053
 30
0.0
 10
11.0699856975
 20
8.2890751753
 30
0.0
 10
11.1092398016
 20
8.2843713793
 30
0.0
 10
11.155970874
 20
8.2752769508
 30
0.0
 10
11.2021389674
 20
8.2627756504
 30
0.0
 10
11.2474888414
 20
8.2469365599
 30
0.0
 10
11.2917720626
 20
8.2278471106
 30
0.0
 10
11.3347454871
 20
8.2056124408
 30
0.0
 10
11.3761733169
 20
8.1803548373
 30
0.0
 10
11.4158282898
 20
8.1522132395
 30
0.0
 10
11.4534927734
 20
8.1213421836
 30
0.0
 10
11.4889601241
 20
8.0879112505
 30
0.0
 10
11.5220357086
 20
8.0521039751
 30
0.0
 10
11.5525379058
 20
8.0141168369
 30
0.0
 10
11.5802993056
 20
7.9741583577
 30
0.0
 10
11.6051673295
 20
7.9324477419
 30
0.0
 10
11.6270053079
 20
7.8892138721
 30
0.0
 10
11.6456931396
 20
7.8446940112
 30
0.0
 10
11.6611278215
 20
7.7991323757
 30
0.0
 10
11.6732243255
 20
7.7527793258
 30
0.0
 10
11.6819156733
 20
7.7058884647
 30
0.0
 10
11.6871537392
 20
7.6587206447
 30
0.0
 10
11.6883269657
 20
7.6271747394
 30
0.0
 10
11.6883269657
 20
7.6114476418
 30
0.0
  0
SPLINE
  5
338
100
AcDbEntity
  8
0
100
AcDbSpline
 62
7
  6
CONTINUOUS
 70
0
 71
3
 72
37
 73
33
 74
0
 42
0.0000001
 43
0.0000001
 44
0.0000000001
 40
0.0
 40
0.0
 40
0.0
 40
0.0
 40
0.0306166139
 40
0.0613389921
 40
0.0921655499
 40
0.123093674
 40
0.1541197598
 40
0.1852392573
 40
0.2164467221
 40
0.2477358746
 40
0.2790996648
 40
0.3105303431
 40
0.342019539
 40
0.3735583423
 40
0.4051373875
 40
0.4367469404
 40
0.4999999859
 40
0.5632530297
 40
0.5948625827
 40
0.6264416303
 40
0.6579804364
 40
0.6894696338
 40
0.720900312
 40
0.7522641028
 40
0.7835532571
 40
0.8147607267
 40
0.8458802309
 40
0.8769062979
 40
0.9078345035
 40
0.9386608268
 40
0.9693836898
 40
1.0
 40
1.0
 40
1.0
 40
1.0
 10
9.7202908317
 20
7.93593302
 30
0.0
 10
9.7268398221
 20
7.9357059317
 30
0.0
 10
9.7399513207
 20
7.9349211065
 30
0.0
 10
9.7595669397
 20
7.9327623284
 30
0.0
 10
9.7791180357
 20
7.9296253781
 30
0.0
 10
9.7985547761
 20
7.9255182106
 30
0.0
 10
9.8178284546
 20
7.9204512067
 30
0.0
 10
9.8368905565
 20
7.9144371557
 30
0.0
 10
9.8556931629
 20
7.9074912194
 30
0.0
 10
9.8741889929
 20
7.899630896
 30
0.0
 10
9.892331542
 20
7.8908759701
 30
0.0
 10
9.9100751903
 20
7.8812484932
 30
0.0
 10
9.9273753611
 20
7.8707726791
 30
0.0
 10
9.9441884635
 20
7.8594749893
 30
0.0
 10
9.9604726065
 20
7.8473834748
 30
0.0
 10
9.9814258375
 20
7.8302431409
 30
0.0
 10
10.0060887282
 20
7.8069928084
 30
0.0
 10
10.0284704371
 20
7.7815390237
 30
0.0
 10
10.0448743989
 20
7.7600044243
 30
0.0
 10
10.0563943679
 20
7.7433110603
 30
0.0
 10
10.0671026457
 20
7.7261165535
 30
0.0
 10
10.0769726535
 20
7.7084637471
 30
0.0
 10
10.0859794661
 20
7.6903971285
 30
0.0
 10
10.0941004404
 20
7.6719620912
 30
0.0
 10
10.1013151211
 20
7.65320499
 30
0.0
 10
10.1076053326
 20
7.6341729799
 30
0.0
 10
10.1129552035
 20
7.6149139208
 30
0.0
 10
10.1173512755
 20
7.5954762157
 30
0.0
 10
10.1207823893
 20
7.5759088534
 30
0.0
 10
10.1232400113
 20
7.5562607308
 30
0.0
 10
10.1247177111
 20
7.5365820928
 30
0.0
 10
10.1250477504
 20
7.523451235
 30
0.0
 10
10.125047756
 20
7.5168983736
 30
0.0
  0
SPLINE
  5
339
100
AcDbEntity
  8
0
100
AcDbSpline
 62
7
  6
CONTINUOUS
 70
0
 71
3
 72
27
 73
23
 74
0
 42
0.0000001
 43
0.0000001
 44
0.0000000001
 40
0.0
 40
0.0
 40
0.0
 40
0.0
 40
0.0615218049
 40
0.0922944414
 40
0.1230771981
 40
0.1846797992
 40
0.2463621355
 40
0.2772442864
 40
0.3081556153
 40
0.3700708991
 40
0.4321363722
 40
0.4943720273
 40
0.5567956866
 40
0.6194227958
 40
0.6822662523
 40
0.7137754578
 40
0.7453423469
 40
0.8086463675
 40
0.8721889879
 40
0.9040533719
 40
0.935977819
 40
1.0
 40
1.0
 40
1.0
 40
1.0
 10
10.7753487524
 20
8.137355622
 30
0.0
 10
10.7819248669
 20
8.1437076557
 30
0.0
 10
10.7920717242
 20
8.1529519039
 30
0.0
 10
10.8061199447
 20
8.1646682049
 30
0.0
 10
10.8205134817
 20
8.175977912
 30
0.0
 10
10.8391290619
 20
8.1893322084
 30
0.0
 10
10.8585016945
 20
8.201590029
 30
0.0
 10
10.8744218878
 20
8.2107200583
 30
0.0
 10
10.8906299028
 20
8.2194022713
 30
0.0
 10
10.9113852813
 20
8.2293886372
 30
0.0
 10
10.9369849504
 20
8.2399403987
 30
0.0
 10
10.9632174814
 20
8.2490367384
 30
0.0
 10
10.9900046699
 20
8.2566504955
 30
0.0
 10
11.017266654
 20
8.262759197
 30
0.0
 10
11.0402947333
 20
8.2665774031
 30
0.0
 10
11.0588697254
 20
8.2688653445
 30
0.0
 10
11.0775692573
 20
8.2706434774
 30
0.0
 10
11.1010908823
 20
8.2718978836
 30
0.0
 10
11.1246898337
 20
8.2718594453
 30
0.0
 10
11.1435980373
 20
8.2710562004
 30
0.0
 10
11.1625481341
 20
8.2697353038
 30
0.0
 10
11.176729631
 20
8.2681662506
 30
0.0
 10
11.1861550506
 20
8.2668670198
 30
0.0
  0
SPLINE
  5
33A
100
AcDbEntity
  8
0
100
AcDbSpline
 62
7
  6
CONTINUOUS
 70
0
 71
3
 72
49
 73
45
 74
0
 42
0.0000001
 43
0.0000001
 44
0.0000000001
 40
0.0
 40
0.0
 40
0.0
 40
0.0
 40
0.0149718081
 40
0.0299466748
 40
0.0449276404
 40
0.059917709
 40
0.0749198276
 40
0.0899368702
 40
0.1049716217
 40
0.120026759
 40
0.1351048351
 40
0.1502082677
 40
0.1653393229
 40
0.1805001009
 40
0.1956925286
 40
0.2109183481
 40
0.2261791043
 40
0.2414761418
 40
0.256810598
 40
0.2721833946
 40
0.287595237
 40
0.3030466133
 40
0.3340634927
 40
0.3652389307
 40
0.3965689749
 40
0.4280463623
 40
0.4596607137
 40
0.4913987952
 40
0.5232448251
 40
0.5551808189
 40
0.5871869764
 40
0.6192420905
 40
0.6513239761
 40
0.6834099169
 40
0.7154771164
 40
0.7475031494
 40
0.779466411
 40
0.8113465537
 40
0.8431249023
 40
0.8747848503
 40
0.906312225
 40
0.9376956122
 40
0.9689264437
 40
1.0
 40
1.0
 40
1.0
 40
1.0
 10
9.3156640818
 20
7.9603870954
 30
0.0
 10
9.3205584988
 20
7.9651147522
 30
0.0
 10
9.3305374143
 20
7.974377514
 30
0.0
 10
9.3460477783
 20
7.9876673071
 30
0.0
 10
9.3620803691
 20
8.0003361056
 30
0.0
 10
9.3786128443
 20
8.0123661529
 30
0.0
 10
9.395622545
 20
8.0237409532
 30
0.0
 10
9.4130860057
 20
8.0344448852
 30
0.0
 10
9.430979207
 20
8.0444632209
 30
0.0
 10
9.4492775419
 20
8.0537821394
 30
0.0
 10
9.4679558002
 20
8.0623888783
 30
0.0
 10
9.4869882794
 20
8.0702716076
 30
0.0
 10
9.5063488082
 20
8.0774194417
 30
0.0
 10
9.5260107265
 20
8.0838226037
 30
0.0
 10
9.5459469778
 20
8.0894723138
 30
0.0
 10
9.5661301463
 20
8.0943607606
 30
0.0
 10
9.586532456
 20
8.0984812641
 30
0.0
 10
9.6071258283
 20
8.1018282031
 30
0.0
 10
9.6278819696
 20
8.104396938
 30
0.0
 10
9.6487722275
 20
8.1061839707
 30
0.0
 10
9.6697682342
 20
8.1071868704
 30
0.0
 10
9.6978973219
 20
8.1074771991
 30
0.0
 10
9.7331858632
 20
8.1058676012
 30
0.0
 10
9.7754276969
 20
8.1008053602
 30
0.0
 10
9.8173944696
 20
8.0926384247
 30
0.0
 10
9.8588540916
 20
8.0814119791
 30
0.0
 10
9.8995793779
 20
8.0671881854
 30
0.0
 10
9.9393466746
 20
8.0500454843
 30
0.0
 10
9.9779377517
 20
8.0300782573
 30
0.0
 10
10.0151408856
 20
8.0073964392
 30
0.0
 10
10.0507519209
 20
7.9821246681
 30
0.0
 10
10.0845754653
 20
7.9544018029
 30
0.0
 10
10.1164259591
 20
7.9243801296
 30
0.0
 10
10.1461285464
 20
7.8922244007
 30
0.0
 10
10.1735202213
 20
7.8581111465
 30
0.0
 10
10.1984505804
 20
7.8222275647
 30
0.0
 10
10.220782609
 20
7.7847705173
 30
0.0
 10
10.2403936242
 20
7.7459455708
 30
0.0
 10
10.2571757006
 20
7.705965757
 30
0.0
 10
10.2710363969
 20
7.6650504156
 30
0.0
 10
10.2818993368
 20
7.6234243622
 30
0.0
 10
10.2897043501
 20
7.5813153432
 30
0.0
 10
10.2944082603
 20
7.5389576088
 30
0.0
 10
10.2954618417
 20
7.5106286963
 30
0.0
 10
10.2954618417
 20
7.4965054152
 30
0.0
  0
SPLINE
  5
33B
100
AcDbEntity
  8
0
100
AcDbSpline
 62
7
  6
CONTINUOUS
 70
0
 71
3
 72
23
 73
19
 74
0
 42
0.0000001
 43
0.0000001
 44
0.0000000001
 40
0.0
 40
0.0
 40
0.0
 40
0.0
 40
0.0617101439
 40
0.1234413935
 40
0.1852146431
 40
0.2470503547
 40
0.3089683495
 40
0.3709876176
 40
0.4331261309
 40
0.4954006615
 40
0.5578266134
 40
0.6204179128
 40
0.6831867943
 40
0.7461438773
 40
0.8092980348
 40
0.872655047
 40
0.9362230873
 40
1.0
 40
1.0
 40
1.0
 40
1.0
 10
10.190534136
 20
8.6466378837
 30
0.0
 10
10.1942385992
 20
8.6502161054
 30
0.0
 10
10.2014659518
 20
8.6575658939
 30
0.0
 10
10.2117276287
 20
8.6691355112
 30
0.0
 10
10.2213883113
 20
8.6812254323
 30
0.0
 10
10.230425325
 20
8.6938073987
 30
0.0
 10
10.2388179499
 20
8.7068524745
 30
0.0
 10
10.2465468356
 20
8.7203305256
 30
0.0
 10
10.2535941857
 20
8.7342104681
 30
0.0
 10
10.2599437485
 20
8.7484602929
 30
0.0
 10
10.2655809106
 20
8.7630471312
 30
0.0
 10
10.2704927232
 20
8.7779373311
 30
0.0
 10
10.2746679047
 20
8.7930965551
 30
0.0
 10
10.278096851
 20
8.8084898807
 30
0.0
 10
10.2807716315
 20
8.8240817231
 30
0.0
 10
10.282686283
 20
8.8398364461
 30
0.0
 10
10.2838362043
 20
8.8557170427
 30
0.0
 10
10.2840909894
 20
8.866347223
 30
0.0
 10
10.2840909894
 20
8.8716701278
 30
0.0
  0
SPLINE
  5
33C
100
AcDbEntity
  8
0
100
AcDbSpline
 62
7
  6
CONTINUOUS
 70
0
 71
3
 72
23
 73
19
 74
0
 42
0.0000001
 43
0.0000001
 44
0.0000000001
 40
0.0
 40
0.0
 40
0.0
 40
0.0
 40
0.0617101436
 40
0.1234413945
 40
0.1852146442
 40
0.2470503545
 40
0.3089683499
 40
0.3709876203
 40
0.4331261332
 40
0.4954006601
 40
0.5578266118
 40
0.6204179016
 40
0.6831868196
 40
0.7461438598
 40
0.8092979876
 40
0.872655304
 40
0.9362225276
 40
1.0
 40
1.0
 40
1.0
 40
1.0
 10
11.5256750729
 20
7.3605607008
 30
0.0
 10
11.5314733538
 20
7.3661614055
 30
0.0
 10
11.5427857576
 20
7.3776653964
 30
0.0
 10
11.5588475055
 20
7.395774371
 30
0.0
 10
11.5739685654
 20
7.4146977323
 30
0.0
 10
11.5881134627
 20
7.4343912405
 30
0.0
 10
11.6012497541
 20
7.4548096149
 30
0.0
 10
11.6133471335
 20
7.4759056998
 30
0.0
 10
11.6243777493
 20
7.4976308367
 30
0.0
 10
11.6343161994
 20
7.5199349076
 30
0.0
 10
11.6431396088
 20
7.542766469
 30
0.0
 10
11.6508276746
 20
7.5660728697
 30
0.0
 10
11.6573627095
 20
7.589800358
 30
0.0
 10
11.6627297424
 20
7.6138942563
 30
0.0
 10
11.6669163883
 20
7.6382989049
 30
0.0
 10
11.6699132025
 20
7.6629584038
 30
0.0
 10
11.6717131258
 20
7.6878149928
 30
0.0
 10
11.6721118897
 20
7.7044535037
 30
0.0
 10
11.6721118897
 20
7.7127850801
 30
0.0
  0
SPLINE
  5
33D
100
AcDbEntity
  8
0
100
AcDbSpline
 62
7
  6
CONTINUOUS
 70
0
 71
3
 72
39
 73
35
 74
0
 42
0.0000001
 43
0.0000001
 44
0.0000000001
 40
0.0
 40
0.0
 40
0.0
 40
0.0
 40
0.029942471
 40
0.0599093183
 40
0.0899243244
 40
0.1200101034
 40
0.1501875624
 40
0.1804754148
 40
0.2108897596
 40
0.2414437361
 40
0.2721472598
 40
0.3030068424
 40
0.3340254951
 40
0.3652027149
 40
0.3965345496
 40
0.4280137343
 40
0.459629891
 40
0.4913697854
 40
0.5232176334
 40
0.5551554501
 40
0.5871634341
 40
0.6192203766
 40
0.6513040925
 40
0.6833918636
 40
0.7154608915
 40
0.7474887505
 40
0.7794538351
 40
0.8113357956
 40
0.8431159562
 40
0.8747777121
 40
0.9063068677
 40
0.9376920929
 40
0.9689246489
 40
1.0
 40
1.0
 40
1.0
 40
1.0
 10
9.7111589832
 20
9.1429235314
 30
0.0
 10
9.7168824301
 20
9.1484519334
 30
0.0
 10
9.7287793358
 20
9.1590626066
 30
0.0
 10
9.7478400553
 20
9.1735177499
 30
0.0
 10
9.7680186763
 20
9.1864397201
 30
0.0
 10
9.7892024625
 20
9.1977560152
 30
0.0
 10
9.8112749506
 20
9.207404801
 30
0.0
 10
9.8341143213
 20
9.215333042
 30
0.0
 10
9.8575947121
 20
9.2214973699
 30
0.0
 10
9.8815867629
 20
9.2258641327
 30
0.0
 10
9.9059583796
 20
9.2284096086
 30
0.0
 10
9.9305754513
 20
9.2291201038
 30
0.0
 10
9.9553025889
 20
9.2279920196
 30
0.0
 10
9.9800038682
 20
9.2250318792
 30
0.0
 10
10.0045435716
 20
9.2202562453
 30
0.0
 10
10.0287869232
 20
9.213691622
 30
0.0
 10
10.0526008183
 20
9.2053743004
 30
0.0
 10
10.0758545396
 20
9.1953501504
 30
0.0
 10
10.0984204743
 20
9.18367439
 30
0.0
 10
10.1201748049
 20
9.1704112698
 30
0.0
 10
10.1409981722
 20
9.1556337071
 30
0.0
 10
10.1607763222
 20
9.1394228914
 30
0.0
 10
10.179400723
 20
9.1218678413
 30
0.0
 10
10.1967691545
 20
9.1030649243
 30
0.0
 10
10.2127862845
 20
9.0831173494
 30
0.0
 10
10.2273641662
 20
9.0621345834
 30
0.0
 10
10.2404227165
 20
9.0402317608
 30
0.0
 10
10.2518901519
 20
9.0175290566
 30
0.0
 10
10.2617033775
 20
8.9941510497
 30
0.0
 10
10.2698083426
 20
8.9702260037
 30
0.0
 10
10.2761603804
 20
8.9458853586
 30
0.0
 10
10.2807243111
 20
8.9212623198
 30
0.0
 10
10.2834749232
 20
8.8964938393
 30
0.0
 10
10.2840909894
 20
8.8799286538
 30
0.0
 10
10.2840909894
 20
8.8716701278
 30
0.0
  0
SPLINE
  5
33E
100
AcDbEntity
  8
0
100
AcDbSpline
 62
7
  6
CONTINUOUS
 70
0
 71
3
 72
37
 73
33
 74
0
 42
0.0000001
 43
0.0000001
 44
0.0000000001
 40
0.0
 40
0.0
 40
0.0
 40
0.0
 40
0.0306166139
 40
0.0613389921
 40
0.0921655499
 40
0.123093674
 40
0.1541197598
 40
0.1852392573
 40
0.2164467221
 40
0.2477358746
 40
0.2790996648
 40
0.3105303431
 40
0.342019539
 40
0.3735583423
 40
0.4051373875
 40
0.4367469404
 40
0.4999999859
 40
0.5632530297
 40
0.5948625827
 40
0.6264416303
 40
0.6579804364
 40
0.6894696338
 40
0.720900312
 40
0.7522641028
 40
0.7835532571
 40
0.8147607267
 40
0.8458802309
 40
0.8769062979
 40
0.9078345035
 40
0.9386608268
 40
0.9693836898
 40
1.0
 40
1.0
 40
1.0
 40
1.0
 10
9.9009189493
 20
9.2515545073
 30
0.0
 10
9.9074679397
 20
9.251327419
 30
0.0
 10
9.9205794383
 20
9.2505425939
 30
0.0
 10
9.9401950573
 20
9.2483838157
 30
0.0
 10
9.9597461533
 20
9.2452468654
 30
0.0
 10
9.9791828937
 20
9.2411396979
 30
0.0
 10
9.9984565723
 20
9.236072694
 30
0.0
 10
10.0175186742
 20
9.2300586431
 30
0.0
 10
10.0363212806
 20
9.2231127067
 30
0.0
 10
10.0548171106
 20
9.2152523833
 30
0.0
 10
10.0729596597
 20
9.2064974574
 30
0.0
 10
10.090703308
 20
9.1968699805
 30
0.0
 10
10.1080034787
 20
9.1863941665
 30
0.0
 10
10.1248165812
 20
9.1750964766
 30
0.0
 10
10.1411007241
 20
9.1630049621
 30
0.0
 10
10.1620539552
 20
9.1458646282
 30
0.0
 10
10.1867168458
 20
9.1226142957
 30
0.0
 10
10.2090985547
 20
9.097160511
 30
0.0
 10
10.2255025165
 20
9.0756259116
 30
0.0
 10
10.2370224856
 20
9.0589325476
 30
0.0
 10
10.2477307633
 20
9.0417380408
 30
0.0
 10
10.2576007712
 20
9.0240852344
 30
0.0
 10
10.2666075838
 20
9.0060186159
 30
0.0
 10
10.274728558
 20
8.9875835785
 30
0.0
 10
10.2819432388
 20
8.9688264773
 30
0.0
 10
10.2882334503
 20
8.9497944672
 30
0.0
 10
10.2935833212
 20
8.9305354082
 30
0.0
 10
10.2979793931
 20
8.911097703
 30
0.0
 10
10.3014105069
 20
8.8915303407
 30
0.0
 10
10.303868129
 20
8.8718822181
 30
0.0
 10
10.3053458288
 20
8.8522035802
 30
0.0
 10
10.3056758681
 20
8.8390727223
 30
0.0
 10
10.3056758737
 20
8.8325198609
 30
0.0
  0
SPLINE
  5
33F
100
AcDbEntity
  8
0
100
AcDbSpline
 62
7
  6
CONTINUOUS
 70
0
 71
3
 72
49
 73
45
 74
0
 42
0.0000001
 43
0.0000001
 44
0.0000000001
 40
0.0
 40
0.0
 40
0.0
 40
0.0
 40
0.0149718081
 40
0.0299466748
 40
0.0449276404
 40
0.059917709
 40
0.0749198276
 40
0.0899368702
 40
0.1049716217
 40
0.120026759
 40
0.1351048351
 40
0.1502082677
 40
0.1653393229
 40
0.1805001009
 40
0.1956925286
 40
0.2109183481
 40
0.2261791043
 40
0.2414761418
 40
0.256810598
 40
0.2721833946
 40
0.287595237
 40
0.3030466133
 40
0.3340634927
 40
0.3652389307
 40
0.3965689749
 40
0.4280463623
 40
0.4596607137
 40
0.4913987952
 40
0.5232448251
 40
0.5551808189
 40
0.5871869764
 40
0.6192420905
 40
0.6513239761
 40
0.6834099169
 40
0.7154771164
 40
0.7475031494
 40
0.779466411
 40
0.8113465537
 40
0.8431249023
 40
0.8747848503
 40
0.906312225
 40
0.9376956122
 40
0.9689264437
 40
1.0
 40
1.0
 40
1.0
 40
1.0
 10
9.4962921995
 20
9.2760085828
 30
0.0
 10
9.5011866165
 20
9.2807362395
 30
0.0
 10
9.511165532
 20
9.2899990013
 30
0.0
 10
9.526675896
 20
9.3032887944
 30
0.0
 10
9.5427084867
 20
9.315957593
 30
0.0
 10
9.559240962
 20
9.3279876403
 30
0.0
 10
9.5762506626
 20
9.3393624406
 30
0.0
 10
9.5937141233
 20
9.3500663725
 30
0.0
 10
9.6116073246
 20
9.3600847082
 30
0.0
 10
9.6299056595
 20
9.3694036267
 30
0.0
 10
9.6485839179
 20
9.3780103657
 30
0.0
 10
9.6676163971
 20
9.385893095
 30
0.0
 10
9.6869769258
 20
9.393040929
 30
0.0
 10
9.7066388441
 20
9.399444091
 30
0.0
 10
9.7265750954
 20
9.4050938012
 30
0.0
 10
9.7467582639
 20
9.4099822479
 30
0.0
 10
9.7671605737
 20
9.4141027515
 30
0.0
 10
9.787753946
 20
9.4174496905
 30
0.0
 10
9.8085100873
 20
9.4200184254
 30
0.0
 10
9.8294003452
 20
9.4218054581
 30
0.0
 10
9.8503963519
 20
9.4228083578
 30
0.0
 10
9.8785254395
 20
9.4230986865
 30
0.0
 10
9.9138139808
 20
9.4214890886
 30
0.0
 10
9.9560558145
 20
9.4164268475
 30
0.0
 10
9.9980225873
 20
9.4082599121
 30
0.0
 10
10.0394822093
 20
9.3970334664
 30
0.0
 10
10.0802074956
 20
9.3828096727
 30
0.0
 10
10.1199747922
 20
9.3656669716
 30
0.0
 10
10.1585658693
 20
9.3456997446
 30
0.0
 10
10.1957690032
 20
9.3230179266
 30
0.0
 10
10.2313800386
 20
9.2977461555
 30
0.0
 10
10.2652035829
 20
9.2700232902
 30
0.0
 10
10.2970540768
 20
9.240001617
 30
0.0
 10
10.326756664
 20
9.207845888
 30
0.0
 10
10.354148339
 20
9.1737326338
 30
0.0
 10
10.3790786981
 20
9.137849052
 30
0.0
 10
10.4014107267
 20
9.1003920047
 30
0.0
 10
10.4210217419
 20
9.0615670582
 30
0.0
 10
10.4378038182
 20
9.0215872444
 30
0.0
 10
10.4516645145
 20
8.9806719029
 30
0.0
 10
10.4625274545
 20
8.9390458496
 30
0.0
 10
10.4703324677
 20
8.8969368305
 30
0.0
 10
10.4750363779
 20
8.8545790961
 30
0.0
 10
10.4760899593
 20
8.8262501836
 30
0.0
 10
10.4760899593
 20
8.8121269025
 30
0.0
  0
SPLINE
  5
340
100
AcDbEntity
  8
0
100
AcDbSpline
 62
7
  6
CONTINUOUS
 70
0
 71
3
 72
23
 73
19
 74
0
 42
0.0000001
 43
0.0000001
 44
0.0000000001
 40
0.0
 40
0.0
 40
0.0
 40
0.0
 40
0.0637009368
 40
0.1272126838
 40
0.1905342952
 40
0.253671455
 40
0.3166284144
 40
0.3794117887
 40
0.4420293548
 40
0.5044901987
 40
0.5668046797
 40
0.6289843155
 40
0.691041716
 40
0.7529904858
 40
0.8148451194
 40
0.8766208847
 40
0.9383336992
 40
1.0
 40
1.0
 40
1.0
 40
1.0
 10
10.4856168039
 20
7.763718766
 30
0.0
 10
10.4856168039
 20
7.7728657029
 30
0.0
 10
10.486011888
 20
7.7911349291
 30
0.0
 10
10.4877947279
 20
7.8184442647
 30
0.0
 10
10.490763818
 20
7.8455693733
 30
0.0
 10
10.4949133977
 20
7.8724584665
 30
0.0
 10
10.5002358864
 20
7.8990614769
 30
0.0
 10
10.5067212903
 20
7.9253283623
 30
0.0
 10
10.5143574825
 20
7.9512098734
 30
0.0
 10
10.5231301655
 20
7.9766574387
 30
0.0
 10
10.5330229122
 20
8.0016233008
 30
0.0
 10
10.544017204
 20
8.0260605976
 30
0.0
 10
10.5560924515
 20
8.049923446
 30
0.0
 10
10.5692260132
 20
8.073167067
 30
0.0
 10
10.5833932194
 20
8.095747789
 30
0.0
 10
10.5985676361
 20
8.1176233673
 30
0.0
 10
10.6147202974
 20
8.1387521712
 30
0.0
 10
10.6261252287
 20
8.1523189953
 30
0.0
 10
10.6319787888
 20
8.1589630119
 30
0.0
  0
SPLINE
  5
341
100
AcDbEntity
  8
0
100
AcDbSpline
 62
7
  6
CONTINUOUS
 70
0
 71
3
 72
42
 73
38
 74
0
 42
0.0000001
 43
0.0000001
 44
0.0000000001
 40
0.0
 40
0.0
 40
0.0
 40
0.0
 40
0.0308787725
 40
0.0463715161
 40
0.0618977175
 40
0.0930459106
 40
0.1243215771
 40
0.1557172399
 40
0.1872234378
 40
0.2188290155
 40
0.2505212739
 40
0.2822861891
 40
0.3141086319
 40
0.3459726039
 40
0.3778614818
 40
0.409758269
 40
0.44164585
 40
0.4735072475
 40
0.5053258769
 40
0.5370857972
 40
0.568771955
 40
0.6003704186
 40
0.6318686003
 40
0.6632554624
 40
0.6945217044
 40
0.7256599294
 40
0.756664784
 40
0.7875330705
 40
0.8182638272
 40
0.8488583742
 40
0.8641076701
 40
0.879324456
 40
0.9096596735
 40
0.939876217
 40
0.95494521
 40
0.9699884977
 40
1.0
 40
1.0
 40
1.0
 40
1.0
 10
9.5791883371
 20
7.7396382975
 30
0.0
 10
9.5791883371
 20
7.7324683698
 30
0.0
 10
9.5795361333
 20
7.7216969886
 30
0.0
 10
9.5806864384
 20
7.7073689811
 30
0.0
 10
9.582298364
 20
7.6930220904
 30
0.0
 10
9.5851733112
 20
7.6751390151
 30
0.0
 10
9.58997632
 20
7.653876361
 30
0.0
 10
9.5961162747
 20
7.6328736873
 30
0.0
 10
9.6035675897
 20
7.6122185126
 30
0.0
 10
9.6122993072
 20
7.5919962443
 30
0.0
 10
9.6222751739
 20
7.5722906656
 30
0.0
 10
9.6334538009
 20
7.5531833661
 30
0.0
 10
9.645788834
 20
7.5347534687
 30
0.0
 10
9.6592291446
 20
7.5170772879
 30
0.0
 10
9.6737190405
 20
7.5002280218
 30
0.0
 10
9.6891984954
 20
7.4842754494
 30
0.0
 10
9.7056033954
 20
7.4692856452
 30
0.0
 10
9.722865803
 20
7.455320707
 30
0.0
 10
9.7409142355
 20
7.4424385005
 30
0.0
 10
9.7596739591
 20
7.4306924214
 30
0.0
 10
9.7790672953
 20
7.420131175
 30
0.0
 10
9.7990139396
 20
7.4107985759
 30
0.0
 10
9.8194312902
 20
7.4027333658
 30
0.0
 10
9.8402347881
 20
7.3959690532
 30
0.0
 10
9.8613382587
 20
7.3905337733
 30
0.0
 10
9.8826542832
 20
7.3864501726
 30
0.0
 10
9.904094489
 20
7.3837353026
 30
0.0
 10
9.9255701649
 20
7.3824005838
 30
0.0
 10
9.9469916875
 20
7.3824516136
 30
0.0
 10
9.964745347
 20
7.3836504864
 30
0.0
 10
9.9788291701
 20
7.3853013607
 30
0.0
 10
9.9927914513
 20
7.3874062632
 30
0.0
 10
10.0100501565
 20
7.3908904721
 30
0.0
 10
10.0270051824
 20
7.3955088434
 30
0.0
 10
10.0403202925
 20
7.399868135
 30
0.0
 10
10.053435609
 20
7.4046573033
 30
0.0
 10
10.0630776335
 20
7.408743468
 30
0.0
 10
10.0693973911
 20
7.4116796844
 30
0.0
  0
SPLINE
  5
342
100
AcDbEntity
  8
0
100
AcDbSpline
 62
7
  6
CONTINUOUS
 70
0
 71
3
 72
15
 73
11
 74
0
 42
0.0000001
 43
0.0000001
 44
0.0000000001
 40
0.0
 40
0.0
 40
0.0
 40
0.0
 40
0.126617856
 40
0.2527394592
 40
0.3783715093
 40
0.5035324984
 40
0.6282440783
 40
0.7525353439
 40
0.8764406856
 40
1.0
 40
1.0
 40
1.0
 40
1.0
 10
9.5791883371
 20
7.7396382975
 30
0.0
 10
9.5791883371
 20
7.7459551989
 30
0.0
 10
9.5795470624
 20
7.7585672726
 30
0.0
 10
9.5811670234
 20
7.7773844033
 30
0.0
 10
9.5838627299
 20
7.7960050873
 30
0.0
 10
9.5876254014
 20
7.8143679751
 30
0.0
 10
9.5924429571
 20
7.8324136251
 30
0.0
 10
9.5982998816
 20
7.8500835208
 30
0.0
 10
9.6051768518
 20
7.8673194509
 30
0.0
 10
9.6104343534
 20
7.8784996515
 30
0.0
 10
9.613224576
 20
7.8839963236
 30
0.0
  0
SPLINE
  5
343
100
AcDbEntity
  8
0
100
AcDbSpline
 62
7
  6
CONTINUOUS
 70
0
 71
3
 72
23
 73
19
 74
0
 42
0.0000001
 43
0.0000001
 44
0.0000000001
 40
0.0
 40
0.0
 40
0.0
 40
0.0
 40
0.0637774724
 40
0.127344696
 40
0.1907020124
 40
0.2538561402
 40
0.3168131804
 40
0.3795820984
 40
0.4421733882
 40
0.5045993399
 40
0.5668738668
 40
0.6290123797
 40
0.6910316501
 40
0.7529496455
 40
0.8147853558
 40
0.8765586055
 40
0.9382898564
 40
1.0
 40
1.0
 40
1.0
 40
1.0
 10
10.6289119355
 20
7.7851312427
 30
0.0
 10
10.6289119355
 20
7.7934628191
 30
0.0
 10
10.6293106994
 20
7.81010133
 30
0.0
 10
10.6311106227
 20
7.834957919
 30
0.0
 10
10.634107437
 20
7.8596174179
 30
0.0
 10
10.6382940828
 20
7.8840220665
 30
0.0
 10
10.6436611158
 20
7.9081159648
 30
0.0
 10
10.6501961506
 20
7.9318434531
 30
0.0
 10
10.6578842165
 20
7.9551498538
 30
0.0
 10
10.6667076259
 20
7.9779814152
 30
0.0
 10
10.676646076
 20
8.0002854861
 30
0.0
 10
10.6876766917
 20
8.022010623
 30
0.0
 10
10.6997740711
 20
8.0431067079
 30
0.0
 10
10.7129103625
 20
8.0635250824
 30
0.0
 10
10.7270552599
 20
8.0832185905
 30
0.0
 10
10.7421763198
 20
8.1021419518
 30
0.0
 10
10.7582380677
 20
8.1202509264
 30
0.0
 10
10.7695504714
 20
8.1317549173
 30
0.0
 10
10.7753487524
 20
8.137355622
 30
0.0
  0
SPLINE
  5
344
100
AcDbEntity
  8
0
100
AcDbSpline
 62
7
  6
CONTINUOUS
 70
0
 71
3
 72
47
 73
43
 74
0
 42
0.0000001
 43
0.0000001
 44
0.0000000001
 40
0.0
 40
0.0
 40
0.0
 40
0.0
 40
0.0310616501
 40
0.0622791451
 40
0.0936479393
 40
0.1251596543
 40
0.1568031777
 40
0.1885646896
 40
0.2204279884
 40
0.2523748389
 40
0.2843853522
 40
0.3164383879
 40
0.3485119723
 40
0.3805837308
 40
0.4126313243
 40
0.4446328863
 40
0.4765674511
 40
0.5084153719
 40
0.5401587211
 40
0.5717816613
 40
0.6032707873
 40
0.6346154322
 40
0.6658079199
 40
0.6968437688
 40
0.7277218388
 40
0.7584444014
 40
0.7737517261
 40
0.78902259
 40
0.8042582261
 40
0.8194600639
 40
0.8346297281
 40
0.8497690289
 40
0.8648799487
 40
0.8799646373
 40
0.8950253983
 40
0.9100646734
 40
0.9250850327
 40
0.9400891591
 40
0.9550798302
 40
0.9700599045
 40
0.9850323053
 40
1.0
 40
1.0
 40
1.0
 40
1.0
 10
9.1639515019
 20
7.5835502906
 30
0.0
 10
9.1639515019
 20
7.5695516711
 30
0.0
 10
9.1649865241
 20
7.5414736115
 30
0.0
 10
9.1696080018
 20
7.4994876387
 30
0.0
 10
9.1772767608
 20
7.4577419741
 30
0.0
 10
9.1879511663
 20
7.416464775
 30
0.0
 10
9.2015731314
 20
7.3758779452
 30
0.0
 10
9.2180688501
 20
7.3362005662
 30
0.0
 10
9.2373491224
 20
7.2976465403
 30
0.0
 10
9.2593096793
 20
7.2604237121
 30
0.0
 10
9.2838319216
 20
7.2247327416
 30
0.0
 10
9.3107835382
 20
7.1907660804
 30
0.0
 10
9.340019069
 20
7.1587068225
 30
0.0
 10
9.3713808403
 20
7.1287278403
 30
0.0
 10
9.4046997857
 20
7.1009908747
 30
0.0
 10
9.4397962292
 20
7.0756455284
 30
0.0
 10
9.4764809762
 20
7.0528286064
 30
0.0
 10
9.5145562965
 20
7.032663392
 30
0.0
 10
9.5538168896
 20
7.0152588199
 30
0.0
 10
9.5940510826
 20
7.0007090567
 30
0.0
 10
9.635041915
 20
6.9890929915
 30
0.0
 10
9.6765682915
 20
6.9804736329
 30
0.0
 10
9.7184060407
 20
6.9748979153
 30
0.0
 10
9.7603297582
 20
6.9723965446
 30
0.0
 10
9.8021114857
 20
6.9729831948
 30
0.0
 10
9.8366714718
 20
6.9760478972
 30
0.0
 10
9.8640139362
 20
6.9800369961
 30
0.0
 10
9.8843226942
 20
6.9837875223
 30
0.0
 10
9.9044279779
 20
6.9882950563
 30
0.0
 10
9.9243029656
 20
6.9935536035
 30
0.0
 10
9.9439207071
 20
6.9995560068
 30
0.0
 10
9.9632547143
 20
7.0062941636
 30
0.0
 10
9.9822788186
 20
7.0137590441
 30
0.0
 10
10.0009673227
 20
7.0219405113
 30
0.0
 10
10.0192949643
 20
7.0308275124
 30
0.0
 10
10.0372369315
 20
7.0404081064
 30
0.0
 10
10.0547689903
 20
7.0506692925
 30
0.0
 10
10.0718674465
 20
7.0615972076
 30
0.0
 10
10.0885091192
 20
7.0731771214
 30
0.0
 10
10.1046716189
 20
7.0853934076
 30
0.0
 10
10.1203328023
 20
7.0982292614
 30
0.0
 10
10.1304268804
 20
7.1071895375
 30
0.0
 10
10.1353824076
 20
7.1117660892
 30
0.0
  0
SPLINE
  5
345
100
AcDbEntity
  8
0
100
AcDbSpline
 62
7
  6
CONTINUOUS
 70
0
 71
3
 72
23
 73
19
 74
0
 42
0.0000001
 43
0.0000001
 44
0.0000000001
 40
0.0
 40
0.0
 40
0.0
 40
0.0
 40
0.0637577642
 40
0.1273108955
 40
0.1906598092
 40
0.253810626
 40
0.3167689817
 40
0.3795431359
 40
0.4421427615
 40
0.5045792035
 40
0.5668653168
 40
0.6290153629
 40
0.6910448889
 40
0.7529705844
 40
0.81481013
 40
0.8765820313
 40
0.9383054459
 40
1.0
 40
1.0
 40
1.0
 40
1.0
 10
9.1639515019
 20
7.5835502906
 30
0.0
 10
9.1639515019
 20
7.5924059085
 30
0.0
 10
9.1643638341
 20
7.6100915612
 30
0.0
 10
9.1662248984
 20
7.6365170974
 30
0.0
 10
9.1693237062
 20
7.6627420279
 30
0.0
 10
9.173653361
 20
7.6887082369
 30
0.0
 10
9.1792046109
 20
7.7143594348
 30
0.0
 10
9.185965334
 20
7.7396395531
 30
0.0
 10
9.1939208714
 20
7.7644934687
 30
0.0
 10
9.2030539084
 20
7.7888669416
 30
0.0
 10
9.2133445587
 20
7.8127067869
 30
0.0
 10
9.2247704092
 20
7.8359609764
 30
0.0
 10
9.2373065614
 20
7.8585787509
 30
0.0
 10
9.2509257049
 20
7.8805107491
 30
0.0
 10
9.265598106
 20
7.9017090474
 30
0.0
 10
9.2812919313
 20
7.9221275223
 30
0.0
 10
9.2979723394
 20
7.9417210037
 30
0.0
 10
9.3097290376
 20
7.954207881
 30
0.0
 10
9.3157573887
 20
7.9602978387
 30
0.0
  0
SPLINE
  5
346
100
AcDbEntity
  8
0
100
AcDbSpline
 62
7
  6
CONTINUOUS
 70
0
 71
3
 72
39
 73
35
 74
0
 42
0.0000001
 43
0.0000001
 44
0.0000000001
 40
0.0
 40
0.0
 40
0.0
 40
0.0
 40
0.0318885855
 40
0.0636724216
 40
0.0953509888
 40
0.1269280693
 40
0.158406597
 40
0.1897910483
 40
0.2210866955
 40
0.2522996701
 40
0.2834369354
 40
0.314506194
 40
0.3455158296
 40
0.3764748262
 40
0.4073926802
 40
0.4382793054
 40
0.4691449324
 40
0.5000000054
 40
0.5308550773
 40
0.5617207024
 40
0.592607327
 40
0.6235251824
 40
0.65448418
 40
0.6854938144
 40
0.7165630703
 40
0.7477003337
 40
0.7789133109
 40
0.8102089556
 40
0.8415934087
 40
0.8730719466
 40
0.904648937
 40
0.9363278032
 40
0.9681109992
 40
1.0
 40
1.0
 40
1.0
 40
1.0
 10
9.3426477904
 20
7.5711576609
 30
0.0
 10
9.3426477904
 20
7.5774063117
 30
0.0
 10
9.3429468752
 20
7.5898852048
 30
0.0
 10
9.3442967978
 20
7.6085276387
 30
0.0
 10
9.3465444229
 20
7.6270222849
 30
0.0
 10
9.3496843898
 20
7.6453257548
 30
0.0
 10
9.3537096606
 20
7.6633961772
 30
0.0
 10
9.3586109514
 20
7.6811917838
 30
0.0
 10
9.364377
 20
7.6986715768
 30
0.0
 10
9.3709945463
 20
7.7157952462
 30
0.0
 10
9.3784483662
 20
7.7325233016
 30
0.0
 10
9.3867213193
 20
7.748817153
 30
0.0
 10
9.3957943638
 20
7.7646392071
 30
0.0
 10
9.4056465815
 20
7.7799529723
 30
0.0
 10
9.4162552657
 20
7.7947231216
 30
0.0
 10
9.4275959652
 20
7.808915578
 30
0.0
 10
9.4396425454
 20
7.8224975868
 30
0.0
 10
9.4523672274
 20
7.8354378091
 30
0.0
 10
9.4657406468
 20
7.847706408
 30
0.0
 10
9.4797319524
 20
7.8592750891
 30
0.0
 10
9.494308869
 20
7.8701171728
 30
0.0
 10
9.5094377774
 20
7.8802076462
 30
0.0
 10
9.5250837708
 20
7.8895232513
 30
0.0
 10
9.5412107435
 20
7.8980425385
 30
0.0
 10
9.5577814918
 20
7.9057458877
 30
0.0
 10
9.5747577946
 20
7.9126155605
 30
0.0
 10
9.5921005031
 20
7.9186357298
 30
0.0
 10
9.609769618
 20
7.9237925574
 30
0.0
 10
9.627724389
 20
7.9280742081
 30
0.0
 10
9.6459234321
 20
7.9314708537
 30
0.0
 10
9.6643247573
 20
7.9339747029
 30
0.0
 10
9.6828861048
 20
7.9355800038
 30
0.0
 10
9.7015641338
 20
7.9362831265
 30
0.0
 10
9.7140458528
 20
7.9361495665
 30
0.0
 10
9.7202908317
 20
7.93593302
 30
0.0
  0
SPLINE
  5
347
100
AcDbEntity
  8
0
100
AcDbSpline
 62
7
  6
CONTINUOUS
 70
0
 71
3
 72
39
 73
35
 74
0
 42
0.0000001
 43
0.0000001
 44
0.0000000001
 40
0.0
 40
0.0
 40
0.0
 40
0.0
 40
0.0319062805
 40
0.0637105901
 40
0.0954117988
 40
0.1270137782
 40
0.1585192017
 40
0.1899321915
 40
0.221257697
 40
0.2525014161
 40
0.2836698443
 40
0.3147701765
 40
0.3458102584
 40
0.3767985115
 40
0.4077438524
 40
0.4386556108
 40
0.4695434442
 40
0.5004172436
 40
0.5312870354
 40
0.5621628828
 40
0.593054791
 40
0.6239726112
 40
0.654925943
 40
0.6859240398
 40
0.7169757222
 40
0.7480892998
 40
0.7792724928
 40
0.8105323597
 40
0.8418752345
 40
0.8733066788
 40
0.9048314366
 40
0.9364533942
 40
0.9681755495
 40
1.0
 40
1.0
 40
1.0
 40
1.0
 10
9.3995879585
 20
7.5966832319
 30
0.0
 10
9.3995879585
 20
7.6023366642
 30
0.0
 10
9.3998520101
 20
7.6136272836
 30
0.0
 10
9.4010436872
 20
7.6304971414
 30
0.0
 10
9.4030279803
 20
7.6472383748
 30
0.0
 10
9.4058003453
 20
7.6638135397
 30
0.0
 10
9.4093549001
 20
7.680186576
 30
0.0
 10
9.4136838143
 20
7.6963214509
 30
0.0
 10
9.4187776073
 20
7.7121827785
 30
0.0
 10
9.4246251431
 20
7.7277357386
 30
0.0
 10
9.431213638
 20
7.7429461726
 30
0.0
 10
9.438528648
 20
7.7577806846
 30
0.0
 10
9.4465541191
 20
7.7722067087
 30
0.0
 10
9.4552724542
 20
7.7861925646
 30
0.0
 10
9.4646645507
 20
7.7997075217
 30
0.0
 10
9.4747097996
 20
7.8127218937
 30
0.0
 10
9.4853861321
 20
7.8252071129
 30
0.0
 10
9.4966701114
 20
7.8371357612
 30
0.0
 10
9.5085369772
 20
7.8484816281
 30
0.0
 10
9.5209606781
 20
7.8592197883
 30
0.0
 10
9.5339139093
 20
7.8693266882
 30
0.0
 10
9.5473682218
 20
7.8787801459
 30
0.0
 10
9.5612940751
 20
7.8875594034
 30
0.0
 10
9.5756608946
 20
7.8956451786
 30
0.0
 10
9.5904371115
 20
7.903019763
 30
0.0
 10
9.605590275
 20
7.9096669947
 30
0.0
 10
9.6210871159
 20
7.9155722989
 30
0.0
 10
9.6368936186
 20
7.920722713
 30
0.0
 10
9.6529750692
 20
7.9251069878
 30
0.0
 10
9.6692961751
 20
7.9287155444
 30
0.0
 10
9.6858210836
 20
7.9315404922
 30
0.0
 10
9.7025136663
 20
7.9335756403
 30
0.0
 10
9.7193368032
 20
7.9348165651
 30
0.0
 10
9.7305976146
 20
7.935112136
 30
0.0
 10
9.7362365265
 20
7.935127574
 30
0.0
  0
SPLINE
  5
348
100
AcDbEntity
  8
0
100
AcDbSpline
 62
7
  6
CONTINUOUS
 70
0
 71
3
 72
23
 73
19
 74
0
 42
0.0000001
 43
0.0000001
 44
0.0000000001
 40
0.0
 40
0.0
 40
0.0
 40
0.0
 40
0.0637769127
 40
0.127344953
 40
0.1907019652
 40
0.2538561227
 40
0.3168132057
 40
0.3795820872
 40
0.4421733866
 40
0.5045993385
 40
0.5668738691
 40
0.6290123824
 40
0.6910316505
 40
0.7529496453
 40
0.8147853569
 40
0.8765586065
 40
0.9382898561
 40
1.0
 40
1.0
 40
1.0
 40
1.0
 10
9.4369740121
 20
7.6022697999
 30
0.0
 10
9.4369740121
 20
7.6075927047
 30
0.0
 10
9.4372287972
 20
7.618222885
 30
0.0
 10
9.4383787184
 20
7.6341034817
 30
0.0
 10
9.44029337
 20
7.6498582047
 30
0.0
 10
9.4429681505
 20
7.6654500471
 30
0.0
 10
9.4463970968
 20
7.6808433727
 30
0.0
 10
9.4505722783
 20
7.6960025967
 30
0.0
 10
9.4554840908
 20
7.7108927966
 30
0.0
 10
9.4611212529
 20
7.7254796349
 30
0.0
 10
9.4674708158
 20
7.7397294597
 30
0.0
 10
9.4745181658
 20
7.7536094021
 30
0.0
 10
9.4822470515
 20
7.7670874532
 30
0.0
 10
9.4906396764
 20
7.780132529
 30
0.0
 10
9.4996766901
 20
7.7927144955
 30
0.0
 10
9.5093373728
 20
7.8048044166
 30
0.0
 10
9.5195990497
 20
7.8163740339
 30
0.0
 10
9.5268264022
 20
7.8237238224
 30
0.0
 10
9.5305308655
 20
7.8273020441
 30
0.0
  0
SPLINE
  5
349
100
AcDbEntity
  8
0
100
AcDbSpline
 62
7
  6
CONTINUOUS
 70
0
 71
3
 72
43
 73
39
 74
0
 42
0.0000001
 43
0.0000001
 44
0.0000000001
 40
0.0
 40
0.0
 40
0.0
 40
0.0
 40
0.0309202825
 40
0.0619810447
 40
0.0931790821
 40
0.1245080736
 40
0.1559598399
 40
0.1875240469
 40
0.2191885196
 40
0.2509394355
 40
0.2827615672
 40
0.3146385386
 40
0.3465530936
 40
0.3784873755
 40
0.4104232131
 40
0.4423424101
 40
0.4742270357
 40
0.5060597114
 40
0.5378238915
 40
0.5695041344
 40
0.6010863606
 40
0.6325580952
 40
0.6639086901
 40
0.695129521
 40
0.7262141567
 40
0.7571584973
 40
0.7879608756
 40
0.8186221208
 40
0.8339029551
 40
0.8491499693
 40
0.8643639736
 40
0.8795459224
 40
0.9098137239
 40
0.9399683677
 40
0.9550094307
 40
0.9700271215
 40
0.9850233171
 40
1.0
 40
1.0
 40
1.0
 40
1.0
 10
10.8069792916
 20
7.9571311109
 30
0.0
 10
10.8069792916
 20
7.9455580761
 30
0.0
 10
10.8077518976
 20
7.9223522609
 30
0.0
 10
10.8112048831
 20
7.8876241545
 30
0.0
 10
10.8169389628
 20
7.8530427461
 30
0.0
 10
10.8249287498
 20
7.8187623345
 30
0.0
 10
10.8351387538
 20
7.7849334425
 30
0.0
 10
10.8475238368
 20
7.751705182
 30
0.0
 10
10.8620292776
 20
7.7192238367
 30
0.0
 10
10.8785910428
 20
7.6876324259
 30
0.0
 10
10.8971360723
 20
7.6570700265
 30
0.0
 10
10.917582608
 20
7.6276711869
 30
0.0
 10
10.9398405499
 20
7.599565336
 30
0.0
 10
10.9638118499
 20
7.5728762207
 30
0.0
 10
10.9893909417
 20
7.5477213686
 30
0.0
 10
11.0164651868
 20
7.524211559
 30
0.0
 10
11.0449153769
 20
7.5024503454
 30
0.0
 10
11.0746162599
 20
7.4825336099
 30
0.0
 10
11.105437084
 20
7.4645491433
 30
0.0
 10
11.1372421665
 20
7.4485762601
 30
0.0
 10
11.1698914856
 20
7.4346854543
 30
0.0
 10
11.203241284
 20
7.4229380717
 30
0.0
 10
11.2371446912
 20
7.41338604
 30
0.0
 10
11.2714524003
 20
7.4060716557
 30
0.0
 10
11.3060131932
 20
7.4010273756
 30
0.0
 10
11.3406750533
 20
7.3982757281
 30
0.0
 10
11.3752841436
 20
7.3978289862
 30
0.0
 10
11.4039902479
 20
7.3993815545
 30
0.0
 10
11.4267705539
 20
7.4017764669
 30
0.0
 10
11.4437301386
 20
7.4041433911
 30
0.0
 10
11.460562807
 20
7.4070803356
 30
0.0
 10
11.4827875103
 20
7.4117467387
 30
0.0
 10
11.5101684616
 20
7.4189850527
 30
0.0
 10
11.5369330743
 20
7.4280849036
 30
0.0
 10
11.557865154
 20
7.4364478524
 30
0.0
 10
11.5732999331
 20
7.4432497919
 30
0.0
 10
11.5884644361
 20
7.4505785838
 30
0.0
 10
11.5983895698
 20
7.4558137387
 30
0.0
 10
11.6033007469
 20
7.4585160905
 30
0.0
  0
SPLINE
  5
34A
100
AcDbEntity
  8
0
100
AcDbSpline
 62
7
  6
CONTINUOUS
 70
0
 71
3
 72
71
 73
67
 74
0
 42
0.0000001
 43
0.0000001
 44
0.0000000001
 40
0.0
 40
0.0
 40
0.0
 40
0.0
 40
0.0156373091
 40
0.0313279441
 40
0.047070274
 40
0.0628636381
 40
0.078706082
 40
0.0945954866
 40
0.1105292303
 40
0.1265042948
 40
0.1425172941
 40
0.1585644989
 40
0.1746418765
 40
0.1907451255
 40
0.2068697168
 40
0.2230109349
 40
0.2391639194
 40
0.2553237067
 40
0.2714852734
 40
0.2876435805
 40
0.303793618
 40
0.3199304487
 40
0.3360492499
 40
0.352145356
 40
0.3682143008
 40
0.3842518584
 40
0.4002540817
 40
0.4162173386
 40
0.4321383463
 40
0.4480142041
 40
0.4638424239
 40
0.4796209569
 40
0.4953482152
 40
0.5110230909
 40
0.5266449715
 40
0.542213752
 40
0.5577298409
 40
0.5731941611
 40
0.5886081449
 40
0.6039737253
 40
0.6192933221
 40
0.6345698229
 40
0.6498065561
 40
0.6650072607
 40
0.6801760497
 40
0.6953173703
 40
0.7104359595
 40
0.7255367956
 40
0.7406250456
 40
0.7557060104
 40
0.7707850684
 40
0.7858676182
 40
0.8009590217
 40
0.8160645466
 40
0.8311893099
 40
0.846338224
 40
0.8615159451
 40
0.8767268271
 40
0.8919748765
 40
0.9072637177
 40
0.9225965501
 40
0.9379761169
 40
0.9534047581
 40
0.9688840326
 40
0.9844158132
 40
1.0
 40
1.0
 40
1.0
 40
1.0
 10
9.3426477904
 20
7.5711576609
 30
0.0
 10
9.3426477904
 20
7.5647464927
 30
0.0
 10
9.3429636882
 20
7.5519001106
 30
0.0
 10
9.3443782565
 20
7.5326463629
 30
0.0
 10
9.346731103
 20
7.513419764
 30
0.0
 10
9.3500163073
 20
7.4942674109
 30
0.0
 10
9.3542260661
 20
7.4752350978
 30
0.0
 10
9.3593501544
 20
7.4563687563
 30
0.0
 10
9.365376217
 20
7.4377137748
 30
0.0
 10
9.3722896998
 20
7.419315062
 30
0.0
 10
9.3800739284
 20
7.4012169013
 30
0.0
 10
9.388710143
 20
7.3834628531
 30
0.0
 10
9.3981775429
 20
7.3660956537
 30
0.0
 10
9.4084533244
 20
7.3491571059
 30
0.0
 10
9.4195127241
 20
7.3326879697
 30
0.0
 10
9.4313291061
 20
7.3167278797
 30
0.0
 10
9.4438740202
 20
7.3013152483
 30
0.0
 10
9.4571172703
 20
7.2864871765
 30
0.0
 10
9.4710269853
 20
7.2722793652
 30
0.0
 10
9.4855696725
 20
7.2587260064
 30
0.0
 10
9.5007103237
 20
7.2458597218
 30
0.0
 10
9.5164124981
 20
7.2337114865
 30
0.0
 10
9.5326384073
 20
7.2223105546
 30
0.0
 10
9.5493490078
 20
7.2116843945
 30
0.0
 10
9.5665040776
 20
7.2018585969
 30
0.0
 10
9.5840623231
 20
7.1928568228
 30
0.0
 10
9.6019814849
 20
7.1847007613
 30
0.0
 10
9.6202184357
 20
7.1774100738
 30
0.0
 10
9.6387292832
 20
7.1710023522
 30
0.0
 10
9.6574694693
 20
7.1654930607
 30
0.0
 10
9.6763938756
 20
7.1608954844
 30
0.0
 10
9.6954569409
 20
7.1572207267
 30
0.0
 10
9.7146127669
 20
7.154477677
 30
0.0
 10
9.7338152268
 20
7.1526729913
 30
0.0
 10
9.7530180738
 20
7.1518110744
 30
0.0
 10
9.7721750528
 20
7.1518940348
 30
0.0
 10
9.7912400148
 20
7.1529217119
 30
0.0
 10
9.8101670258
 20
7.1548916766
 30
0.0
 10
9.8289104758
 20
7.1577992344
 30
0.0
 10
9.8474251858
 20
7.1616374412
 30
0.0
 10
9.8656665239
 20
7.1663970862
 30
0.0
 10
9.8835905141
 20
7.1720667287
 30
0.0
 10
9.9011539374
 20
7.1786327402
 30
0.0
 10
9.9183144362
 20
7.1860793307
 30
0.0
 10
9.9350306145
 20
7.1943885905
 30
0.0
 10
9.9512621447
 20
7.2035405163
 30
0.0
 10
9.9669698769
 20
7.2135130475
 30
0.0
 10
9.9821159193
 20
7.2242821489
 30
0.0
 10
9.996663732
 20
7.235821862
 30
0.0
 10
10.0105782143
 20
7.2481043685
 30
0.0
 10
10.0238257897
 20
7.2611000564
 30
0.0
 10
10.0363745142
 20
7.2747775674
 30
0.0
 10
10.0481941312
 20
7.2891039012
 30
0.0
 10
10.0592561438
 20
7.3040444954
 30
0.0
 10
10.0695338842
 20
7.3195633079
 30
0.0
 10
10.0790025721
 20
7.3356229069
 30
0.0
 10
10.087639403
 20
7.3521845452
 30
0.0
 10
10.0954235912
 20
7.3692082659
 30
0.0
 10
10.1023364067
 20
7.3866530078
 30
0.0
 10
10.1083612189
 20
7.404476703
 30
0.0
 10
10.1134835308
 20
7.4226363705
 30
0.0
 10
10.1176910559
 20
7.4410882567
 30
0.0
 10
10.1209736476
 20
7.4597877729
 30
0.0
 10
10.1233235921
 20
7.478690165
 30
0.0
 10
10.1247350583
 20
7.4977490947
 30
0.0
 10
10.125047756
 20
7.5105086505
 30
0.0
 10
10.125047756
 20
7.516898039
 30
0.0
  0
SPLINE
  5
34B
100
AcDbEntity
  8
0
100
AcDbSpline
 62
7
  6
CONTINUOUS
 70
0
 71
3
 72
71
 73
67
 74
0
 42
0.0000001
 43
0.0000001
 44
0.0000000001
 40
0.0
 40
0.0
 40
0.0
 40
0.0
 40
0.0156364544
 40
0.0313256679
 40
0.0470658473
 40
0.0628564886
 40
0.0786956805
 40
0.0945813743
 40
0.1105110543
 40
0.126481806
 40
0.1424903655
 40
0.1585331326
 40
0.17460621
 40
0.190705439
 40
0.2068264375
 40
0.222964637
 40
0.2391153215
 40
0.2552736682
 40
0.2714347903
 40
0.2875937785
 40
0.3037457403
 40
0.3198858422
 40
0.336009352
 40
0.3521116799
 40
0.3681884171
 40
0.3842353733
 40
0.4002486148
 40
0.416224502
 40
0.4321597221
 40
0.448051319
 40
0.4638967224
 40
0.4796937756
 40
0.4954407594
 40
0.51113641
 40
0.5267799342
 40
0.5423710218
 40
0.5579098557
 40
0.5733971142
 40
0.5888339681
 40
0.6042220741
 40
0.619563564
 40
0.6348610303
 40
0.650117503
 40
0.6653364218
 40
0.6805216049
 40
0.695677214
 40
0.7108077145
 40
0.7259178302
 40
0.7410124952
 40
0.7560968031
 40
0.7711759557
 40
0.7862552093
 40
0.8013398194
 40
0.816434985
 40
0.8315457946
 40
0.8466771745
 40
0.8618338394
 40
0.8770202441
 40
0.8922405382
 40
0.907498525
 40
0.9227976332
 40
0.9381408636
 40
0.9535308095
 40
0.9689696068
 40
0.9844586574
 40
1.0
 40
1.0
 40
1.0
 40
1.0
 10
9.3995879585
 20
7.5966832319
 30
0.0
 10
9.3995879585
 20
7.5908149581
 30
0.0
 10
9.3998733937
 20
7.579056663
 30
0.0
 10
9.4011516046
 20
7.5614329676
 30
0.0
 10
9.403277773
 20
7.543832711
 30
0.0
 10
9.4062466499
 20
7.5262979494
 30
0.0
 10
9.4100513915
 20
7.5088695124
 30
0.0
 10
9.4146829876
 20
7.4915884013
 30
0.0
 10
9.4201305322
 20
7.4744951275
 30
0.0
 10
9.4263812159
 20
7.4576297933
 30
0.0
 10
9.4334203486
 20
7.4410319606
 30
0.0
 10
9.4412314156
 20
7.4247405712
 30
0.0
 10
9.4497960662
 20
7.4087938375
 30
0.0
 10
9.4590941772
 20
7.3932291557
 30
0.0
 10
9.4691039229
 20
7.3780830316
 30
0.0
 10
9.4798018179
 20
7.3633909944
 30
0.0
 10
9.4911627745
 20
7.3491875183
 30
0.0
 10
9.5031601215
 20
7.3355059099
 30
0.0
 10
9.5157657052
 20
7.3223782557
 30
0.0
 10
9.5289499556
 20
7.3098353505
 30
0.0
 10
9.5426819556
 20
7.2979066307
 30
0.0
 10
9.5569295011
 20
7.2866200937
 30
0.0
 10
9.5716591595
 20
7.276002207
 30
0.0
 10
9.5868363805
 20
7.2660778842
 30
0.0
 10
9.6024255685
 20
7.2568704208
 30
0.0
 10
9.6183901683
 20
7.2484014503
 30
0.0
 10
9.6346927312
 20
7.2406908573
 30
0.0
 10
9.6512950098
 20
7.2337567361
 30
0.0
 10
9.6681580607
 20
7.227615377
 30
0.0
 10
9.6852423285
 20
7.2222812216
 30
0.0
 10
9.7025077385
 20
7.2177668361
 30
0.0
 10
9.7199137771
 20
7.2140828302
 30
0.0
 10
9.7374196011
 20
7.2112378715
 30
0.0
 10
9.754984132
 20
7.2092386727
 30
0.0
 10
9.7725661486
 20
7.208089977
 30
0.0
 10
9.790124381
 20
7.2077945346
 30
0.0
 10
9.8076176091
 20
7.2083530574
 30
0.0
 10
9.8250047624
 20
7.2097642696
 30
0.0
 10
9.8422450127
 20
7.2120249014
 30
0.0
 10
9.8592978658
 20
7.215129705
 30
0.0
 10
9.8761232628
 20
7.2190714286
 30
0.0
 10
9.8926816791
 20
7.2238408332
 30
0.0
 10
9.9089342095
 20
7.2294267502
 30
0.0
 10
9.9248426587
 20
7.2358160963
 30
0.0
 10
9.9403696265
 20
7.2429939111
 30
0.0
 10
9.9554786193
 20
7.2509433416
 30
0.0
 10
9.9701341257
 20
7.2596457183
 30
0.0
 10
9.9843016927
 20
7.269080609
 30
0.0
 10
9.9979480058
 20
7.2792258639
 30
0.0
 10
10.0110409708
 20
7.29005766
 30
0.0
 10
10.0235498207
 20
7.3015505245
 30
0.0
 10
10.0354451566
 20
7.3136774405
 30
0.0
 10
10.0466990197
 20
7.3264099033
 30
0.0
 10
10.057284949
 20
7.3397179924
 30
0.0
 10
10.0671780695
 20
7.3535704201
 30
0.0
 10
10.0763551606
 20
7.3679346054
 30
0.0
 10
10.0847946769
 20
7.3827767774
 30
0.0
 10
10.0924768049
 20
7.3980620479
 30
0.0
 10
10.0993834991
 20
7.4137544954
 30
0.0
 10
10.1054985752
 20
7.4298172304
 30
0.0
 10
10.1108077085
 20
7.4462124941
 30
0.0
 10
10.1152984746
 20
7.4629017735
 30
0.0
 10
10.1189603507
 20
7.4798458357
 30
0.0
 10
10.1217847265
 20
7.4970049545
 30
0.0
 10
10.1237651364
 20
7.5143385202
 30
0.0
 10
10.12451836
 20
7.5259651658
 30
0.0
 10
10.1247537636
 20
7.5317929923
 30
0.0
  0
SPLINE
  5
34C
100
AcDbEntity
  8
0
100
AcDbSpline
 62
7
  6
CONTINUOUS
 70
0
 71
3
 72
15
 73
11
 74
0
 42
0.0000001
 43
0.0000001
 44
0.0000000001
 40
0.0
 40
0.0
 40
0.0
 40
0.0
 40
0.1268026816
 40
0.2530372138
 40
0.3787199841
 40
0.5038739791
 40
0.6285329036
 40
0.752738808
 40
0.8765419821
 40
1.0
 40
1.0
 40
1.0
 40
1.0
 10
10.8069792916
 20
7.9571311109
 30
0.0
 10
10.8069792916
 20
7.9683947416
 30
0.0
 10
10.8077078363
 20
7.9908785731
 30
0.0
 10
10.810999261
 20
8.0243813756
 30
0.0
 10
10.8164730811
 20
8.0574508271
 30
0.0
 10
10.8241065958
 20
8.0899456767
 30
0.0
 10
10.8338677023
 20
8.1217290835
 30
0.0
 10
10.8457157561
 20
8.1526672233
 30
0.0
 10
10.8595999011
 20
8.1826276807
 30
0.0
 10
10.8701899974
 20
8.2018931191
 30
0.0
 10
10.8758013888
 20
8.2113152784
 30
0.0
  0
SPLINE
  5
34D
100
AcDbEntity
  8
0
100
AcDbSpline
 62
7
  6
CONTINUOUS
 70
0
 71
3
 72
39
 73
35
 74
0
 42
0.0000001
 43
0.0000001
 44
0.0000000001
 40
0.0
 40
0.0
 40
0.0
 40
0.0
 40
0.0310753511
 40
0.0623079071
 40
0.0936931323
 40
0.1252222879
 40
0.1568840438
 40
0.1886642044
 40
0.2205461649
 40
0.2525112495
 40
0.2845391085
 40
0.3166081364
 40
0.3486959075
 40
0.3807796234
 40
0.4128365659
 40
0.4448445499
 40
0.4767823666
 40
0.5086302146
 40
0.540370109
 40
0.5719862657
 40
0.6034654504
 40
0.6347972851
 40
0.6659745049
 40
0.6969931576
 40
0.7278527402
 40
0.7585562639
 40
0.7891102404
 40
0.8195245852
 40
0.8498124376
 40
0.8799898966
 40
0.9100756756
 40
0.9400906817
 40
0.970057529
 40
1.0
 40
1.0
 40
1.0
 40
1.0
 10
9.4369740121
 20
7.6022697999
 30
0.0
 10
9.4369740121
 20
7.594011274
 30
0.0
 10
9.4375900782
 20
7.5774460884
 30
0.0
 10
9.4403406904
 20
7.552677608
 30
0.0
 10
9.4449046211
 20
7.5280545692
 30
0.0
 10
9.4512566588
 20
7.5037139241
 30
0.0
 10
9.459361624
 20
7.4797888781
 30
0.0
 10
9.4691748496
 20
7.4564108711
 30
0.0
 10
9.4806422849
 20
7.4337081669
 30
0.0
 10
9.4937008353
 20
7.4118053443
 30
0.0
 10
9.508278717
 20
7.3908225783
 30
0.0
 10
9.524295847
 20
7.3708750034
 30
0.0
 10
9.5416642785
 20
7.3520720864
 30
0.0
 10
9.5602886793
 20
7.3345170364
 30
0.0
 10
9.5800668292
 20
7.3183062206
 30
0.0
 10
9.6008901966
 20
7.3035286579
 30
0.0
 10
9.6226445272
 20
7.2902655378
 30
0.0
 10
9.6452104618
 20
7.2785897773
 30
0.0
 10
9.6684641831
 20
7.2685656274
 30
0.0
 10
9.6922780783
 20
7.2602483058
 30
0.0
 10
9.7165214299
 20
7.2536836824
 30
0.0
 10
9.7410611333
 20
7.2489080486
 30
0.0
 10
9.7657624125
 20
7.2459479081
 30
0.0
 10
9.7904895502
 20
7.244819824
 30
0.0
 10
9.8151066219
 20
7.2455303192
 30
0.0
 10
9.8394782385
 20
7.248075795
 30
0.0
 10
9.8634702894
 20
7.2524425578
 30
0.0
 10
9.8869506802
 20
7.2586068858
 30
0.0
 10
9.9097900509
 20
7.2665351268
 30
0.0
 10
9.931862539
 20
7.2761839125
 30
0.0
 10
9.9530463252
 20
7.2875002076
 30
0.0
 10
9.9732249462
 20
7.3004221778
 30
0.0
 10
9.9922856657
 20
7.3148773212
 30
0.0
 10
10.0041825714
 20
7.3254879944
 30
0.0
 10
10.0099060183
 20
7.3310163963
 30
0.0
  0
SPLINE
  5
34E
100
AcDbEntity
  8
0
100
AcDbSpline
 62
7
  6
CONTINUOUS
 70
0
 71
3
 72
15
 73
11
 74
0
 42
0.0000001
 43
0.0000001
 44
0.0000000001
 40
0.0
 40
0.0
 40
0.0
 40
0.0
 40
0.1269217366
 40
0.2532267895
 40
0.3789359499
 40
0.5040788944
 40
0.6286983953
 40
0.7528479497
 40
0.8765910699
 40
1.0
 40
1.0
 40
1.0
 40
1.0
 10
10.8195363281
 20
7.9562602775
 30
0.0
 10
10.8195363281
 20
7.9681924761
 30
0.0
 10
10.8203740409
 20
7.9920077054
 30
0.0
 10
10.8241594887
 20
8.0274597738
 30
0.0
 10
10.8304521383
 20
8.0623860384
 30
0.0
 10
10.8392212346
 20
8.0966106091
 30
0.0
 10
10.8504233775
 20
8.1299635439
 30
0.0
 10
10.864003553
 20
8.16227922
 30
0.0
 10
10.879893
 20
8.1933945767
 30
0.0
 10
10.8919902376
 20
8.2132625061
 30
0.0
 10
10.8983922018
 20
8.222938256
 30
0.0
  0
SPLINE
  5
34F
100
AcDbEntity
  8
0
100
AcDbSpline
 62
7
  6
CONTINUOUS
 70
0
 71
3
 72
19
 73
15
 74
0
 42
0.0000001
 43
0.0000001
 44
0.0000000001
 40
0.0
 40
0.0
 40
0.0
 40
0.0
 40
0.1269788673
 40
0.2533113913
 40
0.3790211814
 40
0.5041427314
 40
0.5665093346
 40
0.6287483294
 40
0.6908677816
 40
0.7528764391
 40
0.814783709
 40
0.8765996107
 40
0.9383346947
 40
1.0
 40
1.0
 40
1.0
 40
1.0
 10
10.8343855672
 20
7.9601035419
 30
0.0
 10
10.8343855672
 20
7.9723659997
 30
0.0
 10
10.8352882331
 20
7.9968384149
 30
0.0
 10
10.8393678486
 20
8.0332459825
 30
0.0
 10
10.8461471065
 20
8.0690676488
 30
0.0
 10
10.854026249
 20
8.0983025016
 30
0.0
 10
10.8616365446
 20
8.1211918039
 30
0.0
 10
10.867983492
 20
8.1380751126
 30
0.0
 10
10.874966405
 20
8.1546677157
 30
0.0
 10
10.8825758979
 20
8.1709472242
 30
0.0
 10
10.890801512
 20
8.1868912738
 30
0.0
 10
10.8996320305
 20
8.2024781854
 30
0.0
 10
10.9090552568
 20
8.2176862856
 30
0.0
 10
10.9157277895
 20
8.2275643608
 30
0.0
 10
10.9191578769
 20
8.2324323557
 30
0.0
  0
SPLINE
  5
350
100
AcDbEntity
  8
0
100
AcDbSpline
 62
7
  6
CONTINUOUS
 70
0
 71
3
 72
15
 73
11
 74
0
 42
0.0000001
 43
0.0000001
 44
0.0000000001
 40
0.0
 40
0.0
 40
0.0
 40
0.0
 40
0.1268161449
 40
0.2530587956
 40
0.3787448209
 40
0.5038978674
 40
0.6285525722
 40
0.7527521565
 40
0.8765482683
 40
1.0
 40
1.0
 40
1.0
 40
1.0
 10
10.8700542876
 20
7.9945568821
 30
0.0
 10
10.8700542876
 20
8.0054313222
 30
0.0
 10
10.8707642463
 20
8.0271379501
 30
0.0
 10
10.8739717844
 20
8.0594792943
 30
0.0
 10
10.879305849
 20
8.0913957834
 30
0.0
 10
10.8867439027
 20
8.1227485156
 30
0.0
 10
10.8962540778
 20
8.1534029622
 30
0.0
 10
10.907796026
 20
8.1832276092
 30
0.0
 10
10.9213192747
 20
8.2120923895
 30
0.0
 10
10.9316320976
 20
8.2306397048
 30
0.0
 10
10.9370958585
 20
8.2397066503
 30
0.0
  0
SPLINE
  5
351
100
AcDbEntity
  8
0
100
AcDbSpline
 62
7
  6
CONTINUOUS
 70
0
 71
3
 72
21
 73
17
 74
0
 42
0.0000001
 43
0.0000001
 44
0.0000000001
 40
0.0
 40
0.0
 40
0.0
 40
0.0
 40
0.1270486164
 40
0.2534157354
 40
0.3163645148
 40
0.3791539147
 40
0.441789869
 40
0.5042790516
 40
0.5666290787
 40
0.6288484966
 40
0.6909466941
 40
0.7529338602
 40
0.8148209059
 40
0.8766194105
 40
0.9383415499
 40
1.0
 40
1.0
 40
1.0
 40
1.0
 10
10.9288420339
 20
8.0033414879
 30
0.0
 10
10.9288420339
 20
8.0150762714
 30
0.0
 10
10.9297532084
 20
8.0384927944
 30
0.0
 10
10.9331910621
 20
8.0675429304
 30
0.0
 10
10.9373068752
 20
8.0904672771
 30
0.0
 10
10.9410659028
 20
8.1074604185
 30
0.0
 10
10.9454950766
 20
8.1242472341
 30
0.0
 10
10.9505876469
 20
8.1408024807
 30
0.0
 10
10.9563358637
 20
8.1571008781
 30
0.0
 10
10.9627310533
 20
8.173117606
 30
0.0
 10
10.9697634415
 20
8.1888282864
 30
0.0
 10
10.9774223266
 20
8.2042090104
 30
0.0
 10
10.9856961022
 20
8.2192363
 30
0.0
 10
10.9945722006
 20
8.2338873721
 30
0.0
 10
11.0040368539
 20
8.2481396214
 30
0.0
 10
11.0107330209
 20
8.2573656048
 30
0.0
 10
11.0141735856
 20
8.2619039017
 30
0.0
  0
SPLINE
  5
352
100
AcDbEntity
  8
0
100
AcDbSpline
 62
7
  6
CONTINUOUS
 70
0
 71
3
 72
15
 73
11
 74
0
 42
0.0000001
 43
0.0000001
 44
0.0000000001
 40
0.0
 40
0.0
 40
0.0
 40
0.0
 40
0.1273483257
 40
0.253860557
 40
0.3795878955
 40
0.504605103
 40
0.6290174424
 40
0.7529533779
 40
0.8765605788
 40
1.0
 40
1.0
 40
1.0
 40
1.0
 10
9.8465152649
 20
7.7778562963
 30
0.0
 10
9.8465152649
 20
7.7817060477
 30
0.0
 10
9.8468828379
 20
7.7893855976
 30
0.0
 10
9.8485451564
 20
7.8007572209
 30
0.0
 10
9.8513015565
 20
7.8118431168
 30
0.0
 10
9.8551271425
 20
7.8225396119
 30
0.0
 10
9.8599868064
 20
7.8327480638
 30
0.0
 10
9.865836272
 20
7.842374197
 30
0.0
 10
9.872620525
 20
7.851327823
 30
0.0
 10
9.8777287259
 20
7.856797202
 30
0.0
 10
9.8804126833
 20
7.8593897101
 30
0.0
  0
SPLINE
  5
353
100
AcDbEntity
  8
0
100
AcDbSpline
 62
7
  6
CONTINUOUS
 70
0
 71
3
 72
15
 73
11
 74
0
 42
0.0000001
 43
0.0000001
 44
0.0000000001
 40
0.0
 40
0.0
 40
0.0
 40
0.0
 40
0.1265424041
 40
0.2526166662
 40
0.3782254523
 40
0.5033864901
 40
0.6281173158
 40
0.7524428838
 40
0.8763924258
 40
1.0
 40
1.0
 40
1.0
 40
1.0
 10
9.6111753587
 20
7.7615353895
 30
0.0
 10
9.6111753587
 20
7.7673569285
 30
0.0
 10
9.6114882179
 20
7.7789809647
 30
0.0
 10
9.6129007867
 20
7.7963319032
 30
0.0
 10
9.6152518857
 20
7.8135172311
 30
0.0
 10
9.6185345665
 20
7.8304861969
 30
0.0
 10
9.6227394513
 20
7.8471896889
 30
0.0
 10
9.6278543938
 20
7.8635791992
 30
0.0
 10
9.6338642821
 20
7.8796064135
 30
0.0
 10
9.6384625633
 20
7.8900335338
 30
0.0
 10
9.6409042282
 20
7.8951691757
 30
0.0
  0
SPLINE
  5
354
100
AcDbEntity
  8
0
100
AcDbSpline
 62
7
  6
CONTINUOUS
 70
0
 71
3
 72
28
 73
24
 74
0
 42
0.0000001
 43
0.0000001
 44
0.0000000001
 40
0.0
 40
0.0
 40
0.0
 40
0.0
 40
0.0809649918
 40
0.1599746967
 40
0.2369439819
 40
0.3117874669
 40
0.3844126797
 40
0.4547216965
 40
0.5226108494
 40
0.5879626076
 40
0.6506528438
 40
0.7105352029
 40
0.7674503749
 40
0.7947375814
 40
0.821212729
 40
0.8468455723
 40
0.8716059577
 40
0.8954653942
 40
0.9183875637
 40
0.9403367415
 40
0.9612802405
 40
0.9811780746
 40
1.0
 40
1.0
 40
1.0
 40
1.0
 10
11.106633135
 20
8.2715515237
 30
0.0
 10
11.1048258786
 20
8.2684955378
 30
0.0
 10
11.1012494284
 20
8.2624606626
 30
0.0
 10
11.0959228798
 20
8.253539642
 30
0.0
 10
11.0906919586
 20
8.2448742734
 30
0.0
 10
11.085550813
 20
8.2364819346
 30
0.0
 10
11.080493934
 20
8.228380814
 30
0.0
 10
11.0755163752
 20
8.2205901926
 30
0.0
 10
11.070614024
 20
8.2131307772
 30
0.0
 10
11.065783398
 20
8.2060251252
 30
0.0
 10
11.0610225894
 20
8.1992981076
 30
0.0
 10
11.05633059
 20
8.1929779165
 30
0.0
 10
11.0524262318
 20
8.1880090031
 30
0.0
 10
11.0493310454
 20
8.1842704694
 30
0.0
 10
11.0470610114
 20
8.1816304495
 30
0.0
 10
11.0448104367
 20
8.1791207368
 30
0.0
 10
11.0425803681
 20
8.1767478141
 30
0.0
 10
11.0403724671
 20
8.1745185555
 30
0.0
 10
11.0381883169
 20
8.1724410108
 30
0.0
 10
11.0360299893
 20
8.1705241199
 30
0.0
 10
11.0339004575
 20
8.1687773826
 30
0.0
 10
11.0318025424
 20
8.1672125044
 30
0.0
 10
11.0303874377
 20
8.1662720436
 30
0.0
 10
11.0296851257
 20
8.1658384852
 30
0.0
  0
SPLINE
  5
355
100
AcDbEntity
  8
0
100
AcDbSpline
 62
7
  6
CONTINUOUS
 70
0
 71
3
 72
42
 73
38
 74
0
 42
0.0000001
 43
0.0000001
 44
0.0000000001
 40
0.0
 40
0.0
 40
0.0
 40
0.0
 40
0.0308631402
 40
0.0463475144
 40
0.061864845
 40
0.0929942767
 40
0.1242498975
 40
0.155624435
 40
0.1871087619
 40
0.2186920853
 40
0.2503621154
 40
0.2821052653
 40
0.3139068613
 40
0.3457513668
 40
0.3776226143
 40
0.4095040442
 40
0.441378948
 40
0.4732307128
 40
0.5050430645
 40
0.5368003081
 40
0.5684875614
 40
0.6000909809
 40
0.6315979754
 40
0.6629974068
 40
0.6942797729
 40
0.7254373705
 40
0.7564644362
 40
0.7873572604
 40
0.8181142723
 40
0.8487360936
 40
0.8639991108
 40
0.8792295763
 40
0.909591709
 40
0.9398336744
 40
0.9549144726
 40
0.9699688429
 40
1.0
 40
1.0
 40
1.0
 40
1.0
 10
9.6111753587
 20
7.7615353895
 30
0.0
 10
9.6111753587
 20
7.7546343424
 30
0.0
 10
9.611506181
 20
7.7442671086
 30
0.0
 10
9.6126004563
 20
7.7304757714
 30
0.0
 10
9.6141338705
 20
7.7166659564
 30
0.0
 10
9.6168689002
 20
7.6994505369
 30
0.0
 10
9.6214386637
 20
7.6789764888
 30
0.0
 10
9.6272812341
 20
7.658745832
 30
0.0
 10
9.6343728191
 20
7.6388409177
 30
0.0
 10
9.6426846447
 20
7.6193421393
 30
0.0
 10
9.6521830003
 20
7.6003284081
 30
0.0
 10
9.6628293933
 20
7.5818766224
 30
0.0
 10
9.6745807003
 20
7.5640614172
 30
0.0
 10
9.6873893421
 20
7.5469548493
 30
0.0
 10
9.7012034748
 20
7.5306261131
 30
0.0
 10
9.7159671987
 20
7.5151412615
 30
0.0
 10
9.7316207826
 20
7.500562941
 30
0.0
 10
9.7481009038
 20
7.4869501406
 30
0.0
 10
9.7653409023
 20
7.4743579541
 30
0.0
 10
9.7832710482
 20
7.4628373592
 30
0.0
 10
9.8018188213
 20
7.4524350121
 30
0.0
 10
9.8209092017
 20
7.4431930596
 30
0.0
 10
9.8404649702
 20
7.4351489686
 30
0.0
 10
9.8604070185
 20
7.428335375
 30
0.0
 10
9.8806546616
 20
7.4227799503
 30
0.0
 10
9.9011259778
 20
7.4185052904
 30
0.0
 10
9.9217380727
 20
7.4155288146
 30
0.0
 10
9.9424076494
 20
7.4138627203
 30
0.0
 10
9.9630504604
 20
7.4135138284
 30
0.0
 10
9.9801814921
 20
7.4143231404
 30
0.0
 10
9.993786428
 20
7.415629932
 30
0.0
 10
10.0072842058
 20
7.4173702186
 30
0.0
 10
10.023988412
 20
7.4203596159
 30
0.0
 10
10.0404277154
 20
7.4244324412
 30
0.0
 10
10.0533565157
 20
7.428327217
 30
0.0
 10
10.066103564
 20
7.4326342567
 30
0.0
 10
10.0754902626
 20
7.4363383645
 30
0.0
 10
10.0816501231
 20
7.4390118523
 30
0.0
  0
SPLINE
  5
356
100
AcDbEntity
  8
0
100
AcDbSpline
 62
7
  6
CONTINUOUS
 70
0
 71
3
 72
57
 73
53
 74
0
 42
0.0000001
 43
0.0000001
 44
0.0000000001
 40
0.0
 40
0.0
 40
0.0
 40
0.0
 40
0.0110807287
 40
0.0227020996
 40
0.0348712767
 40
0.0475935612
 40
0.0608711023
 40
0.0747018738
 40
0.0890810007
 40
0.1040007649
 40
0.11945113
 40
0.1354193773
 40
0.1518907442
 40
0.1688481323
 40
0.2041424885
 40
0.2411273668
 40
0.2795979793
 40
0.3193229993
 40
0.3600474599
 40
0.4014963086
 40
0.4433787894
 40
0.485393195
 40
0.5272316953
 40
0.5685890014
 40
0.6091683359
 40
0.6486858795
 40
0.686875889
 40
0.7234949811
 40
0.7583256476
 40
0.7750103384
 40
0.7911796394
 40
0.8068149467
 40
0.8218997848
 40
0.8364199508
 40
0.8503636486
 40
0.8637216551
 40
0.8764875294
 40
0.8886578797
 40
0.9002326955
 40
0.9112157674
 40
0.9216152135
 40
0.9314441326
 40
0.9407213874
 40
0.949472531
 40
0.957730896
 40
0.9655386456
 40
0.9692903552
 40
0.9729498098
 40
0.9800228441
 40
0.9868328161
 40
0.9934620434
 40
1.0
 40
1.0
 40
1.0
 40
1.0
 10
11.2196270217
 20
7.9030323141
 30
0.0
 10
11.2207311426
 20
7.9027412009
 30
0.0
 10
11.2229791405
 20
7.9020902755
 30
0.0
 10
11.2263868844
 20
7.9009473634
 30
0.0
 10
11.2299079679
 20
7.8996188166
 30
0.0
 10
11.233540689
 20
7.8981092329
 30
0.0
 10
11.2372834816
 20
7.8964232213
 30
0.0
 10
11.2411346832
 20
7.8945659501
 30
0.0
 10
11.2450923277
 20
7.8925427483
 30
0.0
 10
11.2491543952
 20
7.8903594463
 30
0.0
 10
11.2533185838
 20
7.8880220515
 30
0.0
 10
11.2575824346
 20
7.8855369686
 30
0.0
 10
11.2619431787
 20
7.8829108346
 30
0.0
 10
11.2679630985
 20
7.879180558
 30
0.0
 10
11.275697211
 20
7.8742049112
 30
0.0
 10
11.2851883693
 20
7.8678665722
 30
0.0
 10
11.2949722255
 20
7.8611464517
 30
0.0
 10
11.3050052631
 20
7.8541097219
 30
0.0
 10
11.3152371353
 20
7.8468226865
 30
0.0
 10
11.3256107295
 20
7.8393517713
 30
0.0
 10
11.3360625718
 20
7.8317622477
 30
0.0
 10
11.3465234901
 20
7.8241170028
 30
0.0
 10
11.356919814
 20
7.8164751755
 30
0.0
 10
11.3671748161
 20
7.8088908605
 30
0.0
 10
11.3772103001
 20
7.8014120673
 30
0.0
 10
11.3869479878
 20
7.7940800798
 30
0.0
 10
11.396310891
 20
7.7869291452
 30
0.0
 10
11.40522449
 20
7.7799863591
 30
0.0
 10
11.4123170472
 20
7.7743129054
 30
0.0
 10
11.4177051842
 20
7.7698837609
 30
0.0
 10
11.4215327364
 20
7.7666715335
 30
0.0
 10
11.4251973577
 20
7.7635220961
 30
0.0
 10
11.428691833
 20
7.7604360083
 30
0.0
 10
11.4320093126
 20
7.7574135894
 30
0.0
 10
11.4351433027
 20
7.7544549211
 30
0.0
 10
11.438087676
 20
7.7515598865
 30
0.0
 10
11.4408366735
 20
7.7487281993
 30
0.0
 10
11.4433849089
 20
7.7459594346
 30
0.0
 10
11.4457273688
 20
7.7432530567
 30
0.0
 10
11.447859412
 20
7.7406084443
 30
0.0
 10
11.4497767654
 20
7.7380249159
 30
0.0
 10
11.4514755149
 20
7.7355017445
 30
0.0
 10
11.4529520884
 20
7.7330382044
 30
0.0
 10
11.454203233
 20
7.7306335106
 30
0.0
 10
11.4552258972
 20
7.7282871147
 30
0.0
 10
11.4558941803
 20
7.7263545948
 30
0.0
 10
11.4563066099
 20
7.7248409755
 30
0.0
 10
11.4566316883
 20
7.7233837814
 30
0.0
 10
11.4568966345
 20
7.7215921503
 30
0.0
 10
11.4569796489
 20
7.7194756284
 30
0.0
 10
11.4568228245
 20
7.7174183978
 30
0.0
 10
11.456556822
 20
7.7160838368
 30
0.0
 10
11.4563850186
 20
7.7154323829
 30
0.0
  0
SPLINE
  5
357
100
AcDbEntity
  8
0
100
AcDbSpline
 62
7
  6
CONTINUOUS
 70
0
 71
3
 72
14
 73
10
 74
0
 42
0.0000001
 43
0.0000001
 44
0.0000000001
 40
0.0
 40
0.0
 40
0.0
 40
0.0
 40
0.1216435027
 40
0.2448800383
 40
0.3694065597
 40
0.4949094859
 40
0.6210616515
 40
0.7475297935
 40
1.0
 40
1.0
 40
1.0
 40
1.0
 10
11.1793175064
 20
7.8166469316
 30
0.0
 10
11.1786505675
 20
7.8129107858
 30
0.0
 10
11.1774968824
 20
7.8053545746
 30
0.0
 10
11.1763112279
 20
7.7938862674
 30
0.0
 10
11.1756632271
 20
7.7822542588
 30
0.0
 10
11.1755559216
 20
7.7705140447
 30
0.0
 10
11.1759898677
 20
7.7587203114
 30
0.0
 10
11.177286241
 20
7.7430116213
 30
0.0
 10
11.1790607427
 20
7.7313009092
 30
0.0
 10
11.1805981891
 20
7.7235754846
 30
0.0
  0
SPLINE
  5
358
100
AcDbEntity
  8
0
100
AcDbSpline
 62
7
  6
CONTINUOUS
 70
0
 71
3
 72
15
 73
11
 74
0
 42
0.0000001
 43
0.0000001
 44
0.0000000001
 40
0.0
 40
0.0
 40
0.0
 40
0.0
 40
0.1372493754
 40
0.2715353493
 40
0.4025013281
 40
0.5298495877
 40
0.6533593462
 40
0.7728954474
 40
0.8884181778
 40
1.0
 40
1.0
 40
1.0
 40
1.0
 10
11.1793175064
 20
7.8166469316
 30
0.0
 10
11.1800946704
 20
7.8210005516
 30
0.0
 10
11.1818849932
 20
7.8295711971
 30
0.0
 10
11.1853149417
 20
7.8420872986
 30
0.0
 10
11.1894406996
 20
7.8540558089
 30
0.0
 10
11.1942354014
 20
7.8653970797
 30
0.0
 10
11.199667828
 20
7.8760361695
 30
0.0
 10
11.2057031594
 20
7.8859028161
 30
0.0
 10
11.2123015246
 20
7.8949305895
 30
0.0
 10
11.2171309827
 20
7.900444541
 30
0.0
 10
11.2196270217
 20
7.9030323141
 30
0.0
  0
SPLINE
  5
359
100
AcDbEntity
  8
0
100
AcDbSpline
 62
7
  6
CONTINUOUS
 70
0
 71
3
 72
46
 73
42
 74
0
 42
0.0000001
 43
0.0000001
 44
0.0000000001
 40
0.0
 40
0.0
 40
0.0
 40
0.0
 40
0.0310302702
 40
0.0622128425
 40
0.0935434882
 40
0.1250143632
 40
0.156615069
 40
0.1883326519
 40
0.2201519008
 40
0.2520556608
 40
0.2840251754
 40
0.3160404517
 40
0.348080639
 40
0.3801244214
 40
0.4121504161
 40
0.4441375727
 40
0.4760655668
 40
0.5079151847
 40
0.5396686957
 40
0.5713102001
 40
0.602825951
 40
0.6342046496
 40
0.6654376949
 40
0.6965193898
 40
0.7274471012
 40
0.7582213578
 40
0.7888458829
 40
0.8041066368
 40
0.8193328019
 40
0.8345257186
 40
0.8496869063
 40
0.8648180577
 40
0.8799210339
 40
0.8949978501
 40
0.9100506672
 40
0.9250817828
 40
0.9400936151
 40
0.9550886909
 40
0.9700696341
 40
0.9850391479
 40
1.0
 40
1.0
 40
1.0
 40
1.0
 10
10.4856168039
 20
7.763718766
 30
0.0
 10
10.4856168039
 20
7.7484790897
 30
0.0
 10
10.486718286
 20
7.7179139147
 30
0.0
 10
10.4916375788
 20
7.6722000037
 30
0.0
 10
10.4998019918
 20
7.6267310648
 30
0.0
 10
10.5111691644
 20
7.5817446527
 30
0.0
 10
10.5256799742
 20
7.5374719686
 30
0.0
 10
10.5432592546
 20
7.4941414648
 30
0.0
 10
10.5638161359
 20
7.4519764543
 30
0.0
 10
10.587244349
 20
7.4111942501
 30
0.0
 10
10.6134229189
 20
7.3720050125
 30
0.0
 10
10.642216816
 20
7.3346107498
 30
0.0
 10
10.6734774862
 20
7.299204167
 30
0.0
 10
10.7070437301
 20
7.2659677543
 30
0.0
 10
10.7427425621
 20
7.235072916
 30
0.0
 10
10.7803899583
 20
7.2066789535
 30
0.0
 10
10.819791884
 20
7.1809323259
 30
0.0
 10
10.8607453192
 20
7.1579659814
 30
0.0
 10
10.9030391874
 20
7.1378985145
 30
0.0
 10
10.9464554919
 20
7.1208336258
 30
0.0
 10
10.9907704567
 20
7.1068596918
 30
0.0
 10
11.03575558
 20
7.0960491285
 30
0.0
 10
11.0811788884
 20
7.0884580793
 30
0.0
 10
11.1268059402
 20
7.0841262014
 30
0.0
 10
11.1724016886
 20
7.0830764157
 30
0.0
 10
11.2177290994
 20
7.0853142593
 30
0.0
 10
11.2551333262
 20
7.0899162763
 30
0.0
 10
11.2846788557
 20
7.0952260856
 30
0.0
 10
11.3066026262
 20
7.1000107954
 30
0.0
 10
11.3282855167
 20
7.1055958806
 30
0.0
 10
11.3496998856
 20
7.1119742307
 30
0.0
 10
11.370817957
 20
7.11913761
 30
0.0
 10
11.3916124913
 20
7.127076722
 30
0.0
 10
11.4120565874
 20
7.1357813821
 30
0.0
 10
11.4321238271
 20
7.1452403485
 30
0.0
 10
11.4517883004
 20
7.155441356
 30
0.0
 10
11.4710245695
 20
7.166371298
 30
0.0
 10
11.4898077509
 20
7.1780160282
 30
0.0
 10
11.5081136885
 20
7.1903605317
 30
0.0
 10
11.5259183512
 20
7.2033886489
 30
0.0
 10
11.5374420452
 20
7.2125213147
 30
0.0
 10
11.5431116384
 20
7.2171949845
 30
0.0
  0
SPLINE
  5
35A
100
AcDbEntity
  8
0
100
AcDbSpline
 62
7
  6
CONTINUOUS
 70
0
 71
3
 72
11
 73
7
 74
0
 42
0.0000001
 43
0.0000001
 44
0.0000000001
 40
0.0
 40
0.0
 40
0.0
 40
0.0
 40
0.2519776427
 40
0.5025956102
 40
0.7519075224
 40
1.0
 40
1.0
 40
1.0
 40
1.0
 10
9.7918034763
 20
9.0771568769
 30
0.0
 10
9.7918034763
 20
9.0856239326
 30
0.0
 10
9.7924649845
 20
9.1025200486
 30
0.0
 10
9.7954553419
 20
9.1276344763
 30
0.0
 10
9.8004221265
 20
9.1523009669
 30
0.0
 10
9.8050433381
 20
9.1683860929
 30
0.0
 10
9.8076716412
 20
9.1762974352
 30
0.0
  0
SPLINE
  5
35B
100
AcDbEntity
  8
0
100
AcDbSpline
 62
7
  6
CONTINUOUS
 70
0
 71
3
 72
47
 73
43
 74
0
 42
0.0000001
 43
0.0000001
 44
0.0000000001
 40
0.0
 40
0.0
 40
0.0
 40
0.0
 40
0.0310739092
 40
0.0623050493
 40
0.093688793
 40
0.1252165054
 40
0.1568767965
 40
0.1886554889
 40
0.2205359759
 40
0.252499584
 40
0.2845259636
 40
0.3165935101
 40
0.3486797987
 40
0.3807620323
 40
0.4128174943
 40
0.4448239996
 40
0.4767603407
 40
0.5086067173
 40
0.5403451453
 40
0.5719598413
 40
0.6034375724
 40
0.6347679604
 40
0.6659437388
 40
0.6969609577
 40
0.7278191155
 40
0.7585212212
 40
0.7738184273
 40
0.7890793501
 40
0.8043053363
 40
0.819497931
 40
0.8346588746
 40
0.8497900954
 40
0.8648936935
 40
0.8799719343
 40
0.8950272361
 40
0.9100621516
 40
0.925079358
 40
0.9400816404
 40
0.9550718718
 40
0.9700530002
 40
0.9850280299
 40
1.0
 40
1.0
 40
1.0
 40
1.0
 10
10.6289119355
 20
7.7851312427
 30
0.0
 10
10.6289119355
 20
7.7722048568
 30
0.0
 10
10.6298762217
 20
7.746276732
 30
0.0
 10
10.6341815089
 20
7.7075086782
 30
0.0
 10
10.6413250468
 20
7.6689682645
 30
0.0
 10
10.6512673683
 20
7.6308698715
 30
0.0
 10
10.6639534338
 20
7.5934219797
 30
0.0
 10
10.6793132514
 20
7.556830313
 30
0.0
 10
10.6972622613
 20
7.521295635
 30
0.0
 10
10.7177017413
 20
7.4870129615
 30
0.0
 10
10.7405192941
 20
7.4541703704
 30
0.0
 10
10.7655895794
 20
7.422948074
 30
0.0
 10
10.7927749715
 20
7.3935174402
 30
0.0
 10
10.8219262052
 20
7.3660399693
 30
0.0
 10
10.85288329
 20
7.3406664939
 30
0.0
 10
10.885476388
 20
7.3175363954
 30
0.0
 10
10.9195266564
 20
7.2967767484
 30
0.0
 10
10.9548472502
 20
7.2785016468
 30
0.0
 10
10.9912443762
 20
7.2628116657
 30
0.0
 10
11.0285183029
 20
7.2497932555
 30
0.0
 10
11.0664644108
 20
7.2395181807
 30
0.0
 10
11.1048743966
 20
7.2320432605
 30
0.0
 10
11.1435372061
 20
7.2274100113
 30
0.0
 10
11.1822407969
 20
7.2256443829
 30
0.0
 10
11.2207709581
 20
7.2267562597
 30
0.0
 10
11.2526029118
 20
7.2300811663
 30
0.0
 10
11.2777614224
 20
7.2341700964
 30
0.0
 10
11.2964349229
 20
7.2379414058
 30
0.0
 10
11.3149075909
 20
7.2424155161
 30
0.0
 10
11.3331543409
 20
7.2475863882
 30
0.0
 10
11.3511499806
 20
7.2534468825
 30
0.0
 10
11.3688697893
 20
7.2599889108
 30
0.0
 10
11.3862893455
 20
7.2672035675
 30
0.0
 10
11.4033846999
 20
7.27508088
 30
0.0
 10
11.4201323359
 20
7.2836100047
 30
0.0
 10
11.4365091651
 20
7.2927792897
 30
0.0
 10
11.4524926836
 20
7.3025760531
 30
0.0
 10
11.4680608966
 20
7.3129868357
 30
0.0
 10
11.483192316
 20
7.3239973529
 30
0.0
 10
11.4978662412
 20
7.3355924572
 30
0.0
 10
11.5120621805
 20
7.3477559523
 30
0.0
 10
11.5211954341
 20
7.3562337056
 30
0.0
 10
11.5256750729
 20
7.3605607008
 30
0.0
  0
SPLINE
  5
35C
100
AcDbEntity
  8
0
100
AcDbSpline
 62
7
  6
CONTINUOUS
 70
0
 71
3
 72
42
 73
38
 74
0
 42
0.0000001
 43
0.0000001
 44
0.0000000001
 40
0.0
 40
0.0
 40
0.0
 40
0.0
 40
0.0308630821
 40
0.0463474763
 40
0.0618647818
 40
0.0929941541
 40
0.1242497354
 40
0.1556242225
 40
0.1871085001
 40
0.2186917725
 40
0.2503617518
 40
0.2821048518
 40
0.3139064001
 40
0.3457508609
 40
0.3776220678
 40
0.4095034622
 40
0.4413783367
 40
0.473230079
 40
0.5050424159
 40
0.5367996528
 40
0.568486908
 40
0.6000903381
 40
0.6315973522
 40
0.6629968117
 40
0.6942792141
 40
0.7254368556
 40
0.7564639718
 40
0.7873568519
 40
0.8181139239
 40
0.8487358079
 40
0.8639988546
 40
0.8792293537
 40
0.9095915489
 40
0.9398335738
 40
0.9549143976
 40
0.9699687961
 40
1.0
 40
1.0
 40
1.0
 40
1.0
 10
9.7918034763
 20
9.0771568769
 30
0.0
 10
9.7918034763
 20
9.0702560216
 30
0.0
 10
9.7921342824
 20
9.0598890652
 30
0.0
 10
9.7932284967
 20
9.0460980971
 30
0.0
 10
9.7947618275
 20
9.0322886496
 30
0.0
 10
9.797496713
 20
9.0150736933
 30
0.0
 10
9.8020662281
 20
8.9946001817
 30
0.0
 10
9.8079084887
 20
8.9743700365
 30
0.0
 10
9.8149996975
 20
8.9544656059
 30
0.0
 10
9.8233110871
 20
8.9349672762
 30
0.0
 10
9.832808949
 20
8.9159539528
 30
0.0
 10
9.8434547954
 20
8.8975025281
 30
0.0
 10
9.855205507
 20
8.8796876315
 30
0.0
 10
9.8680135097
 20
8.862581315
 30
0.0
 10
9.8818269651
 20
8.846252768
 30
0.0
 10
9.8965899792
 20
8.830768039
 30
0.0
 10
9.9122428267
 20
8.8161897709
 30
0.0
 10
9.9287221916
 20
8.802576949
 30
0.0
 10
9.9459614204
 20
8.7899846645
 30
0.0
 10
9.96389079
 20
8.7784638926
 30
0.0
 10
9.9824377874
 20
8.7680612877
 30
0.0
 10
10.0015273998
 20
8.7588189953
 30
0.0
 10
10.0210824152
 20
8.7507744817
 30
0.0
 10
10.0410237328
 20
8.7439603828
 30
0.0
 10
10.0612706747
 20
8.7384043705
 30
0.0
 10
10.0817413266
 20
8.7341290418
 30
0.0
 10
10.1023528014
 20
8.7311518182
 30
0.0
 10
10.123021809
 20
8.7294848983
 30
0.0
 10
10.1436641086
 20
8.7291351094
 30
0.0
 10
10.1607947676
 20
8.7299436062
 30
0.0
 10
10.1743994398
 20
8.7312497303
 30
0.0
 10
10.187896982
 20
8.7329893038
 30
0.0
 10
10.2046009381
 20
8.7359777958
 30
0.0
 10
10.2210400636
 20
8.7400496491
 30
0.0
 10
10.2339687593
 20
8.7439436453
 30
0.0
 10
10.2467157443
 20
8.7482498548
 30
0.0
 10
10.2561024106
 20
8.7519533738
 30
0.0
 10
10.2622622872
 20
8.7546264136
 30
0.0
  0
SPLINE
  5
35D
100
AcDbEntity
  8
0
100
AcDbSpline
 62
7
  6
CONTINUOUS
 70
0
 71
3
 72
43
 73
39
 74
0
 42
0.0000001
 43
0.0000001
 44
0.0000000001
 40
0.0
 40
0.0
 40
0.0
 40
0.0
 40
0.0309485948
 40
0.0620406286
 40
0.093272685
 40
0.124638059
 40
0.1561280529
 40
0.1877317075
 40
0.219436121
 40
0.2512266705
 40
0.2830872772
 40
0.3150006856
 40
0.3469487586
 40
0.3789127818
 40
0.4108737765
 40
0.4428128141
 40
0.4747113311
 40
0.5065514381
 40
0.5383162228
 40
0.5699900405
 40
0.6015587898
 40
0.6330101668
 40
0.6643338962
 40
0.6955219342
 40
0.7265686398
 40
0.7574709078
 40
0.788228259
 40
0.818842886
 40
0.8341003909
 40
0.8493242608
 40
0.8645155082
 40
0.8796753067
 40
0.909901273
 40
0.9400191537
 40
0.9550444074
 40
0.9700482213
 40
0.9850326877
 40
1.0
 40
1.0
 40
1.0
 40
1.0
 10
10.8195363281
 20
7.9562602775
 30
0.0
 10
10.8195363281
 20
7.9447320427
 30
0.0
 10
10.8203219339
 20
7.9216147108
 30
0.0
 10
10.8238324051
 20
7.8870240771
 30
0.0
 10
10.8296611284
 20
7.8525890424
 30
0.0
 10
10.8377812147
 20
7.8184696557
 30
0.0
 10
10.8481550973
 20
7.7848219738
 30
0.0
 10
10.8607350054
 20
7.7518004934
 30
0.0
 10
10.8754630273
 20
7.7195566369
 30
0.0
 10
10.8922714344
 20
7.6882382876
 30
0.0
 10
10.9110829968
 20
7.6579890643
 30
0.0
 10
10.9318113335
 20
7.6289476858
 30
0.0
 10
10.954361309
 20
7.6012473412
 30
0.0
 10
10.9786294546
 20
7.5750150787
 30
0.0
 10
11.0045044291
 20
7.550371213
 30
0.0
 10
11.0318675504
 20
7.5274288
 30
0.0
 10
11.0605933298
 20
7.5062931201
 30
0.0
 10
11.0905500416
 20
7.4870612005
 30
0.0
 10
11.1216003202
 20
7.4698213751
 30
0.0
 10
11.1536017672
 20
7.4546528494
 30
0.0
 10
11.1864076153
 20
7.441625365
 30
0.0
 10
11.2198673953
 20
7.4307988825
 30
0.0
 10
11.253827607
 20
7.4222233022
 30
0.0
 10
11.2881324482
 20
7.4159382439
 30
0.0
 10
11.3226243882
 20
7.4119728096
 30
0.0
 10
11.3571453619
 20
7.4103455253
 30
0.0
 10
11.3915357364
 20
7.4110639895
 30
0.0
 10
11.419990233
 20
7.4136185032
 30
0.0
 10
11.4425243897
 20
7.4168296977
 30
0.0
 10
11.4592769706
 20
7.4198147337
 30
0.0
 10
11.4758794478
 20
7.4233757129
 30
0.0
 10
11.4977665629
 20
7.428879798
 30
0.0
 10
11.5246659843
 20
7.4371761827
 30
0.0
 10
11.5508624496
 20
7.4473428299
 30
0.0
 10
11.5712880519
 20
7.4565588973
 30
0.0
 10
11.5863181524
 20
7.4639998939
 30
0.0
 10
11.6010517559
 20
7.4719658275
 30
0.0
 10
11.6106710142
 20
7.4776236491
 30
0.0
 10
11.6154248052
 20
7.4805365646
 30
0.0
  0
SPLINE
  5
35E
100
AcDbEntity
  8
0
100
AcDbSpline
 62
7
  6
CONTINUOUS
 70
0
 71
3
 72
42
 73
38
 74
0
 42
0.0000001
 43
0.0000001
 44
0.0000000001
 40
0.0
 40
0.0
 40
0.0
 40
0.0
 40
0.0309664565
 40
0.0620782184
 40
0.0933317265
 40
0.1247200295
 40
0.1562340915
 40
0.1878625482
 40
0.2195920266
 40
0.2514073874
 40
0.2832920027
 40
0.3152280527
 40
0.3471968365
 40
0.379179095
 40
0.41115534
 40
0.4431061858
 40
0.475012679
 40
0.506856624
 40
0.5386209001
 40
0.5702897636
 40
0.6018491332
 40
0.6332868528
 40
0.6645929289
 40
0.6957597373
 40
0.7267821909
 40
0.742240692
 40
0.7576624269
 40
0.7883916534
 40
0.8189775369
 40
0.8494259474
 40
0.8797454395
 40
0.894862645
 40
0.9099519896
 40
0.9250152255
 40
0.9400542425
 40
0.9700628065
 40
1.0
 40
1.0
 40
1.0
 40
1.0
 10
10.8343855672
 20
7.9601035419
 30
0.0
 10
10.8343855672
 20
7.9486607032
 30
0.0
 10
10.8351753497
 20
7.9257137688
 30
0.0
 10
10.8387040919
 20
7.8913813322
 30
0.0
 10
10.8445626275
 20
7.8572093921
 30
0.0
 10
10.8527232319
 20
7.8233608427
 30
0.0
 10
10.8631471911
 20
7.7899944654
 30
0.0
 10
10.8757852703
 20
7.7572673885
 30
0.0
 10
10.8905777898
 20
7.7253335197
 30
0.0
 10
10.9074549885
 20
7.6943430698
 30
0.0
 10
10.9263373392
 20
7.6644417917
 30
0.0
 10
10.9471359247
 20
7.6357703231
 30
0.0
 10
10.9697528469
 20
7.6084635264
 30
0.0
 10
10.9940816571
 20
7.5826498363
 30
0.0
 10
11.0200078892
 20
7.5584506863
 30
0.0
 10
11.0474095886
 20
7.5359799427
 30
0.0
 10
11.0761578812
 20
7.5153433763
 30
0.0
 10
11.1061175662
 20
7.4966381642
 30
0.0
 10
11.1371477316
 20
7.4799524037
 30
0.0
 10
11.1691024274
 20
7.4653647367
 30
0.0
 10
11.201831371
 20
7.4529439764
 30
0.0
 10
11.2351805246
 20
7.4427487905
 30
0.0
 10
11.268993253
 20
7.434827401
 30
0.0
 10
11.3031093883
 20
7.4292173673
 30
0.0
 10
11.3316961568
 20
7.4264873314
 30
0.0
 10
11.3545525832
 20
7.4254845217
 30
0.0
 10
11.3773215645
 20
7.4252684836
 30
0.0
 10
11.4056769735
 20
7.426467121
 30
0.0
 10
11.4394005448
 20
7.4302592509
 30
0.0
 10
11.4726254376
 20
7.4363854355
 30
0.0
 10
11.4997968257
 20
7.4434201582
 30
0.0
 10
11.5211202201
 20
7.4501817664
 30
0.0
 10
11.5368776824
 20
7.4558086755
 30
0.0
 10
11.5523952241
 20
7.4619892425
 30
0.0
 10
11.5727241396
 20
7.4709507253
 30
0.0
 10
11.5974562036
 20
7.4835007009
 30
0.0
 10
11.6164458606
 20
7.4949500407
 30
0.0
 10
11.6257039221
 20
7.5010053889
 30
0.0
  0
SPLINE
  5
35F
100
AcDbEntity
  8
0
100
AcDbSpline
 62
7
  6
CONTINUOUS
 70
0
 71
3
 72
43
 73
39
 74
0
 42
0.0000001
 43
0.0000001
 44
0.0000000001
 40
0.0
 40
0.0
 40
0.0
 40
0.0
 40
0.0309230566
 40
0.0619868819
 40
0.0931882515
 40
0.1245208071
 40
0.1559763197
 40
0.1875443952
 40
0.2192127887
 40
0.2509676005
 40
0.2827935212
 40
0.3146740897
 40
0.3465919645
 40
0.3785292058
 40
0.4104675632
 40
0.4423887689
 40
0.4742748293
 40
0.506108315
 40
0.5378726427
 40
0.5695523483
 40
0.6011333474
 40
0.6326031784
 40
0.6639512258
 40
0.6951689176
 40
0.7262498951
 40
0.7571901504
 40
0.7879881273
 40
0.8186447833
 40
0.8339233078
 40
0.8491680201
 40
0.8643797502
 40
0.8795594736
 40
0.9098230315
 40
0.9399738803
 40
0.9550132791
 40
0.9700294821
 40
0.9850243884
 40
1.0
 40
1.0
 40
1.0
 40
1.0
 10
10.8700542876
 20
7.9945568821
 30
0.0
 10
10.8700542876
 20
7.983465098
 30
0.0
 10
10.8707962689
 20
7.9612241421
 30
0.0
 10
10.8741123278
 20
7.9279404421
 30
0.0
 10
10.8796189504
 20
7.894798219
 30
0.0
 10
10.8872916576
 20
7.8619459468
 30
0.0
 10
10.8970962306
 20
7.8295284593
 30
0.0
 10
10.9089891489
 20
7.7976892237
 30
0.0
 10
10.9229176538
 20
7.766568974
 30
0.0
 10
10.938820009
 20
7.7363052883
 30
0.0
 10
10.9566257815
 20
7.7070319357
 30
0.0
 10
10.9762561559
 20
7.6788783094
 30
0.0
 10
10.9976242808
 20
7.6519688569
 30
0.0
 10
11.0206356489
 20
7.6264225359
 30
0.0
 10
11.045188513
 20
7.6023522961
 30
0.0
 10
11.0711743154
 20
7.579864566
 30
0.0
 10
11.0984781802
 20
7.5590587982
 30
0.0
 10
11.1269794179
 20
7.5400270364
 30
0.0
 10
11.1565520521
 20
7.5228535112
 30
0.0
 10
11.1870653705
 20
7.5076142691
 30
0.0
 10
11.2183844959
 20
7.4943768408
 30
0.0
 10
11.250370969
 20
7.4831999197
 30
0.0
 10
11.2828833553
 20
7.4741331163
 30
0.0
 10
11.315777895
 20
7.4672167455
 30
0.0
 10
11.3489090125
 20
7.4624816273
 30
0.0
 10
11.3821303889
 20
7.4599490059
 30
0.0
 10
11.4152939825
 20
7.4596302252
 30
0.0
 10
11.4427946568
 20
7.4612131015
 30
0.0
 10
11.4646140738
 20
7.4635861723
 30
0.0
 10
11.4808560853
 20
7.4659138063
 30
0.0
 10
11.4969742641
 20
7.4687885389
 30
0.0
 10
11.5182524771
 20
7.473341655
 30
0.0
 10
11.5444612708
 20
7.4803815609
 30
0.0
 10
11.5700710869
 20
7.4892072742
 30
0.0
 10
11.5900942487
 20
7.4973063569
 30
0.0
 10
11.6048559127
 20
7.5038885362
 30
0.0
 10
11.6193559981
 20
7.5109757173
 30
0.0
 10
11.6288440473
 20
7.5160352651
 30
0.0
 10
11.633538386
 20
7.5186462528
 30
0.0
  0
SPLINE
  5
360
100
AcDbEntity
  8
0
100
AcDbSpline
 62
7
  6
CONTINUOUS
 70
0
 71
3
 72
39
 73
35
 74
0
 42
0.0000001
 43
0.0000001
 44
0.0000000001
 40
0.0
 40
0.0
 40
0.0
 40
0.0
 40
0.0309878122
 40
0.0621231533
 40
0.0934022942
 40
0.1248179697
 40
0.156360741
 40
0.1880187445
 40
0.2197780353
 40
0.2516228452
 40
0.28353588
 40
0.3154986371
 40
0.3474917369
 40
0.3794952669
 40
0.411489132
 40
0.4434534068
 40
0.4753686853
 40
0.5072164241
 40
0.5389792772
 40
0.5706414128
 40
0.6021888113
 40
0.6336095369
 40
0.6648939808
 40
0.6960350702
 40
0.7270284345
 40
0.7578725256
 40
0.7885686884
 40
0.8191211762
 40
0.8495371094
 40
0.8798263705
 40
0.9100014369
 40
0.9400771544
 40
0.9700704512
 40
1.0
 40
1.0
 40
1.0
 40
1.0
 10
10.9288420339
 20
8.0033414879
 30
0.0
 10
10.9288420339
 20
7.9928062435
 30
0.0
 10
10.929580132
 20
7.9716784274
 30
0.0
 10
10.9328775147
 20
7.9400712989
 30
0.0
 10
10.9383513474
 20
7.9086186917
 30
0.0
 10
10.945974943
 20
7.8774750565
 30
0.0
 10
10.9557110403
 20
7.8467908859
 30
0.0
 10
10.9675122687
 20
7.8167150295
 30
0.0
 10
10.9813212229
 20
7.7873931869
 30
0.0
 10
10.9970708178
 20
7.7589674354
 30
0.0
 10
11.0146846051
 20
7.7315754914
 30
0.0
 10
11.0340771422
 20
7.7053500692
 30
0.0
 10
11.055154405
 20
7.6804182439
 30
0.0
 10
11.0778142094
 20
7.6569008172
 30
0.0
 10
11.1019467313
 20
7.634911755
 30
0.0
 10
11.1274350362
 20
7.6145576464
 30
0.0
 10
11.1541556377
 20
7.5959371899
 30
0.0
 10
11.1819790903
 20
7.579140725
 30
0.0
 10
11.210770589
 20
7.5642497617
 30
0.0
 10
11.2403906347
 20
7.5513366102
 30
0.0
 10
11.270695704
 20
7.5404640401
 30
0.0
 10
11.3015389328
 20
7.5316849723
 30
0.0
 10
11.3327708184
 20
7.5250422271
 30
0.0
 10
11.3642399265
 20
7.5205682711
 30
0.0
 10
11.3957936273
 20
7.5182850784
 30
0.0
 10
11.4272788268
 20
7.5182040269
 30
0.0
 10
11.4585426995
 20
7.5203258272
 30
0.0
 10
11.4894334266
 20
7.5246405152
 30
0.0
 10
11.519800921
 20
7.5311274344
 30
0.0
 10
11.5494976174
 20
7.5397553835
 30
0.0
 10
11.5783789763
 20
7.5504826175
 30
0.0
 10
11.6063049868
 20
7.5632575839
 30
0.0
 10
11.6331379126
 20
7.5780171096
 30
0.0
 10
11.6502296349
 20
7.5891446024
 30
0.0
 10
11.6585443446
 20
7.5950102228
 30
0.0
  0
SPLINE
  5
361
100
AcDbEntity
  8
0
100
AcDbSpline
 62
7
  6
CONTINUOUS
 70
0
 71
3
 72
23
 73
19
 74
0
 42
0.0000001
 43
0.0000001
 44
0.0000000001
 40
0.0
 40
0.0
 40
0.0
 40
0.0
 40
0.0637776914
 40
0.1273445726
 40
0.19070205
 40
0.2538561286
 40
0.3168131755
 40
0.3795820937
 40
0.4421733816
 40
0.5045993375
 40
0.566873868
 40
0.6290123843
 40
0.691031656
 40
0.7529496505
 40
0.8147853588
 40
0.8765586069
 40
0.938289857
 40
1.0
 40
1.0
 40
1.0
 40
1.0
 10
9.3362974168
 20
8.8911717838
 30
0.0
 10
9.3362974168
 20
8.9002748045
 30
0.0
 10
9.3367330878
 20
8.9184538428
 30
0.0
 10
9.338699679
 20
8.9456118846
 30
0.0
 10
9.3419739303
 20
8.9725545549
 30
0.0
 10
9.3465482176
 20
8.9992188243
 30
0.0
 10
9.3524121624
 20
9.0255435518
 30
0.0
 10
9.3595522528
 20
9.0514679519
 30
0.0
 10
9.3679521157
 20
9.076932282
 30
0.0
 10
9.3775924328
 20
9.1018778144
 30
0.0
 10
9.3884510349
 20
9.1262470184
 30
0.0
 10
9.4005029321
 20
9.149983684
 30
0.0
 10
9.4137203672
 20
9.1730330537
 30
0.0
 10
9.4280729039
 20
9.1953419667
 30
0.0
 10
9.443527421
 20
9.2168589085
 30
0.0
 10
9.46004847
 20
9.2375344103
 30
0.0
 10
9.4775973077
 20
9.2573201239
 30
0.0
 10
9.489957072
 20
9.2698893027
 30
0.0
 10
9.4962921995
 20
9.2760085828
 30
0.0
  0
SPLINE
  5
362
100
AcDbEntity
  8
0
100
AcDbSpline
 62
7
  6
CONTINUOUS
 70
0
 71
3
 72
39
 73
35
 74
0
 42
0.0000001
 43
0.0000001
 44
0.0000000001
 40
0.0
 40
0.0
 40
0.0
 40
0.0
 40
0.0306777852
 40
0.0614699456
 40
0.0923740137
 40
0.1233870611
 40
0.154504434
 40
0.1857205199
 40
0.2170285347
 40
0.2484207091
 40
0.2798883482
 40
0.3114219428
 40
0.3430112738
 40
0.374645526
 40
0.4063134063
 40
0.4380032648
 40
0.4697032188
 40
0.5014012794
 40
0.5330854773
 40
0.56474399
 40
0.5963652669
 40
0.6279381527
 40
0.659452008
 40
0.6908968256
 40
0.7222633421
 40
0.7535431434
 40
0.7847287633
 40
0.8158137741
 40
0.8467928669
 40
0.8776619231
 40
0.908418073
 40
0.9390597422
 40
0.9695866846
 40
1.0
 40
1.0
 40
1.0
 40
1.0
 10
11.1470263088
 20
8.2140913265
 30
0.0
 10
11.1470263088
 20
8.2059187166
 30
0.0
 10
11.1474701329
 20
8.189539655
 30
0.0
 10
11.1494565785
 20
8.1650001956
 30
0.0
 10
11.152759169
 20
8.1405122363
 30
0.0
 10
11.1573680832
 20
8.1161483644
 30
0.0
 10
11.1632698447
 20
8.0919794677
 30
0.0
 10
11.1704471007
 20
8.0680762589
 30
0.0
 10
11.1788788357
 20
8.0445085482
 30
0.0
 10
11.18854035
 20
8.0213451932
 30
0.0
 10
11.1994033703
 20
7.9986538569
 30
0.0
 10
11.2114361164
 20
7.9765008224
 30
0.0
 10
11.2246034004
 20
7.9549507983
 30
0.0
 10
11.2388667268
 20
7.9340667313
 30
0.0
 10
11.2541844057
 20
7.9139096238
 30
0.0
 10
11.2705116736
 20
7.8945383562
 30
0.0
 10
11.2878008239
 20
7.8760095169
 30
0.0
 10
11.306001344
 20
7.8583772357
 30
0.0
 10
11.3250600638
 20
7.8416930281
 30
0.0
 10
11.34492131
 20
7.8260056454
 30
0.0
 10
11.3655270679
 20
7.8113609329
 30
0.0
 10
11.3868171497
 20
7.7978016969
 30
0.0
 10
11.4087293692
 20
7.7853675797
 30
0.0
 10
11.4311997226
 20
7.7740949445
 30
0.0
 10
11.4541625733
 20
7.7640167691
 30
0.0
 10
11.4775508432
 20
7.75516255
 30
0.0
 10
11.5012962062
 20
7.7475582156
 30
0.0
 10
11.5253292882
 20
7.7412260501
 30
0.0
 10
11.5495798607
 20
7.7361846277
 30
0.0
 10
11.5739770742
 20
7.7324487596
 30
0.0
 10
11.598449551
 20
7.7300294386
 30
0.0
 10
11.6229260125
 20
7.728933848
 30
0.0
 10
11.6473339266
 20
7.7291651737
 30
0.0
 10
11.6635447731
 20
7.730205776
 30
0.0
 10
11.6716129146
 20
7.7309473984
 30
0.0
  0
SPLINE
  5
363
100
AcDbEntity
  8
0
100
AcDbSpline
 62
7
  6
CONTINUOUS
 70
0
 71
3
 72
39
 73
35
 74
0
 42
0.0000001
 43
0.0000001
 44
0.0000000001
 40
0.0
 40
0.0
 40
0.0
 40
0.0
 40
0.0306705073
 40
0.0614546036
 40
0.0923496381
 40
0.1233529206
 40
0.1544598298
 40
0.1856649067
 40
0.2169615111
 40
0.2483420467
 40
0.2797980056
 40
0.3113200785
 40
0.3428982551
 40
0.3745219342
 40
0.4061800376
 40
0.4378611281
 40
0.4695535288
 40
0.5012454455
 40
0.5329250892
 40
0.5645807983
 40
0.5962011607
 40
0.6277751331
 40
0.6592921587
 40
0.6907422805
 40
0.7221162502
 40
0.7534056323
 40
0.7846029001
 40
0.8157015252
 40
0.8466960576
 40
0.8775821964
 40
0.9083568489
 40
0.9390181789
 40
0.9695656406
 40
1.0
 40
1.0
 40
1.0
 40
1.0
 10
11.1837686503
 20
8.2195817051
 30
0.0
 10
11.1837686503
 20
8.2119922621
 30
0.0
 10
11.1841775777
 20
8.1967821854
 30
0.0
 10
11.1860078953
 20
8.1739933813
 30
0.0
 10
11.189051047
 20
8.1512509816
 30
0.0
 10
11.1932980826
 20
8.1286213818
 30
0.0
 10
11.1987368068
 20
8.1061693751
 30
0.0
 10
11.2053514608
 20
8.0839596408
 30
0.0
 10
11.2131229851
 20
8.0620560323
 30
0.0
 10
11.2220289659
 20
8.0405215519
 30
0.0
 10
11.2320437473
 20
8.0194181274
 30
0.0
 10
11.2431384866
 20
7.9988064467
 30
0.0
 10
11.2552812443
 20
7.9787457821
 30
0.0
 10
11.268437071
 20
7.9592938202
 30
0.0
 10
11.2825681084
 20
7.9405064959
 30
0.0
 10
11.2976337006
 20
7.9224378348
 30
0.0
 10
11.3135905096
 20
7.9051397978
 30
0.0
 10
11.3303926399
 20
7.8886621334
 30
0.0
 10
11.3479917693
 20
7.8730522348
 30
0.0
 10
11.3663372875
 20
7.8583550049
 30
0.0
 10
11.3853764402
 20
7.8446127278
 30
0.0
 10
11.4050544802
 20
7.8318649474
 30
0.0
 10
11.4253148237
 20
7.8201483544
 30
0.0
 10
11.4460992115
 20
7.8094966813
 30
0.0
 10
11.4673478745
 20
7.7999406017
 30
0.0
 10
11.4889997057
 20
7.7915076445
 30
0.0
 10
11.5109924348
 20
7.784222116
 30
0.0
 10
11.5332628079
 20
7.7781050291
 30
0.0
 10
11.5557467601
 20
7.7731740425
 30
0.0
 10
11.5783796264
 20
7.7694434107
 30
0.0
 10
11.6010962229
 20
7.766923934
 30
0.0
 10
11.6238314167
 20
7.7656229579
 30
0.0
 10
11.6465188871
 20
7.7655442318
 30
0.0
 10
11.661598323
 20
7.7663083682
 30
0.0
 10
11.6691064768
 20
7.7668946337
 30
0.0
  0
SPLINE
  5
364
100
AcDbEntity
  8
0
100
AcDbSpline
 62
7
  6
CONTINUOUS
 70
0
 71
3
 72
8
 73
4
 74
0
 42
0.0000001
 43
0.0000001
 44
0.0000000001
 40
0.0
 40
0.0
 40
0.0
 40
0.0
 40
1.0
 40
1.0
 40
1.0
 40
1.0
 10
11.6691064768
 20
7.7668946337
 30
0.0
 10
11.6691341136
 20
7.7668967945
 30
0.0
 10
11.6691617504
 20
7.7668989553
 30
0.0
 10
11.6691893871
 20
7.766901116
 30
0.0
  0
SPLINE
  5
365
100
AcDbEntity
  8
0
100
AcDbSpline
 62
7
  6
CONTINUOUS
 70
0
 71
3
 72
23
 73
19
 74
0
 42
0.0000001
 43
0.0000001
 44
0.0000000001
 40
0.0
 40
0.0
 40
0.0
 40
0.0
 40
0.0620433451
 40
0.1242632334
 40
0.1866388041
 40
0.2491472183
 40
0.3117639583
 40
0.3744631447
 40
0.4372178672
 40
0.5000005227
 40
0.5627831606
 40
0.6255378306
 40
0.6882369303
 40
0.7508535504
 40
0.8133618136
 40
0.8757372039
 40
0.9379568845
 40
1.0
 40
1.0
 40
1.0
 40
1.0
 10
11.3736739925
 20
8.1809696532
 30
0.0
 10
11.3758030866
 20
8.1746680544
 30
0.0
 10
11.3804239904
 20
8.1621642786
 30
0.0
 10
11.38840242
 20
8.143803782
 30
0.0
 10
11.3974118922
 20
8.1258701697
 30
0.0
 10
11.407421098
 20
8.108425952
 30
0.0
 10
11.4183956179
 20
8.0915309438
 30
0.0
 10
11.4302976328
 20
8.0752433414
 30
0.0
 10
11.4430861634
 20
8.0596191792
 30
0.0
 10
11.4567171807
 20
8.044712231
 30
0.0
 10
11.4711437648
 20
8.0305738017
 30
0.0
 10
11.4863162641
 20
8.0172525575
 30
0.0
 10
11.5021824598
 20
8.0047943608
 30
0.0
 10
11.5186877684
 20
7.993242104
 30
0.0
 10
11.5357753364
 20
7.9826355963
 30
0.0
 10
11.5533865753
 20
7.9730113046
 30
0.0
 10
11.5714600959
 20
7.9644026824
 30
0.0
 10
11.5837965372
 20
7.9593521249
 30
0.0
 10
11.5900207106
 20
7.9570063783
 30
0.0
  0
SPLINE
  5
366
100
AcDbEntity
  8
0
100
AcDbSpline
 62
7
  6
CONTINUOUS
 70
0
 71
3
 72
23
 73
19
 74
0
 42
0.0000001
 43
0.0000001
 44
0.0000000001
 40
0.0
 40
0.0
 40
0.0
 40
0.0
 40
0.0637776914
 40
0.1273445726
 40
0.19070205
 40
0.2538561286
 40
0.3168131755
 40
0.3795820937
 40
0.4421733816
 40
0.5045993375
 40
0.566873868
 40
0.6290123843
 40
0.691031656
 40
0.7529496505
 40
0.8147853588
 40
0.8765586069
 40
0.938289857
 40
1.0
 40
1.0
 40
1.0
 40
1.0
 10
9.1556692991
 20
7.5755502965
 30
0.0
 10
9.1556692991
 20
7.5846533171
 30
0.0
 10
9.1561049701
 20
7.6028323555
 30
0.0
 10
9.1580715613
 20
7.6299903973
 30
0.0
 10
9.1613458127
 20
7.6569330675
 30
0.0
 10
9.1659201
 20
7.683597337
 30
0.0
 10
9.1717840447
 20
7.7099220645
 30
0.0
 10
9.1789241352
 20
7.7358464645
 30
0.0
 10
9.1873239981
 20
7.7613107946
 30
0.0
 10
9.1969643152
 20
7.7862563271
 30
0.0
 10
9.2078229173
 20
7.8106255311
 30
0.0
 10
9.2198748145
 20
7.8343621967
 30
0.0
 10
9.2330922495
 20
7.8574115664
 30
0.0
 10
9.2474447862
 20
7.8797204794
 30
0.0
 10
9.2628993034
 20
7.9012374211
 30
0.0
 10
9.2794203524
 20
7.921912923
 30
0.0
 10
9.29696919
 20
7.9416986366
 30
0.0
 10
9.3093289544
 20
7.9542678154
 30
0.0
 10
9.3156640818
 20
7.9603870954
 30
0.0
  0
SPLINE
  5
367
100
AcDbEntity
  8
0
100
AcDbSpline
 62
7
  6
CONTINUOUS
 70
0
 71
3
 72
25
 73
21
 74
0
 42
0.0000001
 43
0.0000001
 44
0.0000000001
 40
0.0
 40
0.0
 40
0.0
 40
0.0
 40
0.0307904021
 40
0.0616625058
 40
0.123627961
 40
0.1858806309
 40
0.2483846714
 40
0.3110978402
 40
0.3739726169
 40
0.4369574392
 40
0.4999980123
 40
0.5630386576
 40
0.6260236953
 40
0.6888988254
 40
0.7516124755
 40
0.8141171147
 40
0.8763704863
 40
0.9383367334
 40
0.9692092511
 40
1.0
 40
1.0
 40
1.0
 40
1.0
 10
11.2682903421
 20
8.2377119968
 30
0.0
 10
11.2691084235
 20
8.231860261
 30
0.0
 10
11.2709853035
 20
8.2201730272
 30
0.0
 10
11.2756908632
 20
8.1969152211
 30
0.0
 10
11.2833500611
 20
8.168119948
 30
0.0
 10
11.2952966928
 20
8.1342996778
 30
0.0
 10
11.3099296119
 20
8.101394016
 30
0.0
 10
11.327148245
 20
8.0696294879
 30
0.0
 10
11.346834606
 20
8.0392226635
 30
0.0
 10
11.36885395
 20
8.010381434
 30
0.0
 10
11.3930556864
 20
7.9833028776
 30
0.0
 10
11.4192742847
 20
7.9581720121
 30
0.0
 10
11.447330619
 20
7.935160732
 30
0.0
 10
11.4770329508
 20
7.9144263686
 30
0.0
 10
11.508178242
 20
7.8961108767
 30
0.0
 10
11.5405541415
 20
7.8803396835
 30
0.0
 10
11.5739377761
 20
7.8672212085
 30
0.0
 10
11.6024488904
 20
7.8585627352
 30
0.0
 10
11.6255287972
 20
7.8530491287
 30
0.0
 10
11.6371436319
 20
7.8507658896
 30
0.0
 10
11.6429633532
 20
7.8497442737
 30
0.0
  0
SPLINE
  5
368
100
AcDbEntity
  8
0
100
AcDbSpline
 62
7
  6
CONTINUOUS
 70
0
 71
3
 72
42
 73
38
 74
0
 42
0.0000001
 43
0.0000001
 44
0.0000000001
 40
0.0
 40
0.0
 40
0.0
 40
0.0
 40
0.0308786771
 40
0.0463714398
 40
0.0618975864
 40
0.0930456815
 40
0.124321266
 40
0.1557168355
 40
0.1872229388
 40
0.21882842
 40
0.2505205822
 40
0.2822854032
 40
0.3141077559
 40
0.3459716439
 40
0.3778604457
 40
0.4097571666
 40
0.441644693
 40
0.473506049
 40
0.5053246515
 40
0.5370845605
 40
0.5687707233
 40
0.6003692089
 40
0.6318674295
 40
0.6632543468
 40
0.6945206598
 40
0.7256589699
 40
0.7566639219
 40
0.7875323157
 40
0.818263187
 40
0.8488578526
 40
0.8641072064
 40
0.8793240529
 40
0.9096593863
 40
0.9398760386
 40
0.9549450806
 40
0.9699884159
 40
1.0
 40
1.0
 40
1.0
 40
1.0
 10
9.7598164548
 20
9.0552597848
 30
0.0
 10
9.7598164548
 20
9.0480902302
 30
0.0
 10
9.7601642166
 20
9.0373193943
 30
0.0
 10
9.7613144037
 20
9.0229921139
 30
0.0
 10
9.7629261617
 20
9.0086459468
 30
0.0
 10
9.765800819
 20
8.9907637793
 30
0.0
 10
9.7706033367
 20
8.9695021747
 30
0.0
 10
9.7767426736
 20
8.9485005028
 30
0.0
 10
9.7841932425
 20
8.9278462731
 30
0.0
 10
9.7929240946
 20
8.9076248795
 30
0.0
 10
9.802898983
 20
8.8879200934
 30
0.0
 10
9.8140765275
 20
8.8688134929
 30
0.0
 10
9.8264103828
 20
8.8503841898
 30
0.0
 10
9.8398494303
 20
8.8327084887
 30
0.0
 10
9.8543379888
 20
8.8158595781
 30
0.0
 10
9.8698160434
 20
8.7999072285
 30
0.0
 10
9.8862194924
 20
8.7849175066
 30
0.0
 10
9.9034804111
 20
8.7709525035
 30
0.0
 10
9.9215273301
 20
8.7580700789
 30
0.0
 10
9.9402855293
 20
8.7463236239
 30
0.0
 10
9.9596773446
 20
8.7357618401
 30
0.0
 10
9.9796224857
 20
8.7264285393
 30
0.0
 10
10.0000383657
 20
8.7183624619
 30
0.0
 10
10.0208404407
 20
8.7115971169
 30
0.0
 10
10.0419425507
 20
8.7061606411
 30
0.0
 10
10.0632572919
 20
8.7020756838
 30
0.0
 10
10.0846963059
 20
8.6993593009
 30
0.0
 10
10.1061708958
 20
8.6980229168
 30
0.0
 10
10.1275914511
 20
8.6980721403
 30
0.0
 10
10.1453444146
 20
8.6992693797
 30
0.0
 10
10.1594277515
 20
8.7009189095
 30
0.0
 10
10.1733896027
 20
8.7030223912
 30
0.0
 10
10.1906478608
 20
8.7065047863
 30
0.0
 10
10.2076025866
 20
8.7111212232
 30
0.0
 10
10.2209175352
 20
8.7154789562
 30
0.0
 10
10.2340327651
 20
8.7202664889
 30
0.0
 10
10.2436747856
 20
8.7243514243
 30
0.0
 10
10.2499945786
 20
8.7272868
 30
0.0
  0
SPLINE
  5
369
100
AcDbEntity
  8
0
100
AcDbSpline
 62
7
  6
CONTINUOUS
 70
0
 71
3
 72
15
 73
11
 74
0
 42
0.0000001
 43
0.0000001
 44
0.0000000001
 40
0.0
 40
0.0
 40
0.0
 40
0.0
 40
0.1265235248
 40
0.2525849456
 40
0.378187918
 40
0.5033485698
 40
0.6280844151
 40
0.752418023
 40
0.876380392
 40
1.0
 40
1.0
 40
1.0
 40
1.0
 10
9.7598164548
 20
9.0552597848
 30
0.0
 10
9.7598164548
 20
9.0611520057
 30
0.0
 10
9.7601285939
 20
9.0729173806
 30
0.0
 10
9.7615378909
 20
9.0904812792
 30
0.0
 10
9.763883633
 20
9.107881354
 30
0.0
 10
9.7671591001
 20
9.1250677251
 30
0.0
 10
9.7713552132
 20
9.1419919867
 30
0.0
 10
9.7764601426
 20
9.1586065159
 30
0.0
 10
9.7824593252
 20
9.1748635696
 30
0.0
 10
9.787050226
 20
9.1854478437
 30
0.0
 10
9.7894883034
 20
9.1906630767
 30
0.0
  0
SPLINE
  5
36A
100
AcDbEntity
  8
0
100
AcDbSpline
 62
7
  6
CONTINUOUS
 70
0
 71
3
 72
47
 73
43
 74
0
 42
0.0000001
 43
0.0000001
 44
0.0000000001
 40
0.0
 40
0.0
 40
0.0
 40
0.0
 40
0.0310616501
 40
0.0622791451
 40
0.0936479393
 40
0.1251596543
 40
0.1568031777
 40
0.1885646896
 40
0.2204279884
 40
0.2523748389
 40
0.2843853522
 40
0.3164383879
 40
0.3485119723
 40
0.3805837308
 40
0.4126313243
 40
0.4446328863
 40
0.4765674511
 40
0.5084153719
 40
0.5401587211
 40
0.5717816613
 40
0.6032707873
 40
0.6346154322
 40
0.6658079199
 40
0.6968437688
 40
0.7277218388
 40
0.7584444014
 40
0.7737517261
 40
0.78902259
 40
0.8042582261
 40
0.8194600639
 40
0.8346297281
 40
0.8497690289
 40
0.8648799487
 40
0.8799646373
 40
0.8950253983
 40
0.9100646734
 40
0.9250850327
 40
0.9400891591
 40
0.9550798302
 40
0.9700599045
 40
0.9850323053
 40
1.0
 40
1.0
 40
1.0
 40
1.0
 10
9.3445796196
 20
8.8991717779
 30
0.0
 10
9.3445796196
 20
8.8851731584
 30
0.0
 10
9.3456146418
 20
8.8570950989
 30
0.0
 10
9.3502361195
 20
8.815109126
 30
0.0
 10
9.3579048785
 20
8.7733634614
 30
0.0
 10
9.3685792839
 20
8.7320862623
 30
0.0
 10
9.3822012491
 20
8.6914994325
 30
0.0
 10
9.3986969677
 20
8.6518220535
 30
0.0
 10
9.4179772401
 20
8.6132680276
 30
0.0
 10
9.439937797
 20
8.5760451994
 30
0.0
 10
9.4644600392
 20
8.5403542289
 30
0.0
 10
9.4914116559
 20
8.5063875677
 30
0.0
 10
9.5206471866
 20
8.4743283099
 30
0.0
 10
9.552008958
 20
8.4443493276
 30
0.0
 10
9.5853279033
 20
8.416612362
 30
0.0
 10
9.6204243469
 20
8.3912670157
 30
0.0
 10
9.6571090938
 20
8.3684500937
 30
0.0
 10
9.6951844141
 20
8.3482848793
 30
0.0
 10
9.7344450073
 20
8.3308803072
 30
0.0
 10
9.7746792003
 20
8.316330544
 30
0.0
 10
9.8156700327
 20
8.3047144789
 30
0.0
 10
9.8571964092
 20
8.2960951202
 30
0.0
 10
9.8990341583
 20
8.2905194026
 30
0.0
 10
9.9409578759
 20
8.2880180319
 30
0.0
 10
9.9827396033
 20
8.2886046821
 30
0.0
 10
10.0172995895
 20
8.2916693845
 30
0.0
 10
10.0446420539
 20
8.2956584834
 30
0.0
 10
10.0649508119
 20
8.2994090097
 30
0.0
 10
10.0850560956
 20
8.3039165436
 30
0.0
 10
10.1049310833
 20
8.3091750909
 30
0.0
 10
10.1245488247
 20
8.3151774941
 30
0.0
 10
10.143882832
 20
8.3219156509
 30
0.0
 10
10.1629069362
 20
8.3293805314
 30
0.0
 10
10.1815954403
 20
8.3375619987
 30
0.0
 10
10.199923082
 20
8.3464489998
 30
0.0
 10
10.2178650492
 20
8.3560295937
 30
0.0
 10
10.235397108
 20
8.3662907798
 30
0.0
 10
10.2524955642
 20
8.3772186949
 30
0.0
 10
10.2691372369
 20
8.3887986088
 30
0.0
 10
10.2852997366
 20
8.401014895
 30
0.0
 10
10.30096092
 20
8.4138507487
 30
0.0
 10
10.311054998
 20
8.4228110249
 30
0.0
 10
10.3160105253
 20
8.4273875765
 30
0.0
  0
SPLINE
  5
36B
100
AcDbEntity
  8
0
100
AcDbSpline
 62
7
  6
CONTINUOUS
 70
0
 71
3
 72
23
 73
19
 74
0
 42
0.0000001
 43
0.0000001
 44
0.0000000001
 40
0.0
 40
0.0
 40
0.0
 40
0.0
 40
0.0637577642
 40
0.1273108955
 40
0.1906598092
 40
0.253810626
 40
0.3167689817
 40
0.3795431359
 40
0.4421427615
 40
0.5045792035
 40
0.5668653168
 40
0.6290153629
 40
0.6910448889
 40
0.7529705844
 40
0.81481013
 40
0.8765820313
 40
0.9383054459
 40
1.0
 40
1.0
 40
1.0
 40
1.0
 10
9.3445796196
 20
8.8991717779
 30
0.0
 10
9.3445796196
 20
8.9080273959
 30
0.0
 10
9.3449919517
 20
8.9257130486
 30
0.0
 10
9.346853016
 20
8.9521385848
 30
0.0
 10
9.3499518238
 20
8.9783635152
 30
0.0
 10
9.3542814787
 20
9.0043297242
 30
0.0
 10
9.3598327285
 20
9.0299809221
 30
0.0
 10
9.3665934516
 20
9.0552610404
 30
0.0
 10
9.374548989
 20
9.0801149561
 30
0.0
 10
9.383682026
 20
9.1044884289
 30
0.0
 10
9.3939726764
 20
9.1283282742
 30
0.0
 10
9.4053985269
 20
9.1515824637
 30
0.0
 10
9.417934679
 20
9.1742002383
 30
0.0
 10
9.4315538226
 20
9.1961322365
 30
0.0
 10
9.4462262236
 20
9.2173305347
 30
0.0
 10
9.4619200489
 20
9.2377490097
 30
0.0
 10
9.4786004571
 20
9.257342491
 30
0.0
 10
9.4903571553
 20
9.2698293684
 30
0.0
 10
9.4963855063
 20
9.275919326
 30
0.0
  0
SPLINE
  5
36C
100
AcDbEntity
  8
0
100
AcDbSpline
 62
7
  6
CONTINUOUS
 70
0
 71
3
 72
39
 73
35
 74
0
 42
0.0000001
 43
0.0000001
 44
0.0000000001
 40
0.0
 40
0.0
 40
0.0
 40
0.0
 40
0.0318885855
 40
0.0636724216
 40
0.0953509888
 40
0.1269280693
 40
0.158406597
 40
0.1897910483
 40
0.2210866955
 40
0.2522996701
 40
0.2834369354
 40
0.314506194
 40
0.3455158296
 40
0.3764748262
 40
0.4073926802
 40
0.4382793054
 40
0.4691449324
 40
0.5000000054
 40
0.5308550773
 40
0.5617207024
 40
0.592607327
 40
0.6235251824
 40
0.65448418
 40
0.6854938144
 40
0.7165630703
 40
0.7477003337
 40
0.7789133109
 40
0.8102089556
 40
0.8415934087
 40
0.8730719466
 40
0.904648937
 40
0.9363278032
 40
0.9681109992
 40
1.0
 40
1.0
 40
1.0
 40
1.0
 10
9.523275908
 20
8.8867791482
 30
0.0
 10
9.523275908
 20
8.893027799
 30
0.0
 10
9.5235749929
 20
8.9055066922
 30
0.0
 10
9.5249249155
 20
8.9241491261
 30
0.0
 10
9.5271725405
 20
8.9426437723
 30
0.0
 10
9.5303125074
 20
8.9609472422
 30
0.0
 10
9.5343377783
 20
8.9790176646
 30
0.0
 10
9.539239069
 20
8.9968132712
 30
0.0
 10
9.5450051177
 20
9.0142930641
 30
0.0
 10
9.551622664
 20
9.0314167335
 30
0.0
 10
9.5590764838
 20
9.048144789
 30
0.0
 10
9.5673494369
 20
9.0644386403
 30
0.0
 10
9.5764224815
 20
9.0802606945
 30
0.0
 10
9.5862746991
 20
9.0955744596
 30
0.0
 10
9.5968833833
 20
9.1103446089
 30
0.0
 10
9.6082240828
 20
9.1245370653
 30
0.0
 10
9.620270663
 20
9.1381190741
 30
0.0
 10
9.632995345
 20
9.1510592965
 30
0.0
 10
9.6463687645
 20
9.1633278953
 30
0.0
 10
9.66036007
 20
9.1748965765
 30
0.0
 10
9.6749369866
 20
9.1857386601
 30
0.0
 10
9.690065895
 20
9.1958291335
 30
0.0
 10
9.7057118885
 20
9.2051447386
 30
0.0
 10
9.7218388612
 20
9.2136640258
 30
0.0
 10
9.7384096095
 20
9.2213673751
 30
0.0
 10
9.7553859123
 20
9.2282370478
 30
0.0
 10
9.7727286208
 20
9.2342572172
 30
0.0
 10
9.7903977357
 20
9.2394140448
 30
0.0
 10
9.8083525066
 20
9.2436956954
 30
0.0
 10
9.8265515497
 20
9.247092341
 30
0.0
 10
9.844952875
 20
9.2495961902
 30
0.0
 10
9.8635142225
 20
9.2512014912
 30
0.0
 10
9.8821922514
 20
9.2519046139
 30
0.0
 10
9.8946739704
 20
9.2517710539
 30
0.0
 10
9.9009189493
 20
9.2515545073
 30
0.0
  0
SPLINE
  5
36D
100
AcDbEntity
  8
0
100
AcDbSpline
 62
7
  6
CONTINUOUS
 70
0
 71
3
 72
39
 73
35
 74
0
 42
0.0000001
 43
0.0000001
 44
0.0000000001
 40
0.0
 40
0.0
 40
0.0
 40
0.0
 40
0.0319062805
 40
0.0637105901
 40
0.0954117988
 40
0.1270137782
 40
0.1585192017
 40
0.1899321915
 40
0.221257697
 40
0.2525014161
 40
0.2836698443
 40
0.3147701765
 40
0.3458102584
 40
0.3767985115
 40
0.4077438524
 40
0.4386556108
 40
0.4695434442
 40
0.5004172436
 40
0.5312870354
 40
0.5621628828
 40
0.593054791
 40
0.6239726112
 40
0.654925943
 40
0.6859240398
 40
0.7169757222
 40
0.7480892998
 40
0.7792724928
 40
0.8105323597
 40
0.8418752345
 40
0.8733066788
 40
0.9048314366
 40
0.9364533942
 40
0.9681755495
 40
1.0
 40
1.0
 40
1.0
 40
1.0
 10
9.5802160762
 20
8.9123047192
 30
0.0
 10
9.5802160762
 20
8.9179581516
 30
0.0
 10
9.5804801277
 20
8.9292487709
 30
0.0
 10
9.5816718048
 20
8.9461186287
 30
0.0
 10
9.5836560979
 20
8.9628598621
 30
0.0
 10
9.586428463
 20
8.9794350271
 30
0.0
 10
9.5899830177
 20
8.9958080633
 30
0.0
 10
9.5943119319
 20
9.0119429382
 30
0.0
 10
9.5994057249
 20
9.0278042658
 30
0.0
 10
9.6052532607
 20
9.0433572259
 30
0.0
 10
9.6118417556
 20
9.0585676599
 30
0.0
 10
9.6191567656
 20
9.073402172
 30
0.0
 10
9.6271822368
 20
9.087828196
 30
0.0
 10
9.6359005719
 20
9.1018140519
 30
0.0
 10
9.6452926683
 20
9.1153290091
 30
0.0
 10
9.6553379172
 20
9.128343381
 30
0.0
 10
9.6660142497
 20
9.1408286003
 30
0.0
 10
9.677298229
 20
9.1527572485
 30
0.0
 10
9.6891650948
 20
9.1641031154
 30
0.0
 10
9.7015887957
 20
9.1748412756
 30
0.0
 10
9.7145420269
 20
9.1849481755
 30
0.0
 10
9.7279963394
 20
9.1944016332
 30
0.0
 10
9.7419221927
 20
9.2031808908
 30
0.0
 10
9.7562890123
 20
9.2112666659
 30
0.0
 10
9.7710652292
 20
9.2186412503
 30
0.0
 10
9.7862183926
 20
9.2252884821
 30
0.0
 10
9.8017152336
 20
9.2311937862
 30
0.0
 10
9.8175217363
 20
9.2363442004
 30
0.0
 10
9.8336031869
 20
9.2407284751
 30
0.0
 10
9.8499242928
 20
9.2443370317
 30
0.0
 10
9.8664492013
 20
9.2471619795
 30
0.0
 10
9.8831417839
 20
9.2491971276
 30
0.0
 10
9.8999649209
 20
9.2504380524
 30
0.0
 10
9.9112257323
 20
9.2507336233
 30
0.0
 10
9.9168646442
 20
9.2507490614
 30
0.0
  0
SPLINE
  5
36E
100
AcDbEntity
  8
0
100
AcDbSpline
 62
7
  6
CONTINUOUS
 70
0
 71
3
 72
14
 73
10
 74
0
 42
0.0000001
 43
0.0000001
 44
0.0000000001
 40
0.0
 40
0.0
 40
0.0
 40
0.0
 40
0.2444799873
 40
0.3657503925
 40
0.4874669541
 40
0.6106385738
 40
0.7363453105
 40
0.8657327774
 40
1.0
 40
1.0
 40
1.0
 40
1.0
 10
9.7894883034
 20
9.1906630767
 30
0.0
 10
9.7890389041
 20
9.1909169785
 30
0.0
 10
9.788395085
 20
9.1913525059
 30
0.0
 10
9.787628763
 20
9.1920411796
 30
0.0
 10
9.7871041372
 20
9.1926106714
 30
0.0
 10
9.7866311373
 20
9.1932354493
 30
0.0
 10
9.7862124734
 20
9.1939170346
 30
0.0
 10
9.7858513859
 20
9.1946568745
 30
0.0
 10
9.7856552482
 20
9.1951788276
 30
0.0
 10
9.7855674263
 20
9.1954483558
 30
0.0
  0
SPLINE
  5
36F
100
AcDbEntity
  8
0
100
AcDbSpline
 62
7
  6
CONTINUOUS
 70
0
 71
3
 72
23
 73
19
 74
0
 42
0.0000001
 43
0.0000001
 44
0.0000000001
 40
0.0
 40
0.0
 40
0.0
 40
0.0
 40
0.0637769127
 40
0.127344953
 40
0.1907019652
 40
0.2538561227
 40
0.3168132057
 40
0.3795820872
 40
0.4421733866
 40
0.5045993385
 40
0.5668738691
 40
0.6290123824
 40
0.6910316505
 40
0.7529496453
 40
0.8147853569
 40
0.8765586065
 40
0.9382898561
 40
1.0
 40
1.0
 40
1.0
 40
1.0
 10
9.6176021297
 20
8.9178912872
 30
0.0
 10
9.6176021297
 20
8.9232141921
 30
0.0
 10
9.6178569148
 20
8.9338443724
 30
0.0
 10
9.6190068361
 20
8.949724969
 30
0.0
 10
9.6209214876
 20
8.965479692
 30
0.0
 10
9.6235962681
 20
8.9810715344
 30
0.0
 10
9.6270252144
 20
8.99646486
 30
0.0
 10
9.6312003959
 20
9.011624084
 30
0.0
 10
9.6361122085
 20
9.0265142839
 30
0.0
 10
9.6417493706
 20
9.0411011222
 30
0.0
 10
9.6480989334
 20
9.055350947
 30
0.0
 10
9.6551462835
 20
9.0692308895
 30
0.0
 10
9.6628751692
 20
9.0827089405
 30
0.0
 10
9.6712677941
 20
9.0957540163
 30
0.0
 10
9.6803048078
 20
9.1083359828
 30
0.0
 10
9.6899654905
 20
9.1204259039
 30
0.0
 10
9.7002271673
 20
9.1319955212
 30
0.0
 10
9.7074545199
 20
9.1393453097
 30
0.0
 10
9.7111589832
 20
9.1429235314
 30
0.0
  0
SPLINE
  5
370
100
AcDbEntity
  8
0
100
AcDbSpline
 62
7
  6
CONTINUOUS
 70
0
 71
3
 72
37
 73
33
 74
0
 42
0.0000001
 43
0.0000001
 44
0.0000000001
 40
0.0
 40
0.0
 40
0.0
 40
0.0
 40
0.0063161056
 40
0.0126711335
 40
0.0191032106
 40
0.0256489991
 40
0.0392093745
 40
0.0536077711
 40
0.0690451722
 40
0.0856788319
 40
0.1036274206
 40
0.1229778506
 40
0.1437911075
 40
0.1661074541
 40
0.1899507493
 40
0.2153311921
 40
0.2422480356
 40
0.270691432
 40
0.3006435247
 40
0.3320799515
 40
0.3649704769
 40
0.399279593
 40
0.4349674002
 40
0.4719897169
 40
0.5102986224
 40
0.5498429193
 40
0.590568095
 40
0.6324168879
 40
0.7192412156
 40
0.8098111096
 40
0.903585601
 40
1.0
 40
1.0
 40
1.0
 40
1.0
 10
12.11420618
 20
7.3610708957
 30
0.0
 10
12.114708164
 20
7.3610360791
 30
0.0
 10
12.1157128553
 20
7.3609251407
 30
0.0
 10
12.1172086146
 20
7.3606359685
 30
0.0
 10
12.1186944214
 20
7.3602240482
 30
0.0
 10
12.1206839547
 20
7.3595034181
 30
0.0
 10
12.1231560682
 20
7.3582782481
 30
0.0
 10
12.1260291712
 20
7.3563397735
 30
0.0
 10
12.1288421669
 20
7.3539217421
 30
0.0
 10
12.1315919463
 20
7.3510296699
 30
0.0
 10
12.1342760665
 20
7.3476686754
 30
0.0
 10
12.1368913748
 20
7.3438440647
 30
0.0
 10
12.1394345052
 20
7.3395617209
 30
0.0
 10
12.1419018627
 20
7.3348282412
 30
0.0
 10
12.144289681
 20
7.3296509765
 30
0.0
 10
12.146594253
 20
7.324038112
 30
0.0
 10
12.1488118781
 20
7.3179986009
 30
0.0
 10
12.1509389145
 20
7.3115421571
 30
0.0
 10
12.1529719037
 20
7.3046792498
 30
0.0
 10
12.1549074619
 20
7.2974210452
 30
0.0
 10
12.1567423707
 20
7.2897793983
 30
0.0
 10
12.1584736073
 20
7.2817668264
 30
0.0
 10
12.1600982597
 20
7.2733964717
 30
0.0
 10
12.161613634
 20
7.2646820878
 30
0.0
 10
12.1630172191
 20
7.2556380058
 30
0.0
 10
12.1643066405
 20
7.2462791135
 30
0.0
 10
12.1654798019
 20
7.2366208096
 30
0.0
 10
12.1669037574
 20
7.2232001281
 30
0.0
 10
12.1683677937
 20
7.2057925544
 30
0.0
 10
12.1696150107
 20
7.1842229786
 30
0.0
 10
12.1703647049
 20
7.1618661334
 30
0.0
 10
12.1705274168
 20
7.146713624
 30
0.0
 10
12.1705274168
 20
7.1390325055
 30
0.0
  0
SPLINE
  5
371
100
AcDbEntity
  8
0
100
AcDbSpline
 62
7
  6
CONTINUOUS
 70
0
 71
3
 72
71
 73
67
 74
0
 42
0.0000001
 43
0.0000001
 44
0.0000000001
 40
0.0
 40
0.0
 40
0.0
 40
0.0
 40
0.0156373091
 40
0.0313279441
 40
0.047070274
 40
0.0628636381
 40
0.078706082
 40
0.0945954866
 40
0.1105292303
 40
0.1265042948
 40
0.1425172941
 40
0.1585644989
 40
0.1746418765
 40
0.1907451255
 40
0.2068697168
 40
0.2230109349
 40
0.2391639194
 40
0.2553237067
 40
0.2714852734
 40
0.2876435805
 40
0.303793618
 40
0.3199304487
 40
0.3360492499
 40
0.352145356
 40
0.3682143008
 40
0.3842518584
 40
0.4002540817
 40
0.4162173386
 40
0.4321383463
 40
0.4480142041
 40
0.4638424239
 40
0.4796209569
 40
0.4953482152
 40
0.5110230909
 40
0.5266449715
 40
0.542213752
 40
0.5577298409
 40
0.5731941611
 40
0.5886081449
 40
0.6039737253
 40
0.6192933221
 40
0.6345698229
 40
0.6498065561
 40
0.6650072607
 40
0.6801760497
 40
0.6953173703
 40
0.7104359595
 40
0.7255367956
 40
0.7406250456
 40
0.7557060104
 40
0.7707850684
 40
0.7858676182
 40
0.8009590217
 40
0.8160645466
 40
0.8311893099
 40
0.846338224
 40
0.8615159451
 40
0.8767268271
 40
0.8919748765
 40
0.9072637177
 40
0.9225965501
 40
0.9379761169
 40
0.9534047581
 40
0.9688840326
 40
0.9844158132
 40
1.0
 40
1.0
 40
1.0
 40
1.0
 10
9.523275908
 20
8.8867791482
 30
0.0
 10
9.523275908
 20
8.8803679801
 30
0.0
 10
9.5235918058
 20
8.8675215979
 30
0.0
 10
9.5250063741
 20
8.8482678503
 30
0.0
 10
9.5273592206
 20
8.8290412513
 30
0.0
 10
9.530644425
 20
8.8098888982
 30
0.0
 10
9.5348541837
 20
8.7908565851
 30
0.0
 10
9.5399782721
 20
8.7719902437
 30
0.0
 10
9.5460043346
 20
8.7533352621
 30
0.0
 10
9.5529178174
 20
8.7349365494
 30
0.0
 10
9.5607020461
 20
8.7168383886
 30
0.0
 10
9.5693382607
 20
8.6990843405
 30
0.0
 10
9.5788056605
 20
8.681717141
 30
0.0
 10
9.589081442
 20
8.6647785932
 30
0.0
 10
9.6001408417
 20
8.648309457
 30
0.0
 10
9.6119572238
 20
8.632349367
 30
0.0
 10
9.6245021379
 20
8.6169367357
 30
0.0
 10
9.637745388
 20
8.6021086638
 30
0.0
 10
9.651655103
 20
8.5879008526
 30
0.0
 10
9.6661977902
 20
8.5743474938
 30
0.0
 10
9.6813384414
 20
8.5614812091
 30
0.0
 10
9.6970406158
 20
8.5493329738
 30
0.0
 10
9.7132665249
 20
8.5379320419
 30
0.0
 10
9.7299771254
 20
8.5273058818
 30
0.0
 10
9.7471321953
 20
8.5174800842
 30
0.0
 10
9.7646904407
 20
8.5084783102
 30
0.0
 10
9.7826096026
 20
8.5003222486
 30
0.0
 10
9.8008465534
 20
8.4930315612
 30
0.0
 10
9.8193574009
 20
8.4866238395
 30
0.0
 10
9.838097587
 20
8.481114548
 30
0.0
 10
9.8570219932
 20
8.4765169718
 30
0.0
 10
9.8760850586
 20
8.472842214
 30
0.0
 10
9.8952408846
 20
8.4700991643
 30
0.0
 10
9.9144433444
 20
8.4682944786
 30
0.0
 10
9.9336461915
 20
8.4674325618
 30
0.0
 10
9.9528031705
 20
8.4675155221
 30
0.0
 10
9.9718681325
 20
8.4685431992
 30
0.0
 10
9.9907951435
 20
8.4705131639
 30
0.0
 10
10.0095385934
 20
8.4734207218
 30
0.0
 10
10.0280533034
 20
8.4772589285
 30
0.0
 10
10.0462946416
 20
8.4820185736
 30
0.0
 10
10.0642186318
 20
8.4876882161
 30
0.0
 10
10.081782055
 20
8.4942542275
 30
0.0
 10
10.0989425539
 20
8.5017008181
 30
0.0
 10
10.1156587322
 20
8.5100100778
 30
0.0
 10
10.1318902624
 20
8.5191620036
 30
0.0
 10
10.1475979946
 20
8.5291345349
 30
0.0
 10
10.162744037
 20
8.5399036363
 30
0.0
 10
10.1772918496
 20
8.5514433493
 30
0.0
 10
10.1912063319
 20
8.5637258558
 30
0.0
 10
10.2044539074
 20
8.5767215438
 30
0.0
 10
10.2170026318
 20
8.5903990548
 30
0.0
 10
10.2288222488
 20
8.6047253886
 30
0.0
 10
10.2398842614
 20
8.6196659827
 30
0.0
 10
10.2501620019
 20
8.6351847952
 30
0.0
 10
10.2596306897
 20
8.6512443943
 30
0.0
 10
10.2682675206
 20
8.6678060325
 30
0.0
 10
10.2760517088
 20
8.6848297532
 30
0.0
 10
10.2829645244
 20
8.7022744951
 30
0.0
 10
10.2889893366
 20
8.7200981904
 30
0.0
 10
10.2941116484
 20
8.7382578578
 30
0.0
 10
10.2983191735
 20
8.7567097441
 30
0.0
 10
10.3016017653
 20
8.7754092602
 30
0.0
 10
10.3039517097
 20
8.7943116523
 30
0.0
 10
10.305363176
 20
8.813370582
 30
0.0
 10
10.3056758737
 20
8.8261301379
 30
0.0
 10
10.3056758737
 20
8.8325195263
 30
0.0
  0
SPLINE
  5
372
100
AcDbEntity
  8
0
100
AcDbSpline
 62
7
  6
CONTINUOUS
 70
0
 71
3
 72
37
 73
33
 74
0
 42
0.0000001
 43
0.0000001
 44
0.0000000001
 40
0.0
 40
0.0
 40
0.0
 40
0.0
 40
0.0063161056
 40
0.0126711335
 40
0.0191032106
 40
0.0256489991
 40
0.0392093745
 40
0.0536077711
 40
0.0690451722
 40
0.0856788319
 40
0.1036274206
 40
0.1229778506
 40
0.1437911075
 40
0.1661074541
 40
0.1899507493
 40
0.2153311921
 40
0.2422480356
 40
0.270691432
 40
0.3006435247
 40
0.3320799515
 40
0.3649704769
 40
0.399279593
 40
0.4349674002
 40
0.4719897169
 40
0.5102986224
 40
0.5498429193
 40
0.590568095
 40
0.6324168879
 40
0.7192412156
 40
0.8098111096
 40
0.903585601
 40
1.0
 40
1.0
 40
1.0
 40
1.0
 10
12.11420618
 20
9.0514410767
 30
0.0
 10
12.114708164
 20
9.0514062601
 30
0.0
 10
12.1157128553
 20
9.0512953217
 30
0.0
 10
12.1172086146
 20
9.0510061495
 30
0.0
 10
12.1186944214
 20
9.0505942292
 30
0.0
 10
12.1206839547
 20
9.0498735991
 30
0.0
 10
12.1231560682
 20
9.0486484291
 30
0.0
 10
12.1260291712
 20
9.0467099545
 30
0.0
 10
12.1288421669
 20
9.0442919232
 30
0.0
 10
12.1315919463
 20
9.0413998509
 30
0.0
 10
12.1342760665
 20
9.0380388564
 30
0.0
 10
12.1368913748
 20
9.0342142457
 30
0.0
 10
12.1394345052
 20
9.029931902
 30
0.0
 10
12.1419018627
 20
9.0251984222
 30
0.0
 10
12.144289681
 20
9.0200211575
 30
0.0
 10
12.146594253
 20
9.014408293
 30
0.0
 10
12.1488118781
 20
9.0083687819
 30
0.0
 10
12.1509389145
 20
9.0019123381
 30
0.0
 10
12.1529719037
 20
8.9950494308
 30
0.0
 10
12.1549074619
 20
8.9877912262
 30
0.0
 10
12.1567423707
 20
8.9801495793
 30
0.0
 10
12.1584736073
 20
8.9721370075
 30
0.0
 10
12.1600982597
 20
8.9637666528
 30
0.0
 10
12.161613634
 20
8.9550522688
 30
0.0
 10
12.1630172191
 20
8.9460081868
 30
0.0
 10
12.1643066405
 20
8.9366492945
 30
0.0
 10
12.1654798019
 20
8.9269909906
 30
0.0
 10
12.1669037574
 20
8.9135703092
 30
0.0
 10
12.1683677937
 20
8.8961627354
 30
0.0
 10
12.1696150107
 20
8.8745931596
 30
0.0
 10
12.1703647049
 20
8.8522363144
 30
0.0
 10
12.1705274168
 20
8.8370838051
 30
0.0
 10
12.1705274168
 20
8.8294026865
 30
0.0
  0
SPLINE
  5
373
100
AcDbEntity
  8
0
100
AcDbSpline
 62
7
  6
CONTINUOUS
 70
0
 71
3
 72
40
 73
36
 74
0
 42
0.0000001
 43
0.0000001
 44
0.0000000001
 40
0.0
 40
0.0
 40
0.0
 40
0.0
 40
0.0299422961
 40
0.0599089687
 40
0.0899238004
 40
0.1200094052
 40
0.1350882586
 40
0.1501924643
 40
0.1804801427
 40
0.2108943138
 40
0.2414481167
 40
0.2721514658
 40
0.3030108714
 40
0.3340293444
 40
0.3652063826
 40
0.3965380347
 40
0.4280170359
 40
0.4596330083
 40
0.4913727179
 40
0.5232203813
 40
0.5551580145
 40
0.5871658159
 40
0.6192225759
 40
0.6513061084
 40
0.6833936952
 40
0.7154625379
 40
0.7474902107
 40
0.7794551093
 40
0.8113368809
 40
0.8431168638
 40
0.8747784102
 40
0.9063074674
 40
0.9376922747
 40
0.9689251908
 40
1.0
 40
1.0
 40
1.0
 40
1.0
 10
10.0540993173
 20
7.6795760856
 30
0.0
 10
10.0520256108
 20
7.6775730356
 30
0.0
 10
10.0477151428
 20
7.6737286009
 30
0.0
 10
10.0408090386
 20
7.6684912035
 30
0.0
 10
10.0334981314
 20
7.6638094142
 30
0.0
 10
10.0271059103
 20
7.6603947685
 30
0.0
 10
10.0218341024
 20
7.6579656525
 30
0.0
 10
10.0164533685
 20
7.6557370563
 30
0.0
 10
10.0095501384
 20
7.6533406784
 30
0.0
 10
10.0010429442
 20
7.6511073078
 30
0.0
 10
9.9923501189
 20
7.6495251276
 30
0.0
 10
9.9835198361
 20
7.648602866
 30
0.0
 10
9.9746006034
 20
7.6483454437
 30
0.0
 10
9.9656414971
 20
7.6487541702
 30
0.0
 10
9.9566917586
 20
7.6498266841
 30
0.0
 10
9.9478005626
 20
7.6515569865
 30
0.0
 10
9.9390167407
 20
7.6539354746
 30
0.0
 10
9.9303885191
 20
7.6569489979
 30
0.0
 10
9.9219632572
 20
7.6605809327
 30
0.0
 10
9.9137871914
 20
7.6648112748
 30
0.0
 10
9.9059051851
 20
7.6696167491
 30
0.0
 10
9.898360486
 20
7.6749709378
 30
0.0
 10
9.8911944913
 20
7.6808444245
 30
0.0
 10
9.884446523
 20
7.6872049532
 30
0.0
 10
9.8781536135
 20
7.6940176045
 30
0.0
 10
9.8723503061
 20
7.7012449868
 30
0.0
 10
9.8670684667
 20
7.7088474389
 30
0.0
 10
9.862337112
 20
7.7167832453
 30
0.0
 10
9.8581822459
 20
7.7250088633
 30
0.0
 10
9.8546267333
 20
7.7334791538
 30
0.0
 10
9.8516901355
 20
7.7421476498
 30
0.0
 10
9.8493886912
 20
7.7509667102
 30
0.0
 10
9.8477350516
 20
7.7598881313
 30
0.0
 10
9.8467384931
 20
7.7688622175
 30
0.0
 10
9.8465152649
 20
7.7748641118
 30
0.0
 10
9.8465152649
 20
7.7778562963
 30
0.0
  0
SPLINE
  5
374
100
AcDbEntity
  8
0
100
AcDbSpline
 62
7
  6
CONTINUOUS
 70
0
 71
3
 72
47
 73
43
 74
0
 42
0.0000001
 43
0.0000001
 44
0.0000000001
 40
0.0
 40
0.0
 40
0.0
 40
0.0
 40
0.0150464936
 40
0.0301182317
 40
0.0452177489
 40
0.0603474
 40
0.0906994159
 40
0.1211952617
 40
0.136503744
 40
0.1518520474
 40
0.1672409609
 40
0.1826710278
 40
0.213649781
 40
0.244793543
 40
0.2760977839
 40
0.3075542403
 40
0.339151158
 40
0.3708736033
 40
0.4027038373
 40
0.4346217388
 40
0.4666052657
 40
0.4986309472
 40
0.5306743989
 40
0.5627108536
 40
0.5947156948
 40
0.6266649891
 40
0.6585360099
 40
0.6903077406
 40
0.7219613502
 40
0.7534806338
 40
0.7848524098
 40
0.81606686
 40
0.831615863
 40
0.8471235366
 40
0.8625897055
 40
0.8780144541
 40
0.908735299
 40
0.9392975624
 40
0.954524933
 40
0.9697165192
 40
0.9848748805
 40
1.0
 40
1.0
 40
1.0
 40
1.0
 10
10.2563675403
 20
8.7406358867
 30
0.0
 10
10.2527445726
 20
8.738788409
 30
0.0
 10
10.2454157943
 20
8.7352387227
 30
0.0
 10
10.2342050595
 20
8.730363732
 30
0.0
 10
10.2227838217
 20
8.7259409882
 30
0.0
 10
10.2072838529
 20
8.7206508774
 30
0.0
 10
10.1874598715
 20
8.7152019939
 30
0.0
 10
10.1672165104
 20
8.7113479596
 30
0.0
 10
10.1508211935
 20
8.7092253031
 30
0.0
 10
10.1384220831
 20
8.7081148901
 30
0.0
 10
10.1259561646
 20
8.7074900925
 30
0.0
 10
10.1092507603
 20
8.7073052512
 30
0.0
 10
10.0882901636
 20
8.7082961125
 30
0.0
 10
10.0632086869
 20
8.7114234821
 30
0.0
 10
10.0383100658
 20
8.7164716679
 30
0.0
 10
10.0137440027
 20
8.7234102311
 30
0.0
 10
9.9896568752
 20
8.7321974691
 30
0.0
 10
9.9661924991
 20
8.7427806598
 30
0.0
 10
9.9434908472
 20
8.7550964096
 30
0.0
 10
9.9216873548
 20
8.7690710489
 30
0.0
 10
9.900912098
 20
8.7846210709
 30
0.0
 10
9.8812890192
 20
8.8016535961
 30
0.0
 10
9.8629351809
 20
8.8200669174
 30
0.0
 10
9.8459601077
 20
8.8397511395
 30
0.0
 10
9.830465138
 20
8.8605888168
 30
0.0
 10
9.8165428262
 20
8.8824556437
 30
0.0
 10
9.8042763467
 20
8.9052211501
 30
0.0
 10
9.7937390494
 20
8.928749539
 30
0.0
 10
9.7849940262
 20
8.9529003614
 30
0.0
 10
9.7780937271
 20
8.9775297741
 30
0.0
 10
9.7730796566
 20
9.0024897638
 30
0.0
 10
9.770494737
 20
9.023472104
 30
0.0
 10
9.769398429
 20
9.040270665
 30
0.0
 10
9.7690620399
 20
9.0528437602
 30
0.0
 10
9.7692112251
 20
9.0653869114
 30
0.0
 10
9.7700557639
 20
9.0820216529
 30
0.0
 10
9.7723181797
 20
9.102653502
 30
0.0
 10
9.7761911257
 20
9.1229907804
 30
0.0
 10
9.7802386178
 20
9.1389721196
 30
0.0
 10
9.7837397994
 20
9.1507865644
 30
0.0
 10
9.7877045593
 20
9.1624240351
 30
0.0
 10
9.7906559632
 20
9.1700613908
 30
0.0
 10
9.7922067377
 20
9.1738439124
 30
0.0
  0
SPLINE
  5
375
100
AcDbEntity
  8
0
100
AcDbSpline
 62
7
  6
CONTINUOUS
 70
0
 71
3
 72
71
 73
67
 74
0
 42
0.0000001
 43
0.0000001
 44
0.0000000001
 40
0.0
 40
0.0
 40
0.0
 40
0.0
 40
0.0156364544
 40
0.0313256679
 40
0.0470658473
 40
0.0628564886
 40
0.0786956805
 40
0.0945813743
 40
0.1105110543
 40
0.126481806
 40
0.1424903655
 40
0.1585331326
 40
0.17460621
 40
0.190705439
 40
0.2068264375
 40
0.222964637
 40
0.2391153215
 40
0.2552736682
 40
0.2714347903
 40
0.2875937785
 40
0.3037457403
 40
0.3198858422
 40
0.336009352
 40
0.3521116799
 40
0.3681884171
 40
0.3842353733
 40
0.4002486148
 40
0.416224502
 40
0.4321597221
 40
0.448051319
 40
0.4638967224
 40
0.4796937756
 40
0.4954407594
 40
0.51113641
 40
0.5267799342
 40
0.5423710218
 40
0.5579098557
 40
0.5733971142
 40
0.5888339681
 40
0.6042220741
 40
0.619563564
 40
0.6348610303
 40
0.650117503
 40
0.6653364218
 40
0.6805216049
 40
0.695677214
 40
0.7108077145
 40
0.7259178302
 40
0.7410124952
 40
0.7560968031
 40
0.7711759557
 40
0.7862552093
 40
0.8013398194
 40
0.816434985
 40
0.8315457946
 40
0.8466771745
 40
0.8618338394
 40
0.8770202441
 40
0.8922405382
 40
0.907498525
 40
0.9227976332
 40
0.9381408636
 40
0.9535308095
 40
0.9689696068
 40
0.9844586574
 40
1.0
 40
1.0
 40
1.0
 40
1.0
 10
9.5802160762
 20
8.9123047192
 30
0.0
 10
9.5802160762
 20
8.9064364454
 30
0.0
 10
9.5805015114
 20
8.8946781503
 30
0.0
 10
9.5817797222
 20
8.8770544549
 30
0.0
 10
9.5839058906
 20
8.8594541983
 30
0.0
 10
9.5868747675
 20
8.8419194368
 30
0.0
 10
9.5906795091
 20
8.8244909998
 30
0.0
 10
9.5953111052
 20
8.8072098887
 30
0.0
 10
9.6007586499
 20
8.7901166148
 30
0.0
 10
9.6070093335
 20
8.7732512806
 30
0.0
 10
9.6140484663
 20
8.7566534479
 30
0.0
 10
9.6218595332
 20
8.7403620585
 30
0.0
 10
9.6304241838
 20
8.7244153248
 30
0.0
 10
9.6397222949
 20
8.708850643
 30
0.0
 10
9.6497320405
 20
8.693704519
 30
0.0
 10
9.6604299355
 20
8.6790124817
 30
0.0
 10
9.6717908921
 20
8.6648090057
 30
0.0
 10
9.6837882391
 20
8.6511273973
 30
0.0
 10
9.6963938228
 20
8.637999743
 30
0.0
 10
9.7095780732
 20
8.6254568379
 30
0.0
 10
9.7233100733
 20
8.613528118
 30
0.0
 10
9.7375576188
 20
8.602241581
 30
0.0
 10
9.7522872772
 20
8.5916236943
 30
0.0
 10
9.7674644982
 20
8.5816993715
 30
0.0
 10
9.7830536861
 20
8.5724919082
 30
0.0
 10
9.799018286
 20
8.5640229376
 30
0.0
 10
9.8153208489
 20
8.5563123447
 30
0.0
 10
9.8319231275
 20
8.5493782234
 30
0.0
 10
9.8487861783
 20
8.5432368643
 30
0.0
 10
9.8658704462
 20
8.5379027089
 30
0.0
 10
9.8831358562
 20
8.5333883234
 30
0.0
 10
9.9005418947
 20
8.5297043175
 30
0.0
 10
9.9180477188
 20
8.5268593588
 30
0.0
 10
9.9356122496
 20
8.5248601601
 30
0.0
 10
9.9531942663
 20
8.5237114644
 30
0.0
 10
9.9707524987
 20
8.523416022
 30
0.0
 10
9.9882457267
 20
8.5239745447
 30
0.0
 10
10.00563288
 20
8.525385757
 30
0.0
 10
10.0228731303
 20
8.5276463887
 30
0.0
 10
10.0399259835
 20
8.5307511923
 30
0.0
 10
10.0567513804
 20
8.534692916
 30
0.0
 10
10.0733097968
 20
8.5394623206
 30
0.0
 10
10.0895623272
 20
8.5450482375
 30
0.0
 10
10.1054707764
 20
8.5514375836
 30
0.0
 10
10.1209977441
 20
8.5586153985
 30
0.0
 10
10.1361067369
 20
8.5665648289
 30
0.0
 10
10.1507622433
 20
8.5752672056
 30
0.0
 10
10.1649298103
 20
8.5847020964
 30
0.0
 10
10.1785761235
 20
8.5948473512
 30
0.0
 10
10.1916690885
 20
8.6056791473
 30
0.0
 10
10.2041779383
 20
8.6171720118
 30
0.0
 10
10.2160732742
 20
8.6292989278
 30
0.0
 10
10.2273271373
 20
8.6420313906
 30
0.0
 10
10.2379130667
 20
8.6553394798
 30
0.0
 10
10.2478061871
 20
8.6691919075
 30
0.0
 10
10.2569832783
 20
8.6835560927
 30
0.0
 10
10.2654227945
 20
8.6983982647
 30
0.0
 10
10.2731049226
 20
8.7136835352
 30
0.0
 10
10.2800116168
 20
8.7293759828
 30
0.0
 10
10.2861266929
 20
8.7454387177
 30
0.0
 10
10.2914358261
 20
8.7618339814
 30
0.0
 10
10.2959265923
 20
8.7785232608
 30
0.0
 10
10.2995884683
 20
8.795467323
 30
0.0
 10
10.3024128442
 20
8.8126264419
 30
0.0
 10
10.304393254
 20
8.8299600076
 30
0.0
 10
10.3051464776
 20
8.8415866531
 30
0.0
 10
10.3053818812
 20
8.8474144796
 30
0.0
  0
SPLINE
  5
376
100
AcDbEntity
  8
0
100
AcDbSpline
 62
7
  6
CONTINUOUS
 70
0
 71
3
 72
15
 73
11
 74
0
 42
0.0000001
 43
0.0000001
 44
0.0000000001
 40
0.0
 40
0.0
 40
0.0
 40
0.0
 40
0.1065778881
 40
0.2177104066
 40
0.3339272257
 40
0.4555958523
 40
0.5829537719
 40
0.7161296713
 40
0.8551634639
 40
1.0
 40
1.0
 40
1.0
 40
1.0
 10
11.1287418204
 20
7.9156312348
 30
0.0
 10
11.1320007221
 20
7.9159669195
 30
0.0
 10
11.1386909329
 20
7.9163523221
 30
0.0
 10
11.1489614339
 20
7.9161730268
 30
0.0
 10
11.1596615776
 20
7.9153140987
 30
0.0
 10
11.1707956728
 20
7.9138393564
 30
0.0
 10
11.1823706545
 20
7.9118107141
 30
0.0
 10
11.1943933975
 20
7.9092896676
 30
0.0
 10
11.2068697031
 20
7.906337663
 30
0.0
 10
11.2153219512
 20
7.9041673918
 30
0.0
 10
11.2196270217
 20
7.9030323141
 30
0.0
  0
SPLINE
  5
377
100
AcDbEntity
  8
0
100
AcDbSpline
 62
7
  6
CONTINUOUS
 70
0
 71
3
 72
39
 73
35
 74
0
 42
0.0000001
 43
0.0000001
 44
0.0000000001
 40
0.0
 40
0.0
 40
0.0
 40
0.0
 40
0.0310753511
 40
0.0623079071
 40
0.0936931323
 40
0.1252222879
 40
0.1568840438
 40
0.1886642044
 40
0.2205461649
 40
0.2525112495
 40
0.2845391085
 40
0.3166081364
 40
0.3486959075
 40
0.3807796234
 40
0.4128365659
 40
0.4448445499
 40
0.4767823666
 40
0.5086302146
 40
0.540370109
 40
0.5719862657
 40
0.6034654504
 40
0.6347972851
 40
0.6659745049
 40
0.6969931576
 40
0.7278527402
 40
0.7585562639
 40
0.7891102404
 40
0.8195245852
 40
0.8498124376
 40
0.8799898966
 40
0.9100756756
 40
0.9400906817
 40
0.970057529
 40
1.0
 40
1.0
 40
1.0
 40
1.0
 10
9.6176021297
 20
8.9178912872
 30
0.0
 10
9.6176021297
 20
8.9096327613
 30
0.0
 10
9.6182181959
 20
8.8930675757
 30
0.0
 10
9.620968808
 20
8.8682990953
 30
0.0
 10
9.6255327388
 20
8.8436760565
 30
0.0
 10
9.6318847765
 20
8.8193354114
 30
0.0
 10
9.6399897417
 20
8.7954103654
 30
0.0
 10
9.6498029672
 20
8.7720323585
 30
0.0
 10
9.6612704026
 20
8.7493296543
 30
0.0
 10
9.6743289529
 20
8.7274268317
 30
0.0
 10
9.6889068347
 20
8.7064440657
 30
0.0
 10
9.7049239647
 20
8.6864964908
 30
0.0
 10
9.7222923962
 20
8.6676935738
 30
0.0
 10
9.7409167969
 20
8.6501385237
 30
0.0
 10
9.7606949469
 20
8.633927708
 30
0.0
 10
9.7815183142
 20
8.6191501453
 30
0.0
 10
9.8032726448
 20
8.6058870251
 30
0.0
 10
9.8258385795
 20
8.5942112647
 30
0.0
 10
9.8490923008
 20
8.5841871147
 30
0.0
 10
9.8729061959
 20
8.5758697931
 30
0.0
 10
9.8971495476
 20
8.5693051697
 30
0.0
 10
9.9216892509
 20
8.5645295359
 30
0.0
 10
9.9463905302
 20
8.5615693955
 30
0.0
 10
9.9711176678
 20
8.5604413113
 30
0.0
 10
9.9957347395
 20
8.5611518065
 30
0.0
 10
10.0201063562
 20
8.5636972824
 30
0.0
 10
10.0440984071
 20
8.5680640452
 30
0.0
 10
10.0675787978
 20
8.5742283731
 30
0.0
 10
10.0904181685
 20
8.5821566141
 30
0.0
 10
10.1124906566
 20
8.5918053998
 30
0.0
 10
10.1336744428
 20
8.603121695
 30
0.0
 10
10.1538530638
 20
8.6160436652
 30
0.0
 10
10.1729137833
 20
8.6304988085
 30
0.0
 10
10.1848106891
 20
8.6411094817
 30
0.0
 10
10.190534136
 20
8.6466378837
 30
0.0
  0
SPLINE
  5
378
100
AcDbEntity
  8
0
100
AcDbSpline
 62
7
  6
CONTINUOUS
 70
0
 71
3
 72
47
 73
43
 74
0
 42
0.0000001
 43
0.0000001
 44
0.0000000001
 40
0.0
 40
0.0
 40
0.0
 40
0.0
 40
0.0150702949
 40
0.0301671321
 40
0.0452932688
 40
0.0604512599
 40
0.0908651865
 40
0.1214314227
 40
0.1367786963
 40
0.1521680099
 40
0.1676001124
 40
0.1830754679
 40
0.2141501001
 40
0.2453963489
 40
0.2768078629
 40
0.3083741141
 40
0.3400807185
 40
0.3719098471
 40
0.4038406991
 40
0.4358500281
 40
0.4679127186
 40
0.5000023921
 40
0.532092033
 40
0.5641546264
 40
0.5961637957
 40
0.6280944287
 40
0.6599232864
 40
0.6916295731
 40
0.7231954657
 40
0.7546065923
 40
0.7858524343
 40
0.8169266477
 40
0.8324017952
 40
0.8478336885
 40
0.8632227978
 40
0.8785698718
 40
0.9091357253
 40
0.9395493009
 40
0.9547071338
 40
0.9698331228
 40
0.9849298241
 40
1.0
 40
1.0
 40
1.0
 40
1.0
 10
10.0757434192
 20
7.4250164377
 30
0.0
 10
10.0719574997
 20
7.4230858061
 30
0.0
 10
10.0642951425
 20
7.4193830949
 30
0.0
 10
10.052564863
 20
7.4143203879
 30
0.0
 10
10.040606403
 20
7.4097521174
 30
0.0
 10
10.0243684042
 20
7.4043251135
 30
0.0
 10
10.0035888561
 20
7.3988150599
 30
0.0
 10
9.9823698708
 20
7.3950502467
 30
0.0
 10
9.965190211
 20
7.393089055
 30
0.0
 10
9.9522012911
 20
7.3921450769
 30
0.0
 10
9.9391485681
 20
7.3917319325
 30
0.0
 10
9.9216665876
 20
7.3918895959
 30
0.0
 10
9.8997558871
 20
7.3934207276
 30
0.0
 10
9.8735926901
 20
7.3973685457
 30
0.0
 10
9.8476878574
 20
7.4034032611
 30
0.0
 10
9.8222114156
 20
7.4114851808
 30
0.0
 10
9.7973290397
 20
7.4215612378
 30
0.0
 10
9.7732028942
 20
7.4335654851
 30
0.0
 10
9.7499901063
 20
7.4474195118
 30
0.0
 10
9.7278418324
 20
7.463032847
 30
0.0
 10
9.7069022894
 20
7.4803036347
 30
0.0
 10
9.6873078754
 20
7.4991193185
 30
0.0
 10
9.6691862331
 20
7.5193572921
 30
0.0
 10
9.6526554165
 20
7.5408856972
 30
0.0
 10
9.637823205
 20
7.5635643345
 30
0.0
 10
9.6247863854
 20
7.5872455301
 30
0.0
 10
9.6136300364
 20
7.6117750312
 30
0.0
 10
9.6044270835
 20
7.6369930995
 30
0.0
 10
9.5972378308
 20
7.6627353839
 30
0.0
 10
9.5921094715
 20
7.6888344405
 30
0.0
 10
9.5890757433
 20
7.7151189732
 30
0.0
 10
9.5883091256
 20
7.7370694328
 30
0.0
 10
9.588760772
 20
7.754546054
 30
0.0
 10
9.5896285898
 20
7.767576272
 30
0.0
 10
9.5910246311
 20
7.7805242331
 30
0.0
 10
9.5935833791
 20
7.7976248803
 30
0.0
 10
9.5980854037
 20
7.8186995019
 30
0.0
 10
9.6043163954
 20
7.8392741035
 30
0.0
 10
9.6103060148
 20
7.855312903
 30
0.0
 10
9.6152883423
 20
7.8671047268
 30
0.0
 10
9.6207568484
 20
7.8786512838
 30
0.0
 10
9.6247243673
 20
7.8861798535
 30
0.0
 10
9.6267857883
 20
7.8898961397
 30
0.0
  0
SPLINE
  5
379
100
AcDbEntity
  8
0
100
AcDbSpline
 62
7
  6
CONTINUOUS
 70
0
 71
3
 72
49
 73
45
 74
0
 42
0.0000001
 43
0.0000001
 44
0.0000000001
 40
0.0
 40
0.0
 40
0.0
 40
0.0
 40
0.0149718081
 40
0.0299466748
 40
0.0449276404
 40
0.059917709
 40
0.0749198276
 40
0.0899368702
 40
0.1049716217
 40
0.120026759
 40
0.1351048351
 40
0.1502082677
 40
0.1653393229
 40
0.1805001009
 40
0.1956925286
 40
0.2109183481
 40
0.2261791043
 40
0.2414761418
 40
0.256810598
 40
0.2721833946
 40
0.287595237
 40
0.3030466133
 40
0.3340634927
 40
0.3652389307
 40
0.3965689749
 40
0.4280463623
 40
0.4596607137
 40
0.4913987952
 40
0.5232448251
 40
0.5551808189
 40
0.5871869764
 40
0.6192420905
 40
0.6513239761
 40
0.6834099169
 40
0.7154771164
 40
0.7475031494
 40
0.779466411
 40
0.8113465537
 40
0.8431249023
 40
0.8747848503
 40
0.906312225
 40
0.9376956122
 40
0.9689264437
 40
1.0
 40
1.0
 40
1.0
 40
1.0
 10
10.135467059
 20
7.1116686163
 30
0.0
 10
10.130572642
 20
7.1069409595
 30
0.0
 10
10.1205937265
 20
7.0976781977
 30
0.0
 10
10.1050833625
 20
7.0843884046
 30
0.0
 10
10.0890507718
 20
7.0717196061
 30
0.0
 10
10.0725182965
 20
7.0596895588
 30
0.0
 10
10.0555085959
 20
7.0483147585
 30
0.0
 10
10.0380451351
 20
7.0376108265
 30
0.0
 10
10.0201519339
 20
7.0275924908
 30
0.0
 10
10.001853599
 20
7.0182735723
 30
0.0
 10
9.9831753406
 20
7.0096668334
 30
0.0
 10
9.9641428614
 20
7.001784104
 30
0.0
 10
9.9447823327
 20
6.99463627
 30
0.0
 10
9.9251204143
 20
6.988233108
 30
0.0
 10
9.905184163
 20
6.9825833978
 30
0.0
 10
9.8850009945
 20
6.9776949511
 30
0.0
 10
9.8645986848
 20
6.9735744475
 30
0.0
 10
9.8440053125
 20
6.9702275086
 30
0.0
 10
9.8232491712
 20
6.9676587736
 30
0.0
 10
9.8023589133
 20
6.965871741
 30
0.0
 10
9.7813629066
 20
6.9648688413
 30
0.0
 10
9.753233819
 20
6.9645785126
 30
0.0
 10
9.7179452776
 20
6.9661881105
 30
0.0
 10
9.675703444
 20
6.9712503515
 30
0.0
 10
9.6337366712
 20
6.9794172869
 30
0.0
 10
9.5922770492
 20
6.9906437326
 30
0.0
 10
9.5515517629
 20
7.0048675263
 30
0.0
 10
9.5117844662
 20
7.0220102274
 30
0.0
 10
9.4731933891
 20
7.0419774544
 30
0.0
 10
9.4359902553
 20
7.0646592725
 30
0.0
 10
9.4003792199
 20
7.0899310436
 30
0.0
 10
9.3665556756
 20
7.1176539088
 30
0.0
 10
9.3347051817
 20
7.1476755821
 30
0.0
 10
9.3050025945
 20
7.179831311
 30
0.0
 10
9.2776109195
 20
7.2139445652
 30
0.0
 10
9.2526805604
 20
7.249828147
 30
0.0
 10
9.2303485318
 20
7.2872851944
 30
0.0
 10
9.2107375166
 20
7.3261101409
 30
0.0
 10
9.1939554403
 20
7.3660899546
 30
0.0
 10
9.1800947439
 20
7.4070052961
 30
0.0
 10
9.169231804
 20
7.4486313495
 30
0.0
 10
9.1614267907
 20
7.4907403685
 30
0.0
 10
9.1567228805
 20
7.5330981029
 30
0.0
 10
9.1556692991
 20
7.5614270154
 30
0.0
 10
9.1556692991
 20
7.5755502965
 30
0.0
  0
SPLINE
  5
37A
100
AcDbEntity
  8
0
100
AcDbSpline
 62
7
  6
CONTINUOUS
 70
0
 71
3
 72
50
 73
46
 74
0
 42
0.0000001
 43
0.0000001
 44
0.0000000001
 40
0.0
 40
0.0
 40
0.0
 40
0.0
 40
0.0417738954
 40
0.0840375015
 40
0.126658999
 40
0.1695072728
 40
0.2124490406
 40
0.2553511879
 40
0.2980805661
 40
0.3405047668
 40
0.3824925704
 40
0.4239144964
 40
0.4646433325
 40
0.504554679
 40
0.5435274987
 40
0.5814446837
 40
0.6181936452
 40
0.6536669372
 40
0.6877629283
 40
0.7203865442
 40
0.7514501111
 40
0.7808743474
 40
0.8085895768
 40
0.8217881241
 40
0.8345385176
 40
0.8468355036
 40
0.8586748141
 40
0.8700533313
 40
0.8809690507
 40
0.8914214953
 40
0.9014115725
 40
0.9109421624
 40
0.9200180335
 40
0.9286464829
 40
0.9368375013
 40
0.9446043826
 40
0.9519642537
 40
0.9589386378
 40
0.9655543111
 40
0.9718437858
 40
0.9778461759
 40
0.9836073377
 40
0.9891800243
 40
0.9946230608
 40
1.0
 40
1.0
 40
1.0
 40
1.0
 10
12.1705274168
 20
8.8294026865
 30
0.0
 10
12.1705274168
 20
8.8238619188
 30
0.0
 10
12.1704409695
 20
8.8127152555
 30
0.0
 10
12.1700588314
 20
8.7959193386
 30
0.0
 10
12.1694245488
 20
8.7789884229
 30
0.0
 10
12.1685402399
 20
8.7619786731
 30
0.0
 10
12.167408799
 20
8.7449462667
 30
0.0
 10
12.1660339818
 20
8.7279475965
 30
0.0
 10
12.164420335
 20
8.7110388849
 30
0.0
 10
12.1625732107
 20
8.6942760753
 30
0.0
 10
12.1604987359
 20
8.6777146192
 30
0.0
 10
12.1582037973
 20
8.6614092994
 30
0.0
 10
12.1556960178
 20
8.645414044
 30
0.0
 10
12.1529837328
 20
8.6297817466
 30
0.0
 10
12.1500759617
 20
8.6145640877
 30
0.0
 10
12.1469823793
 20
8.5998113615
 30
0.0
 10
12.1437132838
 20
8.5855723044
 30
0.0
 10
12.1402795636
 20
8.5718939296
 30
0.0
 10
12.1366926616
 20
8.5588213571
 30
0.0
 10
12.1329645351
 20
8.5463976753
 30
0.0
 10
12.1291076185
 20
8.5346637074
 30
0.0
 10
12.1251347578
 20
8.5236581137
 30
0.0
 10
12.1216845796
 20
8.5149878671
 30
0.0
 10
12.1188688732
 20
8.5084501937
 30
0.0
 10
12.1167708031
 20
8.5038311753
 30
0.0
 10
12.1146537162
 20
8.4994199715
 30
0.0
 10
12.1125193208
 20
8.4952202028
 30
0.0
 10
12.1103694122
 20
8.4912352977
 30
0.0
 10
12.1082057044
 20
8.487468529
 30
0.0
 10
12.1060300265
 20
8.4839229405
 30
0.0
 10
12.1038440766
 20
8.4806014395
 30
0.0
 10
12.1016496821
 20
8.47750668
 30
0.0
 10
12.099448529
 20
8.4746411847
 30
0.0
 10
12.0972423865
 20
8.4720072296
 30
0.0
 10
12.0950329218
 20
8.4696069408
 30
0.0
 10
12.0928217883
 20
8.4674422541
 30
0.0
 10
12.0906106059
 20
8.4655149185
 30
0.0
 10
12.0884008777
 20
8.4638266143
 30
0.0
 10
12.0861941552
 20
8.4623788061
 30
0.0
 10
12.0839918524
 20
8.4611730607
 30
0.0
 10
12.0817955412
 20
8.4602107313
 30
0.0
 10
12.0796068548
 20
8.4594933662
 30
0.0
 10
12.0774276422
 20
8.4590222551
 30
0.0
 10
12.075260521
 20
8.4587986065
 30
0.0
 10
12.07382174
 20
8.4588150638
 30
0.0
 10
12.0731102676
 20
8.4588644101
 30
0.0
  0
SPLINE
  5
37B
100
AcDbEntity
  8
0
100
AcDbSpline
 62
7
  6
CONTINUOUS
 70
0
 71
3
 72
50
 73
46
 74
0
 42
0.0000001
 43
0.0000001
 44
0.0000000001
 40
0.0
 40
0.0
 40
0.0
 40
0.0
 40
0.0149717278
 40
0.0299465149
 40
0.044927401
 40
0.0599173893
 40
0.0749194283
 40
0.0899363919
 40
0.1049710634
 40
0.1200261205
 40
0.1351041177
 40
0.1502074705
 40
0.165338445
 40
0.1804991437
 40
0.1956914918
 40
0.21091723
 40
0.2261779061
 40
0.2414748638
 40
0.2568092383
 40
0.2721819537
 40
0.287593716
 40
0.3030450104
 40
0.3185361039
 40
0.3340670439
 40
0.3652423167
 40
0.3965721964
 40
0.4280494165
 40
0.4596636006
 40
0.4914015142
 40
0.5232473741
 40
0.5551831985
 40
0.5871891855
 40
0.6192441282
 40
0.6513258427
 40
0.683411612
 40
0.7154786397
 40
0.7475045014
 40
0.7794675918
 40
0.8113475634
 40
0.8431257421
 40
0.8747855204
 40
0.9063127266
 40
0.9376959415
 40
0.9689266162
 40
1.0
 40
1.0
 40
1.0
 40
1.0
 10
11.5101625844
 20
7.1829083722
 30
0.0
 10
11.50471236
 20
7.1776438542
 30
0.0
 10
11.4936002346
 20
7.1673292459
 30
0.0
 10
11.4763285246
 20
7.1525302948
 30
0.0
 10
11.4584752539
 20
7.1384228967
 30
0.0
 10
11.440065354
 20
7.1250267624
 30
0.0
 10
11.4211240524
 20
7.1123602589
 30
0.0
 10
11.4016774324
 20
7.100440855
 30
0.0
 10
11.3817522809
 20
7.0892848931
 30
0.0
 10
11.3613760148
 20
7.0789077251
 30
0.0
 10
11.3405766563
 20
7.0693236628
 30
0.0
 10
11.3193828527
 20
7.0605458357
 30
0.0
 10
11.2978237708
 20
7.0525862972
 30
0.0
 10
11.2759290598
 20
7.0454560329
 30
0.0
 10
11.253728857
 20
7.0391648121
 30
0.0
 10
11.2312537147
 20
7.0337212422
 30
0.0
 10
11.2085345436
 20
7.0291328327
 30
0.0
 10
11.1856025998
 20
7.0254058865
 30
0.0
 10
11.1624894346
 20
7.022545464
 30
0.0
 10
11.1392268433
 20
7.0205554989
 30
0.0
 10
11.1158467917
 20
7.0194387539
 30
0.0
 10
11.0923815457
 20
7.019196676
 30
0.0
 10
11.0688629729
 20
7.0198296426
 30
0.0
 10
11.037441623
 20
7.0218412726
 30
0.0
 10
10.9981875189
 20
7.0265450687
 30
0.0
 10
10.9514564465
 20
7.0356394972
 30
0.0
 10
10.9052883531
 20
7.0481407975
 30
0.0
 10
10.8599384791
 20
7.063979888
 30
0.0
 10
10.8156552579
 20
7.0830693373
 30
0.0
 10
10.7726818334
 20
7.1053040072
 30
0.0
 10
10.7312540036
 20
7.1305616107
 30
0.0
 10
10.6915990307
 20
7.1587032084
 30
0.0
 10
10.6539345471
 20
7.1895742643
 30
0.0
 10
10.6184671964
 20
7.2230051974
 30
0.0
 10
10.5853916119
 20
7.2588124728
 30
0.0
 10
10.5548894147
 20
7.296799611
 30
0.0
 10
10.5271280149
 20
7.3367580903
 30
0.0
 10
10.502259991
 20
7.3784687061
 30
0.0
 10
10.4804220126
 20
7.4217025759
 30
0.0
 10
10.4617341809
 20
7.4662224368
 30
0.0
 10
10.446299499
 20
7.5117840722
 30
0.0
 10
10.434202995
 20
7.5581371222
 30
0.0
 10
10.4255116472
 20
7.6050279832
 30
0.0
 10
10.4202735813
 20
7.6521958032
 30
0.0
 10
10.4191003548
 20
7.6837417085
 30
0.0
 10
10.4191003548
 20
7.6994688062
 30
0.0
  0
SPLINE
  5
37C
100
AcDbEntity
  8
0
100
AcDbSpline
 62
7
  6
CONTINUOUS
 70
0
 71
3
 72
50
 73
46
 74
0
 42
0.0000001
 43
0.0000001
 44
0.0000000001
 40
0.0
 40
0.0
 40
0.0
 40
0.0
 40
0.0417738954
 40
0.0840375015
 40
0.126658999
 40
0.1695072728
 40
0.2124490406
 40
0.2553511879
 40
0.2980805661
 40
0.3405047668
 40
0.3824925704
 40
0.4239144964
 40
0.4646433325
 40
0.504554679
 40
0.5435274987
 40
0.5814446837
 40
0.6181936452
 40
0.6536669372
 40
0.6877629283
 40
0.7203865442
 40
0.7514501111
 40
0.7808743474
 40
0.8085895768
 40
0.8217881241
 40
0.8345385176
 40
0.8468355036
 40
0.8586748141
 40
0.8700533313
 40
0.8809690507
 40
0.8914214953
 40
0.9014115725
 40
0.9109421624
 40
0.9200180335
 40
0.9286464829
 40
0.9368375013
 40
0.9446043826
 40
0.9519642537
 40
0.9589386378
 40
0.9655543111
 40
0.9718437858
 40
0.9778461759
 40
0.9836073377
 40
0.9891800243
 40
0.9946230608
 40
1.0
 40
1.0
 40
1.0
 40
1.0
 10
12.1705274168
 20
7.1390325055
 30
0.0
 10
12.1705274168
 20
7.1334917378
 30
0.0
 10
12.1704409695
 20
7.1223450745
 30
0.0
 10
12.1700588314
 20
7.1055491575
 30
0.0
 10
12.1694245488
 20
7.0886182418
 30
0.0
 10
12.1685402399
 20
7.071608492
 30
0.0
 10
12.167408799
 20
7.0545760857
 30
0.0
 10
12.1660339818
 20
7.0375774155
 30
0.0
 10
12.164420335
 20
7.0206687038
 30
0.0
 10
12.1625732107
 20
7.0039058942
 30
0.0
 10
12.1604987359
 20
6.9873444382
 30
0.0
 10
12.1582037973
 20
6.9710391183
 30
0.0
 10
12.1556960178
 20
6.955043863
 30
0.0
 10
12.1529837328
 20
6.9394115655
 30
0.0
 10
12.1500759617
 20
6.9241939066
 30
0.0
 10
12.1469823793
 20
6.9094411805
 30
0.0
 10
12.1437132838
 20
6.8952021234
 30
0.0
 10
12.1402795636
 20
6.8815237485
 30
0.0
 10
12.1366926616
 20
6.8684511761
 30
0.0
 10
12.1329645351
 20
6.8560274943
 30
0.0
 10
12.1291076185
 20
6.8442935264
 30
0.0
 10
12.1251347578
 20
6.8332879327
 30
0.0
 10
12.1216845796
 20
6.8246176861
 30
0.0
 10
12.1188688732
 20
6.8180800127
 30
0.0
 10
12.1167708031
 20
6.8134609943
 30
0.0
 10
12.1146537162
 20
6.8090497905
 30
0.0
 10
12.1125193208
 20
6.8048500218
 30
0.0
 10
12.1103694122
 20
6.8008651166
 30
0.0
 10
12.1082057044
 20
6.797098348
 30
0.0
 10
12.1060300265
 20
6.7935527595
 30
0.0
 10
12.1038440766
 20
6.7902312585
 30
0.0
 10
12.1016496821
 20
6.7871364989
 30
0.0
 10
12.099448529
 20
6.7842710037
 30
0.0
 10
12.0972423865
 20
6.7816370486
 30
0.0
 10
12.0950329218
 20
6.7792367598
 30
0.0
 10
12.0928217883
 20
6.7770720731
 30
0.0
 10
12.0906106059
 20
6.7751447375
 30
0.0
 10
12.0884008777
 20
6.7734564332
 30
0.0
 10
12.0861941552
 20
6.7720086251
 30
0.0
 10
12.0839918524
 20
6.7708028797
 30
0.0
 10
12.0817955412
 20
6.7698405502
 30
0.0
 10
12.0796068548
 20
6.7691231852
 30
0.0
 10
12.0774276422
 20
6.7686520741
 30
0.0
 10
12.075260521
 20
6.7684284255
 30
0.0
 10
12.07382174
 20
6.7684448827
 30
0.0
 10
12.0731102676
 20
6.7684942291
 30
0.0
  0
SPLINE
  5
37D
100
AcDbEntity
  8
0
100
AcDbSpline
 62
7
  6
CONTINUOUS
 70
0
 71
3
 72
49
 73
45
 74
0
 42
0.0000001
 43
0.0000001
 44
0.0000000001
 40
0.0
 40
0.0
 40
0.0
 40
0.0
 40
0.0149718081
 40
0.0299466748
 40
0.0449276404
 40
0.059917709
 40
0.0749198276
 40
0.0899368702
 40
0.1049716217
 40
0.120026759
 40
0.1351048351
 40
0.1502082677
 40
0.1653393229
 40
0.1805001009
 40
0.1956925286
 40
0.2109183481
 40
0.2261791043
 40
0.2414761418
 40
0.256810598
 40
0.2721833946
 40
0.287595237
 40
0.3030466133
 40
0.3340634927
 40
0.3652389307
 40
0.3965689749
 40
0.4280463623
 40
0.4596607137
 40
0.4913987952
 40
0.5232448251
 40
0.5551808189
 40
0.5871869764
 40
0.6192420905
 40
0.6513239761
 40
0.6834099169
 40
0.7154771164
 40
0.7475031494
 40
0.779466411
 40
0.8113465537
 40
0.8431249023
 40
0.8747848503
 40
0.906312225
 40
0.9376956122
 40
0.9689264437
 40
1.0
 40
1.0
 40
1.0
 40
1.0
 10
10.3160951767
 20
8.4272901036
 30
0.0
 10
10.3112007597
 20
8.4225624469
 30
0.0
 10
10.3012218441
 20
8.413299685
 30
0.0
 10
10.2857114802
 20
8.4000098919
 30
0.0
 10
10.2696788894
 20
8.3873410934
 30
0.0
 10
10.2531464142
 20
8.3753110461
 30
0.0
 10
10.2361367135
 20
8.3639362458
 30
0.0
 10
10.2186732528
 20
8.3532323138
 30
0.0
 10
10.2007800515
 20
8.3432139782
 30
0.0
 10
10.1824817166
 20
8.3338950597
 30
0.0
 10
10.1638034583
 20
8.3252883207
 30
0.0
 10
10.1447709791
 20
8.3174055914
 30
0.0
 10
10.1254104503
 20
8.3102577573
 30
0.0
 10
10.105748532
 20
8.3038545954
 30
0.0
 10
10.0858122807
 20
8.2982048852
 30
0.0
 10
10.0656291122
 20
8.2933164385
 30
0.0
 10
10.0452268025
 20
8.2891959349
 30
0.0
 10
10.0246334301
 20
8.2858489959
 30
0.0
 10
10.0038772889
 20
8.283280261
 30
0.0
 10
9.9829870309
 20
8.2814932283
 30
0.0
 10
9.9619910242
 20
8.2804903286
 30
0.0
 10
9.9338619366
 20
8.2801999999
 30
0.0
 10
9.8985733953
 20
8.2818095978
 30
0.0
 10
9.8563315616
 20
8.2868718388
 30
0.0
 10
9.8143647889
 20
8.2950387743
 30
0.0
 10
9.7729051669
 20
8.3062652199
 30
0.0
 10
9.7321798805
 20
8.3204890137
 30
0.0
 10
9.6924125839
 20
8.3376317148
 30
0.0
 10
9.6538215068
 20
8.3575989417
 30
0.0
 10
9.6166183729
 20
8.3802807598
 30
0.0
 10
9.5810073375
 20
8.4055525309
 30
0.0
 10
9.5471837932
 20
8.4332753962
 30
0.0
 10
9.5153332993
 20
8.4632970694
 30
0.0
 10
9.4856307121
 20
8.4954527984
 30
0.0
 10
9.4582390371
 20
8.5295660525
 30
0.0
 10
9.433308678
 20
8.5654496344
 30
0.0
 10
9.4109766494
 20
8.6029066817
 30
0.0
 10
9.3913656343
 20
8.6417316282
 30
0.0
 10
9.3745835579
 20
8.681711442
 30
0.0
 10
9.3607228616
 20
8.7226267835
 30
0.0
 10
9.3498599216
 20
8.7642528368
 30
0.0
 10
9.3420549084
 20
8.8063618559
 30
0.0
 10
9.3373509982
 20
8.8487195902
 30
0.0
 10
9.3362974168
 20
8.8770485028
 30
0.0
 10
9.3362974168
 20
8.8911717838
 30
0.0
  0
SPLINE
  5
37E
100
AcDbEntity
  8
0
100
AcDbSpline
 62
7
  6
CONTINUOUS
 70
0
 71
3
 72
15
 73
11
 74
0
 42
0.0000001
 43
0.0000001
 44
0.0000000001
 40
0.0
 40
0.0
 40
0.0
 40
0.0
 40
0.1060898683
 40
0.2175448071
 40
0.3344577013
 40
0.4568510491
 40
0.5846965679
 40
0.7179053446
 40
0.8563812531
 40
1.0
 40
1.0
 40
1.0
 40
1.0
 10
9.7922067377
 20
9.1738439124
 30
0.0
 10
9.7927615861
 20
9.1737897246
 30
0.0
 10
9.7939044593
 20
9.1737273701
 30
0.0
 10
9.7956629367
 20
9.1737595559
 30
0.0
 10
9.797501088
 20
9.1739102046
 30
0.0
 10
9.7994130554
 20
9.1741749323
 30
0.0
 10
9.8013936234
 20
9.1745495827
 30
0.0
 10
9.8034379983
 20
9.1750300844
 30
0.0
 10
9.8055416457
 20
9.17561276
 30
0.0
 10
9.8069556071
 20
9.1760589747
 30
0.0
 10
9.8076716412
 20
9.1762974352
 30
0.0
  0
SPLINE
  5
37F
100
AcDbEntity
  8
0
100
AcDbSpline
 62
7
  6
CONTINUOUS
 70
0
 71
3
 72
24
 73
20
 74
0
 42
0.0000001
 43
0.0000001
 44
0.0000000001
 40
0.0
 40
0.0
 40
0.0
 40
0.0
 40
0.0637774298
 40
0.1273438979
 40
0.1907011028
 40
0.2538548461
 40
0.3168115792
 40
0.3795801785
 40
0.4421711488
 40
0.5045967878
 40
0.5668710022
 40
0.6290092041
 40
0.6910281625
 40
0.7220010202
 40
0.7529508971
 40
0.8147862935
 40
0.87655923
 40
0.9382901685
 40
1.0
 40
1.0
 40
1.0
 40
1.0
 10
10.4191003548
 20
7.6994688062
 30
0.0
 10
10.4191003548
 20
7.7096055898
 30
0.0
 10
10.4195854986
 20
7.7298490637
 30
0.0
 10
10.42177543
 20
7.7600912173
 30
0.0
 10
10.4254215094
 20
7.7900935301
 30
0.0
 10
10.4305152758
 20
7.8197858391
 30
0.0
 10
10.4370451522
 20
7.8491000395
 30
0.0
 10
10.4449961009
 20
7.877968449
 30
0.0
 10
10.4543498892
 20
7.906324546
 30
0.0
 10
10.4650849864
 20
7.9341029047
 30
0.0
 10
10.4771767736
 20
7.9612395723
 30
0.0
 10
10.4905971615
 20
7.9876715451
 30
0.0
 10
10.5028683922
 20
8.0090707344
 30
0.0
 10
10.5133158529
 20
8.0257735959
 30
0.0
 10
10.5241704332
 20
8.0421798228
 30
0.0
 10
10.5385079226
 20
8.0621415672
 30
0.0
 10
10.5569050025
 20
8.0851647326
 30
0.0
 10
10.5764467922
 20
8.1071973817
 30
0.0
 10
10.5902101758
 20
8.1211938866
 30
0.0
 10
10.5972647361
 20
8.1280080757
 30
0.0
  0
SPLINE
  5
380
100
AcDbEntity
  8
0
100
AcDbSpline
 62
7
  6
CONTINUOUS
 70
0
 71
3
 72
40
 73
36
 74
0
 42
0.0000001
 43
0.0000001
 44
0.0000000001
 40
0.0
 40
0.0
 40
0.0
 40
0.0
 40
0.0294029344
 40
0.0441556363
 40
0.0589420617
 40
0.088619403
 40
0.1184514943
 40
0.1334307338
 40
0.1484515455
 40
0.178615325
 40
0.2089516739
 40
0.2394623724
 40
0.270147447
 40
0.3010054554
 40
0.3320337845
 40
0.3632289083
 40
0.3945867481
 40
0.4261029078
 40
0.4577730713
 40
0.489593245
 40
0.5215599931
 40
0.5536704184
 40
0.5859225023
 40
0.6183155355
 40
0.6508496699
 40
0.6835245568
 40
0.7163367283
 40
0.7492739532
 40
0.8153332413
 40
0.8482597399
 40
0.8808092962
 40
0.9126117716
 40
0.9432505523
 40
0.9724114195
 40
1.0
 40
1.0
 40
1.0
 40
1.0
 10
9.8076716412
 20
9.1762974352
 30
0.0
 10
9.8092377491
 20
9.1730867786
 30
0.0
 10
9.8117776227
 20
9.1683536225
 30
0.0
 10
9.8155205039
 20
9.1622471489
 30
0.0
 10
9.8195119571
 20
9.1562596038
 30
0.0
 10
9.8249437782
 20
9.1490390412
 30
0.0
 10
9.8309178162
 20
9.1422292831
 30
0.0
 10
9.8360094577
 20
9.1370391518
 30
0.0
 10
9.8413187608
 20
9.1320131124
 30
0.0
 10
9.8483269936
 20
9.1260772691
 30
0.0
 10
9.8572693019
 20
9.1195576916
 30
0.0
 10
9.8667107896
 20
9.1136639045
 30
0.0
 10
9.8766027559
 20
9.1084259102
 30
0.0
 10
9.8868951484
 20
9.1038693186
 30
0.0
 10
9.897536551
 20
9.1000156136
 30
0.0
 10
9.9084747671
 20
9.0968819304
 30
0.0
 10
9.9196572542
 20
9.0944810176
 30
0.0
 10
9.9310316323
 20
9.0928212293
 30
0.0
 10
9.9425461675
 20
9.0919065707
 30
0.0
 10
9.9541502615
 20
9.0917368071
 30
0.0
 10
9.9657948798
 20
9.0923076291
 30
0.0
 10
9.9774329832
 20
9.093610822
 30
0.0
 10
9.9890199733
 20
9.0956345184
 30
0.0
 10
10.0005140627
 20
9.0983634133
 30
0.0
 10
10.0118765099
 20
9.1017789736
 30
0.0
 10
10.0230712829
 20
9.1058593721
 30
0.0
 10
10.0340651036
 20
9.1105794872
 30
0.0
 10
10.0484205278
 20
9.1176900657
 30
0.0
 10
10.0622060981
 20
9.1259306051
 30
0.0
 10
10.0752898837
 20
9.1351137314
 30
0.0
 10
10.0846356082
 20
9.1423559706
 30
0.0
 10
10.093420535
 20
9.1498465878
 30
0.0
 10
10.1015357721
 20
9.1574690849
 30
0.0
 10
10.1088919896
 20
9.1651314006
 30
0.0
 10
10.1133772755
 20
9.1703743535
 30
0.0
 10
10.1154714542
 20
9.1729914395
 30
0.0
  0
SPLINE
  5
381
100
AcDbEntity
  8
0
100
AcDbSpline
 62
4
  6
CONTINUOUS
 70
0
 71
3
 72
283
 73
279
 74
0
 42
0.0000001
 43
0.0000001
 44
0.0000000001
 40
0.0
 40
0.0
 40
0.0
 40
0.0
 40
0.015625
 40
0.0234375
 40
0.03125
 40
0.0390625
 40
0.046875
 40
0.05078125
 40
0.0546875
 40
0.056640625
 40
0.05859375
 40
0.060546875
 40
0.0615234375
 40
0.0620117188
 40
0.0625
 40
0.0629882812
 40
0.0634765625
 40
0.064453125
 40
0.06640625
 40
0.068359375
 40
0.0703125
 40
0.07421875
 40
0.078125
 40
0.0859375
 40
0.09375
 40
0.1015625
 40
0.109375
 40
0.11328125
 40
0.1171875
 40
0.119140625
 40
0.12109375
 40
0.123046875
 40
0.1240234375
 40
0.1245117188
 40
0.125
 40
0.1254882812
 40
0.1259765625
 40
0.126953125
 40
0.12890625
 40
0.130859375
 40
0.1328125
 40
0.13671875
 40
0.140625
 40
0.1484375
 40
0.15625
 40
0.1640625
 40
0.171875
 40
0.17578125
 40
0.1796875
 40
0.181640625
 40
0.18359375
 40
0.185546875
 40
0.1865234375
 40
0.1870117188
 40
0.1875
 40
0.1879882812
 40
0.1884765625
 40
0.189453125
 40
0.19140625
 40
0.193359375
 40
0.1953125
 40
0.19921875
 40
0.203125
 40
0.2109375
 40
0.21875
 40
0.2265625
 40
0.234375
 40
0.23828125
 40
0.2421875
 40
0.24609375
 40
0.248046875
 40
0.2490234375
 40
0.25
 40
0.2509765625
 40
0.251953125
 40
0.25390625
 40
0.2578125
 40
0.26171875
 40
0.265625
 40
0.2734375
 40
0.28125
 40
0.2890625
 40
0.296875
 40
0.30078125
 40
0.3046875
 40
0.30859375
 40
0.310546875
 40
0.3115234375
 40
0.3125
 40
0.3134765625
 40
0.314453125
 40
0.31640625
 40
0.3203125
 40
0.32421875
 40
0.328125
 40
0.3359375
 40
0.34375
 40
0.3515625
 40
0.359375
 40
0.36328125
 40
0.3671875
 40
0.37109375
 40
0.373046875
 40
0.375
 40
0.376953125
 40
0.37890625
 40
0.3828125
 40
0.38671875
 40
0.390625
 40
0.3984375
 40
0.40625
 40
0.4140625
 40
0.421875
 40
0.4296875
 40
0.43359375
 40
0.435546875
 40
0.4375
 40
0.439453125
 40
0.44140625
 40
0.4453125
 40
0.453125
 40
0.4609375
 40
0.46875
 40
0.4765625
 40
0.484375
 40
0.48828125
 40
0.4921875
 40
0.49609375
 40
0.498046875
 40
0.4990234375
 40
0.5
 40
0.5009765625
 40
0.501953125
 40
0.50390625
 40
0.5078125
 40
0.51171875
 40
0.515625
 40
0.5234375
 40
0.53125
 40
0.5390625
 40
0.546875
 40
0.55078125
 40
0.5546875
 40
0.55859375
 40
0.560546875
 40
0.5615234375
 40
0.5625
 40
0.5634765625
 40
0.564453125
 40
0.56640625
 40
0.5703125
 40
0.57421875
 40
0.578125
 40
0.5859375
 40
0.59375
 40
0.6015625
 40
0.609375
 40
0.61328125
 40
0.6171875
 40
0.619140625
 40
0.62109375
 40
0.623046875
 40
0.6240234375
 40
0.6245117188
 40
0.625
 40
0.6254882812
 40
0.6259765625
 40
0.626953125
 40
0.62890625
 40
0.630859375
 40
0.6328125
 40
0.63671875
 40
0.640625
 40
0.6484375
 40
0.65625
 40
0.6640625
 40
0.671875
 40
0.67578125
 40
0.6796875
 40
0.681640625
 40
0.68359375
 40
0.685546875
 40
0.6865234375
 40
0.6870117188
 40
0.6875
 40
0.6879882812
 40
0.6884765625
 40
0.689453125
 40
0.69140625
 40
0.693359375
 40
0.6953125
 40
0.69921875
 40
0.703125
 40
0.7109375
 40
0.71875
 40
0.7265625
 40
0.734375
 40
0.73828125
 40
0.7421875
 40
0.744140625
 40
0.74609375
 40
0.748046875
 40
0.7490234375
 40
0.7495117188
 40
0.75
 40
0.7504882812
 40
0.7509765625
 40
0.751953125
 40
0.75390625
 40
0.755859375
 40
0.7578125
 40
0.76171875
 40
0.765625
 40
0.7734375
 40
0.78125
 40
0.7890625
 40
0.796875
 40
0.80078125
 40
0.8046875
 40
0.806640625
 40
0.80859375
 40
0.810546875
 40
0.8115234375
 40
0.8120117188
 40
0.8125
 40
0.8129882812
 40
0.8134765625
 40
0.814453125
 40
0.81640625
 40
0.818359375
 40
0.8203125
 40
0.82421875
 40
0.828125
 40
0.8359375
 40
0.84375
 40
0.8515625
 40
0.859375
 40
0.86328125
 40
0.8671875
 40
0.869140625
 40
0.87109375
 40
0.873046875
 40
0.8740234375
 40
0.8745117188
 40
0.875
 40
0.8754882812
 40
0.8759765625
 40
0.876953125
 40
0.87890625
 40
0.880859375
 40
0.8828125
 40
0.88671875
 40
0.890625
 40
0.8984375
 40
0.90625
 40
0.9140625
 40
0.921875
 40
0.92578125
 40
0.9296875
 40
0.931640625
 40
0.93359375
 40
0.935546875
 40
0.9365234375
 40
0.9370117188
 40
0.9375
 40
0.9379882812
 40
0.9384765625
 40
0.939453125
 40
0.94140625
 40
0.943359375
 40
0.9453125
 40
0.94921875
 40
0.953125
 40
0.9609375
 40
0.96875
 40
0.9765625
 40
0.984375
 40
1.0
 40
1.0
 40
1.0
 40
1.0
 10
12.4252051517
 20
9.1092099261
 30
0.0
 10
12.424451079
 20
9.1082056092
 30
0.0
 10
12.4233199701
 20
9.106699134
 30
0.0
 10
12.4218118249
 20
9.1046904997
 30
0.0
 10
12.4206807159
 20
9.1031840261
 30
0.0
 10
12.4195496073
 20
9.1016775445
 30
0.0
 10
12.4186070154
 20
9.1004221679
 30
0.0
 10
12.4178529451
 20
9.0994178112
 30
0.0
 10
12.417381644
 20
9.0987902145
 30
0.0
 10
12.4170046193
 20
9.098287848
 30
0.0
 10
12.4167218065
 20
9.0979118648
 30
0.0
 10
12.4164862701
 20
9.097596027
 30
0.0
 10
12.4163211181
 20
9.0973798829
 30
0.0
 10
12.4162271772
 20
9.097248655
 30
0.0
 10
12.4161555058
 20
9.0971719731
 30
0.0
 10
12.4160884813
 20
9.0970121934
 30
0.0
 10
12.4159974944
 20
9.0968281392
 30
0.0
 10
12.4158390226
 20
9.0964925396
 30
0.0
 10
12.4156122394
 20
9.0960201721
 30
0.0
 10
12.4153402686
 20
9.095450309
 30
0.0
 10
12.4149775819
 20
9.094691547
 30
0.0
 10
12.4145242437
 20
9.0937427331
 30
0.0
 10
12.4137988912
 20
9.092224833
 30
0.0
 10
12.4128922046
 20
9.0903273881
 30
0.0
 10
12.4118041787
 20
9.0880504858
 30
0.0
 10
12.4107161541
 20
9.0857735685
 30
0.0
 10
12.4098094642
 20
9.0838761612
 30
0.0
 10
12.4090841183
 20
9.0823581858
 30
0.0
 10
12.4086307633
 20
9.0814095633
 30
0.0
 10
12.408268111
 20
9.0806504086
 30
0.0
 10
12.407996035
 20
9.0800817452
 30
0.0
 10
12.4077695812
 20
9.0796056241
 30
0.0
 10
12.4076105213
 20
9.0792767253
 30
0.0
 10
12.4075204766
 20
9.0790819348
 30
0.0
 10
12.4074505581
 20
9.0789551338
 30
0.0
 10
12.4073897563
 20
9.0787545893
 30
0.0
 10
12.4073055073
 20
9.0785129191
 30
0.0
 10
12.4071595532
 20
9.0780780118
 30
0.0
 10
12.4069502727
 20
9.0774629812
 30
0.0
 10
12.4066994676
 20
9.0767222627
 30
0.0
 10
12.4063649451
 20
9.0757355747
 30
0.0
 10
12.4059468315
 20
9.0745018939
 30
0.0
 10
12.4052778277
 20
9.072528184
 30
0.0
 10
12.4044415805
 20
9.0700609847
 30
0.0
 10
12.4034380804
 20
9.0671003738
 30
0.0
 10
12.4024345823
 20
9.0641397491
 30
0.0
 10
12.4015983301
 20
9.061672584
 30
0.0
 10
12.4009293363
 20
9.0596988057
 30
0.0
 10
12.4005111973
 20
9.0584652989
 30
0.0
 10
12.4001767269
 20
9.0574782539
 30
0.0
 10
12.3999257627
 20
9.0567386261
 30
0.0
 10
12.39971698
 20
9.0561201828
 30
0.0
 10
12.3995701371
 20
9.0556913678
 30
0.0
 10
12.3994873122
 20
9.0554399361
 30
0.0
 10
12.3994221362
 20
9.0552693758
 30
0.0
 10
12.3993686467
 20
9.0550299591
 30
0.0
 10
12.3992932509
 20
9.0547347546
 30
0.0
 10
12.3991632077
 20
9.0542069565
 30
0.0
 10
12.3989764386
 20
9.0534588096
 30
0.0
 10
12.3987527408
 20
9.0525585292
 30
0.0
 10
12.3984543285
 20
9.0513590299
 30
0.0
 10
12.3980813641
 20
9.0498593563
 30
0.0
 10
12.3974845924
 20
9.0474600462
 30
0.0
 10
12.3967386387
 20
9.0444608488
 30
0.0
 10
12.3958434849
 20
9.0408618477
 30
0.0
 10
12.394948351
 20
9.0372627993
 30
0.0
 10
12.3942023475
 20
9.03426372
 30
0.0
 10
12.3936056754
 20
9.0318641737
 30
0.0
 10
12.3931578142
 20
9.0300652857
 30
0.0
 10
12.3927857326
 20
9.028563758
 30
0.0
 10
12.3925230461
 20
9.0275175053
 30
0.0
 10
12.3923764204
 20
9.0269121257
 30
0.0
 10
12.3922566455
 20
9.0264792775
 30
0.0
 10
12.3921743527
 20
9.0259654437
 30
0.0
 10
12.3920515549
 20
9.0253085807
 30
0.0
 10
12.3918427502
 20
9.0241459088
 30
0.0
 10
12.391541273
 20
9.0224918301
 30
0.0
 10
12.3911808636
 20
9.0205039902
 30
0.0
 10
12.3906998414
 20
9.0178545662
 30
0.0
 10
12.3900987283
 20
9.0145424313
 30
0.0
 10
12.389377317
 20
9.0105680291
 30
0.0
 10
12.3886559444
 20
9.0065935558
 30
0.0
 10
12.3880547344
 20
9.0032815988
 30
0.0
 10
12.3875739059
 20
9.0006318188
 30
0.0
 10
12.3872129056
 20
8.9986450647
 30
0.0
 10
12.3869132771
 20
8.9969875894
 30
0.0
 10
12.3867011723
 20
8.9958309808
 30
0.0
 10
12.3865836621
 20
8.995164403
 30
0.0
 10
12.3864851275
 20
8.9946804102
 30
0.0
 10
12.3864263543
 20
8.9941354843
 30
0.0
 10
12.3863341209
 20
8.9934301705
 30
0.0
 10
12.3861791744
 20
8.9921859688
 30
0.0
 10
12.3859544438
 20
8.990413715
 30
0.0
 10
12.385686213
 20
8.9882847945
 30
0.0
 10
12.3853280675
 20
8.9854470075
 30
0.0
 10
12.3848805551
 20
8.9818995104
 30
0.0
 10
12.384343483
 20
8.9776426177
 30
0.0
 10
12.3838063684
 20
8.9733857312
 30
0.0
 10
12.3833589625
 20
8.9698382187
 30
0.0
 10
12.383000604
 20
8.9670004626
 30
0.0
 10
12.3827330227
 20
8.9648714479
 30
0.0
 10
12.3825062606
 20
8.9630994887
 30
0.0
 10
12.3823333234
 20
8.961676943
 30
0.0
 10
12.3821804696
 20
8.9606236367
 30
0.0
 10
12.3821159835
 20
8.9595184075
 30
0.0
 10
12.3819991341
 20
8.9580629059
 30
0.0
 10
12.3818636628
 20
8.956237306
 30
0.0
 10
12.3816965646
 20
8.9540492498
 30
0.0
 10
12.3814753485
 20
8.9511309112
 30
0.0
 10
12.3811982995
 20
8.9474833054
 30
0.0
 10
12.3808660064
 20
8.9431060506
 30
0.0
 10
12.3805338967
 20
8.9387287991
 30
0.0
 10
12.380200888
 20
8.9343516621
 30
0.0
 10
12.3799262245
 20
8.9307036638
 30
0.0
 10
12.3797283814
 20
8.9281508215
 30
0.0
 10
12.3796240385
 20
8.9266908728
 30
0.0
 10
12.3795212441
 20
8.9255992402
 30
0.0
 10
12.3795122437
 20
8.9244948827
 30
0.0
 10
12.3794675267
 20
8.9230268447
 30
0.0
 10
12.3794045153
 20
8.9204557102
 30
0.0
 10
12.379306528
 20
8.9167837418
 30
0.0
 10
12.3791923622
 20
8.9123769184
 30
0.0
 10
12.3790772742
 20
8.9079702107
 30
0.0
 10
12.3789624563
 20
8.9035635013
 30
0.0
 10
12.3788666428
 20
8.8998911528
 30
0.0
 10
12.3787901736
 20
8.8969534925
 30
0.0
 10
12.378732356
 20
8.8947496463
 30
0.0
 10
12.3786856512
 20
8.89291502
 30
0.0
 10
12.3786500609
 20
8.8916270288
 30
0.0
 10
12.3786342469
 20
8.8908968935
 30
0.0
 10
12.378609644
 20
8.8903327855
 30
0.0
 10
12.378633749
 20
8.8898317735
 30
0.0
 10
12.3786488991
 20
8.8891417489
 30
0.0
 10
12.3786833277
 20
8.8879444601
 30
0.0
 10
12.3787283729
 20
8.8862286865
 30
0.0
 10
12.3787841987
 20
8.8841720529
 30
0.0
 10
12.378858014
 20
8.8814290729
 30
0.0
 10
12.3789504968
 20
8.8780006253
 30
0.0
 10
12.3790613788
 20
8.8738863593
 30
0.0
 10
12.3791723087
 20
8.8697721651
 30
0.0
 10
12.3792646716
 20
8.8663435381
 30
0.0
 10
12.3793387268
 20
8.8636009171
 30
0.0
 10
12.3793938209
 20
8.8615431886
 30
0.0
 10
12.3794411551
 20
8.8598308402
 30
0.0
 10
12.3794714974
 20
8.8586274369
 30
0.0
 10
12.3794931948
 20
8.8579472093
 30
0.0
 10
12.3794971887
 20
8.8574161039
 30
0.0
 10
12.3795481199
 20
8.8569650217
 30
0.0
 10
12.3795996559
 20
8.8563356658
 30
0.0
 10
12.379697472
 20
8.855247298
 30
0.0
 10
12.3798332213
 20
8.8536856877
 30
0.0
 10
12.3799978275
 20
8.8518146657
 30
0.0
 10
12.380216706
 20
8.8493189529
 30
0.0
 10
12.380490509
 20
8.8461996612
 30
0.0
 10
12.3808189842
 20
8.8424563601
 30
0.0
 10
12.3811474851
 20
8.8387131044
 30
0.0
 10
12.3814212238
 20
8.835593699
 30
0.0
 10
12.3816402307
 20
8.8330982136
 30
0.0
 10
12.3817770763
 20
8.8315384508
 30
0.0
 10
12.3818866298
 20
8.8302908334
 30
0.0
 10
12.3819685841
 20
8.8293545926
 30
0.0
 10
12.3820375498
 20
8.8285760707
 30
0.0
 10
12.3820845102
 20
8.8280278109
 30
0.0
 10
12.3821133989
 20
8.8277196635
 30
0.0
 10
12.3821292788
 20
8.8274740625
 30
0.0
 10
12.3821672779
 20
8.8272838515
 30
0.0
 10
12.3822102279
 20
8.8270109162
 30
0.0
 10
12.3822889852
 20
8.8265422812
 30
0.0
 10
12.3823996162
 20
8.8258680963
 30
0.0
 10
12.3825331779
 20
8.8250610889
 30
0.0
 10
12.3827109792
 20
8.8239843755
 30
0.0
 10
12.382933327
 20
8.8226387246
 30
0.0
 10
12.3832890297
 20
8.8204855485
 30
0.0
 10
12.3837336767
 20
8.817794125
 30
0.0
 10
12.3842672446
 20
8.8145643952
 30
0.0
 10
12.3848008167
 20
8.811334677
 30
0.0
 10
12.3852454532
 20
8.8086432247
 30
0.0
 10
12.3856011768
 20
8.806490106
 30
0.0
 10
12.3858234714
 20
8.8051443091
 30
0.0
 10
12.3860013819
 20
8.8040678955
 30
0.0
 10
12.3861346101
 20
8.8032599721
 30
0.0
 10
12.3862462844
 20
8.8025886531
 30
0.0
 10
12.3863231793
 20
8.8021149021
 30
0.0
 10
12.3863691135
 20
8.8018501639
 30
0.0
 10
12.3863979461
 20
8.8016347738
 30
0.0
 10
12.3864482535
 20
8.8014837413
 30
0.0
 10
12.3865078394
 20
8.8012599159
 30
0.0
 10
12.3866156047
 20
8.8008786807
 30
0.0
 10
12.3867677305
 20
8.8003285908
 30
0.0
 10
12.3869510625
 20
8.7996708235
 30
0.0
 10
12.3871952324
 20
8.7987929828
 30
0.0
 10
12.3875005381
 20
8.797695962
 30
0.0
 10
12.3879889751
 20
8.7959405721
 30
0.0
 10
12.3885995393
 20
8.793746389
 30
0.0
 10
12.3893322083
 20
8.791113344
 30
0.0
 10
12.3900648808
 20
8.7884803133
 30
0.0
 10
12.3906754361
 20
8.7862860943
 30
0.0
 10
12.3911638909
 20
8.7845307761
 30
0.0
 10
12.3914691513
 20
8.783433573
 30
0.0
 10
12.3917134143
 20
8.7825561066
 30
0.0
 10
12.3918964619
 20
8.781897196
 30
0.0
 10
12.3920494774
 20
8.7813506831
 30
0.0
 10
12.3921556545
 20
8.7809630622
 30
0.0
 10
12.3922177851
 20
8.7807494684
 30
0.0
 10
12.3922602757
 20
8.7805670079
 30
0.0
 10
12.3923184669
 20
8.7804696558
 30
0.0
 10
12.3923905786
 20
8.7803101662
 30
0.0
 10
12.3925193256
 20
8.7800448911
 30
0.0
 10
12.392701916
 20
8.7796586953
 30
0.0
 10
12.3929215954
 20
8.7791983556
 30
0.0
 10
12.3932143019
 20
8.7785834883
 30
0.0
 10
12.3935802533
 20
8.7778152743
 30
0.0
 10
12.3941657373
 20
8.7765859249
 30
0.0
 10
12.3948976055
 20
8.7750493096
 30
0.0
 10
12.3957758413
 20
8.7732053386
 30
0.0
 10
12.39665408
 20
8.7713613841
 30
0.0
 10
12.3973859412
 20
8.7698247276
 30
0.0
 10
12.3979714391
 20
8.7685954608
 30
0.0
 10
12.3983373551
 20
8.7678270368
 30
0.0
 10
12.3986301342
 20
8.7672126004
 30
0.0
 10
12.3988495917
 20
8.7667509439
 30
0.0
 10
12.3990328763
 20
8.7663688683
 30
0.0
 10
12.399160384
 20
8.7660962379
 30
0.0
 10
12.3992344815
 20
8.7659485334
 30
0.0
 10
12.3992865729
 20
8.7658149815
 30
0.0
 10
12.3993519732
 20
8.7657684812
 30
0.0
 10
12.3994345314
 20
8.7656761162
 30
0.0
 10
12.3995811711
 20
8.7655286248
 30
0.0
 10
12.3997895257
 20
8.7653105265
 30
0.0
 10
12.4000400351
 20
8.7650519744
 30
0.0
 10
12.4003738787
 20
8.7647061325
 30
0.0
 10
12.400791241
 20
8.7642742087
 30
0.0
 10
12.4014589883
 20
8.763582919
 30
0.0
 10
12.4022936836
 20
8.7627188799
 30
0.0
 10
12.403295313
 20
8.7616819996
 30
0.0
 10
12.4042969446
 20
8.7606451363
 30
0.0
 10
12.4051316345
 20
8.7597810545
 30
0.0
 10
12.4057993926
 20
8.7590898504
 30
0.0
 10
12.4062167275
 20
8.758657709
 30
0.0
 10
12.4065506274
 20
8.7583123136
 30
0.0
 10
12.4068009647
 20
8.7580523972
 30
0.0
 10
12.4070098578
 20
8.7578385675
 30
0.0
 10
12.4071555361
 20
8.7576834559
 30
0.0
 10
12.4072396347
 20
8.7576033005
 30
0.0
 10
12.4073003034
 20
8.7575192962
 30
0.0
 10
12.4073701661
 20
8.7575266031
 30
0.0
 10
12.4074601094
 20
8.7575044952
 30
0.0
 10
12.4076190044
 20
8.7574806462
 30
0.0
 10
12.407845216
 20
8.7574388178
 30
0.0
 10
12.4081170043
 20
8.7573919445
 30
0.0
 10
12.408479272
 20
8.7573282869
 30
0.0
 10
12.4089321466
 20
8.7572491121
 30
0.0
 10
12.4096567235
 20
8.7571222103
 30
0.0
 10
12.4105624524
 20
8.7569636598
 30
0.0
 10
12.4116493237
 20
8.7567733641
 30
0.0
 10
12.4127361964
 20
8.7565830862
 30
0.0
 10
12.4136419215
 20
8.7564244912
 30
0.0
 10
12.4143665061
 20
8.7562976784
 30
0.0
 10
12.4148193611
 20
8.7562182773
 30
0.0
 10
12.4151816691
 20
8.7561550842
 30
0.0
 10
12.4154533341
 20
8.7561067919
 30
0.0
 10
12.4156799315
 20
8.7560694032
 30
0.0
 10
12.4158381379
 20
8.7560376286
 30
0.0
 10
12.4159291844
 20
8.7560282195
 30
0.0
 10
12.4159956586
 20
8.75599652
 30
0.0
 10
12.4160690541
 20
8.7560590171
 30
0.0
 10
12.4161645005
 20
8.7561094897
 30
0.0
 10
12.4163326567
 20
8.7562131255
 30
0.0
 10
12.4165722916
 20
8.756353173
 30
0.0
 10
12.4168601053
 20
8.7565246558
 30
0.0
 10
12.417243769
 20
8.756752103
 30
0.0
 10
12.4177233787
 20
8.7570368216
 30
0.0
 10
12.4184907373
 20
8.7574921425
 30
0.0
 10
12.4194499414
 20
8.7580613722
 30
0.0
 10
12.4206009838
 20
8.7587444142
 30
0.0
 10
12.4217520269
 20
8.7594274651
 30
0.0
 10
12.4232867508
 20
8.7603381966
 30
0.0
 10
12.4244377938
 20
8.7610212459
 30
0.0
 10
12.4252051557
 20
8.7614766119
 30
0.0
  0
SPLINE
  5
382
100
AcDbEntity
  8
0
100
AcDbSpline
 62
4
  6
CONTINUOUS
 70
0
 71
3
 72
283
 73
279
 74
0
 42
0.0000001
 43
0.0000001
 44
0.0000000001
 40
0.0
 40
0.0
 40
0.0
 40
0.0
 40
0.015625
 40
0.0234375
 40
0.03125
 40
0.0390625
 40
0.046875
 40
0.05078125
 40
0.0546875
 40
0.056640625
 40
0.05859375
 40
0.060546875
 40
0.0615234375
 40
0.0620117188
 40
0.0625
 40
0.0629882812
 40
0.0634765625
 40
0.064453125
 40
0.06640625
 40
0.068359375
 40
0.0703125
 40
0.07421875
 40
0.078125
 40
0.0859375
 40
0.09375
 40
0.1015625
 40
0.109375
 40
0.11328125
 40
0.1171875
 40
0.119140625
 40
0.12109375
 40
0.123046875
 40
0.1240234375
 40
0.1245117188
 40
0.125
 40
0.1254882812
 40
0.1259765625
 40
0.126953125
 40
0.12890625
 40
0.130859375
 40
0.1328125
 40
0.13671875
 40
0.140625
 40
0.1484375
 40
0.15625
 40
0.1640625
 40
0.171875
 40
0.17578125
 40
0.1796875
 40
0.181640625
 40
0.18359375
 40
0.185546875
 40
0.1865234375
 40
0.1870117188
 40
0.1875
 40
0.1879882812
 40
0.1884765625
 40
0.189453125
 40
0.19140625
 40
0.193359375
 40
0.1953125
 40
0.19921875
 40
0.203125
 40
0.2109375
 40
0.21875
 40
0.2265625
 40
0.234375
 40
0.23828125
 40
0.2421875
 40
0.24609375
 40
0.248046875
 40
0.2490234375
 40
0.25
 40
0.2509765625
 40
0.251953125
 40
0.25390625
 40
0.2578125
 40
0.26171875
 40
0.265625
 40
0.2734375
 40
0.28125
 40
0.2890625
 40
0.296875
 40
0.30078125
 40
0.3046875
 40
0.30859375
 40
0.310546875
 40
0.3115234375
 40
0.3125
 40
0.3134765625
 40
0.314453125
 40
0.31640625
 40
0.3203125
 40
0.32421875
 40
0.328125
 40
0.3359375
 40
0.34375
 40
0.3515625
 40
0.359375
 40
0.36328125
 40
0.3671875
 40
0.37109375
 40
0.373046875
 40
0.375
 40
0.376953125
 40
0.37890625
 40
0.3828125
 40
0.38671875
 40
0.390625
 40
0.3984375
 40
0.40625
 40
0.4140625
 40
0.421875
 40
0.4296875
 40
0.43359375
 40
0.435546875
 40
0.4375
 40
0.439453125
 40
0.44140625
 40
0.4453125
 40
0.453125
 40
0.4609375
 40
0.46875
 40
0.4765625
 40
0.484375
 40
0.48828125
 40
0.4921875
 40
0.49609375
 40
0.498046875
 40
0.4990234375
 40
0.5
 40
0.5009765625
 40
0.501953125
 40
0.50390625
 40
0.5078125
 40
0.51171875
 40
0.515625
 40
0.5234375
 40
0.53125
 40
0.5390625
 40
0.546875
 40
0.55078125
 40
0.5546875
 40
0.55859375
 40
0.560546875
 40
0.5615234375
 40
0.5625
 40
0.5634765625
 40
0.564453125
 40
0.56640625
 40
0.5703125
 40
0.57421875
 40
0.578125
 40
0.5859375
 40
0.59375
 40
0.6015625
 40
0.609375
 40
0.61328125
 40
0.6171875
 40
0.619140625
 40
0.62109375
 40
0.623046875
 40
0.6240234375
 40
0.6245117188
 40
0.625
 40
0.6254882812
 40
0.6259765625
 40
0.626953125
 40
0.62890625
 40
0.630859375
 40
0.6328125
 40
0.63671875
 40
0.640625
 40
0.6484375
 40
0.65625
 40
0.6640625
 40
0.671875
 40
0.67578125
 40
0.6796875
 40
0.681640625
 40
0.68359375
 40
0.685546875
 40
0.6865234375
 40
0.6870117188
 40
0.6875
 40
0.6879882812
 40
0.6884765625
 40
0.689453125
 40
0.69140625
 40
0.693359375
 40
0.6953125
 40
0.69921875
 40
0.703125
 40
0.7109375
 40
0.71875
 40
0.7265625
 40
0.734375
 40
0.73828125
 40
0.7421875
 40
0.744140625
 40
0.74609375
 40
0.748046875
 40
0.7490234375
 40
0.7495117188
 40
0.75
 40
0.7504882812
 40
0.7509765625
 40
0.751953125
 40
0.75390625
 40
0.755859375
 40
0.7578125
 40
0.76171875
 40
0.765625
 40
0.7734375
 40
0.78125
 40
0.7890625
 40
0.796875
 40
0.80078125
 40
0.8046875
 40
0.806640625
 40
0.80859375
 40
0.810546875
 40
0.8115234375
 40
0.8120117188
 40
0.8125
 40
0.8129882812
 40
0.8134765625
 40
0.814453125
 40
0.81640625
 40
0.818359375
 40
0.8203125
 40
0.82421875
 40
0.828125
 40
0.8359375
 40
0.84375
 40
0.8515625
 40
0.859375
 40
0.86328125
 40
0.8671875
 40
0.869140625
 40
0.87109375
 40
0.873046875
 40
0.8740234375
 40
0.8745117188
 40
0.875
 40
0.8754882812
 40
0.8759765625
 40
0.876953125
 40
0.87890625
 40
0.880859375
 40
0.8828125
 40
0.88671875
 40
0.890625
 40
0.8984375
 40
0.90625
 40
0.9140625
 40
0.921875
 40
0.92578125
 40
0.9296875
 40
0.931640625
 40
0.93359375
 40
0.935546875
 40
0.9365234375
 40
0.9370117188
 40
0.9375
 40
0.9379882812
 40
0.9384765625
 40
0.939453125
 40
0.94140625
 40
0.943359375
 40
0.9453125
 40
0.94921875
 40
0.953125
 40
0.9609375
 40
0.96875
 40
0.9765625
 40
0.984375
 40
1.0
 40
1.0
 40
1.0
 40
1.0
 10
12.4252051517
 20
8.761476608
 30
0.0
 10
12.4259592243
 20
8.7624809249
 30
0.0
 10
12.4270903332
 20
8.7639874
 30
0.0
 10
12.4285984784
 20
8.7659960343
 30
0.0
 10
12.4297295874
 20
8.767502508
 30
0.0
 10
12.430860696
 20
8.7690089896
 30
0.0
 10
12.4318032879
 20
8.7702643661
 30
0.0
 10
12.4325573583
 20
8.7712687229
 30
0.0
 10
12.4330286593
 20
8.7718963196
 30
0.0
 10
12.433405684
 20
8.7723986861
 30
0.0
 10
12.4336884968
 20
8.7727746693
 30
0.0
 10
12.4339240332
 20
8.773090507
 30
0.0
 10
12.4340891852
 20
8.7733066511
 30
0.0
 10
12.4341831261
 20
8.7734378791
 30
0.0
 10
12.4342547976
 20
8.773514561
 30
0.0
 10
12.434321822
 20
8.7736743407
 30
0.0
 10
12.4344128089
 20
8.7738583948
 30
0.0
 10
12.4345712807
 20
8.7741939944
 30
0.0
 10
12.4347980639
 20
8.7746663619
 30
0.0
 10
12.4350700347
 20
8.7752362251
 30
0.0
 10
12.4354327214
 20
8.775994987
 30
0.0
 10
12.4358860597
 20
8.7769438009
 30
0.0
 10
12.4366114121
 20
8.778461701
 30
0.0
 10
12.4375180988
 20
8.780359146
 30
0.0
 10
12.4386061246
 20
8.7826360482
 30
0.0
 10
12.4396941492
 20
8.7849129655
 30
0.0
 10
12.4406008391
 20
8.7868103728
 30
0.0
 10
12.441326185
 20
8.7883283482
 30
0.0
 10
12.44177954
 20
8.7892769708
 30
0.0
 10
12.4421421923
 20
8.7900361254
 30
0.0
 10
12.4424142684
 20
8.7906047888
 30
0.0
 10
12.4426407221
 20
8.79108091
 30
0.0
 10
12.442799782
 20
8.7914098087
 30
0.0
 10
12.4428898267
 20
8.7916045993
 30
0.0
 10
12.4429597452
 20
8.7917314002
 30
0.0
 10
12.443020547
 20
8.7919319448
 30
0.0
 10
12.443104796
 20
8.7921736149
 30
0.0
 10
12.4432507501
 20
8.7926085223
 30
0.0
 10
12.4434600306
 20
8.7932235528
 30
0.0
 10
12.4437108357
 20
8.7939642714
 30
0.0
 10
12.4440453583
 20
8.7949509594
 30
0.0
 10
12.4444634718
 20
8.7961846401
 30
0.0
 10
12.4451324757
 20
8.79815835
 30
0.0
 10
12.4459687228
 20
8.8006255493
 30
0.0
 10
12.4469722229
 20
8.8035861603
 30
0.0
 10
12.4479757211
 20
8.8065467849
 30
0.0
 10
12.4488119732
 20
8.80901395
 30
0.0
 10
12.449480967
 20
8.8109877283
 30
0.0
 10
12.449899106
 20
8.8122212351
 30
0.0
 10
12.4502335764
 20
8.8132082802
 30
0.0
 10
12.4504845406
 20
8.813947908
 30
0.0
 10
12.4506933233
 20
8.8145663513
 30
0.0
 10
12.4508401662
 20
8.8149951663
 30
0.0
 10
12.4509229912
 20
8.8152465979
 30
0.0
 10
12.4509881671
 20
8.8154171582
 30
0.0
 10
12.4510416567
 20
8.815656575
 30
0.0
 10
12.4511170524
 20
8.8159517794
 30
0.0
 10
12.4512470957
 20
8.8164795775
 30
0.0
 10
12.4514338647
 20
8.8172277244
 30
0.0
 10
12.4516575625
 20
8.8181280049
 30
0.0
 10
12.4519559748
 20
8.8193275041
 30
0.0
 10
12.4523289392
 20
8.8208271777
 30
0.0
 10
12.4529257109
 20
8.8232264878
 30
0.0
 10
12.4536716646
 20
8.8262256852
 30
0.0
 10
12.4545668184
 20
8.8298246864
 30
0.0
 10
12.4554619523
 20
8.8334237347
 30
0.0
 10
12.4562079558
 20
8.8364228141
 30
0.0
 10
12.4568046279
 20
8.8388223603
 30
0.0
 10
12.4572524891
 20
8.8406212483
 30
0.0
 10
12.4576245708
 20
8.8421227761
 30
0.0
 10
12.4578872572
 20
8.8431690288
 30
0.0
 10
12.4580338829
 20
8.8437744084
 30
0.0
 10
12.4581536578
 20
8.8442072566
 30
0.0
 10
12.4582359506
 20
8.8447210903
 30
0.0
 10
12.4583587484
 20
8.8453779533
 30
0.0
 10
12.4585675531
 20
8.8465406252
 30
0.0
 10
12.4588690303
 20
8.8481947039
 30
0.0
 10
12.4592294397
 20
8.8501825438
 30
0.0
 10
12.4597104619
 20
8.8528319678
 30
0.0
 10
12.460311575
 20
8.8561441028
 30
0.0
 10
12.4610329863
 20
8.8601185049
 30
0.0
 10
12.4617543589
 20
8.8640929783
 30
0.0
 10
12.4623555689
 20
8.8674049352
 30
0.0
 10
12.4628363974
 20
8.8700547152
 30
0.0
 10
12.4631973977
 20
8.8720414694
 30
0.0
 10
12.4634970262
 20
8.8736989446
 30
0.0
 10
12.463709131
 20
8.8748555532
 30
0.0
 10
12.4638266412
 20
8.8755221311
 30
0.0
 10
12.4639251758
 20
8.8760061239
 30
0.0
 10
12.463983949
 20
8.8765510498
 30
0.0
 10
12.4640761824
 20
8.8772563635
 30
0.0
 10
12.464231129
 20
8.8785005652
 30
0.0
 10
12.4644558595
 20
8.880272819
 30
0.0
 10
12.4647240903
 20
8.8824017396
 30
0.0
 10
12.4650822359
 20
8.8852395265
 30
0.0
 10
12.4655297482
 20
8.8887870236
 30
0.0
 10
12.4660668203
 20
8.8930439163
 30
0.0
 10
12.4666039349
 20
8.8973008028
 30
0.0
 10
12.4670513408
 20
8.9008483153
 30
0.0
 10
12.4674096993
 20
8.9036860714
 30
0.0
 10
12.4676772807
 20
8.9058150861
 30
0.0
 10
12.4679040427
 20
8.9075870454
 30
0.0
 10
12.4680769799
 20
8.9090095911
 30
0.0
 10
12.4682298338
 20
8.9100628973
 30
0.0
 10
12.4682943198
 20
8.9111681265
 30
0.0
 10
12.4684111693
 20
8.9126236281
 30
0.0
 10
12.4685466405
 20
8.914449228
 30
0.0
 10
12.4687137387
 20
8.9166372843
 30
0.0
 10
12.4689349549
 20
8.9195556228
 30
0.0
 10
12.4692120038
 20
8.9232032287
 30
0.0
 10
12.4695442969
 20
8.9275804835
 30
0.0
 10
12.4698764066
 20
8.9319577349
 30
0.0
 10
12.4702094154
 20
8.936334872
 30
0.0
 10
12.4704840788
 20
8.9399828703
 30
0.0
 10
12.4706819219
 20
8.9425357126
 30
0.0
 10
12.4707862648
 20
8.9439956613
 30
0.0
 10
12.4708890592
 20
8.9450872939
 30
0.0
 10
12.4708980596
 20
8.9461916513
 30
0.0
 10
12.4709427766
 20
8.9476596893
 30
0.0
 10
12.471005788
 20
8.9502308238
 30
0.0
 10
12.4711037753
 20
8.9539027923
 30
0.0
 10
12.4712179411
 20
8.9583096157
 30
0.0
 10
12.4713330291
 20
8.9627163233
 30
0.0
 10
12.471447847
 20
8.9671230327
 30
0.0
 10
12.4715436605
 20
8.9707953812
 30
0.0
 10
12.4716201298
 20
8.9737330415
 30
0.0
 10
12.4716779473
 20
8.9759368878
 30
0.0
 10
12.4717246521
 20
8.9777715141
 30
0.0
 10
12.4717602425
 20
8.9790595052
 30
0.0
 10
12.4717760564
 20
8.9797896406
 30
0.0
 10
12.4718006593
 20
8.9803537485
 30
0.0
 10
12.4717765543
 20
8.9808547605
 30
0.0
 10
12.4717614042
 20
8.9815447851
 30
0.0
 10
12.4717269756
 20
8.9827420739
 30
0.0
 10
12.4716819304
 20
8.9844578476
 30
0.0
 10
12.4716261047
 20
8.9865144811
 30
0.0
 10
12.4715522894
 20
8.9892574611
 30
0.0
 10
12.4714598065
 20
8.9926859087
 30
0.0
 10
12.4713489245
 20
8.9968001747
 30
0.0
 10
12.4712379946
 20
9.0009143689
 30
0.0
 10
12.4711456317
 20
9.0043429959
 30
0.0
 10
12.4710715765
 20
9.007085617
 30
0.0
 10
12.4710164824
 20
9.0091433454
 30
0.0
 10
12.4709691482
 20
9.0108556938
 30
0.0
 10
12.4709388059
 20
9.0120590972
 30
0.0
 10
12.4709171085
 20
9.0127393247
 30
0.0
 10
12.4709131146
 20
9.0132704301
 30
0.0
 10
12.4708621834
 20
9.0137215123
 30
0.0
 10
12.4708106474
 20
9.0143508683
 30
0.0
 10
12.4707128313
 20
9.015439236
 30
0.0
 10
12.470577082
 20
9.0170008463
 30
0.0
 10
12.4704124759
 20
9.0188718684
 30
0.0
 10
12.4701935973
 20
9.0213675811
 30
0.0
 10
12.4699197944
 20
9.0244868728
 30
0.0
 10
12.4695913191
 20
9.028230174
 30
0.0
 10
12.4692628183
 20
9.0319734296
 30
0.0
 10
12.4689890795
 20
9.035092835
 30
0.0
 10
12.4687700726
 20
9.0375883204
 30
0.0
 10
12.468633227
 20
9.0391480832
 30
0.0
 10
12.4685236735
 20
9.0403957006
 30
0.0
 10
12.4684417192
 20
9.0413319414
 30
0.0
 10
12.4683727535
 20
9.0421104634
 30
0.0
 10
12.4683257931
 20
9.0426587231
 30
0.0
 10
12.4682969045
 20
9.0429668705
 30
0.0
 10
12.4682810245
 20
9.0432124715
 30
0.0
 10
12.4682430254
 20
9.0434026825
 30
0.0
 10
12.4682000754
 20
9.0436756179
 30
0.0
 10
12.4681213181
 20
9.0441442529
 30
0.0
 10
12.4680106871
 20
9.0448184377
 30
0.0
 10
12.4678771254
 20
9.0456254451
 30
0.0
 10
12.4676993241
 20
9.0467021585
 30
0.0
 10
12.4674769763
 20
9.0480478094
 30
0.0
 10
12.4671212736
 20
9.0502009855
 30
0.0
 10
12.4666766266
 20
9.0528924091
 30
0.0
 10
12.4661430587
 20
9.0561221388
 30
0.0
 10
12.4656094867
 20
9.0593518571
 30
0.0
 10
12.4651648502
 20
9.0620433094
 30
0.0
 10
12.4648091265
 20
9.064196428
 30
0.0
 10
12.4645868319
 20
9.0655422249
 30
0.0
 10
12.4644089215
 20
9.0666186386
 30
0.0
 10
12.4642756932
 20
9.0674265619
 30
0.0
 10
12.4641640189
 20
9.0680978809
 30
0.0
 10
12.4640871241
 20
9.0685716319
 30
0.0
 10
12.4640411899
 20
9.0688363701
 30
0.0
 10
12.4640123572
 20
9.0690517602
 30
0.0
 10
12.4639620498
 20
9.0692027928
 30
0.0
 10
12.4639024639
 20
9.0694266182
 30
0.0
 10
12.4637946986
 20
9.0698078533
 30
0.0
 10
12.4636425728
 20
9.0703579433
 30
0.0
 10
12.4634592408
 20
9.0710157106
 30
0.0
 10
12.4632150709
 20
9.0718935512
 30
0.0
 10
12.4629097652
 20
9.072990572
 30
0.0
 10
12.4624213282
 20
9.0747459619
 30
0.0
 10
12.461810764
 20
9.076940145
 30
0.0
 10
12.461078095
 20
9.0795731901
 30
0.0
 10
12.4603454225
 20
9.0822062208
 30
0.0
 10
12.4597348672
 20
9.0844004398
 30
0.0
 10
12.4592464124
 20
9.0861557579
 30
0.0
 10
12.458941152
 20
9.0872529611
 30
0.0
 10
12.4586968891
 20
9.0881304275
 30
0.0
 10
12.4585138414
 20
9.0887893381
 30
0.0
 10
12.4583608259
 20
9.0893358509
 30
0.0
 10
12.4582546488
 20
9.0897234718
 30
0.0
 10
12.4581925182
 20
9.0899370657
 30
0.0
 10
12.4581500276
 20
9.0901195261
 30
0.0
 10
12.4580918364
 20
9.0902168783
 30
0.0
 10
12.4580197247
 20
9.0903763678
 30
0.0
 10
12.4578909777
 20
9.0906416429
 30
0.0
 10
12.4577083873
 20
9.0910278387
 30
0.0
 10
12.4574887079
 20
9.0914881784
 30
0.0
 10
12.4571960014
 20
9.0921030458
 30
0.0
 10
12.4568300501
 20
9.0928712598
 30
0.0
 10
12.4562445661
 20
9.0941006092
 30
0.0
 10
12.4555126979
 20
9.0956372244
 30
0.0
 10
12.454634462
 20
9.0974811954
 30
0.0
 10
12.4537562234
 20
9.0993251499
 30
0.0
 10
12.4530243621
 20
9.1008618065
 30
0.0
 10
12.4524388642
 20
9.1020910732
 30
0.0
 10
12.4520729482
 20
9.1028594973
 30
0.0
 10
12.4517801691
 20
9.1034739336
 30
0.0
 10
12.4515607116
 20
9.1039355902
 30
0.0
 10
12.451377427
 20
9.1043176657
 30
0.0
 10
12.4512499193
 20
9.1045902961
 30
0.0
 10
12.4511758218
 20
9.1047380007
 30
0.0
 10
12.4511237304
 20
9.1048715525
 30
0.0
 10
12.4510583301
 20
9.1049180528
 30
0.0
 10
12.4509757719
 20
9.1050104178
 30
0.0
 10
12.4508291322
 20
9.1051579092
 30
0.0
 10
12.4506207776
 20
9.1053760075
 30
0.0
 10
12.4503702682
 20
9.1056345596
 30
0.0
 10
12.4500364247
 20
9.1059804016
 30
0.0
 10
12.4496190623
 20
9.1064123253
 30
0.0
 10
12.448951315
 20
9.1071036151
 30
0.0
 10
12.4481166197
 20
9.1079676541
 30
0.0
 10
12.4471149903
 20
9.1090045345
 30
0.0
 10
12.4461133587
 20
9.1100413977
 30
0.0
 10
12.4452786688
 20
9.1109054796
 30
0.0
 10
12.4446109107
 20
9.1115966837
 30
0.0
 10
12.4441935758
 20
9.112028825
 30
0.0
 10
12.4438596759
 20
9.1123742204
 30
0.0
 10
12.4436093386
 20
9.1126341368
 30
0.0
 10
12.4434004455
 20
9.1128479665
 30
0.0
 10
12.4432547672
 20
9.1130030781
 30
0.0
 10
12.4431706686
 20
9.1130832335
 30
0.0
 10
12.4431099999
 20
9.1131672379
 30
0.0
 10
12.4430401372
 20
9.113159931
 30
0.0
 10
12.4429501939
 20
9.1131820388
 30
0.0
 10
12.4427912989
 20
9.1132058878
 30
0.0
 10
12.4425650873
 20
9.1132477163
 30
0.0
 10
12.442293299
 20
9.1132945895
 30
0.0
 10
12.4419310313
 20
9.1133582471
 30
0.0
 10
12.4414781567
 20
9.1134374219
 30
0.0
 10
12.4407535798
 20
9.1135643237
 30
0.0
 10
12.4398478509
 20
9.1137228742
 30
0.0
 10
12.4387609797
 20
9.1139131699
 30
0.0
 10
12.4376741069
 20
9.1141034479
 30
0.0
 10
12.4367683819
 20
9.1142620429
 30
0.0
 10
12.4360437972
 20
9.1143888556
 30
0.0
 10
12.4355909423
 20
9.1144682567
 30
0.0
 10
12.4352286342
 20
9.1145314498
 30
0.0
 10
12.4349569692
 20
9.1145797421
 30
0.0
 10
12.4347303719
 20
9.1146171309
 30
0.0
 10
12.4345721654
 20
9.1146489054
 30
0.0
 10
12.4344811189
 20
9.1146583146
 30
0.0
 10
12.4344146448
 20
9.114690014
 30
0.0
 10
12.4343412492
 20
9.1146275169
 30
0.0
 10
12.4342458028
 20
9.1145770443
 30
0.0
 10
12.4340776466
 20
9.1144734086
 30
0.0
 10
12.4338380117
 20
9.114333361
 30
0.0
 10
12.433550198
 20
9.1141618782
 30
0.0
 10
12.4331665343
 20
9.1139344311
 30
0.0
 10
12.4326869247
 20
9.1136497124
 30
0.0
 10
12.431919566
 20
9.1131943915
 30
0.0
 10
12.4309603619
 20
9.1126251618
 30
0.0
 10
12.4298093195
 20
9.1119421199
 30
0.0
 10
12.4286582764
 20
9.1112590689
 30
0.0
 10
12.4271235525
 20
9.1103483375
 30
0.0
 10
12.4259725096
 20
9.1096652882
 30
0.0
 10
12.4252051476
 20
9.1092099221
 30
0.0
  0
ENDSEC
  0
SECTION
  2
OBJECTS
  0
DICTIONARY
  5
C
100
AcDbDictionary
280
0
281
1
  3
ACAD_GROUP
350
D
  3
ACAD_MLINESTYLE
350
17
  3
ACAD_LAYOUT
350
1A
  3
ACAD_PLOTSETTINGS
350
19
  3
ACAD_PLOTSTYLENAME
350
E
  3
ACAD_IMAGE_DICT
350
       384
  3
ACAD_IMAGE_VARS
350
       385
  3
ACAD_TABLESTYLE
350
       386
  0
IMAGEDEF_REACTOR
  5
383
100
AcDbRasterImageDefReactor
 90
2
330
28A
  0
DICTIONARY
  5
D
102
{ACAD_REACTORS
330
C
102
}
100
AcDbDictionary
280
0
281
1
  0
ACDBDICTIONARYWDFLT
  5
E
102
{ACAD_REACTORS
330
C
102
}
100
AcDbDictionary
281
1
  3
Normal
350
F
100
AcDbDictionaryWithDefault
340
F
  0
DICTIONARY
  5
384
330
C
100
AcDbDictionary
281
1
  3
YVV_assy_2_img_1
350
       389
  0
RASTERVARIABLES
  5
385
330
C
100
AcDbRasterVariables
 90
0
 70
0
 71
1
 72
5
  0
DICTIONARY
  5
17
102
{ACAD_REACTORS
330
C
102
}
100
AcDbDictionary
280
0
281
1
  3
Standard
350
18
  0
DICTIONARY
  5
386
330
C
100
AcDbDictionary
281
1
  3
Standard
350
       38A
  3
Standard1
350
       38B
  0
DICTIONARY
  5
19
102
{ACAD_REACTORS
330
C
102
}
100
AcDbDictionary
281
1
  0
DICTIONARY
  5
1A
102
{ACAD_REACTORS
330
C
102
}
100
AcDbDictionary
281
1
  3
Model
350
387
  3
Layout1
350
388
  0
ACDBPLACEHOLDER
  5
F
102
{ACAD_REACTORS
330
E
102
}
  0
MLINESTYLE
  5
18
102
{ACAD_REACTORS
330
17
102
}
100
AcDbMlineStyle
  2
STANDARD
 70
0
  3

 62
256
 51
90.0
 52
90.0
 71
2
 49
0.5
 62
256
  6
BYLAYER
 49
-0.5
 62
256
  6
BYLAYER
  0
LAYOUT
  5
387
102
{ACAD_REACTORS
330
1A
102
}
100
AcDbPlotSettings
  1

  2
none_device
  4
ANSI_C_(22.00_x_17.00_Inches)
  6

 40
0.0
 41
0.0
 42
0.0
 43
0.0
 44
558.8
 45
431.8
 46
0.0
 47
0.0
 48
0.0
 49
0.0
140
0.0
141
0.0
142
1.0
143
1.0
 70
1024
 72
0
 73
0
 74
0
  7

 75
0
147
1.0
148
0.0
149
0.0
100
AcDbLayout
  1
Model
 70
0
 71
0
 10
0.0
 20
0.0
 11
22.0
 21
17.0
 12
0.0
 22
0.0
 32
0.0
 14
0.0
 24
0.0
 34
0.0
 15
0.0
 25
0.0
 35
0.0
146
0.0
 13
0.0
 23
0.0
 33
0.0
 16
1.0
 26
0.0
 36
0.0
 17
0.0
 27
1.0
 37
0.0
 76
0
330
207
345
0
346
0
  0
LAYOUT
  5
388
102
{ACAD_REACTORS
330
1A
102
}
100
AcDbPlotSettings
  1

  2
none_device
  4
ANSI_C_(22.00_x_17.00_Inches)
  6

 40
0.0
 41
0.0
 42
0.0
 43
0.0
 44
558.8
 45
431.8
 46
0.0
 47
0.0
 48
0.0
 49
0.0
140
0.0
141
0.0
142
1.0
143
1.0
 70
0
 72
0
 73
0
 74
0
  7

 75
0
147
1.0
148
0.0
149
0.0
100
AcDbLayout
  1
Layout1
 70
0
 71
1
 10
0.0
 20
0.0
 11
22.0
 21
17.0
 12
0.0
 22
0.0
 32
0.0
 14
0.0
 24
0.0
 34
0.0
 15
0.0
 25
0.0
 35
0.0
146
0.0
 13
0.0
 23
0.0
 33
0.0
 16
1.0
 26
0.0
 36
0.0
 17
0.0
 27
1.0
 37
0.0
 76
0
330
208
345
0
346
0
  0
IMAGEDEF
  5
389
102
{ACAD_REACTORS
330
384
330
383
102
}
100
AcDbRasterImageDef
 90
0
  1
YVV_assy_2_img_1.png
 10
369.0
 20
92.0
 11
0.0066666667
 21
0.0066666667
280
1
281
0
  0
TABLESTYLE
  5
38A
102
{ACAD_REACTORS
330
386
330
28D
330
28E
102
}
330
386
100
AcDbTableStyle
  3
Standard
 70
0
 71
0
 40
0.06
 41
0.06
280
1
281
1
  7
Standard
140
0.18
170
1
 62
0
 63
7
283
0
  7
Standard
140
0.18
170
1
 62
0
 63
7
283
0
  7
Standard
140
0.18
170
1
 62
0
 63
7
283
0
  0
TABLESTYLE
  5
38B
102
{ACAD_REACTORS
330
386
330
28C
102
}
330
386
100
AcDbTableStyle
  3
Standard1
 70
1
 71
0
 40
0.06
 41
0.06
280
1
281
1
  7
Standard
140
0.18
170
1
 62
0
 63
7
283
0
  7
Standard
140
0.18
170
1
 62
0
 63
7
283
0
  7
Standard
140
0.18
170
1
 62
0
 63
7
283
0
  0
ENDSEC
  0
EOF
