999
DXF file: YVU_assy_2.dxf
999
Pro/ENGINEER 2014200 by Parametric Technology Corporation
  0
SECTION
  2
HEADER
  9
$ACADVER
  1
AC1021
  9
$DWGCODEPAGE
  3
ANSI_1252
  9
$EXTMAX
 10
22.0
 20
17.0
 30
0.0
  9
$EXTMIN
 10
0.0
 20
0.0
 30
0.0
  9
$LIMMIN
 10
0.0
 20
0.0
  9
$LIMMAX
 10
22.0
 20
17.0
  9
$VIEWCTR
 10
11.0
 20
8.5
  9
$VIEWSIZE
 40
17.0
  9
$CLAYER
  8
0
  9
$LTSCALE
 40
1.21
  9
$CELTYPE
  6
BYLAYER
  9
$DIMSCALE
 40
1.0
  9
$DIMASZ
 40
0.1875
  9
$DIMEXO
 40
0.0625
  9
$DIMDLI
 40
0.836
  9
$DIMEXE
 40
0.125
  9
$DIMCEN
 40
0.198
  9
$DIMLFAC
 40
1.0
  9
$DIMBLK
  1
_FILLED
  9
$DIMTXT
 40
0.1
  9
$DIMTOL
 70
0
  9
$DIMLIM
 70
0
  9
$DIMTFAC
 40
1.0
  9
$DIMGAP
 40
0.09
  9
$DIMDSEP
 70
46
  9
$AUNITS
 70
0
  9
$PDMODE
 70
3
  9
$PDSIZE
 40
0.3125
  9
$HANDSEED
  5
39A
  9
$TILEMODE
 70
1
  9
$MEASUREMENT
 70
0
  9
$INSUNITS
 70
1
  0
ENDSEC
  0
SECTION
  2
CLASSES
  0
CLASS
  1
ACDBDICTIONARYWDFLT
  2
AcDbDictionaryWithDefault
  3
AutoCAD 2000
 90
0
 91
1
280
0
281
0
  0
CLASS
  1
ACDBPLACEHOLDER
  2
AcDbPlaceHolder
  3
AutoCAD 2000
 90
0
 91
1
280
0
281
0
  0
CLASS
  1
LAYOUT
  2
AcDbLayout
  3
AutoCAD 2000
 90
0
 91
0
280
0
281
0
  0
CLASS
  1
RASTERVARIABLES
  2
AcDbRasterVariables
  3
ISM
 90
0
 91
1
280
0
281
0
  0
CLASS
  1
IMAGEDEF
  2
AcDbRasterImageDef
  3
ISM
 90
0
 91
1
280
0
281
0
  0
CLASS
  1
IMAGEDEF_REACTOR
  2
AcDbRasterImageDefReactor
  3
ISM
 90
0
 91
1
280
0
281
0
  0
CLASS
  1
IMAGE
  2
AcDbRasterImage
  3
ISM
 90
127
 91
1
280
0
281
1
  0
CLASS
  1
TABLESTYLE
  2
AcDbTableStyle
  3
ObjectDBX Classes
 90
2047
 91
1
280
0
281
0
  0
CLASS
  1
ACAD_TABLE
  2
AcDbTable
  3
ObjectDBX Classes
 90
1025
 91
3
280
0
281
1
  0
ENDSEC
  0
SECTION
  2
TABLES
  0
TABLE
  2
VPORT
  5
8
100
AcDbSymbolTable
 70
2
  0
VPORT
  5
1F4
100
AcDbSymbolTableRecord
100
AcDbViewportTableRecord
  2
*ACTIVE
 70
0
 10
0.0
 20
0.0
 11
1.0
 21
1.0
 12
11.0
 22
8.5
 13
0.0
 23
0.0
 14
1.0
 24
1.0
 15
0.0
 25
0.0
 16
0.0
 26
0.0
 36
1.0
 17
0.0
 27
0.0
 37
0.0
 40
17.0
 41
1.2941176471
 42
50.0
 43
0.0
 44
0.0
 50
0.0
 51
0.0
 71
0
 72
100
 73
1
 74
1
 75
0
 76
0
 77
0
 78
0
  0
ENDTAB
  0
TABLE
  2
LTYPE
  5
5
100
AcDbSymbolTable
 70
6
  0
LTYPE
  5
14
100
AcDbSymbolTableRecord
100
AcDbLinetypeTableRecord
  2
BYBLOCK
 70
0
  3

 72
65
 73
0
 40
0.0
  0
LTYPE
  5
15
100
AcDbSymbolTableRecord
100
AcDbLinetypeTableRecord
  2
BYLAYER
 70
0
  3

 72
65
 73
0
 40
0.0
  0
LTYPE
  5
16
100
AcDbSymbolTableRecord
100
AcDbLinetypeTableRecord
  2
CONTINUOUS
 70
64
  3
Solid line
 72
65
 73
0
 40
0.0
  0
LTYPE
  5
1F5
100
AcDbSymbolTableRecord
100
AcDbLinetypeTableRecord
  2
CENTER
 70
64
  3
____ _ ____ _ ____ _ ____ _ ____ _ ____ _ ____
 72
65
 73
4
 40
0.6
 49
0.375
 74
0
 49
-0.075
 74
0
 49
0.075
 74
0
 49
-0.075
 74
0
  0
LTYPE
  5
1F6
100
AcDbSymbolTableRecord
100
AcDbLinetypeTableRecord
  2
HIDDEN
 70
64
  3
- - - - - - - - - - - - - - - - - - - -
 72
65
 73
2
 40
0.2
 49
0.1
 74
0
 49
-0.1
 74
0
  0
LTYPE
  5
1F7
100
AcDbSymbolTableRecord
100
AcDbLinetypeTableRecord
  2
PHANTOM
 70
64
  3
_____ _ _ _____ _ _ _____ _ _ _____
 72
65
 73
6
 40
0.8
 49
0.45
 74
0
 49
-0.05
 74
0
 49
0.1
 74
0
 49
-0.05
 74
0
 49
0.1
 74
0
 49
-0.05
 74
0
  0
LTYPE
  5
1F8
100
AcDbSymbolTableRecord
100
AcDbLinetypeTableRecord
  2
DOT
 70
64
  3
. . . . . . . . . . . . . . . . . . . .
 72
65
 73
2
 40
0.2
 49
0.1
 74
0
 49
-0.1
 74
0
  0
LTYPE
  5
1F9
100
AcDbSymbolTableRecord
100
AcDbLinetypeTableRecord
  2
DASHED
 70
64
  3
- - - - - - - - - - - - - - - - - - - -
 72
65
 73
2
 40
0.2
 49
0.1
 74
0
 49
-0.1
 74
0
  0
ENDTAB
  0
TABLE
  2
LAYER
  5
2
100
AcDbSymbolTable
 70
36
  0
LAYER
  5
10
100
AcDbSymbolTableRecord
100
AcDbLayerTableRecord
  2
0
 70
0
 62
7
  6
CONTINUOUS
370
-3
390
F
  0
LAYER
  5
1FA
100
AcDbSymbolTableRecord
100
AcDbLayerTableRecord
  2
DEFAULT_1
 70
0
 62
7
  6
CENTER
370
-3
390
F
  0
LAYER
  5
1FB
100
AcDbSymbolTableRecord
100
AcDbLayerTableRecord
  2
DEFAULT_2
 70
0
 62
8
  6
HIDDEN
370
-3
390
F
  0
LAYER
  5
1FC
100
AcDbSymbolTableRecord
100
AcDbLayerTableRecord
  2
DEFAULT_3
 70
0
 62
7
  6
PHANTOM
370
-3
390
F
  0
LAYER
  5
1FD
100
AcDbSymbolTableRecord
100
AcDbLayerTableRecord
  2
DATUM_PLANES
 70
0
 62
7
  6
CONTINUOUS
370
-3
390
F
  0
LAYER
  5
1FE
100
AcDbSymbolTableRecord
100
AcDbLayerTableRecord
  2
DIMENSIONS
 70
0
 62
7
  6
CONTINUOUS
370
-3
390
F
  0
LAYER
  5
1FF
100
AcDbSymbolTableRecord
100
AcDbLayerTableRecord
  2
DTM_500001
 70
0
 62
7
  6
CONTINUOUS
370
-3
390
F
  0
LAYER
  5
200
100
AcDbSymbolTableRecord
100
AcDbLayerTableRecord
  2
PARAMETERDIMENSIONS
 70
0
 62
7
  6
CONTINUOUS
370
-3
390
F
  0
LAYER
  5
201
100
AcDbSymbolTableRecord
100
AcDbLayerTableRecord
  2
PORT_AREAS
 70
0
 62
7
  6
CONTINUOUS
370
-3
390
F
  0
LAYER
  5
202
100
AcDbSymbolTableRecord
100
AcDbLayerTableRecord
  2
SUNNBOMCOSMETIC
 70
0
 62
7
  6
CONTINUOUS
370
-3
390
F
  0
LAYER
  5
203
100
AcDbSymbolTableRecord
100
AcDbLayerTableRecord
  2
SUNNBOMSTAMPING
 70
0
 62
7
  6
CONTINUOUS
370
-3
390
F
  0
LAYER
  5
204
100
AcDbSymbolTableRecord
100
AcDbLayerTableRecord
  2
THREADS
 70
0
 62
7
  6
CONTINUOUS
370
-3
390
F
  0
ENDTAB
  0
TABLE
  2
STYLE
  5
3
100
AcDbSymbolTable
 70
1
  0
STYLE
  5
11
100
AcDbSymbolTableRecord
100
AcDbTextStyleTableRecord
  2
STANDARD
 70
0
 40
0.0
 41
0.8
 50
0.0
 71
0
 42
0.2
  3
txt
  4

  0
STYLE
  5
205
100
AcDbSymbolTableRecord
100
AcDbTextStyleTableRecord
  2
TEXTSTYLE_1
 70
0
 40
0.0
 41
0.8
 50
0.0
 71
0
 42
0.2
  3
gdt
  4

  0
ENDTAB
  0
TABLE
  2
VIEW
  5
6
100
AcDbSymbolTable
 70
0
  0
ENDTAB
  0
TABLE
  2
UCS
  5
7
100
AcDbSymbolTable
 70
0
  0
ENDTAB
  0
TABLE
  2
APPID
  5
9
100
AcDbSymbolTable
 70
1
  0
APPID
  5
206
100
AcDbSymbolTableRecord
100
AcDbRegAppTableRecord
  2
ACAD
 70
0
  0
ENDTAB
  0
TABLE
  2
BLOCK_RECORD
  5
1
100
AcDbSymbolTable
 70
0
  0
BLOCK_RECORD
  5
207
100
AcDbSymbolTableRecord
100
AcDbBlockTableRecord
  2
*Model_Space
  0
BLOCK_RECORD
  5
208
100
AcDbSymbolTableRecord
100
AcDbBlockTableRecord
  2
*Paper_Space
  0
BLOCK_RECORD
  5
209
100
AcDbSymbolTableRecord
100
AcDbBlockTableRecord
  2
SUN_FIRST_THIRD_ANGLE_BL0
  0
BLOCK_RECORD
  5
20A
100
AcDbSymbolTableRecord
100
AcDbBlockTableRecord
  2
*T1
  0
BLOCK_RECORD
  5
20B
100
AcDbSymbolTableRecord
100
AcDbBlockTableRecord
  2
*T2
  0
BLOCK_RECORD
  5
20C
100
AcDbSymbolTableRecord
100
AcDbBlockTableRecord
  2
*T3
  0
ENDTAB
  0
TABLE
  2
DIMSTYLE
  5
A
100
AcDbSymbolTable
 70
1
100
AcDbDimStyleTable
 71
0
  0
DIMSTYLE
105
20D
100
AcDbSymbolTableRecord
100
AcDbDimStyleTableRecord
  2
STANDARD
 70
0
  3

  4

 40
1.0
 41
0.1875
 42
0.0625
 43
0.38
 44
0.125
 45
0.0
 46
0.0
 47
0.001
 48
0.001
140
0.1
141
0.09
142
0.0
143
25.4
144
1.0
145
0.0
146
1.0
147
0.09
 71
0.0
 72
0.0
 73
1
 74
1
 75
0
 76
0
 77
0
 78
4
170
0
171
2
172
0
173
0
174
0
175
0
176
0
177
0
178
0
270
2
271
3
272
3
273
2
274
2
275
0
280
0
281
0
282
0
283
1
284
4
285
0
286
0
287
3
288
0
340
11
278
46
  0
ENDTAB
  0
ENDSEC
  0
SECTION
  2
BLOCKS
  0
BLOCK
  5
20
100
AcDbEntity
  8
0
100
AcDbBlockBegin
  2
*Model_Space
 70
0
 10
0.0
 20
0.0
 30
0.0
  3
*Model_Space
  1

  0
ENDBLK
  5
21
100
AcDbEntity
  8
0
100
AcDbBlockEnd
  0
BLOCK
  5
1C
100
AcDbEntity
  8
0
100
AcDbBlockBegin
  2
*Paper_Space
 70
0
 10
0.0
 20
0.0
 30
0.0
  3
*Paper_Space
  1

  0
ENDBLK
  5
1D
100
AcDbEntity
  8
0
100
AcDbBlockEnd
  0
BLOCK
  5
20E
100
AcDbEntity
  8
0
100
AcDbBlockBegin
 62
2
  6
CONTINUOUS
  2
SUN_FIRST_THIRD_ANGLE_BL0
 70
64
 10
20.4816717061
 20
1.2289683772
  3
SUN_FIRST_THIRD_ANGLE_BL0
  1

  0
TEXT
  5
20F
100
AcDbEntity
  8
0
100
AcDbText
 62
2
  6
CONTINUOUS
 10
19.4750896608
 20
1.4136269581
  7
STANDARD
 40
0.08
  1
FIRST ANGLE
 41
0.8
 72
0
100
AcDbText
  0
TEXT
  5
210
100
AcDbEntity
  8
0
100
AcDbText
 62
2
  6
CONTINUOUS
 10
20.7842537513
 20
1.4047600029
  7
STANDARD
 40
0.08
  1
THIRD ANGLE
 41
0.8
 72
0
100
AcDbText
  0
LINE
  5
211
100
AcDbEntity
  8
0
100
AcDbLine
 62
7
  6
CONTINUOUS
 10
19.4767170086
 20
1.1727031207
 11
19.6334271527
 21
1.1717972817
  0
LINE
  5
212
100
AcDbEntity
  8
0
100
AcDbLine
 62
7
  6
CONTINUOUS
 10
19.6596964832
 20
1.1717972817
 11
19.6950230232
 21
1.171593082
  0
LINE
  5
213
100
AcDbEntity
  8
0
100
AcDbLine
 62
7
  6
CONTINUOUS
 10
19.7194818561
 20
1.1708914427
 11
19.8852396156
 21
1.1699333054
  0
LINE
  5
214
100
AcDbEntity
  8
0
100
AcDbLine
 62
7
  6
CONTINUOUS
 10
19.4758111696
 20
1.2723454088
 11
19.88525039
 21
1.3511534004
  0
LINE
  5
215
100
AcDbEntity
  8
0
100
AcDbLine
 62
7
  6
CONTINUOUS
 10
19.88525039
 20
1.3511534004
 11
19.8831348489
 21
0.9851647912
  0
LINE
  5
216
100
AcDbEntity
  8
0
100
AcDbLine
 62
7
  6
CONTINUOUS
 10
19.8831348489
 20
0.9851647912
 11
19.4767170086
 21
1.0658141206
  0
LINE
  5
217
100
AcDbEntity
  8
0
100
AcDbLine
 62
7
  6
CONTINUOUS
 10
19.4767170086
 20
1.0658141206
 11
19.4779056764
 21
1.2714536432
  0
CIRCLE
  5
218
100
AcDbEntity
  8
0
100
AcDbCircle
 62
7
  6
CONTINUOUS
 10
20.2068232291
 20
1.1717972817
 40
0.175742101
  0
CIRCLE
  5
219
100
AcDbEntity
  8
0
100
AcDbCircle
 62
7
  6
CONTINUOUS
 10
20.2068232291
 20
1.1717972817
 40
0.1005522074
  0
LINE
  5
21A
100
AcDbEntity
  8
0
100
AcDbLine
 62
7
  6
CONTINUOUS
 10
20.2077290681
 20
1.3756110529
 11
20.2071171714
 21
1.2379342989
  0
LINE
  5
21B
100
AcDbEntity
  8
0
100
AcDbLine
 62
7
  6
CONTINUOUS
 10
20.2077290681
 20
1.2016899681
 11
20.2074674401
 21
1.1428236749
  0
LINE
  5
21C
100
AcDbEntity
  8
0
100
AcDbLine
 62
7
  6
CONTINUOUS
 10
20.208634907
 20
1.101141841
 11
20.2080230104
 21
0.963465087
  0
LINE
  5
21D
100
AcDbEntity
  8
0
100
AcDbLine
 62
7
  6
CONTINUOUS
 10
20.0066328138
 20
1.1745147986
 11
20.1443095678
 21
1.1739029019
  0
LINE
  5
21E
100
AcDbEntity
  8
0
100
AcDbLine
 62
7
  6
CONTINUOUS
 10
20.1832714155
 20
1.1727031207
 11
20.238153505
 21
1.172335442
  0
LINE
  5
21F
100
AcDbEntity
  8
0
100
AcDbLine
 62
7
  6
CONTINUOUS
 10
20.2756669918
 20
1.1717972817
 11
20.407916871
 21
1.1712095044
  0
CIRCLE
  5
220
100
AcDbEntity
  8
0
100
AcDbCircle
 62
7
  6
CONTINUOUS
 10
20.7509457401
 20
1.1693297793
 40
0.1722024983
  0
CIRCLE
  5
221
100
AcDbEntity
  8
0
100
AcDbCircle
 62
7
  6
CONTINUOUS
 10
20.7509457401
 20
1.1693297793
 40
0.0985164967
  0
LINE
  5
222
100
AcDbEntity
  8
0
100
AcDbLine
 62
7
  6
CONTINUOUS
 10
20.7169767782
 20
1.170462078
 11
20.7825395137
 21
1.1682766535
  0
LINE
  5
223
100
AcDbEntity
  8
0
100
AcDbLine
 62
7
  6
CONTINUOUS
 10
20.8177513651
 20
1.1693297793
 11
20.947965719
 21
1.1693297793
  0
LINE
  5
224
100
AcDbEntity
  8
0
100
AcDbLine
 62
7
  6
CONTINUOUS
 10
20.6875370113
 20
1.170462078
 11
20.5573226574
 21
1.170462078
  0
LINE
  5
225
100
AcDbEntity
  8
0
100
AcDbLine
 62
7
  6
CONTINUOUS
 10
20.7486811426
 20
1.1987695462
 11
20.7486811426
 21
1.1432869085
  0
LINE
  5
226
100
AcDbEntity
  8
0
100
AcDbLine
 62
7
  6
CONTINUOUS
 10
20.7498134414
 20
1.1059210505
 11
20.7498134414
 21
0.9757066966
  0
LINE
  5
227
100
AcDbEntity
  8
0
100
AcDbLine
 62
7
  6
CONTINUOUS
 10
20.7486811426
 20
1.2338708068
 11
20.7486811426
 21
1.3640851607
  0
LINE
  5
228
100
AcDbEntity
  8
0
100
AcDbLine
 62
7
  6
CONTINUOUS
 10
21.0702539817
 20
1.2701043662
 11
21.4790138229
 21
1.3448360823
  0
LINE
  5
229
100
AcDbEntity
  8
0
100
AcDbLine
 62
7
  6
CONTINUOUS
 10
21.4790138229
 20
1.3448360823
 11
21.4790138229
 21
0.9779712941
  0
LINE
  5
22A
100
AcDbEntity
  8
0
100
AcDbLine
 62
7
  6
CONTINUOUS
 10
21.4790138229
 20
0.9779712941
 11
21.069121683
 21
1.0617614
  0
LINE
  5
22B
100
AcDbEntity
  8
0
100
AcDbLine
 62
7
  6
CONTINUOUS
 10
21.0702539817
 20
1.2701043662
 11
21.069121683
 21
1.0617614
  0
LINE
  5
22C
100
AcDbEntity
  8
0
100
AcDbLine
 62
7
  6
CONTINUOUS
 10
21.4790138229
 20
1.1693297793
 11
21.3159628059
 21
1.1693297793
  0
LINE
  5
22D
100
AcDbEntity
  8
0
100
AcDbLine
 62
7
  6
CONTINUOUS
 10
21.2876553377
 20
1.1693297793
 11
21.2502894796
 21
1.1693297793
  0
LINE
  5
22E
100
AcDbEntity
  8
0
100
AcDbLine
 62
7
  6
CONTINUOUS
 10
21.2208497126
 20
1.1659328831
 11
21.0713862804
 21
1.1659328831
  0
LINE
  5
22F
100
AcDbEntity
  8
0
100
AcDbLine
 62
7
  6
CONTINUOUS
 10
20.4796138713
 20
1.5284908897
 11
20.4766766948
 21
0.9294458646
  0
ENDBLK
  5
230
100
AcDbEntity
  8
0
  6
BYBLOCK
 62
0
100
AcDbBlockEnd
  0
BLOCK
  5
231
100
AcDbEntity
  8
0
100
AcDbBlockBegin
  2
*T1
 70
1
 10
0.0
 20
0.0
  3
*T1
  1

  0
LINE
  5
232
100
AcDbEntity
  8
0
100
AcDbLine
 62
2
  6
CONTINUOUS
 10
9.275
 20
0.0
 11
-0.0
 21
0.0
  0
LINE
  5
233
100
AcDbEntity
  8
0
100
AcDbLine
 62
2
  6
CONTINUOUS
 10
9.275
 20
0.0
 11
9.275
 21
1.25
  0
LINE
  5
234
100
AcDbEntity
  8
0
100
AcDbLine
 62
2
  6
CONTINUOUS
 10
9.275
 20
0.625
 11
-0.0
 21
0.625
  0
LINE
  5
235
100
AcDbEntity
  8
0
100
AcDbLine
 62
2
  6
CONTINUOUS
 10
9.275
 20
1.25
 11
-0.0
 21
1.25
  0
LINE
  5
236
100
AcDbEntity
  8
0
100
AcDbLine
 62
2
  6
CONTINUOUS
 10
6.8
 20
0.0
 11
6.8
 21
1.25
  0
LINE
  5
237
100
AcDbEntity
  8
0
100
AcDbLine
 62
2
  6
CONTINUOUS
 10
6.4
 20
0.0
 11
6.4
 21
0.625
  0
LINE
  5
238
100
AcDbEntity
  8
0
100
AcDbLine
 62
2
  6
CONTINUOUS
 10
5.9
 20
0.0
 11
5.9
 21
0.625
  0
LINE
  5
239
100
AcDbEntity
  8
0
100
AcDbLine
 62
2
  6
CONTINUOUS
 10
5.2
 20
0.0
 11
5.2
 21
0.625
  0
LINE
  5
23A
100
AcDbEntity
  8
0
100
AcDbLine
 62
2
  6
CONTINUOUS
 10
4.1
 20
0.0
 11
4.1
 21
1.25
  0
LINE
  5
23B
100
AcDbEntity
  8
0
100
AcDbLine
 62
2
  6
CONTINUOUS
 10
-0.0
 20
0.0
 11
-0.0
 21
1.25
  0
MTEXT
  5
23C
100
AcDbEntity
  8
0
100
AcDbMText
 62
2
  6
CONTINUOUS
  7
STANDARD
 71
2
 72
1
 10
6.6
 20
0.325
 30
0.0
 11
1.0
 21
0.0
 31
0.0
 44
0.9
  1
2
 40
0.125
 41
0.2
  0
MTEXT
  5
23D
100
AcDbEntity
  8
0
100
AcDbMText
 62
2
  6
CONTINUOUS
  7
STANDARD
 71
2
 72
1
 10
6.15
 20
0.325
 30
0.0
 11
1.0
 21
0.0
 31
0.0
 44
0.9
  1
C
 40
0.125
 41
0.2
  0
MTEXT
  5
23E
100
AcDbEntity
  8
0
100
AcDbMText
 62
2
  6
CONTINUOUS
  7
STANDARD
 71
2
 72
1
 10
5.55
 20
0.325
 30
0.0
 11
1.0
 21
0.0
 31
0.0
 44
0.9
  1
1.000
 40
0.125
 41
1.0
  0
MTEXT
  5
23F
100
AcDbEntity
  8
0
100
AcDbMText
 62
2
  6
CONTINUOUS
  7
STANDARD
 71
2
 72
1
 10
4.65
 20
0.325
 30
0.0
 11
1.0
 21
0.0
 31
0.0
 44
0.9
  1
Oct-15-19
 40
0.125
 41
1.8
  0
MTEXT
  5
240
100
AcDbEntity
  8
0
100
AcDbMText
 62
2
  6
CONTINUOUS
  7
STANDARD
 71
2
 72
1
 10
2.05
 20
0.4625
 30
0.0
 11
1.0
 21
0.0
 31
0.0
 44
0.9
  1
T-2A Gasket mount Sun\PDirect mount, cross pilot
 40
0.125
 41
5.0
  0
MTEXT
  5
241
100
AcDbEntity
  8
0
100
AcDbMText
 62
2
  6
CONTINUOUS
  7
STANDARD
 71
1
 72
1
 10
6.45
 20
0.5625
 30
0.0
 11
1.0
 21
0.0
 31
0.0
 44
0.9
  1
SHEET
 40
0.06
 41
0.48
  0
MTEXT
  5
242
100
AcDbEntity
  8
0
100
AcDbMText
 62
2
  6
CONTINUOUS
  7
STANDARD
 71
1
 72
1
 10
5.95
 20
0.5625
 30
0.0
 11
1.0
 21
0.0
 31
0.0
 44
0.9
  1
DWG SIZE
 40
0.06
 41
0.768
  0
MTEXT
  5
243
100
AcDbEntity
  8
0
100
AcDbMText
 62
2
  6
CONTINUOUS
  7
STANDARD
 71
1
 72
1
 10
5.25
 20
0.5625
 30
0.0
 11
1.0
 21
0.0
 31
0.0
 44
0.9
  1
SCALE
 40
0.06
 41
0.48
  0
MTEXT
  5
244
100
AcDbEntity
  8
0
100
AcDbMText
 62
2
  6
CONTINUOUS
  7
STANDARD
 71
1
 72
1
 10
4.15
 20
0.5625
 30
0.0
 11
1.0
 21
0.0
 31
0.0
 44
0.9
  1
DATE
 40
0.06
 41
0.384
  0
MTEXT
  5
245
100
AcDbEntity
  8
0
100
AcDbMText
 62
2
  6
CONTINUOUS
  7
STANDARD
 71
1
 72
1
 10
0.05
 20
0.5625
 30
0.0
 11
1.0
 21
0.0
 31
0.0
 44
0.9
  1
DESCRIPTION
 40
0.06
 41
1.056
  0
MTEXT
  5
246
100
AcDbEntity
  8
0
100
AcDbMText
 62
2
  6
CONTINUOUS
  7
STANDARD
 71
2
 72
1
 10
5.45
 20
1.0375
 30
0.0
 11
1.0
 21
0.0
 31
0.0
 44
0.9
  1
ALL DIMENSIONS IN INCH\PVIEWS ARE THIRD ANGLE
 40
0.12
 41
4.224
  0
MTEXT
  5
247
100
AcDbEntity
  8
0
100
AcDbMText
 62
2
  6
CONTINUOUS
  7
STANDARD
 71
2
 72
1
 10
2.05
 20
0.95
 30
0.0
 11
1.0
 21
0.0
 31
0.0
 44
0.9
  1
YVU
 40
0.125
 41
0.6
  0
MTEXT
  5
248
100
AcDbEntity
  8
0
100
AcDbMText
 62
2
  6
CONTINUOUS
  7
STANDARD
 71
1
 72
1
 10
0.05
 20
1.1875
 30
0.0
 11
1.0
 21
0.0
 31
0.0
 44
0.9
  1
MODEL
 40
0.06
 41
0.48
  0
ENDBLK
  5
249
100
AcDbEntity
  8
0
  6
BYBLOCK
 62
0
100
AcDbBlockEnd
  0
BLOCK
  5
24A
100
AcDbEntity
  8
0
100
AcDbBlockBegin
  2
*T2
 70
1
 10
0.0
 20
0.0
  3
*T2
  1

  0
LINE
  5
24B
100
AcDbEntity
  8
0
100
AcDbLine
 62
2
  6
CONTINUOUS
 10
0.0
 20
0.0
 11
9.055
 21
0.0
  0
LINE
  5
24C
100
AcDbEntity
  8
0
100
AcDbLine
 62
2
  6
CONTINUOUS
 10
0.0
 20
0.0
 11
0.0
 21
-2.594
  0
LINE
  5
24D
100
AcDbEntity
  8
0
100
AcDbLine
 62
2
  6
CONTINUOUS
 10
0.0
 20
-0.344
 11
9.055
 21
-0.344
  0
LINE
  5
24E
100
AcDbEntity
  8
0
100
AcDbLine
 62
2
  6
CONTINUOUS
 10
0.0
 20
-0.594
 11
9.055
 21
-0.594
  0
LINE
  5
24F
100
AcDbEntity
  8
0
100
AcDbLine
 62
2
  6
CONTINUOUS
 10
0.0
 20
-0.844
 11
9.055
 21
-0.844
  0
LINE
  5
250
100
AcDbEntity
  8
0
100
AcDbLine
 62
2
  6
CONTINUOUS
 10
0.0
 20
-1.094
 11
9.055
 21
-1.094
  0
LINE
  5
251
100
AcDbEntity
  8
0
100
AcDbLine
 62
2
  6
CONTINUOUS
 10
0.0
 20
-1.344
 11
9.055
 21
-1.344
  0
LINE
  5
252
100
AcDbEntity
  8
0
100
AcDbLine
 62
2
  6
CONTINUOUS
 10
0.0
 20
-1.594
 11
9.055
 21
-1.594
  0
LINE
  5
253
100
AcDbEntity
  8
0
100
AcDbLine
 62
2
  6
CONTINUOUS
 10
0.0
 20
-1.844
 11
9.055
 21
-1.844
  0
LINE
  5
254
100
AcDbEntity
  8
0
100
AcDbLine
 62
2
  6
CONTINUOUS
 10
0.0
 20
-2.094
 11
9.055
 21
-2.094
  0
LINE
  5
255
100
AcDbEntity
  8
0
100
AcDbLine
 62
2
  6
CONTINUOUS
 10
0.0
 20
-2.344
 11
9.055
 21
-2.344
  0
LINE
  5
256
100
AcDbEntity
  8
0
100
AcDbLine
 62
2
  6
CONTINUOUS
 10
0.0
 20
-2.594
 11
9.055
 21
-2.594
  0
LINE
  5
257
100
AcDbEntity
  8
0
100
AcDbLine
 62
2
  6
CONTINUOUS
 10
3.055
 20
0.0
 11
3.055
 21
-2.594
  0
LINE
  5
258
100
AcDbEntity
  8
0
100
AcDbLine
 62
2
  6
CONTINUOUS
 10
9.055
 20
0.0
 11
9.055
 21
-2.594
  0
MTEXT
  5
259
100
AcDbEntity
  8
0
100
AcDbMText
 62
2
  6
CONTINUOUS
  7
STANDARD
 71
2
 72
1
 10
1.5275
 20
-0.0995
 30
0.0
 11
1.0
 21
0.0
 31
0.0
 44
0.9
  1
Technical Data
 40
0.145
 41
3.248
  0
MTEXT
  5
25A
100
AcDbEntity
  8
0
100
AcDbMText
 62
2
  6
CONTINUOUS
  7
STANDARD
 71
2
 72
1
 10
4.555
 20
-0.0995
 30
0.0
 11
1.0
 21
0.0
 31
0.0
 44
0.9
  1
U.S. Units
 40
0.145
 41
2.32
  0
MTEXT
  5
25B
100
AcDbEntity
  8
0
100
AcDbMText
 62
2
  6
CONTINUOUS
  7
STANDARD
 71
2
 72
1
 10
7.555
 20
-0.0995
 30
0.0
 11
1.0
 21
0.0
 31
0.0
 44
0.9
  1
Metric Units
 40
0.145
 41
2.784
  0
MTEXT
  5
25C
100
AcDbEntity
  8
0
100
AcDbMText
 62
2
  6
CONTINUOUS
  7
STANDARD
 71
2
 72
1
 10
1.5275
 20
-0.4065
 30
0.0
 11
1.0
 21
0.0
 31
0.0
 44
0.9
  1
Cavity
 40
0.125
 41
1.2
  0
MTEXT
  5
25D
100
AcDbEntity
  8
0
100
AcDbMText
 62
2
  6
CONTINUOUS
  7
STANDARD
 71
2
 72
1
 10
6.055
 20
-0.4065
 30
0.0
 11
1.0
 21
0.0
 31
0.0
 44
0.9
  1
T-2A
 40
0.125
 41
0.8
  0
MTEXT
  5
25E
100
AcDbEntity
  8
0
100
AcDbMText
 62
2
  6
CONTINUOUS
  7
STANDARD
 71
2
 72
1
 10
1.5275
 20
-0.6565
 30
0.0
 11
1.0
 21
0.0
 31
0.0
 44
0.9
  1
Body Features
 40
0.125
 41
2.6
  0
MTEXT
  5
25F
100
AcDbEntity
  8
0
100
AcDbMText
 62
2
  6
CONTINUOUS
  7
STANDARD
 71
2
 72
1
 10
6.055
 20
-0.6565
 30
0.0
 11
1.0
 21
0.0
 31
0.0
 44
0.9
  1
Direct mount, cross pilot
 40
0.125
 41
5.0
  0
MTEXT
  5
260
100
AcDbEntity
  8
0
100
AcDbMText
 62
2
  6
CONTINUOUS
  7
STANDARD
 71
2
 72
1
 10
1.5275
 20
-0.9065
 30
0.0
 11
1.0
 21
0.0
 31
0.0
 44
0.9
  1
Body Type
 40
0.125
 41
1.8
  0
MTEXT
  5
261
100
AcDbEntity
  8
0
100
AcDbMText
 62
2
  6
CONTINUOUS
  7
STANDARD
 71
2
 72
1
 10
6.055
 20
-0.9065
 30
0.0
 11
1.0
 21
0.0
 31
0.0
 44
0.9
  1
Gasket mount
 40
0.125
 41
2.4
  0
MTEXT
  5
262
100
AcDbEntity
  8
0
100
AcDbMText
 62
2
  6
CONTINUOUS
  7
STANDARD
 71
2
 72
1
 10
1.5275
 20
-1.1565
 30
0.0
 11
1.0
 21
0.0
 31
0.0
 44
0.9
  1
Interface
 40
0.125
 41
1.8
  0
MTEXT
  5
263
100
AcDbEntity
  8
0
100
AcDbMText
 62
2
  6
CONTINUOUS
  7
STANDARD
 71
2
 72
1
 10
6.055
 20
-1.1565
 30
0.0
 11
1.0
 21
0.0
 31
0.0
 44
0.9
  1
Sun
 40
0.125
 41
0.6
  0
MTEXT
  5
264
100
AcDbEntity
  8
0
100
AcDbMText
 62
2
  6
CONTINUOUS
  7
STANDARD
 71
2
 72
1
 10
1.5275
 20
-1.4065
 30
0.0
 11
1.0
 21
0.0
 31
0.0
 44
0.9
  1
Open Cavity Quantity
 40
0.125
 41
4.0
  0
MTEXT
  5
265
100
AcDbEntity
  8
0
100
AcDbMText
 62
2
  6
CONTINUOUS
  7
STANDARD
 71
2
 72
1
 10
6.055
 20
-1.4065
 30
0.0
 11
1.0
 21
0.0
 31
0.0
 44
0.9
  1
2
 40
0.125
 41
0.2
  0
MTEXT
  5
266
100
AcDbEntity
  8
0
100
AcDbMText
 62
2
  6
CONTINUOUS
  7
STANDARD
 71
2
 72
1
 10
1.5275
 20
-1.6565
 30
0.0
 11
1.0
 21
0.0
 31
0.0
 44
0.9
  1
Weight
 40
0.125
 41
1.2
  0
MTEXT
  5
267
100
AcDbEntity
  8
0
100
AcDbMText
 62
2
  6
CONTINUOUS
  7
STANDARD
 71
2
 72
1
 10
4.555
 20
-1.6565
 30
0.0
 11
1.0
 21
0.0
 31
0.0
 44
0.9
  1
2.724 lb.
 40
0.125
 41
1.8
  0
MTEXT
  5
268
100
AcDbEntity
  8
0
100
AcDbMText
 62
2
  6
CONTINUOUS
  7
STANDARD
 71
2
 72
1
 10
7.555
 20
-1.6565
 30
0.0
 11
1.0
 21
0.0
 31
0.0
 44
0.9
  1
1,235 kg.
 40
0.125
 41
1.8
  0
MTEXT
  5
269
100
AcDbEntity
  8
0
100
AcDbMText
 62
2
  6
CONTINUOUS
  7
STANDARD
 71
2
 72
1
 10
1.5275
 20
-1.9065
 30
0.0
 11
1.0
 21
0.0
 31
0.0
 44
0.9
  1
Mounting Hole Diameter
 40
0.125
 41
4.4
  0
MTEXT
  5
26A
100
AcDbEntity
  8
0
100
AcDbMText
 62
2
  6
CONTINUOUS
  7
STANDARD
 71
2
 72
1
 10
4.555
 20
-1.9065
 30
0.0
 11
1.0
 21
0.0
 31
0.0
 44
0.9
  1
.42 in.
 40
0.125
 41
1.4
  0
MTEXT
  5
26B
100
AcDbEntity
  8
0
100
AcDbMText
 62
2
  6
CONTINUOUS
  7
STANDARD
 71
2
 72
1
 10
7.555
 20
-1.9065
 30
0.0
 11
1.0
 21
0.0
 31
0.0
 44
0.9
  1
10,7 mm
 40
0.125
 41
1.4
  0
MTEXT
  5
26C
100
AcDbEntity
  8
0
100
AcDbMText
 62
2
  6
CONTINUOUS
  7
STANDARD
 71
2
 72
1
 10
1.5275
 20
-2.1565
 30
0.0
 11
1.0
 21
0.0
 31
0.0
 44
0.9
  1
Mounting Hole Depth
 40
0.125
 41
3.8
  0
MTEXT
  5
26D
100
AcDbEntity
  8
0
100
AcDbMText
 62
2
  6
CONTINUOUS
  7
STANDARD
 71
2
 72
1
 10
6.055
 20
-2.1565
 30
0.0
 11
1.0
 21
0.0
 31
0.0
 44
0.9
  1
Through
 40
0.125
 41
1.4
  0
MTEXT
  5
26E
100
AcDbEntity
  8
0
100
AcDbMText
 62
2
  6
CONTINUOUS
  7
STANDARD
 71
2
 72
1
 10
1.5275
 20
-2.4065
 30
0.0
 11
1.0
 21
0.0
 31
0.0
 44
0.9
  1
Mounting Hole Quantity
 40
0.125
 41
4.4
  0
MTEXT
  5
26F
100
AcDbEntity
  8
0
100
AcDbMText
 62
2
  6
CONTINUOUS
  7
STANDARD
 71
2
 72
1
 10
6.055
 20
-2.4065
 30
0.0
 11
1.0
 21
0.0
 31
0.0
 44
0.9
  1
2
 40
0.125
 41
0.2
  0
ENDBLK
  5
270
100
AcDbEntity
  8
0
  6
BYBLOCK
 62
0
100
AcDbBlockEnd
  0
BLOCK
  5
271
100
AcDbEntity
  8
0
100
AcDbBlockBegin
  2
*T3
 70
1
 10
0.0
 20
0.0
  3
*T3
  1

  0
LINE
  5
272
100
AcDbEntity
  8
0
100
AcDbLine
 62
2
  6
CONTINUOUS
 10
0.0
 20
0.0
 11
4.6
 21
0.0
  0
LINE
  5
273
100
AcDbEntity
  8
0
100
AcDbLine
 62
2
  6
CONTINUOUS
 10
0.0
 20
0.0
 11
0.0
 21
-0.93775
  0
LINE
  5
274
100
AcDbEntity
  8
0
100
AcDbLine
 62
2
  6
CONTINUOUS
 10
0.0
 20
-0.34375
 11
4.6
 21
-0.34375
  0
LINE
  5
275
100
AcDbEntity
  8
0
100
AcDbLine
 62
2
  6
CONTINUOUS
 10
0.0
 20
-0.68775
 11
4.6
 21
-0.68775
  0
LINE
  5
276
100
AcDbEntity
  8
0
100
AcDbLine
 62
2
  6
CONTINUOUS
 10
0.0
 20
-0.93775
 11
4.6
 21
-0.93775
  0
LINE
  5
277
100
AcDbEntity
  8
0
100
AcDbLine
 62
2
  6
CONTINUOUS
 10
1.3
 20
-0.34375
 11
1.3
 21
-0.93775
  0
LINE
  5
278
100
AcDbEntity
  8
0
100
AcDbLine
 62
2
  6
CONTINUOUS
 10
3.3
 20
-0.34375
 11
3.3
 21
-0.93775
  0
LINE
  5
279
100
AcDbEntity
  8
0
100
AcDbLine
 62
2
  6
CONTINUOUS
 10
4.6
 20
0.0
 11
4.6
 21
-0.93775
  0
MTEXT
  5
27A
100
AcDbEntity
  8
0
100
AcDbMText
 62
2
  6
CONTINUOUS
  7
STANDARD
 71
2
 72
1
 10
2.3
 20
-0.099375
 30
0.0
 11
1.0
 21
0.0
 31
0.0
 44
0.9
  1
Port Headings
 40
0.145
 41
3.016
  0
MTEXT
  5
27B
100
AcDbEntity
  8
0
100
AcDbMText
 62
2
  6
CONTINUOUS
  7
STANDARD
 71
2
 72
1
 10
0.65
 20
-0.44325
 30
0.0
 11
1.0
 21
0.0
 31
0.0
 44
0.9
  1
Product
 40
0.145
 41
1.624
  0
MTEXT
  5
27C
100
AcDbEntity
  8
0
100
AcDbMText
 62
2
  6
CONTINUOUS
  7
STANDARD
 71
2
 72
1
 10
2.3
 20
-0.44325
 30
0.0
 11
1.0
 21
0.0
 31
0.0
 44
0.9
  1
Port
 40
0.145
 41
0.928
  0
MTEXT
  5
27D
100
AcDbEntity
  8
0
100
AcDbMText
 62
2
  6
CONTINUOUS
  7
STANDARD
 71
2
 72
1
 10
3.95
 20
-0.44325
 30
0.0
 11
1.0
 21
0.0
 31
0.0
 44
0.9
  1
Size
 40
0.145
 41
0.928
  0
MTEXT
  5
27E
100
AcDbEntity
  8
0
100
AcDbMText
 62
2
  6
CONTINUOUS
  7
STANDARD
 71
2
 72
1
 10
0.65
 20
-0.75025
 30
0.0
 11
1.0
 21
0.0
 31
0.0
 44
0.9
  1
YVU
 40
0.125
 41
0.6
  0
MTEXT
  5
27F
100
AcDbEntity
  8
0
100
AcDbMText
 62
2
  6
CONTINUOUS
  7
STANDARD
 71
2
 72
1
 10
2.3
 20
-0.75025
 30
0.0
 11
1.0
 21
0.0
 31
0.0
 44
0.9
  1
Ports C2, V1, V2
 40
0.125
 41
3.2
  0
MTEXT
  5
280
100
AcDbEntity
  8
0
100
AcDbMText
 62
2
  6
CONTINUOUS
  7
STANDARD
 71
2
 72
1
 10
3.95
 20
-0.75025
 30
0.0
 11
1.0
 21
0.0
 31
0.0
 44
0.9
  1
1/2" BSPP
 40
0.125
 41
1.8
  0
ENDBLK
  5
281
100
AcDbEntity
  8
0
  6
BYBLOCK
 62
0
100
AcDbBlockEnd
  0
ENDSEC
  0
SECTION
  2
ENTITIES
  0
IMAGE
  5
282
100
AcDbEntity
  8
0
100
AcDbRasterImage
 62
7
  6
CONTINUOUS
 10
19.2297077316
 20
0.3094318264
 30
0.0
 11
0.0066666667
 21
0.0
 31
0.0
 12
0.0
 22
0.0066666667
 32
0.0
 13
369.0
 23
92.0
340
       397
 70
9
280
0
281
50
282
50
283
0
360
       391
 71
1
 91
2
 14
-0.5
 24
-0.5
 14
368.5
 24
91.5
  0
INSERT
  5
283
100
AcDbEntity
  8
0
100
AcDbBlockReference
 62
2
  6
CONTINUOUS
  2
SUN_FIRST_THIRD_ANGLE_BL0
 10
20.4816717061
 20
1.2289683772
  0
ACAD_TABLE
  5
284
100
AcDbEntity
  8
0
 62
2
  6
CONTINUOUS
100
AcDbBlockReference
  2
*T1
 10
12.42375
 20
0.30125
 30
0.0
100
AcDbTable
342
       399
343
20A
 11
1.0
 21
0.0
 31
0.0
 90
6
 91
4
 92
6
 93
20
 94
0
 95
0
 96
0
 70
1
 41
0.0
141
0.525
141
0.1
141
0.525
141
0.1
142
4.1
142
1.1
142
0.7
142
0.5
142
0.4
142
2.475
171
1
172
0
173
0
174
0
175
1
176
1
 91
33
178
0
145
0.0
301
CELL_VALUE
 90
4
  1
T-2A Gasket mount Sun\PDirect mount, cross pilot
304
ACVALUE_END
170
2
140
0.125
171
1
172
0
173
0
174
0
175
1
176
1
 91
33
178
0
145
0.0
301
CELL_VALUE
 90
4
  1
Oct-15-19
304
ACVALUE_END
170
5
140
0.125
171
1
172
0
173
0
174
0
175
1
176
1
 91
33
178
0
145
0.0
301
CELL_VALUE
 90
4
  1
1.000
304
ACVALUE_END
170
5
140
0.125
171
1
172
0
173
0
174
0
175
1
176
1
 91
33
178
0
145
0.0
301
CELL_VALUE
 90
4
  1
C
304
ACVALUE_END
170
5
140
0.125
171
1
172
0
173
0
174
0
175
1
176
1
 91
33
178
0
145
0.0
301
CELL_VALUE
 90
4
  1
2
304
ACVALUE_END
170
5
140
0.125
171
1
172
0
173
0
174
0
175
1
176
1
 91
33
178
0
145
0.0
301
CELL_VALUE
 90
4
  1
 
304
ACVALUE_END
170
1
140
0.125
171
1
172
0
173
0
174
0
175
1
176
1
 91
33
178
0
145
0.0
301
CELL_VALUE
 90
4
  1
DESCRIPTION
304
ACVALUE_END
170
1
140
0.06
171
1
172
0
173
0
174
0
175
1
176
1
 91
33
178
0
145
0.0
301
CELL_VALUE
 90
4
  1
DATE
304
ACVALUE_END
170
1
140
0.06
171
1
172
0
173
0
174
0
175
1
176
1
 91
33
178
0
145
0.0
301
CELL_VALUE
 90
4
  1
SCALE
304
ACVALUE_END
170
1
140
0.06
171
1
172
0
173
0
174
0
175
1
176
1
 91
33
178
0
145
0.0
301
CELL_VALUE
 90
4
  1
DWG SIZE
304
ACVALUE_END
170
1
140
0.06
171
1
172
0
173
0
174
0
175
1
176
1
 91
33
178
0
145
0.0
301
CELL_VALUE
 90
4
  1
SHEET
304
ACVALUE_END
170
1
140
0.06
171
1
172
0
173
0
174
0
175
1
176
1
 91
33
178
0
145
0.0
301
CELL_VALUE
 90
4
  1
 
304
ACVALUE_END
170
1
140
0.125
171
1
172
0
173
0
174
0
175
1
176
1
 91
33
178
0
145
0.0
301
CELL_VALUE
 90
4
  1
YVU
304
ACVALUE_END
170
5
140
0.125
171
1
172
0
173
0
174
0
175
4
176
1
 91
33
178
0
145
0.0
301
CELL_VALUE
 90
4
  1
ALL DIMENSIONS IN INCH\PVIEWS ARE THIRD ANGLE
304
ACVALUE_END
170
5
140
0.12
171
1
172
0
173
1
174
0
175
1
176
1
 91
1
178
0
145
0.0
170
1
171
1
172
0
173
1
174
0
175
1
176
1
 91
1
178
0
145
0.0
170
1
171
1
172
0
173
1
174
0
175
1
176
1
 91
1
178
0
145
0.0
170
5
171
1
172
0
173
0
174
0
175
1
176
1
 91
33
178
0
145
0.0
301
CELL_VALUE
 90
4
  1
 
304
ACVALUE_END
170
1
140
0.125
171
1
172
0
173
0
174
0
175
1
176
1
 91
33
178
0
145
0.0
301
CELL_VALUE
 90
4
  1
MODEL
304
ACVALUE_END
170
1
140
0.06
171
1
172
0
173
0
174
0
175
1
176
1
 91
33
178
0
145
0.0
301
CELL_VALUE
 90
4
  1
 
304
ACVALUE_END
170
1
140
0.125
171
1
172
0
173
0
174
0
175
1
176
1
 91
33
178
0
145
0.0
301
CELL_VALUE
 90
4
  1
 
304
ACVALUE_END
170
1
140
0.125
171
1
172
0
173
0
174
0
175
1
176
1
 91
33
178
0
145
0.0
301
CELL_VALUE
 90
4
  1
 
304
ACVALUE_END
170
1
140
0.125
171
1
172
0
173
0
174
0
175
1
176
1
 91
33
178
0
145
0.0
301
CELL_VALUE
 90
4
  1
 
304
ACVALUE_END
170
1
140
0.125
171
1
172
0
173
0
174
0
175
1
176
1
 91
33
178
0
145
0.0
301
CELL_VALUE
 90
4
  1
 
304
ACVALUE_END
170
1
140
0.125
  0
ACAD_TABLE
  5
285
100
AcDbEntity
  8
0
 62
2
  6
CONTINUOUS
100
AcDbBlockReference
  2
*T2
 10
12.4237499994
 20
16.47875
 30
0.0
100
AcDbTable
342
       398
343
20B
 11
1.0
 21
0.0
 31
0.0
 90
22
 91
10
 92
3
 93
16
 94
0
 95
0
 96
0
 41
0.028
141
0.344
141
0.25
141
0.25
141
0.25
141
0.25
141
0.25
141
0.25
141
0.25
141
0.25
141
0.25
142
3.055
142
3.0
142
3.0
171
1
172
0
173
0
174
0
175
1
176
1
 91
33
178
0
145
0.0
301
CELL_VALUE
 90
4
  1
Technical Data
304
ACVALUE_END
170
5
140
0.145
171
1
172
0
173
0
174
0
175
1
176
1
 91
33
178
0
145
0.0
301
CELL_VALUE
 90
4
  1
U.S. Units
304
ACVALUE_END
170
5
140
0.145
171
1
172
0
173
0
174
0
175
1
176
1
 91
33
178
0
145
0.0
301
CELL_VALUE
 90
4
  1
Metric Units
304
ACVALUE_END
170
5
140
0.145
171
1
172
0
173
0
174
0
175
1
176
1
 91
33
178
0
145
0.0
301
CELL_VALUE
 90
4
  1
Cavity
304
ACVALUE_END
170
5
140
0.125
171
1
172
0
173
0
174
0
175
2
176
1
 91
33
178
0
145
0.0
301
CELL_VALUE
 90
4
  1
T-2A
304
ACVALUE_END
170
5
140
0.125
171
1
172
0
173
1
174
0
175
1
176
1
 91
1
178
0
145
0.0
170
1
171
1
172
0
173
0
174
0
175
1
176
1
 91
33
178
0
145
0.0
301
CELL_VALUE
 90
4
  1
Body Features
304
ACVALUE_END
170
5
140
0.125
171
1
172
0
173
0
174
0
175
2
176
1
 91
33
178
0
145
0.0
301
CELL_VALUE
 90
4
  1
Direct mount, cross pilot
304
ACVALUE_END
170
5
140
0.125
171
1
172
0
173
1
174
0
175
1
176
1
 91
1
178
0
145
0.0
170
1
171
1
172
0
173
0
174
0
175
1
176
1
 91
33
178
0
145
0.0
301
CELL_VALUE
 90
4
  1
Body Type
304
ACVALUE_END
170
5
140
0.125
171
1
172
0
173
0
174
0
175
2
176
1
 91
33
178
0
145
0.0
301
CELL_VALUE
 90
4
  1
Gasket mount
304
ACVALUE_END
170
5
140
0.125
171
1
172
0
173
1
174
0
175
1
176
1
 91
1
178
0
145
0.0
170
1
171
1
172
0
173
0
174
0
175
1
176
1
 91
33
178
0
145
0.0
301
CELL_VALUE
 90
4
  1
Interface
304
ACVALUE_END
170
5
140
0.125
171
1
172
0
173
0
174
0
175
2
176
1
 91
33
178
0
145
0.0
301
CELL_VALUE
 90
4
  1
Sun
304
ACVALUE_END
170
5
140
0.125
171
1
172
0
173
1
174
0
175
1
176
1
 91
1
178
0
145
0.0
170
1
171
1
172
0
173
0
174
0
175
1
176
1
 91
33
178
0
145
0.0
301
CELL_VALUE
 90
4
  1
Open Cavity Quantity
304
ACVALUE_END
170
5
140
0.125
171
1
172
0
173
0
174
0
175
2
176
1
 91
33
178
0
145
0.0
301
CELL_VALUE
 90
4
  1
2
304
ACVALUE_END
170
5
140
0.125
171
1
172
0
173
1
174
0
175
1
176
1
 91
1
178
0
145
0.0
170
1
171
1
172
0
173
0
174
0
175
1
176
1
 91
33
178
0
145
0.0
301
CELL_VALUE
 90
4
  1
Weight
304
ACVALUE_END
170
5
140
0.125
171
1
172
0
173
0
174
0
175
1
176
1
 91
33
178
0
145
0.0
301
CELL_VALUE
 90
4
  1
2.724 lb.
304
ACVALUE_END
170
5
140
0.125
171
1
172
0
173
0
174
0
175
1
176
1
 91
33
178
0
145
0.0
301
CELL_VALUE
 90
4
  1
1,235 kg.
304
ACVALUE_END
170
5
140
0.125
171
1
172
0
173
0
174
0
175
1
176
1
 91
33
178
0
145
0.0
301
CELL_VALUE
 90
4
  1
Mounting Hole Diameter
304
ACVALUE_END
170
5
140
0.125
171
1
172
0
173
0
174
0
175
1
176
1
 91
33
178
0
145
0.0
301
CELL_VALUE
 90
4
  1
.42 in.
304
ACVALUE_END
170
5
140
0.125
171
1
172
0
173
0
174
0
175
1
176
1
 91
33
178
0
145
0.0
301
CELL_VALUE
 90
4
  1
10,7 mm
304
ACVALUE_END
170
5
140
0.125
171
1
172
0
173
0
174
0
175
1
176
1
 91
33
178
0
145
0.0
301
CELL_VALUE
 90
4
  1
Mounting Hole Depth
304
ACVALUE_END
170
5
140
0.125
171
1
172
0
173
0
174
0
175
2
176
1
 91
33
178
0
145
0.0
301
CELL_VALUE
 90
4
  1
Through
304
ACVALUE_END
170
5
140
0.125
171
1
172
0
173
1
174
0
175
1
176
1
 91
1
178
0
145
0.0
170
1
171
1
172
0
173
0
174
0
175
1
176
1
 91
33
178
0
145
0.0
301
CELL_VALUE
 90
4
  1
Mounting Hole Quantity
304
ACVALUE_END
170
5
140
0.125
171
1
172
0
173
0
174
0
175
2
176
1
 91
33
178
0
145
0.0
301
CELL_VALUE
 90
4
  1
2
304
ACVALUE_END
170
5
140
0.125
171
1
172
0
173
1
174
0
175
1
176
1
 91
1
178
0
145
0.0
170
1
  0
ACAD_TABLE
  5
286
100
AcDbEntity
  8
0
 62
2
  6
CONTINUOUS
100
AcDbBlockReference
  2
*T3
 10
0.52125
 20
1.459
 30
0.0
100
AcDbTable
342
       398
343
20C
 11
1.0
 21
0.0
 31
0.0
 90
22
 91
3
 92
3
 93
16
 94
0
 95
0
 96
0
 41
0.05
141
0.34375
141
0.344
141
0.25
142
1.3
142
2.0
142
1.3
171
1
172
0
173
0
174
0
175
3
176
1
 91
33
178
0
145
0.0
301
CELL_VALUE
 90
4
  1
Port Headings
304
ACVALUE_END
170
5
140
0.145
171
1
172
0
173
1
174
0
175
1
176
1
 91
1
178
0
145
0.0
170
1
171
1
172
0
173
1
174
0
175
1
176
1
 91
1
178
0
145
0.0
170
1
171
1
172
0
173
0
174
0
175
1
176
1
 91
33
178
0
145
0.0
301
CELL_VALUE
 90
4
  1
Product
304
ACVALUE_END
170
5
140
0.145
171
1
172
0
173
0
174
0
175
1
176
1
 91
33
178
0
145
0.0
301
CELL_VALUE
 90
4
  1
Port
304
ACVALUE_END
170
5
140
0.145
171
1
172
0
173
0
174
0
175
1
176
1
 91
33
178
0
145
0.0
301
CELL_VALUE
 90
4
  1
Size
304
ACVALUE_END
170
5
140
0.145
171
1
172
0
173
0
174
0
175
1
176
1
 91
33
178
0
145
0.0
301
CELL_VALUE
 90
4
  1
YVU
304
ACVALUE_END
170
5
140
0.125
171
1
172
0
173
0
174
0
175
1
176
1
 91
33
178
0
145
0.0
301
CELL_VALUE
 90
4
  1
Ports C2, V1, V2
304
ACVALUE_END
170
5
140
0.125
171
1
172
0
173
0
174
0
175
1
176
1
 91
33
178
0
145
0.0
301
CELL_VALUE
 90
4
  1
1/2" BSPP
304
ACVALUE_END
170
5
140
0.125
  0
MTEXT
  5
287
100
AcDbEntity
  8
0
100
AcDbMText
 62
2
  6
CONTINUOUS
  7
STANDARD
 71
1
 72
1
 10
0.52125
 20
5.75995
 30
0.0
 11
1.0
 21
0.0
 31
0.0
 44
0.6
  3
Notes\P \P1. Important: Carefully consider\P   the maximum system pressure. The\P   pressure rating of the manifold is\P   dependent on the manifold material,\P   with the port type/size a secondary\P   consideration. Manifolds\P   constructed of alu
  1
minum are not\P   rated for pressures higher than\P   3000 psi (210 bar), regardless of\P   the port type/size specified.
 40
0.1
 41
3.04
  0
LINE
  5
288
100
AcDbEntity
  8
0
100
AcDbLine
 62
7
  6
CONTINUOUS
 10
0.30125
 20
0.30125
 11
0.30125
 21
16.69875
  0
LINE
  5
289
100
AcDbEntity
  8
0
100
AcDbLine
 62
7
  6
CONTINUOUS
 10
0.30125
 20
0.30125
 11
21.69875
 21
0.30125
  0
LINE
  5
28A
100
AcDbEntity
  8
0
100
AcDbLine
 62
7
  6
CONTINUOUS
 10
0.30125
 20
16.69875
 11
21.69875
 21
16.69875
  0
LINE
  5
28B
100
AcDbEntity
  8
0
100
AcDbLine
 62
7
  6
CONTINUOUS
 10
21.69875
 20
0.30125
 11
21.69875
 21
16.69875
  0
LINE
  5
28C
100
AcDbEntity
  8
0
100
AcDbLine
 62
7
  6
CONTINUOUS
 10
9.1218618932
 20
9.5097466151
 11
10.2218419271
 21
10.5722458012
  0
LINE
  5
28D
100
AcDbEntity
  8
0
100
AcDbLine
 62
7
  6
CONTINUOUS
 10
9.1218618932
 20
9.5097466151
 11
9.1218618932
 21
6.6119689645
  0
LINE
  5
28E
100
AcDbEntity
  8
0
100
AcDbLine
 62
7
  6
CONTINUOUS
 10
11.7781580729
 20
6.4277541988
 11
9.1218618932
 21
6.6119689645
  0
LINE
  5
28F
100
AcDbEntity
  8
0
100
AcDbLine
 62
4
  6
CONTINUOUS
 10
11.8195690845
 20
7.3998726699
 11
11.8118045198
 21
7.3996171198
  0
LINE
  5
290
100
AcDbEntity
  8
0
100
AcDbLine
 62
4
  6
CONTINUOUS
 10
11.8118045198
 20
7.4865504473
 11
11.8428627788
 21
7.4803282039
  0
LINE
  5
291
100
AcDbEntity
  8
0
100
AcDbLine
 62
7
  6
CONTINUOUS
 10
12.8781381068
 20
10.3880310355
 11
11.7781580729
 21
9.3255318494
  0
LINE
  5
292
100
AcDbEntity
  8
0
100
AcDbLine
 62
4
  6
CONTINUOUS
 10
12.8263743354
 20
8.5776311999
 11
12.8186097706
 21
8.5773756497
  0
LINE
  5
293
100
AcDbEntity
  8
0
100
AcDbLine
 62
4
  6
CONTINUOUS
 10
12.8341389002
 20
8.7227756293
 11
12.8419034649
 21
8.7230311794
  0
LINE
  5
294
100
AcDbEntity
  8
0
100
AcDbLine
 62
4
  6
CONTINUOUS
 10
12.3196070708
 20
8.3941230157
 11
12.3506653299
 21
8.3910055359
  0
LINE
  5
295
100
AcDbEntity
  8
0
100
AcDbLine
 62
4
  6
CONTINUOUS
 10
12.4407342812
 20
8.1399314595
 11
12.4385158333
 21
8.1405483809
  0
LINE
  5
296
100
AcDbEntity
  8
0
100
AcDbLine
 62
4
  6
CONTINUOUS
 10
11.8325100264
 20
7.3616615529
 11
11.8299218369
 21
7.3664059976
  0
LINE
  5
297
100
AcDbEntity
  8
0
100
AcDbLine
 62
4
  6
CONTINUOUS
 10
11.8247454607
 20
7.3903837777
 11
11.8195690845
 21
7.3998726699
  0
LINE
  5
298
100
AcDbEntity
  8
0
100
AcDbLine
 62
4
  6
CONTINUOUS
 10
12.2512789008
 20
8.6441188301
 11
12.2823371599
 21
8.6410013503
  0
LINE
  5
299
100
AcDbEntity
  8
0
100
AcDbLine
 62
4
  6
CONTINUOUS
 10
12.4022811985
 20
8.5581536571
 11
12.4318604934
 21
8.5536076213
  0
LINE
  5
29A
100
AcDbEntity
  8
0
100
AcDbLine
 62
4
  6
CONTINUOUS
 10
11.8376864017
 20
7.4246170995
 11
11.8402745912
 21
7.4198726547
  0
LINE
  5
29B
100
AcDbEntity
  8
0
100
AcDbLine
 62
4
  6
CONTINUOUS
 10
11.8428627788
 20
8.7336170349
 11
11.8118045198
 21
8.7036170586
  0
LINE
  5
29C
100
AcDbEntity
  8
0
100
AcDbLine
 62
4
  6
CONTINUOUS
 10
11.8118045198
 20
8.819528162
 11
11.8428627788
 21
8.8133059185
  0
LINE
  5
29D
100
AcDbEntity
  8
0
100
AcDbLine
 62
4
  6
CONTINUOUS
 10
11.8299218369
 20
7.3664059976
 11
11.8247454607
 21
7.3903837777
  0
LINE
  5
29E
100
AcDbEntity
  8
0
100
AcDbLine
 62
4
  6
CONTINUOUS
 10
11.8428627788
 20
8.8857503582
 11
11.8118045198
 21
8.819528162
  0
LINE
  5
29F
100
AcDbEntity
  8
0
100
AcDbLine
 62
4
  6
CONTINUOUS
 10
12.4318604934
 20
9.0503694774
 11
12.4362973873
 21
9.054655188
  0
LINE
  5
2A0
100
AcDbEntity
  8
0
100
AcDbLine
 62
4
  6
CONTINUOUS
 10
12.4141129165
 20
8.9752710817
 11
12.4185498108
 21
8.9795567928
  0
LINE
  5
2A1
100
AcDbEntity
  8
0
100
AcDbLine
 62
4
  6
CONTINUOUS
 10
12.4407342812
 20
8.9678678908
 11
12.4141129165
 21
8.9421536256
  0
LINE
  5
2A2
100
AcDbEntity
  8
0
100
AcDbLine
 62
4
  6
CONTINUOUS
 10
12.2512789008
 20
8.7489907746
 11
12.2823371599
 21
8.778990751
  0
LINE
  5
2A3
100
AcDbEntity
  8
0
100
AcDbLine
 62
4
  6
CONTINUOUS
 10
12.4141129165
 20
8.8841980739
 11
12.4407342812
 21
8.9099123391
  0
LINE
  5
2A4
100
AcDbEntity
  8
0
100
AcDbLine
 62
4
  6
CONTINUOUS
 10
12.4096760221
 20
8.8467949066
 11
12.4407342812
 21
8.876794883
  0
LINE
  5
2A5
100
AcDbEntity
  8
0
100
AcDbLine
 62
4
  6
CONTINUOUS
 10
12.277900266
 20
8.7167494955
 11
12.2557157951
 21
8.6953209409
  0
LINE
  5
2A6
100
AcDbEntity
  8
0
100
AcDbLine
 62
4
  6
CONTINUOUS
 10
11.8402745912
 20
7.4198726547
 11
11.8428627788
 21
7.4078837642
  0
LINE
  5
2A7
100
AcDbEntity
  8
0
100
AcDbLine
 62
7
  6
CONTINUOUS
 10
11.7781580729
 20
9.3255318494
 11
11.7781580729
 21
6.4277541988
  0
LINE
  5
2A8
100
AcDbEntity
  8
0
100
AcDbLine
 62
4
  6
CONTINUOUS
 10
11.8118045198
 20
7.3996171198
 11
11.8118045198
 21
7.3416615681
  0
LINE
  5
2A9
100
AcDbEntity
  8
0
100
AcDbLine
 62
4
  6
CONTINUOUS
 10
11.8428627788
 20
7.4078837642
 11
11.8428627788
 21
7.3933948763
  0
LINE
  5
2AA
100
AcDbEntity
  8
0
100
AcDbLine
 62
4
  6
CONTINUOUS
 10
12.4096760221
 20
8.7888393549
 11
12.4407342812
 21
8.8188393312
  0
LINE
  5
2AB
100
AcDbEntity
  8
0
100
AcDbLine
 62
4
  6
CONTINUOUS
 10
12.2512789008
 20
8.5116489917
 11
12.2823371599
 21
8.5416489681
  0
LINE
  5
2AC
100
AcDbEntity
  8
0
100
AcDbLine
 62
4
  6
CONTINUOUS
 10
12.4096760221
 20
8.6646488909
 11
12.4407342812
 21
8.6946488672
  0
LINE
  5
2AD
100
AcDbEntity
  8
0
100
AcDbLine
 62
4
  6
CONTINUOUS
 10
12.4296420455
 20
8.6342583986
 11
12.4096760221
 21
8.6149726998
  0
LINE
  5
2AE
100
AcDbEntity
  8
0
100
AcDbLine
 62
4
  6
CONTINUOUS
 10
12.2512789008
 20
8.4454140794
 11
12.2823371599
 21
8.4754140558
  0
LINE
  5
2AF
100
AcDbEntity
  8
0
100
AcDbLine
 62
4
  6
CONTINUOUS
 10
12.3373546482
 20
8.5106182389
 11
12.3196070708
 21
8.4934753945
  0
LINE
  5
2B0
100
AcDbEntity
  8
0
100
AcDbLine
 62
7
  6
CONTINUOUS
 10
11.7781580729
 20
9.3255318494
 11
9.1218618932
 21
9.5097466151
  0
LINE
  5
2B1
100
AcDbEntity
  8
0
100
AcDbLine
 62
4
  6
CONTINUOUS
 10
11.8428627788
 20
7.3933948763
 11
11.8402745912
 21
7.3764059909
  0
LINE
  5
2B2
100
AcDbEntity
  8
0
100
AcDbLine
 62
4
  6
CONTINUOUS
 10
11.8402745912
 20
7.3764059909
 11
11.8376864017
 21
7.3666615477
  0
LINE
  5
2B3
100
AcDbEntity
  8
0
100
AcDbLine
 62
4
  6
CONTINUOUS
 10
12.2823371599
 20
8.6410013503
 11
12.2512789008
 21
8.577883904
  0
LINE
  5
2B4
100
AcDbEntity
  8
0
100
AcDbLine
 62
4
  6
CONTINUOUS
 10
12.4118944693
 20
8.5122435901
 11
12.4296420455
 21
8.5293864334
  0
LINE
  5
2B5
100
AcDbEntity
  8
0
100
AcDbLine
 62
4
  6
CONTINUOUS
 10
12.4407342812
 20
8.4904245474
 11
12.4096760221
 21
8.4604245711
  0
LINE
  5
2B6
100
AcDbEntity
  8
0
100
AcDbLine
 62
4
  6
CONTINUOUS
 10
12.4096760221
 20
8.4273070735
 11
12.4318604934
 21
8.4487356285
  0
LINE
  5
2B7
100
AcDbEntity
  8
0
100
AcDbLine
 62
4
  6
CONTINUOUS
 10
12.2557157951
 20
8.2758331077
 11
12.277900266
 21
8.2972616623
  0
LINE
  5
2B8
100
AcDbEntity
  8
0
100
AcDbLine
 62
4
  6
CONTINUOUS
 10
12.3506653299
 20
8.3606478712
 11
12.3240439651
 21
8.334933606
  0
LINE
  5
2B9
100
AcDbEntity
  8
0
100
AcDbLine
 62
4
  6
CONTINUOUS
 10
12.4296420455
 20
8.4079557746
 11
12.4252051517
 21
8.403670064
  0
LINE
  5
2BA
100
AcDbEntity
  8
0
100
AcDbLine
 62
4
  6
CONTINUOUS
 10
12.3240439651
 20
8.2769780542
 11
12.3506653299
 21
8.3026923195
  0
LINE
  5
2BB
100
AcDbEntity
  8
0
100
AcDbLine
 62
4
  6
CONTINUOUS
 10
12.4118944693
 20
8.3549356561
 11
12.4185498108
 21
8.3613642228
  0
LINE
  5
2BC
100
AcDbEntity
  8
0
100
AcDbLine
 62
4
  6
CONTINUOUS
 10
12.2557157951
 20
8.1792405584
 11
12.277900266
 21
8.200669113
  0
LINE
  5
2BD
100
AcDbEntity
  8
0
100
AcDbLine
 62
4
  6
CONTINUOUS
 10
12.4096760221
 20
8.3031166371
 11
12.4274235995
 21
8.3202594815
  0
LINE
  5
2BE
100
AcDbEntity
  8
0
100
AcDbLine
 62
4
  6
CONTINUOUS
 10
12.3373546482
 20
8.5106182389
 11
12.3506653299
 21
8.4903579113
  0
LINE
  5
2BF
100
AcDbEntity
  8
0
100
AcDbLine
 62
4
  6
CONTINUOUS
 10
12.2557157951
 20
8.0302120126
 11
12.2512789008
 21
8.0424850227
  0
LINE
  5
2C0
100
AcDbEntity
  8
0
100
AcDbLine
 62
4
  6
CONTINUOUS
 10
12.2557157951
 20
8.1212850067
 11
12.2512789008
 21
8.1335580167
  0
LINE
  5
2C1
100
AcDbEntity
  8
0
100
AcDbLine
 62
4
  6
CONTINUOUS
 10
12.277900266
 20
8.200669113
 11
12.2823371599
 21
8.1883961025
  0
LINE
  5
2C2
100
AcDbEntity
  8
0
100
AcDbLine
 62
4
  6
CONTINUOUS
 10
12.277900266
 20
8.2972616623
 11
12.2823371599
 21
8.2849886518
  0
LINE
  5
2C3
100
AcDbEntity
  8
0
100
AcDbLine
 62
4
  6
CONTINUOUS
 10
12.4096760221
 20
7.9526235491
 11
12.4118944693
 21
7.9464870717
  0
LINE
  5
2C4
100
AcDbEntity
  8
0
100
AcDbLine
 62
4
  6
CONTINUOUS
 10
12.2512789008
 20
8.4454140794
 11
12.2512789008
 21
8.3957378883
  0
LINE
  5
2C5
100
AcDbEntity
  8
0
100
AcDbLine
 62
4
  6
CONTINUOUS
 10
12.2512789008
 20
7.9790098604
 11
12.2512789008
 21
7.9293336969
  0
LINE
  5
2C6
100
AcDbEntity
  8
0
100
AcDbLine
 62
4
  6
CONTINUOUS
 10
12.2512789008
 20
8.0424850227
 11
12.2512789008
 21
8.0838818532
  0
LINE
  5
2C7
100
AcDbEntity
  8
0
100
AcDbLine
 62
4
  6
CONTINUOUS
 10
12.2512789008
 20
8.1335580167
 11
12.2512789008
 21
8.1583961261
  0
LINE
  5
2C8
100
AcDbEntity
  8
0
100
AcDbLine
 62
4
  6
CONTINUOUS
 10
12.2512789008
 20
8.2218712331
 11
12.2512789008
 21
8.2549886755
  0
LINE
  5
2C9
100
AcDbEntity
  8
0
100
AcDbLine
 62
4
  6
CONTINUOUS
 10
12.2512789008
 20
8.7075939579
 11
12.2512789008
 21
8.7489907746
  0
LINE
  5
2CA
100
AcDbEntity
  8
0
100
AcDbLine
 62
4
  6
CONTINUOUS
 10
12.2601526895
 20
8.6416511003
 11
12.2601526895
 21
8.5974944921
  0
LINE
  5
2CB
100
AcDbEntity
  8
0
100
AcDbLine
 62
4
  6
CONTINUOUS
 10
12.2690264782
 20
7.9630352625
 11
12.2690264782
 21
7.9961527048
  0
LINE
  5
2CC
100
AcDbEntity
  8
0
100
AcDbLine
 62
4
  6
CONTINUOUS
 10
12.2690264782
 20
8.4294394539
 11
12.2690264782
 21
8.4625569238
  0
LINE
  5
2CD
100
AcDbEntity
  8
0
100
AcDbLine
 62
4
  6
CONTINUOUS
 10
12.2823371599
 20
8.778990751
 11
12.2823371599
 21
8.7375939342
  0
LINE
  5
2CE
100
AcDbEntity
  8
0
100
AcDbLine
 62
4
  6
CONTINUOUS
 10
12.2823371599
 20
8.574766438
 11
12.2823371599
 21
8.5085315257
  0
LINE
  5
2CF
100
AcDbEntity
  8
0
100
AcDbLine
 62
4
  6
CONTINUOUS
 10
12.2823371599
 20
8.4754140558
 11
12.2823371599
 21
8.4257378646
  0
LINE
  5
2D0
100
AcDbEntity
  8
0
100
AcDbLine
 62
4
  6
CONTINUOUS
 10
12.2823371599
 20
8.2849886518
 11
12.2823371599
 21
8.2518712095
  0
LINE
  5
2D1
100
AcDbEntity
  8
0
100
AcDbLine
 62
4
  6
CONTINUOUS
 10
12.2823371599
 20
8.1883961025
 11
12.2823371599
 21
8.1635579931
  0
LINE
  5
2D2
100
AcDbEntity
  8
0
100
AcDbLine
 62
4
  6
CONTINUOUS
 10
12.2823371599
 20
8.1138818296
 11
12.2823371599
 21
8.072484999
  0
LINE
  5
2D3
100
AcDbEntity
  8
0
100
AcDbLine
 62
4
  6
CONTINUOUS
 10
12.2823371599
 20
8.0090098368
 11
12.2823371599
 21
7.9593336733
  0
LINE
  5
2D4
100
AcDbEntity
  8
0
100
AcDbLine
 62
4
  6
CONTINUOUS
 10
12.3196070708
 20
8.3140891599
 11
12.3196070708
 21
8.2892510643
  0
LINE
  5
2D5
100
AcDbEntity
  8
0
100
AcDbLine
 62
4
  6
CONTINUOUS
 10
12.2645895834
 20
8.8280828267
 11
12.2586737244
 21
8.7782119337
  0
LINE
  5
2D6
100
AcDbEntity
  8
0
100
AcDbLine
 62
4
  6
CONTINUOUS
 10
12.4185498108
 20
8.9795567928
 11
12.4318604934
 21
9.0503694774
  0
LINE
  5
2D7
100
AcDbEntity
  8
0
100
AcDbLine
 62
4
  6
CONTINUOUS
 10
12.2823371599
 20
8.7375939342
 11
12.277900266
 21
8.7167494955
  0
LINE
  5
2D8
100
AcDbEntity
  8
0
100
AcDbLine
 62
4
  6
CONTINUOUS
 10
12.4118944693
 20
9.0310837779
 11
12.4096760221
 21
9.0206615574
  0
LINE
  5
2D9
100
AcDbEntity
  8
0
100
AcDbLine
 62
4
  6
CONTINUOUS
 10
12.2512789008
 20
8.2549886755
 11
12.2557157951
 21
8.2758331077
  0
LINE
  5
2DA
100
AcDbEntity
  8
0
100
AcDbLine
 62
4
  6
CONTINUOUS
 10
12.4141129165
 20
8.9421536256
 11
12.4096760221
 21
8.9213091864
  0
LINE
  5
2DB
100
AcDbEntity
  8
0
100
AcDbLine
 62
4
  6
CONTINUOUS
 10
12.2512789008
 20
8.1583961261
 11
12.2557157951
 21
8.1792405584
  0
LINE
  5
2DC
100
AcDbEntity
  8
0
100
AcDbLine
 62
4
  6
CONTINUOUS
 10
12.4407342812
 20
9.009264711
 11
12.4385158333
 21
8.9988424908
  0
LINE
  5
2DD
100
AcDbEntity
  8
0
100
AcDbLine
 62
4
  6
CONTINUOUS
 10
12.2823371599
 20
8.1635579931
 11
12.277900266
 21
8.1427135613
  0
LINE
  5
2DE
100
AcDbEntity
  8
0
100
AcDbLine
 62
4
  6
CONTINUOUS
 10
12.3240439651
 20
8.334933606
 11
12.3196070708
 21
8.3140891599
  0
LINE
  5
2DF
100
AcDbEntity
  8
0
100
AcDbLine
 62
4
  6
CONTINUOUS
 10
12.3506653299
 20
8.5565928305
 11
12.3373546482
 21
8.5106182389
  0
LINE
  5
2E0
100
AcDbEntity
  8
0
100
AcDbLine
 62
4
  6
CONTINUOUS
 10
12.4407342812
 20
8.876794883
 11
12.4096760221
 21
8.7888393549
  0
LINE
  5
2E1
100
AcDbEntity
  8
0
100
AcDbLine
 62
4
  6
CONTINUOUS
 10
11.8428627788
 20
7.5527726435
 11
11.8118045198
 21
7.4865504473
  0
LINE
  5
2E2
100
AcDbEntity
  8
0
100
AcDbLine
 62
4
  6
CONTINUOUS
 10
12.4318604934
 20
8.6032837848
 11
12.4096760221
 21
8.5570171204
  0
LINE
  5
2E3
100
AcDbEntity
  8
0
100
AcDbLine
 62
4
  6
CONTINUOUS
 10
12.3506653299
 20
8.4572404551
 11
12.3196070708
 21
8.3941230157
  0
LINE
  5
2E4
100
AcDbEntity
  8
0
100
AcDbLine
 62
4
  6
CONTINUOUS
 10
12.4318604934
 20
8.2914277498
 11
12.4118944693
 21
8.2721420503
  0
LINE
  5
2E5
100
AcDbEntity
  8
0
100
AcDbLine
 62
4
  6
CONTINUOUS
 10
12.277900266
 20
8.1427135613
 11
12.2557157951
 21
8.1212850067
  0
LINE
  5
2E6
100
AcDbEntity
  8
0
100
AcDbLine
 62
4
  6
CONTINUOUS
 10
12.2512789008
 20
8.0838818532
 11
12.2823371599
 21
8.1138818296
  0
LINE
  5
2E7
100
AcDbEntity
  8
0
100
AcDbLine
 62
4
  6
CONTINUOUS
 10
12.4096760221
 20
8.220322976
 11
12.4318604934
 21
8.241751531
  0
LINE
  5
2E8
100
AcDbEntity
  8
0
100
AcDbLine
 62
4
  6
CONTINUOUS
 10
12.4118944693
 20
8.1893483892
 11
12.4407342812
 21
8.21720551
  0
LINE
  5
2E9
100
AcDbEntity
  8
0
100
AcDbLine
 62
4
  6
CONTINUOUS
 10
12.277900266
 20
8.0516405672
 11
12.2557157951
 21
8.0302120126
  0
LINE
  5
2EA
100
AcDbEntity
  8
0
100
AcDbLine
 62
4
  6
CONTINUOUS
 10
12.2512789008
 20
7.9790098604
 11
12.2823371599
 21
8.0090098368
  0
LINE
  5
2EB
100
AcDbEntity
  8
0
100
AcDbLine
 62
4
  6
CONTINUOUS
 10
12.8444916526
 20
8.5444200777
 11
12.8393152773
 21
8.5394200828
  0
LINE
  5
2EC
100
AcDbEntity
  8
0
100
AcDbLine
 62
4
  6
CONTINUOUS
 10
12.4096760221
 20
8.1126912608
 11
12.4318604934
 21
8.1341198158
  0
LINE
  5
2ED
100
AcDbEntity
  8
0
100
AcDbLine
 62
4
  6
CONTINUOUS
 10
12.4385158333
 20
8.1405483809
 11
12.4407342812
 21
8.1426912371
  0
LINE
  5
2EE
100
AcDbEntity
  8
0
100
AcDbLine
 62
4
  6
CONTINUOUS
 10
12.4118944693
 20
8.0706775081
 11
12.4296420455
 21
8.0878203514
  0
LINE
  5
2EF
100
AcDbEntity
  8
0
100
AcDbLine
 62
4
  6
CONTINUOUS
 10
12.3196070708
 20
8.2892510643
 11
12.3240439651
 21
8.2769780542
  0
LINE
  5
2F0
100
AcDbEntity
  8
0
100
AcDbLine
 62
4
  6
CONTINUOUS
 10
12.4296420455
 20
8.0133060232
 11
12.4318604934
 21
8.0071695465
  0
LINE
  5
2F1
100
AcDbEntity
  8
0
100
AcDbLine
 62
4
  6
CONTINUOUS
 10
12.4296420455
 20
8.0878203514
 11
12.4318604934
 21
8.0816838747
  0
LINE
  5
2F2
100
AcDbEntity
  8
0
100
AcDbLine
 62
4
  6
CONTINUOUS
 10
12.2557157951
 20
8.6953209409
 11
12.2512789008
 21
8.7075939579
  0
LINE
  5
2F3
100
AcDbEntity
  8
0
100
AcDbLine
 62
4
  6
CONTINUOUS
 10
12.2645895834
 20
7.8649167792
 11
12.2586737244
 21
7.9033591061
  0
LINE
  5
2F4
100
AcDbEntity
  8
0
100
AcDbLine
 62
4
  6
CONTINUOUS
 10
12.2705054428
 20
8.7896404968
 11
12.2645895834
 21
8.8280828267
  0
LINE
  5
2F5
100
AcDbEntity
  8
0
100
AcDbLine
 62
4
  6
CONTINUOUS
 10
12.4022811985
 20
8.5747123783
 11
12.4022811985
 21
8.5581536571
  0
LINE
  5
2F6
100
AcDbEntity
  8
0
100
AcDbLine
 62
4
  6
CONTINUOUS
 10
12.4096760221
 20
9.0206615574
 11
12.4096760221
 21
8.9875440987
  0
LINE
  5
2F7
100
AcDbEntity
  8
0
100
AcDbLine
 62
4
  6
CONTINUOUS
 10
12.4096760221
 20
8.9213091864
 11
12.4096760221
 21
8.8964710839
  0
LINE
  5
2F8
100
AcDbEntity
  8
0
100
AcDbLine
 62
4
  6
CONTINUOUS
 10
12.4096760221
 20
8.2617198065
 11
12.4096760221
 21
8.220322976
  0
LINE
  5
2F9
100
AcDbEntity
  8
0
100
AcDbLine
 62
4
  6
CONTINUOUS
 10
12.4096760221
 20
7.9857409915
 11
12.4096760221
 21
7.9526235491
  0
LINE
  5
2FA
100
AcDbEntity
  8
0
100
AcDbLine
 62
4
  6
CONTINUOUS
 10
12.4096760221
 20
8.0271377667
 11
12.4096760221
 21
8.0602553196
  0
LINE
  5
2FB
100
AcDbEntity
  8
0
100
AcDbLine
 62
4
  6
CONTINUOUS
 10
12.4096760221
 20
8.1623674243
 11
12.4096760221
 21
8.1789261454
  0
LINE
  5
2FC
100
AcDbEntity
  8
0
100
AcDbLine
 62
4
  6
CONTINUOUS
 10
12.4096760221
 20
8.3031166371
 11
12.4096760221
 21
8.3362340794
  0
LINE
  5
2FD
100
AcDbEntity
  8
0
100
AcDbLine
 62
4
  6
CONTINUOUS
 10
12.4096760221
 20
8.4604245711
 11
12.4096760221
 21
8.4935420134
  0
LINE
  5
2FE
100
AcDbEntity
  8
0
100
AcDbLine
 62
4
  6
CONTINUOUS
 10
12.4207682578
 20
8.3469483569
 11
12.4207682578
 21
8.3138309146
  0
LINE
  5
2FF
100
AcDbEntity
  8
0
100
AcDbLine
 62
4
  6
CONTINUOUS
 10
12.4318604934
 20
8.6860774459
 11
12.4318604934
 21
8.6446806154
  0
LINE
  5
300
100
AcDbEntity
  8
0
100
AcDbLine
 62
4
  6
CONTINUOUS
 10
12.4318604934
 20
8.5149705684
 11
12.4318604934
 21
8.4818531261
  0
LINE
  5
301
100
AcDbEntity
  8
0
100
AcDbLine
 62
4
  6
CONTINUOUS
 10
12.4318604934
 20
8.4487356285
 11
12.4318604934
 21
8.4156181862
  0
LINE
  5
302
100
AcDbEntity
  8
0
100
AcDbLine
 62
4
  6
CONTINUOUS
 10
12.4318604934
 20
8.0816838747
 11
12.4318604934
 21
8.0485663218
  0
LINE
  5
303
100
AcDbEntity
  8
0
100
AcDbLine
 62
4
  6
CONTINUOUS
 10
12.4318604934
 20
8.0071695465
 11
12.4318604934
 21
7.9740521042
  0
LINE
  5
304
100
AcDbEntity
  8
0
100
AcDbLine
 62
4
  6
CONTINUOUS
 10
12.4318604934
 20
8.3328245251
 11
12.4318604934
 21
8.3742213556
  0
LINE
  5
305
100
AcDbEntity
  8
0
100
AcDbLine
 62
4
  6
CONTINUOUS
 10
12.4407342812
 20
9.0423821689
 11
12.4407342812
 21
9.009264711
  0
LINE
  5
306
100
AcDbEntity
  8
0
100
AcDbLine
 62
4
  6
CONTINUOUS
 10
12.4407342812
 20
8.1426912371
 11
12.4407342812
 21
8.1399314595
  0
LINE
  5
307
100
AcDbEntity
  8
0
100
AcDbLine
 62
4
  6
CONTINUOUS
 10
12.4200287755
 20
7.9626235415
 11
12.4215077401
 21
7.9971695541
  0
LINE
  5
308
100
AcDbEntity
  8
0
100
AcDbLine
 62
4
  6
CONTINUOUS
 10
12.2705054428
 20
7.9147876692
 11
12.2645895834
 21
7.8649167792
  0
LINE
  5
309
100
AcDbEntity
  8
0
100
AcDbLine
 62
4
  6
CONTINUOUS
 10
12.4096760221
 20
8.4935420134
 11
12.4118944693
 21
8.5122435901
  0
LINE
  5
30A
100
AcDbEntity
  8
0
100
AcDbLine
 62
4
  6
CONTINUOUS
 10
12.4096760221
 20
8.3362340794
 11
12.4118944693
 21
8.3549356561
  0
LINE
  5
30B
100
AcDbEntity
  8
0
100
AcDbLine
 62
4
  6
CONTINUOUS
 10
12.4215077401
 20
7.9971695541
 11
12.4229867047
 21
8.0068774573
  0
LINE
  5
30C
100
AcDbEntity
  8
0
100
AcDbLine
 62
4
  6
CONTINUOUS
 10
12.4185498108
 20
7.9529156384
 11
12.4200287755
 21
7.9626235415
  0
LINE
  5
30D
100
AcDbEntity
  8
0
100
AcDbLine
 62
4
  6
CONTINUOUS
 10
12.2823371599
 20
8.072484999
 11
12.277900266
 21
8.0516405672
  0
LINE
  5
30E
100
AcDbEntity
  8
0
100
AcDbLine
 62
4
  6
CONTINUOUS
 10
12.4318604934
 20
8.6446806154
 11
12.4296420455
 21
8.6342583986
  0
LINE
  5
30F
100
AcDbEntity
  8
0
100
AcDbLine
 62
4
  6
CONTINUOUS
 10
12.4118944693
 20
8.2721420503
 11
12.4096760221
 21
8.2617198065
  0
LINE
  5
310
100
AcDbEntity
  8
0
100
AcDbLine
 62
4
  6
CONTINUOUS
 10
12.4096760221
 20
8.1789261454
 11
12.4118944693
 21
8.1893483892
  0
LINE
  5
311
100
AcDbEntity
  8
0
100
AcDbLine
 62
4
  6
CONTINUOUS
 10
12.4096760221
 20
8.0602553196
 11
12.4118944693
 21
8.0706775081
  0
LINE
  5
312
100
AcDbEntity
  8
0
100
AcDbLine
 62
4
  6
CONTINUOUS
 10
12.4118944693
 20
7.99616318
 11
12.4096760221
 21
7.9857409915
  0
LINE
  5
313
100
AcDbEntity
  8
0
100
AcDbLine
 62
4
  6
CONTINUOUS
 10
12.4318604934
 20
7.9740521042
 11
12.4296420455
 21
7.963629915
  0
LINE
  5
314
100
AcDbEntity
  8
0
100
AcDbLine
 62
4
  6
CONTINUOUS
 10
12.4318604934
 20
8.4156181862
 11
12.4296420455
 21
8.4079557746
  0
LINE
  5
315
100
AcDbEntity
  8
0
100
AcDbLine
 62
4
  6
CONTINUOUS
 10
12.4274235995
 20
8.3202594815
 11
12.4318604934
 21
8.3328245251
  0
LINE
  5
316
100
AcDbEntity
  8
0
100
AcDbLine
 62
4
  6
CONTINUOUS
 10
12.4229867047
 20
8.0068774573
 11
12.4296420455
 21
8.0133060232
  0
LINE
  5
317
100
AcDbEntity
  8
0
100
AcDbLine
 62
4
  6
CONTINUOUS
 10
12.4118944693
 20
7.9464870717
 11
12.4185498108
 21
7.9529156384
  0
LINE
  5
318
100
AcDbEntity
  8
0
100
AcDbLine
 62
4
  6
CONTINUOUS
 10
11.8376864017
 20
7.3666615477
 11
11.8325100264
 21
7.3616615529
  0
LINE
  5
319
100
AcDbEntity
  8
0
100
AcDbLine
 62
4
  6
CONTINUOUS
 10
12.4096760221
 20
8.8964710839
 11
12.4141129165
 21
8.8841980739
  0
LINE
  5
31A
100
AcDbEntity
  8
0
100
AcDbLine
 62
4
  6
CONTINUOUS
 10
12.4096760221
 20
8.9875440987
 11
12.4141129165
 21
8.9752710817
  0
LINE
  5
31B
100
AcDbEntity
  8
0
100
AcDbLine
 62
4
  6
CONTINUOUS
 10
12.4185498108
 20
8.3613642228
 11
12.4207682578
 21
8.3469483569
  0
LINE
  5
31C
100
AcDbEntity
  8
0
100
AcDbLine
 62
4
  6
CONTINUOUS
 10
12.4296420455
 20
8.5293864334
 11
12.4318604934
 21
8.5149705684
  0
LINE
  5
31D
100
AcDbEntity
  8
0
100
AcDbLine
 62
4
  6
CONTINUOUS
 10
12.8263743354
 20
8.7080311912
 11
12.8341389002
 21
8.7227756293
  0
LINE
  5
31E
100
AcDbEntity
  8
0
100
AcDbLine
 62
4
  6
CONTINUOUS
 10
12.8393152773
 20
8.5394200828
 11
12.8367270878
 21
8.5441645276
  0
LINE
  5
31F
100
AcDbEntity
  8
0
100
AcDbLine
 62
4
  6
CONTINUOUS
 10
12.8315507116
 20
8.5681423077
 11
12.8263743354
 21
8.5776311999
  0
LINE
  5
320
100
AcDbEntity
  8
0
100
AcDbLine
 62
4
  6
CONTINUOUS
 10
12.8444916526
 20
8.6023756294
 11
12.8470798421
 21
8.5976311847
  0
LINE
  5
321
100
AcDbEntity
  8
0
100
AcDbLine
 62
4
  6
CONTINUOUS
 10
12.8237861473
 20
8.6403311977
 11
12.8211979589
 21
8.6450756435
  0
LINE
  5
322
100
AcDbEntity
  8
0
100
AcDbLine
 62
4
  6
CONTINUOUS
 10
12.4362973873
 20
9.054655188
 11
12.4407342812
 21
9.0423821689
  0
LINE
  5
323
100
AcDbEntity
  8
0
100
AcDbLine
 62
4
  6
CONTINUOUS
 10
12.8186097706
 20
8.5773756497
 11
12.8186097706
 21
8.519420098
  0
LINE
  5
324
100
AcDbEntity
  8
0
100
AcDbLine
 62
4
  6
CONTINUOUS
 10
12.8186097706
 20
8.6570645333
 11
12.8186097706
 21
8.6715534213
  0
LINE
  5
325
100
AcDbEntity
  8
0
100
AcDbLine
 62
4
  6
CONTINUOUS
 10
12.8496680297
 20
8.7015533976
 11
12.8496680297
 21
8.6870645097
  0
LINE
  5
326
100
AcDbEntity
  8
0
100
AcDbLine
 62
4
  6
CONTINUOUS
 10
12.8496680297
 20
8.5856422942
 11
12.8496680297
 21
8.5711534063
  0
LINE
  5
327
100
AcDbEntity
  8
0
100
AcDbLine
 62
7
  6
CONTINUOUS
 10
12.8781381068
 20
10.3880310355
 11
12.8781381068
 21
7.4902533849
  0
LINE
  5
328
100
AcDbEntity
  8
0
100
AcDbLine
 62
4
  6
CONTINUOUS
 10
12.8186097706
 20
8.6715534213
 11
12.8211979589
 21
8.6885423073
  0
LINE
  5
329
100
AcDbEntity
  8
0
100
AcDbLine
 62
4
  6
CONTINUOUS
 10
12.8496680297
 20
8.6870645097
 11
12.8470798421
 21
8.6700756243
  0
LINE
  5
32A
100
AcDbEntity
  8
0
100
AcDbLine
 62
4
  6
CONTINUOUS
 10
12.8496680297
 20
8.5711534063
 11
12.8470798421
 21
8.5541645209
  0
LINE
  5
32B
100
AcDbEntity
  8
0
100
AcDbLine
 62
4
  6
CONTINUOUS
 10
12.8211979589
 20
8.6885423073
 11
12.8263743354
 21
8.7080311912
  0
LINE
  5
32C
100
AcDbEntity
  8
0
100
AcDbLine
 62
4
  6
CONTINUOUS
 10
12.8470798421
 20
8.6700756243
 11
12.8444916526
 21
8.6603311811
  0
LINE
  5
32D
100
AcDbEntity
  8
0
100
AcDbLine
 62
4
  6
CONTINUOUS
 10
12.8470798421
 20
8.5541645209
 11
12.8444916526
 21
8.5444200777
  0
LINE
  5
32E
100
AcDbEntity
  8
0
100
AcDbLine
 62
4
  6
CONTINUOUS
 10
12.8419034649
 20
8.7230311794
 11
12.8470798421
 21
8.7135422881
  0
LINE
  5
32F
100
AcDbEntity
  8
0
100
AcDbLine
 62
4
  6
CONTINUOUS
 10
12.8367270878
 20
8.5441645276
 11
12.8315507116
 21
8.5681423077
  0
LINE
  5
330
100
AcDbEntity
  8
0
100
AcDbLine
 62
4
  6
CONTINUOUS
 10
12.8211979589
 20
8.6450756435
 11
12.8186097706
 21
8.6570645333
  0
LINE
  5
331
100
AcDbEntity
  8
0
100
AcDbLine
 62
4
  6
CONTINUOUS
 10
12.8470798421
 20
8.5976311847
 11
12.8496680297
 21
8.5856422942
  0
LINE
  5
332
100
AcDbEntity
  8
0
100
AcDbLine
 62
4
  6
CONTINUOUS
 10
12.8470798421
 20
8.7135422881
 11
12.8496680297
 21
8.7015533976
  0
LINE
  5
333
100
AcDbEntity
  8
0
100
AcDbLine
 62
7
  6
CONTINUOUS
 10
12.8781381068
 20
7.4902533849
 11
11.7781580729
 21
6.4277541988
  0
LINE
  5
334
100
AcDbEntity
  8
0
100
AcDbLine
 62
7
  6
CONTINUOUS
 10
10.2218419271
 20
10.5722458012
 11
12.8781381068
 21
10.3880310355
  0
ARC
  5
335
100
AcDbEntity
  8
0
100
AcDbCircle
 62
7
  6
CONTINUOUS
 10
11.1449360274
 20
7.7126896754
 40
0.527175871
100
AcDbArc
 50
0.0103690036
 51
5.8455856794
  0
ARC
  5
336
100
AcDbEntity
  8
0
100
AcDbCircle
 62
7
  6
CONTINUOUS
 10
9.8610025684
 20
8.9150112789
 40
0.5180302654
100
AcDbArc
 50
134.5967369683
 51
135.2804911266
  0
ARC
  5
337
100
AcDbEntity
  8
0
100
AcDbCircle
 62
7
  6
CONTINUOUS
 10
9.6803744507
 20
7.5993897916
 40
0.5180302654
100
AcDbArc
 50
134.5967369682
 51
135.2804911266
  0
ARC
  5
338
100
AcDbEntity
  8
0
100
AcDbCircle
 62
7
  6
CONTINUOUS
 10
9.9679928948
 20
8.804245526
 40
0.5179698024
100
AcDbArc
 50
312.7340118853
 51
313.5869994087
  0
ARC
  5
339
100
AcDbEntity
  8
0
100
AcDbCircle
 62
7
  6
CONTINUOUS
 10
9.7873647772
 20
7.4886240386
 40
0.5179698024
100
AcDbArc
 50
312.7340118852
 51
313.5869994087
  0
ARC
  5
33A
100
AcDbEntity
  8
0
100
AcDbCircle
 62
7
  6
CONTINUOUS
 10
11.5937119064
 20
8.2142134193
 40
0.4466856142
100
AcDbArc
 50
172.7798471755
 51
180.0156606901
  0
ARC
  5
33B
100
AcDbEntity
  8
0
100
AcDbCircle
 62
7
  6
CONTINUOUS
 10
11.6024421348
 20
8.2196724951
 40
0.4186734944
100
AcDbArc
 50
173.5636974109
 51
180.0124246758
  0
ARC
  5
33C
100
AcDbEntity
  8
0
100
AcDbCircle
 62
7
  6
CONTINUOUS
 10
9.9304957714
 20
9.2435358532
 40
0.1352047646
100
AcDbArc
 50
191.0923163529
 51
198.6229051197
  0
ARC
  5
33D
100
AcDbEntity
  8
0
100
AcDbCircle
 62
7
  6
CONTINUOUS
 10
9.9849224749
 20
7.7641143775
 40
0.1088649302
100
AcDbArc
 50
314.0074401929
 51
319.7081798113
  0
ARC
  5
33E
100
AcDbEntity
  8
0
100
AcDbCircle
 62
7
  6
CONTINUOUS
 10
9.9624938372
 20
7.7873352289
 40
0.1088511189
100
AcDbArc
 50
128.3079155721
 51
134.0069899348
  0
ARC
  5
33F
100
AcDbEntity
  8
0
100
AcDbCircle
 62
7
  6
CONTINUOUS
 10
9.7976684904
 20
9.2355056884
 40
0.0354589756
100
AcDbArc
 50
277.6196443776
 51
278.2985871654
  0
SPLINE
  5
340
100
AcDbEntity
  8
0
100
AcDbSpline
 62
7
  6
CONTINUOUS
 70
0
 71
3
 72
61
 73
57
 74
0
 42
0.0000001
 43
0.0000001
 44
0.0000000001
 40
0.0
 40
0.0
 40
0.0
 40
0.0
 40
0.0081438107
 40
0.0169768253
 40
0.0265208593
 40
0.0367896034
 40
0.0477882758
 40
0.059515773
 40
0.0719659354
 40
0.0851281927
 40
0.0989883997
 40
0.1135291739
 40
0.128730338
 40
0.1445693348
 40
0.1610212991
 40
0.1780594087
 40
0.1956550844
 40
0.2137780107
 40
0.2514762223
 40
0.2908854803
 40
0.3317180646
 40
0.3736718128
 40
0.41643347
 40
0.4596819467
 40
0.503091466
 40
0.5463347048
 40
0.5890859389
 40
0.6310241659
 40
0.6718362916
 40
0.711220377
 40
0.7302869012
 40
0.7488899819
 40
0.766996492
 40
0.7845747549
 40
0.8015945448
 40
0.8180272587
 40
0.8338461933
 40
0.8490265591
 40
0.863545804
 40
0.8773839159
 40
0.89052357
 40
0.9029507002
 40
0.9146549465
 40
0.925630188
 40
0.9358756141
 40
0.9453967247
 40
0.9542068468
 40
0.9623293993
 40
0.969800451
 40
0.9766722869
 40
0.9830175726
 40
0.9889330684
 40
0.9917694528
 40
0.9945466045
 40
0.9972834946
 40
1.0
 40
1.0
 40
1.0
 40
1.0
 10
12.0936582238
 20
8.9589631048
 30
0.0
 10
12.0928070415
 20
8.9581409258
 30
0.0
 10
12.0911090869
 20
8.9563468975
 30
0.0
 10
12.0886692252
 20
8.9533602748
 30
0.0
 10
12.0862398568
 20
8.9499771084
 30
0.0
 10
12.0838256957
 20
8.9462041645
 30
0.0
 10
12.081431149
 20
8.9420485013
 30
0.0
 10
12.079060948
 20
8.9375181599
 30
0.0
 10
12.0767197689
 20
8.9326219955
 30
0.0
 10
12.0744122595
 20
8.9273696564
 30
0.0
 10
12.0721430835
 20
8.9217715323
 30
0.0
 10
12.0699168011
 20
8.9158387614
 30
0.0
 10
12.0677378898
 20
8.9095831797
 30
0.0
 10
12.0656107797
 20
8.9030172833
 30
0.0
 10
12.0635397476
 20
8.896154221
 30
0.0
 10
12.0615289829
 20
8.8890077506
 30
0.0
 10
12.0595825447
 20
8.8815921918
 30
0.0
 10
12.0570449769
 20
8.8712293455
 30
0.0
 10
12.0540724071
 20
8.8577115942
 30
0.0
 10
12.0508648954
 20
8.8408738439
 30
0.0
 10
12.0479979335
 20
8.8233479541
 30
0.0
 10
12.0454947695
 20
8.8052746597
 30
0.0
 10
12.0433757066
 20
8.7867989888
 30
0.0
 10
12.0416578897
 20
8.7680693132
 30
0.0
 10
12.04035519
 20
8.7492360627
 30
0.0
 10
12.03947806
 20
8.7304505157
 30
0.0
 10
12.0390334827
 20
8.7118635728
 30
0.0
 10
12.0390248921
 20
8.6936244727
 30
0.0
 10
12.0394522048
 20
8.6758797607
 30
0.0
 10
12.0401758815
 20
8.6614715223
 30
0.0
 10
12.0409775582
 20
8.6503028108
 30
0.0
 10
12.0416780744
 20
8.6422276746
 30
0.0
 10
12.0424828726
 20
8.6343796214
 30
0.0
 10
12.0433903107
 20
8.6267743987
 30
0.0
 10
12.0443985423
 20
8.6194272787
 30
0.0
 10
12.0455055329
 20
8.6123530027
 30
0.0
 10
12.0467090021
 20
8.6055657514
 30
0.0
 10
12.0480065178
 20
8.5990791181
 30
0.0
 10
12.0493954473
 20
8.5929060751
 30
0.0
 10
12.0508729418
 20
8.5870589366
 30
0.0
 10
12.0524360333
 20
8.5815493417
 30
0.0
 10
12.0540815564
 20
8.576388208
 30
0.0
 10
12.055806187
 20
8.5715856985
 30
0.0
 10
12.0576065388
 20
8.5671512104
 30
0.0
 10
12.0594790803
 20
8.5630933066
 30
0.0
 10
12.0614202705
 20
8.5594197049
 30
0.0
 10
12.0634266731
 20
8.5561372955
 30
0.0
 10
12.0654949806
 20
8.5532520975
 30
0.0
 10
12.0676222193
 20
8.5507694676
 30
0.0
 10
12.0698061668
 20
8.5486943592
 30
0.0
 10
12.0720442014
 20
8.5470320112
 30
0.0
 10
12.0739806158
 20
8.5459810935
 30
0.0
 10
12.0755410719
 20
8.5453667384
 30
0.0
 10
12.0767050218
 20
8.5450182642
 30
0.0
 10
12.0778777896
 20
8.5447761435
 30
0.0
 10
12.0786663377
 20
8.5446856514
 30
0.0
 10
12.0790601422
 20
8.5446583368
 30
0.0
  0
SPLINE
  5
341
100
AcDbEntity
  8
0
100
AcDbSpline
 62
7
  6
CONTINUOUS
 70
0
 71
3
 72
61
 73
57
 74
0
 42
0.0000001
 43
0.0000001
 44
0.0000000001
 40
0.0
 40
0.0
 40
0.0
 40
0.0
 40
0.0081438107
 40
0.0169768253
 40
0.0265208593
 40
0.0367896034
 40
0.0477882758
 40
0.059515773
 40
0.0719659354
 40
0.0851281927
 40
0.0989883997
 40
0.1135291739
 40
0.128730338
 40
0.1445693348
 40
0.1610212991
 40
0.1780594087
 40
0.1956550844
 40
0.2137780107
 40
0.2514762223
 40
0.2908854803
 40
0.3317180646
 40
0.3736718128
 40
0.41643347
 40
0.4596819467
 40
0.503091466
 40
0.5463347048
 40
0.5890859389
 40
0.6310241659
 40
0.6718362916
 40
0.711220377
 40
0.7302869012
 40
0.7488899819
 40
0.766996492
 40
0.7845747549
 40
0.8015945448
 40
0.8180272587
 40
0.8338461933
 40
0.8490265591
 40
0.863545804
 40
0.8773839159
 40
0.89052357
 40
0.9029507002
 40
0.9146549465
 40
0.925630188
 40
0.9358756141
 40
0.9453967247
 40
0.9542068468
 40
0.9623293993
 40
0.969800451
 40
0.9766722869
 40
0.9830175726
 40
0.9889330684
 40
0.9917694528
 40
0.9945466045
 40
0.9972834946
 40
1.0
 40
1.0
 40
1.0
 40
1.0
 10
12.0936582238
 20
7.2685929238
 30
0.0
 10
12.0928070415
 20
7.2677707448
 30
0.0
 10
12.0911090869
 20
7.2659767165
 30
0.0
 10
12.0886692252
 20
7.2629900938
 30
0.0
 10
12.0862398568
 20
7.2596069274
 30
0.0
 10
12.0838256957
 20
7.2558339835
 30
0.0
 10
12.081431149
 20
7.2516783203
 30
0.0
 10
12.079060948
 20
7.2471479789
 30
0.0
 10
12.0767197689
 20
7.2422518145
 30
0.0
 10
12.0744122595
 20
7.2369994754
 30
0.0
 10
12.0721430835
 20
7.2314013513
 30
0.0
 10
12.0699168011
 20
7.2254685803
 30
0.0
 10
12.0677378898
 20
7.2192129987
 30
0.0
 10
12.0656107797
 20
7.2126471023
 30
0.0
 10
12.0635397476
 20
7.20578404
 30
0.0
 10
12.0615289829
 20
7.1986375696
 30
0.0
 10
12.0595825447
 20
7.1912220108
 30
0.0
 10
12.0570449769
 20
7.1808591645
 30
0.0
 10
12.0540724071
 20
7.1673414132
 30
0.0
 10
12.0508648954
 20
7.1505036629
 30
0.0
 10
12.0479979335
 20
7.1329777731
 30
0.0
 10
12.0454947695
 20
7.1149044787
 30
0.0
 10
12.0433757066
 20
7.0964288078
 30
0.0
 10
12.0416578897
 20
7.0776991322
 30
0.0
 10
12.04035519
 20
7.0588658817
 30
0.0
 10
12.03947806
 20
7.0400803347
 30
0.0
 10
12.0390334827
 20
7.0214933918
 30
0.0
 10
12.0390248921
 20
7.0032542917
 30
0.0
 10
12.0394522048
 20
6.9855095797
 30
0.0
 10
12.0401758815
 20
6.9711013412
 30
0.0
 10
12.0409775582
 20
6.9599326298
 30
0.0
 10
12.0416780744
 20
6.9518574936
 30
0.0
 10
12.0424828726
 20
6.9440094404
 30
0.0
 10
12.0433903107
 20
6.9364042177
 30
0.0
 10
12.0443985423
 20
6.9290570977
 30
0.0
 10
12.0455055329
 20
6.9219828217
 30
0.0
 10
12.0467090021
 20
6.9151955704
 30
0.0
 10
12.0480065178
 20
6.9087089371
 30
0.0
 10
12.0493954473
 20
6.9025358941
 30
0.0
 10
12.0508729418
 20
6.8966887556
 30
0.0
 10
12.0524360333
 20
6.8911791607
 30
0.0
 10
12.0540815564
 20
6.886018027
 30
0.0
 10
12.055806187
 20
6.8812155175
 30
0.0
 10
12.0576065388
 20
6.8767810293
 30
0.0
 10
12.0594790803
 20
6.8727231256
 30
0.0
 10
12.0614202705
 20
6.8690495239
 30
0.0
 10
12.0634266731
 20
6.8657671145
 30
0.0
 10
12.0654949806
 20
6.8628819164
 30
0.0
 10
12.0676222193
 20
6.8603992866
 30
0.0
 10
12.0698061668
 20
6.8583241782
 30
0.0
 10
12.0720442014
 20
6.8566618302
 30
0.0
 10
12.0739806158
 20
6.8556109125
 30
0.0
 10
12.0755410719
 20
6.8549965574
 30
0.0
 10
12.0767050218
 20
6.8546480832
 30
0.0
 10
12.0778777896
 20
6.8544059625
 30
0.0
 10
12.0786663377
 20
6.8543154704
 30
0.0
 10
12.0790601422
 20
6.8542881558
 30
0.0
  0
SPLINE
  5
342
100
AcDbEntity
  8
0
100
AcDbSpline
 62
7
  6
CONTINUOUS
 70
0
 71
3
 72
24
 73
20
 74
0
 42
0.0000001
 43
0.0000001
 44
0.0000000001
 40
0.0
 40
0.0
 40
0.0
 40
0.0
 40
0.0637774298
 40
0.1273438979
 40
0.1907011028
 40
0.2538548461
 40
0.3168115792
 40
0.3795801785
 40
0.4421711488
 40
0.5045967878
 40
0.5668710022
 40
0.6290092041
 40
0.6910281625
 40
0.7220010202
 40
0.7529508971
 40
0.8147862935
 40
0.87655923
 40
0.9382901685
 40
1.0
 40
1.0
 40
1.0
 40
1.0
 10
11.6883269657
 20
7.6114476418
 30
0.0
 10
11.6883269657
 20
7.6013108581
 30
0.0
 10
11.6878418219
 20
7.5810673843
 30
0.0
 10
11.6856518905
 20
7.5508252307
 30
0.0
 10
11.6820058111
 20
7.5208229178
 30
0.0
 10
11.6769120447
 20
7.4911306088
 30
0.0
 10
11.6703821683
 20
7.4618164084
 30
0.0
 10
11.6624312196
 20
7.432947999
 30
0.0
 10
11.6530774313
 20
7.404591902
 30
0.0
 10
11.6423423341
 20
7.3768135432
 30
0.0
 10
11.6302505469
 20
7.3496768756
 30
0.0
 10
11.616830159
 20
7.3232449029
 30
0.0
 10
11.6045589283
 20
7.3018457135
 30
0.0
 10
11.5941114676
 20
7.285142852
 30
0.0
 10
11.5832568873
 20
7.2687366252
 30
0.0
 10
11.5689193979
 20
7.2487748808
 30
0.0
 10
11.550522318
 20
7.2257517153
 30
0.0
 10
11.5309805283
 20
7.2037190663
 30
0.0
 10
11.5172171447
 20
7.1897225614
 30
0.0
 10
11.5101625844
 20
7.1829083722
 30
0.0
  0
SPLINE
  5
343
100
AcDbEntity
  8
0
100
AcDbSpline
 62
7
  6
CONTINUOUS
 70
0
 71
3
 72
23
 73
19
 74
0
 42
0.0000001
 43
0.0000001
 44
0.0000000001
 40
0.0
 40
0.0
 40
0.0
 40
0.0
 40
0.0637776914
 40
0.1273445726
 40
0.19070205
 40
0.2538561286
 40
0.3168131755
 40
0.3795820937
 40
0.4421733816
 40
0.5045993375
 40
0.566873868
 40
0.6290123843
 40
0.691031656
 40
0.7529496505
 40
0.8147853588
 40
0.8765586069
 40
0.938289857
 40
1.0
 40
1.0
 40
1.0
 40
1.0
 10
10.4809195888
 20
8.8117919666
 30
0.0
 10
10.4809195888
 20
8.8026118017
 30
0.0
 10
10.4804802256
 20
8.7842787037
 30
0.0
 10
10.4784969684
 20
8.756890509
 30
0.0
 10
10.4751949692
 20
8.7297195111
 30
0.0
 10
10.4705819167
 20
8.7028292733
 30
0.0
 10
10.4646682775
 20
8.6762814548
 30
0.0
 10
10.4574676778
 20
8.6501373565
 30
0.0
 10
10.4489966297
 20
8.6244572269
 30
0.0
 10
10.4392746149
 20
8.5993002917
 30
0.0
 10
10.4283239908
 20
8.574724569
 30
0.0
 10
10.4161699589
 20
8.5507867452
 30
0.0
 10
10.4028405117
 20
8.5275420419
 30
0.0
 10
10.3883663433
 20
8.5050440703
 30
0.0
 10
10.3727808556
 20
8.4833447816
 30
0.0
 10
10.3561197978
 20
8.4624940636
 30
0.0
 10
10.3384222412
 20
8.4425406745
 30
0.0
 10
10.3259577331
 20
8.4298649772
 30
0.0
 10
10.3195689181
 20
8.4236938389
 30
0.0
  0
SPLINE
  5
344
100
AcDbEntity
  8
0
100
AcDbSpline
 62
7
  6
CONTINUOUS
 70
0
 71
3
 72
23
 73
19
 74
0
 42
0.0000001
 43
0.0000001
 44
0.0000000001
 40
0.0
 40
0.0
 40
0.0
 40
0.0
 40
0.0637776914
 40
0.1273445726
 40
0.19070205
 40
0.2538561286
 40
0.3168131755
 40
0.3795820937
 40
0.4421733816
 40
0.5045993375
 40
0.566873868
 40
0.6290123843
 40
0.691031656
 40
0.7529496505
 40
0.8147853588
 40
0.8765586069
 40
0.938289857
 40
1.0
 40
1.0
 40
1.0
 40
1.0
 10
10.3002914711
 20
7.4961704793
 30
0.0
 10
10.3002914711
 20
7.4869903144
 30
0.0
 10
10.299852108
 20
7.4686572164
 30
0.0
 10
10.2978688507
 20
7.4412690217
 30
0.0
 10
10.2945668515
 20
7.4140980237
 30
0.0
 10
10.2899537991
 20
7.3872077859
 30
0.0
 10
10.2840401599
 20
7.3606599675
 30
0.0
 10
10.2768395602
 20
7.3345158691
 30
0.0
 10
10.268368512
 20
7.3088357396
 30
0.0
 10
10.2586464973
 20
7.2836788043
 30
0.0
 10
10.2476958732
 20
7.2591030817
 30
0.0
 10
10.2355418412
 20
7.2351652579
 30
0.0
 10
10.222212394
 20
7.2119205545
 30
0.0
 10
10.2077382256
 20
7.1894225829
 30
0.0
 10
10.192152738
 20
7.1677232942
 30
0.0
 10
10.1754916801
 20
7.1468725763
 30
0.0
 10
10.1577941235
 20
7.1269191871
 30
0.0
 10
10.1453296154
 20
7.1142434898
 30
0.0
 10
10.1389408004
 20
7.1080723515
 30
0.0
  0
SPLINE
  5
345
100
AcDbEntity
  8
0
100
AcDbSpline
 62
7
  6
CONTINUOUS
 70
0
 71
3
 72
59
 73
55
 74
0
 42
0.0000001
 43
0.0000001
 44
0.0000000001
 40
0.0
 40
0.0
 40
0.0
 40
0.0
 40
0.0701466669
 40
0.1051982258
 40
0.1402872198
 40
0.1754634173
 40
0.2107864877
 40
0.2285260582
 40
0.2463310736
 40
0.2821859368
 40
0.3184683099
 40
0.3553286849
 40
0.3929665594
 40
0.4121599933
 40
0.4316563522
 40
0.4515053082
 40
0.471764723
 40
0.5137804433
 40
0.5357001985
 40
0.5583193851
 40
0.5816675374
 40
0.5936013771
 40
0.6056794508
 40
0.6300892571
 40
0.6543840721
 40
0.6778585696
 40
0.6998745252
 40
0.7200933494
 40
0.7384908781
 40
0.7552275134
 40
0.7630442625
 40
0.770530105
 40
0.7846137214
 40
0.7976769379
 40
0.8038794852
 40
0.8098863636
 40
0.8213743617
 40
0.8322566893
 40
0.8375017275
 40
0.8426297744
 40
0.8525708559
 40
0.8621504555
 40
0.8714281572
 40
0.8804564235
 40
0.8892816087
 40
0.8979452224
 40
0.9064845469
 40
0.9149334718
 40
0.9233224733
 40
0.9316796844
 40
0.948392615
 40
0.9652565766
 40
0.9824184855
 40
1.0
 40
1.0
 40
1.0
 40
1.0
 10
11.3222614548
 20
7.6938493912
 30
0.0
 10
11.3122869349
 20
7.6946237651
 30
0.0
 10
11.2973497135
 20
7.6961055167
 30
0.0
 10
11.2775215668
 20
7.69879501
 30
0.0
 10
11.2626919806
 20
7.7011946179
 30
0.0
 10
11.2478957031
 20
7.7040073807
 30
0.0
 10
11.2356050606
 20
7.7067231466
 30
0.0
 10
11.2257909907
 20
7.7091420946
 30
0.0
 10
11.2159457148
 20
7.71174528
 30
0.0
 10
11.203632735
 20
7.7153542616
 30
0.0
 10
11.1888931554
 20
7.7203087191
 30
0.0
 10
11.1741465977
 20
7.7259962049
 30
0.0
 10
11.1619267612
 20
7.7314204063
 30
0.0
 10
11.1521725671
 20
7.7362570639
 30
0.0
 10
11.1448091868
 20
7.7401952942
 30
0.0
 10
11.1374496989
 20
7.7444541626
 30
0.0
 10
11.1275310005
 20
7.750686994
 30
0.0
 10
11.117754355
 20
7.7576915482
 30
0.0
 10
11.1082621233
 20
7.7655912489
 30
0.0
 10
11.1011658548
 20
7.7721862148
 30
0.0
 10
11.0954688436
 20
7.7781733004
 30
0.0
 10
11.0910694151
 20
7.7833004893
 30
0.0
 10
11.0867661814
 20
7.7887036069
 30
0.0
 10
11.0817626307
 20
7.7957954395
 30
0.0
 10
11.0765552888
 20
7.8046909931
 30
0.0
 10
11.0723196732
 20
7.8137136959
 30
0.0
 10
11.0691432248
 20
7.8225453494
 30
0.0
 10
11.0669862094
 20
7.8309324557
 30
0.0
 10
11.0657230026
 20
7.8387358285
 30
0.0
 10
11.0652785134
 20
7.8448537259
 30
0.0
 10
11.0652430411
 20
7.8494242853
 30
0.0
 10
11.0653835218
 20
7.8536140909
 30
0.0
 10
11.0658435445
 20
7.8585376082
 30
0.0
 10
11.0666560957
 20
7.8632291498
 30
0.0
 10
11.0674760351
 20
7.8667398887
 30
0.0
 10
11.0683668451
 20
7.8700008739
 30
0.0
 10
11.069646077
 20
7.873844633
 30
0.0
 10
11.0711563001
 20
7.8774859967
 30
0.0
 10
11.072466325
 20
7.8802204506
 30
0.0
 10
11.0738080333
 20
7.8827888818
 30
0.0
 10
11.0755950651
 20
7.8858197253
 30
0.0
 10
11.0779169588
 20
7.8892114035
 30
0.0
 10
11.080378514
 20
7.892338894
 30
0.0
 10
11.0829657692
 20
7.8952198578
 30
0.0
 10
11.0856685879
 20
7.8978687864
 30
0.0
 10
11.0884778776
 20
7.9002989384
 30
0.0
 10
11.09138623
 20
7.9025221021
 30
0.0
 10
11.0943880287
 20
7.9045478508
 30
0.0
 10
11.0974777269
 20
7.9063864135
 30
0.0
 10
11.1017087259
 20
7.908597791
 30
0.0
 10
11.1072230602
 20
7.9109426556
 30
0.0
 10
11.1141364203
 20
7.9131150237
 30
0.0
 10
11.1213335211
 20
7.9146962773
 30
0.0
 10
11.1262474882
 20
7.915374305
 30
0.0
 10
11.1287418204
 20
7.9156312348
 30
0.0
  0
SPLINE
  5
346
100
AcDbEntity
  8
0
100
AcDbSpline
 62
7
  6
CONTINUOUS
 70
0
 71
3
 72
11
 73
7
 74
0
 42
0.0000001
 43
0.0000001
 44
0.0000000001
 40
0.0
 40
0.0
 40
0.0
 40
0.0
 40
0.2518305105
 40
0.5022985382
 40
0.7516073063
 40
1.0
 40
1.0
 40
1.0
 40
1.0
 10
11.3987694151
 20
7.6917961891
 30
0.0
 10
11.392343702
 20
7.6916649683
 30
0.0
 10
11.3795236125
 20
7.6915465754
 30
0.0
 10
11.3603417183
 20
7.6918157071
 30
0.0
 10
11.3412595779
 20
7.6925474762
 30
0.0
 10
11.3285817516
 20
7.6933587137
 30
0.0
 10
11.3222614548
 20
7.6938493912
 30
0.0
  0
SPLINE
  5
347
100
AcDbEntity
  8
0
100
AcDbSpline
 62
7
  6
CONTINUOUS
 70
0
 71
3
 72
16
 73
12
 74
0
 42
0.0000001
 43
0.0000001
 44
0.0000000001
 40
0.0
 40
0.0
 40
0.0
 40
0.0
 40
0.1081438004
 40
0.2181183901
 40
0.3316584123
 40
0.4503238902
 40
0.5120299654
 40
0.5755047503
 40
0.7082522627
 40
0.8495197655
 40
1.0
 40
1.0
 40
1.0
 40
1.0
 10
12.1082563054
 20
8.9656471501
 30
0.0
 10
12.1076617293
 20
8.9656883904
 30
0.0
 10
12.1064553006
 20
8.9656897754
 30
0.0
 10
12.1046386095
 20
8.9654470881
 30
0.0
 10
12.1028116085
 20
8.9649610011
 30
0.0
 10
12.1013025699
 20
8.9643624727
 30
0.0
 10
12.100095777
 20
8.9637700818
 30
0.0
 10
12.0988523503
 20
8.9630800812
 30
0.0
 10
12.0972930101
 20
8.9620611114
 30
0.0
 10
12.0954469655
 20
8.9606203713
 30
0.0
 10
12.0942547233
 20
8.9595392792
 30
0.0
 10
12.0936582238
 20
8.9589631048
 30
0.0
  0
SPLINE
  5
348
100
AcDbEntity
  8
0
100
AcDbSpline
 62
7
  6
CONTINUOUS
 70
0
 71
3
 72
16
 73
12
 74
0
 42
0.0000001
 43
0.0000001
 44
0.0000000001
 40
0.0
 40
0.0
 40
0.0
 40
0.0
 40
0.1081438004
 40
0.2181183901
 40
0.3316584123
 40
0.4503238902
 40
0.5120299654
 40
0.5755047503
 40
0.7082522627
 40
0.8495197655
 40
1.0
 40
1.0
 40
1.0
 40
1.0
 10
12.1082563054
 20
7.275276969
 30
0.0
 10
12.1076617293
 20
7.2753182094
 30
0.0
 10
12.1064553006
 20
7.2753195944
 30
0.0
 10
12.1046386095
 20
7.2750769071
 30
0.0
 10
12.1028116085
 20
7.2745908201
 30
0.0
 10
12.1013025699
 20
7.2739922917
 30
0.0
 10
12.100095777
 20
7.2733999008
 30
0.0
 10
12.0988523503
 20
7.2727099002
 30
0.0
 10
12.0972930101
 20
7.2716909303
 30
0.0
 10
12.0954469655
 20
7.2702501903
 30
0.0
 10
12.0942547233
 20
7.2691690981
 30
0.0
 10
12.0936582238
 20
7.2685929238
 30
0.0
  0
SPLINE
  5
349
100
AcDbEntity
  8
0
100
AcDbSpline
 62
7
  6
CONTINUOUS
 70
0
 71
3
 72
50
 73
46
 74
0
 42
0.0000001
 43
0.0000001
 44
0.0000000001
 40
0.0
 40
0.0
 40
0.0
 40
0.0
 40
0.0149717278
 40
0.0299465149
 40
0.044927401
 40
0.0599173893
 40
0.0749194283
 40
0.0899363919
 40
0.1049710634
 40
0.1200261205
 40
0.1351041177
 40
0.1502074705
 40
0.165338445
 40
0.1804991437
 40
0.1956914918
 40
0.21091723
 40
0.2261779061
 40
0.2414748638
 40
0.2568092383
 40
0.2721819537
 40
0.287593716
 40
0.3030450104
 40
0.3185361039
 40
0.3340670439
 40
0.3652423167
 40
0.3965721964
 40
0.4280494165
 40
0.4596636006
 40
0.4914015142
 40
0.5232473741
 40
0.5551831985
 40
0.5871891855
 40
0.6192441282
 40
0.6513258427
 40
0.683411612
 40
0.7154786397
 40
0.7475045014
 40
0.7794675918
 40
0.8113475634
 40
0.8431257421
 40
0.8747855204
 40
0.9063127266
 40
0.9376959415
 40
0.9689266162
 40
1.0
 40
1.0
 40
1.0
 40
1.0
 10
10.5972647361
 20
8.1280080757
 30
0.0
 10
10.6027149605
 20
8.1332725938
 30
0.0
 10
10.6138270859
 20
8.143587202
 30
0.0
 10
10.631098796
 20
8.1583861532
 30
0.0
 10
10.6489520666
 20
8.1724935512
 30
0.0
 10
10.6673619665
 20
8.1858896855
 30
0.0
 10
10.6863032681
 20
8.198556189
 30
0.0
 10
10.7057498881
 20
8.210475593
 30
0.0
 10
10.7256750396
 20
8.2216315549
 30
0.0
 10
10.7460513057
 20
8.2320087228
 30
0.0
 10
10.7668506642
 20
8.2415927851
 30
0.0
 10
10.7880444679
 20
8.2503706122
 30
0.0
 10
10.8096035497
 20
8.2583301507
 30
0.0
 10
10.8314982607
 20
8.2654604151
 30
0.0
 10
10.8536984635
 20
8.2717516358
 30
0.0
 10
10.8761736058
 20
8.2771952057
 30
0.0
 10
10.898892777
 20
8.2817836152
 30
0.0
 10
10.9218247207
 20
8.2855105614
 30
0.0
 10
10.9449378859
 20
8.2883709839
 30
0.0
 10
10.9682004772
 20
8.290360949
 30
0.0
 10
10.9915805288
 20
8.291477694
 30
0.0
 10
11.0150457748
 20
8.291719772
 30
0.0
 10
11.0385643476
 20
8.2910868053
 30
0.0
 10
11.0699856975
 20
8.2890751753
 30
0.0
 10
11.1092398016
 20
8.2843713793
 30
0.0
 10
11.155970874
 20
8.2752769508
 30
0.0
 10
11.2021389674
 20
8.2627756504
 30
0.0
 10
11.2474888414
 20
8.2469365599
 30
0.0
 10
11.2917720626
 20
8.2278471106
 30
0.0
 10
11.3347454871
 20
8.2056124408
 30
0.0
 10
11.3761733169
 20
8.1803548373
 30
0.0
 10
11.4158282898
 20
8.1522132395
 30
0.0
 10
11.4534927734
 20
8.1213421836
 30
0.0
 10
11.4889601241
 20
8.0879112505
 30
0.0
 10
11.5220357086
 20
8.0521039751
 30
0.0
 10
11.5525379058
 20
8.0141168369
 30
0.0
 10
11.5802993056
 20
7.9741583577
 30
0.0
 10
11.6051673295
 20
7.9324477419
 30
0.0
 10
11.6270053079
 20
7.8892138721
 30
0.0
 10
11.6456931396
 20
7.8446940112
 30
0.0
 10
11.6611278215
 20
7.7991323757
 30
0.0
 10
11.6732243255
 20
7.7527793258
 30
0.0
 10
11.6819156733
 20
7.7058884647
 30
0.0
 10
11.6871537392
 20
7.6587206447
 30
0.0
 10
11.6883269657
 20
7.6271747394
 30
0.0
 10
11.6883269657
 20
7.6114476418
 30
0.0
  0
SPLINE
  5
34A
100
AcDbEntity
  8
0
100
AcDbSpline
 62
7
  6
CONTINUOUS
 70
0
 71
3
 72
27
 73
23
 74
0
 42
0.0000001
 43
0.0000001
 44
0.0000000001
 40
0.0
 40
0.0
 40
0.0
 40
0.0
 40
0.0615218049
 40
0.0922944414
 40
0.1230771981
 40
0.1846797992
 40
0.2463621355
 40
0.2772442864
 40
0.3081556153
 40
0.3700708991
 40
0.4321363722
 40
0.4943720273
 40
0.5567956866
 40
0.6194227958
 40
0.6822662523
 40
0.7137754578
 40
0.7453423469
 40
0.8086463675
 40
0.8721889879
 40
0.9040533719
 40
0.935977819
 40
1.0
 40
1.0
 40
1.0
 40
1.0
 10
10.7753487524
 20
8.137355622
 30
0.0
 10
10.7819248669
 20
8.1437076557
 30
0.0
 10
10.7920717242
 20
8.1529519039
 30
0.0
 10
10.8061199447
 20
8.1646682049
 30
0.0
 10
10.8205134817
 20
8.175977912
 30
0.0
 10
10.8391290619
 20
8.1893322084
 30
0.0
 10
10.8585016945
 20
8.201590029
 30
0.0
 10
10.8744218878
 20
8.2107200583
 30
0.0
 10
10.8906299028
 20
8.2194022713
 30
0.0
 10
10.9113852813
 20
8.2293886372
 30
0.0
 10
10.9369849504
 20
8.2399403987
 30
0.0
 10
10.9632174814
 20
8.2490367384
 30
0.0
 10
10.9900046699
 20
8.2566504955
 30
0.0
 10
11.017266654
 20
8.262759197
 30
0.0
 10
11.0402947333
 20
8.2665774031
 30
0.0
 10
11.0588697254
 20
8.2688653445
 30
0.0
 10
11.0775692573
 20
8.2706434774
 30
0.0
 10
11.1010908823
 20
8.2718978836
 30
0.0
 10
11.1246898337
 20
8.2718594453
 30
0.0
 10
11.1435980373
 20
8.2710562004
 30
0.0
 10
11.1625481341
 20
8.2697353038
 30
0.0
 10
11.176729631
 20
8.2681662506
 30
0.0
 10
11.1861550506
 20
8.2668670198
 30
0.0
  0
SPLINE
  5
34B
100
AcDbEntity
  8
0
100
AcDbSpline
 62
7
  6
CONTINUOUS
 70
0
 71
3
 72
25
 73
21
 74
0
 42
0.0000001
 43
0.0000001
 44
0.0000000001
 40
0.0
 40
0.0
 40
0.0
 40
0.0
 40
0.0197908571
 40
0.039700639
 40
0.0598423206
 40
0.0803231301
 40
0.1226741564
 40
0.1674871064
 40
0.2153257948
 40
0.2666160309
 40
0.3216634765
 40
0.380675548
 40
0.443778293
 40
0.5110337872
 40
0.5824542666
 40
0.6580108399
 40
0.7376407544
 40
0.8212566961
 40
0.9087570949
 40
1.0
 40
1.0
 40
1.0
 40
1.0
 10
11.4563850186
 20
7.7154323829
 30
0.0
 10
11.4562742844
 20
7.7150124945
 30
0.0
 10
11.4560189155
 20
7.7141785616
 30
0.0
 10
11.4555371427
 20
7.7129557637
 30
0.0
 10
11.4549564045
 20
7.7117598063
 30
0.0
 10
11.454040866
 20
7.7101845316
 30
0.0
 10
11.4526344151
 20
7.7082768551
 30
0.0
 10
11.4505783672
 20
7.7061346942
 30
0.0
 10
11.4481416402
 20
7.7041159016
 30
0.0
 10
11.445331137
 20
7.7022244532
 30
0.0
 10
11.4421538677
 20
7.7004648069
 30
0.0
 10
11.4386176802
 20
7.6988426951
 30
0.0
 10
11.4347313815
 20
7.6973647913
 30
0.0
 10
11.4305048709
 20
7.6960386112
 30
0.0
 10
11.4259491412
 20
7.6948723259
 30
0.0
 10
11.4210762758
 20
7.6938747
 30
0.0
 10
11.4158994365
 20
7.6930548602
 30
0.0
 10
11.4104325987
 20
7.6924222476
 30
0.0
 10
11.4046911394
 20
7.691986651
 30
0.0
 10
11.40077102
 20
7.6918370643
 30
0.0
 10
11.3987694151
 20
7.6917961891
 30
0.0
  0
SPLINE
  5
34C
100
AcDbEntity
  8
0
100
AcDbSpline
 62
7
  6
CONTINUOUS
 70
0
 71
3
 72
49
 73
45
 74
0
 42
0.0000001
 43
0.0000001
 44
0.0000000001
 40
0.0
 40
0.0
 40
0.0
 40
0.0
 40
0.0148236798
 40
0.0289053787
 40
0.0422515494
 40
0.0548788195
 40
0.0668347259
 40
0.0782051543
 40
0.0891344054
 40
0.094505803
 40
0.0998587176
 40
0.1052366708
 40
0.1106893684
 40
0.1162717841
 40
0.1220443499
 40
0.128071411
 40
0.1344200976
 40
0.141159853
 40
0.148360821
 40
0.1560936779
 40
0.1644294712
 40
0.1734384538
 40
0.1831900356
 40
0.1937527641
 40
0.2051917818
 40
0.2175697446
 40
0.2309427179
 40
0.2453604178
 40
0.2608607359
 40
0.2774705445
 40
0.2951982613
 40
0.3140366056
 40
0.3339566032
 40
0.3768284883
 40
0.4232329479
 40
0.4724117753
 40
0.5235776578
 40
0.5760302923
 40
0.6292126612
 40
0.6827161772
 40
0.7362582225
 40
0.7896528679
 40
0.8955687774
 40
1.0
 40
1.0
 40
1.0
 40
1.0
 10
11.0296851257
 20
8.1658384852
 30
0.0
 10
11.029152836
 20
8.1655098868
 30
0.0
 10
11.0280982511
 20
8.16489542
 30
0.0
 10
11.0265044995
 20
8.1640932746
 30
0.0
 10
11.0249423956
 20
8.1634430361
 30
0.0
 10
11.0234150861
 20
8.1629565484
 30
0.0
 10
11.0219265802
 20
8.1626464935
 30
0.0
 10
11.0204816259
 20
8.162528285
 30
0.0
 10
11.0193109586
 20
8.1626067417
 30
0.0
 10
11.0184137898
 20
8.1627857044
 30
0.0
 10
11.0177614428
 20
8.1629795495
 30
0.0
 10
11.017127593
 20
8.1632366849
 30
0.0
 10
11.0165137286
 20
8.1635599656
 30
0.0
 10
11.0159218719
 20
8.1639530465
 30
0.0
 10
11.0153541888
 20
8.1644195067
 30
0.0
 10
11.0148126618
 20
8.1649627626
 30
0.0
 10
11.014299724
 20
8.1655868659
 30
0.0
 10
11.0138181531
 20
8.1662961467
 30
0.0
 10
11.0133704237
 20
8.167094862
 30
0.0
 10
11.0129596895
 20
8.1679878579
 30
0.0
 10
11.0125893938
 20
8.1689801558
 30
0.0
 10
11.0122628971
 20
8.1700768359
 30
0.0
 10
11.0119844199
 20
8.1712832694
 30
0.0
 10
11.0117580991
 20
8.1726046618
 30
0.0
 10
11.0115885608
 20
8.1740461345
 30
0.0
 10
11.011480669
 20
8.1756123681
 30
0.0
 10
11.0114393448
 20
8.1773074613
 30
0.0
 10
11.0114697033
 20
8.1791345249
 30
0.0
 10
11.0115765405
 20
8.181095486
 30
0.0
 10
11.0117645336
 20
8.1831905843
 30
0.0
 10
11.012037567
 20
8.1854182572
 30
0.0
 10
11.0123989008
 20
8.1877747252
 30
0.0
 10
11.0130165491
 20
8.1911640178
 30
0.0
 10
11.014023848
 20
8.1956626786
 30
0.0
 10
11.0155569637
 20
8.2013023466
 30
0.0
 10
11.0174167077
 20
8.2072107028
 30
0.0
 10
11.0195651493
 20
8.2132913689
 30
0.0
 10
11.0219597901
 20
8.2194607131
 30
0.0
 10
11.0245594663
 20
8.2256534317
 30
0.0
 10
11.0273279084
 20
8.2318228344
 30
0.0
 10
11.0302349322
 20
8.2379379776
 30
0.0
 10
11.0342527521
 20
8.2459720278
 30
0.0
 10
11.0395016224
 20
8.2557888622
 30
0.0
 10
11.0439294934
 20
8.2634836835
 30
0.0
 10
11.0461798551
 20
8.2672727139
 30
0.0
  0
SPLINE
  5
34D
100
AcDbEntity
  8
0
100
AcDbSpline
 62
7
  6
CONTINUOUS
 70
0
 71
3
 72
23
 73
19
 74
0
 42
0.0000001
 43
0.0000001
 44
0.0000000001
 40
0.0
 40
0.0
 40
0.0
 40
0.0
 40
0.0617101431
 40
0.1234413951
 40
0.1852146465
 40
0.2470503561
 40
0.3089683487
 40
0.3709876173
 40
0.4331261326
 40
0.4954006638
 40
0.5578266135
 40
0.6204179097
 40
0.6831868019
 40
0.7461438686
 40
0.8092980312
 40
0.8726551034
 40
0.9362229519
 40
1.0
 40
1.0
 40
1.0
 40
1.0
 10
10.0047304962
 20
7.2843073863
 30
0.0
 10
10.0087570797
 20
7.2881967649
 30
0.0
 10
10.0166129177
 20
7.2961856452
 30
0.0
 10
10.0277669154
 20
7.308761317
 30
0.0
 10
10.0382676454
 20
7.3219025454
 30
0.0
 10
10.048090481
 20
7.3355785993
 30
0.0
 10
10.0572129083
 20
7.3497580232
 30
0.0
 10
10.0656138779
 20
7.364408075
 30
0.0
 10
10.0732740369
 20
7.3794949718
 30
0.0
 10
10.0801757247
 20
7.3949839165
 30
0.0
 10
10.0863030808
 20
7.4108391726
 30
0.0
 10
10.0916420136
 20
7.4270241711
 30
0.0
 10
10.0961802528
 20
7.4435015883
 30
0.0
 10
10.0999073623
 20
7.4602334652
 30
0.0
 10
10.1028147358
 20
7.4771811239
 30
0.0
 10
10.1048958755
 20
7.4943058117
 30
0.0
 10
10.1061457976
 20
7.5115673296
 30
0.0
 10
10.1064227328
 20
7.5231218685
 30
0.0
 10
10.1064227328
 20
7.5289076469
 30
0.0
  0
SPLINE
  5
34E
100
AcDbEntity
  8
0
100
AcDbSpline
 62
7
  6
CONTINUOUS
 70
0
 71
3
 72
39
 73
35
 74
0
 42
0.0000001
 43
0.0000001
 44
0.0000000001
 40
0.0
 40
0.0
 40
0.0
 40
0.0
 40
0.0299424709
 40
0.0599093182
 40
0.0899243246
 40
0.1200101041
 40
0.1501875631
 40
0.1804754147
 40
0.2108897588
 40
0.2414437357
 40
0.2721472607
 40
0.3030068436
 40
0.3340254953
 40
0.365202714
 40
0.396534549
 40
0.4280137348
 40
0.4596298919
 40
0.4913697857
 40
0.5232176329
 40
0.5551554498
 40
0.5871634342
 40
0.6192203769
 40
0.6513040925
 40
0.6833918636
 40
0.7154608917
 40
0.7474887507
 40
0.779453835
 40
0.8113357953
 40
0.8431159565
 40
0.8747777115
 40
0.90630687
 40
0.9376920898
 40
0.9689246468
 40
1.0
 40
1.0
 40
1.0
 40
1.0
 10
9.4836705567
 20
7.8237482982
 30
0.0
 10
9.4898916838
 20
7.829757442
 30
0.0
 10
9.5028231115
 20
7.841290774
 30
0.0
 10
9.5235412729
 20
7.8570029011
 30
0.0
 10
9.5454745616
 20
7.8710485155
 30
0.0
 10
9.568500426
 20
7.8833488182
 30
0.0
 10
9.592492261
 20
7.8938366268
 30
0.0
 10
9.6173176587
 20
7.9024542933
 30
0.0
 10
9.6428398186
 20
7.909154665
 30
0.0
 10
9.6689181363
 20
7.9139011429
 30
0.0
 10
9.6954090268
 20
7.9166679443
 30
0.0
 10
9.7221667134
 20
7.9174402121
 30
0.0
 10
9.7490440366
 20
7.9162140477
 30
0.0
 10
9.7758932552
 20
7.9129965223
 30
0.0
 10
9.8025668463
 20
7.9078056147
 30
0.0
 10
9.8289183117
 20
7.9006701378
 30
0.0
 10
9.8548029762
 20
7.8916295589
 30
0.0
 10
9.8800787626
 20
7.8807337512
 30
0.0
 10
9.9046069615
 20
7.8680427252
 30
0.0
 10
9.9282529741
 20
7.8536262909
 30
0.0
 10
9.950887062
 20
7.8375637121
 30
0.0
 10
9.9723850441
 20
7.8199432517
 30
0.0
 10
9.9926289579
 20
7.8008616761
 30
0.0
 10
10.0115077009
 20
7.780423735
 30
0.0
 10
10.0289176271
 20
7.7587415895
 30
0.0
 10
10.0447631443
 20
7.7359342306
 30
0.0
 10
10.0589572144
 20
7.7121268111
 30
0.0
 10
10.071421816
 20
7.6874499579
 30
0.0
 10
10.0820883745
 20
7.6620390847
 30
0.0
 10
10.0908981229
 20
7.6360336
 30
0.0
 10
10.0978025066
 20
7.6095763766
 30
0.0
 10
10.1027633
 20
7.5828122044
 30
0.0
 10
10.1057530948
 20
7.5558899435
 30
0.0
 10
10.1064227328
 20
7.5378843062
 30
0.0
 10
10.1064227328
 20
7.5289076469
 30
0.0
  0
SPLINE
  5
34F
100
AcDbEntity
  8
0
100
AcDbSpline
 62
7
  6
CONTINUOUS
 70
0
 71
3
 72
23
 73
19
 74
0
 42
0.0000001
 43
0.0000001
 44
0.0000000001
 40
0.0
 40
0.0
 40
0.0
 40
0.0
 40
0.0617101436
 40
0.1234413945
 40
0.1852146442
 40
0.2470503545
 40
0.3089683499
 40
0.3709876203
 40
0.4331261332
 40
0.4954006601
 40
0.5578266118
 40
0.6204179016
 40
0.6831868196
 40
0.7461438598
 40
0.8092979876
 40
0.872655304
 40
0.9362225276
 40
1.0
 40
1.0
 40
1.0
 40
1.0
 10
11.5256750729
 20
7.3605607008
 30
0.0
 10
11.5314733538
 20
7.3661614055
 30
0.0
 10
11.5427857576
 20
7.3776653964
 30
0.0
 10
11.5588475055
 20
7.395774371
 30
0.0
 10
11.5739685654
 20
7.4146977323
 30
0.0
 10
11.5881134627
 20
7.4343912405
 30
0.0
 10
11.6012497541
 20
7.4548096149
 30
0.0
 10
11.6133471335
 20
7.4759056998
 30
0.0
 10
11.6243777493
 20
7.4976308367
 30
0.0
 10
11.6343161994
 20
7.5199349076
 30
0.0
 10
11.6431396088
 20
7.542766469
 30
0.0
 10
11.6508276746
 20
7.5660728697
 30
0.0
 10
11.6573627095
 20
7.589800358
 30
0.0
 10
11.6627297424
 20
7.6138942563
 30
0.0
 10
11.6669163883
 20
7.6382989049
 30
0.0
 10
11.6699132025
 20
7.6629584038
 30
0.0
 10
11.6717131258
 20
7.6878149928
 30
0.0
 10
11.6721118897
 20
7.7044535037
 30
0.0
 10
11.6721118897
 20
7.7127850801
 30
0.0
  0
SPLINE
  5
350
100
AcDbEntity
  8
0
100
AcDbSpline
 62
7
  6
CONTINUOUS
 70
0
 71
3
 72
49
 73
45
 74
0
 42
0.0000001
 43
0.0000001
 44
0.0000000001
 40
0.0
 40
0.0
 40
0.0
 40
0.0
 40
0.0149718081
 40
0.0299466748
 40
0.0449276404
 40
0.059917709
 40
0.0749198276
 40
0.0899368702
 40
0.1049716217
 40
0.120026759
 40
0.1351048351
 40
0.1502082677
 40
0.1653393229
 40
0.1805001009
 40
0.1956925286
 40
0.2109183481
 40
0.2261791043
 40
0.2414761418
 40
0.256810598
 40
0.2721833946
 40
0.287595237
 40
0.3030466133
 40
0.3340634927
 40
0.3652389307
 40
0.3965689749
 40
0.4280463623
 40
0.4596607137
 40
0.4913987952
 40
0.5232448251
 40
0.5551808189
 40
0.5871869764
 40
0.6192420905
 40
0.6513239761
 40
0.6834099169
 40
0.7154771164
 40
0.7475031494
 40
0.779466411
 40
0.8113465537
 40
0.8431249023
 40
0.8747848503
 40
0.906312225
 40
0.9376956122
 40
0.9689264437
 40
1.0
 40
1.0
 40
1.0
 40
1.0
 10
9.3121903404
 20
7.9639833602
 30
0.0
 10
9.3171262355
 20
7.9687510818
 30
0.0
 10
9.3271897181
 20
7.9780923416
 30
0.0
 10
9.3428315258
 20
7.9914947601
 30
0.0
 10
9.358999986
 20
8.0042709213
 30
0.0
 10
9.375672567
 20
8.0164029182
 30
0.0
 10
9.3928264176
 20
8.0278741151
 30
0.0
 10
9.4104378738
 20
8.0386687583
 30
0.0
 10
9.4284827124
 20
8.0487719951
 30
0.0
 10
9.4469361179
 20
8.0581698875
 30
0.0
 10
9.4657726666
 20
8.066849565
 30
0.0
 10
9.484966438
 20
8.0747990971
 30
0.0
 10
9.504491039
 20
8.082007506
 30
0.0
 10
9.5243195837
 20
8.088464932
 30
0.0
 10
9.5444247863
 20
8.0941625211
 30
0.0
 10
9.5647789986
 20
8.0990923954
 30
0.0
 10
9.5853542093
 20
8.1032478185
 30
0.0
 10
9.6061221017
 20
8.1066231213
 30
0.0
 10
9.6270541425
 20
8.1092136252
 30
0.0
 10
9.6481214365
 20
8.1110158022
 30
0.0
 10
9.6692953755
 20
8.112027201
 30
0.0
 10
9.6976628452
 20
8.1123199902
 30
0.0
 10
9.7332504419
 20
8.1106967516
 30
0.0
 10
9.7758502573
 20
8.1055916102
 30
0.0
 10
9.8181726806
 20
8.0973554635
 30
0.0
 10
9.8599836554
 20
8.0860338784
 30
0.0
 10
9.9010540712
 20
8.0716895441
 30
0.0
 10
9.9411583789
 20
8.0544015659
 30
0.0
 10
9.980076499
 20
8.0342651251
 30
0.0
 10
10.0175949136
 20
8.0113910882
 30
0.0
 10
10.0535077375
 20
7.9859051496
 30
0.0
 10
10.087617922
 20
7.9579473448
 30
0.0
 10
10.1197383353
 20
7.9276712506
 30
0.0
 10
10.1496926394
 20
7.8952430155
 30
0.0
 10
10.1773164472
 20
7.8608406659
 30
0.0
 10
10.2024580805
 20
7.8246529859
 30
0.0
 10
10.2249793636
 20
7.786878506
 30
0.0
 10
10.2447565738
 20
7.7477245345
 30
0.0
 10
10.2616808712
 20
7.7074059087
 30
0.0
 10
10.275659031
 20
7.6661438271
 30
0.0
 10
10.2866140298
 20
7.6241650106
 30
0.0
 10
10.2944851872
 20
7.5816991354
 30
0.0
 10
10.299228961
 20
7.5389824372
 30
0.0
 10
10.3002914711
 20
7.5104134491
 30
0.0
 10
10.3002914711
 20
7.4961704793
 30
0.0
  0
SPLINE
  5
351
100
AcDbEntity
  8
0
100
AcDbSpline
 62
7
  6
CONTINUOUS
 70
0
 71
3
 72
23
 73
19
 74
0
 42
0.0000001
 43
0.0000001
 44
0.0000000001
 40
0.0
 40
0.0
 40
0.0
 40
0.0
 40
0.0617101431
 40
0.1234413951
 40
0.1852146465
 40
0.2470503561
 40
0.3089683487
 40
0.3709876173
 40
0.4331261326
 40
0.4954006638
 40
0.5578266135
 40
0.6204179097
 40
0.6831868019
 40
0.7461438686
 40
0.8092980312
 40
0.8726551034
 40
0.9362229519
 40
1.0
 40
1.0
 40
1.0
 40
1.0
 10
10.1853586139
 20
8.5999288736
 30
0.0
 10
10.1893851974
 20
8.6038182522
 30
0.0
 10
10.1972410354
 20
8.6118071325
 30
0.0
 10
10.208395033
 20
8.6243828043
 30
0.0
 10
10.2188957631
 20
8.6375240327
 30
0.0
 10
10.2287185986
 20
8.6512000866
 30
0.0
 10
10.237841026
 20
8.6653795105
 30
0.0
 10
10.2462419955
 20
8.6800295624
 30
0.0
 10
10.2539021545
 20
8.6951164591
 30
0.0
 10
10.2608038423
 20
8.7106054039
 30
0.0
 10
10.2669311984
 20
8.7264606599
 30
0.0
 10
10.2722701312
 20
8.7426456584
 30
0.0
 10
10.2768083705
 20
8.7591230756
 30
0.0
 10
10.2805354799
 20
8.7758549526
 30
0.0
 10
10.2834428535
 20
8.7928026113
 30
0.0
 10
10.2855239932
 20
8.809927299
 30
0.0
 10
10.2867739152
 20
8.8271888169
 30
0.0
 10
10.2870508504
 20
8.8387433559
 30
0.0
 10
10.2870508504
 20
8.8445291343
 30
0.0
  0
SPLINE
  5
352
100
AcDbEntity
  8
0
100
AcDbSpline
 62
7
  6
CONTINUOUS
 70
0
 71
3
 72
39
 73
35
 74
0
 42
0.0000001
 43
0.0000001
 44
0.0000000001
 40
0.0
 40
0.0
 40
0.0
 40
0.0
 40
0.0299424709
 40
0.0599093182
 40
0.0899243246
 40
0.1200101041
 40
0.1501875631
 40
0.1804754147
 40
0.2108897588
 40
0.2414437357
 40
0.2721472607
 40
0.3030068436
 40
0.3340254953
 40
0.365202714
 40
0.396534549
 40
0.4280137348
 40
0.4596298919
 40
0.4913697857
 40
0.5232176329
 40
0.5551554498
 40
0.5871634342
 40
0.6192203769
 40
0.6513040925
 40
0.6833918636
 40
0.7154608917
 40
0.7474887507
 40
0.779453835
 40
0.8113357953
 40
0.8431159565
 40
0.8747777115
 40
0.90630687
 40
0.9376920898
 40
0.9689246468
 40
1.0
 40
1.0
 40
1.0
 40
1.0
 10
9.6642986744
 20
9.1393697856
 30
0.0
 10
9.6705198015
 20
9.1453789293
 30
0.0
 10
9.6834512292
 20
9.1569122614
 30
0.0
 10
9.7041693906
 20
9.1726243885
 30
0.0
 10
9.7261026793
 20
9.1866700028
 30
0.0
 10
9.7491285436
 20
9.1989703055
 30
0.0
 10
9.7731203787
 20
9.2094581141
 30
0.0
 10
9.7979457763
 20
9.2180757807
 30
0.0
 10
9.8234679362
 20
9.2247761523
 30
0.0
 10
9.849546254
 20
9.2295226303
 30
0.0
 10
9.8760371445
 20
9.2322894316
 30
0.0
 10
9.902794831
 20
9.2330616994
 30
0.0
 10
9.9296721543
 20
9.231835535
 30
0.0
 10
9.9565213728
 20
9.2286180096
 30
0.0
 10
9.9831949639
 20
9.223427102
 30
0.0
 10
10.0095464294
 20
9.2162916252
 30
0.0
 10
10.0354310938
 20
9.2072510462
 30
0.0
 10
10.0607068803
 20
9.1963552386
 30
0.0
 10
10.0852350792
 20
9.1836642125
 30
0.0
 10
10.1088810917
 20
9.1692477782
 30
0.0
 10
10.1315151796
 20
9.1531851995
 30
0.0
 10
10.1530131618
 20
9.1355647391
 30
0.0
 10
10.1732570755
 20
9.1164831635
 30
0.0
 10
10.1921358186
 20
9.0960452224
 30
0.0
 10
10.2095457448
 20
9.0743630769
 30
0.0
 10
10.225391262
 20
9.0515557179
 30
0.0
 10
10.239585332
 20
9.0277482984
 30
0.0
 10
10.2520499337
 20
9.0030714452
 30
0.0
 10
10.2627164921
 20
8.977660572
 30
0.0
 10
10.2715262405
 20
8.9516550874
 30
0.0
 10
10.2784306242
 20
8.925197864
 30
0.0
 10
10.2833914176
 20
8.8984336917
 30
0.0
 10
10.2863812124
 20
8.8715114309
 30
0.0
 10
10.2870508504
 20
8.8535057935
 30
0.0
 10
10.2870508504
 20
8.8445291343
 30
0.0
  0
SPLINE
  5
353
100
AcDbEntity
  8
0
100
AcDbSpline
 62
7
  6
CONTINUOUS
 70
0
 71
3
 72
49
 73
45
 74
0
 42
0.0000001
 43
0.0000001
 44
0.0000000001
 40
0.0
 40
0.0
 40
0.0
 40
0.0
 40
0.0149718081
 40
0.0299466748
 40
0.0449276404
 40
0.059917709
 40
0.0749198276
 40
0.0899368702
 40
0.1049716217
 40
0.120026759
 40
0.1351048351
 40
0.1502082677
 40
0.1653393229
 40
0.1805001009
 40
0.1956925286
 40
0.2109183481
 40
0.2261791043
 40
0.2414761418
 40
0.256810598
 40
0.2721833946
 40
0.287595237
 40
0.3030466133
 40
0.3340634927
 40
0.3652389307
 40
0.3965689749
 40
0.4280463623
 40
0.4596607137
 40
0.4913987952
 40
0.5232448251
 40
0.5551808189
 40
0.5871869764
 40
0.6192420905
 40
0.6513239761
 40
0.6834099169
 40
0.7154771164
 40
0.7475031494
 40
0.779466411
 40
0.8113465537
 40
0.8431249023
 40
0.8747848503
 40
0.906312225
 40
0.9376956122
 40
0.9689264437
 40
1.0
 40
1.0
 40
1.0
 40
1.0
 10
9.492818458
 20
9.2796048475
 30
0.0
 10
9.4977543531
 20
9.2843725691
 30
0.0
 10
9.5078178357
 20
9.2937138289
 30
0.0
 10
9.5234596435
 20
9.3071162474
 30
0.0
 10
9.5396281037
 20
9.3198924086
 30
0.0
 10
9.5563006846
 20
9.3320244055
 30
0.0
 10
9.5734545353
 20
9.3434956024
 30
0.0
 10
9.5910659914
 20
9.3542902457
 30
0.0
 10
9.60911083
 20
9.3643934825
 30
0.0
 10
9.6275642355
 20
9.3737913749
 30
0.0
 10
9.6464007842
 20
9.3824710523
 30
0.0
 10
9.6655945556
 20
9.3904205844
 30
0.0
 10
9.6851191566
 20
9.3976289933
 30
0.0
 10
9.7049477014
 20
9.4040864194
 30
0.0
 10
9.725052904
 20
9.4097840085
 30
0.0
 10
9.7454071163
 20
9.4147138827
 30
0.0
 10
9.7659823269
 20
9.4188693058
 30
0.0
 10
9.7867502194
 20
9.4222446087
 30
0.0
 10
9.8076822601
 20
9.4248351125
 30
0.0
 10
9.8287495541
 20
9.4266372895
 30
0.0
 10
9.8499234931
 20
9.4276486884
 30
0.0
 10
9.8782909628
 20
9.4279414775
 30
0.0
 10
9.9138785596
 20
9.4263182389
 30
0.0
 10
9.9564783749
 20
9.4212130976
 30
0.0
 10
9.9988007983
 20
9.4129769508
 30
0.0
 10
10.040611773
 20
9.4016553658
 30
0.0
 10
10.0816821889
 20
9.3873110314
 30
0.0
 10
10.1217864965
 20
9.3700230532
 30
0.0
 10
10.1607046166
 20
9.3498866125
 30
0.0
 10
10.1982230313
 20
9.3270125756
 30
0.0
 10
10.2341358551
 20
9.3015266369
 30
0.0
 10
10.2682460397
 20
9.2735688321
 30
0.0
 10
10.300366453
 20
9.2432927379
 30
0.0
 10
10.330320757
 20
9.2108645028
 30
0.0
 10
10.3579445649
 20
9.1764621532
 30
0.0
 10
10.3830861982
 20
9.1402744733
 30
0.0
 10
10.4056074812
 20
9.1024999933
 30
0.0
 10
10.4253846915
 20
9.0633460219
 30
0.0
 10
10.4423089888
 20
9.0230273961
 30
0.0
 10
10.4562871487
 20
8.9817653144
 30
0.0
 10
10.4672421474
 20
8.9397864979
 30
0.0
 10
10.4751133048
 20
8.8973206228
 30
0.0
 10
10.4798570787
 20
8.8546039245
 30
0.0
 10
10.4809195888
 20
8.8260349365
 30
0.0
 10
10.4809195888
 20
8.8117919666
 30
0.0
  0
SPLINE
  5
354
100
AcDbEntity
  8
0
100
AcDbSpline
 62
7
  6
CONTINUOUS
 70
0
 71
3
 72
23
 73
19
 74
0
 42
0.0000001
 43
0.0000001
 44
0.0000000001
 40
0.0
 40
0.0
 40
0.0
 40
0.0
 40
0.0637770481
 40
0.1273448966
 40
0.1907019688
 40
0.2538561314
 40
0.3168131981
 40
0.3795820903
 40
0.4421733865
 40
0.5045993362
 40
0.5668738674
 40
0.6290123827
 40
0.6910316513
 40
0.7529496439
 40
0.8147853535
 40
0.8765586049
 40
0.9382898569
 40
1.0
 40
1.0
 40
1.0
 40
1.0
 10
9.3819783202
 20
7.5791480376
 30
0.0
 10
9.3819783202
 20
7.584933816
 30
0.0
 10
9.3822552554
 20
7.5964883549
 30
0.0
 10
9.3835051774
 20
7.6137498728
 30
0.0
 10
9.3855863171
 20
7.6308745606
 30
0.0
 10
9.3884936907
 20
7.6478222193
 30
0.0
 10
9.3922208001
 20
7.6645540962
 30
0.0
 10
9.3967590394
 20
7.6810315134
 30
0.0
 10
9.4020979722
 20
7.6972165119
 30
0.0
 10
9.4082253283
 20
7.713071768
 30
0.0
 10
9.4151270161
 20
7.7285607127
 30
0.0
 10
9.4227871751
 20
7.7436476095
 30
0.0
 10
9.4311881446
 20
7.7582976613
 30
0.0
 10
9.440310572
 20
7.7724770852
 30
0.0
 10
9.4501334075
 20
7.7861531391
 30
0.0
 10
9.4606341376
 20
7.7992943675
 30
0.0
 10
9.4717881352
 20
7.8118700393
 30
0.0
 10
9.4796439732
 20
7.8198589196
 30
0.0
 10
9.4836705567
 20
7.8237482982
 30
0.0
  0
SPLINE
  5
355
100
AcDbEntity
  8
0
100
AcDbSpline
 62
7
  6
CONTINUOUS
 70
0
 71
3
 72
42
 73
38
 74
0
 42
0.0000001
 43
0.0000001
 44
0.0000000001
 40
0.0
 40
0.0
 40
0.0
 40
0.0
 40
0.0308285755
 40
0.0462941536
 40
0.0617918483
 40
0.092879683
 40
0.124090718
 40
0.155418248
 40
0.1868538241
 40
0.2183874481
 40
0.2500077125
 40
0.2817019798
 40
0.3134565684
 40
0.3452569512
 40
0.3770879625
 40
0.4089340104
 40
0.4407792946
 40
0.4726080255
 40
0.5044046429
 40
0.5361540334
 40
0.5678417425
 40
0.5994541812
 40
0.6309788223
 40
0.6624043875
 40
0.6937210195
 40
0.7249204383
 40
0.7559960799
 40
0.7869432126
 40
0.81775903
 40
0.848442718
 40
0.863737194
 40
0.8789992627
 40
0.9094243773
 40
0.9397270976
 40
0.9548366914
 40
0.9699185512
 40
1.0
 40
1.0
 40
1.0
 40
1.0
 10
9.5735042555
 20
7.7641478959
 30
0.0
 10
9.5735042555
 20
7.7566497112
 30
0.0
 10
9.5738541614
 20
7.7453859849
 30
0.0
 10
9.5750118444
 20
7.7303998498
 30
0.0
 10
9.5766341217
 20
7.7153929631
 30
0.0
 10
9.5795278745
 20
7.6966809648
 30
0.0
 10
9.584364055
 20
7.6744146821
 30
0.0
 10
9.5905490413
 20
7.6523966274
 30
0.0
 10
9.598058963
 20
7.6307117595
 30
0.0
 10
9.6068649341
 20
7.6094431039
 30
0.0
 10
9.6169330997
 20
7.5886722547
 30
0.0
 10
9.628224781
 20
7.5684788448
 30
0.0
 10
9.6406966205
 20
7.5489403027
 30
0.0
 10
9.6543007483
 20
7.530131542
 30
0.0
 10
9.6689849647
 20
7.5121246811
 30
0.0
 10
9.6846929398
 20
7.4949887674
 30
0.0
 10
9.7013644276
 20
7.4787895152
 30
0.0
 10
9.7189354959
 20
7.4635890554
 30
0.0
 10
9.7373387695
 20
7.4494456983
 30
0.0
 10
9.7565036866
 20
7.4364137123
 30
0.0
 10
9.7763567674
 20
7.4245431161
 30
0.0
 10
9.7968218929
 20
7.413879488
 30
0.0
 10
9.8178205946
 20
7.4044637916
 30
0.0
 10
9.8392723535
 20
7.3963322191
 30
0.0
 10
9.8610949008
 20
7.3895160514
 30
0.0
 10
9.8832045486
 20
7.3840415392
 30
0.0
 10
9.9055164416
 20
7.379929795
 30
0.0
 10
9.927945123
 20
7.3771967305
 30
0.0
 10
9.9504039565
 20
7.3758529185
 30
0.0
 10
9.9690950466
 20
7.3758953851
 30
0.0
 10
9.9839740697
 20
7.3766286589
 30
0.0
 10
9.9987600531
 20
7.3778238432
 30
0.0
 10
10.0171044491
 20
7.3801834494
 30
0.0
 10
10.0352254385
 20
7.3836978556
 30
0.0
 10
10.0495205501
 20
7.3871915358
 30
0.0
 10
10.0636434939
 20
7.3911286854
 30
0.0
 10
10.0740791965
 20
7.3945902571
 30
0.0
 10
10.0809448958
 20
7.3971186682
 30
0.0
  0
SPLINE
  5
356
100
AcDbEntity
  8
0
100
AcDbSpline
 62
7
  6
CONTINUOUS
 70
0
 71
3
 72
15
 73
11
 74
0
 42
0.0000001
 43
0.0000001
 44
0.0000000001
 40
0.0
 40
0.0
 40
0.0
 40
0.0
 40
0.1263705888
 40
0.2523334507
 40
0.377885487
 40
0.5030416027
 40
0.6278127211
 40
0.7522156664
 40
0.8762703877
 40
1.0
 40
1.0
 40
1.0
 40
1.0
 10
9.5735042555
 20
7.7641478959
 30
0.0
 10
9.5735042555
 20
7.7698370502
 30
0.0
 10
9.5737720207
 20
7.7811988663
 30
0.0
 10
9.574980513
 20
7.798174296
 30
0.0
 10
9.5769927505
 20
7.8150186987
 30
0.0
 10
9.5798040777
 20
7.8316938555
 30
0.0
 10
9.5834084051
 20
7.8481628662
 30
0.0
 10
9.5877977379
 20
7.8643890607
 30
0.0
 10
9.5929621242
 20
7.8803357945
 30
0.0
 10
9.5969194907
 20
7.8907711473
 30
0.0
 10
9.5990231494
 20
7.8959288989
 30
0.0
  0
SPLINE
  5
357
100
AcDbEntity
  8
0
100
AcDbSpline
 62
7
  6
CONTINUOUS
 70
0
 71
3
 72
71
 73
67
 74
0
 42
0.0000001
 43
0.0000001
 44
0.0000000001
 40
0.0
 40
0.0
 40
0.0
 40
0.0
 40
0.0156373091
 40
0.0313279441
 40
0.047070274
 40
0.0628636381
 40
0.078706082
 40
0.0945954866
 40
0.1105292303
 40
0.1265042948
 40
0.1425172941
 40
0.1585644989
 40
0.1746418765
 40
0.1907451255
 40
0.2068697168
 40
0.2230109349
 40
0.2391639194
 40
0.2553237067
 40
0.2714852734
 40
0.2876435805
 40
0.303793618
 40
0.3199304487
 40
0.3360492499
 40
0.352145356
 40
0.3682143008
 40
0.3842518584
 40
0.4002540817
 40
0.4162173386
 40
0.4321383463
 40
0.4480142041
 40
0.4638424239
 40
0.4796209569
 40
0.4953482152
 40
0.5110230909
 40
0.5266449715
 40
0.542213752
 40
0.5577298409
 40
0.5731941611
 40
0.5886081449
 40
0.6039737253
 40
0.6192933221
 40
0.6345698229
 40
0.6498065561
 40
0.6650072607
 40
0.6801760497
 40
0.6953173703
 40
0.7104359595
 40
0.7255367956
 40
0.7406250456
 40
0.7557060104
 40
0.7707850684
 40
0.7858676182
 40
0.8009590217
 40
0.8160645466
 40
0.8311893099
 40
0.846338224
 40
0.8615159451
 40
0.8767268271
 40
0.8919748765
 40
0.9072637177
 40
0.9225965501
 40
0.9379761169
 40
0.9534047581
 40
0.9688840326
 40
0.9844158132
 40
1.0
 40
1.0
 40
1.0
 40
1.0
 10
9.3329885316
 20
7.5718275327
 30
0.0
 10
9.3329885316
 20
7.5652580642
 30
0.0
 10
9.3333122293
 20
7.5520944874
 30
0.0
 10
9.3347617252
 20
7.5323653386
 30
0.0
 10
9.3371726667
 20
7.5126640087
 30
0.0
 10
9.3405389872
 20
7.4930387581
 30
0.0
 10
9.3448526906
 20
7.4735365113
 30
0.0
 10
9.3501032996
 20
7.4542043343
 30
0.0
 10
9.3562781538
 20
7.4350887359
 30
0.0
 10
9.36336234
 20
7.4162357339
 30
0.0
 10
9.3713387717
 20
7.397690705
 30
0.0
 10
9.3801882262
 20
7.3794982853
 30
0.0
 10
9.389889389
 20
7.3617022661
 30
0.0
 10
9.4004188935
 20
7.3443454826
 30
0.0
 10
9.4117513649
 20
7.3274697011
 30
0.0
 10
9.4238595094
 20
7.3111155347
 30
0.0
 10
9.4367141745
 20
7.2953223446
 30
0.0
 10
9.4502844184
 20
7.2801281475
 30
0.0
 10
9.4645375831
 20
7.2655695261
 30
0.0
 10
9.479439349
 20
7.2516815165
 30
0.0
 10
9.4949538435
 20
7.2384975458
 30
0.0
 10
9.5110437259
 20
7.2260493541
 30
0.0
 10
9.5276702748
 20
7.2143669176
 30
0.0
 10
9.5447934827
 20
7.2034783833
 30
0.0
 10
9.5623721345
 20
7.1934099734
 30
0.0
 10
9.5803639169
 20
7.1841859333
 30
0.0
 10
9.5987255272
 20
7.1758284875
 30
0.0
 10
9.6174127731
 20
7.1683577831
 30
0.0
 10
9.6363806785
 20
7.161791846
 30
0.0
 10
9.6555835853
 20
7.1561465227
 30
0.0
 10
9.6749752608
 20
7.151435426
 30
0.0
 10
9.6945090191
 20
7.1476699335
 30
0.0
 10
9.7141378285
 20
7.1448591542
 30
0.0
 10
9.7338144231
 20
7.1430099083
 30
0.0
 10
9.7534914146
 20
7.1421267096
 30
0.0
 10
9.7731214054
 20
7.1422117184
 30
0.0
 10
9.7926571072
 20
7.1432647702
 30
0.0
 10
9.8120514518
 20
7.145283376
 30
0.0
 10
9.831257703
 20
7.1482627254
 30
0.0
 10
9.8502295663
 20
7.1521957027
 30
0.0
 10
9.8689213079
 20
7.1570728698
 30
0.0
 10
9.8872878658
 20
7.1628825035
 30
0.0
 10
9.9052849538
 20
7.1696106387
 30
0.0
 10
9.9228691687
 20
7.1772410957
 30
0.0
 10
9.9399980921
 20
7.1857555224
 30
0.0
 10
9.9566304008
 20
7.1951334216
 30
0.0
 10
9.9727259782
 20
7.2053521882
 30
0.0
 10
9.988245997
 20
7.2163871933
 30
0.0
 10
10.0031530149
 20
7.2282118376
 30
0.0
 10
10.0174110647
 20
7.2407976159
 30
0.0
 10
10.0309857408
 20
7.254114185
 30
0.0
 10
10.0438443103
 20
7.2681294123
 30
0.0
 10
10.0559557697
 20
7.2828094827
 30
0.0
 10
10.0672909184
 20
7.2981189805
 30
0.0
 10
10.0778224302
 20
7.3140209735
 30
0.0
 10
10.0875249128
 20
7.3304771059
 30
0.0
 10
10.0963749988
 20
7.3474476735
 30
0.0
 10
10.1043513892
 20
7.364891733
 30
0.0
 10
10.1114348915
 20
7.3827672092
 30
0.0
 10
10.1176084645
 20
7.4010309957
 30
0.0
 10
10.1228572532
 20
7.41963905
 30
0.0
 10
10.1271686678
 20
7.4385465384
 30
0.0
 10
10.1305323112
 20
7.457707771
 30
0.0
 10
10.1329402789
 20
7.4770768888
 30
0.0
 10
10.1343865962
 20
7.4966064093
 30
0.0
 10
10.1347070149
 20
7.509681016
 30
0.0
 10
10.1347070149
 20
7.5162281671
 30
0.0
  0
SPLINE
  5
358
100
AcDbEntity
  8
0
100
AcDbSpline
 62
7
  6
CONTINUOUS
 70
0
 71
3
 72
39
 73
35
 74
0
 42
0.0000001
 43
0.0000001
 44
0.0000000001
 40
0.0
 40
0.0
 40
0.0
 40
0.0
 40
0.0310753532
 40
0.0623079102
 40
0.09369313
 40
0.1252222885
 40
0.1568840435
 40
0.1886642047
 40
0.220546165
 40
0.2525112493
 40
0.2845391083
 40
0.3166081364
 40
0.3486959075
 40
0.3807796231
 40
0.4128365658
 40
0.4448445502
 40
0.4767823671
 40
0.5086302143
 40
0.5403701081
 40
0.5719862652
 40
0.603465451
 40
0.634797286
 40
0.6659745047
 40
0.6969931564
 40
0.7278527393
 40
0.7585562643
 40
0.7891102412
 40
0.8195245853
 40
0.8498124369
 40
0.8799898959
 40
0.9100756754
 40
0.9400906818
 40
0.9700575291
 40
1.0
 40
1.0
 40
1.0
 40
1.0
 10
9.3819783202
 20
7.5791480376
 30
0.0
 10
9.3819783202
 20
7.5701713783
 30
0.0
 10
9.3826479582
 20
7.552165741
 30
0.0
 10
9.385637753
 20
7.5252434801
 30
0.0
 10
9.3905985464
 20
7.4984793079
 30
0.0
 10
9.3975029301
 20
7.4720220844
 30
0.0
 10
9.4063126785
 20
7.4460165998
 30
0.0
 10
9.4169792369
 20
7.4206057266
 30
0.0
 10
9.4294438386
 20
7.3959288734
 30
0.0
 10
9.4436379087
 20
7.3721214539
 30
0.0
 10
9.4594834258
 20
7.349314095
 30
0.0
 10
9.476893352
 20
7.3276319494
 30
0.0
 10
9.4957720951
 20
7.3071940083
 30
0.0
 10
9.5160160088
 20
7.2881124328
 30
0.0
 10
9.537513991
 20
7.2704919724
 30
0.0
 10
9.5601480789
 20
7.2544293936
 30
0.0
 10
9.5837940914
 20
7.2400129593
 30
0.0
 10
9.6083222903
 20
7.2273219333
 30
0.0
 10
9.6335980768
 20
7.2164261256
 30
0.0
 10
9.6594827412
 20
7.2073855467
 30
0.0
 10
9.6858342067
 20
7.2002500698
 30
0.0
 10
9.7125077978
 20
7.1950591622
 30
0.0
 10
9.7393570163
 20
7.1918416368
 30
0.0
 10
9.7662343396
 20
7.1906154724
 30
0.0
 10
9.7929920261
 20
7.1913877402
 30
0.0
 10
9.8194829166
 20
7.1941545416
 30
0.0
 10
9.8455612344
 20
7.1989010195
 30
0.0
 10
9.8710833943
 20
7.2056013912
 30
0.0
 10
9.8959087919
 20
7.2142190577
 30
0.0
 10
9.919900627
 20
7.2247068663
 30
0.0
 10
9.9429264913
 20
7.237007169
 30
0.0
 10
9.96485978
 20
7.2510527834
 30
0.0
 10
9.9855779414
 20
7.2667649105
 30
0.0
 10
9.9985093691
 20
7.2782982425
 30
0.0
 10
10.0047304962
 20
7.2843073863
 30
0.0
  0
SPLINE
  5
359
100
AcDbEntity
  8
0
100
AcDbSpline
 62
7
  6
CONTINUOUS
 70
0
 71
3
 72
23
 73
19
 74
0
 42
0.0000001
 43
0.0000001
 44
0.0000000001
 40
0.0
 40
0.0
 40
0.0
 40
0.0
 40
0.0637009368
 40
0.1272126838
 40
0.1905342952
 40
0.253671455
 40
0.3166284144
 40
0.3794117887
 40
0.4420293548
 40
0.5044901987
 40
0.5668046797
 40
0.6289843155
 40
0.691041716
 40
0.7529904858
 40
0.8148451194
 40
0.8766208847
 40
0.9383336992
 40
1.0
 40
1.0
 40
1.0
 40
1.0
 10
10.4856168039
 20
7.763718766
 30
0.0
 10
10.4856168039
 20
7.7728657029
 30
0.0
 10
10.486011888
 20
7.7911349291
 30
0.0
 10
10.4877947279
 20
7.8184442647
 30
0.0
 10
10.490763818
 20
7.8455693733
 30
0.0
 10
10.4949133977
 20
7.8724584665
 30
0.0
 10
10.5002358864
 20
7.8990614769
 30
0.0
 10
10.5067212903
 20
7.9253283623
 30
0.0
 10
10.5143574825
 20
7.9512098734
 30
0.0
 10
10.5231301655
 20
7.9766574387
 30
0.0
 10
10.5330229122
 20
8.0016233008
 30
0.0
 10
10.544017204
 20
8.0260605976
 30
0.0
 10
10.5560924515
 20
8.049923446
 30
0.0
 10
10.5692260132
 20
8.073167067
 30
0.0
 10
10.5833932194
 20
8.095747789
 30
0.0
 10
10.5985676361
 20
8.1176233673
 30
0.0
 10
10.6147202974
 20
8.1387521712
 30
0.0
 10
10.6261252287
 20
8.1523189953
 30
0.0
 10
10.6319787888
 20
8.1589630119
 30
0.0
  0
SPLINE
  5
35A
100
AcDbEntity
  8
0
100
AcDbSpline
 62
7
  6
CONTINUOUS
 70
0
 71
3
 72
15
 73
11
 74
0
 42
0.0000001
 43
0.0000001
 44
0.0000000001
 40
0.0
 40
0.0
 40
0.0
 40
0.0
 40
0.1273483257
 40
0.253860557
 40
0.3795878955
 40
0.504605103
 40
0.6290174424
 40
0.7529533779
 40
0.8765605788
 40
1.0
 40
1.0
 40
1.0
 40
1.0
 10
9.8529725259
 20
7.7840935319
 30
0.0
 10
9.8529725259
 20
7.7879432833
 30
0.0
 10
9.853340099
 20
7.7956228332
 30
0.0
 10
9.8550024175
 20
7.8069944565
 30
0.0
 10
9.8577588176
 20
7.8180803524
 30
0.0
 10
9.8615844036
 20
7.8287768475
 30
0.0
 10
9.8664440675
 20
7.8389852994
 30
0.0
 10
9.8722935331
 20
7.8486114327
 30
0.0
 10
9.8790777861
 20
7.8575650586
 30
0.0
 10
9.884185987
 20
7.8630344377
 30
0.0
 10
9.8868699443
 20
7.8656269457
 30
0.0
  0
SPLINE
  5
35B
100
AcDbEntity
  8
0
100
AcDbSpline
 62
7
  6
CONTINUOUS
 70
0
 71
3
 72
15
 73
11
 74
0
 42
0.0000001
 43
0.0000001
 44
0.0000000001
 40
0.0
 40
0.0
 40
0.0
 40
0.0
 40
0.1265373758
 40
0.2526079934
 40
0.378215276
 40
0.5033762175
 40
0.6281083464
 40
0.7524362866
 40
0.8763889421
 40
1.0
 40
1.0
 40
1.0
 40
1.0
 10
9.6003446172
 20
7.766573696
 30
0.0
 10
9.6003446172
 20
7.7726401247
 30
0.0
 10
9.6006693669
 20
7.7847531848
 30
0.0
 10
9.6021356304
 20
7.802834642
 30
0.0
 10
9.6045761126
 20
7.8207445878
 30
0.0
 10
9.6079836823
 20
7.8384305616
 30
0.0
 10
9.6123486635
 20
7.8558417584
 30
0.0
 10
9.6176585496
 20
7.8729280163
 30
0.0
 10
9.6238977766
 20
7.8896393554
 30
0.0
 10
9.6286717606
 20
7.9005137007
 30
0.0
 10
9.6312068284
 20
7.9058702404
 30
0.0
  0
SPLINE
  5
35C
100
AcDbEntity
  8
0
100
AcDbSpline
 62
7
  6
CONTINUOUS
 70
0
 71
3
 72
23
 73
19
 74
0
 42
0.0000001
 43
0.0000001
 44
0.0000000001
 40
0.0
 40
0.0
 40
0.0
 40
0.0
 40
0.0637774724
 40
0.127344696
 40
0.1907020124
 40
0.2538561402
 40
0.3168131804
 40
0.3795820984
 40
0.4421733882
 40
0.5045993399
 40
0.5668738668
 40
0.6290123797
 40
0.6910316501
 40
0.7529496455
 40
0.8147853558
 40
0.8765586055
 40
0.9382898564
 40
1.0
 40
1.0
 40
1.0
 40
1.0
 10
10.6289119355
 20
7.7851312427
 30
0.0
 10
10.6289119355
 20
7.7934628191
 30
0.0
 10
10.6293106994
 20
7.81010133
 30
0.0
 10
10.6311106227
 20
7.834957919
 30
0.0
 10
10.634107437
 20
7.8596174179
 30
0.0
 10
10.6382940828
 20
7.8840220665
 30
0.0
 10
10.6436611158
 20
7.9081159648
 30
0.0
 10
10.6501961506
 20
7.9318434531
 30
0.0
 10
10.6578842165
 20
7.9551498538
 30
0.0
 10
10.6667076259
 20
7.9779814152
 30
0.0
 10
10.676646076
 20
8.0002854861
 30
0.0
 10
10.6876766917
 20
8.022010623
 30
0.0
 10
10.6997740711
 20
8.0431067079
 30
0.0
 10
10.7129103625
 20
8.0635250824
 30
0.0
 10
10.7270552599
 20
8.0832185905
 30
0.0
 10
10.7421763198
 20
8.1021419518
 30
0.0
 10
10.7582380677
 20
8.1202509264
 30
0.0
 10
10.7695504714
 20
8.1317549173
 30
0.0
 10
10.7753487524
 20
8.137355622
 30
0.0
  0
SPLINE
  5
35D
100
AcDbEntity
  8
0
100
AcDbSpline
 62
7
  6
CONTINUOUS
 70
0
 71
3
 72
43
 73
39
 74
0
 42
0.0000001
 43
0.0000001
 44
0.0000000001
 40
0.0
 40
0.0
 40
0.0
 40
0.0
 40
0.0309202825
 40
0.0619810447
 40
0.0931790821
 40
0.1245080736
 40
0.1559598399
 40
0.1875240469
 40
0.2191885196
 40
0.2509394355
 40
0.2827615672
 40
0.3146385386
 40
0.3465530936
 40
0.3784873755
 40
0.4104232131
 40
0.4423424101
 40
0.4742270357
 40
0.5060597114
 40
0.5378238915
 40
0.5695041344
 40
0.6010863606
 40
0.6325580952
 40
0.6639086901
 40
0.695129521
 40
0.7262141567
 40
0.7571584973
 40
0.7879608756
 40
0.8186221208
 40
0.8339029551
 40
0.8491499693
 40
0.8643639736
 40
0.8795459224
 40
0.9098137239
 40
0.9399683677
 40
0.9550094307
 40
0.9700271215
 40
0.9850233171
 40
1.0
 40
1.0
 40
1.0
 40
1.0
 10
10.8069792916
 20
7.9571311109
 30
0.0
 10
10.8069792916
 20
7.9455580761
 30
0.0
 10
10.8077518976
 20
7.9223522609
 30
0.0
 10
10.8112048831
 20
7.8876241545
 30
0.0
 10
10.8169389628
 20
7.8530427461
 30
0.0
 10
10.8249287498
 20
7.8187623345
 30
0.0
 10
10.8351387538
 20
7.7849334425
 30
0.0
 10
10.8475238368
 20
7.751705182
 30
0.0
 10
10.8620292776
 20
7.7192238367
 30
0.0
 10
10.8785910428
 20
7.6876324259
 30
0.0
 10
10.8971360723
 20
7.6570700265
 30
0.0
 10
10.917582608
 20
7.6276711869
 30
0.0
 10
10.9398405499
 20
7.599565336
 30
0.0
 10
10.9638118499
 20
7.5728762207
 30
0.0
 10
10.9893909417
 20
7.5477213686
 30
0.0
 10
11.0164651868
 20
7.524211559
 30
0.0
 10
11.0449153769
 20
7.5024503454
 30
0.0
 10
11.0746162599
 20
7.4825336099
 30
0.0
 10
11.105437084
 20
7.4645491433
 30
0.0
 10
11.1372421665
 20
7.4485762601
 30
0.0
 10
11.1698914856
 20
7.4346854543
 30
0.0
 10
11.203241284
 20
7.4229380717
 30
0.0
 10
11.2371446912
 20
7.41338604
 30
0.0
 10
11.2714524003
 20
7.4060716557
 30
0.0
 10
11.3060131932
 20
7.4010273756
 30
0.0
 10
11.3406750533
 20
7.3982757281
 30
0.0
 10
11.3752841436
 20
7.3978289862
 30
0.0
 10
11.4039902479
 20
7.3993815545
 30
0.0
 10
11.4267705539
 20
7.4017764669
 30
0.0
 10
11.4437301386
 20
7.4041433911
 30
0.0
 10
11.460562807
 20
7.4070803356
 30
0.0
 10
11.4827875103
 20
7.4117467387
 30
0.0
 10
11.5101684616
 20
7.4189850527
 30
0.0
 10
11.5369330743
 20
7.4280849036
 30
0.0
 10
11.557865154
 20
7.4364478524
 30
0.0
 10
11.5732999331
 20
7.4432497919
 30
0.0
 10
11.5884644361
 20
7.4505785838
 30
0.0
 10
11.5983895698
 20
7.4558137387
 30
0.0
 10
11.6033007469
 20
7.4585160905
 30
0.0
  0
SPLINE
  5
35E
100
AcDbEntity
  8
0
100
AcDbSpline
 62
7
  6
CONTINUOUS
 70
0
 71
3
 72
15
 73
11
 74
0
 42
0.0000001
 43
0.0000001
 44
0.0000000001
 40
0.0
 40
0.0
 40
0.0
 40
0.0
 40
0.1268026816
 40
0.2530372138
 40
0.3787199841
 40
0.5038739791
 40
0.6285329036
 40
0.752738808
 40
0.8765419821
 40
1.0
 40
1.0
 40
1.0
 40
1.0
 10
10.8069792916
 20
7.9571311109
 30
0.0
 10
10.8069792916
 20
7.9683947416
 30
0.0
 10
10.8077078363
 20
7.9908785731
 30
0.0
 10
10.810999261
 20
8.0243813756
 30
0.0
 10
10.8164730811
 20
8.0574508271
 30
0.0
 10
10.8241065958
 20
8.0899456767
 30
0.0
 10
10.8338677023
 20
8.1217290835
 30
0.0
 10
10.8457157561
 20
8.1526672233
 30
0.0
 10
10.8595999011
 20
8.1826276807
 30
0.0
 10
10.8701899974
 20
8.2018931191
 30
0.0
 10
10.8758013888
 20
8.2113152784
 30
0.0
  0
SPLINE
  5
35F
100
AcDbEntity
  8
0
100
AcDbSpline
 62
7
  6
CONTINUOUS
 70
0
 71
3
 72
15
 73
11
 74
0
 42
0.0000001
 43
0.0000001
 44
0.0000000001
 40
0.0
 40
0.0
 40
0.0
 40
0.0
 40
0.1269217366
 40
0.2532267895
 40
0.3789359499
 40
0.5040788944
 40
0.6286983953
 40
0.7528479497
 40
0.8765910699
 40
1.0
 40
1.0
 40
1.0
 40
1.0
 10
10.8195363281
 20
7.9562602775
 30
0.0
 10
10.8195363281
 20
7.9681924761
 30
0.0
 10
10.8203740409
 20
7.9920077054
 30
0.0
 10
10.8241594887
 20
8.0274597738
 30
0.0
 10
10.8304521383
 20
8.0623860384
 30
0.0
 10
10.8392212346
 20
8.0966106091
 30
0.0
 10
10.8504233775
 20
8.1299635439
 30
0.0
 10
10.864003553
 20
8.16227922
 30
0.0
 10
10.879893
 20
8.1933945767
 30
0.0
 10
10.8919902376
 20
8.2132625061
 30
0.0
 10
10.8983922018
 20
8.222938256
 30
0.0
  0
SPLINE
  5
360
100
AcDbEntity
  8
0
100
AcDbSpline
 62
7
  6
CONTINUOUS
 70
0
 71
3
 72
57
 73
53
 74
0
 42
0.0000001
 43
0.0000001
 44
0.0000000001
 40
0.0
 40
0.0
 40
0.0
 40
0.0
 40
0.0110807287
 40
0.0227020996
 40
0.0348712767
 40
0.0475935612
 40
0.0608711023
 40
0.0747018738
 40
0.0890810007
 40
0.1040007649
 40
0.11945113
 40
0.1354193773
 40
0.1518907442
 40
0.1688481323
 40
0.2041424885
 40
0.2411273668
 40
0.2795979793
 40
0.3193229993
 40
0.3600474599
 40
0.4014963086
 40
0.4433787894
 40
0.485393195
 40
0.5272316953
 40
0.5685890014
 40
0.6091683359
 40
0.6486858795
 40
0.686875889
 40
0.7234949811
 40
0.7583256476
 40
0.7750103384
 40
0.7911796394
 40
0.8068149467
 40
0.8218997848
 40
0.8364199508
 40
0.8503636486
 40
0.8637216551
 40
0.8764875294
 40
0.8886578797
 40
0.9002326955
 40
0.9112157674
 40
0.9216152135
 40
0.9314441326
 40
0.9407213874
 40
0.949472531
 40
0.957730896
 40
0.9655386456
 40
0.9692903552
 40
0.9729498098
 40
0.9800228441
 40
0.9868328161
 40
0.9934620434
 40
1.0
 40
1.0
 40
1.0
 40
1.0
 10
11.2196270217
 20
7.9030323141
 30
0.0
 10
11.2207311426
 20
7.9027412009
 30
0.0
 10
11.2229791405
 20
7.9020902755
 30
0.0
 10
11.2263868844
 20
7.9009473634
 30
0.0
 10
11.2299079679
 20
7.8996188166
 30
0.0
 10
11.233540689
 20
7.8981092329
 30
0.0
 10
11.2372834816
 20
7.8964232213
 30
0.0
 10
11.2411346832
 20
7.8945659501
 30
0.0
 10
11.2450923277
 20
7.8925427483
 30
0.0
 10
11.2491543952
 20
7.8903594463
 30
0.0
 10
11.2533185838
 20
7.8880220515
 30
0.0
 10
11.2575824346
 20
7.8855369686
 30
0.0
 10
11.2619431787
 20
7.8829108346
 30
0.0
 10
11.2679630985
 20
7.879180558
 30
0.0
 10
11.275697211
 20
7.8742049112
 30
0.0
 10
11.2851883693
 20
7.8678665722
 30
0.0
 10
11.2949722255
 20
7.8611464517
 30
0.0
 10
11.3050052631
 20
7.8541097219
 30
0.0
 10
11.3152371353
 20
7.8468226865
 30
0.0
 10
11.3256107295
 20
7.8393517713
 30
0.0
 10
11.3360625718
 20
7.8317622477
 30
0.0
 10
11.3465234901
 20
7.8241170028
 30
0.0
 10
11.356919814
 20
7.8164751755
 30
0.0
 10
11.3671748161
 20
7.8088908605
 30
0.0
 10
11.3772103001
 20
7.8014120673
 30
0.0
 10
11.3869479878
 20
7.7940800798
 30
0.0
 10
11.396310891
 20
7.7869291452
 30
0.0
 10
11.40522449
 20
7.7799863591
 30
0.0
 10
11.4123170472
 20
7.7743129054
 30
0.0
 10
11.4177051842
 20
7.7698837609
 30
0.0
 10
11.4215327364
 20
7.7666715335
 30
0.0
 10
11.4251973577
 20
7.7635220961
 30
0.0
 10
11.428691833
 20
7.7604360083
 30
0.0
 10
11.4320093126
 20
7.7574135894
 30
0.0
 10
11.4351433027
 20
7.7544549211
 30
0.0
 10
11.438087676
 20
7.7515598865
 30
0.0
 10
11.4408366735
 20
7.7487281993
 30
0.0
 10
11.4433849089
 20
7.7459594346
 30
0.0
 10
11.4457273688
 20
7.7432530567
 30
0.0
 10
11.447859412
 20
7.7406084443
 30
0.0
 10
11.4497767654
 20
7.7380249159
 30
0.0
 10
11.4514755149
 20
7.7355017445
 30
0.0
 10
11.4529520884
 20
7.7330382044
 30
0.0
 10
11.454203233
 20
7.7306335106
 30
0.0
 10
11.4552258972
 20
7.7282871147
 30
0.0
 10
11.4558941803
 20
7.7263545948
 30
0.0
 10
11.4563066099
 20
7.7248409755
 30
0.0
 10
11.4566316883
 20
7.7233837814
 30
0.0
 10
11.4568966345
 20
7.7215921503
 30
0.0
 10
11.4569796489
 20
7.7194756284
 30
0.0
 10
11.4568228245
 20
7.7174183978
 30
0.0
 10
11.456556822
 20
7.7160838368
 30
0.0
 10
11.4563850186
 20
7.7154323829
 30
0.0
  0
SPLINE
  5
361
100
AcDbEntity
  8
0
100
AcDbSpline
 62
7
  6
CONTINUOUS
 70
0
 71
3
 72
14
 73
10
 74
0
 42
0.0000001
 43
0.0000001
 44
0.0000000001
 40
0.0
 40
0.0
 40
0.0
 40
0.0
 40
0.1216435027
 40
0.2448800383
 40
0.3694065597
 40
0.4949094859
 40
0.6210616515
 40
0.7475297935
 40
1.0
 40
1.0
 40
1.0
 40
1.0
 10
11.1793175064
 20
7.8166469316
 30
0.0
 10
11.1786505675
 20
7.8129107858
 30
0.0
 10
11.1774968824
 20
7.8053545746
 30
0.0
 10
11.1763112279
 20
7.7938862674
 30
0.0
 10
11.1756632271
 20
7.7822542588
 30
0.0
 10
11.1755559216
 20
7.7705140447
 30
0.0
 10
11.1759898677
 20
7.7587203114
 30
0.0
 10
11.177286241
 20
7.7430116213
 30
0.0
 10
11.1790607427
 20
7.7313009092
 30
0.0
 10
11.1805981891
 20
7.7235754846
 30
0.0
  0
SPLINE
  5
362
100
AcDbEntity
  8
0
100
AcDbSpline
 62
7
  6
CONTINUOUS
 70
0
 71
3
 72
15
 73
11
 74
0
 42
0.0000001
 43
0.0000001
 44
0.0000000001
 40
0.0
 40
0.0
 40
0.0
 40
0.0
 40
0.1372493754
 40
0.2715353493
 40
0.4025013281
 40
0.5298495877
 40
0.6533593462
 40
0.7728954474
 40
0.8884181778
 40
1.0
 40
1.0
 40
1.0
 40
1.0
 10
11.1793175064
 20
7.8166469316
 30
0.0
 10
11.1800946704
 20
7.8210005516
 30
0.0
 10
11.1818849932
 20
7.8295711971
 30
0.0
 10
11.1853149417
 20
7.8420872986
 30
0.0
 10
11.1894406996
 20
7.8540558089
 30
0.0
 10
11.1942354014
 20
7.8653970797
 30
0.0
 10
11.199667828
 20
7.8760361695
 30
0.0
 10
11.2057031594
 20
7.8859028161
 30
0.0
 10
11.2123015246
 20
7.8949305895
 30
0.0
 10
11.2171309827
 20
7.900444541
 30
0.0
 10
11.2196270217
 20
7.9030323141
 30
0.0
  0
SPLINE
  5
363
100
AcDbEntity
  8
0
100
AcDbSpline
 62
7
  6
CONTINUOUS
 70
0
 71
3
 72
19
 73
15
 74
0
 42
0.0000001
 43
0.0000001
 44
0.0000000001
 40
0.0
 40
0.0
 40
0.0
 40
0.0
 40
0.1269788673
 40
0.2533113913
 40
0.3790211814
 40
0.5041427314
 40
0.5665093346
 40
0.6287483294
 40
0.6908677816
 40
0.7528764391
 40
0.814783709
 40
0.8765996107
 40
0.9383346947
 40
1.0
 40
1.0
 40
1.0
 40
1.0
 10
10.8343855672
 20
7.9601035419
 30
0.0
 10
10.8343855672
 20
7.9723659997
 30
0.0
 10
10.8352882331
 20
7.9968384149
 30
0.0
 10
10.8393678486
 20
8.0332459825
 30
0.0
 10
10.8461471065
 20
8.0690676488
 30
0.0
 10
10.854026249
 20
8.0983025016
 30
0.0
 10
10.8616365446
 20
8.1211918039
 30
0.0
 10
10.867983492
 20
8.1380751126
 30
0.0
 10
10.874966405
 20
8.1546677157
 30
0.0
 10
10.8825758979
 20
8.1709472242
 30
0.0
 10
10.890801512
 20
8.1868912738
 30
0.0
 10
10.8996320305
 20
8.2024781854
 30
0.0
 10
10.9090552568
 20
8.2176862856
 30
0.0
 10
10.9157277895
 20
8.2275643608
 30
0.0
 10
10.9191578769
 20
8.2324323557
 30
0.0
  0
SPLINE
  5
364
100
AcDbEntity
  8
0
100
AcDbSpline
 62
7
  6
CONTINUOUS
 70
0
 71
3
 72
15
 73
11
 74
0
 42
0.0000001
 43
0.0000001
 44
0.0000000001
 40
0.0
 40
0.0
 40
0.0
 40
0.0
 40
0.1268161449
 40
0.2530587956
 40
0.3787448209
 40
0.5038978674
 40
0.6285525722
 40
0.7527521565
 40
0.8765482683
 40
1.0
 40
1.0
 40
1.0
 40
1.0
 10
10.8700542876
 20
7.9945568821
 30
0.0
 10
10.8700542876
 20
8.0054313222
 30
0.0
 10
10.8707642463
 20
8.0271379501
 30
0.0
 10
10.8739717844
 20
8.0594792943
 30
0.0
 10
10.879305849
 20
8.0913957834
 30
0.0
 10
10.8867439027
 20
8.1227485156
 30
0.0
 10
10.8962540778
 20
8.1534029622
 30
0.0
 10
10.907796026
 20
8.1832276092
 30
0.0
 10
10.9213192747
 20
8.2120923895
 30
0.0
 10
10.9316320976
 20
8.2306397048
 30
0.0
 10
10.9370958585
 20
8.2397066503
 30
0.0
  0
SPLINE
  5
365
100
AcDbEntity
  8
0
100
AcDbSpline
 62
7
  6
CONTINUOUS
 70
0
 71
3
 72
21
 73
17
 74
0
 42
0.0000001
 43
0.0000001
 44
0.0000000001
 40
0.0
 40
0.0
 40
0.0
 40
0.0
 40
0.1270486164
 40
0.2534157354
 40
0.3163645148
 40
0.3791539147
 40
0.441789869
 40
0.5042790516
 40
0.5666290787
 40
0.6288484966
 40
0.6909466941
 40
0.7529338602
 40
0.8148209059
 40
0.8766194105
 40
0.9383415499
 40
1.0
 40
1.0
 40
1.0
 40
1.0
 10
10.9288420339
 20
8.0033414879
 30
0.0
 10
10.9288420339
 20
8.0150762714
 30
0.0
 10
10.9297532084
 20
8.0384927944
 30
0.0
 10
10.9331910621
 20
8.0675429304
 30
0.0
 10
10.9373068752
 20
8.0904672771
 30
0.0
 10
10.9410659028
 20
8.1074604185
 30
0.0
 10
10.9454950766
 20
8.1242472341
 30
0.0
 10
10.9505876469
 20
8.1408024807
 30
0.0
 10
10.9563358637
 20
8.1571008781
 30
0.0
 10
10.9627310533
 20
8.173117606
 30
0.0
 10
10.9697634415
 20
8.1888282864
 30
0.0
 10
10.9774223266
 20
8.2042090104
 30
0.0
 10
10.9856961022
 20
8.2192363
 30
0.0
 10
10.9945722006
 20
8.2338873721
 30
0.0
 10
11.0040368539
 20
8.2481396214
 30
0.0
 10
11.0107330209
 20
8.2573656048
 30
0.0
 10
11.0141735856
 20
8.2619039017
 30
0.0
  0
SPLINE
  5
366
100
AcDbEntity
  8
0
100
AcDbSpline
 62
7
  6
CONTINUOUS
 70
0
 71
3
 72
24
 73
20
 74
0
 42
0.0000001
 43
0.0000001
 44
0.0000000001
 40
0.0
 40
0.0
 40
0.0
 40
0.0
 40
0.0637774298
 40
0.1273438979
 40
0.1907011028
 40
0.2538548461
 40
0.3168115792
 40
0.3795801785
 40
0.4421711488
 40
0.5045967878
 40
0.5668710022
 40
0.6290092041
 40
0.6910281625
 40
0.7220010202
 40
0.7529508971
 40
0.8147862935
 40
0.87655923
 40
0.9382901685
 40
1.0
 40
1.0
 40
1.0
 40
1.0
 10
10.4191003548
 20
7.6994688062
 30
0.0
 10
10.4191003548
 20
7.7096055898
 30
0.0
 10
10.4195854986
 20
7.7298490637
 30
0.0
 10
10.42177543
 20
7.7600912173
 30
0.0
 10
10.4254215094
 20
7.7900935301
 30
0.0
 10
10.4305152758
 20
7.8197858391
 30
0.0
 10
10.4370451522
 20
7.8491000395
 30
0.0
 10
10.4449961009
 20
7.877968449
 30
0.0
 10
10.4543498892
 20
7.906324546
 30
0.0
 10
10.4650849864
 20
7.9341029047
 30
0.0
 10
10.4771767736
 20
7.9612395723
 30
0.0
 10
10.4905971615
 20
7.9876715451
 30
0.0
 10
10.5028683922
 20
8.0090707344
 30
0.0
 10
10.5133158529
 20
8.0257735959
 30
0.0
 10
10.5241704332
 20
8.0421798228
 30
0.0
 10
10.5385079226
 20
8.0621415672
 30
0.0
 10
10.5569050025
 20
8.0851647326
 30
0.0
 10
10.5764467922
 20
8.1071973817
 30
0.0
 10
10.5902101758
 20
8.1211938866
 30
0.0
 10
10.5972647361
 20
8.1280080757
 30
0.0
  0
SPLINE
  5
367
100
AcDbEntity
  8
0
100
AcDbSpline
 62
7
  6
CONTINUOUS
 70
0
 71
3
 72
15
 73
11
 74
0
 42
0.0000001
 43
0.0000001
 44
0.0000000001
 40
0.0
 40
0.0
 40
0.0
 40
0.0
 40
0.1263136138
 40
0.2522390805
 40
0.3777712193
 40
0.5029244353
 40
0.6277082111
 40
0.7521352013
 40
0.8762289832
 40
1.0
 40
1.0
 40
1.0
 40
1.0
 10
9.7809727348
 20
9.0821951833
 30
0.0
 10
9.7809727348
 20
9.0872853542
 30
0.0
 10
9.7812014305
 20
9.0974515715
 30
0.0
 10
9.7822334525
 20
9.1126449375
 30
0.0
 10
9.7839520453
 20
9.127729332
 30
0.0
 10
9.7863535711
 20
9.1426735431
 30
0.0
 10
9.7894333156
 20
9.1574474098
 30
0.0
 10
9.7931849942
 20
9.1720211569
 30
0.0
 10
9.7976009571
 20
9.186364546
 30
0.0
 10
9.8009862634
 20
9.1957664388
 30
0.0
 10
9.8027863481
 20
9.2004179914
 30
0.0
  0
SPLINE
  5
368
100
AcDbEntity
  8
0
100
AcDbSpline
 62
7
  6
CONTINUOUS
 70
0
 71
3
 72
28
 73
24
 74
0
 42
0.0000001
 43
0.0000001
 44
0.0000000001
 40
0.0
 40
0.0
 40
0.0
 40
0.0
 40
0.0809649918
 40
0.1599746967
 40
0.2369439819
 40
0.3117874669
 40
0.3844126797
 40
0.4547216965
 40
0.5226108494
 40
0.5879626076
 40
0.6506528438
 40
0.7105352029
 40
0.7674503749
 40
0.7947375814
 40
0.821212729
 40
0.8468455723
 40
0.8716059577
 40
0.8954653942
 40
0.9183875637
 40
0.9403367415
 40
0.9612802405
 40
0.9811780746
 40
1.0
 40
1.0
 40
1.0
 40
1.0
 10
11.106633135
 20
8.2715515237
 30
0.0
 10
11.1048258786
 20
8.2684955378
 30
0.0
 10
11.1012494284
 20
8.2624606626
 30
0.0
 10
11.0959228798
 20
8.253539642
 30
0.0
 10
11.0906919586
 20
8.2448742734
 30
0.0
 10
11.085550813
 20
8.2364819346
 30
0.0
 10
11.080493934
 20
8.228380814
 30
0.0
 10
11.0755163752
 20
8.2205901926
 30
0.0
 10
11.070614024
 20
8.2131307772
 30
0.0
 10
11.065783398
 20
8.2060251252
 30
0.0
 10
11.0610225894
 20
8.1992981076
 30
0.0
 10
11.05633059
 20
8.1929779165
 30
0.0
 10
11.0524262318
 20
8.1880090031
 30
0.0
 10
11.0493310454
 20
8.1842704694
 30
0.0
 10
11.0470610114
 20
8.1816304495
 30
0.0
 10
11.0448104367
 20
8.1791207368
 30
0.0
 10
11.0425803681
 20
8.1767478141
 30
0.0
 10
11.0403724671
 20
8.1745185555
 30
0.0
 10
11.0381883169
 20
8.1724410108
 30
0.0
 10
11.0360299893
 20
8.1705241199
 30
0.0
 10
11.0339004575
 20
8.1687773826
 30
0.0
 10
11.0318025424
 20
8.1672125044
 30
0.0
 10
11.0303874377
 20
8.1662720436
 30
0.0
 10
11.0296851257
 20
8.1658384852
 30
0.0
  0
SPLINE
  5
369
100
AcDbEntity
  8
0
100
AcDbSpline
 62
7
  6
CONTINUOUS
 70
0
 71
3
 72
42
 73
38
 74
0
 42
0.0000001
 43
0.0000001
 44
0.0000000001
 40
0.0
 40
0.0
 40
0.0
 40
0.0
 40
0.0308620487
 40
0.046345821
 40
0.0618625309
 40
0.0929906483
 40
0.1242448577
 40
0.1556179095
 40
0.1871006968
 40
0.2186824528
 40
0.2503509159
 40
0.2820925298
 40
0.3138926527
 40
0.3457357802
 40
0.3776057766
 40
0.4094861132
 40
0.4413601101
 40
0.4732111802
 40
0.5050230714
 40
0.5367801064
 40
0.5684674156
 40
0.6000711622
 40
0.6315787557
 40
0.6629790518
 40
0.694262535
 40
0.7254214817
 40
0.756450101
 40
0.7873446483
 40
0.8181035114
 40
0.8487272641
 40
0.8639912572
 40
0.8792226972
 40
0.9095867563
 40
0.9398305548
 40
0.9549122108
 40
0.9699673908
 40
1.0
 40
1.0
 40
1.0
 40
1.0
 10
9.7809727348
 20
9.0821951833
 30
0.0
 10
9.7809727348
 20
9.0749818097
 30
0.0
 10
9.7813182396
 20
9.0641453966
 30
0.0
 10
9.7824610909
 20
9.0497298505
 30
0.0
 10
9.784062575
 20
9.035294969
 30
0.0
 10
9.786919022
 20
9.0173002026
 30
0.0
 10
9.7916916926
 20
8.995898908
 30
0.0
 10
9.7977937409
 20
8.9747515214
 30
0.0
 10
9.8052003607
 20
8.9539439814
 30
0.0
 10
9.8138815491
 20
8.9335601879
 30
0.0
 10
9.8238021563
 20
8.9136824965
 30
0.0
 10
9.8349220452
 20
8.8943911661
 30
0.0
 10
9.8471962494
 20
8.8757640977
 30
0.0
 10
9.8605751549
 20
8.8578765067
 30
0.0
 10
9.8750046999
 20
8.8408006264
 30
0.0
 10
9.8904265912
 20
8.8246054169
 30
0.0
 10
9.9067785385
 20
8.8093562898
 30
0.0
 10
9.9239945038
 20
8.7951148454
 30
0.0
 10
9.9420049666
 20
8.7819386259
 30
0.0
 10
9.9607372018
 20
8.7698808844
 30
0.0
 10
9.9801155708
 20
8.7589903708
 30
0.0
 10
10.0000618247
 20
8.7493111358
 30
0.0
 10
10.0204954166
 20
8.7408823536
 30
0.0
 10
10.0413338247
 20
8.7337381632
 30
0.0
 10
10.0624928778
 20
8.7279075296
 30
0.0
 10
10.0838871093
 20
8.7234141278
 30
0.0
 10
10.1054300322
 20
8.7202762368
 30
0.0
 10
10.1270347331
 20
8.718506693
 30
0.0
 10
10.1486133006
 20
8.7181127235
 30
0.0
 10
10.1665225466
 20
8.7189333011
 30
0.0
 10
10.1807466104
 20
8.7202784272
 30
0.0
 10
10.1948593806
 20
8.7220764417
 30
0.0
 10
10.212326103
 20
8.7251742676
 30
0.0
 10
10.2295179244
 20
8.7294039493
 30
0.0
 10
10.2430399088
 20
8.7334527393
 30
0.0
 10
10.2563726782
 20
8.7379323684
 30
0.0
 10
10.2661918058
 20
8.7417871935
 30
0.0
 10
10.2726359818
 20
8.7445703756
 30
0.0
  0
SPLINE
  5
36A
100
AcDbEntity
  8
0
100
AcDbSpline
 62
7
  6
CONTINUOUS
 70
0
 71
3
 72
25
 73
21
 74
0
 42
0.0000001
 43
0.0000001
 44
0.0000000001
 40
0.0
 40
0.0
 40
0.0
 40
0.0
 40
0.0307904021
 40
0.0616625058
 40
0.123627961
 40
0.1858806309
 40
0.2483846714
 40
0.3110978402
 40
0.3739726169
 40
0.4369574392
 40
0.4999980123
 40
0.5630386576
 40
0.6260236953
 40
0.6888988254
 40
0.7516124755
 40
0.8141171147
 40
0.8763704863
 40
0.9383367334
 40
0.9692092511
 40
1.0
 40
1.0
 40
1.0
 40
1.0
 10
11.2682903421
 20
8.2377119968
 30
0.0
 10
11.2691084235
 20
8.231860261
 30
0.0
 10
11.2709853035
 20
8.2201730272
 30
0.0
 10
11.2756908632
 20
8.1969152211
 30
0.0
 10
11.2833500611
 20
8.168119948
 30
0.0
 10
11.2952966928
 20
8.1342996778
 30
0.0
 10
11.3099296119
 20
8.101394016
 30
0.0
 10
11.327148245
 20
8.0696294879
 30
0.0
 10
11.346834606
 20
8.0392226635
 30
0.0
 10
11.36885395
 20
8.010381434
 30
0.0
 10
11.3930556864
 20
7.9833028776
 30
0.0
 10
11.4192742847
 20
7.9581720121
 30
0.0
 10
11.447330619
 20
7.935160732
 30
0.0
 10
11.4770329508
 20
7.9144263686
 30
0.0
 10
11.508178242
 20
7.8961108767
 30
0.0
 10
11.5405541415
 20
7.8803396835
 30
0.0
 10
11.5739377761
 20
7.8672212085
 30
0.0
 10
11.6024488904
 20
7.8585627352
 30
0.0
 10
11.6255287972
 20
7.8530491287
 30
0.0
 10
11.6371436319
 20
7.8507658896
 30
0.0
 10
11.6429633532
 20
7.8497442737
 30
0.0
  0
SPLINE
  5
36B
100
AcDbEntity
  8
0
100
AcDbSpline
 62
7
  6
CONTINUOUS
 70
0
 71
3
 72
46
 73
42
 74
0
 42
0.0000001
 43
0.0000001
 44
0.0000000001
 40
0.0
 40
0.0
 40
0.0
 40
0.0
 40
0.0310302702
 40
0.0622128425
 40
0.0935434882
 40
0.1250143632
 40
0.156615069
 40
0.1883326519
 40
0.2201519008
 40
0.2520556608
 40
0.2840251754
 40
0.3160404517
 40
0.348080639
 40
0.3801244214
 40
0.4121504161
 40
0.4441375727
 40
0.4760655668
 40
0.5079151847
 40
0.5396686957
 40
0.5713102001
 40
0.602825951
 40
0.6342046496
 40
0.6654376949
 40
0.6965193898
 40
0.7274471012
 40
0.7582213578
 40
0.7888458829
 40
0.8041066368
 40
0.8193328019
 40
0.8345257186
 40
0.8496869063
 40
0.8648180577
 40
0.8799210339
 40
0.8949978501
 40
0.9100506672
 40
0.9250817828
 40
0.9400936151
 40
0.9550886909
 40
0.9700696341
 40
0.9850391479
 40
1.0
 40
1.0
 40
1.0
 40
1.0
 10
10.4856168039
 20
7.763718766
 30
0.0
 10
10.4856168039
 20
7.7484790897
 30
0.0
 10
10.486718286
 20
7.7179139147
 30
0.0
 10
10.4916375788
 20
7.6722000037
 30
0.0
 10
10.4998019918
 20
7.6267310648
 30
0.0
 10
10.5111691644
 20
7.5817446527
 30
0.0
 10
10.5256799742
 20
7.5374719686
 30
0.0
 10
10.5432592546
 20
7.4941414648
 30
0.0
 10
10.5638161359
 20
7.4519764543
 30
0.0
 10
10.587244349
 20
7.4111942501
 30
0.0
 10
10.6134229189
 20
7.3720050125
 30
0.0
 10
10.642216816
 20
7.3346107498
 30
0.0
 10
10.6734774862
 20
7.299204167
 30
0.0
 10
10.7070437301
 20
7.2659677543
 30
0.0
 10
10.7427425621
 20
7.235072916
 30
0.0
 10
10.7803899583
 20
7.2066789535
 30
0.0
 10
10.819791884
 20
7.1809323259
 30
0.0
 10
10.8607453192
 20
7.1579659814
 30
0.0
 10
10.9030391874
 20
7.1378985145
 30
0.0
 10
10.9464554919
 20
7.1208336258
 30
0.0
 10
10.9907704567
 20
7.1068596918
 30
0.0
 10
11.03575558
 20
7.0960491285
 30
0.0
 10
11.0811788884
 20
7.0884580793
 30
0.0
 10
11.1268059402
 20
7.0841262014
 30
0.0
 10
11.1724016886
 20
7.0830764157
 30
0.0
 10
11.2177290994
 20
7.0853142593
 30
0.0
 10
11.2551333262
 20
7.0899162763
 30
0.0
 10
11.2846788557
 20
7.0952260856
 30
0.0
 10
11.3066026262
 20
7.1000107954
 30
0.0
 10
11.3282855167
 20
7.1055958806
 30
0.0
 10
11.3496998856
 20
7.1119742307
 30
0.0
 10
11.370817957
 20
7.11913761
 30
0.0
 10
11.3916124913
 20
7.127076722
 30
0.0
 10
11.4120565874
 20
7.1357813821
 30
0.0
 10
11.4321238271
 20
7.1452403485
 30
0.0
 10
11.4517883004
 20
7.155441356
 30
0.0
 10
11.4710245695
 20
7.166371298
 30
0.0
 10
11.4898077509
 20
7.1780160282
 30
0.0
 10
11.5081136885
 20
7.1903605317
 30
0.0
 10
11.5259183512
 20
7.2033886489
 30
0.0
 10
11.5374420452
 20
7.2125213147
 30
0.0
 10
11.5431116384
 20
7.2171949845
 30
0.0
  0
SPLINE
  5
36C
100
AcDbEntity
  8
0
100
AcDbSpline
 62
7
  6
CONTINUOUS
 70
0
 71
3
 72
47
 73
43
 74
0
 42
0.0000001
 43
0.0000001
 44
0.0000000001
 40
0.0
 40
0.0
 40
0.0
 40
0.0
 40
0.0310739092
 40
0.0623050493
 40
0.093688793
 40
0.1252165054
 40
0.1568767965
 40
0.1886554889
 40
0.2205359759
 40
0.252499584
 40
0.2845259636
 40
0.3165935101
 40
0.3486797987
 40
0.3807620323
 40
0.4128174943
 40
0.4448239996
 40
0.4767603407
 40
0.5086067173
 40
0.5403451453
 40
0.5719598413
 40
0.6034375724
 40
0.6347679604
 40
0.6659437388
 40
0.6969609577
 40
0.7278191155
 40
0.7585212212
 40
0.7738184273
 40
0.7890793501
 40
0.8043053363
 40
0.819497931
 40
0.8346588746
 40
0.8497900954
 40
0.8648936935
 40
0.8799719343
 40
0.8950272361
 40
0.9100621516
 40
0.925079358
 40
0.9400816404
 40
0.9550718718
 40
0.9700530002
 40
0.9850280299
 40
1.0
 40
1.0
 40
1.0
 40
1.0
 10
10.6289119355
 20
7.7851312427
 30
0.0
 10
10.6289119355
 20
7.7722048568
 30
0.0
 10
10.6298762217
 20
7.746276732
 30
0.0
 10
10.6341815089
 20
7.7075086782
 30
0.0
 10
10.6413250468
 20
7.6689682645
 30
0.0
 10
10.6512673683
 20
7.6308698715
 30
0.0
 10
10.6639534338
 20
7.5934219797
 30
0.0
 10
10.6793132514
 20
7.556830313
 30
0.0
 10
10.6972622613
 20
7.521295635
 30
0.0
 10
10.7177017413
 20
7.4870129615
 30
0.0
 10
10.7405192941
 20
7.4541703704
 30
0.0
 10
10.7655895794
 20
7.422948074
 30
0.0
 10
10.7927749715
 20
7.3935174402
 30
0.0
 10
10.8219262052
 20
7.3660399693
 30
0.0
 10
10.85288329
 20
7.3406664939
 30
0.0
 10
10.885476388
 20
7.3175363954
 30
0.0
 10
10.9195266564
 20
7.2967767484
 30
0.0
 10
10.9548472502
 20
7.2785016468
 30
0.0
 10
10.9912443762
 20
7.2628116657
 30
0.0
 10
11.0285183029
 20
7.2497932555
 30
0.0
 10
11.0664644108
 20
7.2395181807
 30
0.0
 10
11.1048743966
 20
7.2320432605
 30
0.0
 10
11.1435372061
 20
7.2274100113
 30
0.0
 10
11.1822407969
 20
7.2256443829
 30
0.0
 10
11.2207709581
 20
7.2267562597
 30
0.0
 10
11.2526029118
 20
7.2300811663
 30
0.0
 10
11.2777614224
 20
7.2341700964
 30
0.0
 10
11.2964349229
 20
7.2379414058
 30
0.0
 10
11.3149075909
 20
7.2424155161
 30
0.0
 10
11.3331543409
 20
7.2475863882
 30
0.0
 10
11.3511499806
 20
7.2534468825
 30
0.0
 10
11.3688697893
 20
7.2599889108
 30
0.0
 10
11.3862893455
 20
7.2672035675
 30
0.0
 10
11.4033846999
 20
7.27508088
 30
0.0
 10
11.4201323359
 20
7.2836100047
 30
0.0
 10
11.4365091651
 20
7.2927792897
 30
0.0
 10
11.4524926836
 20
7.3025760531
 30
0.0
 10
11.4680608966
 20
7.3129868357
 30
0.0
 10
11.483192316
 20
7.3239973529
 30
0.0
 10
11.4978662412
 20
7.3355924572
 30
0.0
 10
11.5120621805
 20
7.3477559523
 30
0.0
 10
11.5211954341
 20
7.3562337056
 30
0.0
 10
11.5256750729
 20
7.3605607008
 30
0.0
  0
SPLINE
  5
36D
100
AcDbEntity
  8
0
100
AcDbSpline
 62
7
  6
CONTINUOUS
 70
0
 71
3
 72
43
 73
39
 74
0
 42
0.0000001
 43
0.0000001
 44
0.0000000001
 40
0.0
 40
0.0
 40
0.0
 40
0.0
 40
0.0309485948
 40
0.0620406286
 40
0.093272685
 40
0.124638059
 40
0.1561280529
 40
0.1877317075
 40
0.219436121
 40
0.2512266705
 40
0.2830872772
 40
0.3150006856
 40
0.3469487586
 40
0.3789127818
 40
0.4108737765
 40
0.4428128141
 40
0.4747113311
 40
0.5065514381
 40
0.5383162228
 40
0.5699900405
 40
0.6015587898
 40
0.6330101668
 40
0.6643338962
 40
0.6955219342
 40
0.7265686398
 40
0.7574709078
 40
0.788228259
 40
0.818842886
 40
0.8341003909
 40
0.8493242608
 40
0.8645155082
 40
0.8796753067
 40
0.909901273
 40
0.9400191537
 40
0.9550444074
 40
0.9700482213
 40
0.9850326877
 40
1.0
 40
1.0
 40
1.0
 40
1.0
 10
10.8195363281
 20
7.9562602775
 30
0.0
 10
10.8195363281
 20
7.9447320427
 30
0.0
 10
10.8203219339
 20
7.9216147108
 30
0.0
 10
10.8238324051
 20
7.8870240771
 30
0.0
 10
10.8296611284
 20
7.8525890424
 30
0.0
 10
10.8377812147
 20
7.8184696557
 30
0.0
 10
10.8481550973
 20
7.7848219738
 30
0.0
 10
10.8607350054
 20
7.7518004934
 30
0.0
 10
10.8754630273
 20
7.7195566369
 30
0.0
 10
10.8922714344
 20
7.6882382876
 30
0.0
 10
10.9110829968
 20
7.6579890643
 30
0.0
 10
10.9318113335
 20
7.6289476858
 30
0.0
 10
10.954361309
 20
7.6012473412
 30
0.0
 10
10.9786294546
 20
7.5750150787
 30
0.0
 10
11.0045044291
 20
7.550371213
 30
0.0
 10
11.0318675504
 20
7.5274288
 30
0.0
 10
11.0605933298
 20
7.5062931201
 30
0.0
 10
11.0905500416
 20
7.4870612005
 30
0.0
 10
11.1216003202
 20
7.4698213751
 30
0.0
 10
11.1536017672
 20
7.4546528494
 30
0.0
 10
11.1864076153
 20
7.441625365
 30
0.0
 10
11.2198673953
 20
7.4307988825
 30
0.0
 10
11.253827607
 20
7.4222233022
 30
0.0
 10
11.2881324482
 20
7.4159382439
 30
0.0
 10
11.3226243882
 20
7.4119728096
 30
0.0
 10
11.3571453619
 20
7.4103455253
 30
0.0
 10
11.3915357364
 20
7.4110639895
 30
0.0
 10
11.419990233
 20
7.4136185032
 30
0.0
 10
11.4425243897
 20
7.4168296977
 30
0.0
 10
11.4592769706
 20
7.4198147337
 30
0.0
 10
11.4758794478
 20
7.4233757129
 30
0.0
 10
11.4977665629
 20
7.428879798
 30
0.0
 10
11.5246659843
 20
7.4371761827
 30
0.0
 10
11.5508624496
 20
7.4473428299
 30
0.0
 10
11.5712880519
 20
7.4565588973
 30
0.0
 10
11.5863181524
 20
7.4639998939
 30
0.0
 10
11.6010517559
 20
7.4719658275
 30
0.0
 10
11.6106710142
 20
7.4776236491
 30
0.0
 10
11.6154248052
 20
7.4805365646
 30
0.0
  0
SPLINE
  5
36E
100
AcDbEntity
  8
0
100
AcDbSpline
 62
7
  6
CONTINUOUS
 70
0
 71
3
 72
42
 73
38
 74
0
 42
0.0000001
 43
0.0000001
 44
0.0000000001
 40
0.0
 40
0.0
 40
0.0
 40
0.0
 40
0.0309664565
 40
0.0620782184
 40
0.0933317265
 40
0.1247200295
 40
0.1562340915
 40
0.1878625482
 40
0.2195920266
 40
0.2514073874
 40
0.2832920027
 40
0.3152280527
 40
0.3471968365
 40
0.379179095
 40
0.41115534
 40
0.4431061858
 40
0.475012679
 40
0.506856624
 40
0.5386209001
 40
0.5702897636
 40
0.6018491332
 40
0.6332868528
 40
0.6645929289
 40
0.6957597373
 40
0.7267821909
 40
0.742240692
 40
0.7576624269
 40
0.7883916534
 40
0.8189775369
 40
0.8494259474
 40
0.8797454395
 40
0.894862645
 40
0.9099519896
 40
0.9250152255
 40
0.9400542425
 40
0.9700628065
 40
1.0
 40
1.0
 40
1.0
 40
1.0
 10
10.8343855672
 20
7.9601035419
 30
0.0
 10
10.8343855672
 20
7.9486607032
 30
0.0
 10
10.8351753497
 20
7.9257137688
 30
0.0
 10
10.8387040919
 20
7.8913813322
 30
0.0
 10
10.8445626275
 20
7.8572093921
 30
0.0
 10
10.8527232319
 20
7.8233608427
 30
0.0
 10
10.8631471911
 20
7.7899944654
 30
0.0
 10
10.8757852703
 20
7.7572673885
 30
0.0
 10
10.8905777898
 20
7.7253335197
 30
0.0
 10
10.9074549885
 20
7.6943430698
 30
0.0
 10
10.9263373392
 20
7.6644417917
 30
0.0
 10
10.9471359247
 20
7.6357703231
 30
0.0
 10
10.9697528469
 20
7.6084635264
 30
0.0
 10
10.9940816571
 20
7.5826498363
 30
0.0
 10
11.0200078892
 20
7.5584506863
 30
0.0
 10
11.0474095886
 20
7.5359799427
 30
0.0
 10
11.0761578812
 20
7.5153433763
 30
0.0
 10
11.1061175662
 20
7.4966381642
 30
0.0
 10
11.1371477316
 20
7.4799524037
 30
0.0
 10
11.1691024274
 20
7.4653647367
 30
0.0
 10
11.201831371
 20
7.4529439764
 30
0.0
 10
11.2351805246
 20
7.4427487905
 30
0.0
 10
11.268993253
 20
7.434827401
 30
0.0
 10
11.3031093883
 20
7.4292173673
 30
0.0
 10
11.3316961568
 20
7.4264873314
 30
0.0
 10
11.3545525832
 20
7.4254845217
 30
0.0
 10
11.3773215645
 20
7.4252684836
 30
0.0
 10
11.4056769735
 20
7.426467121
 30
0.0
 10
11.4394005448
 20
7.4302592509
 30
0.0
 10
11.4726254376
 20
7.4363854355
 30
0.0
 10
11.4997968257
 20
7.4434201582
 30
0.0
 10
11.5211202201
 20
7.4501817664
 30
0.0
 10
11.5368776824
 20
7.4558086755
 30
0.0
 10
11.5523952241
 20
7.4619892425
 30
0.0
 10
11.5727241396
 20
7.4709507253
 30
0.0
 10
11.5974562036
 20
7.4835007009
 30
0.0
 10
11.6164458606
 20
7.4949500407
 30
0.0
 10
11.6257039221
 20
7.5010053889
 30
0.0
  0
SPLINE
  5
36F
100
AcDbEntity
  8
0
100
AcDbSpline
 62
7
  6
CONTINUOUS
 70
0
 71
3
 72
43
 73
39
 74
0
 42
0.0000001
 43
0.0000001
 44
0.0000000001
 40
0.0
 40
0.0
 40
0.0
 40
0.0
 40
0.0309230566
 40
0.0619868819
 40
0.0931882515
 40
0.1245208071
 40
0.1559763197
 40
0.1875443952
 40
0.2192127887
 40
0.2509676005
 40
0.2827935212
 40
0.3146740897
 40
0.3465919645
 40
0.3785292058
 40
0.4104675632
 40
0.4423887689
 40
0.4742748293
 40
0.506108315
 40
0.5378726427
 40
0.5695523483
 40
0.6011333474
 40
0.6326031784
 40
0.6639512258
 40
0.6951689176
 40
0.7262498951
 40
0.7571901504
 40
0.7879881273
 40
0.8186447833
 40
0.8339233078
 40
0.8491680201
 40
0.8643797502
 40
0.8795594736
 40
0.9098230315
 40
0.9399738803
 40
0.9550132791
 40
0.9700294821
 40
0.9850243884
 40
1.0
 40
1.0
 40
1.0
 40
1.0
 10
10.8700542876
 20
7.9945568821
 30
0.0
 10
10.8700542876
 20
7.983465098
 30
0.0
 10
10.8707962689
 20
7.9612241421
 30
0.0
 10
10.8741123278
 20
7.9279404421
 30
0.0
 10
10.8796189504
 20
7.894798219
 30
0.0
 10
10.8872916576
 20
7.8619459468
 30
0.0
 10
10.8970962306
 20
7.8295284593
 30
0.0
 10
10.9089891489
 20
7.7976892237
 30
0.0
 10
10.9229176538
 20
7.766568974
 30
0.0
 10
10.938820009
 20
7.7363052883
 30
0.0
 10
10.9566257815
 20
7.7070319357
 30
0.0
 10
10.9762561559
 20
7.6788783094
 30
0.0
 10
10.9976242808
 20
7.6519688569
 30
0.0
 10
11.0206356489
 20
7.6264225359
 30
0.0
 10
11.045188513
 20
7.6023522961
 30
0.0
 10
11.0711743154
 20
7.579864566
 30
0.0
 10
11.0984781802
 20
7.5590587982
 30
0.0
 10
11.1269794179
 20
7.5400270364
 30
0.0
 10
11.1565520521
 20
7.5228535112
 30
0.0
 10
11.1870653705
 20
7.5076142691
 30
0.0
 10
11.2183844959
 20
7.4943768408
 30
0.0
 10
11.250370969
 20
7.4831999197
 30
0.0
 10
11.2828833553
 20
7.4741331163
 30
0.0
 10
11.315777895
 20
7.4672167455
 30
0.0
 10
11.3489090125
 20
7.4624816273
 30
0.0
 10
11.3821303889
 20
7.4599490059
 30
0.0
 10
11.4152939825
 20
7.4596302252
 30
0.0
 10
11.4427946568
 20
7.4612131015
 30
0.0
 10
11.4646140738
 20
7.4635861723
 30
0.0
 10
11.4808560853
 20
7.4659138063
 30
0.0
 10
11.4969742641
 20
7.4687885389
 30
0.0
 10
11.5182524771
 20
7.473341655
 30
0.0
 10
11.5444612708
 20
7.4803815609
 30
0.0
 10
11.5700710869
 20
7.4892072742
 30
0.0
 10
11.5900942487
 20
7.4973063569
 30
0.0
 10
11.6048559127
 20
7.5038885362
 30
0.0
 10
11.6193559981
 20
7.5109757173
 30
0.0
 10
11.6288440473
 20
7.5160352651
 30
0.0
 10
11.633538386
 20
7.5186462528
 30
0.0
  0
SPLINE
  5
370
100
AcDbEntity
  8
0
100
AcDbSpline
 62
7
  6
CONTINUOUS
 70
0
 71
3
 72
39
 73
35
 74
0
 42
0.0000001
 43
0.0000001
 44
0.0000000001
 40
0.0
 40
0.0
 40
0.0
 40
0.0
 40
0.0309878122
 40
0.0621231533
 40
0.0934022942
 40
0.1248179697
 40
0.156360741
 40
0.1880187445
 40
0.2197780353
 40
0.2516228452
 40
0.28353588
 40
0.3154986371
 40
0.3474917369
 40
0.3794952669
 40
0.411489132
 40
0.4434534068
 40
0.4753686853
 40
0.5072164241
 40
0.5389792772
 40
0.5706414128
 40
0.6021888113
 40
0.6336095369
 40
0.6648939808
 40
0.6960350702
 40
0.7270284345
 40
0.7578725256
 40
0.7885686884
 40
0.8191211762
 40
0.8495371094
 40
0.8798263705
 40
0.9100014369
 40
0.9400771544
 40
0.9700704512
 40
1.0
 40
1.0
 40
1.0
 40
1.0
 10
10.9288420339
 20
8.0033414879
 30
0.0
 10
10.9288420339
 20
7.9928062435
 30
0.0
 10
10.929580132
 20
7.9716784274
 30
0.0
 10
10.9328775147
 20
7.9400712989
 30
0.0
 10
10.9383513474
 20
7.9086186917
 30
0.0
 10
10.945974943
 20
7.8774750565
 30
0.0
 10
10.9557110403
 20
7.8467908859
 30
0.0
 10
10.9675122687
 20
7.8167150295
 30
0.0
 10
10.9813212229
 20
7.7873931869
 30
0.0
 10
10.9970708178
 20
7.7589674354
 30
0.0
 10
11.0146846051
 20
7.7315754914
 30
0.0
 10
11.0340771422
 20
7.7053500692
 30
0.0
 10
11.055154405
 20
7.6804182439
 30
0.0
 10
11.0778142094
 20
7.6569008172
 30
0.0
 10
11.1019467313
 20
7.634911755
 30
0.0
 10
11.1274350362
 20
7.6145576464
 30
0.0
 10
11.1541556377
 20
7.5959371899
 30
0.0
 10
11.1819790903
 20
7.579140725
 30
0.0
 10
11.210770589
 20
7.5642497617
 30
0.0
 10
11.2403906347
 20
7.5513366102
 30
0.0
 10
11.270695704
 20
7.5404640401
 30
0.0
 10
11.3015389328
 20
7.5316849723
 30
0.0
 10
11.3327708184
 20
7.5250422271
 30
0.0
 10
11.3642399265
 20
7.5205682711
 30
0.0
 10
11.3957936273
 20
7.5182850784
 30
0.0
 10
11.4272788268
 20
7.5182040269
 30
0.0
 10
11.4585426995
 20
7.5203258272
 30
0.0
 10
11.4894334266
 20
7.5246405152
 30
0.0
 10
11.519800921
 20
7.5311274344
 30
0.0
 10
11.5494976174
 20
7.5397553835
 30
0.0
 10
11.5783789763
 20
7.5504826175
 30
0.0
 10
11.6063049868
 20
7.5632575839
 30
0.0
 10
11.6331379126
 20
7.5780171096
 30
0.0
 10
11.6502296349
 20
7.5891446024
 30
0.0
 10
11.6585443446
 20
7.5950102228
 30
0.0
  0
SPLINE
  5
371
100
AcDbEntity
  8
0
100
AcDbSpline
 62
7
  6
CONTINUOUS
 70
0
 71
3
 72
23
 73
19
 74
0
 42
0.0000001
 43
0.0000001
 44
0.0000000001
 40
0.0
 40
0.0
 40
0.0
 40
0.0
 40
0.0637776914
 40
0.1273445726
 40
0.19070205
 40
0.2538561286
 40
0.3168131755
 40
0.3795820937
 40
0.4421733816
 40
0.5045993375
 40
0.566873868
 40
0.6290123843
 40
0.691031656
 40
0.7529496505
 40
0.8147853588
 40
0.8765586069
 40
0.938289857
 40
1.0
 40
1.0
 40
1.0
 40
1.0
 10
9.3314677874
 20
8.8915067198
 30
0.0
 10
9.3314677874
 20
8.9006868847
 30
0.0
 10
9.3319071505
 20
8.9190199827
 30
0.0
 10
9.3338904077
 20
8.9464081773
 30
0.0
 10
9.3371924069
 20
8.9735791753
 30
0.0
 10
9.3418054594
 20
9.0004694131
 30
0.0
 10
9.3477190986
 20
9.0270172316
 30
0.0
 10
9.3549196983
 20
9.0531613299
 30
0.0
 10
9.3633907465
 20
9.0788414594
 30
0.0
 10
9.3731127612
 20
9.1039983947
 30
0.0
 10
9.3840633853
 20
9.1285741173
 30
0.0
 10
9.3962174173
 20
9.1525119411
 30
0.0
 10
9.4095468644
 20
9.1757566445
 30
0.0
 10
9.4240210328
 20
9.1982546161
 30
0.0
 10
9.4396065205
 20
9.2199539048
 30
0.0
 10
9.4562675784
 20
9.2408046228
 30
0.0
 10
9.473965135
 20
9.2607580119
 30
0.0
 10
9.4864296431
 20
9.2734337092
 30
0.0
 10
9.492818458
 20
9.2796048475
 30
0.0
  0
SPLINE
  5
372
100
AcDbEntity
  8
0
100
AcDbSpline
 62
7
  6
CONTINUOUS
 70
0
 71
3
 72
39
 73
35
 74
0
 42
0.0000001
 43
0.0000001
 44
0.0000000001
 40
0.0
 40
0.0
 40
0.0
 40
0.0
 40
0.0306777852
 40
0.0614699456
 40
0.0923740137
 40
0.1233870611
 40
0.154504434
 40
0.1857205199
 40
0.2170285347
 40
0.2484207091
 40
0.2798883482
 40
0.3114219428
 40
0.3430112738
 40
0.374645526
 40
0.4063134063
 40
0.4380032648
 40
0.4697032188
 40
0.5014012794
 40
0.5330854773
 40
0.56474399
 40
0.5963652669
 40
0.6279381527
 40
0.659452008
 40
0.6908968256
 40
0.7222633421
 40
0.7535431434
 40
0.7847287633
 40
0.8158137741
 40
0.8467928669
 40
0.8776619231
 40
0.908418073
 40
0.9390597422
 40
0.9695866846
 40
1.0
 40
1.0
 40
1.0
 40
1.0
 10
11.1470263088
 20
8.2140913265
 30
0.0
 10
11.1470263088
 20
8.2059187166
 30
0.0
 10
11.1474701329
 20
8.189539655
 30
0.0
 10
11.1494565785
 20
8.1650001956
 30
0.0
 10
11.152759169
 20
8.1405122363
 30
0.0
 10
11.1573680832
 20
8.1161483644
 30
0.0
 10
11.1632698447
 20
8.0919794677
 30
0.0
 10
11.1704471007
 20
8.0680762589
 30
0.0
 10
11.1788788357
 20
8.0445085482
 30
0.0
 10
11.18854035
 20
8.0213451932
 30
0.0
 10
11.1994033703
 20
7.9986538569
 30
0.0
 10
11.2114361164
 20
7.9765008224
 30
0.0
 10
11.2246034004
 20
7.9549507983
 30
0.0
 10
11.2388667268
 20
7.9340667313
 30
0.0
 10
11.2541844057
 20
7.9139096238
 30
0.0
 10
11.2705116736
 20
7.8945383562
 30
0.0
 10
11.2878008239
 20
7.8760095169
 30
0.0
 10
11.306001344
 20
7.8583772357
 30
0.0
 10
11.3250600638
 20
7.8416930281
 30
0.0
 10
11.34492131
 20
7.8260056454
 30
0.0
 10
11.3655270679
 20
7.8113609329
 30
0.0
 10
11.3868171497
 20
7.7978016969
 30
0.0
 10
11.4087293692
 20
7.7853675797
 30
0.0
 10
11.4311997226
 20
7.7740949445
 30
0.0
 10
11.4541625733
 20
7.7640167691
 30
0.0
 10
11.4775508432
 20
7.75516255
 30
0.0
 10
11.5012962062
 20
7.7475582156
 30
0.0
 10
11.5253292882
 20
7.7412260501
 30
0.0
 10
11.5495798607
 20
7.7361846277
 30
0.0
 10
11.5739770742
 20
7.7324487596
 30
0.0
 10
11.598449551
 20
7.7300294386
 30
0.0
 10
11.6229260125
 20
7.728933848
 30
0.0
 10
11.6473339266
 20
7.7291651737
 30
0.0
 10
11.6635447731
 20
7.730205776
 30
0.0
 10
11.6716129146
 20
7.7309473984
 30
0.0
  0
SPLINE
  5
373
100
AcDbEntity
  8
0
100
AcDbSpline
 62
7
  6
CONTINUOUS
 70
0
 71
3
 72
39
 73
35
 74
0
 42
0.0000001
 43
0.0000001
 44
0.0000000001
 40
0.0
 40
0.0
 40
0.0
 40
0.0
 40
0.0306705073
 40
0.0614546036
 40
0.0923496381
 40
0.1233529206
 40
0.1544598298
 40
0.1856649067
 40
0.2169615111
 40
0.2483420467
 40
0.2797980056
 40
0.3113200785
 40
0.3428982551
 40
0.3745219342
 40
0.4061800376
 40
0.4378611281
 40
0.4695535288
 40
0.5012454455
 40
0.5329250892
 40
0.5645807983
 40
0.5962011607
 40
0.6277751331
 40
0.6592921587
 40
0.6907422805
 40
0.7221162502
 40
0.7534056323
 40
0.7846029001
 40
0.8157015252
 40
0.8466960576
 40
0.8775821964
 40
0.9083568489
 40
0.9390181789
 40
0.9695656406
 40
1.0
 40
1.0
 40
1.0
 40
1.0
 10
11.1837686503
 20
8.2195817051
 30
0.0
 10
11.1837686503
 20
8.2119922621
 30
0.0
 10
11.1841775777
 20
8.1967821854
 30
0.0
 10
11.1860078953
 20
8.1739933813
 30
0.0
 10
11.189051047
 20
8.1512509816
 30
0.0
 10
11.1932980826
 20
8.1286213818
 30
0.0
 10
11.1987368068
 20
8.1061693751
 30
0.0
 10
11.2053514608
 20
8.0839596408
 30
0.0
 10
11.2131229851
 20
8.0620560323
 30
0.0
 10
11.2220289659
 20
8.0405215519
 30
0.0
 10
11.2320437473
 20
8.0194181274
 30
0.0
 10
11.2431384866
 20
7.9988064467
 30
0.0
 10
11.2552812443
 20
7.9787457821
 30
0.0
 10
11.268437071
 20
7.9592938202
 30
0.0
 10
11.2825681084
 20
7.9405064959
 30
0.0
 10
11.2976337006
 20
7.9224378348
 30
0.0
 10
11.3135905096
 20
7.9051397978
 30
0.0
 10
11.3303926399
 20
7.8886621334
 30
0.0
 10
11.3479917693
 20
7.8730522348
 30
0.0
 10
11.3663372875
 20
7.8583550049
 30
0.0
 10
11.3853764402
 20
7.8446127278
 30
0.0
 10
11.4050544802
 20
7.8318649474
 30
0.0
 10
11.4253148237
 20
7.8201483544
 30
0.0
 10
11.4460992115
 20
7.8094966813
 30
0.0
 10
11.4673478745
 20
7.7999406017
 30
0.0
 10
11.4889997057
 20
7.7915076445
 30
0.0
 10
11.5109924348
 20
7.784222116
 30
0.0
 10
11.5332628079
 20
7.7781050291
 30
0.0
 10
11.5557467601
 20
7.7731740425
 30
0.0
 10
11.5783796264
 20
7.7694434107
 30
0.0
 10
11.6010962229
 20
7.766923934
 30
0.0
 10
11.6238314167
 20
7.7656229579
 30
0.0
 10
11.6465188871
 20
7.7655442318
 30
0.0
 10
11.661598323
 20
7.7663083682
 30
0.0
 10
11.6691064768
 20
7.7668946337
 30
0.0
  0
SPLINE
  5
374
100
AcDbEntity
  8
0
100
AcDbSpline
 62
7
  6
CONTINUOUS
 70
0
 71
3
 72
8
 73
4
 74
0
 42
0.0000001
 43
0.0000001
 44
0.0000000001
 40
0.0
 40
0.0
 40
0.0
 40
0.0
 40
1.0
 40
1.0
 40
1.0
 40
1.0
 10
11.6691064768
 20
7.7668946337
 30
0.0
 10
11.6691341136
 20
7.7668967945
 30
0.0
 10
11.6691617504
 20
7.7668989553
 30
0.0
 10
11.6691893871
 20
7.766901116
 30
0.0
  0
SPLINE
  5
375
100
AcDbEntity
  8
0
100
AcDbSpline
 62
7
  6
CONTINUOUS
 70
0
 71
3
 72
23
 73
19
 74
0
 42
0.0000001
 43
0.0000001
 44
0.0000000001
 40
0.0
 40
0.0
 40
0.0
 40
0.0
 40
0.0620433451
 40
0.1242632334
 40
0.1866388041
 40
0.2491472183
 40
0.3117639583
 40
0.3744631447
 40
0.4372178672
 40
0.5000005227
 40
0.5627831606
 40
0.6255378306
 40
0.6882369303
 40
0.7508535504
 40
0.8133618136
 40
0.8757372039
 40
0.9379568845
 40
1.0
 40
1.0
 40
1.0
 40
1.0
 10
11.3736739925
 20
8.1809696532
 30
0.0
 10
11.3758030866
 20
8.1746680544
 30
0.0
 10
11.3804239904
 20
8.1621642786
 30
0.0
 10
11.38840242
 20
8.143803782
 30
0.0
 10
11.3974118922
 20
8.1258701697
 30
0.0
 10
11.407421098
 20
8.108425952
 30
0.0
 10
11.4183956179
 20
8.0915309438
 30
0.0
 10
11.4302976328
 20
8.0752433414
 30
0.0
 10
11.4430861634
 20
8.0596191792
 30
0.0
 10
11.4567171807
 20
8.044712231
 30
0.0
 10
11.4711437648
 20
8.0305738017
 30
0.0
 10
11.4863162641
 20
8.0172525575
 30
0.0
 10
11.5021824598
 20
8.0047943608
 30
0.0
 10
11.5186877684
 20
7.993242104
 30
0.0
 10
11.5357753364
 20
7.9826355963
 30
0.0
 10
11.5533865753
 20
7.9730113046
 30
0.0
 10
11.5714600959
 20
7.9644026824
 30
0.0
 10
11.5837965372
 20
7.9593521249
 30
0.0
 10
11.5900207106
 20
7.9570063783
 30
0.0
  0
SPLINE
  5
376
100
AcDbEntity
  8
0
100
AcDbSpline
 62
7
  6
CONTINUOUS
 70
0
 71
3
 72
23
 73
19
 74
0
 42
0.0000001
 43
0.0000001
 44
0.0000000001
 40
0.0
 40
0.0
 40
0.0
 40
0.0
 40
0.0637776914
 40
0.1273445726
 40
0.19070205
 40
0.2538561286
 40
0.3168131755
 40
0.3795820937
 40
0.4421733816
 40
0.5045993375
 40
0.566873868
 40
0.6290123843
 40
0.691031656
 40
0.7529496505
 40
0.8147853588
 40
0.8765586069
 40
0.938289857
 40
1.0
 40
1.0
 40
1.0
 40
1.0
 10
9.1508396697
 20
7.5758852324
 30
0.0
 10
9.1508396697
 20
7.5850653973
 30
0.0
 10
9.1512790328
 20
7.6033984953
 30
0.0
 10
9.1532622901
 20
7.63078669
 30
0.0
 10
9.1565642893
 20
7.657957688
 30
0.0
 10
9.1611773418
 20
7.6848479258
 30
0.0
 10
9.1670909809
 20
7.7113957442
 30
0.0
 10
9.1742915807
 20
7.7375398426
 30
0.0
 10
9.1827626288
 20
7.7632199721
 30
0.0
 10
9.1924846435
 20
7.7883769074
 30
0.0
 10
9.2034352677
 20
7.81295263
 30
0.0
 10
9.2155892996
 20
7.8368904538
 30
0.0
 10
9.2289187468
 20
7.8601351571
 30
0.0
 10
9.2433929152
 20
7.8826331288
 30
0.0
 10
9.2589784028
 20
7.9043324175
 30
0.0
 10
9.2756394607
 20
7.9251831354
 30
0.0
 10
9.2933370173
 20
7.9451365246
 30
0.0
 10
9.3058015254
 20
7.9578122218
 30
0.0
 10
9.3121903404
 20
7.9639833602
 30
0.0
  0
SPLINE
  5
377
100
AcDbEntity
  8
0
100
AcDbSpline
 62
7
  6
CONTINUOUS
 70
0
 71
3
 72
16
 73
12
 74
0
 42
0.0000001
 43
0.0000001
 44
0.0000000001
 40
0.0
 40
0.0
 40
0.0
 40
0.0
 40
0.1081438004
 40
0.2181183901
 40
0.3316584123
 40
0.4503238902
 40
0.5120299654
 40
0.5755047503
 40
0.7082522627
 40
0.8495197655
 40
1.0
 40
1.0
 40
1.0
 40
1.0
 10
12.0790601422
 20
8.5446583368
 30
0.0
 10
12.0796547183
 20
8.5446170964
 30
0.0
 10
12.080861147
 20
8.5446157114
 30
0.0
 10
12.0826778381
 20
8.5448583987
 30
0.0
 10
12.0845048392
 20
8.5453444857
 30
0.0
 10
12.0860138778
 20
8.5459430141
 30
0.0
 10
12.0872206706
 20
8.5465354051
 30
0.0
 10
12.0884640973
 20
8.5472254056
 30
0.0
 10
12.0900234375
 20
8.5482443755
 30
0.0
 10
12.0918694821
 20
8.5496851155
 30
0.0
 10
12.0930617243
 20
8.5507662077
 30
0.0
 10
12.0936582238
 20
8.551342382
 30
0.0
  0
SPLINE
  5
378
100
AcDbEntity
  8
0
100
AcDbSpline
 62
7
  6
CONTINUOUS
 70
0
 71
3
 72
47
 73
43
 74
0
 42
0.0000001
 43
0.0000001
 44
0.0000000001
 40
0.0
 40
0.0
 40
0.0
 40
0.0
 40
0.0310617538
 40
0.0622793645
 40
0.093648285
 40
0.1251601354
 40
0.1568038006
 40
0.1885654579
 40
0.2204289022
 40
0.2523758947
 40
0.2843865427
 40
0.3164397019
 40
0.3485133947
 40
0.380585243
 40
0.4126329046
 40
0.4446345102
 40
0.4765690922
 40
0.5084170022
 40
0.5401603123
 40
0.5717831855
 40
0.6032722176
 40
0.6346167445
 40
0.6658090932
 40
0.6968447865
 40
0.7277226895
 40
0.7584450799
 40
0.7737523192
 40
0.7890230989
 40
0.8042586531
 40
0.8194604121
 40
0.8346300018
 40
0.8497692331
 40
0.8648800897
 40
0.8799647221
 40
0.8950254351
 40
0.9100646711
 40
0.9250850012
 40
0.9400891093
 40
0.9550797736
 40
0.9700598536
 40
0.985032273
 40
1.0
 40
1.0
 40
1.0
 40
1.0
 10
9.3397499902
 20
8.8995067138
 30
0.0
 10
9.3397499902
 20
8.8853884052
 30
0.0
 10
9.3407939404
 20
8.8570702695
 30
0.0
 10
9.3454552789
 20
8.8147253316
 30
0.0
 10
9.3531901774
 20
8.7726228089
 30
0.0
 10
9.3639566355
 20
8.7309928434
 30
0.0
 10
9.3776960567
 20
8.6900592687
 30
0.0
 10
9.3943339875
 20
8.650043071
 30
0.0
 10
9.4137804456
 20
8.6111600112
 30
0.0
 10
9.4359302472
 20
8.5736197389
 30
0.0
 10
9.4606637537
 20
8.5376246557
 30
0.0
 10
9.4878474941
 20
8.5033688819
 30
0.0
 10
9.5173347333
 20
8.4710370974
 30
0.0
 10
9.5489664171
 20
8.4408036702
 30
0.0
 10
9.5825719982
 20
8.4128317384
 30
0.0
 10
9.6179702279
 20
8.3872721943
 30
0.0
 10
9.6549702565
 20
8.3642630201
 30
0.0
 10
9.6933726247
 20
8.3439285563
 30
0.0
 10
9.7329702375
 20
8.3263786682
 30
0.0
 10
9.7735495734
 20
8.3117083235
 30
0.0
 10
9.8148917778
 20
8.299997077
 30
0.0
 10
9.8567738269
 20
8.2913084627
 30
0.0
 10
9.8989695955
 20
8.2856898006
 30
0.0
 10
9.9412517163
 20
8.2831720378
 30
0.0
 10
9.9833902476
 20
8.2837689398
 30
0.0
 10
10.0182450157
 20
8.2868643936
 30
0.0
 10
10.045820466
 20
8.2908913262
 30
0.0
 10
10.0663021559
 20
8.2946767528
 30
0.0
 10
10.0865785135
 20
8.2992256951
 30
0.0
 10
10.106622485
 20
8.3045321029
 30
0.0
 10
10.1264068867
 20
8.3105887536
 30
0.0
 10
10.1459050019
 20
8.317387469
 30
0.0
 10
10.1650904356
 20
8.3249191373
 30
0.0
 10
10.1839372687
 20
8.3331735299
 30
0.0
 10
10.2024200213
 20
8.3421394926
 30
0.0
 10
10.2205136678
 20
8.351804977
 30
0.0
 10
10.2381937651
 20
8.3621568657
 30
0.0
 10
10.255436416
 20
8.3731811702
 30
0.0
 10
10.2722182405
 20
8.3848630281
 30
0.0
 10
10.2885166566
 20
8.3971866739
 30
0.0
 10
10.3043093323
 20
8.4101351516
 30
0.0
 10
10.3144880103
 20
8.4191739266
 30
0.0
 10
10.3194850324
 20
8.4237905439
 30
0.0
  0
SPLINE
  5
379
100
AcDbEntity
  8
0
100
AcDbSpline
 62
7
  6
CONTINUOUS
 70
0
 71
3
 72
23
 73
19
 74
0
 42
0.0000001
 43
0.0000001
 44
0.0000000001
 40
0.0
 40
0.0
 40
0.0
 40
0.0
 40
0.063757936
 40
0.1273111887
 40
0.1906601787
 40
0.2538110277
 40
0.3167693767
 40
0.3795434908
 40
0.4421430497
 40
0.504579406
 40
0.5668654234
 40
0.6290153729
 40
0.6910448114
 40
0.7529704394
 40
0.814809948
 40
0.876581854
 40
0.9383053257
 40
1.0
 40
1.0
 40
1.0
 40
1.0
 10
9.3397499902
 20
8.8995067138
 30
0.0
 10
9.3397499902
 20
8.9084394766
 30
0.0
 10
9.3401660118
 20
8.9262791904
 30
0.0
 10
9.3420437301
 20
8.952934883
 30
0.0
 10
9.3451702661
 20
8.9793881475
 30
0.0
 10
9.3495386587
 20
9.0055803351
 30
0.0
 10
9.3551395684
 20
9.0314546391
 30
0.0
 10
9.3619607594
 20
9.056954477
 30
0.0
 10
9.3699874346
 20
9.0820242203
 30
0.0
 10
9.3792021164
 20
9.1066091321
 30
0.0
 10
9.3895847312
 20
9.1306555409
 30
0.0
 10
9.4011126551
 20
9.1541109431
 30
0.0
 10
9.4137607551
 20
9.1769241161
 30
0.0
 10
9.427501464
 20
9.1990452487
 30
0.0
 10
9.4423047685
 20
9.2204259812
 30
0.0
 10
9.4581385362
 20
9.2410197714
 30
0.0
 10
9.4749675983
 20
9.2607810397
 30
0.0
 10
9.486829
 20
9.273374518
 30
0.0
 10
9.4929110188
 20
9.2795163776
 30
0.0
  0
SPLINE
  5
37A
100
AcDbEntity
  8
0
100
AcDbSpline
 62
7
  6
CONTINUOUS
 70
0
 71
3
 72
71
 73
67
 74
0
 42
0.0000001
 43
0.0000001
 44
0.0000000001
 40
0.0
 40
0.0
 40
0.0
 40
0.0
 40
0.0155841868
 40
0.0311159674
 40
0.0465952419
 40
0.0620238831
 40
0.0774034499
 40
0.0927362823
 40
0.1080251235
 40
0.1232731729
 40
0.1384840549
 40
0.153661776
 40
0.1688106901
 40
0.1839354534
 40
0.1990409783
 40
0.2141323818
 40
0.2292149316
 40
0.2442939896
 40
0.2593749544
 40
0.2744632044
 40
0.2895640405
 40
0.3046826297
 40
0.3198239503
 40
0.3349927393
 40
0.3501934439
 40
0.3654301771
 40
0.3807066779
 40
0.3960262747
 40
0.4113918551
 40
0.4268058389
 40
0.4422701591
 40
0.457786248
 40
0.4733550285
 40
0.4889769091
 40
0.5046517848
 40
0.5203790431
 40
0.5361575761
 40
0.5519857959
 40
0.5678616537
 40
0.5837826614
 40
0.5997459183
 40
0.6157481416
 40
0.6317856992
 40
0.647854644
 40
0.6639507501
 40
0.6800695513
 40
0.696206382
 40
0.7123564195
 40
0.7285147266
 40
0.7446762933
 40
0.7608360806
 40
0.7769890651
 40
0.7931302832
 40
0.8092548745
 40
0.8253581235
 40
0.8414355011
 40
0.8574827059
 40
0.8734957052
 40
0.8894707697
 40
0.9054045134
 40
0.921293918
 40
0.9371363619
 40
0.952929726
 40
0.9686720559
 40
0.9843626909
 40
1.0
 40
1.0
 40
1.0
 40
1.0
 10
9.5136166492
 20
8.8874490201
 30
0.0
 10
9.5136166492
 20
8.8939961712
 30
0.0
 10
9.5139370679
 20
8.9070707778
 30
0.0
 10
9.5153833851
 20
8.9266002984
 30
0.0
 10
9.5177913529
 20
8.9459694161
 30
0.0
 10
9.5211549963
 20
8.9651306488
 30
0.0
 10
9.5254664109
 20
8.9840381371
 30
0.0
 10
9.5307151996
 20
9.0026461915
 30
0.0
 10
9.5368887726
 20
9.0209099779
 30
0.0
 10
9.5439722749
 20
9.0387854542
 30
0.0
 10
9.5519486653
 20
9.0562295137
 30
0.0
 10
9.5607987513
 20
9.0732000813
 30
0.0
 10
9.5705012339
 20
9.0896562136
 30
0.0
 10
9.5810327457
 20
9.1055582067
 30
0.0
 10
9.5923678944
 20
9.1208677044
 30
0.0
 10
9.6044793538
 20
9.1355477748
 30
0.0
 10
9.6173379233
 20
9.1495630022
 30
0.0
 10
9.6309125994
 20
9.1628795713
 30
0.0
 10
9.6451706492
 20
9.1754653496
 30
0.0
 10
9.6600776671
 20
9.1872899938
 30
0.0
 10
9.6755976858
 20
9.1983249989
 30
0.0
 10
9.6916932633
 20
9.2085437655
 30
0.0
 10
9.708325572
 20
9.2179216648
 30
0.0
 10
9.7254544954
 20
9.2264360915
 30
0.0
 10
9.7430387103
 20
9.2340665484
 30
0.0
 10
9.7610357983
 20
9.2407946836
 30
0.0
 10
9.7794023562
 20
9.2466043173
 30
0.0
 10
9.7980940978
 20
9.2514814845
 30
0.0
 10
9.8170659611
 20
9.2554144617
 30
0.0
 10
9.8362722122
 20
9.2583938111
 30
0.0
 10
9.8556665569
 20
9.260412417
 30
0.0
 10
9.8752022587
 20
9.2614654688
 30
0.0
 10
9.8948322495
 20
9.2615504776
 30
0.0
 10
9.9145092409
 20
9.2606672788
 30
0.0
 10
9.9341858356
 20
9.2588180329
 30
0.0
 10
9.953814645
 20
9.2560072537
 30
0.0
 10
9.9733484033
 20
9.2522417611
 30
0.0
 10
9.9927400788
 20
9.2475306645
 30
0.0
 10
10.0119429856
 20
9.2418853411
 30
0.0
 10
10.030910891
 20
9.2353194041
 30
0.0
 10
10.0495981369
 20
9.2278486996
 30
0.0
 10
10.0679597472
 20
9.2194912539
 30
0.0
 10
10.0859515296
 20
9.2102672138
 30
0.0
 10
10.1035301814
 20
9.2001988039
 30
0.0
 10
10.1206533893
 20
9.1893102695
 30
0.0
 10
10.1372799382
 20
9.1776278331
 30
0.0
 10
10.1533698206
 20
9.1651796414
 30
0.0
 10
10.168884315
 20
9.1519956707
 30
0.0
 10
10.1837860809
 20
9.1381076611
 30
0.0
 10
10.1980392457
 20
9.1235490397
 30
0.0
 10
10.2116094896
 20
9.1083548426
 30
0.0
 10
10.2244641547
 20
9.0925616524
 30
0.0
 10
10.2365722992
 20
9.0762074861
 30
0.0
 10
10.2479047705
 20
9.0593317046
 30
0.0
 10
10.258434275
 20
9.041974921
 30
0.0
 10
10.2681354379
 20
9.0241789018
 30
0.0
 10
10.2769848923
 20
9.0059864821
 30
0.0
 10
10.2849613241
 20
8.9874414532
 30
0.0
 10
10.2920455102
 20
8.9685884512
 30
0.0
 10
10.2982203644
 20
8.9494728529
 30
0.0
 10
10.3034709735
 20
8.9301406758
 30
0.0
 10
10.3077846769
 20
8.9106384291
 30
0.0
 10
10.3111509974
 20
8.8910131784
 30
0.0
 10
10.3135619389
 20
8.8713118486
 30
0.0
 10
10.3150114348
 20
8.8515826998
 30
0.0
 10
10.3153351325
 20
8.838419123
 30
0.0
 10
10.3153351325
 20
8.8318496544
 30
0.0
  0
SPLINE
  5
37B
100
AcDbEntity
  8
0
100
AcDbSpline
 62
7
  6
CONTINUOUS
 70
0
 71
3
 72
16
 73
12
 74
0
 42
0.0000001
 43
0.0000001
 44
0.0000000001
 40
0.0
 40
0.0
 40
0.0
 40
0.0
 40
0.1081438004
 40
0.2181183901
 40
0.3316584123
 40
0.4503238902
 40
0.5120299654
 40
0.5755047503
 40
0.7082522627
 40
0.8495197655
 40
1.0
 40
1.0
 40
1.0
 40
1.0
 10
12.0790601422
 20
6.8542881558
 30
0.0
 10
12.0796547183
 20
6.8542469154
 30
0.0
 10
12.080861147
 20
6.8542455304
 30
0.0
 10
12.0826778381
 20
6.8544882177
 30
0.0
 10
12.0845048392
 20
6.8549743047
 30
0.0
 10
12.0860138778
 20
6.8555728331
 30
0.0
 10
12.0872206706
 20
6.856165224
 30
0.0
 10
12.0884640973
 20
6.8568552246
 30
0.0
 10
12.0900234375
 20
6.8578741945
 30
0.0
 10
12.0918694821
 20
6.8593149345
 30
0.0
 10
12.0930617243
 20
6.8603960267
 30
0.0
 10
12.0936582238
 20
6.860972201
 30
0.0
  0
SPLINE
  5
37C
100
AcDbEntity
  8
0
100
AcDbSpline
 62
7
  6
CONTINUOUS
 70
0
 71
3
 72
23
 73
19
 74
0
 42
0.0000001
 43
0.0000001
 44
0.0000000001
 40
0.0
 40
0.0
 40
0.0
 40
0.0
 40
0.0637770481
 40
0.1273448966
 40
0.1907019688
 40
0.2538561314
 40
0.3168131981
 40
0.3795820903
 40
0.4421733865
 40
0.5045993362
 40
0.5668738674
 40
0.6290123827
 40
0.6910316513
 40
0.7529496439
 40
0.8147853535
 40
0.8765586049
 40
0.9382898569
 40
1.0
 40
1.0
 40
1.0
 40
1.0
 10
9.5626064378
 20
8.8947695249
 30
0.0
 10
9.5626064378
 20
8.9005553033
 30
0.0
 10
9.562883373
 20
8.9121098423
 30
0.0
 10
9.5641332951
 20
8.9293713602
 30
0.0
 10
9.5662144348
 20
8.9464960479
 30
0.0
 10
9.5691218083
 20
8.9634437066
 30
0.0
 10
9.5728489178
 20
8.9801755835
 30
0.0
 10
9.577387157
 20
8.9966530007
 30
0.0
 10
9.5827260898
 20
9.0128379993
 30
0.0
 10
9.5888534459
 20
9.0286932553
 30
0.0
 10
9.5957551337
 20
9.0441822001
 30
0.0
 10
9.6034152927
 20
9.0592690968
 30
0.0
 10
9.6118162623
 20
9.0739191487
 30
0.0
 10
9.6209386896
 20
9.0880985726
 30
0.0
 10
9.6307615252
 20
9.1017746264
 30
0.0
 10
9.6412622552
 20
9.1149158548
 30
0.0
 10
9.6524162529
 20
9.1274915266
 30
0.0
 10
9.6602720909
 20
9.1354804069
 30
0.0
 10
9.6642986744
 20
9.1393697856
 30
0.0
  0
SPLINE
  5
37D
100
AcDbEntity
  8
0
100
AcDbSpline
 62
7
  6
CONTINUOUS
 70
0
 71
3
 72
47
 73
43
 74
0
 42
0.0000001
 43
0.0000001
 44
0.0000000001
 40
0.0
 40
0.0
 40
0.0
 40
0.0
 40
0.0151213166
 40
0.0302757039
 40
0.0454629333
 40
0.0606853178
 40
0.0912356241
 40
0.1219403998
 40
0.1373551379
 40
0.1528100115
 40
0.1683050639
 40
0.1838401017
 40
0.2150229841
 40
0.2463581517
 40
0.2778364136
 40
0.3094455133
 40
0.3411704252
 40
0.3729937004
 40
0.4048958531
 40
0.4368557771
 40
0.4688511866
 40
0.5008590735
 40
0.5328561766
 40
0.564819454
 40
0.5967265514
 40
0.628556261
 40
0.6602889637
 40
0.6919070499
 40
0.7233953055
 40
0.7547412607
 40
0.7859354908
 40
0.8169718648
 40
0.8324326052
 40
0.8478531845
 40
0.8632338373
 40
0.8785750172
 40
0.9091362966
 40
0.9395506969
 40
0.9547091875
 40
0.9698355737
 40
0.9849318033
 40
1.0
 40
1.0
 40
1.0
 40
1.0
 10
9.8023702168
 20
9.2003598107
 30
0.0
 10
9.8008655049
 20
9.1964929339
 30
0.0
 10
9.7980047154
 20
9.1886906191
 30
0.0
 10
9.7941703946
 20
9.1768162268
 30
0.0
 10
9.7907938259
 20
9.164774483
 30
0.0
 10
9.7869042742
 20
9.1485018413
 30
0.0
 10
9.7832118415
 20
9.1278212244
 30
0.0
 10
9.7811041972
 20
9.1068670588
 30
0.0
 10
9.7803675656
 20
9.0899836373
 30
0.0
 10
9.7802912933
 20
9.0772582056
 30
0.0
 10
9.7806923379
 20
9.0645058651
 30
0.0
 10
9.7818637352
 20
9.047471462
 30
0.0
 10
9.7845214612
 20
9.0261976733
 30
0.0
 10
9.789590143
 20
9.0008850378
 30
0.0
 10
9.7965138235
 20
8.9758938837
 30
0.0
 10
9.8052533657
 20
8.9513653507
 30
0.0
 10
9.8157595543
 20
8.9274367541
 30
0.0
 10
9.8279732587
 20
8.9042423336
 30
0.0
 10
9.84182583
 20
8.8819121142
 30
0.0
 10
9.8572394731
 20
8.8605712979
 30
0.0
 10
9.8741276836
 20
8.8403395451
 30
0.0
 10
9.8923957196
 20
8.8213303149
 30
0.0
 10
9.911941107
 20
8.8036502104
 30
0.0
 10
9.9326542427
 20
8.7873984151
 30
0.0
 10
9.954418994
 20
8.7726661397
 30
0.0
 10
9.9771133462
 20
8.75953612
 30
0.0
 10
10.0006100602
 20
8.7480821452
 30
0.0
 10
10.0247773989
 20
8.73836862
 30
0.0
 10
10.0494797632
 20
8.7304502407
 30
0.0
 10
10.0745788536
 20
8.7243716791
 30
0.0
 10
10.0999328836
 20
8.7201673401
 30
0.0
 10
10.1211861393
 20
8.7182429473
 30
0.0
 10
10.1381698924
 20
8.7176628927
 30
0.0
 10
10.1508673169
 20
8.7177066593
 30
0.0
 10
10.163521271
 20
8.7182287103
 30
0.0
 10
10.1802881366
 20
8.719559648
 30
0.0
 10
10.201056787
 20
8.7224101248
 30
0.0
 10
10.2214955165
 20
8.7268422435
 30
0.0
 10
10.2375426668
 20
8.7313177057
 30
0.0
 10
10.2494009217
 20
8.7351301593
 30
0.0
 10
10.2610768399
 20
8.7393963702
 30
0.0
 10
10.268735725
 20
8.7425420964
 30
0.0
 10
10.2725286008
 20
8.7441883761
 30
0.0
  0
SPLINE
  5
37E
100
AcDbEntity
  8
0
100
AcDbSpline
 62
7
  6
CONTINUOUS
 70
0
 71
3
 72
42
 73
38
 74
0
 42
0.0000001
 43
0.0000001
 44
0.0000000001
 40
0.0
 40
0.0
 40
0.0
 40
0.0
 40
0.0308284593
 40
0.0462940089
 40
0.0617916412
 40
0.0928793433
 40
0.1240902509
 40
0.1554176413
 40
0.1868530742
 40
0.2183865517
 40
0.2500066691
 40
0.2817007918
 40
0.313455241
 40
0.3452554927
 40
0.3770863838
 40
0.4089323255
 40
0.4407775201
 40
0.4726061803
 40
0.5044027482
 40
0.5361521121
 40
0.5678398189
 40
0.5994522803
 40
0.6309769697
 40
0.6624026083
 40
0.6937193379
 40
0.7249188773
 40
0.7559946602
 40
0.786941952
 40
0.817757943
 40
0.8484418152
 40
0.8637363839
 40
0.8789985486
 40
0.9094238544
 40
0.9397267615
 40
0.9548364442
 40
0.9699183904
 40
1.0
 40
1.0
 40
1.0
 40
1.0
 10
9.7541323731
 20
9.0797693832
 30
0.0
 10
9.7541323731
 20
9.0722718027
 30
0.0
 10
9.754482224
 20
9.0610089775
 30
0.0
 10
9.755639721
 20
9.0460240367
 30
0.0
 10
9.7572617383
 20
9.031018343
 30
0.0
 10
9.7601550316
 20
9.0123078266
 30
0.0
 10
9.7649904419
 20
8.9900432693
 30
0.0
 10
9.7711744523
 20
8.9680268709
 30
0.0
 10
9.7786831952
 20
8.946343573
 30
0.0
 10
9.787487796
 20
8.9250763809
 30
0.0
 10
9.7975544097
 20
8.9043068704
 30
0.0
 10
9.8088443698
 20
8.8841146565
 30
0.0
 10
9.8213143322
 20
8.8645771507
 30
0.0
 10
9.834916442
 20
8.8457692508
 30
0.0
 10
9.8495985156
 20
8.8277630602
 30
0.0
 10
9.8653042401
 20
8.8106276128
 30
0.0
 10
9.881973388
 20
8.7944286108
 30
0.0
 10
9.8995420462
 20
8.7792281739
 30
0.0
 10
9.9179428594
 20
8.7650846033
 30
0.0
 10
9.9371052867
 20
8.7520521593
 30
0.0
 10
9.9569558692
 20
8.7401808545
 30
0.0
 10
9.9774185099
 20
8.7295162625
 30
0.0
 10
9.9984147624
 20
8.7200993442
 30
0.0
 10
10.0198641297
 20
8.7119662906
 30
0.0
 10
10.0416843656
 20
8.7051483833
 30
0.0
 10
10.0637918042
 20
8.699671875
 30
0.0
 10
10.0861016123
 20
8.6955578838
 30
0.0
 10
10.108528355
 20
8.6928223235
 30
0.0
 10
10.1309854165
 20
8.6914757881
 30
0.0
 10
10.1496751849
 20
8.6915157599
 30
0.0
 10
10.1645532525
 20
8.6922470008
 30
0.0
 10
10.1793383626
 20
8.6934399837
 30
0.0
 10
10.1976817985
 20
8.6957968061
 30
0.0
 10
10.21580204
 20
8.6993082056
 30
0.0
 10
10.2300966707
 20
8.7027994609
 30
0.0
 10
10.2442192421
 20
8.7067340522
 30
0.0
 10
10.2546547675
 20
8.7101936659
 30
0.0
 10
10.2615203896
 20
8.7127207734
 30
0.0
  0
SPLINE
  5
37F
100
AcDbEntity
  8
0
100
AcDbSpline
 62
7
  6
CONTINUOUS
 70
0
 71
3
 72
15
 73
11
 74
0
 42
0.0000001
 43
0.0000001
 44
0.0000000001
 40
0.0
 40
0.0
 40
0.0
 40
0.0
 40
0.1263708388
 40
0.2523337373
 40
0.3778859134
 40
0.5030421161
 40
0.6278132804
 40
0.7522161788
 40
0.8762712418
 40
1.0
 40
1.0
 40
1.0
 40
1.0
 10
9.7541323731
 20
9.0797693832
 30
0.0
 10
9.7541323731
 20
9.0854590085
 30
0.0
 10
9.7544001809
 20
9.096821756
 30
0.0
 10
9.7556088744
 20
9.1137985705
 30
0.0
 10
9.757621441
 20
9.1306443275
 30
0.0
 10
9.7604332308
 20
9.1473208058
 30
0.0
 10
9.7640381475
 20
9.163791087
 30
0.0
 10
9.7684281889
 20
9.1800185143
 30
0.0
 10
9.7735934239
 20
9.1959663719
 30
0.0
 10
9.7775514097
 20
9.2064024301
 30
0.0
 10
9.7796553833
 20
9.2115604978
 30
0.0
  0
SPLINE
  5
380
100
AcDbEntity
  8
0
100
AcDbSpline
 62
7
  6
CONTINUOUS
 70
0
 71
3
 72
71
 73
67
 74
0
 42
0.0000001
 43
0.0000001
 44
0.0000000001
 40
0.0
 40
0.0
 40
0.0
 40
0.0
 40
0.0156373091
 40
0.0313279441
 40
0.047070274
 40
0.0628636381
 40
0.078706082
 40
0.0945954866
 40
0.1105292303
 40
0.1265042948
 40
0.1425172941
 40
0.1585644989
 40
0.1746418765
 40
0.1907451255
 40
0.2068697168
 40
0.2230109349
 40
0.2391639194
 40
0.2553237067
 40
0.2714852734
 40
0.2876435805
 40
0.303793618
 40
0.3199304487
 40
0.3360492499
 40
0.352145356
 40
0.3682143008
 40
0.3842518584
 40
0.4002540817
 40
0.4162173386
 40
0.4321383463
 40
0.4480142041
 40
0.4638424239
 40
0.4796209569
 40
0.4953482152
 40
0.5110230909
 40
0.5266449715
 40
0.542213752
 40
0.5577298409
 40
0.5731941611
 40
0.5886081449
 40
0.6039737253
 40
0.6192933221
 40
0.6345698229
 40
0.6498065561
 40
0.6650072607
 40
0.6801760497
 40
0.6953173703
 40
0.7104359595
 40
0.7255367956
 40
0.7406250456
 40
0.7557060104
 40
0.7707850684
 40
0.7858676182
 40
0.8009590217
 40
0.8160645466
 40
0.8311893099
 40
0.846338224
 40
0.8615159451
 40
0.8767268271
 40
0.8919748765
 40
0.9072637177
 40
0.9225965501
 40
0.9379761169
 40
0.9534047581
 40
0.9688840326
 40
0.9844158132
 40
1.0
 40
1.0
 40
1.0
 40
1.0
 10
9.5136166492
 20
8.8874490201
 30
0.0
 10
9.5136166492
 20
8.8808795515
 30
0.0
 10
9.5139403469
 20
8.8677159747
 30
0.0
 10
9.5153898428
 20
8.8479868259
 30
0.0
 10
9.5178007843
 20
8.8282854961
 30
0.0
 10
9.5211671048
 20
8.8086602454
 30
0.0
 10
9.5254808083
 20
8.7891579987
 30
0.0
 10
9.5307314173
 20
8.7698258216
 30
0.0
 10
9.5369062715
 20
8.7507102233
 30
0.0
 10
9.5439904576
 20
8.7318572213
 30
0.0
 10
9.5519668894
 20
8.7133121923
 30
0.0
 10
9.5608163439
 20
8.6951197727
 30
0.0
 10
9.5705175067
 20
8.6773237535
 30
0.0
 10
9.5810470112
 20
8.6599669699
 30
0.0
 10
9.5923794825
 20
8.6430911884
 30
0.0
 10
9.6044876271
 20
8.6267370221
 30
0.0
 10
9.6173422921
 20
8.6109438319
 30
0.0
 10
9.6309125361
 20
8.5957496348
 30
0.0
 10
9.6451657008
 20
8.5811910134
 30
0.0
 10
9.6600674667
 20
8.5673030038
 30
0.0
 10
9.6755819612
 20
8.5541190331
 30
0.0
 10
9.6916718435
 20
8.5416708414
 30
0.0
 10
9.7082983924
 20
8.529988405
 30
0.0
 10
9.7254216004
 20
8.5190998706
 30
0.0
 10
9.7430002522
 20
8.5090314607
 30
0.0
 10
9.7609920345
 20
8.4998074206
 30
0.0
 10
9.7793536449
 20
8.4914499748
 30
0.0
 10
9.7980408907
 20
8.4839792704
 30
0.0
 10
9.8170087962
 20
8.4774133334
 30
0.0
 10
9.8362117029
 20
8.47176801
 30
0.0
 10
9.8556033785
 20
8.4670569134
 30
0.0
 10
9.8751371368
 20
8.4632914208
 30
0.0
 10
9.8947659462
 20
8.4604806415
 30
0.0
 10
9.9144425408
 20
8.4586313957
 30
0.0
 10
9.9341195322
 20
8.4577481969
 30
0.0
 10
9.953749523
 20
8.4578332057
 30
0.0
 10
9.9732852249
 20
8.4588862575
 30
0.0
 10
9.9926795695
 20
8.4609048634
 30
0.0
 10
10.0118858206
 20
8.4638842127
 30
0.0
 10
10.030857684
 20
8.46781719
 30
0.0
 10
10.0495494255
 20
8.4726943572
 30
0.0
 10
10.0679159834
 20
8.4785039909
 30
0.0
 10
10.0859130714
 20
8.4852321261
 30
0.0
 10
10.1034972863
 20
8.492862583
 30
0.0
 10
10.1206262097
 20
8.5013770097
 30
0.0
 10
10.1372585185
 20
8.510754909
 30
0.0
 10
10.1533540959
 20
8.5209736756
 30
0.0
 10
10.1688741147
 20
8.5320086807
 30
0.0
 10
10.1837811326
 20
8.5438333249
 30
0.0
 10
10.1980391823
 20
8.5564191032
 30
0.0
 10
10.2116138584
 20
8.5697356723
 30
0.0
 10
10.2244724279
 20
8.5837508996
 30
0.0
 10
10.2365838873
 20
8.5984309701
 30
0.0
 10
10.247919036
 20
8.6137404678
 30
0.0
 10
10.2584505478
 20
8.6296424609
 30
0.0
 10
10.2681530304
 20
8.6460985932
 30
0.0
 10
10.2770031164
 20
8.6630691608
 30
0.0
 10
10.2849795068
 20
8.6805132203
 30
0.0
 10
10.2920630092
 20
8.6983886966
 30
0.0
 10
10.2982365821
 20
8.716652483
 30
0.0
 10
10.3034853708
 20
8.7352605373
 30
0.0
 10
10.3077967854
 20
8.7541680257
 30
0.0
 10
10.3111604288
 20
8.7733292583
 30
0.0
 10
10.3135683966
 20
8.7926983761
 30
0.0
 10
10.3150147139
 20
8.8122278967
 30
0.0
 10
10.3153351325
 20
8.8253025033
 30
0.0
 10
10.3153351325
 20
8.8318496544
 30
0.0
  0
SPLINE
  5
381
100
AcDbEntity
  8
0
100
AcDbSpline
 62
7
  6
CONTINUOUS
 70
0
 71
3
 72
39
 73
35
 74
0
 42
0.0000001
 43
0.0000001
 44
0.0000000001
 40
0.0
 40
0.0
 40
0.0
 40
0.0
 40
0.0310753532
 40
0.0623079102
 40
0.09369313
 40
0.1252222885
 40
0.1568840435
 40
0.1886642047
 40
0.220546165
 40
0.2525112493
 40
0.2845391083
 40
0.3166081364
 40
0.3486959075
 40
0.3807796231
 40
0.4128365658
 40
0.4448445502
 40
0.4767823671
 40
0.5086302143
 40
0.5403701081
 40
0.5719862652
 40
0.603465451
 40
0.634797286
 40
0.6659745047
 40
0.6969931564
 40
0.7278527393
 40
0.7585562643
 40
0.7891102412
 40
0.8195245853
 40
0.8498124369
 40
0.8799898959
 40
0.9100756754
 40
0.9400906818
 40
0.9700575291
 40
1.0
 40
1.0
 40
1.0
 40
1.0
 10
9.5626064378
 20
8.8947695249
 30
0.0
 10
9.5626064378
 20
8.8857928657
 30
0.0
 10
9.5632760758
 20
8.8677872283
 30
0.0
 10
9.5662658706
 20
8.8408649675
 30
0.0
 10
9.571226664
 20
8.8141007952
 30
0.0
 10
9.5781310477
 20
8.7876435718
 30
0.0
 10
9.5869407961
 20
8.7616380871
 30
0.0
 10
9.5976073546
 20
8.7362272139
 30
0.0
 10
9.6100719562
 20
8.7115503608
 30
0.0
 10
9.6242660263
 20
8.6877429413
 30
0.0
 10
9.6401115435
 20
8.6649355823
 30
0.0
 10
9.6575214697
 20
8.6432534368
 30
0.0
 10
9.6764002127
 20
8.6228154957
 30
0.0
 10
9.6966441265
 20
8.6037339201
 30
0.0
 10
9.7181421086
 20
8.5861134597
 30
0.0
 10
9.7407761965
 20
8.570050881
 30
0.0
 10
9.7644222091
 20
8.5556344467
 30
0.0
 10
9.788950408
 20
8.5429434206
 30
0.0
 10
9.8142261944
 20
8.5320476129
 30
0.0
 10
9.8401108589
 20
8.523007034
 30
0.0
 10
9.8664623243
 20
8.5158715572
 30
0.0
 10
9.8931359154
 20
8.5106806496
 30
0.0
 10
9.919985134
 20
8.5074631242
 30
0.0
 10
9.9468624572
 20
8.5062369597
 30
0.0
 10
9.9736201438
 20
8.5070092275
 30
0.0
 10
10.0001110343
 20
8.5097760289
 30
0.0
 10
10.026189352
 20
8.5145225069
 30
0.0
 10
10.0517115119
 20
8.5212228785
 30
0.0
 10
10.0765369096
 20
8.529840545
 30
0.0
 10
10.1005287446
 20
8.5403283537
 30
0.0
 10
10.123554609
 20
8.5526286563
 30
0.0
 10
10.1454878977
 20
8.5666742707
 30
0.0
 10
10.1662060591
 20
8.5823863978
 30
0.0
 10
10.1791374868
 20
8.5939197298
 30
0.0
 10
10.1853586139
 20
8.5999288736
 30
0.0
  0
SPLINE
  5
382
100
AcDbEntity
  8
0
100
AcDbSpline
 62
7
  6
CONTINUOUS
 70
0
 71
3
 72
40
 73
36
 74
0
 42
0.0000001
 43
0.0000001
 44
0.0000000001
 40
0.0
 40
0.0
 40
0.0
 40
0.0
 40
0.0299422961
 40
0.0599089687
 40
0.0899238004
 40
0.1200094052
 40
0.1350882586
 40
0.1501924643
 40
0.1804801427
 40
0.2108943138
 40
0.2414481167
 40
0.2721514658
 40
0.3030108714
 40
0.3340293444
 40
0.3652063826
 40
0.3965380347
 40
0.4280170359
 40
0.4596330083
 40
0.4913727179
 40
0.5232203813
 40
0.5551580145
 40
0.5871658159
 40
0.6192225759
 40
0.6513061084
 40
0.6833936952
 40
0.7154625379
 40
0.7474902107
 40
0.7794551093
 40
0.8113368809
 40
0.8431168638
 40
0.8747784102
 40
0.9063074674
 40
0.9376922747
 40
0.9689251908
 40
1.0
 40
1.0
 40
1.0
 40
1.0
 10
10.0605565784
 20
7.6858133213
 30
0.0
 10
10.0584828719
 20
7.6838102712
 30
0.0
 10
10.0541724039
 20
7.6799658366
 30
0.0
 10
10.0472662997
 20
7.6747284392
 30
0.0
 10
10.0399553925
 20
7.6700466498
 30
0.0
 10
10.0335631713
 20
7.6666320041
 30
0.0
 10
10.0282913635
 20
7.6642028881
 30
0.0
 10
10.0229106295
 20
7.6619742919
 30
0.0
 10
10.0160073995
 20
7.659577914
 30
0.0
 10
10.0075002053
 20
7.6573445434
 30
0.0
 10
9.99880738
 20
7.6557623633
 30
0.0
 10
9.9899770972
 20
7.6548401016
 30
0.0
 10
9.9810578645
 20
7.6545826793
 30
0.0
 10
9.9720987582
 20
7.6549914059
 30
0.0
 10
9.9631490197
 20
7.6560639197
 30
0.0
 10
9.9542578237
 20
7.6577942221
 30
0.0
 10
9.9454740018
 20
7.6601727102
 30
0.0
 10
9.9368457802
 20
7.6631862335
 30
0.0
 10
9.9284205183
 20
7.6668181684
 30
0.0
 10
9.9202444525
 20
7.6710485104
 30
0.0
 10
9.9123624462
 20
7.6758539848
 30
0.0
 10
9.904817747
 20
7.6812081734
 30
0.0
 10
9.8976517524
 20
7.6870816602
 30
0.0
 10
9.8909037841
 20
7.6934421888
 30
0.0
 10
9.8846108745
 20
7.7002548401
 30
0.0
 10
9.8788075672
 20
7.7074822224
 30
0.0
 10
9.8735257278
 20
7.7150846745
 30
0.0
 10
9.8687943731
 20
7.7230204809
 30
0.0
 10
9.864639507
 20
7.7312460989
 30
0.0
 10
9.8610839943
 20
7.7397163894
 30
0.0
 10
9.8581473966
 20
7.7483848854
 30
0.0
 10
9.8558459523
 20
7.7572039458
 30
0.0
 10
9.8541923127
 20
7.7661253669
 30
0.0
 10
9.8531957542
 20
7.7750994531
 30
0.0
 10
9.8529725259
 20
7.7811013474
 30
0.0
 10
9.8529725259
 20
7.7840935319
 30
0.0
  0
SPLINE
  5
383
100
AcDbEntity
  8
0
100
AcDbSpline
 62
7
  6
CONTINUOUS
 70
0
 71
3
 72
15
 73
11
 74
0
 42
0.0000001
 43
0.0000001
 44
0.0000000001
 40
0.0
 40
0.0
 40
0.0
 40
0.0
 40
0.1065778881
 40
0.2177104066
 40
0.3339272257
 40
0.4555958523
 40
0.5829537719
 40
0.7161296713
 40
0.8551634639
 40
1.0
 40
1.0
 40
1.0
 40
1.0
 10
11.1287418204
 20
7.9156312348
 30
0.0
 10
11.1320007221
 20
7.9159669195
 30
0.0
 10
11.1386909329
 20
7.9163523221
 30
0.0
 10
11.1489614339
 20
7.9161730268
 30
0.0
 10
11.1596615776
 20
7.9153140987
 30
0.0
 10
11.1707956728
 20
7.9138393564
 30
0.0
 10
11.1823706545
 20
7.9118107141
 30
0.0
 10
11.1943933975
 20
7.9092896676
 30
0.0
 10
11.2068697031
 20
7.906337663
 30
0.0
 10
11.2153219512
 20
7.9041673918
 30
0.0
 10
11.2196270217
 20
7.9030323141
 30
0.0
  0
SPLINE
  5
384
100
AcDbEntity
  8
0
100
AcDbSpline
 62
7
  6
CONTINUOUS
 70
0
 71
3
 72
41
 73
37
 74
0
 42
0.0000001
 43
0.0000001
 44
0.0000000001
 40
0.0
 40
0.0
 40
0.0
 40
0.0
 40
0.0291611093
 40
0.043782251
 40
0.0584307099
 40
0.0878149889
 40
0.1173350826
 40
0.1321526686
 40
0.1470087091
 40
0.1768354385
 40
0.2068281731
 40
0.2369922528
 40
0.2673308848
 40
0.2978453933
 40
0.3285354502
 40
0.3593993804
 40
0.3904344266
 40
0.4216370684
 40
0.4530033283
 40
0.4845290686
 40
0.5162103182
 40
0.5480435335
 40
0.5800256407
 40
0.6121541313
 40
0.6444274625
 40
0.6768450982
 40
0.7094064091
 40
0.7421086632
 40
0.7749429606
 40
0.8078862401
 40
0.8408865998
 40
0.8738394308
 40
0.9065556162
 40
0.9387383389
 40
0.9700073346
 40
1.0
 40
1.0
 40
1.0
 40
1.0
 10
9.8027863481
 20
9.2004179914
 30
0.0
 10
9.8039424303
 20
9.1970525933
 30
0.0
 10
9.805877544
 20
9.1920650993
 30
0.0
 10
9.8088401751
 20
9.1855782616
 30
0.0
 10
9.812064243
 20
9.1791863616
 30
0.0
 10
9.8165685094
 20
9.1714121699
 30
0.0
 10
9.8216658171
 20
9.1639883997
 30
0.0
 10
9.8260867363
 20
9.1582742203
 30
0.0
 10
9.8307439332
 20
9.1527020736
 30
0.0
 10
9.836978651
 20
9.1460438205
 30
0.0
 10
9.8450650767
 20
9.1386011973
 30
0.0
 10
9.8537247881
 20
9.1317329892
 30
0.0
 10
9.8629122388
 20
9.125475236
 30
0.0
 10
9.8725798817
 20
9.1198598119
 30
0.0
 10
9.882678174
 20
9.1149147112
 30
0.0
 10
9.8931561019
 20
9.1106637255
 30
0.0
 10
9.9039616071
 20
9.1071263467
 30
0.0
 10
9.9150420643
 20
9.1043176714
 30
0.0
 10
9.9263447673
 20
9.1022483744
 30
0.0
 10
9.9378174239
 20
9.1009247304
 30
0.0
 10
9.9494086476
 20
9.1003487072
 30
0.0
 10
9.9610684106
 20
9.10051811
 30
0.0
 10
9.972748456
 20
9.1014267537
 30
0.0
 10
9.9844027167
 20
9.1030646828
 30
0.0
 10
9.9959877167
 20
9.1054184168
 30
0.0
 10
10.007462827
 20
9.1084711566
 30
0.0
 10
10.0187902355
 20
9.1122029219
 30
0.0
 10
10.0299344773
 20
9.1165904192
 30
0.0
 10
10.0408613173
 20
9.1216063163
 30
0.0
 10
10.0515353864
 20
9.1272176464
 30
0.0
 10
10.0619160193
 20
9.1333825161
 30
0.0
 10
10.0719509361
 20
9.1400448812
 30
0.0
 10
10.081569148
 20
9.1471283556
 30
0.0
 10
10.0906781399
 20
9.1545340735
 30
0.0
 10
10.0991712589
 20
9.1621489808
 30
0.0
 10
10.1044799088
 20
9.1674181891
 30
0.0
 10
10.1070034911
 20
9.1700689289
 30
0.0
  0
SPLINE
  5
385
100
AcDbEntity
  8
0
100
AcDbSpline
 62
7
  6
CONTINUOUS
 70
0
 71
3
 72
42
 73
38
 74
0
 42
0.0000001
 43
0.0000001
 44
0.0000000001
 40
0.0
 40
0.0
 40
0.0
 40
0.0
 40
0.0300326564
 40
0.0450878635
 40
0.0601695465
 40
0.0904134043
 40
0.1207775257
 40
0.1360089972
 40
0.1512730218
 40
0.1818968368
 40
0.2126557595
 40
0.2435503625
 40
0.274579032
 40
0.3057380225
 40
0.337021542
 40
0.3684218665
 40
0.3999294798
 40
0.4315332375
 40
0.463220549
 40
0.4949775776
 40
0.5267894541
 40
0.5586405017
 40
0.5905144692
 40
0.6223947701
 40
0.6542647257
 40
0.6861078081
 40
0.7179078828
 40
0.7496494466
 40
0.7813178586
 40
0.8128995638
 40
0.8443823003
 40
0.8757553066
 40
0.9070094619
 40
0.9381375622
 40
0.9536542725
 40
0.9691379463
 40
1.0
 40
1.0
 40
1.0
 40
1.0
 10
10.0919912784
 20
7.4289417222
 30
0.0
 10
10.085547091
 20
7.4261589947
 30
0.0
 10
10.0757279903
 20
7.4223048007
 30
0.0
 10
10.0623952945
 20
7.4178260151
 30
0.0
 10
10.0488734148
 20
7.4137780515
 30
0.0
 10
10.0316817825
 20
7.4095493675
 30
0.0
 10
10.0142153201
 20
7.406452494
 30
0.0
 10
10.0001027984
 20
7.404655197
 30
0.0
 10
9.9858790075
 20
7.4033107847
 30
0.0
 10
9.9679701508
 20
7.4024910412
 30
0.0
 10
9.9463921156
 20
7.4028859432
 30
0.0
 10
9.924788007
 20
7.4046563406
 30
0.0
 10
9.903245729
 20
7.4077950057
 30
0.0
 10
9.8818521879
 20
7.4122890992
 30
0.0
 10
9.8606938633
 20
7.4181203406
 30
0.0
 10
9.8398562143
 20
7.425265054
 30
0.0
 10
9.8194234048
 20
7.4336942741
 30
0.0
 10
9.7994779491
 20
7.4433738619
 30
0.0
 10
9.7801003866
 20
7.4542646438
 30
0.0
 10
9.7613689588
 20
7.4663225699
 30
0.0
 10
9.7433592968
 20
7.479498892
 30
0.0
 10
9.7261441184
 20
7.4937403592
 30
0.0
 10
9.7097929373
 20
7.5089894324
 30
0.0
 10
9.6943717845
 20
7.5251845145
 30
0.0
 10
9.679942944
 20
7.5422601981
 30
0.0
 10
9.6665647028
 20
7.5601475274
 30
0.0
 10
9.6542911173
 20
7.5787742744
 30
0.0
 10
9.643171796
 20
7.5980652289
 30
0.0
 10
9.6332517006
 20
7.6179424956
 30
0.0
 10
9.6245709645
 20
7.638325822
 30
0.0
 10
9.6171647322
 20
7.6591328588
 30
0.0
 10
9.6110630081
 20
7.6802797115
 30
0.0
 10
9.6062905849
 20
7.701680454
 30
0.0
 10
9.6034342951
 20
7.7196747527
 30
0.0
 10
9.6018328928
 20
7.7341092396
 30
0.0
 10
9.6006901013
 20
7.748524395
 30
0.0
 10
9.6003446172
 20
7.759360507
 30
0.0
 10
9.6003446172
 20
7.766573696
 30
0.0
  0
SPLINE
  5
386
100
AcDbEntity
  8
0
100
AcDbSpline
 62
7
  6
CONTINUOUS
 70
0
 71
3
 72
47
 73
43
 74
0
 42
0.0000001
 43
0.0000001
 44
0.0000000001
 40
0.0
 40
0.0
 40
0.0
 40
0.0
 40
0.0150835987
 40
0.03019614
 40
0.0453398693
 40
0.0605168336
 40
0.0909715419
 40
0.1215783805
 40
0.1369445124
 40
0.1523514347
 40
0.1677995654
 40
0.1832890765
 40
0.2143860087
 40
0.245644475
 40
0.277057201
 40
0.3086133797
 40
0.3402989668
 40
0.3720970342
 40
0.4039881734
 40
0.435950942
 40
0.467962346
 40
0.4999983428
 40
0.5320343611
 40
0.5640458291
 40
0.5960087029
 40
0.6278999855
 40
0.6596982321
 40
0.6913840306
 40
0.7229404479
 40
0.7543534336
 40
0.785612175
 40
0.8167093927
 40
0.832199047
 40
0.8476473226
 40
0.8630543869
 40
0.8784206597
 40
0.9090277707
 40
0.9394827344
 40
0.954659817
 40
0.9698036593
 40
0.9849163048
 40
1.0
 40
1.0
 40
1.0
 40
1.0
 10
10.091826251
 20
7.4285346682
 30
0.0
 10
10.087923906
 20
7.4268420801
 30
0.0
 10
10.0800418147
 20
7.4236122972
 30
0.0
 10
10.0680208173
 20
7.4192465861
 30
0.0
 10
10.0558079843
 20
7.4153614214
 30
0.0
 10
10.0392764223
 20
7.4108252214
 30
0.0
 10
10.0182153783
 20
7.4063863559
 30
0.0
 10
9.996816592
 20
7.4036229563
 30
0.0
 10
9.9795456761
 20
7.4024177054
 30
0.0
 10
9.9665139351
 20
7.4020180419
 30
0.0
 10
9.9534417376
 20
7.4021246436
 30
0.0
 10
9.9359634087
 20
7.4029424575
 30
0.0
 10
9.9141073427
 20
7.4052330694
 30
0.0
 10
9.8880696028
 20
7.4099824767
 30
0.0
 10
9.8623366208
 20
7.416707795
 30
0.0
 10
9.8370621991
 20
7.4253687396
 30
0.0
 10
9.8123960489
 20
7.4359136277
 30
0.0
 10
9.7884846066
 20
7.4482796584
 30
0.0
 10
9.7654697127
 20
7.4623932621
 30
0.0
 10
9.743487885
 20
7.4781705151
 30
0.0
 10
9.722669518
 20
7.4955176916
 30
0.0
 10
9.7031381321
 20
7.514331807
 30
0.0
 10
9.6850096329
 20
7.5345012009
 30
0.0
 10
9.6683915995
 20
7.5559061721
 30
0.0
 10
9.6533827013
 20
7.5784197282
 30
0.0
 10
9.6400721188
 20
7.6019083223
 30
0.0
 10
9.6285390034
 20
7.6262326129
 30
0.0
 10
9.6188519651
 20
7.651248296
 30
0.0
 10
9.6110687267
 20
7.6768068606
 30
0.0
 10
9.6052357835
 20
7.7027569018
 30
0.0
 10
9.6013880852
 20
7.7289433136
 30
0.0
 10
9.5998533138
 20
7.7508656245
 30
0.0
 10
9.5996393576
 20
7.768361929
 30
0.0
 10
9.5999840499
 20
7.7814301374
 30
0.0
 10
9.6008333488
 20
7.7944404348
 30
0.0
 10
9.6026340377
 20
7.8116596131
 30
0.0
 10
9.6061344719
 20
7.8329504448
 30
0.0
 10
9.6112976576
 20
7.853845909
 30
0.0
 10
9.6164017911
 20
7.8702111822
 30
0.0
 10
9.6207061689
 20
7.8822827421
 30
0.0
 10
9.6254842285
 20
7.8941459715
 30
0.0
 10
9.6289841205
 20
7.9019119602
 30
0.0
 10
9.6308104006
 20
7.9057535853
 30
0.0
  0
SPLINE
  5
387
100
AcDbEntity
  8
0
100
AcDbSpline
 62
7
  6
CONTINUOUS
 70
0
 71
3
 72
50
 73
46
 74
0
 42
0.0000001
 43
0.0000001
 44
0.0000000001
 40
0.0
 40
0.0
 40
0.0
 40
0.0
 40
0.0149717278
 40
0.0299465149
 40
0.044927401
 40
0.0599173893
 40
0.0749194283
 40
0.0899363919
 40
0.1049710634
 40
0.1200261205
 40
0.1351041177
 40
0.1502074705
 40
0.165338445
 40
0.1804991437
 40
0.1956914918
 40
0.21091723
 40
0.2261779061
 40
0.2414748638
 40
0.2568092383
 40
0.2721819537
 40
0.287593716
 40
0.3030450104
 40
0.3185361039
 40
0.3340670439
 40
0.3652423167
 40
0.3965721964
 40
0.4280494165
 40
0.4596636006
 40
0.4914015142
 40
0.5232473741
 40
0.5551831985
 40
0.5871891855
 40
0.6192441282
 40
0.6513258427
 40
0.683411612
 40
0.7154786397
 40
0.7475045014
 40
0.7794675918
 40
0.8113475634
 40
0.8431257421
 40
0.8747855204
 40
0.9063127266
 40
0.9376959415
 40
0.9689266162
 40
1.0
 40
1.0
 40
1.0
 40
1.0
 10
11.5101625844
 20
7.1829083722
 30
0.0
 10
11.50471236
 20
7.1776438542
 30
0.0
 10
11.4936002346
 20
7.1673292459
 30
0.0
 10
11.4763285246
 20
7.1525302948
 30
0.0
 10
11.4584752539
 20
7.1384228967
 30
0.0
 10
11.440065354
 20
7.1250267624
 30
0.0
 10
11.4211240524
 20
7.1123602589
 30
0.0
 10
11.4016774324
 20
7.100440855
 30
0.0
 10
11.3817522809
 20
7.0892848931
 30
0.0
 10
11.3613760148
 20
7.0789077251
 30
0.0
 10
11.3405766563
 20
7.0693236628
 30
0.0
 10
11.3193828527
 20
7.0605458357
 30
0.0
 10
11.2978237708
 20
7.0525862972
 30
0.0
 10
11.2759290598
 20
7.0454560329
 30
0.0
 10
11.253728857
 20
7.0391648121
 30
0.0
 10
11.2312537147
 20
7.0337212422
 30
0.0
 10
11.2085345436
 20
7.0291328327
 30
0.0
 10
11.1856025998
 20
7.0254058865
 30
0.0
 10
11.1624894346
 20
7.022545464
 30
0.0
 10
11.1392268433
 20
7.0205554989
 30
0.0
 10
11.1158467917
 20
7.0194387539
 30
0.0
 10
11.0923815457
 20
7.019196676
 30
0.0
 10
11.0688629729
 20
7.0198296426
 30
0.0
 10
11.037441623
 20
7.0218412726
 30
0.0
 10
10.9981875189
 20
7.0265450687
 30
0.0
 10
10.9514564465
 20
7.0356394972
 30
0.0
 10
10.9052883531
 20
7.0481407975
 30
0.0
 10
10.8599384791
 20
7.063979888
 30
0.0
 10
10.8156552579
 20
7.0830693373
 30
0.0
 10
10.7726818334
 20
7.1053040072
 30
0.0
 10
10.7312540036
 20
7.1305616107
 30
0.0
 10
10.6915990307
 20
7.1587032084
 30
0.0
 10
10.6539345471
 20
7.1895742643
 30
0.0
 10
10.6184671964
 20
7.2230051974
 30
0.0
 10
10.5853916119
 20
7.2588124728
 30
0.0
 10
10.5548894147
 20
7.296799611
 30
0.0
 10
10.5271280149
 20
7.3367580903
 30
0.0
 10
10.502259991
 20
7.3784687061
 30
0.0
 10
10.4804220126
 20
7.4217025759
 30
0.0
 10
10.4617341809
 20
7.4662224368
 30
0.0
 10
10.446299499
 20
7.5117840722
 30
0.0
 10
10.434202995
 20
7.5581371222
 30
0.0
 10
10.4255116472
 20
7.6050279832
 30
0.0
 10
10.4202735813
 20
7.6521958032
 30
0.0
 10
10.4191003548
 20
7.6837417085
 30
0.0
 10
10.4191003548
 20
7.6994688062
 30
0.0
  0
SPLINE
  5
388
100
AcDbEntity
  8
0
100
AcDbSpline
 62
7
  6
CONTINUOUS
 70
0
 71
3
 72
49
 73
45
 74
0
 42
0.0000001
 43
0.0000001
 44
0.0000000001
 40
0.0
 40
0.0
 40
0.0
 40
0.0
 40
0.0149718081
 40
0.0299466748
 40
0.0449276404
 40
0.059917709
 40
0.0749198276
 40
0.0899368702
 40
0.1049716217
 40
0.120026759
 40
0.1351048351
 40
0.1502082677
 40
0.1653393229
 40
0.1805001009
 40
0.1956925286
 40
0.2109183481
 40
0.2261791043
 40
0.2414761418
 40
0.256810598
 40
0.2721833946
 40
0.287595237
 40
0.3030466133
 40
0.3340634927
 40
0.3652389307
 40
0.3965689749
 40
0.4280463623
 40
0.4596607137
 40
0.4913987952
 40
0.5232448251
 40
0.5551808189
 40
0.5871869764
 40
0.6192420905
 40
0.6513239761
 40
0.6834099169
 40
0.7154771164
 40
0.7475031494
 40
0.779466411
 40
0.8113465537
 40
0.8431249023
 40
0.8747848503
 40
0.906312225
 40
0.9376956122
 40
0.9689264437
 40
1.0
 40
1.0
 40
1.0
 40
1.0
 10
10.1389408004
 20
7.1080723515
 30
0.0
 10
10.1340049053
 20
7.1033046299
 30
0.0
 10
10.1239414227
 20
7.0939633701
 30
0.0
 10
10.108299615
 20
7.0805609516
 30
0.0
 10
10.0921311548
 20
7.0677847904
 30
0.0
 10
10.0754585738
 20
7.0556527935
 30
0.0
 10
10.0583047232
 20
7.0441815966
 30
0.0
 10
10.040693267
 20
7.0333869534
 30
0.0
 10
10.0226484285
 20
7.0232837166
 30
0.0
 10
10.0041950229
 20
7.0138858242
 30
0.0
 10
9.9853584743
 20
7.0052061467
 30
0.0
 10
9.9661647029
 20
6.9972566146
 30
0.0
 10
9.9466401018
 20
6.9900482057
 30
0.0
 10
9.9268115571
 20
6.9835907797
 30
0.0
 10
9.9067063545
 20
6.9778931906
 30
0.0
 10
9.8863521422
 20
6.9729633163
 30
0.0
 10
9.8657769315
 20
6.9688078932
 30
0.0
 10
9.8450090391
 20
6.9654325904
 30
0.0
 10
9.8240769983
 20
6.9628420865
 30
0.0
 10
9.8030097043
 20
6.9610399095
 30
0.0
 10
9.7818357654
 20
6.9600285106
 30
0.0
 10
9.7534682956
 20
6.9597357215
 30
0.0
 10
9.7178806989
 20
6.9613589601
 30
0.0
 10
9.6752808836
 20
6.9664641014
 30
0.0
 10
9.6329584602
 20
6.9747002482
 30
0.0
 10
9.5911474855
 20
6.9860218332
 30
0.0
 10
9.5500770696
 20
7.0003661676
 30
0.0
 10
9.509972762
 20
7.0176541458
 30
0.0
 10
9.4710546418
 20
7.0377905866
 30
0.0
 10
9.4335362272
 20
7.0606646234
 30
0.0
 10
9.3976234034
 20
7.0861505621
 30
0.0
 10
9.3635132188
 20
7.1141083669
 30
0.0
 10
9.3313928055
 20
7.1443844611
 30
0.0
 10
9.3014385015
 20
7.1768126962
 30
0.0
 10
9.2738146936
 20
7.2112150458
 30
0.0
 10
9.2486730603
 20
7.2474027258
 30
0.0
 10
9.2261517772
 20
7.2851772057
 30
0.0
 10
9.206374567
 20
7.3243311772
 30
0.0
 10
9.1894502697
 20
7.3646498029
 30
0.0
 10
9.1754721098
 20
7.4059118846
 30
0.0
 10
9.1645171111
 20
7.4478907011
 30
0.0
 10
9.1566459536
 20
7.4903565763
 30
0.0
 10
9.1519021798
 20
7.5330732745
 30
0.0
 10
9.1508396697
 20
7.5616422625
 30
0.0
 10
9.1508396697
 20
7.5758852324
 30
0.0
  0
SPLINE
  5
389
100
AcDbEntity
  8
0
100
AcDbSpline
 62
7
  6
CONTINUOUS
 70
0
 71
3
 72
61
 73
57
 74
0
 42
0.0000001
 43
0.0000001
 44
0.0000000001
 40
0.0
 40
0.0
 40
0.0
 40
0.0
 40
0.0081438107
 40
0.0169768253
 40
0.0265208593
 40
0.0367896034
 40
0.0477882758
 40
0.059515773
 40
0.0719659354
 40
0.0851281927
 40
0.0989883997
 40
0.1135291739
 40
0.128730338
 40
0.1445693348
 40
0.1610212991
 40
0.1780594087
 40
0.1956550844
 40
0.2137780107
 40
0.2514762223
 40
0.2908854803
 40
0.3317180646
 40
0.3736718128
 40
0.41643347
 40
0.4596819467
 40
0.503091466
 40
0.5463347048
 40
0.5890859389
 40
0.6310241659
 40
0.6718362916
 40
0.711220377
 40
0.7302869012
 40
0.7488899819
 40
0.766996492
 40
0.7845747549
 40
0.8015945448
 40
0.8180272587
 40
0.8338461933
 40
0.8490265591
 40
0.863545804
 40
0.8773839159
 40
0.89052357
 40
0.9029507002
 40
0.9146549465
 40
0.925630188
 40
0.9358756141
 40
0.9453967247
 40
0.9542068468
 40
0.9623293993
 40
0.969800451
 40
0.9766722869
 40
0.9830175726
 40
0.9889330684
 40
0.9917694528
 40
0.9945466045
 40
0.9972834946
 40
1.0
 40
1.0
 40
1.0
 40
1.0
 10
12.0936582238
 20
8.551342382
 30
0.0
 10
12.0945094061
 20
8.552164561
 30
0.0
 10
12.0962073607
 20
8.5539585893
 30
0.0
 10
12.0986472224
 20
8.556945212
 30
0.0
 10
12.1010765908
 20
8.5603283784
 30
0.0
 10
12.1034907519
 20
8.5641013223
 30
0.0
 10
12.1058852986
 20
8.5682569855
 30
0.0
 10
12.1082554997
 20
8.5727873269
 30
0.0
 10
12.1105966787
 20
8.5776834913
 30
0.0
 10
12.1129041881
 20
8.5829358305
 30
0.0
 10
12.1151733641
 20
8.5885339545
 30
0.0
 10
12.1173996465
 20
8.5944667255
 30
0.0
 10
12.1195785578
 20
8.6007223071
 30
0.0
 10
12.1217056679
 20
8.6072882035
 30
0.0
 10
12.1237767
 20
8.6141512658
 30
0.0
 10
12.1257874647
 20
8.6212977362
 30
0.0
 10
12.1277339029
 20
8.628713295
 30
0.0
 10
12.1302714707
 20
8.6390761413
 30
0.0
 10
12.1332440405
 20
8.6525938927
 30
0.0
 10
12.1364515522
 20
8.669431643
 30
0.0
 10
12.1393185141
 20
8.6869575327
 30
0.0
 10
12.1418216781
 20
8.7050308271
 30
0.0
 10
12.1439407411
 20
8.723506498
 30
0.0
 10
12.1456585579
 20
8.7422361736
 30
0.0
 10
12.1469612576
 20
8.7610694241
 30
0.0
 10
12.1478383876
 20
8.7798549711
 30
0.0
 10
12.148282965
 20
8.798441914
 30
0.0
 10
12.1482915556
 20
8.8166810141
 30
0.0
 10
12.1478642428
 20
8.8344257261
 30
0.0
 10
12.1471405661
 20
8.8488339646
 30
0.0
 10
12.1463388894
 20
8.860002676
 30
0.0
 10
12.1456383732
 20
8.8680778122
 30
0.0
 10
12.144833575
 20
8.8759258655
 30
0.0
 10
12.1439261369
 20
8.8835310881
 30
0.0
 10
12.1429179054
 20
8.8908782082
 30
0.0
 10
12.1418109148
 20
8.8979524841
 30
0.0
 10
12.1406074455
 20
8.9047397354
 30
0.0
 10
12.1393099298
 20
8.9112263687
 30
0.0
 10
12.1379210004
 20
8.9173994117
 30
0.0
 10
12.1364435058
 20
8.9232465502
 30
0.0
 10
12.1348804143
 20
8.9287561451
 30
0.0
 10
12.1332348912
 20
8.9339172789
 30
0.0
 10
12.1315102607
 20
8.9387197883
 30
0.0
 10
12.1297099088
 20
8.9431542765
 30
0.0
 10
12.1278373673
 20
8.9472121802
 30
0.0
 10
12.1258961771
 20
8.9508857819
 30
0.0
 10
12.1238897746
 20
8.9541681913
 30
0.0
 10
12.1218214671
 20
8.9570533894
 30
0.0
 10
12.1196942284
 20
8.9595360193
 30
0.0
 10
12.1175102809
 20
8.9616111276
 30
0.0
 10
12.1152722462
 20
8.9632734756
 30
0.0
 10
12.1133358318
 20
8.9643243933
 30
0.0
 10
12.1117753757
 20
8.9649387484
 30
0.0
 10
12.1106114258
 20
8.9652872226
 30
0.0
 10
12.109438658
 20
8.9655293433
 30
0.0
 10
12.1086501099
 20
8.9656198354
 30
0.0
 10
12.1082563054
 20
8.9656471501
 30
0.0
  0
SPLINE
  5
38A
100
AcDbEntity
  8
0
100
AcDbSpline
 62
7
  6
CONTINUOUS
 70
0
 71
3
 72
49
 73
45
 74
0
 42
0.0000001
 43
0.0000001
 44
0.0000000001
 40
0.0
 40
0.0
 40
0.0
 40
0.0
 40
0.0149718081
 40
0.0299466748
 40
0.0449276404
 40
0.059917709
 40
0.0749198276
 40
0.0899368702
 40
0.1049716217
 40
0.120026759
 40
0.1351048351
 40
0.1502082677
 40
0.1653393229
 40
0.1805001009
 40
0.1956925286
 40
0.2109183481
 40
0.2261791043
 40
0.2414761418
 40
0.256810598
 40
0.2721833946
 40
0.287595237
 40
0.3030466133
 40
0.3340634927
 40
0.3652389307
 40
0.3965689749
 40
0.4280463623
 40
0.4596607137
 40
0.4913987952
 40
0.5232448251
 40
0.5551808189
 40
0.5871869764
 40
0.6192420905
 40
0.6513239761
 40
0.6834099169
 40
0.7154771164
 40
0.7475031494
 40
0.779466411
 40
0.8113465537
 40
0.8431249023
 40
0.8747848503
 40
0.906312225
 40
0.9376956122
 40
0.9689264437
 40
1.0
 40
1.0
 40
1.0
 40
1.0
 10
10.3195689181
 20
8.4236938389
 30
0.0
 10
10.314633023
 20
8.4189261172
 30
0.0
 10
10.3045695404
 20
8.4095848574
 30
0.0
 10
10.2889277326
 20
8.396182439
 30
0.0
 10
10.2727592725
 20
8.3834062777
 30
0.0
 10
10.2560866915
 20
8.3712742809
 30
0.0
 10
10.2389328408
 20
8.359803084
 30
0.0
 10
10.2213213847
 20
8.3490084407
 30
0.0
 10
10.2032765461
 20
8.3389052039
 30
0.0
 10
10.1848231406
 20
8.3295073115
 30
0.0
 10
10.1659865919
 20
8.3208276341
 30
0.0
 10
10.1467928205
 20
8.312878102
 30
0.0
 10
10.1272682195
 20
8.3056696931
 30
0.0
 10
10.1074396747
 20
8.299212267
 30
0.0
 10
10.0873344722
 20
8.2935146779
 30
0.0
 10
10.0669802599
 20
8.2885848037
 30
0.0
 10
10.0464050492
 20
8.2844293806
 30
0.0
 10
10.0256371568
 20
8.2810540777
 30
0.0
 10
10.004705116
 20
8.2784635738
 30
0.0
 10
9.983637822
 20
8.2766613968
 30
0.0
 10
9.962463883
 20
8.275649998
 30
0.0
 10
9.9340964133
 20
8.2753572089
 30
0.0
 10
9.8985088165
 20
8.2769804474
 30
0.0
 10
9.8559090012
 20
8.2820855888
 30
0.0
 10
9.8135865779
 20
8.2903217356
 30
0.0
 10
9.7717756031
 20
8.3016433206
 30
0.0
 10
9.7307051873
 20
8.3159876549
 30
0.0
 10
9.6906008796
 20
8.3332756332
 30
0.0
 10
9.6516827595
 20
8.3534120739
 30
0.0
 10
9.6141643448
 20
8.3762861108
 30
0.0
 10
9.578251521
 20
8.4017720494
 30
0.0
 10
9.5441413365
 20
8.4297298542
 30
0.0
 10
9.5120209232
 20
8.4600059484
 30
0.0
 10
9.4820666191
 20
8.4924341836
 30
0.0
 10
9.4544428113
 20
8.5268365331
 30
0.0
 10
9.429301178
 20
8.5630242131
 30
0.0
 10
9.4067798949
 20
8.6007986931
 30
0.0
 10
9.3870026846
 20
8.6399526645
 30
0.0
 10
9.3700783873
 20
8.6802712903
 30
0.0
 10
9.3561002275
 20
8.7215333719
 30
0.0
 10
9.3451452287
 20
8.7635121885
 30
0.0
 10
9.3372740713
 20
8.8059780636
 30
0.0
 10
9.3325302974
 20
8.8486947618
 30
0.0
 10
9.3314677874
 20
8.8772637499
 30
0.0
 10
9.3314677874
 20
8.8915067198
 30
0.0
  0
SPLINE
  5
38B
100
AcDbEntity
  8
0
100
AcDbSpline
 62
7
  6
CONTINUOUS
 70
0
 71
3
 72
61
 73
57
 74
0
 42
0.0000001
 43
0.0000001
 44
0.0000000001
 40
0.0
 40
0.0
 40
0.0
 40
0.0
 40
0.0081438107
 40
0.0169768253
 40
0.0265208593
 40
0.0367896034
 40
0.0477882758
 40
0.059515773
 40
0.0719659354
 40
0.0851281927
 40
0.0989883997
 40
0.1135291739
 40
0.128730338
 40
0.1445693348
 40
0.1610212991
 40
0.1780594087
 40
0.1956550844
 40
0.2137780107
 40
0.2514762223
 40
0.2908854803
 40
0.3317180646
 40
0.3736718128
 40
0.41643347
 40
0.4596819467
 40
0.503091466
 40
0.5463347048
 40
0.5890859389
 40
0.6310241659
 40
0.6718362916
 40
0.711220377
 40
0.7302869012
 40
0.7488899819
 40
0.766996492
 40
0.7845747549
 40
0.8015945448
 40
0.8180272587
 40
0.8338461933
 40
0.8490265591
 40
0.863545804
 40
0.8773839159
 40
0.89052357
 40
0.9029507002
 40
0.9146549465
 40
0.925630188
 40
0.9358756141
 40
0.9453967247
 40
0.9542068468
 40
0.9623293993
 40
0.969800451
 40
0.9766722869
 40
0.9830175726
 40
0.9889330684
 40
0.9917694528
 40
0.9945466045
 40
0.9972834946
 40
1.0
 40
1.0
 40
1.0
 40
1.0
 10
12.0936582238
 20
6.860972201
 30
0.0
 10
12.0945094061
 20
6.86179438
 30
0.0
 10
12.0962073607
 20
6.8635884083
 30
0.0
 10
12.0986472224
 20
6.866575031
 30
0.0
 10
12.1010765908
 20
6.8699581974
 30
0.0
 10
12.1034907519
 20
6.8737311413
 30
0.0
 10
12.1058852986
 20
6.8778868045
 30
0.0
 10
12.1082554997
 20
6.8824171459
 30
0.0
 10
12.1105966787
 20
6.8873133103
 30
0.0
 10
12.1129041881
 20
6.8925656494
 30
0.0
 10
12.1151733641
 20
6.8981637735
 30
0.0
 10
12.1173996465
 20
6.9040965445
 30
0.0
 10
12.1195785578
 20
6.9103521261
 30
0.0
 10
12.1217056679
 20
6.9169180225
 30
0.0
 10
12.1237767
 20
6.9237810848
 30
0.0
 10
12.1257874647
 20
6.9309275552
 30
0.0
 10
12.1277339029
 20
6.938343114
 30
0.0
 10
12.1302714707
 20
6.9487059603
 30
0.0
 10
12.1332440405
 20
6.9622237116
 30
0.0
 10
12.1364515522
 20
6.9790614619
 30
0.0
 10
12.1393185141
 20
6.9965873517
 30
0.0
 10
12.1418216781
 20
7.0146606461
 30
0.0
 10
12.1439407411
 20
7.033136317
 30
0.0
 10
12.1456585579
 20
7.0518659926
 30
0.0
 10
12.1469612576
 20
7.0706992431
 30
0.0
 10
12.1478383876
 20
7.0894847901
 30
0.0
 10
12.148282965
 20
7.108071733
 30
0.0
 10
12.1482915556
 20
7.1263108331
 30
0.0
 10
12.1478642428
 20
7.1440555451
 30
0.0
 10
12.1471405661
 20
7.1584637835
 30
0.0
 10
12.1463388894
 20
7.169632495
 30
0.0
 10
12.1456383732
 20
7.1777076312
 30
0.0
 10
12.144833575
 20
7.1855556844
 30
0.0
 10
12.1439261369
 20
7.1931609071
 30
0.0
 10
12.1429179054
 20
7.2005080271
 30
0.0
 10
12.1418109148
 20
7.2075823031
 30
0.0
 10
12.1406074455
 20
7.2143695544
 30
0.0
 10
12.1393099298
 20
7.2208561877
 30
0.0
 10
12.1379210004
 20
7.2270292307
 30
0.0
 10
12.1364435058
 20
7.2328763692
 30
0.0
 10
12.1348804143
 20
7.2383859641
 30
0.0
 10
12.1332348912
 20
7.2435470978
 30
0.0
 10
12.1315102607
 20
7.2483496073
 30
0.0
 10
12.1297099088
 20
7.2527840955
 30
0.0
 10
12.1278373673
 20
7.2568419992
 30
0.0
 10
12.1258961771
 20
7.2605156009
 30
0.0
 10
12.1238897746
 20
7.2637980103
 30
0.0
 10
12.1218214671
 20
7.2666832084
 30
0.0
 10
12.1196942284
 20
7.2691658382
 30
0.0
 10
12.1175102809
 20
7.2712409466
 30
0.0
 10
12.1152722462
 20
7.2729032946
 30
0.0
 10
12.1133358318
 20
7.2739542123
 30
0.0
 10
12.1117753757
 20
7.2745685674
 30
0.0
 10
12.1106114258
 20
7.2749170416
 30
0.0
 10
12.109438658
 20
7.2751591623
 30
0.0
 10
12.1086501099
 20
7.2752496544
 30
0.0
 10
12.1082563054
 20
7.275276969
 30
0.0
  0
SPLINE
  5
38C
100
AcDbEntity
  8
0
100
AcDbSpline
 62
7
  6
CONTINUOUS
 70
0
 71
3
 72
47
 73
43
 74
0
 42
0.0000001
 43
0.0000001
 44
0.0000000001
 40
0.0
 40
0.0
 40
0.0
 40
0.0
 40
0.0310617538
 40
0.0622793645
 40
0.093648285
 40
0.1251601354
 40
0.1568038006
 40
0.1885654579
 40
0.2204289022
 40
0.2523758947
 40
0.2843865427
 40
0.3164397019
 40
0.3485133947
 40
0.380585243
 40
0.4126329046
 40
0.4446345102
 40
0.4765690922
 40
0.5084170022
 40
0.5401603123
 40
0.5717831855
 40
0.6032722176
 40
0.6346167445
 40
0.6658090932
 40
0.6968447865
 40
0.7277226895
 40
0.7584450799
 40
0.7737523192
 40
0.7890230989
 40
0.8042586531
 40
0.8194604121
 40
0.8346300018
 40
0.8497692331
 40
0.8648800897
 40
0.8799647221
 40
0.8950254351
 40
0.9100646711
 40
0.9250850012
 40
0.9400891093
 40
0.9550797736
 40
0.9700598536
 40
0.985032273
 40
1.0
 40
1.0
 40
1.0
 40
1.0
 10
9.1591218725
 20
7.5838852265
 30
0.0
 10
9.1591218725
 20
7.5697669178
 30
0.0
 10
9.1601658227
 20
7.5414487822
 30
0.0
 10
9.1648271613
 20
7.4991038442
 30
0.0
 10
9.1725620598
 20
7.4570013215
 30
0.0
 10
9.1833285179
 20
7.4153713561
 30
0.0
 10
9.1970679391
 20
7.3744377814
 30
0.0
 10
9.2137058699
 20
7.3344215837
 30
0.0
 10
9.2331523279
 20
7.2955385239
 30
0.0
 10
9.2553021295
 20
7.2579982516
 30
0.0
 10
9.280035636
 20
7.2220031684
 30
0.0
 10
9.3072193764
 20
7.1877473946
 30
0.0
 10
9.3367066157
 20
7.1554156101
 30
0.0
 10
9.3683382995
 20
7.1251821829
 30
0.0
 10
9.4019438806
 20
7.0972102511
 30
0.0
 10
9.4373421103
 20
7.0716507069
 30
0.0
 10
9.4743421389
 20
7.0486415327
 30
0.0
 10
9.512744507
 20
7.028307069
 30
0.0
 10
9.5523421199
 20
7.0107571808
 30
0.0
 10
9.5929214557
 20
6.9960868362
 30
0.0
 10
9.6342636602
 20
6.9843755896
 30
0.0
 10
9.6761457092
 20
6.9756869754
 30
0.0
 10
9.7183414778
 20
6.9700683132
 30
0.0
 10
9.7606235987
 20
6.9675505504
 30
0.0
 10
9.8027621299
 20
6.9681474524
 30
0.0
 10
9.8376168981
 20
6.9712429062
 30
0.0
 10
9.8651923484
 20
6.9752698389
 30
0.0
 10
9.8856740382
 20
6.9790552655
 30
0.0
 10
9.9059503959
 20
6.9836042077
 30
0.0
 10
9.9259943673
 20
6.9889106156
 30
0.0
 10
9.945778769
 20
6.9949672662
 30
0.0
 10
9.9652768842
 20
7.0017659817
 30
0.0
 10
9.984462318
 20
7.0092976499
 30
0.0
 10
10.003309151
 20
7.0175520425
 30
0.0
 10
10.0217919037
 20
7.0265180053
 30
0.0
 10
10.0398855501
 20
7.0361834896
 30
0.0
 10
10.0575656474
 20
7.0465353784
 30
0.0
 10
10.0748082983
 20
7.0575596828
 30
0.0
 10
10.0915901228
 20
7.0692415407
 30
0.0
 10
10.1078885389
 20
7.0815651866
 30
0.0
 10
10.1236812146
 20
7.0945136643
 30
0.0
 10
10.1338598927
 20
7.1035524393
 30
0.0
 10
10.1388569147
 20
7.1081690565
 30
0.0
  0
SPLINE
  5
38D
100
AcDbEntity
  8
0
100
AcDbSpline
 62
7
  6
CONTINUOUS
 70
0
 71
3
 72
23
 73
19
 74
0
 42
0.0000001
 43
0.0000001
 44
0.0000000001
 40
0.0
 40
0.0
 40
0.0
 40
0.0
 40
0.063757936
 40
0.1273111887
 40
0.1906601787
 40
0.2538110277
 40
0.3167693767
 40
0.3795434908
 40
0.4421430497
 40
0.504579406
 40
0.5668654234
 40
0.6290153729
 40
0.6910448114
 40
0.7529704394
 40
0.814809948
 40
0.876581854
 40
0.9383053257
 40
1.0
 40
1.0
 40
1.0
 40
1.0
 10
9.1591218725
 20
7.5838852265
 30
0.0
 10
9.1591218725
 20
7.5928179893
 30
0.0
 10
9.1595378942
 20
7.610657703
 30
0.0
 10
9.1614156125
 20
7.6373133956
 30
0.0
 10
9.1645421485
 20
7.6637666602
 30
0.0
 10
9.168910541
 20
7.6899588478
 30
0.0
 10
9.1745114507
 20
7.7158331518
 30
0.0
 10
9.1813326418
 20
7.7413329896
 30
0.0
 10
9.1893593169
 20
7.7664027329
 30
0.0
 10
9.1985739987
 20
7.7909876447
 30
0.0
 10
9.2089566136
 20
7.8150340536
 30
0.0
 10
9.2204845374
 20
7.8384894558
 30
0.0
 10
9.2331326374
 20
7.8613026288
 30
0.0
 10
9.2468733464
 20
7.8834237613
 30
0.0
 10
9.2616766509
 20
7.9048044938
 30
0.0
 10
9.2775104185
 20
7.9253982841
 30
0.0
 10
9.2943394807
 20
7.9451595524
 30
0.0
 10
9.3062008824
 20
7.9577530306
 30
0.0
 10
9.3122829011
 20
7.9638948903
 30
0.0
  0
SPLINE
  5
38E
100
AcDbEntity
  8
0
100
AcDbSpline
 62
7
  6
CONTINUOUS
 70
0
 71
3
 72
71
 73
67
 74
0
 42
0.0000001
 43
0.0000001
 44
0.0000000001
 40
0.0
 40
0.0
 40
0.0
 40
0.0
 40
0.0155841868
 40
0.0311159674
 40
0.0465952419
 40
0.0620238831
 40
0.0774034499
 40
0.0927362823
 40
0.1080251235
 40
0.1232731729
 40
0.1384840549
 40
0.153661776
 40
0.1688106901
 40
0.1839354534
 40
0.1990409783
 40
0.2141323818
 40
0.2292149316
 40
0.2442939896
 40
0.2593749544
 40
0.2744632044
 40
0.2895640405
 40
0.3046826297
 40
0.3198239503
 40
0.3349927393
 40
0.3501934439
 40
0.3654301771
 40
0.3807066779
 40
0.3960262747
 40
0.4113918551
 40
0.4268058389
 40
0.4422701591
 40
0.457786248
 40
0.4733550285
 40
0.4889769091
 40
0.5046517848
 40
0.5203790431
 40
0.5361575761
 40
0.5519857959
 40
0.5678616537
 40
0.5837826614
 40
0.5997459183
 40
0.6157481416
 40
0.6317856992
 40
0.647854644
 40
0.6639507501
 40
0.6800695513
 40
0.696206382
 40
0.7123564195
 40
0.7285147266
 40
0.7446762933
 40
0.7608360806
 40
0.7769890651
 40
0.7931302832
 40
0.8092548745
 40
0.8253581235
 40
0.8414355011
 40
0.8574827059
 40
0.8734957052
 40
0.8894707697
 40
0.9054045134
 40
0.921293918
 40
0.9371363619
 40
0.952929726
 40
0.9686720559
 40
0.9843626909
 40
1.0
 40
1.0
 40
1.0
 40
1.0
 10
9.3329885316
 20
7.5718275327
 30
0.0
 10
9.3329885316
 20
7.5783746838
 30
0.0
 10
9.3333089502
 20
7.5914492905
 30
0.0
 10
9.3347552675
 20
7.610978811
 30
0.0
 10
9.3371632352
 20
7.6303479288
 30
0.0
 10
9.3405268786
 20
7.6495091615
 30
0.0
 10
9.3448382933
 20
7.6684166498
 30
0.0
 10
9.3500870819
 20
7.6870247041
 30
0.0
 10
9.3562606549
 20
7.7052884906
 30
0.0
 10
9.3633441573
 20
7.7231639669
 30
0.0
 10
9.3713205476
 20
7.7406080263
 30
0.0
 10
9.3801706337
 20
7.7575785939
 30
0.0
 10
9.3898731163
 20
7.7740347263
 30
0.0
 10
9.400404628
 20
7.7899367194
 30
0.0
 10
9.4117397768
 20
7.8052462171
 30
0.0
 10
9.4238512362
 20
7.8199262875
 30
0.0
 10
9.4367098057
 20
7.8339415148
 30
0.0
 10
9.4502844818
 20
7.8472580839
 30
0.0
 10
9.4645425315
 20
7.8598438622
 30
0.0
 10
9.4794495494
 20
7.8716685065
 30
0.0
 10
9.4949695682
 20
7.8827035116
 30
0.0
 10
9.5110651456
 20
7.8929222782
 30
0.0
 10
9.5276974544
 20
7.9023001774
 30
0.0
 10
9.5448263778
 20
7.9108146041
 30
0.0
 10
9.5624105927
 20
7.9184450611
 30
0.0
 10
9.5804076807
 20
7.9251731963
 30
0.0
 10
9.5987742385
 20
7.93098283
 30
0.0
 10
9.6174659801
 20
7.9358599972
 30
0.0
 10
9.6364378434
 20
7.9397929744
 30
0.0
 10
9.6556440946
 20
7.9427723238
 30
0.0
 10
9.6750384392
 20
7.9447909296
 30
0.0
 10
9.694574141
 20
7.9458439815
 30
0.0
 10
9.7142041318
 20
7.9459289902
 30
0.0
 10
9.7338811233
 20
7.9450457915
 30
0.0
 10
9.7535577179
 20
7.9431965456
 30
0.0
 10
9.7731865273
 20
7.9403857663
 30
0.0
 10
9.7927202856
 20
7.9366202738
 30
0.0
 10
9.8121119612
 20
7.9319091771
 30
0.0
 10
9.8313148679
 20
7.9262638538
 30
0.0
 10
9.8502827733
 20
7.9196979167
 30
0.0
 10
9.8689700192
 20
7.9122272123
 30
0.0
 10
9.8873316295
 20
7.9038697666
 30
0.0
 10
9.9053234119
 20
7.8946457264
 30
0.0
 10
9.9229020637
 20
7.8845773166
 30
0.0
 10
9.9400252716
 20
7.8736887822
 30
0.0
 10
9.9566518205
 20
7.8620063458
 30
0.0
 10
9.9727417029
 20
7.849558154
 30
0.0
 10
9.9882561974
 20
7.8363741834
 30
0.0
 10
10.0031579633
 20
7.8224861737
 30
0.0
 10
10.017411128
 20
7.8079275523
 30
0.0
 10
10.0309813719
 20
7.7927333552
 30
0.0
 10
10.043836037
 20
7.7769401651
 30
0.0
 10
10.0559441816
 20
7.7605859988
 30
0.0
 10
10.0672766529
 20
7.7437102173
 30
0.0
 10
10.0778061574
 20
7.7263534337
 30
0.0
 10
10.0875073202
 20
7.7085574145
 30
0.0
 10
10.0963567747
 20
7.6903649948
 30
0.0
 10
10.1043332065
 20
7.6718199659
 30
0.0
 10
10.1114173926
 20
7.6529669639
 30
0.0
 10
10.1175922468
 20
7.6338513655
 30
0.0
 10
10.1228428558
 20
7.6145191885
 30
0.0
 10
10.1271565592
 20
7.5950169418
 30
0.0
 10
10.1305228797
 20
7.5753916911
 30
0.0
 10
10.1329338213
 20
7.5556903612
 30
0.0
 10
10.1343833171
 20
7.5359612125
 30
0.0
 10
10.1347070149
 20
7.5227976356
 30
0.0
 10
10.1347070149
 20
7.5162281671
 30
0.0
  0
SPLINE
  5
38F
100
AcDbEntity
  8
0
100
AcDbSpline
 62
4
  6
CONTINUOUS
 70
0
 71
3
 72
299
 73
295
 74
0
 42
0.0000001
 43
0.0000001
 44
0.0000000001
 40
0.0
 40
0.0
 40
0.0
 40
0.0
 40
0.015625
 40
0.0234375
 40
0.03125
 40
0.0390625
 40
0.046875
 40
0.05078125
 40
0.0546875
 40
0.056640625
 40
0.05859375
 40
0.060546875
 40
0.0615234375
 40
0.0620117188
 40
0.0625
 40
0.0629882812
 40
0.0634765625
 40
0.064453125
 40
0.06640625
 40
0.068359375
 40
0.0703125
 40
0.07421875
 40
0.078125
 40
0.0859375
 40
0.09375
 40
0.1015625
 40
0.109375
 40
0.11328125
 40
0.1171875
 40
0.119140625
 40
0.12109375
 40
0.123046875
 40
0.1240234375
 40
0.1245117188
 40
0.125
 40
0.1254882812
 40
0.1259765625
 40
0.126953125
 40
0.12890625
 40
0.130859375
 40
0.1328125
 40
0.13671875
 40
0.140625
 40
0.1484375
 40
0.15625
 40
0.1640625
 40
0.171875
 40
0.17578125
 40
0.1796875
 40
0.181640625
 40
0.18359375
 40
0.185546875
 40
0.1865234375
 40
0.1870117188
 40
0.1875
 40
0.1879882812
 40
0.1884765625
 40
0.189453125
 40
0.19140625
 40
0.193359375
 40
0.1953125
 40
0.19921875
 40
0.203125
 40
0.2109375
 40
0.21875
 40
0.2265625
 40
0.234375
 40
0.23828125
 40
0.2421875
 40
0.24609375
 40
0.248046875
 40
0.2490234375
 40
0.25
 40
0.2509765625
 40
0.251953125
 40
0.25390625
 40
0.2578125
 40
0.26171875
 40
0.265625
 40
0.2734375
 40
0.28125
 40
0.2890625
 40
0.296875
 40
0.30078125
 40
0.3046875
 40
0.30859375
 40
0.310546875
 40
0.3115234375
 40
0.3125
 40
0.3134765625
 40
0.314453125
 40
0.31640625
 40
0.3203125
 40
0.32421875
 40
0.328125
 40
0.3359375
 40
0.34375
 40
0.3515625
 40
0.359375
 40
0.36328125
 40
0.3671875
 40
0.37109375
 40
0.373046875
 40
0.3740234375
 40
0.375
 40
0.3759765625
 40
0.376953125
 40
0.37890625
 40
0.3828125
 40
0.38671875
 40
0.390625
 40
0.3984375
 40
0.40625
 40
0.4140625
 40
0.421875
 40
0.42578125
 40
0.4296875
 40
0.43359375
 40
0.435546875
 40
0.4375
 40
0.439453125
 40
0.44140625
 40
0.4453125
 40
0.44921875
 40
0.453125
 40
0.4609375
 40
0.46875
 40
0.4765625
 40
0.484375
 40
0.48828125
 40
0.4921875
 40
0.49609375
 40
0.498046875
 40
0.4990234375
 40
0.5
 40
0.5009765625
 40
0.501953125
 40
0.50390625
 40
0.5078125
 40
0.51171875
 40
0.515625
 40
0.5234375
 40
0.53125
 40
0.5390625
 40
0.546875
 40
0.55078125
 40
0.5546875
 40
0.556640625
 40
0.55859375
 40
0.560546875
 40
0.5615234375
 40
0.5625
 40
0.5634765625
 40
0.564453125
 40
0.56640625
 40
0.568359375
 40
0.5703125
 40
0.57421875
 40
0.578125
 40
0.5859375
 40
0.59375
 40
0.6015625
 40
0.609375
 40
0.61328125
 40
0.6171875
 40
0.619140625
 40
0.62109375
 40
0.623046875
 40
0.6240234375
 40
0.6245117188
 40
0.625
 40
0.6254882812
 40
0.6259765625
 40
0.626953125
 40
0.62890625
 40
0.630859375
 40
0.6328125
 40
0.63671875
 40
0.640625
 40
0.6484375
 40
0.65625
 40
0.6640625
 40
0.671875
 40
0.67578125
 40
0.6796875
 40
0.681640625
 40
0.68359375
 40
0.685546875
 40
0.6865234375
 40
0.6870117188
 40
0.6875
 40
0.6879882812
 40
0.6884765625
 40
0.689453125
 40
0.69140625
 40
0.693359375
 40
0.6953125
 40
0.69921875
 40
0.703125
 40
0.7109375
 40
0.71875
 40
0.7265625
 40
0.734375
 40
0.73828125
 40
0.7421875
 40
0.744140625
 40
0.74609375
 40
0.748046875
 40
0.7490234375
 40
0.7495117188
 40
0.75
 40
0.7504882812
 40
0.7509765625
 40
0.751953125
 40
0.75390625
 40
0.755859375
 40
0.7578125
 40
0.76171875
 40
0.765625
 40
0.7734375
 40
0.78125
 40
0.7890625
 40
0.79296875
 40
0.796875
 40
0.80078125
 40
0.8046875
 40
0.806640625
 40
0.80859375
 40
0.810546875
 40
0.8115234375
 40
0.8120117188
 40
0.8125
 40
0.8129882812
 40
0.8134765625
 40
0.814453125
 40
0.81640625
 40
0.818359375
 40
0.8203125
 40
0.82421875
 40
0.828125
 40
0.83203125
 40
0.8359375
 40
0.84375
 40
0.8515625
 40
0.85546875
 40
0.859375
 40
0.86328125
 40
0.8671875
 40
0.869140625
 40
0.87109375
 40
0.8720703125
 40
0.873046875
 40
0.8740234375
 40
0.8745117188
 40
0.875
 40
0.8754882812
 40
0.8759765625
 40
0.876953125
 40
0.8779296875
 40
0.87890625
 40
0.880859375
 40
0.8828125
 40
0.88671875
 40
0.890625
 40
0.89453125
 40
0.8984375
 40
0.90625
 40
0.9140625
 40
0.91796875
 40
0.921875
 40
0.92578125
 40
0.9296875
 40
0.931640625
 40
0.93359375
 40
0.9345703125
 40
0.935546875
 40
0.9365234375
 40
0.9370117188
 40
0.9375
 40
0.9379882812
 40
0.9384765625
 40
0.939453125
 40
0.9404296875
 40
0.94140625
 40
0.943359375
 40
0.9453125
 40
0.94921875
 40
0.953125
 40
0.95703125
 40
0.9609375
 40
0.96875
 40
0.9765625
 40
0.984375
 40
1.0
 40
1.0
 40
1.0
 40
1.0
 10
12.4252051517
 20
9.1206078376
 30
0.0
 10
12.4243656175
 20
9.1194896982
 30
0.0
 10
12.4231063162
 20
9.1178124893
 30
0.0
 10
12.421427248
 20
9.1155762098
 30
0.0
 10
12.4201679466
 20
9.1138990025
 30
0.0
 10
12.4189086458
 20
9.1122217863
 30
0.0
 10
12.4178592268
 20
9.1108241338
 30
0.0
 10
12.4170196952
 20
9.10970595
 30
0.0
 10
12.41649498
 20
9.1090072257
 30
0.0
 10
12.4160752259
 20
9.1084479243
 30
0.0
 10
12.415760361
 20
9.1080293297
 30
0.0
 10
12.4154981304
 20
9.107677697
 30
0.0
 10
12.4153142612
 20
9.1074370566
 30
0.0
 10
12.4152096736
 20
9.1072909561
 30
0.0
 10
12.4151298795
 20
9.1072055836
 30
0.0
 10
12.4150552589
 20
9.1070276956
 30
0.0
 10
12.4149539601
 20
9.106822782
 30
0.0
 10
12.4147775282
 20
9.1064491477
 30
0.0
 10
12.4145250429
 20
9.1059232452
 30
0.0
 10
12.4142222488
 20
9.1052887976
 30
0.0
 10
12.4138184576
 20
9.1044440427
 30
0.0
 10
12.413313741
 20
9.1033876966
 30
0.0
 10
12.412506182
 20
9.1016977678
 30
0.0
 10
12.4114967375
 20
9.0995852792
 30
0.0
 10
12.4102854021
 20
9.0970503281
 30
0.0
 10
12.4090740681
 20
9.0945153602
 30
0.0
 10
12.40806462
 20
9.0924029135
 30
0.0
 10
12.4072570683
 20
9.0907129009
 30
0.0
 10
12.406752333
 20
9.0896567678
 30
0.0
 10
12.4063485802
 20
9.0888115756
 30
0.0
 10
12.4060456688
 20
9.0881784637
 30
0.0
 10
12.4057935503
 20
9.0876483822
 30
0.0
 10
12.4056164637
 20
9.0872822082
 30
0.0
 10
12.4055162139
 20
9.0870653414
 30
0.0
 10
12.4054383712
 20
9.0869241697
 30
0.0
 10
12.4053706787
 20
9.0867008968
 30
0.0
 10
12.4052768814
 20
9.0864318374
 30
0.0
 10
12.4051143858
 20
9.0859476405
 30
0.0
 10
12.4048813869
 20
9.0852629065
 30
0.0
 10
12.4046021572
 20
9.0844382399
 30
0.0
 10
12.4042297221
 20
9.0833397273
 30
0.0
 10
12.4037642224
 20
9.0819662294
 30
0.0
 10
12.4030193981
 20
9.0797688324
 30
0.0
 10
12.4020883763
 20
9.0770220173
 30
0.0
 10
12.4009711462
 20
9.0737258705
 30
0.0
 10
12.3998539183
 20
9.0704297084
 30
0.0
 10
12.3989228909
 20
9.0676829314
 30
0.0
 10
12.3981780778
 20
9.0654854582
 30
0.0
 10
12.3977125498
 20
9.064112154
 30
0.0
 10
12.3973401727
 20
9.0630132439
 30
0.0
 10
12.3970607659
 20
9.0621897916
 30
0.0
 10
12.3968283212
 20
9.0615012581
 30
0.0
 10
12.3966648361
 20
9.0610238441
 30
0.0
 10
12.3965726243
 20
9.0607439169
 30
0.0
 10
12.3965000617
 20
9.0605540264
 30
0.0
 10
12.3964405101
 20
9.0602874757
 30
0.0
 10
12.3963565695
 20
9.0599588148
 30
0.0
 10
12.396211788
 20
9.0593711996
 30
0.0
 10
12.3960038518
 20
9.0585382627
 30
0.0
 10
12.3957548015
 20
9.0575359505
 30
0.0
 10
12.3954225692
 20
9.056200508
 30
0.0
 10
12.3950073355
 20
9.0545308715
 30
0.0
 10
12.3943429297
 20
9.0518596397
 30
0.0
 10
12.3935124346
 20
9.0485205333
 30
0.0
 10
12.3925158301
 20
9.0445136454
 30
0.0
 10
12.3915192477
 20
9.040506705
 30
0.0
 10
12.3906886971
 20
9.03716773
 30
0.0
 10
12.3900244022
 20
9.0344962353
 30
0.0
 10
12.3895257835
 20
9.0324934734
 30
0.0
 10
12.3891115325
 20
9.0308217725
 30
0.0
 10
12.3888190749
 20
9.0296569445
 30
0.0
 10
12.3886558317
 20
9.0289829552
 30
0.0
 10
12.3885224823
 20
9.0285010509
 30
0.0
 10
12.388430863
 20
9.0279289827
 30
0.0
 10
12.3882941481
 20
9.0271976752
 30
0.0
 10
12.3880616789
 20
9.0259032339
 30
0.0
 10
12.3877260343
 20
9.024061693
 30
0.0
 10
12.3873247785
 20
9.0218485647
 30
0.0
 10
12.3867892405
 20
9.0188988726
 30
0.0
 10
12.3861200012
 20
9.0152113625
 30
0.0
 10
12.3853168299
 20
9.0107865282
 30
0.0
 10
12.3845137018
 20
9.0063616146
 30
0.0
 10
12.3838443547
 20
9.0026743026
 30
0.0
 10
12.3833090324
 20
8.9997242143
 30
0.0
 10
12.3829071187
 20
8.9975122947
 30
0.0
 10
12.3825735323
 20
8.9956669723
 30
0.0
 10
12.3823373889
 20
8.9943792815
 30
0.0
 10
12.3822065609
 20
8.9936371581
 30
0.0
 10
12.382096859
 20
8.9930983128
 30
0.0
 10
12.3820314249
 20
8.9924916286
 30
0.0
 10
12.3819287384
 20
8.9917063794
 30
0.0
 10
12.3817562312
 20
8.9903211682
 30
0.0
 10
12.3815060312
 20
8.988348059
 30
0.0
 10
12.3812074011
 20
8.9859778608
 30
0.0
 10
12.380808665
 20
8.9828184584
 30
0.0
 10
12.3803104395
 20
8.9788689089
 30
0.0
 10
12.3797124792
 20
8.9741295802
 30
0.0
 10
12.3791145659
 20
8.969390203
 30
0.0
 10
12.3786162231
 20
8.9654407748
 30
0.0
 10
12.3782177215
 20
8.9622811299
 30
0.0
 10
12.3779183765
 20
8.9599116717
 30
0.0
 10
12.3776704129
 20
8.9579362474
 30
0.0
 10
12.3774939133
 20
8.9565551691
 30
0.0
 10
12.3773976237
 20
8.9557632978
 30
0.0
 10
12.3773125403
 20
8.9551769542
 30
0.0
 10
12.3772766378
 20
8.9545617131
 30
0.0
 10
12.3772116129
 20
8.9537514714
 30
0.0
 10
12.3771058121
 20
8.952328852
 30
0.0
 10
12.3769504894
 20
8.9502989939
 30
0.0
 10
12.3767658906
 20
8.9478621132
 30
0.0
 10
12.3765191348
 20
8.9446133061
 30
0.0
 10
12.3762109001
 20
8.9405521717
 30
0.0
 10
12.3758409466
 20
8.9356788618
 30
0.0
 10
12.375470944
 20
8.9308055474
 30
0.0
 10
12.3751628323
 20
8.9267444242
 30
0.0
 10
12.3749158303
 20
8.9234955947
 30
0.0
 10
12.3747319824
 20
8.9210587822
 30
0.0
 10
12.3745743108
 20
8.9190287108
 30
0.0
 10
12.3744581877
 20
8.9174032952
 30
0.0
 10
12.374343732
 20
8.9161879458
 30
0.0
 10
12.3743337228
 20
8.9149584263
 30
0.0
 10
12.3742838927
 20
8.9133240168
 30
0.0
 10
12.3742341226
 20
8.9112793067
 30
0.0
 10
12.3741690407
 20
8.9088263816
 30
0.0
 10
12.3740841361
 20
8.9055555604
 30
0.0
 10
12.3739773648
 20
8.9014671233
 30
0.0
 10
12.3738495071
 20
8.8965609517
 30
0.0
 10
12.3737216028
 20
8.8916548254
 30
0.0
 10
12.3736149482
 20
8.8875662751
 30
0.0
 10
12.3735298102
 20
8.8842956803
 30
0.0
 10
12.3734654404
 20
8.8818420648
 30
0.0
 10
12.3734134423
 20
8.8797995143
 30
0.0
 10
12.3733738184
 20
8.8783655508
 30
0.0
 10
12.3733562122
 20
8.8775526668
 30
0.0
 10
12.373328821
 20
8.8769246266
 30
0.0
 10
12.3733556578
 20
8.8763668333
 30
0.0
 10
12.373372525
 20
8.8755986059
 30
0.0
 10
12.3734108555
 20
8.8742656244
 30
0.0
 10
12.3734610059
 20
8.8723553965
 30
0.0
 10
12.3735231584
 20
8.8700656778
 30
0.0
 10
12.3736053397
 20
8.8670118271
 30
0.0
 10
12.3737083023
 20
8.8631948193
 30
0.0
 10
12.3738317579
 20
8.858614282
 30
0.0
 10
12.3739552337
 20
8.8540337679
 30
0.0
 10
12.3740581459
 20
8.8502167022
 30
0.0
 10
12.3741404278
 20
8.8471629674
 30
0.0
 10
12.3741919658
 20
8.8452545739
 30
0.0
 10
12.3742329398
 20
8.8437274219
 30
0.0
 10
12.3742643726
 20
8.8425832553
 30
0.0
 10
12.3742883322
 20
8.8416259737
 30
0.0
 10
12.3743125113
 20
8.8408686924
 30
0.0
 10
12.3743169521
 20
8.8402773854
 30
0.0
 10
12.3743736612
 20
8.8397751902
 30
0.0
 10
12.3744310153
 20
8.8390744686
 30
0.0
 10
12.3745089722
 20
8.8382092466
 30
0.0
 10
12.3745998391
 20
8.8371664088
 30
0.0
 10
12.3747219316
 20
8.835777555
 30
0.0
 10
12.3748742264
 20
8.8340409411
 30
0.0
 10
12.3751180775
 20
8.8312626644
 30
0.0
 10
12.3754228299
 20
8.8277897141
 30
0.0
 10
12.3757885585
 20
8.823622217
 30
0.0
 10
12.3761542824
 20
8.8194547137
 30
0.0
 10
12.3764590466
 20
8.8159817787
 30
0.0
 10
12.3767028741
 20
8.8132034713
 30
0.0
 10
12.3768552289
 20
8.8114669355
 30
0.0
 10
12.3769771984
 20
8.8100779214
 30
0.0
 10
12.3770684409
 20
8.8090355734
 30
0.0
 10
12.3771452227
 20
8.808168819
 30
0.0
 10
12.3771975052
 20
8.8075584231
 30
0.0
 10
12.3772296679
 20
8.8072153524
 30
0.0
 10
12.3772473476
 20
8.8069419166
 30
0.0
 10
12.3772896532
 20
8.8067301483
 30
0.0
 10
12.3773374709
 20
8.8064262803
 30
0.0
 10
12.3774251541
 20
8.8059045334
 30
0.0
 10
12.3775483233
 20
8.8051539409
 30
0.0
 10
12.377697022
 20
8.8042554727
 30
0.0
 10
12.3778949741
 20
8.8030567318
 30
0.0
 10
12.3781425213
 20
8.8015585739
 30
0.0
 10
12.378538537
 20
8.7991613712
 30
0.0
 10
12.3790335772
 20
8.7961649197
 30
0.0
 10
12.3796276161
 20
8.792569154
 30
0.0
 10
12.3802216597
 20
8.7889734011
 30
0.0
 10
12.3807166883
 20
8.7859769176
 30
0.0
 10
12.3811127273
 20
8.7835797789
 30
0.0
 10
12.3813602153
 20
8.7820814583
 30
0.0
 10
12.3815582889
 20
8.7808830512
 30
0.0
 10
12.3817066164
 20
8.7799835632
 30
0.0
 10
12.3818309471
 20
8.7792361614
 30
0.0
 10
12.3819165567
 20
8.7787087186
 30
0.0
 10
12.3819676968
 20
8.7784139768
 30
0.0
 10
12.3819997971
 20
8.7781741758
 30
0.0
 10
12.382055806
 20
8.7780060262
 30
0.0
 10
12.382122145
 20
8.777756834
 30
0.0
 10
12.3822421237
 20
8.7773323921
 30
0.0
 10
12.3824114904
 20
8.7767199587
 30
0.0
 10
12.3826156
 20
8.7759876445
 30
0.0
 10
12.3828874425
 20
8.7750103153
 30
0.0
 10
12.3832273495
 20
8.7737889654
 30
0.0
 10
12.3837711427
 20
8.7718346314
 30
0.0
 10
12.3844509042
 20
8.7693917742
 30
0.0
 10
12.3852666089
 20
8.7664603175
 30
0.0
 10
12.3860823177
 20
8.7635288767
 30
0.0
 10
12.3867620692
 20
8.7610859796
 30
0.0
 10
12.3873058822
 20
8.7591317255
 30
0.0
 10
12.3876457388
 20
8.7579101726
 30
0.0
 10
12.3879176848
 20
8.7569332601
 30
0.0
 10
12.3881214779
 20
8.7561996729
 30
0.0
 10
12.3882918352
 20
8.755591222
 30
0.0
 10
12.3884100456
 20
8.7551596708
 30
0.0
 10
12.3884792178
 20
8.7549218696
 30
0.0
 10
12.388526524
 20
8.7547187303
 30
0.0
 10
12.3885913101
 20
8.7546103449
 30
0.0
 10
12.3886715945
 20
8.7544327799
 30
0.0
 10
12.3888149328
 20
8.7541374403
 30
0.0
 10
12.3890182168
 20
8.7537074756
 30
0.0
 10
12.3892627932
 20
8.7531949641
 30
0.0
 10
12.389588673
 20
8.7525104118
 30
0.0
 10
12.3899960989
 20
8.7516551336
 30
0.0
 10
12.3906479377
 20
8.750286458
 30
0.0
 10
12.3914627509
 20
8.7485756925
 30
0.0
 10
12.3924405205
 20
8.7465227406
 30
0.0
 10
12.3932553296
 20
8.744811953
 30
0.0
 10
12.3939071773
 20
8.743443326
 30
0.0
 10
12.3943960612
 20
8.7424168432
 30
0.0
 10
12.3948849525
 20
8.7413904089
 30
0.0
 10
12.3952923388
 20
8.740534896
 30
0.0
 10
12.3956182995
 20
8.7398508237
 30
0.0
 10
12.3958626289
 20
8.739336846
 30
0.0
 10
12.3960666858
 20
8.7389114686
 30
0.0
 10
12.3962086443
 20
8.7386079401
 30
0.0
 10
12.3962911395
 20
8.7384434956
 30
0.0
 10
12.3963491346
 20
8.738294808
 30
0.0
 10
12.396421947
 20
8.7382430376
 30
0.0
 10
12.3965138618
 20
8.7381402045
 30
0.0
 10
12.3966771207
 20
8.7379759975
 30
0.0
 10
12.3969090887
 20
8.7377331814
 30
0.0
 10
12.3971879892
 20
8.7374453267
 30
0.0
 10
12.3975596683
 20
8.7370602893
 30
0.0
 10
12.3980243318
 20
8.736579415
 30
0.0
 10
12.3985819003
 20
8.7360021847
 30
0.0
 10
12.3991394762
 20
8.7354250028
 30
0.0
 10
12.3998829082
 20
8.7346554101
 30
0.0
 10
12.400812199
 20
8.7336934249
 30
0.0
 10
12.4017414895
 20
8.7327314382
 30
0.0
 10
12.4024849219
 20
8.731961848
 30
0.0
 10
12.4030424965
 20
8.7313846588
 30
0.0
 10
12.4036000698
 20
8.730807456
 30
0.0
 10
12.4040647185
 20
8.7303264963
 30
0.0
 10
12.4044364278
 20
8.7299416329
 30
0.0
 10
12.404668768
 20
8.7297013112
 30
0.0
 10
12.40485459
 20
8.7295085547
 30
0.0
 10
12.404994094
 20
8.7293653538
 30
0.0
 10
12.4051099098
 20
8.7292416729
 30
0.0
 10
12.4052035439
 20
8.7291524773
 30
0.0
 10
12.4052710873
 20
8.7290589415
 30
0.0
 10
12.4053488689
 20
8.7290670875
 30
0.0
 10
12.4054490014
 20
8.7290424301
 30
0.0
 10
12.4055753939
 20
8.7290237946
 30
0.0
 10
12.4057265398
 20
8.7289962159
 30
0.0
 10
12.4059282511
 20
8.7289612662
 30
0.0
 10
12.4061803274
 20
8.7289169553
 30
0.0
 10
12.4065836846
 20
8.7288464064
 30
0.0
 10
12.4070878691
 20
8.7287581008
 30
0.0
 10
12.4076928956
 20
8.7286521852
 30
0.0
 10
12.4082979208
 20
8.7285462559
 30
0.0
 10
12.4091046214
 20
8.7284050217
 30
0.0
 10
12.4101129971
 20
8.7282284772
 30
0.0
 10
12.4111213729
 20
8.7280519338
 30
0.0
 10
12.4119280733
 20
8.7279106977
 30
0.0
 10
12.412533099
 20
8.7278047743
 30
0.0
 10
12.4131381236
 20
8.7276988367
 30
0.0
 10
12.413642314
 20
8.7276105995
 30
0.0
 10
12.4140456591
 20
8.727539911
 30
0.0
 10
12.4142977663
 20
8.7274959555
 30
0.0
 10
12.4144994142
 20
8.7274602762
 30
0.0
 10
12.4146507537
 20
8.7274349264
 30
0.0
 10
12.4147765405
 20
8.7274093174
 30
0.0
 10
12.4148779089
 20
8.7273988873
 30
0.0
 10
12.414951916
 20
8.7273635839
 30
0.0
 10
12.4150336305
 20
8.7274331754
 30
0.0
 10
12.4151398909
 20
8.7274893228
 30
0.0
 10
12.41527364
 20
8.7275720785
 30
0.0
 10
12.4154337437
 20
8.7276660044
 30
0.0
 10
12.4156473533
 20
8.7277931184
 30
0.0
 10
12.4159143181
 20
8.7279513674
 30
0.0
 10
12.4163414881
 20
8.7282049254
 30
0.0
 10
12.4168754416
 20
8.7285217495
 30
0.0
 10
12.4175161896
 20
8.7289019913
 30
0.0
 10
12.4181569366
 20
8.729282219
 30
0.0
 10
12.4190112663
 20
8.7297891941
 30
0.0
 10
12.4200791784
 20
8.7304229114
 30
0.0
 10
12.4213606728
 20
8.7311833728
 30
0.0
 10
12.4230693321
 20
8.7321973211
 30
0.0
 10
12.4243508266
 20
8.7329577824
 30
0.0
 10
12.4252051562
 20
8.7334647566
 30
0.0
  0
SPLINE
  5
390
100
AcDbEntity
  8
0
100
AcDbSpline
 62
4
  6
CONTINUOUS
 70
0
 71
3
 72
299
 73
295
 74
0
 42
0.0000001
 43
0.0000001
 44
0.0000000001
 40
0.0
 40
0.0
 40
0.0
 40
0.0
 40
0.015625
 40
0.0234375
 40
0.03125
 40
0.0390625
 40
0.046875
 40
0.05078125
 40
0.0546875
 40
0.056640625
 40
0.05859375
 40
0.060546875
 40
0.0615234375
 40
0.0620117188
 40
0.0625
 40
0.0629882812
 40
0.0634765625
 40
0.064453125
 40
0.06640625
 40
0.068359375
 40
0.0703125
 40
0.07421875
 40
0.078125
 40
0.0859375
 40
0.09375
 40
0.1015625
 40
0.109375
 40
0.11328125
 40
0.1171875
 40
0.119140625
 40
0.12109375
 40
0.123046875
 40
0.1240234375
 40
0.1245117188
 40
0.125
 40
0.1254882812
 40
0.1259765625
 40
0.126953125
 40
0.12890625
 40
0.130859375
 40
0.1328125
 40
0.13671875
 40
0.140625
 40
0.1484375
 40
0.15625
 40
0.1640625
 40
0.171875
 40
0.17578125
 40
0.1796875
 40
0.181640625
 40
0.18359375
 40
0.185546875
 40
0.1865234375
 40
0.1870117188
 40
0.1875
 40
0.1879882812
 40
0.1884765625
 40
0.189453125
 40
0.19140625
 40
0.193359375
 40
0.1953125
 40
0.19921875
 40
0.203125
 40
0.2109375
 40
0.21875
 40
0.2265625
 40
0.234375
 40
0.23828125
 40
0.2421875
 40
0.24609375
 40
0.248046875
 40
0.2490234375
 40
0.25
 40
0.2509765625
 40
0.251953125
 40
0.25390625
 40
0.2578125
 40
0.26171875
 40
0.265625
 40
0.2734375
 40
0.28125
 40
0.2890625
 40
0.296875
 40
0.30078125
 40
0.3046875
 40
0.30859375
 40
0.310546875
 40
0.3115234375
 40
0.3125
 40
0.3134765625
 40
0.314453125
 40
0.31640625
 40
0.3203125
 40
0.32421875
 40
0.328125
 40
0.3359375
 40
0.34375
 40
0.3515625
 40
0.359375
 40
0.36328125
 40
0.3671875
 40
0.37109375
 40
0.373046875
 40
0.3740234375
 40
0.375
 40
0.3759765625
 40
0.376953125
 40
0.37890625
 40
0.3828125
 40
0.38671875
 40
0.390625
 40
0.3984375
 40
0.40625
 40
0.4140625
 40
0.421875
 40
0.42578125
 40
0.4296875
 40
0.43359375
 40
0.435546875
 40
0.4375
 40
0.439453125
 40
0.44140625
 40
0.4453125
 40
0.44921875
 40
0.453125
 40
0.4609375
 40
0.46875
 40
0.4765625
 40
0.484375
 40
0.48828125
 40
0.4921875
 40
0.49609375
 40
0.498046875
 40
0.4990234375
 40
0.5
 40
0.5009765625
 40
0.501953125
 40
0.50390625
 40
0.5078125
 40
0.51171875
 40
0.515625
 40
0.5234375
 40
0.53125
 40
0.5390625
 40
0.546875
 40
0.55078125
 40
0.5546875
 40
0.556640625
 40
0.55859375
 40
0.560546875
 40
0.5615234375
 40
0.5625
 40
0.5634765625
 40
0.564453125
 40
0.56640625
 40
0.568359375
 40
0.5703125
 40
0.57421875
 40
0.578125
 40
0.5859375
 40
0.59375
 40
0.6015625
 40
0.609375
 40
0.61328125
 40
0.6171875
 40
0.619140625
 40
0.62109375
 40
0.623046875
 40
0.6240234375
 40
0.6245117188
 40
0.625
 40
0.6254882812
 40
0.6259765625
 40
0.626953125
 40
0.62890625
 40
0.630859375
 40
0.6328125
 40
0.63671875
 40
0.640625
 40
0.6484375
 40
0.65625
 40
0.6640625
 40
0.671875
 40
0.67578125
 40
0.6796875
 40
0.681640625
 40
0.68359375
 40
0.685546875
 40
0.6865234375
 40
0.6870117188
 40
0.6875
 40
0.6879882812
 40
0.6884765625
 40
0.689453125
 40
0.69140625
 40
0.693359375
 40
0.6953125
 40
0.69921875
 40
0.703125
 40
0.7109375
 40
0.71875
 40
0.7265625
 40
0.734375
 40
0.73828125
 40
0.7421875
 40
0.744140625
 40
0.74609375
 40
0.748046875
 40
0.7490234375
 40
0.7495117188
 40
0.75
 40
0.7504882812
 40
0.7509765625
 40
0.751953125
 40
0.75390625
 40
0.755859375
 40
0.7578125
 40
0.76171875
 40
0.765625
 40
0.7734375
 40
0.78125
 40
0.7890625
 40
0.79296875
 40
0.796875
 40
0.80078125
 40
0.8046875
 40
0.806640625
 40
0.80859375
 40
0.810546875
 40
0.8115234375
 40
0.8120117188
 40
0.8125
 40
0.8129882812
 40
0.8134765625
 40
0.814453125
 40
0.81640625
 40
0.818359375
 40
0.8203125
 40
0.82421875
 40
0.828125
 40
0.83203125
 40
0.8359375
 40
0.84375
 40
0.8515625
 40
0.85546875
 40
0.859375
 40
0.86328125
 40
0.8671875
 40
0.869140625
 40
0.87109375
 40
0.8720703125
 40
0.873046875
 40
0.8740234375
 40
0.8745117188
 40
0.875
 40
0.8754882812
 40
0.8759765625
 40
0.876953125
 40
0.8779296875
 40
0.87890625
 40
0.880859375
 40
0.8828125
 40
0.88671875
 40
0.890625
 40
0.89453125
 40
0.8984375
 40
0.90625
 40
0.9140625
 40
0.91796875
 40
0.921875
 40
0.92578125
 40
0.9296875
 40
0.931640625
 40
0.93359375
 40
0.9345703125
 40
0.935546875
 40
0.9365234375
 40
0.9370117188
 40
0.9375
 40
0.9379882812
 40
0.9384765625
 40
0.939453125
 40
0.9404296875
 40
0.94140625
 40
0.943359375
 40
0.9453125
 40
0.94921875
 40
0.953125
 40
0.95703125
 40
0.9609375
 40
0.96875
 40
0.9765625
 40
0.984375
 40
1.0
 40
1.0
 40
1.0
 40
1.0
 10
12.4252051517
 20
8.7334647522
 30
0.0
 10
12.4260446858
 20
8.7345828916
 30
0.0
 10
12.4273039871
 20
8.7362601005
 30
0.0
 10
12.4289830554
 20
8.73849638
 30
0.0
 10
12.4302423567
 20
8.7401735873
 30
0.0
 10
12.4315016576
 20
8.7418508035
 30
0.0
 10
12.4325510765
 20
8.7432484561
 30
0.0
 10
12.4333906082
 20
8.7443666398
 30
0.0
 10
12.4339153233
 20
8.7450653641
 30
0.0
 10
12.4343350775
 20
8.7456246655
 30
0.0
 10
12.4346499423
 20
8.7460432601
 30
0.0
 10
12.4349121729
 20
8.7463948928
 30
0.0
 10
12.4350960421
 20
8.7466355332
 30
0.0
 10
12.4352006297
 20
8.7467816337
 30
0.0
 10
12.4352804239
 20
8.7468670062
 30
0.0
 10
12.4353550445
 20
8.7470448943
 30
0.0
 10
12.4354563432
 20
8.7472498079
 30
0.0
 10
12.4356327751
 20
8.7476234421
 30
0.0
 10
12.4358852604
 20
8.7481493446
 30
0.0
 10
12.4361880545
 20
8.7487837922
 30
0.0
 10
12.4365918458
 20
8.7496285472
 30
0.0
 10
12.4370965623
 20
8.7506848932
 30
0.0
 10
12.4379041214
 20
8.752374822
 30
0.0
 10
12.4389135658
 20
8.7544873107
 30
0.0
 10
12.4401249012
 20
8.7570222618
 30
0.0
 10
12.4413362352
 20
8.7595572296
 30
0.0
 10
12.4423456833
 20
8.7616696764
 30
0.0
 10
12.443153235
 20
8.763359689
 30
0.0
 10
12.4436579703
 20
8.764415822
 30
0.0
 10
12.4440617231
 20
8.7652610142
 30
0.0
 10
12.4443646345
 20
8.7658941261
 30
0.0
 10
12.444616753
 20
8.7664242076
 30
0.0
 10
12.4447938397
 20
8.7667903816
 30
0.0
 10
12.4448940894
 20
8.7670072484
 30
0.0
 10
12.4449719321
 20
8.7671484201
 30
0.0
 10
12.4450396247
 20
8.767371693
 30
0.0
 10
12.4451334219
 20
8.7676407525
 30
0.0
 10
12.4452959175
 20
8.7681249493
 30
0.0
 10
12.4455289165
 20
8.7688096833
 30
0.0
 10
12.4458081461
 20
8.7696343499
 30
0.0
 10
12.4461805812
 20
8.7707328626
 30
0.0
 10
12.4466460809
 20
8.7721063605
 30
0.0
 10
12.4473909052
 20
8.7743037574
 30
0.0
 10
12.448321927
 20
8.7770505726
 30
0.0
 10
12.4494391571
 20
8.7803467194
 30
0.0
 10
12.450556385
 20
8.7836428814
 30
0.0
 10
12.4514874124
 20
8.7863896584
 30
0.0
 10
12.4522322255
 20
8.7885871316
 30
0.0
 10
12.4526977535
 20
8.7899604358
 30
0.0
 10
12.4530701306
 20
8.7910593459
 30
0.0
 10
12.4533495374
 20
8.7918827982
 30
0.0
 10
12.4535819821
 20
8.7925713317
 30
0.0
 10
12.4537454672
 20
8.7930487457
 30
0.0
 10
12.453837679
 20
8.793328673
 30
0.0
 10
12.4539102416
 20
8.7935185634
 30
0.0
 10
12.4539697933
 20
8.7937851141
 30
0.0
 10
12.4540537338
 20
8.794113775
 30
0.0
 10
12.4541985153
 20
8.7947013903
 30
0.0
 10
12.4544064515
 20
8.7955343271
 30
0.0
 10
12.4546555018
 20
8.7965366393
 30
0.0
 10
12.4549877341
 20
8.7978720818
 30
0.0
 10
12.4554029678
 20
8.7995417184
 30
0.0
 10
12.4560673736
 20
8.8022129502
 30
0.0
 10
12.4568978687
 20
8.8055520565
 30
0.0
 10
12.4578944733
 20
8.8095589444
 30
0.0
 10
12.4588910556
 20
8.8135658849
 30
0.0
 10
12.4597216062
 20
8.8169048598
 30
0.0
 10
12.4603859011
 20
8.8195763545
 30
0.0
 10
12.4608845199
 20
8.8215791164
 30
0.0
 10
12.4612987708
 20
8.8232508173
 30
0.0
 10
12.4615912284
 20
8.8244156453
 30
0.0
 10
12.4617544716
 20
8.8250896346
 30
0.0
 10
12.4618878211
 20
8.8255715389
 30
0.0
 10
12.4619794403
 20
8.8261436071
 30
0.0
 10
12.4621161552
 20
8.8268749146
 30
0.0
 10
12.4623486245
 20
8.8281693559
 30
0.0
 10
12.462684269
 20
8.8300108968
 30
0.0
 10
12.4630855248
 20
8.8322240252
 30
0.0
 10
12.4636210628
 20
8.8351737172
 30
0.0
 10
12.4642903021
 20
8.8388612273
 30
0.0
 10
12.4650934734
 20
8.8432860616
 30
0.0
 10
12.4658966015
 20
8.8477109752
 30
0.0
 10
12.4665659486
 20
8.8513982872
 30
0.0
 10
12.467101271
 20
8.8543483755
 30
0.0
 10
12.4675031846
 20
8.8565602951
 30
0.0
 10
12.467836771
 20
8.8584056175
 30
0.0
 10
12.4680729144
 20
8.8596933084
 30
0.0
 10
12.4682037424
 20
8.8604354317
 30
0.0
 10
12.4683134443
 20
8.860974277
 30
0.0
 10
12.4683788784
 20
8.8615809612
 30
0.0
 10
12.4684815649
 20
8.8623662104
 30
0.0
 10
12.4686540721
 20
8.8637514217
 30
0.0
 10
12.4689042721
 20
8.8657245308
 30
0.0
 10
12.4692029022
 20
8.8680947291
 30
0.0
 10
12.4696016383
 20
8.8712541314
 30
0.0
 10
12.4700998639
 20
8.8752036809
 30
0.0
 10
12.4706978241
 20
8.8799430096
 30
0.0
 10
12.4712957374
 20
8.8846823868
 30
0.0
 10
12.4717940802
 20
8.888631815
 30
0.0
 10
12.4721925818
 20
8.89179146
 30
0.0
 10
12.4724919268
 20
8.8941609181
 30
0.0
 10
12.4727398904
 20
8.8961363425
 30
0.0
 10
12.47291639
 20
8.8975174208
 30
0.0
 10
12.4730126797
 20
8.898309292
 30
0.0
 10
12.473097763
 20
8.8988956356
 30
0.0
 10
12.4731336655
 20
8.8995108767
 30
0.0
 10
12.4731986904
 20
8.9003211185
 30
0.0
 10
12.4733044913
 20
8.9017437378
 30
0.0
 10
12.4734598139
 20
8.9037735959
 30
0.0
 10
12.4736444127
 20
8.9062104766
 30
0.0
 10
12.4738911685
 20
8.9094592838
 30
0.0
 10
12.4741994033
 20
8.9135204181
 30
0.0
 10
12.4745693567
 20
8.918393728
 30
0.0
 10
12.4749393593
 20
8.9232670425
 30
0.0
 10
12.475247471
 20
8.9273281656
 30
0.0
 10
12.475494473
 20
8.9305769952
 30
0.0
 10
12.4756783209
 20
8.9330138076
 30
0.0
 10
12.4758359925
 20
8.935043879
 30
0.0
 10
12.4759521156
 20
8.9366692946
 30
0.0
 10
12.4760665713
 20
8.9378846441
 30
0.0
 10
12.4760765805
 20
8.9391141635
 30
0.0
 10
12.4761264107
 20
8.940748573
 30
0.0
 10
12.4761761807
 20
8.9427932831
 30
0.0
 10
12.4762412626
 20
8.9452462083
 30
0.0
 10
12.4763261672
 20
8.9485170294
 30
0.0
 10
12.4764329385
 20
8.9526054665
 30
0.0
 10
12.4765607962
 20
8.9575116381
 30
0.0
 10
12.4766887005
 20
8.9624177644
 30
0.0
 10
12.4767953551
 20
8.9665063148
 30
0.0
 10
12.4768804932
 20
8.9697769095
 30
0.0
 10
12.4769448629
 20
8.972230525
 30
0.0
 10
12.476996861
 20
8.9742730756
 30
0.0
 10
12.4770364849
 20
8.975707039
 30
0.0
 10
12.4770540912
 20
8.976519923
 30
0.0
 10
12.4770814823
 20
8.9771479632
 30
0.0
 10
12.4770546455
 20
8.9777057566
 30
0.0
 10
12.4770377783
 20
8.9784739839
 30
0.0
 10
12.4769994478
 20
8.9798069654
 30
0.0
 10
12.4769492975
 20
8.9817171933
 30
0.0
 10
12.4768871449
 20
8.9840069121
 30
0.0
 10
12.4768049636
 20
8.9870607627
 30
0.0
 10
12.4767020011
 20
8.9908777705
 30
0.0
 10
12.4765785454
 20
8.9954583078
 30
0.0
 10
12.4764550697
 20
9.000038822
 30
0.0
 10
12.4763521574
 20
9.0038558877
 30
0.0
 10
12.4762698755
 20
9.0069096224
 30
0.0
 10
12.4762183375
 20
9.0088180159
 30
0.0
 10
12.4761773635
 20
9.0103451679
 30
0.0
 10
12.4761459307
 20
9.0114893345
 30
0.0
 10
12.4761219711
 20
9.0124466161
 30
0.0
 10
12.476097792
 20
9.0132038975
 30
0.0
 10
12.4760933512
 20
9.0137952044
 30
0.0
 10
12.4760366421
 20
9.0142973996
 30
0.0
 10
12.475979288
 20
9.0149981212
 30
0.0
 10
12.4759013311
 20
9.0158633433
 30
0.0
 10
12.4758104642
 20
9.0169061811
 30
0.0
 10
12.4756883718
 20
9.0182950348
 30
0.0
 10
12.4755360769
 20
9.0200316487
 30
0.0
 10
12.4752922258
 20
9.0228099254
 30
0.0
 10
12.4749874734
 20
9.0262828758
 30
0.0
 10
12.4746217448
 20
9.0304503729
 30
0.0
 10
12.4742560209
 20
9.0346178761
 30
0.0
 10
12.4739512567
 20
9.0380908111
 30
0.0
 10
12.4737074292
 20
9.0408691186
 30
0.0
 10
12.4735550744
 20
9.0426056543
 30
0.0
 10
12.4734331049
 20
9.0439946684
 30
0.0
 10
12.4733418624
 20
9.0450370164
 30
0.0
 10
12.4732650807
 20
9.0459037709
 30
0.0
 10
12.4732127981
 20
9.0465141667
 30
0.0
 10
12.4731806354
 20
9.0468572374
 30
0.0
 10
12.4731629557
 20
9.0471306732
 30
0.0
 10
12.4731206501
 20
9.0473424415
 30
0.0
 10
12.4730728324
 20
9.0476463095
 30
0.0
 10
12.4729851493
 20
9.0481680565
 30
0.0
 10
12.47286198
 20
9.0489186489
 30
0.0
 10
12.4727132813
 20
9.0498171171
 30
0.0
 10
12.4725153292
 20
9.051015858
 30
0.0
 10
12.472267782
 20
9.052514016
 30
0.0
 10
12.4718717663
 20
9.0549112186
 30
0.0
 10
12.4713767261
 20
9.0579076701
 30
0.0
 10
12.4707826872
 20
9.0615034358
 30
0.0
 10
12.4701886436
 20
9.0650991888
 30
0.0
 10
12.469693615
 20
9.0680956722
 30
0.0
 10
12.469297576
 20
9.0704928109
 30
0.0
 10
12.469050088
 20
9.0719911315
 30
0.0
 10
12.4688520144
 20
9.0731895386
 30
0.0
 10
12.468703687
 20
9.0740890266
 30
0.0
 10
12.4685793562
 20
9.0748364284
 30
0.0
 10
12.4684937466
 20
9.0753638712
 30
0.0
 10
12.4684426066
 20
9.075658613
 30
0.0
 10
12.4684105062
 20
9.075898414
 30
0.0
 10
12.4683544973
 20
9.0760665636
 30
0.0
 10
12.4682881583
 20
9.0763157558
 30
0.0
 10
12.4681681796
 20
9.0767401977
 30
0.0
 10
12.4679988129
 20
9.0773526311
 30
0.0
 10
12.4677947033
 20
9.0780849454
 30
0.0
 10
12.4675228608
 20
9.0790622746
 30
0.0
 10
12.4671829538
 20
9.0802836244
 30
0.0
 10
12.4666391606
 20
9.0822379584
 30
0.0
 10
12.4659593991
 20
9.0846808156
 30
0.0
 10
12.4651436944
 20
9.0876122723
 30
0.0
 10
12.4643279857
 20
9.0905437131
 30
0.0
 10
12.4636482341
 20
9.0929866102
 30
0.0
 10
12.4631044211
 20
9.0949408643
 30
0.0
 10
12.4627645645
 20
9.0961624172
 30
0.0
 10
12.4624926185
 20
9.0971393297
 30
0.0
 10
12.4622888254
 20
9.0978729169
 30
0.0
 10
12.4621184682
 20
9.0984813678
 30
0.0
 10
12.4620002577
 20
9.0989129191
 30
0.0
 10
12.4619310856
 20
9.0991507202
 30
0.0
 10
12.4618837794
 20
9.0993538596
 30
0.0
 10
12.4618189932
 20
9.0994622449
 30
0.0
 10
12.4617387089
 20
9.0996398099
 30
0.0
 10
12.4615953705
 20
9.0999351496
 30
0.0
 10
12.4613920866
 20
9.1003651142
 30
0.0
 10
12.4611475101
 20
9.1008776257
 30
0.0
 10
12.4608216303
 20
9.101562178
 30
0.0
 10
12.4604142044
 20
9.1024174563
 30
0.0
 10
12.4597623656
 20
9.1037861318
 30
0.0
 10
12.4589475524
 20
9.1054968973
 30
0.0
 10
12.4579697828
 20
9.1075498492
 30
0.0
 10
12.4571549737
 20
9.1092606368
 30
0.0
 10
12.456503126
 20
9.1106292639
 30
0.0
 10
12.4560142421
 20
9.1116557466
 30
0.0
 10
12.4555253508
 20
9.112682181
 30
0.0
 10
12.4551179645
 20
9.1135376938
 30
0.0
 10
12.4547920038
 20
9.1142217662
 30
0.0
 10
12.4545476744
 20
9.1147357438
 30
0.0
 10
12.4543436175
 20
9.1151611213
 30
0.0
 10
12.454201659
 20
9.1154646498
 30
0.0
 10
12.4541191638
 20
9.1156290942
 30
0.0
 10
12.4540611687
 20
9.1157777819
 30
0.0
 10
12.4539883563
 20
9.1158295523
 30
0.0
 10
12.4538964416
 20
9.1159323853
 30
0.0
 10
12.4537331827
 20
9.1160965923
 30
0.0
 10
12.4535012146
 20
9.1163394085
 30
0.0
 10
12.4532223141
 20
9.1166272631
 30
0.0
 10
12.452850635
 20
9.1170123006
 30
0.0
 10
12.4523859715
 20
9.1174931749
 30
0.0
 10
12.451828403
 20
9.1180704052
 30
0.0
 10
12.4512708271
 20
9.118647587
 30
0.0
 10
12.4505273952
 20
9.1194171797
 30
0.0
 10
12.4495981043
 20
9.1203791649
 30
0.0
 10
12.4486688138
 20
9.1213411516
 30
0.0
 10
12.4479253814
 20
9.1221107418
 30
0.0
 10
12.4473678068
 20
9.122687931
 30
0.0
 10
12.4468102335
 20
9.1232651339
 30
0.0
 10
12.4463455848
 20
9.1237460935
 30
0.0
 10
12.4459738755
 20
9.1241309569
 30
0.0
 10
12.4457415353
 20
9.1243712787
 30
0.0
 10
12.4455557133
 20
9.1245640351
 30
0.0
 10
12.4454162093
 20
9.124707236
 30
0.0
 10
12.4453003936
 20
9.1248309169
 30
0.0
 10
12.4452067594
 20
9.1249201125
 30
0.0
 10
12.445139216
 20
9.1250136484
 30
0.0
 10
12.4450614344
 20
9.1250055023
 30
0.0
 10
12.444961302
 20
9.1250301598
 30
0.0
 10
12.4448349094
 20
9.1250487952
 30
0.0
 10
12.4446837635
 20
9.1250763739
 30
0.0
 10
12.4444820522
 20
9.1251113236
 30
0.0
 10
12.4442299759
 20
9.1251556345
 30
0.0
 10
12.4438266187
 20
9.1252261834
 30
0.0
 10
12.4433224342
 20
9.1253144891
 30
0.0
 10
12.4427174077
 20
9.1254204046
 30
0.0
 10
12.4421123826
 20
9.1255263339
 30
0.0
 10
12.4413056819
 20
9.1256675681
 30
0.0
 10
12.4402973062
 20
9.1258441127
 30
0.0
 10
12.4392889305
 20
9.126020656
 30
0.0
 10
12.43848223
 20
9.1261618922
 30
0.0
 10
12.4378772043
 20
9.1262678156
 30
0.0
 10
12.4372721797
 20
9.1263737531
 30
0.0
 10
12.4367679893
 20
9.1264619903
 30
0.0
 10
12.4363646442
 20
9.1265326788
 30
0.0
 10
12.436112537
 20
9.1265766343
 30
0.0
 10
12.4359108891
 20
9.1266123136
 30
0.0
 10
12.4357595496
 20
9.1266376634
 30
0.0
 10
12.4356337628
 20
9.1266632724
 30
0.0
 10
12.4355323944
 20
9.1266737025
 30
0.0
 10
12.4354583874
 20
9.1267090059
 30
0.0
 10
12.4353766728
 20
9.1266394145
 30
0.0
 10
12.4352704125
 20
9.126583267
 30
0.0
 10
12.4351366633
 20
9.1265005113
 30
0.0
 10
12.4349765596
 20
9.1264065854
 30
0.0
 10
12.43476295
 20
9.1262794714
 30
0.0
 10
12.4344959852
 20
9.1261212224
 30
0.0
 10
12.4340688152
 20
9.1258676644
 30
0.0
 10
12.4335348617
 20
9.1255508403
 30
0.0
 10
12.4328941137
 20
9.1251705985
 30
0.0
 10
12.4322533667
 20
9.1247903709
 30
0.0
 10
12.431399037
 20
9.1242833957
 30
0.0
 10
12.430331125
 20
9.1236496785
 30
0.0
 10
12.4290496305
 20
9.122889217
 30
0.0
 10
12.4273409712
 20
9.1218752687
 30
0.0
 10
12.4260594768
 20
9.1211148074
 30
0.0
 10
12.4252051471
 20
9.1206078333
 30
0.0
  0
ENDSEC
  0
SECTION
  2
OBJECTS
  0
DICTIONARY
  5
C
100
AcDbDictionary
280
0
281
1
  3
ACAD_GROUP
350
D
  3
ACAD_MLINESTYLE
350
17
  3
ACAD_LAYOUT
350
1A
  3
ACAD_PLOTSETTINGS
350
19
  3
ACAD_PLOTSTYLENAME
350
E
  3
ACAD_IMAGE_DICT
350
       392
  3
ACAD_IMAGE_VARS
350
       393
  3
ACAD_TABLESTYLE
350
       394
  0
IMAGEDEF_REACTOR
  5
391
100
AcDbRasterImageDefReactor
 90
2
330
282
  0
DICTIONARY
  5
D
102
{ACAD_REACTORS
330
C
102
}
100
AcDbDictionary
280
0
281
1
  0
ACDBDICTIONARYWDFLT
  5
E
102
{ACAD_REACTORS
330
C
102
}
100
AcDbDictionary
281
1
  3
Normal
350
F
100
AcDbDictionaryWithDefault
340
F
  0
DICTIONARY
  5
392
330
C
100
AcDbDictionary
281
1
  3
YVU_assy_2_img_1
350
       397
  0
RASTERVARIABLES
  5
393
330
C
100
AcDbRasterVariables
 90
0
 70
0
 71
1
 72
5
  0
DICTIONARY
  5
17
102
{ACAD_REACTORS
330
C
102
}
100
AcDbDictionary
280
0
281
1
  3
Standard
350
18
  0
DICTIONARY
  5
394
330
C
100
AcDbDictionary
281
1
  3
Standard
350
       398
  3
Standard1
350
       399
  0
DICTIONARY
  5
19
102
{ACAD_REACTORS
330
C
102
}
100
AcDbDictionary
281
1
  0
DICTIONARY
  5
1A
102
{ACAD_REACTORS
330
C
102
}
100
AcDbDictionary
281
1
  3
Model
350
395
  3
Layout1
350
396
  0
ACDBPLACEHOLDER
  5
F
102
{ACAD_REACTORS
330
E
102
}
  0
MLINESTYLE
  5
18
102
{ACAD_REACTORS
330
17
102
}
100
AcDbMlineStyle
  2
STANDARD
 70
0
  3

 62
256
 51
90.0
 52
90.0
 71
2
 49
0.5
 62
256
  6
BYLAYER
 49
-0.5
 62
256
  6
BYLAYER
  0
LAYOUT
  5
395
102
{ACAD_REACTORS
330
1A
102
}
100
AcDbPlotSettings
  1

  2
none_device
  4
ANSI_C_(22.00_x_17.00_Inches)
  6

 40
0.0
 41
0.0
 42
0.0
 43
0.0
 44
558.8
 45
431.8
 46
0.0
 47
0.0
 48
0.0
 49
0.0
140
0.0
141
0.0
142
1.0
143
1.0
 70
1024
 72
0
 73
0
 74
0
  7

 75
0
147
1.0
148
0.0
149
0.0
100
AcDbLayout
  1
Model
 70
0
 71
0
 10
0.0
 20
0.0
 11
22.0
 21
17.0
 12
0.0
 22
0.0
 32
0.0
 14
0.0
 24
0.0
 34
0.0
 15
0.0
 25
0.0
 35
0.0
146
0.0
 13
0.0
 23
0.0
 33
0.0
 16
1.0
 26
0.0
 36
0.0
 17
0.0
 27
1.0
 37
0.0
 76
0
330
207
345
0
346
0
  0
LAYOUT
  5
396
102
{ACAD_REACTORS
330
1A
102
}
100
AcDbPlotSettings
  1

  2
none_device
  4
ANSI_C_(22.00_x_17.00_Inches)
  6

 40
0.0
 41
0.0
 42
0.0
 43
0.0
 44
558.8
 45
431.8
 46
0.0
 47
0.0
 48
0.0
 49
0.0
140
0.0
141
0.0
142
1.0
143
1.0
 70
0
 72
0
 73
0
 74
0
  7

 75
0
147
1.0
148
0.0
149
0.0
100
AcDbLayout
  1
Layout1
 70
0
 71
1
 10
0.0
 20
0.0
 11
22.0
 21
17.0
 12
0.0
 22
0.0
 32
0.0
 14
0.0
 24
0.0
 34
0.0
 15
0.0
 25
0.0
 35
0.0
146
0.0
 13
0.0
 23
0.0
 33
0.0
 16
1.0
 26
0.0
 36
0.0
 17
0.0
 27
1.0
 37
0.0
 76
0
330
208
345
0
346
0
  0
IMAGEDEF
  5
397
102
{ACAD_REACTORS
330
392
330
391
102
}
100
AcDbRasterImageDef
 90
0
  1
YVU_assy_2_img_1.png
 10
369.0
 20
92.0
 11
0.0066666667
 21
0.0066666667
280
1
281
0
  0
TABLESTYLE
  5
398
102
{ACAD_REACTORS
330
394
330
285
330
286
102
}
330
394
100
AcDbTableStyle
  3
Standard
 70
0
 71
0
 40
0.06
 41
0.06
280
1
281
1
  7
Standard
140
0.18
170
1
 62
0
 63
7
283
0
  7
Standard
140
0.18
170
1
 62
0
 63
7
283
0
  7
Standard
140
0.18
170
1
 62
0
 63
7
283
0
  0
TABLESTYLE
  5
399
102
{ACAD_REACTORS
330
394
330
284
102
}
330
394
100
AcDbTableStyle
  3
Standard1
 70
1
 71
0
 40
0.06
 41
0.06
280
1
281
1
  7
Standard
140
0.18
170
1
 62
0
 63
7
283
0
  7
Standard
140
0.18
170
1
 62
0
 63
7
283
0
  7
Standard
140
0.18
170
1
 62
0
 63
7
283
0
  0
ENDSEC
  0
EOF
