999
DXF file: YVT_assy_2.dxf
999
Pro/ENGINEER 2014200 by Parametric Technology Corporation
  0
SECTION
  2
HEADER
  9
$ACADVER
  1
AC1021
  9
$DWGCODEPAGE
  3
ANSI_1252
  9
$EXTMAX
 10
22.0
 20
17.0
 30
0.0
  9
$EXTMIN
 10
0.0
 20
0.0
 30
0.0
  9
$LIMMIN
 10
0.0
 20
0.0
  9
$LIMMAX
 10
22.0
 20
17.0
  9
$VIEWCTR
 10
11.0
 20
8.5
  9
$VIEWSIZE
 40
17.0
  9
$CLAYER
  8
0
  9
$LTSCALE
 40
1.21
  9
$CELTYPE
  6
BYLAYER
  9
$DIMSCALE
 40
1.0
  9
$DIMASZ
 40
0.1875
  9
$DIMEXO
 40
0.0625
  9
$DIMDLI
 40
0.836
  9
$DIMEXE
 40
0.125
  9
$DIMCEN
 40
0.198
  9
$DIMLFAC
 40
1.0
  9
$DIMBLK
  1
_FILLED
  9
$DIMTXT
 40
0.1
  9
$DIMTOL
 70
0
  9
$DIMLIM
 70
0
  9
$DIMTFAC
 40
1.0
  9
$DIMGAP
 40
0.09
  9
$DIMDSEP
 70
46
  9
$AUNITS
 70
0
  9
$PDMODE
 70
3
  9
$PDSIZE
 40
0.3125
  9
$HANDSEED
  5
396
  9
$TILEMODE
 70
1
  9
$MEASUREMENT
 70
0
  9
$INSUNITS
 70
1
  0
ENDSEC
  0
SECTION
  2
CLASSES
  0
CLASS
  1
ACDBDICTIONARYWDFLT
  2
AcDbDictionaryWithDefault
  3
AutoCAD 2000
 90
0
 91
1
280
0
281
0
  0
CLASS
  1
ACDBPLACEHOLDER
  2
AcDbPlaceHolder
  3
AutoCAD 2000
 90
0
 91
1
280
0
281
0
  0
CLASS
  1
LAYOUT
  2
AcDbLayout
  3
AutoCAD 2000
 90
0
 91
0
280
0
281
0
  0
CLASS
  1
RASTERVARIABLES
  2
AcDbRasterVariables
  3
ISM
 90
0
 91
1
280
0
281
0
  0
CLASS
  1
IMAGEDEF
  2
AcDbRasterImageDef
  3
ISM
 90
0
 91
1
280
0
281
0
  0
CLASS
  1
IMAGEDEF_REACTOR
  2
AcDbRasterImageDefReactor
  3
ISM
 90
0
 91
1
280
0
281
0
  0
CLASS
  1
IMAGE
  2
AcDbRasterImage
  3
ISM
 90
127
 91
1
280
0
281
1
  0
CLASS
  1
TABLESTYLE
  2
AcDbTableStyle
  3
ObjectDBX Classes
 90
2047
 91
1
280
0
281
0
  0
CLASS
  1
ACAD_TABLE
  2
AcDbTable
  3
ObjectDBX Classes
 90
1025
 91
3
280
0
281
1
  0
ENDSEC
  0
SECTION
  2
TABLES
  0
TABLE
  2
VPORT
  5
8
100
AcDbSymbolTable
 70
2
  0
VPORT
  5
1F4
100
AcDbSymbolTableRecord
100
AcDbViewportTableRecord
  2
*ACTIVE
 70
0
 10
0.0
 20
0.0
 11
1.0
 21
1.0
 12
11.0
 22
8.5
 13
0.0
 23
0.0
 14
1.0
 24
1.0
 15
0.0
 25
0.0
 16
0.0
 26
0.0
 36
1.0
 17
0.0
 27
0.0
 37
0.0
 40
17.0
 41
1.2941176471
 42
50.0
 43
0.0
 44
0.0
 50
0.0
 51
0.0
 71
0
 72
100
 73
1
 74
1
 75
0
 76
0
 77
0
 78
0
  0
ENDTAB
  0
TABLE
  2
LTYPE
  5
5
100
AcDbSymbolTable
 70
6
  0
LTYPE
  5
14
100
AcDbSymbolTableRecord
100
AcDbLinetypeTableRecord
  2
BYBLOCK
 70
0
  3

 72
65
 73
0
 40
0.0
  0
LTYPE
  5
15
100
AcDbSymbolTableRecord
100
AcDbLinetypeTableRecord
  2
BYLAYER
 70
0
  3

 72
65
 73
0
 40
0.0
  0
LTYPE
  5
16
100
AcDbSymbolTableRecord
100
AcDbLinetypeTableRecord
  2
CONTINUOUS
 70
64
  3
Solid line
 72
65
 73
0
 40
0.0
  0
LTYPE
  5
1F5
100
AcDbSymbolTableRecord
100
AcDbLinetypeTableRecord
  2
CENTER
 70
64
  3
____ _ ____ _ ____ _ ____ _ ____ _ ____ _ ____
 72
65
 73
4
 40
0.6
 49
0.375
 74
0
 49
-0.075
 74
0
 49
0.075
 74
0
 49
-0.075
 74
0
  0
LTYPE
  5
1F6
100
AcDbSymbolTableRecord
100
AcDbLinetypeTableRecord
  2
HIDDEN
 70
64
  3
- - - - - - - - - - - - - - - - - - - -
 72
65
 73
2
 40
0.2
 49
0.1
 74
0
 49
-0.1
 74
0
  0
LTYPE
  5
1F7
100
AcDbSymbolTableRecord
100
AcDbLinetypeTableRecord
  2
PHANTOM
 70
64
  3
_____ _ _ _____ _ _ _____ _ _ _____
 72
65
 73
6
 40
0.8
 49
0.45
 74
0
 49
-0.05
 74
0
 49
0.1
 74
0
 49
-0.05
 74
0
 49
0.1
 74
0
 49
-0.05
 74
0
  0
LTYPE
  5
1F8
100
AcDbSymbolTableRecord
100
AcDbLinetypeTableRecord
  2
DOT
 70
64
  3
. . . . . . . . . . . . . . . . . . . .
 72
65
 73
2
 40
0.2
 49
0.1
 74
0
 49
-0.1
 74
0
  0
LTYPE
  5
1F9
100
AcDbSymbolTableRecord
100
AcDbLinetypeTableRecord
  2
DASHED
 70
64
  3
- - - - - - - - - - - - - - - - - - - -
 72
65
 73
2
 40
0.2
 49
0.1
 74
0
 49
-0.1
 74
0
  0
ENDTAB
  0
TABLE
  2
LAYER
  5
2
100
AcDbSymbolTable
 70
36
  0
LAYER
  5
10
100
AcDbSymbolTableRecord
100
AcDbLayerTableRecord
  2
0
 70
0
 62
7
  6
CONTINUOUS
370
-3
390
F
  0
LAYER
  5
1FA
100
AcDbSymbolTableRecord
100
AcDbLayerTableRecord
  2
DEFAULT_1
 70
0
 62
7
  6
CENTER
370
-3
390
F
  0
LAYER
  5
1FB
100
AcDbSymbolTableRecord
100
AcDbLayerTableRecord
  2
DEFAULT_2
 70
0
 62
8
  6
HIDDEN
370
-3
390
F
  0
LAYER
  5
1FC
100
AcDbSymbolTableRecord
100
AcDbLayerTableRecord
  2
DEFAULT_3
 70
0
 62
7
  6
PHANTOM
370
-3
390
F
  0
LAYER
  5
1FD
100
AcDbSymbolTableRecord
100
AcDbLayerTableRecord
  2
DATUM_PLANES
 70
0
 62
7
  6
CONTINUOUS
370
-3
390
F
  0
LAYER
  5
1FE
100
AcDbSymbolTableRecord
100
AcDbLayerTableRecord
  2
DIMENSIONS
 70
0
 62
7
  6
CONTINUOUS
370
-3
390
F
  0
LAYER
  5
1FF
100
AcDbSymbolTableRecord
100
AcDbLayerTableRecord
  2
DTM_500001
 70
0
 62
7
  6
CONTINUOUS
370
-3
390
F
  0
LAYER
  5
200
100
AcDbSymbolTableRecord
100
AcDbLayerTableRecord
  2
PARAMETERDIMENSIONS
 70
0
 62
7
  6
CONTINUOUS
370
-3
390
F
  0
LAYER
  5
201
100
AcDbSymbolTableRecord
100
AcDbLayerTableRecord
  2
PORT_AREAS
 70
0
 62
7
  6
CONTINUOUS
370
-3
390
F
  0
LAYER
  5
202
100
AcDbSymbolTableRecord
100
AcDbLayerTableRecord
  2
SUNNBOMCOSMETIC
 70
0
 62
7
  6
CONTINUOUS
370
-3
390
F
  0
LAYER
  5
203
100
AcDbSymbolTableRecord
100
AcDbLayerTableRecord
  2
SUNNBOMSTAMPING
 70
0
 62
7
  6
CONTINUOUS
370
-3
390
F
  0
LAYER
  5
204
100
AcDbSymbolTableRecord
100
AcDbLayerTableRecord
  2
THREADS
 70
0
 62
7
  6
CONTINUOUS
370
-3
390
F
  0
ENDTAB
  0
TABLE
  2
STYLE
  5
3
100
AcDbSymbolTable
 70
1
  0
STYLE
  5
11
100
AcDbSymbolTableRecord
100
AcDbTextStyleTableRecord
  2
STANDARD
 70
0
 40
0.0
 41
0.8
 50
0.0
 71
0
 42
0.2
  3
txt
  4

  0
STYLE
  5
205
100
AcDbSymbolTableRecord
100
AcDbTextStyleTableRecord
  2
TEXTSTYLE_1
 70
0
 40
0.0
 41
0.8
 50
0.0
 71
0
 42
0.2
  3
gdt
  4

  0
ENDTAB
  0
TABLE
  2
VIEW
  5
6
100
AcDbSymbolTable
 70
0
  0
ENDTAB
  0
TABLE
  2
UCS
  5
7
100
AcDbSymbolTable
 70
0
  0
ENDTAB
  0
TABLE
  2
APPID
  5
9
100
AcDbSymbolTable
 70
1
  0
APPID
  5
206
100
AcDbSymbolTableRecord
100
AcDbRegAppTableRecord
  2
ACAD
 70
0
  0
ENDTAB
  0
TABLE
  2
BLOCK_RECORD
  5
1
100
AcDbSymbolTable
 70
0
  0
BLOCK_RECORD
  5
207
100
AcDbSymbolTableRecord
100
AcDbBlockTableRecord
  2
*Model_Space
  0
BLOCK_RECORD
  5
208
100
AcDbSymbolTableRecord
100
AcDbBlockTableRecord
  2
*Paper_Space
  0
BLOCK_RECORD
  5
209
100
AcDbSymbolTableRecord
100
AcDbBlockTableRecord
  2
SUN_FIRST_THIRD_ANGLE_BL0
  0
BLOCK_RECORD
  5
20A
100
AcDbSymbolTableRecord
100
AcDbBlockTableRecord
  2
*T1
  0
BLOCK_RECORD
  5
20B
100
AcDbSymbolTableRecord
100
AcDbBlockTableRecord
  2
*T2
  0
BLOCK_RECORD
  5
20C
100
AcDbSymbolTableRecord
100
AcDbBlockTableRecord
  2
*T3
  0
ENDTAB
  0
TABLE
  2
DIMSTYLE
  5
A
100
AcDbSymbolTable
 70
1
100
AcDbDimStyleTable
 71
0
  0
DIMSTYLE
105
20D
100
AcDbSymbolTableRecord
100
AcDbDimStyleTableRecord
  2
STANDARD
 70
0
  3

  4

 40
1.0
 41
0.1875
 42
0.0625
 43
0.38
 44
0.125
 45
0.0
 46
0.0
 47
0.001
 48
0.001
140
0.1
141
0.09
142
0.0
143
25.4
144
1.0
145
0.0
146
1.0
147
0.09
 71
0.0
 72
0.0
 73
1
 74
1
 75
0
 76
0
 77
0
 78
4
170
0
171
2
172
0
173
0
174
0
175
0
176
0
177
0
178
0
270
2
271
3
272
3
273
2
274
2
275
0
280
0
281
0
282
0
283
1
284
4
285
0
286
0
287
3
288
0
340
11
278
46
  0
ENDTAB
  0
ENDSEC
  0
SECTION
  2
BLOCKS
  0
BLOCK
  5
20
100
AcDbEntity
  8
0
100
AcDbBlockBegin
  2
*Model_Space
 70
0
 10
0.0
 20
0.0
 30
0.0
  3
*Model_Space
  1

  0
ENDBLK
  5
21
100
AcDbEntity
  8
0
100
AcDbBlockEnd
  0
BLOCK
  5
1C
100
AcDbEntity
  8
0
100
AcDbBlockBegin
  2
*Paper_Space
 70
0
 10
0.0
 20
0.0
 30
0.0
  3
*Paper_Space
  1

  0
ENDBLK
  5
1D
100
AcDbEntity
  8
0
100
AcDbBlockEnd
  0
BLOCK
  5
20E
100
AcDbEntity
  8
0
100
AcDbBlockBegin
 62
2
  6
CONTINUOUS
  2
SUN_FIRST_THIRD_ANGLE_BL0
 70
64
 10
20.4816717061
 20
1.2289683772
  3
SUN_FIRST_THIRD_ANGLE_BL0
  1

  0
TEXT
  5
20F
100
AcDbEntity
  8
0
100
AcDbText
 62
2
  6
CONTINUOUS
 10
19.4750896608
 20
1.4136269581
  7
STANDARD
 40
0.08
  1
FIRST ANGLE
 41
0.8
 72
0
100
AcDbText
  0
TEXT
  5
210
100
AcDbEntity
  8
0
100
AcDbText
 62
2
  6
CONTINUOUS
 10
20.7842537513
 20
1.4047600029
  7
STANDARD
 40
0.08
  1
THIRD ANGLE
 41
0.8
 72
0
100
AcDbText
  0
LINE
  5
211
100
AcDbEntity
  8
0
100
AcDbLine
 62
7
  6
CONTINUOUS
 10
19.4767170086
 20
1.1727031207
 11
19.6334271527
 21
1.1717972817
  0
LINE
  5
212
100
AcDbEntity
  8
0
100
AcDbLine
 62
7
  6
CONTINUOUS
 10
19.6596964832
 20
1.1717972817
 11
19.6950230232
 21
1.171593082
  0
LINE
  5
213
100
AcDbEntity
  8
0
100
AcDbLine
 62
7
  6
CONTINUOUS
 10
19.7194818561
 20
1.1708914427
 11
19.8852396156
 21
1.1699333054
  0
LINE
  5
214
100
AcDbEntity
  8
0
100
AcDbLine
 62
7
  6
CONTINUOUS
 10
19.4758111696
 20
1.2723454088
 11
19.88525039
 21
1.3511534004
  0
LINE
  5
215
100
AcDbEntity
  8
0
100
AcDbLine
 62
7
  6
CONTINUOUS
 10
19.88525039
 20
1.3511534004
 11
19.8831348489
 21
0.9851647912
  0
LINE
  5
216
100
AcDbEntity
  8
0
100
AcDbLine
 62
7
  6
CONTINUOUS
 10
19.8831348489
 20
0.9851647912
 11
19.4767170086
 21
1.0658141206
  0
LINE
  5
217
100
AcDbEntity
  8
0
100
AcDbLine
 62
7
  6
CONTINUOUS
 10
19.4767170086
 20
1.0658141206
 11
19.4779056764
 21
1.2714536432
  0
CIRCLE
  5
218
100
AcDbEntity
  8
0
100
AcDbCircle
 62
7
  6
CONTINUOUS
 10
20.2068232291
 20
1.1717972817
 40
0.175742101
  0
CIRCLE
  5
219
100
AcDbEntity
  8
0
100
AcDbCircle
 62
7
  6
CONTINUOUS
 10
20.2068232291
 20
1.1717972817
 40
0.1005522074
  0
LINE
  5
21A
100
AcDbEntity
  8
0
100
AcDbLine
 62
7
  6
CONTINUOUS
 10
20.2077290681
 20
1.3756110529
 11
20.2071171714
 21
1.2379342989
  0
LINE
  5
21B
100
AcDbEntity
  8
0
100
AcDbLine
 62
7
  6
CONTINUOUS
 10
20.2077290681
 20
1.2016899681
 11
20.2074674401
 21
1.1428236749
  0
LINE
  5
21C
100
AcDbEntity
  8
0
100
AcDbLine
 62
7
  6
CONTINUOUS
 10
20.208634907
 20
1.101141841
 11
20.2080230104
 21
0.963465087
  0
LINE
  5
21D
100
AcDbEntity
  8
0
100
AcDbLine
 62
7
  6
CONTINUOUS
 10
20.0066328138
 20
1.1745147986
 11
20.1443095678
 21
1.1739029019
  0
LINE
  5
21E
100
AcDbEntity
  8
0
100
AcDbLine
 62
7
  6
CONTINUOUS
 10
20.1832714155
 20
1.1727031207
 11
20.238153505
 21
1.172335442
  0
LINE
  5
21F
100
AcDbEntity
  8
0
100
AcDbLine
 62
7
  6
CONTINUOUS
 10
20.2756669918
 20
1.1717972817
 11
20.407916871
 21
1.1712095044
  0
CIRCLE
  5
220
100
AcDbEntity
  8
0
100
AcDbCircle
 62
7
  6
CONTINUOUS
 10
20.7509457401
 20
1.1693297793
 40
0.1722024983
  0
CIRCLE
  5
221
100
AcDbEntity
  8
0
100
AcDbCircle
 62
7
  6
CONTINUOUS
 10
20.7509457401
 20
1.1693297793
 40
0.0985164967
  0
LINE
  5
222
100
AcDbEntity
  8
0
100
AcDbLine
 62
7
  6
CONTINUOUS
 10
20.7169767782
 20
1.170462078
 11
20.7825395137
 21
1.1682766535
  0
LINE
  5
223
100
AcDbEntity
  8
0
100
AcDbLine
 62
7
  6
CONTINUOUS
 10
20.8177513651
 20
1.1693297793
 11
20.947965719
 21
1.1693297793
  0
LINE
  5
224
100
AcDbEntity
  8
0
100
AcDbLine
 62
7
  6
CONTINUOUS
 10
20.6875370113
 20
1.170462078
 11
20.5573226574
 21
1.170462078
  0
LINE
  5
225
100
AcDbEntity
  8
0
100
AcDbLine
 62
7
  6
CONTINUOUS
 10
20.7486811426
 20
1.1987695462
 11
20.7486811426
 21
1.1432869085
  0
LINE
  5
226
100
AcDbEntity
  8
0
100
AcDbLine
 62
7
  6
CONTINUOUS
 10
20.7498134414
 20
1.1059210505
 11
20.7498134414
 21
0.9757066966
  0
LINE
  5
227
100
AcDbEntity
  8
0
100
AcDbLine
 62
7
  6
CONTINUOUS
 10
20.7486811426
 20
1.2338708068
 11
20.7486811426
 21
1.3640851607
  0
LINE
  5
228
100
AcDbEntity
  8
0
100
AcDbLine
 62
7
  6
CONTINUOUS
 10
21.0702539817
 20
1.2701043662
 11
21.4790138229
 21
1.3448360823
  0
LINE
  5
229
100
AcDbEntity
  8
0
100
AcDbLine
 62
7
  6
CONTINUOUS
 10
21.4790138229
 20
1.3448360823
 11
21.4790138229
 21
0.9779712941
  0
LINE
  5
22A
100
AcDbEntity
  8
0
100
AcDbLine
 62
7
  6
CONTINUOUS
 10
21.4790138229
 20
0.9779712941
 11
21.069121683
 21
1.0617614
  0
LINE
  5
22B
100
AcDbEntity
  8
0
100
AcDbLine
 62
7
  6
CONTINUOUS
 10
21.0702539817
 20
1.2701043662
 11
21.069121683
 21
1.0617614
  0
LINE
  5
22C
100
AcDbEntity
  8
0
100
AcDbLine
 62
7
  6
CONTINUOUS
 10
21.4790138229
 20
1.1693297793
 11
21.3159628059
 21
1.1693297793
  0
LINE
  5
22D
100
AcDbEntity
  8
0
100
AcDbLine
 62
7
  6
CONTINUOUS
 10
21.2876553377
 20
1.1693297793
 11
21.2502894796
 21
1.1693297793
  0
LINE
  5
22E
100
AcDbEntity
  8
0
100
AcDbLine
 62
7
  6
CONTINUOUS
 10
21.2208497126
 20
1.1659328831
 11
21.0713862804
 21
1.1659328831
  0
LINE
  5
22F
100
AcDbEntity
  8
0
100
AcDbLine
 62
7
  6
CONTINUOUS
 10
20.4796138713
 20
1.5284908897
 11
20.4766766948
 21
0.9294458646
  0
ENDBLK
  5
230
100
AcDbEntity
  8
0
  6
BYBLOCK
 62
0
100
AcDbBlockEnd
  0
BLOCK
  5
231
100
AcDbEntity
  8
0
100
AcDbBlockBegin
  2
*T1
 70
1
 10
0.0
 20
0.0
  3
*T1
  1

  0
LINE
  5
232
100
AcDbEntity
  8
0
100
AcDbLine
 62
2
  6
CONTINUOUS
 10
9.275
 20
0.0
 11
-0.0
 21
0.0
  0
LINE
  5
233
100
AcDbEntity
  8
0
100
AcDbLine
 62
2
  6
CONTINUOUS
 10
9.275
 20
0.0
 11
9.275
 21
1.25
  0
LINE
  5
234
100
AcDbEntity
  8
0
100
AcDbLine
 62
2
  6
CONTINUOUS
 10
9.275
 20
0.625
 11
-0.0
 21
0.625
  0
LINE
  5
235
100
AcDbEntity
  8
0
100
AcDbLine
 62
2
  6
CONTINUOUS
 10
9.275
 20
1.25
 11
-0.0
 21
1.25
  0
LINE
  5
236
100
AcDbEntity
  8
0
100
AcDbLine
 62
2
  6
CONTINUOUS
 10
6.8
 20
0.0
 11
6.8
 21
1.25
  0
LINE
  5
237
100
AcDbEntity
  8
0
100
AcDbLine
 62
2
  6
CONTINUOUS
 10
6.4
 20
0.0
 11
6.4
 21
0.625
  0
LINE
  5
238
100
AcDbEntity
  8
0
100
AcDbLine
 62
2
  6
CONTINUOUS
 10
5.9
 20
0.0
 11
5.9
 21
0.625
  0
LINE
  5
239
100
AcDbEntity
  8
0
100
AcDbLine
 62
2
  6
CONTINUOUS
 10
5.2
 20
0.0
 11
5.2
 21
0.625
  0
LINE
  5
23A
100
AcDbEntity
  8
0
100
AcDbLine
 62
2
  6
CONTINUOUS
 10
4.1
 20
0.0
 11
4.1
 21
1.25
  0
LINE
  5
23B
100
AcDbEntity
  8
0
100
AcDbLine
 62
2
  6
CONTINUOUS
 10
-0.0
 20
0.0
 11
-0.0
 21
1.25
  0
MTEXT
  5
23C
100
AcDbEntity
  8
0
100
AcDbMText
 62
2
  6
CONTINUOUS
  7
STANDARD
 71
2
 72
1
 10
6.6
 20
0.325
 30
0.0
 11
1.0
 21
0.0
 31
0.0
 44
0.9
  1
2
 40
0.125
 41
0.2
  0
MTEXT
  5
23D
100
AcDbEntity
  8
0
100
AcDbMText
 62
2
  6
CONTINUOUS
  7
STANDARD
 71
2
 72
1
 10
6.15
 20
0.325
 30
0.0
 11
1.0
 21
0.0
 31
0.0
 44
0.9
  1
C
 40
0.125
 41
0.2
  0
MTEXT
  5
23E
100
AcDbEntity
  8
0
100
AcDbMText
 62
2
  6
CONTINUOUS
  7
STANDARD
 71
2
 72
1
 10
5.55
 20
0.325
 30
0.0
 11
1.0
 21
0.0
 31
0.0
 44
0.9
  1
1.000
 40
0.125
 41
1.0
  0
MTEXT
  5
23F
100
AcDbEntity
  8
0
100
AcDbMText
 62
2
  6
CONTINUOUS
  7
STANDARD
 71
2
 72
1
 10
4.65
 20
0.325
 30
0.0
 11
1.0
 21
0.0
 31
0.0
 44
0.9
  1
Mar-25-21
 40
0.125
 41
1.8
  0
MTEXT
  5
240
100
AcDbEntity
  8
0
100
AcDbMText
 62
2
  6
CONTINUOUS
  7
STANDARD
 71
2
 72
1
 10
2.05
 20
0.4625
 30
0.0
 11
1.0
 21
0.0
 31
0.0
 44
0.9
  1
T-17A Gasket mount Sun\PDirect mount, cross pilot
 40
0.125
 41
5.0
  0
MTEXT
  5
241
100
AcDbEntity
  8
0
100
AcDbMText
 62
2
  6
CONTINUOUS
  7
STANDARD
 71
1
 72
1
 10
6.45
 20
0.5625
 30
0.0
 11
1.0
 21
0.0
 31
0.0
 44
0.9
  1
SHEET
 40
0.06
 41
0.48
  0
MTEXT
  5
242
100
AcDbEntity
  8
0
100
AcDbMText
 62
2
  6
CONTINUOUS
  7
STANDARD
 71
1
 72
1
 10
5.95
 20
0.5625
 30
0.0
 11
1.0
 21
0.0
 31
0.0
 44
0.9
  1
DWG SIZE
 40
0.06
 41
0.768
  0
MTEXT
  5
243
100
AcDbEntity
  8
0
100
AcDbMText
 62
2
  6
CONTINUOUS
  7
STANDARD
 71
1
 72
1
 10
5.25
 20
0.5625
 30
0.0
 11
1.0
 21
0.0
 31
0.0
 44
0.9
  1
SCALE
 40
0.06
 41
0.48
  0
MTEXT
  5
244
100
AcDbEntity
  8
0
100
AcDbMText
 62
2
  6
CONTINUOUS
  7
STANDARD
 71
1
 72
1
 10
4.15
 20
0.5625
 30
0.0
 11
1.0
 21
0.0
 31
0.0
 44
0.9
  1
DATE
 40
0.06
 41
0.384
  0
MTEXT
  5
245
100
AcDbEntity
  8
0
100
AcDbMText
 62
2
  6
CONTINUOUS
  7
STANDARD
 71
1
 72
1
 10
0.05
 20
0.5625
 30
0.0
 11
1.0
 21
0.0
 31
0.0
 44
0.9
  1
DESCRIPTION
 40
0.06
 41
1.056
  0
MTEXT
  5
246
100
AcDbEntity
  8
0
100
AcDbMText
 62
2
  6
CONTINUOUS
  7
STANDARD
 71
2
 72
1
 10
5.45
 20
1.0375
 30
0.0
 11
1.0
 21
0.0
 31
0.0
 44
0.9
  1
ALL DIMENSIONS IN INCH\PVIEWS ARE THIRD ANGLE
 40
0.12
 41
4.224
  0
MTEXT
  5
247
100
AcDbEntity
  8
0
100
AcDbMText
 62
2
  6
CONTINUOUS
  7
STANDARD
 71
2
 72
1
 10
2.05
 20
0.95
 30
0.0
 11
1.0
 21
0.0
 31
0.0
 44
0.9
  1
YVT
 40
0.125
 41
0.6
  0
MTEXT
  5
248
100
AcDbEntity
  8
0
100
AcDbMText
 62
2
  6
CONTINUOUS
  7
STANDARD
 71
1
 72
1
 10
0.05
 20
1.1875
 30
0.0
 11
1.0
 21
0.0
 31
0.0
 44
0.9
  1
MODEL
 40
0.06
 41
0.48
  0
ENDBLK
  5
249
100
AcDbEntity
  8
0
  6
BYBLOCK
 62
0
100
AcDbBlockEnd
  0
BLOCK
  5
24A
100
AcDbEntity
  8
0
100
AcDbBlockBegin
  2
*T2
 70
1
 10
0.0
 20
0.0
  3
*T2
  1

  0
LINE
  5
24B
100
AcDbEntity
  8
0
100
AcDbLine
 62
2
  6
CONTINUOUS
 10
0.0
 20
0.0
 11
9.055
 21
0.0
  0
LINE
  5
24C
100
AcDbEntity
  8
0
100
AcDbLine
 62
2
  6
CONTINUOUS
 10
0.0
 20
0.0
 11
0.0
 21
-3.094
  0
LINE
  5
24D
100
AcDbEntity
  8
0
100
AcDbLine
 62
2
  6
CONTINUOUS
 10
0.0
 20
-0.344
 11
9.055
 21
-0.344
  0
LINE
  5
24E
100
AcDbEntity
  8
0
100
AcDbLine
 62
2
  6
CONTINUOUS
 10
0.0
 20
-0.594
 11
9.055
 21
-0.594
  0
LINE
  5
24F
100
AcDbEntity
  8
0
100
AcDbLine
 62
2
  6
CONTINUOUS
 10
0.0
 20
-0.844
 11
9.055
 21
-0.844
  0
LINE
  5
250
100
AcDbEntity
  8
0
100
AcDbLine
 62
2
  6
CONTINUOUS
 10
0.0
 20
-1.094
 11
9.055
 21
-1.094
  0
LINE
  5
251
100
AcDbEntity
  8
0
100
AcDbLine
 62
2
  6
CONTINUOUS
 10
0.0
 20
-1.344
 11
9.055
 21
-1.344
  0
LINE
  5
252
100
AcDbEntity
  8
0
100
AcDbLine
 62
2
  6
CONTINUOUS
 10
0.0
 20
-1.594
 11
9.055
 21
-1.594
  0
LINE
  5
253
100
AcDbEntity
  8
0
100
AcDbLine
 62
2
  6
CONTINUOUS
 10
0.0
 20
-1.844
 11
9.055
 21
-1.844
  0
LINE
  5
254
100
AcDbEntity
  8
0
100
AcDbLine
 62
2
  6
CONTINUOUS
 10
0.0
 20
-2.094
 11
9.055
 21
-2.094
  0
LINE
  5
255
100
AcDbEntity
  8
0
100
AcDbLine
 62
2
  6
CONTINUOUS
 10
0.0
 20
-2.344
 11
9.055
 21
-2.344
  0
LINE
  5
256
100
AcDbEntity
  8
0
100
AcDbLine
 62
2
  6
CONTINUOUS
 10
0.0
 20
-2.594
 11
9.055
 21
-2.594
  0
LINE
  5
257
100
AcDbEntity
  8
0
100
AcDbLine
 62
2
  6
CONTINUOUS
 10
0.0
 20
-2.844
 11
9.055
 21
-2.844
  0
LINE
  5
258
100
AcDbEntity
  8
0
100
AcDbLine
 62
2
  6
CONTINUOUS
 10
0.0
 20
-3.094
 11
9.055
 21
-3.094
  0
LINE
  5
259
100
AcDbEntity
  8
0
100
AcDbLine
 62
2
  6
CONTINUOUS
 10
3.055
 20
0.0
 11
3.055
 21
-3.094
  0
LINE
  5
25A
100
AcDbEntity
  8
0
100
AcDbLine
 62
2
  6
CONTINUOUS
 10
9.055
 20
0.0
 11
9.055
 21
-3.094
  0
MTEXT
  5
25B
100
AcDbEntity
  8
0
100
AcDbMText
 62
2
  6
CONTINUOUS
  7
STANDARD
 71
2
 72
1
 10
1.5275
 20
-0.0995
 30
0.0
 11
1.0
 21
0.0
 31
0.0
 44
0.9
  1
Technical Data
 40
0.145
 41
3.248
  0
MTEXT
  5
25C
100
AcDbEntity
  8
0
100
AcDbMText
 62
2
  6
CONTINUOUS
  7
STANDARD
 71
2
 72
1
 10
4.555
 20
-0.0995
 30
0.0
 11
1.0
 21
0.0
 31
0.0
 44
0.9
  1
U.S. Units
 40
0.145
 41
2.32
  0
MTEXT
  5
25D
100
AcDbEntity
  8
0
100
AcDbMText
 62
2
  6
CONTINUOUS
  7
STANDARD
 71
2
 72
1
 10
7.555
 20
-0.0995
 30
0.0
 11
1.0
 21
0.0
 31
0.0
 44
0.9
  1
Metric Units
 40
0.145
 41
2.784
  0
MTEXT
  5
25E
100
AcDbEntity
  8
0
100
AcDbMText
 62
2
  6
CONTINUOUS
  7
STANDARD
 71
2
 72
1
 10
1.5275
 20
-0.4065
 30
0.0
 11
1.0
 21
0.0
 31
0.0
 44
0.9
  1
Cavity
 40
0.125
 41
1.2
  0
MTEXT
  5
25F
100
AcDbEntity
  8
0
100
AcDbMText
 62
2
  6
CONTINUOUS
  7
STANDARD
 71
2
 72
1
 10
6.055
 20
-0.4065
 30
0.0
 11
1.0
 21
0.0
 31
0.0
 44
0.9
  1
T-17A
 40
0.125
 41
1.0
  0
MTEXT
  5
260
100
AcDbEntity
  8
0
100
AcDbMText
 62
2
  6
CONTINUOUS
  7
STANDARD
 71
2
 72
1
 10
1.5275
 20
-0.6565
 30
0.0
 11
1.0
 21
0.0
 31
0.0
 44
0.9
  1
Body Features
 40
0.125
 41
2.6
  0
MTEXT
  5
261
100
AcDbEntity
  8
0
100
AcDbMText
 62
2
  6
CONTINUOUS
  7
STANDARD
 71
2
 72
1
 10
6.055
 20
-0.6565
 30
0.0
 11
1.0
 21
0.0
 31
0.0
 44
0.9
  1
Direct mount, cross pilot
 40
0.125
 41
5.0
  0
MTEXT
  5
262
100
AcDbEntity
  8
0
100
AcDbMText
 62
2
  6
CONTINUOUS
  7
STANDARD
 71
2
 72
1
 10
1.5275
 20
-0.9065
 30
0.0
 11
1.0
 21
0.0
 31
0.0
 44
0.9
  1
Body Type
 40
0.125
 41
1.8
  0
MTEXT
  5
263
100
AcDbEntity
  8
0
100
AcDbMText
 62
2
  6
CONTINUOUS
  7
STANDARD
 71
2
 72
1
 10
6.055
 20
-0.9065
 30
0.0
 11
1.0
 21
0.0
 31
0.0
 44
0.9
  1
Gasket mount
 40
0.125
 41
2.4
  0
MTEXT
  5
264
100
AcDbEntity
  8
0
100
AcDbMText
 62
2
  6
CONTINUOUS
  7
STANDARD
 71
2
 72
1
 10
1.5275
 20
-1.1565
 30
0.0
 11
1.0
 21
0.0
 31
0.0
 44
0.9
  1
Interface
 40
0.125
 41
1.8
  0
MTEXT
  5
265
100
AcDbEntity
  8
0
100
AcDbMText
 62
2
  6
CONTINUOUS
  7
STANDARD
 71
2
 72
1
 10
6.055
 20
-1.1565
 30
0.0
 11
1.0
 21
0.0
 31
0.0
 44
0.9
  1
Sun
 40
0.125
 41
0.6
  0
MTEXT
  5
266
100
AcDbEntity
  8
0
100
AcDbMText
 62
2
  6
CONTINUOUS
  7
STANDARD
 71
2
 72
1
 10
1.5275
 20
-1.4065
 30
0.0
 11
1.0
 21
0.0
 31
0.0
 44
0.9
  1
Open Cavity Quantity
 40
0.125
 41
4.0
  0
MTEXT
  5
267
100
AcDbEntity
  8
0
100
AcDbMText
 62
2
  6
CONTINUOUS
  7
STANDARD
 71
2
 72
1
 10
6.055
 20
-1.4065
 30
0.0
 11
1.0
 21
0.0
 31
0.0
 44
0.9
  1
2
 40
0.125
 41
0.2
  0
MTEXT
  5
268
100
AcDbEntity
  8
0
100
AcDbMText
 62
2
  6
CONTINUOUS
  7
STANDARD
 71
2
 72
1
 10
1.5275
 20
-1.6565
 30
0.0
 11
1.0
 21
0.0
 31
0.0
 44
0.9
  1
Weight
 40
0.125
 41
1.2
  0
MTEXT
  5
269
100
AcDbEntity
  8
0
100
AcDbMText
 62
2
  6
CONTINUOUS
  7
STANDARD
 71
2
 72
1
 10
4.555
 20
-1.6565
 30
0.0
 11
1.0
 21
0.0
 31
0.0
 44
0.9
  1
6.723 lb.
 40
0.125
 41
1.8
  0
MTEXT
  5
26A
100
AcDbEntity
  8
0
100
AcDbMText
 62
2
  6
CONTINUOUS
  7
STANDARD
 71
2
 72
1
 10
7.555
 20
-1.6565
 30
0.0
 11
1.0
 21
0.0
 31
0.0
 44
0.9
  1
3,049 kg.
 40
0.125
 41
1.8
  0
MTEXT
  5
26B
100
AcDbEntity
  8
0
100
AcDbMText
 62
2
  6
CONTINUOUS
  7
STANDARD
 71
2
 72
1
 10
1.5275
 20
-1.9065
 30
0.0
 11
1.0
 21
0.0
 31
0.0
 44
0.9
  1
Mounting Hole Diameter
 40
0.125
 41
4.4
  0
MTEXT
  5
26C
100
AcDbEntity
  8
0
100
AcDbMText
 62
2
  6
CONTINUOUS
  7
STANDARD
 71
2
 72
1
 10
4.555
 20
-1.9065
 30
0.0
 11
1.0
 21
0.0
 31
0.0
 44
0.9
  1
.53 in.
 40
0.125
 41
1.4
  0
MTEXT
  5
26D
100
AcDbEntity
  8
0
100
AcDbMText
 62
2
  6
CONTINUOUS
  7
STANDARD
 71
2
 72
1
 10
7.555
 20
-1.9065
 30
0.0
 11
1.0
 21
0.0
 31
0.0
 44
0.9
  1
13,5 mm
 40
0.125
 41
1.4
  0
MTEXT
  5
26E
100
AcDbEntity
  8
0
100
AcDbMText
 62
2
  6
CONTINUOUS
  7
STANDARD
 71
2
 72
1
 10
1.5275
 20
-2.1565
 30
0.0
 11
1.0
 21
0.0
 31
0.0
 44
0.9
  1
Mounting Hole Depth
 40
0.125
 41
3.8
  0
MTEXT
  5
26F
100
AcDbEntity
  8
0
100
AcDbMText
 62
2
  6
CONTINUOUS
  7
STANDARD
 71
2
 72
1
 10
6.055
 20
-2.1565
 30
0.0
 11
1.0
 21
0.0
 31
0.0
 44
0.9
  1
Through
 40
0.125
 41
1.4
  0
MTEXT
  5
270
100
AcDbEntity
  8
0
100
AcDbMText
 62
2
  6
CONTINUOUS
  7
STANDARD
 71
2
 72
1
 10
1.5275
 20
-2.4065
 30
0.0
 11
1.0
 21
0.0
 31
0.0
 44
0.9
  1
Mounting Hole Quantity
 40
0.125
 41
4.4
  0
MTEXT
  5
271
100
AcDbEntity
  8
0
100
AcDbMText
 62
2
  6
CONTINUOUS
  7
STANDARD
 71
2
 72
1
 10
6.055
 20
-2.4065
 30
0.0
 11
1.0
 21
0.0
 31
0.0
 44
0.9
  1
2
 40
0.125
 41
0.2
  0
MTEXT
  5
272
100
AcDbEntity
  8
0
100
AcDbMText
 62
2
  6
CONTINUOUS
  7
STANDARD
 71
2
 72
1
 10
1.5275
 20
-2.6565
 30
0.0
 11
1.0
 21
0.0
 31
0.0
 44
0.9
  1
Mounting Hole C'bore Diameter
 40
0.125
 41
5.8
  0
MTEXT
  5
273
100
AcDbEntity
  8
0
100
AcDbMText
 62
2
  6
CONTINUOUS
  7
STANDARD
 71
2
 72
1
 10
4.555
 20
-2.6565
 30
0.0
 11
1.0
 21
0.0
 31
0.0
 44
0.9
  1
.78 in.
 40
0.125
 41
1.4
  0
MTEXT
  5
274
100
AcDbEntity
  8
0
100
AcDbMText
 62
2
  6
CONTINUOUS
  7
STANDARD
 71
2
 72
1
 10
7.555
 20
-2.6565
 30
0.0
 11
1.0
 21
0.0
 31
0.0
 44
0.9
  1
19,8 mm
 40
0.125
 41
1.4
  0
MTEXT
  5
275
100
AcDbEntity
  8
0
100
AcDbMText
 62
2
  6
CONTINUOUS
  7
STANDARD
 71
2
 72
1
 10
1.5275
 20
-2.9065
 30
0.0
 11
1.0
 21
0.0
 31
0.0
 44
0.9
  1
Mounting Hole C'bore Depth
 40
0.125
 41
5.2
  0
MTEXT
  5
276
100
AcDbEntity
  8
0
100
AcDbMText
 62
2
  6
CONTINUOUS
  7
STANDARD
 71
2
 72
1
 10
4.555
 20
-2.9065
 30
0.0
 11
1.0
 21
0.0
 31
0.0
 44
0.9
  1
.44 in.
 40
0.125
 41
1.4
  0
MTEXT
  5
277
100
AcDbEntity
  8
0
100
AcDbMText
 62
2
  6
CONTINUOUS
  7
STANDARD
 71
2
 72
1
 10
7.555
 20
-2.9065
 30
0.0
 11
1.0
 21
0.0
 31
0.0
 44
0.9
  1
11,1 mm
 40
0.125
 41
1.4
  0
ENDBLK
  5
278
100
AcDbEntity
  8
0
  6
BYBLOCK
 62
0
100
AcDbBlockEnd
  0
BLOCK
  5
279
100
AcDbEntity
  8
0
100
AcDbBlockBegin
  2
*T3
 70
1
 10
0.0
 20
0.0
  3
*T3
  1

  0
LINE
  5
27A
100
AcDbEntity
  8
0
100
AcDbLine
 62
2
  6
CONTINUOUS
 10
0.0
 20
0.0
 11
4.6
 21
0.0
  0
LINE
  5
27B
100
AcDbEntity
  8
0
100
AcDbLine
 62
2
  6
CONTINUOUS
 10
0.0
 20
0.0
 11
0.0
 21
-0.93775
  0
LINE
  5
27C
100
AcDbEntity
  8
0
100
AcDbLine
 62
2
  6
CONTINUOUS
 10
0.0
 20
-0.34375
 11
4.6
 21
-0.34375
  0
LINE
  5
27D
100
AcDbEntity
  8
0
100
AcDbLine
 62
2
  6
CONTINUOUS
 10
0.0
 20
-0.68775
 11
4.6
 21
-0.68775
  0
LINE
  5
27E
100
AcDbEntity
  8
0
100
AcDbLine
 62
2
  6
CONTINUOUS
 10
0.0
 20
-0.93775
 11
4.6
 21
-0.93775
  0
LINE
  5
27F
100
AcDbEntity
  8
0
100
AcDbLine
 62
2
  6
CONTINUOUS
 10
1.3
 20
-0.34375
 11
1.3
 21
-0.93775
  0
LINE
  5
280
100
AcDbEntity
  8
0
100
AcDbLine
 62
2
  6
CONTINUOUS
 10
3.3
 20
-0.34375
 11
3.3
 21
-0.93775
  0
LINE
  5
281
100
AcDbEntity
  8
0
100
AcDbLine
 62
2
  6
CONTINUOUS
 10
4.6
 20
0.0
 11
4.6
 21
-0.93775
  0
MTEXT
  5
282
100
AcDbEntity
  8
0
100
AcDbMText
 62
2
  6
CONTINUOUS
  7
STANDARD
 71
2
 72
1
 10
2.3
 20
-0.099375
 30
0.0
 11
1.0
 21
0.0
 31
0.0
 44
0.9
  1
Port Headings
 40
0.145
 41
3.016
  0
MTEXT
  5
283
100
AcDbEntity
  8
0
100
AcDbMText
 62
2
  6
CONTINUOUS
  7
STANDARD
 71
2
 72
1
 10
0.65
 20
-0.44325
 30
0.0
 11
1.0
 21
0.0
 31
0.0
 44
0.9
  1
Product
 40
0.145
 41
1.624
  0
MTEXT
  5
284
100
AcDbEntity
  8
0
100
AcDbMText
 62
2
  6
CONTINUOUS
  7
STANDARD
 71
2
 72
1
 10
2.3
 20
-0.44325
 30
0.0
 11
1.0
 21
0.0
 31
0.0
 44
0.9
  1
Port
 40
0.145
 41
0.928
  0
MTEXT
  5
285
100
AcDbEntity
  8
0
100
AcDbMText
 62
2
  6
CONTINUOUS
  7
STANDARD
 71
2
 72
1
 10
3.95
 20
-0.44325
 30
0.0
 11
1.0
 21
0.0
 31
0.0
 44
0.9
  1
Size
 40
0.145
 41
0.928
  0
MTEXT
  5
286
100
AcDbEntity
  8
0
100
AcDbMText
 62
2
  6
CONTINUOUS
  7
STANDARD
 71
2
 72
1
 10
0.65
 20
-0.75025
 30
0.0
 11
1.0
 21
0.0
 31
0.0
 44
0.9
  1
YVT
 40
0.125
 41
0.6
  0
MTEXT
  5
287
100
AcDbEntity
  8
0
100
AcDbMText
 62
2
  6
CONTINUOUS
  7
STANDARD
 71
2
 72
1
 10
2.3
 20
-0.75025
 30
0.0
 11
1.0
 21
0.0
 31
0.0
 44
0.9
  1
Ports C2, V1, V2
 40
0.125
 41
3.2
  0
MTEXT
  5
288
100
AcDbEntity
  8
0
100
AcDbMText
 62
2
  6
CONTINUOUS
  7
STANDARD
 71
2
 72
1
 10
3.95
 20
-0.75025
 30
0.0
 11
1.0
 21
0.0
 31
0.0
 44
0.9
  1
3/4" NPTF
 40
0.125
 41
1.8
  0
ENDBLK
  5
289
100
AcDbEntity
  8
0
  6
BYBLOCK
 62
0
100
AcDbBlockEnd
  0
ENDSEC
  0
SECTION
  2
ENTITIES
  0
IMAGE
  5
28A
100
AcDbEntity
  8
0
100
AcDbRasterImage
 62
7
  6
CONTINUOUS
 10
19.2297077316
 20
0.3094318264
 30
0.0
 11
0.0066666667
 21
0.0
 31
0.0
 12
0.0
 22
0.0066666667
 32
0.0
 13
369.0
 23
92.0
340
       393
 70
9
280
0
281
50
282
50
283
0
360
       38D
 71
1
 91
2
 14
-0.5
 24
-0.5
 14
368.5
 24
91.5
  0
INSERT
  5
28B
100
AcDbEntity
  8
0
100
AcDbBlockReference
 62
2
  6
CONTINUOUS
  2
SUN_FIRST_THIRD_ANGLE_BL0
 10
20.4816717061
 20
1.2289683772
  0
ACAD_TABLE
  5
28C
100
AcDbEntity
  8
0
 62
2
  6
CONTINUOUS
100
AcDbBlockReference
  2
*T1
 10
12.42375
 20
0.30125
 30
0.0
100
AcDbTable
342
       395
343
20A
 11
1.0
 21
0.0
 31
0.0
 90
6
 91
4
 92
6
 93
20
 94
0
 95
0
 96
0
 70
1
 41
0.0
141
0.525
141
0.1
141
0.525
141
0.1
142
4.1
142
1.1
142
0.7
142
0.5
142
0.4
142
2.475
171
1
172
0
173
0
174
0
175
1
176
1
 91
33
178
0
145
0.0
301
CELL_VALUE
 90
4
  1
T-17A Gasket mount Sun\PDirect mount, cross pilot
304
ACVALUE_END
170
2
140
0.125
171
1
172
0
173
0
174
0
175
1
176
1
 91
33
178
0
145
0.0
301
CELL_VALUE
 90
4
  1
Mar-25-21
304
ACVALUE_END
170
5
140
0.125
171
1
172
0
173
0
174
0
175
1
176
1
 91
33
178
0
145
0.0
301
CELL_VALUE
 90
4
  1
1.000
304
ACVALUE_END
170
5
140
0.125
171
1
172
0
173
0
174
0
175
1
176
1
 91
33
178
0
145
0.0
301
CELL_VALUE
 90
4
  1
C
304
ACVALUE_END
170
5
140
0.125
171
1
172
0
173
0
174
0
175
1
176
1
 91
33
178
0
145
0.0
301
CELL_VALUE
 90
4
  1
2
304
ACVALUE_END
170
5
140
0.125
171
1
172
0
173
0
174
0
175
1
176
1
 91
33
178
0
145
0.0
301
CELL_VALUE
 90
4
  1
 
304
ACVALUE_END
170
1
140
0.125
171
1
172
0
173
0
174
0
175
1
176
1
 91
33
178
0
145
0.0
301
CELL_VALUE
 90
4
  1
DESCRIPTION
304
ACVALUE_END
170
1
140
0.06
171
1
172
0
173
0
174
0
175
1
176
1
 91
33
178
0
145
0.0
301
CELL_VALUE
 90
4
  1
DATE
304
ACVALUE_END
170
1
140
0.06
171
1
172
0
173
0
174
0
175
1
176
1
 91
33
178
0
145
0.0
301
CELL_VALUE
 90
4
  1
SCALE
304
ACVALUE_END
170
1
140
0.06
171
1
172
0
173
0
174
0
175
1
176
1
 91
33
178
0
145
0.0
301
CELL_VALUE
 90
4
  1
DWG SIZE
304
ACVALUE_END
170
1
140
0.06
171
1
172
0
173
0
174
0
175
1
176
1
 91
33
178
0
145
0.0
301
CELL_VALUE
 90
4
  1
SHEET
304
ACVALUE_END
170
1
140
0.06
171
1
172
0
173
0
174
0
175
1
176
1
 91
33
178
0
145
0.0
301
CELL_VALUE
 90
4
  1
 
304
ACVALUE_END
170
1
140
0.125
171
1
172
0
173
0
174
0
175
1
176
1
 91
33
178
0
145
0.0
301
CELL_VALUE
 90
4
  1
YVT
304
ACVALUE_END
170
5
140
0.125
171
1
172
0
173
0
174
0
175
4
176
1
 91
33
178
0
145
0.0
301
CELL_VALUE
 90
4
  1
ALL DIMENSIONS IN INCH\PVIEWS ARE THIRD ANGLE
304
ACVALUE_END
170
5
140
0.12
171
1
172
0
173
1
174
0
175
1
176
1
 91
1
178
0
145
0.0
170
1
171
1
172
0
173
1
174
0
175
1
176
1
 91
1
178
0
145
0.0
170
1
171
1
172
0
173
1
174
0
175
1
176
1
 91
1
178
0
145
0.0
170
5
171
1
172
0
173
0
174
0
175
1
176
1
 91
33
178
0
145
0.0
301
CELL_VALUE
 90
4
  1
 
304
ACVALUE_END
170
1
140
0.125
171
1
172
0
173
0
174
0
175
1
176
1
 91
33
178
0
145
0.0
301
CELL_VALUE
 90
4
  1
MODEL
304
ACVALUE_END
170
1
140
0.06
171
1
172
0
173
0
174
0
175
1
176
1
 91
33
178
0
145
0.0
301
CELL_VALUE
 90
4
  1
 
304
ACVALUE_END
170
1
140
0.125
171
1
172
0
173
0
174
0
175
1
176
1
 91
33
178
0
145
0.0
301
CELL_VALUE
 90
4
  1
 
304
ACVALUE_END
170
1
140
0.125
171
1
172
0
173
0
174
0
175
1
176
1
 91
33
178
0
145
0.0
301
CELL_VALUE
 90
4
  1
 
304
ACVALUE_END
170
1
140
0.125
171
1
172
0
173
0
174
0
175
1
176
1
 91
33
178
0
145
0.0
301
CELL_VALUE
 90
4
  1
 
304
ACVALUE_END
170
1
140
0.125
171
1
172
0
173
0
174
0
175
1
176
1
 91
33
178
0
145
0.0
301
CELL_VALUE
 90
4
  1
 
304
ACVALUE_END
170
1
140
0.125
  0
ACAD_TABLE
  5
28D
100
AcDbEntity
  8
0
 62
2
  6
CONTINUOUS
100
AcDbBlockReference
  2
*T2
 10
12.4237499994
 20
16.47875
 30
0.0
100
AcDbTable
342
       394
343
20B
 11
1.0
 21
0.0
 31
0.0
 90
22
 91
12
 92
3
 93
16
 94
0
 95
0
 96
0
 41
0.028
141
0.344
141
0.25
141
0.25
141
0.25
141
0.25
141
0.25
141
0.25
141
0.25
141
0.25
141
0.25
141
0.25
141
0.25
142
3.055
142
3.0
142
3.0
171
1
172
0
173
0
174
0
175
1
176
1
 91
33
178
0
145
0.0
301
CELL_VALUE
 90
4
  1
Technical Data
304
ACVALUE_END
170
5
140
0.145
171
1
172
0
173
0
174
0
175
1
176
1
 91
33
178
0
145
0.0
301
CELL_VALUE
 90
4
  1
U.S. Units
304
ACVALUE_END
170
5
140
0.145
171
1
172
0
173
0
174
0
175
1
176
1
 91
33
178
0
145
0.0
301
CELL_VALUE
 90
4
  1
Metric Units
304
ACVALUE_END
170
5
140
0.145
171
1
172
0
173
0
174
0
175
1
176
1
 91
33
178
0
145
0.0
301
CELL_VALUE
 90
4
  1
Cavity
304
ACVALUE_END
170
5
140
0.125
171
1
172
0
173
0
174
0
175
2
176
1
 91
33
178
0
145
0.0
301
CELL_VALUE
 90
4
  1
T-17A
304
ACVALUE_END
170
5
140
0.125
171
1
172
0
173
1
174
0
175
1
176
1
 91
1
178
0
145
0.0
170
1
171
1
172
0
173
0
174
0
175
1
176
1
 91
33
178
0
145
0.0
301
CELL_VALUE
 90
4
  1
Body Features
304
ACVALUE_END
170
5
140
0.125
171
1
172
0
173
0
174
0
175
2
176
1
 91
33
178
0
145
0.0
301
CELL_VALUE
 90
4
  1
Direct mount, cross pilot
304
ACVALUE_END
170
5
140
0.125
171
1
172
0
173
1
174
0
175
1
176
1
 91
1
178
0
145
0.0
170
1
171
1
172
0
173
0
174
0
175
1
176
1
 91
33
178
0
145
0.0
301
CELL_VALUE
 90
4
  1
Body Type
304
ACVALUE_END
170
5
140
0.125
171
1
172
0
173
0
174
0
175
2
176
1
 91
33
178
0
145
0.0
301
CELL_VALUE
 90
4
  1
Gasket mount
304
ACVALUE_END
170
5
140
0.125
171
1
172
0
173
1
174
0
175
1
176
1
 91
1
178
0
145
0.0
170
1
171
1
172
0
173
0
174
0
175
1
176
1
 91
33
178
0
145
0.0
301
CELL_VALUE
 90
4
  1
Interface
304
ACVALUE_END
170
5
140
0.125
171
1
172
0
173
0
174
0
175
2
176
1
 91
33
178
0
145
0.0
301
CELL_VALUE
 90
4
  1
Sun
304
ACVALUE_END
170
5
140
0.125
171
1
172
0
173
1
174
0
175
1
176
1
 91
1
178
0
145
0.0
170
1
171
1
172
0
173
0
174
0
175
1
176
1
 91
33
178
0
145
0.0
301
CELL_VALUE
 90
4
  1
Open Cavity Quantity
304
ACVALUE_END
170
5
140
0.125
171
1
172
0
173
0
174
0
175
2
176
1
 91
33
178
0
145
0.0
301
CELL_VALUE
 90
4
  1
2
304
ACVALUE_END
170
5
140
0.125
171
1
172
0
173
1
174
0
175
1
176
1
 91
1
178
0
145
0.0
170
1
171
1
172
0
173
0
174
0
175
1
176
1
 91
33
178
0
145
0.0
301
CELL_VALUE
 90
4
  1
Weight
304
ACVALUE_END
170
5
140
0.125
171
1
172
0
173
0
174
0
175
1
176
1
 91
33
178
0
145
0.0
301
CELL_VALUE
 90
4
  1
6.723 lb.
304
ACVALUE_END
170
5
140
0.125
171
1
172
0
173
0
174
0
175
1
176
1
 91
33
178
0
145
0.0
301
CELL_VALUE
 90
4
  1
3,049 kg.
304
ACVALUE_END
170
5
140
0.125
171
1
172
0
173
0
174
0
175
1
176
1
 91
33
178
0
145
0.0
301
CELL_VALUE
 90
4
  1
Mounting Hole Diameter
304
ACVALUE_END
170
5
140
0.125
171
1
172
0
173
0
174
0
175
1
176
1
 91
33
178
0
145
0.0
301
CELL_VALUE
 90
4
  1
.53 in.
304
ACVALUE_END
170
5
140
0.125
171
1
172
0
173
0
174
0
175
1
176
1
 91
33
178
0
145
0.0
301
CELL_VALUE
 90
4
  1
13,5 mm
304
ACVALUE_END
170
5
140
0.125
171
1
172
0
173
0
174
0
175
1
176
1
 91
33
178
0
145
0.0
301
CELL_VALUE
 90
4
  1
Mounting Hole Depth
304
ACVALUE_END
170
5
140
0.125
171
1
172
0
173
0
174
0
175
2
176
1
 91
33
178
0
145
0.0
301
CELL_VALUE
 90
4
  1
Through
304
ACVALUE_END
170
5
140
0.125
171
1
172
0
173
1
174
0
175
1
176
1
 91
1
178
0
145
0.0
170
1
171
1
172
0
173
0
174
0
175
1
176
1
 91
33
178
0
145
0.0
301
CELL_VALUE
 90
4
  1
Mounting Hole Quantity
304
ACVALUE_END
170
5
140
0.125
171
1
172
0
173
0
174
0
175
2
176
1
 91
33
178
0
145
0.0
301
CELL_VALUE
 90
4
  1
2
304
ACVALUE_END
170
5
140
0.125
171
1
172
0
173
1
174
0
175
1
176
1
 91
1
178
0
145
0.0
170
1
171
1
172
0
173
0
174
0
175
1
176
1
 91
33
178
0
145
0.0
301
CELL_VALUE
 90
4
  1
Mounting Hole C'bore Diameter
304
ACVALUE_END
170
5
140
0.125
171
1
172
0
173
0
174
0
175
1
176
1
 91
33
178
0
145
0.0
301
CELL_VALUE
 90
4
  1
.78 in.
304
ACVALUE_END
170
5
140
0.125
171
1
172
0
173
0
174
0
175
1
176
1
 91
33
178
0
145
0.0
301
CELL_VALUE
 90
4
  1
19,8 mm
304
ACVALUE_END
170
5
140
0.125
171
1
172
0
173
0
174
0
175
1
176
1
 91
33
178
0
145
0.0
301
CELL_VALUE
 90
4
  1
Mounting Hole C'bore Depth
304
ACVALUE_END
170
5
140
0.125
171
1
172
0
173
0
174
0
175
1
176
1
 91
33
178
0
145
0.0
301
CELL_VALUE
 90
4
  1
.44 in.
304
ACVALUE_END
170
5
140
0.125
171
1
172
0
173
0
174
0
175
1
176
1
 91
33
178
0
145
0.0
301
CELL_VALUE
 90
4
  1
11,1 mm
304
ACVALUE_END
170
5
140
0.125
  0
ACAD_TABLE
  5
28E
100
AcDbEntity
  8
0
 62
2
  6
CONTINUOUS
100
AcDbBlockReference
  2
*T3
 10
0.52125
 20
1.459
 30
0.0
100
AcDbTable
342
       394
343
20C
 11
1.0
 21
0.0
 31
0.0
 90
22
 91
3
 92
3
 93
16
 94
0
 95
0
 96
0
 41
0.05
141
0.34375
141
0.344
141
0.25
142
1.3
142
2.0
142
1.3
171
1
172
0
173
0
174
0
175
3
176
1
 91
33
178
0
145
0.0
301
CELL_VALUE
 90
4
  1
Port Headings
304
ACVALUE_END
170
5
140
0.145
171
1
172
0
173
1
174
0
175
1
176
1
 91
1
178
0
145
0.0
170
1
171
1
172
0
173
1
174
0
175
1
176
1
 91
1
178
0
145
0.0
170
1
171
1
172
0
173
0
174
0
175
1
176
1
 91
33
178
0
145
0.0
301
CELL_VALUE
 90
4
  1
Product
304
ACVALUE_END
170
5
140
0.145
171
1
172
0
173
0
174
0
175
1
176
1
 91
33
178
0
145
0.0
301
CELL_VALUE
 90
4
  1
Port
304
ACVALUE_END
170
5
140
0.145
171
1
172
0
173
0
174
0
175
1
176
1
 91
33
178
0
145
0.0
301
CELL_VALUE
 90
4
  1
Size
304
ACVALUE_END
170
5
140
0.145
171
1
172
0
173
0
174
0
175
1
176
1
 91
33
178
0
145
0.0
301
CELL_VALUE
 90
4
  1
YVT
304
ACVALUE_END
170
5
140
0.125
171
1
172
0
173
0
174
0
175
1
176
1
 91
33
178
0
145
0.0
301
CELL_VALUE
 90
4
  1
Ports C2, V1, V2
304
ACVALUE_END
170
5
140
0.125
171
1
172
0
173
0
174
0
175
1
176
1
 91
33
178
0
145
0.0
301
CELL_VALUE
 90
4
  1
3/4" NPTF
304
ACVALUE_END
170
5
140
0.125
  0
MTEXT
  5
28F
100
AcDbEntity
  8
0
100
AcDbMText
 62
2
  6
CONTINUOUS
  7
STANDARD
 71
1
 72
1
 10
0.52125
 20
5.75995
 30
0.0
 11
1.0
 21
0.0
 31
0.0
 44
0.6
  3
Notes\P \P1. Important: Carefully consider\P   the maximum system pressure. The\P   pressure rating of the manifold is\P   dependent on the manifold material,\P   with the port type/size a secondary\P   consideration. Manifolds\P   constructed of alu
  1
minum are not\P   rated for pressures higher than\P   3000 psi (210 bar), regardless of\P   the port type/size specified.
 40
0.1
 41
3.04
  0
LINE
  5
290
100
AcDbEntity
  8
0
100
AcDbLine
 62
7
  6
CONTINUOUS
 10
0.30125
 20
0.30125
 11
0.30125
 21
16.69875
  0
LINE
  5
291
100
AcDbEntity
  8
0
100
AcDbLine
 62
7
  6
CONTINUOUS
 10
0.30125
 20
0.30125
 11
21.69875
 21
0.30125
  0
LINE
  5
292
100
AcDbEntity
  8
0
100
AcDbLine
 62
7
  6
CONTINUOUS
 10
0.30125
 20
16.69875
 11
21.69875
 21
16.69875
  0
LINE
  5
293
100
AcDbEntity
  8
0
100
AcDbLine
 62
7
  6
CONTINUOUS
 10
21.69875
 20
0.30125
 11
21.69875
 21
16.69875
  0
LINE
  5
294
100
AcDbEntity
  8
0
100
AcDbLine
 62
7
  6
CONTINUOUS
 10
8.3903518759
 20
9.8801250789
 11
9.8058320298
 21
11.2473739973
  0
LINE
  5
295
100
AcDbEntity
  8
0
100
AcDbLine
 62
7
  6
CONTINUOUS
 10
8.3903518759
 20
6.0164215449
 11
8.3903518759
 21
9.8801250789
  0
LINE
  5
296
100
AcDbEntity
  8
0
100
AcDbLine
 62
7
  6
CONTINUOUS
 10
12.1941679702
 20
5.7526260027
 11
8.3903518759
 21
6.0164215449
  0
LINE
  5
297
100
AcDbEntity
  8
0
100
AcDbLine
 62
4
  6
CONTINUOUS
 10
12.2278144185
 20
7.2581630358
 11
12.2200498537
 21
7.2579074857
  0
LINE
  5
298
100
AcDbEntity
  8
0
100
AcDbLine
 62
4
  6
CONTINUOUS
 10
12.2200498537
 20
7.3448408132
 11
12.2511081128
 21
7.3386185698
  0
LINE
  5
299
100
AcDbEntity
  8
0
100
AcDbLine
 62
7
  6
CONTINUOUS
 10
12.1941679702
 20
9.6163295368
 11
13.6096481241
 21
10.9835784551
  0
LINE
  5
29A
100
AcDbEntity
  8
0
100
AcDbLine
 62
4
  6
CONTINUOUS
 10
13.5690136197
 20
8.5464176157
 11
13.561249055
 21
8.5461620656
  0
LINE
  5
29B
100
AcDbEntity
  8
0
100
AcDbLine
 62
4
  6
CONTINUOUS
 10
13.5767781845
 20
8.6915620451
 11
13.5845427493
 21
8.6918175953
  0
LINE
  5
29C
100
AcDbEntity
  8
0
100
AcDbLine
 62
4
  6
CONTINUOUS
 10
13.1238452153
 20
8.5810971937
 11
13.1549034744
 21
8.5779797139
  0
LINE
  5
29D
100
AcDbEntity
  8
0
100
AcDbLine
 62
4
  6
CONTINUOUS
 10
13.0555170453
 20
8.8269532886
 11
13.0865753044
 21
8.8238358088
  0
LINE
  5
29E
100
AcDbEntity
  8
0
100
AcDbLine
 62
4
  6
CONTINUOUS
 10
12.2200498537
 20
8.7840702738
 11
12.2511081128
 21
8.7778480303
  0
LINE
  5
29F
100
AcDbEntity
  8
0
100
AcDbLine
 62
4
  6
CONTINUOUS
 10
13.2449724257
 20
8.3227659179
 11
13.2427539779
 21
8.3233828393
  0
LINE
  5
2A0
100
AcDbEntity
  8
0
100
AcDbLine
 62
4
  6
CONTINUOUS
 10
12.2407553604
 20
7.2199519188
 11
12.2381671709
 21
7.2246963635
  0
LINE
  5
2A1
100
AcDbEntity
  8
0
100
AcDbLine
 62
4
  6
CONTINUOUS
 10
12.2329907947
 20
7.2486741436
 11
12.2278144185
 21
7.2581630358
  0
LINE
  5
2A2
100
AcDbEntity
  8
0
100
AcDbLine
 62
4
  6
CONTINUOUS
 10
12.2459317357
 20
7.2829074654
 11
12.2485199252
 21
7.2781630206
  0
LINE
  5
2A3
100
AcDbEntity
  8
0
100
AcDbLine
 62
4
  6
CONTINUOUS
 10
12.2511081128
 20
8.6981591467
 11
12.2200498537
 21
8.6681591703
  0
LINE
  5
2A4
100
AcDbEntity
  8
0
100
AcDbLine
 62
4
  6
CONTINUOUS
 10
13.206519343
 20
8.7409881155
 11
13.236098638
 21
8.7364420798
  0
LINE
  5
2A5
100
AcDbEntity
  8
0
100
AcDbLine
 62
4
  6
CONTINUOUS
 10
12.2511081128
 20
8.8502924699
 11
12.2200498537
 21
8.7840702738
  0
LINE
  5
2A6
100
AcDbEntity
  8
0
100
AcDbLine
 62
4
  6
CONTINUOUS
 10
13.236098638
 20
9.2332039358
 11
13.2405355318
 21
9.2374896465
  0
LINE
  5
2A7
100
AcDbEntity
  8
0
100
AcDbLine
 62
4
  6
CONTINUOUS
 10
12.2381671709
 20
7.2246963635
 11
12.2329907947
 21
7.2486741436
  0
LINE
  5
2A8
100
AcDbEntity
  8
0
100
AcDbLine
 62
4
  6
CONTINUOUS
 10
12.2485199252
 20
7.2781630206
 11
12.2511081128
 21
7.2661741301
  0
LINE
  5
2A9
100
AcDbEntity
  8
0
100
AcDbLine
 62
7
  6
CONTINUOUS
 10
12.1941679702
 20
9.6163295368
 11
12.1941679702
 21
5.7526260027
  0
LINE
  5
2AA
100
AcDbEntity
  8
0
100
AcDbLine
 62
4
  6
CONTINUOUS
 10
12.2200498537
 20
7.2579074857
 11
12.2200498537
 21
7.199951934
  0
LINE
  5
2AB
100
AcDbEntity
  8
0
100
AcDbLine
 62
4
  6
CONTINUOUS
 10
12.2511081128
 20
7.2661741301
 11
12.2511081128
 21
7.2516852422
  0
LINE
  5
2AC
100
AcDbEntity
  8
0
100
AcDbLine
 62
4
  6
CONTINUOUS
 10
13.218351061
 20
9.1581055402
 11
13.2227879554
 21
9.1623912513
  0
LINE
  5
2AD
100
AcDbEntity
  8
0
100
AcDbLine
 62
4
  6
CONTINUOUS
 10
13.2449724257
 20
9.1507023493
 11
13.218351061
 21
9.124988084
  0
LINE
  5
2AE
100
AcDbEntity
  8
0
100
AcDbLine
 62
4
  6
CONTINUOUS
 10
13.0555170453
 20
8.9318252331
 11
13.0865753044
 21
8.9618252094
  0
LINE
  5
2AF
100
AcDbEntity
  8
0
100
AcDbLine
 62
4
  6
CONTINUOUS
 10
13.218351061
 20
9.0670325323
 11
13.2449724257
 21
9.0927467976
  0
LINE
  5
2B0
100
AcDbEntity
  8
0
100
AcDbLine
 62
4
  6
CONTINUOUS
 10
13.2139141667
 20
9.0296293651
 11
13.2449724257
 21
9.0596293414
  0
LINE
  5
2B1
100
AcDbEntity
  8
0
100
AcDbLine
 62
4
  6
CONTINUOUS
 10
13.0821384105
 20
8.8995839539
 11
13.0599539397
 21
8.8781553993
  0
LINE
  5
2B2
100
AcDbEntity
  8
0
100
AcDbLine
 62
4
  6
CONTINUOUS
 10
13.2139141667
 20
8.9716738133
 11
13.2449724257
 21
9.0016737897
  0
LINE
  5
2B3
100
AcDbEntity
  8
0
100
AcDbLine
 62
4
  6
CONTINUOUS
 10
13.0555170453
 20
8.6944834502
 11
13.0865753044
 21
8.7244834265
  0
LINE
  5
2B4
100
AcDbEntity
  8
0
100
AcDbLine
 62
4
  6
CONTINUOUS
 10
13.2139141667
 20
8.8474833493
 11
13.2449724257
 21
8.8774833257
  0
LINE
  5
2B5
100
AcDbEntity
  8
0
100
AcDbLine
 62
7
  6
CONTINUOUS
 10
8.3903518759
 20
9.8801250789
 11
12.1941679702
 21
9.6163295368
  0
LINE
  5
2B6
100
AcDbEntity
  8
0
100
AcDbLine
 62
4
  6
CONTINUOUS
 10
12.2511081128
 20
7.2516852422
 11
12.2485199252
 21
7.2346963568
  0
LINE
  5
2B7
100
AcDbEntity
  8
0
100
AcDbLine
 62
4
  6
CONTINUOUS
 10
12.2485199252
 20
7.2346963568
 11
12.2459317357
 21
7.2249519136
  0
LINE
  5
2B8
100
AcDbEntity
  8
0
100
AcDbLine
 62
4
  6
CONTINUOUS
 10
13.2338801901
 20
8.817092857
 11
13.2139141667
 21
8.7978071582
  0
LINE
  5
2B9
100
AcDbEntity
  8
0
100
AcDbLine
 62
4
  6
CONTINUOUS
 10
13.0555170453
 20
8.6282485379
 11
13.0865753044
 21
8.6582485142
  0
LINE
  5
2BA
100
AcDbEntity
  8
0
100
AcDbLine
 62
4
  6
CONTINUOUS
 10
13.1415927927
 20
8.6975924169
 11
13.1238452153
 21
8.6804495725
  0
LINE
  5
2BB
100
AcDbEntity
  8
0
100
AcDbLine
 62
4
  6
CONTINUOUS
 10
13.2161326138
 20
8.6950780485
 11
13.2338801901
 21
8.7122208918
  0
LINE
  5
2BC
100
AcDbEntity
  8
0
100
AcDbLine
 62
4
  6
CONTINUOUS
 10
13.2449724257
 20
8.6732590058
 11
13.2139141667
 21
8.6432590295
  0
LINE
  5
2BD
100
AcDbEntity
  8
0
100
AcDbLine
 62
4
  6
CONTINUOUS
 10
13.2139141667
 20
8.6101415319
 11
13.236098638
 21
8.6315700869
  0
LINE
  5
2BE
100
AcDbEntity
  8
0
100
AcDbLine
 62
4
  6
CONTINUOUS
 10
13.0599539397
 20
8.4586675662
 11
13.0821384105
 21
8.4800961208
  0
LINE
  5
2BF
100
AcDbEntity
  8
0
100
AcDbLine
 62
4
  6
CONTINUOUS
 10
13.2338801901
 20
8.5907902331
 11
13.2294432962
 21
8.5865045224
  0
LINE
  5
2C0
100
AcDbEntity
  8
0
100
AcDbLine
 62
4
  6
CONTINUOUS
 10
13.1238452153
 20
8.4845046167
 11
13.1549034744
 21
8.514504593
  0
LINE
  5
2C1
100
AcDbEntity
  8
0
100
AcDbLine
 62
4
  6
CONTINUOUS
 10
13.2161326138
 20
8.5377701146
 11
13.2227879554
 21
8.5441986812
  0
LINE
  5
2C2
100
AcDbEntity
  8
0
100
AcDbLine
 62
4
  6
CONTINUOUS
 10
13.0599539397
 20
8.3620750168
 11
13.0821384105
 21
8.3835035714
  0
LINE
  5
2C3
100
AcDbEntity
  8
0
100
AcDbLine
 62
4
  6
CONTINUOUS
 10
13.2139141667
 20
8.4859510955
 11
13.2316617441
 21
8.5030939399
  0
LINE
  5
2C4
100
AcDbEntity
  8
0
100
AcDbLine
 62
4
  6
CONTINUOUS
 10
12.2511081128
 20
7.4110630094
 11
12.2200498537
 21
7.3448408132
  0
LINE
  5
2C5
100
AcDbEntity
  8
0
100
AcDbLine
 62
4
  6
CONTINUOUS
 10
13.0865753044
 20
8.8238358088
 11
13.0555170453
 21
8.7607183625
  0
LINE
  5
2C6
100
AcDbEntity
  8
0
100
AcDbLine
 62
4
  6
CONTINUOUS
 10
13.236098638
 20
8.4742622082
 11
13.2161326138
 21
8.4549765087
  0
LINE
  5
2C7
100
AcDbEntity
  8
0
100
AcDbLine
 62
4
  6
CONTINUOUS
 10
13.0821384105
 20
8.3255480197
 11
13.0599539397
 21
8.3041194651
  0
LINE
  5
2C8
100
AcDbEntity
  8
0
100
AcDbLine
 62
4
  6
CONTINUOUS
 10
13.0555170453
 20
8.2667163117
 11
13.0865753044
 21
8.296716288
  0
LINE
  5
2C9
100
AcDbEntity
  8
0
100
AcDbLine
 62
4
  6
CONTINUOUS
 10
13.2139141667
 20
8.4031574344
 11
13.236098638
 21
8.4245859895
  0
LINE
  5
2CA
100
AcDbEntity
  8
0
100
AcDbLine
 62
4
  6
CONTINUOUS
 10
13.2161326138
 20
8.3721828476
 11
13.2449724257
 21
8.4000399684
  0
LINE
  5
2CB
100
AcDbEntity
  8
0
100
AcDbLine
 62
4
  6
CONTINUOUS
 10
13.0821384105
 20
8.2344750257
 11
13.0599539397
 21
8.2130464711
  0
LINE
  5
2CC
100
AcDbEntity
  8
0
100
AcDbLine
 62
4
  6
CONTINUOUS
 10
13.0555170453
 20
8.1618443189
 11
13.0865753044
 21
8.1918442952
  0
LINE
  5
2CD
100
AcDbEntity
  8
0
100
AcDbLine
 62
4
  6
CONTINUOUS
 10
13.2427539779
 20
8.3233828393
 11
13.2449724257
 21
8.3255256956
  0
LINE
  5
2CE
100
AcDbEntity
  8
0
100
AcDbLine
 62
4
  6
CONTINUOUS
 10
13.2139141667
 20
8.2955257192
 11
13.236098638
 21
8.3169542742
  0
LINE
  5
2CF
100
AcDbEntity
  8
0
100
AcDbLine
 62
4
  6
CONTINUOUS
 10
13.2161326138
 20
8.2535119666
 11
13.2338801901
 21
8.2706548098
  0
LINE
  5
2D0
100
AcDbEntity
  8
0
100
AcDbLine
 62
4
  6
CONTINUOUS
 10
13.2272248492
 20
8.1897119157
 11
13.2338801901
 21
8.1961404817
  0
LINE
  5
2D1
100
AcDbEntity
  8
0
100
AcDbLine
 62
4
  6
CONTINUOUS
 10
12.2459317357
 20
7.2249519136
 11
12.2407553604
 21
7.2199519188
  0
LINE
  5
2D2
100
AcDbEntity
  8
0
100
AcDbLine
 62
4
  6
CONTINUOUS
 10
13.5871309369
 20
8.5132064936
 11
13.5819545616
 21
8.5082064987
  0
LINE
  5
2D3
100
AcDbEntity
  8
0
100
AcDbLine
 62
4
  6
CONTINUOUS
 10
13.0688277279
 20
9.0109172851
 11
13.0629118689
 21
8.9610463921
  0
LINE
  5
2D4
100
AcDbEntity
  8
0
100
AcDbLine
 62
4
  6
CONTINUOUS
 10
13.0865753044
 20
8.9204283927
 11
13.0821384105
 21
8.8995839539
  0
LINE
  5
2D5
100
AcDbEntity
  8
0
100
AcDbLine
 62
4
  6
CONTINUOUS
 10
13.2161326138
 20
9.2139182363
 11
13.2139141667
 21
9.2034960159
  0
LINE
  5
2D6
100
AcDbEntity
  8
0
100
AcDbLine
 62
4
  6
CONTINUOUS
 10
13.0555170453
 20
8.4378231339
 11
13.0599539397
 21
8.4586675662
  0
LINE
  5
2D7
100
AcDbEntity
  8
0
100
AcDbLine
 62
4
  6
CONTINUOUS
 10
13.218351061
 20
9.124988084
 11
13.2139141667
 21
9.1041436448
  0
LINE
  5
2D8
100
AcDbEntity
  8
0
100
AcDbLine
 62
4
  6
CONTINUOUS
 10
13.0555170453
 20
8.3412305846
 11
13.0599539397
 21
8.3620750168
  0
LINE
  5
2D9
100
AcDbEntity
  8
0
100
AcDbLine
 62
4
  6
CONTINUOUS
 10
13.2449724257
 20
9.1920991695
 11
13.2427539779
 21
9.1816769492
  0
LINE
  5
2DA
100
AcDbEntity
  8
0
100
AcDbLine
 62
4
  6
CONTINUOUS
 10
13.1549034744
 20
8.7435670084
 11
13.1415927927
 21
8.6975924169
  0
LINE
  5
2DB
100
AcDbEntity
  8
0
100
AcDbLine
 62
4
  6
CONTINUOUS
 10
13.2449724257
 20
9.0596293414
 11
13.2139141667
 21
8.9716738133
  0
LINE
  5
2DC
100
AcDbEntity
  8
0
100
AcDbLine
 62
4
  6
CONTINUOUS
 10
13.236098638
 20
8.7861182433
 11
13.2139141667
 21
8.7398515788
  0
LINE
  5
2DD
100
AcDbEntity
  8
0
100
AcDbLine
 62
4
  6
CONTINUOUS
 10
13.1549034744
 20
8.6442146331
 11
13.1238452153
 21
8.5810971937
  0
LINE
  5
2DE
100
AcDbEntity
  8
0
100
AcDbLine
 62
4
  6
CONTINUOUS
 10
13.2161326138
 20
8.1293215302
 11
13.2227879554
 21
8.1357500968
  0
LINE
  5
2DF
100
AcDbEntity
  8
0
100
AcDbLine
 62
4
  6
CONTINUOUS
 10
13.1415927927
 20
8.6975924169
 11
13.1549034744
 21
8.6773320892
  0
LINE
  5
2E0
100
AcDbEntity
  8
0
100
AcDbLine
 62
4
  6
CONTINUOUS
 10
13.0599539397
 20
8.2130464711
 11
13.0555170453
 21
8.2253194811
  0
LINE
  5
2E1
100
AcDbEntity
  8
0
100
AcDbLine
 62
4
  6
CONTINUOUS
 10
13.0599539397
 20
8.3041194651
 11
13.0555170453
 21
8.3163924752
  0
LINE
  5
2E2
100
AcDbEntity
  8
0
100
AcDbLine
 62
4
  6
CONTINUOUS
 10
13.0821384105
 20
8.3835035714
 11
13.0865753044
 21
8.3712305609
  0
LINE
  5
2E3
100
AcDbEntity
  8
0
100
AcDbLine
 62
4
  6
CONTINUOUS
 10
13.0821384105
 20
8.4800961208
 11
13.0865753044
 21
8.4678231103
  0
LINE
  5
2E4
100
AcDbEntity
  8
0
100
AcDbLine
 62
4
  6
CONTINUOUS
 10
13.2139141667
 20
8.1354580076
 11
13.2161326138
 21
8.1293215302
  0
LINE
  5
2E5
100
AcDbEntity
  8
0
100
AcDbLine
 62
4
  6
CONTINUOUS
 10
13.2338801901
 20
8.1961404817
 11
13.236098638
 21
8.1900040049
  0
LINE
  5
2E6
100
AcDbEntity
  8
0
100
AcDbLine
 62
4
  6
CONTINUOUS
 10
13.2338801901
 20
8.2706548098
 11
13.236098638
 21
8.2645183331
  0
LINE
  5
2E7
100
AcDbEntity
  8
0
100
AcDbLine
 62
4
  6
CONTINUOUS
 10
13.0688277279
 20
8.0477512377
 11
13.0629118689
 21
8.0861935646
  0
LINE
  5
2E8
100
AcDbEntity
  8
0
100
AcDbLine
 62
4
  6
CONTINUOUS
 10
13.0555170453
 20
8.6282485379
 11
13.0555170453
 21
8.5785723467
  0
LINE
  5
2E9
100
AcDbEntity
  8
0
100
AcDbLine
 62
4
  6
CONTINUOUS
 10
13.0555170453
 20
8.1618443189
 11
13.0555170453
 21
8.1121681554
  0
LINE
  5
2EA
100
AcDbEntity
  8
0
100
AcDbLine
 62
4
  6
CONTINUOUS
 10
13.0555170453
 20
8.2253194811
 11
13.0555170453
 21
8.2667163117
  0
LINE
  5
2EB
100
AcDbEntity
  8
0
100
AcDbLine
 62
4
  6
CONTINUOUS
 10
13.0555170453
 20
8.3163924752
 11
13.0555170453
 21
8.3412305846
  0
LINE
  5
2EC
100
AcDbEntity
  8
0
100
AcDbLine
 62
4
  6
CONTINUOUS
 10
13.0555170453
 20
8.4047056916
 11
13.0555170453
 21
8.4378231339
  0
LINE
  5
2ED
100
AcDbEntity
  8
0
100
AcDbLine
 62
4
  6
CONTINUOUS
 10
13.0555170453
 20
8.8904284163
 11
13.0555170453
 21
8.9318252331
  0
LINE
  5
2EE
100
AcDbEntity
  8
0
100
AcDbLine
 62
4
  6
CONTINUOUS
 10
13.064390834
 20
8.8244855587
 11
13.064390834
 21
8.7803289505
  0
LINE
  5
2EF
100
AcDbEntity
  8
0
100
AcDbLine
 62
4
  6
CONTINUOUS
 10
13.0732646227
 20
8.1458697209
 11
13.0732646227
 21
8.1789871633
  0
LINE
  5
2F0
100
AcDbEntity
  8
0
100
AcDbLine
 62
4
  6
CONTINUOUS
 10
13.0732646227
 20
8.6122739123
 11
13.0732646227
 21
8.6453913823
  0
LINE
  5
2F1
100
AcDbEntity
  8
0
100
AcDbLine
 62
4
  6
CONTINUOUS
 10
13.0865753044
 20
8.9618252094
 11
13.0865753044
 21
8.9204283927
  0
LINE
  5
2F2
100
AcDbEntity
  8
0
100
AcDbLine
 62
4
  6
CONTINUOUS
 10
13.0865753044
 20
8.7576008965
 11
13.0865753044
 21
8.6913659842
  0
LINE
  5
2F3
100
AcDbEntity
  8
0
100
AcDbLine
 62
4
  6
CONTINUOUS
 10
13.0865753044
 20
8.6582485142
 11
13.0865753044
 21
8.6085723231
  0
LINE
  5
2F4
100
AcDbEntity
  8
0
100
AcDbLine
 62
4
  6
CONTINUOUS
 10
13.0865753044
 20
8.4678231103
 11
13.0865753044
 21
8.4347056679
  0
LINE
  5
2F5
100
AcDbEntity
  8
0
100
AcDbLine
 62
4
  6
CONTINUOUS
 10
13.0865753044
 20
8.3712305609
 11
13.0865753044
 21
8.3463924515
  0
LINE
  5
2F6
100
AcDbEntity
  8
0
100
AcDbLine
 62
4
  6
CONTINUOUS
 10
13.0865753044
 20
8.296716288
 11
13.0865753044
 21
8.2553194575
  0
LINE
  5
2F7
100
AcDbEntity
  8
0
100
AcDbLine
 62
4
  6
CONTINUOUS
 10
13.0865753044
 20
8.1918442952
 11
13.0865753044
 21
8.1421681317
  0
LINE
  5
2F8
100
AcDbEntity
  8
0
100
AcDbLine
 62
4
  6
CONTINUOUS
 10
13.1549034744
 20
8.5476220492
 11
13.1549034744
 21
8.4813871369
  0
LINE
  5
2F9
100
AcDbEntity
  8
0
100
AcDbLine
 62
4
  6
CONTINUOUS
 10
13.206519343
 20
8.7575468367
 11
13.206519343
 21
8.7409881155
  0
LINE
  5
2FA
100
AcDbEntity
  8
0
100
AcDbLine
 62
4
  6
CONTINUOUS
 10
13.2139141667
 20
9.2034960159
 11
13.2139141667
 21
9.1703785571
  0
LINE
  5
2FB
100
AcDbEntity
  8
0
100
AcDbLine
 62
4
  6
CONTINUOUS
 10
13.2139141667
 20
9.1041436448
 11
13.2139141667
 21
9.0793055424
  0
LINE
  5
2FC
100
AcDbEntity
  8
0
100
AcDbLine
 62
4
  6
CONTINUOUS
 10
13.2139141667
 20
8.444554265
 11
13.2139141667
 21
8.4031574344
  0
LINE
  5
2FD
100
AcDbEntity
  8
0
100
AcDbLine
 62
4
  6
CONTINUOUS
 10
13.2139141667
 20
8.1685754499
 11
13.2139141667
 21
8.1354580076
  0
LINE
  5
2FE
100
AcDbEntity
  8
0
100
AcDbLine
 62
4
  6
CONTINUOUS
 10
13.2139141667
 20
8.2099722252
 11
13.2139141667
 21
8.2430897781
  0
LINE
  5
2FF
100
AcDbEntity
  8
0
100
AcDbLine
 62
4
  6
CONTINUOUS
 10
13.2139141667
 20
8.3452018827
 11
13.2139141667
 21
8.3617606039
  0
LINE
  5
300
100
AcDbEntity
  8
0
100
AcDbLine
 62
4
  6
CONTINUOUS
 10
13.2139141667
 20
8.4859510955
 11
13.2139141667
 21
8.5190685378
  0
LINE
  5
301
100
AcDbEntity
  8
0
100
AcDbLine
 62
4
  6
CONTINUOUS
 10
13.2139141667
 20
8.6432590295
 11
13.2139141667
 21
8.6763764718
  0
LINE
  5
302
100
AcDbEntity
  8
0
100
AcDbLine
 62
4
  6
CONTINUOUS
 10
13.2250064023
 20
8.5297828154
 11
13.2250064023
 21
8.496665373
  0
LINE
  5
303
100
AcDbEntity
  8
0
100
AcDbLine
 62
4
  6
CONTINUOUS
 10
13.236098638
 20
8.8689119044
 11
13.236098638
 21
8.8275150738
  0
LINE
  5
304
100
AcDbEntity
  8
0
100
AcDbLine
 62
4
  6
CONTINUOUS
 10
13.236098638
 20
8.6978050269
 11
13.236098638
 21
8.6646875845
  0
LINE
  5
305
100
AcDbEntity
  8
0
100
AcDbLine
 62
4
  6
CONTINUOUS
 10
13.236098638
 20
8.6315700869
 11
13.236098638
 21
8.5984526446
  0
LINE
  5
306
100
AcDbEntity
  8
0
100
AcDbLine
 62
4
  6
CONTINUOUS
 10
13.236098638
 20
8.2645183331
 11
13.236098638
 21
8.2314007802
  0
LINE
  5
307
100
AcDbEntity
  8
0
100
AcDbLine
 62
4
  6
CONTINUOUS
 10
13.236098638
 20
8.1900040049
 11
13.236098638
 21
8.1568865626
  0
LINE
  5
308
100
AcDbEntity
  8
0
100
AcDbLine
 62
4
  6
CONTINUOUS
 10
13.236098638
 20
8.5156589835
 11
13.236098638
 21
8.5570558141
  0
LINE
  5
309
100
AcDbEntity
  8
0
100
AcDbLine
 62
4
  6
CONTINUOUS
 10
13.2449724257
 20
9.2252166273
 11
13.2449724257
 21
9.1920991695
  0
LINE
  5
30A
100
AcDbEntity
  8
0
100
AcDbLine
 62
4
  6
CONTINUOUS
 10
13.2449724257
 20
8.3255256956
 11
13.2449724257
 21
8.3227659179
  0
LINE
  5
30B
100
AcDbEntity
  8
0
100
AcDbLine
 62
4
  6
CONTINUOUS
 10
13.22426692
 20
8.145458
 11
13.2257458846
 21
8.1800040125
  0
LINE
  5
30C
100
AcDbEntity
  8
0
100
AcDbLine
 62
4
  6
CONTINUOUS
 10
13.0747435874
 20
8.0976221276
 11
13.0688277279
 21
8.0477512377
  0
LINE
  5
30D
100
AcDbEntity
  8
0
100
AcDbLine
 62
4
  6
CONTINUOUS
 10
13.2139141667
 20
8.6763764718
 11
13.2161326138
 21
8.6950780485
  0
LINE
  5
30E
100
AcDbEntity
  8
0
100
AcDbLine
 62
4
  6
CONTINUOUS
 10
13.2139141667
 20
8.5190685378
 11
13.2161326138
 21
8.5377701146
  0
LINE
  5
30F
100
AcDbEntity
  8
0
100
AcDbLine
 62
4
  6
CONTINUOUS
 10
13.2257458846
 20
8.1800040125
 11
13.2272248492
 21
8.1897119157
  0
LINE
  5
310
100
AcDbEntity
  8
0
100
AcDbLine
 62
4
  6
CONTINUOUS
 10
13.2227879554
 20
8.1357500968
 11
13.22426692
 21
8.145458
  0
LINE
  5
311
100
AcDbEntity
  8
0
100
AcDbLine
 62
4
  6
CONTINUOUS
 10
13.2227879554
 20
9.1623912513
 11
13.236098638
 21
9.2332039358
  0
LINE
  5
312
100
AcDbEntity
  8
0
100
AcDbLine
 62
4
  6
CONTINUOUS
 10
13.0865753044
 20
8.3463924515
 11
13.0821384105
 21
8.3255480197
  0
LINE
  5
313
100
AcDbEntity
  8
0
100
AcDbLine
 62
4
  6
CONTINUOUS
 10
13.0865753044
 20
8.2553194575
 11
13.0821384105
 21
8.2344750257
  0
LINE
  5
314
100
AcDbEntity
  8
0
100
AcDbLine
 62
4
  6
CONTINUOUS
 10
13.236098638
 20
8.8275150738
 11
13.2338801901
 21
8.817092857
  0
LINE
  5
315
100
AcDbEntity
  8
0
100
AcDbLine
 62
4
  6
CONTINUOUS
 10
13.2161326138
 20
8.4549765087
 11
13.2139141667
 21
8.444554265
  0
LINE
  5
316
100
AcDbEntity
  8
0
100
AcDbLine
 62
4
  6
CONTINUOUS
 10
13.2139141667
 20
8.3617606039
 11
13.2161326138
 21
8.3721828476
  0
LINE
  5
317
100
AcDbEntity
  8
0
100
AcDbLine
 62
4
  6
CONTINUOUS
 10
13.2139141667
 20
8.2430897781
 11
13.2161326138
 21
8.2535119666
  0
LINE
  5
318
100
AcDbEntity
  8
0
100
AcDbLine
 62
4
  6
CONTINUOUS
 10
13.2161326138
 20
8.1789976384
 11
13.2139141667
 21
8.1685754499
  0
LINE
  5
319
100
AcDbEntity
  8
0
100
AcDbLine
 62
4
  6
CONTINUOUS
 10
13.236098638
 20
8.1568865626
 11
13.2338801901
 21
8.1464643734
  0
LINE
  5
31A
100
AcDbEntity
  8
0
100
AcDbLine
 62
4
  6
CONTINUOUS
 10
13.236098638
 20
8.5984526446
 11
13.2338801901
 21
8.5907902331
  0
LINE
  5
31B
100
AcDbEntity
  8
0
100
AcDbLine
 62
4
  6
CONTINUOUS
 10
13.2316617441
 20
8.5030939399
 11
13.236098638
 21
8.5156589835
  0
LINE
  5
31C
100
AcDbEntity
  8
0
100
AcDbLine
 62
4
  6
CONTINUOUS
 10
13.5690136197
 20
8.6768176071
 11
13.5767781845
 21
8.6915620451
  0
LINE
  5
31D
100
AcDbEntity
  8
0
100
AcDbLine
 62
4
  6
CONTINUOUS
 10
13.5819545616
 20
8.5082064987
 11
13.5793663722
 21
8.5129509435
  0
LINE
  5
31E
100
AcDbEntity
  8
0
100
AcDbLine
 62
4
  6
CONTINUOUS
 10
13.5741899959
 20
8.5369287236
 11
13.5690136197
 21
8.5464176157
  0
LINE
  5
31F
100
AcDbEntity
  8
0
100
AcDbLine
 62
4
  6
CONTINUOUS
 10
13.5871309369
 20
8.5711620453
 11
13.5897191264
 21
8.5664176006
  0
LINE
  5
320
100
AcDbEntity
  8
0
100
AcDbLine
 62
4
  6
CONTINUOUS
 10
13.5664254316
 20
8.6091176135
 11
13.5638372433
 21
8.6138620594
  0
LINE
  5
321
100
AcDbEntity
  8
0
100
AcDbLine
 62
4
  6
CONTINUOUS
 10
13.0599539397
 20
8.8781553993
 11
13.0555170453
 21
8.8904284163
  0
LINE
  5
322
100
AcDbEntity
  8
0
100
AcDbLine
 62
4
  6
CONTINUOUS
 10
13.2139141667
 20
9.0793055424
 11
13.218351061
 21
9.0670325323
  0
LINE
  5
323
100
AcDbEntity
  8
0
100
AcDbLine
 62
4
  6
CONTINUOUS
 10
13.0747435874
 20
8.9724749552
 11
13.0688277279
 21
9.0109172851
  0
LINE
  5
324
100
AcDbEntity
  8
0
100
AcDbLine
 62
4
  6
CONTINUOUS
 10
13.2227879554
 20
8.5441986812
 11
13.2250064023
 21
8.5297828154
  0
LINE
  5
325
100
AcDbEntity
  8
0
100
AcDbLine
 62
4
  6
CONTINUOUS
 10
13.2338801901
 20
8.7122208918
 11
13.236098638
 21
8.6978050269
  0
LINE
  5
326
100
AcDbEntity
  8
0
100
AcDbLine
 62
4
  6
CONTINUOUS
 10
13.561249055
 20
8.6403398371
 11
13.5638372433
 21
8.6573287232
  0
LINE
  5
327
100
AcDbEntity
  8
0
100
AcDbLine
 62
4
  6
CONTINUOUS
 10
13.5923073141
 20
8.6558509256
 11
13.5897191264
 21
8.6388620402
  0
LINE
  5
328
100
AcDbEntity
  8
0
100
AcDbLine
 62
4
  6
CONTINUOUS
 10
13.5923073141
 20
8.5399398221
 11
13.5897191264
 21
8.5229509368
  0
LINE
  5
329
100
AcDbEntity
  8
0
100
AcDbLine
 62
4
  6
CONTINUOUS
 10
13.5638372433
 20
8.6573287232
 11
13.5690136197
 21
8.6768176071
  0
LINE
  5
32A
100
AcDbEntity
  8
0
100
AcDbLine
 62
4
  6
CONTINUOUS
 10
13.5897191264
 20
8.6388620402
 11
13.5871309369
 21
8.629117597
  0
LINE
  5
32B
100
AcDbEntity
  8
0
100
AcDbLine
 62
4
  6
CONTINUOUS
 10
13.5897191264
 20
8.5229509368
 11
13.5871309369
 21
8.5132064936
  0
LINE
  5
32C
100
AcDbEntity
  8
0
100
AcDbLine
 62
4
  6
CONTINUOUS
 10
13.5845427493
 20
8.6918175953
 11
13.5897191264
 21
8.682328704
  0
LINE
  5
32D
100
AcDbEntity
  8
0
100
AcDbLine
 62
4
  6
CONTINUOUS
 10
13.2139141667
 20
9.1703785571
 11
13.218351061
 21
9.1581055402
  0
LINE
  5
32E
100
AcDbEntity
  8
0
100
AcDbLine
 62
4
  6
CONTINUOUS
 10
13.2405355318
 20
9.2374896465
 11
13.2449724257
 21
9.2252166273
  0
LINE
  5
32F
100
AcDbEntity
  8
0
100
AcDbLine
 62
4
  6
CONTINUOUS
 10
13.5793663722
 20
8.5129509435
 11
13.5741899959
 21
8.5369287236
  0
LINE
  5
330
100
AcDbEntity
  8
0
100
AcDbLine
 62
4
  6
CONTINUOUS
 10
13.5638372433
 20
8.6138620594
 11
13.561249055
 21
8.6258509492
  0
LINE
  5
331
100
AcDbEntity
  8
0
100
AcDbLine
 62
4
  6
CONTINUOUS
 10
13.5897191264
 20
8.5664176006
 11
13.5923073141
 21
8.5544287101
  0
LINE
  5
332
100
AcDbEntity
  8
0
100
AcDbLine
 62
4
  6
CONTINUOUS
 10
13.561249055
 20
8.5461620656
 11
13.561249055
 21
8.4882065139
  0
LINE
  5
333
100
AcDbEntity
  8
0
100
AcDbLine
 62
4
  6
CONTINUOUS
 10
13.561249055
 20
8.6258509492
 11
13.561249055
 21
8.6403398371
  0
LINE
  5
334
100
AcDbEntity
  8
0
100
AcDbLine
 62
4
  6
CONTINUOUS
 10
13.5923073141
 20
8.6703398135
 11
13.5923073141
 21
8.6558509256
  0
LINE
  5
335
100
AcDbEntity
  8
0
100
AcDbLine
 62
4
  6
CONTINUOUS
 10
13.5923073141
 20
8.5544287101
 11
13.5923073141
 21
8.5399398221
  0
LINE
  5
336
100
AcDbEntity
  8
0
100
AcDbLine
 62
7
  6
CONTINUOUS
 10
13.6096481241
 20
10.9835784551
 11
13.6096481241
 21
7.1198749211
  0
LINE
  5
337
100
AcDbEntity
  8
0
100
AcDbLine
 62
7
  6
CONTINUOUS
 10
12.1941679702
 20
5.7526260027
 11
13.6096481241
 21
7.1198749211
  0
LINE
  5
338
100
AcDbEntity
  8
0
100
AcDbLine
 62
7
  6
CONTINUOUS
 10
9.8058320298
 20
11.2473739973
 11
13.6096481241
 21
10.9835784551
  0
LINE
  5
339
100
AcDbEntity
  8
0
100
AcDbLine
 62
4
  6
CONTINUOUS
 10
13.5897191264
 20
8.682328704
 11
13.5923073141
 21
8.6703398135
  0
ARC
  5
33A
100
AcDbEntity
  8
0
100
AcDbCircle
 62
7
  6
CONTINUOUS
 10
11.0832362055
 20
7.4395042065
 40
0.7619477716
100
AcDbArc
 50
135.1217514146
 51
136.5497102808
  0
ARC
  5
33B
100
AcDbEntity
  8
0
100
AcDbCircle
 62
7
  6
CONTINUOUS
 10
11.2403674398
 20
7.2768249432
 40
0.761878118
100
AcDbArc
 50
311.463527703
 51
312.9902244502
  0
ARC
  5
33C
100
AcDbEntity
  8
0
100
AcDbCircle
 62
7
  6
CONTINUOUS
 10
11.876859821
 20
8.0936343282
 40
0.6017918387
100
AcDbArc
 50
176.7686661937
 51
180.0013962683
  0
ARC
  5
33D
100
AcDbEntity
  8
0
100
AcDbCircle
 62
7
  6
CONTINUOUS
 10
11.7879090379
 20
8.017403424
 40
0.5922072299
100
AcDbArc
 50
168.3415664396
 51
180.0433965118
  0
ARC
  5
33E
100
AcDbEntity
  8
0
100
AcDbCircle
 62
7
  6
CONTINUOUS
 10
11.8827694836
 20
8.0972878241
 40
0.5832066068
100
AcDbArc
 50
177.5345932794
 51
180.0007769808
  0
ARC
  5
33F
100
AcDbEntity
  8
0
100
AcDbCircle
 62
7
  6
CONTINUOUS
 10
11.8844170462
 20
8.0901794394
 40
0.4824660257
100
AcDbArc
 50
179.7025561308
 51
180.0000197073
  0
ARC
  5
340
100
AcDbEntity
  8
0
100
AcDbCircle
 62
7
  6
CONTINUOUS
 10
9.7157431475
 20
9.5292215611
 40
0.3435275099
100
AcDbArc
 50
329.2887610812
 51
334.1999745328
  0
ARC
  5
341
100
AcDbEntity
  8
0
100
AcDbCircle
 62
7
  6
CONTINUOUS
 10
9.8112087876
 20
7.7372669838
 40
0.1361293751
100
AcDbArc
 50
122.1356467842
 51
134.0008938638
  0
ARC
  5
342
100
AcDbEntity
  8
0
100
AcDbCircle
 62
7
  6
CONTINUOUS
 10
9.8388188499
 20
7.7086829088
 40
0.1361293686
100
AcDbArc
 50
314.0131747238
 51
325.8719643558
  0
SPLINE
  5
343
100
AcDbEntity
  8
0
100
AcDbSpline
 62
7
  6
CONTINUOUS
 70
0
 71
3
 72
24
 73
20
 74
0
 42
0.0000001
 43
0.0000001
 44
0.0000000001
 40
0.0
 40
0.0
 40
0.0
 40
0.0
 40
0.0637774298
 40
0.1273438979
 40
0.1907011028
 40
0.2538548461
 40
0.3168115792
 40
0.3795801785
 40
0.4421711488
 40
0.5045967878
 40
0.5668710022
 40
0.6290092041
 40
0.6910281625
 40
0.7220010202
 40
0.7529508971
 40
0.8147862935
 40
0.87655923
 40
0.9382901685
 40
1.0
 40
1.0
 40
1.0
 40
1.0
 10
11.9826303343
 20
7.2760724527
 30
0.0
 10
11.9826303343
 20
7.26257217
 30
0.0
 10
11.9819842144
 20
7.2356116836
 30
0.0
 10
11.979067639
 20
7.1953348428
 30
0.0
 10
11.9742117494
 20
7.1553774246
 30
0.0
 10
11.9674278139
 20
7.1158328731
 30
0.0
 10
11.9587312511
 20
7.0767918908
 30
0.0
 10
11.948142088
 20
7.0383446179
 30
0.0
 10
11.9356846073
 20
7.0005796485
 30
0.0
 10
11.9213874839
 20
6.9635841175
 30
0.0
 10
11.9052835056
 20
6.927443198
 30
0.0
 10
11.8874100819
 20
6.8922407989
 30
0.0
 10
11.8710671185
 20
6.8637411175
 30
0.0
 10
11.8571530728
 20
6.8414960584
 30
0.0
 10
11.8426968205
 20
6.8196460607
 30
0.0
 10
11.8236019906
 20
6.7930607847
 30
0.0
 10
11.7991005523
 20
6.7623982737
 30
0.0
 10
11.7730745767
 20
6.7330549435
 30
0.0
 10
11.7547443474
 20
6.7144142406
 30
0.0
 10
11.7453490045
 20
6.7053390267
 30
0.0
  0
SPLINE
  5
344
100
AcDbEntity
  8
0
100
AcDbSpline
 62
7
  6
CONTINUOUS
 70
0
 71
3
 72
50
 73
46
 74
0
 42
0.0000001
 43
0.0000001
 44
0.0000000001
 40
0.0
 40
0.0
 40
0.0
 40
0.0
 40
0.0417738954
 40
0.0840375015
 40
0.126658999
 40
0.1695072728
 40
0.2124490406
 40
0.2553511879
 40
0.2980805661
 40
0.3405047668
 40
0.3824925704
 40
0.4239144964
 40
0.4646433325
 40
0.504554679
 40
0.5435274987
 40
0.5814446837
 40
0.6181936452
 40
0.6536669372
 40
0.6877629283
 40
0.7203865442
 40
0.7514501111
 40
0.7808743474
 40
0.8085895768
 40
0.8217881241
 40
0.8345385176
 40
0.8468355036
 40
0.8586748141
 40
0.8700533313
 40
0.8809690507
 40
0.8914214953
 40
0.9014115725
 40
0.9109421624
 40
0.9200180335
 40
0.9286464829
 40
0.9368375013
 40
0.9446043826
 40
0.9519642537
 40
0.9589386378
 40
0.9655543111
 40
0.9718437858
 40
0.9778461759
 40
0.9836073377
 40
0.9891800243
 40
0.9946230608
 40
1.0
 40
1.0
 40
1.0
 40
1.0
 10
12.4652806868
 20
8.610909533
 30
0.0
 10
12.4652806868
 20
8.6181946165
 30
0.0
 10
12.4653943489
 20
8.6328504145
 30
0.0
 10
12.4658967898
 20
8.654933935
 30
0.0
 10
12.466730754
 20
8.6771949537
 30
0.0
 10
12.4678934564
 20
8.6995596248
 30
0.0
 10
12.4693810916
 20
8.7219540849
 30
0.0
 10
12.4711887217
 20
8.7443041884
 30
0.0
 10
12.4733103684
 20
8.766536013
 30
0.0
 10
12.4757389948
 20
8.7885760034
 30
0.0
 10
12.478466545
 20
8.8103512512
 30
0.0
 10
12.4814839642
 20
8.8317897272
 30
0.0
 10
12.4847812299
 20
8.8528205259
 30
0.0
 10
12.4883473824
 20
8.8733741022
 30
0.0
 10
12.4921705629
 20
8.8933825056
 30
0.0
 10
12.4962380509
 20
8.9127796085
 30
0.0
 10
12.5005363061
 20
8.9315013317
 30
0.0
 10
12.5050510123
 20
8.9494858616
 30
0.0
 10
12.5097671241
 20
8.9666738735
 30
0.0
 10
12.5146689201
 20
8.9830087144
 30
0.0
 10
12.5197400512
 20
8.9984367092
 30
0.0
 10
12.5249636272
 20
9.0129070269
 30
0.0
 10
12.5294999726
 20
9.0243067956
 30
0.0
 10
12.5332021051
 20
9.0329026254
 30
0.0
 10
12.5359606788
 20
9.0389757792
 30
0.0
 10
12.5387442561
 20
9.0447756953
 30
0.0
 10
12.5415505908
 20
9.0502976135
 30
0.0
 10
12.5443773224
 20
9.0555370258
 30
0.0
 10
12.5472221976
 20
9.0604896289
 30
0.0
 10
12.550082811
 20
9.0651514213
 30
0.0
 10
12.5529569303
 20
9.06951858
 30
0.0
 10
12.5558421528
 20
9.0735876157
 30
0.0
 10
12.5587362615
 20
9.0773552114
 30
0.0
 10
12.5616369304
 20
9.0808183745
 30
0.0
 10
12.5645419672
 20
9.0839743098
 30
0.0
 10
12.5674491984
 20
9.0868204719
 30
0.0
 10
12.5703564936
 20
9.0893545613
 30
0.0
 10
12.573261877
 20
9.0915743688
 30
0.0
 10
12.5761633084
 20
9.0934779684
 30
0.0
 10
12.5790589288
 20
9.0950633003
 30
0.0
 10
12.5819466714
 20
9.0963285853
 30
0.0
 10
12.5848243887
 20
9.0972717875
 30
0.0
 10
12.5876896496
 20
9.0978912113
 30
0.0
 10
12.5905390127
 20
9.0981852678
 30
0.0
 10
12.5924307433
 20
9.0981636296
 30
0.0
 10
12.5933661977
 20
9.0980987483
 30
0.0
  0
SPLINE
  5
345
100
AcDbEntity
  8
0
100
AcDbSpline
 62
7
  6
CONTINUOUS
 70
0
 71
3
 72
50
 73
46
 74
0
 42
0.0000001
 43
0.0000001
 44
0.0000000001
 40
0.0
 40
0.0
 40
0.0
 40
0.0
 40
0.0417738954
 40
0.0840375015
 40
0.126658999
 40
0.1695072728
 40
0.2124490406
 40
0.2553511879
 40
0.2980805661
 40
0.3405047668
 40
0.3824925704
 40
0.4239144964
 40
0.4646433325
 40
0.504554679
 40
0.5435274987
 40
0.5814446837
 40
0.6181936452
 40
0.6536669372
 40
0.6877629283
 40
0.7203865442
 40
0.7514501111
 40
0.7808743474
 40
0.8085895768
 40
0.8217881241
 40
0.8345385176
 40
0.8468355036
 40
0.8586748141
 40
0.8700533313
 40
0.8809690507
 40
0.8914214953
 40
0.9014115725
 40
0.9109421624
 40
0.9200180335
 40
0.9286464829
 40
0.9368375013
 40
0.9446043826
 40
0.9519642537
 40
0.9589386378
 40
0.9655543111
 40
0.9718437858
 40
0.9778461759
 40
0.9836073377
 40
0.9891800243
 40
0.9946230608
 40
1.0
 40
1.0
 40
1.0
 40
1.0
 10
12.4652806868
 20
6.4375762951
 30
0.0
 10
12.4652806868
 20
6.4448613785
 30
0.0
 10
12.4653943489
 20
6.4595171766
 30
0.0
 10
12.4658967898
 20
6.481600697
 30
0.0
 10
12.466730754
 20
6.5038617158
 30
0.0
 10
12.4678934564
 20
6.5262263869
 30
0.0
 10
12.4693810916
 20
6.548620847
 30
0.0
 10
12.4711887217
 20
6.5709709505
 30
0.0
 10
12.4733103684
 20
6.5932027751
 30
0.0
 10
12.4757389948
 20
6.6152427654
 30
0.0
 10
12.478466545
 20
6.6370180132
 30
0.0
 10
12.4814839642
 20
6.6584564893
 30
0.0
 10
12.4847812299
 20
6.679487288
 30
0.0
 10
12.4883473824
 20
6.7000408643
 30
0.0
 10
12.4921705629
 20
6.7200492677
 30
0.0
 10
12.4962380509
 20
6.7394463706
 30
0.0
 10
12.5005363061
 20
6.7581680938
 30
0.0
 10
12.5050510123
 20
6.7761526237
 30
0.0
 10
12.5097671241
 20
6.7933406356
 30
0.0
 10
12.5146689201
 20
6.8096754764
 30
0.0
 10
12.5197400512
 20
6.8251034713
 30
0.0
 10
12.5249636272
 20
6.839573789
 30
0.0
 10
12.5294999726
 20
6.8509735577
 30
0.0
 10
12.5332021051
 20
6.8595693875
 30
0.0
 10
12.5359606788
 20
6.8656425413
 30
0.0
 10
12.5387442561
 20
6.8714424574
 30
0.0
 10
12.5415505908
 20
6.8769643755
 30
0.0
 10
12.5443773224
 20
6.8822037878
 30
0.0
 10
12.5472221976
 20
6.887156391
 30
0.0
 10
12.550082811
 20
6.8918181834
 30
0.0
 10
12.5529569303
 20
6.8961853421
 30
0.0
 10
12.5558421528
 20
6.9002543778
 30
0.0
 10
12.5587362615
 20
6.9040219734
 30
0.0
 10
12.5616369304
 20
6.9074851365
 30
0.0
 10
12.5645419672
 20
6.9106410719
 30
0.0
 10
12.5674491984
 20
6.913487234
 30
0.0
 10
12.5703564936
 20
6.9160213234
 30
0.0
 10
12.573261877
 20
6.9182411308
 30
0.0
 10
12.5761633084
 20
6.9201447304
 30
0.0
 10
12.5790589288
 20
6.9217300623
 30
0.0
 10
12.5819466714
 20
6.9229953474
 30
0.0
 10
12.5848243887
 20
6.9239385496
 30
0.0
 10
12.5876896496
 20
6.9245579734
 30
0.0
 10
12.5905390127
 20
6.9248520299
 30
0.0
 10
12.5924307433
 20
6.9248303917
 30
0.0
 10
12.5933661977
 20
6.9247655104
 30
0.0
  0
SPLINE
  5
346
100
AcDbEntity
  8
0
100
AcDbSpline
 62
7
  6
CONTINUOUS
 70
0
 71
3
 72
9
 73
5
 74
0
 42
0.0000001
 43
0.0000001
 44
0.0000000001
 40
0.0
 40
0.0
 40
0.0
 40
0.0
 40
0.4927655826
 40
1.0
 40
1.0
 40
1.0
 40
1.0
 10
9.5535010898
 20
9.4366535468
 30
0.0
 10
9.5560791534
 20
9.4420042437
 30
0.0
 10
9.5616553133
 20
9.4526991401
 30
0.0
 10
9.5678159934
 20
9.4630659114
 30
0.0
 10
9.571067732
 20
9.4682432258
 30
0.0
  0
SPLINE
  5
347
100
AcDbEntity
  8
0
100
AcDbSpline
 62
7
  6
CONTINUOUS
 70
0
 71
3
 72
13
 73
9
 74
0
 42
0.0000001
 43
0.0000001
 44
0.0000000001
 40
0.0
 40
0.0
 40
0.0
 40
0.0
 40
0.2469239353
 40
0.3710242227
 40
0.4956246701
 40
0.6207782436
 40
0.7465340049
 40
1.0
 40
1.0
 40
1.0
 40
1.0
 10
11.23396617
 20
7.3430426558
 30
0.0
 10
11.2445541921
 20
7.3405357027
 30
0.0
 10
11.2605353298
 20
7.3370644393
 30
0.0
 10
11.2819886467
 20
7.33297076
 30
0.0
 10
11.2982192798
 20
7.3301451733
 30
0.0
 10
11.3145640716
 20
7.3275623672
 30
0.0
 10
11.3365672952
 20
7.3244233253
 30
0.0
 10
11.3531609936
 20
7.3224260513
 30
0.0
 10
11.3642672127
 20
7.3212430951
 30
0.0
  0
SPLINE
  5
348
100
AcDbEntity
  8
0
100
AcDbSpline
 62
7
  6
CONTINUOUS
 70
0
 71
3
 72
37
 73
33
 74
0
 42
0.0000001
 43
0.0000001
 44
0.0000000001
 40
0.0
 40
0.0
 40
0.0
 40
0.0
 40
0.0063161056
 40
0.0126711335
 40
0.0191032106
 40
0.0256489991
 40
0.0392093745
 40
0.0536077711
 40
0.0690451722
 40
0.0856788319
 40
0.1036274206
 40
0.1229778506
 40
0.1437911075
 40
0.1661074541
 40
0.1899507493
 40
0.2153311921
 40
0.2422480356
 40
0.270691432
 40
0.3006435247
 40
0.3320799515
 40
0.3649704769
 40
0.399279593
 40
0.4349674002
 40
0.4719897169
 40
0.5102986224
 40
0.5498429193
 40
0.590568095
 40
0.6324168879
 40
0.7192412156
 40
0.8098111096
 40
0.903585601
 40
1.0
 40
1.0
 40
1.0
 40
1.0
 10
12.5393326833
 20
8.3189701681
 30
0.0
 10
12.5386726673
 20
8.3190159455
 30
0.0
 10
12.5373516843
 20
8.319161809
 30
0.0
 10
12.5353850378
 20
8.3195420168
 30
0.0
 10
12.5334314771
 20
8.3200836158
 30
0.0
 10
12.5308156092
 20
8.3210311109
 30
0.0
 10
12.5275652377
 20
8.3226419826
 30
0.0
 10
12.5237876393
 20
8.3251907176
 30
0.0
 10
12.5200890709
 20
8.3283699811
 30
0.0
 10
12.5164736202
 20
8.3321725206
 30
0.0
 10
12.5129444991
 20
8.3365916059
 30
0.0
 10
12.5095058531
 20
8.3416202607
 30
0.0
 10
12.5061621076
 20
8.3472507497
 30
0.0
 10
12.5029179893
 20
8.3534743991
 30
0.0
 10
12.4997784505
 20
8.3602815433
 30
0.0
 10
12.4967483651
 20
8.3676614208
 30
0.0
 10
12.4938325987
 20
8.3756022594
 30
0.0
 10
12.4910359397
 20
8.3840912874
 30
0.0
 10
12.4883629355
 20
8.3931147396
 30
0.0
 10
12.4858180349
 20
8.4026579346
 30
0.0
 10
12.4834054696
 20
8.4127052851
 30
0.0
 10
12.481129214
 20
8.4232403333
 30
0.0
 10
12.4789930971
 20
8.4342457996
 30
0.0
 10
12.4770006604
 20
8.4457036007
 30
0.0
 10
12.475155206
 20
8.4575948937
 30
0.0
 10
12.4734598557
 20
8.469900104
 30
0.0
 10
12.4719173656
 20
8.482598985
 30
0.0
 10
12.4700451278
 20
8.5002446958
 30
0.0
 10
12.4681201912
 20
8.5231324317
 30
0.0
 10
12.4664803319
 20
8.5514924295
 30
0.0
 10
12.4654946228
 20
8.5808875408
 30
0.0
 10
12.4652806868
 20
8.6008102846
 30
0.0
 10
12.4652806868
 20
8.610909533
 30
0.0
  0
SPLINE
  5
349
100
AcDbEntity
  8
0
100
AcDbSpline
 62
7
  6
CONTINUOUS
 70
0
 71
3
 72
37
 73
33
 74
0
 42
0.0000001
 43
0.0000001
 44
0.0000000001
 40
0.0
 40
0.0
 40
0.0
 40
0.0
 40
0.0063161056
 40
0.0126711335
 40
0.0191032106
 40
0.0256489991
 40
0.0392093745
 40
0.0536077711
 40
0.0690451722
 40
0.0856788319
 40
0.1036274206
 40
0.1229778506
 40
0.1437911075
 40
0.1661074541
 40
0.1899507493
 40
0.2153311921
 40
0.2422480356
 40
0.270691432
 40
0.3006435247
 40
0.3320799515
 40
0.3649704769
 40
0.399279593
 40
0.4349674002
 40
0.4719897169
 40
0.5102986224
 40
0.5498429193
 40
0.590568095
 40
0.6324168879
 40
0.7192412156
 40
0.8098111096
 40
0.903585601
 40
1.0
 40
1.0
 40
1.0
 40
1.0
 10
12.5393326833
 20
6.1456369302
 30
0.0
 10
12.5386726673
 20
6.1456827076
 30
0.0
 10
12.5373516843
 20
6.145828571
 30
0.0
 10
12.5353850378
 20
6.1462087789
 30
0.0
 10
12.5334314771
 20
6.1467503779
 30
0.0
 10
12.5308156092
 20
6.147697873
 30
0.0
 10
12.5275652377
 20
6.1493087447
 30
0.0
 10
12.5237876393
 20
6.1518574797
 30
0.0
 10
12.5200890709
 20
6.1550367432
 30
0.0
 10
12.5164736202
 20
6.1588392827
 30
0.0
 10
12.5129444991
 20
6.163258368
 30
0.0
 10
12.5095058531
 20
6.1682870228
 30
0.0
 10
12.5061621076
 20
6.1739175118
 30
0.0
 10
12.5029179893
 20
6.1801411611
 30
0.0
 10
12.4997784505
 20
6.1869483054
 30
0.0
 10
12.4967483651
 20
6.1943281829
 30
0.0
 10
12.4938325987
 20
6.2022690215
 30
0.0
 10
12.4910359397
 20
6.2107580495
 30
0.0
 10
12.4883629355
 20
6.2197815017
 30
0.0
 10
12.4858180349
 20
6.2293246966
 30
0.0
 10
12.4834054696
 20
6.2393720472
 30
0.0
 10
12.481129214
 20
6.2499070953
 30
0.0
 10
12.4789930971
 20
6.2609125617
 30
0.0
 10
12.4770006604
 20
6.2723703628
 30
0.0
 10
12.475155206
 20
6.2842616558
 30
0.0
 10
12.4734598557
 20
6.296566866
 30
0.0
 10
12.4719173656
 20
6.3092657471
 30
0.0
 10
12.4700451278
 20
6.3269114579
 30
0.0
 10
12.4681201912
 20
6.3497991938
 30
0.0
 10
12.4664803319
 20
6.3781591915
 30
0.0
 10
12.4654946228
 20
6.4075543028
 30
0.0
 10
12.4652806868
 20
6.4274770466
 30
0.0
 10
12.4652806868
 20
6.4375762951
 30
0.0
  0
SPLINE
  5
34A
100
AcDbEntity
  8
0
100
AcDbSpline
 62
7
  6
CONTINUOUS
 70
0
 71
3
 72
39
 73
35
 74
0
 42
0.0000001
 43
0.0000001
 44
0.0000000001
 40
0.0
 40
0.0
 40
0.0
 40
0.0
 40
0.0299424713
 40
0.0599093189
 40
0.0899243252
 40
0.1200101041
 40
0.1501875624
 40
0.1804754141
 40
0.2108897589
 40
0.2414437364
 40
0.2721472611
 40
0.3030068436
 40
0.3340254952
 40
0.3652027139
 40
0.3965345487
 40
0.4280137345
 40
0.459629892
 40
0.4913697861
 40
0.5232176333
 40
0.5551554497
 40
0.5871634339
 40
0.6192203769
 40
0.6513040927
 40
0.6833918636
 40
0.7154608914
 40
0.7474887506
 40
0.7794538354
 40
0.8113357959
 40
0.8431159558
 40
0.8747777127
 40
0.9063068657
 40
0.9376920949
 40
0.9689246535
 40
1.0
 40
1.0
 40
1.0
 40
1.0
 10
9.4858561904
 20
9.4056754002
 30
0.0
 10
9.4933713064
 20
9.4129344518
 30
0.0
 10
9.5089924832
 20
9.4268667049
 30
0.0
 10
9.5340200339
 20
9.4458469382
 30
0.0
 10
9.5605154515
 20
9.4628140315
 30
0.0
 10
9.5883306874
 20
9.4776728104
 30
0.0
 10
9.617312818
 20
9.4903420966
 30
0.0
 10
9.6473018969
 20
9.5007522432
 30
0.0
 10
9.6781326701
 20
9.5088462793
 30
0.0
 10
9.7096352797
 20
9.5145800142
 30
0.0
 10
9.7416362746
 20
9.5179223152
 30
0.0
 10
9.7739595596
 20
9.5188552182
 30
0.0
 10
9.8064273659
 20
9.5173740116
 30
0.0
 10
9.8388612213
 20
9.5134872382
 30
0.0
 10
9.8710829205
 20
9.5072166299
 30
0.0
 10
9.9029154921
 20
9.4985969779
 30
0.0
 10
9.9341841651
 20
9.487675953
 30
0.0
 10
9.9647173109
 20
9.4745138068
 30
0.0
 10
9.9943473704
 20
9.4591830394
 30
0.0
 10
10.02291176
 20
9.4417679989
 30
0.0
 10
10.0502537504
 20
9.4223644211
 30
0.0
 10
10.0762233125
 20
9.4010789037
 30
0.0
 10
10.1006779481
 20
9.378028347
 30
0.0
 10
10.1234834555
 20
9.3533393018
 30
0.0
 10
10.1445146514
 20
9.3271472751
 30
0.0
 10
10.1636560516
 20
9.2995959962
 30
0.0
 10
10.1808024989
 20
9.2708366392
 30
0.0
 10
10.1958597314
 20
9.2410269971
 30
0.0
 10
10.2087449153
 20
9.2103306543
 30
0.0
 10
10.2193870884
 20
9.1789160304
 30
0.0
 10
10.2277275961
 20
9.1469557057
 30
0.0
 10
10.2337202369
 20
9.114624584
 30
0.0
 10
10.2373319099
 20
9.0821024916
 30
0.0
 10
10.2381408308
 20
9.0603516834
 30
0.0
 10
10.2381408308
 20
9.0495078814
 30
0.0
  0
SPLINE
  5
34B
100
AcDbEntity
  8
0
100
AcDbSpline
 62
7
  6
CONTINUOUS
 70
0
 71
3
 72
23
 73
19
 74
0
 42
0.0000001
 43
0.0000001
 44
0.0000000001
 40
0.0
 40
0.0
 40
0.0
 40
0.0
 40
0.0617101471
 40
0.1234413975
 40
0.1852146443
 40
0.247050354
 40
0.3089683512
 40
0.3709876208
 40
0.4331261329
 40
0.4954006604
 40
0.5578266143
 40
0.6204179171
 40
0.6831867871
 40
0.7461438917
 40
0.8092980342
 40
0.8726549895
 40
0.936223237
 40
1.0
 40
1.0
 40
1.0
 40
1.0
 10
10.1152966207
 20
8.7540307545
 30
0.0
 10
10.1201607301
 20
8.7587291279
 30
0.0
 10
10.1296505792
 20
8.7683796991
 30
0.0
 10
10.143124584
 20
8.7835711317
 30
0.0
 10
10.1558094754
 20
8.7994457258
 30
0.0
 10
10.1676754889
 20
8.8159663791
 30
0.0
 10
10.1786953692
 20
8.8330951323
 30
0.0
 10
10.1888437201
 20
8.8507924067
 30
0.0
 10
10.1980971902
 20
8.8690173773
 30
0.0
 10
10.2064344593
 20
8.8877280088
 30
0.0
 10
10.2138362985
 20
8.9068811623
 30
0.0
 10
10.2202857119
 20
8.9264326447
 30
0.0
 10
10.2257679056
 20
8.9463373666
 30
0.0
 10
10.2302702674
 20
8.9665494704
 30
0.0
 10
10.2337823704
 20
8.9870222318
 30
0.0
 10
10.2362963934
 20
9.0077088829
 30
0.0
 10
10.2378062801
 20
9.0285607974
 30
0.0
 10
10.2381408308
 20
9.0425186923
 30
0.0
 10
10.2381408308
 20
9.0495078814
 30
0.0
  0
SPLINE
  5
34C
100
AcDbEntity
  8
0
100
AcDbSpline
 62
7
  6
CONTINUOUS
 70
0
 71
3
 72
15
 73
11
 74
0
 42
0.0000001
 43
0.0000001
 44
0.0000000001
 40
0.0
 40
0.0
 40
0.0
 40
0.0
 40
0.1029024583
 40
0.2122653897
 40
0.3281910576
 40
0.4506559016
 40
0.5794886654
 40
0.7143522025
 40
0.8547441629
 40
1.0
 40
1.0
 40
1.0
 40
1.0
 10
9.5338957688
 20
9.3733825215
 30
0.0
 10
9.5341466792
 20
9.375651216
 30
0.0
 10
9.5347841236
 20
9.3803184572
 30
0.0
 10
9.5361130175
 20
9.3874784523
 30
0.0
 10
9.5378680327
 20
9.3949925531
 30
0.0
 10
9.5400694844
 20
9.4028376012
 30
0.0
 10
9.5427313759
 20
9.4109816867
 30
0.0
 10
9.5458595238
 20
9.419383906
 30
0.0
 10
9.5494501008
 20
9.4279949839
 30
0.0
 10
9.5521025479
 20
9.4337509132
 30
0.0
 10
9.5535010898
 20
9.4366535468
 30
0.0
  0
SPLINE
  5
34D
100
AcDbEntity
  8
0
100
AcDbSpline
 62
7
  6
CONTINUOUS
 70
0
 71
3
 72
23
 73
19
 74
0
 42
0.0000001
 43
0.0000001
 44
0.0000000001
 40
0.0
 40
0.0
 40
0.0
 40
0.0
 40
0.0638960463
 40
0.1275625627
 40
0.1910007796
 40
0.2542170903
 40
0.3172182182
 40
0.3800137024
 40
0.442614847
 40
0.5050349522
 40
0.5672891169
 40
0.6293941178
 40
0.6913682762
 40
0.753231189
 40
0.8150038592
 40
0.8767074816
 40
0.9383658203
 40
1.0
 40
1.0
 40
1.0
 40
1.0
 10
11.943465436
 20
7.3301857661
 30
0.0
 10
11.943465436
 20
7.3181487474
 30
0.0
 10
11.9428899723
 20
7.2941138733
 30
0.0
 10
11.9402923077
 20
7.2582127514
 30
0.0
 10
11.93596823
 20
7.2226064336
 30
0.0
 10
11.9299286079
 20
7.1873779248
 30
0.0
 10
11.9221878637
 20
7.152607551
 30
0.0
 10
11.9127645226
 20
7.1183750523
 30
0.0
 10
11.9016807946
 20
7.0847586455
 30
0.0
 10
11.8889626797
 20
7.0518350856
 30
0.0
 10
11.8746398207
 20
7.0196794384
 30
0.0
 10
11.8587454605
 20
6.9883649238
 30
0.0
 10
11.8413163291
 20
6.9579627966
 30
0.0
 10
11.8223925559
 20
6.9285421011
 30
0.0
 10
11.8020176221
 20
6.9001698435
 30
0.0
 10
11.7802379404
 20
6.872910009
 30
0.0
 10
11.7571040931
 20
6.8468256445
 30
0.0
 10
11.7408107494
 20
6.8302559172
 30
0.0
 10
11.7324595432
 20
6.822189271
 30
0.0
  0
SPLINE
  5
34E
100
AcDbEntity
  8
0
100
AcDbSpline
 62
7
  6
CONTINUOUS
 70
0
 71
3
 72
39
 73
35
 74
0
 42
0.0000001
 43
0.0000001
 44
0.0000000001
 40
0.0
 40
0.0
 40
0.0
 40
0.0
 40
0.0299424713
 40
0.0599093189
 40
0.0899243252
 40
0.1200101041
 40
0.1501875624
 40
0.1804754141
 40
0.2108897589
 40
0.2414437364
 40
0.2721472611
 40
0.3030068436
 40
0.3340254952
 40
0.3652027139
 40
0.3965345487
 40
0.4280137345
 40
0.459629892
 40
0.4913697861
 40
0.5232176333
 40
0.5551554497
 40
0.5871634339
 40
0.6192203769
 40
0.6513040927
 40
0.6833918636
 40
0.7154608914
 40
0.7474887506
 40
0.7794538354
 40
0.8113357959
 40
0.8431159558
 40
0.8747777127
 40
0.9063068657
 40
0.9376920949
 40
0.9689246535
 40
1.0
 40
1.0
 40
1.0
 40
1.0
 10
9.2443747196
 20
7.7919393407
 30
0.0
 10
9.2518898355
 20
7.7991983923
 30
0.0
 10
9.2675110123
 20
7.8131306454
 30
0.0
 10
9.292538563
 20
7.8321108787
 30
0.0
 10
9.3190339806
 20
7.849077972
 30
0.0
 10
9.3468492165
 20
7.8639367509
 30
0.0
 10
9.3758313471
 20
7.8766060371
 30
0.0
 10
9.405820426
 20
7.8870161837
 30
0.0
 10
9.4366511992
 20
7.8951102198
 30
0.0
 10
9.4681538088
 20
7.9008439547
 30
0.0
 10
9.5001548037
 20
7.9041862557
 30
0.0
 10
9.5324780887
 20
7.9051191587
 30
0.0
 10
9.564945895
 20
7.9036379521
 30
0.0
 10
9.5973797504
 20
7.8997511787
 30
0.0
 10
9.6296014497
 20
7.8934805704
 30
0.0
 10
9.6614340212
 20
7.8848609184
 30
0.0
 10
9.6927026942
 20
7.8739398935
 30
0.0
 10
9.72323584
 20
7.8607777474
 30
0.0
 10
9.7528658996
 20
7.8454469799
 30
0.0
 10
9.7814302891
 20
7.8280319394
 30
0.0
 10
9.8087722795
 20
7.8086283616
 30
0.0
 10
9.8347418416
 20
7.7873428442
 30
0.0
 10
9.8591964772
 20
7.7642922875
 30
0.0
 10
9.8820019846
 20
7.7396032423
 30
0.0
 10
9.9030331805
 20
7.7134112156
 30
0.0
 10
9.9221745807
 20
7.6858599367
 30
0.0
 10
9.939321028
 20
7.6571005797
 30
0.0
 10
9.9543782605
 20
7.6272909376
 30
0.0
 10
9.9672634444
 20
7.5965945948
 30
0.0
 10
9.9779056175
 20
7.5651799709
 30
0.0
 10
9.9862461252
 20
7.5332196462
 30
0.0
 10
9.992238766
 20
7.5008885245
 30
0.0
 10
9.995850439
 20
7.4683664321
 30
0.0
 10
9.9966593599
 20
7.4466156239
 30
0.0
 10
9.9966593599
 20
7.4357718219
 30
0.0
  0
SPLINE
  5
34F
100
AcDbEntity
  8
0
100
AcDbSpline
 62
7
  6
CONTINUOUS
 70
0
 71
3
 72
23
 73
19
 74
0
 42
0.0000001
 43
0.0000001
 44
0.0000000001
 40
0.0
 40
0.0
 40
0.0
 40
0.0
 40
0.0617101471
 40
0.1234413975
 40
0.1852146443
 40
0.247050354
 40
0.3089683512
 40
0.3709876208
 40
0.4331261329
 40
0.4954006604
 40
0.5578266143
 40
0.6204179171
 40
0.6831867871
 40
0.7461438917
 40
0.8092980342
 40
0.8726549895
 40
0.936223237
 40
1.0
 40
1.0
 40
1.0
 40
1.0
 10
9.8738151498
 20
7.140294695
 30
0.0
 10
9.8786792593
 20
7.1449930684
 30
0.0
 10
9.8881691083
 20
7.1546436396
 30
0.0
 10
9.9016431131
 20
7.1698350722
 30
0.0
 10
9.9143280045
 20
7.1857096663
 30
0.0
 10
9.926194018
 20
7.2022303197
 30
0.0
 10
9.9372138984
 20
7.2193590728
 30
0.0
 10
9.9473622492
 20
7.2370563472
 30
0.0
 10
9.9566157193
 20
7.2552813178
 30
0.0
 10
9.9649529884
 20
7.2739919493
 30
0.0
 10
9.9723548276
 20
7.2931451028
 30
0.0
 10
9.978804241
 20
7.3126965852
 30
0.0
 10
9.9842864347
 20
7.3326013071
 30
0.0
 10
9.9887887965
 20
7.3528134109
 30
0.0
 10
9.9923008995
 20
7.3732861723
 30
0.0
 10
9.9948149225
 20
7.3939728234
 30
0.0
 10
9.9963248092
 20
7.4148247379
 30
0.0
 10
9.9966593599
 20
7.4287826328
 30
0.0
 10
9.9966593599
 20
7.4357718219
 30
0.0
  0
SPLINE
  5
350
100
AcDbEntity
  8
0
100
AcDbSpline
 62
7
  6
CONTINUOUS
 70
0
 71
3
 72
53
 73
49
 74
0
 42
0.0000001
 43
0.0000001
 44
0.0000000001
 40
0.0
 40
0.0
 40
0.0
 40
0.0
 40
0.0171075607
 40
0.0338664442
 40
0.0504177535
 40
0.0586677488
 40
0.066928637
 40
0.0752243144
 40
0.0835797977
 40
0.1005724422
 40
0.1092731277
 40
0.1181494386
 40
0.1272347425
 40
0.1365649051
 40
0.1461782632
 40
0.1561171039
 40
0.1664274171
 40
0.1771613414
 40
0.1883772174
 40
0.2001432331
 40
0.2256475108
 40
0.2545279414
 40
0.2706136101
 40
0.2880582094
 40
0.3071065308
 40
0.3280134842
 40
0.3509597581
 40
0.3758703106
 40
0.4021988861
 40
0.4289735225
 40
0.4552415529
 40
0.4804585455
 40
0.504481043
 40
0.5273825793
 40
0.5493103984
 40
0.5704191072
 40
0.6106996933
 40
0.6300931999
 40
0.64909599
 40
0.6861704294
 40
0.722321634
 40
0.7578238807
 40
0.7928751532
 40
0.8276226327
 40
0.8621786395
 40
0.8966308423
 40
0.9310496168
 40
1.0
 40
1.0
 40
1.0
 40
1.0
 10
11.0608762619
 20
7.7199291669
 30
0.0
 10
11.0573956733
 20
7.7200323687
 30
0.0
 10
11.0504947412
 20
7.7199928235
 30
0.0
 10
11.0402590974
 20
7.7191136757
 30
0.0
 10
11.0319136169
 20
7.7176537037
 30
0.0
 10
11.0253810676
 20
7.7160281807
 30
0.0
 10
11.0205440602
 20
7.7145726861
 30
0.0
 10
11.0157646505
 20
7.7128721702
 30
0.0
 10
11.0094355451
 20
7.7102515907
 30
0.0
 10
11.0032445244
 20
7.7071035182
 30
0.0
 10
10.9972400849
 20
7.7034303324
 30
0.0
 10
10.9927648399
 20
7.7003557627
 30
0.0
 10
10.988357599
 20
7.6969699928
 30
0.0
 10
10.9840234346
 20
7.693256014
 30
0.0
 10
10.9797668265
 20
7.6891971696
 30
0.0
 10
10.9755966697
 20
7.6847710497
 30
0.0
 10
10.9715205295
 20
7.6799550907
 30
0.0
 10
10.9675520388
 20
7.6747197678
 30
0.0
 10
10.9637043627
 20
7.6690330837
 30
0.0
 10
10.9586258214
 20
7.6605661049
 30
0.0
 10
10.9526931638
 20
7.6484452972
 30
0.0
 10
10.9479174278
 20
7.6348805418
 30
0.0
 10
10.9448087188
 20
7.6225559994
 30
0.0
 10
10.9428883717
 20
7.6120187439
 30
0.0
 10
10.9416184599
 20
7.6003940286
 30
0.0
 10
10.9412111054
 20
7.5875836552
 30
0.0
 10
10.9419326466
 20
7.5735884094
 30
0.0
 10
10.9440566382
 20
7.558616971
 30
0.0
 10
10.9477532159
 20
7.5431494739
 30
0.0
 10
10.9529758746
 20
7.5278367657
 30
0.0
 10
10.9594626158
 20
7.5132661026
 30
0.0
 10
10.9668650174
 20
7.4997789589
 30
0.0
 10
10.9748807115
 20
7.4874613715
 30
0.0
 10
10.9832998441
 20
7.4762462702
 30
0.0
 10
10.9919909539
 20
7.4660094252
 30
0.0
 10
11.0036506641
 20
7.4536864956
 30
0.0
 10
11.015798232
 20
7.4425669231
 30
0.0
 10
11.0282518945
 20
7.4324952543
 30
0.0
 10
11.0405468679
 20
7.4232807553
 30
0.0
 10
11.0561308024
 20
7.4127898535
 30
0.0
 10
11.0751896244
 20
7.4015206249
 30
0.0
 10
11.0944321873
 20
7.391430976
 30
0.0
 10
11.1138494573
 20
7.3823409767
 30
0.0
 10
11.1334380426
 20
7.374114716
 30
0.0
 10
11.1531970443
 20
7.3666476939
 30
0.0
 10
11.173127697
 20
7.3598578862
 30
0.0
 10
11.1999453583
 20
7.3516161748
 30
0.0
 10
11.2203094136
 20
7.3462762009
 30
0.0
 10
11.23396617
 20
7.3430426558
 30
0.0
  0
SPLINE
  5
351
100
AcDbEntity
  8
0
100
AcDbSpline
 62
7
  6
CONTINUOUS
 70
0
 71
3
 72
47
 73
43
 74
0
 42
0.0000001
 43
0.0000001
 44
0.0000000001
 40
0.0
 40
0.0
 40
0.0
 40
0.0
 40
0.01491376
 40
0.0298316135
 40
0.0447556025
 40
0.0596897218
 40
0.0746371105
 40
0.0896008501
 40
0.1045840385
 40
0.1195895936
 40
0.1346203013
 40
0.1496788014
 40
0.1647675577
 40
0.1798888494
 40
0.1950447633
 40
0.2102371779
 40
0.2254677533
 40
0.2407379284
 40
0.2713961902
 40
0.3022243466
 40
0.3332253859
 40
0.3643984806
 40
0.3957390673
 40
0.4272390308
 40
0.4588869262
 40
0.4906682769
 40
0.5225659116
 40
0.5545603433
 40
0.5866301774
 40
0.6187525515
 40
0.6509035824
 40
0.6830588354
 40
0.715193795
 40
0.7472843354
 40
0.779307191
 40
0.8112404128
 40
0.8430638106
 40
0.8747593699
 40
0.9063116532
 40
0.9377081455
 40
0.968939388
 40
1.0
 40
1.0
 40
1.0
 40
1.0
 10
10.6458758422
 20
7.9471034281
 30
0.0
 10
10.6523347607
 20
7.9533422646
 30
0.0
 10
10.6655043686
 20
7.965565786
 30
0.0
 10
10.6859752009
 20
7.9831026282
 30
0.0
 10
10.7071373189
 20
7.9998192377
 30
0.0
 10
10.7289611461
 20
8.0156922713
 30
0.0
 10
10.7514174172
 20
8.0307003261
 30
0.0
 10
10.7744755513
 20
8.0448227768
 30
0.0
 10
10.7981042373
 20
8.0580402053
 30
0.0
 10
10.8222713744
 20
8.0703344385
 30
0.0
 10
10.8469440798
 20
8.0816885474
 30
0.0
 10
10.8720888073
 20
8.0920867577
 30
0.0
 10
10.8976713191
 20
8.1015146109
 30
0.0
 10
10.9236567141
 20
8.1099590065
 30
0.0
 10
10.9500095891
 20
8.1174080631
 30
0.0
 10
10.976693821
 20
8.1238512341
 30
0.0
 10
11.003673407
 20
8.1292794647
 30
0.0
 10
11.0400338446
 20
8.1351606945
 30
0.0
 10
11.08605298
 20
8.1399301642
 30
0.0
 10
11.1417712474
 20
8.1414916301
 30
0.0
 10
11.1977618407
 20
8.1388897117
 30
0.0
 10
11.2537140639
 20
8.1321361159
 30
0.0
 10
11.309319726
 20
8.1212662636
 30
0.0
 10
11.3642714256
 20
8.1063381266
 30
0.0
 10
11.418265298
 20
8.0874324718
 30
0.0
 10
11.4710025359
 20
8.0646523261
 30
0.0
 10
11.5221910803
 20
8.0381222372
 30
0.0
 10
11.5715474555
 20
8.007987962
 30
0.0
 10
11.6187982627
 20
7.9744153341
 30
0.0
 10
11.6636817616
 20
7.9375894367
 30
0.0
 10
11.7059495185
 20
7.8977137143
 30
0.0
 10
11.7453675637
 20
7.8550085246
 30
0.0
 10
11.7817179515
 20
7.8097101602
 30
0.0
 10
11.8147999337
 20
7.7620693994
 30
0.0
 10
11.8444309253
 20
7.7123499902
 30
0.0
 10
11.8704478666
 20
7.6608273501
 30
0.0
 10
11.8927078221
 20
7.6077868177
 30
0.0
 10
11.9110888845
 20
7.5535219771
 30
0.0
 10
11.9254910185
 20
7.498333479
 30
0.0
 10
11.9358361698
 20
7.4425255132
 30
0.0
 10
11.9420692542
 20
7.3864104381
 30
0.0
 10
11.943465436
 20
7.3488882818
 30
0.0
 10
11.943465436
 20
7.3301857661
 30
0.0
  0
SPLINE
  5
352
100
AcDbEntity
  8
0
100
AcDbSpline
 62
7
  6
CONTINUOUS
 70
0
 71
3
 72
24
 73
20
 74
0
 42
0.0000001
 43
0.0000001
 44
0.0000000001
 40
0.0
 40
0.0
 40
0.0
 40
0.0
 40
0.0451241053
 40
0.0909869994
 40
0.1381278966
 40
0.1870249134
 40
0.2122704496
 40
0.2381024849
 40
0.2916716418
 40
0.3480167441
 40
0.4073476851
 40
0.4698186167
 40
0.5355395263
 40
0.6045797138
 40
0.6769766466
 40
0.7527380917
 40
0.8318536722
 40
0.9142960979
 40
1.0
 40
1.0
 40
1.0
 40
1.0
 10
11.4360518105
 20
7.3419238744
 30
0.0
 10
11.4354693684
 20
7.3408954229
 30
0.0
 10
11.4341683748
 20
7.3388906715
 30
0.0
 10
11.4318502926
 20
7.3361028853
 30
0.0
 10
11.4291622713
 20
7.3335252921
 30
0.0
 10
11.4266459587
 20
7.3315767561
 30
0.0
 10
11.4244646656
 20
7.3301265295
 30
0.0
 10
11.4221132732
 20
7.3287162523
 30
0.0
 10
11.4189436141
 20
7.3270948733
 30
0.0
 10
11.4148432765
 20
7.3253990135
 30
0.0
 10
11.4104089337
 20
7.3239343159
 30
0.0
 10
11.4056498825
 20
7.3227059751
 30
0.0
 10
11.4005759574
 20
7.3217194176
 30
0.0
 10
11.3951978909
 20
7.3209803891
 30
0.0
 10
11.3895273078
 20
7.3204948194
 30
0.0
 10
11.3835765814
 20
7.3202687516
 30
0.0
 10
11.3773587143
 20
7.3203083699
 30
0.0
 10
11.3708880239
 20
7.3206198599
 30
0.0
 10
11.3664994118
 20
7.321005337
 30
0.0
 10
11.3642672127
 20
7.3212430951
 30
0.0
  0
SPLINE
  5
353
100
AcDbEntity
  8
0
100
AcDbSpline
 62
7
  6
CONTINUOUS
 70
0
 71
3
 72
50
 73
46
 74
0
 42
0.0000001
 43
0.0000001
 44
0.0000000001
 40
0.0
 40
0.0
 40
0.0
 40
0.0
 40
0.0149717278
 40
0.0299465149
 40
0.044927401
 40
0.0599173893
 40
0.0749194283
 40
0.0899363919
 40
0.1049710634
 40
0.1200261205
 40
0.1351041177
 40
0.1502074705
 40
0.165338445
 40
0.1804991437
 40
0.1956914918
 40
0.21091723
 40
0.2261779061
 40
0.2414748638
 40
0.2568092383
 40
0.2721819537
 40
0.287593716
 40
0.3030450104
 40
0.3185361039
 40
0.3340670439
 40
0.3652423167
 40
0.3965721964
 40
0.4280494165
 40
0.4596636006
 40
0.4914015142
 40
0.5232473741
 40
0.5551831985
 40
0.5871891855
 40
0.6192441282
 40
0.6513258427
 40
0.683411612
 40
0.7154786397
 40
0.7475045014
 40
0.7794675918
 40
0.8113475634
 40
0.8431257421
 40
0.8747855204
 40
0.9063127266
 40
0.9376959415
 40
0.9689266162
 40
1.0
 40
1.0
 40
1.0
 40
1.0
 10
10.529541368
 20
7.9640334569
 30
0.0
 10
10.5368000382
 20
7.9710448013
 30
0.0
 10
10.5515992919
 20
7.9847819127
 30
0.0
 10
10.5746019499
 20
8.0044913225
 30
0.0
 10
10.5983791369
 20
8.0232797141
 30
0.0
 10
10.6228976489
 20
8.0411208367
 30
0.0
 10
10.6481238878
 20
8.0579902287
 30
0.0
 10
10.6740231153
 20
8.0738646252
 30
0.0
 10
10.7005596564
 20
8.0887222609
 30
0.0
 10
10.7276969971
 20
8.10254269
 30
0.0
 10
10.7553978171
 20
8.1153068522
 30
0.0
 10
10.7836239635
 20
8.1269972612
 30
0.0
 10
10.8123365915
 20
8.1375978642
 30
0.0
 10
10.8414962142
 20
8.1470940305
 30
0.0
 10
10.8710626944
 20
8.1554727492
 30
0.0
 10
10.900995342
 20
8.1627225569
 30
0.0
 10
10.9312529901
 20
8.1688334523
 30
0.0
 10
10.9617940111
 20
8.1737970413
 30
0.0
 10
10.9925763848
 20
8.1776065842
 30
0.0
 10
11.0235577659
 20
8.1802568421
 30
0.0
 10
11.0546955819
 20
8.1817441357
 30
0.0
 10
11.0859468609
 20
8.1820665378
 30
0.0
 10
11.117269161
 20
8.1812235457
 30
0.0
 10
11.1591164687
 20
8.1785444342
 30
0.0
 10
11.2113955267
 20
8.1722798656
 30
0.0
 10
11.2736324953
 20
8.1601678033
 30
0.0
 10
11.3351196821
 20
8.1435184307
 30
0.0
 10
11.3955171551
 20
8.1224237516
 30
0.0
 10
11.4544940478
 20
8.097000208
 30
0.0
 10
11.5117265386
 20
8.0673878243
 30
0.0
 10
11.566900589
 20
8.0337494634
 30
0.0
 10
11.6197135285
 20
7.9962701666
 30
0.0
 10
11.669875512
 20
7.9551557466
 30
0.0
 10
11.7171113291
 20
7.9106320534
 30
0.0
 10
11.7611617651
 20
7.8629435207
 30
0.0
 10
11.8017849349
 20
7.8123518222
 30
0.0
 10
11.8387578798
 20
7.7591346695
 30
0.0
 10
11.8718773942
 20
7.7035840015
 30
0.0
 10
11.9009614598
 20
7.6460046468
 30
0.0
 10
11.9258501246
 20
7.5867125946
 30
0.0
 10
11.9464062077
 20
7.5260330953
 30
0.0
 10
11.962516468
 20
7.4642995813
 30
0.0
 10
11.9740917028
 20
7.4018498044
 30
0.0
 10
11.9810678181
 20
7.3390311705
 30
0.0
 10
11.9826303343
 20
7.2970179785
 30
0.0
 10
11.9826303343
 20
7.2760724527
 30
0.0
  0
SPLINE
  5
354
100
AcDbEntity
  8
0
100
AcDbSpline
 62
7
  6
CONTINUOUS
 70
0
 71
3
 72
49
 73
45
 74
0
 42
0.0000001
 43
0.0000001
 44
0.0000000001
 40
0.0
 40
0.0
 40
0.0
 40
0.0
 40
0.0982447785
 40
0.1982913338
 40
0.3001153415
 40
0.3515970198
 40
0.4033210787
 40
0.4550897302
 40
0.5065850131
 40
0.5573247497
 40
0.6066282136
 40
0.6536293488
 40
0.6759686482
 40
0.697378349
 40
0.7177568123
 40
0.7370223962
 40
0.7551184259
 40
0.7720131277
 40
0.7877004633
 40
0.8021982923
 40
0.8155417457
 40
0.8277824683
 40
0.8389817994
 40
0.8492088045
 40
0.8585369126
 40
0.8670425754
 40
0.8748032311
 40
0.8818976833
 40
0.8884048557
 40
0.8944038382
 40
0.8999744153
 40
0.9051950904
 40
0.9101434774
 40
0.9148943947
 40
0.9195179898
 40
0.9240785662
 40
0.9286323042
 40
0.9332272845
 40
0.9426846525
 40
0.9526893994
 40
0.9633756602
 40
0.9748081945
 40
0.987015636
 40
1.0
 40
1.0
 40
1.0
 40
1.0
 10
11.0138577511
 20
8.1306278497
 30
0.0
 10
11.0100086914
 20
8.125366791
 30
0.0
 10
11.0023621018
 20
8.1146580428
 30
0.0
 10
10.9912101471
 20
8.0981576546
 30
0.0
 10
10.9822102161
 20
8.0839554989
 30
0.0
 10
10.9752295115
 20
8.0722781442
 30
0.0
 10
10.9701232472
 20
8.063351885
 30
0.0
 10
10.9652073149
 20
8.0543182141
 30
0.0
 10
10.9605372304
 20
8.0452281544
 30
0.0
 10
10.9561833327
 20
8.036163255
 30
0.0
 10
10.9522291254
 20
8.0272419669
 30
0.0
 10
10.9492922325
 20
8.0199357638
 30
0.0
 10
10.9472203672
 20
8.0142815453
 30
0.0
 10
10.9458443467
 20
8.0102547971
 30
0.0
 10
10.9446253535
 20
8.006391084
 30
0.0
 10
10.9435661823
 20
8.0027087635
 30
0.0
 10
10.9426666808
 20
7.999222422
 30
0.0
 10
10.941924106
 20
7.9959422908
 30
0.0
 10
10.9413332709
 20
7.9928742258
 30
0.0
 10
10.9408871254
 20
7.990020022
 30
0.0
 10
10.9405774988
 20
7.9873778674
 30
0.0
 10
10.9403952949
 20
7.9849432299
 30
0.0
 10
10.9403313884
 20
7.9827093994
 30
0.0
 10
10.9403764543
 20
7.980668313
 30
0.0
 10
10.9405218894
 20
7.9788110348
 30
0.0
 10
10.9407591721
 20
7.9771282385
 30
0.0
 10
10.941080815
 20
7.9756105605
 30
0.0
 10
10.9414797637
 20
7.9742488643
 30
0.0
 10
10.9419494452
 20
7.9730342846
 30
0.0
 10
10.9424846023
 20
7.9719587833
 30
0.0
 10
10.9430794163
 20
7.9710144128
 30
0.0
 10
10.9437295206
 20
7.970194302
 30
0.0
 10
10.944430556
 20
7.9694921659
 30
0.0
 10
10.9451778338
 20
7.9689014406
 30
0.0
 10
10.9459678152
 20
7.9684168309
 30
0.0
 10
10.946796829
 20
7.9680331045
 30
0.0
 10
10.947661371
 20
7.9677445123
 30
0.0
 10
10.9488686922
 20
7.9674775514
 30
0.0
 10
10.9504703047
 20
7.9673646642
 30
0.0
 10
10.9524691709
 20
7.9675428215
 30
0.0
 10
10.9545550623
 20
7.9680038062
 30
0.0
 10
10.9567197306
 20
7.9687224145
 30
0.0
 10
10.9589557485
 20
7.9696798335
 30
0.0
 10
10.9604444173
 20
7.9704427925
 30
0.0
 10
10.9611998933
 20
7.9708569249
 30
0.0
  0
SPLINE
  5
355
100
AcDbEntity
  8
0
100
AcDbSpline
 62
7
  6
CONTINUOUS
 70
0
 71
3
 72
42
 73
38
 74
0
 42
0.0000001
 43
0.0000001
 44
0.0000000001
 40
0.0
 40
0.0
 40
0.0
 40
0.0
 40
0.0310255268
 40
0.0622027355
 40
0.093527506
 40
0.1249920355
 40
0.1565860627
 40
0.188296772
 40
0.2201091141
 40
0.2520061133
 40
0.2839692006
 40
0.315978572
 40
0.3480135642
 40
0.3800530388
 40
0.4120757744
 40
0.4440608598
 40
0.4759880818
 40
0.507838306
 40
0.5395938425
 40
0.57123879
 40
0.602759356
 40
0.6341441485
 40
0.6653844253
 40
0.6964743007
 40
0.7274109055
 40
0.758194491
 40
0.7888284669
 40
0.8193193767
 40
0.8496768073
 40
0.8799132222
 40
0.9100437254
 40
0.9250773345
 40
0.9400911806
 40
0.9550877492
 40
0.9700696203
 40
0.9850394594
 40
1.0
 40
1.0
 40
1.0
 40
1.0
 10
10.7026140704
 20
7.649671612
 30
0.0
 10
10.7026140704
 20
7.632688294
 30
0.0
 10
10.7038368279
 20
7.5986264352
 30
0.0
 10
10.7092979807
 20
7.5476811673
 30
0.0
 10
10.718361946
 20
7.4970058381
 30
0.0
 10
10.7309820586
 20
7.446863154
 30
0.0
 10
10.747093238
 20
7.3975088777
 30
0.0
 10
10.7666126345
 20
7.349195722
 30
0.0
 10
10.7894400577
 20
7.302170743
 30
0.0
 10
10.8154585064
 20
7.2566744946
 30
0.0
 10
10.8445346413
 20
7.212939638
 30
0.0
 10
10.8765195487
 20
7.1711898266
 30
0.0
 10
10.911249537
 20
7.131638604
 30
0.0
 10
10.9485469293
 20
7.0944883116
 30
0.0
 10
10.9882208893
 20
7.0599289793
 30
0.0
 10
11.0300684947
 20
7.0281374574
 30
0.0
 10
11.073875757
 20
6.9992765372
 30
0.0
 10
11.1194186394
 20
6.9734940405
 30
0.0
 10
11.1664642075
 20
6.9509220656
 30
0.0
 10
11.2147718518
 20
6.9316763994
 30
0.0
 10
11.2640944823
 20
6.9158559225
 30
0.0
 10
11.3141797319
 20
6.9035419611
 30
0.0
 10
11.3647712811
 20
6.894797977
 30
0.0
 10
11.4156101451
 20
6.889669267
 30
0.0
 10
11.4664359686
 20
6.8881826566
 30
0.0
 10
11.5169883399
 20
6.8903462568
 30
0.0
 10
11.5670081764
 20
6.8961495646
 30
0.0
 10
11.6162388297
 20
6.9055633847
 30
0.0
 10
11.6644281472
 20
6.9185402099
 30
0.0
 10
11.7113270938
 20
6.9350130341
 30
0.0
 10
11.749168647
 20
6.9515996159
 30
0.0
 10
11.7785441614
 20
6.9665206389
 30
0.0
 10
11.8000932887
 20
6.9785169363
 30
0.0
 10
11.8211454157
 20
6.9913102966
 30
0.0
 10
11.8416740205
 20
7.0048846332
 30
0.0
 10
11.8616523674
 20
7.0192220895
 30
0.0
 10
11.8745914482
 20
7.0292802095
 30
0.0
 10
11.8809595813
 20
7.0344292595
 30
0.0
  0
SPLINE
  5
356
100
AcDbEntity
  8
0
100
AcDbSpline
 62
7
  6
CONTINUOUS
 70
0
 71
3
 72
44
 73
40
 74
0
 42
0.0000001
 43
0.0000001
 44
0.0000000001
 40
0.0
 40
0.0
 40
0.0
 40
0.0
 40
0.0310443156
 40
0.0622424275
 40
0.093590042
 40
0.1250790308
 40
0.156698717
 40
0.1884357731
 40
0.2202745646
 40
0.2521974779
 40
0.2841852731
 40
0.3162174652
 40
0.3482727227
 40
0.3803292746
 40
0.4123653255
 40
0.4443594701
 40
0.4762911023
 40
0.5081408144
 40
0.5398907806
 40
0.5715251153
 40
0.6030302039
 40
0.6343950014
 40
0.6656112869
 40
0.6966738678
 40
0.7275807306
 40
0.7583331346
 40
0.7889356315
 40
0.8193960148
 40
0.8497251974
 40
0.8648475433
 40
0.8799425043
 40
0.8950122209
 40
0.9100589765
 40
0.9250851839
 40
0.940093378
 40
0.9550861953
 40
0.9700663612
 40
0.9850366773
 40
1.0
 40
1.0
 40
1.0
 40
1.0
 10
10.7238272691
 20
7.6551619897
 30
0.0
 10
10.7238272691
 20
7.6382966074
 30
0.0
 10
10.7250582911
 20
7.6044698535
 30
0.0
 10
10.7305556544
 20
7.5538820408
 30
0.0
 10
10.739678738
 20
7.503573196
 30
0.0
 10
10.7523792704
 20
7.4538113136
 30
0.0
 10
10.7685899531
 20
7.40485721
 30
0.0
 10
10.788225126
 20
7.3569684534
 30
0.0
 10
10.8111812217
 20
7.3103966729
 30
0.0
 10
10.8373373345
 20
7.2653866634
 30
0.0
 10
10.866555745
 20
7.222174949
 30
0.0
 10
10.8986826845
 20
7.1809885928
 30
0.0
 10
10.9335491994
 20
7.1420440547
 30
0.0
 10
10.9709720143
 20
7.1055460753
 30
0.0
 10
11.0107543878
 20
7.0716865079
 30
0.0
 10
11.0526872327
 20
7.0406433997
 30
0.0
 10
11.0965502096
 20
7.0125800916
 30
0.0
 10
11.1421128368
 20
6.9876443334
 30
0.0
 10
11.1891356498
 20
6.9659674253
 30
0.0
 10
11.2373715161
 20
6.9476636475
 30
0.0
 10
11.286566902
 20
6.93282967
 30
0.0
 10
11.3364631493
 20
6.9215439394
 30
0.0
 10
11.3867978393
 20
6.9138662645
 30
0.0
 10
11.4373061581
 20
6.9098375754
 30
0.0
 10
11.4877223102
 20
6.9094797124
 30
0.0
 10
11.5377806927
 20
6.9127950553
 30
0.0
 10
11.587218073
 20
6.9197669074
 30
0.0
 10
11.6357720934
 20
6.9303584325
 30
0.0
 10
11.6753300764
 20
6.9421693455
 30
0.0
 10
11.7062666474
 20
6.9533633662
 30
0.0
 10
11.7290716233
 20
6.9626126036
 30
0.0
 10
11.751468359
 20
6.9727104289
 30
0.0
 10
11.7734277543
 20
6.9836437252
 30
0.0
 10
11.7949207311
 20
6.9953980918
 30
0.0
 10
11.8159190568
 20
7.0079579659
 30
0.0
 10
11.8363949603
 20
7.0213068855
 30
0.0
 10
11.8563215758
 20
7.0354273103
 30
0.0
 10
11.8756723196
 20
7.0503002644
 30
0.0
 10
11.8881748462
 20
7.0607068333
 30
0.0
 10
11.8943205106
 20
7.0660278274
 30
0.0
  0
SPLINE
  5
357
100
AcDbEntity
  8
0
100
AcDbSpline
 62
7
  6
CONTINUOUS
 70
0
 71
3
 72
39
 73
35
 74
0
 42
0.0000001
 43
0.0000001
 44
0.0000000001
 40
0.0
 40
0.0
 40
0.0
 40
0.0
 40
0.0310004725
 40
0.0621498355
 40
0.0934442362
 40
0.1248762385
 40
0.1564361347
 40
0.1881117556
 40
0.2198887981
 40
0.2517511035
 40
0.2836809643
 40
0.3156594547
 40
0.3476667763
 40
0.3796826158
 40
0.4116865077
 40
0.4436581996
 40
0.4755780151
 40
0.5074272094
 40
0.5391883123
 40
0.5708454542
 40
0.6023846735
 40
0.6337941941
 40
0.6650646706
 40
0.6961893957
 40
0.7271644666
 40
0.7579889016
 40
0.7886646999
 40
0.8191968449
 40
0.8495932464
 40
0.8798646195
 40
0.9100242952
 40
0.9400879691
 40
0.9700733907
 40
1.0
 40
1.0
 40
1.0
 40
1.0
 10
10.7657608989
 20
7.6956667682
 30
0.0
 10
10.7657608989
 20
7.6793296341
 30
0.0
 10
10.7669158659
 20
7.646565584
 30
0.0
 10
10.7720751364
 20
7.5975541705
 30
0.0
 10
10.7806392365
 20
7.5487888772
 30
0.0
 10
10.7925656432
 20
7.5005135049
 30
0.0
 10
10.8077950474
 20
7.4529655532
 30
0.0
 10
10.8262519608
 20
7.4063798416
 30
0.0
 10
10.8478449811
 20
7.3609861244
 30
0.0
 10
10.8724673236
 20
7.3170083348
 30
0.0
 10
10.8999973357
 20
7.2746634017
 30
0.0
 10
10.930299059
 20
7.2341602023
 30
0.0
 10
10.9632228722
 20
7.1956985065
 30
0.0
 10
10.9986062914
 20
7.1594680512
 30
0.0
 10
11.0362747486
 20
7.1256476084
 30
0.0
 10
11.0760424428
 20
7.0944041175
 30
0.0
 10
11.1177131945
 20
7.0658917974
 30
0.0
 10
11.1610814649
 20
7.0402514574
 30
0.0
 10
11.2059333502
 20
7.0176098066
 30
0.0
 10
11.2520476264
 20
6.9980788475
 30
0.0
 10
11.2991967916
 20
6.9817552468
 30
0.0
 10
11.3471482005
 20
6.9687198896
 30
0.0
 10
11.3956652059
 20
6.9590375117
 30
0.0
 10
11.4445083046
 20
6.9527563754
 30
0.0
 10
11.4934362946
 20
6.9499079772
 30
0.0
 10
11.5422074616
 20
6.9505068407
 30
0.0
 10
11.5905807667
 20
6.9545505066
 30
0.0
 10
11.6383170293
 20
6.9620195132
 30
0.0
 10
11.6851800765
 20
6.9728774502
 30
0.0
 10
11.730938029
 20
6.9870710878
 30
0.0
 10
11.7753641128
 20
7.0045304655
 30
0.0
 10
11.8182390229
 20
7.0251701111
 30
0.0
 10
11.8593474466
 20
7.0488860984
 30
0.0
 10
11.8854662343
 20
7.0666880389
 30
0.0
 10
11.8981549504
 20
7.0760543411
 30
0.0
  0
SPLINE
  5
358
100
AcDbEntity
  8
0
100
AcDbSpline
 62
7
  6
CONTINUOUS
 70
0
 71
3
 72
42
 73
38
 74
0
 42
0.0000001
 43
0.0000001
 44
0.0000000001
 40
0.0
 40
0.0
 40
0.0
 40
0.0
 40
0.0310515893
 40
0.0622577567
 40
0.0936141346
 40
0.1251124814
 40
0.1567419604
 40
0.1884890539
 40
0.2203379096
 40
0.252270676
 40
0.2842678634
 40
0.3163087347
 40
0.3483717111
 40
0.3804347887
 40
0.4124759617
 40
0.4444736456
 40
0.4764070931
 40
0.5082568021
 40
0.540004904
 40
0.5716355271
 40
0.6031351326
 40
0.6344928161
 40
0.6657005609
 40
0.6967534416
 40
0.7276497751
 40
0.7583912057
 40
0.7889827168
 40
0.8194325722
 40
0.8497521836
 40
0.879955894
 40
0.9100606862
 40
0.9250847517
 40
0.9400914759
 40
0.9550835521
 40
0.970063757
 40
0.9850349389
 40
1.0
 40
1.0
 40
1.0
 40
1.0
 10
10.8227115282
 20
7.704176855
 30
0.0
 10
10.8227115282
 20
7.688322187
 30
0.0
 10
10.82387456
 20
7.6565221188
 30
0.0
 10
10.82906805
 20
7.6089672413
 30
0.0
 10
10.8376865044
 20
7.5616784206
 30
0.0
 10
10.8496838687
 20
7.5149100701
 30
0.0
 10
10.8649959315
 20
7.4689097472
 30
0.0
 10
10.8835409762
 20
7.4239218827
 30
0.0
 10
10.9052202196
 20
7.3801852119
 30
0.0
 10
10.9299183519
 20
7.337931914
 30
0.0
 10
10.957504023
 20
7.2973862216
 30
0.0
 10
10.9878306247
 20
7.2587633087
 30
0.0
 10
11.0207370999
 20
7.2222681896
 30
0.0
 10
11.056048749
 20
7.1880946275
 30
0.0
 10
11.093578081
 20
7.1564240358
 30
0.0
 10
11.1331259023
 20
7.1274246188
 30
0.0
 10
11.1744823527
 20
7.1012505044
 30
0.0
 10
11.2174279417
 20
7.0780408402
 30
0.0
 10
11.2617347239
 20
7.057919069
 30
0.0
 10
11.3071675327
 20
7.0409923551
 30
0.0
 10
11.3534851909
 20
7.0273510082
 30
0.0
 10
11.400441734
 20
7.0170678612
 30
0.0
 10
11.4477877483
 20
7.0101979963
 30
0.0
 10
11.4952716667
 20
7.0067784694
 30
0.0
 10
11.5426410762
 20
7.0068280246
 30
0.0
 10
11.5896440457
 20
7.0103469052
 30
0.0
 10
11.6360305103
 20
7.0173169856
 30
0.0
 10
11.6815533916
 20
7.0277017247
 30
0.0
 10
11.725970631
 20
7.0414466015
 30
0.0
 10
11.7690439452
 20
7.0584779249
 30
0.0
 10
11.803656992
 20
7.0753493212
 30
0.0
 10
11.830434894
 20
7.0903862928
 30
0.0
 10
11.8500324906
 20
7.102414344
 30
0.0
 10
11.8691285908
 20
7.1151827856
 30
0.0
 10
11.8876982213
 20
7.1286749617
 30
0.0
 10
11.9057162889
 20
7.1428724591
 30
0.0
 10
11.9173470823
 20
7.1527972849
 30
0.0
 10
11.9230615118
 20
7.1578698197
 30
0.0
  0
SPLINE
  5
359
100
AcDbEntity
  8
0
100
AcDbSpline
 62
7
  6
CONTINUOUS
 70
0
 71
3
 72
42
 73
38
 74
0
 42
0.0000001
 43
0.0000001
 44
0.0000000001
 40
0.0
 40
0.0
 40
0.0
 40
0.0
 40
0.0307260744
 40
0.0461358963
 40
0.061575105
 40
0.0925386881
 40
0.1236161021
 40
0.1548021405
 40
0.186090272
 40
0.2174727159
 40
0.2489405532
 40
0.2804838412
 40
0.31209174
 40
0.3437526459
 40
0.3754543324
 40
0.4071840955
 40
0.4389289039
 40
0.4706755508
 40
0.5024108081
 40
0.5341215805
 40
0.5657950578
 40
0.5974188663
 40
0.6289812149
 40
0.660471038
 40
0.6918781308
 40
0.7231932779
 40
0.754408372
 40
0.785516523
 40
0.816512154
 40
0.8473910849
 40
0.8627874052
 40
0.8781536602
 40
0.9087925576
 40
0.9393111856
 40
0.9545275144
 40
0.969714625
 40
1.0
 40
1.0
 40
1.0
 40
1.0
 10
11.1341999919
 20
8.0050516246
 30
0.0
 10
11.1341999919
 20
7.9927174226
 30
0.0
 10
11.134727053
 20
7.9741918402
 30
0.0
 10
11.1364721345
 20
7.9495334626
 30
0.0
 10
11.138917564
 20
7.9248381989
 30
0.0
 10
11.1432806179
 20
7.8940256686
 30
0.0
 10
11.1505777465
 20
7.8573013728
 30
0.0
 10
11.1599179785
 20
7.8209079406
 30
0.0
 10
11.1712710502
 20
7.7849632498
 30
0.0
 10
11.1846003181
 20
7.7495828189
 30
0.0
 10
11.1998627675
 20
7.7148805824
 30
0.0
 10
11.2170091822
 20
7.6809682187
 30
0.0
 10
11.2359842948
 20
7.6479548765
 30
0.0
 10
11.2567269665
 20
7.6159468037
 30
0.0
 10
11.2791703831
 20
7.5850470142
 30
0.0
 10
11.3032422689
 20
7.5553549569
 30
0.0
 10
11.328865119
 20
7.526966198
 30
0.0
 10
11.355956447
 20
7.4999721156
 30
0.0
 10
11.3844290489
 20
7.4744596072
 30
0.0
 10
11.4141912827
 20
7.4505108116
 30
0.0
 10
11.4451473609
 20
7.428202846
 30
0.0
 10
11.4771976571
 20
7.4076075588
 30
0.0
 10
11.5102390242
 20
7.3887912994
 30
0.0
 10
11.5441651251
 20
7.371814705
 30
0.0
 10
11.5788667666
 20
7.3567325067
 30
0.0
 10
11.6142322711
 20
7.3435933511
 30
0.0
 10
11.6501477459
 20
7.3324396505
 30
0.0
 10
11.6864977718
 20
7.323307418
 30
0.0
 10
11.7231645651
 20
7.3162262548
 30
0.0
 10
11.7539182955
 20
7.3120493286
 30
0.0
 10
11.7785590733
 20
7.3097562091
 30
0.0
 10
11.8031585991
 20
7.3081651945
 30
0.0
 10
11.8338871635
 20
7.3074847043
 30
0.0
 10
11.8645445793
 20
7.3085570536
 30
0.0
 10
11.8889286366
 20
7.3104669877
 30
0.0
 10
11.9131535429
 20
7.3130700782
 30
0.0
 10
11.9312143889
 20
7.3158090334
 30
0.0
 10
11.9431757687
 20
7.3179827856
 30
0.0
  0
SPLINE
  5
35A
100
AcDbEntity
  8
0
100
AcDbSpline
 62
7
  6
CONTINUOUS
 70
0
 71
3
 72
40
 73
36
 74
0
 42
0.0000001
 43
0.0000001
 44
0.0000000001
 40
0.0
 40
0.0
 40
0.0
 40
0.0
 40
0.0307247721
 40
0.0615693602
 40
0.0925313201
 40
0.1236069953
 40
0.1547911625
 40
0.1860773313
 40
0.2174577466
 40
0.2489235257
 40
0.280464763
 40
0.3120706589
 40
0.3437296512
 40
0.3754295556
 40
0.4071577099
 40
0.4389011236
 40
0.4706466287
 40
0.5023810331
 40
0.5340912735
 40
0.5657645676
 40
0.5973885637
 40
0.6289514873
 40
0.6604422824
 40
0.6918507467
 40
0.7231676594
 40
0.7543848999
 40
0.7854955565
 40
0.8164940221
 40
0.847376078
 40
0.8781389611
 40
0.9087814159
 40
0.9393037282
 40
0.9545219215
 40
0.9697108994
 40
1.0
 40
1.0
 40
1.0
 40
1.0
 10
11.1812550638
 20
8.0120830262
 30
0.0
 10
11.1812550638
 20
8.0004685295
 30
0.0
 10
11.1819163977
 20
7.9771889826
 30
0.0
 10
11.1848755106
 20
7.9423184764
 30
0.0
 10
11.1897940641
 20
7.9075350726
 30
0.0
 10
11.1966560869
 20
7.8729519926
 30
0.0
 10
11.2054394495
 20
7.8386798608
 30
0.0
 10
11.2161158167
 20
7.8048288294
 30
0.0
 10
11.2286508152
 20
7.7715075362
 30
0.0
 10
11.243004106
 20
7.7388229495
 30
0.0
 10
11.2591295323
 20
7.7068799755
 30
0.0
 10
11.2769752603
 20
7.6757811381
 30
0.0
 10
11.2964839488
 20
7.645626249
 30
0.0
 10
11.317592931
 20
7.6165120901
 30
0.0
 10
11.3402344161
 20
7.5885321051
 30
0.0
 10
11.3643357051
 20
7.5617761018
 30
0.0
 10
11.3898194236
 20
7.5363299653
 30
0.0
 10
11.4166037681
 20
7.512275384
 30
0.0
 10
11.4446027678
 20
7.4896895892
 30
0.0
 10
11.4737265582
 20
7.4686451083
 30
0.0
 10
11.503881668
 20
7.4492095331
 30
0.0
 10
11.5349713168
 20
7.4314453038
 30
0.0
 10
11.5668957236
 20
7.415409509
 30
0.0
 10
11.5995524245
 20
7.401153703
 30
0.0
 10
11.6328365991
 20
7.3887237404
 30
0.0
 10
11.666641405
 20
7.3781596282
 30
0.0
 10
11.7008583126
 20
7.3694953968
 30
0.0
 10
11.7353774727
 20
7.3627589905
 30
0.0
 10
11.7700879842
 20
7.3579721696
 30
0.0
 10
11.80487855
 20
7.3551504635
 30
0.0
 10
11.8396367121
 20
7.354303023
 30
0.0
 10
11.8685125184
 20
7.3552455539
 30
0.0
 10
11.8914817315
 20
7.3569890391
 30
0.0
 10
11.9143028311
 20
7.3593846079
 30
0.0
 10
11.9313190668
 20
7.3619210631
 30
0.0
 10
11.9425895976
 20
7.3639392744
 30
0.0
  0
SPLINE
  5
35B
100
AcDbEntity
  8
0
100
AcDbSpline
 62
7
  6
CONTINUOUS
 70
0
 71
3
 72
40
 73
36
 74
0
 42
0.0000001
 43
0.0000001
 44
0.0000000001
 40
0.0
 40
0.0
 40
0.0
 40
0.0
 40
0.0307205196
 40
0.0615603781
 40
0.0925171331
 40
0.1235871915
 40
0.1547653832
 40
0.186045297
 40
0.217419266
 40
0.2488785084
 40
0.280413228
 40
0.3120127413
 40
0.3436656068
 40
0.3753597626
 40
0.4070826686
 40
0.4388214528
 40
0.4705630603
 40
0.5022944037
 40
0.5340025138
 40
0.5656746892
 40
0.5972986443
 40
0.6288626528
 40
0.6603556882
 40
0.6917675564
 40
0.7230890229
 40
0.7543119299
 40
0.7854293043
 40
0.8164354534
 40
0.8473260482
 40
0.8780981916
 40
0.9087504707
 40
0.9392829927
 40
0.9545063581
 40
0.9697005305
 40
1.0
 40
1.0
 40
1.0
 40
1.0
 10
11.1956987603
 20
8.0169548767
 30
0.0
 10
11.1956987603
 20
8.0055525606
 30
0.0
 10
11.1963453898
 20
7.9826985105
 30
0.0
 10
11.1992387831
 20
7.9484647024
 30
0.0
 10
11.2040481993
 20
7.9143151761
 30
0.0
 10
11.2107581398
 20
7.8803602033
 30
0.0
 10
11.2193471451
 20
7.8467075241
 30
0.0
 10
11.2297877261
 20
7.8134644345
 30
0.0
 10
11.24204654
 20
7.7807367654
 30
0.0
 10
11.256084452
 20
7.7486287375
 30
0.0
 10
11.2718566817
 20
7.7172425804
 30
0.0
 10
11.289312937
 20
7.6866782236
 30
0.0
 10
11.3083975773
 20
7.6570329768
 30
0.0
 10
11.3290497895
 20
7.6284012235
 30
0.0
 10
11.3512037807
 20
7.6008741225
 30
0.0
 10
11.3747889872
 20
7.5745393192
 30
0.0
 10
11.399730298
 20
7.5494806685
 30
0.0
 10
11.4259482923
 20
7.5257779695
 30
0.0
 10
11.4533594912
 20
7.5035067128
 30
0.0
 10
11.481876622
 20
7.4827378413
 30
0.0
 10
11.5114088938
 20
7.4635375253
 30
0.0
 10
11.5418622851
 20
7.4459669529
 30
0.0
 10
11.5731398405
 20
7.4300821359
 30
0.0
 10
11.6051419775
 20
7.4159337312
 30
0.0
 10
11.6377668005
 20
7.4035668802
 30
0.0
 10
11.6709104244
 20
7.3930210643
 30
0.0
 10
11.7044672967
 20
7.3843299786
 30
0.0
 10
11.7383305523
 20
7.3775214244
 30
0.0
 10
11.7723922719
 20
7.3726172136
 30
0.0
 10
11.8065441169
 20
7.369633117
 30
0.0
 10
11.840676582
 20
7.3685787383
 30
0.0
 10
11.8690436125
 20
7.3693119719
 30
0.0
 10
11.8916153524
 20
7.3708664779
 30
0.0
 10
11.9140465157
 20
7.3730592009
 30
0.0
 10
11.9307776738
 20
7.3754274615
 30
0.0
 10
11.9418621921
 20
7.3773266256
 30
0.0
  0
SPLINE
  5
35C
100
AcDbEntity
  8
0
100
AcDbSpline
 62
7
  6
CONTINUOUS
 70
0
 71
3
 72
39
 73
35
 74
0
 42
0.0000001
 43
0.0000001
 44
0.0000000001
 40
0.0
 40
0.0
 40
0.0
 40
0.0
 40
0.0306419282
 40
0.0613937671
 40
0.0922529619
 40
0.1232171826
 40
0.1542821922
 40
0.1854430491
 40
0.2166937123
 40
0.2480272652
 40
0.279435946
 40
0.3109112441
 40
0.3424439864
 40
0.3740244327
 40
0.405642374
 40
0.4372872347
 40
0.4689481764
 40
0.500614204
 40
0.5322742729
 40
0.5639173961
 40
0.5955327519
 40
0.6271097889
 40
0.6586383318
 40
0.690108682
 40
0.7215117161
 40
0.7528389797
 40
0.7840827764
 40
0.815236251
 40
0.8462934657
 40
0.8772494692
 40
0.9081003572
 40
0.9388433241
 40
0.969476704
 40
1.0
 40
1.0
 40
1.0
 40
1.0
 10
11.2750679825
 20
8.0936196629
 30
0.0
 10
11.2750679825
 20
8.0831369396
 30
0.0
 10
11.2756144122
 20
8.0621299028
 30
0.0
 10
11.2780606594
 20
8.030651525
 30
0.0
 10
11.2821284672
 20
7.9992294567
 30
0.0
 10
11.2878066066
 20
7.9679496091
 30
0.0
 10
11.2950798356
 20
7.9368958137
 30
0.0
 10
11.3039284138
 20
7.9061518375
 30
0.0
 10
11.3143284766
 20
7.8758004343
 30
0.0
 10
11.3262519408
 20
7.8459233436
 30
0.0
 10
11.3396666485
 20
7.8166010105
 30
0.0
 10
11.3545364292
 20
7.7879123871
 30
0.0
 10
11.3708211987
 20
7.7599347138
 30
0.0
 10
11.3884770686
 20
7.7327433146
 30
0.0
 10
11.4074564679
 20
7.7064113965
 30
0.0
 10
11.42770827
 20
7.6810098541
 30
0.0
 10
11.4491779295
 20
7.6566070795
 30
0.0
 10
11.4718076288
 20
7.6332687797
 30
0.0
 10
11.4955364324
 20
7.6110578007
 30
0.0
 10
11.5203004501
 20
7.5900339589
 30
0.0
 10
11.5460330087
 20
7.5702538823
 30
0.0
 10
11.5726648271
 20
7.5517708539
 30
0.0
 10
11.6001242019
 20
7.5346346675
 30
0.0
 10
11.6283372035
 20
7.5188914987
 30
0.0
 10
11.657227873
 20
7.5045837807
 30
0.0
 10
11.6867184252
 20
7.4917500903
 30
0.0
 10
11.7167294561
 20
7.4804250439
 30
0.0
 10
11.7471801576
 20
7.4706392049
 30
0.0
 10
11.7779885233
 20
7.462419
 30
0.0
 10
11.8090716036
 20
7.4557866492
 30
0.0
 10
11.8403455948
 20
7.4507601
 30
0.0
 10
11.8717265544
 20
7.447352984
 30
0.0
 10
11.9031288019
 20
7.4455745375
 30
0.0
 10
11.924061742
 20
7.4454778445
 30
0.0
 10
11.9345014476
 20
7.445703251
 30
0.0
  0
SPLINE
  5
35D
100
AcDbEntity
  8
0
100
AcDbSpline
 62
7
  6
CONTINUOUS
 70
0
 71
3
 72
37
 73
33
 74
0
 42
0.0000001
 43
0.0000001
 44
0.0000000001
 40
0.0
 40
0.0
 40
0.0
 40
0.0
 40
0.0306187756
 40
0.0613445853
 40
0.0921741078
 40
0.1231058715
 40
0.1541357791
 40
0.1852593625
 40
0.2164711003
 40
0.2477646461
 40
0.2791328863
 40
0.3105679988
 40
0.3420615379
 40
0.3736045123
 40
0.4051874727
 40
0.4368006028
 40
0.4684338102
 40
0.5000768182
 40
0.5633333064
 40
0.6265051487
 40
0.6580431671
 40
0.6895307441
 40
0.7209589429
 40
0.7523193808
 40
0.7836043104
 40
0.8148066961
 40
0.8459202851
 40
0.8769396725
 40
0.9078603632
 40
0.9386788252
 40
0.9693925328
 40
1.0
 40
1.0
 40
1.0
 40
1.0
 10
11.4019510205
 20
8.0901792734
 30
0.0
 10
11.4019510205
 20
8.0820615378
 30
0.0
 10
11.4023612758
 20
8.065794784
 30
0.0
 10
11.4041981046
 20
8.0414168223
 30
0.0
 10
11.4072530022
 20
8.0170772034
 30
0.0
 10
11.4115178927
 20
7.9928386235
 30
0.0
 10
11.4169821135
 20
7.9687620464
 30
0.0
 10
11.4236317031
 20
7.9449085794
 30
0.0
 10
11.4314498049
 20
7.92133858
 30
0.0
 10
11.4404165574
 20
7.8981117243
 30
0.0
 10
11.4505092145
 20
7.8752868077
 30
0.0
 10
11.4617021926
 20
7.8529216096
 30
0.0
 10
11.4739671359
 20
7.8310727455
 30
0.0
 10
11.4872729724
 20
7.8097955388
 30
0.0
 10
11.5015860159
 20
7.7891438083
 30
0.0
 10
11.5168698771
 20
7.7691699429
 30
0.0
 10
11.5330863461
 20
7.7499240584
 30
0.0
 10
11.5558899862
 20
7.7253056547
 30
0.0
 10
11.5865091855
 20
7.6965953546
 30
0.0
 10
11.6196678422
 20
7.6709044945
 30
0.0
 10
11.6475088536
 20
7.6523302572
 30
0.0
 10
11.6689830509
 20
7.6394289358
 30
0.0
 10
11.6910040122
 20
7.6275848273
 30
0.0
 10
11.7135164953
 20
7.6168275184
 30
0.0
 10
11.736463374
 20
7.6071843816
 30
0.0
 10
11.7597865972
 20
7.5986798408
 30
0.0
 10
11.7834271077
 20
7.5913354861
 30
0.0
 10
11.8073250745
 20
7.5851699782
 30
0.0
 10
11.8314199233
 20
7.5801989807
 30
0.0
 10
11.8556508553
 20
7.5764351124
 30
0.0
 10
11.8799556875
 20
7.5738880012
 30
0.0
 10
11.8961973683
 20
7.5730038083
 30
0.0
 10
11.9043086585
 20
7.5727672966
 30
0.0
  0
SPLINE
  5
35E
100
AcDbEntity
  8
0
100
AcDbSpline
 62
7
  6
CONTINUOUS
 70
0
 71
3
 72
23
 73
19
 74
0
 42
0.0000001
 43
0.0000001
 44
0.0000000001
 40
0.0
 40
0.0
 40
0.0
 40
0.0
 40
0.0620565047
 40
0.1242845535
 40
0.186663741
 40
0.2491718065
 40
0.3117849112
 40
0.3744779386
 40
0.4372248039
 40
0.4999987722
 40
0.5627727815
 40
0.6255197693
 40
0.688212999
 40
0.7508263831
 40
0.8133348019
 40
0.8757144125
 40
0.9379429475
 40
1.0
 40
1.0
 40
1.0
 40
1.0
 10
11.5355316898
 20
8.0292288966
 30
0.0
 10
11.5386416275
 20
8.0202347789
 30
0.0
 10
11.5453706412
 20
8.0023903874
 30
0.0
 10
11.5569335876
 20
7.9761891332
 30
0.0
 10
11.5699436831
 20
7.9505969055
 30
0.0
 10
11.5843571296
 20
7.9257000721
 30
0.0
 10
11.6001259465
 20
7.9015812992
 30
0.0
 10
11.617197518
 20
7.878321032
 30
0.0
 10
11.6355149325
 20
7.8559967577
 30
0.0
 10
11.6550171269
 20
7.8346828751
 30
0.0
 10
11.6756391011
 20
7.8144504147
 30
0.0
 10
11.6973121308
 20
7.7953668115
 30
0.0
 10
11.7199639879
 20
7.7774956814
 30
0.0
 10
11.7435192135
 20
7.7608965999
 30
0.0
 10
11.7678992425
 20
7.7456249514
 30
0.0
 10
11.7930231292
 20
7.7317315677
 30
0.0
 10
11.8188060808
 20
7.7192632214
 30
0.0
 10
11.8364054944
 20
7.7119168892
 30
0.0
 10
11.8452859439
 20
7.7084956198
 30
0.0
  0
SPLINE
  5
35F
100
AcDbEntity
  8
0
100
AcDbSpline
 62
7
  6
CONTINUOUS
 70
0
 71
3
 72
48
 73
44
 74
0
 42
0.0000001
 43
0.0000001
 44
0.0000000001
 40
0.0
 40
0.0
 40
0.0
 40
0.0
 40
0.0310492833
 40
0.0622530354
 40
0.0936068184
 40
0.1251024782
 40
0.1567291804
 40
0.1884734488
 40
0.2203194731
 40
0.2522494444
 40
0.2842439205
 40
0.3162822128
 40
0.348342788
 40
0.3804036861
 40
0.4124429412
 40
0.4444390024
 40
0.476371149
 40
0.5082198971
 40
0.539967386
 40
0.5715977405
 40
0.6030974096
 40
0.6344554626
 40
0.6656638421
 40
0.6967175751
 40
0.7276149179
 40
0.7430079208
 40
0.7583626959
 40
0.7736799607
 40
0.7889606353
 40
0.8042058445
 40
0.8194169095
 40
0.8345953399
 40
0.849742831
 40
0.8648612539
 40
0.8799526424
 40
0.8950191872
 40
0.9100632228
 40
0.9250872115
 40
0.9400937335
 40
0.9550854717
 40
0.9700651938
 40
0.9850357386
 40
1.0
 40
1.0
 40
1.0
 40
1.0
 10
10.316588999
 20
7.4168000038
 30
0.0
 10
10.316588999
 20
7.3962207793
 30
0.0
 10
10.3180972244
 20
7.3549446538
 30
0.0
 10
10.324832157
 20
7.2932184875
 30
0.0
 10
10.336008736
 20
7.2318367349
 30
0.0
 10
10.351567323
 20
7.1711290606
 30
0.0
 10
10.3714247163
 20
7.1114161638
 30
0.0
 10
10.3954752188
 20
7.0530147951
 30
0.0
 10
10.4235910087
 20
6.9962343377
 30
0.0
 10
10.4556226564
 20
6.9413755853
 30
0.0
 10
10.4914002103
 20
6.8887291737
 30
0.0
 10
10.5307339325
 20
6.838574038
 30
0.0
 10
10.5734152053
 20
6.7911758409
 30
0.0
 10
10.6192178707
 20
6.7467857804
 30
0.0
 10
10.6678992367
 20
6.7056391414
 30
0.0
 10
10.7192013336
 20
6.6679539956
 30
0.0
 10
10.7728524405
 20
6.6339302823
 30
0.0
 10
10.8285683348
 20
6.6037485516
 30
0.0
 10
10.8860538233
 20
6.5775690105
 30
0.0
 10
10.9450043673
 20
6.5555309019
 30
0.0
 10
11.0051076091
 20
6.5377514986
 30
0.0
 10
11.0660448087
 20
6.5243255329
 30
0.0
 10
11.1274935122
 20
6.5153249582
 30
0.0
 10
11.1891255571
 20
6.5107979538
 30
0.0
 10
11.2404387316
 20
6.5107744878
 30
0.0
 10
11.2812429184
 20
6.5130131609
 30
0.0
 10
11.3116532433
 20
6.5158122387
 30
0.0
 10
11.3418643687
 20
6.5197297815
 30
0.0
 10
11.3718366876
 20
6.5247606594
 30
0.0
 10
11.4015302698
 20
6.5308981297
 30
0.0
 10
11.4309057181
 20
6.5381340761
 30
0.0
 10
11.4599239835
 20
6.5464589897
 30
0.0
 10
11.4885465473
 20
6.555861747
 30
0.0
 10
11.5167353904
 20
6.5663298846
 30
0.0
 10
11.544453033
 20
6.5778495983
 30
0.0
 10
11.5716626827
 20
6.5904055224
 30
0.0
 10
11.5983281965
 20
6.6039809918
 30
0.0
 10
11.6244140999
 20
6.618558066
 30
0.0
 10
11.6498857795
 20
6.6341173275
 30
0.0
 10
11.6747093702
 20
6.6506380789
 30
0.0
 10
11.6988519561
 20
6.6680985632
 30
0.0
 10
11.7222810479
 20
6.6864751388
 30
0.0
 10
11.7374073502
 20
6.699323459
 30
0.0
 10
11.7448398225
 20
6.7058907247
 30
0.0
  0
SPLINE
  5
360
100
AcDbEntity
  8
0
100
AcDbSpline
 62
7
  6
CONTINUOUS
 70
0
 71
3
 72
71
 73
67
 74
0
 42
0.0000001
 43
0.0000001
 44
0.0000000001
 40
0.0
 40
0.0
 40
0.0
 40
0.0
 40
0.0156374138
 40
0.0313278881
 40
0.0470702913
 40
0.0628636364
 40
0.0787060815
 40
0.0945954873
 40
0.1105292288
 40
0.1265042942
 40
0.142517294
 40
0.1585644994
 40
0.1746418768
 40
0.1907451254
 40
0.2068697167
 40
0.2230109351
 40
0.2391639195
 40
0.2553237063
 40
0.2714852727
 40
0.2876435801
 40
0.3037936184
 40
0.3199304494
 40
0.3360492501
 40
0.3521453556
 40
0.3682143002
 40
0.3842518582
 40
0.4002540817
 40
0.4162173384
 40
0.4321383459
 40
0.448014204
 40
0.4638424244
 40
0.4796209576
 40
0.4953482154
 40
0.5110230901
 40
0.5266449705
 40
0.5422137514
 40
0.557729841
 40
0.5731941614
 40
0.5886081449
 40
0.6039737251
 40
0.6192933221
 40
0.6345698231
 40
0.6498065563
 40
0.6650072603
 40
0.6801760488
 40
0.6953173694
 40
0.7104359592
 40
0.725536796
 40
0.7406250462
 40
0.7557060107
 40
0.7707850681
 40
0.7858676178
 40
0.8009590215
 40
0.8160645465
 40
0.8311893097
 40
0.8463382233
 40
0.8615159444
 40
0.8767268267
 40
0.8919748775
 40
0.9072637174
 40
0.9225965514
 40
0.9379761187
 40
0.9534047402
 40
0.9688840877
 40
0.9844157081
 40
1.0
 40
1.0
 40
1.0
 40
1.0
 10
10.4193699554
 20
7.4321584797
 30
0.0
 10
10.4193699554
 20
7.4196355689
 30
0.0
 10
10.4199869588
 20
7.3945429897
 30
0.0
 10
10.4227500674
 20
7.3569349586
 30
0.0
 10
10.4273457837
 20
7.3193800448
 30
0.0
 10
10.4337627669
 20
7.2819700376
 30
0.0
 10
10.4419856261
 20
7.2447945565
 30
0.0
 10
10.4519944125
 20
7.2079432462
 30
0.0
 10
10.4637649988
 20
7.1715047779
 30
0.0
 10
10.477268974
 20
7.1355668763
 30
0.0
 10
10.4924737816
 20
7.100216043
 30
0.0
 10
10.509342773
 20
7.0655373673
 30
0.0
 10
10.5278352958
 20
7.0316143141
 30
0.0
 10
10.5479067966
 20
6.9985285277
 30
0.0
 10
10.5695089298
 20
6.9663596363
 30
0.0
 10
10.5925896731
 20
6.9351850624
 30
0.0
 10
10.6170934528
 20
6.9050798368
 30
0.0
 10
10.6429612764
 20
6.8761164197
 30
0.0
 10
10.670130874
 20
6.848364527
 30
0.0
 10
10.6985368475
 20
6.8218909638
 30
0.0
 10
10.7281108276
 20
6.7967594645
 30
0.0
 10
10.7587816322
 20
6.7730305341
 30
0.0
 10
10.7904754412
 20
6.7507613055
 30
0.0
 10
10.8231159747
 20
6.7300054057
 30
0.0
 10
10.8566246756
 20
6.710812826
 30
0.0
 10
10.8909208974
 20
6.693229803
 30
0.0
 10
10.9259220966
 20
6.6772987071
 30
0.0
 10
10.9615440303
 20
6.6630579408
 30
0.0
 10
10.9977009573
 20
6.650541846
 30
0.0
 10
11.0343058435
 20
6.6397806225
 30
0.0
 10
11.0712705678
 20
6.6308002474
 30
0.0
 10
11.1085061352
 20
6.6236224135
 30
0.0
 10
11.1459228904
 20
6.6182644813
 30
0.0
 10
11.1834307321
 20
6.6147394353
 30
0.0
 10
11.2209393289
 20
6.6130558516
 30
0.0
 10
11.258358335
 20
6.6132178757
 30
0.0
 10
11.2955976068
 20
6.6152252109
 30
0.0
 10
11.3325674195
 20
6.6190731165
 30
0.0
 10
11.3691786822
 20
6.6247524184
 30
0.0
 10
11.4053431534
 20
6.6322495229
 30
0.0
 10
11.440973656
 20
6.6415464458
 30
0.0
 10
11.4759842862
 20
6.652620861
 30
0.0
 10
11.510290622
 20
6.6654461504
 30
0.0
 10
11.5438099281
 20
6.6799914664
 30
0.0
 10
11.5764613566
 20
6.6962218041
 30
0.0
 10
11.6081661442
 20
6.7140980845
 30
0.0
 10
11.6388478048
 20
6.7335772471
 30
0.0
 10
11.6684323156
 20
6.7546123536
 30
0.0
 10
11.6968483007
 20
6.7771526985
 30
0.0
 10
11.7240272102
 20
6.8011439278
 30
0.0
 10
11.7499034823
 20
6.8265281793
 30
0.0
 10
11.7744147049
 20
6.8532442223
 30
0.0
 10
11.7975017671
 20
6.8812276073
 30
0.0
 10
11.8191090038
 20
6.9104108241
 30
0.0
 10
11.8391843306
 20
6.9407234663
 30
0.0
 10
11.8576793694
 20
6.9720924043
 30
0.0
 10
11.874549565
 20
7.0044419641
 30
0.0
 10
11.8897542938
 20
7.0376941114
 30
0.0
 10
11.9032569653
 20
7.0717686392
 30
0.0
 10
11.9150251091
 20
7.106583372
 30
0.0
 10
11.9250304253
 20
7.1420543484
 30
0.0
 10
11.9332489219
 20
7.1780960904
 30
0.0
 10
11.9396608025
 20
7.2146215773
 30
0.0
 10
11.9442508492
 20
7.251543223
 30
0.0
 10
11.9470078995
 20
7.2887707198
 30
0.0
 10
11.947618652
 20
7.3136937034
 30
0.0
 10
11.947618652
 20
7.3261740727
 30
0.0
  0
SPLINE
  5
361
100
AcDbEntity
  8
0
100
AcDbSpline
 62
7
  6
CONTINUOUS
 70
0
 71
3
 72
15
 73
11
 74
0
 42
0.0000001
 43
0.0000001
 44
0.0000000001
 40
0.0
 40
0.0
 40
0.0
 40
0.0
 40
0.1273483257
 40
0.253860557
 40
0.3795878955
 40
0.504605103
 40
0.6290174424
 40
0.7529533779
 40
0.8765605788
 40
1.0
 40
1.0
 40
1.0
 40
1.0
 10
9.6743398719
 20
7.7334350857
 30
0.0
 10
9.6743398719
 20
7.7382395753
 30
0.0
 10
9.674798603
 20
7.7478236536
 30
0.0
 10
9.6768731765
 20
7.7620154396
 30
0.0
 10
9.6803131639
 20
7.7758506376
 30
0.0
 10
9.6850874952
 20
7.7891998635
 30
0.0
 10
9.6911523558
 20
7.8019400115
 30
0.0
 10
9.6984524889
 20
7.8139534258
 30
0.0
 10
9.7069192366
 20
7.8251275509
 30
0.0
 10
9.7132942713
 20
7.831953336
 30
0.0
 10
9.7166438501
 20
7.8351887861
 30
0.0
  0
SPLINE
  5
362
100
AcDbEntity
  8
0
100
AcDbSpline
 62
7
  6
CONTINUOUS
 70
0
 71
3
 72
15
 73
11
 74
0
 42
0.0000001
 43
0.0000001
 44
0.0000000001
 40
0.0
 40
0.0
 40
0.0
 40
0.0
 40
0.1264266261
 40
0.2524271243
 40
0.377998133
 40
0.5031565631
 40
0.6279149872
 40
0.7522925911
 40
0.8763121527
 40
1.0
 40
1.0
 40
1.0
 40
1.0
 10
9.3430794353
 20
7.7104620557
 30
0.0
 10
9.3430794353
 20
7.7176497918
 30
0.0
 10
9.3434332425
 20
7.7320036146
 30
0.0
 10
9.3450302061
 20
7.7534430454
 30
0.0
 10
9.3476889935
 20
7.774704801
 30
0.0
 10
9.3514028719
 20
7.7957360978
 30
0.0
 10
9.3561630475
 20
7.8164860203
 30
0.0
 10
9.3619579668
 20
7.8369040183
 30
0.0
 10
9.3687732546
 20
7.8569396414
 30
0.0
 10
9.3739932435
 20
7.8700274221
 30
0.0
 10
9.3767671702
 20
7.8764892138
 30
0.0
  0
SPLINE
  5
363
100
AcDbEntity
  8
0
100
AcDbSpline
 62
7
  6
CONTINUOUS
 70
0
 71
3
 72
42
 73
38
 74
0
 42
0.0000001
 43
0.0000001
 44
0.0000000001
 40
0.0
 40
0.0
 40
0.0
 40
0.0
 40
0.0308396519
 40
0.0463113478
 40
0.061815352
 40
0.0929165453
 40
0.1241419492
 40
0.1554846211
 40
0.1869359177
 40
0.2184855811
 40
0.2501219252
 40
0.2818320094
 40
0.3136018358
 40
0.3454165545
 40
0.3772606786
 40
0.4091183052
 40
0.440973341
 40
0.4728097291
 40
0.5046116761
 40
0.5363638758
 40
0.5680517294
 40
0.5996615569
 40
0.6311808004
 40
0.6625982143
 40
0.6939040419
 40
0.7250901738
 40
0.7561502875
 40
0.7870799632
 40
0.817876775
 40
0.8485403537
 40
0.8638245559
 40
0.8790762696
 40
0.9094806303
 40
0.9397631577
 40
0.9548630921
 40
0.9699356594
 40
1.0
 40
1.0
 40
1.0
 40
1.0
 10
9.3430794353
 20
7.7104620557
 30
0.0
 10
9.3430794353
 20
7.7013247243
 30
0.0
 10
9.3435095923
 20
7.6875984319
 30
0.0
 10
9.3449326597
 20
7.6693367734
 30
0.0
 10
9.3469268255
 20
7.6510500805
 30
0.0
 10
9.3504838597
 20
7.6282502036
 30
0.0
 10
9.3564280485
 20
7.6011243751
 30
0.0
 10
9.364029374
 20
7.5743073519
 30
0.0
 10
9.3732579636
 20
7.5479044389
 30
0.0
 10
9.384077706
 20
7.5220184988
 30
0.0
 10
9.396446269
 20
7.496750585
 30
0.0
 10
9.4103153033
 20
7.4721992736
 30
0.0
 10
9.4256306187
 20
7.448460357
 30
0.0
 10
9.4423323993
 20
7.4256264532
 30
0.0
 10
9.4603554342
 20
7.4037866532
 30
0.0
 10
9.4796293713
 20
7.3830261745
 30
0.0
 10
9.5000789896
 20
7.3634260316
 30
0.0
 10
9.5216244914
 20
7.345062722
 30
0.0
 10
9.5441818106
 20
7.3280079299
 30
0.0
 10
9.5676629386
 20
7.312328248
 30
0.0
 10
9.5919762647
 20
7.2980849191
 30
0.0
 10
9.6170269306
 20
7.285333598
 30
0.0
 10
9.6427171966
 20
7.2741241352
 30
0.0
 10
9.6689468211
 20
7.2645003822
 30
0.0
 10
9.6956134417
 20
7.2565000195
 30
0.0
 10
9.7226129928
 20
7.2501544104
 30
0.0
 10
9.749840026
 20
7.2454884688
 30
0.0
 10
9.7771884202
 20
7.242520588
 30
0.0
 10
9.8045506706
 20
7.2412624575
 30
0.0
 10
9.8273021304
 20
7.2416436726
 30
0.0
 10
9.8453998655
 20
7.2428077418
 30
0.0
 10
9.863375094
 20
7.2445384481
 30
0.0
 10
9.8856586047
 20
7.2477643607
 30
0.0
 10
9.9076448895
 20
7.2524068107
 30
0.0
 10
9.9249724894
 20
7.2569560387
 30
0.0
 10
9.9420803845
 20
7.2620476458
 30
0.0
 10
9.9547081144
 20
7.2664889484
 30
0.0
 10
9.9630093465
 20
7.2697193056
 30
0.0
  0
SPLINE
  5
364
100
AcDbEntity
  8
0
100
AcDbSpline
 62
7
  6
CONTINUOUS
 70
0
 71
3
 72
50
 73
46
 74
0
 42
0.0000001
 43
0.0000001
 44
0.0000000001
 40
0.0
 40
0.0
 40
0.0
 40
0.0
 40
0.0417738954
 40
0.0840375015
 40
0.126658999
 40
0.1695072728
 40
0.2124490406
 40
0.2553511879
 40
0.2980805661
 40
0.3405047668
 40
0.3824925704
 40
0.4239144964
 40
0.4646433325
 40
0.504554679
 40
0.5435274987
 40
0.5814446837
 40
0.6181936452
 40
0.6536669372
 40
0.6877629283
 40
0.7203865442
 40
0.7514501111
 40
0.7808743474
 40
0.8085895768
 40
0.8217881241
 40
0.8345385176
 40
0.8468355036
 40
0.8586748141
 40
0.8700533313
 40
0.8809690507
 40
0.8914214953
 40
0.9014115725
 40
0.9109421624
 40
0.9200180335
 40
0.9286464829
 40
0.9368375013
 40
0.9446043826
 40
0.9519642537
 40
0.9589386378
 40
0.9655543111
 40
0.9718437858
 40
0.9778461759
 40
0.9836073377
 40
0.9891800243
 40
0.9946230608
 40
1.0
 40
1.0
 40
1.0
 40
1.0
 10
12.6674181942
 20
8.8061593834
 30
0.0
 10
12.6674181942
 20
8.7988742999
 30
0.0
 10
12.6673045321
 20
8.7842185019
 30
0.0
 10
12.6668020912
 20
8.7621349814
 30
0.0
 10
12.665968127
 20
8.7398739626
 30
0.0
 10
12.6648054246
 20
8.7175092916
 30
0.0
 10
12.6633177894
 20
8.6951148315
 30
0.0
 10
12.6615101593
 20
8.672764728
 30
0.0
 10
12.6593885126
 20
8.6505329034
 30
0.0
 10
12.6569598862
 20
8.628492913
 30
0.0
 10
12.654232336
 20
8.6067176652
 30
0.0
 10
12.6512149168
 20
8.5852791892
 30
0.0
 10
12.6479176511
 20
8.5642483905
 30
0.0
 10
12.6443514986
 20
8.5436948142
 30
0.0
 10
12.6405283181
 20
8.5236864108
 30
0.0
 10
12.6364608301
 20
8.5042893079
 30
0.0
 10
12.6321625749
 20
8.4855675847
 30
0.0
 10
12.6276478687
 20
8.4675830548
 30
0.0
 10
12.6229317569
 20
8.4503950429
 30
0.0
 10
12.6180299609
 20
8.434060202
 30
0.0
 10
12.6129588297
 20
8.4186322072
 30
0.0
 10
12.6077352538
 20
8.4041618895
 30
0.0
 10
12.6031989084
 20
8.3927621208
 30
0.0
 10
12.5994967759
 20
8.384166291
 30
0.0
 10
12.5967382022
 20
8.3780931372
 30
0.0
 10
12.5939546249
 20
8.3722932211
 30
0.0
 10
12.5911482902
 20
8.3667713029
 30
0.0
 10
12.5883215586
 20
8.3615318906
 30
0.0
 10
12.5854766834
 20
8.3565792874
 30
0.0
 10
12.58261607
 20
8.3519174951
 30
0.0
 10
12.5797419507
 20
8.3475503364
 30
0.0
 10
12.5768567282
 20
8.3434813007
 30
0.0
 10
12.5739626195
 20
8.339713705
 30
0.0
 10
12.5710619506
 20
8.3362505419
 30
0.0
 10
12.5681569138
 20
8.3330946066
 30
0.0
 10
12.5652496826
 20
8.3302484445
 30
0.0
 10
12.5623423874
 20
8.3277143551
 30
0.0
 10
12.559437004
 20
8.3254945476
 30
0.0
 10
12.5565355726
 20
8.323590948
 30
0.0
 10
12.5536399522
 20
8.3220056161
 30
0.0
 10
12.5507522096
 20
8.3207403311
 30
0.0
 10
12.5478744923
 20
8.3197971289
 30
0.0
 10
12.5450092314
 20
8.3191777051
 30
0.0
 10
12.5421598683
 20
8.3188836486
 30
0.0
 10
12.5402681377
 20
8.3189052868
 30
0.0
 10
12.5393326833
 20
8.3189701681
 30
0.0
  0
SPLINE
  5
365
100
AcDbEntity
  8
0
100
AcDbSpline
 62
7
  6
CONTINUOUS
 70
0
 71
3
 72
71
 73
67
 74
0
 42
0.0000001
 43
0.0000001
 44
0.0000000001
 40
0.0
 40
0.0
 40
0.0
 40
0.0
 40
0.0155841868
 40
0.0311159674
 40
0.0465952419
 40
0.0620238831
 40
0.0774034499
 40
0.0927362823
 40
0.1080251235
 40
0.1232731729
 40
0.1384840549
 40
0.153661776
 40
0.1688106901
 40
0.1839354534
 40
0.1990409783
 40
0.2141323818
 40
0.2292149316
 40
0.2442939896
 40
0.2593749544
 40
0.2744632044
 40
0.2895640405
 40
0.3046826297
 40
0.3198239503
 40
0.3349927393
 40
0.3501934439
 40
0.3654301771
 40
0.3807066779
 40
0.3960262747
 40
0.4113918551
 40
0.4268058389
 40
0.4422701591
 40
0.457786248
 40
0.4733550285
 40
0.4889769091
 40
0.5046517848
 40
0.5203790431
 40
0.5361575761
 40
0.5519857959
 40
0.5678616537
 40
0.5837826614
 40
0.5997459183
 40
0.6157481416
 40
0.6317856992
 40
0.647854644
 40
0.6639507501
 40
0.6800695513
 40
0.696206382
 40
0.7123564195
 40
0.7285147266
 40
0.7446762933
 40
0.7608360806
 40
0.7769890651
 40
0.7931302832
 40
0.8092548745
 40
0.8253581235
 40
0.8414355011
 40
0.8574827059
 40
0.8734957052
 40
0.8894707697
 40
0.9054045134
 40
0.921293918
 40
0.9371363619
 40
0.952929726
 40
0.9686720559
 40
0.9843626909
 40
1.0
 40
1.0
 40
1.0
 40
1.0
 10
9.0211014428
 20
7.4814551789
 30
0.0
 10
9.0211014428
 20
7.4898954821
 30
0.0
 10
9.0215145126
 20
7.5067506979
 30
0.0
 10
9.0233790421
 20
7.5319273087
 30
0.0
 10
9.0264832897
 20
7.5568971353
 30
0.0
 10
9.0308195529
 20
7.5815989653
 30
0.0
 10
9.0363776416
 20
7.6059736792
 30
0.0
 10
9.0431441523
 20
7.6299623757
 30
0.0
 10
9.0511028549
 20
7.6535072571
 30
0.0
 10
9.0602345988
 20
7.6765515458
 30
0.0
 10
9.0705174154
 20
7.6990396706
 30
0.0
 10
9.0819265624
 20
7.7209173903
 30
0.0
 10
9.0944345821
 20
7.7421319224
 30
0.0
 10
9.1080113503
 20
7.7626320821
 30
0.0
 10
9.1226241324
 20
7.7823684225
 30
0.0
 10
9.1382377005
 20
7.8012933326
 30
0.0
 10
9.1548144106
 20
7.8193611558
 30
0.0
 10
9.1723142943
 20
7.8365282991
 30
0.0
 10
9.1906951536
 20
7.8527533386
 30
0.0
 10
9.2099126345
 20
7.8679971571
 30
0.0
 10
9.2299203696
 20
7.882223007
 30
0.0
 10
9.2506700899
 20
7.8953965977
 30
0.0
 10
9.2721117409
 20
7.9074861787
 30
0.0
 10
9.294193606
 20
7.9184626083
 30
0.0
 10
9.3168624131
 20
7.9282994624
 30
0.0
 10
9.3400634784
 20
7.9369730825
 30
0.0
 10
9.3637408482
 20
7.9444626103
 30
0.0
 10
9.3878374307
 20
7.9507500426
 30
0.0
 10
9.412295134
 20
7.9558202663
 30
0.0
 10
9.437055
 20
7.9596611143
 30
0.0
 10
9.4620573479
 20
7.9622634134
 30
0.0
 10
9.4872419273
 20
7.9636209622
 30
0.0
 10
9.51254806
 20
7.9637305518
 30
0.0
 10
9.537914784
 20
7.9625919703
 30
0.0
 10
9.5632809963
 20
7.9602080027
 30
0.0
 10
9.588585606
 20
7.956584468
 30
0.0
 10
9.61376768
 20
7.9517301583
 30
0.0
 10
9.638766587
 20
7.9456568168
 30
0.0
 10
9.6635221415
 20
7.9383791108
 30
0.0
 10
9.6879747425
 20
7.9299145896
 30
0.0
 10
9.7120655293
 20
7.9202836815
 30
0.0
 10
9.7357365209
 20
7.9095096249
 30
0.0
 10
9.7589307464
 20
7.8976183925
 30
0.0
 10
9.7815923819
 20
7.8846386351
 30
0.0
 10
9.8036668788
 20
7.8706016089
 30
0.0
 10
9.8251011045
 20
7.8555411186
 30
0.0
 10
9.845843483
 20
7.8394934497
 30
0.0
 10
9.8658440964
 20
7.8224972465
 30
0.0
 10
9.8850548066
 20
7.8045934269
 30
0.0
 10
9.9034293684
 20
7.7858250836
 30
0.0
 10
9.9209235382
 20
7.7662373838
 30
0.0
 10
9.9374952149
 20
7.7458774881
 30
0.0
 10
9.9531045097
 20
7.7247944062
 30
0.0
 10
9.9677138402
 20
7.7030388806
 30
0.0
 10
9.9812880207
 20
7.6806632681
 30
0.0
 10
9.993794339
 20
7.657721412
 30
0.0
 10
10.0052026719
 20
7.6342685336
 30
0.0
 10
10.0154855418
 20
7.6103610867
 30
0.0
 10
10.0246181673
 20
7.5860566142
 30
0.0
 10
10.0325785215
 20
7.5614136139
 30
0.0
 10
10.0393473789
 20
7.5364914098
 30
0.0
 10
10.0449084183
 20
7.5113499592
 30
0.0
 10
10.0492481326
 20
7.4860499372
 30
0.0
 10
10.0523562139
 20
7.4606518373
 30
0.0
 10
10.0542248411
 20
7.4352178744
 30
0.0
 10
10.0546421382
 20
7.4182479621
 30
0.0
 10
10.0546421382
 20
7.4097788882
 30
0.0
  0
SPLINE
  5
366
100
AcDbEntity
  8
0
100
AcDbSpline
 62
7
  6
CONTINUOUS
 70
0
 71
3
 72
24
 73
20
 74
0
 42
0.0000001
 43
0.0000001
 44
0.0000000001
 40
0.0
 40
0.0
 40
0.0
 40
0.0
 40
0.0637774298
 40
0.1273438979
 40
0.1907011028
 40
0.2538548461
 40
0.3168115792
 40
0.3795801785
 40
0.4421711488
 40
0.5045967878
 40
0.5668710022
 40
0.6290092041
 40
0.6910281625
 40
0.7220010202
 40
0.7529508971
 40
0.8147862935
 40
0.87655923
 40
0.9382901685
 40
1.0
 40
1.0
 40
1.0
 40
1.0
 10
10.2922600382
 20
7.3933000309
 30
0.0
 10
10.2922600382
 20
7.4068003135
 30
0.0
 10
10.2929061581
 20
7.4337608
 30
0.0
 10
10.2958227335
 20
7.4740376407
 30
0.0
 10
10.3006786231
 20
7.513995059
 30
0.0
 10
10.3074625586
 20
7.5535396105
 30
0.0
 10
10.3161591214
 20
7.5925805928
 30
0.0
 10
10.3267482845
 20
7.6310278657
 30
0.0
 10
10.3392057652
 20
7.668792835
 30
0.0
 10
10.3535028886
 20
7.705788366
 30
0.0
 10
10.3696068669
 20
7.7419292856
 30
0.0
 10
10.3874802906
 20
7.7771316847
 30
0.0
 10
10.403823254
 20
7.8056313661
 30
0.0
 10
10.4177372997
 20
7.8278764251
 30
0.0
 10
10.432193552
 20
7.8497264228
 30
0.0
 10
10.4512883819
 20
7.8763116989
 30
0.0
 10
10.4757898202
 20
7.9069742099
 30
0.0
 10
10.5018157958
 20
7.9363175401
 30
0.0
 10
10.5201460251
 20
7.954958243
 30
0.0
 10
10.529541368
 20
7.9640334569
 30
0.0
  0
SPLINE
  5
367
100
AcDbEntity
  8
0
100
AcDbSpline
 62
7
  6
CONTINUOUS
 70
0
 71
3
 72
50
 73
46
 74
0
 42
0.0000001
 43
0.0000001
 44
0.0000000001
 40
0.0
 40
0.0
 40
0.0
 40
0.0
 40
0.0417738954
 40
0.0840375015
 40
0.126658999
 40
0.1695072728
 40
0.2124490406
 40
0.2553511879
 40
0.2980805661
 40
0.3405047668
 40
0.3824925704
 40
0.4239144964
 40
0.4646433325
 40
0.504554679
 40
0.5435274987
 40
0.5814446837
 40
0.6181936452
 40
0.6536669372
 40
0.6877629283
 40
0.7203865442
 40
0.7514501111
 40
0.7808743474
 40
0.8085895768
 40
0.8217881241
 40
0.8345385176
 40
0.8468355036
 40
0.8586748141
 40
0.8700533313
 40
0.8809690507
 40
0.8914214953
 40
0.9014115725
 40
0.9109421624
 40
0.9200180335
 40
0.9286464829
 40
0.9368375013
 40
0.9446043826
 40
0.9519642537
 40
0.9589386378
 40
0.9655543111
 40
0.9718437858
 40
0.9778461759
 40
0.9836073377
 40
0.9891800243
 40
0.9946230608
 40
1.0
 40
1.0
 40
1.0
 40
1.0
 10
12.6674181942
 20
6.6328261455
 30
0.0
 10
12.6674181942
 20
6.625541062
 30
0.0
 10
12.6673045321
 20
6.6108852639
 30
0.0
 10
12.6668020912
 20
6.5888017435
 30
0.0
 10
12.665968127
 20
6.5665407247
 30
0.0
 10
12.6648054246
 20
6.5441760537
 30
0.0
 10
12.6633177894
 20
6.5217815935
 30
0.0
 10
12.6615101593
 20
6.4994314901
 30
0.0
 10
12.6593885126
 20
6.4771996655
 30
0.0
 10
12.6569598862
 20
6.4551596751
 30
0.0
 10
12.654232336
 20
6.4333844273
 30
0.0
 10
12.6512149168
 20
6.4119459512
 30
0.0
 10
12.6479176511
 20
6.3909151526
 30
0.0
 10
12.6443514986
 20
6.3703615762
 30
0.0
 10
12.6405283181
 20
6.3503531729
 30
0.0
 10
12.6364608301
 20
6.33095607
 30
0.0
 10
12.6321625749
 20
6.3122343468
 30
0.0
 10
12.6276478687
 20
6.2942498169
 30
0.0
 10
12.6229317569
 20
6.2770618049
 30
0.0
 10
12.6180299609
 20
6.2607269641
 30
0.0
 10
12.6129588297
 20
6.2452989693
 30
0.0
 10
12.6077352538
 20
6.2308286515
 30
0.0
 10
12.6031989084
 20
6.2194288829
 30
0.0
 10
12.5994967759
 20
6.210833053
 30
0.0
 10
12.5967382022
 20
6.2047598993
 30
0.0
 10
12.5939546249
 20
6.1989599832
 30
0.0
 10
12.5911482902
 20
6.193438065
 30
0.0
 10
12.5883215586
 20
6.1881986527
 30
0.0
 10
12.5854766834
 20
6.1832460495
 30
0.0
 10
12.58261607
 20
6.1785842571
 30
0.0
 10
12.5797419507
 20
6.1742170985
 30
0.0
 10
12.5768567282
 20
6.1701480628
 30
0.0
 10
12.5739626195
 20
6.1663804671
 30
0.0
 10
12.5710619506
 20
6.162917304
 30
0.0
 10
12.5681569138
 20
6.1597613687
 30
0.0
 10
12.5652496826
 20
6.1569152065
 30
0.0
 10
12.5623423874
 20
6.1543811172
 30
0.0
 10
12.559437004
 20
6.1521613097
 30
0.0
 10
12.5565355726
 20
6.1502577101
 30
0.0
 10
12.5536399522
 20
6.1486723782
 30
0.0
 10
12.5507522096
 20
6.1474070932
 30
0.0
 10
12.5478744923
 20
6.146463891
 30
0.0
 10
12.5450092314
 20
6.1458444671
 30
0.0
 10
12.5421598683
 20
6.1455504107
 30
0.0
 10
12.5402681377
 20
6.1455720489
 30
0.0
 10
12.5393326833
 20
6.1456369302
 30
0.0
  0
SPLINE
  5
368
100
AcDbEntity
  8
0
100
AcDbSpline
 62
7
  6
CONTINUOUS
 70
0
 71
3
 72
23
 73
19
 74
0
 42
0.0000001
 43
0.0000001
 44
0.0000000001
 40
0.0
 40
0.0
 40
0.0
 40
0.0
 40
0.0431743423
 40
0.0869829002
 40
0.1317010822
 40
0.1776464686
 40
0.2251853478
 40
0.2747290124
 40
0.3267334422
 40
0.3816993926
 40
0.440171313
 40
0.5027322452
 40
0.5700027333
 40
0.6426315759
 40
0.7212870212
 40
0.8066416218
 40
0.8993473457
 40
1.0
 40
1.0
 40
1.0
 40
1.0
 10
9.5638596926
 20
9.3042022772
 30
0.0
 10
9.562767777
 20
9.3046224133
 30
0.0
 10
9.5606000733
 20
9.3055556822
 30
0.0
 10
9.5574458714
 20
9.3072339811
 30
0.0
 10
9.5543828978
 20
9.309216546
 30
0.0
 10
9.5514267785
 20
9.3115239559
 30
0.0
 10
9.5485948332
 20
9.3141778846
 30
0.0
 10
9.5459065602
 20
9.3172011565
 30
0.0
 10
9.543385037
 20
9.3206187273
 30
0.0
 10
9.5410558778
 20
9.3244564076
 30
0.0
 10
9.5389486387
 20
9.3287416759
 30
0.0
 10
9.5370971413
 20
9.3335031855
 30
0.0
 10
9.5355390435
 20
9.3387699921
 30
0.0
 10
9.5343177298
 20
9.3445713888
 30
0.0
 10
9.5334811702
 20
9.3509351762
 30
0.0
 10
9.5330824444
 20
9.3578863505
 30
0.0
 10
9.5331789612
 20
9.3654440504
 30
0.0
 10
9.5335959415
 20
9.3706715272
 30
0.0
 10
9.5338957688
 20
9.3733825215
 30
0.0
  0
SPLINE
  5
369
100
AcDbEntity
  8
0
100
AcDbSpline
 62
7
  6
CONTINUOUS
 70
0
 71
3
 72
23
 73
19
 74
0
 42
0.0000001
 43
0.0000001
 44
0.0000000001
 40
0.0
 40
0.0
 40
0.0
 40
0.0
 40
0.063776763
 40
0.1273450105
 40
0.1907019658
 40
0.2538561083
 40
0.3168132129
 40
0.3795820829
 40
0.4421733857
 40
0.5045993396
 40
0.5668738671
 40
0.6290123792
 40
0.6910316488
 40
0.752949646
 40
0.8147853557
 40
0.8765586025
 40
0.9382898529
 40
1.0
 40
1.0
 40
1.0
 40
1.0
 10
9.3630119803
 20
9.1101982733
 30
0.0
 10
9.3630119803
 20
9.1171874623
 30
0.0
 10
9.363346531
 20
9.1311453573
 30
0.0
 10
9.3648564177
 20
9.1519972718
 30
0.0
 10
9.3673704407
 20
9.1726839229
 30
0.0
 10
9.3708825437
 20
9.1931566843
 30
0.0
 10
9.3753849055
 20
9.2133687881
 30
0.0
 10
9.3808670992
 20
9.23327351
 30
0.0
 10
9.3873165126
 20
9.2528249924
 30
0.0
 10
9.3947183518
 20
9.2719781458
 30
0.0
 10
9.4030556209
 20
9.2906887773
 30
0.0
 10
9.412309091
 20
9.308913748
 30
0.0
 10
9.4224574419
 20
9.3266110224
 30
0.0
 10
9.4334773222
 20
9.3437397755
 30
0.0
 10
9.4453433357
 20
9.3602604288
 30
0.0
 10
9.4580282271
 20
9.3761350229
 30
0.0
 10
9.4715022319
 20
9.3913264556
 30
0.0
 10
9.480992081
 20
9.4009770267
 30
0.0
 10
9.4858561904
 20
9.4056754002
 30
0.0
  0
SPLINE
  5
36A
100
AcDbEntity
  8
0
100
AcDbSpline
 62
7
  6
CONTINUOUS
 70
0
 71
3
 72
39
 73
35
 74
0
 42
0.0000001
 43
0.0000001
 44
0.0000000001
 40
0.0
 40
0.0
 40
0.0
 40
0.0
 40
0.0310753465
 40
0.0623079051
 40
0.0936931343
 40
0.1252222873
 40
0.1568840442
 40
0.1886642041
 40
0.2205461646
 40
0.2525112494
 40
0.2845391086
 40
0.3166081364
 40
0.3486959073
 40
0.3807796231
 40
0.4128365661
 40
0.4448445503
 40
0.4767823667
 40
0.5086302139
 40
0.540370108
 40
0.5719862655
 40
0.6034654513
 40
0.6347972861
 40
0.6659745048
 40
0.6969931564
 40
0.7278527389
 40
0.7585562636
 40
0.7891102411
 40
0.8195245859
 40
0.8498124376
 40
0.8799898959
 40
0.9100756748
 40
0.9400906811
 40
0.9700575287
 40
1.0
 40
1.0
 40
1.0
 40
1.0
 10
9.3630119803
 20
9.1101982733
 30
0.0
 10
9.3630119803
 20
9.0993544713
 30
0.0
 10
9.3638209012
 20
9.0776036631
 30
0.0
 10
9.3674325742
 20
9.0450815707
 30
0.0
 10
9.373425215
 20
9.012750449
 30
0.0
 10
9.3817657227
 20
8.9807901243
 30
0.0
 10
9.3924078958
 20
8.9493755003
 30
0.0
 10
9.4052930797
 20
8.9186791576
 30
0.0
 10
9.4203503122
 20
8.8888695155
 30
0.0
 10
9.4374967595
 20
8.8601101585
 30
0.0
 10
9.4566381597
 20
8.8325588796
 30
0.0
 10
9.4776693556
 20
8.8063668529
 30
0.0
 10
9.500474863
 20
8.7816778077
 30
0.0
 10
9.5249294986
 20
8.758627251
 30
0.0
 10
9.5508990607
 20
8.7373417336
 30
0.0
 10
9.5782410512
 20
8.7179381558
 30
0.0
 10
9.6068054407
 20
8.7005231153
 30
0.0
 10
9.6364355002
 20
8.6851923478
 30
0.0
 10
9.666968646
 20
8.6720302016
 30
0.0
 10
9.698237319
 20
8.6611091768
 30
0.0
 10
9.7300698906
 20
8.6524895248
 30
0.0
 10
9.7622915898
 20
8.6462189165
 30
0.0
 10
9.7947254452
 20
8.6423321431
 30
0.0
 10
9.8271932515
 20
8.6408509365
 30
0.0
 10
9.8595165365
 20
8.6417838395
 30
0.0
 10
9.8915175314
 20
8.6451261405
 30
0.0
 10
9.923020141
 20
8.6508598754
 30
0.0
 10
9.9538509143
 20
8.6589539115
 30
0.0
 10
9.9838399931
 20
8.669364058
 30
0.0
 10
10.0128221237
 20
8.6820333442
 30
0.0
 10
10.0406373596
 20
8.6968921231
 30
0.0
 10
10.0671327772
 20
8.7138592165
 30
0.0
 10
10.0921603279
 20
8.7328394498
 30
0.0
 10
10.1077815047
 20
8.7467717029
 30
0.0
 10
10.1152966207
 20
8.7540307545
 30
0.0
  0
SPLINE
  5
36B
100
AcDbEntity
  8
0
100
AcDbSpline
 62
7
  6
CONTINUOUS
 70
0
 71
3
 72
11
 73
7
 74
0
 42
0.0000001
 43
0.0000001
 44
0.0000000001
 40
0.0
 40
0.0
 40
0.0
 40
0.0
 40
0.2521704913
 40
0.5018414564
 40
0.7504508014
 40
1.0
 40
1.0
 40
1.0
 40
1.0
 10
9.5851754496
 20
9.3009730235
 30
0.0
 10
9.5833528541
 20
9.3009035194
 30
0.0
 10
9.5797179429
 20
9.3009115328
 30
0.0
 10
9.57430538
 20
9.3014170793
 30
0.0
 10
9.5689888198
 20
9.3024638903
 30
0.0
 10
9.5655442577
 20
9.3035541076
 30
0.0
 10
9.5638596926
 20
9.3042022772
 30
0.0
  0
SPLINE
  5
36C
100
AcDbEntity
  8
0
100
AcDbSpline
 62
7
  6
CONTINUOUS
 70
0
 71
3
 72
41
 73
37
 74
0
 42
0.0000001
 43
0.0000001
 44
0.0000000001
 40
0.0
 40
0.0
 40
0.0
 40
0.0
 40
0.0309390257
 40
0.0620045542
 40
0.0931920411
 40
0.1244953985
 40
0.1559067833
 40
0.1874168909
 40
0.2190150315
 40
0.2506893124
 40
0.2824268017
 40
0.3142137118
 40
0.3460355893
 40
0.3778775117
 40
0.409724288
 40
0.4415606623
 40
0.4733715179
 40
0.5051420799
 40
0.5368581149
 40
0.5685061252
 40
0.6000735365
 40
0.6315488754
 40
0.6629219368
 40
0.6941839371
 40
0.7253276512
 40
0.7563475327
 40
0.7872398121
 40
0.8180025736
 40
0.8486358061
 40
0.8639061946
 40
0.8791450798
 40
0.9095269319
 40
0.9397907471
 40
0.9548825705
 40
0.9699478634
 40
1.0
 40
1.0
 40
1.0
 40
1.0
 10
9.5851754496
 20
9.3009730235
 30
0.0
 10
9.5856466827
 20
9.2920584067
 30
0.0
 10
9.5871323883
 20
9.2742167456
 30
0.0
 10
9.5909667408
 20
9.2475868329
 30
0.0
 10
9.596397445
 20
9.2211279168
 30
0.0
 10
9.6034041867
 20
9.194939198
 30
0.0
 10
9.6119609672
 20
9.1691171925
 30
0.0
 10
9.6220360141
 20
9.1437575066
 30
0.0
 10
9.6335919767
 20
9.1189539014
 30
0.0
 10
9.6465860331
 20
9.094798108
 30
0.0
 10
9.6609700613
 20
9.0713794494
 30
0.0
 10
9.6766908115
 20
9.0487845236
 30
0.0
 10
9.6936901049
 20
9.0270968831
 30
0.0
 10
9.7119050465
 20
9.0063967297
 30
0.0
 10
9.731268257
 20
8.986760619
 30
0.0
 10
9.7517081202
 20
8.96826118
 30
0.0
 10
9.773149046
 20
8.9509668483
 30
0.0
 10
9.7955117481
 20
8.9349416139
 30
0.0
 10
9.8187135351
 20
8.9202447865
 30
0.0
 10
9.8426686134
 20
8.9069307768
 30
0.0
 10
9.8672884022
 20
8.8950488961
 30
0.0
 10
9.8924818577
 20
8.8846431743
 30
0.0
 10
9.9181558081
 20
8.8757521968
 30
0.0
 10
9.9442152898
 20
8.8684089609
 30
0.0
 10
9.9705639148
 20
8.8626407546
 30
0.0
 10
9.9971041497
 20
8.8584690458
 30
0.0
 10
10.0237379513
 20
8.8559094302
 30
0.0
 10
10.0503660919
 20
8.8549714595
 30
0.0
 10
10.0724948993
 20
8.8555450316
 30
0.0
 10
10.0900932746
 20
8.8568175751
 30
0.0
 10
10.1075717285
 20
8.8586265307
 30
0.0
 10
10.1292373229
 20
8.8618940049
 30
0.0
 10
10.1506145164
 20
8.8665028658
 30
0.0
 10
10.1674660742
 20
8.8709808185
 30
0.0
 10
10.1841082809
 20
8.8759723844
 30
0.0
 10
10.196396264
 20
8.8803057512
 30
0.0
 10
10.2044772476
 20
8.8834500731
 30
0.0
  0
SPLINE
  5
36D
100
AcDbEntity
  8
0
100
AcDbSpline
 62
7
  6
CONTINUOUS
 70
0
 71
3
 72
39
 73
35
 74
0
 42
0.0000001
 43
0.0000001
 44
0.0000000001
 40
0.0
 40
0.0
 40
0.0
 40
0.0
 40
0.0319799254
 40
0.0639783703
 40
0.0959025115
 40
0.1277420957
 40
0.1595095344
 40
0.1912199563
 40
0.2228858174
 40
0.2545161051
 40
0.2861167077
 40
0.3176908232
 40
0.3492395418
 40
0.3807623751
 40
0.4122574612
 40
0.4437219348
 40
0.4751524643
 40
0.5065453801
 40
0.5378965703
 40
0.5692014167
 40
0.6004549746
 40
0.6316521462
 40
0.662787754
 40
0.6938566424
 40
0.7248537864
 40
0.7557743792
 40
0.7866140734
 40
0.8173690053
 40
0.8480359444
 40
0.8786123813
 40
0.9090969405
 40
0.9394888572
 40
0.9697895993
 40
1.0
 40
1.0
 40
1.0
 40
1.0
 10
10.0110915144
 20
9.3537781657
 30
0.0
 10
10.0083235932
 20
9.3491118844
 30
0.0
 10
10.0025710286
 20
9.339902198
 30
0.0
 10
9.9933068485
 20
9.3265199528
 30
0.0
 10
9.9834118726
 20
9.3136261063
 30
0.0
 10
9.9729013003
 20
9.3012799498
 30
0.0
 10
9.9617855612
 20
9.2895250045
 30
0.0
 10
9.9500778475
 20
9.2784017709
 30
0.0
 10
9.9377962707
 20
9.2679509459
 30
0.0
 10
9.9249644285
 20
9.2582138741
 30
0.0
 10
9.9116114528
 20
9.2492320246
 30
0.0
 10
9.8977718714
 20
9.2410463059
 30
0.0
 10
9.883485427
 20
9.2336962998
 30
0.0
 10
9.8687968467
 20
9.2272195134
 30
0.0
 10
9.8537555413
 20
9.2216506877
 30
0.0
 10
9.8384151977
 20
9.2170212048
 30
0.0
 10
9.8228333426
 20
9.2133584345
 30
0.0
 10
9.8070708567
 20
9.2106852932
 30
0.0
 10
9.7911915428
 20
9.2090199003
 30
0.0
 10
9.7752616538
 20
9.2083752317
 30
0.0
 10
9.7593493333
 20
9.2087588841
 30
0.0
 10
9.7435240168
 20
9.210172892
 30
0.0
 10
9.727855839
 20
9.2126136518
 30
0.0
 10
9.7124150622
 20
9.2160719189
 30
0.0
 10
9.6972715231
 20
9.2205328771
 30
0.0
 10
9.6824940831
 20
9.2259762665
 30
0.0
 10
9.6681501395
 20
9.2323765925
 30
0.0
 10
9.6543051581
 20
9.2397033566
 30
0.0
 10
9.6410222989
 20
9.2479213378
 30
0.0
 10
9.6283619561
 20
9.2569908895
 30
0.0
 10
9.6163816407
 20
9.2668682408
 30
0.0
 10
9.6051351298
 20
9.2775060854
 30
0.0
 10
9.5946737116
 20
9.2888527623
 30
0.0
 10
9.5882431542
 20
9.296867247
 30
0.0
 10
9.5851754496
 20
9.3009730235
 30
0.0
  0
SPLINE
  5
36E
100
AcDbEntity
  8
0
100
AcDbSpline
 62
7
  6
CONTINUOUS
 70
0
 71
3
 72
23
 73
19
 74
0
 42
0.0000001
 43
0.0000001
 44
0.0000000001
 40
0.0
 40
0.0
 40
0.0
 40
0.0
 40
0.063776763
 40
0.1273450105
 40
0.1907019658
 40
0.2538561083
 40
0.3168132129
 40
0.3795820829
 40
0.4421733857
 40
0.5045993396
 40
0.5668738671
 40
0.6290123792
 40
0.6910316488
 40
0.752949646
 40
0.8147853557
 40
0.8765586025
 40
0.9382898529
 40
1.0
 40
1.0
 40
1.0
 40
1.0
 10
9.1215305094
 20
7.4964622138
 30
0.0
 10
9.1215305094
 20
7.5034514028
 30
0.0
 10
9.1218650601
 20
7.5174092978
 30
0.0
 10
9.1233749468
 20
7.5382612123
 30
0.0
 10
9.1258889698
 20
7.5589478634
 30
0.0
 10
9.1294010728
 20
7.5794206248
 30
0.0
 10
9.1339034346
 20
7.5996327286
 30
0.0
 10
9.1393856283
 20
7.6195374505
 30
0.0
 10
9.1458350417
 20
7.6390889329
 30
0.0
 10
9.1532368809
 20
7.6582420863
 30
0.0
 10
9.16157415
 20
7.6769527179
 30
0.0
 10
9.1708276202
 20
7.6951776885
 30
0.0
 10
9.180975971
 20
7.7128749629
 30
0.0
 10
9.1919958513
 20
7.730003716
 30
0.0
 10
9.2038618648
 20
7.7465243693
 30
0.0
 10
9.2165467563
 20
7.7623989634
 30
0.0
 10
9.230020761
 20
7.7775903961
 30
0.0
 10
9.2395106101
 20
7.7872409673
 30
0.0
 10
9.2443747196
 20
7.7919393407
 30
0.0
  0
SPLINE
  5
36F
100
AcDbEntity
  8
0
100
AcDbSpline
 62
7
  6
CONTINUOUS
 70
0
 71
3
 72
39
 73
35
 74
0
 42
0.0000001
 43
0.0000001
 44
0.0000000001
 40
0.0
 40
0.0
 40
0.0
 40
0.0
 40
0.0310753465
 40
0.0623079051
 40
0.0936931343
 40
0.1252222873
 40
0.1568840442
 40
0.1886642041
 40
0.2205461646
 40
0.2525112494
 40
0.2845391086
 40
0.3166081364
 40
0.3486959073
 40
0.3807796231
 40
0.4128365661
 40
0.4448445503
 40
0.4767823667
 40
0.5086302139
 40
0.540370108
 40
0.5719862655
 40
0.6034654513
 40
0.6347972861
 40
0.6659745048
 40
0.6969931564
 40
0.7278527389
 40
0.7585562636
 40
0.7891102411
 40
0.8195245859
 40
0.8498124376
 40
0.8799898959
 40
0.9100756748
 40
0.9400906811
 40
0.9700575287
 40
1.0
 40
1.0
 40
1.0
 40
1.0
 10
9.1215305094
 20
7.4964622138
 30
0.0
 10
9.1215305094
 20
7.4856184118
 30
0.0
 10
9.1223394303
 20
7.4638676036
 30
0.0
 10
9.1259511034
 20
7.4313455112
 30
0.0
 10
9.1319437441
 20
7.3990143895
 30
0.0
 10
9.1402842518
 20
7.3670540648
 30
0.0
 10
9.1509264249
 20
7.3356394408
 30
0.0
 10
9.1638116088
 20
7.3049430981
 30
0.0
 10
9.1788688413
 20
7.275133456
 30
0.0
 10
9.1960152886
 20
7.246374099
 30
0.0
 10
9.2151566888
 20
7.2188228201
 30
0.0
 10
9.2361878847
 20
7.1926307934
 30
0.0
 10
9.2589933921
 20
7.1679417482
 30
0.0
 10
9.2834480277
 20
7.1448911915
 30
0.0
 10
9.3094175898
 20
7.1236056741
 30
0.0
 10
9.3367595803
 20
7.1042020963
 30
0.0
 10
9.3653239698
 20
7.0867870558
 30
0.0
 10
9.3949540293
 20
7.0714562883
 30
0.0
 10
9.4254871751
 20
7.0582941421
 30
0.0
 10
9.4567558481
 20
7.0473731173
 30
0.0
 10
9.4885884197
 20
7.0387534653
 30
0.0
 10
9.520810119
 20
7.032482857
 30
0.0
 10
9.5532439743
 20
7.0285960836
 30
0.0
 10
9.5857117806
 20
7.027114877
 30
0.0
 10
9.6180350657
 20
7.02804778
 30
0.0
 10
9.6500360606
 20
7.031390081
 30
0.0
 10
9.6815386702
 20
7.0371238159
 30
0.0
 10
9.7123694434
 20
7.045217852
 30
0.0
 10
9.7423585222
 20
7.0556279986
 30
0.0
 10
9.7713406528
 20
7.0682972847
 30
0.0
 10
9.7991558887
 20
7.0831560636
 30
0.0
 10
9.8256513063
 20
7.100123157
 30
0.0
 10
9.850678857
 20
7.1191033903
 30
0.0
 10
9.8663000338
 20
7.1330356434
 30
0.0
 10
9.8738151498
 20
7.140294695
 30
0.0
  0
SPLINE
  5
370
100
AcDbEntity
  8
0
100
AcDbSpline
 62
7
  6
CONTINUOUS
 70
0
 71
3
 72
37
 73
33
 74
0
 42
0.0000001
 43
0.0000001
 44
0.0000000001
 40
0.0
 40
0.0
 40
0.0
 40
0.0
 40
0.0063161056
 40
0.0126711335
 40
0.0191032106
 40
0.0256489991
 40
0.0392093745
 40
0.0536077711
 40
0.0690451722
 40
0.0856788319
 40
0.1036274206
 40
0.1229778506
 40
0.1437911075
 40
0.1661074541
 40
0.1899507493
 40
0.2153311921
 40
0.2422480356
 40
0.270691432
 40
0.3006435247
 40
0.3320799515
 40
0.3649704769
 40
0.399279593
 40
0.4349674002
 40
0.4719897169
 40
0.5102986224
 40
0.5498429193
 40
0.590568095
 40
0.6324168879
 40
0.7192412156
 40
0.8098111096
 40
0.903585601
 40
1.0
 40
1.0
 40
1.0
 40
1.0
 10
12.5933661977
 20
9.0980987483
 30
0.0
 10
12.5940262137
 20
9.0980529709
 30
0.0
 10
12.5953471967
 20
9.0979071074
 30
0.0
 10
12.5973138431
 20
9.0975268996
 30
0.0
 10
12.5992674039
 20
9.0969853006
 30
0.0
 10
12.6018832718
 20
9.0960378055
 30
0.0
 10
12.6051336433
 20
9.0944269338
 30
0.0
 10
12.6089112417
 20
9.0918781987
 30
0.0
 10
12.6126098101
 20
9.0886989353
 30
0.0
 10
12.6162252608
 20
9.0848963958
 30
0.0
 10
12.6197543819
 20
9.0804773105
 30
0.0
 10
12.6231930279
 20
9.0754486557
 30
0.0
 10
12.6265367734
 20
9.0698181667
 30
0.0
 10
12.6297808916
 20
9.0635945173
 30
0.0
 10
12.6329204305
 20
9.0567873731
 30
0.0
 10
12.6359505159
 20
9.0494074956
 30
0.0
 10
12.6388662823
 20
9.0414666569
 30
0.0
 10
12.6416629413
 20
9.032977629
 30
0.0
 10
12.6443359455
 20
9.0239541768
 30
0.0
 10
12.6468808461
 20
9.0144109818
 30
0.0
 10
12.6492934114
 20
9.0043636313
 30
0.0
 10
12.651569667
 20
8.9938285831
 30
0.0
 10
12.6537057839
 20
8.9828231168
 30
0.0
 10
12.6556982206
 20
8.9713653157
 30
0.0
 10
12.657543675
 20
8.9594740226
 30
0.0
 10
12.6592390253
 20
8.9471688124
 30
0.0
 10
12.6607815154
 20
8.9344699314
 30
0.0
 10
12.6626537532
 20
8.9168242206
 30
0.0
 10
12.6645786898
 20
8.8939364847
 30
0.0
 10
12.6662185491
 20
8.8655764869
 30
0.0
 10
12.6672042582
 20
8.8361813756
 30
0.0
 10
12.6674181942
 20
8.8162586318
 30
0.0
 10
12.6674181942
 20
8.8061593834
 30
0.0
  0
SPLINE
  5
371
100
AcDbEntity
  8
0
100
AcDbSpline
 62
7
  6
CONTINUOUS
 70
0
 71
3
 72
14
 73
10
 74
0
 42
0.0000001
 43
0.0000001
 44
0.0000000001
 40
0.0
 40
0.0
 40
0.0
 40
0.0
 40
0.1418492473
 40
0.2785544219
 40
0.4101866558
 40
0.5368901553
 40
0.6588866556
 40
0.7764762675
 40
1.0
 40
1.0
 40
1.0
 40
1.0
 10
11.154285872
 20
7.6969510853
 30
0.0
 10
11.1500185314
 20
7.6985819341
 30
0.0
 10
11.1416102861
 20
7.7017113885
 30
0.0
 10
11.1291273145
 20
7.7060385101
 30
0.0
 10
11.116992447
 20
7.7098676259
 30
0.0
 10
11.1051905459
 20
7.7131557336
 30
0.0
 10
11.0937033854
 20
7.7158606994
 30
0.0
 10
11.0790377415
 20
7.7185865687
 30
0.0
 10
11.0680718382
 20
7.7197158133
 30
0.0
 10
11.0608762619
 20
7.7199291669
 30
0.0
  0
SPLINE
  5
372
100
AcDbEntity
  8
0
100
AcDbSpline
 62
7
  6
CONTINUOUS
 70
0
 71
3
 72
58
 73
54
 74
0
 42
0.0000001
 43
0.0000001
 44
0.0000000001
 40
0.0
 40
0.0
 40
0.0
 40
0.0
 40
0.0094088792
 40
0.0193696315
 40
0.0299058192
 40
0.0410360303
 40
0.052772772
 40
0.0651227069
 40
0.0780879058
 40
0.0916665102
 40
0.1058527843
 40
0.1206378556
 40
0.1360095278
 40
0.151953037
 40
0.1684507027
 40
0.1854824881
 40
0.2030258965
 40
0.2210560771
 40
0.2584667577
 40
0.2974745121
 40
0.337809078
 40
0.3791744886
 40
0.4212542427
 40
0.4637166008
 40
0.5062212898
 40
0.5484297156
 40
0.5900109793
 40
0.6306480867
 40
0.6700440096
 40
0.7079267491
 40
0.7440535136
 40
0.761391694
 40
0.7782149099
 40
0.7945025203
 40
0.8102363509
 40
0.8254008225
 40
0.8399831171
 40
0.853973369
 40
0.8673649181
 40
0.880154613
 40
0.8923431864
 40
0.9039357183
 40
0.9149422275
 40
0.925378319
 40
0.9352659407
 40
0.9446342912
 40
0.9535207593
 40
0.9619719089
 40
0.9700441068
 40
0.9778037045
 40
0.9853263936
 40
0.9926956835
 40
1.0
 40
1.0
 40
1.0
 40
1.0
 10
11.154285872
 20
7.6969510853
 30
0.0
 10
11.1556525801
 20
7.6964287707
 30
0.0
 10
11.1584292003
 20
7.6952550731
 30
0.0
 10
11.1625994289
 20
7.6931919263
 30
0.0
 10
11.1668896859
 20
7.6907833269
 30
0.0
 10
11.1712998582
 20
7.6880360947
 30
0.0
 10
11.1758302539
 20
7.6849571706
 30
0.0
 10
11.1804809709
 20
7.6815542856
 30
0.0
 10
11.1852519457
 20
7.6778357791
 30
0.0
 10
11.1901429376
 20
7.6738106342
 30
0.0
 10
11.1951535501
 20
7.6694884948
 30
0.0
 10
11.2002830044
 20
7.6648795663
 30
0.0
 10
11.2055302959
 20
7.6599947336
 30
0.0
 10
11.2108939316
 20
7.6548454205
 30
0.0
 10
11.2163720525
 20
7.6494436705
 30
0.0
 10
11.2219622301
 20
7.6438020485
 30
0.0
 10
11.2276615472
 20
7.6379337073
 30
0.0
 10
11.2354978364
 20
7.6297238281
 30
0.0
 10
11.2455189999
 20
7.6189860202
 30
0.0
 10
11.2577632749
 20
7.6055804928
 30
0.0
 10
11.2703149724
 20
7.5916237372
 30
0.0
 10
11.2831074821
 20
7.5772415606
 30
0.0
 10
11.2960618767
 20
7.5625607872
 30
0.0
 10
11.309087723
 20
7.547706931
 30
0.0
 10
11.3220847315
 20
7.5328012766
 30
0.0
 10
11.3349448175
 20
7.5179581307
 30
0.0
 10
11.3475546065
 20
7.5032825537
 30
0.0
 10
11.3597976253
 20
7.4888687824
 30
0.0
 10
11.3715568024
 20
7.4747992187
 30
0.0
 10
11.3827165371
 20
7.4611439299
 30
0.0
 10
11.3915404816
 20
7.4500110695
 30
0.0
 10
11.3981981942
 20
7.4413424215
 30
0.0
 10
11.402904063
 20
7.4350653169
 30
0.0
 10
11.4073788906
 20
7.4289275886
 30
0.0
 10
11.4116107827
 20
7.4229329324
 30
0.0
 10
11.4155883872
 20
7.417084582
 30
0.0
 10
11.4193008806
 20
7.4113853276
 30
0.0
 10
11.4227379983
 20
7.4058375773
 30
0.0
 10
11.4258900544
 20
7.4004434096
 30
0.0
 10
11.4287479596
 20
7.3952046246
 30
0.0
 10
11.4313032337
 20
7.3901227933
 30
0.0
 10
11.4335480148
 20
7.3851992992
 30
0.0
 10
11.4354750614
 20
7.3804353877
 30
0.0
 10
11.4370778013
 20
7.3758322309
 30
0.0
 10
11.4383501057
 20
7.371390925
 30
0.0
 10
11.439286691
 20
7.3671126805
 30
0.0
 10
11.4398824975
 20
7.3629987427
 30
0.0
 10
11.4401333245
 20
7.3590506556
 30
0.0
 10
11.4400352709
 20
7.3552703072
 30
0.0
 10
11.4395852636
 20
7.3516602616
 30
0.0
 10
11.4387810182
 20
7.3482236211
 30
0.0
 10
11.4376217316
 20
7.3449649692
 30
0.0
 10
11.4366115449
 20
7.3429122298
 30
0.0
 10
11.4360518105
 20
7.3419238744
 30
0.0
  0
SPLINE
  5
373
100
AcDbEntity
  8
0
100
AcDbSpline
 62
7
  6
CONTINUOUS
 70
0
 71
3
 72
37
 73
33
 74
0
 42
0.0000001
 43
0.0000001
 44
0.0000000001
 40
0.0
 40
0.0
 40
0.0
 40
0.0
 40
0.0063161056
 40
0.0126711335
 40
0.0191032106
 40
0.0256489991
 40
0.0392093745
 40
0.0536077711
 40
0.0690451722
 40
0.0856788319
 40
0.1036274206
 40
0.1229778506
 40
0.1437911075
 40
0.1661074541
 40
0.1899507493
 40
0.2153311921
 40
0.2422480356
 40
0.270691432
 40
0.3006435247
 40
0.3320799515
 40
0.3649704769
 40
0.399279593
 40
0.4349674002
 40
0.4719897169
 40
0.5102986224
 40
0.5498429193
 40
0.590568095
 40
0.6324168879
 40
0.7192412156
 40
0.8098111096
 40
0.903585601
 40
1.0
 40
1.0
 40
1.0
 40
1.0
 10
12.5933661977
 20
6.9247655104
 30
0.0
 10
12.5940262137
 20
6.9247197329
 30
0.0
 10
12.5953471967
 20
6.9245738695
 30
0.0
 10
12.5973138431
 20
6.9241936616
 30
0.0
 10
12.5992674039
 20
6.9236520627
 30
0.0
 10
12.6018832718
 20
6.9227045676
 30
0.0
 10
12.6051336433
 20
6.9210936959
 30
0.0
 10
12.6089112417
 20
6.9185449608
 30
0.0
 10
12.6126098101
 20
6.9153656973
 30
0.0
 10
12.6162252608
 20
6.9115631579
 30
0.0
 10
12.6197543819
 20
6.9071440725
 30
0.0
 10
12.6231930279
 20
6.9021154178
 30
0.0
 10
12.6265367734
 20
6.8964849287
 30
0.0
 10
12.6297808916
 20
6.8902612794
 30
0.0
 10
12.6329204305
 20
6.8834541351
 30
0.0
 10
12.6359505159
 20
6.8760742577
 30
0.0
 10
12.6388662823
 20
6.868133419
 30
0.0
 10
12.6416629413
 20
6.859644391
 30
0.0
 10
12.6443359455
 20
6.8506209389
 30
0.0
 10
12.6468808461
 20
6.8410777439
 30
0.0
 10
12.6492934114
 20
6.8310303934
 30
0.0
 10
12.651569667
 20
6.8204953452
 30
0.0
 10
12.6537057839
 20
6.8094898788
 30
0.0
 10
12.6556982206
 20
6.7980320777
 30
0.0
 10
12.657543675
 20
6.7861407847
 30
0.0
 10
12.6592390253
 20
6.7738355745
 30
0.0
 10
12.6607815154
 20
6.7611366935
 30
0.0
 10
12.6626537532
 20
6.7434909826
 30
0.0
 10
12.6645786898
 20
6.7206032468
 30
0.0
 10
12.6662185491
 20
6.692243249
 30
0.0
 10
12.6672042582
 20
6.6628481377
 30
0.0
 10
12.6674181942
 20
6.6429253939
 30
0.0
 10
12.6674181942
 20
6.6328261455
 30
0.0
  0
SPLINE
  5
374
100
AcDbEntity
  8
0
100
AcDbSpline
 62
7
  6
CONTINUOUS
 70
0
 71
3
 72
14
 73
10
 74
0
 42
0.0000001
 43
0.0000001
 44
0.0000000001
 40
0.0
 40
0.0
 40
0.0
 40
0.0
 40
0.2433119734
 40
0.3677317065
 40
0.4934166803
 40
0.6199363934
 40
0.7468432759
 40
0.8736823678
 40
1.0
 40
1.0
 40
1.0
 40
1.0
 10
11.06428325
 20
7.5913110809
 30
0.0
 10
11.0587313744
 20
7.5786167055
 30
0.0
 10
11.0517066183
 20
7.5587990631
 30
0.0
 10
11.0449551873
 20
7.531512614
 30
0.0
 10
11.0411525839
 20
7.5103891017
 30
0.0
 10
11.0386803134
 20
7.488928809
 30
0.0
 10
11.0375560317
 20
7.46728937
 30
0.0
 10
11.0377882393
 20
7.4456345384
 30
0.0
 10
11.0388498955
 20
7.4312462869
 30
0.0
 10
11.0396081524
 20
7.424093237
 30
0.0
  0
SPLINE
  5
375
100
AcDbEntity
  8
0
100
AcDbSpline
 62
7
  6
CONTINUOUS
 70
0
 71
3
 72
15
 73
11
 74
0
 42
0.0000001
 43
0.0000001
 44
0.0000000001
 40
0.0
 40
0.0
 40
0.0
 40
0.0
 40
0.1359180657
 40
0.2689686323
 40
0.3989317241
 40
0.5256527768
 40
0.6490587569
 40
0.7691637911
 40
0.8860743664
 40
1.0
 40
1.0
 40
1.0
 40
1.0
 10
11.06428325
 20
7.5913110809
 30
0.0
 10
11.066846733
 20
7.5971724903
 30
0.0
 10
11.0723065298
 20
7.6086074858
 30
0.0
 10
11.0815657909
 20
7.6249604259
 30
0.0
 10
11.0917530368
 20
7.6402366848
 30
0.0
 10
11.1028002929
 20
7.6543320515
 30
0.0
 10
11.1146340863
 20
7.6671511635
 30
0.0
 10
11.1271764356
 20
7.6786068332
 30
0.0
 10
11.1403420498
 20
7.6886195227
 30
0.0
 10
11.149592287
 20
7.6943578887
 30
0.0
 10
11.154285872
 20
7.6969510853
 30
0.0
  0
SPLINE
  5
376
100
AcDbEntity
  8
0
100
AcDbSpline
 62
7
  6
CONTINUOUS
 70
0
 71
3
 72
21
 73
17
 74
0
 42
0.0000001
 43
0.0000001
 44
0.0000000001
 40
0.0
 40
0.0
 40
0.0
 40
0.0
 40
0.0648560736
 40
0.1297532573
 40
0.2591371757
 40
0.387384148
 40
0.4509367077
 40
0.5140394565
 40
0.5766594254
 40
0.6387708616
 40
0.7003539555
 40
0.7613941524
 40
0.8218818218
 40
0.8818117478
 40
0.9411832031
 40
1.0
 40
1.0
 40
1.0
 40
1.0
 10
9.9787775345
 20
7.5599591948
 30
0.0
 10
9.9774268631
 20
7.5554461056
 30
0.0
 10
9.9748550862
 20
7.546377186
 30
0.0
 10
9.9702895013
 20
7.5281141898
 30
0.0
 10
9.9657675501
 20
7.5051057648
 30
0.0
 10
9.9630851136
 20
7.4819003259
 30
0.0
 10
9.9622034754
 20
7.4634004937
 30
0.0
 10
9.9621995713
 20
7.4496467954
 30
0.0
 10
9.962873889
 20
7.4360141523
 30
0.0
 10
9.9642433978
 20
7.4225441677
 30
0.0
 10
9.9663192626
 20
7.4092805542
 30
0.0
 10
9.9691066184
 20
7.3962682237
 30
0.0
 10
9.9726045173
 20
7.3835528378
 30
0.0
 10
9.9768061442
 20
7.37117982
 30
0.0
 10
9.9816986683
 20
7.3591946514
 30
0.0
 10
9.9854271504
 20
7.3514547017
 30
0.0
 10
9.9874008145
 20
7.3476657232
 30
0.0
  0
SPLINE
  5
377
100
AcDbEntity
  8
0
100
AcDbSpline
 62
7
  6
CONTINUOUS
 70
0
 71
3
 72
71
 73
67
 74
0
 42
0.0000001
 43
0.0000001
 44
0.0000000001
 40
0.0
 40
0.0
 40
0.0
 40
0.0
 40
0.0155841868
 40
0.0311159674
 40
0.0465952419
 40
0.0620238831
 40
0.0774034499
 40
0.0927362823
 40
0.1080251235
 40
0.1232731729
 40
0.1384840549
 40
0.153661776
 40
0.1688106901
 40
0.1839354534
 40
0.1990409783
 40
0.2141323818
 40
0.2292149316
 40
0.2442939896
 40
0.2593749544
 40
0.2744632044
 40
0.2895640405
 40
0.3046826297
 40
0.3198239503
 40
0.3349927393
 40
0.3501934439
 40
0.3654301771
 40
0.3807066779
 40
0.3960262747
 40
0.4113918551
 40
0.4268058389
 40
0.4422701591
 40
0.457786248
 40
0.4733550285
 40
0.4889769091
 40
0.5046517848
 40
0.5203790431
 40
0.5361575761
 40
0.5519857959
 40
0.5678616537
 40
0.5837826614
 40
0.5997459183
 40
0.6157481416
 40
0.6317856992
 40
0.647854644
 40
0.6639507501
 40
0.6800695513
 40
0.696206382
 40
0.7123564195
 40
0.7285147266
 40
0.7446762933
 40
0.7608360806
 40
0.7769890651
 40
0.7931302832
 40
0.8092548745
 40
0.8253581235
 40
0.8414355011
 40
0.8574827059
 40
0.8734957052
 40
0.8894707697
 40
0.9054045134
 40
0.921293918
 40
0.9371363619
 40
0.952929726
 40
0.9686720559
 40
0.9843626909
 40
1.0
 40
1.0
 40
1.0
 40
1.0
 10
9.2625829137
 20
9.0951912384
 30
0.0
 10
9.2625829137
 20
9.1036315416
 30
0.0
 10
9.2629959835
 20
9.1204867574
 30
0.0
 10
9.264860513
 20
9.1456633682
 30
0.0
 10
9.2679647606
 20
9.1706331948
 30
0.0
 10
9.2723010238
 20
9.1953350248
 30
0.0
 10
9.2778591125
 20
9.2197097387
 30
0.0
 10
9.2846256232
 20
9.2436984352
 30
0.0
 10
9.2925843257
 20
9.2672433166
 30
0.0
 10
9.3017160697
 20
9.2902876052
 30
0.0
 10
9.3119988862
 20
9.3127757301
 30
0.0
 10
9.3234080333
 20
9.3346534498
 30
0.0
 10
9.335916053
 20
9.3558679819
 30
0.0
 10
9.3494928212
 20
9.3763681416
 30
0.0
 10
9.3641056033
 20
9.396104482
 30
0.0
 10
9.3797191714
 20
9.4150293921
 30
0.0
 10
9.3962958815
 20
9.4330972153
 30
0.0
 10
9.4137957652
 20
9.4502643586
 30
0.0
 10
9.4321766245
 20
9.4664893981
 30
0.0
 10
9.4513941054
 20
9.4817332166
 30
0.0
 10
9.4714018404
 20
9.4959590665
 30
0.0
 10
9.4921515607
 20
9.5091326572
 30
0.0
 10
9.5135932118
 20
9.5212222382
 30
0.0
 10
9.5356750769
 20
9.5321986678
 30
0.0
 10
9.558343884
 20
9.5420355219
 30
0.0
 10
9.5815449493
 20
9.550709142
 30
0.0
 10
9.6052223191
 20
9.5581986698
 30
0.0
 10
9.6293189016
 20
9.5644861021
 30
0.0
 10
9.6537766049
 20
9.5695563258
 30
0.0
 10
9.6785364709
 20
9.5733971738
 30
0.0
 10
9.7035388187
 20
9.5759994729
 30
0.0
 10
9.7287233982
 20
9.5773570217
 30
0.0
 10
9.7540295309
 20
9.5774666113
 30
0.0
 10
9.7793962548
 20
9.5763280298
 30
0.0
 10
9.8047624672
 20
9.5739440622
 30
0.0
 10
9.8300670769
 20
9.5703205275
 30
0.0
 10
9.8552491509
 20
9.5654662178
 30
0.0
 10
9.8802480579
 20
9.5593928763
 30
0.0
 10
9.9050036124
 20
9.5521151703
 30
0.0
 10
9.9294562133
 20
9.5436506491
 30
0.0
 10
9.9535470002
 20
9.534019741
 30
0.0
 10
9.9772179918
 20
9.5232456844
 30
0.0
 10
10.0004122173
 20
9.511354452
 30
0.0
 10
10.0230738527
 20
9.4983746946
 30
0.0
 10
10.0451483497
 20
9.4843376684
 30
0.0
 10
10.0665825754
 20
9.469277178
 30
0.0
 10
10.0873249539
 20
9.4532295092
 30
0.0
 10
10.1073255672
 20
9.436233306
 30
0.0
 10
10.1265362775
 20
9.4183294864
 30
0.0
 10
10.1449108392
 20
9.3995611431
 30
0.0
 10
10.1624050091
 20
9.3799734433
 30
0.0
 10
10.1789766858
 20
9.3596135476
 30
0.0
 10
10.1945859806
 20
9.3385304657
 30
0.0
 10
10.2091953111
 20
9.3167749401
 30
0.0
 10
10.2227694916
 20
9.2943993276
 30
0.0
 10
10.2352758099
 20
9.2714574715
 30
0.0
 10
10.2466841428
 20
9.2480045931
 30
0.0
 10
10.2569670127
 20
9.2240971462
 30
0.0
 10
10.2660996382
 20
9.1997926737
 30
0.0
 10
10.2740599924
 20
9.1751496734
 30
0.0
 10
10.2808288498
 20
9.1502274693
 30
0.0
 10
10.2863898891
 20
9.1250860187
 30
0.0
 10
10.2907296035
 20
9.0997859967
 30
0.0
 10
10.2938376847
 20
9.0743878968
 30
0.0
 10
10.295706312
 20
9.0489539339
 30
0.0
 10
10.2961236091
 20
9.0319840216
 30
0.0
 10
10.2961236091
 20
9.0235149477
 30
0.0
  0
SPLINE
  5
378
100
AcDbEntity
  8
0
100
AcDbSpline
 62
7
  6
CONTINUOUS
 70
0
 71
3
 72
24
 73
20
 74
0
 42
0.0000001
 43
0.0000001
 44
0.0000000001
 40
0.0
 40
0.0
 40
0.0
 40
0.0
 40
0.0637773023
 40
0.1273439637
 40
0.1907010681
 40
0.2538548417
 40
0.3168115636
 40
0.379580162
 40
0.4421711307
 40
0.5045967669
 40
0.5668709778
 40
0.6290091748
 40
0.691028128
 40
0.7529458054
 40
0.8147811982
 40
0.8765541325
 40
0.9074261016
 40
0.9382901687
 40
1.0
 40
1.0
 40
1.0
 40
1.0
 10
10.4338136518
 20
7.4370303302
 30
0.0
 10
10.4338136518
 20
7.4490957165
 30
0.0
 10
10.4343911092
 20
7.4731907302
 30
0.0
 10
10.4369976843
 20
7.5091867573
 30
0.0
 10
10.4413374936
 20
7.5448973374
 30
0.0
 10
10.4474003945
 20
7.5802388972
 30
0.0
 10
10.4551726561
 20
7.6151304251
 30
0.0
 10
10.4646363588
 20
7.6494913424
 30
0.0
 10
10.4757698062
 20
7.683242467
 30
0.0
 10
10.4885473964
 20
7.7163059569
 30
0.0
 10
10.5029397431
 20
7.7486055562
 30
0.0
 10
10.5189137204
 20
7.7800667738
 30
0.0
 10
10.536432517
 20
7.8106170065
 30
0.0
 10
10.5554558735
 20
7.8401858899
 30
0.0
 10
10.5759395895
 20
7.8687047848
 30
0.0
 10
10.5941917557
 20
7.8915465851
 30
0.0
 10
10.609471804
 20
7.9092262694
 30
0.0
 10
10.6251927266
 20
7.9264983081
 30
0.0
 10
10.6374790828
 20
7.9389927665
 30
0.0
 10
10.645875843
 20
7.9471034273
 30
0.0
  0
SPLINE
  5
379
100
AcDbEntity
  8
0
100
AcDbSpline
 62
7
  6
CONTINUOUS
 70
0
 71
3
 72
71
 73
67
 74
0
 42
0.0000001
 43
0.0000001
 44
0.0000000001
 40
0.0
 40
0.0
 40
0.0
 40
0.0
 40
0.0155841868
 40
0.0311159674
 40
0.0465952419
 40
0.0620238831
 40
0.0774034499
 40
0.0927362823
 40
0.1080251235
 40
0.1232731729
 40
0.1384840549
 40
0.153661776
 40
0.1688106901
 40
0.1839354534
 40
0.1990409783
 40
0.2141323818
 40
0.2292149316
 40
0.2442939896
 40
0.2593749544
 40
0.2744632044
 40
0.2895640405
 40
0.3046826297
 40
0.3198239503
 40
0.3349927393
 40
0.3501934439
 40
0.3654301771
 40
0.3807066779
 40
0.3960262747
 40
0.4113918551
 40
0.4268058389
 40
0.4422701591
 40
0.457786248
 40
0.4733550285
 40
0.4889769091
 40
0.5046517848
 40
0.5203790431
 40
0.5361575761
 40
0.5519857959
 40
0.5678616537
 40
0.5837826614
 40
0.5997459183
 40
0.6157481416
 40
0.6317856992
 40
0.647854644
 40
0.6639507501
 40
0.6800695513
 40
0.696206382
 40
0.7123564195
 40
0.7285147266
 40
0.7446762933
 40
0.7608360806
 40
0.7769890651
 40
0.7931302832
 40
0.8092548745
 40
0.8253581235
 40
0.8414355011
 40
0.8574827059
 40
0.8734957052
 40
0.8894707697
 40
0.9054045134
 40
0.921293918
 40
0.9371363619
 40
0.952929726
 40
0.9686720559
 40
0.9843626909
 40
1.0
 40
1.0
 40
1.0
 40
1.0
 10
10.0546421382
 20
7.4097788882
 30
0.0
 10
10.0546421382
 20
7.401338585
 30
0.0
 10
10.0542290683
 20
7.3844833692
 30
0.0
 10
10.0523645388
 20
7.3593067584
 30
0.0
 10
10.0492602913
 20
7.3343369318
 30
0.0
 10
10.0449240281
 20
7.3096351018
 30
0.0
 10
10.0393659393
 20
7.2852603879
 30
0.0
 10
10.0325994287
 20
7.2612716914
 30
0.0
 10
10.0246407261
 20
7.23772681
 30
0.0
 10
10.0155089821
 20
7.2146825213
 30
0.0
 10
10.0052261656
 20
7.1921943965
 30
0.0
 10
9.9938170186
 20
7.1703166768
 30
0.0
 10
9.9813089988
 20
7.1491021447
 30
0.0
 10
9.9677322306
 20
7.128601985
 30
0.0
 10
9.9531194486
 20
7.1088656446
 30
0.0
 10
9.9375058804
 20
7.0899407345
 30
0.0
 10
9.9209291703
 20
7.0718729113
 30
0.0
 10
9.9034292867
 20
7.054705768
 30
0.0
 10
9.8850484274
 20
7.0384807285
 30
0.0
 10
9.8658309465
 20
7.02323691
 30
0.0
 10
9.8458232114
 20
7.00901106
 30
0.0
 10
9.8250734911
 20
6.9958374694
 30
0.0
 10
9.8036318401
 20
6.9837478884
 30
0.0
 10
9.781549975
 20
6.9727714588
 30
0.0
 10
9.7588811678
 20
6.9629346047
 30
0.0
 10
9.7356801026
 20
6.9542609846
 30
0.0
 10
9.7120027328
 20
6.9467714568
 30
0.0
 10
9.6879061503
 20
6.9404840244
 30
0.0
 10
9.6634484469
 20
6.9354138008
 30
0.0
 10
9.638688581
 20
6.9315729527
 30
0.0
 10
9.6136862331
 20
6.9289706537
 30
0.0
 10
9.5885016537
 20
6.9276131049
 30
0.0
 10
9.5631955209
 20
6.9275035153
 30
0.0
 10
9.537828797
 20
6.9286420968
 30
0.0
 10
9.5124625847
 20
6.9310260644
 30
0.0
 10
9.487157975
 20
6.9346495991
 30
0.0
 10
9.461975901
 20
6.9395039088
 30
0.0
 10
9.436976994
 20
6.9455772503
 30
0.0
 10
9.4122214395
 20
6.9528549563
 30
0.0
 10
9.3877688385
 20
6.9613194775
 30
0.0
 10
9.3636780517
 20
6.9709503856
 30
0.0
 10
9.34000706
 20
6.9817244422
 30
0.0
 10
9.3168128346
 20
6.9936156746
 30
0.0
 10
9.2941511991
 20
7.006595432
 30
0.0
 10
9.2720767022
 20
7.0206324582
 30
0.0
 10
9.2506424765
 20
7.0356929485
 30
0.0
 10
9.229900098
 20
7.0517406174
 30
0.0
 10
9.2098994846
 20
7.0687368206
 30
0.0
 10
9.1906887744
 20
7.0866406402
 30
0.0
 10
9.1723142126
 20
7.1054089834
 30
0.0
 10
9.1548200427
 20
7.1249966833
 30
0.0
 10
9.1382483661
 20
7.145356579
 30
0.0
 10
9.1226390713
 20
7.1664396609
 30
0.0
 10
9.1080297408
 20
7.1881951865
 30
0.0
 10
9.0944555603
 20
7.210570799
 30
0.0
 10
9.0819492419
 20
7.2335126551
 30
0.0
 10
9.0705409091
 20
7.2569655335
 30
0.0
 10
9.0602580392
 20
7.2808729804
 30
0.0
 10
9.0511254137
 20
7.3051774529
 30
0.0
 10
9.0431650595
 20
7.3298204532
 30
0.0
 10
9.0363962021
 20
7.3547426573
 30
0.0
 10
9.0308351627
 20
7.3798841079
 30
0.0
 10
9.0264954483
 20
7.4051841299
 30
0.0
 10
9.0233873671
 20
7.4305822298
 30
0.0
 10
9.0215187399
 20
7.4560161927
 30
0.0
 10
9.0211014428
 20
7.472986105
 30
0.0
 10
9.0211014428
 20
7.4814551789
 30
0.0
  0
SPLINE
  5
37A
100
AcDbEntity
  8
0
100
AcDbSpline
 62
7
  6
CONTINUOUS
 70
0
 71
3
 72
43
 73
39
 74
0
 42
0.0000001
 43
0.0000001
 44
0.0000000001
 40
0.0
 40
0.0
 40
0.0
 40
0.0
 40
0.0309418566
 40
0.0620264468
 40
0.0932503929
 40
0.1246071075
 40
0.1560880002
 40
0.1876822702
 40
0.2193771888
 40
0.2511583275
 40
0.2830098133
 40
0.3149146026
 40
0.3468547693
 40
0.3788118051
 40
0.4107669244
 40
0.4427013728
 40
0.4745967359
 40
0.5064352439
 40
0.5382000686
 40
0.5698756088
 40
0.6014477613
 40
0.6329041747
 40
0.664234477
 40
0.6954304769
 40
0.7264863341
 40
0.7573986955
 40
0.7881667885
 40
0.8187924702
 40
0.8340554786
 40
0.849284788
 40
0.8644813606
 40
0.8796463175
 40
0.909881943
 40
0.9400081755
 40
0.9550369536
 40
0.9700438062
 40
0.985030774
 40
1.0
 40
1.0
 40
1.0
 40
1.0
 10
10.6572155538
 20
7.6528200098
 30
0.0
 10
10.6572155538
 20
7.63579642
 30
0.0
 10
10.6583700126
 20
7.6016598412
 30
0.0
 10
10.6635288994
 20
7.5505792324
 30
0.0
 10
10.6720949159
 20
7.4997250207
 30
0.0
 10
10.6840289153
 20
7.4493312941
 30
0.0
 10
10.6992762566
 20
7.3996263323
 30
0.0
 10
10.7177673685
 20
7.3508361636
 30
0.0
 10
10.7394179325
 20
7.3031823561
 30
0.0
 10
10.7641293582
 20
7.2568813726
 30
0.0
 10
10.7917892119
 20
7.2121435041
 30
0.0
 10
10.8222717205
 20
7.169171955
 30
0.0
 10
10.8554382845
 20
7.1281618778
 30
0.0
 10
10.8911381723
 20
7.08929954
 30
0.0
 10
10.9292091896
 20
7.0527614832
 30
0.0
 10
10.9694784177
 20
7.0187137423
 30
0.0
 10
11.0117629461
 20
6.9873110482
 30
0.0
 10
11.0558707171
 20
6.9586961406
 30
0.0
 10
11.1016014132
 20
6.9329991579
 30
0.0
 10
11.1487473487
 20
6.9103370471
 30
0.0
 10
11.1970943936
 20
6.8908130253
 30
0.0
 10
11.2464229186
 20
6.8745160506
 30
0.0
 10
11.2965088022
 20
6.8615204868
 30
0.0
 10
11.3471244772
 20
6.8518857596
 30
0.0
 10
11.398039765
 20
6.8456560677
 30
0.0
 10
11.4490235902
 20
6.8428602007
 30
0.0
 10
11.4998424723
 20
6.8435110452
 30
0.0
 10
11.5419150676
 20
6.8469282786
 30
0.0
 10
11.5752505904
 20
6.8513797021
 30
0.0
 10
11.6000417676
 20
6.8555670276
 30
0.0
 10
11.6246197212
 20
6.8606021251
 30
0.0
 10
11.6570330594
 20
6.8684292582
 30
0.0
 10
11.696892973
 20
6.8802991491
 30
0.0
 10
11.7357465342
 20
6.8949257587
 30
0.0
 10
11.7660634924
 20
6.9082249505
 30
0.0
 10
11.7883834649
 20
6.9189801082
 30
0.0
 10
11.810275246
 20
6.9305106116
 30
0.0
 10
11.8245766449
 20
6.9387107053
 30
0.0
 10
11.8316465233
 20
6.942935004
 30
0.0
  0
SPLINE
  5
37B
100
AcDbEntity
  8
0
100
AcDbSpline
 62
7
  6
CONTINUOUS
 70
0
 71
3
 72
15
 73
11
 74
0
 42
0.0000001
 43
0.0000001
 44
0.0000000001
 40
0.0
 40
0.0
 40
0.0
 40
0.0
 40
0.1268936931
 40
0.2531824523
 40
0.378885871
 40
0.5040320099
 40
0.6286612404
 40
0.7528241611
 40
0.8765809068
 40
1.0
 40
1.0
 40
1.0
 40
1.0
 10
10.6572155538
 20
7.6528200098
 30
0.0
 10
10.6572155538
 20
7.6701883466
 30
0.0
 10
10.6584116938
 20
7.7048545497
 30
0.0
 10
10.6638165047
 20
7.7564722025
 30
0.0
 10
10.6728020551
 20
7.8073485878
 30
0.0
 10
10.6853260822
 20
7.8572371999
 30
0.0
 10
10.7013289538
 20
7.9058997131
 30
0.0
 10
10.7207350201
 20
7.9531036667
 30
0.0
 10
10.7434497837
 20
7.9986198932
 30
0.0
 10
10.76075143
 20
8.0277348128
 30
0.0
 10
10.7699105129
 20
8.041929053
 30
0.0
  0
SPLINE
  5
37C
100
AcDbEntity
  8
0
100
AcDbSpline
 62
7
  6
CONTINUOUS
 70
0
 71
3
 72
23
 73
19
 74
0
 42
0.0000001
 43
0.0000001
 44
0.0000000001
 40
0.0
 40
0.0
 40
0.0
 40
0.0
 40
0.0636929457
 40
0.1271991506
 40
0.1905166521
 40
0.2536515438
 40
0.3166078579
 40
0.3793919483
 40
0.4420114307
 40
0.5044751015
 40
0.5667930256
 40
0.6289763948
 40
0.691037473
 40
0.752989499
 40
0.8148465813
 40
0.8766235904
 40
0.9383360476
 40
1.0
 40
1.0
 40
1.0
 40
1.0
 10
10.7026140704
 20
7.649671612
 30
0.0
 10
10.7026140704
 20
7.6598025407
 30
0.0
 10
10.7030473165
 20
7.6800374287
 30
0.0
 10
10.7050022408
 20
7.7102866897
 30
0.0
 10
10.7082580236
 20
7.7403350811
 30
0.0
 10
10.7128084177
 20
7.7701262904
 30
0.0
 10
10.7186453251
 20
7.7996060058
 30
0.0
 10
10.7257579721
 20
7.8287198651
 30
0.0
 10
10.7341333035
 20
7.8574143676
 30
0.0
 10
10.7437559709
 20
7.8856367344
 30
0.0
 10
10.7546083408
 20
7.9133350377
 30
0.0
 10
10.7666704909
 20
7.9404583219
 30
0.0
 10
10.7799202339
 20
7.9669566956
 30
0.0
 10
10.794333237
 20
7.9927814183
 30
0.0
 10
10.8098829972
 20
8.0178849141
 30
0.0
 10
10.8265410853
 20
8.0422211445
 30
0.0
 10
10.8442763184
 20
8.0657447199
 30
0.0
 10
10.8568012638
 20
8.0808626391
 30
0.0
 10
10.8632304636
 20
8.0882698089
 30
0.0
  0
SPLINE
  5
37D
100
AcDbEntity
  8
0
100
AcDbSpline
 62
7
  6
CONTINUOUS
 70
0
 71
3
 72
23
 73
19
 74
0
 42
0.0000001
 43
0.0000001
 44
0.0000000001
 40
0.0
 40
0.0
 40
0.0
 40
0.0
 40
0.0637271823
 40
0.1272587972
 40
0.1905934735
 40
0.25373769
 40
0.3166961407
 40
0.3794761286
 40
0.4420862921
 40
0.5045366716
 40
0.5668387143
 40
0.6290051229
 40
0.6910497827
 40
0.7529876443
 40
0.8148345959
 40
0.8766073259
 40
0.9383231772
 40
1.0
 40
1.0
 40
1.0
 40
1.0
 10
10.7238272691
 20
7.6551619897
 30
0.0
 10
10.7238272691
 20
7.6655375874
 30
0.0
 10
10.7242911373
 20
7.6862600047
 30
0.0
 10
10.7263844827
 20
7.7172304705
 30
0.0
 10
10.7298704596
 20
7.7479804657
 30
0.0
 10
10.7347417937
 20
7.7784470477
 30
0.0
 10
10.7409889765
 20
7.8085694548
 30
0.0
 10
10.748599431
 20
7.8382869642
 30
0.0
 10
10.757557895
 20
7.8675398733
 30
0.0
 10
10.7678464074
 20
7.8962693554
 30
0.0
 10
10.7794443281
 20
7.9244176318
 30
0.0
 10
10.7923284129
 20
7.9519280748
 30
0.0
 10
10.806472773
 20
7.9787453471
 30
0.0
 10
10.8218489894
 20
8.0048155259
 30
0.0
 10
10.8384261221
 20
8.030086118
 30
0.0
 10
10.8561710345
 20
8.0545064536
 30
0.0
 10
10.8750474487
 20
8.0780267176
 30
0.0
 10
10.8883651965
 20
8.0930802468
 30
0.0
 10
10.8951976526
 20
8.1004392378
 30
0.0
  0
SPLINE
  5
37E
100
AcDbEntity
  8
0
100
AcDbSpline
 62
7
  6
CONTINUOUS
 70
0
 71
3
 72
23
 73
19
 74
0
 42
0.0000001
 43
0.0000001
 44
0.0000000001
 40
0.0
 40
0.0
 40
0.0
 40
0.0
 40
0.0636435929
 40
0.1271127404
 40
0.1904037452
 40
0.2535225941
 40
0.3164727232
 40
0.3792591373
 40
0.4418883093
 40
0.5043675377
 40
0.5667052177
 40
0.6289107336
 40
0.6909943671
 40
0.7529672633
 40
0.8148413532
 40
0.8766292616
 40
0.9383442228
 40
1.0
 40
1.0
 40
1.0
 40
1.0
 10
10.7657608989
 20
7.6956667682
 30
0.0
 10
10.7657608989
 20
7.7049937003
 30
0.0
 10
10.766135802
 20
7.723624219
 30
0.0
 10
10.7678271174
 20
7.751483797
 30
0.0
 10
10.7706442397
 20
7.7791753712
 30
0.0
 10
10.7745823887
 20
7.8066529713
 30
0.0
 10
10.7796353181
 20
7.833872467
 30
0.0
 10
10.7857948021
 20
7.8607895331
 30
0.0
 10
10.7930508713
 20
7.8873604622
 30
0.0
 10
10.8013918363
 20
7.9135420953
 30
0.0
 10
10.810804106
 20
7.9392919217
 30
0.0
 10
10.8212724224
 20
7.9645681194
 30
0.0
 10
10.8327798743
 20
7.9893295946
 30
0.0
 10
10.8453077552
 20
8.0135361466
 30
0.0
 10
10.8588356786
 20
8.0371484269
 30
0.0
 10
10.8733418427
 20
8.0601281864
 30
0.0
 10
10.888802309
 20
8.0824375461
 30
0.0
 10
10.8997341105
 20
8.0968465012
 30
0.0
 10
10.9053492826
 20
8.1039255018
 30
0.0
  0
SPLINE
  5
37F
100
AcDbEntity
  8
0
100
AcDbSpline
 62
7
  6
CONTINUOUS
 70
0
 71
3
 72
23
 73
19
 74
0
 42
0.0000001
 43
0.0000001
 44
0.0000000001
 40
0.0
 40
0.0
 40
0.0
 40
0.0
 40
0.063739621
 40
0.1272802157
 40
0.1906208134
 40
0.2537679487
 40
0.3167266137
 40
0.3795044963
 40
0.4421106414
 40
0.5045555955
 40
0.5668513603
 40
0.6290112484
 40
0.6910497945
 40
0.7529826309
 40
0.8148263514
 40
0.8765983632
 40
0.9383167282
 40
1.0
 40
1.0
 40
1.0
 40
1.0
 10
10.8227115282
 20
7.704176855
 30
0.0
 10
10.8227115282
 20
7.7140435729
 30
0.0
 10
10.8231599611
 20
7.7337492111
 30
0.0
 10
10.8251837534
 20
7.7631972426
 30
0.0
 10
10.8285537685
 20
7.7924301395
 30
0.0
 10
10.833262765
 20
7.8213860886
 30
0.0
 10
10.8393012208
 20
7.8500053796
 30
0.0
 10
10.8466565807
 20
7.8782283883
 30
0.0
 10
10.855313613
 20
7.9059965081
 30
0.0
 10
10.8652543687
 20
7.9332520221
 30
0.0
 10
10.8764582331
 20
7.9599382776
 30
0.0
 10
10.8889019805
 20
7.9859997929
 30
0.0
 10
10.9025597988
 20
8.0113823696
 30
0.0
 10
10.9174033217
 20
8.036033254
 30
0.0
 10
10.9334016689
 20
8.0599011479
 30
0.0
 10
10.9505217769
 20
8.0829365913
 30
0.0
 10
10.9687274517
 20
8.1050910358
 30
0.0
 10
10.9815669766
 20
8.1192467788
 30
0.0
 10
10.9881526793
 20
8.1261605675
 30
0.0
  0
SPLINE
  5
380
100
AcDbEntity
  8
0
100
AcDbSpline
 62
7
  6
CONTINUOUS
 70
0
 71
3
 72
11
 73
7
 74
0
 42
0.0000001
 43
0.0000001
 44
0.0000000001
 40
0.0
 40
0.0
 40
0.0
 40
0.0
 40
0.2513581145
 40
0.5018002695
 40
0.7513379833
 40
1.0
 40
1.0
 40
1.0
 40
1.0
 10
11.1341999919
 20
8.0050516246
 30
0.0
 10
11.1341999919
 20
8.016498562
 30
0.0
 10
11.1348034226
 20
8.0393553951
 30
0.0
 10
11.1375280777
 20
8.0734787433
 30
0.0
 10
11.142062898
 20
8.1072852403
 30
0.0
 10
11.1462923929
 20
8.1295890823
 30
0.0
 10
11.1487046457
 20
8.1406533287
 30
0.0
  0
SPLINE
  5
381
100
AcDbEntity
  8
0
100
AcDbSpline
 62
7
  6
CONTINUOUS
 70
0
 71
3
 72
11
 73
7
 74
0
 42
0.0000001
 43
0.0000001
 44
0.0000000001
 40
0.0
 40
0.0
 40
0.0
 40
0.0
 40
0.2513422312
 40
0.5017803061
 40
0.7513231259
 40
1.0
 40
1.0
 40
1.0
 40
1.0
 10
11.1812550638
 20
8.0120830262
 30
0.0
 10
11.1812550638
 20
8.0227504345
 30
0.0
 10
11.181810825
 20
8.0440511272
 30
0.0
 10
11.1843201132
 20
8.0758541058
 30
0.0
 10
11.1884966898
 20
8.1073673441
 30
0.0
 10
11.1923921851
 20
8.1281628989
 30
0.0
 10
11.1946140762
 20
8.1384806578
 30
0.0
  0
SPLINE
  5
382
100
AcDbEntity
  8
0
100
AcDbSpline
 62
7
  6
CONTINUOUS
 70
0
 71
3
 72
39
 73
35
 74
0
 42
0.0000001
 43
0.0000001
 44
0.0000000001
 40
0.0
 40
0.0
 40
0.0
 40
0.0
 40
0.0306354679
 40
0.0613801065
 40
0.0922311459
 40
0.1231864993
 40
0.1542419523
 40
0.1853926988
 40
0.2166328305
 40
0.2479555841
 40
0.2793533677
 40
0.3108178516
 40
0.3423400545
 40
0.3739104338
 40
0.4055189812
 40
0.4371553202
 40
0.4688088067
 40
0.5004686321
 40
0.5321239263
 40
0.5637638635
 40
0.5953777654
 40
0.626955204
 40
0.6584861027
 40
0.6899608345
 40
0.721370318
 40
0.7527061086
 40
0.7839604871
 40
0.8151265413
 40
0.8461982409
 40
0.877170506
 40
0.9080392671
 40
0.9388015166
 40
0.9694553503
 40
1.0
 40
1.0
 40
1.0
 40
1.0
 10
11.2995628768
 20
8.0972799153
 30
0.0
 10
11.2995628768
 20
8.0872122184
 30
0.0
 10
11.3000835278
 20
8.0670371762
 30
0.0
 10
11.3024144352
 20
8.0368046196
 30
0.0
 10
11.3062906101
 20
8.0066244211
 30
0.0
 10
11.311701464
 20
7.9765778479
 30
0.0
 10
11.3186327392
 20
7.9467441247
 30
0.0
 10
11.3270659023
 20
7.9172024811
 30
0.0
 10
11.3369785746
 20
7.8880311839
 30
0.0
 10
11.3483444124
 20
7.859307566
 30
0.0
 10
11.3611332418
 20
7.8311077553
 30
0.0
 10
11.3753111098
 20
7.8035064865
 30
0.0
 10
11.3908403948
 20
7.7765769058
 30
0.0
 10
11.4076799025
 20
7.7503903781
 30
0.0
 10
11.4257849746
 20
7.7250163002
 30
0.0
 10
11.4451076071
 20
7.7005219183
 30
0.0
 10
11.4655965761
 20
7.6769721505
 30
0.0
 10
11.4871975742
 20
7.6544294181
 30
0.0
 10
11.5098533427
 20
7.63295347
 30
0.0
 10
11.5335038308
 20
7.6126012296
 30
0.0
 10
11.5580863574
 20
7.5934266491
 30
0.0
 10
11.5835357754
 20
7.5754805667
 30
0.0
 10
11.609784643
 20
7.5588105728
 30
0.0
 10
11.6367634007
 20
7.5434608843
 30
0.0
 10
11.6644005544
 20
7.529472229
 30
0.0
 10
11.6926228627
 20
7.5168817357
 30
0.0
 10
11.7213555242
 20
7.5057228225
 30
0.0
 10
11.7505223847
 20
7.4960251228
 30
0.0
 10
11.7800461278
 20
7.4878144054
 30
0.0
 10
11.8098485116
 20
7.4811125071
 30
0.0
 10
11.8398504487
 20
7.4759372709
 30
0.0
 10
11.8699726784
 20
7.4723025095
 30
0.0
 10
11.9001342523
 20
7.4702179243
 30
0.0
 10
11.9202533214
 20
7.4698648367
 30
0.0
 10
11.9302908185
 20
7.4699491801
 30
0.0
  0
SPLINE
  5
383
100
AcDbEntity
  8
0
100
AcDbSpline
 62
7
  6
CONTINUOUS
 70
0
 71
3
 72
12
 73
8
 74
0
 42
0.0000001
 43
0.0000001
 44
0.0000000001
 40
0.0
 40
0.0
 40
0.0
 40
0.0
 40
0.2284121918
 40
0.4686034469
 40
0.7250970986
 40
0.8603208286
 40
1.0
 40
1.0
 40
1.0
 40
1.0
 10
10.0421477062
 20
9.4276850159
 30
0.0
 10
10.0413379284
 20
9.4238829824
 30
0.0
 10
10.0393957646
 20
9.4161402295
 30
0.0
 10
10.0355962198
 20
9.4043911622
 30
0.0
 10
10.031668674
 20
9.3943728292
 30
0.0
 10
10.0280406876
 20
9.3860879865
 30
0.0
 10
10.0260581524
 20
9.3818496291
 30
0.0
 10
10.0250262972
 20
9.3797080751
 30
0.0
  0
SPLINE
  5
384
100
AcDbEntity
  8
0
100
AcDbSpline
 62
7
  6
CONTINUOUS
 70
0
 71
3
 72
71
 73
67
 74
0
 42
0.0000001
 43
0.0000001
 44
0.0000000001
 40
0.0
 40
0.0
 40
0.0
 40
0.0
 40
0.0155841868
 40
0.0311159674
 40
0.0465952419
 40
0.0620238831
 40
0.0774034499
 40
0.0927362823
 40
0.1080251235
 40
0.1232731729
 40
0.1384840549
 40
0.153661776
 40
0.1688106901
 40
0.1839354534
 40
0.1990409783
 40
0.2141323818
 40
0.2292149316
 40
0.2442939896
 40
0.2593749544
 40
0.2744632044
 40
0.2895640405
 40
0.3046826297
 40
0.3198239503
 40
0.3349927393
 40
0.3501934439
 40
0.3654301771
 40
0.3807066779
 40
0.3960262747
 40
0.4113918551
 40
0.4268058389
 40
0.4422701591
 40
0.457786248
 40
0.4733550285
 40
0.4889769091
 40
0.5046517848
 40
0.5203790431
 40
0.5361575761
 40
0.5519857959
 40
0.5678616537
 40
0.5837826614
 40
0.5997459183
 40
0.6157481416
 40
0.6317856992
 40
0.647854644
 40
0.6639507501
 40
0.6800695513
 40
0.696206382
 40
0.7123564195
 40
0.7285147266
 40
0.7446762933
 40
0.7608360806
 40
0.7769890651
 40
0.7931302832
 40
0.8092548745
 40
0.8253581235
 40
0.8414355011
 40
0.8574827059
 40
0.8734957052
 40
0.8894707697
 40
0.9054045134
 40
0.921293918
 40
0.9371363619
 40
0.952929726
 40
0.9686720559
 40
0.9843626909
 40
1.0
 40
1.0
 40
1.0
 40
1.0
 10
10.2961236091
 20
9.0235149477
 30
0.0
 10
10.2961236091
 20
9.0150746445
 30
0.0
 10
10.2957105392
 20
8.9982194287
 30
0.0
 10
10.2938460097
 20
8.9730428179
 30
0.0
 10
10.2907417621
 20
8.9480729913
 30
0.0
 10
10.286405499
 20
8.9233711613
 30
0.0
 10
10.2808474102
 20
8.8989964474
 30
0.0
 10
10.2740808995
 20
8.8750077509
 30
0.0
 10
10.266122197
 20
8.8514628695
 30
0.0
 10
10.256990453
 20
8.8284185808
 30
0.0
 10
10.2467076365
 20
8.805930456
 30
0.0
 10
10.2352984895
 20
8.7840527363
 30
0.0
 10
10.2227904697
 20
8.7628382042
 30
0.0
 10
10.2092137015
 20
8.7423380445
 30
0.0
 10
10.1946009194
 20
8.7226017041
 30
0.0
 10
10.1789873513
 20
8.703676794
 30
0.0
 10
10.1624106412
 20
8.6856089708
 30
0.0
 10
10.1449107576
 20
8.6684418275
 30
0.0
 10
10.1265298983
 20
8.652216788
 30
0.0
 10
10.1073124173
 20
8.6369729695
 30
0.0
 10
10.0873046823
 20
8.6227471195
 30
0.0
 10
10.066554962
 20
8.6095735289
 30
0.0
 10
10.045113311
 20
8.5974839479
 30
0.0
 10
10.0230314458
 20
8.5865075183
 30
0.0
 10
10.0003626387
 20
8.5766706642
 30
0.0
 10
9.9771615734
 20
8.5679970441
 30
0.0
 10
9.9534842037
 20
8.5605075163
 30
0.0
 10
9.9293876212
 20
8.5542200839
 30
0.0
 10
9.9049299178
 20
8.5491498603
 30
0.0
 10
9.8801700519
 20
8.5453090122
 30
0.0
 10
9.855167704
 20
8.5427067131
 30
0.0
 10
9.8299831245
 20
8.5413491644
 30
0.0
 10
9.8046769918
 20
8.5412395748
 30
0.0
 10
9.7793102679
 20
8.5423781563
 30
0.0
 10
9.7539440556
 20
8.5447621239
 30
0.0
 10
9.7286394458
 20
8.5483856586
 30
0.0
 10
9.7034573719
 20
8.5532399683
 30
0.0
 10
9.6784584649
 20
8.5593133098
 30
0.0
 10
9.6537029104
 20
8.5665910158
 30
0.0
 10
9.6292503094
 20
8.575055537
 30
0.0
 10
9.6051595225
 20
8.5846864451
 30
0.0
 10
9.5814885309
 20
8.5954605017
 30
0.0
 10
9.5582943054
 20
8.6073517341
 30
0.0
 10
9.53563267
 20
8.6203314915
 30
0.0
 10
9.513558173
 20
8.6343685177
 30
0.0
 10
9.4921239473
 20
8.649429008
 30
0.0
 10
9.4713815688
 20
8.6654766769
 30
0.0
 10
9.4513809555
 20
8.68247288
 30
0.0
 10
9.4321702452
 20
8.7003766997
 30
0.0
 10
9.4137956835
 20
8.7191450429
 30
0.0
 10
9.3963015136
 20
8.7387327428
 30
0.0
 10
9.379729837
 20
8.7590926385
 30
0.0
 10
9.3641205422
 20
8.7801757204
 30
0.0
 10
9.3495112117
 20
8.801931246
 30
0.0
 10
9.3359370312
 20
8.8243068585
 30
0.0
 10
9.3234307128
 20
8.8472487146
 30
0.0
 10
9.31202238
 20
8.870701593
 30
0.0
 10
9.3017395101
 20
8.8946090399
 30
0.0
 10
9.2926068846
 20
8.9189135124
 30
0.0
 10
9.2846465304
 20
8.9435565126
 30
0.0
 10
9.277877673
 20
8.9684787168
 30
0.0
 10
9.2723166336
 20
8.9936201674
 30
0.0
 10
9.2679769192
 20
9.0189201894
 30
0.0
 10
9.264868838
 20
9.0443182893
 30
0.0
 10
9.2630002108
 20
9.0697522522
 30
0.0
 10
9.2625829137
 20
9.0867221644
 30
0.0
 10
9.2625829137
 20
9.0951912384
 30
0.0
  0
SPLINE
  5
385
100
AcDbEntity
  8
0
100
AcDbSpline
 62
7
  6
CONTINUOUS
 70
0
 71
3
 72
23
 73
19
 74
0
 42
0.0000001
 43
0.0000001
 44
0.0000000001
 40
0.0
 40
0.0
 40
0.0
 40
0.0
 40
0.063737234
 40
0.1272755479
 40
0.1906150576
 40
0.2537615683
 40
0.3167202028
 40
0.3794985777
 40
0.4421056052
 40
0.5045517451
 40
0.5668488677
 40
0.6290101574
 40
0.6910500113
 40
0.7529839129
 40
0.8148283005
 40
0.8766004232
 40
0.9383181884
 40
1.0
 40
1.0
 40
1.0
 40
1.0
 10
10.316588999
 20
7.4168000038
 30
0.0
 10
10.316588999
 20
7.4295736857
 30
0.0
 10
10.3171674915
 20
7.4550850553
 30
0.0
 10
10.3197783396
 20
7.4932099779
 30
0.0
 10
10.3241258797
 20
7.5310578633
 30
0.0
 10
10.3302009361
 20
7.5685493559
 30
0.0
 10
10.3379912421
 20
7.6056075996
 30
0.0
 10
10.3474807035
 20
7.6421559701
 30
0.0
 10
10.3586498608
 20
7.6781190905
 30
0.0
 10
10.3714757113
 20
7.7134227304
 30
0.0
 10
10.3859318402
 20
7.7479940278
 30
0.0
 10
10.4019884679
 20
7.7817616219
 30
0.0
 10
10.4196125024
 20
7.8146557971
 30
0.0
 10
10.4387676318
 20
7.8466086535
 30
0.0
 10
10.4594143096
 20
7.8775541475
 30
0.0
 10
10.4815101536
 20
7.907428609
 30
0.0
 10
10.5050087753
 20
7.9361695156
 30
0.0
 10
10.521582487
 20
7.9545404462
 30
0.0
 10
10.530083976
 20
7.9635147195
 30
0.0
  0
SPLINE
  5
386
100
AcDbEntity
  8
0
100
AcDbSpline
 62
7
  6
CONTINUOUS
 70
0
 71
3
 72
50
 73
46
 74
0
 42
0.0000001
 43
0.0000001
 44
0.0000000001
 40
0.0
 40
0.0
 40
0.0
 40
0.0
 40
0.0149717278
 40
0.0299465149
 40
0.044927401
 40
0.0599173893
 40
0.0749194283
 40
0.0899363919
 40
0.1049710634
 40
0.1200261205
 40
0.1351041177
 40
0.1502074705
 40
0.165338445
 40
0.1804991437
 40
0.1956914918
 40
0.21091723
 40
0.2261779061
 40
0.2414748638
 40
0.2568092383
 40
0.2721819537
 40
0.287593716
 40
0.3030450104
 40
0.3185361039
 40
0.3340670439
 40
0.3652423167
 40
0.3965721964
 40
0.4280494165
 40
0.4596636006
 40
0.4914015142
 40
0.5232473741
 40
0.5551831985
 40
0.5871891855
 40
0.6192441282
 40
0.6513258427
 40
0.683411612
 40
0.7154786397
 40
0.7475045014
 40
0.7794675918
 40
0.8113475634
 40
0.8431257421
 40
0.8747855204
 40
0.9063127266
 40
0.9376959415
 40
0.9689266162
 40
1.0
 40
1.0
 40
1.0
 40
1.0
 10
11.7453490045
 20
6.7053390267
 30
0.0
 10
11.7380903343
 20
6.6983276823
 30
0.0
 10
11.7232910806
 20
6.6845905709
 30
0.0
 10
11.7002884226
 20
6.664881161
 30
0.0
 10
11.6765112356
 20
6.6460927694
 30
0.0
 10
11.6519927236
 20
6.6282516469
 30
0.0
 10
11.6267664847
 20
6.6113822549
 30
0.0
 10
11.6008672572
 20
6.5955078584
 30
0.0
 10
11.5743307161
 20
6.5806502227
 30
0.0
 10
11.5471933754
 20
6.5668297935
 30
0.0
 10
11.5194925554
 20
6.5540656314
 30
0.0
 10
11.491266409
 20
6.5423752224
 30
0.0
 10
11.462553781
 20
6.5317746194
 30
0.0
 10
11.4333941583
 20
6.522278453
 30
0.0
 10
11.4038276782
 20
6.5138997344
 30
0.0
 10
11.3738950305
 20
6.5066499266
 30
0.0
 10
11.3436373824
 20
6.5005390312
 30
0.0
 10
11.3130963614
 20
6.4955754423
 30
0.0
 10
11.2823139877
 20
6.4917658994
 30
0.0
 10
11.2513326066
 20
6.4891156415
 30
0.0
 10
11.2201947906
 20
6.4876283479
 30
0.0
 10
11.1889435116
 20
6.4873059457
 30
0.0
 10
11.1576212115
 20
6.4881489378
 30
0.0
 10
11.1157739038
 20
6.4908280494
 30
0.0
 10
11.0634948458
 20
6.4970926179
 30
0.0
 10
11.0012578772
 20
6.5092046802
 30
0.0
 10
10.9397706904
 20
6.5258540528
 30
0.0
 10
10.8793732174
 20
6.546948732
 30
0.0
 10
10.8203963247
 20
6.5723722755
 30
0.0
 10
10.7631638339
 20
6.6019846593
 30
0.0
 10
10.7079897836
 20
6.6356230201
 30
0.0
 10
10.655176844
 20
6.6731023169
 30
0.0
 10
10.6050148605
 20
6.714216737
 30
0.0
 10
10.5577790434
 20
6.7587404302
 30
0.0
 10
10.5137286074
 20
6.8064289628
 30
0.0
 10
10.4731054376
 20
6.8570206613
 30
0.0
 10
10.4361324927
 20
6.9102378141
 30
0.0
 10
10.4030129783
 20
6.965788482
 30
0.0
 10
10.3739289127
 20
7.0233678368
 30
0.0
 10
10.3490402479
 20
7.082659889
 30
0.0
 10
10.3284841648
 20
7.1433393882
 30
0.0
 10
10.3123739045
 20
7.2050729022
 30
0.0
 10
10.3007986697
 20
7.2675226791
 30
0.0
 10
10.2938225544
 20
7.3303413131
 30
0.0
 10
10.2922600382
 20
7.3723545051
 30
0.0
 10
10.2922600382
 20
7.3933000309
 30
0.0
  0
SPLINE
  5
387
100
AcDbEntity
  8
0
100
AcDbSpline
 62
7
  6
CONTINUOUS
 70
0
 71
3
 72
71
 73
67
 74
0
 42
0.0000001
 43
0.0000001
 44
0.0000000001
 40
0.0
 40
0.0
 40
0.0
 40
0.0
 40
0.0155842919
 40
0.0311159123
 40
0.0465952598
 40
0.0620238813
 40
0.0774034486
 40
0.0927362826
 40
0.1080251225
 40
0.1232731733
 40
0.1384840556
 40
0.1536617767
 40
0.1688106903
 40
0.1839354535
 40
0.1990409785
 40
0.2141323822
 40
0.2292149319
 40
0.2442939893
 40
0.2593749538
 40
0.274463204
 40
0.2895640408
 40
0.3046826306
 40
0.3198239512
 40
0.3349927397
 40
0.3501934437
 40
0.3654301769
 40
0.3807066779
 40
0.3960262749
 40
0.4113918551
 40
0.4268058386
 40
0.442270159
 40
0.4577862486
 40
0.4733550295
 40
0.4889769099
 40
0.5046517846
 40
0.5203790424
 40
0.5361575756
 40
0.551985796
 40
0.5678616541
 40
0.5837826616
 40
0.5997459183
 40
0.6157481418
 40
0.6317856998
 40
0.6478546444
 40
0.6639507499
 40
0.6800695506
 40
0.6962063816
 40
0.7123564199
 40
0.7285147273
 40
0.7446762937
 40
0.7608360805
 40
0.7769890649
 40
0.7931302833
 40
0.8092548746
 40
0.8253581232
 40
0.8414355006
 40
0.857482706
 40
0.8734957058
 40
0.8894707712
 40
0.9054045127
 40
0.9212939185
 40
0.9371363636
 40
0.9529297087
 40
0.9686721119
 40
0.9843625862
 40
1.0
 40
1.0
 40
1.0
 40
1.0
 10
10.4193699554
 20
7.4321584797
 30
0.0
 10
10.4193699554
 20
7.444638849
 30
0.0
 10
10.4199807078
 20
7.4695618326
 30
0.0
 10
10.4227377581
 20
7.5067893294
 30
0.0
 10
10.4273278048
 20
7.5437109751
 30
0.0
 10
10.4337396854
 20
7.580236462
 30
0.0
 10
10.441958182
 20
7.616278204
 30
0.0
 10
10.4519634983
 20
7.6517491804
 30
0.0
 10
10.463731642
 20
7.6865639132
 30
0.0
 10
10.4772343135
 20
7.720638441
 30
0.0
 10
10.4924390423
 20
7.7538905883
 30
0.0
 10
10.5093092379
 20
7.7862401481
 30
0.0
 10
10.5278042767
 20
7.8176090861
 30
0.0
 10
10.5478796035
 20
7.8479217283
 30
0.0
 10
10.5694868403
 20
7.8771049451
 30
0.0
 10
10.5925739025
 20
7.9050883301
 30
0.0
 10
10.617085125
 20
7.9318043731
 30
0.0
 10
10.6429613971
 20
7.9571886246
 30
0.0
 10
10.6701403066
 20
7.9811798539
 30
0.0
 10
10.6985562918
 20
8.0037201988
 30
0.0
 10
10.7281408026
 20
8.0247553053
 30
0.0
 10
10.7588224631
 20
8.0442344679
 30
0.0
 10
10.7905272508
 20
8.0621107483
 30
0.0
 10
10.8231786792
 20
8.078341086
 30
0.0
 10
10.8566979853
 20
8.092886402
 30
0.0
 10
10.8910043212
 20
8.1057116914
 30
0.0
 10
10.9260149513
 20
8.1167861066
 30
0.0
 10
10.9616454539
 20
8.1260830295
 30
0.0
 10
10.9978099252
 20
8.133580134
 30
0.0
 10
11.0344211878
 20
8.1392594359
 30
0.0
 10
11.0713910005
 20
8.1431073415
 30
0.0
 10
11.1086302724
 20
8.1451146767
 30
0.0
 10
11.1460492784
 20
8.1452767008
 30
0.0
 10
11.1835578752
 20
8.1435931171
 30
0.0
 10
11.221065717
 20
8.1400680711
 30
0.0
 10
11.2584824721
 20
8.1347101389
 30
0.0
 10
11.2957180395
 20
8.127532305
 30
0.0
 10
11.3326827638
 20
8.1185519299
 30
0.0
 10
11.36928765
 20
8.1077907064
 30
0.0
 10
11.405444577
 20
8.0952746116
 30
0.0
 10
11.4410665107
 20
8.0810338453
 30
0.0
 10
11.4760677099
 20
8.0651027494
 30
0.0
 10
11.5103639317
 20
8.0475197264
 30
0.0
 10
11.5438726327
 20
8.0283271467
 30
0.0
 10
11.5765131662
 20
8.0075712469
 30
0.0
 10
11.6082069751
 20
7.9853020183
 30
0.0
 10
11.6388777797
 20
7.9615730879
 30
0.0
 10
11.6684517598
 20
7.9364415886
 30
0.0
 10
11.6968577333
 20
7.9099680254
 30
0.0
 10
11.724027331
 20
7.8822161327
 30
0.0
 10
11.7498951545
 20
7.8532527156
 30
0.0
 10
11.7743989342
 20
7.82314749
 30
0.0
 10
11.7974796775
 20
7.7919729161
 30
0.0
 10
11.8190818107
 20
7.7598040247
 30
0.0
 10
11.8391533115
 20
7.7267182383
 30
0.0
 10
11.8576458343
 20
7.6927951851
 30
0.0
 10
11.8745148257
 20
7.6581165094
 30
0.0
 10
11.8897196333
 20
7.6227656761
 30
0.0
 10
11.9032236085
 20
7.5868277745
 30
0.0
 10
11.9149941948
 20
7.5503893062
 30
0.0
 10
11.9250029812
 20
7.5135379959
 30
0.0
 10
11.9332258404
 20
7.4763625148
 30
0.0
 10
11.9396428236
 20
7.4389525076
 30
0.0
 10
11.9442385399
 20
7.4013975938
 30
0.0
 10
11.9470016485
 20
7.3637895627
 30
0.0
 10
11.947618652
 20
7.3386969835
 30
0.0
 10
11.947618652
 20
7.3261740727
 30
0.0
  0
SPLINE
  5
388
100
AcDbEntity
  8
0
100
AcDbSpline
 62
7
  6
CONTINUOUS
 70
0
 71
3
 72
40
 73
36
 74
0
 42
0.0000001
 43
0.0000001
 44
0.0000000001
 40
0.0
 40
0.0
 40
0.0
 40
0.0
 40
0.0299422961
 40
0.0599089687
 40
0.0899238004
 40
0.1200094052
 40
0.1350882586
 40
0.1501924643
 40
0.1804801427
 40
0.2108943138
 40
0.2414481167
 40
0.2721514658
 40
0.3030108714
 40
0.3340293444
 40
0.3652063826
 40
0.3965380347
 40
0.4280170359
 40
0.4596330083
 40
0.4913727179
 40
0.5232203813
 40
0.5551580145
 40
0.5871658159
 40
0.6192225759
 40
0.6513061084
 40
0.6833936952
 40
0.7154625379
 40
0.7474902107
 40
0.7794551093
 40
0.8113368809
 40
0.8431168638
 40
0.8747784102
 40
0.9063074674
 40
0.9376922747
 40
0.9689251908
 40
1.0
 40
1.0
 40
1.0
 40
1.0
 10
9.9334047694
 20
7.6107813827
 30
0.0
 10
9.9308167836
 20
7.6082815762
 30
0.0
 10
9.9254373195
 20
7.6034837218
 30
0.0
 10
9.9168185016
 20
7.5969474499
 30
0.0
 10
9.9076944893
 20
7.5911045768
 30
0.0
 10
9.8997169974
 20
7.5868430989
 30
0.0
 10
9.8931377811
 20
7.5838115622
 30
0.0
 10
9.8864226252
 20
7.5810302741
 30
0.0
 10
9.877807394
 20
7.5780395945
 30
0.0
 10
9.8671904158
 20
7.575252348
 30
0.0
 10
9.8563417697
 20
7.5732777872
 30
0.0
 10
9.8453215768
 20
7.5721268046
 30
0.0
 10
9.8341903744
 20
7.5718055416
 30
0.0
 10
9.8230094097
 20
7.5723156323
 30
0.0
 10
9.8118401361
 20
7.5736541296
 30
0.0
 10
9.8007439235
 20
7.575813547
 30
0.0
 10
9.7897817138
 20
7.5787819001
 30
0.0
 10
9.7790136932
 20
7.5825427772
 30
0.0
 10
9.7684989663
 20
7.5870754319
 30
0.0
 10
9.7582952362
 20
7.5923548988
 30
0.0
 10
9.7484584924
 20
7.5983521308
 30
0.0
 10
9.7390427078
 20
7.6050341583
 30
0.0
 10
9.7300995466
 20
7.6123642697
 30
0.0
 10
9.721678082
 20
7.6203022095
 30
0.0
 10
9.713824531
 20
7.6288043983
 30
0.0
 10
9.7065820034
 20
7.6378241714
 30
0.0
 10
9.6999902679
 20
7.6473120316
 30
0.0
 10
9.6940855372
 20
7.657215918
 30
0.0
 10
9.6889002642
 20
7.6674814893
 30
0.0
 10
9.6844629845
 20
7.6780524118
 30
0.0
 10
9.6807981105
 20
7.6888706948
 30
0.0
 10
9.677925908
 20
7.6998768821
 30
0.0
 10
9.6758621658
 20
7.7110108157
 30
0.0
 10
9.6746184608
 20
7.7222104752
 30
0.0
 10
9.6743398719
 20
7.7297008394
 30
0.0
 10
9.6743398719
 20
7.7334350857
 30
0.0
  0
SPLINE
  5
389
100
AcDbEntity
  8
0
100
AcDbSpline
 62
7
  6
CONTINUOUS
 70
0
 71
3
 72
48
 73
44
 74
0
 42
0.0000001
 43
0.0000001
 44
0.0000000001
 40
0.0
 40
0.0
 40
0.0
 40
0.0
 40
0.0310737286
 40
0.0623047169
 40
0.0936882768
 40
0.1252158192
 40
0.1568759363
 40
0.1886544543
 40
0.2205347671
 40
0.2524981996
 40
0.2845244034
 40
0.3165917744
 40
0.3486778872
 40
0.3807599447
 40
0.4128152307
 40
0.444821561
 40
0.476757727
 40
0.5086039285
 40
0.5403421829
 40
0.5719567057
 40
0.6034342639
 40
0.6347644801
 40
0.6659400877
 40
0.6969571367
 40
0.7278151252
 40
0.7431880054
 40
0.758522545
 40
0.7738196675
 40
0.7890805069
 40
0.8043064089
 40
0.8194989208
 40
0.8346597817
 40
0.8497909186
 40
0.8648944344
 40
0.8799725929
 40
0.8950278113
 40
0.9100626449
 40
0.9250797694
 40
0.9400819686
 40
0.9550721182
 40
0.970053165
 40
0.9850281118
 40
1.0
 40
1.0
 40
1.0
 40
1.0
 10
10.4338136518
 20
7.4370303302
 30
0.0
 10
10.4338136518
 20
7.4183110146
 30
0.0
 10
10.4352100874
 20
7.3807632437
 30
0.0
 10
10.4414447605
 20
7.3246213576
 30
0.0
 10
10.4517896744
 20
7.2688091235
 30
0.0
 10
10.4661876453
 20
7.2136370171
 30
0.0
 10
10.4845589191
 20
7.1594069113
 30
0.0
 10
10.5068022106
 20
7.1064167551
 30
0.0
 10
10.5327950755
 20
7.0549572977
 30
0.0
 10
10.5623944314
 20
7.0053108854
 30
0.0
 10
10.5954376232
 20
6.9577499418
 30
0.0
 10
10.6317431551
 20
6.9125354676
 30
0.0
 10
10.6711115954
 20
6.8699155194
 30
0.0
 10
10.7133268921
 20
6.8301240587
 30
0.0
 10
10.7581573716
 20
6.79337955
 30
0.0
 10
10.805356986
 20
6.7598837147
 30
0.0
 10
10.8546668106
 20
6.7298206526
 30
0.0
 10
10.9058162813
 20
6.7033556343
 30
0.0
 10
10.9585247073
 20
6.6806342045
 30
0.0
 10
11.0125028614
 20
6.661781599
 30
0.0
 10
11.067454486
 20
6.6469017933
 30
0.0
 10
11.123077713
 20
6.6360769826
 30
0.0
 10
11.1790676393
 20
6.6293674036
 30
0.0
 10
11.2351145043
 20
6.6268103015
 30
0.0
 10
11.2816780143
 20
6.6281544977
 30
0.0
 10
11.3186382585
 20
6.6313163605
 30
0.0
 10
11.3461492084
 20
6.6347209615
 30
0.0
 10
11.3734440677
 20
6.639156969
 30
0.0
 10
11.4004857712
 20
6.6446183666
 30
0.0
 10
11.4272370005
 20
6.6510975796
 30
0.0
 10
11.4536609885
 20
6.6585857251
 30
0.0
 10
11.4797213445
 20
6.667072599
 30
0.0
 10
11.5053822364
 20
6.6765464628
 30
0.0
 10
11.5306083566
 20
6.6869943015
 30
0.0
 10
11.5553649554
 20
6.6984018352
 30
0.0
 10
11.5796179936
 20
6.710753308
 30
0.0
 10
11.6033341012
 20
6.7240317324
 30
0.0
 10
11.6264805897
 20
6.7382189233
 30
0.0
 10
11.6490256464
 20
6.7532953095
 30
0.0
 10
11.6709382252
 20
6.7692401121
 30
0.0
 10
11.6921882215
 20
6.7860315706
 30
0.0
 10
11.7127460178
 20
6.8036461419
 30
0.0
 10
11.7259723695
 20
6.8159231337
 30
0.0
 10
11.7324595425
 20
6.8221892718
 30
0.0
  0
SPLINE
  5
38A
100
AcDbEntity
  8
0
100
AcDbSpline
 62
7
  6
CONTINUOUS
 70
0
 71
3
 72
28
 73
24
 74
0
 42
0.0000001
 43
0.0000001
 44
0.0000000001
 40
0.0
 40
0.0
 40
0.0
 40
0.0
 40
0.017533385
 40
0.0363394596
 40
0.0563606455
 40
0.0775438183
 40
0.0998299887
 40
0.1231712122
 40
0.14751801
 40
0.1728262391
 40
0.199058532
 40
0.2261759532
 40
0.2829391964
 40
0.3428849191
 40
0.4058189744
 40
0.4715690206
 40
0.539991483
 40
0.6109518547
 40
0.6843348268
 40
0.7600293867
 40
0.8379356805
 40
0.9179567206
 40
1.0
 40
1.0
 40
1.0
 40
1.0
 10
10.9611998933
 20
7.9708569249
 30
0.0
 10
10.9622999297
 20
7.9714599363
 30
0.0
 10
10.9645295291
 20
7.9728024834
 30
0.0
 10
10.9678494562
 20
7.9750946257
 30
0.0
 10
10.9712558401
 20
7.9777109638
 30
0.0
 10
10.9747388056
 20
7.9806288893
 30
0.0
 10
10.9782919529
 20
7.9838278243
 30
0.0
 10
10.9819085679
 20
7.9872907442
 30
0.0
 10
10.9855841
 20
7.9910019097
 30
0.0
 10
10.9893145231
 20
7.9949476332
 30
0.0
 10
10.9930963343
 20
7.9991158405
 30
0.0
 10
10.9982834682
 20
8.0050460415
 30
0.0
 10
11.0048668656
 20
8.0129571765
 30
0.0
 10
11.0128303783
 20
8.023047312
 30
0.0
 10
11.0209664533
 20
8.0338162276
 30
0.0
 10
11.0292733421
 20
8.0452132542
 30
0.0
 10
11.0377518177
 20
8.0571938488
 30
0.0
 10
11.0464059628
 20
8.069717828
 30
0.0
 10
11.0552412923
 20
8.0827481873
 30
0.0
 10
11.0642652648
 20
8.0962505494
 30
0.0
 10
11.0734862828
 20
8.1101921769
 30
0.0
 10
11.08291374
 20
8.1245417353
 30
0.0
 10
11.0892660026
 20
8.1342422707
 30
0.0
 10
11.092481654
 20
8.1391531328
 30
0.0
  0
SPLINE
  5
38B
100
AcDbEntity
  8
0
100
AcDbSpline
 62
4
  6
CONTINUOUS
 70
0
 71
3
 72
277
 73
273
 74
0
 42
0.0000001
 43
0.0000001
 44
0.0000000001
 40
0.0
 40
0.0
 40
0.0
 40
0.0
 40
0.015625
 40
0.0234375
 40
0.03125
 40
0.0390625
 40
0.046875
 40
0.05078125
 40
0.0546875
 40
0.056640625
 40
0.05859375
 40
0.060546875
 40
0.0615234375
 40
0.0620117188
 40
0.0625
 40
0.0629882812
 40
0.0634765625
 40
0.064453125
 40
0.06640625
 40
0.068359375
 40
0.0703125
 40
0.07421875
 40
0.078125
 40
0.0859375
 40
0.09375
 40
0.1015625
 40
0.109375
 40
0.11328125
 40
0.1171875
 40
0.119140625
 40
0.12109375
 40
0.123046875
 40
0.1240234375
 40
0.1245117188
 40
0.125
 40
0.1254882812
 40
0.1259765625
 40
0.126953125
 40
0.12890625
 40
0.130859375
 40
0.1328125
 40
0.13671875
 40
0.140625
 40
0.1484375
 40
0.15625
 40
0.1640625
 40
0.171875
 40
0.17578125
 40
0.1796875
 40
0.181640625
 40
0.18359375
 40
0.185546875
 40
0.1865234375
 40
0.1870117188
 40
0.1875
 40
0.1879882812
 40
0.1884765625
 40
0.189453125
 40
0.19140625
 40
0.193359375
 40
0.1953125
 40
0.19921875
 40
0.203125
 40
0.2109375
 40
0.21875
 40
0.2265625
 40
0.234375
 40
0.23828125
 40
0.2421875
 40
0.24609375
 40
0.248046875
 40
0.2490234375
 40
0.25
 40
0.2509765625
 40
0.251953125
 40
0.25390625
 40
0.2578125
 40
0.26171875
 40
0.265625
 40
0.2734375
 40
0.28125
 40
0.2890625
 40
0.296875
 40
0.30078125
 40
0.3046875
 40
0.30859375
 40
0.310546875
 40
0.3115234375
 40
0.3125
 40
0.3134765625
 40
0.314453125
 40
0.31640625
 40
0.3203125
 40
0.32421875
 40
0.328125
 40
0.3359375
 40
0.34375
 40
0.3515625
 40
0.359375
 40
0.3671875
 40
0.37109375
 40
0.373046875
 40
0.375
 40
0.376953125
 40
0.37890625
 40
0.3828125
 40
0.390625
 40
0.3984375
 40
0.40625
 40
0.4140625
 40
0.421875
 40
0.4296875
 40
0.43359375
 40
0.435546875
 40
0.4375
 40
0.439453125
 40
0.44140625
 40
0.4453125
 40
0.453125
 40
0.4609375
 40
0.46875
 40
0.4765625
 40
0.484375
 40
0.48828125
 40
0.4921875
 40
0.49609375
 40
0.498046875
 40
0.4990234375
 40
0.5
 40
0.5009765625
 40
0.501953125
 40
0.50390625
 40
0.5078125
 40
0.51171875
 40
0.515625
 40
0.5234375
 40
0.53125
 40
0.5390625
 40
0.546875
 40
0.55078125
 40
0.5546875
 40
0.55859375
 40
0.560546875
 40
0.5615234375
 40
0.5625
 40
0.5634765625
 40
0.564453125
 40
0.56640625
 40
0.5703125
 40
0.57421875
 40
0.578125
 40
0.5859375
 40
0.59375
 40
0.6015625
 40
0.609375
 40
0.61328125
 40
0.6171875
 40
0.62109375
 40
0.623046875
 40
0.6240234375
 40
0.625
 40
0.6259765625
 40
0.626953125
 40
0.62890625
 40
0.6328125
 40
0.63671875
 40
0.640625
 40
0.6484375
 40
0.65625
 40
0.6640625
 40
0.671875
 40
0.67578125
 40
0.6796875
 40
0.681640625
 40
0.68359375
 40
0.685546875
 40
0.6865234375
 40
0.6870117188
 40
0.6875
 40
0.6879882812
 40
0.6884765625
 40
0.689453125
 40
0.69140625
 40
0.693359375
 40
0.6953125
 40
0.69921875
 40
0.703125
 40
0.7109375
 40
0.71875
 40
0.7265625
 40
0.734375
 40
0.73828125
 40
0.7421875
 40
0.744140625
 40
0.74609375
 40
0.748046875
 40
0.7490234375
 40
0.7495117188
 40
0.75
 40
0.7504882812
 40
0.7509765625
 40
0.751953125
 40
0.75390625
 40
0.755859375
 40
0.7578125
 40
0.76171875
 40
0.765625
 40
0.7734375
 40
0.78125
 40
0.7890625
 40
0.796875
 40
0.80078125
 40
0.8046875
 40
0.806640625
 40
0.80859375
 40
0.810546875
 40
0.8115234375
 40
0.8120117188
 40
0.8125
 40
0.8129882812
 40
0.8134765625
 40
0.814453125
 40
0.81640625
 40
0.818359375
 40
0.8203125
 40
0.82421875
 40
0.828125
 40
0.8359375
 40
0.84375
 40
0.8515625
 40
0.859375
 40
0.86328125
 40
0.8671875
 40
0.869140625
 40
0.87109375
 40
0.873046875
 40
0.8740234375
 40
0.8745117188
 40
0.875
 40
0.8754882812
 40
0.8759765625
 40
0.876953125
 40
0.87890625
 40
0.880859375
 40
0.8828125
 40
0.88671875
 40
0.890625
 40
0.8984375
 40
0.90625
 40
0.9140625
 40
0.921875
 40
0.92578125
 40
0.9296875
 40
0.931640625
 40
0.93359375
 40
0.935546875
 40
0.9365234375
 40
0.9370117188
 40
0.9375
 40
0.9379882812
 40
0.9384765625
 40
0.939453125
 40
0.94140625
 40
0.943359375
 40
0.9453125
 40
0.94921875
 40
0.953125
 40
0.9609375
 40
0.96875
 40
0.9765625
 40
0.984375
 40
1.0
 40
1.0
 40
1.0
 40
1.0
 10
13.2294432962
 20
9.3034422961
 30
0.0
 10
13.228603762
 20
9.3023241566
 30
0.0
 10
13.2273444608
 20
9.3006469477
 30
0.0
 10
13.2256653925
 20
9.2984106682
 30
0.0
 10
13.2244060911
 20
9.2967334609
 30
0.0
 10
13.2231467903
 20
9.2950562448
 30
0.0
 10
13.2220973714
 20
9.2936585922
 30
0.0
 10
13.2212578397
 20
9.2925404084
 30
0.0
 10
13.2207331245
 20
9.2918416841
 30
0.0
 10
13.2203133704
 20
9.2912823828
 30
0.0
 10
13.2199985055
 20
9.2908637882
 30
0.0
 10
13.2197362749
 20
9.2905121555
 30
0.0
 10
13.2195524058
 20
9.290271515
 30
0.0
 10
13.2194478182
 20
9.2901254146
 30
0.0
 10
13.219368024
 20
9.2900400421
 30
0.0
 10
13.2192934034
 20
9.289862154
 30
0.0
 10
13.2191921047
 20
9.2896572404
 30
0.0
 10
13.2190156727
 20
9.2892836062
 30
0.0
 10
13.2187631875
 20
9.2887577037
 30
0.0
 10
13.2184603933
 20
9.2881232561
 30
0.0
 10
13.2180566021
 20
9.2872785011
 30
0.0
 10
13.2175518856
 20
9.286222155
 30
0.0
 10
13.2167443265
 20
9.2845322262
 30
0.0
 10
13.2157348821
 20
9.2824197376
 30
0.0
 10
13.2145235466
 20
9.2798847865
 30
0.0
 10
13.2133122126
 20
9.2773498186
 30
0.0
 10
13.2123027645
 20
9.2752373719
 30
0.0
 10
13.2114952128
 20
9.2735473593
 30
0.0
 10
13.2109904776
 20
9.2724912262
 30
0.0
 10
13.2105867247
 20
9.2716460341
 30
0.0
 10
13.2102838134
 20
9.2710129221
 30
0.0
 10
13.2100316948
 20
9.2704828406
 30
0.0
 10
13.2098546082
 20
9.2701166666
 30
0.0
 10
13.2097543584
 20
9.2698997999
 30
0.0
 10
13.2096765158
 20
9.2697586281
 30
0.0
 10
13.2096088232
 20
9.2695353552
 30
0.0
 10
13.209515026
 20
9.2692662958
 30
0.0
 10
13.2093525304
 20
9.268782099
 30
0.0
 10
13.2091195314
 20
9.268097365
 30
0.0
 10
13.2088403018
 20
9.2672726983
 30
0.0
 10
13.2084678666
 20
9.2661741857
 30
0.0
 10
13.2080023669
 20
9.2648006878
 30
0.0
 10
13.2072575426
 20
9.2626032908
 30
0.0
 10
13.2063265209
 20
9.2598564757
 30
0.0
 10
13.2052092907
 20
9.2565603289
 30
0.0
 10
13.2040920628
 20
9.2532641669
 30
0.0
 10
13.2031610355
 20
9.2505173898
 30
0.0
 10
13.2024162223
 20
9.2483199167
 30
0.0
 10
13.2019506943
 20
9.2469466125
 30
0.0
 10
13.2015783172
 20
9.2458477023
 30
0.0
 10
13.2012989104
 20
9.2450242501
 30
0.0
 10
13.2010664658
 20
9.2443357165
 30
0.0
 10
13.2009029806
 20
9.2438583025
 30
0.0
 10
13.2008107689
 20
9.2435783753
 30
0.0
 10
13.2007382063
 20
9.2433884848
 30
0.0
 10
13.2006786546
 20
9.2431219342
 30
0.0
 10
13.200594714
 20
9.2427932733
 30
0.0
 10
13.2004499325
 20
9.242205658
 30
0.0
 10
13.2002419963
 20
9.2413727212
 30
0.0
 10
13.1999929461
 20
9.240370409
 30
0.0
 10
13.1996607138
 20
9.2390349665
 30
0.0
 10
13.19924548
 20
9.2373653299
 30
0.0
 10
13.1985810743
 20
9.2346940981
 30
0.0
 10
13.1977505791
 20
9.2313549917
 30
0.0
 10
13.1967539746
 20
9.2273481039
 30
0.0
 10
13.1957573922
 20
9.2233411634
 30
0.0
 10
13.1949268416
 20
9.2200021885
 30
0.0
 10
13.1942625468
 20
9.2173306938
 30
0.0
 10
13.193763928
 20
9.2153279318
 30
0.0
 10
13.1933496771
 20
9.213656231
 30
0.0
 10
13.1930572195
 20
9.212491403
 30
0.0
 10
13.1928939762
 20
9.2118174137
 30
0.0
 10
13.1927606268
 20
9.2113355094
 30
0.0
 10
13.1926690076
 20
9.2107634411
 30
0.0
 10
13.1925322926
 20
9.2100321337
 30
0.0
 10
13.1922998234
 20
9.2087376924
 30
0.0
 10
13.1919641788
 20
9.2068961514
 30
0.0
 10
13.1915629231
 20
9.2046830231
 30
0.0
 10
13.191027385
 20
9.2017333311
 30
0.0
 10
13.1903581457
 20
9.1980458209
 30
0.0
 10
13.1895549745
 20
9.1936209866
 30
0.0
 10
13.1887518464
 20
9.1891960731
 30
0.0
 10
13.1880824992
 20
9.1855087611
 30
0.0
 10
13.1875471769
 20
9.1825586727
 30
0.0
 10
13.1871452632
 20
9.1803467531
 30
0.0
 10
13.1868116768
 20
9.1785014308
 30
0.0
 10
13.1865755335
 20
9.1772137399
 30
0.0
 10
13.1864447054
 20
9.1764716165
 30
0.0
 10
13.1863350036
 20
9.1759327713
 30
0.0
 10
13.1862695695
 20
9.1753260871
 30
0.0
 10
13.1861668829
 20
9.1745408378
 30
0.0
 10
13.1859943758
 20
9.1731556266
 30
0.0
 10
13.1857441756
 20
9.1711825175
 30
0.0
 10
13.1854455459
 20
9.1688123191
 30
0.0
 10
13.1850468083
 20
9.1656529176
 30
0.0
 10
13.1845485946
 20
9.1617033611
 30
0.0
 10
13.1839505849
 20
9.1569640615
 30
0.0
 10
13.1833528552
 20
9.1522245765
 30
0.0
 10
13.1827541591
 20
9.1474856649
 30
0.0
 10
13.1822582334
 20
9.1435348151
 30
0.0
 10
13.181905234
 20
9.1407726586
 30
0.0
 10
13.1817126547
 20
9.1391889161
 30
0.0
 10
13.1815424881
 20
9.1380162289
 30
0.0
 10
13.181470683
 20
9.1367857467
 30
0.0
 10
13.1813406331
 20
9.1351652632
 30
0.0
 10
13.1811290321
 20
9.1323200243
 30
0.0
 10
13.1808183817
 20
9.1282603093
 30
0.0
 10
13.1804492049
 20
9.123386543
 30
0.0
 10
13.1800789946
 20
9.1185133508
 30
0.0
 10
13.1797093147
 20
9.1136399704
 30
0.0
 10
13.1793385464
 20
9.1087667689
 30
0.0
 10
13.179032759
 20
9.1047053282
 30
0.0
 10
13.178812493
 20
9.1018631642
 30
0.0
 10
13.1786963247
 20
9.1002377546
 30
0.0
 10
13.1785818803
 20
9.0990224037
 30
0.0
 10
13.1785718598
 20
9.0977928858
 30
0.0
 10
13.1785220749
 20
9.0961584702
 30
0.0
 10
13.1784519222
 20
9.0932959405
 30
0.0
 10
13.1783428297
 20
9.0892078157
 30
0.0
 10
13.1782157251
 20
9.0843015524
 30
0.0
 10
13.1780875938
 20
9.079395418
 30
0.0
 10
13.1779597632
 20
9.0744892817
 30
0.0
 10
13.1778530908
 20
9.0704007338
 30
0.0
 10
13.1777679551
 20
9.0671301387
 30
0.0
 10
13.1777035848
 20
9.0646765233
 30
0.0
 10
13.1776515869
 20
9.0626339727
 30
0.0
 10
13.1776119629
 20
9.0612000093
 30
0.0
 10
13.1775943567
 20
9.0603871252
 30
0.0
 10
13.1775669655
 20
9.059759085
 30
0.0
 10
13.1775938024
 20
9.0592012917
 30
0.0
 10
13.1776106695
 20
9.0584330643
 30
0.0
 10
13.1776490001
 20
9.0571000828
 30
0.0
 10
13.1776991504
 20
9.0551898549
 30
0.0
 10
13.177761303
 20
9.0529001363
 30
0.0
 10
13.177843484
 20
9.0498462852
 30
0.0
 10
13.1779464483
 20
9.0460292804
 30
0.0
 10
13.1780698969
 20
9.041448731
 30
0.0
 10
13.1781933989
 20
9.0368682616
 30
0.0
 10
13.1782962296
 20
9.0330510569
 30
0.0
 10
13.1783786777
 20
9.0299976055
 30
0.0
 10
13.1784400157
 20
9.0277066679
 30
0.0
 10
13.1784927145
 20
9.0258002534
 30
0.0
 10
13.1785264956
 20
9.0244604643
 30
0.0
 10
13.1785506521
 20
9.0237031444
 30
0.0
 10
13.1785550986
 20
9.0231118471
 30
0.0
 10
13.178611802
 20
9.0226096422
 30
0.0
 10
13.1786691787
 20
9.0219089592
 30
0.0
 10
13.1787780807
 20
9.0206972432
 30
0.0
 10
13.1789292148
 20
9.0189586504
 30
0.0
 10
13.1791124764
 20
9.0168755793
 30
0.0
 10
13.179356161
 20
9.0140970188
 30
0.0
 10
13.1796609961
 20
9.0106242103
 30
0.0
 10
13.1800266938
 20
9.0064566566
 30
0.0
 10
13.1803924424
 20
9.0022892095
 30
0.0
 10
13.1806971501
 20
8.9988161346
 30
0.0
 10
13.1809410894
 20
8.9960381069
 30
0.0
 10
13.1811235744
 20
8.9939534107
 30
0.0
 10
13.1812771379
 20
8.9922199019
 30
0.0
 10
13.1813817031
 20
8.9909991102
 30
0.0
 10
13.1814460285
 20
8.9903129687
 30
0.0
 10
13.1814813878
 20
8.9897660971
 30
0.0
 10
13.1815659991
 20
8.9893425606
 30
0.0
 10
13.1816616345
 20
8.9887348246
 30
0.0
 10
13.1818370007
 20
8.9876913307
 30
0.0
 10
13.1820833392
 20
8.9861901458
 30
0.0
 10
13.1823807366
 20
8.9843932094
 30
0.0
 10
13.1827766407
 20
8.9819957274
 30
0.0
 10
13.1832717357
 20
8.9789994129
 30
0.0
 10
13.183865757
 20
8.9754036031
 30
0.0
 10
13.1844598052
 20
8.9718078621
 30
0.0
 10
13.1849548327
 20
8.9688113757
 30
0.0
 10
13.1853508719
 20
8.9664142374
 30
0.0
 10
13.1855983598
 20
8.9649159168
 30
0.0
 10
13.1857964335
 20
8.9637175096
 30
0.0
 10
13.1859447609
 20
8.9628180217
 30
0.0
 10
13.1860690917
 20
8.9620706199
 30
0.0
 10
13.1861547012
 20
8.9615431771
 30
0.0
 10
13.1862058413
 20
8.9612484352
 30
0.0
 10
13.1862379417
 20
8.9610086343
 30
0.0
 10
13.1862939506
 20
8.9608404847
 30
0.0
 10
13.1863602895
 20
8.9605912924
 30
0.0
 10
13.1864802682
 20
8.9601668506
 30
0.0
 10
13.186649635
 20
8.9595544172
 30
0.0
 10
13.1868537446
 20
8.9588221029
 30
0.0
 10
13.187125587
 20
8.9578447737
 30
0.0
 10
13.1874654941
 20
8.9566234239
 30
0.0
 10
13.1880092872
 20
8.9546690899
 30
0.0
 10
13.1886890487
 20
8.9522262327
 30
0.0
 10
13.1895047535
 20
8.9492947759
 30
0.0
 10
13.1903204622
 20
8.9463633352
 30
0.0
 10
13.1910002137
 20
8.9439204381
 30
0.0
 10
13.1915440268
 20
8.9419661839
 30
0.0
 10
13.1918838833
 20
8.9407446311
 30
0.0
 10
13.1921558294
 20
8.9397677185
 30
0.0
 10
13.1923596224
 20
8.9390341314
 30
0.0
 10
13.1925299797
 20
8.9384256805
 30
0.0
 10
13.1926481901
 20
8.9379941292
 30
0.0
 10
13.1927173623
 20
8.937756328
 30
0.0
 10
13.1927646685
 20
8.9375531887
 30
0.0
 10
13.1928294547
 20
8.9374448034
 30
0.0
 10
13.192909739
 20
8.9372672383
 30
0.0
 10
13.1930530774
 20
8.9369718987
 30
0.0
 10
13.1932563613
 20
8.9365419341
 30
0.0
 10
13.1935009377
 20
8.9360294226
 30
0.0
 10
13.1938268176
 20
8.9353448703
 30
0.0
 10
13.1942342434
 20
8.934489592
 30
0.0
 10
13.1948860823
 20
8.9331209164
 30
0.0
 10
13.1957008955
 20
8.9314101515
 30
0.0
 10
13.1966786647
 20
8.9293571971
 30
0.0
 10
13.1976564371
 20
8.9273042611
 30
0.0
 10
13.1984712426
 20
8.9255934502
 30
0.0
 10
13.1991230969
 20
8.9242248666
 30
0.0
 10
13.1995304834
 20
8.9233693545
 30
0.0
 10
13.1998564441
 20
8.9226852821
 30
0.0
 10
13.2001007734
 20
8.9221713044
 30
0.0
 10
13.2003048303
 20
8.921745927
 30
0.0
 10
13.2004467889
 20
8.9214423985
 30
0.0
 10
13.2005292841
 20
8.9212779541
 30
0.0
 10
13.2005872791
 20
8.9211292664
 30
0.0
 10
13.2006600915
 20
8.921077496
 30
0.0
 10
13.2007520063
 20
8.920974663
 30
0.0
 10
13.2009152652
 20
8.920810456
 30
0.0
 10
13.2011472332
 20
8.9205676398
 30
0.0
 10
13.2014261337
 20
8.9202797851
 30
0.0
 10
13.2017978129
 20
8.9198947478
 30
0.0
 10
13.2022624762
 20
8.9194138727
 30
0.0
 10
13.2030059016
 20
8.9186442368
 30
0.0
 10
13.2039351957
 20
8.9176822734
 30
0.0
 10
13.2050503431
 20
8.9165278799
 30
0.0
 10
13.2061654928
 20
8.9153735055
 30
0.0
 10
13.2070947809
 20
8.9144114944
 30
0.0
 10
13.2078382183
 20
8.9136419539
 30
0.0
 10
13.2083028511
 20
8.9131608365
 30
0.0
 10
13.208674593
 20
8.9127762963
 30
0.0
 10
13.2089533018
 20
8.9124869227
 30
0.0
 10
13.2091858694
 20
8.912248859
 30
0.0
 10
13.209348058
 20
8.9120761681
 30
0.0
 10
13.2094416877
 20
8.9119869284
 30
0.0
 10
13.2095092322
 20
8.9118934036
 30
0.0
 10
13.2095870127
 20
8.9119015386
 30
0.0
 10
13.2096871496
 20
8.9118769252
 30
0.0
 10
13.2098640526
 20
8.9118503733
 30
0.0
 10
13.2101159016
 20
8.9118038043
 30
0.0
 10
13.2104184926
 20
8.9117516187
 30
0.0
 10
13.2108218173
 20
8.9116807466
 30
0.0
 10
13.2113260176
 20
8.9115925986
 30
0.0
 10
13.2121327133
 20
8.9114513147
 30
0.0
 10
13.2131410914
 20
8.9112747951
 30
0.0
 10
13.2143511414
 20
8.9110629326
 30
0.0
 10
13.215561193
 20
8.9108510898
 30
0.0
 10
13.2165695669
 20
8.9106745207
 30
0.0
 10
13.2173762711
 20
8.9105333359
 30
0.0
 10
13.2178804496
 20
8.9104449359
 30
0.0
 10
13.2182838192
 20
8.9103745809
 30
0.0
 10
13.2185862729
 20
8.9103208156
 30
0.0
 10
13.2188385513
 20
8.9102791894
 30
0.0
 10
13.2190146878
 20
8.9102438137
 30
0.0
 10
13.2191160529
 20
8.9102333382
 30
0.0
 10
13.2191900608
 20
8.9101980461
 30
0.0
 10
13.2192717745
 20
8.9102676262
 30
0.0
 10
13.2193780382
 20
8.9103238191
 30
0.0
 10
13.219565252
 20
8.9104392002
 30
0.0
 10
13.2198320456
 20
8.9105951198
 30
0.0
 10
13.2201524781
 20
8.9107860373
 30
0.0
 10
13.2205796237
 20
8.9110392618
 30
0.0
 10
13.2211135891
 20
8.9113562486
 30
0.0
 10
13.221967915
 20
8.9118631725
 30
0.0
 10
13.2230358289
 20
8.9124969149
 30
0.0
 10
13.2243173228
 20
8.9132573682
 30
0.0
 10
13.2255988174
 20
8.9140178316
 30
0.0
 10
13.2273074766
 20
8.9150317793
 30
0.0
 10
13.2285889711
 20
8.9157922408
 30
0.0
 10
13.2294433007
 20
8.916299215
 30
0.0
  0
SPLINE
  5
38C
100
AcDbEntity
  8
0
100
AcDbSpline
 62
4
  6
CONTINUOUS
 70
0
 71
3
 72
277
 73
273
 74
0
 42
0.0000001
 43
0.0000001
 44
0.0000000001
 40
0.0
 40
0.0
 40
0.0
 40
0.0
 40
0.015625
 40
0.0234375
 40
0.03125
 40
0.0390625
 40
0.046875
 40
0.05078125
 40
0.0546875
 40
0.056640625
 40
0.05859375
 40
0.060546875
 40
0.0615234375
 40
0.0620117188
 40
0.0625
 40
0.0629882812
 40
0.0634765625
 40
0.064453125
 40
0.06640625
 40
0.068359375
 40
0.0703125
 40
0.07421875
 40
0.078125
 40
0.0859375
 40
0.09375
 40
0.1015625
 40
0.109375
 40
0.11328125
 40
0.1171875
 40
0.119140625
 40
0.12109375
 40
0.123046875
 40
0.1240234375
 40
0.1245117188
 40
0.125
 40
0.1254882812
 40
0.1259765625
 40
0.126953125
 40
0.12890625
 40
0.130859375
 40
0.1328125
 40
0.13671875
 40
0.140625
 40
0.1484375
 40
0.15625
 40
0.1640625
 40
0.171875
 40
0.17578125
 40
0.1796875
 40
0.181640625
 40
0.18359375
 40
0.185546875
 40
0.1865234375
 40
0.1870117188
 40
0.1875
 40
0.1879882812
 40
0.1884765625
 40
0.189453125
 40
0.19140625
 40
0.193359375
 40
0.1953125
 40
0.19921875
 40
0.203125
 40
0.2109375
 40
0.21875
 40
0.2265625
 40
0.234375
 40
0.23828125
 40
0.2421875
 40
0.24609375
 40
0.248046875
 40
0.2490234375
 40
0.25
 40
0.2509765625
 40
0.251953125
 40
0.25390625
 40
0.2578125
 40
0.26171875
 40
0.265625
 40
0.2734375
 40
0.28125
 40
0.2890625
 40
0.296875
 40
0.30078125
 40
0.3046875
 40
0.30859375
 40
0.310546875
 40
0.3115234375
 40
0.3125
 40
0.3134765625
 40
0.314453125
 40
0.31640625
 40
0.3203125
 40
0.32421875
 40
0.328125
 40
0.3359375
 40
0.34375
 40
0.3515625
 40
0.359375
 40
0.3671875
 40
0.37109375
 40
0.373046875
 40
0.375
 40
0.376953125
 40
0.37890625
 40
0.3828125
 40
0.390625
 40
0.3984375
 40
0.40625
 40
0.4140625
 40
0.421875
 40
0.4296875
 40
0.43359375
 40
0.435546875
 40
0.4375
 40
0.439453125
 40
0.44140625
 40
0.4453125
 40
0.453125
 40
0.4609375
 40
0.46875
 40
0.4765625
 40
0.484375
 40
0.48828125
 40
0.4921875
 40
0.49609375
 40
0.498046875
 40
0.4990234375
 40
0.5
 40
0.5009765625
 40
0.501953125
 40
0.50390625
 40
0.5078125
 40
0.51171875
 40
0.515625
 40
0.5234375
 40
0.53125
 40
0.5390625
 40
0.546875
 40
0.55078125
 40
0.5546875
 40
0.55859375
 40
0.560546875
 40
0.5615234375
 40
0.5625
 40
0.5634765625
 40
0.564453125
 40
0.56640625
 40
0.5703125
 40
0.57421875
 40
0.578125
 40
0.5859375
 40
0.59375
 40
0.6015625
 40
0.609375
 40
0.61328125
 40
0.6171875
 40
0.62109375
 40
0.623046875
 40
0.6240234375
 40
0.625
 40
0.6259765625
 40
0.626953125
 40
0.62890625
 40
0.6328125
 40
0.63671875
 40
0.640625
 40
0.6484375
 40
0.65625
 40
0.6640625
 40
0.671875
 40
0.67578125
 40
0.6796875
 40
0.681640625
 40
0.68359375
 40
0.685546875
 40
0.6865234375
 40
0.6870117188
 40
0.6875
 40
0.6879882812
 40
0.6884765625
 40
0.689453125
 40
0.69140625
 40
0.693359375
 40
0.6953125
 40
0.69921875
 40
0.703125
 40
0.7109375
 40
0.71875
 40
0.7265625
 40
0.734375
 40
0.73828125
 40
0.7421875
 40
0.744140625
 40
0.74609375
 40
0.748046875
 40
0.7490234375
 40
0.7495117188
 40
0.75
 40
0.7504882812
 40
0.7509765625
 40
0.751953125
 40
0.75390625
 40
0.755859375
 40
0.7578125
 40
0.76171875
 40
0.765625
 40
0.7734375
 40
0.78125
 40
0.7890625
 40
0.796875
 40
0.80078125
 40
0.8046875
 40
0.806640625
 40
0.80859375
 40
0.810546875
 40
0.8115234375
 40
0.8120117188
 40
0.8125
 40
0.8129882812
 40
0.8134765625
 40
0.814453125
 40
0.81640625
 40
0.818359375
 40
0.8203125
 40
0.82421875
 40
0.828125
 40
0.8359375
 40
0.84375
 40
0.8515625
 40
0.859375
 40
0.86328125
 40
0.8671875
 40
0.869140625
 40
0.87109375
 40
0.873046875
 40
0.8740234375
 40
0.8745117188
 40
0.875
 40
0.8754882812
 40
0.8759765625
 40
0.876953125
 40
0.87890625
 40
0.880859375
 40
0.8828125
 40
0.88671875
 40
0.890625
 40
0.8984375
 40
0.90625
 40
0.9140625
 40
0.921875
 40
0.92578125
 40
0.9296875
 40
0.931640625
 40
0.93359375
 40
0.935546875
 40
0.9365234375
 40
0.9370117188
 40
0.9375
 40
0.9379882812
 40
0.9384765625
 40
0.939453125
 40
0.94140625
 40
0.943359375
 40
0.9453125
 40
0.94921875
 40
0.953125
 40
0.9609375
 40
0.96875
 40
0.9765625
 40
0.984375
 40
1.0
 40
1.0
 40
1.0
 40
1.0
 10
13.2294432962
 20
8.9162992106
 30
0.0
 10
13.2302828304
 20
8.9174173501
 30
0.0
 10
13.2315421316
 20
8.919094559
 30
0.0
 10
13.2332211999
 20
8.9213308385
 30
0.0
 10
13.2344805012
 20
8.9230080458
 30
0.0
 10
13.2357398021
 20
8.9246852619
 30
0.0
 10
13.236789221
 20
8.9260829145
 30
0.0
 10
13.2376287527
 20
8.9272010983
 30
0.0
 10
13.2381534679
 20
8.9278998226
 30
0.0
 10
13.238573222
 20
8.9284591239
 30
0.0
 10
13.2388880869
 20
8.9288777186
 30
0.0
 10
13.2391503175
 20
8.9292293513
 30
0.0
 10
13.2393341866
 20
8.9294699917
 30
0.0
 10
13.2394387742
 20
8.9296160921
 30
0.0
 10
13.2395185684
 20
8.9297014647
 30
0.0
 10
13.239593189
 20
8.9298793527
 30
0.0
 10
13.2396944877
 20
8.9300842663
 30
0.0
 10
13.2398709197
 20
8.9304579005
 30
0.0
 10
13.2401234049
 20
8.930983803
 30
0.0
 10
13.2404261991
 20
8.9316182506
 30
0.0
 10
13.2408299903
 20
8.9324630056
 30
0.0
 10
13.2413347068
 20
8.9335193517
 30
0.0
 10
13.2421422659
 20
8.9352092805
 30
0.0
 10
13.2431517103
 20
8.9373217691
 30
0.0
 10
13.2443630458
 20
8.9398567202
 30
0.0
 10
13.2455743798
 20
8.9423916881
 30
0.0
 10
13.2465838279
 20
8.9445041348
 30
0.0
 10
13.2473913796
 20
8.9461941474
 30
0.0
 10
13.2478961148
 20
8.9472502805
 30
0.0
 10
13.2482998677
 20
8.9480954726
 30
0.0
 10
13.248602779
 20
8.9487285846
 30
0.0
 10
13.2488548975
 20
8.9492586661
 30
0.0
 10
13.2490319842
 20
8.9496248401
 30
0.0
 10
13.2491322339
 20
8.9498417068
 30
0.0
 10
13.2492100766
 20
8.9499828786
 30
0.0
 10
13.2492777692
 20
8.9502061515
 30
0.0
 10
13.2493715664
 20
8.9504752109
 30
0.0
 10
13.249534062
 20
8.9509594078
 30
0.0
 10
13.249767061
 20
8.9516441417
 30
0.0
 10
13.2500462906
 20
8.9524688084
 30
0.0
 10
13.2504187257
 20
8.953567321
 30
0.0
 10
13.2508842255
 20
8.9549408189
 30
0.0
 10
13.2516290497
 20
8.9571382159
 30
0.0
 10
13.2525600715
 20
8.959885031
 30
0.0
 10
13.2536773017
 20
8.9631811778
 30
0.0
 10
13.2547945296
 20
8.9664773398
 30
0.0
 10
13.2557255569
 20
8.9692241169
 30
0.0
 10
13.2564703701
 20
8.97142159
 30
0.0
 10
13.256935898
 20
8.9727948943
 30
0.0
 10
13.2573082752
 20
8.9738938044
 30
0.0
 10
13.257587682
 20
8.9747172566
 30
0.0
 10
13.2578201266
 20
8.9754057902
 30
0.0
 10
13.2579836118
 20
8.9758832042
 30
0.0
 10
13.2580758235
 20
8.9761631314
 30
0.0
 10
13.2581483861
 20
8.9763530219
 30
0.0
 10
13.2582079378
 20
8.9766195725
 30
0.0
 10
13.2582918784
 20
8.9769482334
 30
0.0
 10
13.2584366599
 20
8.9775358487
 30
0.0
 10
13.2586445961
 20
8.9783687855
 30
0.0
 10
13.2588936463
 20
8.9793710977
 30
0.0
 10
13.2592258786
 20
8.9807065402
 30
0.0
 10
13.2596411123
 20
8.9823761768
 30
0.0
 10
13.2603055181
 20
8.9850474086
 30
0.0
 10
13.2611360133
 20
8.988386515
 30
0.0
 10
13.2621326178
 20
8.9923934028
 30
0.0
 10
13.2631292002
 20
8.9964003433
 30
0.0
 10
13.2639597507
 20
8.9997393182
 30
0.0
 10
13.2646240456
 20
9.002410813
 30
0.0
 10
13.2651226644
 20
9.0044135749
 30
0.0
 10
13.2655369153
 20
9.0060852757
 30
0.0
 10
13.2658293729
 20
9.0072501037
 30
0.0
 10
13.2659926162
 20
9.007924093
 30
0.0
 10
13.2661259656
 20
9.0084059973
 30
0.0
 10
13.2662175848
 20
9.0089780656
 30
0.0
 10
13.2663542998
 20
9.009709373
 30
0.0
 10
13.266586769
 20
9.0110038143
 30
0.0
 10
13.2669224136
 20
9.0128453553
 30
0.0
 10
13.2673236693
 20
9.0150584836
 30
0.0
 10
13.2678592074
 20
9.0180081756
 30
0.0
 10
13.2685284467
 20
9.0216956858
 30
0.0
 10
13.2693316179
 20
9.0261205201
 30
0.0
 10
13.270134746
 20
9.0305454337
 30
0.0
 10
13.2708040932
 20
9.0342327456
 30
0.0
 10
13.2713394155
 20
9.037182834
 30
0.0
 10
13.2717413292
 20
9.0393947536
 30
0.0
 10
13.2720749156
 20
9.041240076
 30
0.0
 10
13.2723110589
 20
9.0425277668
 30
0.0
 10
13.272441887
 20
9.0432698902
 30
0.0
 10
13.2725515888
 20
9.0438087355
 30
0.0
 10
13.2726170229
 20
9.0444154196
 30
0.0
 10
13.2727197095
 20
9.0452006689
 30
0.0
 10
13.2728922166
 20
9.0465858801
 30
0.0
 10
13.2731424168
 20
9.0485589892
 30
0.0
 10
13.2734410465
 20
9.0509291876
 30
0.0
 10
13.2738397841
 20
9.0540885891
 30
0.0
 10
13.2743379978
 20
9.0580381456
 30
0.0
 10
13.2749360074
 20
9.0627774452
 30
0.0
 10
13.2755337372
 20
9.0675169302
 30
0.0
 10
13.2761324333
 20
9.0722558418
 30
0.0
 10
13.276628359
 20
9.0762066917
 30
0.0
 10
13.2769813584
 20
9.0789688481
 30
0.0
 10
13.2771739377
 20
9.0805525906
 30
0.0
 10
13.2773441043
 20
9.0817252778
 30
0.0
 10
13.2774159094
 20
9.0829557601
 30
0.0
 10
13.2775459593
 20
9.0845762435
 30
0.0
 10
13.2777575603
 20
9.0874214824
 30
0.0
 10
13.2780682107
 20
9.0914811974
 30
0.0
 10
13.2784373875
 20
9.0963549637
 30
0.0
 10
13.2788075978
 20
9.1012281559
 30
0.0
 10
13.2791772777
 20
9.1061015363
 30
0.0
 10
13.279548046
 20
9.1109747378
 30
0.0
 10
13.2798538334
 20
9.1150361785
 30
0.0
 10
13.2800740994
 20
9.1178783425
 30
0.0
 10
13.2801902677
 20
9.1195037521
 30
0.0
 10
13.2803047121
 20
9.120719103
 30
0.0
 10
13.2803147326
 20
9.1219486209
 30
0.0
 10
13.2803645175
 20
9.1235830366
 30
0.0
 10
13.2804346702
 20
9.1264455662
 30
0.0
 10
13.2805437627
 20
9.130533691
 30
0.0
 10
13.2806708673
 20
9.1354399543
 30
0.0
 10
13.2807989986
 20
9.1403460887
 30
0.0
 10
13.2809268292
 20
9.145252225
 30
0.0
 10
13.2810335016
 20
9.1493407729
 30
0.0
 10
13.2811186373
 20
9.152611368
 30
0.0
 10
13.2811830076
 20
9.1550649834
 30
0.0
 10
13.2812350055
 20
9.157107534
 30
0.0
 10
13.2812746295
 20
9.1585414974
 30
0.0
 10
13.2812922357
 20
9.1593543815
 30
0.0
 10
13.2813196269
 20
9.1599824217
 30
0.0
 10
13.28129279
 20
9.160540215
 30
0.0
 10
13.2812759229
 20
9.1613084424
 30
0.0
 10
13.2812375923
 20
9.1626414239
 30
0.0
 10
13.281187442
 20
9.1645516518
 30
0.0
 10
13.2811252894
 20
9.1668413705
 30
0.0
 10
13.2810431083
 20
9.1698952215
 30
0.0
 10
13.2809401441
 20
9.1737122263
 30
0.0
 10
13.2808166955
 20
9.1782927757
 30
0.0
 10
13.2806931935
 20
9.1828732452
 30
0.0
 10
13.2805903628
 20
9.1866904498
 30
0.0
 10
13.2805079147
 20
9.1897439012
 30
0.0
 10
13.2804465767
 20
9.1920348388
 30
0.0
 10
13.2803938779
 20
9.1939412533
 30
0.0
 10
13.2803600968
 20
9.1952810424
 30
0.0
 10
13.2803359403
 20
9.1960383623
 30
0.0
 10
13.2803314938
 20
9.1966296596
 30
0.0
 10
13.2802747904
 20
9.1971318645
 30
0.0
 10
13.2802174137
 20
9.1978325475
 30
0.0
 10
13.2801085117
 20
9.1990442635
 30
0.0
 10
13.2799573775
 20
9.2007828563
 30
0.0
 10
13.279774116
 20
9.2028659274
 30
0.0
 10
13.2795304314
 20
9.2056444879
 30
0.0
 10
13.2792255963
 20
9.2091172964
 30
0.0
 10
13.2788598986
 20
9.2132848501
 30
0.0
 10
13.27849415
 20
9.2174522972
 30
0.0
 10
13.2781894422
 20
9.2209253722
 30
0.0
 10
13.277945503
 20
9.2237033998
 30
0.0
 10
13.277763018
 20
9.225788096
 30
0.0
 10
13.2776094545
 20
9.2275216048
 30
0.0
 10
13.2775048893
 20
9.2287423965
 30
0.0
 10
13.2774405639
 20
9.229428538
 30
0.0
 10
13.2774052046
 20
9.2299754096
 30
0.0
 10
13.2773205933
 20
9.2303989461
 30
0.0
 10
13.2772249579
 20
9.2310066821
 30
0.0
 10
13.2770495917
 20
9.2320501761
 30
0.0
 10
13.2768032532
 20
9.2335513609
 30
0.0
 10
13.2765058558
 20
9.2353482973
 30
0.0
 10
13.2761099517
 20
9.2377457793
 30
0.0
 10
13.2756148567
 20
9.2407420938
 30
0.0
 10
13.2750208354
 20
9.2443379036
 30
0.0
 10
13.2744267871
 20
9.2479336446
 30
0.0
 10
13.2739317597
 20
9.250930131
 30
0.0
 10
13.2735357205
 20
9.2533272693
 30
0.0
 10
13.2732882325
 20
9.2548255899
 30
0.0
 10
13.2730901589
 20
9.2560239971
 30
0.0
 10
13.2729418315
 20
9.256923485
 30
0.0
 10
13.2728175007
 20
9.2576708868
 30
0.0
 10
13.2727318912
 20
9.2581983296
 30
0.0
 10
13.2726807511
 20
9.2584930715
 30
0.0
 10
13.2726486507
 20
9.2587328724
 30
0.0
 10
13.2725926418
 20
9.258901022
 30
0.0
 10
13.2725263029
 20
9.2591502143
 30
0.0
 10
13.2724063242
 20
9.2595746561
 30
0.0
 10
13.2722369574
 20
9.2601870895
 30
0.0
 10
13.2720328478
 20
9.2609194038
 30
0.0
 10
13.2717610054
 20
9.261896733
 30
0.0
 10
13.2714210983
 20
9.2631180828
 30
0.0
 10
13.2708773052
 20
9.2650724168
 30
0.0
 10
13.2701975437
 20
9.267515274
 30
0.0
 10
13.2693818389
 20
9.2704467308
 30
0.0
 10
13.2685661302
 20
9.2733781715
 30
0.0
 10
13.2678863786
 20
9.2758210687
 30
0.0
 10
13.2673425656
 20
9.2777753228
 30
0.0
 10
13.2670027091
 20
9.2789968756
 30
0.0
 10
13.266730763
 20
9.2799737882
 30
0.0
 10
13.26652697
 20
9.2807073753
 30
0.0
 10
13.2663566127
 20
9.2813158262
 30
0.0
 10
13.2662384022
 20
9.2817473775
 30
0.0
 10
13.2661692301
 20
9.2819851787
 30
0.0
 10
13.2661219239
 20
9.282188318
 30
0.0
 10
13.2660571377
 20
9.2822967033
 30
0.0
 10
13.2659768534
 20
9.2824742684
 30
0.0
 10
13.265833515
 20
9.282769608
 30
0.0
 10
13.2656302311
 20
9.2831995726
 30
0.0
 10
13.2653856547
 20
9.2837120841
 30
0.0
 10
13.2650597748
 20
9.2843966364
 30
0.0
 10
13.264652349
 20
9.2852519147
 30
0.0
 10
13.2640005101
 20
9.2866205903
 30
0.0
 10
13.2631856969
 20
9.2883313553
 30
0.0
 10
13.2622079276
 20
9.2903843096
 30
0.0
 10
13.2612301553
 20
9.2924372456
 30
0.0
 10
13.2604153498
 20
9.2941480565
 30
0.0
 10
13.2597634955
 20
9.2955166401
 30
0.0
 10
13.259356109
 20
9.2963721522
 30
0.0
 10
13.2590301483
 20
9.2970562246
 30
0.0
 10
13.2587858189
 20
9.2975702023
 30
0.0
 10
13.2585817621
 20
9.2979955797
 30
0.0
 10
13.2584398035
 20
9.2982991082
 30
0.0
 10
13.2583573083
 20
9.2984635526
 30
0.0
 10
13.2582993133
 20
9.2986122403
 30
0.0
 10
13.2582265008
 20
9.2986640107
 30
0.0
 10
13.2581345861
 20
9.2987668437
 30
0.0
 10
13.2579713272
 20
9.2989310507
 30
0.0
 10
13.2577393592
 20
9.2991738669
 30
0.0
 10
13.2574604587
 20
9.2994617216
 30
0.0
 10
13.2570887795
 20
9.2998467589
 30
0.0
 10
13.2566241162
 20
9.300327634
 30
0.0
 10
13.2558806908
 20
9.3010972699
 30
0.0
 10
13.2549513967
 20
9.3020592334
 30
0.0
 10
13.2538362493
 20
9.3032136268
 30
0.0
 10
13.2527210996
 20
9.3043680012
 30
0.0
 10
13.2517918115
 20
9.3053300123
 30
0.0
 10
13.2510483741
 20
9.3060995529
 30
0.0
 10
13.2505837413
 20
9.3065806702
 30
0.0
 10
13.2502119994
 20
9.3069652104
 30
0.0
 10
13.2499332906
 20
9.307254584
 30
0.0
 10
13.2497007229
 20
9.3074926477
 30
0.0
 10
13.2495385344
 20
9.3076653386
 30
0.0
 10
13.2494449047
 20
9.3077545783
 30
0.0
 10
13.2493773602
 20
9.3078481031
 30
0.0
 10
13.2492995797
 20
9.3078399681
 30
0.0
 10
13.2491994428
 20
9.3078645815
 30
0.0
 10
13.2490225397
 20
9.3078911334
 30
0.0
 10
13.2487706908
 20
9.3079377024
 30
0.0
 10
13.2484680998
 20
9.307989888
 30
0.0
 10
13.2480647751
 20
9.3080607601
 30
0.0
 10
13.2475605748
 20
9.3081489081
 30
0.0
 10
13.2467538791
 20
9.308290192
 30
0.0
 10
13.245745501
 20
9.3084667116
 30
0.0
 10
13.244535451
 20
9.3086785742
 30
0.0
 10
13.2433253994
 20
9.3088904169
 30
0.0
 10
13.2423170255
 20
9.309066986
 30
0.0
 10
13.2415103213
 20
9.3092081709
 30
0.0
 10
13.2410061428
 20
9.3092965708
 30
0.0
 10
13.2406027732
 20
9.3093669258
 30
0.0
 10
13.2403003195
 20
9.3094206912
 30
0.0
 10
13.2400480411
 20
9.3094623173
 30
0.0
 10
13.2398719046
 20
9.309497693
 30
0.0
 10
13.2397705395
 20
9.3095081685
 30
0.0
 10
13.2396965316
 20
9.3095434606
 30
0.0
 10
13.2396148179
 20
9.3094738805
 30
0.0
 10
13.2395085542
 20
9.3094176876
 30
0.0
 10
13.2393213404
 20
9.3093023065
 30
0.0
 10
13.2390545468
 20
9.3091463869
 30
0.0
 10
13.2387341142
 20
9.3089554694
 30
0.0
 10
13.2383069687
 20
9.3087022449
 30
0.0
 10
13.2377730033
 20
9.3083852581
 30
0.0
 10
13.2369186773
 20
9.3078783342
 30
0.0
 10
13.2358507635
 20
9.3072445918
 30
0.0
 10
13.2345692696
 20
9.3064841385
 30
0.0
 10
13.233287775
 20
9.3057236751
 30
0.0
 10
13.2315791158
 20
9.3047097274
 30
0.0
 10
13.2302976213
 20
9.3039492659
 30
0.0
 10
13.2294432917
 20
9.3034422917
 30
0.0
  0
ENDSEC
  0
SECTION
  2
OBJECTS
  0
DICTIONARY
  5
C
100
AcDbDictionary
280
0
281
1
  3
ACAD_GROUP
350
D
  3
ACAD_MLINESTYLE
350
17
  3
ACAD_LAYOUT
350
1A
  3
ACAD_PLOTSETTINGS
350
19
  3
ACAD_PLOTSTYLENAME
350
E
  3
ACAD_IMAGE_DICT
350
       38E
  3
ACAD_IMAGE_VARS
350
       38F
  3
ACAD_TABLESTYLE
350
       390
  0
IMAGEDEF_REACTOR
  5
38D
100
AcDbRasterImageDefReactor
 90
2
330
28A
  0
DICTIONARY
  5
D
102
{ACAD_REACTORS
330
C
102
}
100
AcDbDictionary
280
0
281
1
  0
ACDBDICTIONARYWDFLT
  5
E
102
{ACAD_REACTORS
330
C
102
}
100
AcDbDictionary
281
1
  3
Normal
350
F
100
AcDbDictionaryWithDefault
340
F
  0
DICTIONARY
  5
38E
330
C
100
AcDbDictionary
281
1
  3
YVT_assy_2_img_1
350
       393
  0
RASTERVARIABLES
  5
38F
330
C
100
AcDbRasterVariables
 90
0
 70
0
 71
1
 72
5
  0
DICTIONARY
  5
17
102
{ACAD_REACTORS
330
C
102
}
100
AcDbDictionary
280
0
281
1
  3
Standard
350
18
  0
DICTIONARY
  5
390
330
C
100
AcDbDictionary
281
1
  3
Standard
350
       394
  3
Standard1
350
       395
  0
DICTIONARY
  5
19
102
{ACAD_REACTORS
330
C
102
}
100
AcDbDictionary
281
1
  0
DICTIONARY
  5
1A
102
{ACAD_REACTORS
330
C
102
}
100
AcDbDictionary
281
1
  3
Model
350
391
  3
Layout1
350
392
  0
ACDBPLACEHOLDER
  5
F
102
{ACAD_REACTORS
330
E
102
}
  0
MLINESTYLE
  5
18
102
{ACAD_REACTORS
330
17
102
}
100
AcDbMlineStyle
  2
STANDARD
 70
0
  3

 62
256
 51
90.0
 52
90.0
 71
2
 49
0.5
 62
256
  6
BYLAYER
 49
-0.5
 62
256
  6
BYLAYER
  0
LAYOUT
  5
391
102
{ACAD_REACTORS
330
1A
102
}
100
AcDbPlotSettings
  1

  2
none_device
  4
ANSI_C_(22.00_x_17.00_Inches)
  6

 40
0.0
 41
0.0
 42
0.0
 43
0.0
 44
558.8
 45
431.8
 46
0.0
 47
0.0
 48
0.0
 49
0.0
140
0.0
141
0.0
142
1.0
143
1.0
 70
1024
 72
0
 73
0
 74
0
  7

 75
0
147
1.0
148
0.0
149
0.0
100
AcDbLayout
  1
Model
 70
0
 71
0
 10
0.0
 20
0.0
 11
22.0
 21
17.0
 12
0.0
 22
0.0
 32
0.0
 14
0.0
 24
0.0
 34
0.0
 15
0.0
 25
0.0
 35
0.0
146
0.0
 13
0.0
 23
0.0
 33
0.0
 16
1.0
 26
0.0
 36
0.0
 17
0.0
 27
1.0
 37
0.0
 76
0
330
207
345
0
346
0
  0
LAYOUT
  5
392
102
{ACAD_REACTORS
330
1A
102
}
100
AcDbPlotSettings
  1

  2
none_device
  4
ANSI_C_(22.00_x_17.00_Inches)
  6

 40
0.0
 41
0.0
 42
0.0
 43
0.0
 44
558.8
 45
431.8
 46
0.0
 47
0.0
 48
0.0
 49
0.0
140
0.0
141
0.0
142
1.0
143
1.0
 70
0
 72
0
 73
0
 74
0
  7

 75
0
147
1.0
148
0.0
149
0.0
100
AcDbLayout
  1
Layout1
 70
0
 71
1
 10
0.0
 20
0.0
 11
22.0
 21
17.0
 12
0.0
 22
0.0
 32
0.0
 14
0.0
 24
0.0
 34
0.0
 15
0.0
 25
0.0
 35
0.0
146
0.0
 13
0.0
 23
0.0
 33
0.0
 16
1.0
 26
0.0
 36
0.0
 17
0.0
 27
1.0
 37
0.0
 76
0
330
208
345
0
346
0
  0
IMAGEDEF
  5
393
102
{ACAD_REACTORS
330
38E
330
38D
102
}
100
AcDbRasterImageDef
 90
0
  1
YVT_assy_2_img_1.png
 10
369.0
 20
92.0
 11
0.0066666667
 21
0.0066666667
280
1
281
0
  0
TABLESTYLE
  5
394
102
{ACAD_REACTORS
330
390
330
28D
330
28E
102
}
330
390
100
AcDbTableStyle
  3
Standard
 70
0
 71
0
 40
0.06
 41
0.06
280
1
281
1
  7
Standard
140
0.18
170
1
 62
0
 63
7
283
0
  7
Standard
140
0.18
170
1
 62
0
 63
7
283
0
  7
Standard
140
0.18
170
1
 62
0
 63
7
283
0
  0
TABLESTYLE
  5
395
102
{ACAD_REACTORS
330
390
330
28C
102
}
330
390
100
AcDbTableStyle
  3
Standard1
 70
1
 71
0
 40
0.06
 41
0.06
280
1
281
1
  7
Standard
140
0.18
170
1
 62
0
 63
7
283
0
  7
Standard
140
0.18
170
1
 62
0
 63
7
283
0
  7
Standard
140
0.18
170
1
 62
0
 63
7
283
0
  0
ENDSEC
  0
EOF
