999
DXF file: YVS_assy_2.dxf
999
Pro/ENGINEER 2014200 by Parametric Technology Corporation
  0
SECTION
  2
HEADER
  9
$ACADVER
  1
AC1021
  9
$DWGCODEPAGE
  3
ANSI_1252
  9
$EXTMAX
 10
22.0
 20
17.0
 30
0.0
  9
$EXTMIN
 10
0.0
 20
0.0
 30
0.0
  9
$LIMMIN
 10
0.0
 20
0.0
  9
$LIMMAX
 10
22.0
 20
17.0
  9
$VIEWCTR
 10
11.0
 20
8.5
  9
$VIEWSIZE
 40
17.0
  9
$CLAYER
  8
0
  9
$LTSCALE
 40
1.21
  9
$CELTYPE
  6
BYLAYER
  9
$DIMSCALE
 40
1.0
  9
$DIMASZ
 40
0.1875
  9
$DIMEXO
 40
0.0625
  9
$DIMDLI
 40
0.836
  9
$DIMEXE
 40
0.125
  9
$DIMCEN
 40
0.198
  9
$DIMLFAC
 40
1.0
  9
$DIMBLK
  1
_FILLED
  9
$DIMTXT
 40
0.1
  9
$DIMTOL
 70
0
  9
$DIMLIM
 70
0
  9
$DIMTFAC
 40
1.0
  9
$DIMGAP
 40
0.09
  9
$DIMDSEP
 70
46
  9
$AUNITS
 70
0
  9
$PDMODE
 70
3
  9
$PDSIZE
 40
0.3125
  9
$HANDSEED
  5
3C3
  9
$TILEMODE
 70
1
  9
$MEASUREMENT
 70
0
  9
$INSUNITS
 70
1
  0
ENDSEC
  0
SECTION
  2
CLASSES
  0
CLASS
  1
ACDBDICTIONARYWDFLT
  2
AcDbDictionaryWithDefault
  3
AutoCAD 2000
 90
0
 91
1
280
0
281
0
  0
CLASS
  1
ACDBPLACEHOLDER
  2
AcDbPlaceHolder
  3
AutoCAD 2000
 90
0
 91
1
280
0
281
0
  0
CLASS
  1
LAYOUT
  2
AcDbLayout
  3
AutoCAD 2000
 90
0
 91
0
280
0
281
0
  0
CLASS
  1
RASTERVARIABLES
  2
AcDbRasterVariables
  3
ISM
 90
0
 91
1
280
0
281
0
  0
CLASS
  1
IMAGEDEF
  2
AcDbRasterImageDef
  3
ISM
 90
0
 91
1
280
0
281
0
  0
CLASS
  1
IMAGEDEF_REACTOR
  2
AcDbRasterImageDefReactor
  3
ISM
 90
0
 91
1
280
0
281
0
  0
CLASS
  1
IMAGE
  2
AcDbRasterImage
  3
ISM
 90
127
 91
1
280
0
281
1
  0
CLASS
  1
TABLESTYLE
  2
AcDbTableStyle
  3
ObjectDBX Classes
 90
2047
 91
1
280
0
281
0
  0
CLASS
  1
ACAD_TABLE
  2
AcDbTable
  3
ObjectDBX Classes
 90
1025
 91
3
280
0
281
1
  0
ENDSEC
  0
SECTION
  2
TABLES
  0
TABLE
  2
VPORT
  5
8
100
AcDbSymbolTable
 70
2
  0
VPORT
  5
1F4
100
AcDbSymbolTableRecord
100
AcDbViewportTableRecord
  2
*ACTIVE
 70
0
 10
0.0
 20
0.0
 11
1.0
 21
1.0
 12
11.0
 22
8.5
 13
0.0
 23
0.0
 14
1.0
 24
1.0
 15
0.0
 25
0.0
 16
0.0
 26
0.0
 36
1.0
 17
0.0
 27
0.0
 37
0.0
 40
17.0
 41
1.2941176471
 42
50.0
 43
0.0
 44
0.0
 50
0.0
 51
0.0
 71
0
 72
100
 73
1
 74
1
 75
0
 76
0
 77
0
 78
0
  0
ENDTAB
  0
TABLE
  2
LTYPE
  5
5
100
AcDbSymbolTable
 70
6
  0
LTYPE
  5
14
100
AcDbSymbolTableRecord
100
AcDbLinetypeTableRecord
  2
BYBLOCK
 70
0
  3

 72
65
 73
0
 40
0.0
  0
LTYPE
  5
15
100
AcDbSymbolTableRecord
100
AcDbLinetypeTableRecord
  2
BYLAYER
 70
0
  3

 72
65
 73
0
 40
0.0
  0
LTYPE
  5
16
100
AcDbSymbolTableRecord
100
AcDbLinetypeTableRecord
  2
CONTINUOUS
 70
64
  3
Solid line
 72
65
 73
0
 40
0.0
  0
LTYPE
  5
1F5
100
AcDbSymbolTableRecord
100
AcDbLinetypeTableRecord
  2
CENTER
 70
64
  3
____ _ ____ _ ____ _ ____ _ ____ _ ____ _ ____
 72
65
 73
4
 40
0.6
 49
0.375
 74
0
 49
-0.075
 74
0
 49
0.075
 74
0
 49
-0.075
 74
0
  0
LTYPE
  5
1F6
100
AcDbSymbolTableRecord
100
AcDbLinetypeTableRecord
  2
HIDDEN
 70
64
  3
- - - - - - - - - - - - - - - - - - - -
 72
65
 73
2
 40
0.2
 49
0.1
 74
0
 49
-0.1
 74
0
  0
LTYPE
  5
1F7
100
AcDbSymbolTableRecord
100
AcDbLinetypeTableRecord
  2
PHANTOM
 70
64
  3
_____ _ _ _____ _ _ _____ _ _ _____
 72
65
 73
6
 40
0.8
 49
0.45
 74
0
 49
-0.05
 74
0
 49
0.1
 74
0
 49
-0.05
 74
0
 49
0.1
 74
0
 49
-0.05
 74
0
  0
LTYPE
  5
1F8
100
AcDbSymbolTableRecord
100
AcDbLinetypeTableRecord
  2
DOT
 70
64
  3
. . . . . . . . . . . . . . . . . . . .
 72
65
 73
2
 40
0.2
 49
0.1
 74
0
 49
-0.1
 74
0
  0
LTYPE
  5
1F9
100
AcDbSymbolTableRecord
100
AcDbLinetypeTableRecord
  2
DASHED
 70
64
  3
- - - - - - - - - - - - - - - - - - - -
 72
65
 73
2
 40
0.2
 49
0.1
 74
0
 49
-0.1
 74
0
  0
ENDTAB
  0
TABLE
  2
LAYER
  5
2
100
AcDbSymbolTable
 70
36
  0
LAYER
  5
10
100
AcDbSymbolTableRecord
100
AcDbLayerTableRecord
  2
0
 70
0
 62
7
  6
CONTINUOUS
370
-3
390
F
  0
LAYER
  5
1FA
100
AcDbSymbolTableRecord
100
AcDbLayerTableRecord
  2
DEFAULT_1
 70
0
 62
7
  6
CENTER
370
-3
390
F
  0
LAYER
  5
1FB
100
AcDbSymbolTableRecord
100
AcDbLayerTableRecord
  2
DEFAULT_2
 70
0
 62
8
  6
HIDDEN
370
-3
390
F
  0
LAYER
  5
1FC
100
AcDbSymbolTableRecord
100
AcDbLayerTableRecord
  2
DEFAULT_3
 70
0
 62
7
  6
PHANTOM
370
-3
390
F
  0
LAYER
  5
1FD
100
AcDbSymbolTableRecord
100
AcDbLayerTableRecord
  2
DATUM_PLANES
 70
0
 62
7
  6
CONTINUOUS
370
-3
390
F
  0
LAYER
  5
1FE
100
AcDbSymbolTableRecord
100
AcDbLayerTableRecord
  2
DIMENSIONS
 70
0
 62
7
  6
CONTINUOUS
370
-3
390
F
  0
LAYER
  5
1FF
100
AcDbSymbolTableRecord
100
AcDbLayerTableRecord
  2
DTM_500001
 70
0
 62
7
  6
CONTINUOUS
370
-3
390
F
  0
LAYER
  5
200
100
AcDbSymbolTableRecord
100
AcDbLayerTableRecord
  2
PARAMETERDIMENSIONS
 70
0
 62
7
  6
CONTINUOUS
370
-3
390
F
  0
LAYER
  5
201
100
AcDbSymbolTableRecord
100
AcDbLayerTableRecord
  2
PORT_AREAS
 70
0
 62
7
  6
CONTINUOUS
370
-3
390
F
  0
LAYER
  5
202
100
AcDbSymbolTableRecord
100
AcDbLayerTableRecord
  2
SUNNBOMCOSMETIC
 70
0
 62
7
  6
CONTINUOUS
370
-3
390
F
  0
LAYER
  5
203
100
AcDbSymbolTableRecord
100
AcDbLayerTableRecord
  2
SUNNBOMSTAMPING
 70
0
 62
7
  6
CONTINUOUS
370
-3
390
F
  0
LAYER
  5
204
100
AcDbSymbolTableRecord
100
AcDbLayerTableRecord
  2
THREADS
 70
0
 62
7
  6
CONTINUOUS
370
-3
390
F
  0
ENDTAB
  0
TABLE
  2
STYLE
  5
3
100
AcDbSymbolTable
 70
1
  0
STYLE
  5
11
100
AcDbSymbolTableRecord
100
AcDbTextStyleTableRecord
  2
STANDARD
 70
0
 40
0.0
 41
0.8
 50
0.0
 71
0
 42
0.2
  3
txt
  4

  0
STYLE
  5
205
100
AcDbSymbolTableRecord
100
AcDbTextStyleTableRecord
  2
TEXTSTYLE_1
 70
0
 40
0.0
 41
0.8
 50
0.0
 71
0
 42
0.2
  3
gdt
  4

  0
ENDTAB
  0
TABLE
  2
VIEW
  5
6
100
AcDbSymbolTable
 70
0
  0
ENDTAB
  0
TABLE
  2
UCS
  5
7
100
AcDbSymbolTable
 70
0
  0
ENDTAB
  0
TABLE
  2
APPID
  5
9
100
AcDbSymbolTable
 70
1
  0
APPID
  5
206
100
AcDbSymbolTableRecord
100
AcDbRegAppTableRecord
  2
ACAD
 70
0
  0
ENDTAB
  0
TABLE
  2
BLOCK_RECORD
  5
1
100
AcDbSymbolTable
 70
0
  0
BLOCK_RECORD
  5
207
100
AcDbSymbolTableRecord
100
AcDbBlockTableRecord
  2
*Model_Space
  0
BLOCK_RECORD
  5
208
100
AcDbSymbolTableRecord
100
AcDbBlockTableRecord
  2
*Paper_Space
  0
BLOCK_RECORD
  5
209
100
AcDbSymbolTableRecord
100
AcDbBlockTableRecord
  2
SUN_FIRST_THIRD_ANGLE_BL0
  0
BLOCK_RECORD
  5
20A
100
AcDbSymbolTableRecord
100
AcDbBlockTableRecord
  2
*T1
  0
BLOCK_RECORD
  5
20B
100
AcDbSymbolTableRecord
100
AcDbBlockTableRecord
  2
*T2
  0
BLOCK_RECORD
  5
20C
100
AcDbSymbolTableRecord
100
AcDbBlockTableRecord
  2
*T3
  0
ENDTAB
  0
TABLE
  2
DIMSTYLE
  5
A
100
AcDbSymbolTable
 70
1
100
AcDbDimStyleTable
 71
0
  0
DIMSTYLE
105
20D
100
AcDbSymbolTableRecord
100
AcDbDimStyleTableRecord
  2
STANDARD
 70
0
  3

  4

 40
1.0
 41
0.1875
 42
0.0625
 43
0.38
 44
0.125
 45
0.0
 46
0.0
 47
0.001
 48
0.001
140
0.1
141
0.09
142
0.0
143
25.4
144
1.0
145
0.0
146
1.0
147
0.09
 71
0.0
 72
0.0
 73
1
 74
1
 75
0
 76
0
 77
0
 78
4
170
0
171
2
172
0
173
0
174
0
175
0
176
0
177
0
178
0
270
2
271
3
272
3
273
2
274
2
275
0
280
0
281
0
282
0
283
1
284
4
285
0
286
0
287
3
288
0
340
11
278
46
  0
ENDTAB
  0
ENDSEC
  0
SECTION
  2
BLOCKS
  0
BLOCK
  5
20
100
AcDbEntity
  8
0
100
AcDbBlockBegin
  2
*Model_Space
 70
0
 10
0.0
 20
0.0
 30
0.0
  3
*Model_Space
  1

  0
ENDBLK
  5
21
100
AcDbEntity
  8
0
100
AcDbBlockEnd
  0
BLOCK
  5
1C
100
AcDbEntity
  8
0
100
AcDbBlockBegin
  2
*Paper_Space
 70
0
 10
0.0
 20
0.0
 30
0.0
  3
*Paper_Space
  1

  0
ENDBLK
  5
1D
100
AcDbEntity
  8
0
100
AcDbBlockEnd
  0
BLOCK
  5
20E
100
AcDbEntity
  8
0
100
AcDbBlockBegin
 62
2
  6
CONTINUOUS
  2
SUN_FIRST_THIRD_ANGLE_BL0
 70
64
 10
20.4816717061
 20
1.2289683772
  3
SUN_FIRST_THIRD_ANGLE_BL0
  1

  0
TEXT
  5
20F
100
AcDbEntity
  8
0
100
AcDbText
 62
2
  6
CONTINUOUS
 10
19.4750896608
 20
1.4136269581
  7
STANDARD
 40
0.08
  1
FIRST ANGLE
 41
0.8
 72
0
100
AcDbText
  0
TEXT
  5
210
100
AcDbEntity
  8
0
100
AcDbText
 62
2
  6
CONTINUOUS
 10
20.7842537513
 20
1.4047600029
  7
STANDARD
 40
0.08
  1
THIRD ANGLE
 41
0.8
 72
0
100
AcDbText
  0
LINE
  5
211
100
AcDbEntity
  8
0
100
AcDbLine
 62
7
  6
CONTINUOUS
 10
19.4767170086
 20
1.1727031207
 11
19.6334271527
 21
1.1717972817
  0
LINE
  5
212
100
AcDbEntity
  8
0
100
AcDbLine
 62
7
  6
CONTINUOUS
 10
19.6596964832
 20
1.1717972817
 11
19.6950230232
 21
1.171593082
  0
LINE
  5
213
100
AcDbEntity
  8
0
100
AcDbLine
 62
7
  6
CONTINUOUS
 10
19.7194818561
 20
1.1708914427
 11
19.8852396156
 21
1.1699333054
  0
LINE
  5
214
100
AcDbEntity
  8
0
100
AcDbLine
 62
7
  6
CONTINUOUS
 10
19.4758111696
 20
1.2723454088
 11
19.88525039
 21
1.3511534004
  0
LINE
  5
215
100
AcDbEntity
  8
0
100
AcDbLine
 62
7
  6
CONTINUOUS
 10
19.88525039
 20
1.3511534004
 11
19.8831348489
 21
0.9851647912
  0
LINE
  5
216
100
AcDbEntity
  8
0
100
AcDbLine
 62
7
  6
CONTINUOUS
 10
19.8831348489
 20
0.9851647912
 11
19.4767170086
 21
1.0658141206
  0
LINE
  5
217
100
AcDbEntity
  8
0
100
AcDbLine
 62
7
  6
CONTINUOUS
 10
19.4767170086
 20
1.0658141206
 11
19.4779056764
 21
1.2714536432
  0
CIRCLE
  5
218
100
AcDbEntity
  8
0
100
AcDbCircle
 62
7
  6
CONTINUOUS
 10
20.2068232291
 20
1.1717972817
 40
0.175742101
  0
CIRCLE
  5
219
100
AcDbEntity
  8
0
100
AcDbCircle
 62
7
  6
CONTINUOUS
 10
20.2068232291
 20
1.1717972817
 40
0.1005522074
  0
LINE
  5
21A
100
AcDbEntity
  8
0
100
AcDbLine
 62
7
  6
CONTINUOUS
 10
20.2077290681
 20
1.3756110529
 11
20.2071171714
 21
1.2379342989
  0
LINE
  5
21B
100
AcDbEntity
  8
0
100
AcDbLine
 62
7
  6
CONTINUOUS
 10
20.2077290681
 20
1.2016899681
 11
20.2074674401
 21
1.1428236749
  0
LINE
  5
21C
100
AcDbEntity
  8
0
100
AcDbLine
 62
7
  6
CONTINUOUS
 10
20.208634907
 20
1.101141841
 11
20.2080230104
 21
0.963465087
  0
LINE
  5
21D
100
AcDbEntity
  8
0
100
AcDbLine
 62
7
  6
CONTINUOUS
 10
20.0066328138
 20
1.1745147986
 11
20.1443095678
 21
1.1739029019
  0
LINE
  5
21E
100
AcDbEntity
  8
0
100
AcDbLine
 62
7
  6
CONTINUOUS
 10
20.1832714155
 20
1.1727031207
 11
20.238153505
 21
1.172335442
  0
LINE
  5
21F
100
AcDbEntity
  8
0
100
AcDbLine
 62
7
  6
CONTINUOUS
 10
20.2756669918
 20
1.1717972817
 11
20.407916871
 21
1.1712095044
  0
CIRCLE
  5
220
100
AcDbEntity
  8
0
100
AcDbCircle
 62
7
  6
CONTINUOUS
 10
20.7509457401
 20
1.1693297793
 40
0.1722024983
  0
CIRCLE
  5
221
100
AcDbEntity
  8
0
100
AcDbCircle
 62
7
  6
CONTINUOUS
 10
20.7509457401
 20
1.1693297793
 40
0.0985164967
  0
LINE
  5
222
100
AcDbEntity
  8
0
100
AcDbLine
 62
7
  6
CONTINUOUS
 10
20.7169767782
 20
1.170462078
 11
20.7825395137
 21
1.1682766535
  0
LINE
  5
223
100
AcDbEntity
  8
0
100
AcDbLine
 62
7
  6
CONTINUOUS
 10
20.8177513651
 20
1.1693297793
 11
20.947965719
 21
1.1693297793
  0
LINE
  5
224
100
AcDbEntity
  8
0
100
AcDbLine
 62
7
  6
CONTINUOUS
 10
20.6875370113
 20
1.170462078
 11
20.5573226574
 21
1.170462078
  0
LINE
  5
225
100
AcDbEntity
  8
0
100
AcDbLine
 62
7
  6
CONTINUOUS
 10
20.7486811426
 20
1.1987695462
 11
20.7486811426
 21
1.1432869085
  0
LINE
  5
226
100
AcDbEntity
  8
0
100
AcDbLine
 62
7
  6
CONTINUOUS
 10
20.7498134414
 20
1.1059210505
 11
20.7498134414
 21
0.9757066966
  0
LINE
  5
227
100
AcDbEntity
  8
0
100
AcDbLine
 62
7
  6
CONTINUOUS
 10
20.7486811426
 20
1.2338708068
 11
20.7486811426
 21
1.3640851607
  0
LINE
  5
228
100
AcDbEntity
  8
0
100
AcDbLine
 62
7
  6
CONTINUOUS
 10
21.0702539817
 20
1.2701043662
 11
21.4790138229
 21
1.3448360823
  0
LINE
  5
229
100
AcDbEntity
  8
0
100
AcDbLine
 62
7
  6
CONTINUOUS
 10
21.4790138229
 20
1.3448360823
 11
21.4790138229
 21
0.9779712941
  0
LINE
  5
22A
100
AcDbEntity
  8
0
100
AcDbLine
 62
7
  6
CONTINUOUS
 10
21.4790138229
 20
0.9779712941
 11
21.069121683
 21
1.0617614
  0
LINE
  5
22B
100
AcDbEntity
  8
0
100
AcDbLine
 62
7
  6
CONTINUOUS
 10
21.0702539817
 20
1.2701043662
 11
21.069121683
 21
1.0617614
  0
LINE
  5
22C
100
AcDbEntity
  8
0
100
AcDbLine
 62
7
  6
CONTINUOUS
 10
21.4790138229
 20
1.1693297793
 11
21.3159628059
 21
1.1693297793
  0
LINE
  5
22D
100
AcDbEntity
  8
0
100
AcDbLine
 62
7
  6
CONTINUOUS
 10
21.2876553377
 20
1.1693297793
 11
21.2502894796
 21
1.1693297793
  0
LINE
  5
22E
100
AcDbEntity
  8
0
100
AcDbLine
 62
7
  6
CONTINUOUS
 10
21.2208497126
 20
1.1659328831
 11
21.0713862804
 21
1.1659328831
  0
LINE
  5
22F
100
AcDbEntity
  8
0
100
AcDbLine
 62
7
  6
CONTINUOUS
 10
20.4796138713
 20
1.5284908897
 11
20.4766766948
 21
0.9294458646
  0
ENDBLK
  5
230
100
AcDbEntity
  8
0
  6
BYBLOCK
 62
0
100
AcDbBlockEnd
  0
BLOCK
  5
231
100
AcDbEntity
  8
0
100
AcDbBlockBegin
  2
*T1
 70
1
 10
0.0
 20
0.0
  3
*T1
  1

  0
LINE
  5
232
100
AcDbEntity
  8
0
100
AcDbLine
 62
2
  6
CONTINUOUS
 10
9.275
 20
0.0
 11
-0.0
 21
0.0
  0
LINE
  5
233
100
AcDbEntity
  8
0
100
AcDbLine
 62
2
  6
CONTINUOUS
 10
9.275
 20
0.0
 11
9.275
 21
1.25
  0
LINE
  5
234
100
AcDbEntity
  8
0
100
AcDbLine
 62
2
  6
CONTINUOUS
 10
9.275
 20
0.625
 11
-0.0
 21
0.625
  0
LINE
  5
235
100
AcDbEntity
  8
0
100
AcDbLine
 62
2
  6
CONTINUOUS
 10
9.275
 20
1.25
 11
-0.0
 21
1.25
  0
LINE
  5
236
100
AcDbEntity
  8
0
100
AcDbLine
 62
2
  6
CONTINUOUS
 10
6.8
 20
0.0
 11
6.8
 21
1.25
  0
LINE
  5
237
100
AcDbEntity
  8
0
100
AcDbLine
 62
2
  6
CONTINUOUS
 10
6.4
 20
0.0
 11
6.4
 21
0.625
  0
LINE
  5
238
100
AcDbEntity
  8
0
100
AcDbLine
 62
2
  6
CONTINUOUS
 10
5.9
 20
0.0
 11
5.9
 21
0.625
  0
LINE
  5
239
100
AcDbEntity
  8
0
100
AcDbLine
 62
2
  6
CONTINUOUS
 10
5.2
 20
0.0
 11
5.2
 21
0.625
  0
LINE
  5
23A
100
AcDbEntity
  8
0
100
AcDbLine
 62
2
  6
CONTINUOUS
 10
4.1
 20
0.0
 11
4.1
 21
1.25
  0
LINE
  5
23B
100
AcDbEntity
  8
0
100
AcDbLine
 62
2
  6
CONTINUOUS
 10
-0.0
 20
0.0
 11
-0.0
 21
1.25
  0
MTEXT
  5
23C
100
AcDbEntity
  8
0
100
AcDbMText
 62
2
  6
CONTINUOUS
  7
STANDARD
 71
2
 72
1
 10
6.6
 20
0.325
 30
0.0
 11
1.0
 21
0.0
 31
0.0
 44
0.9
  1
2
 40
0.125
 41
0.2
  0
MTEXT
  5
23D
100
AcDbEntity
  8
0
100
AcDbMText
 62
2
  6
CONTINUOUS
  7
STANDARD
 71
2
 72
1
 10
6.15
 20
0.325
 30
0.0
 11
1.0
 21
0.0
 31
0.0
 44
0.9
  1
C
 40
0.125
 41
0.2
  0
MTEXT
  5
23E
100
AcDbEntity
  8
0
100
AcDbMText
 62
2
  6
CONTINUOUS
  7
STANDARD
 71
2
 72
1
 10
5.55
 20
0.325
 30
0.0
 11
1.0
 21
0.0
 31
0.0
 44
0.9
  1
1.000
 40
0.125
 41
1.0
  0
MTEXT
  5
23F
100
AcDbEntity
  8
0
100
AcDbMText
 62
2
  6
CONTINUOUS
  7
STANDARD
 71
2
 72
1
 10
4.65
 20
0.325
 30
0.0
 11
1.0
 21
0.0
 31
0.0
 44
0.9
  1
Jul-26-19
 40
0.125
 41
1.8
  0
MTEXT
  5
240
100
AcDbEntity
  8
0
100
AcDbMText
 62
2
  6
CONTINUOUS
  7
STANDARD
 71
2
 72
1
 10
2.05
 20
0.4625
 30
0.0
 11
1.0
 21
0.0
 31
0.0
 44
0.9
  1
T-17A Gasket mount Sun\PDirect mount, cross pilot
 40
0.125
 41
5.0
  0
MTEXT
  5
241
100
AcDbEntity
  8
0
100
AcDbMText
 62
2
  6
CONTINUOUS
  7
STANDARD
 71
1
 72
1
 10
6.45
 20
0.5625
 30
0.0
 11
1.0
 21
0.0
 31
0.0
 44
0.9
  1
SHEET
 40
0.06
 41
0.48
  0
MTEXT
  5
242
100
AcDbEntity
  8
0
100
AcDbMText
 62
2
  6
CONTINUOUS
  7
STANDARD
 71
1
 72
1
 10
5.95
 20
0.5625
 30
0.0
 11
1.0
 21
0.0
 31
0.0
 44
0.9
  1
DWG SIZE
 40
0.06
 41
0.768
  0
MTEXT
  5
243
100
AcDbEntity
  8
0
100
AcDbMText
 62
2
  6
CONTINUOUS
  7
STANDARD
 71
1
 72
1
 10
5.25
 20
0.5625
 30
0.0
 11
1.0
 21
0.0
 31
0.0
 44
0.9
  1
SCALE
 40
0.06
 41
0.48
  0
MTEXT
  5
244
100
AcDbEntity
  8
0
100
AcDbMText
 62
2
  6
CONTINUOUS
  7
STANDARD
 71
1
 72
1
 10
4.15
 20
0.5625
 30
0.0
 11
1.0
 21
0.0
 31
0.0
 44
0.9
  1
DATE
 40
0.06
 41
0.384
  0
MTEXT
  5
245
100
AcDbEntity
  8
0
100
AcDbMText
 62
2
  6
CONTINUOUS
  7
STANDARD
 71
1
 72
1
 10
0.05
 20
0.5625
 30
0.0
 11
1.0
 21
0.0
 31
0.0
 44
0.9
  1
DESCRIPTION
 40
0.06
 41
1.056
  0
MTEXT
  5
246
100
AcDbEntity
  8
0
100
AcDbMText
 62
2
  6
CONTINUOUS
  7
STANDARD
 71
2
 72
1
 10
5.45
 20
1.0375
 30
0.0
 11
1.0
 21
0.0
 31
0.0
 44
0.9
  1
ALL DIMENSIONS IN INCH\PVIEWS ARE THIRD ANGLE
 40
0.12
 41
4.224
  0
MTEXT
  5
247
100
AcDbEntity
  8
0
100
AcDbMText
 62
2
  6
CONTINUOUS
  7
STANDARD
 71
2
 72
1
 10
2.05
 20
0.95
 30
0.0
 11
1.0
 21
0.0
 31
0.0
 44
0.9
  1
YVS
 40
0.125
 41
0.6
  0
MTEXT
  5
248
100
AcDbEntity
  8
0
100
AcDbMText
 62
2
  6
CONTINUOUS
  7
STANDARD
 71
1
 72
1
 10
0.05
 20
1.1875
 30
0.0
 11
1.0
 21
0.0
 31
0.0
 44
0.9
  1
MODEL
 40
0.06
 41
0.48
  0
ENDBLK
  5
249
100
AcDbEntity
  8
0
  6
BYBLOCK
 62
0
100
AcDbBlockEnd
  0
BLOCK
  5
24A
100
AcDbEntity
  8
0
100
AcDbBlockBegin
  2
*T2
 70
1
 10
0.0
 20
0.0
  3
*T2
  1

  0
LINE
  5
24B
100
AcDbEntity
  8
0
100
AcDbLine
 62
2
  6
CONTINUOUS
 10
0.0
 20
0.0
 11
9.055
 21
0.0
  0
LINE
  5
24C
100
AcDbEntity
  8
0
100
AcDbLine
 62
2
  6
CONTINUOUS
 10
0.0
 20
0.0
 11
0.0
 21
-3.094
  0
LINE
  5
24D
100
AcDbEntity
  8
0
100
AcDbLine
 62
2
  6
CONTINUOUS
 10
0.0
 20
-0.344
 11
9.055
 21
-0.344
  0
LINE
  5
24E
100
AcDbEntity
  8
0
100
AcDbLine
 62
2
  6
CONTINUOUS
 10
0.0
 20
-0.594
 11
9.055
 21
-0.594
  0
LINE
  5
24F
100
AcDbEntity
  8
0
100
AcDbLine
 62
2
  6
CONTINUOUS
 10
0.0
 20
-0.844
 11
9.055
 21
-0.844
  0
LINE
  5
250
100
AcDbEntity
  8
0
100
AcDbLine
 62
2
  6
CONTINUOUS
 10
0.0
 20
-1.094
 11
9.055
 21
-1.094
  0
LINE
  5
251
100
AcDbEntity
  8
0
100
AcDbLine
 62
2
  6
CONTINUOUS
 10
0.0
 20
-1.344
 11
9.055
 21
-1.344
  0
LINE
  5
252
100
AcDbEntity
  8
0
100
AcDbLine
 62
2
  6
CONTINUOUS
 10
0.0
 20
-1.594
 11
9.055
 21
-1.594
  0
LINE
  5
253
100
AcDbEntity
  8
0
100
AcDbLine
 62
2
  6
CONTINUOUS
 10
0.0
 20
-1.844
 11
9.055
 21
-1.844
  0
LINE
  5
254
100
AcDbEntity
  8
0
100
AcDbLine
 62
2
  6
CONTINUOUS
 10
0.0
 20
-2.094
 11
9.055
 21
-2.094
  0
LINE
  5
255
100
AcDbEntity
  8
0
100
AcDbLine
 62
2
  6
CONTINUOUS
 10
0.0
 20
-2.344
 11
9.055
 21
-2.344
  0
LINE
  5
256
100
AcDbEntity
  8
0
100
AcDbLine
 62
2
  6
CONTINUOUS
 10
0.0
 20
-2.594
 11
9.055
 21
-2.594
  0
LINE
  5
257
100
AcDbEntity
  8
0
100
AcDbLine
 62
2
  6
CONTINUOUS
 10
0.0
 20
-2.844
 11
9.055
 21
-2.844
  0
LINE
  5
258
100
AcDbEntity
  8
0
100
AcDbLine
 62
2
  6
CONTINUOUS
 10
0.0
 20
-3.094
 11
9.055
 21
-3.094
  0
LINE
  5
259
100
AcDbEntity
  8
0
100
AcDbLine
 62
2
  6
CONTINUOUS
 10
3.055
 20
0.0
 11
3.055
 21
-3.094
  0
LINE
  5
25A
100
AcDbEntity
  8
0
100
AcDbLine
 62
2
  6
CONTINUOUS
 10
9.055
 20
0.0
 11
9.055
 21
-3.094
  0
MTEXT
  5
25B
100
AcDbEntity
  8
0
100
AcDbMText
 62
2
  6
CONTINUOUS
  7
STANDARD
 71
2
 72
1
 10
1.5275
 20
-0.0995
 30
0.0
 11
1.0
 21
0.0
 31
0.0
 44
0.9
  1
Technical Data
 40
0.145
 41
3.248
  0
MTEXT
  5
25C
100
AcDbEntity
  8
0
100
AcDbMText
 62
2
  6
CONTINUOUS
  7
STANDARD
 71
2
 72
1
 10
4.555
 20
-0.0995
 30
0.0
 11
1.0
 21
0.0
 31
0.0
 44
0.9
  1
U.S. Units
 40
0.145
 41
2.32
  0
MTEXT
  5
25D
100
AcDbEntity
  8
0
100
AcDbMText
 62
2
  6
CONTINUOUS
  7
STANDARD
 71
2
 72
1
 10
7.555
 20
-0.0995
 30
0.0
 11
1.0
 21
0.0
 31
0.0
 44
0.9
  1
Metric Units
 40
0.145
 41
2.784
  0
MTEXT
  5
25E
100
AcDbEntity
  8
0
100
AcDbMText
 62
2
  6
CONTINUOUS
  7
STANDARD
 71
2
 72
1
 10
1.5275
 20
-0.4065
 30
0.0
 11
1.0
 21
0.0
 31
0.0
 44
0.9
  1
Cavity
 40
0.125
 41
1.2
  0
MTEXT
  5
25F
100
AcDbEntity
  8
0
100
AcDbMText
 62
2
  6
CONTINUOUS
  7
STANDARD
 71
2
 72
1
 10
6.055
 20
-0.4065
 30
0.0
 11
1.0
 21
0.0
 31
0.0
 44
0.9
  1
T-17A
 40
0.125
 41
1.0
  0
MTEXT
  5
260
100
AcDbEntity
  8
0
100
AcDbMText
 62
2
  6
CONTINUOUS
  7
STANDARD
 71
2
 72
1
 10
1.5275
 20
-0.6565
 30
0.0
 11
1.0
 21
0.0
 31
0.0
 44
0.9
  1
Body Features
 40
0.125
 41
2.6
  0
MTEXT
  5
261
100
AcDbEntity
  8
0
100
AcDbMText
 62
2
  6
CONTINUOUS
  7
STANDARD
 71
2
 72
1
 10
6.055
 20
-0.6565
 30
0.0
 11
1.0
 21
0.0
 31
0.0
 44
0.9
  1
Direct mount, cross pilot
 40
0.125
 41
5.0
  0
MTEXT
  5
262
100
AcDbEntity
  8
0
100
AcDbMText
 62
2
  6
CONTINUOUS
  7
STANDARD
 71
2
 72
1
 10
1.5275
 20
-0.9065
 30
0.0
 11
1.0
 21
0.0
 31
0.0
 44
0.9
  1
Body Type
 40
0.125
 41
1.8
  0
MTEXT
  5
263
100
AcDbEntity
  8
0
100
AcDbMText
 62
2
  6
CONTINUOUS
  7
STANDARD
 71
2
 72
1
 10
6.055
 20
-0.9065
 30
0.0
 11
1.0
 21
0.0
 31
0.0
 44
0.9
  1
Gasket mount
 40
0.125
 41
2.4
  0
MTEXT
  5
264
100
AcDbEntity
  8
0
100
AcDbMText
 62
2
  6
CONTINUOUS
  7
STANDARD
 71
2
 72
1
 10
1.5275
 20
-1.1565
 30
0.0
 11
1.0
 21
0.0
 31
0.0
 44
0.9
  1
Interface
 40
0.125
 41
1.8
  0
MTEXT
  5
265
100
AcDbEntity
  8
0
100
AcDbMText
 62
2
  6
CONTINUOUS
  7
STANDARD
 71
2
 72
1
 10
6.055
 20
-1.1565
 30
0.0
 11
1.0
 21
0.0
 31
0.0
 44
0.9
  1
Sun
 40
0.125
 41
0.6
  0
MTEXT
  5
266
100
AcDbEntity
  8
0
100
AcDbMText
 62
2
  6
CONTINUOUS
  7
STANDARD
 71
2
 72
1
 10
1.5275
 20
-1.4065
 30
0.0
 11
1.0
 21
0.0
 31
0.0
 44
0.9
  1
Open Cavity Quantity
 40
0.125
 41
4.0
  0
MTEXT
  5
267
100
AcDbEntity
  8
0
100
AcDbMText
 62
2
  6
CONTINUOUS
  7
STANDARD
 71
2
 72
1
 10
6.055
 20
-1.4065
 30
0.0
 11
1.0
 21
0.0
 31
0.0
 44
0.9
  1
2
 40
0.125
 41
0.2
  0
MTEXT
  5
268
100
AcDbEntity
  8
0
100
AcDbMText
 62
2
  6
CONTINUOUS
  7
STANDARD
 71
2
 72
1
 10
1.5275
 20
-1.6565
 30
0.0
 11
1.0
 21
0.0
 31
0.0
 44
0.9
  1
Weight
 40
0.125
 41
1.2
  0
MTEXT
  5
269
100
AcDbEntity
  8
0
100
AcDbMText
 62
2
  6
CONTINUOUS
  7
STANDARD
 71
2
 72
1
 10
4.555
 20
-1.6565
 30
0.0
 11
1.0
 21
0.0
 31
0.0
 44
0.9
  1
6.673 lb.
 40
0.125
 41
1.8
  0
MTEXT
  5
26A
100
AcDbEntity
  8
0
100
AcDbMText
 62
2
  6
CONTINUOUS
  7
STANDARD
 71
2
 72
1
 10
7.555
 20
-1.6565
 30
0.0
 11
1.0
 21
0.0
 31
0.0
 44
0.9
  1
3,027 kg.
 40
0.125
 41
1.8
  0
MTEXT
  5
26B
100
AcDbEntity
  8
0
100
AcDbMText
 62
2
  6
CONTINUOUS
  7
STANDARD
 71
2
 72
1
 10
1.5275
 20
-1.9065
 30
0.0
 11
1.0
 21
0.0
 31
0.0
 44
0.9
  1
Mounting Hole Diameter
 40
0.125
 41
4.4
  0
MTEXT
  5
26C
100
AcDbEntity
  8
0
100
AcDbMText
 62
2
  6
CONTINUOUS
  7
STANDARD
 71
2
 72
1
 10
4.555
 20
-1.9065
 30
0.0
 11
1.0
 21
0.0
 31
0.0
 44
0.9
  1
.53 in.
 40
0.125
 41
1.4
  0
MTEXT
  5
26D
100
AcDbEntity
  8
0
100
AcDbMText
 62
2
  6
CONTINUOUS
  7
STANDARD
 71
2
 72
1
 10
7.555
 20
-1.9065
 30
0.0
 11
1.0
 21
0.0
 31
0.0
 44
0.9
  1
13,5 mm
 40
0.125
 41
1.4
  0
MTEXT
  5
26E
100
AcDbEntity
  8
0
100
AcDbMText
 62
2
  6
CONTINUOUS
  7
STANDARD
 71
2
 72
1
 10
1.5275
 20
-2.1565
 30
0.0
 11
1.0
 21
0.0
 31
0.0
 44
0.9
  1
Mounting Hole Depth
 40
0.125
 41
3.8
  0
MTEXT
  5
26F
100
AcDbEntity
  8
0
100
AcDbMText
 62
2
  6
CONTINUOUS
  7
STANDARD
 71
2
 72
1
 10
6.055
 20
-2.1565
 30
0.0
 11
1.0
 21
0.0
 31
0.0
 44
0.9
  1
Through
 40
0.125
 41
1.4
  0
MTEXT
  5
270
100
AcDbEntity
  8
0
100
AcDbMText
 62
2
  6
CONTINUOUS
  7
STANDARD
 71
2
 72
1
 10
1.5275
 20
-2.4065
 30
0.0
 11
1.0
 21
0.0
 31
0.0
 44
0.9
  1
Mounting Hole Quantity
 40
0.125
 41
4.4
  0
MTEXT
  5
271
100
AcDbEntity
  8
0
100
AcDbMText
 62
2
  6
CONTINUOUS
  7
STANDARD
 71
2
 72
1
 10
6.055
 20
-2.4065
 30
0.0
 11
1.0
 21
0.0
 31
0.0
 44
0.9
  1
2
 40
0.125
 41
0.2
  0
MTEXT
  5
272
100
AcDbEntity
  8
0
100
AcDbMText
 62
2
  6
CONTINUOUS
  7
STANDARD
 71
2
 72
1
 10
1.5275
 20
-2.6565
 30
0.0
 11
1.0
 21
0.0
 31
0.0
 44
0.9
  1
Mounting Hole C'bore Diameter
 40
0.125
 41
5.8
  0
MTEXT
  5
273
100
AcDbEntity
  8
0
100
AcDbMText
 62
2
  6
CONTINUOUS
  7
STANDARD
 71
2
 72
1
 10
4.555
 20
-2.6565
 30
0.0
 11
1.0
 21
0.0
 31
0.0
 44
0.9
  1
.78 in.
 40
0.125
 41
1.4
  0
MTEXT
  5
274
100
AcDbEntity
  8
0
100
AcDbMText
 62
2
  6
CONTINUOUS
  7
STANDARD
 71
2
 72
1
 10
7.555
 20
-2.6565
 30
0.0
 11
1.0
 21
0.0
 31
0.0
 44
0.9
  1
19,8 mm
 40
0.125
 41
1.4
  0
MTEXT
  5
275
100
AcDbEntity
  8
0
100
AcDbMText
 62
2
  6
CONTINUOUS
  7
STANDARD
 71
2
 72
1
 10
1.5275
 20
-2.9065
 30
0.0
 11
1.0
 21
0.0
 31
0.0
 44
0.9
  1
Mounting Hole C'bore Depth
 40
0.125
 41
5.2
  0
MTEXT
  5
276
100
AcDbEntity
  8
0
100
AcDbMText
 62
2
  6
CONTINUOUS
  7
STANDARD
 71
2
 72
1
 10
4.555
 20
-2.9065
 30
0.0
 11
1.0
 21
0.0
 31
0.0
 44
0.9
  1
.44 in.
 40
0.125
 41
1.4
  0
MTEXT
  5
277
100
AcDbEntity
  8
0
100
AcDbMText
 62
2
  6
CONTINUOUS
  7
STANDARD
 71
2
 72
1
 10
7.555
 20
-2.9065
 30
0.0
 11
1.0
 21
0.0
 31
0.0
 44
0.9
  1
11,1 mm
 40
0.125
 41
1.4
  0
ENDBLK
  5
278
100
AcDbEntity
  8
0
  6
BYBLOCK
 62
0
100
AcDbBlockEnd
  0
BLOCK
  5
279
100
AcDbEntity
  8
0
100
AcDbBlockBegin
  2
*T3
 70
1
 10
0.0
 20
0.0
  3
*T3
  1

  0
LINE
  5
27A
100
AcDbEntity
  8
0
100
AcDbLine
 62
2
  6
CONTINUOUS
 10
0.0
 20
0.0
 11
4.6
 21
0.0
  0
LINE
  5
27B
100
AcDbEntity
  8
0
100
AcDbLine
 62
2
  6
CONTINUOUS
 10
0.0
 20
0.0
 11
0.0
 21
-0.93775
  0
LINE
  5
27C
100
AcDbEntity
  8
0
100
AcDbLine
 62
2
  6
CONTINUOUS
 10
0.0
 20
-0.34375
 11
4.6
 21
-0.34375
  0
LINE
  5
27D
100
AcDbEntity
  8
0
100
AcDbLine
 62
2
  6
CONTINUOUS
 10
0.0
 20
-0.68775
 11
4.6
 21
-0.68775
  0
LINE
  5
27E
100
AcDbEntity
  8
0
100
AcDbLine
 62
2
  6
CONTINUOUS
 10
0.0
 20
-0.93775
 11
4.6
 21
-0.93775
  0
LINE
  5
27F
100
AcDbEntity
  8
0
100
AcDbLine
 62
2
  6
CONTINUOUS
 10
1.3
 20
-0.34375
 11
1.3
 21
-0.93775
  0
LINE
  5
280
100
AcDbEntity
  8
0
100
AcDbLine
 62
2
  6
CONTINUOUS
 10
3.3
 20
-0.34375
 11
3.3
 21
-0.93775
  0
LINE
  5
281
100
AcDbEntity
  8
0
100
AcDbLine
 62
2
  6
CONTINUOUS
 10
4.6
 20
0.0
 11
4.6
 21
-0.93775
  0
MTEXT
  5
282
100
AcDbEntity
  8
0
100
AcDbMText
 62
2
  6
CONTINUOUS
  7
STANDARD
 71
2
 72
1
 10
2.3
 20
-0.099375
 30
0.0
 11
1.0
 21
0.0
 31
0.0
 44
0.9
  1
Port Headings
 40
0.145
 41
3.016
  0
MTEXT
  5
283
100
AcDbEntity
  8
0
100
AcDbMText
 62
2
  6
CONTINUOUS
  7
STANDARD
 71
2
 72
1
 10
0.65
 20
-0.44325
 30
0.0
 11
1.0
 21
0.0
 31
0.0
 44
0.9
  1
Product
 40
0.145
 41
1.624
  0
MTEXT
  5
284
100
AcDbEntity
  8
0
100
AcDbMText
 62
2
  6
CONTINUOUS
  7
STANDARD
 71
2
 72
1
 10
2.3
 20
-0.44325
 30
0.0
 11
1.0
 21
0.0
 31
0.0
 44
0.9
  1
Port
 40
0.145
 41
0.928
  0
MTEXT
  5
285
100
AcDbEntity
  8
0
100
AcDbMText
 62
2
  6
CONTINUOUS
  7
STANDARD
 71
2
 72
1
 10
3.95
 20
-0.44325
 30
0.0
 11
1.0
 21
0.0
 31
0.0
 44
0.9
  1
Size
 40
0.145
 41
0.928
  0
MTEXT
  5
286
100
AcDbEntity
  8
0
100
AcDbMText
 62
2
  6
CONTINUOUS
  7
STANDARD
 71
2
 72
1
 10
0.65
 20
-0.75025
 30
0.0
 11
1.0
 21
0.0
 31
0.0
 44
0.9
  1
YVS
 40
0.125
 41
0.6
  0
MTEXT
  5
287
100
AcDbEntity
  8
0
100
AcDbMText
 62
2
  6
CONTINUOUS
  7
STANDARD
 71
2
 72
1
 10
2.3
 20
-0.75025
 30
0.0
 11
1.0
 21
0.0
 31
0.0
 44
0.9
  1
Ports C2, V1, V2
 40
0.125
 41
3.2
  0
MTEXT
  5
288
100
AcDbEntity
  8
0
100
AcDbMText
 62
2
  6
CONTINUOUS
  7
STANDARD
 71
2
 72
1
 10
3.95
 20
-0.75025
 30
0.0
 11
1.0
 21
0.0
 31
0.0
 44
0.9
  1
SAE 12
 40
0.125
 41
1.2
  0
ENDBLK
  5
289
100
AcDbEntity
  8
0
  6
BYBLOCK
 62
0
100
AcDbBlockEnd
  0
ENDSEC
  0
SECTION
  2
ENTITIES
  0
IMAGE
  5
28A
100
AcDbEntity
  8
0
100
AcDbRasterImage
 62
7
  6
CONTINUOUS
 10
19.2297077316
 20
0.3094318264
 30
0.0
 11
0.0066666667
 21
0.0
 31
0.0
 12
0.0
 22
0.0066666667
 32
0.0
 13
369.0
 23
92.0
340
       3C0
 70
9
280
0
281
50
282
50
283
0
360
       3BA
 71
1
 91
2
 14
-0.5
 24
-0.5
 14
368.5
 24
91.5
  0
INSERT
  5
28B
100
AcDbEntity
  8
0
100
AcDbBlockReference
 62
2
  6
CONTINUOUS
  2
SUN_FIRST_THIRD_ANGLE_BL0
 10
20.4816717061
 20
1.2289683772
  0
ACAD_TABLE
  5
28C
100
AcDbEntity
  8
0
 62
2
  6
CONTINUOUS
100
AcDbBlockReference
  2
*T1
 10
12.42375
 20
0.30125
 30
0.0
100
AcDbTable
342
       3C2
343
20A
 11
1.0
 21
0.0
 31
0.0
 90
6
 91
4
 92
6
 93
20
 94
0
 95
0
 96
0
 70
1
 41
0.0
141
0.525
141
0.1
141
0.525
141
0.1
142
4.1
142
1.1
142
0.7
142
0.5
142
0.4
142
2.475
171
1
172
0
173
0
174
0
175
1
176
1
 91
33
178
0
145
0.0
301
CELL_VALUE
 90
4
  1
T-17A Gasket mount Sun\PDirect mount, cross pilot
304
ACVALUE_END
170
2
140
0.125
171
1
172
0
173
0
174
0
175
1
176
1
 91
33
178
0
145
0.0
301
CELL_VALUE
 90
4
  1
Jul-26-19
304
ACVALUE_END
170
5
140
0.125
171
1
172
0
173
0
174
0
175
1
176
1
 91
33
178
0
145
0.0
301
CELL_VALUE
 90
4
  1
1.000
304
ACVALUE_END
170
5
140
0.125
171
1
172
0
173
0
174
0
175
1
176
1
 91
33
178
0
145
0.0
301
CELL_VALUE
 90
4
  1
C
304
ACVALUE_END
170
5
140
0.125
171
1
172
0
173
0
174
0
175
1
176
1
 91
33
178
0
145
0.0
301
CELL_VALUE
 90
4
  1
2
304
ACVALUE_END
170
5
140
0.125
171
1
172
0
173
0
174
0
175
1
176
1
 91
33
178
0
145
0.0
301
CELL_VALUE
 90
4
  1
 
304
ACVALUE_END
170
1
140
0.125
171
1
172
0
173
0
174
0
175
1
176
1
 91
33
178
0
145
0.0
301
CELL_VALUE
 90
4
  1
DESCRIPTION
304
ACVALUE_END
170
1
140
0.06
171
1
172
0
173
0
174
0
175
1
176
1
 91
33
178
0
145
0.0
301
CELL_VALUE
 90
4
  1
DATE
304
ACVALUE_END
170
1
140
0.06
171
1
172
0
173
0
174
0
175
1
176
1
 91
33
178
0
145
0.0
301
CELL_VALUE
 90
4
  1
SCALE
304
ACVALUE_END
170
1
140
0.06
171
1
172
0
173
0
174
0
175
1
176
1
 91
33
178
0
145
0.0
301
CELL_VALUE
 90
4
  1
DWG SIZE
304
ACVALUE_END
170
1
140
0.06
171
1
172
0
173
0
174
0
175
1
176
1
 91
33
178
0
145
0.0
301
CELL_VALUE
 90
4
  1
SHEET
304
ACVALUE_END
170
1
140
0.06
171
1
172
0
173
0
174
0
175
1
176
1
 91
33
178
0
145
0.0
301
CELL_VALUE
 90
4
  1
 
304
ACVALUE_END
170
1
140
0.125
171
1
172
0
173
0
174
0
175
1
176
1
 91
33
178
0
145
0.0
301
CELL_VALUE
 90
4
  1
YVS
304
ACVALUE_END
170
5
140
0.125
171
1
172
0
173
0
174
0
175
4
176
1
 91
33
178
0
145
0.0
301
CELL_VALUE
 90
4
  1
ALL DIMENSIONS IN INCH\PVIEWS ARE THIRD ANGLE
304
ACVALUE_END
170
5
140
0.12
171
1
172
0
173
1
174
0
175
1
176
1
 91
1
178
0
145
0.0
170
1
171
1
172
0
173
1
174
0
175
1
176
1
 91
1
178
0
145
0.0
170
1
171
1
172
0
173
1
174
0
175
1
176
1
 91
1
178
0
145
0.0
170
5
171
1
172
0
173
0
174
0
175
1
176
1
 91
33
178
0
145
0.0
301
CELL_VALUE
 90
4
  1
 
304
ACVALUE_END
170
1
140
0.125
171
1
172
0
173
0
174
0
175
1
176
1
 91
33
178
0
145
0.0
301
CELL_VALUE
 90
4
  1
MODEL
304
ACVALUE_END
170
1
140
0.06
171
1
172
0
173
0
174
0
175
1
176
1
 91
33
178
0
145
0.0
301
CELL_VALUE
 90
4
  1
 
304
ACVALUE_END
170
1
140
0.125
171
1
172
0
173
0
174
0
175
1
176
1
 91
33
178
0
145
0.0
301
CELL_VALUE
 90
4
  1
 
304
ACVALUE_END
170
1
140
0.125
171
1
172
0
173
0
174
0
175
1
176
1
 91
33
178
0
145
0.0
301
CELL_VALUE
 90
4
  1
 
304
ACVALUE_END
170
1
140
0.125
171
1
172
0
173
0
174
0
175
1
176
1
 91
33
178
0
145
0.0
301
CELL_VALUE
 90
4
  1
 
304
ACVALUE_END
170
1
140
0.125
171
1
172
0
173
0
174
0
175
1
176
1
 91
33
178
0
145
0.0
301
CELL_VALUE
 90
4
  1
 
304
ACVALUE_END
170
1
140
0.125
  0
ACAD_TABLE
  5
28D
100
AcDbEntity
  8
0
 62
2
  6
CONTINUOUS
100
AcDbBlockReference
  2
*T2
 10
12.4237499994
 20
16.47875
 30
0.0
100
AcDbTable
342
       3C1
343
20B
 11
1.0
 21
0.0
 31
0.0
 90
22
 91
12
 92
3
 93
16
 94
0
 95
0
 96
0
 41
0.028
141
0.344
141
0.25
141
0.25
141
0.25
141
0.25
141
0.25
141
0.25
141
0.25
141
0.25
141
0.25
141
0.25
141
0.25
142
3.055
142
3.0
142
3.0
171
1
172
0
173
0
174
0
175
1
176
1
 91
33
178
0
145
0.0
301
CELL_VALUE
 90
4
  1
Technical Data
304
ACVALUE_END
170
5
140
0.145
171
1
172
0
173
0
174
0
175
1
176
1
 91
33
178
0
145
0.0
301
CELL_VALUE
 90
4
  1
U.S. Units
304
ACVALUE_END
170
5
140
0.145
171
1
172
0
173
0
174
0
175
1
176
1
 91
33
178
0
145
0.0
301
CELL_VALUE
 90
4
  1
Metric Units
304
ACVALUE_END
170
5
140
0.145
171
1
172
0
173
0
174
0
175
1
176
1
 91
33
178
0
145
0.0
301
CELL_VALUE
 90
4
  1
Cavity
304
ACVALUE_END
170
5
140
0.125
171
1
172
0
173
0
174
0
175
2
176
1
 91
33
178
0
145
0.0
301
CELL_VALUE
 90
4
  1
T-17A
304
ACVALUE_END
170
5
140
0.125
171
1
172
0
173
1
174
0
175
1
176
1
 91
1
178
0
145
0.0
170
1
171
1
172
0
173
0
174
0
175
1
176
1
 91
33
178
0
145
0.0
301
CELL_VALUE
 90
4
  1
Body Features
304
ACVALUE_END
170
5
140
0.125
171
1
172
0
173
0
174
0
175
2
176
1
 91
33
178
0
145
0.0
301
CELL_VALUE
 90
4
  1
Direct mount, cross pilot
304
ACVALUE_END
170
5
140
0.125
171
1
172
0
173
1
174
0
175
1
176
1
 91
1
178
0
145
0.0
170
1
171
1
172
0
173
0
174
0
175
1
176
1
 91
33
178
0
145
0.0
301
CELL_VALUE
 90
4
  1
Body Type
304
ACVALUE_END
170
5
140
0.125
171
1
172
0
173
0
174
0
175
2
176
1
 91
33
178
0
145
0.0
301
CELL_VALUE
 90
4
  1
Gasket mount
304
ACVALUE_END
170
5
140
0.125
171
1
172
0
173
1
174
0
175
1
176
1
 91
1
178
0
145
0.0
170
1
171
1
172
0
173
0
174
0
175
1
176
1
 91
33
178
0
145
0.0
301
CELL_VALUE
 90
4
  1
Interface
304
ACVALUE_END
170
5
140
0.125
171
1
172
0
173
0
174
0
175
2
176
1
 91
33
178
0
145
0.0
301
CELL_VALUE
 90
4
  1
Sun
304
ACVALUE_END
170
5
140
0.125
171
1
172
0
173
1
174
0
175
1
176
1
 91
1
178
0
145
0.0
170
1
171
1
172
0
173
0
174
0
175
1
176
1
 91
33
178
0
145
0.0
301
CELL_VALUE
 90
4
  1
Open Cavity Quantity
304
ACVALUE_END
170
5
140
0.125
171
1
172
0
173
0
174
0
175
2
176
1
 91
33
178
0
145
0.0
301
CELL_VALUE
 90
4
  1
2
304
ACVALUE_END
170
5
140
0.125
171
1
172
0
173
1
174
0
175
1
176
1
 91
1
178
0
145
0.0
170
1
171
1
172
0
173
0
174
0
175
1
176
1
 91
33
178
0
145
0.0
301
CELL_VALUE
 90
4
  1
Weight
304
ACVALUE_END
170
5
140
0.125
171
1
172
0
173
0
174
0
175
1
176
1
 91
33
178
0
145
0.0
301
CELL_VALUE
 90
4
  1
6.673 lb.
304
ACVALUE_END
170
5
140
0.125
171
1
172
0
173
0
174
0
175
1
176
1
 91
33
178
0
145
0.0
301
CELL_VALUE
 90
4
  1
3,027 kg.
304
ACVALUE_END
170
5
140
0.125
171
1
172
0
173
0
174
0
175
1
176
1
 91
33
178
0
145
0.0
301
CELL_VALUE
 90
4
  1
Mounting Hole Diameter
304
ACVALUE_END
170
5
140
0.125
171
1
172
0
173
0
174
0
175
1
176
1
 91
33
178
0
145
0.0
301
CELL_VALUE
 90
4
  1
.53 in.
304
ACVALUE_END
170
5
140
0.125
171
1
172
0
173
0
174
0
175
1
176
1
 91
33
178
0
145
0.0
301
CELL_VALUE
 90
4
  1
13,5 mm
304
ACVALUE_END
170
5
140
0.125
171
1
172
0
173
0
174
0
175
1
176
1
 91
33
178
0
145
0.0
301
CELL_VALUE
 90
4
  1
Mounting Hole Depth
304
ACVALUE_END
170
5
140
0.125
171
1
172
0
173
0
174
0
175
2
176
1
 91
33
178
0
145
0.0
301
CELL_VALUE
 90
4
  1
Through
304
ACVALUE_END
170
5
140
0.125
171
1
172
0
173
1
174
0
175
1
176
1
 91
1
178
0
145
0.0
170
1
171
1
172
0
173
0
174
0
175
1
176
1
 91
33
178
0
145
0.0
301
CELL_VALUE
 90
4
  1
Mounting Hole Quantity
304
ACVALUE_END
170
5
140
0.125
171
1
172
0
173
0
174
0
175
2
176
1
 91
33
178
0
145
0.0
301
CELL_VALUE
 90
4
  1
2
304
ACVALUE_END
170
5
140
0.125
171
1
172
0
173
1
174
0
175
1
176
1
 91
1
178
0
145
0.0
170
1
171
1
172
0
173
0
174
0
175
1
176
1
 91
33
178
0
145
0.0
301
CELL_VALUE
 90
4
  1
Mounting Hole C'bore Diameter
304
ACVALUE_END
170
5
140
0.125
171
1
172
0
173
0
174
0
175
1
176
1
 91
33
178
0
145
0.0
301
CELL_VALUE
 90
4
  1
.78 in.
304
ACVALUE_END
170
5
140
0.125
171
1
172
0
173
0
174
0
175
1
176
1
 91
33
178
0
145
0.0
301
CELL_VALUE
 90
4
  1
19,8 mm
304
ACVALUE_END
170
5
140
0.125
171
1
172
0
173
0
174
0
175
1
176
1
 91
33
178
0
145
0.0
301
CELL_VALUE
 90
4
  1
Mounting Hole C'bore Depth
304
ACVALUE_END
170
5
140
0.125
171
1
172
0
173
0
174
0
175
1
176
1
 91
33
178
0
145
0.0
301
CELL_VALUE
 90
4
  1
.44 in.
304
ACVALUE_END
170
5
140
0.125
171
1
172
0
173
0
174
0
175
1
176
1
 91
33
178
0
145
0.0
301
CELL_VALUE
 90
4
  1
11,1 mm
304
ACVALUE_END
170
5
140
0.125
  0
ACAD_TABLE
  5
28E
100
AcDbEntity
  8
0
 62
2
  6
CONTINUOUS
100
AcDbBlockReference
  2
*T3
 10
0.52125
 20
1.459
 30
0.0
100
AcDbTable
342
       3C1
343
20C
 11
1.0
 21
0.0
 31
0.0
 90
22
 91
3
 92
3
 93
16
 94
0
 95
0
 96
0
 41
0.05
141
0.34375
141
0.344
141
0.25
142
1.3
142
2.0
142
1.3
171
1
172
0
173
0
174
0
175
3
176
1
 91
33
178
0
145
0.0
301
CELL_VALUE
 90
4
  1
Port Headings
304
ACVALUE_END
170
5
140
0.145
171
1
172
0
173
1
174
0
175
1
176
1
 91
1
178
0
145
0.0
170
1
171
1
172
0
173
1
174
0
175
1
176
1
 91
1
178
0
145
0.0
170
1
171
1
172
0
173
0
174
0
175
1
176
1
 91
33
178
0
145
0.0
301
CELL_VALUE
 90
4
  1
Product
304
ACVALUE_END
170
5
140
0.145
171
1
172
0
173
0
174
0
175
1
176
1
 91
33
178
0
145
0.0
301
CELL_VALUE
 90
4
  1
Port
304
ACVALUE_END
170
5
140
0.145
171
1
172
0
173
0
174
0
175
1
176
1
 91
33
178
0
145
0.0
301
CELL_VALUE
 90
4
  1
Size
304
ACVALUE_END
170
5
140
0.145
171
1
172
0
173
0
174
0
175
1
176
1
 91
33
178
0
145
0.0
301
CELL_VALUE
 90
4
  1
YVS
304
ACVALUE_END
170
5
140
0.125
171
1
172
0
173
0
174
0
175
1
176
1
 91
33
178
0
145
0.0
301
CELL_VALUE
 90
4
  1
Ports C2, V1, V2
304
ACVALUE_END
170
5
140
0.125
171
1
172
0
173
0
174
0
175
1
176
1
 91
33
178
0
145
0.0
301
CELL_VALUE
 90
4
  1
SAE 12
304
ACVALUE_END
170
5
140
0.125
  0
MTEXT
  5
28F
100
AcDbEntity
  8
0
100
AcDbMText
 62
2
  6
CONTINUOUS
  7
STANDARD
 71
1
 72
1
 10
0.52125
 20
5.75995
 30
0.0
 11
1.0
 21
0.0
 31
0.0
 44
0.6
  3
Notes\P \P1. Important: Carefully consider\P   the maximum system pressure. The\P   pressure rating of the manifold is\P   dependent on the manifold material,\P   with the port type/size a secondary\P   consideration. Manifolds\P   constructed of alu
  1
minum are not\P   rated for pressures higher than\P   3000 psi (210 bar), regardless of\P   the port type/size specified.
 40
0.1
 41
3.04
  0
LINE
  5
290
100
AcDbEntity
  8
0
100
AcDbLine
 62
7
  6
CONTINUOUS
 10
0.30125
 20
0.30125
 11
0.30125
 21
16.69875
  0
LINE
  5
291
100
AcDbEntity
  8
0
100
AcDbLine
 62
7
  6
CONTINUOUS
 10
0.30125
 20
0.30125
 11
21.69875
 21
0.30125
  0
LINE
  5
292
100
AcDbEntity
  8
0
100
AcDbLine
 62
7
  6
CONTINUOUS
 10
0.30125
 20
16.69875
 11
21.69875
 21
16.69875
  0
LINE
  5
293
100
AcDbEntity
  8
0
100
AcDbLine
 62
7
  6
CONTINUOUS
 10
21.69875
 20
0.30125
 11
21.69875
 21
16.69875
  0
LINE
  5
294
100
AcDbEntity
  8
0
100
AcDbLine
 62
7
  6
CONTINUOUS
 10
8.3903518759
 20
9.8801250789
 11
9.8058320298
 21
11.2473739973
  0
LINE
  5
295
100
AcDbEntity
  8
0
100
AcDbLine
 62
7
  6
CONTINUOUS
 10
8.3903518759
 20
6.0164215449
 11
8.3903518759
 21
9.8801250789
  0
LINE
  5
296
100
AcDbEntity
  8
0
100
AcDbLine
 62
7
  6
CONTINUOUS
 10
12.1941679702
 20
5.7526260027
 11
8.3903518759
 21
6.0164215449
  0
LINE
  5
297
100
AcDbEntity
  8
0
100
AcDbLine
 62
7
  6
CONTINUOUS
 10
9.4915964993
 20
9.8037535049
 11
9.4998787021
 21
9.811753499
  0
LINE
  5
298
100
AcDbEntity
  8
0
100
AcDbLine
 62
7
  6
CONTINUOUS
 10
10.0671100234
 20
9.7638415065
 11
10.0753922262
 21
9.7718415005
  0
LINE
  5
299
100
AcDbEntity
  8
0
100
AcDbLine
 62
4
  6
CONTINUOUS
 10
12.2278144185
 20
7.2581630358
 11
12.2200498537
 21
7.2579074857
  0
LINE
  5
29A
100
AcDbEntity
  8
0
100
AcDbLine
 62
4
  6
CONTINUOUS
 10
12.2200498537
 20
7.3448408132
 11
12.2511081128
 21
7.3386185698
  0
LINE
  5
29B
100
AcDbEntity
  8
0
100
AcDbLine
 62
7
  6
CONTINUOUS
 10
12.1941679702
 20
9.6163295368
 11
13.6096481241
 21
10.9835784551
  0
LINE
  5
29C
100
AcDbEntity
  8
0
100
AcDbLine
 62
4
  6
CONTINUOUS
 10
13.5690136197
 20
8.5464176157
 11
13.561249055
 21
8.5461620656
  0
LINE
  5
29D
100
AcDbEntity
  8
0
100
AcDbLine
 62
7
  6
CONTINUOUS
 10
10.304301384
 20
7.5346245165
 11
10.3125835868
 21
7.5426245105
  0
LINE
  5
29E
100
AcDbEntity
  8
0
100
AcDbLine
 62
4
  6
CONTINUOUS
 10
13.5767781845
 20
8.6915620451
 11
13.5845427493
 21
8.6918175953
  0
LINE
  5
29F
100
AcDbEntity
  8
0
100
AcDbLine
 62
7
  6
CONTINUOUS
 10
10.304301384
 20
7.2503054049
 11
10.3125835868
 21
7.258305399
  0
LINE
  5
2A0
100
AcDbEntity
  8
0
100
AcDbLine
 62
4
  6
CONTINUOUS
 10
13.1238452153
 20
8.5769575317
 11
13.1549034744
 21
8.5738400519
  0
LINE
  5
2A1
100
AcDbEntity
  8
0
100
AcDbLine
 62
4
  6
CONTINUOUS
 10
13.0555170453
 20
8.8269532886
 11
13.0865753044
 21
8.8238358088
  0
LINE
  5
2A2
100
AcDbEntity
  8
0
100
AcDbLine
 62
4
  6
CONTINUOUS
 10
12.2200498537
 20
8.7840702738
 11
12.2511081128
 21
8.7778480303
  0
LINE
  5
2A3
100
AcDbEntity
  8
0
100
AcDbLine
 62
4
  6
CONTINUOUS
 10
13.2449724257
 20
8.3227659179
 11
13.2427539779
 21
8.3233828393
  0
LINE
  5
2A4
100
AcDbEntity
  8
0
100
AcDbLine
 62
4
  6
CONTINUOUS
 10
12.2407553604
 20
7.2199519188
 11
12.2381671709
 21
7.2246963635
  0
LINE
  5
2A5
100
AcDbEntity
  8
0
100
AcDbLine
 62
4
  6
CONTINUOUS
 10
12.2329907947
 20
7.2486741436
 11
12.2278144185
 21
7.2581630358
  0
LINE
  5
2A6
100
AcDbEntity
  8
0
100
AcDbLine
 62
4
  6
CONTINUOUS
 10
12.2459317357
 20
7.2829074654
 11
12.2485199252
 21
7.2781630206
  0
LINE
  5
2A7
100
AcDbEntity
  8
0
100
AcDbLine
 62
4
  6
CONTINUOUS
 10
12.2511081128
 20
8.6981591467
 11
12.2200498537
 21
8.6681591703
  0
LINE
  5
2A8
100
AcDbEntity
  8
0
100
AcDbLine
 62
4
  6
CONTINUOUS
 10
13.206519343
 20
8.7409881155
 11
13.236098638
 21
8.7364420798
  0
LINE
  5
2A9
100
AcDbEntity
  8
0
100
AcDbLine
 62
4
  6
CONTINUOUS
 10
12.2511081128
 20
8.8502924699
 11
12.2200498537
 21
8.7840702738
  0
LINE
  5
2AA
100
AcDbEntity
  8
0
100
AcDbLine
 62
4
  6
CONTINUOUS
 10
13.236098638
 20
9.2332039358
 11
13.2405355318
 21
9.2374896465
  0
LINE
  5
2AB
100
AcDbEntity
  8
0
100
AcDbLine
 62
4
  6
CONTINUOUS
 10
12.2381671709
 20
7.2246963635
 11
12.2329907947
 21
7.2486741436
  0
LINE
  5
2AC
100
AcDbEntity
  8
0
100
AcDbLine
 62
4
  6
CONTINUOUS
 10
12.2485199252
 20
7.2781630206
 11
12.2511081128
 21
7.2661741301
  0
LINE
  5
2AD
100
AcDbEntity
  8
0
100
AcDbLine
 62
7
  6
CONTINUOUS
 10
12.1941679702
 20
9.6163295368
 11
12.1941679702
 21
5.7526260027
  0
LINE
  5
2AE
100
AcDbEntity
  8
0
100
AcDbLine
 62
4
  6
CONTINUOUS
 10
12.2200498537
 20
7.2579074857
 11
12.2200498537
 21
7.199951934
  0
LINE
  5
2AF
100
AcDbEntity
  8
0
100
AcDbLine
 62
4
  6
CONTINUOUS
 10
12.2511081128
 20
7.2661741301
 11
12.2511081128
 21
7.2516852422
  0
LINE
  5
2B0
100
AcDbEntity
  8
0
100
AcDbLine
 62
4
  6
CONTINUOUS
 10
13.218351061
 20
9.1581055402
 11
13.2227879554
 21
9.1623912513
  0
LINE
  5
2B1
100
AcDbEntity
  8
0
100
AcDbLine
 62
4
  6
CONTINUOUS
 10
13.2449724257
 20
9.1507023493
 11
13.218351061
 21
9.124988084
  0
LINE
  5
2B2
100
AcDbEntity
  8
0
100
AcDbLine
 62
4
  6
CONTINUOUS
 10
13.0555170453
 20
8.9318252331
 11
13.0865753044
 21
8.9618252094
  0
LINE
  5
2B3
100
AcDbEntity
  8
0
100
AcDbLine
 62
4
  6
CONTINUOUS
 10
13.218351061
 20
9.0670325323
 11
13.2449724257
 21
9.0927467976
  0
LINE
  5
2B4
100
AcDbEntity
  8
0
100
AcDbLine
 62
4
  6
CONTINUOUS
 10
13.2139141667
 20
9.0296293651
 11
13.2449724257
 21
9.0596293414
  0
LINE
  5
2B5
100
AcDbEntity
  8
0
100
AcDbLine
 62
4
  6
CONTINUOUS
 10
13.0821384105
 20
8.8995839539
 11
13.0599539397
 21
8.8781553993
  0
LINE
  5
2B6
100
AcDbEntity
  8
0
100
AcDbLine
 62
4
  6
CONTINUOUS
 10
13.2139141667
 20
8.9716738133
 11
13.2449724257
 21
9.0016737897
  0
LINE
  5
2B7
100
AcDbEntity
  8
0
100
AcDbLine
 62
4
  6
CONTINUOUS
 10
13.0555170453
 20
8.6944834502
 11
13.0865753044
 21
8.7244834265
  0
LINE
  5
2B8
100
AcDbEntity
  8
0
100
AcDbLine
 62
4
  6
CONTINUOUS
 10
13.2139141667
 20
8.8474833493
 11
13.2449724257
 21
8.8774833257
  0
LINE
  5
2B9
100
AcDbEntity
  8
0
100
AcDbLine
 62
7
  6
CONTINUOUS
 10
8.3903518759
 20
9.8801250789
 11
9.4915964993
 21
9.8037535049
  0
LINE
  5
2BA
100
AcDbEntity
  8
0
100
AcDbLine
 62
7
  6
CONTINUOUS
 10
10.0671100234
 20
9.7638415065
 11
12.1941679702
 21
9.6163295368
  0
LINE
  5
2BB
100
AcDbEntity
  8
0
100
AcDbLine
 62
7
  6
CONTINUOUS
 10
10.0753922262
 20
9.7718415005
 11
9.4998787021
 21
9.811753499
  0
LINE
  5
2BC
100
AcDbEntity
  8
0
100
AcDbLine
 62
4
  6
CONTINUOUS
 10
12.2511081128
 20
7.2516852422
 11
12.2485199252
 21
7.2346963568
  0
LINE
  5
2BD
100
AcDbEntity
  8
0
100
AcDbLine
 62
4
  6
CONTINUOUS
 10
12.2485199252
 20
7.2346963568
 11
12.2459317357
 21
7.2249519136
  0
LINE
  5
2BE
100
AcDbEntity
  8
0
100
AcDbLine
 62
4
  6
CONTINUOUS
 10
13.2338801901
 20
8.817092857
 11
13.2139141667
 21
8.7978071582
  0
LINE
  5
2BF
100
AcDbEntity
  8
0
100
AcDbLine
 62
4
  6
CONTINUOUS
 10
13.0555170453
 20
8.6282485379
 11
13.0865753044
 21
8.6582485142
  0
LINE
  5
2C0
100
AcDbEntity
  8
0
100
AcDbLine
 62
4
  6
CONTINUOUS
 10
13.1415927927
 20
8.6934527549
 11
13.1238452153
 21
8.6763099105
  0
LINE
  5
2C1
100
AcDbEntity
  8
0
100
AcDbLine
 62
4
  6
CONTINUOUS
 10
13.2161326138
 20
8.6950780485
 11
13.2338801901
 21
8.7122208918
  0
LINE
  5
2C2
100
AcDbEntity
  8
0
100
AcDbLine
 62
4
  6
CONTINUOUS
 10
13.2449724257
 20
8.6732590058
 11
13.2139141667
 21
8.6432590295
  0
LINE
  5
2C3
100
AcDbEntity
  8
0
100
AcDbLine
 62
4
  6
CONTINUOUS
 10
13.2139141667
 20
8.6101415319
 11
13.236098638
 21
8.6315700869
  0
LINE
  5
2C4
100
AcDbEntity
  8
0
100
AcDbLine
 62
4
  6
CONTINUOUS
 10
13.0599539397
 20
8.4586675662
 11
13.0821384105
 21
8.4800961208
  0
LINE
  5
2C5
100
AcDbEntity
  8
0
100
AcDbLine
 62
4
  6
CONTINUOUS
 10
13.1460296866
 20
8.5349109659
 11
13.1504665805
 21
8.5391966766
  0
LINE
  5
2C6
100
AcDbEntity
  8
0
100
AcDbLine
 62
4
  6
CONTINUOUS
 10
13.2338801901
 20
8.5907902331
 11
13.2294432962
 21
8.5865045224
  0
LINE
  5
2C7
100
AcDbEntity
  8
0
100
AcDbLine
 62
4
  6
CONTINUOUS
 10
13.1282821097
 20
8.4598125703
 11
13.132719004
 21
8.4640982814
  0
LINE
  5
2C8
100
AcDbEntity
  8
0
100
AcDbLine
 62
4
  6
CONTINUOUS
 10
13.2161326138
 20
8.5377701146
 11
13.2227879554
 21
8.5441986812
  0
LINE
  5
2C9
100
AcDbEntity
  8
0
100
AcDbLine
 62
4
  6
CONTINUOUS
 10
13.0599539397
 20
8.3620750168
 11
13.0821384105
 21
8.3835035714
  0
LINE
  5
2CA
100
AcDbEntity
  8
0
100
AcDbLine
 62
4
  6
CONTINUOUS
 10
13.2139141667
 20
8.4859510955
 11
13.2316617441
 21
8.5030939399
  0
LINE
  5
2CB
100
AcDbEntity
  8
0
100
AcDbLine
 62
4
  6
CONTINUOUS
 10
12.2511081128
 20
7.4110630094
 11
12.2200498537
 21
7.3448408132
  0
LINE
  5
2CC
100
AcDbEntity
  8
0
100
AcDbLine
 62
4
  6
CONTINUOUS
 10
13.0865753044
 20
8.8238358088
 11
13.0555170453
 21
8.7607183625
  0
LINE
  5
2CD
100
AcDbEntity
  8
0
100
AcDbLine
 62
4
  6
CONTINUOUS
 10
13.236098638
 20
8.4742622082
 11
13.2161326138
 21
8.4549765087
  0
LINE
  5
2CE
100
AcDbEntity
  8
0
100
AcDbLine
 62
4
  6
CONTINUOUS
 10
13.0821384105
 20
8.3255480197
 11
13.0599539397
 21
8.3041194651
  0
LINE
  5
2CF
100
AcDbEntity
  8
0
100
AcDbLine
 62
4
  6
CONTINUOUS
 10
13.0555170453
 20
8.2667163117
 11
13.0865753044
 21
8.296716288
  0
LINE
  5
2D0
100
AcDbEntity
  8
0
100
AcDbLine
 62
4
  6
CONTINUOUS
 10
13.2139141667
 20
8.4031574344
 11
13.236098638
 21
8.4245859895
  0
LINE
  5
2D1
100
AcDbEntity
  8
0
100
AcDbLine
 62
4
  6
CONTINUOUS
 10
13.2161326138
 20
8.3721828476
 11
13.2449724257
 21
8.4000399684
  0
LINE
  5
2D2
100
AcDbEntity
  8
0
100
AcDbLine
 62
4
  6
CONTINUOUS
 10
13.0821384105
 20
8.2344750257
 11
13.0599539397
 21
8.2130464711
  0
LINE
  5
2D3
100
AcDbEntity
  8
0
100
AcDbLine
 62
4
  6
CONTINUOUS
 10
13.0555170453
 20
8.1618443189
 11
13.0865753044
 21
8.1918442952
  0
LINE
  5
2D4
100
AcDbEntity
  8
0
100
AcDbLine
 62
4
  6
CONTINUOUS
 10
13.2427539779
 20
8.3233828393
 11
13.2449724257
 21
8.3255256956
  0
LINE
  5
2D5
100
AcDbEntity
  8
0
100
AcDbLine
 62
4
  6
CONTINUOUS
 10
13.2139141667
 20
8.2955257192
 11
13.236098638
 21
8.3169542742
  0
LINE
  5
2D6
100
AcDbEntity
  8
0
100
AcDbLine
 62
4
  6
CONTINUOUS
 10
13.2161326138
 20
8.2535119666
 11
13.2338801901
 21
8.2706548098
  0
LINE
  5
2D7
100
AcDbEntity
  8
0
100
AcDbLine
 62
4
  6
CONTINUOUS
 10
13.2272248492
 20
8.1897119157
 11
13.2338801901
 21
8.1961404817
  0
LINE
  5
2D8
100
AcDbEntity
  8
0
100
AcDbLine
 62
4
  6
CONTINUOUS
 10
12.2459317357
 20
7.2249519136
 11
12.2407553604
 21
7.2199519188
  0
LINE
  5
2D9
100
AcDbEntity
  8
0
100
AcDbLine
 62
4
  6
CONTINUOUS
 10
13.5871309369
 20
8.5132064936
 11
13.5819545616
 21
8.5082064987
  0
LINE
  5
2DA
100
AcDbEntity
  8
0
100
AcDbLine
 62
4
  6
CONTINUOUS
 10
13.0688277279
 20
9.0109172851
 11
13.0629118689
 21
8.9610463921
  0
LINE
  5
2DB
100
AcDbEntity
  8
0
100
AcDbLine
 62
4
  6
CONTINUOUS
 10
13.0865753044
 20
8.9204283927
 11
13.0821384105
 21
8.8995839539
  0
LINE
  5
2DC
100
AcDbEntity
  8
0
100
AcDbLine
 62
4
  6
CONTINUOUS
 10
13.2161326138
 20
9.2139182363
 11
13.2139141667
 21
9.2034960159
  0
LINE
  5
2DD
100
AcDbEntity
  8
0
100
AcDbLine
 62
4
  6
CONTINUOUS
 10
13.0555170453
 20
8.4378231339
 11
13.0599539397
 21
8.4586675662
  0
LINE
  5
2DE
100
AcDbEntity
  8
0
100
AcDbLine
 62
4
  6
CONTINUOUS
 10
13.218351061
 20
9.124988084
 11
13.2139141667
 21
9.1041436448
  0
LINE
  5
2DF
100
AcDbEntity
  8
0
100
AcDbLine
 62
4
  6
CONTINUOUS
 10
13.0555170453
 20
8.3412305846
 11
13.0599539397
 21
8.3620750168
  0
LINE
  5
2E0
100
AcDbEntity
  8
0
100
AcDbLine
 62
4
  6
CONTINUOUS
 10
13.2449724257
 20
9.1920991695
 11
13.2427539779
 21
9.1816769492
  0
LINE
  5
2E1
100
AcDbEntity
  8
0
100
AcDbLine
 62
4
  6
CONTINUOUS
 10
13.1549034744
 20
8.7394273465
 11
13.1415927927
 21
8.6934527549
  0
LINE
  5
2E2
100
AcDbEntity
  8
0
100
AcDbLine
 62
4
  6
CONTINUOUS
 10
13.2449724257
 20
9.0596293414
 11
13.2139141667
 21
8.9716738133
  0
LINE
  5
2E3
100
AcDbEntity
  8
0
100
AcDbLine
 62
4
  6
CONTINUOUS
 10
13.236098638
 20
8.7861182433
 11
13.2139141667
 21
8.7398515788
  0
LINE
  5
2E4
100
AcDbEntity
  8
0
100
AcDbLine
 62
4
  6
CONTINUOUS
 10
13.1549034744
 20
8.6400749711
 11
13.1238452153
 21
8.5769575317
  0
LINE
  5
2E5
100
AcDbEntity
  8
0
100
AcDbLine
 62
4
  6
CONTINUOUS
 10
13.2161326138
 20
8.1293215302
 11
13.2227879554
 21
8.1357500968
  0
LINE
  5
2E6
100
AcDbEntity
  8
0
100
AcDbLine
 62
4
  6
CONTINUOUS
 10
13.1415927927
 20
8.6934527549
 11
13.1549034744
 21
8.6731924273
  0
LINE
  5
2E7
100
AcDbEntity
  8
0
100
AcDbLine
 62
4
  6
CONTINUOUS
 10
13.0599539397
 20
8.2130464711
 11
13.0555170453
 21
8.2253194811
  0
LINE
  5
2E8
100
AcDbEntity
  8
0
100
AcDbLine
 62
4
  6
CONTINUOUS
 10
13.0599539397
 20
8.3041194651
 11
13.0555170453
 21
8.3163924752
  0
LINE
  5
2E9
100
AcDbEntity
  8
0
100
AcDbLine
 62
4
  6
CONTINUOUS
 10
13.0821384105
 20
8.3835035714
 11
13.0865753044
 21
8.3712305609
  0
LINE
  5
2EA
100
AcDbEntity
  8
0
100
AcDbLine
 62
4
  6
CONTINUOUS
 10
13.0821384105
 20
8.4800961208
 11
13.0865753044
 21
8.4678231103
  0
LINE
  5
2EB
100
AcDbEntity
  8
0
100
AcDbLine
 62
4
  6
CONTINUOUS
 10
13.2139141667
 20
8.1354580076
 11
13.2161326138
 21
8.1293215302
  0
LINE
  5
2EC
100
AcDbEntity
  8
0
100
AcDbLine
 62
4
  6
CONTINUOUS
 10
13.1238452153
 20
8.4720855803
 11
13.1282821097
 21
8.4598125703
  0
LINE
  5
2ED
100
AcDbEntity
  8
0
100
AcDbLine
 62
4
  6
CONTINUOUS
 10
13.2338801901
 20
8.1961404817
 11
13.236098638
 21
8.1900040049
  0
LINE
  5
2EE
100
AcDbEntity
  8
0
100
AcDbLine
 62
4
  6
CONTINUOUS
 10
13.2338801901
 20
8.2706548098
 11
13.236098638
 21
8.2645183331
  0
LINE
  5
2EF
100
AcDbEntity
  8
0
100
AcDbLine
 62
4
  6
CONTINUOUS
 10
13.1504665805
 20
8.5391966766
 11
13.1549034744
 21
8.5269236522
  0
LINE
  5
2F0
100
AcDbEntity
  8
0
100
AcDbLine
 62
4
  6
CONTINUOUS
 10
13.0688277279
 20
8.0477512377
 11
13.0629118689
 21
8.0861935646
  0
LINE
  5
2F1
100
AcDbEntity
  8
0
100
AcDbLine
 62
4
  6
CONTINUOUS
 10
13.0555170453
 20
8.6282485379
 11
13.0555170453
 21
8.5785723467
  0
LINE
  5
2F2
100
AcDbEntity
  8
0
100
AcDbLine
 62
4
  6
CONTINUOUS
 10
13.0555170453
 20
8.1618443189
 11
13.0555170453
 21
8.1121681554
  0
LINE
  5
2F3
100
AcDbEntity
  8
0
100
AcDbLine
 62
4
  6
CONTINUOUS
 10
13.0555170453
 20
8.2253194811
 11
13.0555170453
 21
8.2667163117
  0
LINE
  5
2F4
100
AcDbEntity
  8
0
100
AcDbLine
 62
4
  6
CONTINUOUS
 10
13.0555170453
 20
8.3163924752
 11
13.0555170453
 21
8.3412305846
  0
LINE
  5
2F5
100
AcDbEntity
  8
0
100
AcDbLine
 62
4
  6
CONTINUOUS
 10
13.0555170453
 20
8.4047056916
 11
13.0555170453
 21
8.4378231339
  0
LINE
  5
2F6
100
AcDbEntity
  8
0
100
AcDbLine
 62
4
  6
CONTINUOUS
 10
13.0555170453
 20
8.8904284163
 11
13.0555170453
 21
8.9318252331
  0
LINE
  5
2F7
100
AcDbEntity
  8
0
100
AcDbLine
 62
4
  6
CONTINUOUS
 10
13.064390834
 20
8.8244855587
 11
13.064390834
 21
8.7803289505
  0
LINE
  5
2F8
100
AcDbEntity
  8
0
100
AcDbLine
 62
4
  6
CONTINUOUS
 10
13.0732646227
 20
8.1458697209
 11
13.0732646227
 21
8.1789871633
  0
LINE
  5
2F9
100
AcDbEntity
  8
0
100
AcDbLine
 62
4
  6
CONTINUOUS
 10
13.0732646227
 20
8.6122739123
 11
13.0732646227
 21
8.6453913823
  0
LINE
  5
2FA
100
AcDbEntity
  8
0
100
AcDbLine
 62
4
  6
CONTINUOUS
 10
13.0865753044
 20
8.9618252094
 11
13.0865753044
 21
8.9204283927
  0
LINE
  5
2FB
100
AcDbEntity
  8
0
100
AcDbLine
 62
4
  6
CONTINUOUS
 10
13.0865753044
 20
8.7576008965
 11
13.0865753044
 21
8.6913659842
  0
LINE
  5
2FC
100
AcDbEntity
  8
0
100
AcDbLine
 62
4
  6
CONTINUOUS
 10
13.0865753044
 20
8.6582485142
 11
13.0865753044
 21
8.6085723231
  0
LINE
  5
2FD
100
AcDbEntity
  8
0
100
AcDbLine
 62
4
  6
CONTINUOUS
 10
13.0865753044
 20
8.4678231103
 11
13.0865753044
 21
8.4347056679
  0
LINE
  5
2FE
100
AcDbEntity
  8
0
100
AcDbLine
 62
4
  6
CONTINUOUS
 10
13.0865753044
 20
8.3712305609
 11
13.0865753044
 21
8.3463924515
  0
LINE
  5
2FF
100
AcDbEntity
  8
0
100
AcDbLine
 62
4
  6
CONTINUOUS
 10
13.0865753044
 20
8.296716288
 11
13.0865753044
 21
8.2553194575
  0
LINE
  5
300
100
AcDbEntity
  8
0
100
AcDbLine
 62
4
  6
CONTINUOUS
 10
13.0865753044
 20
8.1918442952
 11
13.0865753044
 21
8.1421681317
  0
LINE
  5
301
100
AcDbEntity
  8
0
100
AcDbLine
 62
4
  6
CONTINUOUS
 10
13.1238452153
 20
8.5052030503
 11
13.1238452153
 21
8.4720855803
  0
LINE
  5
302
100
AcDbEntity
  8
0
100
AcDbLine
 62
4
  6
CONTINUOUS
 10
13.1549034744
 20
8.5269236522
 11
13.1549034744
 21
8.4938061961
  0
LINE
  5
303
100
AcDbEntity
  8
0
100
AcDbLine
 62
4
  6
CONTINUOUS
 10
13.206519343
 20
8.7575468367
 11
13.206519343
 21
8.7409881155
  0
LINE
  5
304
100
AcDbEntity
  8
0
100
AcDbLine
 62
4
  6
CONTINUOUS
 10
13.2139141667
 20
9.2034960159
 11
13.2139141667
 21
9.1703785571
  0
LINE
  5
305
100
AcDbEntity
  8
0
100
AcDbLine
 62
4
  6
CONTINUOUS
 10
13.2139141667
 20
9.1041436448
 11
13.2139141667
 21
9.0793055424
  0
LINE
  5
306
100
AcDbEntity
  8
0
100
AcDbLine
 62
4
  6
CONTINUOUS
 10
13.2139141667
 20
8.444554265
 11
13.2139141667
 21
8.4031574344
  0
LINE
  5
307
100
AcDbEntity
  8
0
100
AcDbLine
 62
4
  6
CONTINUOUS
 10
13.2139141667
 20
8.1685754499
 11
13.2139141667
 21
8.1354580076
  0
LINE
  5
308
100
AcDbEntity
  8
0
100
AcDbLine
 62
4
  6
CONTINUOUS
 10
13.2139141667
 20
8.2099722252
 11
13.2139141667
 21
8.2430897781
  0
LINE
  5
309
100
AcDbEntity
  8
0
100
AcDbLine
 62
4
  6
CONTINUOUS
 10
13.2139141667
 20
8.3452018827
 11
13.2139141667
 21
8.3617606039
  0
LINE
  5
30A
100
AcDbEntity
  8
0
100
AcDbLine
 62
4
  6
CONTINUOUS
 10
13.2139141667
 20
8.4859510955
 11
13.2139141667
 21
8.5190685378
  0
LINE
  5
30B
100
AcDbEntity
  8
0
100
AcDbLine
 62
4
  6
CONTINUOUS
 10
13.2139141667
 20
8.6432590295
 11
13.2139141667
 21
8.6763764718
  0
LINE
  5
30C
100
AcDbEntity
  8
0
100
AcDbLine
 62
4
  6
CONTINUOUS
 10
13.2250064023
 20
8.5297828154
 11
13.2250064023
 21
8.496665373
  0
LINE
  5
30D
100
AcDbEntity
  8
0
100
AcDbLine
 62
4
  6
CONTINUOUS
 10
13.236098638
 20
8.8689119044
 11
13.236098638
 21
8.8275150738
  0
LINE
  5
30E
100
AcDbEntity
  8
0
100
AcDbLine
 62
4
  6
CONTINUOUS
 10
13.236098638
 20
8.6978050269
 11
13.236098638
 21
8.6646875845
  0
LINE
  5
30F
100
AcDbEntity
  8
0
100
AcDbLine
 62
4
  6
CONTINUOUS
 10
13.236098638
 20
8.6315700869
 11
13.236098638
 21
8.5984526446
  0
LINE
  5
310
100
AcDbEntity
  8
0
100
AcDbLine
 62
4
  6
CONTINUOUS
 10
13.236098638
 20
8.2645183331
 11
13.236098638
 21
8.2314007802
  0
LINE
  5
311
100
AcDbEntity
  8
0
100
AcDbLine
 62
4
  6
CONTINUOUS
 10
13.236098638
 20
8.1900040049
 11
13.236098638
 21
8.1568865626
  0
LINE
  5
312
100
AcDbEntity
  8
0
100
AcDbLine
 62
4
  6
CONTINUOUS
 10
13.236098638
 20
8.5156589835
 11
13.236098638
 21
8.5570558141
  0
LINE
  5
313
100
AcDbEntity
  8
0
100
AcDbLine
 62
4
  6
CONTINUOUS
 10
13.2449724257
 20
9.2252166273
 11
13.2449724257
 21
9.1920991695
  0
LINE
  5
314
100
AcDbEntity
  8
0
100
AcDbLine
 62
4
  6
CONTINUOUS
 10
13.2449724257
 20
8.3255256956
 11
13.2449724257
 21
8.3227659179
  0
LINE
  5
315
100
AcDbEntity
  8
0
100
AcDbLine
 62
4
  6
CONTINUOUS
 10
13.22426692
 20
8.145458
 11
13.2257458846
 21
8.1800040125
  0
LINE
  5
316
100
AcDbEntity
  8
0
100
AcDbLine
 62
4
  6
CONTINUOUS
 10
13.0747435874
 20
8.0976221276
 11
13.0688277279
 21
8.0477512377
  0
LINE
  5
317
100
AcDbEntity
  8
0
100
AcDbLine
 62
4
  6
CONTINUOUS
 10
13.2139141667
 20
8.6763764718
 11
13.2161326138
 21
8.6950780485
  0
LINE
  5
318
100
AcDbEntity
  8
0
100
AcDbLine
 62
4
  6
CONTINUOUS
 10
13.2139141667
 20
8.5190685378
 11
13.2161326138
 21
8.5377701146
  0
LINE
  5
319
100
AcDbEntity
  8
0
100
AcDbLine
 62
4
  6
CONTINUOUS
 10
13.2257458846
 20
8.1800040125
 11
13.2272248492
 21
8.1897119157
  0
LINE
  5
31A
100
AcDbEntity
  8
0
100
AcDbLine
 62
4
  6
CONTINUOUS
 10
13.2227879554
 20
8.1357500968
 11
13.22426692
 21
8.145458
  0
LINE
  5
31B
100
AcDbEntity
  8
0
100
AcDbLine
 62
4
  6
CONTINUOUS
 10
13.2227879554
 20
9.1623912513
 11
13.236098638
 21
9.2332039358
  0
LINE
  5
31C
100
AcDbEntity
  8
0
100
AcDbLine
 62
4
  6
CONTINUOUS
 10
13.132719004
 20
8.4640982814
 11
13.1460296866
 21
8.5349109659
  0
LINE
  5
31D
100
AcDbEntity
  8
0
100
AcDbLine
 62
4
  6
CONTINUOUS
 10
13.0865753044
 20
8.3463924515
 11
13.0821384105
 21
8.3255480197
  0
LINE
  5
31E
100
AcDbEntity
  8
0
100
AcDbLine
 62
4
  6
CONTINUOUS
 10
13.1260636625
 20
8.5156252664
 11
13.1238452153
 21
8.5052030503
  0
LINE
  5
31F
100
AcDbEntity
  8
0
100
AcDbLine
 62
4
  6
CONTINUOUS
 10
13.0865753044
 20
8.2553194575
 11
13.0821384105
 21
8.2344750257
  0
LINE
  5
320
100
AcDbEntity
  8
0
100
AcDbLine
 62
4
  6
CONTINUOUS
 10
13.1549034744
 20
8.4938061961
 11
13.1526850265
 21
8.4833839793
  0
LINE
  5
321
100
AcDbEntity
  8
0
100
AcDbLine
 62
4
  6
CONTINUOUS
 10
13.236098638
 20
8.8275150738
 11
13.2338801901
 21
8.817092857
  0
LINE
  5
322
100
AcDbEntity
  8
0
100
AcDbLine
 62
4
  6
CONTINUOUS
 10
13.2161326138
 20
8.4549765087
 11
13.2139141667
 21
8.444554265
  0
LINE
  5
323
100
AcDbEntity
  8
0
100
AcDbLine
 62
4
  6
CONTINUOUS
 10
13.2139141667
 20
8.3617606039
 11
13.2161326138
 21
8.3721828476
  0
LINE
  5
324
100
AcDbEntity
  8
0
100
AcDbLine
 62
4
  6
CONTINUOUS
 10
13.2139141667
 20
8.2430897781
 11
13.2161326138
 21
8.2535119666
  0
LINE
  5
325
100
AcDbEntity
  8
0
100
AcDbLine
 62
4
  6
CONTINUOUS
 10
13.2161326138
 20
8.1789976384
 11
13.2139141667
 21
8.1685754499
  0
LINE
  5
326
100
AcDbEntity
  8
0
100
AcDbLine
 62
4
  6
CONTINUOUS
 10
13.236098638
 20
8.1568865626
 11
13.2338801901
 21
8.1464643734
  0
LINE
  5
327
100
AcDbEntity
  8
0
100
AcDbLine
 62
4
  6
CONTINUOUS
 10
13.236098638
 20
8.5984526446
 11
13.2338801901
 21
8.5907902331
  0
LINE
  5
328
100
AcDbEntity
  8
0
100
AcDbLine
 62
4
  6
CONTINUOUS
 10
13.2316617441
 20
8.5030939399
 11
13.236098638
 21
8.5156589835
  0
LINE
  5
329
100
AcDbEntity
  8
0
100
AcDbLine
 62
4
  6
CONTINUOUS
 10
13.5690136197
 20
8.6768176071
 11
13.5767781845
 21
8.6915620451
  0
LINE
  5
32A
100
AcDbEntity
  8
0
100
AcDbLine
 62
4
  6
CONTINUOUS
 10
13.5819545616
 20
8.5082064987
 11
13.5793663722
 21
8.5129509435
  0
LINE
  5
32B
100
AcDbEntity
  8
0
100
AcDbLine
 62
4
  6
CONTINUOUS
 10
13.5741899959
 20
8.5369287236
 11
13.5690136197
 21
8.5464176157
  0
LINE
  5
32C
100
AcDbEntity
  8
0
100
AcDbLine
 62
4
  6
CONTINUOUS
 10
13.5871309369
 20
8.5711620453
 11
13.5897191264
 21
8.5664176006
  0
LINE
  5
32D
100
AcDbEntity
  8
0
100
AcDbLine
 62
4
  6
CONTINUOUS
 10
13.5664254316
 20
8.6091176135
 11
13.5638372433
 21
8.6138620594
  0
LINE
  5
32E
100
AcDbEntity
  8
0
100
AcDbLine
 62
4
  6
CONTINUOUS
 10
13.0599539397
 20
8.8781553993
 11
13.0555170453
 21
8.8904284163
  0
LINE
  5
32F
100
AcDbEntity
  8
0
100
AcDbLine
 62
4
  6
CONTINUOUS
 10
13.2139141667
 20
9.0793055424
 11
13.218351061
 21
9.0670325323
  0
LINE
  5
330
100
AcDbEntity
  8
0
100
AcDbLine
 62
4
  6
CONTINUOUS
 10
13.0747435874
 20
8.9724749552
 11
13.0688277279
 21
9.0109172851
  0
LINE
  5
331
100
AcDbEntity
  8
0
100
AcDbLine
 62
4
  6
CONTINUOUS
 10
13.2227879554
 20
8.5441986812
 11
13.2250064023
 21
8.5297828154
  0
LINE
  5
332
100
AcDbEntity
  8
0
100
AcDbLine
 62
4
  6
CONTINUOUS
 10
13.2338801901
 20
8.7122208918
 11
13.236098638
 21
8.6978050269
  0
LINE
  5
333
100
AcDbEntity
  8
0
100
AcDbLine
 62
4
  6
CONTINUOUS
 10
13.561249055
 20
8.6403398371
 11
13.5638372433
 21
8.6573287232
  0
LINE
  5
334
100
AcDbEntity
  8
0
100
AcDbLine
 62
4
  6
CONTINUOUS
 10
13.5923073141
 20
8.6558509256
 11
13.5897191264
 21
8.6388620402
  0
LINE
  5
335
100
AcDbEntity
  8
0
100
AcDbLine
 62
4
  6
CONTINUOUS
 10
13.5923073141
 20
8.5399398221
 11
13.5897191264
 21
8.5229509368
  0
LINE
  5
336
100
AcDbEntity
  8
0
100
AcDbLine
 62
4
  6
CONTINUOUS
 10
13.5638372433
 20
8.6573287232
 11
13.5690136197
 21
8.6768176071
  0
LINE
  5
337
100
AcDbEntity
  8
0
100
AcDbLine
 62
4
  6
CONTINUOUS
 10
13.5897191264
 20
8.6388620402
 11
13.5871309369
 21
8.629117597
  0
LINE
  5
338
100
AcDbEntity
  8
0
100
AcDbLine
 62
4
  6
CONTINUOUS
 10
13.5897191264
 20
8.5229509368
 11
13.5871309369
 21
8.5132064936
  0
LINE
  5
339
100
AcDbEntity
  8
0
100
AcDbLine
 62
4
  6
CONTINUOUS
 10
13.5845427493
 20
8.6918175953
 11
13.5897191264
 21
8.682328704
  0
LINE
  5
33A
100
AcDbEntity
  8
0
100
AcDbLine
 62
4
  6
CONTINUOUS
 10
13.2139141667
 20
9.1703785571
 11
13.218351061
 21
9.1581055402
  0
LINE
  5
33B
100
AcDbEntity
  8
0
100
AcDbLine
 62
4
  6
CONTINUOUS
 10
13.2405355318
 20
9.2374896465
 11
13.2449724257
 21
9.2252166273
  0
LINE
  5
33C
100
AcDbEntity
  8
0
100
AcDbLine
 62
4
  6
CONTINUOUS
 10
13.5793663722
 20
8.5129509435
 11
13.5741899959
 21
8.5369287236
  0
LINE
  5
33D
100
AcDbEntity
  8
0
100
AcDbLine
 62
4
  6
CONTINUOUS
 10
13.5638372433
 20
8.6138620594
 11
13.561249055
 21
8.6258509492
  0
LINE
  5
33E
100
AcDbEntity
  8
0
100
AcDbLine
 62
4
  6
CONTINUOUS
 10
13.5897191264
 20
8.5664176006
 11
13.5923073141
 21
8.5544287101
  0
LINE
  5
33F
100
AcDbEntity
  8
0
100
AcDbLine
 62
4
  6
CONTINUOUS
 10
13.561249055
 20
8.5461620656
 11
13.561249055
 21
8.4882065139
  0
LINE
  5
340
100
AcDbEntity
  8
0
100
AcDbLine
 62
4
  6
CONTINUOUS
 10
13.561249055
 20
8.6258509492
 11
13.561249055
 21
8.6403398371
  0
LINE
  5
341
100
AcDbEntity
  8
0
100
AcDbLine
 62
4
  6
CONTINUOUS
 10
13.5923073141
 20
8.6703398135
 11
13.5923073141
 21
8.6558509256
  0
LINE
  5
342
100
AcDbEntity
  8
0
100
AcDbLine
 62
4
  6
CONTINUOUS
 10
13.5923073141
 20
8.5544287101
 11
13.5923073141
 21
8.5399398221
  0
LINE
  5
343
100
AcDbEntity
  8
0
100
AcDbLine
 62
7
  6
CONTINUOUS
 10
13.6096481241
 20
10.9835784551
 11
13.6096481241
 21
7.1198749211
  0
LINE
  5
344
100
AcDbEntity
  8
0
100
AcDbLine
 62
7
  6
CONTINUOUS
 10
12.1941679702
 20
5.7526260027
 11
13.6096481241
 21
7.1198749211
  0
LINE
  5
345
100
AcDbEntity
  8
0
100
AcDbLine
 62
7
  6
CONTINUOUS
 10
9.8058320298
 20
11.2473739973
 11
13.6096481241
 21
10.9835784551
  0
LINE
  5
346
100
AcDbEntity
  8
0
100
AcDbLine
 62
4
  6
CONTINUOUS
 10
13.5897191264
 20
8.682328704
 11
13.5923073141
 21
8.6703398135
  0
ARC
  5
347
100
AcDbEntity
  8
0
100
AcDbCircle
 62
7
  6
CONTINUOUS
 10
11.1918078067
 20
-1.35061265
 40
9.0384172414
100
AcDbArc
 50
97.2901513443
 51
97.5479688957
  0
ARC
  5
348
100
AcDbEntity
  8
0
100
AcDbCircle
 62
7
  6
CONTINUOUS
 10
11.0640431736
 20
7.7109163113
 40
1.0654027724
100
AcDbArc
 50
179.6048609295
 51
180.0008376181
  0
ARC
  5
349
100
AcDbEntity
  8
0
100
AcDbCircle
 62
7
  6
CONTINUOUS
 10
11.1605572695
 20
7.4017472694
 40
0.860017729
100
AcDbArc
 50
180.0297962448
 51
189.6011730351
  0
ARC
  5
34A
100
AcDbEntity
  8
0
100
AcDbCircle
 62
7
  6
CONTINUOUS
 10
11.1310562169
 20
7.4017435964
 40
0.8305114353
100
AcDbArc
 50
170.2335734456
 51
180.0306012521
  0
ARC
  5
34B
100
AcDbEntity
  8
0
100
AcDbCircle
 62
7
  6
CONTINUOUS
 10
11.0832433422
 20
7.4394973824
 40
0.7619576458
100
AcDbArc
 50
135.2150722432
 51
136.5497835596
  0
ARC
  5
34C
100
AcDbEntity
  8
0
100
AcDbCircle
 62
7
  6
CONTINUOUS
 10
11.2403677307
 20
7.2768246159
 40
0.7618776801
100
AcDbArc
 50
311.4634939076
 51
313.0394687278
  0
ARC
  5
34D
100
AcDbEntity
  8
0
100
AcDbCircle
 62
7
  6
CONTINUOUS
 10
9.7149865924
 20
9.1425639366
 40
0.7024316932
100
AcDbArc
 50
134.6629044539
 51
134.9458852566
  0
ARC
  5
34E
100
AcDbEntity
  8
0
100
AcDbCircle
 62
7
  6
CONTINUOUS
 10
9.6188312839
 20
7.3783736287
 40
0.7023885286
100
AcDbArc
 50
313.0681170638
 51
313.245664154
  0
ARC
  5
34F
100
AcDbEntity
  8
0
100
AcDbCircle
 62
7
  6
CONTINUOUS
 10
11.876859821
 20
8.0936343282
 40
0.6017918387
100
AcDbArc
 50
176.7686661937
 51
180.0013962683
  0
ARC
  5
350
100
AcDbEntity
  8
0
100
AcDbCircle
 62
7
  6
CONTINUOUS
 10
11.7879090379
 20
8.017403424
 40
0.5922072299
100
AcDbArc
 50
168.3415664396
 51
180.0433965118
  0
ARC
  5
351
100
AcDbEntity
  8
0
100
AcDbCircle
 62
7
  6
CONTINUOUS
 10
11.8827694836
 20
8.0972878241
 40
0.5832066068
100
AcDbArc
 50
177.5345932794
 51
180.0007769808
  0
ARC
  5
352
100
AcDbEntity
  8
0
100
AcDbCircle
 62
7
  6
CONTINUOUS
 10
9.8294719672
 20
9.0656430828
 40
0.5135678465
100
AcDbArc
 50
355.9028109656
 51
357.957513147
  0
ARC
  5
353
100
AcDbEntity
  8
0
100
AcDbCircle
 62
7
  6
CONTINUOUS
 10
9.5879904963
 20
7.4519070233
 40
0.5135678464
100
AcDbArc
 50
355.9028109656
 51
357.957513147
  0
ARC
  5
354
100
AcDbEntity
  8
0
100
AcDbCircle
 62
7
  6
CONTINUOUS
 10
11.8844170462
 20
8.0901794394
 40
0.4824660257
100
AcDbArc
 50
179.7025561308
 51
180.0000197073
  0
ARC
  5
355
100
AcDbEntity
  8
0
100
AcDbCircle
 62
7
  6
CONTINUOUS
 10
10.0165286139
 20
9.3265570693
 40
0.4684487631
100
AcDbArc
 50
173.7189681025
 51
180.0118566903
  0
ARC
  5
356
100
AcDbEntity
  8
0
100
AcDbCircle
 62
7
  6
CONTINUOUS
 10
9.7825284635
 20
9.4418440575
 40
0.2403266338
100
AcDbArc
 50
195.4535271625
 51
208.7268454588
  0
ARC
  5
357
100
AcDbEntity
  8
0
100
AcDbCircle
 62
7
  6
CONTINUOUS
 10
9.8242452692
 20
7.7157162781
 40
0.1549771714
100
AcDbArc
 50
0.0779108384
 51
15.6401035556
  0
SPLINE
  5
358
100
AcDbEntity
  8
0
100
AcDbSpline
 62
7
  6
CONTINUOUS
 70
0
 71
3
 72
24
 73
20
 74
0
 42
0.0000001
 43
0.0000001
 44
0.0000000001
 40
0.0
 40
0.0
 40
0.0
 40
0.0
 40
0.0637774405
 40
0.1273438928
 40
0.1907011062
 40
0.2538548466
 40
0.3168115805
 40
0.3795801794
 40
0.4421711494
 40
0.5045967879
 40
0.5668710018
 40
0.6290092034
 40
0.6910281616
 40
0.7220010193
 40
0.7529508961
 40
0.8147862926
 40
0.8765592292
 40
0.9382901681
 40
1.0
 40
1.0
 40
1.0
 40
1.0
 10
11.9826303343
 20
7.2760724527
 30
0.0
 10
11.9826303343
 20
7.2625721582
 30
0.0
 10
11.9819842143
 20
7.2356116538
 30
0.0
 10
11.9790676332
 20
7.1953347841
 30
0.0
 10
11.9742117387
 20
7.15537734
 30
0.0
 10
11.9674277924
 20
7.1158327602
 30
0.0
 10
11.9587312175
 20
7.0767917522
 30
0.0
 10
11.9481420388
 20
7.0383444544
 30
0.0
 10
11.9356845402
 20
7.0005794616
 30
0.0
 10
11.9213873963
 20
6.9635839088
 30
0.0
 10
11.9052833958
 20
6.9274429688
 30
0.0
 10
11.8874099472
 20
6.8922405514
 30
0.0
 10
11.8710669653
 20
6.8637408539
 30
0.0
 10
11.857152896
 20
6.8414957878
 30
0.0
 10
11.8426966296
 20
6.8196457773
 30
0.0
 10
11.8236017718
 20
6.7930604926
 30
0.0
 10
11.7991003009
 20
6.7623979722
 30
0.0
 10
11.773074292
 20
6.733054634
 30
0.0
 10
11.7547440341
 20
6.7144139333
 30
0.0
 10
11.7453486819
 20
6.7053387157
 30
0.0
  0
SPLINE
  5
359
100
AcDbEntity
  8
0
100
AcDbSpline
 62
7
  6
CONTINUOUS
 70
0
 71
3
 72
50
 73
46
 74
0
 42
0.0000001
 43
0.0000001
 44
0.0000000001
 40
0.0
 40
0.0
 40
0.0
 40
0.0
 40
0.0417738954
 40
0.0840375015
 40
0.126658999
 40
0.1695072728
 40
0.2124490406
 40
0.2553511879
 40
0.2980805661
 40
0.3405047668
 40
0.3824925704
 40
0.4239144964
 40
0.4646433325
 40
0.504554679
 40
0.5435274987
 40
0.5814446837
 40
0.6181936452
 40
0.6536669372
 40
0.6877629283
 40
0.7203865442
 40
0.7514501111
 40
0.7808743474
 40
0.8085895768
 40
0.8217881241
 40
0.8345385176
 40
0.8468355036
 40
0.8586748141
 40
0.8700533313
 40
0.8809690507
 40
0.8914214953
 40
0.9014115725
 40
0.9109421624
 40
0.9200180335
 40
0.9286464829
 40
0.9368375013
 40
0.9446043826
 40
0.9519642537
 40
0.9589386378
 40
0.9655543111
 40
0.9718437858
 40
0.9778461759
 40
0.9836073377
 40
0.9891800243
 40
0.9946230608
 40
1.0
 40
1.0
 40
1.0
 40
1.0
 10
12.4652806868
 20
8.610909533
 30
0.0
 10
12.4652806868
 20
8.6181946165
 30
0.0
 10
12.4653943489
 20
8.6328504145
 30
0.0
 10
12.4658967898
 20
8.654933935
 30
0.0
 10
12.466730754
 20
8.6771949537
 30
0.0
 10
12.4678934564
 20
8.6995596248
 30
0.0
 10
12.4693810916
 20
8.7219540849
 30
0.0
 10
12.4711887217
 20
8.7443041884
 30
0.0
 10
12.4733103684
 20
8.766536013
 30
0.0
 10
12.4757389948
 20
8.7885760034
 30
0.0
 10
12.478466545
 20
8.8103512512
 30
0.0
 10
12.4814839642
 20
8.8317897272
 30
0.0
 10
12.4847812299
 20
8.8528205259
 30
0.0
 10
12.4883473824
 20
8.8733741022
 30
0.0
 10
12.4921705629
 20
8.8933825056
 30
0.0
 10
12.4962380509
 20
8.9127796085
 30
0.0
 10
12.5005363061
 20
8.9315013317
 30
0.0
 10
12.5050510123
 20
8.9494858616
 30
0.0
 10
12.5097671241
 20
8.9666738735
 30
0.0
 10
12.5146689201
 20
8.9830087144
 30
0.0
 10
12.5197400512
 20
8.9984367092
 30
0.0
 10
12.5249636272
 20
9.0129070269
 30
0.0
 10
12.5294999726
 20
9.0243067956
 30
0.0
 10
12.5332021051
 20
9.0329026254
 30
0.0
 10
12.5359606788
 20
9.0389757792
 30
0.0
 10
12.5387442561
 20
9.0447756953
 30
0.0
 10
12.5415505908
 20
9.0502976135
 30
0.0
 10
12.5443773224
 20
9.0555370258
 30
0.0
 10
12.5472221976
 20
9.0604896289
 30
0.0
 10
12.550082811
 20
9.0651514213
 30
0.0
 10
12.5529569303
 20
9.06951858
 30
0.0
 10
12.5558421528
 20
9.0735876157
 30
0.0
 10
12.5587362615
 20
9.0773552114
 30
0.0
 10
12.5616369304
 20
9.0808183745
 30
0.0
 10
12.5645419672
 20
9.0839743098
 30
0.0
 10
12.5674491984
 20
9.0868204719
 30
0.0
 10
12.5703564936
 20
9.0893545613
 30
0.0
 10
12.573261877
 20
9.0915743688
 30
0.0
 10
12.5761633084
 20
9.0934779684
 30
0.0
 10
12.5790589288
 20
9.0950633003
 30
0.0
 10
12.5819466714
 20
9.0963285853
 30
0.0
 10
12.5848243887
 20
9.0972717875
 30
0.0
 10
12.5876896496
 20
9.0978912113
 30
0.0
 10
12.5905390127
 20
9.0981852678
 30
0.0
 10
12.5924307433
 20
9.0981636296
 30
0.0
 10
12.5933661977
 20
9.0980987483
 30
0.0
  0
SPLINE
  5
35A
100
AcDbEntity
  8
0
100
AcDbSpline
 62
7
  6
CONTINUOUS
 70
0
 71
3
 72
50
 73
46
 74
0
 42
0.0000001
 43
0.0000001
 44
0.0000000001
 40
0.0
 40
0.0
 40
0.0
 40
0.0
 40
0.0417738954
 40
0.0840375015
 40
0.126658999
 40
0.1695072728
 40
0.2124490406
 40
0.2553511879
 40
0.2980805661
 40
0.3405047668
 40
0.3824925704
 40
0.4239144964
 40
0.4646433325
 40
0.504554679
 40
0.5435274987
 40
0.5814446837
 40
0.6181936452
 40
0.6536669372
 40
0.6877629283
 40
0.7203865442
 40
0.7514501111
 40
0.7808743474
 40
0.8085895768
 40
0.8217881241
 40
0.8345385176
 40
0.8468355036
 40
0.8586748141
 40
0.8700533313
 40
0.8809690507
 40
0.8914214953
 40
0.9014115725
 40
0.9109421624
 40
0.9200180335
 40
0.9286464829
 40
0.9368375013
 40
0.9446043826
 40
0.9519642537
 40
0.9589386378
 40
0.9655543111
 40
0.9718437858
 40
0.9778461759
 40
0.9836073377
 40
0.9891800243
 40
0.9946230608
 40
1.0
 40
1.0
 40
1.0
 40
1.0
 10
12.4652806868
 20
6.4375762951
 30
0.0
 10
12.4652806868
 20
6.4448613785
 30
0.0
 10
12.4653943489
 20
6.4595171766
 30
0.0
 10
12.4658967898
 20
6.481600697
 30
0.0
 10
12.466730754
 20
6.5038617158
 30
0.0
 10
12.4678934564
 20
6.5262263869
 30
0.0
 10
12.4693810916
 20
6.548620847
 30
0.0
 10
12.4711887217
 20
6.5709709505
 30
0.0
 10
12.4733103684
 20
6.5932027751
 30
0.0
 10
12.4757389948
 20
6.6152427654
 30
0.0
 10
12.478466545
 20
6.6370180132
 30
0.0
 10
12.4814839642
 20
6.6584564893
 30
0.0
 10
12.4847812299
 20
6.679487288
 30
0.0
 10
12.4883473824
 20
6.7000408643
 30
0.0
 10
12.4921705629
 20
6.7200492677
 30
0.0
 10
12.4962380509
 20
6.7394463706
 30
0.0
 10
12.5005363061
 20
6.7581680938
 30
0.0
 10
12.5050510123
 20
6.7761526237
 30
0.0
 10
12.5097671241
 20
6.7933406356
 30
0.0
 10
12.5146689201
 20
6.8096754764
 30
0.0
 10
12.5197400512
 20
6.8251034713
 30
0.0
 10
12.5249636272
 20
6.839573789
 30
0.0
 10
12.5294999726
 20
6.8509735577
 30
0.0
 10
12.5332021051
 20
6.8595693875
 30
0.0
 10
12.5359606788
 20
6.8656425413
 30
0.0
 10
12.5387442561
 20
6.8714424574
 30
0.0
 10
12.5415505908
 20
6.8769643755
 30
0.0
 10
12.5443773224
 20
6.8822037878
 30
0.0
 10
12.5472221976
 20
6.887156391
 30
0.0
 10
12.550082811
 20
6.8918181834
 30
0.0
 10
12.5529569303
 20
6.8961853421
 30
0.0
 10
12.5558421528
 20
6.9002543778
 30
0.0
 10
12.5587362615
 20
6.9040219734
 30
0.0
 10
12.5616369304
 20
6.9074851365
 30
0.0
 10
12.5645419672
 20
6.9106410719
 30
0.0
 10
12.5674491984
 20
6.913487234
 30
0.0
 10
12.5703564936
 20
6.9160213234
 30
0.0
 10
12.573261877
 20
6.9182411308
 30
0.0
 10
12.5761633084
 20
6.9201447304
 30
0.0
 10
12.5790589288
 20
6.9217300623
 30
0.0
 10
12.5819466714
 20
6.9229953474
 30
0.0
 10
12.5848243887
 20
6.9239385496
 30
0.0
 10
12.5876896496
 20
6.9245579734
 30
0.0
 10
12.5905390127
 20
6.9248520299
 30
0.0
 10
12.5924307433
 20
6.9248303917
 30
0.0
 10
12.5933661977
 20
6.9247655104
 30
0.0
  0
SPLINE
  5
35B
100
AcDbEntity
  8
0
100
AcDbSpline
 62
7
  6
CONTINUOUS
 70
0
 71
3
 72
41
 73
37
 74
0
 42
0.0000001
 43
0.0000001
 44
0.0000000001
 40
0.0
 40
0.0
 40
0.0
 40
0.0
 40
0.0318664465
 40
0.0638110239
 40
0.0958209989
 40
0.1278820877
 40
0.159979633
 40
0.1760389633
 40
0.1921016642
 40
0.2242260985
 40
0.2563406202
 40
0.2723909653
 40
0.2884330577
 40
0.3204817077
 40
0.3524752946
 40
0.3844000039
 40
0.4162429683
 40
0.4479924524
 40
0.4796380253
 40
0.5111707198
 40
0.5425831747
 40
0.5738697585
 40
0.6050266711
 40
0.6360520221
 40
0.6669458829
 40
0.6977103104
 40
0.7283493409
 40
0.7588689525
 40
0.7892769957
 40
0.8195830897
 40
0.8497984874
 40
0.8799359093
 40
0.9100093483
 40
0.940033849
 40
0.9700252653
 40
1.0
 40
1.0
 40
1.0
 40
1.0
 10
10.0671100234
 20
9.7638415065
 30
0.0
 10
10.0819245964
 20
9.7569296117
 30
0.0
 10
10.1111933603
 20
9.7422199513
 30
0.0
 10
10.1537855125
 20
9.7176264038
 30
0.0
 10
10.1949740935
 20
9.6905627587
 30
0.0
 10
10.2346020596
 20
9.6611320077
 30
0.0
 10
10.2661986193
 20
9.6347278593
 30
0.0
 10
10.2905521747
 20
9.6125348434
 30
0.0
 10
10.314271364
 20
9.5896450773
 30
0.0
 10
10.3426775463
 20
9.5597771081
 30
0.0
 10
10.3693264214
 20
9.5283394747
 30
0.0
 10
10.3895294254
 20
9.5023193835
 30
0.0
 10
10.4089590079
 20
9.4757587772
 30
0.0
 10
10.4317810108
 20
9.4415675006
 30
0.0
 10
10.4567268676
 20
9.3990931214
 30
0.0
 10
10.4791322024
 20
9.3553429108
 30
0.0
 10
10.4989123065
 20
9.3104816496
 30
0.0
 10
10.5159930374
 20
9.2646772578
 30
0.0
 10
10.5303101399
 20
9.2181014814
 30
0.0
 10
10.5418097416
 20
9.1709289048
 30
0.0
 10
10.550448503
 20
9.1233363991
 30
0.0
 10
10.5561937952
 20
9.0755024364
 30
0.0
 10
10.5590238161
 20
9.0276064328
 30
0.0
 10
10.558927681
 20
8.97982808
 30
0.0
 10
10.5559054707
 20
8.9323466768
 30
0.0
 10
10.5499682403
 20
8.8853404608
 30
0.0
 10
10.5411379877
 20
8.8389859416
 30
0.0
 10
10.5294475828
 20
8.7934572383
 30
0.0
 10
10.5149406706
 20
8.7489254208
 30
0.0
 10
10.4976714982
 20
8.7055578604
 30
0.0
 10
10.477704738
 20
8.6635176108
 30
0.0
 10
10.4551151953
 20
8.6229627291
 30
0.0
 10
10.4299877507
 20
8.5840458843
 30
0.0
 10
10.4024162393
 20
8.5469129797
 30
0.0
 10
10.3725061018
 20
8.5117055354
 30
0.0
 10
10.3510752433
 20
8.4895992446
 30
0.0
 10
10.3400151376
 20
8.4789159735
 30
0.0
  0
SPLINE
  5
35C
100
AcDbEntity
  8
0
100
AcDbSpline
 62
7
  6
CONTINUOUS
 70
0
 71
3
 72
11
 73
7
 74
0
 42
0.0000001
 43
0.0000001
 44
0.0000000001
 40
0.0
 40
0.0
 40
0.0
 40
0.0
 40
0.2432781255
 40
0.4925065749
 40
0.7454564037
 40
1.0
 40
1.0
 40
1.0
 40
1.0
 10
9.5596000705
 20
9.4918394244
 30
0.0
 10
9.5612175083
 20
9.495196331
 30
0.0
 10
9.5646236587
 20
9.5019294768
 30
0.0
 10
9.5701364858
 20
9.511930876
 30
0.0
 10
9.5760625914
 20
9.5218941322
 30
0.0
 10
9.5802372498
 20
9.5284526661
 30
0.0
 10
9.5823762703
 20
9.5317123026
 30
0.0
  0
SPLINE
  5
35D
100
AcDbEntity
  8
0
100
AcDbSpline
 62
7
  6
CONTINUOUS
 70
0
 71
3
 72
15
 73
11
 74
0
 42
0.0000001
 43
0.0000001
 44
0.0000000001
 40
0.0
 40
0.0
 40
0.0
 40
0.0
 40
0.130508598
 40
0.25877763
 40
0.3850310276
 40
0.5095624896
 40
0.6327523568
 40
0.7550929638
 40
0.8772261412
 40
1.0
 40
1.0
 40
1.0
 40
1.0
 10
10.0311244957
 20
9.5316421149
 30
0.0
 10
10.0326659131
 20
9.5282261884
 30
0.0
 10
10.0355146895
 20
9.5213568185
 30
0.0
 10
10.0390964067
 20
9.5108891031
 30
0.0
 10
10.0419483733
 20
9.5003765703
 30
0.0
 10
10.044071222
 20
9.4898415586
 30
0.0
 10
10.0454661589
 20
9.4792988497
 30
0.0
 10
10.0461332651
 20
9.4687539001
 30
0.0
 10
10.0460699234
 20
9.4582003691
 30
0.0
 10
10.0455380968
 20
9.451181206
 30
0.0
 10
10.0451508199
 20
9.4476770456
 30
0.0
  0
SPLINE
  5
35E
100
AcDbEntity
  8
0
100
AcDbSpline
 62
7
  6
CONTINUOUS
 70
0
 71
3
 72
21
 73
17
 74
0
 42
0.0000001
 43
0.0000001
 44
0.0000000001
 40
0.0
 40
0.0
 40
0.0
 40
0.0
 40
0.1264910237
 40
0.2524159496
 40
0.3151948506
 40
0.3778536147
 40
0.4404009901
 40
0.5028461527
 40
0.5651988758
 40
0.6274694982
 40
0.6896688261
 40
0.7518080907
 40
0.8138988719
 40
0.8759530349
 40
0.9379826677
 40
1.0
 40
1.0
 40
1.0
 40
1.0
 10
10.304301384
 20
7.2503054049
 30
0.0
 10
10.3008471074
 20
7.2319218022
 30
0.0
 10
10.2925792468
 20
7.1954804246
 30
0.0
 10
10.2788456602
 20
7.15089006
 30
0.0
 10
10.2658862557
 20
7.1160429108
 30
0.0
 10
10.2552033567
 20
7.0903709022
 30
0.0
 10
10.2435625568
 20
7.0651734885
 30
0.0
 10
10.2309793293
 20
7.0404838822
 30
0.0
 10
10.217470516
 20
7.0163351731
 30
0.0
 10
10.2030540699
 20
6.9927596421
 30
0.0
 10
10.1877492942
 20
6.9697887719
 30
0.0
 10
10.1715766428
 20
6.9474532268
 30
0.0
 10
10.1545576738
 20
6.9257829323
 30
0.0
 10
10.1367150507
 20
6.9048067166
 30
0.0
 10
10.1180730474
 20
6.8845529525
 30
0.0
 10
10.1051272371
 20
6.8715488002
 30
0.0
 10
10.0985309181
 20
6.8651772624
 30
0.0
  0
SPLINE
  5
35F
100
AcDbEntity
  8
0
100
AcDbSpline
 62
7
  6
CONTINUOUS
 70
0
 71
3
 72
13
 73
9
 74
0
 42
0.0000001
 43
0.0000001
 44
0.0000000001
 40
0.0
 40
0.0
 40
0.0
 40
0.0
 40
0.2469239353
 40
0.3710242227
 40
0.4956246701
 40
0.6207782436
 40
0.7465340049
 40
1.0
 40
1.0
 40
1.0
 40
1.0
 10
11.23396617
 20
7.3430426558
 30
0.0
 10
11.2445541921
 20
7.3405357027
 30
0.0
 10
11.2605353298
 20
7.3370644393
 30
0.0
 10
11.2819886467
 20
7.33297076
 30
0.0
 10
11.2982192798
 20
7.3301451733
 30
0.0
 10
11.3145640716
 20
7.3275623672
 30
0.0
 10
11.3365672952
 20
7.3244233253
 30
0.0
 10
11.3531609936
 20
7.3224260513
 30
0.0
 10
11.3642672127
 20
7.3212430951
 30
0.0
  0
SPLINE
  5
360
100
AcDbEntity
  8
0
100
AcDbSpline
 62
7
  6
CONTINUOUS
 70
0
 71
3
 72
15
 73
11
 74
0
 42
0.0000001
 43
0.0000001
 44
0.0000000001
 40
0.0
 40
0.0
 40
0.0
 40
0.0
 40
0.1273483257
 40
0.253860557
 40
0.3795878955
 40
0.504605103
 40
0.6290174424
 40
0.7529533779
 40
0.8765605788
 40
1.0
 40
1.0
 40
1.0
 40
1.0
 10
9.9792203319
 20
7.7159270134
 30
0.0
 10
9.9792203319
 20
7.7111225237
 30
0.0
 10
9.9787616008
 20
7.7015384454
 30
0.0
 10
9.9766870273
 20
7.6873466595
 30
0.0
 10
9.9732470399
 20
7.6735114614
 30
0.0
 10
9.9684727086
 20
7.6601622356
 30
0.0
 10
9.9624078481
 20
7.6474220876
 30
0.0
 10
9.955107715
 20
7.6354086733
 30
0.0
 10
9.9466409672
 20
7.6242345481
 30
0.0
 10
9.9402659325
 20
7.617408763
 30
0.0
 10
9.9369163538
 20
7.614173313
 30
0.0
  0
SPLINE
  5
361
100
AcDbEntity
  8
0
100
AcDbSpline
 62
7
  6
CONTINUOUS
 70
0
 71
3
 72
37
 73
33
 74
0
 42
0.0000001
 43
0.0000001
 44
0.0000000001
 40
0.0
 40
0.0
 40
0.0
 40
0.0
 40
0.0063161056
 40
0.0126711335
 40
0.0191032106
 40
0.0256489991
 40
0.0392093745
 40
0.0536077711
 40
0.0690451722
 40
0.0856788319
 40
0.1036274206
 40
0.1229778506
 40
0.1437911075
 40
0.1661074541
 40
0.1899507493
 40
0.2153311921
 40
0.2422480356
 40
0.270691432
 40
0.3006435247
 40
0.3320799515
 40
0.3649704769
 40
0.399279593
 40
0.4349674002
 40
0.4719897169
 40
0.5102986224
 40
0.5498429193
 40
0.590568095
 40
0.6324168879
 40
0.7192412156
 40
0.8098111096
 40
0.903585601
 40
1.0
 40
1.0
 40
1.0
 40
1.0
 10
12.5393326833
 20
8.3189701681
 30
0.0
 10
12.5386726673
 20
8.3190159455
 30
0.0
 10
12.5373516843
 20
8.319161809
 30
0.0
 10
12.5353850378
 20
8.3195420168
 30
0.0
 10
12.5334314771
 20
8.3200836158
 30
0.0
 10
12.5308156092
 20
8.3210311109
 30
0.0
 10
12.5275652377
 20
8.3226419826
 30
0.0
 10
12.5237876393
 20
8.3251907176
 30
0.0
 10
12.5200890709
 20
8.3283699811
 30
0.0
 10
12.5164736202
 20
8.3321725206
 30
0.0
 10
12.5129444991
 20
8.3365916059
 30
0.0
 10
12.5095058531
 20
8.3416202607
 30
0.0
 10
12.5061621076
 20
8.3472507497
 30
0.0
 10
12.5029179893
 20
8.3534743991
 30
0.0
 10
12.4997784505
 20
8.3602815433
 30
0.0
 10
12.4967483651
 20
8.3676614208
 30
0.0
 10
12.4938325987
 20
8.3756022594
 30
0.0
 10
12.4910359397
 20
8.3840912874
 30
0.0
 10
12.4883629355
 20
8.3931147396
 30
0.0
 10
12.4858180349
 20
8.4026579346
 30
0.0
 10
12.4834054696
 20
8.4127052851
 30
0.0
 10
12.481129214
 20
8.4232403333
 30
0.0
 10
12.4789930971
 20
8.4342457996
 30
0.0
 10
12.4770006604
 20
8.4457036007
 30
0.0
 10
12.475155206
 20
8.4575948937
 30
0.0
 10
12.4734598557
 20
8.469900104
 30
0.0
 10
12.4719173656
 20
8.482598985
 30
0.0
 10
12.4700451278
 20
8.5002446958
 30
0.0
 10
12.4681201912
 20
8.5231324317
 30
0.0
 10
12.4664803319
 20
8.5514924295
 30
0.0
 10
12.4654946228
 20
8.5808875408
 30
0.0
 10
12.4652806868
 20
8.6008102846
 30
0.0
 10
12.4652806868
 20
8.610909533
 30
0.0
  0
SPLINE
  5
362
100
AcDbEntity
  8
0
100
AcDbSpline
 62
7
  6
CONTINUOUS
 70
0
 71
3
 72
37
 73
33
 74
0
 42
0.0000001
 43
0.0000001
 44
0.0000000001
 40
0.0
 40
0.0
 40
0.0
 40
0.0
 40
0.0063161056
 40
0.0126711335
 40
0.0191032106
 40
0.0256489991
 40
0.0392093745
 40
0.0536077711
 40
0.0690451722
 40
0.0856788319
 40
0.1036274206
 40
0.1229778506
 40
0.1437911075
 40
0.1661074541
 40
0.1899507493
 40
0.2153311921
 40
0.2422480356
 40
0.270691432
 40
0.3006435247
 40
0.3320799515
 40
0.3649704769
 40
0.399279593
 40
0.4349674002
 40
0.4719897169
 40
0.5102986224
 40
0.5498429193
 40
0.590568095
 40
0.6324168879
 40
0.7192412156
 40
0.8098111096
 40
0.903585601
 40
1.0
 40
1.0
 40
1.0
 40
1.0
 10
12.5393326833
 20
6.1456369302
 30
0.0
 10
12.5386726673
 20
6.1456827076
 30
0.0
 10
12.5373516843
 20
6.145828571
 30
0.0
 10
12.5353850378
 20
6.1462087789
 30
0.0
 10
12.5334314771
 20
6.1467503779
 30
0.0
 10
12.5308156092
 20
6.147697873
 30
0.0
 10
12.5275652377
 20
6.1493087447
 30
0.0
 10
12.5237876393
 20
6.1518574797
 30
0.0
 10
12.5200890709
 20
6.1550367432
 30
0.0
 10
12.5164736202
 20
6.1588392827
 30
0.0
 10
12.5129444991
 20
6.163258368
 30
0.0
 10
12.5095058531
 20
6.1682870228
 30
0.0
 10
12.5061621076
 20
6.1739175118
 30
0.0
 10
12.5029179893
 20
6.1801411611
 30
0.0
 10
12.4997784505
 20
6.1869483054
 30
0.0
 10
12.4967483651
 20
6.1943281829
 30
0.0
 10
12.4938325987
 20
6.2022690215
 30
0.0
 10
12.4910359397
 20
6.2107580495
 30
0.0
 10
12.4883629355
 20
6.2197815017
 30
0.0
 10
12.4858180349
 20
6.2293246966
 30
0.0
 10
12.4834054696
 20
6.2393720472
 30
0.0
 10
12.481129214
 20
6.2499070953
 30
0.0
 10
12.4789930971
 20
6.2609125617
 30
0.0
 10
12.4770006604
 20
6.2723703628
 30
0.0
 10
12.475155206
 20
6.2842616558
 30
0.0
 10
12.4734598557
 20
6.296566866
 30
0.0
 10
12.4719173656
 20
6.3092657471
 30
0.0
 10
12.4700451278
 20
6.3269114579
 30
0.0
 10
12.4681201912
 20
6.3497991938
 30
0.0
 10
12.4664803319
 20
6.3781591915
 30
0.0
 10
12.4654946228
 20
6.4075543028
 30
0.0
 10
12.4652806868
 20
6.4274770466
 30
0.0
 10
12.4652806868
 20
6.4375762951
 30
0.0
  0
SPLINE
  5
363
100
AcDbEntity
  8
0
100
AcDbSpline
 62
7
  6
CONTINUOUS
 70
0
 71
3
 72
23
 73
19
 74
0
 42
0.0000001
 43
0.0000001
 44
0.0000000001
 40
0.0
 40
0.0
 40
0.0
 40
0.0
 40
0.0638960463
 40
0.1275625627
 40
0.1910007796
 40
0.2542170903
 40
0.3172182182
 40
0.3800137024
 40
0.442614847
 40
0.5050349522
 40
0.5672891169
 40
0.6293941178
 40
0.6913682762
 40
0.753231189
 40
0.8150038592
 40
0.8767074816
 40
0.9383658203
 40
1.0
 40
1.0
 40
1.0
 40
1.0
 10
11.943465436
 20
7.3301857661
 30
0.0
 10
11.943465436
 20
7.3181487474
 30
0.0
 10
11.9428899723
 20
7.2941138733
 30
0.0
 10
11.9402923077
 20
7.2582127514
 30
0.0
 10
11.93596823
 20
7.2226064336
 30
0.0
 10
11.9299286079
 20
7.1873779248
 30
0.0
 10
11.9221878637
 20
7.152607551
 30
0.0
 10
11.9127645226
 20
7.1183750523
 30
0.0
 10
11.9016807946
 20
7.0847586455
 30
0.0
 10
11.8889626797
 20
7.0518350856
 30
0.0
 10
11.8746398207
 20
7.0196794384
 30
0.0
 10
11.8587454605
 20
6.9883649238
 30
0.0
 10
11.8413163291
 20
6.9579627966
 30
0.0
 10
11.8223925559
 20
6.9285421011
 30
0.0
 10
11.8020176221
 20
6.9001698435
 30
0.0
 10
11.7802379404
 20
6.872910009
 30
0.0
 10
11.7571040931
 20
6.8468256445
 30
0.0
 10
11.7408107494
 20
6.8302559172
 30
0.0
 10
11.7324595432
 20
6.822189271
 30
0.0
  0
SPLINE
  5
364
100
AcDbEntity
  8
0
100
AcDbSpline
 62
7
  6
CONTINUOUS
 70
0
 71
3
 72
47
 73
43
 74
0
 42
0.0000001
 43
0.0000001
 44
0.0000000001
 40
0.0
 40
0.0
 40
0.0
 40
0.0
 40
0.01491376
 40
0.0298316135
 40
0.0447556025
 40
0.0596897218
 40
0.0746371105
 40
0.0896008501
 40
0.1045840385
 40
0.1195895936
 40
0.1346203013
 40
0.1496788014
 40
0.1647675577
 40
0.1798888494
 40
0.1950447633
 40
0.2102371779
 40
0.2254677533
 40
0.2407379284
 40
0.2713961902
 40
0.3022243466
 40
0.3332253859
 40
0.3643984806
 40
0.3957390673
 40
0.4272390308
 40
0.4588869262
 40
0.4906682769
 40
0.5225659116
 40
0.5545603433
 40
0.5866301774
 40
0.6187525515
 40
0.6509035824
 40
0.6830588354
 40
0.715193795
 40
0.7472843354
 40
0.779307191
 40
0.8112404128
 40
0.8430638106
 40
0.8747593699
 40
0.9063116532
 40
0.9377081455
 40
0.968939388
 40
1.0
 40
1.0
 40
1.0
 40
1.0
 10
10.6458758422
 20
7.9471034281
 30
0.0
 10
10.6523347607
 20
7.9533422646
 30
0.0
 10
10.6655043686
 20
7.965565786
 30
0.0
 10
10.6859752009
 20
7.9831026282
 30
0.0
 10
10.7071373189
 20
7.9998192377
 30
0.0
 10
10.7289611461
 20
8.0156922713
 30
0.0
 10
10.7514174172
 20
8.0307003261
 30
0.0
 10
10.7744755513
 20
8.0448227768
 30
0.0
 10
10.7981042373
 20
8.0580402053
 30
0.0
 10
10.8222713744
 20
8.0703344385
 30
0.0
 10
10.8469440798
 20
8.0816885474
 30
0.0
 10
10.8720888073
 20
8.0920867577
 30
0.0
 10
10.8976713191
 20
8.1015146109
 30
0.0
 10
10.9236567141
 20
8.1099590065
 30
0.0
 10
10.9500095891
 20
8.1174080631
 30
0.0
 10
10.976693821
 20
8.1238512341
 30
0.0
 10
11.003673407
 20
8.1292794647
 30
0.0
 10
11.0400338446
 20
8.1351606945
 30
0.0
 10
11.08605298
 20
8.1399301642
 30
0.0
 10
11.1417712474
 20
8.1414916301
 30
0.0
 10
11.1977618407
 20
8.1388897117
 30
0.0
 10
11.2537140639
 20
8.1321361159
 30
0.0
 10
11.309319726
 20
8.1212662636
 30
0.0
 10
11.3642714256
 20
8.1063381266
 30
0.0
 10
11.418265298
 20
8.0874324718
 30
0.0
 10
11.4710025359
 20
8.0646523261
 30
0.0
 10
11.5221910803
 20
8.0381222372
 30
0.0
 10
11.5715474555
 20
8.007987962
 30
0.0
 10
11.6187982627
 20
7.9744153341
 30
0.0
 10
11.6636817616
 20
7.9375894367
 30
0.0
 10
11.7059495185
 20
7.8977137143
 30
0.0
 10
11.7453675637
 20
7.8550085246
 30
0.0
 10
11.7817179515
 20
7.8097101602
 30
0.0
 10
11.8147999337
 20
7.7620693994
 30
0.0
 10
11.8444309253
 20
7.7123499902
 30
0.0
 10
11.8704478666
 20
7.6608273501
 30
0.0
 10
11.8927078221
 20
7.6077868177
 30
0.0
 10
11.9110888845
 20
7.5535219771
 30
0.0
 10
11.9254910185
 20
7.498333479
 30
0.0
 10
11.9358361698
 20
7.4425255132
 30
0.0
 10
11.9420692542
 20
7.3864104381
 30
0.0
 10
11.943465436
 20
7.3488882818
 30
0.0
 10
11.943465436
 20
7.3301857661
 30
0.0
  0
SPLINE
  5
365
100
AcDbEntity
  8
0
100
AcDbSpline
 62
7
  6
CONTINUOUS
 70
0
 71
3
 72
15
 73
11
 74
0
 42
0.0000001
 43
0.0000001
 44
0.0000000001
 40
0.0
 40
0.0
 40
0.0
 40
0.0
 40
0.124473792
 40
0.2489996063
 40
0.3736288238
 40
0.4984115131
 40
0.6233959007
 40
0.7486275336
 40
0.8741493488
 40
1.0
 40
1.0
 40
1.0
 40
1.0
 10
9.2186914284
 20
9.6397902562
 30
0.0
 10
9.2282725544
 20
9.649044938
 30
0.0
 10
9.2479701539
 20
9.6670170348
 30
0.0
 10
9.2790082313
 20
9.6922573917
 30
0.0
 10
9.3114569824
 20
9.7157151054
 30
0.0
 10
9.3452236745
 20
9.7373228753
 30
0.0
 10
9.3802132492
 20
9.757020083
 30
0.0
 10
9.4163273275
 20
9.7747513307
 30
0.0
 10
9.4534624992
 20
9.790466183
 30
0.0
 10
9.478798512
 20
9.7995575563
 30
0.0
 10
9.4915964993
 20
9.8037535049
 30
0.0
  0
SPLINE
  5
366
100
AcDbEntity
  8
0
100
AcDbSpline
 62
7
  6
CONTINUOUS
 70
0
 71
3
 72
50
 73
46
 74
0
 42
0.0000001
 43
0.0000001
 44
0.0000000001
 40
0.0
 40
0.0
 40
0.0
 40
0.0
 40
0.0149717283
 40
0.0299465155
 40
0.0449274015
 40
0.05991739
 40
0.0749194291
 40
0.0899363922
 40
0.1049710634
 40
0.1200261205
 40
0.1351041172
 40
0.1502074693
 40
0.1653384436
 40
0.1804991418
 40
0.195691489
 40
0.2109172268
 40
0.2261779026
 40
0.2414748594
 40
0.2568092333
 40
0.2721819484
 40
0.2875937099
 40
0.3030450035
 40
0.3185360967
 40
0.3340670361
 40
0.3652423077
 40
0.3965721866
 40
0.4280494062
 40
0.4596635895
 40
0.4914015029
 40
0.5232473627
 40
0.5551831871
 40
0.5871891745
 40
0.6192441176
 40
0.6513258327
 40
0.6834116028
 40
0.7154786313
 40
0.747504494
 40
0.7794675854
 40
0.811347558
 40
0.8431257378
 40
0.8747855171
 40
0.9063127243
 40
0.9376959393
 40
0.9689266167
 40
1.0
 40
1.0
 40
1.0
 40
1.0
 10
10.5295406285
 20
7.9640327501
 30
0.0
 10
10.5367992979
 20
7.9710441032
 30
0.0
 10
10.5515985333
 20
7.98478125
 30
0.0
 10
10.5746011932
 20
8.0044906818
 30
0.0
 10
10.5983783566
 20
8.0232791273
 30
0.0
 10
10.6228968542
 20
8.0411202969
 30
0.0
 10
10.6481230981
 20
8.0579897086
 30
0.0
 10
10.6740223132
 20
8.0738641531
 30
0.0
 10
10.7005588429
 20
8.0887218404
 30
0.0
 10
10.7276961894
 20
8.1025422914
 30
0.0
 10
10.7553970076
 20
8.1153064913
 30
0.0
 10
10.7836231485
 20
8.1269969517
 30
0.0
 10
10.8123357809
 20
8.1375975858
 30
0.0
 10
10.841495411
 20
8.1470937757
 30
0.0
 10
10.8710618921
 20
8.1554725429
 30
0.0
 10
10.9009945456
 20
8.1627223895
 30
0.0
 10
10.9312522056
 20
8.1688332989
 30
0.0
 10
10.9617932339
 20
8.17379693
 30
0.0
 10
10.9925756174
 20
8.1776065144
 30
0.0
 10
11.0235570121
 20
8.1802567852
 30
0.0
 10
11.0546948409
 20
8.1817441102
 30
0.0
 10
11.0859461341
 20
8.182066552
 30
0.0
 10
11.1172684496
 20
8.181223578
 30
0.0
 10
11.1591157787
 20
8.1785444926
 30
0.0
 10
11.2113948681
 20
8.1722799776
 30
0.0
 10
11.2736318749
 20
8.1601679489
 30
0.0
 10
11.3351191004
 20
8.143518604
 30
0.0
 10
11.3955166228
 20
8.1224239698
 30
0.0
 10
11.4544935538
 20
8.0970004344
 30
0.0
 10
11.5117260957
 20
8.0673880797
 30
0.0
 10
11.566900191
 20
8.0337497282
 30
0.0
 10
11.6197131717
 20
7.9962704325
 30
0.0
 10
11.6698752082
 20
7.9551560237
 30
0.0
 10
11.7171110611
 20
7.9106323186
 30
0.0
 10
11.7611615436
 20
7.8629437825
 30
0.0
 10
11.8017847524
 20
7.8123520704
 30
0.0
 10
11.838757729
 20
7.7591348977
 30
0.0
 10
11.8718772833
 20
7.7035842132
 30
0.0
 10
11.900961373
 20
7.6460048315
 30
0.0
 10
11.9258500659
 20
7.5867127537
 30
0.0
 10
11.9464061708
 20
7.5260332252
 30
0.0
 10
11.9625164451
 20
7.4642996801
 30
0.0
 10
11.9740916956
 20
7.4018498708
 30
0.0
 10
11.9810678158
 20
7.3390312034
 30
0.0
 10
11.9826303343
 20
7.2970179887
 30
0.0
 10
11.9826303343
 20
7.2760724527
 30
0.0
  0
SPLINE
  5
367
100
AcDbEntity
  8
0
100
AcDbSpline
 62
7
  6
CONTINUOUS
 70
0
 71
3
 72
37
 73
33
 74
0
 42
0.0000001
 43
0.0000001
 44
0.0000000001
 40
0.0
 40
0.0
 40
0.0
 40
0.0
 40
0.0306166139
 40
0.0613389921
 40
0.0921655499
 40
0.123093674
 40
0.1541197598
 40
0.1852392573
 40
0.2164467221
 40
0.2477358746
 40
0.2790996648
 40
0.3105303431
 40
0.342019539
 40
0.3735583423
 40
0.4051373875
 40
0.4367469404
 40
0.4999999859
 40
0.5632530297
 40
0.5948625827
 40
0.6264416303
 40
0.6579804364
 40
0.6894696338
 40
0.720900312
 40
0.7522641028
 40
0.7835532571
 40
0.8147607267
 40
0.8458802309
 40
0.8769062979
 40
0.9078345035
 40
0.9386608268
 40
0.9693836898
 40
1.0
 40
1.0
 40
1.0
 40
1.0
 10
9.7683879546
 20
9.6237616619
 30
0.0
 10
9.7776859039
 20
9.6234392526
 30
0.0
 10
9.7963009945
 20
9.6223249947
 30
0.0
 10
9.8241503301
 20
9.6192600627
 30
0.0
 10
9.851908059
 20
9.6148063679
 30
0.0
 10
9.8795034312
 20
9.6089752041
 30
0.0
 10
9.9068672958
 20
9.6017813097
 30
0.0
 10
9.9339307738
 20
9.5932428423
 30
0.0
 10
9.9606258323
 20
9.5833813277
 30
0.0
 10
9.986885344
 20
9.5722216093
 30
0.0
 10
10.0126432841
 20
9.5597917763
 30
0.0
 10
10.0378348835
 20
9.5461231362
 30
0.0
 10
10.0623968543
 20
9.5312500669
 30
0.0
 10
10.0862673084
 20
9.5152101369
 30
0.0
 10
10.1093867706
 20
9.4980431718
 30
0.0
 10
10.1391351851
 20
9.4737081298
 30
0.0
 10
10.1741504003
 20
9.4406983985
 30
0.0
 10
10.2059269005
 20
9.4045603091
 30
0.0
 10
10.2292164759
 20
9.3739864951
 30
0.0
 10
10.2455719875
 20
9.3502860401
 30
0.0
 10
10.2607750979
 20
9.325874086
 30
0.0
 10
10.274788072
 20
9.3008114596
 30
0.0
 10
10.287575522
 20
9.2751613222
 30
0.0
 10
10.2991053003
 20
9.248988121
 30
0.0
 10
10.3093483656
 20
9.2223576687
 30
0.0
 10
10.3182789127
 20
9.1953369136
 30
0.0
 10
10.3258744084
 20
9.1679938051
 30
0.0
 10
10.3321157451
 20
9.1403970632
 30
0.0
 10
10.3369870796
 20
9.1126162402
 30
0.0
 10
10.340476296
 20
9.0847207575
 30
0.0
 10
10.3425742649
 20
9.0567819505
 30
0.0
 10
10.3430428392
 20
9.0381393746
 30
0.0
 10
10.3430428472
 20
9.0288359294
 30
0.0
  0
SPLINE
  5
368
100
AcDbEntity
  8
0
100
AcDbSpline
 62
7
  6
CONTINUOUS
 70
0
 71
3
 72
49
 73
45
 74
0
 42
0.0000001
 43
0.0000001
 44
0.0000000001
 40
0.0
 40
0.0
 40
0.0
 40
0.0
 40
0.0982447785
 40
0.1982913338
 40
0.3001153415
 40
0.3515970198
 40
0.4033210787
 40
0.4550897302
 40
0.5065850131
 40
0.5573247497
 40
0.6066282136
 40
0.6536293488
 40
0.6759686482
 40
0.697378349
 40
0.7177568123
 40
0.7370223962
 40
0.7551184259
 40
0.7720131277
 40
0.7877004633
 40
0.8021982923
 40
0.8155417457
 40
0.8277824683
 40
0.8389817994
 40
0.8492088045
 40
0.8585369126
 40
0.8670425754
 40
0.8748032311
 40
0.8818976833
 40
0.8884048557
 40
0.8944038382
 40
0.8999744153
 40
0.9051950904
 40
0.9101434774
 40
0.9148943947
 40
0.9195179898
 40
0.9240785662
 40
0.9286323042
 40
0.9332272845
 40
0.9426846525
 40
0.9526893994
 40
0.9633756602
 40
0.9748081945
 40
0.987015636
 40
1.0
 40
1.0
 40
1.0
 40
1.0
 10
11.0138577511
 20
8.1306278497
 30
0.0
 10
11.0100086914
 20
8.125366791
 30
0.0
 10
11.0023621018
 20
8.1146580428
 30
0.0
 10
10.9912101471
 20
8.0981576546
 30
0.0
 10
10.9822102161
 20
8.0839554989
 30
0.0
 10
10.9752295115
 20
8.0722781442
 30
0.0
 10
10.9701232472
 20
8.063351885
 30
0.0
 10
10.9652073149
 20
8.0543182141
 30
0.0
 10
10.9605372304
 20
8.0452281544
 30
0.0
 10
10.9561833327
 20
8.036163255
 30
0.0
 10
10.9522291254
 20
8.0272419669
 30
0.0
 10
10.9492922325
 20
8.0199357638
 30
0.0
 10
10.9472203672
 20
8.0142815453
 30
0.0
 10
10.9458443467
 20
8.0102547971
 30
0.0
 10
10.9446253535
 20
8.006391084
 30
0.0
 10
10.9435661823
 20
8.0027087635
 30
0.0
 10
10.9426666808
 20
7.999222422
 30
0.0
 10
10.941924106
 20
7.9959422908
 30
0.0
 10
10.9413332709
 20
7.9928742258
 30
0.0
 10
10.9408871254
 20
7.990020022
 30
0.0
 10
10.9405774988
 20
7.9873778674
 30
0.0
 10
10.9403952949
 20
7.9849432299
 30
0.0
 10
10.9403313884
 20
7.9827093994
 30
0.0
 10
10.9403764543
 20
7.980668313
 30
0.0
 10
10.9405218894
 20
7.9788110348
 30
0.0
 10
10.9407591721
 20
7.9771282385
 30
0.0
 10
10.941080815
 20
7.9756105605
 30
0.0
 10
10.9414797637
 20
7.9742488643
 30
0.0
 10
10.9419494452
 20
7.9730342846
 30
0.0
 10
10.9424846023
 20
7.9719587833
 30
0.0
 10
10.9430794163
 20
7.9710144128
 30
0.0
 10
10.9437295206
 20
7.970194302
 30
0.0
 10
10.944430556
 20
7.9694921659
 30
0.0
 10
10.9451778338
 20
7.9689014406
 30
0.0
 10
10.9459678152
 20
7.9684168309
 30
0.0
 10
10.946796829
 20
7.9680331045
 30
0.0
 10
10.947661371
 20
7.9677445123
 30
0.0
 10
10.9488686922
 20
7.9674775514
 30
0.0
 10
10.9504703047
 20
7.9673646642
 30
0.0
 10
10.9524691709
 20
7.9675428215
 30
0.0
 10
10.9545550623
 20
7.9680038062
 30
0.0
 10
10.9567197306
 20
7.9687224145
 30
0.0
 10
10.9589557485
 20
7.9696798335
 30
0.0
 10
10.9604444173
 20
7.9704427925
 30
0.0
 10
10.9611998933
 20
7.9708569249
 30
0.0
  0
SPLINE
  5
369
100
AcDbEntity
  8
0
100
AcDbSpline
 62
7
  6
CONTINUOUS
 70
0
 71
3
 72
39
 73
35
 74
0
 42
0.0000001
 43
0.0000001
 44
0.0000000001
 40
0.0
 40
0.0
 40
0.0
 40
0.0
 40
0.029942471
 40
0.0599093183
 40
0.0899243244
 40
0.1200101034
 40
0.1501875624
 40
0.1804754148
 40
0.2108897596
 40
0.2414437361
 40
0.2721472598
 40
0.3030068424
 40
0.3340254951
 40
0.3652027149
 40
0.3965345496
 40
0.4280137343
 40
0.459629891
 40
0.4913697854
 40
0.5232176334
 40
0.5551554501
 40
0.5871634341
 40
0.6192203766
 40
0.6513040925
 40
0.6833918636
 40
0.7154608915
 40
0.7474887505
 40
0.7794538351
 40
0.8113357956
 40
0.8431159562
 40
0.8747777121
 40
0.9063068677
 40
0.9376920929
 40
0.9689246489
 40
1.0
 40
1.0
 40
1.0
 40
1.0
 10
9.4948791068
 20
9.4665281671
 30
0.0
 10
9.5030163552
 20
9.4743881125
 30
0.0
 10
9.5199306516
 20
9.4894737218
 30
0.0
 10
9.5470300224
 20
9.5100251647
 30
0.0
 10
9.5757187574
 20
9.5283968354
 30
0.0
 10
9.6058365752
 20
9.544485655
 30
0.0
 10
9.6372178953
 20
9.5582037112
 30
0.0
 10
9.6696895223
 20
9.5694756017
 30
0.0
 10
9.7030725127
 20
9.5782396679
 30
0.0
 10
9.7371829502
 20
9.5844480654
 30
0.0
 10
9.7718330313
 20
9.5880670681
 30
0.0
 10
9.8068320854
 20
9.5890772069
 30
0.0
 10
9.8419876245
 20
9.5874733655
 30
0.0
 10
9.8771063998
 20
9.583264818
 30
0.0
 10
9.9119954564
 20
9.5764751125
 30
0.0
 10
9.946463178
 20
9.5671419306
 30
0.0
 10
9.9803203246
 20
9.555316869
 30
0.0
 10
10.0133810501
 20
9.5410651428
 30
0.0
 10
10.0454639224
 20
9.5244652573
 30
0.0
 10
10.0763929055
 20
9.5056085604
 30
0.0
 10
10.1059983017
 20
9.4845987212
 30
0.0
 10
10.1341176714
 20
9.4615511701
 30
0.0
 10
10.1605967107
 20
9.4365924686
 30
0.0
 10
10.1852900895
 20
9.4098596257
 30
0.0
 10
10.2080622699
 20
9.3814993779
 30
0.0
 10
10.2287882148
 20
9.3516673584
 30
0.0
 10
10.2473540668
 20
9.3205272584
 30
0.0
 10
10.2636577684
 20
9.2882499355
 30
0.0
 10
10.2776096152
 20
9.2550125082
 30
0.0
 10
10.2891327613
 20
9.2209973342
 30
0.0
 10
10.2981637019
 20
9.1863912865
 30
0.0
 10
10.3046524208
 20
9.1513837488
 30
0.0
 10
10.3085630737
 20
9.116169431
 30
0.0
 10
10.3094389591
 20
9.0926180584
 30
0.0
 10
10.3094389591
 20
9.0808765889
 30
0.0
  0
SPLINE
  5
36A
100
AcDbEntity
  8
0
100
AcDbSpline
 62
7
  6
CONTINUOUS
 70
0
 71
3
 72
23
 73
19
 74
0
 42
0.0000001
 43
0.0000001
 44
0.0000000001
 40
0.0
 40
0.0
 40
0.0
 40
0.0
 40
0.0617101439
 40
0.1234413935
 40
0.1852146431
 40
0.2470503547
 40
0.3089683495
 40
0.3709876176
 40
0.4331261309
 40
0.4954006615
 40
0.5578266134
 40
0.6204179128
 40
0.6831867943
 40
0.7461438773
 40
0.8092980348
 40
0.872655047
 40
0.9362230873
 40
1.0
 40
1.0
 40
1.0
 40
1.0
 10
10.1764255197
 20
8.7609394418
 30
0.0
 10
10.1816923
 20
8.7660267396
 30
0.0
 10
10.19196771
 20
8.7764762215
 30
0.0
 10
10.2065571376
 20
8.7929251991
 30
0.0
 10
10.2202921081
 20
8.8101139131
 30
0.0
 10
10.2331403841
 20
8.8280021871
 30
0.0
 10
10.2450725074
 20
8.8465488819
 30
0.0
 10
10.2560609666
 20
8.8657111545
 30
0.0
 10
10.26608046
 20
8.8854448118
 30
0.0
 10
10.2751078819
 20
8.9057043453
 30
0.0
 10
10.2831224558
 20
8.9264430241
 30
0.0
 10
10.2901057719
 20
8.9476130039
 30
0.0
 10
10.2960417908
 20
8.9691654659
 30
0.0
 10
10.300916858
 20
8.9910507593
 30
0.0
 10
10.3047196981
 20
9.0132182918
 30
0.0
 10
10.3074418331
 20
9.0356173979
 30
0.0
 10
10.3090767212
 20
9.0581954636
 30
0.0
 10
10.3094389591
 20
9.0733088069
 30
0.0
 10
10.3094389591
 20
9.0808765889
 30
0.0
  0
SPLINE
  5
36B
100
AcDbEntity
  8
0
100
AcDbSpline
 62
7
  6
CONTINUOUS
 70
0
 71
3
 72
15
 73
11
 74
0
 42
0.0000001
 43
0.0000001
 44
0.0000000001
 40
0.0
 40
0.0
 40
0.0
 40
0.0
 40
0.1002491813
 40
0.2075564725
 40
0.3221461452
 40
0.4440971404
 40
0.5733022904
 40
0.7094354631
 40
0.8519307592
 40
1.0
 40
1.0
 40
1.0
 40
1.0
 10
9.5400813996
 20
9.4293524042
 30
0.0
 10
9.5403231218
 20
9.4315366941
 30
0.0
 10
9.5409412236
 20
9.4360466939
 30
0.0
 10
9.5422365655
 20
9.4429913581
 30
0.0
 10
9.5439601072
 20
9.4503320532
 30
0.0
 10
9.5461369859
 20
9.4580512071
 30
0.0
 10
9.5487856279
 20
9.4661200348
 30
0.0
 10
9.5519150899
 20
9.4744972901
 30
0.0
 10
9.5555226943
 20
9.4831297714
 30
0.0
 10
9.5581911282
 20
9.488915239
 30
0.0
 10
9.5596000705
 20
9.4918394244
 30
0.0
  0
SPLINE
  5
36C
100
AcDbEntity
  8
0
100
AcDbSpline
 62
7
  6
CONTINUOUS
 70
0
 71
3
 72
24
 73
20
 74
0
 42
0.0000001
 43
0.0000001
 44
0.0000000001
 40
0.0
 40
0.0
 40
0.0
 40
0.0
 40
0.0451241053
 40
0.0909869994
 40
0.1381278966
 40
0.1870249134
 40
0.2122704496
 40
0.2381024849
 40
0.2916716418
 40
0.3480167441
 40
0.4073476851
 40
0.4698186167
 40
0.5355395263
 40
0.6045797138
 40
0.6769766466
 40
0.7527380917
 40
0.8318536722
 40
0.9142960979
 40
1.0
 40
1.0
 40
1.0
 40
1.0
 10
11.4360518105
 20
7.3419238744
 30
0.0
 10
11.4354693684
 20
7.3408954229
 30
0.0
 10
11.4341683748
 20
7.3388906715
 30
0.0
 10
11.4318502926
 20
7.3361028853
 30
0.0
 10
11.4291622713
 20
7.3335252921
 30
0.0
 10
11.4266459587
 20
7.3315767561
 30
0.0
 10
11.4244646656
 20
7.3301265295
 30
0.0
 10
11.4221132732
 20
7.3287162523
 30
0.0
 10
11.4189436141
 20
7.3270948733
 30
0.0
 10
11.4148432765
 20
7.3253990135
 30
0.0
 10
11.4104089337
 20
7.3239343159
 30
0.0
 10
11.4056498825
 20
7.3227059751
 30
0.0
 10
11.4005759574
 20
7.3217194176
 30
0.0
 10
11.3951978909
 20
7.3209803891
 30
0.0
 10
11.3895273078
 20
7.3204948194
 30
0.0
 10
11.3835765814
 20
7.3202687516
 30
0.0
 10
11.3773587143
 20
7.3203083699
 30
0.0
 10
11.3708880239
 20
7.3206198599
 30
0.0
 10
11.3664994118
 20
7.321005337
 30
0.0
 10
11.3642672127
 20
7.3212430951
 30
0.0
  0
SPLINE
  5
36D
100
AcDbEntity
  8
0
100
AcDbSpline
 62
7
  6
CONTINUOUS
 70
0
 71
3
 72
53
 73
49
 74
0
 42
0.0000001
 43
0.0000001
 44
0.0000000001
 40
0.0
 40
0.0
 40
0.0
 40
0.0
 40
0.0171075607
 40
0.0338664442
 40
0.0504177535
 40
0.0586677488
 40
0.066928637
 40
0.0752243144
 40
0.0835797977
 40
0.1005724422
 40
0.1092731277
 40
0.1181494386
 40
0.1272347425
 40
0.1365649051
 40
0.1461782632
 40
0.1561171039
 40
0.1664274171
 40
0.1771613414
 40
0.1883772174
 40
0.2001432331
 40
0.2256475108
 40
0.2545279414
 40
0.2706136101
 40
0.2880582094
 40
0.3071065308
 40
0.3280134842
 40
0.3509597581
 40
0.3758703106
 40
0.4021988861
 40
0.4289735225
 40
0.4552415529
 40
0.4804585455
 40
0.504481043
 40
0.5273825793
 40
0.5493103984
 40
0.5704191072
 40
0.6106996933
 40
0.6300931999
 40
0.64909599
 40
0.6861704294
 40
0.722321634
 40
0.7578238807
 40
0.7928751532
 40
0.8276226327
 40
0.8621786395
 40
0.8966308423
 40
0.9310496168
 40
1.0
 40
1.0
 40
1.0
 40
1.0
 10
11.0608762619
 20
7.7199291669
 30
0.0
 10
11.0573956733
 20
7.7200323687
 30
0.0
 10
11.0504947412
 20
7.7199928235
 30
0.0
 10
11.0402590974
 20
7.7191136757
 30
0.0
 10
11.0319136169
 20
7.7176537037
 30
0.0
 10
11.0253810676
 20
7.7160281807
 30
0.0
 10
11.0205440602
 20
7.7145726861
 30
0.0
 10
11.0157646505
 20
7.7128721702
 30
0.0
 10
11.0094355451
 20
7.7102515907
 30
0.0
 10
11.0032445244
 20
7.7071035182
 30
0.0
 10
10.9972400849
 20
7.7034303324
 30
0.0
 10
10.9927648399
 20
7.7003557627
 30
0.0
 10
10.988357599
 20
7.6969699928
 30
0.0
 10
10.9840234346
 20
7.693256014
 30
0.0
 10
10.9797668265
 20
7.6891971696
 30
0.0
 10
10.9755966697
 20
7.6847710497
 30
0.0
 10
10.9715205295
 20
7.6799550907
 30
0.0
 10
10.9675520388
 20
7.6747197678
 30
0.0
 10
10.9637043627
 20
7.6690330837
 30
0.0
 10
10.9586258214
 20
7.6605661049
 30
0.0
 10
10.9526931638
 20
7.6484452972
 30
0.0
 10
10.9479174278
 20
7.6348805418
 30
0.0
 10
10.9448087188
 20
7.6225559994
 30
0.0
 10
10.9428883717
 20
7.6120187439
 30
0.0
 10
10.9416184599
 20
7.6003940286
 30
0.0
 10
10.9412111054
 20
7.5875836552
 30
0.0
 10
10.9419326466
 20
7.5735884094
 30
0.0
 10
10.9440566382
 20
7.558616971
 30
0.0
 10
10.9477532159
 20
7.5431494739
 30
0.0
 10
10.9529758746
 20
7.5278367657
 30
0.0
 10
10.9594626158
 20
7.5132661026
 30
0.0
 10
10.9668650174
 20
7.4997789589
 30
0.0
 10
10.9748807115
 20
7.4874613715
 30
0.0
 10
10.9832998441
 20
7.4762462702
 30
0.0
 10
10.9919909539
 20
7.4660094252
 30
0.0
 10
11.0036506641
 20
7.4536864956
 30
0.0
 10
11.015798232
 20
7.4425669231
 30
0.0
 10
11.0282518945
 20
7.4324952543
 30
0.0
 10
11.0405468679
 20
7.4232807553
 30
0.0
 10
11.0561308024
 20
7.4127898535
 30
0.0
 10
11.0751896244
 20
7.4015206249
 30
0.0
 10
11.0944321873
 20
7.391430976
 30
0.0
 10
11.1138494573
 20
7.3823409767
 30
0.0
 10
11.1334380426
 20
7.374114716
 30
0.0
 10
11.1531970443
 20
7.3666476939
 30
0.0
 10
11.173127697
 20
7.3598578862
 30
0.0
 10
11.1999453583
 20
7.3516161748
 30
0.0
 10
11.2203094136
 20
7.3462762009
 30
0.0
 10
11.23396617
 20
7.3430426558
 30
0.0
  0
SPLINE
  5
36E
100
AcDbEntity
  8
0
100
AcDbSpline
 62
7
  6
CONTINUOUS
 70
0
 71
3
 72
23
 73
19
 74
0
 42
0.0000001
 43
0.0000001
 44
0.0000000001
 40
0.0
 40
0.0
 40
0.0
 40
0.0
 40
0.0611999949
 40
0.1224385999
 40
0.1837536942
 40
0.2451817111
 40
0.3067569676
 40
0.3685110491
 40
0.4304722455
 40
0.4926650605
 40
0.5551098027
 40
0.6178222692
 40
0.6808135396
 40
0.7440898454
 40
0.8076525213
 40
0.8714980412
 40
0.9356181346
 40
1.0
 40
1.0
 40
1.0
 40
1.0
 10
9.7201554344
 20
7.8385807163
 30
0.0
 10
9.7224322621
 20
7.8407799667
 30
0.0
 10
9.7271429585
 20
7.8450219739
 30
0.0
 10
9.7346387546
 20
7.8508777236
 30
0.0
 10
9.7425347119
 20
7.8562034808
 30
0.0
 10
9.7507967011
 20
7.8609761235
 30
0.0
 10
9.7593895757
 20
7.865175467
 30
0.0
 10
9.7682766433
 20
7.8687836313
 30
0.0
 10
9.7774200106
 20
7.871785302
 30
0.0
 10
9.7867806947
 20
7.8741677419
 30
0.0
 10
9.7963188021
 20
7.8759208528
 30
0.0
 10
9.8059936898
 20
7.877037257
 30
0.0
 10
9.8157641499
 20
7.8775122886
 30
0.0
 10
9.8255885977
 20
7.8773439999
 30
0.0
 10
9.8354251895
 20
7.8765331872
 30
0.0
 10
9.8452322051
 20
7.8750833114
 30
0.0
 10
9.8549674408
 20
7.8730007688
 30
0.0
 10
9.8613709039
 20
7.8711997084
 30
0.0
 10
9.8645467467
 20
7.8701978455
 30
0.0
  0
SPLINE
  5
36F
100
AcDbEntity
  8
0
100
AcDbSpline
 62
7
  6
CONTINUOUS
 70
0
 71
3
 72
23
 73
19
 74
0
 42
0.0000001
 43
0.0000001
 44
0.0000000001
 40
0.0
 40
0.0
 40
0.0
 40
0.0
 40
0.0617101439
 40
0.1234413935
 40
0.1852146431
 40
0.2470503547
 40
0.3089683495
 40
0.3709876176
 40
0.4331261309
 40
0.4954006615
 40
0.5578266134
 40
0.6204179128
 40
0.6831867943
 40
0.7461438773
 40
0.8092980348
 40
0.872655047
 40
0.9362230873
 40
1.0
 40
1.0
 40
1.0
 40
1.0
 10
9.9349440488
 20
7.1472033823
 30
0.0
 10
9.9402108292
 20
7.1522906801
 30
0.0
 10
9.9504862391
 20
7.1627401621
 30
0.0
 10
9.9650756667
 20
7.1791891396
 30
0.0
 10
9.9788106373
 20
7.1963778536
 30
0.0
 10
9.9916589133
 20
7.2142661277
 30
0.0
 10
10.0035910365
 20
7.2328128224
 30
0.0
 10
10.0145794957
 20
7.251975095
 30
0.0
 10
10.0245989891
 20
7.2717087523
 30
0.0
 10
10.033626411
 20
7.2919682858
 30
0.0
 10
10.0416409849
 20
7.3127069646
 30
0.0
 10
10.048624301
 20
7.3338769445
 30
0.0
 10
10.05456032
 20
7.3554294064
 30
0.0
 10
10.0594353871
 20
7.3773146998
 30
0.0
 10
10.0632382272
 20
7.3994822323
 30
0.0
 10
10.0659603622
 20
7.4218813384
 30
0.0
 10
10.0675952503
 20
7.4444594041
 30
0.0
 10
10.0679574882
 20
7.4595727474
 30
0.0
 10
10.0679574882
 20
7.4671405295
 30
0.0
  0
SPLINE
  5
370
100
AcDbEntity
  8
0
100
AcDbSpline
 62
7
  6
CONTINUOUS
 70
0
 71
3
 72
39
 73
35
 74
0
 42
0.0000001
 43
0.0000001
 44
0.0000000001
 40
0.0
 40
0.0
 40
0.0
 40
0.0
 40
0.029942471
 40
0.0599093183
 40
0.0899243244
 40
0.1200101034
 40
0.1501875624
 40
0.1804754148
 40
0.2108897596
 40
0.2414437361
 40
0.2721472598
 40
0.3030068424
 40
0.3340254951
 40
0.3652027149
 40
0.3965345496
 40
0.4280137343
 40
0.459629891
 40
0.4913697854
 40
0.5232176334
 40
0.5551554501
 40
0.5871634341
 40
0.6192203766
 40
0.6513040925
 40
0.6833918636
 40
0.7154608915
 40
0.7474887505
 40
0.7794538351
 40
0.8113357956
 40
0.8431159562
 40
0.8747777121
 40
0.9063068677
 40
0.9376920929
 40
0.9689246489
 40
1.0
 40
1.0
 40
1.0
 40
1.0
 10
9.2533976359
 20
7.8527921076
 30
0.0
 10
9.2615348843
 20
7.860652053
 30
0.0
 10
9.2784491807
 20
7.8757376623
 30
0.0
 10
9.3055485515
 20
7.8962891052
 30
0.0
 10
9.3342372865
 20
7.9146607759
 30
0.0
 10
9.3643551044
 20
7.9307495955
 30
0.0
 10
9.3957364244
 20
7.9444676517
 30
0.0
 10
9.4282080514
 20
7.9557395422
 30
0.0
 10
9.4615910418
 20
7.9645036084
 30
0.0
 10
9.4957014793
 20
7.9707120059
 30
0.0
 10
9.5303515604
 20
7.9743310086
 30
0.0
 10
9.5653506145
 20
7.9753411474
 30
0.0
 10
9.6005061537
 20
7.973737306
 30
0.0
 10
9.6356249289
 20
7.9695287585
 30
0.0
 10
9.6705139855
 20
7.962739053
 30
0.0
 10
9.7049817072
 20
7.9534058711
 30
0.0
 10
9.7388388537
 20
7.9415808095
 30
0.0
 10
9.7718995792
 20
7.9273290833
 30
0.0
 10
9.8039824515
 20
7.9107291978
 30
0.0
 10
9.8349114346
 20
7.8918725009
 30
0.0
 10
9.8645168308
 20
7.8708626617
 30
0.0
 10
9.8926362005
 20
7.8478151106
 30
0.0
 10
9.9191152399
 20
7.8228564091
 30
0.0
 10
9.9438086186
 20
7.7961235662
 30
0.0
 10
9.9665807991
 20
7.7677633184
 30
0.0
 10
9.9873067439
 20
7.7379312989
 30
0.0
 10
10.005872596
 20
7.7067911989
 30
0.0
 10
10.0221762975
 20
7.674513876
 30
0.0
 10
10.0361281443
 20
7.6412764487
 30
0.0
 10
10.0476512904
 20
7.6072612747
 30
0.0
 10
10.056682231
 20
7.572655227
 30
0.0
 10
10.0631709499
 20
7.5376476893
 30
0.0
 10
10.0670816029
 20
7.5024333715
 30
0.0
 10
10.0679574882
 20
7.4788819989
 30
0.0
 10
10.0679574882
 20
7.4671405295
 30
0.0
  0
SPLINE
  5
371
100
AcDbEntity
  8
0
100
AcDbSpline
 62
7
  6
CONTINUOUS
 70
0
 71
3
 72
37
 73
33
 74
0
 42
0.0000001
 43
0.0000001
 44
0.0000000001
 40
0.0
 40
0.0
 40
0.0
 40
0.0
 40
0.0306166139
 40
0.0613389921
 40
0.0921655499
 40
0.123093674
 40
0.1541197598
 40
0.1852392573
 40
0.2164467221
 40
0.2477358746
 40
0.2790996648
 40
0.3105303431
 40
0.342019539
 40
0.3735583423
 40
0.4051373875
 40
0.4367469404
 40
0.4999999859
 40
0.5632530297
 40
0.5948625827
 40
0.6264416303
 40
0.6579804364
 40
0.6894696338
 40
0.720900312
 40
0.7522641028
 40
0.7835532571
 40
0.8147607267
 40
0.8458802309
 40
0.8769062979
 40
0.9078345035
 40
0.9386608268
 40
0.9693836898
 40
1.0
 40
1.0
 40
1.0
 40
1.0
 10
9.5269064837
 20
8.0100256024
 30
0.0
 10
9.536204433
 20
8.0097031931
 30
0.0
 10
9.5548195236
 20
8.0085889352
 30
0.0
 10
9.5826688592
 20
8.0055240032
 30
0.0
 10
9.6104265881
 20
8.0010703084
 30
0.0
 10
9.6380219603
 20
7.9952391446
 30
0.0
 10
9.6653858249
 20
7.9880452502
 30
0.0
 10
9.6924493029
 20
7.9795067828
 30
0.0
 10
9.7191443614
 20
7.9696452682
 30
0.0
 10
9.7454038731
 20
7.9584855498
 30
0.0
 10
9.7711618132
 20
7.9460557168
 30
0.0
 10
9.7963534126
 20
7.9323870767
 30
0.0
 10
9.8209153835
 20
7.9175140074
 30
0.0
 10
9.8447858376
 20
7.9014740774
 30
0.0
 10
9.8679052997
 20
7.8843071123
 30
0.0
 10
9.8976537142
 20
7.8599720704
 30
0.0
 10
9.9326689294
 20
7.826962339
 30
0.0
 10
9.9644454297
 20
7.7908242496
 30
0.0
 10
9.987735005
 20
7.7602504356
 30
0.0
 10
10.0040905166
 20
7.7365499806
 30
0.0
 10
10.019293627
 20
7.7121380265
 30
0.0
 10
10.0333066011
 20
7.6870754001
 30
0.0
 10
10.0460940511
 20
7.6614252627
 30
0.0
 10
10.0576238294
 20
7.6352520615
 30
0.0
 10
10.0678668947
 20
7.6086216092
 30
0.0
 10
10.0767974418
 20
7.5816008541
 30
0.0
 10
10.0843929375
 20
7.5542577456
 30
0.0
 10
10.0906342743
 20
7.5266610037
 30
0.0
 10
10.0955056087
 20
7.4988801807
 30
0.0
 10
10.0989948251
 20
7.470984698
 30
0.0
 10
10.1010927941
 20
7.443045891
 30
0.0
 10
10.1015613684
 20
7.4244033151
 30
0.0
 10
10.1015613763
 20
7.4150998699
 30
0.0
  0
SPLINE
  5
372
100
AcDbEntity
  8
0
100
AcDbSpline
 62
7
  6
CONTINUOUS
 70
0
 71
3
 72
39
 73
35
 74
0
 42
0.0000001
 43
0.0000001
 44
0.0000000001
 40
0.0
 40
0.0
 40
0.0
 40
0.0
 40
0.0299372854
 40
0.0598953387
 40
0.0898944962
 40
0.1199542434
 40
0.1500928196
 40
0.1803268537
 40
0.2106710403
 40
0.2411378658
 40
0.2717373877
 40
0.3024770683
 40
0.3333616627
 40
0.3643931681
 40
0.3955708257
 40
0.4268911724
 40
0.4583481385
 40
0.4899331943
 40
0.5216355317
 40
0.5534422794
 40
0.5853387464
 40
0.6173086943
 40
0.6493346263
 40
0.6813980915
 40
0.713480002
 40
0.7455609585
 40
0.7776215775
 40
0.8096428198
 40
0.8416063147
 40
0.8734946742
 40
0.9052917955
 40
0.936983201
 40
0.9685559719
 40
1.0
 40
1.0
 40
1.0
 40
1.0
 10
8.9772122728
 20
8.0260564195
 30
0.0
 10
8.9895659096
 20
8.0379890937
 30
0.0
 10
9.0151678336
 20
8.060964555
 30
0.0
 10
9.0560074555
 20
8.0925327886
 30
0.0
 10
9.0991062784
 20
8.1210714027
 30
0.0
 10
9.1442592908
 20
8.1464441644
 30
0.0
 10
9.1912552158
 20
8.1685329589
 30
0.0
 10
9.2398732884
 20
8.1872342727
 30
0.0
 10
9.2898854066
 20
8.2024608735
 30
0.0
 10
9.3410569626
 20
8.2141418232
 30
0.0
 10
9.393148041
 20
8.2222228398
 30
0.0
 10
9.4459145156
 20
8.2266665103
 30
0.0
 10
9.4991091952
 20
8.2274525671
 30
0.0
 10
9.5524829982
 20
8.2245778394
 30
0.0
 10
9.6057861028
 20
8.2180562401
 30
0.0
 10
9.658769099
 20
8.2079187091
 30
0.0
 10
9.7111841664
 20
8.1942131432
 30
0.0
 10
9.7627862049
 20
8.1770040401
 30
0.0
 10
9.8133339552
 20
8.156372193
 30
0.0
 10
9.8625911248
 20
8.1324143584
 30
0.0
 10
9.9103275097
 20
8.1052428425
 30
0.0
 10
9.9563200147
 20
8.074984879
 30
0.0
 10
10.0003536742
 20
8.0417820442
 30
0.0
 10
10.042222689
 20
8.0057896651
 30
0.0
 10
10.0817313894
 20
7.9671760915
 30
0.0
 10
10.1186950884
 20
7.9261218529
 30
0.0
 10
10.1529409271
 20
7.8828188327
 30
0.0
 10
10.1843087565
 20
7.8374694385
 30
0.0
 10
10.2126518466
 20
7.790285653
 30
0.0
 10
10.2378375359
 20
7.7414879287
 30
0.0
 10
10.2597478074
 20
7.6913045264
 30
0.0
 10
10.2782800515
 20
7.6399692683
 30
0.0
 10
10.2933469374
 20
7.5877251612
 30
0.0
 10
10.3010517998
 20
7.5523694684
 30
0.0
 10
10.304301384
 20
7.5346245165
 30
0.0
  0
SPLINE
  5
373
100
AcDbEntity
  8
0
100
AcDbSpline
 62
7
  6
CONTINUOUS
 70
0
 71
3
 72
24
 73
20
 74
0
 42
0.0000001
 43
0.0000001
 44
0.0000000001
 40
0.0
 40
0.0
 40
0.0
 40
0.0
 40
0.0637773023
 40
0.1273439637
 40
0.1907010681
 40
0.2538548417
 40
0.3168115636
 40
0.379580162
 40
0.4421711307
 40
0.5045967669
 40
0.5668709778
 40
0.6290091748
 40
0.691028128
 40
0.7529458054
 40
0.8147811982
 40
0.8765541325
 40
0.9074261016
 40
0.9382901687
 40
1.0
 40
1.0
 40
1.0
 40
1.0
 10
10.4338136518
 20
7.4370303302
 30
0.0
 10
10.4338136518
 20
7.4490957165
 30
0.0
 10
10.4343911092
 20
7.4731907302
 30
0.0
 10
10.4369976843
 20
7.5091867573
 30
0.0
 10
10.4413374936
 20
7.5448973374
 30
0.0
 10
10.4474003945
 20
7.5802388972
 30
0.0
 10
10.4551726561
 20
7.6151304251
 30
0.0
 10
10.4646363588
 20
7.6494913424
 30
0.0
 10
10.4757698062
 20
7.683242467
 30
0.0
 10
10.4885473964
 20
7.7163059569
 30
0.0
 10
10.5029397431
 20
7.7486055562
 30
0.0
 10
10.5189137204
 20
7.7800667738
 30
0.0
 10
10.536432517
 20
7.8106170065
 30
0.0
 10
10.5554558735
 20
7.8401858899
 30
0.0
 10
10.5759395895
 20
7.8687047848
 30
0.0
 10
10.5941917557
 20
7.8915465851
 30
0.0
 10
10.609471804
 20
7.9092262694
 30
0.0
 10
10.6251927266
 20
7.9264983081
 30
0.0
 10
10.6374790828
 20
7.9389927665
 30
0.0
 10
10.645875843
 20
7.9471034273
 30
0.0
  0
SPLINE
  5
374
100
AcDbEntity
  8
0
100
AcDbSpline
 62
7
  6
CONTINUOUS
 70
0
 71
3
 72
43
 73
39
 74
0
 42
0.0000001
 43
0.0000001
 44
0.0000000001
 40
0.0
 40
0.0
 40
0.0
 40
0.0
 40
0.0309418566
 40
0.0620264468
 40
0.0932503929
 40
0.1246071075
 40
0.1560880002
 40
0.1876822702
 40
0.2193771888
 40
0.2511583275
 40
0.2830098133
 40
0.3149146026
 40
0.3468547693
 40
0.3788118051
 40
0.4107669244
 40
0.4427013728
 40
0.4745967359
 40
0.5064352439
 40
0.5382000686
 40
0.5698756088
 40
0.6014477613
 40
0.6329041747
 40
0.664234477
 40
0.6954304769
 40
0.7264863341
 40
0.7573986955
 40
0.7881667885
 40
0.8187924702
 40
0.8340554786
 40
0.849284788
 40
0.8644813606
 40
0.8796463175
 40
0.909881943
 40
0.9400081755
 40
0.9550369536
 40
0.9700438062
 40
0.985030774
 40
1.0
 40
1.0
 40
1.0
 40
1.0
 10
10.6572155538
 20
7.6528200098
 30
0.0
 10
10.6572155538
 20
7.63579642
 30
0.0
 10
10.6583700126
 20
7.6016598412
 30
0.0
 10
10.6635288994
 20
7.5505792324
 30
0.0
 10
10.6720949159
 20
7.4997250207
 30
0.0
 10
10.6840289153
 20
7.4493312941
 30
0.0
 10
10.6992762566
 20
7.3996263323
 30
0.0
 10
10.7177673685
 20
7.3508361636
 30
0.0
 10
10.7394179325
 20
7.3031823561
 30
0.0
 10
10.7641293582
 20
7.2568813726
 30
0.0
 10
10.7917892119
 20
7.2121435041
 30
0.0
 10
10.8222717205
 20
7.169171955
 30
0.0
 10
10.8554382845
 20
7.1281618778
 30
0.0
 10
10.8911381723
 20
7.08929954
 30
0.0
 10
10.9292091896
 20
7.0527614832
 30
0.0
 10
10.9694784177
 20
7.0187137423
 30
0.0
 10
11.0117629461
 20
6.9873110482
 30
0.0
 10
11.0558707171
 20
6.9586961406
 30
0.0
 10
11.1016014132
 20
6.9329991579
 30
0.0
 10
11.1487473487
 20
6.9103370471
 30
0.0
 10
11.1970943936
 20
6.8908130253
 30
0.0
 10
11.2464229186
 20
6.8745160506
 30
0.0
 10
11.2965088022
 20
6.8615204868
 30
0.0
 10
11.3471244772
 20
6.8518857596
 30
0.0
 10
11.398039765
 20
6.8456560677
 30
0.0
 10
11.4490235902
 20
6.8428602007
 30
0.0
 10
11.4998424723
 20
6.8435110452
 30
0.0
 10
11.5419150676
 20
6.8469282786
 30
0.0
 10
11.5752505904
 20
6.8513797021
 30
0.0
 10
11.6000417676
 20
6.8555670276
 30
0.0
 10
11.6246197212
 20
6.8606021251
 30
0.0
 10
11.6570330594
 20
6.8684292582
 30
0.0
 10
11.696892973
 20
6.8802991491
 30
0.0
 10
11.7357465342
 20
6.8949257587
 30
0.0
 10
11.7660634924
 20
6.9082249505
 30
0.0
 10
11.7883834649
 20
6.9189801082
 30
0.0
 10
11.810275246
 20
6.9305106116
 30
0.0
 10
11.8245766449
 20
6.9387107053
 30
0.0
 10
11.8316465233
 20
6.942935004
 30
0.0
  0
SPLINE
  5
375
100
AcDbEntity
  8
0
100
AcDbSpline
 62
7
  6
CONTINUOUS
 70
0
 71
3
 72
15
 73
11
 74
0
 42
0.0000001
 43
0.0000001
 44
0.0000000001
 40
0.0
 40
0.0
 40
0.0
 40
0.0
 40
0.1268936931
 40
0.2531824523
 40
0.378885871
 40
0.5040320099
 40
0.6286612404
 40
0.7528241611
 40
0.8765809068
 40
1.0
 40
1.0
 40
1.0
 40
1.0
 10
10.6572155538
 20
7.6528200098
 30
0.0
 10
10.6572155538
 20
7.6701883466
 30
0.0
 10
10.6584116938
 20
7.7048545497
 30
0.0
 10
10.6638165047
 20
7.7564722025
 30
0.0
 10
10.6728020551
 20
7.8073485878
 30
0.0
 10
10.6853260822
 20
7.8572371999
 30
0.0
 10
10.7013289538
 20
7.9058997131
 30
0.0
 10
10.7207350201
 20
7.9531036667
 30
0.0
 10
10.7434497837
 20
7.9986198932
 30
0.0
 10
10.76075143
 20
8.0277348128
 30
0.0
 10
10.7699105129
 20
8.041929053
 30
0.0
  0
SPLINE
  5
376
100
AcDbEntity
  8
0
100
AcDbSpline
 62
7
  6
CONTINUOUS
 70
0
 71
3
 72
23
 73
19
 74
0
 42
0.0000001
 43
0.0000001
 44
0.0000000001
 40
0.0
 40
0.0
 40
0.0
 40
0.0
 40
0.0636929457
 40
0.1271991506
 40
0.1905166521
 40
0.2536515438
 40
0.3166078579
 40
0.3793919483
 40
0.4420114307
 40
0.5044751015
 40
0.5667930256
 40
0.6289763948
 40
0.691037473
 40
0.752989499
 40
0.8148465813
 40
0.8766235904
 40
0.9383360476
 40
1.0
 40
1.0
 40
1.0
 40
1.0
 10
10.7026140704
 20
7.649671612
 30
0.0
 10
10.7026140704
 20
7.6598025407
 30
0.0
 10
10.7030473165
 20
7.6800374287
 30
0.0
 10
10.7050022408
 20
7.7102866897
 30
0.0
 10
10.7082580236
 20
7.7403350811
 30
0.0
 10
10.7128084177
 20
7.7701262904
 30
0.0
 10
10.7186453251
 20
7.7996060058
 30
0.0
 10
10.7257579721
 20
7.8287198651
 30
0.0
 10
10.7341333035
 20
7.8574143676
 30
0.0
 10
10.7437559709
 20
7.8856367344
 30
0.0
 10
10.7546083408
 20
7.9133350377
 30
0.0
 10
10.7666704909
 20
7.9404583219
 30
0.0
 10
10.7799202339
 20
7.9669566956
 30
0.0
 10
10.794333237
 20
7.9927814183
 30
0.0
 10
10.8098829972
 20
8.0178849141
 30
0.0
 10
10.8265410853
 20
8.0422211445
 30
0.0
 10
10.8442763184
 20
8.0657447199
 30
0.0
 10
10.8568012638
 20
8.0808626391
 30
0.0
 10
10.8632304636
 20
8.0882698089
 30
0.0
  0
SPLINE
  5
377
100
AcDbEntity
  8
0
100
AcDbSpline
 62
7
  6
CONTINUOUS
 70
0
 71
3
 72
23
 73
19
 74
0
 42
0.0000001
 43
0.0000001
 44
0.0000000001
 40
0.0
 40
0.0
 40
0.0
 40
0.0
 40
0.0637271823
 40
0.1272587972
 40
0.1905934735
 40
0.25373769
 40
0.3166961407
 40
0.3794761286
 40
0.4420862921
 40
0.5045366716
 40
0.5668387143
 40
0.6290051229
 40
0.6910497827
 40
0.7529876443
 40
0.8148345959
 40
0.8766073259
 40
0.9383231772
 40
1.0
 40
1.0
 40
1.0
 40
1.0
 10
10.7238272691
 20
7.6551619897
 30
0.0
 10
10.7238272691
 20
7.6655375874
 30
0.0
 10
10.7242911373
 20
7.6862600047
 30
0.0
 10
10.7263844827
 20
7.7172304705
 30
0.0
 10
10.7298704596
 20
7.7479804657
 30
0.0
 10
10.7347417937
 20
7.7784470477
 30
0.0
 10
10.7409889765
 20
7.8085694548
 30
0.0
 10
10.748599431
 20
7.8382869642
 30
0.0
 10
10.757557895
 20
7.8675398733
 30
0.0
 10
10.7678464074
 20
7.8962693554
 30
0.0
 10
10.7794443281
 20
7.9244176318
 30
0.0
 10
10.7923284129
 20
7.9519280748
 30
0.0
 10
10.806472773
 20
7.9787453471
 30
0.0
 10
10.8218489894
 20
8.0048155259
 30
0.0
 10
10.8384261221
 20
8.030086118
 30
0.0
 10
10.8561710345
 20
8.0545064536
 30
0.0
 10
10.8750474487
 20
8.0780267176
 30
0.0
 10
10.8883651965
 20
8.0930802468
 30
0.0
 10
10.8951976526
 20
8.1004392378
 30
0.0
  0
SPLINE
  5
378
100
AcDbEntity
  8
0
100
AcDbSpline
 62
7
  6
CONTINUOUS
 70
0
 71
3
 72
23
 73
19
 74
0
 42
0.0000001
 43
0.0000001
 44
0.0000000001
 40
0.0
 40
0.0
 40
0.0
 40
0.0
 40
0.0636435929
 40
0.1271127404
 40
0.1904037452
 40
0.2535225941
 40
0.3164727232
 40
0.3792591373
 40
0.4418883093
 40
0.5043675377
 40
0.5667052177
 40
0.6289107336
 40
0.6909943671
 40
0.7529672633
 40
0.8148413532
 40
0.8766292616
 40
0.9383442228
 40
1.0
 40
1.0
 40
1.0
 40
1.0
 10
10.7657608989
 20
7.6956667682
 30
0.0
 10
10.7657608989
 20
7.7049937003
 30
0.0
 10
10.766135802
 20
7.723624219
 30
0.0
 10
10.7678271174
 20
7.751483797
 30
0.0
 10
10.7706442397
 20
7.7791753712
 30
0.0
 10
10.7745823887
 20
7.8066529713
 30
0.0
 10
10.7796353181
 20
7.833872467
 30
0.0
 10
10.7857948021
 20
7.8607895331
 30
0.0
 10
10.7930508713
 20
7.8873604622
 30
0.0
 10
10.8013918363
 20
7.9135420953
 30
0.0
 10
10.810804106
 20
7.9392919217
 30
0.0
 10
10.8212724224
 20
7.9645681194
 30
0.0
 10
10.8327798743
 20
7.9893295946
 30
0.0
 10
10.8453077552
 20
8.0135361466
 30
0.0
 10
10.8588356786
 20
8.0371484269
 30
0.0
 10
10.8733418427
 20
8.0601281864
 30
0.0
 10
10.888802309
 20
8.0824375461
 30
0.0
 10
10.8997341105
 20
8.0968465012
 30
0.0
 10
10.9053492826
 20
8.1039255018
 30
0.0
  0
SPLINE
  5
379
100
AcDbEntity
  8
0
100
AcDbSpline
 62
7
  6
CONTINUOUS
 70
0
 71
3
 72
23
 73
19
 74
0
 42
0.0000001
 43
0.0000001
 44
0.0000000001
 40
0.0
 40
0.0
 40
0.0
 40
0.0
 40
0.063739621
 40
0.1272802157
 40
0.1906208134
 40
0.2537679487
 40
0.3167266137
 40
0.3795044963
 40
0.4421106414
 40
0.5045555955
 40
0.5668513603
 40
0.6290112484
 40
0.6910497945
 40
0.7529826309
 40
0.8148263514
 40
0.8765983632
 40
0.9383167282
 40
1.0
 40
1.0
 40
1.0
 40
1.0
 10
10.8227115282
 20
7.704176855
 30
0.0
 10
10.8227115282
 20
7.7140435729
 30
0.0
 10
10.8231599611
 20
7.7337492111
 30
0.0
 10
10.8251837534
 20
7.7631972426
 30
0.0
 10
10.8285537685
 20
7.7924301395
 30
0.0
 10
10.833262765
 20
7.8213860886
 30
0.0
 10
10.8393012208
 20
7.8500053796
 30
0.0
 10
10.8466565807
 20
7.8782283883
 30
0.0
 10
10.855313613
 20
7.9059965081
 30
0.0
 10
10.8652543687
 20
7.9332520221
 30
0.0
 10
10.8764582331
 20
7.9599382776
 30
0.0
 10
10.8889019805
 20
7.9859997929
 30
0.0
 10
10.9025597988
 20
8.0113823696
 30
0.0
 10
10.9174033217
 20
8.036033254
 30
0.0
 10
10.9334016689
 20
8.0599011479
 30
0.0
 10
10.9505217769
 20
8.0829365913
 30
0.0
 10
10.9687274517
 20
8.1050910358
 30
0.0
 10
10.9815669766
 20
8.1192467788
 30
0.0
 10
10.9881526793
 20
8.1261605675
 30
0.0
  0
SPLINE
  5
37A
100
AcDbEntity
  8
0
100
AcDbSpline
 62
7
  6
CONTINUOUS
 70
0
 71
3
 72
11
 73
7
 74
0
 42
0.0000001
 43
0.0000001
 44
0.0000000001
 40
0.0
 40
0.0
 40
0.0
 40
0.0
 40
0.2513581145
 40
0.5018002695
 40
0.7513379833
 40
1.0
 40
1.0
 40
1.0
 40
1.0
 10
11.1341999919
 20
8.0050516246
 30
0.0
 10
11.1341999919
 20
8.016498562
 30
0.0
 10
11.1348034226
 20
8.0393553951
 30
0.0
 10
11.1375280777
 20
8.0734787433
 30
0.0
 10
11.142062898
 20
8.1072852403
 30
0.0
 10
11.1462923929
 20
8.1295890823
 30
0.0
 10
11.1487046457
 20
8.1406533287
 30
0.0
  0
SPLINE
  5
37B
100
AcDbEntity
  8
0
100
AcDbSpline
 62
7
  6
CONTINUOUS
 70
0
 71
3
 72
11
 73
7
 74
0
 42
0.0000001
 43
0.0000001
 44
0.0000000001
 40
0.0
 40
0.0
 40
0.0
 40
0.0
 40
0.2513422312
 40
0.5017803061
 40
0.7513231259
 40
1.0
 40
1.0
 40
1.0
 40
1.0
 10
11.1812550638
 20
8.0120830262
 30
0.0
 10
11.1812550638
 20
8.0227504345
 30
0.0
 10
11.181810825
 20
8.0440511272
 30
0.0
 10
11.1843201132
 20
8.0758541058
 30
0.0
 10
11.1884966898
 20
8.1073673441
 30
0.0
 10
11.1923921851
 20
8.1281628989
 30
0.0
 10
11.1946140762
 20
8.1384806578
 30
0.0
  0
SPLINE
  5
37C
100
AcDbEntity
  8
0
100
AcDbSpline
 62
7
  6
CONTINUOUS
 70
0
 71
3
 72
39
 73
35
 74
0
 42
0.0000001
 43
0.0000001
 44
0.0000000001
 40
0.0
 40
0.0
 40
0.0
 40
0.0
 40
0.0306354679
 40
0.0613801065
 40
0.0922311459
 40
0.1231864993
 40
0.1542419523
 40
0.1853926988
 40
0.2166328305
 40
0.2479555841
 40
0.2793533677
 40
0.3108178516
 40
0.3423400545
 40
0.3739104338
 40
0.4055189812
 40
0.4371553202
 40
0.4688088067
 40
0.5004686321
 40
0.5321239263
 40
0.5637638635
 40
0.5953777654
 40
0.626955204
 40
0.6584861027
 40
0.6899608345
 40
0.721370318
 40
0.7527061086
 40
0.7839604871
 40
0.8151265413
 40
0.8461982409
 40
0.877170506
 40
0.9080392671
 40
0.9388015166
 40
0.9694553503
 40
1.0
 40
1.0
 40
1.0
 40
1.0
 10
11.2995628768
 20
8.0972799153
 30
0.0
 10
11.2995628768
 20
8.0872122184
 30
0.0
 10
11.3000835278
 20
8.0670371762
 30
0.0
 10
11.3024144352
 20
8.0368046196
 30
0.0
 10
11.3062906101
 20
8.0066244211
 30
0.0
 10
11.311701464
 20
7.9765778479
 30
0.0
 10
11.3186327392
 20
7.9467441247
 30
0.0
 10
11.3270659023
 20
7.9172024811
 30
0.0
 10
11.3369785746
 20
7.8880311839
 30
0.0
 10
11.3483444124
 20
7.859307566
 30
0.0
 10
11.3611332418
 20
7.8311077553
 30
0.0
 10
11.3753111098
 20
7.8035064865
 30
0.0
 10
11.3908403948
 20
7.7765769058
 30
0.0
 10
11.4076799025
 20
7.7503903781
 30
0.0
 10
11.4257849746
 20
7.7250163002
 30
0.0
 10
11.4451076071
 20
7.7005219183
 30
0.0
 10
11.4655965761
 20
7.6769721505
 30
0.0
 10
11.4871975742
 20
7.6544294181
 30
0.0
 10
11.5098533427
 20
7.63295347
 30
0.0
 10
11.5335038308
 20
7.6126012296
 30
0.0
 10
11.5580863574
 20
7.5934266491
 30
0.0
 10
11.5835357754
 20
7.5754805667
 30
0.0
 10
11.609784643
 20
7.5588105728
 30
0.0
 10
11.6367634007
 20
7.5434608843
 30
0.0
 10
11.6644005544
 20
7.529472229
 30
0.0
 10
11.6926228627
 20
7.5168817357
 30
0.0
 10
11.7213555242
 20
7.5057228225
 30
0.0
 10
11.7505223847
 20
7.4960251228
 30
0.0
 10
11.7800461278
 20
7.4878144054
 30
0.0
 10
11.8098485116
 20
7.4811125071
 30
0.0
 10
11.8398504487
 20
7.4759372709
 30
0.0
 10
11.8699726784
 20
7.4723025095
 30
0.0
 10
11.9001342523
 20
7.4702179243
 30
0.0
 10
11.9202533214
 20
7.4698648367
 30
0.0
 10
11.9302908185
 20
7.4699491801
 30
0.0
  0
SPLINE
  5
37D
100
AcDbEntity
  8
0
100
AcDbSpline
 62
7
  6
CONTINUOUS
 70
0
 71
3
 72
23
 73
19
 74
0
 42
0.0000001
 43
0.0000001
 44
0.0000000001
 40
0.0
 40
0.0
 40
0.0
 40
0.0
 40
0.0637372327
 40
0.1272755457
 40
0.1906150548
 40
0.2537615652
 40
0.3167201997
 40
0.3794985748
 40
0.4421056027
 40
0.5045517432
 40
0.5668488664
 40
0.6290101569
 40
0.6910500113
 40
0.7529839135
 40
0.8148283014
 40
0.8766004242
 40
0.9383181891
 40
1.0
 40
1.0
 40
1.0
 40
1.0
 10
10.316588999
 20
7.4168000038
 30
0.0
 10
10.316588999
 20
7.4295736638
 30
0.0
 10
10.3171674895
 20
7.4550849896
 30
0.0
 10
10.3197783287
 20
7.4932098473
 30
0.0
 10
10.3241258538
 20
7.5310576689
 30
0.0
 10
10.3302008894
 20
7.5685490993
 30
0.0
 10
10.3379911688
 20
7.6056072828
 30
0.0
 10
10.3474805979
 20
7.6421555956
 30
0.0
 10
10.3586497173
 20
7.6781186611
 30
0.0
 10
10.3714755245
 20
7.7134222492
 30
0.0
 10
10.3859316049
 20
7.7479934983
 30
0.0
 10
10.4019881791
 20
7.781761048
 30
0.0
 10
10.4196121553
 20
7.8146551829
 30
0.0
 10
10.4387672218
 20
7.8466080037
 30
0.0
 10
10.4594138324
 20
7.8775534667
 30
0.0
 10
10.4815096053
 20
7.9074279023
 30
0.0
 10
10.5050081521
 20
7.9361687885
 30
0.0
 10
10.5215818116
 20
7.9545397093
 30
0.0
 10
10.5300832741
 20
7.9635139786
 30
0.0
  0
SPLINE
  5
37E
100
AcDbEntity
  8
0
100
AcDbSpline
 62
7
  6
CONTINUOUS
 70
0
 71
3
 72
71
 73
67
 74
0
 42
0.0000001
 43
0.0000001
 44
0.0000000001
 40
0.0
 40
0.0
 40
0.0
 40
0.0
 40
0.0155842919
 40
0.0311159123
 40
0.0465952598
 40
0.0620238813
 40
0.0774034486
 40
0.0927362826
 40
0.1080251225
 40
0.1232731733
 40
0.1384840556
 40
0.1536617767
 40
0.1688106903
 40
0.1839354535
 40
0.1990409785
 40
0.2141323822
 40
0.2292149319
 40
0.2442939893
 40
0.2593749538
 40
0.274463204
 40
0.2895640408
 40
0.3046826306
 40
0.3198239512
 40
0.3349927397
 40
0.3501934437
 40
0.3654301769
 40
0.3807066779
 40
0.3960262749
 40
0.4113918551
 40
0.4268058386
 40
0.442270159
 40
0.4577862486
 40
0.4733550295
 40
0.4889769099
 40
0.5046517846
 40
0.5203790424
 40
0.5361575756
 40
0.551985796
 40
0.5678616541
 40
0.5837826616
 40
0.5997459183
 40
0.6157481418
 40
0.6317856998
 40
0.6478546444
 40
0.6639507499
 40
0.6800695506
 40
0.6962063816
 40
0.7123564199
 40
0.7285147273
 40
0.7446762937
 40
0.7608360805
 40
0.7769890649
 40
0.7931302833
 40
0.8092548746
 40
0.8253581232
 40
0.8414355006
 40
0.857482706
 40
0.8734957058
 40
0.8894707712
 40
0.9054045127
 40
0.9212939185
 40
0.9371363636
 40
0.9529297087
 40
0.9686721119
 40
0.9843625862
 40
1.0
 40
1.0
 40
1.0
 40
1.0
 10
10.4193699554
 20
7.4321584797
 30
0.0
 10
10.4193699554
 20
7.444638849
 30
0.0
 10
10.4199807078
 20
7.4695618326
 30
0.0
 10
10.4227377581
 20
7.5067893294
 30
0.0
 10
10.4273278048
 20
7.5437109751
 30
0.0
 10
10.4337396854
 20
7.580236462
 30
0.0
 10
10.441958182
 20
7.616278204
 30
0.0
 10
10.4519634983
 20
7.6517491804
 30
0.0
 10
10.463731642
 20
7.6865639132
 30
0.0
 10
10.4772343135
 20
7.720638441
 30
0.0
 10
10.4924390423
 20
7.7538905883
 30
0.0
 10
10.5093092379
 20
7.7862401481
 30
0.0
 10
10.5278042767
 20
7.8176090861
 30
0.0
 10
10.5478796035
 20
7.8479217283
 30
0.0
 10
10.5694868403
 20
7.8771049451
 30
0.0
 10
10.5925739025
 20
7.9050883301
 30
0.0
 10
10.617085125
 20
7.9318043731
 30
0.0
 10
10.6429613971
 20
7.9571886246
 30
0.0
 10
10.6701403066
 20
7.9811798539
 30
0.0
 10
10.6985562918
 20
8.0037201988
 30
0.0
 10
10.7281408026
 20
8.0247553053
 30
0.0
 10
10.7588224631
 20
8.0442344679
 30
0.0
 10
10.7905272508
 20
8.0621107483
 30
0.0
 10
10.8231786792
 20
8.078341086
 30
0.0
 10
10.8566979853
 20
8.092886402
 30
0.0
 10
10.8910043212
 20
8.1057116914
 30
0.0
 10
10.9260149513
 20
8.1167861066
 30
0.0
 10
10.9616454539
 20
8.1260830295
 30
0.0
 10
10.9978099252
 20
8.133580134
 30
0.0
 10
11.0344211878
 20
8.1392594359
 30
0.0
 10
11.0713910005
 20
8.1431073415
 30
0.0
 10
11.1086302724
 20
8.1451146767
 30
0.0
 10
11.1460492784
 20
8.1452767008
 30
0.0
 10
11.1835578752
 20
8.1435931171
 30
0.0
 10
11.221065717
 20
8.1400680711
 30
0.0
 10
11.2584824721
 20
8.1347101389
 30
0.0
 10
11.2957180395
 20
8.127532305
 30
0.0
 10
11.3326827638
 20
8.1185519299
 30
0.0
 10
11.36928765
 20
8.1077907064
 30
0.0
 10
11.405444577
 20
8.0952746116
 30
0.0
 10
11.4410665107
 20
8.0810338453
 30
0.0
 10
11.4760677099
 20
8.0651027494
 30
0.0
 10
11.5103639317
 20
8.0475197264
 30
0.0
 10
11.5438726327
 20
8.0283271467
 30
0.0
 10
11.5765131662
 20
8.0075712469
 30
0.0
 10
11.6082069751
 20
7.9853020183
 30
0.0
 10
11.6388777797
 20
7.9615730879
 30
0.0
 10
11.6684517598
 20
7.9364415886
 30
0.0
 10
11.6968577333
 20
7.9099680254
 30
0.0
 10
11.724027331
 20
7.8822161327
 30
0.0
 10
11.7498951545
 20
7.8532527156
 30
0.0
 10
11.7743989342
 20
7.82314749
 30
0.0
 10
11.7974796775
 20
7.7919729161
 30
0.0
 10
11.8190818107
 20
7.7598040247
 30
0.0
 10
11.8391533115
 20
7.7267182383
 30
0.0
 10
11.8576458343
 20
7.6927951851
 30
0.0
 10
11.8745148257
 20
7.6581165094
 30
0.0
 10
11.8897196333
 20
7.6227656761
 30
0.0
 10
11.9032236085
 20
7.5868277745
 30
0.0
 10
11.9149941948
 20
7.5503893062
 30
0.0
 10
11.9250029812
 20
7.5135379959
 30
0.0
 10
11.9332258404
 20
7.4763625148
 30
0.0
 10
11.9396428236
 20
7.4389525076
 30
0.0
 10
11.9442385399
 20
7.4013975938
 30
0.0
 10
11.9470016485
 20
7.3637895627
 30
0.0
 10
11.947618652
 20
7.3386969835
 30
0.0
 10
11.947618652
 20
7.3261740727
 30
0.0
  0
SPLINE
  5
37F
100
AcDbEntity
  8
0
100
AcDbSpline
 62
7
  6
CONTINUOUS
 70
0
 71
3
 72
48
 73
44
 74
0
 42
0.0000001
 43
0.0000001
 44
0.0000000001
 40
0.0
 40
0.0
 40
0.0
 40
0.0
 40
0.0310737286
 40
0.0623047169
 40
0.0936882768
 40
0.1252158192
 40
0.1568759363
 40
0.1886544543
 40
0.2205347671
 40
0.2524981996
 40
0.2845244034
 40
0.3165917744
 40
0.3486778872
 40
0.3807599447
 40
0.4128152307
 40
0.444821561
 40
0.476757727
 40
0.5086039285
 40
0.5403421829
 40
0.5719567057
 40
0.6034342639
 40
0.6347644801
 40
0.6659400877
 40
0.6969571367
 40
0.7278151252
 40
0.7431880054
 40
0.758522545
 40
0.7738196675
 40
0.7890805069
 40
0.8043064089
 40
0.8194989208
 40
0.8346597817
 40
0.8497909186
 40
0.8648944344
 40
0.8799725929
 40
0.8950278113
 40
0.9100626449
 40
0.9250797694
 40
0.9400819686
 40
0.9550721182
 40
0.970053165
 40
0.9850281118
 40
1.0
 40
1.0
 40
1.0
 40
1.0
 10
10.4338136518
 20
7.4370303302
 30
0.0
 10
10.4338136518
 20
7.4183110146
 30
0.0
 10
10.4352100874
 20
7.3807632437
 30
0.0
 10
10.4414447605
 20
7.3246213576
 30
0.0
 10
10.4517896744
 20
7.2688091235
 30
0.0
 10
10.4661876453
 20
7.2136370171
 30
0.0
 10
10.4845589191
 20
7.1594069113
 30
0.0
 10
10.5068022106
 20
7.1064167551
 30
0.0
 10
10.5327950755
 20
7.0549572977
 30
0.0
 10
10.5623944314
 20
7.0053108854
 30
0.0
 10
10.5954376232
 20
6.9577499418
 30
0.0
 10
10.6317431551
 20
6.9125354676
 30
0.0
 10
10.6711115954
 20
6.8699155194
 30
0.0
 10
10.7133268921
 20
6.8301240587
 30
0.0
 10
10.7581573716
 20
6.79337955
 30
0.0
 10
10.805356986
 20
6.7598837147
 30
0.0
 10
10.8546668106
 20
6.7298206526
 30
0.0
 10
10.9058162813
 20
6.7033556343
 30
0.0
 10
10.9585247073
 20
6.6806342045
 30
0.0
 10
11.0125028614
 20
6.661781599
 30
0.0
 10
11.067454486
 20
6.6469017933
 30
0.0
 10
11.123077713
 20
6.6360769826
 30
0.0
 10
11.1790676393
 20
6.6293674036
 30
0.0
 10
11.2351145043
 20
6.6268103015
 30
0.0
 10
11.2816780143
 20
6.6281544977
 30
0.0
 10
11.3186382585
 20
6.6313163605
 30
0.0
 10
11.3461492084
 20
6.6347209615
 30
0.0
 10
11.3734440677
 20
6.639156969
 30
0.0
 10
11.4004857712
 20
6.6446183666
 30
0.0
 10
11.4272370005
 20
6.6510975796
 30
0.0
 10
11.4536609885
 20
6.6585857251
 30
0.0
 10
11.4797213445
 20
6.667072599
 30
0.0
 10
11.5053822364
 20
6.6765464628
 30
0.0
 10
11.5306083566
 20
6.6869943015
 30
0.0
 10
11.5553649554
 20
6.6984018352
 30
0.0
 10
11.5796179936
 20
6.710753308
 30
0.0
 10
11.6033341012
 20
6.7240317324
 30
0.0
 10
11.6264805897
 20
6.7382189233
 30
0.0
 10
11.6490256464
 20
6.7532953095
 30
0.0
 10
11.6709382252
 20
6.7692401121
 30
0.0
 10
11.6921882215
 20
6.7860315706
 30
0.0
 10
11.7127460178
 20
6.8036461419
 30
0.0
 10
11.7259723695
 20
6.8159231337
 30
0.0
 10
11.7324595425
 20
6.8221892718
 30
0.0
  0
SPLINE
  5
380
100
AcDbEntity
  8
0
100
AcDbSpline
 62
7
  6
CONTINUOUS
 70
0
 71
3
 72
42
 73
38
 74
0
 42
0.0000001
 43
0.0000001
 44
0.0000000001
 40
0.0
 40
0.0
 40
0.0
 40
0.0
 40
0.0310255268
 40
0.0622027355
 40
0.093527506
 40
0.1249920355
 40
0.1565860627
 40
0.188296772
 40
0.2201091141
 40
0.2520061133
 40
0.2839692006
 40
0.315978572
 40
0.3480135642
 40
0.3800530388
 40
0.4120757744
 40
0.4440608598
 40
0.4759880818
 40
0.507838306
 40
0.5395938425
 40
0.57123879
 40
0.602759356
 40
0.6341441485
 40
0.6653844253
 40
0.6964743007
 40
0.7274109055
 40
0.758194491
 40
0.7888284669
 40
0.8193193767
 40
0.8496768073
 40
0.8799132222
 40
0.9100437254
 40
0.9250773345
 40
0.9400911806
 40
0.9550877492
 40
0.9700696203
 40
0.9850394594
 40
1.0
 40
1.0
 40
1.0
 40
1.0
 10
10.7026140704
 20
7.649671612
 30
0.0
 10
10.7026140704
 20
7.632688294
 30
0.0
 10
10.7038368279
 20
7.5986264352
 30
0.0
 10
10.7092979807
 20
7.5476811673
 30
0.0
 10
10.718361946
 20
7.4970058381
 30
0.0
 10
10.7309820586
 20
7.446863154
 30
0.0
 10
10.747093238
 20
7.3975088777
 30
0.0
 10
10.7666126345
 20
7.349195722
 30
0.0
 10
10.7894400577
 20
7.302170743
 30
0.0
 10
10.8154585064
 20
7.2566744946
 30
0.0
 10
10.8445346413
 20
7.212939638
 30
0.0
 10
10.8765195487
 20
7.1711898266
 30
0.0
 10
10.911249537
 20
7.131638604
 30
0.0
 10
10.9485469293
 20
7.0944883116
 30
0.0
 10
10.9882208893
 20
7.0599289793
 30
0.0
 10
11.0300684947
 20
7.0281374574
 30
0.0
 10
11.073875757
 20
6.9992765372
 30
0.0
 10
11.1194186394
 20
6.9734940405
 30
0.0
 10
11.1664642075
 20
6.9509220656
 30
0.0
 10
11.2147718518
 20
6.9316763994
 30
0.0
 10
11.2640944823
 20
6.9158559225
 30
0.0
 10
11.3141797319
 20
6.9035419611
 30
0.0
 10
11.3647712811
 20
6.894797977
 30
0.0
 10
11.4156101451
 20
6.889669267
 30
0.0
 10
11.4664359686
 20
6.8881826566
 30
0.0
 10
11.5169883399
 20
6.8903462568
 30
0.0
 10
11.5670081764
 20
6.8961495646
 30
0.0
 10
11.6162388297
 20
6.9055633847
 30
0.0
 10
11.6644281472
 20
6.9185402099
 30
0.0
 10
11.7113270938
 20
6.9350130341
 30
0.0
 10
11.749168647
 20
6.9515996159
 30
0.0
 10
11.7785441614
 20
6.9665206389
 30
0.0
 10
11.8000932887
 20
6.9785169363
 30
0.0
 10
11.8211454157
 20
6.9913102966
 30
0.0
 10
11.8416740205
 20
7.0048846332
 30
0.0
 10
11.8616523674
 20
7.0192220895
 30
0.0
 10
11.8745914482
 20
7.0292802095
 30
0.0
 10
11.8809595813
 20
7.0344292595
 30
0.0
  0
SPLINE
  5
381
100
AcDbEntity
  8
0
100
AcDbSpline
 62
7
  6
CONTINUOUS
 70
0
 71
3
 72
44
 73
40
 74
0
 42
0.0000001
 43
0.0000001
 44
0.0000000001
 40
0.0
 40
0.0
 40
0.0
 40
0.0
 40
0.0310443156
 40
0.0622424275
 40
0.093590042
 40
0.1250790308
 40
0.156698717
 40
0.1884357731
 40
0.2202745646
 40
0.2521974779
 40
0.2841852731
 40
0.3162174652
 40
0.3482727227
 40
0.3803292746
 40
0.4123653255
 40
0.4443594701
 40
0.4762911023
 40
0.5081408144
 40
0.5398907806
 40
0.5715251153
 40
0.6030302039
 40
0.6343950014
 40
0.6656112869
 40
0.6966738678
 40
0.7275807306
 40
0.7583331346
 40
0.7889356315
 40
0.8193960148
 40
0.8497251974
 40
0.8648475433
 40
0.8799425043
 40
0.8950122209
 40
0.9100589765
 40
0.9250851839
 40
0.940093378
 40
0.9550861953
 40
0.9700663612
 40
0.9850366773
 40
1.0
 40
1.0
 40
1.0
 40
1.0
 10
10.7238272691
 20
7.6551619897
 30
0.0
 10
10.7238272691
 20
7.6382966074
 30
0.0
 10
10.7250582911
 20
7.6044698535
 30
0.0
 10
10.7305556544
 20
7.5538820408
 30
0.0
 10
10.739678738
 20
7.503573196
 30
0.0
 10
10.7523792704
 20
7.4538113136
 30
0.0
 10
10.7685899531
 20
7.40485721
 30
0.0
 10
10.788225126
 20
7.3569684534
 30
0.0
 10
10.8111812217
 20
7.3103966729
 30
0.0
 10
10.8373373345
 20
7.2653866634
 30
0.0
 10
10.866555745
 20
7.222174949
 30
0.0
 10
10.8986826845
 20
7.1809885928
 30
0.0
 10
10.9335491994
 20
7.1420440547
 30
0.0
 10
10.9709720143
 20
7.1055460753
 30
0.0
 10
11.0107543878
 20
7.0716865079
 30
0.0
 10
11.0526872327
 20
7.0406433997
 30
0.0
 10
11.0965502096
 20
7.0125800916
 30
0.0
 10
11.1421128368
 20
6.9876443334
 30
0.0
 10
11.1891356498
 20
6.9659674253
 30
0.0
 10
11.2373715161
 20
6.9476636475
 30
0.0
 10
11.286566902
 20
6.93282967
 30
0.0
 10
11.3364631493
 20
6.9215439394
 30
0.0
 10
11.3867978393
 20
6.9138662645
 30
0.0
 10
11.4373061581
 20
6.9098375754
 30
0.0
 10
11.4877223102
 20
6.9094797124
 30
0.0
 10
11.5377806927
 20
6.9127950553
 30
0.0
 10
11.587218073
 20
6.9197669074
 30
0.0
 10
11.6357720934
 20
6.9303584325
 30
0.0
 10
11.6753300764
 20
6.9421693455
 30
0.0
 10
11.7062666474
 20
6.9533633662
 30
0.0
 10
11.7290716233
 20
6.9626126036
 30
0.0
 10
11.751468359
 20
6.9727104289
 30
0.0
 10
11.7734277543
 20
6.9836437252
 30
0.0
 10
11.7949207311
 20
6.9953980918
 30
0.0
 10
11.8159190568
 20
7.0079579659
 30
0.0
 10
11.8363949603
 20
7.0213068855
 30
0.0
 10
11.8563215758
 20
7.0354273103
 30
0.0
 10
11.8756723196
 20
7.0503002644
 30
0.0
 10
11.8881748462
 20
7.0607068333
 30
0.0
 10
11.8943205106
 20
7.0660278274
 30
0.0
  0
SPLINE
  5
382
100
AcDbEntity
  8
0
100
AcDbSpline
 62
7
  6
CONTINUOUS
 70
0
 71
3
 72
39
 73
35
 74
0
 42
0.0000001
 43
0.0000001
 44
0.0000000001
 40
0.0
 40
0.0
 40
0.0
 40
0.0
 40
0.0310004725
 40
0.0621498355
 40
0.0934442362
 40
0.1248762385
 40
0.1564361347
 40
0.1881117556
 40
0.2198887981
 40
0.2517511035
 40
0.2836809643
 40
0.3156594547
 40
0.3476667763
 40
0.3796826158
 40
0.4116865077
 40
0.4436581996
 40
0.4755780151
 40
0.5074272094
 40
0.5391883123
 40
0.5708454542
 40
0.6023846735
 40
0.6337941941
 40
0.6650646706
 40
0.6961893957
 40
0.7271644666
 40
0.7579889016
 40
0.7886646999
 40
0.8191968449
 40
0.8495932464
 40
0.8798646195
 40
0.9100242952
 40
0.9400879691
 40
0.9700733907
 40
1.0
 40
1.0
 40
1.0
 40
1.0
 10
10.7657608989
 20
7.6956667682
 30
0.0
 10
10.7657608989
 20
7.6793296341
 30
0.0
 10
10.7669158659
 20
7.646565584
 30
0.0
 10
10.7720751364
 20
7.5975541705
 30
0.0
 10
10.7806392365
 20
7.5487888772
 30
0.0
 10
10.7925656432
 20
7.5005135049
 30
0.0
 10
10.8077950474
 20
7.4529655532
 30
0.0
 10
10.8262519608
 20
7.4063798416
 30
0.0
 10
10.8478449811
 20
7.3609861244
 30
0.0
 10
10.8724673236
 20
7.3170083348
 30
0.0
 10
10.8999973357
 20
7.2746634017
 30
0.0
 10
10.930299059
 20
7.2341602023
 30
0.0
 10
10.9632228722
 20
7.1956985065
 30
0.0
 10
10.9986062914
 20
7.1594680512
 30
0.0
 10
11.0362747486
 20
7.1256476084
 30
0.0
 10
11.0760424428
 20
7.0944041175
 30
0.0
 10
11.1177131945
 20
7.0658917974
 30
0.0
 10
11.1610814649
 20
7.0402514574
 30
0.0
 10
11.2059333502
 20
7.0176098066
 30
0.0
 10
11.2520476264
 20
6.9980788475
 30
0.0
 10
11.2991967916
 20
6.9817552468
 30
0.0
 10
11.3471482005
 20
6.9687198896
 30
0.0
 10
11.3956652059
 20
6.9590375117
 30
0.0
 10
11.4445083046
 20
6.9527563754
 30
0.0
 10
11.4934362946
 20
6.9499079772
 30
0.0
 10
11.5422074616
 20
6.9505068407
 30
0.0
 10
11.5905807667
 20
6.9545505066
 30
0.0
 10
11.6383170293
 20
6.9620195132
 30
0.0
 10
11.6851800765
 20
6.9728774502
 30
0.0
 10
11.730938029
 20
6.9870710878
 30
0.0
 10
11.7753641128
 20
7.0045304655
 30
0.0
 10
11.8182390229
 20
7.0251701111
 30
0.0
 10
11.8593474466
 20
7.0488860984
 30
0.0
 10
11.8854662343
 20
7.0666880389
 30
0.0
 10
11.8981549504
 20
7.0760543411
 30
0.0
  0
SPLINE
  5
383
100
AcDbEntity
  8
0
100
AcDbSpline
 62
7
  6
CONTINUOUS
 70
0
 71
3
 72
42
 73
38
 74
0
 42
0.0000001
 43
0.0000001
 44
0.0000000001
 40
0.0
 40
0.0
 40
0.0
 40
0.0
 40
0.0310515893
 40
0.0622577567
 40
0.0936141346
 40
0.1251124814
 40
0.1567419604
 40
0.1884890539
 40
0.2203379096
 40
0.252270676
 40
0.2842678634
 40
0.3163087347
 40
0.3483717111
 40
0.3804347887
 40
0.4124759617
 40
0.4444736456
 40
0.4764070931
 40
0.5082568021
 40
0.540004904
 40
0.5716355271
 40
0.6031351326
 40
0.6344928161
 40
0.6657005609
 40
0.6967534416
 40
0.7276497751
 40
0.7583912057
 40
0.7889827168
 40
0.8194325722
 40
0.8497521836
 40
0.879955894
 40
0.9100606862
 40
0.9250847517
 40
0.9400914759
 40
0.9550835521
 40
0.970063757
 40
0.9850349389
 40
1.0
 40
1.0
 40
1.0
 40
1.0
 10
10.8227115282
 20
7.704176855
 30
0.0
 10
10.8227115282
 20
7.688322187
 30
0.0
 10
10.82387456
 20
7.6565221188
 30
0.0
 10
10.82906805
 20
7.6089672413
 30
0.0
 10
10.8376865044
 20
7.5616784206
 30
0.0
 10
10.8496838687
 20
7.5149100701
 30
0.0
 10
10.8649959315
 20
7.4689097472
 30
0.0
 10
10.8835409762
 20
7.4239218827
 30
0.0
 10
10.9052202196
 20
7.3801852119
 30
0.0
 10
10.9299183519
 20
7.337931914
 30
0.0
 10
10.957504023
 20
7.2973862216
 30
0.0
 10
10.9878306247
 20
7.2587633087
 30
0.0
 10
11.0207370999
 20
7.2222681896
 30
0.0
 10
11.056048749
 20
7.1880946275
 30
0.0
 10
11.093578081
 20
7.1564240358
 30
0.0
 10
11.1331259023
 20
7.1274246188
 30
0.0
 10
11.1744823527
 20
7.1012505044
 30
0.0
 10
11.2174279417
 20
7.0780408402
 30
0.0
 10
11.2617347239
 20
7.057919069
 30
0.0
 10
11.3071675327
 20
7.0409923551
 30
0.0
 10
11.3534851909
 20
7.0273510082
 30
0.0
 10
11.400441734
 20
7.0170678612
 30
0.0
 10
11.4477877483
 20
7.0101979963
 30
0.0
 10
11.4952716667
 20
7.0067784694
 30
0.0
 10
11.5426410762
 20
7.0068280246
 30
0.0
 10
11.5896440457
 20
7.0103469052
 30
0.0
 10
11.6360305103
 20
7.0173169856
 30
0.0
 10
11.6815533916
 20
7.0277017247
 30
0.0
 10
11.725970631
 20
7.0414466015
 30
0.0
 10
11.7690439452
 20
7.0584779249
 30
0.0
 10
11.803656992
 20
7.0753493212
 30
0.0
 10
11.830434894
 20
7.0903862928
 30
0.0
 10
11.8500324906
 20
7.102414344
 30
0.0
 10
11.8691285908
 20
7.1151827856
 30
0.0
 10
11.8876982213
 20
7.1286749617
 30
0.0
 10
11.9057162889
 20
7.1428724591
 30
0.0
 10
11.9173470823
 20
7.1527972849
 30
0.0
 10
11.9230615118
 20
7.1578698197
 30
0.0
  0
SPLINE
  5
384
100
AcDbEntity
  8
0
100
AcDbSpline
 62
7
  6
CONTINUOUS
 70
0
 71
3
 72
42
 73
38
 74
0
 42
0.0000001
 43
0.0000001
 44
0.0000000001
 40
0.0
 40
0.0
 40
0.0
 40
0.0
 40
0.0307260744
 40
0.0461358963
 40
0.061575105
 40
0.0925386881
 40
0.1236161021
 40
0.1548021405
 40
0.186090272
 40
0.2174727159
 40
0.2489405532
 40
0.2804838412
 40
0.31209174
 40
0.3437526459
 40
0.3754543324
 40
0.4071840955
 40
0.4389289039
 40
0.4706755508
 40
0.5024108081
 40
0.5341215805
 40
0.5657950578
 40
0.5974188663
 40
0.6289812149
 40
0.660471038
 40
0.6918781308
 40
0.7231932779
 40
0.754408372
 40
0.785516523
 40
0.816512154
 40
0.8473910849
 40
0.8627874052
 40
0.8781536602
 40
0.9087925576
 40
0.9393111856
 40
0.9545275144
 40
0.969714625
 40
1.0
 40
1.0
 40
1.0
 40
1.0
 10
11.1341999919
 20
8.0050516246
 30
0.0
 10
11.1341999919
 20
7.9927174226
 30
0.0
 10
11.134727053
 20
7.9741918402
 30
0.0
 10
11.1364721345
 20
7.9495334626
 30
0.0
 10
11.138917564
 20
7.9248381989
 30
0.0
 10
11.1432806179
 20
7.8940256686
 30
0.0
 10
11.1505777465
 20
7.8573013728
 30
0.0
 10
11.1599179785
 20
7.8209079406
 30
0.0
 10
11.1712710502
 20
7.7849632498
 30
0.0
 10
11.1846003181
 20
7.7495828189
 30
0.0
 10
11.1998627675
 20
7.7148805824
 30
0.0
 10
11.2170091822
 20
7.6809682187
 30
0.0
 10
11.2359842948
 20
7.6479548765
 30
0.0
 10
11.2567269665
 20
7.6159468037
 30
0.0
 10
11.2791703831
 20
7.5850470142
 30
0.0
 10
11.3032422689
 20
7.5553549569
 30
0.0
 10
11.328865119
 20
7.526966198
 30
0.0
 10
11.355956447
 20
7.4999721156
 30
0.0
 10
11.3844290489
 20
7.4744596072
 30
0.0
 10
11.4141912827
 20
7.4505108116
 30
0.0
 10
11.4451473609
 20
7.428202846
 30
0.0
 10
11.4771976571
 20
7.4076075588
 30
0.0
 10
11.5102390242
 20
7.3887912994
 30
0.0
 10
11.5441651251
 20
7.371814705
 30
0.0
 10
11.5788667666
 20
7.3567325067
 30
0.0
 10
11.6142322711
 20
7.3435933511
 30
0.0
 10
11.6501477459
 20
7.3324396505
 30
0.0
 10
11.6864977718
 20
7.323307418
 30
0.0
 10
11.7231645651
 20
7.3162262548
 30
0.0
 10
11.7539182955
 20
7.3120493286
 30
0.0
 10
11.7785590733
 20
7.3097562091
 30
0.0
 10
11.8031585991
 20
7.3081651945
 30
0.0
 10
11.8338871635
 20
7.3074847043
 30
0.0
 10
11.8645445793
 20
7.3085570536
 30
0.0
 10
11.8889286366
 20
7.3104669877
 30
0.0
 10
11.9131535429
 20
7.3130700782
 30
0.0
 10
11.9312143889
 20
7.3158090334
 30
0.0
 10
11.9431757687
 20
7.3179827856
 30
0.0
  0
SPLINE
  5
385
100
AcDbEntity
  8
0
100
AcDbSpline
 62
7
  6
CONTINUOUS
 70
0
 71
3
 72
40
 73
36
 74
0
 42
0.0000001
 43
0.0000001
 44
0.0000000001
 40
0.0
 40
0.0
 40
0.0
 40
0.0
 40
0.0307247721
 40
0.0615693602
 40
0.0925313201
 40
0.1236069953
 40
0.1547911625
 40
0.1860773313
 40
0.2174577466
 40
0.2489235257
 40
0.280464763
 40
0.3120706589
 40
0.3437296512
 40
0.3754295556
 40
0.4071577099
 40
0.4389011236
 40
0.4706466287
 40
0.5023810331
 40
0.5340912735
 40
0.5657645676
 40
0.5973885637
 40
0.6289514873
 40
0.6604422824
 40
0.6918507467
 40
0.7231676594
 40
0.7543848999
 40
0.7854955565
 40
0.8164940221
 40
0.847376078
 40
0.8781389611
 40
0.9087814159
 40
0.9393037282
 40
0.9545219215
 40
0.9697108994
 40
1.0
 40
1.0
 40
1.0
 40
1.0
 10
11.1812550638
 20
8.0120830262
 30
0.0
 10
11.1812550638
 20
8.0004685295
 30
0.0
 10
11.1819163977
 20
7.9771889826
 30
0.0
 10
11.1848755106
 20
7.9423184764
 30
0.0
 10
11.1897940641
 20
7.9075350726
 30
0.0
 10
11.1966560869
 20
7.8729519926
 30
0.0
 10
11.2054394495
 20
7.8386798608
 30
0.0
 10
11.2161158167
 20
7.8048288294
 30
0.0
 10
11.2286508152
 20
7.7715075362
 30
0.0
 10
11.243004106
 20
7.7388229495
 30
0.0
 10
11.2591295323
 20
7.7068799755
 30
0.0
 10
11.2769752603
 20
7.6757811381
 30
0.0
 10
11.2964839488
 20
7.645626249
 30
0.0
 10
11.317592931
 20
7.6165120901
 30
0.0
 10
11.3402344161
 20
7.5885321051
 30
0.0
 10
11.3643357051
 20
7.5617761018
 30
0.0
 10
11.3898194236
 20
7.5363299653
 30
0.0
 10
11.4166037681
 20
7.512275384
 30
0.0
 10
11.4446027678
 20
7.4896895892
 30
0.0
 10
11.4737265582
 20
7.4686451083
 30
0.0
 10
11.503881668
 20
7.4492095331
 30
0.0
 10
11.5349713168
 20
7.4314453038
 30
0.0
 10
11.5668957236
 20
7.415409509
 30
0.0
 10
11.5995524245
 20
7.401153703
 30
0.0
 10
11.6328365991
 20
7.3887237404
 30
0.0
 10
11.666641405
 20
7.3781596282
 30
0.0
 10
11.7008583126
 20
7.3694953968
 30
0.0
 10
11.7353774727
 20
7.3627589905
 30
0.0
 10
11.7700879842
 20
7.3579721696
 30
0.0
 10
11.80487855
 20
7.3551504635
 30
0.0
 10
11.8396367121
 20
7.354303023
 30
0.0
 10
11.8685125184
 20
7.3552455539
 30
0.0
 10
11.8914817315
 20
7.3569890391
 30
0.0
 10
11.9143028311
 20
7.3593846079
 30
0.0
 10
11.9313190668
 20
7.3619210631
 30
0.0
 10
11.9425895976
 20
7.3639392744
 30
0.0
  0
SPLINE
  5
386
100
AcDbEntity
  8
0
100
AcDbSpline
 62
7
  6
CONTINUOUS
 70
0
 71
3
 72
40
 73
36
 74
0
 42
0.0000001
 43
0.0000001
 44
0.0000000001
 40
0.0
 40
0.0
 40
0.0
 40
0.0
 40
0.0307205196
 40
0.0615603781
 40
0.0925171331
 40
0.1235871915
 40
0.1547653832
 40
0.186045297
 40
0.217419266
 40
0.2488785084
 40
0.280413228
 40
0.3120127413
 40
0.3436656068
 40
0.3753597626
 40
0.4070826686
 40
0.4388214528
 40
0.4705630603
 40
0.5022944037
 40
0.5340025138
 40
0.5656746892
 40
0.5972986443
 40
0.6288626528
 40
0.6603556882
 40
0.6917675564
 40
0.7230890229
 40
0.7543119299
 40
0.7854293043
 40
0.8164354534
 40
0.8473260482
 40
0.8780981916
 40
0.9087504707
 40
0.9392829927
 40
0.9545063581
 40
0.9697005305
 40
1.0
 40
1.0
 40
1.0
 40
1.0
 10
11.1956987603
 20
8.0169548767
 30
0.0
 10
11.1956987603
 20
8.0055525606
 30
0.0
 10
11.1963453898
 20
7.9826985105
 30
0.0
 10
11.1992387831
 20
7.9484647024
 30
0.0
 10
11.2040481993
 20
7.9143151761
 30
0.0
 10
11.2107581398
 20
7.8803602033
 30
0.0
 10
11.2193471451
 20
7.8467075241
 30
0.0
 10
11.2297877261
 20
7.8134644345
 30
0.0
 10
11.24204654
 20
7.7807367654
 30
0.0
 10
11.256084452
 20
7.7486287375
 30
0.0
 10
11.2718566817
 20
7.7172425804
 30
0.0
 10
11.289312937
 20
7.6866782236
 30
0.0
 10
11.3083975773
 20
7.6570329768
 30
0.0
 10
11.3290497895
 20
7.6284012235
 30
0.0
 10
11.3512037807
 20
7.6008741225
 30
0.0
 10
11.3747889872
 20
7.5745393192
 30
0.0
 10
11.399730298
 20
7.5494806685
 30
0.0
 10
11.4259482923
 20
7.5257779695
 30
0.0
 10
11.4533594912
 20
7.5035067128
 30
0.0
 10
11.481876622
 20
7.4827378413
 30
0.0
 10
11.5114088938
 20
7.4635375253
 30
0.0
 10
11.5418622851
 20
7.4459669529
 30
0.0
 10
11.5731398405
 20
7.4300821359
 30
0.0
 10
11.6051419775
 20
7.4159337312
 30
0.0
 10
11.6377668005
 20
7.4035668802
 30
0.0
 10
11.6709104244
 20
7.3930210643
 30
0.0
 10
11.7044672967
 20
7.3843299786
 30
0.0
 10
11.7383305523
 20
7.3775214244
 30
0.0
 10
11.7723922719
 20
7.3726172136
 30
0.0
 10
11.8065441169
 20
7.369633117
 30
0.0
 10
11.840676582
 20
7.3685787383
 30
0.0
 10
11.8690436125
 20
7.3693119719
 30
0.0
 10
11.8916153524
 20
7.3708664779
 30
0.0
 10
11.9140465157
 20
7.3730592009
 30
0.0
 10
11.9307776738
 20
7.3754274615
 30
0.0
 10
11.9418621921
 20
7.3773266256
 30
0.0
  0
SPLINE
  5
387
100
AcDbEntity
  8
0
100
AcDbSpline
 62
7
  6
CONTINUOUS
 70
0
 71
3
 72
39
 73
35
 74
0
 42
0.0000001
 43
0.0000001
 44
0.0000000001
 40
0.0
 40
0.0
 40
0.0
 40
0.0
 40
0.0306419282
 40
0.0613937671
 40
0.0922529619
 40
0.1232171826
 40
0.1542821922
 40
0.1854430491
 40
0.2166937123
 40
0.2480272652
 40
0.279435946
 40
0.3109112441
 40
0.3424439864
 40
0.3740244327
 40
0.405642374
 40
0.4372872347
 40
0.4689481764
 40
0.500614204
 40
0.5322742729
 40
0.5639173961
 40
0.5955327519
 40
0.6271097889
 40
0.6586383318
 40
0.690108682
 40
0.7215117161
 40
0.7528389797
 40
0.7840827764
 40
0.815236251
 40
0.8462934657
 40
0.8772494692
 40
0.9081003572
 40
0.9388433241
 40
0.969476704
 40
1.0
 40
1.0
 40
1.0
 40
1.0
 10
11.2750679825
 20
8.0936196629
 30
0.0
 10
11.2750679825
 20
8.0831369396
 30
0.0
 10
11.2756144122
 20
8.0621299028
 30
0.0
 10
11.2780606594
 20
8.030651525
 30
0.0
 10
11.2821284672
 20
7.9992294567
 30
0.0
 10
11.2878066066
 20
7.9679496091
 30
0.0
 10
11.2950798356
 20
7.9368958137
 30
0.0
 10
11.3039284138
 20
7.9061518375
 30
0.0
 10
11.3143284766
 20
7.8758004343
 30
0.0
 10
11.3262519408
 20
7.8459233436
 30
0.0
 10
11.3396666485
 20
7.8166010105
 30
0.0
 10
11.3545364292
 20
7.7879123871
 30
0.0
 10
11.3708211987
 20
7.7599347138
 30
0.0
 10
11.3884770686
 20
7.7327433146
 30
0.0
 10
11.4074564679
 20
7.7064113965
 30
0.0
 10
11.42770827
 20
7.6810098541
 30
0.0
 10
11.4491779295
 20
7.6566070795
 30
0.0
 10
11.4718076288
 20
7.6332687797
 30
0.0
 10
11.4955364324
 20
7.6110578007
 30
0.0
 10
11.5203004501
 20
7.5900339589
 30
0.0
 10
11.5460330087
 20
7.5702538823
 30
0.0
 10
11.5726648271
 20
7.5517708539
 30
0.0
 10
11.6001242019
 20
7.5346346675
 30
0.0
 10
11.6283372035
 20
7.5188914987
 30
0.0
 10
11.657227873
 20
7.5045837807
 30
0.0
 10
11.6867184252
 20
7.4917500903
 30
0.0
 10
11.7167294561
 20
7.4804250439
 30
0.0
 10
11.7471801576
 20
7.4706392049
 30
0.0
 10
11.7779885233
 20
7.462419
 30
0.0
 10
11.8090716036
 20
7.4557866492
 30
0.0
 10
11.8403455948
 20
7.4507601
 30
0.0
 10
11.8717265544
 20
7.447352984
 30
0.0
 10
11.9031288019
 20
7.4455745375
 30
0.0
 10
11.924061742
 20
7.4454778445
 30
0.0
 10
11.9345014476
 20
7.445703251
 30
0.0
  0
SPLINE
  5
388
100
AcDbEntity
  8
0
100
AcDbSpline
 62
7
  6
CONTINUOUS
 70
0
 71
3
 72
37
 73
33
 74
0
 42
0.0000001
 43
0.0000001
 44
0.0000000001
 40
0.0
 40
0.0
 40
0.0
 40
0.0
 40
0.0306187756
 40
0.0613445853
 40
0.0921741078
 40
0.1231058715
 40
0.1541357791
 40
0.1852593625
 40
0.2164711003
 40
0.2477646461
 40
0.2791328863
 40
0.3105679988
 40
0.3420615379
 40
0.3736045123
 40
0.4051874727
 40
0.4368006028
 40
0.4684338102
 40
0.5000768182
 40
0.5633333064
 40
0.6265051487
 40
0.6580431671
 40
0.6895307441
 40
0.7209589429
 40
0.7523193808
 40
0.7836043104
 40
0.8148066961
 40
0.8459202851
 40
0.8769396725
 40
0.9078603632
 40
0.9386788252
 40
0.9693925328
 40
1.0
 40
1.0
 40
1.0
 40
1.0
 10
11.4019510205
 20
8.0901792734
 30
0.0
 10
11.4019510205
 20
8.0820615378
 30
0.0
 10
11.4023612758
 20
8.065794784
 30
0.0
 10
11.4041981046
 20
8.0414168223
 30
0.0
 10
11.4072530022
 20
8.0170772034
 30
0.0
 10
11.4115178927
 20
7.9928386235
 30
0.0
 10
11.4169821135
 20
7.9687620464
 30
0.0
 10
11.4236317031
 20
7.9449085794
 30
0.0
 10
11.4314498049
 20
7.92133858
 30
0.0
 10
11.4404165574
 20
7.8981117243
 30
0.0
 10
11.4505092145
 20
7.8752868077
 30
0.0
 10
11.4617021926
 20
7.8529216096
 30
0.0
 10
11.4739671359
 20
7.8310727455
 30
0.0
 10
11.4872729724
 20
7.8097955388
 30
0.0
 10
11.5015860159
 20
7.7891438083
 30
0.0
 10
11.5168698771
 20
7.7691699429
 30
0.0
 10
11.5330863461
 20
7.7499240584
 30
0.0
 10
11.5558899862
 20
7.7253056547
 30
0.0
 10
11.5865091855
 20
7.6965953546
 30
0.0
 10
11.6196678422
 20
7.6709044945
 30
0.0
 10
11.6475088536
 20
7.6523302572
 30
0.0
 10
11.6689830509
 20
7.6394289358
 30
0.0
 10
11.6910040122
 20
7.6275848273
 30
0.0
 10
11.7135164953
 20
7.6168275184
 30
0.0
 10
11.736463374
 20
7.6071843816
 30
0.0
 10
11.7597865972
 20
7.5986798408
 30
0.0
 10
11.7834271077
 20
7.5913354861
 30
0.0
 10
11.8073250745
 20
7.5851699782
 30
0.0
 10
11.8314199233
 20
7.5801989807
 30
0.0
 10
11.8556508553
 20
7.5764351124
 30
0.0
 10
11.8799556875
 20
7.5738880012
 30
0.0
 10
11.8961973683
 20
7.5730038083
 30
0.0
 10
11.9043086585
 20
7.5727672966
 30
0.0
  0
SPLINE
  5
389
100
AcDbEntity
  8
0
100
AcDbSpline
 62
7
  6
CONTINUOUS
 70
0
 71
3
 72
23
 73
19
 74
0
 42
0.0000001
 43
0.0000001
 44
0.0000000001
 40
0.0
 40
0.0
 40
0.0
 40
0.0
 40
0.0620565047
 40
0.1242845535
 40
0.186663741
 40
0.2491718065
 40
0.3117849112
 40
0.3744779386
 40
0.4372248039
 40
0.4999987722
 40
0.5627727815
 40
0.6255197693
 40
0.688212999
 40
0.7508263831
 40
0.8133348019
 40
0.8757144125
 40
0.9379429475
 40
1.0
 40
1.0
 40
1.0
 40
1.0
 10
11.5355316898
 20
8.0292288966
 30
0.0
 10
11.5386416275
 20
8.0202347789
 30
0.0
 10
11.5453706412
 20
8.0023903874
 30
0.0
 10
11.5569335876
 20
7.9761891332
 30
0.0
 10
11.5699436831
 20
7.9505969055
 30
0.0
 10
11.5843571296
 20
7.9257000721
 30
0.0
 10
11.6001259465
 20
7.9015812992
 30
0.0
 10
11.617197518
 20
7.878321032
 30
0.0
 10
11.6355149325
 20
7.8559967577
 30
0.0
 10
11.6550171269
 20
7.8346828751
 30
0.0
 10
11.6756391011
 20
7.8144504147
 30
0.0
 10
11.6973121308
 20
7.7953668115
 30
0.0
 10
11.7199639879
 20
7.7774956814
 30
0.0
 10
11.7435192135
 20
7.7608965999
 30
0.0
 10
11.7678992425
 20
7.7456249514
 30
0.0
 10
11.7930231292
 20
7.7317315677
 30
0.0
 10
11.8188060808
 20
7.7192632214
 30
0.0
 10
11.8364054944
 20
7.7119168892
 30
0.0
 10
11.8452859439
 20
7.7084956198
 30
0.0
  0
SPLINE
  5
38A
100
AcDbEntity
  8
0
100
AcDbSpline
 62
7
  6
CONTINUOUS
 70
0
 71
3
 72
48
 73
44
 74
0
 42
0.0000001
 43
0.0000001
 44
0.0000000001
 40
0.0
 40
0.0
 40
0.0
 40
0.0
 40
0.0310492829
 40
0.0622530347
 40
0.0936068173
 40
0.1251024767
 40
0.1567291785
 40
0.1884734464
 40
0.2203194703
 40
0.252249441
 40
0.2842439168
 40
0.3162822086
 40
0.3483427835
 40
0.3804036813
 40
0.4124429362
 40
0.4444389972
 40
0.4763711438
 40
0.5082198919
 40
0.5399673809
 40
0.5715977356
 40
0.603097405
 40
0.6344554583
 40
0.6656638382
 40
0.6967175718
 40
0.727614915
 40
0.7430079182
 40
0.7583626936
 40
0.7736799586
 40
0.7889606335
 40
0.804205843
 40
0.8194169083
 40
0.8345953388
 40
0.8497428302
 40
0.8648612533
 40
0.879952642
 40
0.895019187
 40
0.9100632227
 40
0.9250872115
 40
0.9400937335
 40
0.9550854718
 40
0.9700651939
 40
0.9850357387
 40
1.0
 40
1.0
 40
1.0
 40
1.0
 10
10.316588999
 20
7.4168000038
 30
0.0
 10
10.316588999
 20
7.3962207842
 30
0.0
 10
10.3180972237
 20
7.3549446684
 30
0.0
 10
10.3248321531
 20
7.2932185166
 30
0.0
 10
10.3360087269
 20
7.2318367781
 30
0.0
 10
10.3515673067
 20
7.1711291174
 30
0.0
 10
10.3714246908
 20
7.1114162335
 30
0.0
 10
10.3954751822
 20
7.0530148767
 30
0.0
 10
10.4235909594
 20
6.9962344299
 30
0.0
 10
10.4556225928
 20
6.9413756868
 30
0.0
 10
10.491400131
 20
6.8887292829
 30
0.0
 10
10.5307338362
 20
6.8385741531
 30
0.0
 10
10.5734150909
 20
6.79117596
 30
0.0
 10
10.6192177374
 20
6.7467859015
 30
0.0
 10
10.6678990838
 20
6.7056392623
 30
0.0
 10
10.7192011608
 20
6.6679541141
 30
0.0
 10
10.7728522475
 20
6.633930396
 30
0.0
 10
10.8285681217
 20
6.6037486581
 30
0.0
 10
10.8860535904
 20
6.5775691074
 30
0.0
 10
10.945004115
 20
6.5555309866
 30
0.0
 10
11.0051073384
 20
6.5377515687
 30
0.0
 10
11.0660445205
 20
6.524325586
 30
0.0
 10
11.1274932079
 20
6.515324992
 30
0.0
 10
11.1891252382
 20
6.5107979659
 30
0.0
 10
11.2404384019
 20
6.5107744801
 30
0.0
 10
11.2812425812
 20
6.5130131363
 30
0.0
 10
11.3116529008
 20
6.5158122008
 30
0.0
 10
11.3418640216
 20
6.5197297299
 30
0.0
 10
11.3718363365
 20
6.5247605938
 30
0.0
 10
11.4015299153
 20
6.5308980496
 30
0.0
 10
11.4309053607
 20
6.538133981
 30
0.0
 10
11.459923624
 20
6.5464588792
 30
0.0
 10
11.4885461862
 20
6.5558616208
 30
0.0
 10
11.5167350285
 20
6.5663297424
 30
0.0
 10
11.544452671
 20
6.5778494397
 30
0.0
 10
11.5716623213
 20
6.5904053472
 30
0.0
 10
11.5983278364
 20
6.6039807997
 30
0.0
 10
11.6244137419
 20
6.6185578568
 30
0.0
 10
11.6498854243
 20
6.6341171011
 30
0.0
 10
11.6747090187
 20
6.650637835
 30
0.0
 10
11.6988516089
 20
6.6680983018
 30
0.0
 10
11.7222807059
 20
6.6864748598
 30
0.0
 10
11.7374070122
 20
6.6993231682
 30
0.0
 10
11.7448394867
 20
6.705890428
 30
0.0
  0
SPLINE
  5
38B
100
AcDbEntity
  8
0
100
AcDbSpline
 62
7
  6
CONTINUOUS
 70
0
 71
3
 72
71
 73
67
 74
0
 42
0.0000001
 43
0.0000001
 44
0.0000000001
 40
0.0
 40
0.0
 40
0.0
 40
0.0
 40
0.0156374138
 40
0.0313278881
 40
0.0470702913
 40
0.0628636364
 40
0.0787060815
 40
0.0945954873
 40
0.1105292288
 40
0.1265042942
 40
0.142517294
 40
0.1585644994
 40
0.1746418768
 40
0.1907451254
 40
0.2068697167
 40
0.2230109351
 40
0.2391639195
 40
0.2553237063
 40
0.2714852727
 40
0.2876435801
 40
0.3037936184
 40
0.3199304494
 40
0.3360492501
 40
0.3521453556
 40
0.3682143002
 40
0.3842518582
 40
0.4002540817
 40
0.4162173384
 40
0.4321383459
 40
0.448014204
 40
0.4638424244
 40
0.4796209576
 40
0.4953482154
 40
0.5110230901
 40
0.5266449705
 40
0.5422137514
 40
0.557729841
 40
0.5731941614
 40
0.5886081449
 40
0.6039737251
 40
0.6192933221
 40
0.6345698231
 40
0.6498065563
 40
0.6650072603
 40
0.6801760488
 40
0.6953173694
 40
0.7104359592
 40
0.725536796
 40
0.7406250462
 40
0.7557060107
 40
0.7707850681
 40
0.7858676178
 40
0.8009590215
 40
0.8160645465
 40
0.8311893097
 40
0.8463382233
 40
0.8615159444
 40
0.8767268267
 40
0.8919748775
 40
0.9072637174
 40
0.9225965514
 40
0.9379761187
 40
0.9534047402
 40
0.9688840877
 40
0.9844157081
 40
1.0
 40
1.0
 40
1.0
 40
1.0
 10
10.4193699554
 20
7.4321584797
 30
0.0
 10
10.4193699554
 20
7.4196355689
 30
0.0
 10
10.4199869588
 20
7.3945429897
 30
0.0
 10
10.4227500674
 20
7.3569349586
 30
0.0
 10
10.4273457837
 20
7.3193800448
 30
0.0
 10
10.4337627669
 20
7.2819700376
 30
0.0
 10
10.4419856261
 20
7.2447945565
 30
0.0
 10
10.4519944125
 20
7.2079432462
 30
0.0
 10
10.4637649988
 20
7.1715047779
 30
0.0
 10
10.477268974
 20
7.1355668763
 30
0.0
 10
10.4924737816
 20
7.100216043
 30
0.0
 10
10.509342773
 20
7.0655373673
 30
0.0
 10
10.5278352958
 20
7.0316143141
 30
0.0
 10
10.5479067966
 20
6.9985285277
 30
0.0
 10
10.5695089298
 20
6.9663596363
 30
0.0
 10
10.5925896731
 20
6.9351850624
 30
0.0
 10
10.6170934528
 20
6.9050798368
 30
0.0
 10
10.6429612764
 20
6.8761164197
 30
0.0
 10
10.670130874
 20
6.848364527
 30
0.0
 10
10.6985368475
 20
6.8218909638
 30
0.0
 10
10.7281108276
 20
6.7967594645
 30
0.0
 10
10.7587816322
 20
6.7730305341
 30
0.0
 10
10.7904754412
 20
6.7507613055
 30
0.0
 10
10.8231159747
 20
6.7300054057
 30
0.0
 10
10.8566246756
 20
6.710812826
 30
0.0
 10
10.8909208974
 20
6.693229803
 30
0.0
 10
10.9259220966
 20
6.6772987071
 30
0.0
 10
10.9615440303
 20
6.6630579408
 30
0.0
 10
10.9977009573
 20
6.650541846
 30
0.0
 10
11.0343058435
 20
6.6397806225
 30
0.0
 10
11.0712705678
 20
6.6308002474
 30
0.0
 10
11.1085061352
 20
6.6236224135
 30
0.0
 10
11.1459228904
 20
6.6182644813
 30
0.0
 10
11.1834307321
 20
6.6147394353
 30
0.0
 10
11.2209393289
 20
6.6130558516
 30
0.0
 10
11.258358335
 20
6.6132178757
 30
0.0
 10
11.2955976068
 20
6.6152252109
 30
0.0
 10
11.3325674195
 20
6.6190731165
 30
0.0
 10
11.3691786822
 20
6.6247524184
 30
0.0
 10
11.4053431534
 20
6.6322495229
 30
0.0
 10
11.440973656
 20
6.6415464458
 30
0.0
 10
11.4759842862
 20
6.652620861
 30
0.0
 10
11.510290622
 20
6.6654461504
 30
0.0
 10
11.5438099281
 20
6.6799914664
 30
0.0
 10
11.5764613566
 20
6.6962218041
 30
0.0
 10
11.6081661442
 20
6.7140980845
 30
0.0
 10
11.6388478048
 20
6.7335772471
 30
0.0
 10
11.6684323156
 20
6.7546123536
 30
0.0
 10
11.6968483007
 20
6.7771526985
 30
0.0
 10
11.7240272102
 20
6.8011439278
 30
0.0
 10
11.7499034823
 20
6.8265281793
 30
0.0
 10
11.7744147049
 20
6.8532442223
 30
0.0
 10
11.7975017671
 20
6.8812276073
 30
0.0
 10
11.8191090038
 20
6.9104108241
 30
0.0
 10
11.8391843306
 20
6.9407234663
 30
0.0
 10
11.8576793694
 20
6.9720924043
 30
0.0
 10
11.874549565
 20
7.0044419641
 30
0.0
 10
11.8897542938
 20
7.0376941114
 30
0.0
 10
11.9032569653
 20
7.0717686392
 30
0.0
 10
11.9150251091
 20
7.106583372
 30
0.0
 10
11.9250304253
 20
7.1420543484
 30
0.0
 10
11.9332489219
 20
7.1780960904
 30
0.0
 10
11.9396608025
 20
7.2146215773
 30
0.0
 10
11.9442508492
 20
7.251543223
 30
0.0
 10
11.9470078995
 20
7.2887707198
 30
0.0
 10
11.947618652
 20
7.3136937034
 30
0.0
 10
11.947618652
 20
7.3261740727
 30
0.0
  0
SPLINE
  5
38C
100
AcDbEntity
  8
0
100
AcDbSpline
 62
7
  6
CONTINUOUS
 70
0
 71
3
 72
15
 73
11
 74
0
 42
0.0000001
 43
0.0000001
 44
0.0000000001
 40
0.0
 40
0.0
 40
0.0
 40
0.0
 40
0.1273483257
 40
0.253860557
 40
0.3795878955
 40
0.504605103
 40
0.6290174424
 40
0.7529533779
 40
0.8765605788
 40
1.0
 40
1.0
 40
1.0
 40
1.0
 10
9.6778514563
 20
7.7368270159
 30
0.0
 10
9.6778514563
 20
7.7416315056
 30
0.0
 10
9.6783101874
 20
7.7512155839
 30
0.0
 10
9.6803847609
 20
7.7654073698
 30
0.0
 10
9.6838247483
 20
7.7792425679
 30
0.0
 10
9.6885990796
 20
7.7925917937
 30
0.0
 10
9.6946639401
 20
7.8053319417
 30
0.0
 10
9.7019640732
 20
7.817345356
 30
0.0
 10
9.710430821
 20
7.8285194812
 30
0.0
 10
9.7168058557
 20
7.8353452662
 30
0.0
 10
9.7201554344
 20
7.8385807163
 30
0.0
  0
SPLINE
  5
38D
100
AcDbEntity
  8
0
100
AcDbSpline
 62
7
  6
CONTINUOUS
 70
0
 71
3
 72
15
 73
11
 74
0
 42
0.0000001
 43
0.0000001
 44
0.0000000001
 40
0.0
 40
0.0
 40
0.0
 40
0.0
 40
0.1268866967
 40
0.2531713635
 40
0.3788733943
 40
0.504020215
 40
0.6286518331
 40
0.7528180605
 40
0.8765782421
 40
1.0
 40
1.0
 40
1.0
 40
1.0
 10
9.3302981722
 20
7.7127240711
 30
0.0
 10
9.3302981722
 20
7.7230601668
 30
0.0
 10
9.3310066122
 20
7.7436905835
 30
0.0
 10
9.334207711
 20
7.7744108981
 30
0.0
 10
9.3395297067
 20
7.8046935595
 30
0.0
 10
9.3469478197
 20
7.8343932439
 30
0.0
 10
9.3564270146
 20
7.8633694326
 30
0.0
 10
9.3679229547
 20
7.8914850313
 30
0.0
 10
9.381380201
 20
7.9186048356
 30
0.0
 10
9.3916316218
 20
7.935959734
 30
0.0
 10
9.3970589011
 20
7.9444228556
 30
0.0
  0
SPLINE
  5
38E
100
AcDbEntity
  8
0
100
AcDbSpline
 62
7
  6
CONTINUOUS
 70
0
 71
3
 72
14
 73
10
 74
0
 42
0.0000001
 43
0.0000001
 44
0.0000000001
 40
0.0
 40
0.0
 40
0.0
 40
0.0
 40
0.250127866
 40
0.3759904517
 40
0.5020175644
 40
0.6278617886
 40
0.7531153106
 40
0.8773213866
 40
1.0
 40
1.0
 40
1.0
 40
1.0
 10
10.0045556724
 20
7.6094888337
 30
0.0
 10
10.0033737172
 20
7.6178820881
 30
0.0
 10
10.0019511489
 20
7.6305505752
 30
0.0
 10
10.0006072766
 20
7.6475096889
 30
0.0
 10
9.9998389194
 20
7.6602876686
 30
0.0
 10
9.9992807442
 20
7.6730555288
 30
0.0
 10
9.9989046462
 20
7.6857682464
 30
0.0
 10
9.9986882417
 20
7.6983772908
 30
0.0
 10
9.9986404013
 20
7.7067435329
 30
0.0
 10
9.9986404013
 20
7.710900736
 30
0.0
  0
SPLINE
  5
38F
100
AcDbEntity
  8
0
100
AcDbSpline
 62
7
  6
CONTINUOUS
 70
0
 71
3
 72
44
 73
40
 74
0
 42
0.0000001
 43
0.0000001
 44
0.0000000001
 40
0.0
 40
0.0
 40
0.0
 40
0.0
 40
0.0149702058
 40
0.02995812
 40
0.0449655333
 40
0.059995131
 40
0.0901234677
 40
0.1203614617
 40
0.135527691
 40
0.1507255734
 40
0.1812160353
 40
0.2118444263
 40
0.2426151414
 40
0.2735299521
 40
0.3045880108
 40
0.3357859017
 40
0.3671177356
 40
0.3985752846
 40
0.4301481524
 40
0.4618239754
 40
0.4935886515
 40
0.5254265911
 40
0.5573209877
 40
0.5892541022
 40
0.6212075592
 40
0.6531626495
 40
0.6851006368
 40
0.7170030656
 40
0.73293732
 40
0.7488560515
 40
0.7806346302
 40
0.8123269684
 40
0.8439186856
 40
0.875397105
 40
0.9067514467
 40
0.9379731875
 40
0.9535341778
 40
0.96906003
 40
1.0
 40
1.0
 40
1.0
 40
1.0
 10
10.0315543822
 20
7.2876363105
 30
0.0
 10
10.0273243806
 20
7.2851252836
 30
0.0
 10
10.0187684496
 20
7.2802516332
 30
0.0
 10
10.0056736353
 20
7.2734011134
 30
0.0
 10
9.9923247665
 20
7.2670136883
 30
0.0
 10
9.9741955533
 20
7.259118902
 30
0.0
 10
9.9509658919
 20
7.2504429132
 30
0.0
 10
9.9271401185
 20
7.2434125489
 30
0.0
 10
9.9077681612
 20
7.2387841711
 30
0.0
 10
9.8881655511
 20
7.2348165215
 30
0.0
 10
9.8633393799
 20
7.2311247368
 30
0.0
 10
9.8332156509
 20
7.2287442455
 30
0.0
 10
9.8028599266
 20
7.2284182827
 30
0.0
 10
9.7724108883
 20
7.2301482581
 30
0.0
 10
9.7420064371
 20
7.2339260107
 30
0.0
 10
9.711784535
 20
7.2397341752
 30
0.0
 10
9.6818821914
 20
7.2475461824
 30
0.0
 10
9.6524349551
 20
7.2573264089
 30
0.0
 10
9.6235762788
 20
7.269030336
 30
0.0
 10
9.59543693
 20
7.2826047571
 30
0.0
 10
9.5681444012
 20
7.2979880148
 30
0.0
 10
9.5418223364
 20
7.3151102801
 30
0.0
 10
9.5165899834
 20
7.3338938702
 30
0.0
 10
9.4925616454
 20
7.3542536173
 30
0.0
 10
9.4698462184
 20
7.3760971764
 30
0.0
 10
9.4485465175
 20
7.399325726
 30
0.0
 10
9.4287595042
 20
7.4238333454
 30
0.0
 10
9.413597955
 20
7.4452407689
 30
0.0
 10
9.4023116922
 20
7.4628941653
 30
0.0
 10
9.3916102985
 20
7.480860738
 30
0.0
 10
9.3793318309
 20
7.5038993333
 30
0.0
 10
9.3664170306
 20
7.5323646801
 30
0.0
 10
9.355386869
 20
7.5615073496
 30
0.0
 10
9.3462918817
 20
7.5911948341
 30
0.0
 10
9.3391734264
 20
7.6212919666
 30
0.0
 10
9.3349105617
 20
7.6466316439
 30
0.0
 10
9.3325200895
 20
7.6669694571
 30
0.0
 10
9.3308141806
 20
7.6872824129
 30
0.0
 10
9.3302981722
 20
7.7025572925
 30
0.0
 10
9.3302981722
 20
7.7127240711
 30
0.0
  0
SPLINE
  5
390
100
AcDbEntity
  8
0
100
AcDbSpline
 62
7
  6
CONTINUOUS
 70
0
 71
3
 72
39
 73
35
 74
0
 42
0.0000001
 43
0.0000001
 44
0.0000000001
 40
0.0
 40
0.0
 40
0.0
 40
0.0
 40
0.0318885855
 40
0.0636724216
 40
0.0953509888
 40
0.1269280693
 40
0.158406597
 40
0.1897910483
 40
0.2210866955
 40
0.2522996701
 40
0.2834369354
 40
0.314506194
 40
0.3455158296
 40
0.3764748262
 40
0.4073926802
 40
0.4382793054
 40
0.4691449324
 40
0.5000000054
 40
0.5308550773
 40
0.5617207024
 40
0.592607327
 40
0.6235251824
 40
0.65448418
 40
0.6854938144
 40
0.7165630703
 40
0.7477003337
 40
0.7789133109
 40
0.8102089556
 40
0.8415934087
 40
0.8730719466
 40
0.904648937
 40
0.9363278032
 40
0.9681109992
 40
1.0
 40
1.0
 40
1.0
 40
1.0
 10
9.2322280811
 20
9.1058707199
 30
0.0
 10
9.2322280811
 20
9.1147422612
 30
0.0
 10
9.2326527078
 20
9.1324592083
 30
0.0
 10
9.2345692646
 20
9.1589268613
 30
0.0
 10
9.2377603372
 20
9.1851846924
 30
0.0
 10
9.2422183148
 20
9.2111711003
 30
0.0
 10
9.2479332056
 20
9.2368266383
 30
0.0
 10
9.2548918282
 20
9.2620920056
 30
0.0
 10
9.2630781936
 20
9.2869089956
 30
0.0
 10
9.2724734754
 20
9.3112203781
 30
0.0
 10
9.2830560591
 20
9.3349700864
 30
0.0
 10
9.2948016098
 20
9.3581033322
 30
0.0
 10
9.3076830928
 20
9.3805667424
 30
0.0
 10
9.3216708092
 20
9.4023085077
 30
0.0
 10
9.3367325214
 20
9.4232784728
 30
0.0
 10
9.3528335145
 20
9.4434282566
 30
0.0
 10
9.3699366839
 20
9.4627113555
 30
0.0
 10
9.3880025904
 20
9.4810832761
 30
0.0
 10
9.406989544
 20
9.4985016572
 30
0.0
 10
9.4268537432
 20
9.514926328
 30
0.0
 10
9.4475493656
 20
9.5303194097
 30
0.0
 10
9.4690286799
 20
9.5446453904
 30
0.0
 10
9.4912421274
 20
9.5578712496
 30
0.0
 10
9.5141384467
 20
9.5699665338
 30
0.0
 10
9.5376648178
 20
9.5809033877
 30
0.0
 10
9.561766976
 20
9.5906566268
 30
0.0
 10
9.58638934
 20
9.5992037808
 30
0.0
 10
9.6114751204
 20
9.6065252027
 30
0.0
 10
9.6369664619
 20
9.6126040894
 30
0.0
 10
9.6628046095
 20
9.6174264875
 30
0.0
 10
9.6889299478
 20
9.6209813352
 30
0.0
 10
9.7152824782
 20
9.6232604661
 30
0.0
 10
9.7418006675
 20
9.6242587268
 30
0.0
 10
9.7595216265
 20
9.6240691046
 30
0.0
 10
9.7683879546
 20
9.6237616619
 30
0.0
  0
SPLINE
  5
391
100
AcDbEntity
  8
0
100
AcDbSpline
 62
7
  6
CONTINUOUS
 70
0
 71
3
 72
39
 73
35
 74
0
 42
0.0000001
 43
0.0000001
 44
0.0000000001
 40
0.0
 40
0.0
 40
0.0
 40
0.0
 40
0.0319042764
 40
0.0637061104
 40
0.0954046863
 40
0.1270037397
 40
0.1585059846
 40
0.1899156077
 40
0.2212375786
 40
0.2524776528
 40
0.283642382
 40
0.3147390198
 40
0.3457754744
 40
0.3767602341
 40
0.4077022858
 40
0.4386110297
 40
0.4694961897
 40
0.500367722
 40
0.5312357173
 40
0.5621103003
 40
0.5930015297
 40
0.6239193007
 40
0.6548732512
 40
0.6858726675
 40
0.7169263946
 40
0.7480427513
 40
0.7792294558
 40
0.8104935581
 40
0.8418413765
 40
0.873278442
 40
0.904809452
 40
0.9364382397
 40
0.9681677461
 40
1.0
 40
1.0
 40
1.0
 40
1.0
 10
9.3036621102
 20
9.137893709
 30
0.0
 10
9.3036621102
 20
9.146017704
 30
0.0
 10
9.304042677
 20
9.1622422438
 30
0.0
 10
9.3057602491
 20
9.186483671
 30
0.0
 10
9.3086201807
 20
9.2105393805
 30
0.0
 10
9.3126159086
 20
9.2343552859
 30
0.0
 10
9.3177388817
 20
9.2578792364
 30
0.0
 10
9.3239777681
 20
9.281059153
 30
0.0
 10
9.331318826
 20
9.3038438954
 30
0.0
 10
9.339745898
 20
9.3261831438
 30
0.0
 10
9.349240425
 20
9.3480275546
 30
0.0
 10
9.3597815094
 20
9.3693288612
 30
0.0
 10
9.3713458772
 20
9.3900400174
 30
0.0
 10
9.3839080073
 20
9.4101152731
 30
0.0
 10
9.3974401811
 20
9.4295102736
 30
0.0
 10
9.4119125516
 20
9.4481821475
 30
0.0
 10
9.4272931617
 20
9.466089637
 30
0.0
 10
9.4435480215
 20
9.4831931957
 30
0.0
 10
9.4606412269
 20
9.4994550404
 30
0.0
 10
9.4785350272
 20
9.5148392397
 30
0.0
 10
9.4971899074
 20
9.5293117899
 30
0.0
 10
9.5165646297
 20
9.5428407553
 30
0.0
 10
9.5366163802
 20
9.555396278
 30
0.0
 10
9.5573008588
 20
9.5669506456
 30
0.0
 10
9.5785723804
 20
9.5774783384
 30
0.0
 10
9.6003839486
 20
9.5869561371
 30
0.0
 10
9.6226873685
 20
9.5953631741
 30
0.0
 10
9.6454333792
 20
9.6026809281
 30
0.0
 10
9.6685717482
 20
9.6088932734
 30
0.0
 10
9.6920514
 20
9.6139865121
 30
0.0
 10
9.7158204345
 20
9.6179494802
 30
0.0
 10
9.7398265671
 20
9.6207734883
 30
0.0
 10
9.7640161058
 20
9.6224523666
 30
0.0
 10
9.7802045579
 20
9.6228051323
 30
0.0
 10
9.7883102007
 20
9.622790819
 30
0.0
  0
SPLINE
  5
392
100
AcDbEntity
  8
0
100
AcDbSpline
 62
7
  6
CONTINUOUS
 70
0
 71
3
 72
15
 73
11
 74
0
 42
0.0000001
 43
0.0000001
 44
0.0000000001
 40
0.0
 40
0.0
 40
0.0
 40
0.0
 40
0.089792683
 40
0.1861563227
 40
0.2906459545
 40
0.4049903647
 40
0.5310640127
 40
0.6708715764
 40
0.8264964229
 40
1.0
 40
1.0
 40
1.0
 40
1.0
 10
9.5508918414
 20
9.3778078226
 30
0.0
 10
9.5498821867
 20
9.3790694979
 30
0.0
 10
9.5479404423
 20
9.3818097908
 30
0.0
 10
9.5454079498
 20
9.386397916
 30
0.0
 10
9.5432181361
 20
9.391642379
 30
0.0
 10
9.5414335518
 20
9.3975984976
 30
0.0
 10
9.5401271584
 20
9.4043260731
 30
0.0
 10
9.5393843512
 20
9.4118857413
 30
0.0
 10
9.5393031252
 20
9.4203343174
 30
0.0
 10
9.5397379579
 20
9.4262489406
 30
0.0
 10
9.5400813996
 20
9.4293524042
 30
0.0
  0
SPLINE
  5
393
100
AcDbEntity
  8
0
100
AcDbSpline
 62
7
  6
CONTINUOUS
 70
0
 71
3
 72
23
 73
19
 74
0
 42
0.0000001
 43
0.0000001
 44
0.0000000001
 40
0.0
 40
0.0
 40
0.0
 40
0.0
 40
0.0637769127
 40
0.127344953
 40
0.1907019652
 40
0.2538561227
 40
0.3168132057
 40
0.3795820872
 40
0.4421733866
 40
0.5045993385
 40
0.5668738691
 40
0.6290123824
 40
0.6910316505
 40
0.7529496453
 40
0.8147853569
 40
0.8765586065
 40
0.9382898561
 40
1.0
 40
1.0
 40
1.0
 40
1.0
 10
9.3618656673
 20
9.1465910199
 30
0.0
 10
9.3618656673
 20
9.154158802
 30
0.0
 10
9.3622279053
 20
9.1692721453
 30
0.0
 10
9.3638627933
 20
9.1918502109
 30
0.0
 10
9.3665849284
 20
9.2142493171
 30
0.0
 10
9.3703877685
 20
9.2364168496
 30
0.0
 10
9.3752628356
 20
9.2583021429
 30
0.0
 10
9.3811988545
 20
9.2798546049
 30
0.0
 10
9.3881821706
 20
9.3010245848
 30
0.0
 10
9.3961967445
 20
9.3217632636
 30
0.0
 10
9.4052241665
 20
9.3420227971
 30
0.0
 10
9.4152436598
 20
9.3617564544
 30
0.0
 10
9.4262321191
 20
9.380918727
 30
0.0
 10
9.4381642423
 20
9.3994654217
 30
0.0
 10
9.4510125183
 20
9.4173536958
 30
0.0
 10
9.4647474889
 20
9.4345424097
 30
0.0
 10
9.4793369164
 20
9.4509913873
 30
0.0
 10
9.4896123264
 20
9.4614408692
 30
0.0
 10
9.4948791068
 20
9.4665281671
 30
0.0
  0
SPLINE
  5
394
100
AcDbEntity
  8
0
100
AcDbSpline
 62
7
  6
CONTINUOUS
 70
0
 71
3
 72
23
 73
19
 74
0
 42
0.0000001
 43
0.0000001
 44
0.0000000001
 40
0.0
 40
0.0
 40
0.0
 40
0.0
 40
0.0633606975
 40
0.1265715893
 40
0.1896335504
 40
0.2525556531
 40
0.3153446197
 40
0.37800834
 40
0.4405557689
 40
0.5029963528
 40
0.5653402425
 40
0.6275981884
 40
0.6897814506
 40
0.7519017549
 40
0.8139712207
 40
0.8760022787
 40
0.938007595
 40
1.0
 40
1.0
 40
1.0
 40
1.0
 10
10.304301384
 20
7.5346245165
 30
0.0
 10
10.3060732877
 20
7.544886097
 30
0.0
 10
10.3100056669
 20
7.5653194469
 30
0.0
 10
10.3170709425
 20
7.5956822147
 30
0.0
 10
10.3252865427
 20
7.6256799386
 30
0.0
 10
10.334640587
 20
7.6552695993
 30
0.0
 10
10.3451201685
 20
7.6844101507
 30
0.0
 10
10.3567105462
 20
7.7130606093
 30
0.0
 10
10.3693954902
 20
7.7411807952
 30
0.0
 10
10.3831572883
 20
7.7687312527
 30
0.0
 10
10.3979765932
 20
7.7956733594
 30
0.0
 10
10.4138326389
 20
7.821969326
 30
0.0
 10
10.4307032555
 20
7.8475822254
 30
0.0
 10
10.4485647617
 20
7.8724761568
 30
0.0
 10
10.4673920575
 20
7.8966161844
 30
0.0
 10
10.4871589044
 20
7.9199685362
 30
0.0
 10
10.5078371332
 20
7.9424999813
 30
0.0
 10
10.5222124711
 20
7.9569542766
 30
0.0
 10
10.5295406285
 20
7.9640327501
 30
0.0
  0
SPLINE
  5
395
100
AcDbEntity
  8
0
100
AcDbSpline
 62
7
  6
CONTINUOUS
 70
0
 71
3
 72
43
 73
39
 74
0
 42
0.0000001
 43
0.0000001
 44
0.0000000001
 40
0.0
 40
0.0
 40
0.0
 40
0.0
 40
0.0308949578
 40
0.0463965285
 40
0.0619319227
 40
0.0930995922
 40
0.1243961207
 40
0.1558137436
 40
0.1873426647
 40
0.2189713359
 40
0.2506866239
 40
0.266574139
 40
0.2824777748
 40
0.3143217056
 40
0.3462056648
 40
0.3781125485
 40
0.4100249009
 40
0.4419251822
 40
0.4737960378
 40
0.5056205658
 40
0.537382579
 40
0.5690668595
 40
0.6006594026
 40
0.6321476465
 40
0.6635206846
 40
0.6947694573
 40
0.7258869198
 40
0.756868182
 40
0.7877106176
 40
0.8184139379
 40
0.8489802286
 40
0.8642154085
 40
0.8794182011
 40
0.9097261254
 40
0.9399172707
 40
0.9549746435
 40
0.9700071543
 40
1.0
 40
1.0
 40
1.0
 40
1.0
 10
9.5480798608
 20
9.3264601293
 30
0.0
 10
9.5480798608
 20
9.3161415398
 30
0.0
 10
9.5485865393
 20
9.3006395454
 30
0.0
 10
9.5502621391
 20
9.2800203944
 30
0.0
 10
9.5526101503
 20
9.2593745508
 30
0.0
 10
9.5567977864
 20
9.2336428751
 30
0.0
 10
9.5637929848
 20
9.2030566226
 30
0.0
 10
9.5727340648
 20
9.1728553764
 30
0.0
 10
9.5835829487
 20
9.1431679081
 30
0.0
 10
9.5962930799
 20
9.1141206208
 30
0.0
 10
9.6083852015
 20
9.0905620766
 30
0.0
 10
9.6189305553
 20
9.072155522
 30
0.0
 10
9.6300575597
 20
9.0540441708
 30
0.0
 10
9.6450151945
 20
9.0320310245
 30
0.0
 10
9.6645557261
 20
9.0067401368
 30
0.0
 10
9.6856140909
 20
8.9826672731
 30
0.0
 10
9.7081005282
 20
8.9599152242
 30
0.0
 10
9.731919721
 20
8.9385803695
 30
0.0
 10
9.7569705795
 20
8.918753312
 30
0.0
 10
9.7831468323
 20
8.9005182173
 30
0.0
 10
9.8103374285
 20
8.8839525335
 30
0.0
 10
9.8384270167
 20
8.8691266442
 30
0.0
 10
9.8672964266
 20
8.8561035763
 30
0.0
 10
9.8968231693
 20
8.8449387311
 30
0.0
 10
9.9268819534
 20
8.8356796497
 30
0.0
 10
9.9573452039
 20
8.8283658083
 30
0.0
 10
9.9880836244
 20
8.8230284518
 30
0.0
 10
10.0189666391
 20
8.8196904426
 30
0.0
 10
10.0498633168
 20
8.8183662123
 30
0.0
 10
10.0806415317
 20
8.819061493
 30
0.0
 10
10.1061134009
 20
8.8213244638
 30
0.0
 10
10.1262959845
 20
8.8241402387
 30
0.0
 10
10.1462881806
 20
8.8276143002
 30
0.0
 10
10.1709690282
 20
8.8331952014
 30
0.0
 10
10.1951692945
 20
8.8404199158
 30
0.0
 10
10.2141444637
 20
8.8471604802
 30
0.0
 10
10.2328155717
 20
8.8545215121
 30
0.0
 10
10.246517522
 20
8.8607560104
 30
0.0
 10
10.2554864336
 20
8.8652174893
 30
0.0
  0
SPLINE
  5
396
100
AcDbEntity
  8
0
100
AcDbSpline
 62
7
  6
CONTINUOUS
 70
0
 71
3
 72
71
 73
67
 74
0
 42
0.0000001
 43
0.0000001
 44
0.0000000001
 40
0.0
 40
0.0
 40
0.0
 40
0.0
 40
0.0156373091
 40
0.0313279441
 40
0.047070274
 40
0.0628636381
 40
0.078706082
 40
0.0945954866
 40
0.1105292303
 40
0.1265042948
 40
0.1425172941
 40
0.1585644989
 40
0.1746418765
 40
0.1907451255
 40
0.2068697168
 40
0.2230109349
 40
0.2391639194
 40
0.2553237067
 40
0.2714852734
 40
0.2876435805
 40
0.303793618
 40
0.3199304487
 40
0.3360492499
 40
0.352145356
 40
0.3682143008
 40
0.3842518584
 40
0.4002540817
 40
0.4162173386
 40
0.4321383463
 40
0.4480142041
 40
0.4638424239
 40
0.4796209569
 40
0.4953482152
 40
0.5110230909
 40
0.5266449715
 40
0.542213752
 40
0.5577298409
 40
0.5731941611
 40
0.5886081449
 40
0.6039737253
 40
0.6192933221
 40
0.6345698229
 40
0.6498065561
 40
0.6650072607
 40
0.6801760497
 40
0.6953173703
 40
0.7104359595
 40
0.7255367956
 40
0.7406250456
 40
0.7557060104
 40
0.7707850684
 40
0.7858676182
 40
0.8009590217
 40
0.8160645466
 40
0.8311893099
 40
0.846338224
 40
0.8615159451
 40
0.8767268271
 40
0.8919748765
 40
0.9072637177
 40
0.9225965501
 40
0.9379761169
 40
0.9534047581
 40
0.9688840326
 40
0.9844158132
 40
1.0
 40
1.0
 40
1.0
 40
1.0
 10
9.2322280811
 20
9.1058707199
 30
0.0
 10
9.2322280811
 20
9.0967684442
 30
0.0
 10
9.232676578
 20
9.0785297535
 30
0.0
 10
9.2346849157
 20
9.0511941859
 30
0.0
 10
9.2380253768
 20
9.0238971626
 30
0.0
 10
9.2426895558
 20
8.9967055502
 30
0.0
 10
9.2486663738
 20
8.969684365
 30
0.0
 10
9.255941314
 20
8.9428988185
 30
0.0
 10
9.2644968349
 20
8.9164133508
 30
0.0
 10
9.2743122735
 20
8.8902917216
 30
0.0
 10
9.2853639561
 20
8.864596802
 30
0.0
 10
9.2976252485
 20
8.8393904374
 30
0.0
 10
9.3110666186
 20
8.8147333023
 30
0.0
 10
9.3256556911
 20
8.7906847468
 30
0.0
 10
9.341357308
 20
8.7673026399
 30
0.0
 10
9.3581336529
 20
8.7446432528
 30
0.0
 10
9.3759443334
 20
8.7227611219
 30
0.0
 10
9.3947464786
 20
8.7017089211
 30
0.0
 10
9.4144948394
 20
8.6815373373
 30
0.0
 10
9.4351418644
 20
8.6622949143
 30
0.0
 10
9.4566378507
 20
8.6440279669
 30
0.0
 10
9.4789310612
 20
8.6267804724
 30
0.0
 10
9.5019678459
 20
8.6105939641
 30
0.0
 10
9.5256927725
 20
8.5955074405
 30
0.0
 10
9.5500487358
 20
8.5815572341
 30
0.0
 10
9.574977109
 20
8.5687769375
 30
0.0
 10
9.6004178944
 20
8.557197344
 30
0.0
 10
9.6263098616
 20
8.546846368
 30
0.0
 10
9.6525906944
 20
8.5377489854
 30
0.0
 10
9.6791971315
 20
8.5299271518
 30
0.0
 10
9.7060651156
 20
8.5233997287
 30
0.0
 10
9.7331299615
 20
8.51818248
 30
0.0
 10
9.7603265047
 20
8.5142880268
 30
0.0
 10
9.7875892562
 20
8.5117258186
 30
0.0
 10
9.8148525576
 20
8.5105021096
 30
0.0
 10
9.8420507377
 20
8.5106198928
 30
0.0
 10
9.8691182763
 20
8.5120789405
 30
0.0
 10
9.8959899586
 20
8.514875804
 30
0.0
 10
9.9226010295
 20
8.5190038182
 30
0.0
 10
9.9488873462
 20
8.5244531241
 30
0.0
 10
9.9747855423
 20
8.5312106448
 30
0.0
 10
10.0002331828
 20
8.5392601373
 30
0.0
 10
10.0251689071
 20
8.5485822523
 30
0.0
 10
10.0495325783
 20
8.5591545722
 30
0.0
 10
10.073265424
 20
8.5709516694
 30
0.0
 10
10.0963101891
 20
8.5839451443
 30
0.0
 10
10.1186112904
 20
8.5981036763
 30
0.0
 10
10.1401149309
 20
8.6133931413
 30
0.0
 10
10.1607692328
 20
8.6297766845
 30
0.0
 10
10.180524362
 20
8.647214811
 30
0.0
 10
10.1993326481
 20
8.6656654791
 30
0.0
 10
10.2171487384
 20
8.6850841675
 30
0.0
 10
10.2339296761
 20
8.7054240242
 30
0.0
 10
10.2496350027
 20
8.7266359788
 30
0.0
 10
10.2642268563
 20
8.7486688608
 30
0.0
 10
10.2776700551
 20
8.7714695261
 30
0.0
 10
10.2899322225
 20
8.7949829631
 30
0.0
 10
10.3009838477
 20
8.8191524431
 30
0.0
 10
10.3107983389
 20
8.8439196693
 30
0.0
 10
10.3193520846
 20
8.8692249156
 30
0.0
 10
10.3266245027
 20
8.8950071595
 30
0.0
 10
10.3325981494
 20
8.921204282
 30
0.0
 10
10.3372586192
 20
8.9477529778
 30
0.0
 10
10.3405949601
 20
8.9745897072
 30
0.0
 10
10.3425988936
 20
9.0016486815
 30
0.0
 10
10.3430428472
 20
9.0197641003
 30
0.0
 10
10.3430428472
 20
9.0288354543
 30
0.0
  0
SPLINE
  5
397
100
AcDbEntity
  8
0
100
AcDbSpline
 62
7
  6
CONTINUOUS
 70
0
 71
3
 72
69
 73
65
 74
0
 42
0.0000001
 43
0.0000001
 44
0.0000000001
 40
0.0
 40
0.0
 40
0.0
 40
0.0
 40
0.0156357209
 40
0.0313236382
 40
0.0470620645
 40
0.0628504811
 40
0.0786870366
 40
0.0945697456
 40
0.1104961603
 40
0.1264634495
 40
0.1424684389
 40
0.1585076262
 40
0.1745772181
 40
0.1906731632
 40
0.2067911894
 40
0.2229268396
 40
0.2390755089
 40
0.2552324828
 40
0.2713929784
 40
0.2875521842
 40
0.3198394603
 40
0.3520648101
 40
0.3681471526
 40
0.3842009417
 40
0.4002222597
 40
0.416207465
 40
0.4321532259
 40
0.4480565502
 40
0.4639148132
 40
0.4797257829
 40
0.495487645
 40
0.5111990235
 40
0.5268589954
 40
0.542467103
 40
0.5580233628
 40
0.5735282716
 40
0.5889828072
 40
0.6043884219
 40
0.6197470335
 40
0.6350610107
 40
0.650333157
 40
0.6655666855
 40
0.6807651901
 40
0.6959326123
 40
0.7110732038
 40
0.7261914877
 40
0.7412922127
 40
0.756380306
 40
0.771460823
 40
0.7865388957
 40
0.8016196818
 40
0.8167083118
 40
0.831809836
 40
0.8469291732
 40
0.8620710604
 40
0.8772400068
 40
0.8924402505
 40
0.907675716
 40
0.922949978
 40
0.9382662307
 40
0.9536272378
 40
0.9690353955
 40
0.9844925152
 40
1.0
 40
1.0
 40
1.0
 40
1.0
 10
9.3036621102
 20
9.137893709
 30
0.0
 10
9.3036621102
 20
9.129570014
 30
0.0
 10
9.3040629235
 20
9.112892129
 30
0.0
 10
9.3058579334
 20
9.0878939917
 30
0.0
 10
9.3088438354
 20
9.0629276172
 30
0.0
 10
9.3130134185
 20
9.0380514652
 30
0.0
 10
9.3183572493
 20
9.0133223231
 30
0.0
 10
9.3248629295
 20
8.9887972121
 30
0.0
 10
9.3325154507
 20
8.964532488
 30
0.0
 10
9.3412971696
 20
8.9405839504
 30
0.0
 10
9.3511878553
 20
8.9170066631
 30
0.0
 10
9.3621647532
 20
8.8938548419
 30
0.0
 10
9.3742026042
 20
8.8711817233
 30
0.0
 10
9.3872736813
 20
8.8490394247
 30
0.0
 10
9.4013479081
 20
8.8274788467
 30
0.0
 10
9.4163929015
 20
8.8065495663
 30
0.0
 10
9.4323741085
 20
8.7862996867
 30
0.0
 10
9.4492546469
 20
8.7667758751
 30
0.0
 10
9.4669961623
 20
8.7480226149
 30
0.0
 10
9.4917337069
 20
8.7241137823
 30
0.0
 10
9.5245929031
 20
8.6963671678
 30
0.0
 10
9.5597749327
 20
8.6717022558
 30
0.0
 10
9.5891048901
 20
8.6539717583
 30
0.0
 10
9.6116300049
 20
8.6417109025
 30
0.0
 10
9.6346420178
 20
8.6305088807
 30
0.0
 10
9.658088506
 20
8.6203911087
 30
0.0
 10
9.6819154227
 20
8.6113809649
 30
0.0
 10
9.706068018
 20
8.6034991776
 30
0.0
 10
9.7304907474
 20
8.5967639272
 30
0.0
 10
9.755127455
 20
8.5911907709
 30
0.0
 10
9.7799214732
 20
8.5867925556
 30
0.0
 10
9.8048157727
 20
8.5835794319
 30
0.0
 10
9.8297530903
 20
8.5815588418
 30
0.0
 10
9.8546760567
 20
8.5807354985
 30
0.0
 10
9.8795273251
 20
8.5811113756
 30
0.0
 10
9.9042497059
 20
8.5826856399
 30
0.0
 10
9.9287863014
 20
8.5854547134
 30
0.0
 10
9.9530806326
 20
8.5894122798
 30
0.0
 10
9.9770767652
 20
8.5945492999
 30
0.0
 10
10.0007194389
 20
8.6008540198
 30
0.0
 10
10.0239542113
 20
8.6083119487
 30
0.0
 10
10.0467275704
 20
8.6169059541
 30
0.0
 10
10.0689870569
 20
8.6266162913
 30
0.0
 10
10.0906813805
 20
8.6374206543
 30
0.0
 10
10.111760548
 20
8.6492942017
 30
0.0
 10
10.1321760008
 20
8.6622095876
 30
0.0
 10
10.1518807
 20
8.6761370786
 30
0.0
 10
10.1708292389
 20
8.6910446094
 30
0.0
 10
10.18897794
 20
8.7068978649
 30
0.0
 10
10.2062849815
 20
8.7236603273
 30
0.0
 10
10.2227105072
 20
8.7412933583
 30
0.0
 10
10.2382166844
 20
8.7597563267
 30
0.0
 10
10.2527677983
 20
8.7790066922
 30
0.0
 10
10.2663303226
 20
8.7990001097
 30
0.0
 10
10.2788730394
 20
8.8196905017
 30
0.0
 10
10.2903671055
 20
8.8410301794
 30
0.0
 10
10.3007860836
 20
8.8629699736
 30
0.0
 10
10.3101060126
 20
8.8854593422
 30
0.0
 10
10.3183054503
 20
8.9084464844
 30
0.0
 10
10.3253655659
 20
8.9318784559
 30
0.0
 10
10.3312701984
 20
8.9557012452
 30
0.0
 10
10.3360057732
 20
8.9798601831
 30
0.0
 10
10.3395614335
 20
9.0042988523
 30
0.0
 10
10.341137352
 20
9.0207151026
 30
0.0
 10
10.3417272829
 20
9.0289494258
 30
0.0
  0
SPLINE
  5
398
100
AcDbEntity
  8
0
100
AcDbSpline
 62
7
  6
CONTINUOUS
 70
0
 71
3
 72
39
 73
35
 74
0
 42
0.0000001
 43
0.0000001
 44
0.0000000001
 40
0.0
 40
0.0
 40
0.0
 40
0.0
 40
0.0310753511
 40
0.0623079071
 40
0.0936931323
 40
0.1252222879
 40
0.1568840438
 40
0.1886642044
 40
0.2205461649
 40
0.2525112495
 40
0.2845391085
 40
0.3166081364
 40
0.3486959075
 40
0.3807796234
 40
0.4128365659
 40
0.4448445499
 40
0.4767823666
 40
0.5086302146
 40
0.540370109
 40
0.5719862657
 40
0.6034654504
 40
0.6347972851
 40
0.6659745049
 40
0.6969931576
 40
0.7278527402
 40
0.7585562639
 40
0.7891102404
 40
0.8195245852
 40
0.8498124376
 40
0.8799898966
 40
0.9100756756
 40
0.9400906817
 40
0.970057529
 40
1.0
 40
1.0
 40
1.0
 40
1.0
 10
9.3618656673
 20
9.1465910199
 30
0.0
 10
9.3618656673
 20
9.1348495504
 30
0.0
 10
9.3627415527
 20
9.1112981779
 30
0.0
 10
9.3666522056
 20
9.0760838601
 30
0.0
 10
9.3731409245
 20
9.0410763224
 30
0.0
 10
9.3821718651
 20
9.0064702747
 30
0.0
 10
9.3936950112
 20
8.9724551006
 30
0.0
 10
9.4076468581
 20
8.9392176734
 30
0.0
 10
9.4239505596
 20
8.9069403504
 30
0.0
 10
9.4425164116
 20
8.8758002505
 30
0.0
 10
9.4632423565
 20
8.845968231
 30
0.0
 10
9.486014537
 20
8.8176079832
 30
0.0
 10
9.5107079157
 20
8.7908751403
 30
0.0
 10
9.537186955
 20
8.7659164387
 30
0.0
 10
9.5653063247
 20
8.7428688876
 30
0.0
 10
9.5949117209
 20
8.7218590485
 30
0.0
 10
9.625840704
 20
8.7030023516
 30
0.0
 10
9.6579235763
 20
8.6864024661
 30
0.0
 10
9.6909843018
 20
8.6721507398
 30
0.0
 10
9.7248414484
 20
8.6603256783
 30
0.0
 10
9.7593091701
 20
8.6509924963
 30
0.0
 10
9.7941982266
 20
8.6442027908
 30
0.0
 10
9.8293170019
 20
8.6399942434
 30
0.0
 10
9.864472541
 20
8.638390402
 30
0.0
 10
9.8994715952
 20
8.6394005408
 30
0.0
 10
9.9341216762
 20
8.6430195434
 30
0.0
 10
9.9682321138
 20
8.649227941
 30
0.0
 10
10.0016151041
 20
8.6579920072
 30
0.0
 10
10.0340867311
 20
8.6692638977
 30
0.0
 10
10.0654680512
 20
8.6829819539
 30
0.0
 10
10.095585869
 20
8.6990707735
 30
0.0
 10
10.1242746041
 20
8.7174424442
 30
0.0
 10
10.1513739748
 20
8.7379938871
 30
0.0
 10
10.1682882712
 20
8.7530794964
 30
0.0
 10
10.1764255197
 20
8.7609394418
 30
0.0
  0
SPLINE
  5
399
100
AcDbEntity
  8
0
100
AcDbSpline
 62
7
  6
CONTINUOUS
 70
0
 71
3
 72
19
 73
15
 74
0
 42
0.0000001
 43
0.0000001
 44
0.0000000001
 40
0.0
 40
0.0
 40
0.0
 40
0.0
 40
0.0735483356
 40
0.1456930227
 40
0.2160915738
 40
0.2846222242
 40
0.3513253199
 40
0.4163247744
 40
0.4797716951
 40
0.5418140542
 40
0.6621863585
 40
0.7782899947
 40
0.8907379418
 40
1.0
 40
1.0
 40
1.0
 40
1.0
 10
10.1413781597
 20
9.3760241916
 30
0.0
 10
10.1401160456
 20
9.3788200179
 30
0.0
 10
10.1375713788
 20
9.3843383308
 30
0.0
 10
10.1336755621
 20
9.3924656876
 30
0.0
 10
10.1297846884
 20
9.4003626006
 30
0.0
 10
10.1259560167
 20
9.4080369259
 30
0.0
 10
10.1222383809
 20
9.4155150232
 30
0.0
 10
10.1186698267
 20
9.4228303043
 30
0.0
 10
10.1152790533
 20
9.4300155573
 30
0.0
 10
10.1110666101
 20
9.4393650243
 30
0.0
 10
10.106318325
 20
9.4508802161
 30
0.0
 10
10.1015322928
 20
9.4646331814
 30
0.0
 10
10.0977853674
 20
9.4782263048
 30
0.0
 10
10.0959910566
 20
9.4873087469
 30
0.0
 10
10.0952913715
 20
9.4918117383
 30
0.0
  0
SPLINE
  5
39A
100
AcDbEntity
  8
0
100
AcDbSpline
 62
7
  6
CONTINUOUS
 70
0
 71
3
 72
11
 73
7
 74
0
 42
0.0000001
 43
0.0000001
 44
0.0000000001
 40
0.0
 40
0.0
 40
0.0
 40
0.0
 40
0.2491135483
 40
0.4995313838
 40
0.7502661815
 40
1.0
 40
1.0
 40
1.0
 40
1.0
 10
10.1537303041
 20
9.3469965502
 30
0.0
 10
10.1527365036
 20
9.3494204149
 30
0.0
 10
10.1507403725
 20
9.354279479
 30
0.0
 10
10.1477015707
 20
9.3615607037
 30
0.0
 10
10.1445913276
 20
9.3688188778
 30
0.0
 10
10.1424587049
 20
9.3736305753
 30
0.0
 10
10.1413781597
 20
9.3760241916
 30
0.0
  0
SPLINE
  5
39B
100
AcDbEntity
  8
0
100
AcDbSpline
 62
7
  6
CONTINUOUS
 70
0
 71
3
 72
11
 73
7
 74
0
 42
0.0000001
 43
0.0000001
 44
0.0000000001
 40
0.0
 40
0.0
 40
0.0
 40
0.0
 40
0.2439960193
 40
0.4929874495
 40
0.745433737
 40
1.0
 40
1.0
 40
1.0
 40
1.0
 10
10.0255072444
 20
9.3840598669
 30
0.0
 10
10.0244170224
 20
9.3817971899
 30
0.0
 10
10.0221578749
 20
9.3772524767
 30
0.0
 10
10.0185833322
 20
9.3704618965
 30
0.0
 10
10.0148033325
 20
9.3636587614
 30
0.0
 10
10.0121666621
 20
9.3591541099
 30
0.0
 10
10.01081767
 20
9.3569075751
 30
0.0
  0
SPLINE
  5
39C
100
AcDbEntity
  8
0
100
AcDbSpline
 62
7
  6
CONTINUOUS
 70
0
 71
3
 72
44
 73
40
 74
0
 42
0.0000001
 43
0.0000001
 44
0.0000000001
 40
0.0
 40
0.0
 40
0.0
 40
0.0
 40
0.0299527124
 40
0.0449604704
 40
0.0599902986
 40
0.0901190191
 40
0.1203575104
 40
0.13552399
 40
0.1507221301
 40
0.1659530316
 40
0.1812176474
 40
0.2118465307
 40
0.2426176971
 40
0.2735329018
 40
0.3045912841
 40
0.3357894183
 40
0.3671214088
 40
0.3985790244
 40
0.4301518694
 40
0.461827584
 40
0.493592073
 40
0.5254297569
 40
0.5573238406
 40
0.5892565986
 40
0.6212096697
 40
0.6531643597
 40
0.6851019477
 40
0.7170039931
 40
0.7329380658
 40
0.7488566233
 40
0.7806348934
 40
0.812326979
 40
0.8439185084
 40
0.8753968132
 40
0.9067511157
 40
0.9379728926
 40
0.9535339109
 40
0.9690598579
 40
1.0
 40
1.0
 40
1.0
 40
1.0
 10
10.2728107068
 20
8.9012387835
 30
0.0
 10
10.2643473806
 20
8.8962220002
 30
0.0
 10
10.2513669044
 20
8.8891443582
 30
0.0
 10
10.2335843415
 20
8.8806486025
 30
0.0
 10
10.2154571253
 20
8.8727670324
 30
0.0
 10
10.1922316343
 20
8.8641073524
 30
0.0
 10
10.1684111073
 20
8.8570920656
 30
0.0
 10
10.1490443374
 20
8.8524750329
 30
0.0
 10
10.1343608445
 20
8.8495104958
 30
0.0
 10
10.1195516524
 20
8.8470513422
 30
0.0
 10
10.0996405289
 20
8.8444474176
 30
0.0
 10
10.0745146964
 20
8.8424723918
 30
0.0
 10
10.0441711094
 20
8.8421586174
 30
0.0
 10
10.0137341191
 20
8.8438989247
 30
0.0
 10
9.9833426475
 20
8.8476853285
 30
0.0
 10
9.9531341664
 20
8.8535003848
 30
0.0
 10
9.9232456007
 20
8.8613175308
 30
0.0
 10
9.8938123036
 20
8.8711011406
 30
0.0
 10
9.8649675621
 20
8.8828067141
 30
0.0
 10
9.8368419705
 20
8.8963810755
 30
0.0
 10
9.8095628543
 20
8.911762617
 30
0.0
 10
9.7832536976
 20
8.9288815784
 30
0.0
 10
9.7580335941
 20
8.9476603572
 30
0.0
 10
9.7340167007
 20
8.9680138786
 30
0.0
 10
9.7113117742
 20
8.9898499014
 30
0.0
 10
9.6900215016
 20
9.0130697195
 30
0.0
 10
9.6702427185
 20
9.0375675343
 30
0.0
 10
9.6550869618
 20
9.0589660032
 30
0.0
 10
9.6438045949
 20
9.076611814
 30
0.0
 10
9.6331066494
 20
9.0945706062
 30
0.0
 10
9.620831519
 20
9.1175990473
 30
0.0
 10
9.607919181
 20
9.1460517161
 30
0.0
 10
9.5968898538
 20
9.1751813768
 30
0.0
 10
9.5877940355
 20
9.2048556918
 30
0.0
 10
9.5806730532
 20
9.2349396622
 30
0.0
 10
9.576406653
 20
9.260268482
 30
0.0
 10
9.5740124958
 20
9.2805977981
 30
0.0
 10
9.5723023349
 20
9.3009024419
 30
0.0
 10
9.5717824967
 20
9.3161712488
 30
0.0
 10
9.5717796607
 20
9.3263340831
 30
0.0
  0
SPLINE
  5
39D
100
AcDbEntity
  8
0
100
AcDbSpline
 62
7
  6
CONTINUOUS
 70
0
 71
3
 72
41
 73
37
 74
0
 42
0.0000001
 43
0.0000001
 44
0.0000000001
 40
0.0
 40
0.0
 40
0.0
 40
0.0
 40
0.032049283
 40
0.0641121347
 40
0.0960975226
 40
0.1279964711
 40
0.1598219463
 40
0.1915891831
 40
0.2233104643
 40
0.2549944143
 40
0.2866464448
 40
0.31826927
 40
0.3498635652
 40
0.3814282107
 40
0.412960628
 40
0.4444574169
 40
0.4759146643
 40
0.5073278813
 40
0.5386921441
 40
0.5700021528
 40
0.6012524072
 40
0.6324372589
 40
0.6635511088
 40
0.694588504
 40
0.7255443115
 40
0.7564139095
 40
0.7871932759
 40
0.8178791422
 40
0.8484692239
 40
0.8637303697
 40
0.8789672317
 40
0.9093636533
 40
0.9396647096
 40
0.9547826628
 40
0.9698787361
 40
1.0
 40
1.0
 40
1.0
 40
1.0
 10
10.01081767
 20
9.3569075751
 30
0.0
 10
10.0078896467
 20
9.3520314109
 30
0.0
 10
10.0017942883
 20
9.3424176007
 30
0.0
 10
9.991951878
 20
9.3284815437
 30
0.0
 10
9.9814180907
 20
9.3150931643
 30
0.0
 10
9.9702116163
 20
9.3023180672
 30
0.0
 10
9.958346414
 20
9.2902058052
 30
0.0
 10
9.945839903
 20
9.2788030536
 30
0.0
 10
9.9327152972
 20
9.2681567246
 30
0.0
 10
9.9190022817
 20
9.2583142089
 30
0.0
 10
9.9047370088
 20
9.2493227246
 30
0.0
 10
9.8899619738
 20
9.2412283623
 30
0.0
 10
9.8747257694
 20
9.2340752172
 30
0.0
 10
9.8590828095
 20
9.2279044776
 30
0.0
 10
9.8430929071
 20
9.2227536003
 30
0.0
 10
9.8268207342
 20
9.2186555387
 30
0.0
 10
9.8103352384
 20
9.2156380792
 30
0.0
 10
9.7937090483
 20
9.2137233281
 30
0.0
 10
9.7770178639
 20
9.2129272753
 30
0.0
 10
9.7603397544
 20
9.2132594638
 30
0.0
 10
9.7437544445
 20
9.2147227693
 30
0.0
 10
9.7273425669
 20
9.217313271
 30
0.0
 10
9.711184939
 20
9.2210202549
 30
0.0
 10
9.6953618458
 20
9.2258262809
 30
0.0
 10
9.6799523538
 20
9.2317073855
 30
0.0
 10
9.665033731
 20
9.2386332779
 30
0.0
 10
9.6506807097
 20
9.2465678007
 30
0.0
 10
9.636965613
 20
9.2554687245
 30
0.0
 10
9.6261149529
 20
9.2636600209
 30
0.0
 10
9.6178225211
 20
9.2706464535
 30
0.0
 10
9.6098101453
 20
9.2779013089
 30
0.0
 10
9.6003112215
 20
9.287477433
 30
0.0
 10
9.5915381143
 20
9.2976949215
 30
0.0
 10
9.5849918271
 20
9.3062113348
 30
0.0
 10
9.5787762367
 20
9.3149322526
 30
0.0
 10
9.5744752333
 20
9.3217179152
 30
0.0
 10
9.5717796607
 20
9.3263340831
 30
0.0
  0
SPLINE
  5
39E
100
AcDbEntity
  8
0
100
AcDbSpline
 62
7
  6
CONTINUOUS
 70
0
 71
3
 72
50
 73
46
 74
0
 42
0.0000001
 43
0.0000001
 44
0.0000000001
 40
0.0
 40
0.0
 40
0.0
 40
0.0
 40
0.0417738954
 40
0.0840375015
 40
0.126658999
 40
0.1695072728
 40
0.2124490406
 40
0.2553511879
 40
0.2980805661
 40
0.3405047668
 40
0.3824925704
 40
0.4239144964
 40
0.4646433325
 40
0.504554679
 40
0.5435274987
 40
0.5814446837
 40
0.6181936452
 40
0.6536669372
 40
0.6877629283
 40
0.7203865442
 40
0.7514501111
 40
0.7808743474
 40
0.8085895768
 40
0.8217881241
 40
0.8345385176
 40
0.8468355036
 40
0.8586748141
 40
0.8700533313
 40
0.8809690507
 40
0.8914214953
 40
0.9014115725
 40
0.9109421624
 40
0.9200180335
 40
0.9286464829
 40
0.9368375013
 40
0.9446043826
 40
0.9519642537
 40
0.9589386378
 40
0.9655543111
 40
0.9718437858
 40
0.9778461759
 40
0.9836073377
 40
0.9891800243
 40
0.9946230608
 40
1.0
 40
1.0
 40
1.0
 40
1.0
 10
12.6674181942
 20
6.6328261455
 30
0.0
 10
12.6674181942
 20
6.625541062
 30
0.0
 10
12.6673045321
 20
6.6108852639
 30
0.0
 10
12.6668020912
 20
6.5888017435
 30
0.0
 10
12.665968127
 20
6.5665407247
 30
0.0
 10
12.6648054246
 20
6.5441760537
 30
0.0
 10
12.6633177894
 20
6.5217815935
 30
0.0
 10
12.6615101593
 20
6.4994314901
 30
0.0
 10
12.6593885126
 20
6.4771996655
 30
0.0
 10
12.6569598862
 20
6.4551596751
 30
0.0
 10
12.654232336
 20
6.4333844273
 30
0.0
 10
12.6512149168
 20
6.4119459512
 30
0.0
 10
12.6479176511
 20
6.3909151526
 30
0.0
 10
12.6443514986
 20
6.3703615762
 30
0.0
 10
12.6405283181
 20
6.3503531729
 30
0.0
 10
12.6364608301
 20
6.33095607
 30
0.0
 10
12.6321625749
 20
6.3122343468
 30
0.0
 10
12.6276478687
 20
6.2942498169
 30
0.0
 10
12.6229317569
 20
6.2770618049
 30
0.0
 10
12.6180299609
 20
6.2607269641
 30
0.0
 10
12.6129588297
 20
6.2452989693
 30
0.0
 10
12.6077352538
 20
6.2308286515
 30
0.0
 10
12.6031989084
 20
6.2194288829
 30
0.0
 10
12.5994967759
 20
6.210833053
 30
0.0
 10
12.5967382022
 20
6.2047598993
 30
0.0
 10
12.5939546249
 20
6.1989599832
 30
0.0
 10
12.5911482902
 20
6.193438065
 30
0.0
 10
12.5883215586
 20
6.1881986527
 30
0.0
 10
12.5854766834
 20
6.1832460495
 30
0.0
 10
12.58261607
 20
6.1785842571
 30
0.0
 10
12.5797419507
 20
6.1742170985
 30
0.0
 10
12.5768567282
 20
6.1701480628
 30
0.0
 10
12.5739626195
 20
6.1663804671
 30
0.0
 10
12.5710619506
 20
6.162917304
 30
0.0
 10
12.5681569138
 20
6.1597613687
 30
0.0
 10
12.5652496826
 20
6.1569152065
 30
0.0
 10
12.5623423874
 20
6.1543811172
 30
0.0
 10
12.559437004
 20
6.1521613097
 30
0.0
 10
12.5565355726
 20
6.1502577101
 30
0.0
 10
12.5536399522
 20
6.1486723782
 30
0.0
 10
12.5507522096
 20
6.1474070932
 30
0.0
 10
12.5478744923
 20
6.146463891
 30
0.0
 10
12.5450092314
 20
6.1458444671
 30
0.0
 10
12.5421598683
 20
6.1455504107
 30
0.0
 10
12.5402681377
 20
6.1455720489
 30
0.0
 10
12.5393326833
 20
6.1456369302
 30
0.0
  0
SPLINE
  5
39F
100
AcDbEntity
  8
0
100
AcDbSpline
 62
7
  6
CONTINUOUS
 70
0
 71
3
 72
39
 73
35
 74
0
 42
0.0000001
 43
0.0000001
 44
0.0000000001
 40
0.0
 40
0.0
 40
0.0
 40
0.0
 40
0.0318885855
 40
0.0636724216
 40
0.0953509888
 40
0.1269280693
 40
0.158406597
 40
0.1897910483
 40
0.2210866955
 40
0.2522996701
 40
0.2834369354
 40
0.314506194
 40
0.3455158296
 40
0.3764748262
 40
0.4073926802
 40
0.4382793054
 40
0.4691449324
 40
0.5000000054
 40
0.5308550773
 40
0.5617207024
 40
0.592607327
 40
0.6235251824
 40
0.65448418
 40
0.6854938144
 40
0.7165630703
 40
0.7477003337
 40
0.7789133109
 40
0.8102089556
 40
0.8415934087
 40
0.8730719466
 40
0.904648937
 40
0.9363278032
 40
0.9681109992
 40
1.0
 40
1.0
 40
1.0
 40
1.0
 10
8.9907466103
 20
7.4921346604
 30
0.0
 10
8.9907466103
 20
7.5010062017
 30
0.0
 10
8.9911712369
 20
7.5187231488
 30
0.0
 10
8.9930877937
 20
7.5451908018
 30
0.0
 10
8.9962788663
 20
7.5714486329
 30
0.0
 10
9.0007368439
 20
7.5974350408
 30
0.0
 10
9.0064517347
 20
7.6230905788
 30
0.0
 10
9.0134103574
 20
7.6483559461
 30
0.0
 10
9.0215967227
 20
7.6731729361
 30
0.0
 10
9.0309920045
 20
7.6974843187
 30
0.0
 10
9.0415745882
 20
7.721234027
 30
0.0
 10
9.053320139
 20
7.7443672727
 30
0.0
 10
9.066201622
 20
7.7668306829
 30
0.0
 10
9.0801893383
 20
7.7885724482
 30
0.0
 10
9.0952510505
 20
7.8095424133
 30
0.0
 10
9.1113520436
 20
7.8296921971
 30
0.0
 10
9.128455213
 20
7.848975296
 30
0.0
 10
9.1465211196
 20
7.8673472166
 30
0.0
 10
9.1655080731
 20
7.8847655977
 30
0.0
 10
9.1853722723
 20
7.9011902685
 30
0.0
 10
9.2060678947
 20
7.9165833502
 30
0.0
 10
9.2275472091
 20
7.9309093309
 30
0.0
 10
9.2497606566
 20
7.9441351901
 30
0.0
 10
9.2726569758
 20
7.9562304743
 30
0.0
 10
9.2961833469
 20
7.9671673282
 30
0.0
 10
9.3202855052
 20
7.9769205673
 30
0.0
 10
9.3449078691
 20
7.9854677213
 30
0.0
 10
9.3699936495
 20
7.9927891432
 30
0.0
 10
9.395484991
 20
7.9988680299
 30
0.0
 10
9.4213231386
 20
8.003690428
 30
0.0
 10
9.4474484769
 20
8.0072452757
 30
0.0
 10
9.4738010073
 20
8.0095244066
 30
0.0
 10
9.5003191966
 20
8.0105226673
 30
0.0
 10
9.5180401556
 20
8.0103330451
 30
0.0
 10
9.5269064837
 20
8.0100256024
 30
0.0
  0
SPLINE
  5
3A0
100
AcDbEntity
  8
0
100
AcDbSpline
 62
7
  6
CONTINUOUS
 70
0
 71
3
 72
39
 73
35
 74
0
 42
0.0000001
 43
0.0000001
 44
0.0000000001
 40
0.0
 40
0.0
 40
0.0
 40
0.0
 40
0.0319042764
 40
0.0637061104
 40
0.0954046863
 40
0.1270037397
 40
0.1585059846
 40
0.1899156077
 40
0.2212375786
 40
0.2524776528
 40
0.283642382
 40
0.3147390198
 40
0.3457754744
 40
0.3767602341
 40
0.4077022858
 40
0.4386110297
 40
0.4694961897
 40
0.500367722
 40
0.5312357173
 40
0.5621103003
 40
0.5930015297
 40
0.6239193007
 40
0.6548732512
 40
0.6858726675
 40
0.7169263946
 40
0.7480427513
 40
0.7792294558
 40
0.8104935581
 40
0.8418413765
 40
0.873278442
 40
0.904809452
 40
0.9364382397
 40
0.9681677461
 40
1.0
 40
1.0
 40
1.0
 40
1.0
 10
9.0621806394
 20
7.5241576495
 30
0.0
 10
9.0621806394
 20
7.5322816445
 30
0.0
 10
9.0625612061
 20
7.5485061843
 30
0.0
 10
9.0642787782
 20
7.5727476115
 30
0.0
 10
9.0671387098
 20
7.596803321
 30
0.0
 10
9.0711344377
 20
7.6206192265
 30
0.0
 10
9.0762574108
 20
7.6441431769
 30
0.0
 10
9.0824962972
 20
7.6673230935
 30
0.0
 10
9.0898373552
 20
7.6901078359
 30
0.0
 10
9.0982644271
 20
7.7124470843
 30
0.0
 10
9.1077589541
 20
7.7342914951
 30
0.0
 10
9.1183000385
 20
7.7555928017
 30
0.0
 10
9.1298644064
 20
7.7763039579
 30
0.0
 10
9.1424265364
 20
7.7963792136
 30
0.0
 10
9.1559587102
 20
7.8157742141
 30
0.0
 10
9.1704310807
 20
7.834446088
 30
0.0
 10
9.1858116908
 20
7.8523535775
 30
0.0
 10
9.2020665506
 20
7.8694571362
 30
0.0
 10
9.219159756
 20
7.8857189809
 30
0.0
 10
9.2370535563
 20
7.9011031802
 30
0.0
 10
9.2557084366
 20
7.9155757304
 30
0.0
 10
9.2750831589
 20
7.9291046958
 30
0.0
 10
9.2951349093
 20
7.9416602185
 30
0.0
 10
9.3158193879
 20
7.9532145861
 30
0.0
 10
9.3370909096
 20
7.9637422789
 30
0.0
 10
9.3589024777
 20
7.9732200776
 30
0.0
 10
9.3812058976
 20
7.9816271146
 30
0.0
 10
9.4039519083
 20
7.9889448686
 30
0.0
 10
9.4270902773
 20
7.9951572139
 30
0.0
 10
9.4505699291
 20
8.0002504526
 30
0.0
 10
9.4743389636
 20
8.0042134207
 30
0.0
 10
9.4983450962
 20
8.0070374288
 30
0.0
 10
9.5225346349
 20
8.0087163071
 30
0.0
 10
9.5387230871
 20
8.0090690728
 30
0.0
 10
9.5468287299
 20
8.0090547595
 30
0.0
  0
SPLINE
  5
3A1
100
AcDbEntity
  8
0
100
AcDbSpline
 62
7
  6
CONTINUOUS
 70
0
 71
3
 72
23
 73
19
 74
0
 42
0.0000001
 43
0.0000001
 44
0.0000000001
 40
0.0
 40
0.0
 40
0.0
 40
0.0
 40
0.0637769127
 40
0.127344953
 40
0.1907019652
 40
0.2538561227
 40
0.3168132057
 40
0.3795820872
 40
0.4421733866
 40
0.5045993385
 40
0.5668738691
 40
0.6290123824
 40
0.6910316505
 40
0.7529496453
 40
0.8147853569
 40
0.8765586065
 40
0.9382898561
 40
1.0
 40
1.0
 40
1.0
 40
1.0
 10
9.1203841965
 20
7.5328549604
 30
0.0
 10
9.1203841965
 20
7.5404227425
 30
0.0
 10
9.1207464344
 20
7.5555360858
 30
0.0
 10
9.1223813224
 20
7.5781141514
 30
0.0
 10
9.1251034575
 20
7.6005132576
 30
0.0
 10
9.1289062976
 20
7.6226807901
 30
0.0
 10
9.1337813647
 20
7.6445660834
 30
0.0
 10
9.1397173836
 20
7.6661185454
 30
0.0
 10
9.1467006997
 20
7.6872885253
 30
0.0
 10
9.1547152737
 20
7.7080272041
 30
0.0
 10
9.1637426956
 20
7.7282867376
 30
0.0
 10
9.173762189
 20
7.7480203949
 30
0.0
 10
9.1847506482
 20
7.7671826675
 30
0.0
 10
9.1966827714
 20
7.7857293622
 30
0.0
 10
9.2095310474
 20
7.8036176363
 30
0.0
 10
9.223266018
 20
7.8208063502
 30
0.0
 10
9.2378554456
 20
7.8372553278
 30
0.0
 10
9.2481308555
 20
7.8477048097
 30
0.0
 10
9.2533976359
 20
7.8527921076
 30
0.0
  0
SPLINE
  5
3A2
100
AcDbEntity
  8
0
100
AcDbSpline
 62
7
  6
CONTINUOUS
 70
0
 71
3
 72
42
 73
38
 74
0
 42
0.0000001
 43
0.0000001
 44
0.0000000001
 40
0.0
 40
0.0
 40
0.0
 40
0.0
 40
0.0308949281
 40
0.046396413
 40
0.0619317869
 40
0.0930993824
 40
0.1243958062
 40
0.1558133179
 40
0.1873421193
 40
0.2189706677
 40
0.2506858342
 40
0.2824731344
 40
0.3143169611
 40
0.3462008323
 40
0.3781076494
 40
0.4100199612
 40
0.4419202322
 40
0.4737911117
 40
0.5056157007
 40
0.5373778142
 40
0.569062236
 40
0.600654962
 40
0.6321434299
 40
0.6635167314
 40
0.6947658046
 40
0.7258836007
 40
0.7568652249
 40
0.7877080445
 40
0.8184117639
 40
0.8489784606
 40
0.8642138432
 40
0.8794168365
 40
0.9097251525
 40
0.9399166696
 40
0.9549742009
 40
0.9700068912
 40
1.0
 40
1.0
 40
1.0
 40
1.0
 10
9.3065983899
 20
7.7127240698
 30
0.0
 10
9.3065983899
 20
7.7024067733
 30
0.0
 10
9.3071049393
 20
7.6869067468
 30
0.0
 10
9.308780118
 20
7.6662901886
 30
0.0
 10
9.3111275441
 20
7.6456469406
 30
0.0
 10
9.3153141275
 20
7.6199184484
 30
0.0
 10
9.3223075806
 20
7.5893359121
 30
0.0
 10
9.3312464578
 20
7.5591381875
 30
0.0
 10
9.342092607
 20
7.5294541645
 30
0.0
 10
9.3547998698
 20
7.5004095639
 30
0.0
 10
9.369314206
 20
7.4721276432
 30
0.0
 10
9.385573935
 20
7.4447283449
 30
0.0
 10
9.4035099967
 20
7.4183278843
 30
0.0
 10
9.423046242
 20
7.3930382358
 30
0.0
 10
9.4440997553
 20
7.3689666698
 30
0.0
 10
9.4665812032
 20
7.3462152989
 30
0.0
 10
9.4903952111
 20
7.3248806498
 30
0.0
 10
9.5154407646
 20
7.3050532557
 30
0.0
 10
9.5416116342
 20
7.2868172759
 30
0.0
 10
9.5687968211
 20
7.2702501395
 30
0.0
 10
9.5968810248
 20
7.2554222185
 30
0.0
 10
9.6257451272
 20
7.2423965318
 30
0.0
 10
9.6552666925
 20
7.2312284774
 30
0.0
 10
9.6853204827
 20
7.2219655974
 30
0.0
 10
9.7157789761
 20
7.2146473733
 30
0.0
 10
9.7465129291
 20
7.2093050607
 30
0.0
 10
9.7773918183
 20
7.2059615361
 30
0.0
 10
9.8082847627
 20
7.2046312532
 30
0.0
 10
9.8390596877
 20
7.205319959
 30
0.0
 10
9.8645292159
 20
7.207577061
 30
0.0
 10
9.8847102061
 20
7.2103878642
 30
0.0
 10
9.9047009838
 20
7.2138568931
 30
0.0
 10
9.9293804232
 20
7.219431179
 30
0.0
 10
9.9535797932
 20
7.2266489728
 30
0.0
 10
9.9725545753
 20
7.2333838482
 30
0.0
 10
9.9912255057
 20
7.2407390707
 30
0.0
 10
10.0049275723
 20
7.2469691358
 30
0.0
 10
10.0138966988
 20
7.2514275824
 30
0.0
  0
SPLINE
  5
3A3
100
AcDbEntity
  8
0
100
AcDbSpline
 62
7
  6
CONTINUOUS
 70
0
 71
3
 72
17
 73
13
 74
0
 42
0.0000001
 43
0.0000001
 44
0.0000000001
 40
0.0
 40
0.0
 40
0.0
 40
0.0
 40
0.1266890563
 40
0.2528531227
 40
0.3785031949
 40
0.4411488537
 40
0.503673749
 40
0.628361226
 40
0.7526143056
 40
0.8145979886
 40
0.8764887225
 40
1.0
 40
1.0
 40
1.0
 40
1.0
 10
9.3065983899
 20
7.7127240698
 30
0.0
 10
9.3065983899
 20
7.7221995955
 30
0.0
 10
9.3071660886
 20
7.7411165433
 30
0.0
 10
9.3097300456
 20
7.7693260962
 30
0.0
 10
9.3132886801
 20
7.7925913692
 30
0.0
 10
9.3169804588
 20
7.8109869006
 30
0.0
 10
9.3212229713
 20
7.8291894186
 30
0.0
 10
9.3275649815
 20
7.851621776
 30
0.0
 10
9.3352840581
 20
7.8735756193
 30
0.0
 10
9.3422614594
 20
7.8907754172
 30
0.0
 10
9.349755645
 20
7.9076950255
 30
0.0
 10
9.3559726709
 20
7.9201038832
 30
0.0
 10
9.3603718728
 20
7.92822699
 30
0.0
  0
SPLINE
  5
3A4
100
AcDbEntity
  8
0
100
AcDbSpline
 62
7
  6
CONTINUOUS
 70
0
 71
3
 72
71
 73
67
 74
0
 42
0.0000001
 43
0.0000001
 44
0.0000000001
 40
0.0
 40
0.0
 40
0.0
 40
0.0
 40
0.0156373091
 40
0.0313279441
 40
0.047070274
 40
0.0628636381
 40
0.078706082
 40
0.0945954866
 40
0.1105292303
 40
0.1265042948
 40
0.1425172941
 40
0.1585644989
 40
0.1746418765
 40
0.1907451255
 40
0.2068697168
 40
0.2230109349
 40
0.2391639194
 40
0.2553237067
 40
0.2714852734
 40
0.2876435805
 40
0.303793618
 40
0.3199304487
 40
0.3360492499
 40
0.352145356
 40
0.3682143008
 40
0.3842518584
 40
0.4002540817
 40
0.4162173386
 40
0.4321383463
 40
0.4480142041
 40
0.4638424239
 40
0.4796209569
 40
0.4953482152
 40
0.5110230909
 40
0.5266449715
 40
0.542213752
 40
0.5577298409
 40
0.5731941611
 40
0.5886081449
 40
0.6039737253
 40
0.6192933221
 40
0.6345698229
 40
0.6498065561
 40
0.6650072607
 40
0.6801760497
 40
0.6953173703
 40
0.7104359595
 40
0.7255367956
 40
0.7406250456
 40
0.7557060104
 40
0.7707850684
 40
0.7858676182
 40
0.8009590217
 40
0.8160645466
 40
0.8311893099
 40
0.846338224
 40
0.8615159451
 40
0.8767268271
 40
0.8919748765
 40
0.9072637177
 40
0.9225965501
 40
0.9379761169
 40
0.9534047581
 40
0.9688840326
 40
0.9844158132
 40
1.0
 40
1.0
 40
1.0
 40
1.0
 10
8.9907466103
 20
7.4921346604
 30
0.0
 10
8.9907466103
 20
7.4830323847
 30
0.0
 10
8.9911951071
 20
7.464793694
 30
0.0
 10
8.9932034448
 20
7.4374581264
 30
0.0
 10
8.9965439059
 20
7.4101611031
 30
0.0
 10
9.0012080849
 20
7.3829694907
 30
0.0
 10
9.0071849029
 20
7.3559483055
 30
0.0
 10
9.0144598432
 20
7.329162759
 30
0.0
 10
9.023015364
 20
7.3026772914
 30
0.0
 10
9.0328308026
 20
7.2765556621
 30
0.0
 10
9.0438824852
 20
7.2508607425
 30
0.0
 10
9.0561437776
 20
7.2256543779
 30
0.0
 10
9.0695851478
 20
7.2009972428
 30
0.0
 10
9.0841742203
 20
7.1769486873
 30
0.0
 10
9.0998758371
 20
7.1535665804
 30
0.0
 10
9.116652182
 20
7.1309071933
 30
0.0
 10
9.1344628625
 20
7.1090250624
 30
0.0
 10
9.1532650077
 20
7.0879728616
 30
0.0
 10
9.1730133685
 20
7.0678012778
 30
0.0
 10
9.1936603935
 20
7.0485588548
 30
0.0
 10
9.2151563798
 20
7.0302919075
 30
0.0
 10
9.2374495904
 20
7.0130444129
 30
0.0
 10
9.260486375
 20
6.9968579046
 30
0.0
 10
9.2842113016
 20
6.981771381
 30
0.0
 10
9.308567265
 20
6.9678211746
 30
0.0
 10
9.3334956381
 20
6.955040878
 30
0.0
 10
9.3589364235
 20
6.9434612845
 30
0.0
 10
9.3848283907
 20
6.9331103085
 30
0.0
 10
9.4111092235
 20
6.9240129259
 30
0.0
 10
9.4377156606
 20
6.9161910923
 30
0.0
 10
9.4645836448
 20
6.9096636692
 30
0.0
 10
9.4916484906
 20
6.9044464205
 30
0.0
 10
9.5188450338
 20
6.9005519673
 30
0.0
 10
9.5461077853
 20
6.8979897592
 30
0.0
 10
9.5733710868
 20
6.8967660501
 30
0.0
 10
9.6005692668
 20
6.8968838333
 30
0.0
 10
9.6276368055
 20
6.898342881
 30
0.0
 10
9.6545084878
 20
6.9011397445
 30
0.0
 10
9.6811195586
 20
6.9052677587
 30
0.0
 10
9.7074058753
 20
6.9107170646
 30
0.0
 10
9.7333040715
 20
6.9174745853
 30
0.0
 10
9.7587517119
 20
6.9255240778
 30
0.0
 10
9.7836874362
 20
6.9348461928
 30
0.0
 10
9.8080511074
 20
6.9454185127
 30
0.0
 10
9.8317839532
 20
6.9572156099
 30
0.0
 10
9.8548287183
 20
6.9702090848
 30
0.0
 10
9.8771298195
 20
6.9843676168
 30
0.0
 10
9.89863346
 20
6.9996570818
 30
0.0
 10
9.9192877619
 20
7.016040625
 30
0.0
 10
9.9390428911
 20
7.0334787516
 30
0.0
 10
9.9578511772
 20
7.0519294196
 30
0.0
 10
9.9756672675
 20
7.071348108
 30
0.0
 10
9.9924482052
 20
7.0916879647
 30
0.0
 10
10.0081535318
 20
7.1128999193
 30
0.0
 10
10.0227453854
 20
7.1349328013
 30
0.0
 10
10.0361885842
 20
7.1577334666
 30
0.0
 10
10.0484507516
 20
7.1812469036
 30
0.0
 10
10.0595023768
 20
7.2054163836
 30
0.0
 10
10.069316868
 20
7.2301836098
 30
0.0
 10
10.0778706137
 20
7.2554888561
 30
0.0
 10
10.0851430318
 20
7.2812711
 30
0.0
 10
10.0911166785
 20
7.3074682225
 30
0.0
 10
10.0957771483
 20
7.3340169183
 30
0.0
 10
10.0991134892
 20
7.3608536477
 30
0.0
 10
10.1011174228
 20
7.387912622
 30
0.0
 10
10.1015613763
 20
7.4060280409
 30
0.0
 10
10.1015613763
 20
7.4150993948
 30
0.0
  0
SPLINE
  5
3A5
100
AcDbEntity
  8
0
100
AcDbSpline
 62
7
  6
CONTINUOUS
 70
0
 71
3
 72
69
 73
65
 74
0
 42
0.0000001
 43
0.0000001
 44
0.0000000001
 40
0.0
 40
0.0
 40
0.0
 40
0.0
 40
0.0156357209
 40
0.0313236382
 40
0.0470620645
 40
0.0628504811
 40
0.0786870366
 40
0.0945697456
 40
0.1104961603
 40
0.1264634495
 40
0.1424684389
 40
0.1585076262
 40
0.1745772181
 40
0.1906731632
 40
0.2067911894
 40
0.2229268396
 40
0.2390755089
 40
0.2552324828
 40
0.2713929784
 40
0.2875521842
 40
0.3198394603
 40
0.3520648101
 40
0.3681471526
 40
0.3842009417
 40
0.4002222597
 40
0.416207465
 40
0.4321532259
 40
0.4480565502
 40
0.4639148132
 40
0.4797257829
 40
0.495487645
 40
0.5111990235
 40
0.5268589954
 40
0.542467103
 40
0.5580233628
 40
0.5735282716
 40
0.5889828072
 40
0.6043884219
 40
0.6197470335
 40
0.6350610107
 40
0.650333157
 40
0.6655666855
 40
0.6807651901
 40
0.6959326123
 40
0.7110732038
 40
0.7261914877
 40
0.7412922127
 40
0.756380306
 40
0.771460823
 40
0.7865388957
 40
0.8016196818
 40
0.8167083118
 40
0.831809836
 40
0.8469291732
 40
0.8620710604
 40
0.8772400068
 40
0.8924402505
 40
0.907675716
 40
0.922949978
 40
0.9382662307
 40
0.9536272378
 40
0.9690353955
 40
0.9844925152
 40
1.0
 40
1.0
 40
1.0
 40
1.0
 10
9.0621806394
 20
7.5241576495
 30
0.0
 10
9.0621806394
 20
7.5158339545
 30
0.0
 10
9.0625814527
 20
7.4991560695
 30
0.0
 10
9.0643764625
 20
7.4741579322
 30
0.0
 10
9.0673623646
 20
7.4491915577
 30
0.0
 10
9.0715319476
 20
7.4243154057
 30
0.0
 10
9.0768757785
 20
7.3995862636
 30
0.0
 10
9.0833814587
 20
7.3750611527
 30
0.0
 10
9.0910339798
 20
7.3507964285
 30
0.0
 10
9.0998156987
 20
7.326847891
 30
0.0
 10
9.1097063844
 20
7.3032706036
 30
0.0
 10
9.1206832823
 20
7.2801187824
 30
0.0
 10
9.1327211333
 20
7.2574456638
 30
0.0
 10
9.1457922104
 20
7.2353033652
 30
0.0
 10
9.1598664373
 20
7.2137427872
 30
0.0
 10
9.1749114307
 20
7.1928135068
 30
0.0
 10
9.1908926377
 20
7.1725636272
 30
0.0
 10
9.2077731761
 20
7.1530398156
 30
0.0
 10
9.2255146914
 20
7.1342865554
 30
0.0
 10
9.2502522361
 20
7.1103777228
 30
0.0
 10
9.2831114323
 20
7.0826311083
 30
0.0
 10
9.3182934619
 20
7.0579661963
 30
0.0
 10
9.3476234192
 20
7.0402356988
 30
0.0
 10
9.370148534
 20
7.027974843
 30
0.0
 10
9.3931605469
 20
7.0167728212
 30
0.0
 10
9.4166070351
 20
7.0066550492
 30
0.0
 10
9.4404339518
 20
6.9976449054
 30
0.0
 10
9.4645865471
 20
6.9897631181
 30
0.0
 10
9.4890092766
 20
6.9830278677
 30
0.0
 10
9.5136459841
 20
6.9774547114
 30
0.0
 10
9.5384400023
 20
6.9730564961
 30
0.0
 10
9.5633343018
 20
6.9698433724
 30
0.0
 10
9.5882716194
 20
6.9678227823
 30
0.0
 10
9.6131945858
 20
6.966999439
 30
0.0
 10
9.6380458542
 20
6.9673753161
 30
0.0
 10
9.662768235
 20
6.9689495804
 30
0.0
 10
9.6873048305
 20
6.9717186539
 30
0.0
 10
9.7115991617
 20
6.9756762203
 30
0.0
 10
9.7355952943
 20
6.9808132404
 30
0.0
 10
9.7592379681
 20
6.9871179604
 30
0.0
 10
9.7824727404
 20
6.9945758892
 30
0.0
 10
9.8052460995
 20
7.0031698946
 30
0.0
 10
9.827505586
 20
7.0128802319
 30
0.0
 10
9.8491999097
 20
7.0236845948
 30
0.0
 10
9.8702790772
 20
7.0355581422
 30
0.0
 10
9.89069453
 20
7.0484735281
 30
0.0
 10
9.9103992291
 20
7.0624010191
 30
0.0
 10
9.929347768
 20
7.0773085499
 30
0.0
 10
9.9474964692
 20
7.0931618054
 30
0.0
 10
9.9648035106
 20
7.1099242678
 30
0.0
 10
9.9812290364
 20
7.1275572988
 30
0.0
 10
9.9967352135
 20
7.1460202672
 30
0.0
 10
10.0112863275
 20
7.1652706327
 30
0.0
 10
10.0248488517
 20
7.1852640502
 30
0.0
 10
10.0373915685
 20
7.2059544422
 30
0.0
 10
10.0488856346
 20
7.2272941199
 30
0.0
 10
10.0593046128
 20
7.2492339141
 30
0.0
 10
10.0686245417
 20
7.2717232827
 30
0.0
 10
10.0768239794
 20
7.2947104249
 30
0.0
 10
10.083884095
 20
7.3181423964
 30
0.0
 10
10.0897887275
 20
7.3419651857
 30
0.0
 10
10.0945243023
 20
7.3661241236
 30
0.0
 10
10.0980799627
 20
7.3905627928
 30
0.0
 10
10.0996558811
 20
7.4069790431
 30
0.0
 10
10.100245812
 20
7.4152133663
 30
0.0
  0
SPLINE
  5
3A6
100
AcDbEntity
  8
0
100
AcDbSpline
 62
7
  6
CONTINUOUS
 70
0
 71
3
 72
39
 73
35
 74
0
 42
0.0000001
 43
0.0000001
 44
0.0000000001
 40
0.0
 40
0.0
 40
0.0
 40
0.0
 40
0.0310753511
 40
0.0623079071
 40
0.0936931323
 40
0.1252222879
 40
0.1568840438
 40
0.1886642044
 40
0.2205461649
 40
0.2525112495
 40
0.2845391085
 40
0.3166081364
 40
0.3486959075
 40
0.3807796234
 40
0.4128365659
 40
0.4448445499
 40
0.4767823666
 40
0.5086302146
 40
0.540370109
 40
0.5719862657
 40
0.6034654504
 40
0.6347972851
 40
0.6659745049
 40
0.6969931576
 40
0.7278527402
 40
0.7585562639
 40
0.7891102404
 40
0.8195245852
 40
0.8498124376
 40
0.8799898966
 40
0.9100756756
 40
0.9400906817
 40
0.970057529
 40
1.0
 40
1.0
 40
1.0
 40
1.0
 10
9.1203841965
 20
7.5328549604
 30
0.0
 10
9.1203841965
 20
7.5211134909
 30
0.0
 10
9.1212600818
 20
7.4975621184
 30
0.0
 10
9.1251707347
 20
7.4623478006
 30
0.0
 10
9.1316594536
 20
7.4273402629
 30
0.0
 10
9.1406903942
 20
7.3927342152
 30
0.0
 10
9.1522135404
 20
7.3587190411
 30
0.0
 10
9.1661653872
 20
7.3254816139
 30
0.0
 10
9.1824690887
 20
7.2932042909
 30
0.0
 10
9.2010349407
 20
7.262064191
 30
0.0
 10
9.2217608856
 20
7.2322321715
 30
0.0
 10
9.2445330661
 20
7.2038719237
 30
0.0
 10
9.2692264448
 20
7.1771390808
 30
0.0
 10
9.2957054842
 20
7.1521803792
 30
0.0
 10
9.3238248539
 20
7.1291328281
 30
0.0
 10
9.3534302501
 20
7.108122989
 30
0.0
 10
9.3843592331
 20
7.0892662921
 30
0.0
 10
9.4164421054
 20
7.0726664066
 30
0.0
 10
9.4495028309
 20
7.0584146803
 30
0.0
 10
9.4833599775
 20
7.0465896188
 30
0.0
 10
9.5178276992
 20
7.0372564368
 30
0.0
 10
9.5527167557
 20
7.0304667313
 30
0.0
 10
9.587835531
 20
7.0262581839
 30
0.0
 10
9.6229910701
 20
7.0246543425
 30
0.0
 10
9.6579901243
 20
7.0256644813
 30
0.0
 10
9.6926402053
 20
7.0292834839
 30
0.0
 10
9.7267506429
 20
7.0354918815
 30
0.0
 10
9.7601336332
 20
7.0442559477
 30
0.0
 10
9.7926052603
 20
7.0555278382
 30
0.0
 10
9.8239865803
 20
7.0692458944
 30
0.0
 10
9.8541043981
 20
7.085334714
 30
0.0
 10
9.8827931332
 20
7.1037063847
 30
0.0
 10
9.9098925039
 20
7.1242578276
 30
0.0
 10
9.9268068004
 20
7.1393434369
 30
0.0
 10
9.9349440488
 20
7.1472033823
 30
0.0
  0
SPLINE
  5
3A7
100
AcDbEntity
  8
0
100
AcDbSpline
 62
7
  6
CONTINUOUS
 70
0
 71
3
 72
37
 73
33
 74
0
 42
0.0000001
 43
0.0000001
 44
0.0000000001
 40
0.0
 40
0.0
 40
0.0
 40
0.0
 40
0.0063161056
 40
0.0126711335
 40
0.0191032106
 40
0.0256489991
 40
0.0392093745
 40
0.0536077711
 40
0.0690451722
 40
0.0856788319
 40
0.1036274206
 40
0.1229778506
 40
0.1437911075
 40
0.1661074541
 40
0.1899507493
 40
0.2153311921
 40
0.2422480356
 40
0.270691432
 40
0.3006435247
 40
0.3320799515
 40
0.3649704769
 40
0.399279593
 40
0.4349674002
 40
0.4719897169
 40
0.5102986224
 40
0.5498429193
 40
0.590568095
 40
0.6324168879
 40
0.7192412156
 40
0.8098111096
 40
0.903585601
 40
1.0
 40
1.0
 40
1.0
 40
1.0
 10
12.5933661977
 20
9.0980987483
 30
0.0
 10
12.5940262137
 20
9.0980529709
 30
0.0
 10
12.5953471967
 20
9.0979071074
 30
0.0
 10
12.5973138431
 20
9.0975268996
 30
0.0
 10
12.5992674039
 20
9.0969853006
 30
0.0
 10
12.6018832718
 20
9.0960378055
 30
0.0
 10
12.6051336433
 20
9.0944269338
 30
0.0
 10
12.6089112417
 20
9.0918781987
 30
0.0
 10
12.6126098101
 20
9.0886989353
 30
0.0
 10
12.6162252608
 20
9.0848963958
 30
0.0
 10
12.6197543819
 20
9.0804773105
 30
0.0
 10
12.6231930279
 20
9.0754486557
 30
0.0
 10
12.6265367734
 20
9.0698181667
 30
0.0
 10
12.6297808916
 20
9.0635945173
 30
0.0
 10
12.6329204305
 20
9.0567873731
 30
0.0
 10
12.6359505159
 20
9.0494074956
 30
0.0
 10
12.6388662823
 20
9.0414666569
 30
0.0
 10
12.6416629413
 20
9.032977629
 30
0.0
 10
12.6443359455
 20
9.0239541768
 30
0.0
 10
12.6468808461
 20
9.0144109818
 30
0.0
 10
12.6492934114
 20
9.0043636313
 30
0.0
 10
12.651569667
 20
8.9938285831
 30
0.0
 10
12.6537057839
 20
8.9828231168
 30
0.0
 10
12.6556982206
 20
8.9713653157
 30
0.0
 10
12.657543675
 20
8.9594740226
 30
0.0
 10
12.6592390253
 20
8.9471688124
 30
0.0
 10
12.6607815154
 20
8.9344699314
 30
0.0
 10
12.6626537532
 20
8.9168242206
 30
0.0
 10
12.6645786898
 20
8.8939364847
 30
0.0
 10
12.6662185491
 20
8.8655764869
 30
0.0
 10
12.6672042582
 20
8.8361813756
 30
0.0
 10
12.6674181942
 20
8.8162586318
 30
0.0
 10
12.6674181942
 20
8.8061593834
 30
0.0
  0
SPLINE
  5
3A8
100
AcDbEntity
  8
0
100
AcDbSpline
 62
7
  6
CONTINUOUS
 70
0
 71
3
 72
37
 73
33
 74
0
 42
0.0000001
 43
0.0000001
 44
0.0000000001
 40
0.0
 40
0.0
 40
0.0
 40
0.0
 40
0.0063161056
 40
0.0126711335
 40
0.0191032106
 40
0.0256489991
 40
0.0392093745
 40
0.0536077711
 40
0.0690451722
 40
0.0856788319
 40
0.1036274206
 40
0.1229778506
 40
0.1437911075
 40
0.1661074541
 40
0.1899507493
 40
0.2153311921
 40
0.2422480356
 40
0.270691432
 40
0.3006435247
 40
0.3320799515
 40
0.3649704769
 40
0.399279593
 40
0.4349674002
 40
0.4719897169
 40
0.5102986224
 40
0.5498429193
 40
0.590568095
 40
0.6324168879
 40
0.7192412156
 40
0.8098111096
 40
0.903585601
 40
1.0
 40
1.0
 40
1.0
 40
1.0
 10
12.5933661977
 20
6.9247655104
 30
0.0
 10
12.5940262137
 20
6.9247197329
 30
0.0
 10
12.5953471967
 20
6.9245738695
 30
0.0
 10
12.5973138431
 20
6.9241936616
 30
0.0
 10
12.5992674039
 20
6.9236520627
 30
0.0
 10
12.6018832718
 20
6.9227045676
 30
0.0
 10
12.6051336433
 20
6.9210936959
 30
0.0
 10
12.6089112417
 20
6.9185449608
 30
0.0
 10
12.6126098101
 20
6.9153656973
 30
0.0
 10
12.6162252608
 20
6.9115631579
 30
0.0
 10
12.6197543819
 20
6.9071440725
 30
0.0
 10
12.6231930279
 20
6.9021154178
 30
0.0
 10
12.6265367734
 20
6.8964849287
 30
0.0
 10
12.6297808916
 20
6.8902612794
 30
0.0
 10
12.6329204305
 20
6.8834541351
 30
0.0
 10
12.6359505159
 20
6.8760742577
 30
0.0
 10
12.6388662823
 20
6.868133419
 30
0.0
 10
12.6416629413
 20
6.859644391
 30
0.0
 10
12.6443359455
 20
6.8506209389
 30
0.0
 10
12.6468808461
 20
6.8410777439
 30
0.0
 10
12.6492934114
 20
6.8310303934
 30
0.0
 10
12.651569667
 20
6.8204953452
 30
0.0
 10
12.6537057839
 20
6.8094898788
 30
0.0
 10
12.6556982206
 20
6.7980320777
 30
0.0
 10
12.657543675
 20
6.7861407847
 30
0.0
 10
12.6592390253
 20
6.7738355745
 30
0.0
 10
12.6607815154
 20
6.7611366935
 30
0.0
 10
12.6626537532
 20
6.7434909826
 30
0.0
 10
12.6645786898
 20
6.7206032468
 30
0.0
 10
12.6662185491
 20
6.692243249
 30
0.0
 10
12.6672042582
 20
6.6628481377
 30
0.0
 10
12.6674181942
 20
6.6429253939
 30
0.0
 10
12.6674181942
 20
6.6328261455
 30
0.0
  0
SPLINE
  5
3A9
100
AcDbEntity
  8
0
100
AcDbSpline
 62
7
  6
CONTINUOUS
 70
0
 71
3
 72
14
 73
10
 74
0
 42
0.0000001
 43
0.0000001
 44
0.0000000001
 40
0.0
 40
0.0
 40
0.0
 40
0.0
 40
0.1418492473
 40
0.2785544219
 40
0.4101866558
 40
0.5368901553
 40
0.6588866556
 40
0.7764762675
 40
1.0
 40
1.0
 40
1.0
 40
1.0
 10
11.154285872
 20
7.6969510853
 30
0.0
 10
11.1500185314
 20
7.6985819341
 30
0.0
 10
11.1416102861
 20
7.7017113885
 30
0.0
 10
11.1291273145
 20
7.7060385101
 30
0.0
 10
11.116992447
 20
7.7098676259
 30
0.0
 10
11.1051905459
 20
7.7131557336
 30
0.0
 10
11.0937033854
 20
7.7158606994
 30
0.0
 10
11.0790377415
 20
7.7185865687
 30
0.0
 10
11.0680718382
 20
7.7197158133
 30
0.0
 10
11.0608762619
 20
7.7199291669
 30
0.0
  0
SPLINE
  5
3AA
100
AcDbEntity
  8
0
100
AcDbSpline
 62
7
  6
CONTINUOUS
 70
0
 71
3
 72
58
 73
54
 74
0
 42
0.0000001
 43
0.0000001
 44
0.0000000001
 40
0.0
 40
0.0
 40
0.0
 40
0.0
 40
0.0094088792
 40
0.0193696315
 40
0.0299058192
 40
0.0410360303
 40
0.052772772
 40
0.0651227069
 40
0.0780879058
 40
0.0916665102
 40
0.1058527843
 40
0.1206378556
 40
0.1360095278
 40
0.151953037
 40
0.1684507027
 40
0.1854824881
 40
0.2030258965
 40
0.2210560771
 40
0.2584667577
 40
0.2974745121
 40
0.337809078
 40
0.3791744886
 40
0.4212542427
 40
0.4637166008
 40
0.5062212898
 40
0.5484297156
 40
0.5900109793
 40
0.6306480867
 40
0.6700440096
 40
0.7079267491
 40
0.7440535136
 40
0.761391694
 40
0.7782149099
 40
0.7945025203
 40
0.8102363509
 40
0.8254008225
 40
0.8399831171
 40
0.853973369
 40
0.8673649181
 40
0.880154613
 40
0.8923431864
 40
0.9039357183
 40
0.9149422275
 40
0.925378319
 40
0.9352659407
 40
0.9446342912
 40
0.9535207593
 40
0.9619719089
 40
0.9700441068
 40
0.9778037045
 40
0.9853263936
 40
0.9926956835
 40
1.0
 40
1.0
 40
1.0
 40
1.0
 10
11.154285872
 20
7.6969510853
 30
0.0
 10
11.1556525801
 20
7.6964287707
 30
0.0
 10
11.1584292003
 20
7.6952550731
 30
0.0
 10
11.1625994289
 20
7.6931919263
 30
0.0
 10
11.1668896859
 20
7.6907833269
 30
0.0
 10
11.1712998582
 20
7.6880360947
 30
0.0
 10
11.1758302539
 20
7.6849571706
 30
0.0
 10
11.1804809709
 20
7.6815542856
 30
0.0
 10
11.1852519457
 20
7.6778357791
 30
0.0
 10
11.1901429376
 20
7.6738106342
 30
0.0
 10
11.1951535501
 20
7.6694884948
 30
0.0
 10
11.2002830044
 20
7.6648795663
 30
0.0
 10
11.2055302959
 20
7.6599947336
 30
0.0
 10
11.2108939316
 20
7.6548454205
 30
0.0
 10
11.2163720525
 20
7.6494436705
 30
0.0
 10
11.2219622301
 20
7.6438020485
 30
0.0
 10
11.2276615472
 20
7.6379337073
 30
0.0
 10
11.2354978364
 20
7.6297238281
 30
0.0
 10
11.2455189999
 20
7.6189860202
 30
0.0
 10
11.2577632749
 20
7.6055804928
 30
0.0
 10
11.2703149724
 20
7.5916237372
 30
0.0
 10
11.2831074821
 20
7.5772415606
 30
0.0
 10
11.2960618767
 20
7.5625607872
 30
0.0
 10
11.309087723
 20
7.547706931
 30
0.0
 10
11.3220847315
 20
7.5328012766
 30
0.0
 10
11.3349448175
 20
7.5179581307
 30
0.0
 10
11.3475546065
 20
7.5032825537
 30
0.0
 10
11.3597976253
 20
7.4888687824
 30
0.0
 10
11.3715568024
 20
7.4747992187
 30
0.0
 10
11.3827165371
 20
7.4611439299
 30
0.0
 10
11.3915404816
 20
7.4500110695
 30
0.0
 10
11.3981981942
 20
7.4413424215
 30
0.0
 10
11.402904063
 20
7.4350653169
 30
0.0
 10
11.4073788906
 20
7.4289275886
 30
0.0
 10
11.4116107827
 20
7.4229329324
 30
0.0
 10
11.4155883872
 20
7.417084582
 30
0.0
 10
11.4193008806
 20
7.4113853276
 30
0.0
 10
11.4227379983
 20
7.4058375773
 30
0.0
 10
11.4258900544
 20
7.4004434096
 30
0.0
 10
11.4287479596
 20
7.3952046246
 30
0.0
 10
11.4313032337
 20
7.3901227933
 30
0.0
 10
11.4335480148
 20
7.3851992992
 30
0.0
 10
11.4354750614
 20
7.3804353877
 30
0.0
 10
11.4370778013
 20
7.3758322309
 30
0.0
 10
11.4383501057
 20
7.371390925
 30
0.0
 10
11.439286691
 20
7.3671126805
 30
0.0
 10
11.4398824975
 20
7.3629987427
 30
0.0
 10
11.4401333245
 20
7.3590506556
 30
0.0
 10
11.4400352709
 20
7.3552703072
 30
0.0
 10
11.4395852636
 20
7.3516602616
 30
0.0
 10
11.4387810182
 20
7.3482236211
 30
0.0
 10
11.4376217316
 20
7.3449649692
 30
0.0
 10
11.4366115449
 20
7.3429122298
 30
0.0
 10
11.4360518105
 20
7.3419238744
 30
0.0
  0
SPLINE
  5
3AB
100
AcDbEntity
  8
0
100
AcDbSpline
 62
7
  6
CONTINUOUS
 70
0
 71
3
 72
14
 73
10
 74
0
 42
0.0000001
 43
0.0000001
 44
0.0000000001
 40
0.0
 40
0.0
 40
0.0
 40
0.0
 40
0.2433119734
 40
0.3677317065
 40
0.4934166803
 40
0.6199363934
 40
0.7468432759
 40
0.8736823678
 40
1.0
 40
1.0
 40
1.0
 40
1.0
 10
11.06428325
 20
7.5913110809
 30
0.0
 10
11.0587313744
 20
7.5786167055
 30
0.0
 10
11.0517066183
 20
7.5587990631
 30
0.0
 10
11.0449551873
 20
7.531512614
 30
0.0
 10
11.0411525839
 20
7.5103891017
 30
0.0
 10
11.0386803134
 20
7.488928809
 30
0.0
 10
11.0375560317
 20
7.46728937
 30
0.0
 10
11.0377882393
 20
7.4456345384
 30
0.0
 10
11.0388498955
 20
7.4312462869
 30
0.0
 10
11.0396081524
 20
7.424093237
 30
0.0
  0
SPLINE
  5
3AC
100
AcDbEntity
  8
0
100
AcDbSpline
 62
7
  6
CONTINUOUS
 70
0
 71
3
 72
15
 73
11
 74
0
 42
0.0000001
 43
0.0000001
 44
0.0000000001
 40
0.0
 40
0.0
 40
0.0
 40
0.0
 40
0.1359180657
 40
0.2689686323
 40
0.3989317241
 40
0.5256527768
 40
0.6490587569
 40
0.7691637911
 40
0.8860743664
 40
1.0
 40
1.0
 40
1.0
 40
1.0
 10
11.06428325
 20
7.5913110809
 30
0.0
 10
11.066846733
 20
7.5971724903
 30
0.0
 10
11.0723065298
 20
7.6086074858
 30
0.0
 10
11.0815657909
 20
7.6249604259
 30
0.0
 10
11.0917530368
 20
7.6402366848
 30
0.0
 10
11.1028002929
 20
7.6543320515
 30
0.0
 10
11.1146340863
 20
7.6671511635
 30
0.0
 10
11.1271764356
 20
7.6786068332
 30
0.0
 10
11.1403420498
 20
7.6886195227
 30
0.0
 10
11.149592287
 20
7.6943578887
 30
0.0
 10
11.154285872
 20
7.6969510853
 30
0.0
  0
SPLINE
  5
3AD
100
AcDbEntity
  8
0
100
AcDbSpline
 62
7
  6
CONTINUOUS
 70
0
 71
3
 72
44
 73
40
 74
0
 42
0.0000001
 43
0.0000001
 44
0.0000000001
 40
0.0
 40
0.0
 40
0.0
 40
0.0
 40
0.0149691607
 40
0.0299409607
 40
0.0449180241
 40
0.059902949
 40
0.0748982916
 40
0.089906552
 40
0.1049301648
 40
0.1199714839
 40
0.1350327691
 40
0.1501161795
 40
0.1803524769
 40
0.2107001834
 40
0.2411718481
 40
0.2717775352
 40
0.3025246533
 40
0.3334178464
 40
0.3644589455
 40
0.3956469727
 40
0.4269781962
 40
0.45844624
 40
0.4900422354
 40
0.5217550079
 40
0.5535713037
 40
0.5854760462
 40
0.6174526129
 40
0.6494831348
 40
0.6815488132
 40
0.7136302457
 40
0.7457077595
 40
0.777761749
 40
0.8097730118
 40
0.8417230812
 40
0.8735945467
 40
0.9053713652
 40
0.9370391836
 40
0.9685853377
 40
1.0
 40
1.0
 40
1.0
 40
1.0
 10
11.7453486819
 20
6.7053387157
 30
0.0
 10
11.7386068226
 20
6.6988265767
 30
0.0
 10
11.7248801097
 20
6.6860488321
 30
0.0
 10
11.7035946378
 20
6.6676535261
 30
0.0
 10
11.681637113
 20
6.6500494621
 30
0.0
 10
11.659033996
 20
6.6332578413
 30
0.0
 10
11.6358119585
 20
6.6172985844
 30
0.0
 10
11.6119986489
 20
6.6021906
 30
0.0
 10
11.5876223087
 20
6.5879517746
 30
0.0
 10
11.5627119509
 20
6.5745991325
 30
0.0
 10
11.5372967395
 20
6.5621482813
 30
0.0
 10
11.5027536159
 20
6.546758594
 30
0.0
 10
11.4584447452
 20
6.5298466065
 30
0.0
 10
11.4038031947
 20
6.5133926813
 30
0.0
 10
11.3478985278
 20
6.5008363865
 30
0.0
 10
11.2909981086
 20
6.492237735
 30
0.0
 10
11.2333716372
 20
6.4876367561
 30
0.0
 10
11.1752927533
 20
6.4870547301
 30
0.0
 10
11.1170369487
 20
6.4904938746
 30
0.0
 10
11.0588805004
 20
6.4979373963
 30
0.0
 10
11.0010990893
 20
6.5093494318
 30
0.0
 10
10.9439665344
 20
6.5246754186
 30
0.0
 10
10.8877535311
 20
6.5438423628
 30
0.0
 10
10.8327263336
 20
6.5667590306
 30
0.0
 10
10.7791455299
 20
6.5933164988
 30
0.0
 10
10.7272648643
 20
6.6233887347
 30
0.0
 10
10.6773300035
 20
6.6568330819
 30
0.0
 10
10.6295773564
 20
6.6934909191
 30
0.0
 10
10.584233048
 20
6.7331885266
 30
0.0
 10
10.5415118473
 20
6.7757378569
 30
0.0
 10
10.501616052
 20
6.8209373162
 30
0.0
 10
10.4647346501
 20
6.8685728368
 30
0.0
 10
10.4310424583
 20
6.9184188848
 30
0.0
 10
10.4006991731
 20
6.9702393906
 30
0.0
 10
10.3738486627
 20
7.0237890286
 30
0.0
 10
10.3506184198
 20
7.0788140056
 30
0.0
 10
10.3311187342
 20
7.1350545897
 30
0.0
 10
10.3154426944
 20
7.1922410179
 30
0.0
 10
10.3075724569
 20
7.2309080244
 30
0.0
 10
10.304301384
 20
7.2503054049
 30
0.0
  0
SPLINE
  5
3AE
100
AcDbEntity
  8
0
100
AcDbSpline
 62
7
  6
CONTINUOUS
 70
0
 71
3
 72
27
 73
23
 74
0
 42
0.0000001
 43
0.0000001
 44
0.0000000001
 40
0.0
 40
0.0
 40
0.0
 40
0.0
 40
0.0318807961
 40
0.0641053145
 40
0.0965991276
 40
0.129292278
 40
0.1950194337
 40
0.2279489421
 40
0.260860265
 40
0.3264785415
 40
0.3916480972
 40
0.4562069014
 40
0.5200423916
 40
0.583076965
 40
0.6452588427
 40
0.7065572028
 40
0.7669598876
 40
0.8264726317
 40
0.8851185744
 40
0.942936417
 40
0.9715605464
 40
1.0
 40
1.0
 40
1.0
 40
1.0
 10
10.0045556724
 20
7.6094888337
 30
0.0
 10
10.0032081102
 20
7.6061853075
 30
0.0
 10
10.0005620933
 20
7.5995164741
 30
0.0
 10
9.9967688057
 20
7.5893926951
 30
0.0
 10
9.9931459673
 20
7.5791100321
 30
0.0
 10
9.9885630344
 20
7.5651938502
 30
0.0
 10
9.9844200503
 20
7.5510838603
 30
0.0
 10
9.9807907856
 20
7.5368128613
 30
0.0
 10
9.9775361135
 20
7.5224642936
 30
0.0
 10
9.974222634
 20
7.5044354707
 30
0.0
 10
9.9716014826
 20
7.482716568
 30
0.0
 10
9.9704745585
 20
7.4610656469
 30
0.0
 10
9.9709502441
 20
7.4396267999
 30
0.0
 10
9.9731055834
 20
7.4185558988
 30
0.0
 10
9.9769837518
 20
7.3980195601
 30
0.0
 10
9.9825922284
 20
7.3781906133
 30
0.0
 10
9.9899036495
 20
7.3592425891
 30
0.0
 10
9.9988580746
 20
7.3413429934
 30
0.0
 10
10.0093657927
 20
7.3246498303
 30
0.0
 10
10.0193607263
 20
7.3118156184
 30
0.0
 10
10.0280121506
 20
7.3022997079
 30
0.0
 10
10.0325453603
 20
7.2977969089
 30
0.0
 10
10.0348602095
 20
7.2956126659
 30
0.0
  0
SPLINE
  5
3AF
100
AcDbEntity
  8
0
100
AcDbSpline
 62
7
  6
CONTINUOUS
 70
0
 71
3
 72
73
 73
69
 74
0
 42
0.0000001
 43
0.0000001
 44
0.0000000001
 40
0.0
 40
0.0
 40
0.0
 40
0.0
 40
0.0150755397
 40
0.0226162231
 40
0.0301592959
 40
0.0452539182
 40
0.0603657582
 40
0.0754997113
 40
0.0906604436
 40
0.1058523441
 40
0.1210794817
 40
0.1363455655
 40
0.1516539097
 40
0.1670074042
 40
0.1824084886
 40
0.1978591326
 40
0.2133608213
 40
0.2289145459
 40
0.2445207983
 40
0.2601795722
 40
0.2758903679
 40
0.2916522015
 40
0.307463619
 40
0.3233227141
 40
0.3392271488
 40
0.3551741787
 40
0.3711606809
 40
0.3871831839
 40
0.4032379009
 40
0.4193207643
 40
0.4354274627
 40
0.4515534792
 40
0.4676941308
 40
0.4838446091
 40
0.5000000216
 40
0.5161554339
 40
0.5323059115
 40
0.5484465623
 40
0.5645725781
 40
0.580679276
 40
0.5967621389
 40
0.6128168555
 40
0.6288393581
 40
0.6448258594
 40
0.6607728881
 40
0.6766773211
 40
0.6925364144
 40
0.7083478304
 40
0.7241096626
 40
0.739820457
 40
0.75547923
 40
0.7710854815
 40
0.7866392049
 40
0.8021408924
 40
0.8175915347
 40
0.8329926172
 40
0.84834611
 40
0.8636544528
 40
0.8789205354
 40
0.8941476722
 40
0.9093395723
 40
0.9245003042
 40
0.932070973
 40
0.9396355204
 40
0.9547473598
 40
0.9698419816
 40
0.9849244609
 40
1.0
 40
1.0
 40
1.0
 40
1.0
 10
9.2187617183
 20
9.6397270465
 30
0.0
 10
9.210126661
 20
9.631108286
 30
0.0
 10
9.1975060927
 20
9.6178375284
 30
0.0
 10
9.1813884134
 20
9.5995064145
 30
0.0
 10
9.1657427171
 20
9.5807500548
 30
0.0
 10
9.1470947043
 20
9.5565332032
 30
0.0
 10
9.1262372672
 20
9.526325223
 30
0.0
 10
9.1069426978
 20
9.4950325043
 30
0.0
 10
9.0892569591
 20
9.4627295365
 30
0.0
 10
9.0732217157
 20
9.4294926104
 30
0.0
 10
9.0588748477
 20
9.3954003748
 30
0.0
 10
9.0462501981
 20
9.3605334501
 30
0.0
 10
9.0353775389
 20
9.3249742888
 30
0.0
 10
9.0262824907
 20
9.2888069654
 30
0.0
 10
9.0189864665
 20
9.2521169804
 30
0.0
 10
9.0135066159
 20
9.2149910574
 30
0.0
 10
9.0098557952
 20
9.1775169354
 30
0.0
 10
9.008042538
 20
9.139783162
 30
0.0
 10
9.0080710373
 20
9.101878884
 30
0.0
 10
9.009941138
 20
9.0638936382
 30
0.0
 10
9.0136483388
 20
9.0259171402
 30
0.0
 10
9.0191838044
 20
8.9880390739
 30
0.0
 10
9.0265343874
 20
8.9503488812
 30
0.0
 10
9.0356826615
 20
8.9129355519
 30
0.0
 10
9.0466069594
 20
8.8758874141
 30
0.0
 10
9.0592814229
 20
8.8392919259
 30
0.0
 10
9.073676071
 20
8.8032354711
 30
0.0
 10
9.0897568693
 20
8.7678031565
 30
0.0
 10
9.1074858115
 20
8.7330786126
 30
0.0
 10
9.1268210081
 20
8.6991437972
 30
0.0
 10
9.147716786
 20
8.6660788035
 30
0.0
 10
9.1701237955
 20
8.6339616722
 30
0.0
 10
9.1939891262
 20
8.6028682081
 30
0.0
 10
9.2192564325
 20
8.572871803
 30
0.0
 10
9.2458660605
 20
8.5440432589
 30
0.0
 10
9.2737551922
 20
8.516450623
 30
0.0
 10
9.3028579946
 20
8.49015903
 30
0.0
 10
9.3331057746
 20
8.4652305485
 30
0.0
 10
9.3644271396
 20
8.4417240356
 30
0.0
 10
9.3967481659
 20
8.4196949981
 30
0.0
 10
9.4299925712
 20
8.3991954625
 30
0.0
 10
9.4640818942
 20
8.3802738527
 30
0.0
 10
9.4989356784
 20
8.3629748751
 30
0.0
 10
9.5344716608
 20
8.3473394146
 30
0.0
 10
9.5706059625
 20
8.3334044301
 30
0.0
 10
9.6072532888
 20
8.3212028739
 30
0.0
 10
9.6443271294
 20
8.3107636137
 30
0.0
 10
9.6817399609
 20
8.3021113641
 30
0.0
 10
9.7194034525
 20
8.2952666276
 30
0.0
 10
9.7572286724
 20
8.2902456453
 30
0.0
 10
9.7951262968
 20
8.2870603578
 30
0.0
 10
9.8330068196
 20
8.2857183752
 30
0.0
 10
9.8707807625
 20
8.2862229582
 30
0.0
 10
9.9083588856
 20
8.2885730063
 30
0.0
 10
9.9456523987
 20
8.2927630539
 30
0.0
 10
9.9825731714
 20
8.2987832887
 30
0.0
 10
10.019033937
 20
8.3066195698
 30
0.0
 10
10.0549485157
 20
8.3162534678
 30
0.0
 10
10.0902319559
 20
8.3276622717
 30
0.0
 10
10.1248009701
 20
8.3408191695
 30
0.0
 10
10.1585732618
 20
8.3556928292
 30
0.0
 10
10.1860008976
 20
8.3694963366
 30
0.0
 10
10.2074605489
 20
8.381359015
 30
0.0
 10
10.228572464
 20
8.393752068
 30
0.0
 10
10.2543255519
 20
8.4102457258
 30
0.0
 10
10.2841355883
 20
8.4315970534
 30
0.0
 10
10.3127720765
 20
8.4544504655
 30
0.0
 10
10.331039624
 20
8.4706552892
 30
0.0
 10
10.3399524299
 20
8.4789865032
 30
0.0
  0
SPLINE
  5
3B0
100
AcDbEntity
  8
0
100
AcDbSpline
 62
7
  6
CONTINUOUS
 70
0
 71
3
 72
73
 73
69
 74
0
 42
0.0000001
 43
0.0000001
 44
0.0000000001
 40
0.0
 40
0.0
 40
0.0
 40
0.0
 40
0.0150796355
 40
0.0226217917
 40
0.0301659661
 40
0.0452617211
 40
0.0603734236
 40
0.0679374873
 40
0.0755074145
 40
0.0906659407
 40
0.1058548478
 40
0.1210783723
 40
0.1363403895
 40
0.1516443763
 40
0.1669933786
 40
0.1823899842
 40
0.1978363005
 40
0.2133339381
 40
0.2288840002
 40
0.2444870761
 40
0.2601432417
 40
0.2758520632
 40
0.2916126068
 40
0.3074234519
 40
0.3232827095
 40
0.3391880434
 40
0.3551366961
 40
0.3711255165
 40
0.3871509918
 40
0.4032092815
 40
0.4192962533
 40
0.4354075218
 40
0.4515384876
 40
0.467684379
 40
0.4838402937
 40
0.5000012422
 40
0.5161621912
 40
0.532318107
 40
0.5484640001
 40
0.564594968
 40
0.5807062388
 40
0.5967932131
 40
0.6128515056
 40
0.6288769839
 40
0.6448658078
 40
0.6608144646
 40
0.6767198033
 40
0.6925790661
 40
0.7083899166
 40
0.7241504657
 40
0.7398592926
 40
0.7555154635
 40
0.7711185444
 40
0.7866686112
 40
0.8021662537
 40
0.8176125747
 40
0.8330091852
 40
0.8483581925
 40
0.8636621841
 40
0.8789242058
 40
0.8941477342
 40
0.9093366447
 40
0.9244951736
 40
0.939627876
 40
0.95473958
 40
0.9698353359
 40
0.9849203643
 40
1.0
 40
1.0
 40
1.0
 40
1.0
 10
10.3400151376
 20
8.4789159735
 30
0.0
 10
10.3311544442
 20
8.4703571772
 30
0.0
 10
10.3175206215
 20
8.4578641502
 30
0.0
 10
10.2987069987
 20
8.4419432268
 30
0.0
 10
10.2794708465
 20
8.4265134816
 30
0.0
 10
10.2546590754
 20
8.4081701302
 30
0.0
 10
10.2289060923
 20
8.3911440117
 30
0.0
 10
10.2077736587
 20
8.3783344198
 30
0.0
 10
10.1862807562
 20
8.3660620734
 30
0.0
 10
10.1587866893
 20
8.3517594147
 30
0.0
 10
10.1248964626
 20
8.3363103169
 30
0.0
 10
10.0901735803
 20
8.3226034754
 30
0.0
 10
10.0547023366
 20
8.3106721918
 30
0.0
 10
10.018568121
 20
8.3005450627
 30
0.0
 10
9.9818580964
 20
8.2922464388
 30
0.0
 10
9.9446607499
 20
8.2857962267
 30
0.0
 10
9.9070657421
 20
8.2812098825
 30
0.0
 10
9.8691636745
 20
8.278498363
 30
0.0
 10
9.8310458749
 20
8.2776681032
 30
0.0
 10
9.7928041757
 20
8.2787210074
 30
0.0
 10
9.7545306935
 20
8.2816544454
 30
0.0
 10
9.7163176084
 20
8.2864612614
 30
0.0
 10
9.6782569431
 20
8.293129793
 30
0.0
 10
9.6404403422
 20
8.3016439002
 30
0.0
 10
9.6029588537
 20
8.3119830061
 30
0.0
 10
9.5659027104
 20
8.3241221467
 30
0.0
 10
9.5293611147
 20
8.3380320322
 30
0.0
 10
9.4934220254
 20
8.3536791181
 30
0.0
 10
9.4581719452
 20
8.3710256815
 30
0.0
 10
9.4236957141
 20
8.3900299157
 30
0.0
 10
9.3900763075
 20
8.4106460321
 30
0.0
 10
9.3573946376
 20
8.4328243703
 30
0.0
 10
9.3257293596
 20
8.4565115171
 30
0.0
 10
9.2951566837
 20
8.4816504349
 30
0.0
 10
9.2657501929
 20
8.5081805981
 30
0.0
 10
9.2375806665
 20
8.5360381387
 30
0.0
 10
9.2107159109
 20
8.5651559986
 30
0.0
 10
9.1852205972
 20
8.595464091
 30
0.0
 10
9.1611561057
 20
8.6268894672
 30
0.0
 10
9.1385803745
 20
8.6593564891
 30
0.0
 10
9.1175477653
 20
8.6927870146
 30
0.0
 10
9.0981089323
 20
8.7271005835
 30
0.0
 10
9.0803107007
 20
8.7622146108
 30
0.0
 10
9.0641959545
 20
8.7980445838
 30
0.0
 10
9.0498035335
 20
8.8345042645
 30
0.0
 10
9.0371681394
 20
8.871505896
 30
0.0
 10
9.0263202527
 20
8.9089604116
 30
0.0
 10
9.017286058
 20
8.9467776484
 30
0.0
 10
9.0100873821
 20
8.9848665631
 30
0.0
 10
9.0047416359
 20
9.0231354486
 30
0.0
 10
9.0012617716
 20
9.0614921549
 30
0.0
 10
8.9996562545
 20
9.0998443099
 30
0.0
 10
8.99992904
 20
9.1380995408
 30
0.0
 10
9.0020795628
 20
9.1761656954
 30
0.0
 10
9.0061027361
 20
9.2139510632
 30
0.0
 10
9.0119889619
 20
9.2513645956
 30
0.0
 10
9.0197241519
 20
9.288316125
 30
0.0
 10
9.0292897586
 20
9.3247165822
 30
0.0
 10
9.040662818
 20
9.3604782113
 30
0.0
 10
9.0538160026
 20
9.3955147825
 30
0.0
 10
9.0687176795
 20
9.4297418027
 30
0.0
 10
9.085331991
 20
9.4630767224
 30
0.0
 10
9.1036189326
 20
9.4954391282
 30
0.0
 10
9.1235344777
 20
9.5267509689
 30
0.0
 10
9.145030572
 20
9.5569366361
 30
0.0
 10
9.1680556614
 20
9.5859235581
 30
0.0
 10
9.1925532807
 20
9.613640856
 30
0.0
 10
9.2098307346
 20
9.6312314602
 30
0.0
 10
9.2186914284
 20
9.6397902562
 30
0.0
  0
SPLINE
  5
3B1
100
AcDbEntity
  8
0
100
AcDbSpline
 62
7
  6
CONTINUOUS
 70
0
 71
3
 72
28
 73
24
 74
0
 42
0.0000001
 43
0.0000001
 44
0.0000000001
 40
0.0
 40
0.0
 40
0.0
 40
0.0
 40
0.017533385
 40
0.0363394596
 40
0.0563606455
 40
0.0775438183
 40
0.0998299887
 40
0.1231712122
 40
0.14751801
 40
0.1728262391
 40
0.199058532
 40
0.2261759532
 40
0.2829391964
 40
0.3428849191
 40
0.4058189744
 40
0.4715690206
 40
0.539991483
 40
0.6109518547
 40
0.6843348268
 40
0.7600293867
 40
0.8379356805
 40
0.9179567206
 40
1.0
 40
1.0
 40
1.0
 40
1.0
 10
10.9611998933
 20
7.9708569249
 30
0.0
 10
10.9622999297
 20
7.9714599363
 30
0.0
 10
10.9645295291
 20
7.9728024834
 30
0.0
 10
10.9678494562
 20
7.9750946257
 30
0.0
 10
10.9712558401
 20
7.9777109638
 30
0.0
 10
10.9747388056
 20
7.9806288893
 30
0.0
 10
10.9782919529
 20
7.9838278243
 30
0.0
 10
10.9819085679
 20
7.9872907442
 30
0.0
 10
10.9855841
 20
7.9910019097
 30
0.0
 10
10.9893145231
 20
7.9949476332
 30
0.0
 10
10.9930963343
 20
7.9991158405
 30
0.0
 10
10.9982834682
 20
8.0050460415
 30
0.0
 10
11.0048668656
 20
8.0129571765
 30
0.0
 10
11.0128303783
 20
8.023047312
 30
0.0
 10
11.0209664533
 20
8.0338162276
 30
0.0
 10
11.0292733421
 20
8.0452132542
 30
0.0
 10
11.0377518177
 20
8.0571938488
 30
0.0
 10
11.0464059628
 20
8.069717828
 30
0.0
 10
11.0552412923
 20
8.0827481873
 30
0.0
 10
11.0642652648
 20
8.0962505494
 30
0.0
 10
11.0734862828
 20
8.1101921769
 30
0.0
 10
11.08291374
 20
8.1245417353
 30
0.0
 10
11.0892660026
 20
8.1342422707
 30
0.0
 10
11.092481654
 20
8.1391531328
 30
0.0
  0
SPLINE
  5
3B2
100
AcDbEntity
  8
0
100
AcDbSpline
 62
7
  6
CONTINUOUS
 70
0
 71
3
 72
15
 73
11
 74
0
 42
0.0000001
 43
0.0000001
 44
0.0000000001
 40
0.0
 40
0.0
 40
0.0
 40
0.0
 40
0.1126803902
 40
0.2271382108
 40
0.3441684612
 40
0.4647108651
 40
0.5898010123
 40
0.7204187741
 40
0.8571834916
 40
1.0
 40
1.0
 40
1.0
 40
1.0
 10
10.0451508199
 20
9.4476770456
 30
0.0
 10
10.0448747752
 20
9.4451793374
 30
0.0
 10
10.0441946678
 20
9.4401573506
 30
0.0
 10
10.0427978311
 20
9.4326072951
 30
0.0
 10
10.0410047412
 20
9.4249611032
 30
0.0
 10
10.0387977868
 20
9.4171773753
 30
0.0
 10
10.036156663
 20
9.4092103585
 30
0.0
 10
10.0330630452
 20
9.4010202273
 30
0.0
 10
10.0295088555
 20
9.3925888698
 30
0.0
 10
10.0268897507
 20
9.3869291588
 30
0.0
 10
10.0255072444
 20
9.3840598669
 30
0.0
  0
SPLINE
  5
3B3
100
AcDbEntity
  8
0
100
AcDbSpline
 62
7
  6
CONTINUOUS
 70
0
 71
3
 72
40
 73
36
 74
0
 42
0.0000001
 43
0.0000001
 44
0.0000000001
 40
0.0
 40
0.0
 40
0.0
 40
0.0
 40
0.0299422961
 40
0.0599089687
 40
0.0899238004
 40
0.1200094052
 40
0.1350882586
 40
0.1501924643
 40
0.1804801427
 40
0.2108943138
 40
0.2414481167
 40
0.2721514658
 40
0.3030108714
 40
0.3340293444
 40
0.3652063826
 40
0.3965380347
 40
0.4280170359
 40
0.4596330083
 40
0.4913727179
 40
0.5232203813
 40
0.5551580145
 40
0.5871658159
 40
0.6192225759
 40
0.6513061084
 40
0.6833936952
 40
0.7154625379
 40
0.7474902107
 40
0.7794551093
 40
0.8113368809
 40
0.8431168638
 40
0.8747784102
 40
0.9063074674
 40
0.9376922747
 40
0.9689251908
 40
1.0
 40
1.0
 40
1.0
 40
1.0
 10
9.9369163538
 20
7.614173313
 30
0.0
 10
9.934328368
 20
7.6116735065
 30
0.0
 10
9.9289489039
 20
7.6068756521
 30
0.0
 10
9.920330086
 20
7.6003393801
 30
0.0
 10
9.9112060737
 20
7.594496507
 30
0.0
 10
9.9032285817
 20
7.5902350291
 30
0.0
 10
9.8966493655
 20
7.5872034924
 30
0.0
 10
9.8899342096
 20
7.5844222043
 30
0.0
 10
9.8813189784
 20
7.5814315247
 30
0.0
 10
9.8707020001
 20
7.5786442782
 30
0.0
 10
9.8598533541
 20
7.5766697174
 30
0.0
 10
9.8488331612
 20
7.5755187348
 30
0.0
 10
9.8377019588
 20
7.5751974718
 30
0.0
 10
9.8265209941
 20
7.5757075625
 30
0.0
 10
9.8153517204
 20
7.5770460598
 30
0.0
 10
9.8042555079
 20
7.5792054773
 30
0.0
 10
9.7932932982
 20
7.5821738304
 30
0.0
 10
9.7825252776
 20
7.5859347074
 30
0.0
 10
9.7720105507
 20
7.5904673622
 30
0.0
 10
9.7618068206
 20
7.595746829
 30
0.0
 10
9.7519700768
 20
7.601744061
 30
0.0
 10
9.7425542922
 20
7.6084260885
 30
0.0
 10
9.7336111309
 20
7.6157561999
 30
0.0
 10
9.7251896664
 20
7.6236941397
 30
0.0
 10
9.7173361153
 20
7.6321963285
 30
0.0
 10
9.7100935878
 20
7.6412161016
 30
0.0
 10
9.7035018522
 20
7.6507039618
 30
0.0
 10
9.6975971215
 20
7.6606078482
 30
0.0
 10
9.6924118486
 20
7.6708734195
 30
0.0
 10
9.6879745688
 20
7.6814443421
 30
0.0
 10
9.6843096949
 20
7.692262625
 30
0.0
 10
9.6814374924
 20
7.7032688124
 30
0.0
 10
9.6793737502
 20
7.714402746
 30
0.0
 10
9.6781300451
 20
7.7256024055
 30
0.0
 10
9.6778514563
 20
7.7330927696
 30
0.0
 10
9.6778514563
 20
7.7368270159
 30
0.0
  0
SPLINE
  5
3B4
100
AcDbEntity
  8
0
100
AcDbSpline
 62
7
  6
CONTINUOUS
 70
0
 71
3
 72
25
 73
21
 74
0
 42
0.0000001
 43
0.0000001
 44
0.0000000001
 40
0.0
 40
0.0
 40
0.0
 40
0.0
 40
0.0556388112
 40
0.1120067153
 40
0.1691625791
 40
0.2271539582
 40
0.2860180245
 40
0.3457837183
 40
0.4064745488
 40
0.468111044
 40
0.5307140408
 40
0.5943089438
 40
0.6589311419
 40
0.7246326032
 40
0.7914892849
 40
0.8253835499
 40
0.8596069921
 40
0.8941744392
 40
0.9290971622
 40
1.0
 40
1.0
 40
1.0
 40
1.0
 10
10.2987754946
 20
9.1802802299
 30
0.0
 10
10.2947273239
 20
9.181556961
 30
0.0
 10
10.2866793672
 20
9.1844610591
 30
0.0
 10
10.2749112852
 20
9.1897885124
 30
0.0
 10
10.2634258964
 20
9.1960837576
 30
0.0
 10
10.2522763628
 20
9.2033109703
 30
0.0
 10
10.2415096821
 20
9.211431147
 30
0.0
 10
10.2311677141
 20
9.2204022089
 30
0.0
 10
10.22128597
 20
9.2301799572
 30
0.0
 10
10.2118928933
 20
9.2407188505
 30
0.0
 10
10.2030086878
 20
9.251972843
 30
0.0
 10
10.1946437878
 20
9.2638963648
 30
0.0
 10
10.1867963585
 20
9.2764453053
 30
0.0
 10
10.1794484858
 20
9.2895777885
 30
0.0
 10
10.1737349227
 20
9.3009226931
 30
0.0
 10
10.1693570218
 20
9.310243409
 30
0.0
 10
10.1661415429
 20
9.3173873779
 30
0.0
 10
10.1629928026
 20
9.3246464652
 30
0.0
 10
10.1588353704
 20
9.3345175356
 30
0.0
 10
10.1557823433
 20
9.3419916575
 30
0.0
 10
10.1537303041
 20
9.3469965502
 30
0.0
  0
SPLINE
  5
3B5
100
AcDbEntity
  8
0
100
AcDbSpline
 62
7
  6
CONTINUOUS
 70
0
 71
3
 72
50
 73
46
 74
0
 42
0.0000001
 43
0.0000001
 44
0.0000000001
 40
0.0
 40
0.0
 40
0.0
 40
0.0
 40
0.0417738954
 40
0.0840375015
 40
0.126658999
 40
0.1695072728
 40
0.2124490406
 40
0.2553511879
 40
0.2980805661
 40
0.3405047668
 40
0.3824925704
 40
0.4239144964
 40
0.4646433325
 40
0.504554679
 40
0.5435274987
 40
0.5814446837
 40
0.6181936452
 40
0.6536669372
 40
0.6877629283
 40
0.7203865442
 40
0.7514501111
 40
0.7808743474
 40
0.8085895768
 40
0.8217881241
 40
0.8345385176
 40
0.8468355036
 40
0.8586748141
 40
0.8700533313
 40
0.8809690507
 40
0.8914214953
 40
0.9014115725
 40
0.9109421624
 40
0.9200180335
 40
0.9286464829
 40
0.9368375013
 40
0.9446043826
 40
0.9519642537
 40
0.9589386378
 40
0.9655543111
 40
0.9718437858
 40
0.9778461759
 40
0.9836073377
 40
0.9891800243
 40
0.9946230608
 40
1.0
 40
1.0
 40
1.0
 40
1.0
 10
12.6674181942
 20
8.8061593834
 30
0.0
 10
12.6674181942
 20
8.7988742999
 30
0.0
 10
12.6673045321
 20
8.7842185019
 30
0.0
 10
12.6668020912
 20
8.7621349814
 30
0.0
 10
12.665968127
 20
8.7398739626
 30
0.0
 10
12.6648054246
 20
8.7175092916
 30
0.0
 10
12.6633177894
 20
8.6951148315
 30
0.0
 10
12.6615101593
 20
8.672764728
 30
0.0
 10
12.6593885126
 20
8.6505329034
 30
0.0
 10
12.6569598862
 20
8.628492913
 30
0.0
 10
12.654232336
 20
8.6067176652
 30
0.0
 10
12.6512149168
 20
8.5852791892
 30
0.0
 10
12.6479176511
 20
8.5642483905
 30
0.0
 10
12.6443514986
 20
8.5436948142
 30
0.0
 10
12.6405283181
 20
8.5236864108
 30
0.0
 10
12.6364608301
 20
8.5042893079
 30
0.0
 10
12.6321625749
 20
8.4855675847
 30
0.0
 10
12.6276478687
 20
8.4675830548
 30
0.0
 10
12.6229317569
 20
8.4503950429
 30
0.0
 10
12.6180299609
 20
8.434060202
 30
0.0
 10
12.6129588297
 20
8.4186322072
 30
0.0
 10
12.6077352538
 20
8.4041618895
 30
0.0
 10
12.6031989084
 20
8.3927621208
 30
0.0
 10
12.5994967759
 20
8.384166291
 30
0.0
 10
12.5967382022
 20
8.3780931372
 30
0.0
 10
12.5939546249
 20
8.3722932211
 30
0.0
 10
12.5911482902
 20
8.3667713029
 30
0.0
 10
12.5883215586
 20
8.3615318906
 30
0.0
 10
12.5854766834
 20
8.3565792874
 30
0.0
 10
12.58261607
 20
8.3519174951
 30
0.0
 10
12.5797419507
 20
8.3475503364
 30
0.0
 10
12.5768567282
 20
8.3434813007
 30
0.0
 10
12.5739626195
 20
8.339713705
 30
0.0
 10
12.5710619506
 20
8.3362505419
 30
0.0
 10
12.5681569138
 20
8.3330946066
 30
0.0
 10
12.5652496826
 20
8.3302484445
 30
0.0
 10
12.5623423874
 20
8.3277143551
 30
0.0
 10
12.559437004
 20
8.3254945476
 30
0.0
 10
12.5565355726
 20
8.323590948
 30
0.0
 10
12.5536399522
 20
8.3220056161
 30
0.0
 10
12.5507522096
 20
8.3207403311
 30
0.0
 10
12.5478744923
 20
8.3197971289
 30
0.0
 10
12.5450092314
 20
8.3191777051
 30
0.0
 10
12.5421598683
 20
8.3188836486
 30
0.0
 10
12.5402681377
 20
8.3189052868
 30
0.0
 10
12.5393326833
 20
8.3189701681
 30
0.0
  0
SPLINE
  5
3B6
100
AcDbEntity
  8
0
100
AcDbSpline
 62
7
  6
CONTINUOUS
 70
0
 71
3
 72
73
 73
69
 74
0
 42
0.0000001
 43
0.0000001
 44
0.0000000001
 40
0.0
 40
0.0
 40
0.0
 40
0.0
 40
0.0150755387
 40
0.0301580177
 40
0.0452526393
 40
0.0603644789
 40
0.0679290265
 40
0.0754996954
 40
0.0906604281
 40
0.1058523291
 40
0.1210794672
 40
0.1363455511
 40
0.1516538953
 40
0.1670073894
 40
0.1824084732
 40
0.1978591166
 40
0.213360805
 40
0.2289145295
 40
0.2445207821
 40
0.2601795562
 40
0.2758903519
 40
0.2916521852
 40
0.307463602
 40
0.3233226959
 40
0.3392271293
 40
0.3551741582
 40
0.3711606595
 40
0.387183162
 40
0.4032378786
 40
0.4193207416
 40
0.4354274393
 40
0.4515534548
 40
0.4676941051
 40
0.483844582
 40
0.4999999934
 40
0.516155405
 40
0.5323058823
 40
0.5484465331
 40
0.5645725488
 40
0.5806792465
 40
0.5967621091
 40
0.6128168251
 40
0.6288393272
 40
0.6448258284
 40
0.6607728574
 40
0.6766772912
 40
0.6925363856
 40
0.7083478028
 40
0.724109636
 40
0.7398204313
 40
0.7554792049
 40
0.7710854569
 40
0.7866391811
 40
0.8021408696
 40
0.8175915133
 40
0.8329925976
 40
0.8483460921
 40
0.8636544365
 40
0.8789205204
 40
0.894147658
 40
0.9093395585
 40
0.9245002907
 40
0.9396342436
 40
0.9547460832
 40
0.9698407051
 40
0.9773837778
 40
0.9849244609
 40
1.0
 40
1.0
 40
1.0
 40
1.0
 10
8.9772794947
 20
8.0259902178
 30
0.0
 10
8.9686444449
 20
8.017371473
 30
0.0
 10
8.9518163968
 20
7.9996764209
 30
0.0
 10
8.9279844418
 20
7.9718490734
 30
0.0
 10
8.9056130025
 20
7.942796832
 30
0.0
 10
8.8882368947
 20
7.9176307688
 30
0.0
 10
8.8751197163
 20
7.8969610121
 30
0.0
 10
8.8625205801
 20
7.875925327
 30
0.0
 10
8.8477749493
 20
7.848992521
 30
0.0
 10
8.8317399699
 20
7.815755951
 30
0.0
 10
8.817393108
 20
7.7816636504
 30
0.0
 10
8.8047685323
 20
7.7467967784
 30
0.0
 10
8.7938959223
 20
7.7112376445
 30
0.0
 10
8.7848009184
 20
7.6750703624
 30
0.0
 10
8.7775049237
 20
7.6383804213
 30
0.0
 10
8.7720250936
 20
7.6012545454
 30
0.0
 10
8.7683742874
 20
7.5637804713
 30
0.0
 10
8.7665610425
 20
7.5260467458
 30
0.0
 10
8.7665895566
 20
7.4881425161
 30
0.0
 10
8.7684596755
 20
7.4501573195
 30
0.0
 10
8.7721668933
 20
7.4121808722
 30
0.0
 10
8.777702371
 20
7.3743028583
 30
0.0
 10
8.7850529579
 20
7.3366127184
 30
0.0
 10
8.7942012237
 20
7.2991994407
 30
0.0
 10
8.8051255008
 20
7.2621513515
 30
0.0
 10
8.817799936
 20
7.2255559088
 30
0.0
 10
8.8321945519
 20
7.1894994969
 30
0.0
 10
8.8482753181
 20
7.1540672239
 30
0.0
 10
8.8660042318
 20
7.1193427226
 30
0.0
 10
8.8853394013
 20
7.0854079507
 30
0.0
 10
8.9062351498
 20
7.0523429999
 30
0.0
 10
8.9286421247
 20
7.0202259087
 30
0.0
 10
8.9525074135
 20
6.9891324797
 30
0.0
 10
8.977774668
 20
6.9591361009
 30
0.0
 10
9.0043842372
 20
6.9303075745
 30
0.0
 10
9.0322733067
 20
6.9027149498
 30
0.0
 10
9.0613760467
 20
6.8764233639
 30
0.0
 10
9.0916237669
 20
6.8514948892
 30
0.0
 10
9.1229450757
 20
6.8279883851
 30
0.0
 10
9.1552660462
 20
6.8059593557
 30
0.0
 10
9.1885103945
 20
6.7854598249
 30
0.0
 10
9.222599658
 20
6.7665382133
 30
0.0
 10
9.2574533795
 20
6.7492392242
 30
0.0
 10
9.2929892961
 20
6.7336037386
 30
0.0
 10
9.3291235317
 20
6.7196687187
 30
0.0
 10
9.3657707938
 20
6.7074671205
 30
0.0
 10
9.4028445732
 20
6.6970278155
 30
0.0
 10
9.4402573474
 20
6.6883755236
 30
0.0
 10
9.4779207843
 20
6.6815307466
 30
0.0
 10
9.5157459512
 20
6.676509722
 30
0.0
 10
9.5536435243
 20
6.6733243871
 30
0.0
 10
9.5915239979
 20
6.6719823488
 30
0.0
 10
9.629297895
 20
6.6724868644
 30
0.0
 10
9.6668759773
 20
6.6748368319
 30
0.0
 10
9.7041694554
 20
6.6790267908
 30
0.0
 10
9.7410901981
 20
6.6850469332
 30
0.0
 10
9.7775509405
 20
6.692883124
 30
0.0
 10
9.8134654903
 20
6.702516932
 30
0.0
 10
9.8487489359
 20
6.7139256648
 30
0.0
 10
9.8833178425
 20
6.727082425
 30
0.0
 10
9.9170904661
 20
6.7419561833
 30
0.0
 10
9.9499868928
 20
6.7585118074
 30
0.0
 10
9.9819294341
 20
6.7767103017
 30
0.0
 10
10.0128420545
 20
6.7965083103
 30
0.0
 10
10.0376905825
 20
6.8143058518
 30
0.0
 10
10.0569778686
 20
6.8292921081
 30
0.0
 10
10.0758565102
 20
6.8447648145
 30
0.0
 10
10.0895566622
 20
6.8569178678
 30
0.0
 10
10.0984694842
 20
6.8652490416
 30
0.0
  0
SPLINE
  5
3B7
100
AcDbEntity
  8
0
100
AcDbSpline
 62
7
  6
CONTINUOUS
 70
0
 71
3
 72
73
 73
69
 74
0
 42
0.0000001
 43
0.0000001
 44
0.0000000001
 40
0.0
 40
0.0
 40
0.0
 40
0.0
 40
0.0150796355
 40
0.0301646637
 40
0.0452604195
 40
0.0603721233
 40
0.0755048258
 40
0.0906633546
 40
0.1058522651
 40
0.1210757936
 40
0.1363378152
 40
0.1516418066
 40
0.1669908137
 40
0.1823874239
 40
0.1978337448
 40
0.2133313869
 40
0.2288814536
 40
0.2444845344
 40
0.2601407051
 40
0.2758495319
 40
0.2916100808
 40
0.3074209312
 40
0.3232801936
 40
0.3391855318
 40
0.3551341881
 40
0.3711230116
 40
0.3871484897
 40
0.4032067818
 40
0.4192937561
 40
0.4354050268
 40
0.4515359946
 40
0.4676818875
 40
0.483837803
 40
0.4999987516
 40
0.5161596999
 40
0.5323156144
 40
0.5484615056
 40
0.5645924715
 40
0.5807037402
 40
0.5967907123
 40
0.6128490021
 40
0.6288744776
 40
0.644863298
 40
0.6608119506
 40
0.6767172847
 40
0.6925765424
 40
0.7083873878
 40
0.7241479318
 40
0.7398567539
 40
0.7555129201
 40
0.7711159966
 40
0.7866660591
 40
0.8021636971
 40
0.8176100135
 40
0.8330066193
 40
0.8483556218
 40
0.8636596089
 40
0.8789216265
 40
0.8941451514
 40
0.909334059
 40
0.9244925856
 40
0.9320625126
 40
0.9396265767
 40
0.9547382794
 40
0.9698340343
 40
0.9773782086
 40
0.9849203648
 40
1.0
 40
1.0
 40
1.0
 40
1.0
 10
10.0985309181
 20
6.8651772624
 30
0.0
 10
10.0896702037
 20
6.8566184924
 30
0.0
 10
10.0714914294
 20
6.8399610131
 30
0.0
 10
10.0429418382
 20
6.8164386392
 30
0.0
 10
10.0131744155
 20
6.7944319077
 30
0.0
 10
9.9822619547
 20
6.7739947934
 30
0.0
 10
9.9502787699
 20
6.7551763052
 30
0.0
 10
9.9173020891
 20
6.7380218485
 30
0.0
 10
9.8834114424
 20
6.7225727193
 30
0.0
 10
9.8486885809
 20
6.708866112
 30
0.0
 10
9.8132172473
 20
6.6969350025
 30
0.0
 10
9.7770829817
 20
6.6868080725
 30
0.0
 10
9.7403729085
 20
6.6785096451
 30
0.0
 10
9.7031755265
 20
6.6720596298
 30
0.0
 10
9.6655804936
 20
6.6674734766
 30
0.0
 10
9.6276784113
 20
6.664762141
 30
0.0
 10
9.589560606
 20
6.6639320608
 30
0.0
 10
9.5513189093
 20
6.6649851418
 30
0.0
 10
9.5130454377
 20
6.6679187564
 30
0.0
 10
9.4748323717
 20
6.6727257506
 30
0.0
 10
9.4367717347
 20
6.6793944647
 30
0.0
 10
9.3989551726
 20
6.687908758
 30
0.0
 10
9.361473733
 20
6.6982480491
 30
0.0
 10
9.3244176482
 20
6.7103873705
 30
0.0
 10
9.2878761193
 20
6.7242974291
 30
0.0
 10
9.251937103
 20
6.739944677
 30
0.0
 10
9.216687101
 20
6.7572913926
 30
0.0
 10
9.1822109539
 20
6.7762957717
 30
0.0
 10
9.1485916378
 20
6.7969120278
 30
0.0
 10
9.1159100657
 20
6.8190905024
 30
0.0
 10
9.0842448947
 20
6.8427777838
 30
0.0
 10
9.0536723371
 20
6.8679168356
 30
0.0
 10
9.0242659742
 20
6.894447129
 30
0.0
 10
8.9960965833
 20
6.9223047928
 30
0.0
 10
8.9692319683
 20
6.9514227667
 30
0.0
 10
8.9437367972
 20
6.9817309619
 30
0.0
 10
8.9196724475
 20
7.0131564289
 30
0.0
 10
8.8970968587
 20
7.0456235319
 30
0.0
 10
8.876064394
 20
7.0790541304
 30
0.0
 10
8.8566257093
 20
7.1133677655
 30
0.0
 10
8.838827632
 20
7.1484818531
 30
0.0
 10
8.8227130492
 20
7.184311881
 30
0.0
 10
8.8083208002
 20
7.22077161
 30
0.0
 10
8.7956855831
 20
7.257773281
 30
0.0
 10
8.7848378751
 20
7.2952278265
 30
0.0
 10
8.7758038579
 20
7.3330450832
 30
0.0
 10
8.7686053538
 20
7.3711340077
 30
0.0
 10
8.7632597732
 20
7.4094028941
 30
0.0
 10
8.7597800712
 20
7.4477595934
 30
0.0
 10
8.7581747153
 20
7.4861117343
 30
0.0
 10
8.7584476633
 20
7.5243669437
 30
0.0
 10
8.7605983526
 20
7.5624330687
 30
0.0
 10
8.7646216985
 20
7.6002183978
 30
0.0
 10
8.7705080989
 20
7.6376318816
 30
0.0
 10
8.7782434626
 20
7.6745833538
 30
0.0
 10
8.7878092371
 20
7.7109837433
 30
0.0
 10
8.7991824619
 20
7.7467453063
 30
0.0
 10
8.8123357818
 20
7.7817817758
 30
0.0
 10
8.8272376573
 20
7.8160088057
 30
0.0
 10
8.8438518944
 20
7.8493433007
 30
0.0
 10
8.8590987119
 20
7.8763252193
 30
0.0
 10
8.8721085231
 20
7.8973799069
 30
0.0
 10
8.8856427036
 20
7.9180557636
 30
0.0
 10
8.9035510411
 20
7.9432032471
 30
0.0
 10
8.9227431997
 20
7.9673644354
 30
0.0
 10
8.9388302525
 20
7.9860543532
 30
0.0
 10
8.955393595
 20
8.0043049306
 30
0.0
 10
8.9683515618
 20
8.0174976462
 30
0.0
 10
8.9772122728
 20
8.0260564195
 30
0.0
  0
SPLINE
  5
3B8
100
AcDbEntity
  8
0
100
AcDbSpline
 62
4
  6
CONTINUOUS
 70
0
 71
3
 72
277
 73
273
 74
0
 42
0.0000001
 43
0.0000001
 44
0.0000000001
 40
0.0
 40
0.0
 40
0.0
 40
0.0
 40
0.015625
 40
0.0234375
 40
0.03125
 40
0.0390625
 40
0.046875
 40
0.05078125
 40
0.0546875
 40
0.056640625
 40
0.05859375
 40
0.060546875
 40
0.0615234375
 40
0.0620117188
 40
0.0625
 40
0.0629882812
 40
0.0634765625
 40
0.064453125
 40
0.06640625
 40
0.068359375
 40
0.0703125
 40
0.07421875
 40
0.078125
 40
0.0859375
 40
0.09375
 40
0.1015625
 40
0.109375
 40
0.11328125
 40
0.1171875
 40
0.119140625
 40
0.12109375
 40
0.123046875
 40
0.1240234375
 40
0.1245117188
 40
0.125
 40
0.1254882812
 40
0.1259765625
 40
0.126953125
 40
0.12890625
 40
0.130859375
 40
0.1328125
 40
0.13671875
 40
0.140625
 40
0.1484375
 40
0.15625
 40
0.1640625
 40
0.171875
 40
0.17578125
 40
0.1796875
 40
0.181640625
 40
0.18359375
 40
0.185546875
 40
0.1865234375
 40
0.1870117188
 40
0.1875
 40
0.1879882812
 40
0.1884765625
 40
0.189453125
 40
0.19140625
 40
0.193359375
 40
0.1953125
 40
0.19921875
 40
0.203125
 40
0.2109375
 40
0.21875
 40
0.2265625
 40
0.234375
 40
0.23828125
 40
0.2421875
 40
0.24609375
 40
0.248046875
 40
0.2490234375
 40
0.25
 40
0.2509765625
 40
0.251953125
 40
0.25390625
 40
0.2578125
 40
0.26171875
 40
0.265625
 40
0.2734375
 40
0.28125
 40
0.2890625
 40
0.296875
 40
0.30078125
 40
0.3046875
 40
0.30859375
 40
0.310546875
 40
0.3115234375
 40
0.3125
 40
0.3134765625
 40
0.314453125
 40
0.31640625
 40
0.3203125
 40
0.32421875
 40
0.328125
 40
0.3359375
 40
0.34375
 40
0.3515625
 40
0.359375
 40
0.3671875
 40
0.37109375
 40
0.373046875
 40
0.375
 40
0.376953125
 40
0.37890625
 40
0.3828125
 40
0.390625
 40
0.3984375
 40
0.40625
 40
0.4140625
 40
0.421875
 40
0.4296875
 40
0.43359375
 40
0.435546875
 40
0.4375
 40
0.439453125
 40
0.44140625
 40
0.4453125
 40
0.453125
 40
0.4609375
 40
0.46875
 40
0.4765625
 40
0.484375
 40
0.48828125
 40
0.4921875
 40
0.49609375
 40
0.498046875
 40
0.4990234375
 40
0.5
 40
0.5009765625
 40
0.501953125
 40
0.50390625
 40
0.5078125
 40
0.51171875
 40
0.515625
 40
0.5234375
 40
0.53125
 40
0.5390625
 40
0.546875
 40
0.55078125
 40
0.5546875
 40
0.55859375
 40
0.560546875
 40
0.5615234375
 40
0.5625
 40
0.5634765625
 40
0.564453125
 40
0.56640625
 40
0.5703125
 40
0.57421875
 40
0.578125
 40
0.5859375
 40
0.59375
 40
0.6015625
 40
0.609375
 40
0.61328125
 40
0.6171875
 40
0.62109375
 40
0.623046875
 40
0.6240234375
 40
0.625
 40
0.6259765625
 40
0.626953125
 40
0.62890625
 40
0.6328125
 40
0.63671875
 40
0.640625
 40
0.6484375
 40
0.65625
 40
0.6640625
 40
0.671875
 40
0.67578125
 40
0.6796875
 40
0.681640625
 40
0.68359375
 40
0.685546875
 40
0.6865234375
 40
0.6870117188
 40
0.6875
 40
0.6879882812
 40
0.6884765625
 40
0.689453125
 40
0.69140625
 40
0.693359375
 40
0.6953125
 40
0.69921875
 40
0.703125
 40
0.7109375
 40
0.71875
 40
0.7265625
 40
0.734375
 40
0.73828125
 40
0.7421875
 40
0.744140625
 40
0.74609375
 40
0.748046875
 40
0.7490234375
 40
0.7495117188
 40
0.75
 40
0.7504882812
 40
0.7509765625
 40
0.751953125
 40
0.75390625
 40
0.755859375
 40
0.7578125
 40
0.76171875
 40
0.765625
 40
0.7734375
 40
0.78125
 40
0.7890625
 40
0.796875
 40
0.80078125
 40
0.8046875
 40
0.806640625
 40
0.80859375
 40
0.810546875
 40
0.8115234375
 40
0.8120117188
 40
0.8125
 40
0.8129882812
 40
0.8134765625
 40
0.814453125
 40
0.81640625
 40
0.818359375
 40
0.8203125
 40
0.82421875
 40
0.828125
 40
0.8359375
 40
0.84375
 40
0.8515625
 40
0.859375
 40
0.86328125
 40
0.8671875
 40
0.869140625
 40
0.87109375
 40
0.873046875
 40
0.8740234375
 40
0.8745117188
 40
0.875
 40
0.8754882812
 40
0.8759765625
 40
0.876953125
 40
0.87890625
 40
0.880859375
 40
0.8828125
 40
0.88671875
 40
0.890625
 40
0.8984375
 40
0.90625
 40
0.9140625
 40
0.921875
 40
0.92578125
 40
0.9296875
 40
0.931640625
 40
0.93359375
 40
0.935546875
 40
0.9365234375
 40
0.9370117188
 40
0.9375
 40
0.9379882812
 40
0.9384765625
 40
0.939453125
 40
0.94140625
 40
0.943359375
 40
0.9453125
 40
0.94921875
 40
0.953125
 40
0.9609375
 40
0.96875
 40
0.9765625
 40
0.984375
 40
1.0
 40
1.0
 40
1.0
 40
1.0
 10
13.2294432962
 20
9.3034422961
 30
0.0
 10
13.228603762
 20
9.3023241566
 30
0.0
 10
13.2273444608
 20
9.3006469477
 30
0.0
 10
13.2256653925
 20
9.2984106682
 30
0.0
 10
13.2244060911
 20
9.2967334609
 30
0.0
 10
13.2231467903
 20
9.2950562448
 30
0.0
 10
13.2220973714
 20
9.2936585922
 30
0.0
 10
13.2212578397
 20
9.2925404084
 30
0.0
 10
13.2207331245
 20
9.2918416841
 30
0.0
 10
13.2203133704
 20
9.2912823828
 30
0.0
 10
13.2199985055
 20
9.2908637882
 30
0.0
 10
13.2197362749
 20
9.2905121555
 30
0.0
 10
13.2195524058
 20
9.290271515
 30
0.0
 10
13.2194478182
 20
9.2901254146
 30
0.0
 10
13.219368024
 20
9.2900400421
 30
0.0
 10
13.2192934034
 20
9.289862154
 30
0.0
 10
13.2191921047
 20
9.2896572404
 30
0.0
 10
13.2190156727
 20
9.2892836062
 30
0.0
 10
13.2187631875
 20
9.2887577037
 30
0.0
 10
13.2184603933
 20
9.2881232561
 30
0.0
 10
13.2180566021
 20
9.2872785011
 30
0.0
 10
13.2175518856
 20
9.286222155
 30
0.0
 10
13.2167443265
 20
9.2845322262
 30
0.0
 10
13.2157348821
 20
9.2824197376
 30
0.0
 10
13.2145235466
 20
9.2798847865
 30
0.0
 10
13.2133122126
 20
9.2773498186
 30
0.0
 10
13.2123027645
 20
9.2752373719
 30
0.0
 10
13.2114952128
 20
9.2735473593
 30
0.0
 10
13.2109904776
 20
9.2724912262
 30
0.0
 10
13.2105867247
 20
9.2716460341
 30
0.0
 10
13.2102838134
 20
9.2710129221
 30
0.0
 10
13.2100316948
 20
9.2704828406
 30
0.0
 10
13.2098546082
 20
9.2701166666
 30
0.0
 10
13.2097543584
 20
9.2698997999
 30
0.0
 10
13.2096765158
 20
9.2697586281
 30
0.0
 10
13.2096088232
 20
9.2695353552
 30
0.0
 10
13.209515026
 20
9.2692662958
 30
0.0
 10
13.2093525304
 20
9.268782099
 30
0.0
 10
13.2091195314
 20
9.268097365
 30
0.0
 10
13.2088403018
 20
9.2672726983
 30
0.0
 10
13.2084678666
 20
9.2661741857
 30
0.0
 10
13.2080023669
 20
9.2648006878
 30
0.0
 10
13.2072575426
 20
9.2626032908
 30
0.0
 10
13.2063265209
 20
9.2598564757
 30
0.0
 10
13.2052092907
 20
9.2565603289
 30
0.0
 10
13.2040920628
 20
9.2532641669
 30
0.0
 10
13.2031610355
 20
9.2505173898
 30
0.0
 10
13.2024162223
 20
9.2483199167
 30
0.0
 10
13.2019506943
 20
9.2469466125
 30
0.0
 10
13.2015783172
 20
9.2458477023
 30
0.0
 10
13.2012989104
 20
9.2450242501
 30
0.0
 10
13.2010664658
 20
9.2443357165
 30
0.0
 10
13.2009029806
 20
9.2438583025
 30
0.0
 10
13.2008107689
 20
9.2435783753
 30
0.0
 10
13.2007382063
 20
9.2433884848
 30
0.0
 10
13.2006786546
 20
9.2431219342
 30
0.0
 10
13.200594714
 20
9.2427932733
 30
0.0
 10
13.2004499325
 20
9.242205658
 30
0.0
 10
13.2002419963
 20
9.2413727212
 30
0.0
 10
13.1999929461
 20
9.240370409
 30
0.0
 10
13.1996607138
 20
9.2390349665
 30
0.0
 10
13.19924548
 20
9.2373653299
 30
0.0
 10
13.1985810743
 20
9.2346940981
 30
0.0
 10
13.1977505791
 20
9.2313549917
 30
0.0
 10
13.1967539746
 20
9.2273481039
 30
0.0
 10
13.1957573922
 20
9.2233411634
 30
0.0
 10
13.1949268416
 20
9.2200021885
 30
0.0
 10
13.1942625468
 20
9.2173306938
 30
0.0
 10
13.193763928
 20
9.2153279318
 30
0.0
 10
13.1933496771
 20
9.213656231
 30
0.0
 10
13.1930572195
 20
9.212491403
 30
0.0
 10
13.1928939762
 20
9.2118174137
 30
0.0
 10
13.1927606268
 20
9.2113355094
 30
0.0
 10
13.1926690076
 20
9.2107634411
 30
0.0
 10
13.1925322926
 20
9.2100321337
 30
0.0
 10
13.1922998234
 20
9.2087376924
 30
0.0
 10
13.1919641788
 20
9.2068961514
 30
0.0
 10
13.1915629231
 20
9.2046830231
 30
0.0
 10
13.191027385
 20
9.2017333311
 30
0.0
 10
13.1903581457
 20
9.1980458209
 30
0.0
 10
13.1895549745
 20
9.1936209866
 30
0.0
 10
13.1887518464
 20
9.1891960731
 30
0.0
 10
13.1880824992
 20
9.1855087611
 30
0.0
 10
13.1875471769
 20
9.1825586727
 30
0.0
 10
13.1871452632
 20
9.1803467531
 30
0.0
 10
13.1868116768
 20
9.1785014308
 30
0.0
 10
13.1865755335
 20
9.1772137399
 30
0.0
 10
13.1864447054
 20
9.1764716165
 30
0.0
 10
13.1863350036
 20
9.1759327713
 30
0.0
 10
13.1862695695
 20
9.1753260871
 30
0.0
 10
13.1861668829
 20
9.1745408378
 30
0.0
 10
13.1859943758
 20
9.1731556266
 30
0.0
 10
13.1857441756
 20
9.1711825175
 30
0.0
 10
13.1854455459
 20
9.1688123191
 30
0.0
 10
13.1850468083
 20
9.1656529176
 30
0.0
 10
13.1845485946
 20
9.1617033611
 30
0.0
 10
13.1839505849
 20
9.1569640615
 30
0.0
 10
13.1833528552
 20
9.1522245765
 30
0.0
 10
13.1827541591
 20
9.1474856649
 30
0.0
 10
13.1822582334
 20
9.1435348151
 30
0.0
 10
13.181905234
 20
9.1407726586
 30
0.0
 10
13.1817126547
 20
9.1391889161
 30
0.0
 10
13.1815424881
 20
9.1380162289
 30
0.0
 10
13.181470683
 20
9.1367857467
 30
0.0
 10
13.1813406331
 20
9.1351652632
 30
0.0
 10
13.1811290321
 20
9.1323200243
 30
0.0
 10
13.1808183817
 20
9.1282603093
 30
0.0
 10
13.1804492049
 20
9.123386543
 30
0.0
 10
13.1800789946
 20
9.1185133508
 30
0.0
 10
13.1797093147
 20
9.1136399704
 30
0.0
 10
13.1793385464
 20
9.1087667689
 30
0.0
 10
13.179032759
 20
9.1047053282
 30
0.0
 10
13.178812493
 20
9.1018631642
 30
0.0
 10
13.1786963247
 20
9.1002377546
 30
0.0
 10
13.1785818803
 20
9.0990224037
 30
0.0
 10
13.1785718598
 20
9.0977928858
 30
0.0
 10
13.1785220749
 20
9.0961584702
 30
0.0
 10
13.1784519222
 20
9.0932959405
 30
0.0
 10
13.1783428297
 20
9.0892078157
 30
0.0
 10
13.1782157251
 20
9.0843015524
 30
0.0
 10
13.1780875938
 20
9.079395418
 30
0.0
 10
13.1779597632
 20
9.0744892817
 30
0.0
 10
13.1778530908
 20
9.0704007338
 30
0.0
 10
13.1777679551
 20
9.0671301387
 30
0.0
 10
13.1777035848
 20
9.0646765233
 30
0.0
 10
13.1776515869
 20
9.0626339727
 30
0.0
 10
13.1776119629
 20
9.0612000093
 30
0.0
 10
13.1775943567
 20
9.0603871252
 30
0.0
 10
13.1775669655
 20
9.059759085
 30
0.0
 10
13.1775938024
 20
9.0592012917
 30
0.0
 10
13.1776106695
 20
9.0584330643
 30
0.0
 10
13.1776490001
 20
9.0571000828
 30
0.0
 10
13.1776991504
 20
9.0551898549
 30
0.0
 10
13.177761303
 20
9.0529001363
 30
0.0
 10
13.177843484
 20
9.0498462852
 30
0.0
 10
13.1779464483
 20
9.0460292804
 30
0.0
 10
13.1780698969
 20
9.041448731
 30
0.0
 10
13.1781933989
 20
9.0368682616
 30
0.0
 10
13.1782962296
 20
9.0330510569
 30
0.0
 10
13.1783786777
 20
9.0299976055
 30
0.0
 10
13.1784400157
 20
9.0277066679
 30
0.0
 10
13.1784927145
 20
9.0258002534
 30
0.0
 10
13.1785264956
 20
9.0244604643
 30
0.0
 10
13.1785506521
 20
9.0237031444
 30
0.0
 10
13.1785550986
 20
9.0231118471
 30
0.0
 10
13.178611802
 20
9.0226096422
 30
0.0
 10
13.1786691787
 20
9.0219089592
 30
0.0
 10
13.1787780807
 20
9.0206972432
 30
0.0
 10
13.1789292148
 20
9.0189586504
 30
0.0
 10
13.1791124764
 20
9.0168755793
 30
0.0
 10
13.179356161
 20
9.0140970188
 30
0.0
 10
13.1796609961
 20
9.0106242103
 30
0.0
 10
13.1800266938
 20
9.0064566566
 30
0.0
 10
13.1803924424
 20
9.0022892095
 30
0.0
 10
13.1806971501
 20
8.9988161346
 30
0.0
 10
13.1809410894
 20
8.9960381069
 30
0.0
 10
13.1811235744
 20
8.9939534107
 30
0.0
 10
13.1812771379
 20
8.9922199019
 30
0.0
 10
13.1813817031
 20
8.9909991102
 30
0.0
 10
13.1814460285
 20
8.9903129687
 30
0.0
 10
13.1814813878
 20
8.9897660971
 30
0.0
 10
13.1815659991
 20
8.9893425606
 30
0.0
 10
13.1816616345
 20
8.9887348246
 30
0.0
 10
13.1818370007
 20
8.9876913307
 30
0.0
 10
13.1820833392
 20
8.9861901458
 30
0.0
 10
13.1823807366
 20
8.9843932094
 30
0.0
 10
13.1827766407
 20
8.9819957274
 30
0.0
 10
13.1832717357
 20
8.9789994129
 30
0.0
 10
13.183865757
 20
8.9754036031
 30
0.0
 10
13.1844598052
 20
8.9718078621
 30
0.0
 10
13.1849548327
 20
8.9688113757
 30
0.0
 10
13.1853508719
 20
8.9664142374
 30
0.0
 10
13.1855983598
 20
8.9649159168
 30
0.0
 10
13.1857964335
 20
8.9637175096
 30
0.0
 10
13.1859447609
 20
8.9628180217
 30
0.0
 10
13.1860690917
 20
8.9620706199
 30
0.0
 10
13.1861547012
 20
8.9615431771
 30
0.0
 10
13.1862058413
 20
8.9612484352
 30
0.0
 10
13.1862379417
 20
8.9610086343
 30
0.0
 10
13.1862939506
 20
8.9608404847
 30
0.0
 10
13.1863602895
 20
8.9605912924
 30
0.0
 10
13.1864802682
 20
8.9601668506
 30
0.0
 10
13.186649635
 20
8.9595544172
 30
0.0
 10
13.1868537446
 20
8.9588221029
 30
0.0
 10
13.187125587
 20
8.9578447737
 30
0.0
 10
13.1874654941
 20
8.9566234239
 30
0.0
 10
13.1880092872
 20
8.9546690899
 30
0.0
 10
13.1886890487
 20
8.9522262327
 30
0.0
 10
13.1895047535
 20
8.9492947759
 30
0.0
 10
13.1903204622
 20
8.9463633352
 30
0.0
 10
13.1910002137
 20
8.9439204381
 30
0.0
 10
13.1915440268
 20
8.9419661839
 30
0.0
 10
13.1918838833
 20
8.9407446311
 30
0.0
 10
13.1921558294
 20
8.9397677185
 30
0.0
 10
13.1923596224
 20
8.9390341314
 30
0.0
 10
13.1925299797
 20
8.9384256805
 30
0.0
 10
13.1926481901
 20
8.9379941292
 30
0.0
 10
13.1927173623
 20
8.937756328
 30
0.0
 10
13.1927646685
 20
8.9375531887
 30
0.0
 10
13.1928294547
 20
8.9374448034
 30
0.0
 10
13.192909739
 20
8.9372672383
 30
0.0
 10
13.1930530774
 20
8.9369718987
 30
0.0
 10
13.1932563613
 20
8.9365419341
 30
0.0
 10
13.1935009377
 20
8.9360294226
 30
0.0
 10
13.1938268176
 20
8.9353448703
 30
0.0
 10
13.1942342434
 20
8.934489592
 30
0.0
 10
13.1948860823
 20
8.9331209164
 30
0.0
 10
13.1957008955
 20
8.9314101515
 30
0.0
 10
13.1966786647
 20
8.9293571971
 30
0.0
 10
13.1976564371
 20
8.9273042611
 30
0.0
 10
13.1984712426
 20
8.9255934502
 30
0.0
 10
13.1991230969
 20
8.9242248666
 30
0.0
 10
13.1995304834
 20
8.9233693545
 30
0.0
 10
13.1998564441
 20
8.9226852821
 30
0.0
 10
13.2001007734
 20
8.9221713044
 30
0.0
 10
13.2003048303
 20
8.921745927
 30
0.0
 10
13.2004467889
 20
8.9214423985
 30
0.0
 10
13.2005292841
 20
8.9212779541
 30
0.0
 10
13.2005872791
 20
8.9211292664
 30
0.0
 10
13.2006600915
 20
8.921077496
 30
0.0
 10
13.2007520063
 20
8.920974663
 30
0.0
 10
13.2009152652
 20
8.920810456
 30
0.0
 10
13.2011472332
 20
8.9205676398
 30
0.0
 10
13.2014261337
 20
8.9202797851
 30
0.0
 10
13.2017978129
 20
8.9198947478
 30
0.0
 10
13.2022624762
 20
8.9194138727
 30
0.0
 10
13.2030059016
 20
8.9186442368
 30
0.0
 10
13.2039351957
 20
8.9176822734
 30
0.0
 10
13.2050503431
 20
8.9165278799
 30
0.0
 10
13.2061654928
 20
8.9153735055
 30
0.0
 10
13.2070947809
 20
8.9144114944
 30
0.0
 10
13.2078382183
 20
8.9136419539
 30
0.0
 10
13.2083028511
 20
8.9131608365
 30
0.0
 10
13.208674593
 20
8.9127762963
 30
0.0
 10
13.2089533018
 20
8.9124869227
 30
0.0
 10
13.2091858694
 20
8.912248859
 30
0.0
 10
13.209348058
 20
8.9120761681
 30
0.0
 10
13.2094416877
 20
8.9119869284
 30
0.0
 10
13.2095092322
 20
8.9118934036
 30
0.0
 10
13.2095870127
 20
8.9119015386
 30
0.0
 10
13.2096871496
 20
8.9118769252
 30
0.0
 10
13.2098640526
 20
8.9118503733
 30
0.0
 10
13.2101159016
 20
8.9118038043
 30
0.0
 10
13.2104184926
 20
8.9117516187
 30
0.0
 10
13.2108218173
 20
8.9116807466
 30
0.0
 10
13.2113260176
 20
8.9115925986
 30
0.0
 10
13.2121327133
 20
8.9114513147
 30
0.0
 10
13.2131410914
 20
8.9112747951
 30
0.0
 10
13.2143511414
 20
8.9110629326
 30
0.0
 10
13.215561193
 20
8.9108510898
 30
0.0
 10
13.2165695669
 20
8.9106745207
 30
0.0
 10
13.2173762711
 20
8.9105333359
 30
0.0
 10
13.2178804496
 20
8.9104449359
 30
0.0
 10
13.2182838192
 20
8.9103745809
 30
0.0
 10
13.2185862729
 20
8.9103208156
 30
0.0
 10
13.2188385513
 20
8.9102791894
 30
0.0
 10
13.2190146878
 20
8.9102438137
 30
0.0
 10
13.2191160529
 20
8.9102333382
 30
0.0
 10
13.2191900608
 20
8.9101980461
 30
0.0
 10
13.2192717745
 20
8.9102676262
 30
0.0
 10
13.2193780382
 20
8.9103238191
 30
0.0
 10
13.219565252
 20
8.9104392002
 30
0.0
 10
13.2198320456
 20
8.9105951198
 30
0.0
 10
13.2201524781
 20
8.9107860373
 30
0.0
 10
13.2205796237
 20
8.9110392618
 30
0.0
 10
13.2211135891
 20
8.9113562486
 30
0.0
 10
13.221967915
 20
8.9118631725
 30
0.0
 10
13.2230358289
 20
8.9124969149
 30
0.0
 10
13.2243173228
 20
8.9132573682
 30
0.0
 10
13.2255988174
 20
8.9140178316
 30
0.0
 10
13.2273074766
 20
8.9150317793
 30
0.0
 10
13.2285889711
 20
8.9157922408
 30
0.0
 10
13.2294433007
 20
8.916299215
 30
0.0
  0
SPLINE
  5
3B9
100
AcDbEntity
  8
0
100
AcDbSpline
 62
4
  6
CONTINUOUS
 70
0
 71
3
 72
277
 73
273
 74
0
 42
0.0000001
 43
0.0000001
 44
0.0000000001
 40
0.0
 40
0.0
 40
0.0
 40
0.0
 40
0.015625
 40
0.0234375
 40
0.03125
 40
0.0390625
 40
0.046875
 40
0.05078125
 40
0.0546875
 40
0.056640625
 40
0.05859375
 40
0.060546875
 40
0.0615234375
 40
0.0620117188
 40
0.0625
 40
0.0629882812
 40
0.0634765625
 40
0.064453125
 40
0.06640625
 40
0.068359375
 40
0.0703125
 40
0.07421875
 40
0.078125
 40
0.0859375
 40
0.09375
 40
0.1015625
 40
0.109375
 40
0.11328125
 40
0.1171875
 40
0.119140625
 40
0.12109375
 40
0.123046875
 40
0.1240234375
 40
0.1245117188
 40
0.125
 40
0.1254882812
 40
0.1259765625
 40
0.126953125
 40
0.12890625
 40
0.130859375
 40
0.1328125
 40
0.13671875
 40
0.140625
 40
0.1484375
 40
0.15625
 40
0.1640625
 40
0.171875
 40
0.17578125
 40
0.1796875
 40
0.181640625
 40
0.18359375
 40
0.185546875
 40
0.1865234375
 40
0.1870117188
 40
0.1875
 40
0.1879882812
 40
0.1884765625
 40
0.189453125
 40
0.19140625
 40
0.193359375
 40
0.1953125
 40
0.19921875
 40
0.203125
 40
0.2109375
 40
0.21875
 40
0.2265625
 40
0.234375
 40
0.23828125
 40
0.2421875
 40
0.24609375
 40
0.248046875
 40
0.2490234375
 40
0.25
 40
0.2509765625
 40
0.251953125
 40
0.25390625
 40
0.2578125
 40
0.26171875
 40
0.265625
 40
0.2734375
 40
0.28125
 40
0.2890625
 40
0.296875
 40
0.30078125
 40
0.3046875
 40
0.30859375
 40
0.310546875
 40
0.3115234375
 40
0.3125
 40
0.3134765625
 40
0.314453125
 40
0.31640625
 40
0.3203125
 40
0.32421875
 40
0.328125
 40
0.3359375
 40
0.34375
 40
0.3515625
 40
0.359375
 40
0.3671875
 40
0.37109375
 40
0.373046875
 40
0.375
 40
0.376953125
 40
0.37890625
 40
0.3828125
 40
0.390625
 40
0.3984375
 40
0.40625
 40
0.4140625
 40
0.421875
 40
0.4296875
 40
0.43359375
 40
0.435546875
 40
0.4375
 40
0.439453125
 40
0.44140625
 40
0.4453125
 40
0.453125
 40
0.4609375
 40
0.46875
 40
0.4765625
 40
0.484375
 40
0.48828125
 40
0.4921875
 40
0.49609375
 40
0.498046875
 40
0.4990234375
 40
0.5
 40
0.5009765625
 40
0.501953125
 40
0.50390625
 40
0.5078125
 40
0.51171875
 40
0.515625
 40
0.5234375
 40
0.53125
 40
0.5390625
 40
0.546875
 40
0.55078125
 40
0.5546875
 40
0.55859375
 40
0.560546875
 40
0.5615234375
 40
0.5625
 40
0.5634765625
 40
0.564453125
 40
0.56640625
 40
0.5703125
 40
0.57421875
 40
0.578125
 40
0.5859375
 40
0.59375
 40
0.6015625
 40
0.609375
 40
0.61328125
 40
0.6171875
 40
0.62109375
 40
0.623046875
 40
0.6240234375
 40
0.625
 40
0.6259765625
 40
0.626953125
 40
0.62890625
 40
0.6328125
 40
0.63671875
 40
0.640625
 40
0.6484375
 40
0.65625
 40
0.6640625
 40
0.671875
 40
0.67578125
 40
0.6796875
 40
0.681640625
 40
0.68359375
 40
0.685546875
 40
0.6865234375
 40
0.6870117188
 40
0.6875
 40
0.6879882812
 40
0.6884765625
 40
0.689453125
 40
0.69140625
 40
0.693359375
 40
0.6953125
 40
0.69921875
 40
0.703125
 40
0.7109375
 40
0.71875
 40
0.7265625
 40
0.734375
 40
0.73828125
 40
0.7421875
 40
0.744140625
 40
0.74609375
 40
0.748046875
 40
0.7490234375
 40
0.7495117188
 40
0.75
 40
0.7504882812
 40
0.7509765625
 40
0.751953125
 40
0.75390625
 40
0.755859375
 40
0.7578125
 40
0.76171875
 40
0.765625
 40
0.7734375
 40
0.78125
 40
0.7890625
 40
0.796875
 40
0.80078125
 40
0.8046875
 40
0.806640625
 40
0.80859375
 40
0.810546875
 40
0.8115234375
 40
0.8120117188
 40
0.8125
 40
0.8129882812
 40
0.8134765625
 40
0.814453125
 40
0.81640625
 40
0.818359375
 40
0.8203125
 40
0.82421875
 40
0.828125
 40
0.8359375
 40
0.84375
 40
0.8515625
 40
0.859375
 40
0.86328125
 40
0.8671875
 40
0.869140625
 40
0.87109375
 40
0.873046875
 40
0.8740234375
 40
0.8745117188
 40
0.875
 40
0.8754882812
 40
0.8759765625
 40
0.876953125
 40
0.87890625
 40
0.880859375
 40
0.8828125
 40
0.88671875
 40
0.890625
 40
0.8984375
 40
0.90625
 40
0.9140625
 40
0.921875
 40
0.92578125
 40
0.9296875
 40
0.931640625
 40
0.93359375
 40
0.935546875
 40
0.9365234375
 40
0.9370117188
 40
0.9375
 40
0.9379882812
 40
0.9384765625
 40
0.939453125
 40
0.94140625
 40
0.943359375
 40
0.9453125
 40
0.94921875
 40
0.953125
 40
0.9609375
 40
0.96875
 40
0.9765625
 40
0.984375
 40
1.0
 40
1.0
 40
1.0
 40
1.0
 10
13.2294432962
 20
8.9162992106
 30
0.0
 10
13.2302828304
 20
8.9174173501
 30
0.0
 10
13.2315421316
 20
8.919094559
 30
0.0
 10
13.2332211999
 20
8.9213308385
 30
0.0
 10
13.2344805012
 20
8.9230080458
 30
0.0
 10
13.2357398021
 20
8.9246852619
 30
0.0
 10
13.236789221
 20
8.9260829145
 30
0.0
 10
13.2376287527
 20
8.9272010983
 30
0.0
 10
13.2381534679
 20
8.9278998226
 30
0.0
 10
13.238573222
 20
8.9284591239
 30
0.0
 10
13.2388880869
 20
8.9288777186
 30
0.0
 10
13.2391503175
 20
8.9292293513
 30
0.0
 10
13.2393341866
 20
8.9294699917
 30
0.0
 10
13.2394387742
 20
8.9296160921
 30
0.0
 10
13.2395185684
 20
8.9297014647
 30
0.0
 10
13.239593189
 20
8.9298793527
 30
0.0
 10
13.2396944877
 20
8.9300842663
 30
0.0
 10
13.2398709197
 20
8.9304579005
 30
0.0
 10
13.2401234049
 20
8.930983803
 30
0.0
 10
13.2404261991
 20
8.9316182506
 30
0.0
 10
13.2408299903
 20
8.9324630056
 30
0.0
 10
13.2413347068
 20
8.9335193517
 30
0.0
 10
13.2421422659
 20
8.9352092805
 30
0.0
 10
13.2431517103
 20
8.9373217691
 30
0.0
 10
13.2443630458
 20
8.9398567202
 30
0.0
 10
13.2455743798
 20
8.9423916881
 30
0.0
 10
13.2465838279
 20
8.9445041348
 30
0.0
 10
13.2473913796
 20
8.9461941474
 30
0.0
 10
13.2478961148
 20
8.9472502805
 30
0.0
 10
13.2482998677
 20
8.9480954726
 30
0.0
 10
13.248602779
 20
8.9487285846
 30
0.0
 10
13.2488548975
 20
8.9492586661
 30
0.0
 10
13.2490319842
 20
8.9496248401
 30
0.0
 10
13.2491322339
 20
8.9498417068
 30
0.0
 10
13.2492100766
 20
8.9499828786
 30
0.0
 10
13.2492777692
 20
8.9502061515
 30
0.0
 10
13.2493715664
 20
8.9504752109
 30
0.0
 10
13.249534062
 20
8.9509594078
 30
0.0
 10
13.249767061
 20
8.9516441417
 30
0.0
 10
13.2500462906
 20
8.9524688084
 30
0.0
 10
13.2504187257
 20
8.953567321
 30
0.0
 10
13.2508842255
 20
8.9549408189
 30
0.0
 10
13.2516290497
 20
8.9571382159
 30
0.0
 10
13.2525600715
 20
8.959885031
 30
0.0
 10
13.2536773017
 20
8.9631811778
 30
0.0
 10
13.2547945296
 20
8.9664773398
 30
0.0
 10
13.2557255569
 20
8.9692241169
 30
0.0
 10
13.2564703701
 20
8.97142159
 30
0.0
 10
13.256935898
 20
8.9727948943
 30
0.0
 10
13.2573082752
 20
8.9738938044
 30
0.0
 10
13.257587682
 20
8.9747172566
 30
0.0
 10
13.2578201266
 20
8.9754057902
 30
0.0
 10
13.2579836118
 20
8.9758832042
 30
0.0
 10
13.2580758235
 20
8.9761631314
 30
0.0
 10
13.2581483861
 20
8.9763530219
 30
0.0
 10
13.2582079378
 20
8.9766195725
 30
0.0
 10
13.2582918784
 20
8.9769482334
 30
0.0
 10
13.2584366599
 20
8.9775358487
 30
0.0
 10
13.2586445961
 20
8.9783687855
 30
0.0
 10
13.2588936463
 20
8.9793710977
 30
0.0
 10
13.2592258786
 20
8.9807065402
 30
0.0
 10
13.2596411123
 20
8.9823761768
 30
0.0
 10
13.2603055181
 20
8.9850474086
 30
0.0
 10
13.2611360133
 20
8.988386515
 30
0.0
 10
13.2621326178
 20
8.9923934028
 30
0.0
 10
13.2631292002
 20
8.9964003433
 30
0.0
 10
13.2639597507
 20
8.9997393182
 30
0.0
 10
13.2646240456
 20
9.002410813
 30
0.0
 10
13.2651226644
 20
9.0044135749
 30
0.0
 10
13.2655369153
 20
9.0060852757
 30
0.0
 10
13.2658293729
 20
9.0072501037
 30
0.0
 10
13.2659926162
 20
9.007924093
 30
0.0
 10
13.2661259656
 20
9.0084059973
 30
0.0
 10
13.2662175848
 20
9.0089780656
 30
0.0
 10
13.2663542998
 20
9.009709373
 30
0.0
 10
13.266586769
 20
9.0110038143
 30
0.0
 10
13.2669224136
 20
9.0128453553
 30
0.0
 10
13.2673236693
 20
9.0150584836
 30
0.0
 10
13.2678592074
 20
9.0180081756
 30
0.0
 10
13.2685284467
 20
9.0216956858
 30
0.0
 10
13.2693316179
 20
9.0261205201
 30
0.0
 10
13.270134746
 20
9.0305454337
 30
0.0
 10
13.2708040932
 20
9.0342327456
 30
0.0
 10
13.2713394155
 20
9.037182834
 30
0.0
 10
13.2717413292
 20
9.0393947536
 30
0.0
 10
13.2720749156
 20
9.041240076
 30
0.0
 10
13.2723110589
 20
9.0425277668
 30
0.0
 10
13.272441887
 20
9.0432698902
 30
0.0
 10
13.2725515888
 20
9.0438087355
 30
0.0
 10
13.2726170229
 20
9.0444154196
 30
0.0
 10
13.2727197095
 20
9.0452006689
 30
0.0
 10
13.2728922166
 20
9.0465858801
 30
0.0
 10
13.2731424168
 20
9.0485589892
 30
0.0
 10
13.2734410465
 20
9.0509291876
 30
0.0
 10
13.2738397841
 20
9.0540885891
 30
0.0
 10
13.2743379978
 20
9.0580381456
 30
0.0
 10
13.2749360074
 20
9.0627774452
 30
0.0
 10
13.2755337372
 20
9.0675169302
 30
0.0
 10
13.2761324333
 20
9.0722558418
 30
0.0
 10
13.276628359
 20
9.0762066917
 30
0.0
 10
13.2769813584
 20
9.0789688481
 30
0.0
 10
13.2771739377
 20
9.0805525906
 30
0.0
 10
13.2773441043
 20
9.0817252778
 30
0.0
 10
13.2774159094
 20
9.0829557601
 30
0.0
 10
13.2775459593
 20
9.0845762435
 30
0.0
 10
13.2777575603
 20
9.0874214824
 30
0.0
 10
13.2780682107
 20
9.0914811974
 30
0.0
 10
13.2784373875
 20
9.0963549637
 30
0.0
 10
13.2788075978
 20
9.1012281559
 30
0.0
 10
13.2791772777
 20
9.1061015363
 30
0.0
 10
13.279548046
 20
9.1109747378
 30
0.0
 10
13.2798538334
 20
9.1150361785
 30
0.0
 10
13.2800740994
 20
9.1178783425
 30
0.0
 10
13.2801902677
 20
9.1195037521
 30
0.0
 10
13.2803047121
 20
9.120719103
 30
0.0
 10
13.2803147326
 20
9.1219486209
 30
0.0
 10
13.2803645175
 20
9.1235830366
 30
0.0
 10
13.2804346702
 20
9.1264455662
 30
0.0
 10
13.2805437627
 20
9.130533691
 30
0.0
 10
13.2806708673
 20
9.1354399543
 30
0.0
 10
13.2807989986
 20
9.1403460887
 30
0.0
 10
13.2809268292
 20
9.145252225
 30
0.0
 10
13.2810335016
 20
9.1493407729
 30
0.0
 10
13.2811186373
 20
9.152611368
 30
0.0
 10
13.2811830076
 20
9.1550649834
 30
0.0
 10
13.2812350055
 20
9.157107534
 30
0.0
 10
13.2812746295
 20
9.1585414974
 30
0.0
 10
13.2812922357
 20
9.1593543815
 30
0.0
 10
13.2813196269
 20
9.1599824217
 30
0.0
 10
13.28129279
 20
9.160540215
 30
0.0
 10
13.2812759229
 20
9.1613084424
 30
0.0
 10
13.2812375923
 20
9.1626414239
 30
0.0
 10
13.281187442
 20
9.1645516518
 30
0.0
 10
13.2811252894
 20
9.1668413705
 30
0.0
 10
13.2810431083
 20
9.1698952215
 30
0.0
 10
13.2809401441
 20
9.1737122263
 30
0.0
 10
13.2808166955
 20
9.1782927757
 30
0.0
 10
13.2806931935
 20
9.1828732452
 30
0.0
 10
13.2805903628
 20
9.1866904498
 30
0.0
 10
13.2805079147
 20
9.1897439012
 30
0.0
 10
13.2804465767
 20
9.1920348388
 30
0.0
 10
13.2803938779
 20
9.1939412533
 30
0.0
 10
13.2803600968
 20
9.1952810424
 30
0.0
 10
13.2803359403
 20
9.1960383623
 30
0.0
 10
13.2803314938
 20
9.1966296596
 30
0.0
 10
13.2802747904
 20
9.1971318645
 30
0.0
 10
13.2802174137
 20
9.1978325475
 30
0.0
 10
13.2801085117
 20
9.1990442635
 30
0.0
 10
13.2799573775
 20
9.2007828563
 30
0.0
 10
13.279774116
 20
9.2028659274
 30
0.0
 10
13.2795304314
 20
9.2056444879
 30
0.0
 10
13.2792255963
 20
9.2091172964
 30
0.0
 10
13.2788598986
 20
9.2132848501
 30
0.0
 10
13.27849415
 20
9.2174522972
 30
0.0
 10
13.2781894422
 20
9.2209253722
 30
0.0
 10
13.277945503
 20
9.2237033998
 30
0.0
 10
13.277763018
 20
9.225788096
 30
0.0
 10
13.2776094545
 20
9.2275216048
 30
0.0
 10
13.2775048893
 20
9.2287423965
 30
0.0
 10
13.2774405639
 20
9.229428538
 30
0.0
 10
13.2774052046
 20
9.2299754096
 30
0.0
 10
13.2773205933
 20
9.2303989461
 30
0.0
 10
13.2772249579
 20
9.2310066821
 30
0.0
 10
13.2770495917
 20
9.2320501761
 30
0.0
 10
13.2768032532
 20
9.2335513609
 30
0.0
 10
13.2765058558
 20
9.2353482973
 30
0.0
 10
13.2761099517
 20
9.2377457793
 30
0.0
 10
13.2756148567
 20
9.2407420938
 30
0.0
 10
13.2750208354
 20
9.2443379036
 30
0.0
 10
13.2744267871
 20
9.2479336446
 30
0.0
 10
13.2739317597
 20
9.250930131
 30
0.0
 10
13.2735357205
 20
9.2533272693
 30
0.0
 10
13.2732882325
 20
9.2548255899
 30
0.0
 10
13.2730901589
 20
9.2560239971
 30
0.0
 10
13.2729418315
 20
9.256923485
 30
0.0
 10
13.2728175007
 20
9.2576708868
 30
0.0
 10
13.2727318912
 20
9.2581983296
 30
0.0
 10
13.2726807511
 20
9.2584930715
 30
0.0
 10
13.2726486507
 20
9.2587328724
 30
0.0
 10
13.2725926418
 20
9.258901022
 30
0.0
 10
13.2725263029
 20
9.2591502143
 30
0.0
 10
13.2724063242
 20
9.2595746561
 30
0.0
 10
13.2722369574
 20
9.2601870895
 30
0.0
 10
13.2720328478
 20
9.2609194038
 30
0.0
 10
13.2717610054
 20
9.261896733
 30
0.0
 10
13.2714210983
 20
9.2631180828
 30
0.0
 10
13.2708773052
 20
9.2650724168
 30
0.0
 10
13.2701975437
 20
9.267515274
 30
0.0
 10
13.2693818389
 20
9.2704467308
 30
0.0
 10
13.2685661302
 20
9.2733781715
 30
0.0
 10
13.2678863786
 20
9.2758210687
 30
0.0
 10
13.2673425656
 20
9.2777753228
 30
0.0
 10
13.2670027091
 20
9.2789968756
 30
0.0
 10
13.266730763
 20
9.2799737882
 30
0.0
 10
13.26652697
 20
9.2807073753
 30
0.0
 10
13.2663566127
 20
9.2813158262
 30
0.0
 10
13.2662384022
 20
9.2817473775
 30
0.0
 10
13.2661692301
 20
9.2819851787
 30
0.0
 10
13.2661219239
 20
9.282188318
 30
0.0
 10
13.2660571377
 20
9.2822967033
 30
0.0
 10
13.2659768534
 20
9.2824742684
 30
0.0
 10
13.265833515
 20
9.282769608
 30
0.0
 10
13.2656302311
 20
9.2831995726
 30
0.0
 10
13.2653856547
 20
9.2837120841
 30
0.0
 10
13.2650597748
 20
9.2843966364
 30
0.0
 10
13.264652349
 20
9.2852519147
 30
0.0
 10
13.2640005101
 20
9.2866205903
 30
0.0
 10
13.2631856969
 20
9.2883313553
 30
0.0
 10
13.2622079276
 20
9.2903843096
 30
0.0
 10
13.2612301553
 20
9.2924372456
 30
0.0
 10
13.2604153498
 20
9.2941480565
 30
0.0
 10
13.2597634955
 20
9.2955166401
 30
0.0
 10
13.259356109
 20
9.2963721522
 30
0.0
 10
13.2590301483
 20
9.2970562246
 30
0.0
 10
13.2587858189
 20
9.2975702023
 30
0.0
 10
13.2585817621
 20
9.2979955797
 30
0.0
 10
13.2584398035
 20
9.2982991082
 30
0.0
 10
13.2583573083
 20
9.2984635526
 30
0.0
 10
13.2582993133
 20
9.2986122403
 30
0.0
 10
13.2582265008
 20
9.2986640107
 30
0.0
 10
13.2581345861
 20
9.2987668437
 30
0.0
 10
13.2579713272
 20
9.2989310507
 30
0.0
 10
13.2577393592
 20
9.2991738669
 30
0.0
 10
13.2574604587
 20
9.2994617216
 30
0.0
 10
13.2570887795
 20
9.2998467589
 30
0.0
 10
13.2566241162
 20
9.300327634
 30
0.0
 10
13.2558806908
 20
9.3010972699
 30
0.0
 10
13.2549513967
 20
9.3020592334
 30
0.0
 10
13.2538362493
 20
9.3032136268
 30
0.0
 10
13.2527210996
 20
9.3043680012
 30
0.0
 10
13.2517918115
 20
9.3053300123
 30
0.0
 10
13.2510483741
 20
9.3060995529
 30
0.0
 10
13.2505837413
 20
9.3065806702
 30
0.0
 10
13.2502119994
 20
9.3069652104
 30
0.0
 10
13.2499332906
 20
9.307254584
 30
0.0
 10
13.2497007229
 20
9.3074926477
 30
0.0
 10
13.2495385344
 20
9.3076653386
 30
0.0
 10
13.2494449047
 20
9.3077545783
 30
0.0
 10
13.2493773602
 20
9.3078481031
 30
0.0
 10
13.2492995797
 20
9.3078399681
 30
0.0
 10
13.2491994428
 20
9.3078645815
 30
0.0
 10
13.2490225397
 20
9.3078911334
 30
0.0
 10
13.2487706908
 20
9.3079377024
 30
0.0
 10
13.2484680998
 20
9.307989888
 30
0.0
 10
13.2480647751
 20
9.3080607601
 30
0.0
 10
13.2475605748
 20
9.3081489081
 30
0.0
 10
13.2467538791
 20
9.308290192
 30
0.0
 10
13.245745501
 20
9.3084667116
 30
0.0
 10
13.244535451
 20
9.3086785742
 30
0.0
 10
13.2433253994
 20
9.3088904169
 30
0.0
 10
13.2423170255
 20
9.309066986
 30
0.0
 10
13.2415103213
 20
9.3092081709
 30
0.0
 10
13.2410061428
 20
9.3092965708
 30
0.0
 10
13.2406027732
 20
9.3093669258
 30
0.0
 10
13.2403003195
 20
9.3094206912
 30
0.0
 10
13.2400480411
 20
9.3094623173
 30
0.0
 10
13.2398719046
 20
9.309497693
 30
0.0
 10
13.2397705395
 20
9.3095081685
 30
0.0
 10
13.2396965316
 20
9.3095434606
 30
0.0
 10
13.2396148179
 20
9.3094738805
 30
0.0
 10
13.2395085542
 20
9.3094176876
 30
0.0
 10
13.2393213404
 20
9.3093023065
 30
0.0
 10
13.2390545468
 20
9.3091463869
 30
0.0
 10
13.2387341142
 20
9.3089554694
 30
0.0
 10
13.2383069687
 20
9.3087022449
 30
0.0
 10
13.2377730033
 20
9.3083852581
 30
0.0
 10
13.2369186773
 20
9.3078783342
 30
0.0
 10
13.2358507635
 20
9.3072445918
 30
0.0
 10
13.2345692696
 20
9.3064841385
 30
0.0
 10
13.233287775
 20
9.3057236751
 30
0.0
 10
13.2315791158
 20
9.3047097274
 30
0.0
 10
13.2302976213
 20
9.3039492659
 30
0.0
 10
13.2294432917
 20
9.3034422917
 30
0.0
  0
ENDSEC
  0
SECTION
  2
OBJECTS
  0
DICTIONARY
  5
C
100
AcDbDictionary
280
0
281
1
  3
ACAD_GROUP
350
D
  3
ACAD_MLINESTYLE
350
17
  3
ACAD_LAYOUT
350
1A
  3
ACAD_PLOTSETTINGS
350
19
  3
ACAD_PLOTSTYLENAME
350
E
  3
ACAD_IMAGE_DICT
350
       3BB
  3
ACAD_IMAGE_VARS
350
       3BC
  3
ACAD_TABLESTYLE
350
       3BD
  0
IMAGEDEF_REACTOR
  5
3BA
100
AcDbRasterImageDefReactor
 90
2
330
28A
  0
DICTIONARY
  5
D
102
{ACAD_REACTORS
330
C
102
}
100
AcDbDictionary
280
0
281
1
  0
ACDBDICTIONARYWDFLT
  5
E
102
{ACAD_REACTORS
330
C
102
}
100
AcDbDictionary
281
1
  3
Normal
350
F
100
AcDbDictionaryWithDefault
340
F
  0
DICTIONARY
  5
3BB
330
C
100
AcDbDictionary
281
1
  3
YVS_assy_2_img_1
350
       3C0
  0
RASTERVARIABLES
  5
3BC
330
C
100
AcDbRasterVariables
 90
0
 70
0
 71
1
 72
5
  0
DICTIONARY
  5
17
102
{ACAD_REACTORS
330
C
102
}
100
AcDbDictionary
280
0
281
1
  3
Standard
350
18
  0
DICTIONARY
  5
3BD
330
C
100
AcDbDictionary
281
1
  3
Standard
350
       3C1
  3
Standard1
350
       3C2
  0
DICTIONARY
  5
19
102
{ACAD_REACTORS
330
C
102
}
100
AcDbDictionary
281
1
  0
DICTIONARY
  5
1A
102
{ACAD_REACTORS
330
C
102
}
100
AcDbDictionary
281
1
  3
Model
350
3BE
  3
Layout1
350
3BF
  0
ACDBPLACEHOLDER
  5
F
102
{ACAD_REACTORS
330
E
102
}
  0
MLINESTYLE
  5
18
102
{ACAD_REACTORS
330
17
102
}
100
AcDbMlineStyle
  2
STANDARD
 70
0
  3

 62
256
 51
90.0
 52
90.0
 71
2
 49
0.5
 62
256
  6
BYLAYER
 49
-0.5
 62
256
  6
BYLAYER
  0
LAYOUT
  5
3BE
102
{ACAD_REACTORS
330
1A
102
}
100
AcDbPlotSettings
  1

  2
none_device
  4
ANSI_C_(22.00_x_17.00_Inches)
  6

 40
0.0
 41
0.0
 42
0.0
 43
0.0
 44
558.8
 45
431.8
 46
0.0
 47
0.0
 48
0.0
 49
0.0
140
0.0
141
0.0
142
1.0
143
1.0
 70
1024
 72
0
 73
0
 74
0
  7

 75
0
147
1.0
148
0.0
149
0.0
100
AcDbLayout
  1
Model
 70
0
 71
0
 10
0.0
 20
0.0
 11
22.0
 21
17.0
 12
0.0
 22
0.0
 32
0.0
 14
0.0
 24
0.0
 34
0.0
 15
0.0
 25
0.0
 35
0.0
146
0.0
 13
0.0
 23
0.0
 33
0.0
 16
1.0
 26
0.0
 36
0.0
 17
0.0
 27
1.0
 37
0.0
 76
0
330
207
345
0
346
0
  0
LAYOUT
  5
3BF
102
{ACAD_REACTORS
330
1A
102
}
100
AcDbPlotSettings
  1

  2
none_device
  4
ANSI_C_(22.00_x_17.00_Inches)
  6

 40
0.0
 41
0.0
 42
0.0
 43
0.0
 44
558.8
 45
431.8
 46
0.0
 47
0.0
 48
0.0
 49
0.0
140
0.0
141
0.0
142
1.0
143
1.0
 70
0
 72
0
 73
0
 74
0
  7

 75
0
147
1.0
148
0.0
149
0.0
100
AcDbLayout
  1
Layout1
 70
0
 71
1
 10
0.0
 20
0.0
 11
22.0
 21
17.0
 12
0.0
 22
0.0
 32
0.0
 14
0.0
 24
0.0
 34
0.0
 15
0.0
 25
0.0
 35
0.0
146
0.0
 13
0.0
 23
0.0
 33
0.0
 16
1.0
 26
0.0
 36
0.0
 17
0.0
 27
1.0
 37
0.0
 76
0
330
208
345
0
346
0
  0
IMAGEDEF
  5
3C0
102
{ACAD_REACTORS
330
3BB
330
3BA
102
}
100
AcDbRasterImageDef
 90
0
  1
YVS_assy_2_img_1.png
 10
369.0
 20
92.0
 11
0.0066666667
 21
0.0066666667
280
1
281
0
  0
TABLESTYLE
  5
3C1
102
{ACAD_REACTORS
330
3BD
330
28D
330
28E
102
}
330
3BD
100
AcDbTableStyle
  3
Standard
 70
0
 71
0
 40
0.06
 41
0.06
280
1
281
1
  7
Standard
140
0.18
170
1
 62
0
 63
7
283
0
  7
Standard
140
0.18
170
1
 62
0
 63
7
283
0
  7
Standard
140
0.18
170
1
 62
0
 63
7
283
0
  0
TABLESTYLE
  5
3C2
102
{ACAD_REACTORS
330
3BD
330
28C
102
}
330
3BD
100
AcDbTableStyle
  3
Standard1
 70
1
 71
0
 40
0.06
 41
0.06
280
1
281
1
  7
Standard
140
0.18
170
1
 62
0
 63
7
283
0
  7
Standard
140
0.18
170
1
 62
0
 63
7
283
0
  7
Standard
140
0.18
170
1
 62
0
 63
7
283
0
  0
ENDSEC
  0
EOF
