999
DXF file: YVR_assy_2.dxf
999
Pro/ENGINEER 2014200 by Parametric Technology Corporation
  0
SECTION
  2
HEADER
  9
$ACADVER
  1
AC1021
  9
$DWGCODEPAGE
  3
ANSI_1252
  9
$EXTMAX
 10
22.0
 20
17.0
 30
0.0
  9
$EXTMIN
 10
0.0
 20
0.0
 30
0.0
  9
$LIMMIN
 10
0.0
 20
0.0
  9
$LIMMAX
 10
22.0
 20
17.0
  9
$VIEWCTR
 10
11.0
 20
8.5
  9
$VIEWSIZE
 40
17.0
  9
$CLAYER
  8
0
  9
$LTSCALE
 40
1.21
  9
$CELTYPE
  6
BYLAYER
  9
$DIMSCALE
 40
1.0
  9
$DIMASZ
 40
0.1875
  9
$DIMEXO
 40
0.0625
  9
$DIMDLI
 40
0.836
  9
$DIMEXE
 40
0.125
  9
$DIMCEN
 40
0.198
  9
$DIMLFAC
 40
1.0
  9
$DIMBLK
  1
_FILLED
  9
$DIMTXT
 40
0.1
  9
$DIMTOL
 70
0
  9
$DIMLIM
 70
0
  9
$DIMTFAC
 40
1.0
  9
$DIMGAP
 40
0.09
  9
$DIMDSEP
 70
46
  9
$AUNITS
 70
0
  9
$PDMODE
 70
3
  9
$PDSIZE
 40
0.3125
  9
$HANDSEED
  5
3CD
  9
$TILEMODE
 70
1
  9
$MEASUREMENT
 70
0
  9
$INSUNITS
 70
1
  0
ENDSEC
  0
SECTION
  2
CLASSES
  0
CLASS
  1
ACDBDICTIONARYWDFLT
  2
AcDbDictionaryWithDefault
  3
AutoCAD 2000
 90
0
 91
1
280
0
281
0
  0
CLASS
  1
ACDBPLACEHOLDER
  2
AcDbPlaceHolder
  3
AutoCAD 2000
 90
0
 91
1
280
0
281
0
  0
CLASS
  1
LAYOUT
  2
AcDbLayout
  3
AutoCAD 2000
 90
0
 91
0
280
0
281
0
  0
CLASS
  1
RASTERVARIABLES
  2
AcDbRasterVariables
  3
ISM
 90
0
 91
1
280
0
281
0
  0
CLASS
  1
IMAGEDEF
  2
AcDbRasterImageDef
  3
ISM
 90
0
 91
1
280
0
281
0
  0
CLASS
  1
IMAGEDEF_REACTOR
  2
AcDbRasterImageDefReactor
  3
ISM
 90
0
 91
1
280
0
281
0
  0
CLASS
  1
IMAGE
  2
AcDbRasterImage
  3
ISM
 90
127
 91
1
280
0
281
1
  0
CLASS
  1
TABLESTYLE
  2
AcDbTableStyle
  3
ObjectDBX Classes
 90
2047
 91
1
280
0
281
0
  0
CLASS
  1
ACAD_TABLE
  2
AcDbTable
  3
ObjectDBX Classes
 90
1025
 91
3
280
0
281
1
  0
ENDSEC
  0
SECTION
  2
TABLES
  0
TABLE
  2
VPORT
  5
8
100
AcDbSymbolTable
 70
2
  0
VPORT
  5
1F4
100
AcDbSymbolTableRecord
100
AcDbViewportTableRecord
  2
*ACTIVE
 70
0
 10
0.0
 20
0.0
 11
1.0
 21
1.0
 12
11.0
 22
8.5
 13
0.0
 23
0.0
 14
1.0
 24
1.0
 15
0.0
 25
0.0
 16
0.0
 26
0.0
 36
1.0
 17
0.0
 27
0.0
 37
0.0
 40
17.0
 41
1.2941176471
 42
50.0
 43
0.0
 44
0.0
 50
0.0
 51
0.0
 71
0
 72
100
 73
1
 74
1
 75
0
 76
0
 77
0
 78
0
  0
ENDTAB
  0
TABLE
  2
LTYPE
  5
5
100
AcDbSymbolTable
 70
6
  0
LTYPE
  5
14
100
AcDbSymbolTableRecord
100
AcDbLinetypeTableRecord
  2
BYBLOCK
 70
0
  3

 72
65
 73
0
 40
0.0
  0
LTYPE
  5
15
100
AcDbSymbolTableRecord
100
AcDbLinetypeTableRecord
  2
BYLAYER
 70
0
  3

 72
65
 73
0
 40
0.0
  0
LTYPE
  5
16
100
AcDbSymbolTableRecord
100
AcDbLinetypeTableRecord
  2
CONTINUOUS
 70
64
  3
Solid line
 72
65
 73
0
 40
0.0
  0
LTYPE
  5
1F5
100
AcDbSymbolTableRecord
100
AcDbLinetypeTableRecord
  2
CENTER
 70
64
  3
____ _ ____ _ ____ _ ____ _ ____ _ ____ _ ____
 72
65
 73
4
 40
0.6
 49
0.375
 74
0
 49
-0.075
 74
0
 49
0.075
 74
0
 49
-0.075
 74
0
  0
LTYPE
  5
1F6
100
AcDbSymbolTableRecord
100
AcDbLinetypeTableRecord
  2
HIDDEN
 70
64
  3
- - - - - - - - - - - - - - - - - - - -
 72
65
 73
2
 40
0.2
 49
0.1
 74
0
 49
-0.1
 74
0
  0
LTYPE
  5
1F7
100
AcDbSymbolTableRecord
100
AcDbLinetypeTableRecord
  2
PHANTOM
 70
64
  3
_____ _ _ _____ _ _ _____ _ _ _____
 72
65
 73
6
 40
0.8
 49
0.45
 74
0
 49
-0.05
 74
0
 49
0.1
 74
0
 49
-0.05
 74
0
 49
0.1
 74
0
 49
-0.05
 74
0
  0
LTYPE
  5
1F8
100
AcDbSymbolTableRecord
100
AcDbLinetypeTableRecord
  2
DOT
 70
64
  3
. . . . . . . . . . . . . . . . . . . .
 72
65
 73
2
 40
0.2
 49
0.1
 74
0
 49
-0.1
 74
0
  0
LTYPE
  5
1F9
100
AcDbSymbolTableRecord
100
AcDbLinetypeTableRecord
  2
DASHED
 70
64
  3
- - - - - - - - - - - - - - - - - - - -
 72
65
 73
2
 40
0.2
 49
0.1
 74
0
 49
-0.1
 74
0
  0
ENDTAB
  0
TABLE
  2
LAYER
  5
2
100
AcDbSymbolTable
 70
36
  0
LAYER
  5
10
100
AcDbSymbolTableRecord
100
AcDbLayerTableRecord
  2
0
 70
0
 62
7
  6
CONTINUOUS
370
-3
390
F
  0
LAYER
  5
1FA
100
AcDbSymbolTableRecord
100
AcDbLayerTableRecord
  2
DEFAULT_1
 70
0
 62
7
  6
CENTER
370
-3
390
F
  0
LAYER
  5
1FB
100
AcDbSymbolTableRecord
100
AcDbLayerTableRecord
  2
DEFAULT_2
 70
0
 62
8
  6
HIDDEN
370
-3
390
F
  0
LAYER
  5
1FC
100
AcDbSymbolTableRecord
100
AcDbLayerTableRecord
  2
DEFAULT_3
 70
0
 62
7
  6
PHANTOM
370
-3
390
F
  0
LAYER
  5
1FD
100
AcDbSymbolTableRecord
100
AcDbLayerTableRecord
  2
DATUM_PLANES
 70
0
 62
7
  6
CONTINUOUS
370
-3
390
F
  0
LAYER
  5
1FE
100
AcDbSymbolTableRecord
100
AcDbLayerTableRecord
  2
DIMENSIONS
 70
0
 62
7
  6
CONTINUOUS
370
-3
390
F
  0
LAYER
  5
1FF
100
AcDbSymbolTableRecord
100
AcDbLayerTableRecord
  2
DTM_500001
 70
0
 62
7
  6
CONTINUOUS
370
-3
390
F
  0
LAYER
  5
200
100
AcDbSymbolTableRecord
100
AcDbLayerTableRecord
  2
PARAMETERDIMENSIONS
 70
0
 62
7
  6
CONTINUOUS
370
-3
390
F
  0
LAYER
  5
201
100
AcDbSymbolTableRecord
100
AcDbLayerTableRecord
  2
PORT_AREAS
 70
0
 62
7
  6
CONTINUOUS
370
-3
390
F
  0
LAYER
  5
202
100
AcDbSymbolTableRecord
100
AcDbLayerTableRecord
  2
SUNNBOMCOSMETIC
 70
0
 62
7
  6
CONTINUOUS
370
-3
390
F
  0
LAYER
  5
203
100
AcDbSymbolTableRecord
100
AcDbLayerTableRecord
  2
SUNNBOMSTAMPING
 70
0
 62
7
  6
CONTINUOUS
370
-3
390
F
  0
LAYER
  5
204
100
AcDbSymbolTableRecord
100
AcDbLayerTableRecord
  2
THREADS
 70
0
 62
7
  6
CONTINUOUS
370
-3
390
F
  0
ENDTAB
  0
TABLE
  2
STYLE
  5
3
100
AcDbSymbolTable
 70
1
  0
STYLE
  5
11
100
AcDbSymbolTableRecord
100
AcDbTextStyleTableRecord
  2
STANDARD
 70
0
 40
0.0
 41
0.8
 50
0.0
 71
0
 42
0.2
  3
txt
  4

  0
STYLE
  5
205
100
AcDbSymbolTableRecord
100
AcDbTextStyleTableRecord
  2
TEXTSTYLE_1
 70
0
 40
0.0
 41
0.8
 50
0.0
 71
0
 42
0.2
  3
gdt
  4

  0
ENDTAB
  0
TABLE
  2
VIEW
  5
6
100
AcDbSymbolTable
 70
0
  0
ENDTAB
  0
TABLE
  2
UCS
  5
7
100
AcDbSymbolTable
 70
0
  0
ENDTAB
  0
TABLE
  2
APPID
  5
9
100
AcDbSymbolTable
 70
1
  0
APPID
  5
206
100
AcDbSymbolTableRecord
100
AcDbRegAppTableRecord
  2
ACAD
 70
0
  0
ENDTAB
  0
TABLE
  2
BLOCK_RECORD
  5
1
100
AcDbSymbolTable
 70
0
  0
BLOCK_RECORD
  5
207
100
AcDbSymbolTableRecord
100
AcDbBlockTableRecord
  2
*Model_Space
  0
BLOCK_RECORD
  5
208
100
AcDbSymbolTableRecord
100
AcDbBlockTableRecord
  2
*Paper_Space
  0
BLOCK_RECORD
  5
209
100
AcDbSymbolTableRecord
100
AcDbBlockTableRecord
  2
SUN_FIRST_THIRD_ANGLE_BL0
  0
BLOCK_RECORD
  5
20A
100
AcDbSymbolTableRecord
100
AcDbBlockTableRecord
  2
*T1
  0
BLOCK_RECORD
  5
20B
100
AcDbSymbolTableRecord
100
AcDbBlockTableRecord
  2
*T2
  0
BLOCK_RECORD
  5
20C
100
AcDbSymbolTableRecord
100
AcDbBlockTableRecord
  2
*T3
  0
ENDTAB
  0
TABLE
  2
DIMSTYLE
  5
A
100
AcDbSymbolTable
 70
1
100
AcDbDimStyleTable
 71
0
  0
DIMSTYLE
105
20D
100
AcDbSymbolTableRecord
100
AcDbDimStyleTableRecord
  2
STANDARD
 70
0
  3

  4

 40
1.0
 41
0.1875
 42
0.0625
 43
0.38
 44
0.125
 45
0.0
 46
0.0
 47
0.001
 48
0.001
140
0.1
141
0.09
142
0.0
143
25.4
144
1.0
145
0.0
146
1.0
147
0.09
 71
0.0
 72
0.0
 73
1
 74
1
 75
0
 76
0
 77
0
 78
4
170
0
171
2
172
0
173
0
174
0
175
0
176
0
177
0
178
0
270
2
271
3
272
3
273
2
274
2
275
0
280
0
281
0
282
0
283
1
284
4
285
0
286
0
287
3
288
0
340
11
278
46
  0
ENDTAB
  0
ENDSEC
  0
SECTION
  2
BLOCKS
  0
BLOCK
  5
20
100
AcDbEntity
  8
0
100
AcDbBlockBegin
  2
*Model_Space
 70
0
 10
0.0
 20
0.0
 30
0.0
  3
*Model_Space
  1

  0
ENDBLK
  5
21
100
AcDbEntity
  8
0
100
AcDbBlockEnd
  0
BLOCK
  5
1C
100
AcDbEntity
  8
0
100
AcDbBlockBegin
  2
*Paper_Space
 70
0
 10
0.0
 20
0.0
 30
0.0
  3
*Paper_Space
  1

  0
ENDBLK
  5
1D
100
AcDbEntity
  8
0
100
AcDbBlockEnd
  0
BLOCK
  5
20E
100
AcDbEntity
  8
0
100
AcDbBlockBegin
 62
2
  6
CONTINUOUS
  2
SUN_FIRST_THIRD_ANGLE_BL0
 70
64
 10
20.4816717061
 20
1.2289683772
  3
SUN_FIRST_THIRD_ANGLE_BL0
  1

  0
TEXT
  5
20F
100
AcDbEntity
  8
0
100
AcDbText
 62
2
  6
CONTINUOUS
 10
19.4750896608
 20
1.4136269581
  7
STANDARD
 40
0.08
  1
FIRST ANGLE
 41
0.8
 72
0
100
AcDbText
  0
TEXT
  5
210
100
AcDbEntity
  8
0
100
AcDbText
 62
2
  6
CONTINUOUS
 10
20.7842537513
 20
1.4047600029
  7
STANDARD
 40
0.08
  1
THIRD ANGLE
 41
0.8
 72
0
100
AcDbText
  0
LINE
  5
211
100
AcDbEntity
  8
0
100
AcDbLine
 62
7
  6
CONTINUOUS
 10
19.4767170086
 20
1.1727031207
 11
19.6334271527
 21
1.1717972817
  0
LINE
  5
212
100
AcDbEntity
  8
0
100
AcDbLine
 62
7
  6
CONTINUOUS
 10
19.6596964832
 20
1.1717972817
 11
19.6950230232
 21
1.171593082
  0
LINE
  5
213
100
AcDbEntity
  8
0
100
AcDbLine
 62
7
  6
CONTINUOUS
 10
19.7194818561
 20
1.1708914427
 11
19.8852396156
 21
1.1699333054
  0
LINE
  5
214
100
AcDbEntity
  8
0
100
AcDbLine
 62
7
  6
CONTINUOUS
 10
19.4758111696
 20
1.2723454088
 11
19.88525039
 21
1.3511534004
  0
LINE
  5
215
100
AcDbEntity
  8
0
100
AcDbLine
 62
7
  6
CONTINUOUS
 10
19.88525039
 20
1.3511534004
 11
19.8831348489
 21
0.9851647912
  0
LINE
  5
216
100
AcDbEntity
  8
0
100
AcDbLine
 62
7
  6
CONTINUOUS
 10
19.8831348489
 20
0.9851647912
 11
19.4767170086
 21
1.0658141206
  0
LINE
  5
217
100
AcDbEntity
  8
0
100
AcDbLine
 62
7
  6
CONTINUOUS
 10
19.4767170086
 20
1.0658141206
 11
19.4779056764
 21
1.2714536432
  0
CIRCLE
  5
218
100
AcDbEntity
  8
0
100
AcDbCircle
 62
7
  6
CONTINUOUS
 10
20.2068232291
 20
1.1717972817
 40
0.175742101
  0
CIRCLE
  5
219
100
AcDbEntity
  8
0
100
AcDbCircle
 62
7
  6
CONTINUOUS
 10
20.2068232291
 20
1.1717972817
 40
0.1005522074
  0
LINE
  5
21A
100
AcDbEntity
  8
0
100
AcDbLine
 62
7
  6
CONTINUOUS
 10
20.2077290681
 20
1.3756110529
 11
20.2071171714
 21
1.2379342989
  0
LINE
  5
21B
100
AcDbEntity
  8
0
100
AcDbLine
 62
7
  6
CONTINUOUS
 10
20.2077290681
 20
1.2016899681
 11
20.2074674401
 21
1.1428236749
  0
LINE
  5
21C
100
AcDbEntity
  8
0
100
AcDbLine
 62
7
  6
CONTINUOUS
 10
20.208634907
 20
1.101141841
 11
20.2080230104
 21
0.963465087
  0
LINE
  5
21D
100
AcDbEntity
  8
0
100
AcDbLine
 62
7
  6
CONTINUOUS
 10
20.0066328138
 20
1.1745147986
 11
20.1443095678
 21
1.1739029019
  0
LINE
  5
21E
100
AcDbEntity
  8
0
100
AcDbLine
 62
7
  6
CONTINUOUS
 10
20.1832714155
 20
1.1727031207
 11
20.238153505
 21
1.172335442
  0
LINE
  5
21F
100
AcDbEntity
  8
0
100
AcDbLine
 62
7
  6
CONTINUOUS
 10
20.2756669918
 20
1.1717972817
 11
20.407916871
 21
1.1712095044
  0
CIRCLE
  5
220
100
AcDbEntity
  8
0
100
AcDbCircle
 62
7
  6
CONTINUOUS
 10
20.7509457401
 20
1.1693297793
 40
0.1722024983
  0
CIRCLE
  5
221
100
AcDbEntity
  8
0
100
AcDbCircle
 62
7
  6
CONTINUOUS
 10
20.7509457401
 20
1.1693297793
 40
0.0985164967
  0
LINE
  5
222
100
AcDbEntity
  8
0
100
AcDbLine
 62
7
  6
CONTINUOUS
 10
20.7169767782
 20
1.170462078
 11
20.7825395137
 21
1.1682766535
  0
LINE
  5
223
100
AcDbEntity
  8
0
100
AcDbLine
 62
7
  6
CONTINUOUS
 10
20.8177513651
 20
1.1693297793
 11
20.947965719
 21
1.1693297793
  0
LINE
  5
224
100
AcDbEntity
  8
0
100
AcDbLine
 62
7
  6
CONTINUOUS
 10
20.6875370113
 20
1.170462078
 11
20.5573226574
 21
1.170462078
  0
LINE
  5
225
100
AcDbEntity
  8
0
100
AcDbLine
 62
7
  6
CONTINUOUS
 10
20.7486811426
 20
1.1987695462
 11
20.7486811426
 21
1.1432869085
  0
LINE
  5
226
100
AcDbEntity
  8
0
100
AcDbLine
 62
7
  6
CONTINUOUS
 10
20.7498134414
 20
1.1059210505
 11
20.7498134414
 21
0.9757066966
  0
LINE
  5
227
100
AcDbEntity
  8
0
100
AcDbLine
 62
7
  6
CONTINUOUS
 10
20.7486811426
 20
1.2338708068
 11
20.7486811426
 21
1.3640851607
  0
LINE
  5
228
100
AcDbEntity
  8
0
100
AcDbLine
 62
7
  6
CONTINUOUS
 10
21.0702539817
 20
1.2701043662
 11
21.4790138229
 21
1.3448360823
  0
LINE
  5
229
100
AcDbEntity
  8
0
100
AcDbLine
 62
7
  6
CONTINUOUS
 10
21.4790138229
 20
1.3448360823
 11
21.4790138229
 21
0.9779712941
  0
LINE
  5
22A
100
AcDbEntity
  8
0
100
AcDbLine
 62
7
  6
CONTINUOUS
 10
21.4790138229
 20
0.9779712941
 11
21.069121683
 21
1.0617614
  0
LINE
  5
22B
100
AcDbEntity
  8
0
100
AcDbLine
 62
7
  6
CONTINUOUS
 10
21.0702539817
 20
1.2701043662
 11
21.069121683
 21
1.0617614
  0
LINE
  5
22C
100
AcDbEntity
  8
0
100
AcDbLine
 62
7
  6
CONTINUOUS
 10
21.4790138229
 20
1.1693297793
 11
21.3159628059
 21
1.1693297793
  0
LINE
  5
22D
100
AcDbEntity
  8
0
100
AcDbLine
 62
7
  6
CONTINUOUS
 10
21.2876553377
 20
1.1693297793
 11
21.2502894796
 21
1.1693297793
  0
LINE
  5
22E
100
AcDbEntity
  8
0
100
AcDbLine
 62
7
  6
CONTINUOUS
 10
21.2208497126
 20
1.1659328831
 11
21.0713862804
 21
1.1659328831
  0
LINE
  5
22F
100
AcDbEntity
  8
0
100
AcDbLine
 62
7
  6
CONTINUOUS
 10
20.4796138713
 20
1.5284908897
 11
20.4766766948
 21
0.9294458646
  0
ENDBLK
  5
230
100
AcDbEntity
  8
0
  6
BYBLOCK
 62
0
100
AcDbBlockEnd
  0
BLOCK
  5
231
100
AcDbEntity
  8
0
100
AcDbBlockBegin
  2
*T1
 70
1
 10
0.0
 20
0.0
  3
*T1
  1

  0
LINE
  5
232
100
AcDbEntity
  8
0
100
AcDbLine
 62
2
  6
CONTINUOUS
 10
9.275
 20
0.0
 11
-0.0
 21
0.0
  0
LINE
  5
233
100
AcDbEntity
  8
0
100
AcDbLine
 62
2
  6
CONTINUOUS
 10
9.275
 20
0.0
 11
9.275
 21
1.25
  0
LINE
  5
234
100
AcDbEntity
  8
0
100
AcDbLine
 62
2
  6
CONTINUOUS
 10
9.275
 20
0.625
 11
-0.0
 21
0.625
  0
LINE
  5
235
100
AcDbEntity
  8
0
100
AcDbLine
 62
2
  6
CONTINUOUS
 10
9.275
 20
1.25
 11
-0.0
 21
1.25
  0
LINE
  5
236
100
AcDbEntity
  8
0
100
AcDbLine
 62
2
  6
CONTINUOUS
 10
6.8
 20
0.0
 11
6.8
 21
1.25
  0
LINE
  5
237
100
AcDbEntity
  8
0
100
AcDbLine
 62
2
  6
CONTINUOUS
 10
6.4
 20
0.0
 11
6.4
 21
0.625
  0
LINE
  5
238
100
AcDbEntity
  8
0
100
AcDbLine
 62
2
  6
CONTINUOUS
 10
5.9
 20
0.0
 11
5.9
 21
0.625
  0
LINE
  5
239
100
AcDbEntity
  8
0
100
AcDbLine
 62
2
  6
CONTINUOUS
 10
5.2
 20
0.0
 11
5.2
 21
0.625
  0
LINE
  5
23A
100
AcDbEntity
  8
0
100
AcDbLine
 62
2
  6
CONTINUOUS
 10
4.1
 20
0.0
 11
4.1
 21
1.25
  0
LINE
  5
23B
100
AcDbEntity
  8
0
100
AcDbLine
 62
2
  6
CONTINUOUS
 10
-0.0
 20
0.0
 11
-0.0
 21
1.25
  0
MTEXT
  5
23C
100
AcDbEntity
  8
0
100
AcDbMText
 62
2
  6
CONTINUOUS
  7
STANDARD
 71
2
 72
1
 10
6.6
 20
0.325
 30
0.0
 11
1.0
 21
0.0
 31
0.0
 44
0.9
  1
2
 40
0.125
 41
0.2
  0
MTEXT
  5
23D
100
AcDbEntity
  8
0
100
AcDbMText
 62
2
  6
CONTINUOUS
  7
STANDARD
 71
2
 72
1
 10
6.15
 20
0.325
 30
0.0
 11
1.0
 21
0.0
 31
0.0
 44
0.9
  1
C
 40
0.125
 41
0.2
  0
MTEXT
  5
23E
100
AcDbEntity
  8
0
100
AcDbMText
 62
2
  6
CONTINUOUS
  7
STANDARD
 71
2
 72
1
 10
5.55
 20
0.325
 30
0.0
 11
1.0
 21
0.0
 31
0.0
 44
0.9
  1
1.000
 40
0.125
 41
1.0
  0
MTEXT
  5
23F
100
AcDbEntity
  8
0
100
AcDbMText
 62
2
  6
CONTINUOUS
  7
STANDARD
 71
2
 72
1
 10
4.65
 20
0.325
 30
0.0
 11
1.0
 21
0.0
 31
0.0
 44
0.9
  1
Oct-23-19
 40
0.125
 41
1.8
  0
MTEXT
  5
240
100
AcDbEntity
  8
0
100
AcDbMText
 62
2
  6
CONTINUOUS
  7
STANDARD
 71
2
 72
1
 10
2.05
 20
0.4625
 30
0.0
 11
1.0
 21
0.0
 31
0.0
 44
0.9
  1
T-17A Gasket mount Sun\PDirect mount, cross pilot
 40
0.125
 41
5.0
  0
MTEXT
  5
241
100
AcDbEntity
  8
0
100
AcDbMText
 62
2
  6
CONTINUOUS
  7
STANDARD
 71
1
 72
1
 10
6.45
 20
0.5625
 30
0.0
 11
1.0
 21
0.0
 31
0.0
 44
0.9
  1
SHEET
 40
0.06
 41
0.48
  0
MTEXT
  5
242
100
AcDbEntity
  8
0
100
AcDbMText
 62
2
  6
CONTINUOUS
  7
STANDARD
 71
1
 72
1
 10
5.95
 20
0.5625
 30
0.0
 11
1.0
 21
0.0
 31
0.0
 44
0.9
  1
DWG SIZE
 40
0.06
 41
0.768
  0
MTEXT
  5
243
100
AcDbEntity
  8
0
100
AcDbMText
 62
2
  6
CONTINUOUS
  7
STANDARD
 71
1
 72
1
 10
5.25
 20
0.5625
 30
0.0
 11
1.0
 21
0.0
 31
0.0
 44
0.9
  1
SCALE
 40
0.06
 41
0.48
  0
MTEXT
  5
244
100
AcDbEntity
  8
0
100
AcDbMText
 62
2
  6
CONTINUOUS
  7
STANDARD
 71
1
 72
1
 10
4.15
 20
0.5625
 30
0.0
 11
1.0
 21
0.0
 31
0.0
 44
0.9
  1
DATE
 40
0.06
 41
0.384
  0
MTEXT
  5
245
100
AcDbEntity
  8
0
100
AcDbMText
 62
2
  6
CONTINUOUS
  7
STANDARD
 71
1
 72
1
 10
0.05
 20
0.5625
 30
0.0
 11
1.0
 21
0.0
 31
0.0
 44
0.9
  1
DESCRIPTION
 40
0.06
 41
1.056
  0
MTEXT
  5
246
100
AcDbEntity
  8
0
100
AcDbMText
 62
2
  6
CONTINUOUS
  7
STANDARD
 71
2
 72
1
 10
5.45
 20
1.0375
 30
0.0
 11
1.0
 21
0.0
 31
0.0
 44
0.9
  1
ALL DIMENSIONS IN INCH\PVIEWS ARE THIRD ANGLE
 40
0.12
 41
4.224
  0
MTEXT
  5
247
100
AcDbEntity
  8
0
100
AcDbMText
 62
2
  6
CONTINUOUS
  7
STANDARD
 71
2
 72
1
 10
2.05
 20
0.95
 30
0.0
 11
1.0
 21
0.0
 31
0.0
 44
0.9
  1
YVR
 40
0.125
 41
0.6
  0
MTEXT
  5
248
100
AcDbEntity
  8
0
100
AcDbMText
 62
2
  6
CONTINUOUS
  7
STANDARD
 71
1
 72
1
 10
0.05
 20
1.1875
 30
0.0
 11
1.0
 21
0.0
 31
0.0
 44
0.9
  1
MODEL
 40
0.06
 41
0.48
  0
ENDBLK
  5
249
100
AcDbEntity
  8
0
  6
BYBLOCK
 62
0
100
AcDbBlockEnd
  0
BLOCK
  5
24A
100
AcDbEntity
  8
0
100
AcDbBlockBegin
  2
*T2
 70
1
 10
0.0
 20
0.0
  3
*T2
  1

  0
LINE
  5
24B
100
AcDbEntity
  8
0
100
AcDbLine
 62
2
  6
CONTINUOUS
 10
0.0
 20
0.0
 11
9.055
 21
0.0
  0
LINE
  5
24C
100
AcDbEntity
  8
0
100
AcDbLine
 62
2
  6
CONTINUOUS
 10
0.0
 20
0.0
 11
0.0
 21
-3.094
  0
LINE
  5
24D
100
AcDbEntity
  8
0
100
AcDbLine
 62
2
  6
CONTINUOUS
 10
0.0
 20
-0.344
 11
9.055
 21
-0.344
  0
LINE
  5
24E
100
AcDbEntity
  8
0
100
AcDbLine
 62
2
  6
CONTINUOUS
 10
0.0
 20
-0.594
 11
9.055
 21
-0.594
  0
LINE
  5
24F
100
AcDbEntity
  8
0
100
AcDbLine
 62
2
  6
CONTINUOUS
 10
0.0
 20
-0.844
 11
9.055
 21
-0.844
  0
LINE
  5
250
100
AcDbEntity
  8
0
100
AcDbLine
 62
2
  6
CONTINUOUS
 10
0.0
 20
-1.094
 11
9.055
 21
-1.094
  0
LINE
  5
251
100
AcDbEntity
  8
0
100
AcDbLine
 62
2
  6
CONTINUOUS
 10
0.0
 20
-1.344
 11
9.055
 21
-1.344
  0
LINE
  5
252
100
AcDbEntity
  8
0
100
AcDbLine
 62
2
  6
CONTINUOUS
 10
0.0
 20
-1.594
 11
9.055
 21
-1.594
  0
LINE
  5
253
100
AcDbEntity
  8
0
100
AcDbLine
 62
2
  6
CONTINUOUS
 10
0.0
 20
-1.844
 11
9.055
 21
-1.844
  0
LINE
  5
254
100
AcDbEntity
  8
0
100
AcDbLine
 62
2
  6
CONTINUOUS
 10
0.0
 20
-2.094
 11
9.055
 21
-2.094
  0
LINE
  5
255
100
AcDbEntity
  8
0
100
AcDbLine
 62
2
  6
CONTINUOUS
 10
0.0
 20
-2.344
 11
9.055
 21
-2.344
  0
LINE
  5
256
100
AcDbEntity
  8
0
100
AcDbLine
 62
2
  6
CONTINUOUS
 10
0.0
 20
-2.594
 11
9.055
 21
-2.594
  0
LINE
  5
257
100
AcDbEntity
  8
0
100
AcDbLine
 62
2
  6
CONTINUOUS
 10
0.0
 20
-2.844
 11
9.055
 21
-2.844
  0
LINE
  5
258
100
AcDbEntity
  8
0
100
AcDbLine
 62
2
  6
CONTINUOUS
 10
0.0
 20
-3.094
 11
9.055
 21
-3.094
  0
LINE
  5
259
100
AcDbEntity
  8
0
100
AcDbLine
 62
2
  6
CONTINUOUS
 10
3.055
 20
0.0
 11
3.055
 21
-3.094
  0
LINE
  5
25A
100
AcDbEntity
  8
0
100
AcDbLine
 62
2
  6
CONTINUOUS
 10
9.055
 20
0.0
 11
9.055
 21
-3.094
  0
MTEXT
  5
25B
100
AcDbEntity
  8
0
100
AcDbMText
 62
2
  6
CONTINUOUS
  7
STANDARD
 71
2
 72
1
 10
1.5275
 20
-0.0995
 30
0.0
 11
1.0
 21
0.0
 31
0.0
 44
0.9
  1
Technical Data
 40
0.145
 41
3.248
  0
MTEXT
  5
25C
100
AcDbEntity
  8
0
100
AcDbMText
 62
2
  6
CONTINUOUS
  7
STANDARD
 71
2
 72
1
 10
4.555
 20
-0.0995
 30
0.0
 11
1.0
 21
0.0
 31
0.0
 44
0.9
  1
U.S. Units
 40
0.145
 41
2.32
  0
MTEXT
  5
25D
100
AcDbEntity
  8
0
100
AcDbMText
 62
2
  6
CONTINUOUS
  7
STANDARD
 71
2
 72
1
 10
7.555
 20
-0.0995
 30
0.0
 11
1.0
 21
0.0
 31
0.0
 44
0.9
  1
Metric Units
 40
0.145
 41
2.784
  0
MTEXT
  5
25E
100
AcDbEntity
  8
0
100
AcDbMText
 62
2
  6
CONTINUOUS
  7
STANDARD
 71
2
 72
1
 10
1.5275
 20
-0.4065
 30
0.0
 11
1.0
 21
0.0
 31
0.0
 44
0.9
  1
Cavity
 40
0.125
 41
1.2
  0
MTEXT
  5
25F
100
AcDbEntity
  8
0
100
AcDbMText
 62
2
  6
CONTINUOUS
  7
STANDARD
 71
2
 72
1
 10
6.055
 20
-0.4065
 30
0.0
 11
1.0
 21
0.0
 31
0.0
 44
0.9
  1
T-17A
 40
0.125
 41
1.0
  0
MTEXT
  5
260
100
AcDbEntity
  8
0
100
AcDbMText
 62
2
  6
CONTINUOUS
  7
STANDARD
 71
2
 72
1
 10
1.5275
 20
-0.6565
 30
0.0
 11
1.0
 21
0.0
 31
0.0
 44
0.9
  1
Body Features
 40
0.125
 41
2.6
  0
MTEXT
  5
261
100
AcDbEntity
  8
0
100
AcDbMText
 62
2
  6
CONTINUOUS
  7
STANDARD
 71
2
 72
1
 10
6.055
 20
-0.6565
 30
0.0
 11
1.0
 21
0.0
 31
0.0
 44
0.9
  1
Direct mount, cross pilot
 40
0.125
 41
5.0
  0
MTEXT
  5
262
100
AcDbEntity
  8
0
100
AcDbMText
 62
2
  6
CONTINUOUS
  7
STANDARD
 71
2
 72
1
 10
1.5275
 20
-0.9065
 30
0.0
 11
1.0
 21
0.0
 31
0.0
 44
0.9
  1
Body Type
 40
0.125
 41
1.8
  0
MTEXT
  5
263
100
AcDbEntity
  8
0
100
AcDbMText
 62
2
  6
CONTINUOUS
  7
STANDARD
 71
2
 72
1
 10
6.055
 20
-0.9065
 30
0.0
 11
1.0
 21
0.0
 31
0.0
 44
0.9
  1
Gasket mount
 40
0.125
 41
2.4
  0
MTEXT
  5
264
100
AcDbEntity
  8
0
100
AcDbMText
 62
2
  6
CONTINUOUS
  7
STANDARD
 71
2
 72
1
 10
1.5275
 20
-1.1565
 30
0.0
 11
1.0
 21
0.0
 31
0.0
 44
0.9
  1
Interface
 40
0.125
 41
1.8
  0
MTEXT
  5
265
100
AcDbEntity
  8
0
100
AcDbMText
 62
2
  6
CONTINUOUS
  7
STANDARD
 71
2
 72
1
 10
6.055
 20
-1.1565
 30
0.0
 11
1.0
 21
0.0
 31
0.0
 44
0.9
  1
Sun
 40
0.125
 41
0.6
  0
MTEXT
  5
266
100
AcDbEntity
  8
0
100
AcDbMText
 62
2
  6
CONTINUOUS
  7
STANDARD
 71
2
 72
1
 10
1.5275
 20
-1.4065
 30
0.0
 11
1.0
 21
0.0
 31
0.0
 44
0.9
  1
Open Cavity Quantity
 40
0.125
 41
4.0
  0
MTEXT
  5
267
100
AcDbEntity
  8
0
100
AcDbMText
 62
2
  6
CONTINUOUS
  7
STANDARD
 71
2
 72
1
 10
6.055
 20
-1.4065
 30
0.0
 11
1.0
 21
0.0
 31
0.0
 44
0.9
  1
2
 40
0.125
 41
0.2
  0
MTEXT
  5
268
100
AcDbEntity
  8
0
100
AcDbMText
 62
2
  6
CONTINUOUS
  7
STANDARD
 71
2
 72
1
 10
1.5275
 20
-1.6565
 30
0.0
 11
1.0
 21
0.0
 31
0.0
 44
0.9
  1
Weight
 40
0.125
 41
1.2
  0
MTEXT
  5
269
100
AcDbEntity
  8
0
100
AcDbMText
 62
2
  6
CONTINUOUS
  7
STANDARD
 71
2
 72
1
 10
4.555
 20
-1.6565
 30
0.0
 11
1.0
 21
0.0
 31
0.0
 44
0.9
  1
6.718 lb.
 40
0.125
 41
1.8
  0
MTEXT
  5
26A
100
AcDbEntity
  8
0
100
AcDbMText
 62
2
  6
CONTINUOUS
  7
STANDARD
 71
2
 72
1
 10
7.555
 20
-1.6565
 30
0.0
 11
1.0
 21
0.0
 31
0.0
 44
0.9
  1
3,047 kg.
 40
0.125
 41
1.8
  0
MTEXT
  5
26B
100
AcDbEntity
  8
0
100
AcDbMText
 62
2
  6
CONTINUOUS
  7
STANDARD
 71
2
 72
1
 10
1.5275
 20
-1.9065
 30
0.0
 11
1.0
 21
0.0
 31
0.0
 44
0.9
  1
Mounting Hole Diameter
 40
0.125
 41
4.4
  0
MTEXT
  5
26C
100
AcDbEntity
  8
0
100
AcDbMText
 62
2
  6
CONTINUOUS
  7
STANDARD
 71
2
 72
1
 10
4.555
 20
-1.9065
 30
0.0
 11
1.0
 21
0.0
 31
0.0
 44
0.9
  1
.50 in.
 40
0.125
 41
1.4
  0
MTEXT
  5
26D
100
AcDbEntity
  8
0
100
AcDbMText
 62
2
  6
CONTINUOUS
  7
STANDARD
 71
2
 72
1
 10
7.555
 20
-1.9065
 30
0.0
 11
1.0
 21
0.0
 31
0.0
 44
0.9
  1
12,7 mm
 40
0.125
 41
1.4
  0
MTEXT
  5
26E
100
AcDbEntity
  8
0
100
AcDbMText
 62
2
  6
CONTINUOUS
  7
STANDARD
 71
2
 72
1
 10
1.5275
 20
-2.1565
 30
0.0
 11
1.0
 21
0.0
 31
0.0
 44
0.9
  1
Mounting Hole Depth
 40
0.125
 41
3.8
  0
MTEXT
  5
26F
100
AcDbEntity
  8
0
100
AcDbMText
 62
2
  6
CONTINUOUS
  7
STANDARD
 71
2
 72
1
 10
6.055
 20
-2.1565
 30
0.0
 11
1.0
 21
0.0
 31
0.0
 44
0.9
  1
Through
 40
0.125
 41
1.4
  0
MTEXT
  5
270
100
AcDbEntity
  8
0
100
AcDbMText
 62
2
  6
CONTINUOUS
  7
STANDARD
 71
2
 72
1
 10
1.5275
 20
-2.4065
 30
0.0
 11
1.0
 21
0.0
 31
0.0
 44
0.9
  1
Mounting Hole Quantity
 40
0.125
 41
4.4
  0
MTEXT
  5
271
100
AcDbEntity
  8
0
100
AcDbMText
 62
2
  6
CONTINUOUS
  7
STANDARD
 71
2
 72
1
 10
6.055
 20
-2.4065
 30
0.0
 11
1.0
 21
0.0
 31
0.0
 44
0.9
  1
2
 40
0.125
 41
0.2
  0
MTEXT
  5
272
100
AcDbEntity
  8
0
100
AcDbMText
 62
2
  6
CONTINUOUS
  7
STANDARD
 71
2
 72
1
 10
1.5275
 20
-2.6565
 30
0.0
 11
1.0
 21
0.0
 31
0.0
 44
0.9
  1
Mounting Hole C'bore Diameter
 40
0.125
 41
5.8
  0
MTEXT
  5
273
100
AcDbEntity
  8
0
100
AcDbMText
 62
2
  6
CONTINUOUS
  7
STANDARD
 71
2
 72
1
 10
4.555
 20
-2.6565
 30
0.0
 11
1.0
 21
0.0
 31
0.0
 44
0.9
  1
.75 in.
 40
0.125
 41
1.4
  0
MTEXT
  5
274
100
AcDbEntity
  8
0
100
AcDbMText
 62
2
  6
CONTINUOUS
  7
STANDARD
 71
2
 72
1
 10
7.555
 20
-2.6565
 30
0.0
 11
1.0
 21
0.0
 31
0.0
 44
0.9
  1
19 mm
 40
0.125
 41
1.0
  0
MTEXT
  5
275
100
AcDbEntity
  8
0
100
AcDbMText
 62
2
  6
CONTINUOUS
  7
STANDARD
 71
2
 72
1
 10
1.5275
 20
-2.9065
 30
0.0
 11
1.0
 21
0.0
 31
0.0
 44
0.9
  1
Mounting Hole C'bore Depth
 40
0.125
 41
5.2
  0
MTEXT
  5
276
100
AcDbEntity
  8
0
100
AcDbMText
 62
2
  6
CONTINUOUS
  7
STANDARD
 71
2
 72
1
 10
4.555
 20
-2.9065
 30
0.0
 11
1.0
 21
0.0
 31
0.0
 44
0.9
  1
.44 in.
 40
0.125
 41
1.4
  0
MTEXT
  5
277
100
AcDbEntity
  8
0
100
AcDbMText
 62
2
  6
CONTINUOUS
  7
STANDARD
 71
2
 72
1
 10
7.555
 20
-2.9065
 30
0.0
 11
1.0
 21
0.0
 31
0.0
 44
0.9
  1
11,1 mm
 40
0.125
 41
1.4
  0
ENDBLK
  5
278
100
AcDbEntity
  8
0
  6
BYBLOCK
 62
0
100
AcDbBlockEnd
  0
BLOCK
  5
279
100
AcDbEntity
  8
0
100
AcDbBlockBegin
  2
*T3
 70
1
 10
0.0
 20
0.0
  3
*T3
  1

  0
LINE
  5
27A
100
AcDbEntity
  8
0
100
AcDbLine
 62
2
  6
CONTINUOUS
 10
0.0
 20
0.0
 11
4.6
 21
0.0
  0
LINE
  5
27B
100
AcDbEntity
  8
0
100
AcDbLine
 62
2
  6
CONTINUOUS
 10
0.0
 20
0.0
 11
0.0
 21
-0.93775
  0
LINE
  5
27C
100
AcDbEntity
  8
0
100
AcDbLine
 62
2
  6
CONTINUOUS
 10
0.0
 20
-0.34375
 11
4.6
 21
-0.34375
  0
LINE
  5
27D
100
AcDbEntity
  8
0
100
AcDbLine
 62
2
  6
CONTINUOUS
 10
0.0
 20
-0.68775
 11
4.6
 21
-0.68775
  0
LINE
  5
27E
100
AcDbEntity
  8
0
100
AcDbLine
 62
2
  6
CONTINUOUS
 10
0.0
 20
-0.93775
 11
4.6
 21
-0.93775
  0
LINE
  5
27F
100
AcDbEntity
  8
0
100
AcDbLine
 62
2
  6
CONTINUOUS
 10
1.3
 20
-0.34375
 11
1.3
 21
-0.93775
  0
LINE
  5
280
100
AcDbEntity
  8
0
100
AcDbLine
 62
2
  6
CONTINUOUS
 10
3.3
 20
-0.34375
 11
3.3
 21
-0.93775
  0
LINE
  5
281
100
AcDbEntity
  8
0
100
AcDbLine
 62
2
  6
CONTINUOUS
 10
4.6
 20
0.0
 11
4.6
 21
-0.93775
  0
MTEXT
  5
282
100
AcDbEntity
  8
0
100
AcDbMText
 62
2
  6
CONTINUOUS
  7
STANDARD
 71
2
 72
1
 10
2.3
 20
-0.099375
 30
0.0
 11
1.0
 21
0.0
 31
0.0
 44
0.9
  1
Port Headings
 40
0.145
 41
3.016
  0
MTEXT
  5
283
100
AcDbEntity
  8
0
100
AcDbMText
 62
2
  6
CONTINUOUS
  7
STANDARD
 71
2
 72
1
 10
0.65
 20
-0.44325
 30
0.0
 11
1.0
 21
0.0
 31
0.0
 44
0.9
  1
Product
 40
0.145
 41
1.624
  0
MTEXT
  5
284
100
AcDbEntity
  8
0
100
AcDbMText
 62
2
  6
CONTINUOUS
  7
STANDARD
 71
2
 72
1
 10
2.3
 20
-0.44325
 30
0.0
 11
1.0
 21
0.0
 31
0.0
 44
0.9
  1
Port
 40
0.145
 41
0.928
  0
MTEXT
  5
285
100
AcDbEntity
  8
0
100
AcDbMText
 62
2
  6
CONTINUOUS
  7
STANDARD
 71
2
 72
1
 10
3.95
 20
-0.44325
 30
0.0
 11
1.0
 21
0.0
 31
0.0
 44
0.9
  1
Size
 40
0.145
 41
0.928
  0
MTEXT
  5
286
100
AcDbEntity
  8
0
100
AcDbMText
 62
2
  6
CONTINUOUS
  7
STANDARD
 71
2
 72
1
 10
0.65
 20
-0.75025
 30
0.0
 11
1.0
 21
0.0
 31
0.0
 44
0.9
  1
YVR
 40
0.125
 41
0.6
  0
MTEXT
  5
287
100
AcDbEntity
  8
0
100
AcDbMText
 62
2
  6
CONTINUOUS
  7
STANDARD
 71
2
 72
1
 10
2.3
 20
-0.75025
 30
0.0
 11
1.0
 21
0.0
 31
0.0
 44
0.9
  1
Ports C2, V1, V2
 40
0.125
 41
3.2
  0
MTEXT
  5
288
100
AcDbEntity
  8
0
100
AcDbMText
 62
2
  6
CONTINUOUS
  7
STANDARD
 71
2
 72
1
 10
3.95
 20
-0.75025
 30
0.0
 11
1.0
 21
0.0
 31
0.0
 44
0.9
  1
3/4" BSPP
 40
0.125
 41
1.8
  0
ENDBLK
  5
289
100
AcDbEntity
  8
0
  6
BYBLOCK
 62
0
100
AcDbBlockEnd
  0
ENDSEC
  0
SECTION
  2
ENTITIES
  0
IMAGE
  5
28A
100
AcDbEntity
  8
0
100
AcDbRasterImage
 62
7
  6
CONTINUOUS
 10
19.2297077316
 20
0.3094318264
 30
0.0
 11
0.0066666667
 21
0.0
 31
0.0
 12
0.0
 22
0.0066666667
 32
0.0
 13
369.0
 23
92.0
340
       3CA
 70
9
280
0
281
50
282
50
283
0
360
       3C4
 71
1
 91
2
 14
-0.5
 24
-0.5
 14
368.5
 24
91.5
  0
INSERT
  5
28B
100
AcDbEntity
  8
0
100
AcDbBlockReference
 62
2
  6
CONTINUOUS
  2
SUN_FIRST_THIRD_ANGLE_BL0
 10
20.4816717061
 20
1.2289683772
  0
ACAD_TABLE
  5
28C
100
AcDbEntity
  8
0
 62
2
  6
CONTINUOUS
100
AcDbBlockReference
  2
*T1
 10
12.42375
 20
0.30125
 30
0.0
100
AcDbTable
342
       3CC
343
20A
 11
1.0
 21
0.0
 31
0.0
 90
6
 91
4
 92
6
 93
20
 94
0
 95
0
 96
0
 70
1
 41
0.0
141
0.525
141
0.1
141
0.525
141
0.1
142
4.1
142
1.1
142
0.7
142
0.5
142
0.4
142
2.475
171
1
172
0
173
0
174
0
175
1
176
1
 91
33
178
0
145
0.0
301
CELL_VALUE
 90
4
  1
T-17A Gasket mount Sun\PDirect mount, cross pilot
304
ACVALUE_END
170
2
140
0.125
171
1
172
0
173
0
174
0
175
1
176
1
 91
33
178
0
145
0.0
301
CELL_VALUE
 90
4
  1
Oct-23-19
304
ACVALUE_END
170
5
140
0.125
171
1
172
0
173
0
174
0
175
1
176
1
 91
33
178
0
145
0.0
301
CELL_VALUE
 90
4
  1
1.000
304
ACVALUE_END
170
5
140
0.125
171
1
172
0
173
0
174
0
175
1
176
1
 91
33
178
0
145
0.0
301
CELL_VALUE
 90
4
  1
C
304
ACVALUE_END
170
5
140
0.125
171
1
172
0
173
0
174
0
175
1
176
1
 91
33
178
0
145
0.0
301
CELL_VALUE
 90
4
  1
2
304
ACVALUE_END
170
5
140
0.125
171
1
172
0
173
0
174
0
175
1
176
1
 91
33
178
0
145
0.0
301
CELL_VALUE
 90
4
  1
 
304
ACVALUE_END
170
1
140
0.125
171
1
172
0
173
0
174
0
175
1
176
1
 91
33
178
0
145
0.0
301
CELL_VALUE
 90
4
  1
DESCRIPTION
304
ACVALUE_END
170
1
140
0.06
171
1
172
0
173
0
174
0
175
1
176
1
 91
33
178
0
145
0.0
301
CELL_VALUE
 90
4
  1
DATE
304
ACVALUE_END
170
1
140
0.06
171
1
172
0
173
0
174
0
175
1
176
1
 91
33
178
0
145
0.0
301
CELL_VALUE
 90
4
  1
SCALE
304
ACVALUE_END
170
1
140
0.06
171
1
172
0
173
0
174
0
175
1
176
1
 91
33
178
0
145
0.0
301
CELL_VALUE
 90
4
  1
DWG SIZE
304
ACVALUE_END
170
1
140
0.06
171
1
172
0
173
0
174
0
175
1
176
1
 91
33
178
0
145
0.0
301
CELL_VALUE
 90
4
  1
SHEET
304
ACVALUE_END
170
1
140
0.06
171
1
172
0
173
0
174
0
175
1
176
1
 91
33
178
0
145
0.0
301
CELL_VALUE
 90
4
  1
 
304
ACVALUE_END
170
1
140
0.125
171
1
172
0
173
0
174
0
175
1
176
1
 91
33
178
0
145
0.0
301
CELL_VALUE
 90
4
  1
YVR
304
ACVALUE_END
170
5
140
0.125
171
1
172
0
173
0
174
0
175
4
176
1
 91
33
178
0
145
0.0
301
CELL_VALUE
 90
4
  1
ALL DIMENSIONS IN INCH\PVIEWS ARE THIRD ANGLE
304
ACVALUE_END
170
5
140
0.12
171
1
172
0
173
1
174
0
175
1
176
1
 91
1
178
0
145
0.0
170
1
171
1
172
0
173
1
174
0
175
1
176
1
 91
1
178
0
145
0.0
170
1
171
1
172
0
173
1
174
0
175
1
176
1
 91
1
178
0
145
0.0
170
5
171
1
172
0
173
0
174
0
175
1
176
1
 91
33
178
0
145
0.0
301
CELL_VALUE
 90
4
  1
 
304
ACVALUE_END
170
1
140
0.125
171
1
172
0
173
0
174
0
175
1
176
1
 91
33
178
0
145
0.0
301
CELL_VALUE
 90
4
  1
MODEL
304
ACVALUE_END
170
1
140
0.06
171
1
172
0
173
0
174
0
175
1
176
1
 91
33
178
0
145
0.0
301
CELL_VALUE
 90
4
  1
 
304
ACVALUE_END
170
1
140
0.125
171
1
172
0
173
0
174
0
175
1
176
1
 91
33
178
0
145
0.0
301
CELL_VALUE
 90
4
  1
 
304
ACVALUE_END
170
1
140
0.125
171
1
172
0
173
0
174
0
175
1
176
1
 91
33
178
0
145
0.0
301
CELL_VALUE
 90
4
  1
 
304
ACVALUE_END
170
1
140
0.125
171
1
172
0
173
0
174
0
175
1
176
1
 91
33
178
0
145
0.0
301
CELL_VALUE
 90
4
  1
 
304
ACVALUE_END
170
1
140
0.125
171
1
172
0
173
0
174
0
175
1
176
1
 91
33
178
0
145
0.0
301
CELL_VALUE
 90
4
  1
 
304
ACVALUE_END
170
1
140
0.125
  0
ACAD_TABLE
  5
28D
100
AcDbEntity
  8
0
 62
2
  6
CONTINUOUS
100
AcDbBlockReference
  2
*T2
 10
12.4237499994
 20
16.47875
 30
0.0
100
AcDbTable
342
       3CB
343
20B
 11
1.0
 21
0.0
 31
0.0
 90
22
 91
12
 92
3
 93
16
 94
0
 95
0
 96
0
 41
0.028
141
0.344
141
0.25
141
0.25
141
0.25
141
0.25
141
0.25
141
0.25
141
0.25
141
0.25
141
0.25
141
0.25
141
0.25
142
3.055
142
3.0
142
3.0
171
1
172
0
173
0
174
0
175
1
176
1
 91
33
178
0
145
0.0
301
CELL_VALUE
 90
4
  1
Technical Data
304
ACVALUE_END
170
5
140
0.145
171
1
172
0
173
0
174
0
175
1
176
1
 91
33
178
0
145
0.0
301
CELL_VALUE
 90
4
  1
U.S. Units
304
ACVALUE_END
170
5
140
0.145
171
1
172
0
173
0
174
0
175
1
176
1
 91
33
178
0
145
0.0
301
CELL_VALUE
 90
4
  1
Metric Units
304
ACVALUE_END
170
5
140
0.145
171
1
172
0
173
0
174
0
175
1
176
1
 91
33
178
0
145
0.0
301
CELL_VALUE
 90
4
  1
Cavity
304
ACVALUE_END
170
5
140
0.125
171
1
172
0
173
0
174
0
175
2
176
1
 91
33
178
0
145
0.0
301
CELL_VALUE
 90
4
  1
T-17A
304
ACVALUE_END
170
5
140
0.125
171
1
172
0
173
1
174
0
175
1
176
1
 91
1
178
0
145
0.0
170
1
171
1
172
0
173
0
174
0
175
1
176
1
 91
33
178
0
145
0.0
301
CELL_VALUE
 90
4
  1
Body Features
304
ACVALUE_END
170
5
140
0.125
171
1
172
0
173
0
174
0
175
2
176
1
 91
33
178
0
145
0.0
301
CELL_VALUE
 90
4
  1
Direct mount, cross pilot
304
ACVALUE_END
170
5
140
0.125
171
1
172
0
173
1
174
0
175
1
176
1
 91
1
178
0
145
0.0
170
1
171
1
172
0
173
0
174
0
175
1
176
1
 91
33
178
0
145
0.0
301
CELL_VALUE
 90
4
  1
Body Type
304
ACVALUE_END
170
5
140
0.125
171
1
172
0
173
0
174
0
175
2
176
1
 91
33
178
0
145
0.0
301
CELL_VALUE
 90
4
  1
Gasket mount
304
ACVALUE_END
170
5
140
0.125
171
1
172
0
173
1
174
0
175
1
176
1
 91
1
178
0
145
0.0
170
1
171
1
172
0
173
0
174
0
175
1
176
1
 91
33
178
0
145
0.0
301
CELL_VALUE
 90
4
  1
Interface
304
ACVALUE_END
170
5
140
0.125
171
1
172
0
173
0
174
0
175
2
176
1
 91
33
178
0
145
0.0
301
CELL_VALUE
 90
4
  1
Sun
304
ACVALUE_END
170
5
140
0.125
171
1
172
0
173
1
174
0
175
1
176
1
 91
1
178
0
145
0.0
170
1
171
1
172
0
173
0
174
0
175
1
176
1
 91
33
178
0
145
0.0
301
CELL_VALUE
 90
4
  1
Open Cavity Quantity
304
ACVALUE_END
170
5
140
0.125
171
1
172
0
173
0
174
0
175
2
176
1
 91
33
178
0
145
0.0
301
CELL_VALUE
 90
4
  1
2
304
ACVALUE_END
170
5
140
0.125
171
1
172
0
173
1
174
0
175
1
176
1
 91
1
178
0
145
0.0
170
1
171
1
172
0
173
0
174
0
175
1
176
1
 91
33
178
0
145
0.0
301
CELL_VALUE
 90
4
  1
Weight
304
ACVALUE_END
170
5
140
0.125
171
1
172
0
173
0
174
0
175
1
176
1
 91
33
178
0
145
0.0
301
CELL_VALUE
 90
4
  1
6.718 lb.
304
ACVALUE_END
170
5
140
0.125
171
1
172
0
173
0
174
0
175
1
176
1
 91
33
178
0
145
0.0
301
CELL_VALUE
 90
4
  1
3,047 kg.
304
ACVALUE_END
170
5
140
0.125
171
1
172
0
173
0
174
0
175
1
176
1
 91
33
178
0
145
0.0
301
CELL_VALUE
 90
4
  1
Mounting Hole Diameter
304
ACVALUE_END
170
5
140
0.125
171
1
172
0
173
0
174
0
175
1
176
1
 91
33
178
0
145
0.0
301
CELL_VALUE
 90
4
  1
.50 in.
304
ACVALUE_END
170
5
140
0.125
171
1
172
0
173
0
174
0
175
1
176
1
 91
33
178
0
145
0.0
301
CELL_VALUE
 90
4
  1
12,7 mm
304
ACVALUE_END
170
5
140
0.125
171
1
172
0
173
0
174
0
175
1
176
1
 91
33
178
0
145
0.0
301
CELL_VALUE
 90
4
  1
Mounting Hole Depth
304
ACVALUE_END
170
5
140
0.125
171
1
172
0
173
0
174
0
175
2
176
1
 91
33
178
0
145
0.0
301
CELL_VALUE
 90
4
  1
Through
304
ACVALUE_END
170
5
140
0.125
171
1
172
0
173
1
174
0
175
1
176
1
 91
1
178
0
145
0.0
170
1
171
1
172
0
173
0
174
0
175
1
176
1
 91
33
178
0
145
0.0
301
CELL_VALUE
 90
4
  1
Mounting Hole Quantity
304
ACVALUE_END
170
5
140
0.125
171
1
172
0
173
0
174
0
175
2
176
1
 91
33
178
0
145
0.0
301
CELL_VALUE
 90
4
  1
2
304
ACVALUE_END
170
5
140
0.125
171
1
172
0
173
1
174
0
175
1
176
1
 91
1
178
0
145
0.0
170
1
171
1
172
0
173
0
174
0
175
1
176
1
 91
33
178
0
145
0.0
301
CELL_VALUE
 90
4
  1
Mounting Hole C'bore Diameter
304
ACVALUE_END
170
5
140
0.125
171
1
172
0
173
0
174
0
175
1
176
1
 91
33
178
0
145
0.0
301
CELL_VALUE
 90
4
  1
.75 in.
304
ACVALUE_END
170
5
140
0.125
171
1
172
0
173
0
174
0
175
1
176
1
 91
33
178
0
145
0.0
301
CELL_VALUE
 90
4
  1
19 mm
304
ACVALUE_END
170
5
140
0.125
171
1
172
0
173
0
174
0
175
1
176
1
 91
33
178
0
145
0.0
301
CELL_VALUE
 90
4
  1
Mounting Hole C'bore Depth
304
ACVALUE_END
170
5
140
0.125
171
1
172
0
173
0
174
0
175
1
176
1
 91
33
178
0
145
0.0
301
CELL_VALUE
 90
4
  1
.44 in.
304
ACVALUE_END
170
5
140
0.125
171
1
172
0
173
0
174
0
175
1
176
1
 91
33
178
0
145
0.0
301
CELL_VALUE
 90
4
  1
11,1 mm
304
ACVALUE_END
170
5
140
0.125
  0
ACAD_TABLE
  5
28E
100
AcDbEntity
  8
0
 62
2
  6
CONTINUOUS
100
AcDbBlockReference
  2
*T3
 10
0.52125
 20
1.459
 30
0.0
100
AcDbTable
342
       3CB
343
20C
 11
1.0
 21
0.0
 31
0.0
 90
22
 91
3
 92
3
 93
16
 94
0
 95
0
 96
0
 41
0.05
141
0.34375
141
0.344
141
0.25
142
1.3
142
2.0
142
1.3
171
1
172
0
173
0
174
0
175
3
176
1
 91
33
178
0
145
0.0
301
CELL_VALUE
 90
4
  1
Port Headings
304
ACVALUE_END
170
5
140
0.145
171
1
172
0
173
1
174
0
175
1
176
1
 91
1
178
0
145
0.0
170
1
171
1
172
0
173
1
174
0
175
1
176
1
 91
1
178
0
145
0.0
170
1
171
1
172
0
173
0
174
0
175
1
176
1
 91
33
178
0
145
0.0
301
CELL_VALUE
 90
4
  1
Product
304
ACVALUE_END
170
5
140
0.145
171
1
172
0
173
0
174
0
175
1
176
1
 91
33
178
0
145
0.0
301
CELL_VALUE
 90
4
  1
Port
304
ACVALUE_END
170
5
140
0.145
171
1
172
0
173
0
174
0
175
1
176
1
 91
33
178
0
145
0.0
301
CELL_VALUE
 90
4
  1
Size
304
ACVALUE_END
170
5
140
0.145
171
1
172
0
173
0
174
0
175
1
176
1
 91
33
178
0
145
0.0
301
CELL_VALUE
 90
4
  1
YVR
304
ACVALUE_END
170
5
140
0.125
171
1
172
0
173
0
174
0
175
1
176
1
 91
33
178
0
145
0.0
301
CELL_VALUE
 90
4
  1
Ports C2, V1, V2
304
ACVALUE_END
170
5
140
0.125
171
1
172
0
173
0
174
0
175
1
176
1
 91
33
178
0
145
0.0
301
CELL_VALUE
 90
4
  1
3/4" BSPP
304
ACVALUE_END
170
5
140
0.125
  0
MTEXT
  5
28F
100
AcDbEntity
  8
0
100
AcDbMText
 62
2
  6
CONTINUOUS
  7
STANDARD
 71
1
 72
1
 10
0.52125
 20
5.75995
 30
0.0
 11
1.0
 21
0.0
 31
0.0
 44
0.6
  3
Notes\P \P1. Important: Carefully consider\P   the maximum system pressure. The\P   pressure rating of the manifold is\P   dependent on the manifold material,\P   with the port type/size a secondary\P   consideration. Manifolds\P   constructed of alu
  1
minum are not\P   rated for pressures higher than\P   3000 psi (210 bar), regardless of\P   the port type/size specified.
 40
0.1
 41
3.04
  0
LINE
  5
290
100
AcDbEntity
  8
0
100
AcDbLine
 62
7
  6
CONTINUOUS
 10
0.30125
 20
0.30125
 11
0.30125
 21
16.69875
  0
LINE
  5
291
100
AcDbEntity
  8
0
100
AcDbLine
 62
7
  6
CONTINUOUS
 10
0.30125
 20
0.30125
 11
21.69875
 21
0.30125
  0
LINE
  5
292
100
AcDbEntity
  8
0
100
AcDbLine
 62
7
  6
CONTINUOUS
 10
0.30125
 20
16.69875
 11
21.69875
 21
16.69875
  0
LINE
  5
293
100
AcDbEntity
  8
0
100
AcDbLine
 62
7
  6
CONTINUOUS
 10
21.69875
 20
0.30125
 11
21.69875
 21
16.69875
  0
LINE
  5
294
100
AcDbEntity
  8
0
100
AcDbLine
 62
7
  6
CONTINUOUS
 10
8.3903518759
 20
9.8801250789
 11
9.8058320298
 21
11.2473739973
  0
LINE
  5
295
100
AcDbEntity
  8
0
100
AcDbLine
 62
7
  6
CONTINUOUS
 10
8.3903518759
 20
6.0164215449
 11
8.3903518759
 21
9.8801250789
  0
LINE
  5
296
100
AcDbEntity
  8
0
100
AcDbLine
 62
7
  6
CONTINUOUS
 10
12.1941679702
 20
5.7526260027
 11
8.3903518759
 21
6.0164215449
  0
LINE
  5
297
100
AcDbEntity
  8
0
100
AcDbLine
 62
4
  6
CONTINUOUS
 10
12.2599079526
 20
7.2382102369
 11
12.2508492934
 21
7.2379120951
  0
LINE
  5
298
100
AcDbEntity
  8
0
100
AcDbLine
 62
4
  6
CONTINUOUS
 10
12.2508492934
 20
7.3393343133
 11
12.28708393
 21
7.3320750291
  0
LINE
  5
299
100
AcDbEntity
  8
0
100
AcDbLine
 62
7
  6
CONTINUOUS
 10
12.1941679702
 20
9.6163295368
 11
13.6096481241
 21
10.9835784551
  0
LINE
  5
29A
100
AcDbEntity
  8
0
100
AcDbLine
 62
4
  6
CONTINUOUS
 10
13.5296731408
 20
8.4647092982
 11
13.5206144816
 21
8.4644111564
  0
LINE
  5
29B
100
AcDbEntity
  8
0
100
AcDbLine
 62
4
  6
CONTINUOUS
 10
13.5387317999
 20
8.6340444704
 11
13.5477904591
 21
8.6343426122
  0
LINE
  5
29C
100
AcDbEntity
  8
0
100
AcDbLine
 62
4
  6
CONTINUOUS
 10
12.8971199157
 20
8.3618673752
 11
12.9333545522
 21
8.3582303153
  0
LINE
  5
29D
100
AcDbEntity
  8
0
100
AcDbLine
 62
4
  6
CONTINUOUS
 10
12.9768361161
 20
8.4340376506
 11
13.0130707527
 21
8.4304005907
  0
LINE
  5
29E
100
AcDbEntity
  8
0
100
AcDbLine
 62
4
  6
CONTINUOUS
 10
13.1181511987
 20
8.1374808046
 11
13.1155630095
 21
8.1382005463
  0
LINE
  5
29F
100
AcDbEntity
  8
0
100
AcDbLine
 62
4
  6
CONTINUOUS
 10
12.8174037152
 20
8.6486995567
 11
12.8536383518
 21
8.6450624968
  0
LINE
  5
2A0
100
AcDbEntity
  8
0
100
AcDbLine
 62
4
  6
CONTINUOUS
 10
13.0732892677
 20
8.6254067148
 11
13.107798446
 21
8.6201030063
  0
LINE
  5
2A1
100
AcDbEntity
  8
0
100
AcDbLine
 62
4
  6
CONTINUOUS
 10
12.2750057185
 20
7.1936305992
 11
12.2719861641
 21
7.1991657849
  0
LINE
  5
2A2
100
AcDbEntity
  8
0
100
AcDbLine
 62
4
  6
CONTINUOUS
 10
12.2659470583
 20
7.2271398625
 11
12.2599079526
 21
7.2382102369
  0
LINE
  5
2A3
100
AcDbEntity
  8
0
100
AcDbLine
 62
4
  6
CONTINUOUS
 10
12.2810448232
 20
7.2670787389
 11
12.2840643777
 21
7.2615435532
  0
LINE
  5
2A4
100
AcDbEntity
  8
0
100
AcDbLine
 62
4
  6
CONTINUOUS
 10
12.28708393
 20
8.8695876339
 11
12.2508492934
 21
8.8345876606
  0
LINE
  5
2A5
100
AcDbEntity
  8
0
100
AcDbLine
 62
4
  6
CONTINUOUS
 10
12.2508492934
 20
8.9698172849
 11
12.28708393
 21
8.9625580006
  0
LINE
  5
2A6
100
AcDbEntity
  8
0
100
AcDbLine
 62
4
  6
CONTINUOUS
 10
12.28708393
 20
9.0470765158
 11
12.2508492934
 21
8.9698172849
  0
LINE
  5
2A7
100
AcDbEntity
  8
0
100
AcDbLine
 62
4
  6
CONTINUOUS
 10
13.107798446
 20
9.1996585205
 11
13.1129748224
 21
9.2046585164
  0
LINE
  5
2A8
100
AcDbEntity
  8
0
100
AcDbLine
 62
4
  6
CONTINUOUS
 10
13.087092939
 20
9.1120437232
 11
13.0922693159
 21
9.1170437196
  0
LINE
  5
2A9
100
AcDbEntity
  8
0
100
AcDbLine
 62
4
  6
CONTINUOUS
 10
13.1181511987
 20
9.1034066669
 11
13.087092939
 21
9.07340669
  0
LINE
  5
2AA
100
AcDbEntity
  8
0
100
AcDbLine
 62
4
  6
CONTINUOUS
 10
12.2719861641
 20
7.1991657849
 11
12.2659470583
 21
7.2271398625
  0
LINE
  5
2AB
100
AcDbEntity
  8
0
100
AcDbLine
 62
4
  6
CONTINUOUS
 10
12.2840643777
 20
7.2615435532
 11
12.28708393
 21
7.2475565139
  0
LINE
  5
2AC
100
AcDbEntity
  8
0
100
AcDbLine
 62
7
  6
CONTINUOUS
 10
12.1941679702
 20
9.6163295368
 11
12.1941679702
 21
5.7526260027
  0
LINE
  5
2AD
100
AcDbEntity
  8
0
100
AcDbLine
 62
4
  6
CONTINUOUS
 10
12.2508492934
 20
7.2379120951
 11
12.2508492934
 21
7.170297283
  0
LINE
  5
2AE
100
AcDbEntity
  8
0
100
AcDbLine
 62
4
  6
CONTINUOUS
 10
12.28708393
 20
7.2475565139
 11
12.28708393
 21
7.2306528109
  0
LINE
  5
2AF
100
AcDbEntity
  8
0
100
AcDbLine
 62
4
  6
CONTINUOUS
 10
12.8174037152
 20
8.7710501618
 11
12.8536383518
 21
8.8060501352
  0
LINE
  5
2B0
100
AcDbEntity
  8
0
100
AcDbLine
 62
4
  6
CONTINUOUS
 10
13.087092939
 20
9.0057918779
 11
13.1181511987
 21
9.0357918548
  0
LINE
  5
2B1
100
AcDbEntity
  8
0
100
AcDbLine
 62
4
  6
CONTINUOUS
 10
13.0819165622
 20
8.9621548482
 11
13.1181511987
 21
8.9971548216
  0
LINE
  5
2B2
100
AcDbEntity
  8
0
100
AcDbLine
 62
4
  6
CONTINUOUS
 10
12.8484619755
 20
8.7334353352
 11
12.8225800921
 21
8.7084353542
  0
LINE
  5
2B3
100
AcDbEntity
  8
0
100
AcDbLine
 62
4
  6
CONTINUOUS
 10
13.0819165622
 20
8.8945400361
 11
13.1181511987
 21
8.9295400094
  0
LINE
  5
2B4
100
AcDbEntity
  8
0
100
AcDbLine
 62
4
  6
CONTINUOUS
 10
12.8971199157
 20
8.6033488448
 11
12.9333545522
 21
8.6383488181
  0
LINE
  5
2B5
100
AcDbEntity
  8
0
100
AcDbLine
 62
4
  6
CONTINUOUS
 10
12.8174037152
 20
8.4941514078
 11
12.8536383518
 21
8.5291513811
  0
LINE
  5
2B6
100
AcDbEntity
  8
0
100
AcDbLine
 62
4
  6
CONTINUOUS
 10
13.0819165622
 20
8.7496511576
 11
13.1181511987
 21
8.7846511309
  0
LINE
  5
2B7
100
AcDbEntity
  8
0
100
AcDbLine
 62
4
  6
CONTINUOUS
 10
12.9281781759
 20
8.5657340101
 11
12.9178254232
 21
8.5557340183
  0
LINE
  5
2B8
100
AcDbEntity
  8
0
100
AcDbLine
 62
7
  6
CONTINUOUS
 10
8.3903518759
 20
9.8801250789
 11
12.1941679702
 21
9.6163295368
  0
LINE
  5
2B9
100
AcDbEntity
  8
0
100
AcDbLine
 62
4
  6
CONTINUOUS
 10
12.28708393
 20
7.2306528109
 11
12.2840643777
 21
7.2108324441
  0
LINE
  5
2BA
100
AcDbEntity
  8
0
100
AcDbLine
 62
4
  6
CONTINUOUS
 10
13.1052102568
 20
8.7141955823
 11
13.0819165622
 21
8.6916955997
  0
LINE
  5
2BB
100
AcDbEntity
  8
0
100
AcDbLine
 62
4
  6
CONTINUOUS
 10
12.8971199157
 20
8.4970969994
 11
12.9333545522
 21
8.5320969728
  0
LINE
  5
2BC
100
AcDbEntity
  8
0
100
AcDbLine
 62
4
  6
CONTINUOUS
 10
12.8174037152
 20
8.4168773414
 11
12.8536383518
 21
8.4518773147
  0
LINE
  5
2BD
100
AcDbEntity
  8
0
100
AcDbLine
 62
4
  6
CONTINUOUS
 10
12.9975416237
 20
8.569948748
 11
12.9768361161
 21
8.5499487623
  0
LINE
  5
2BE
100
AcDbEntity
  8
0
100
AcDbLine
 62
4
  6
CONTINUOUS
 10
13.0845047506
 20
8.5718449686
 11
13.1052102568
 21
8.5918449529
  0
LINE
  5
2BF
100
AcDbEntity
  8
0
100
AcDbLine
 62
4
  6
CONTINUOUS
 10
13.1181511987
 20
8.5463894181
 11
13.0819165622
 21
8.5113894448
  0
LINE
  5
2C0
100
AcDbEntity
  8
0
100
AcDbLine
 62
4
  6
CONTINUOUS
 10
13.0819165622
 20
8.4727523632
 11
13.107798446
 21
8.4977523447
  0
LINE
  5
2C1
100
AcDbEntity
  8
0
100
AcDbLine
 62
4
  6
CONTINUOUS
 10
12.8225800921
 20
8.2190328691
 11
12.8484619755
 21
8.2440328502
  0
LINE
  5
2C2
100
AcDbEntity
  8
0
100
AcDbLine
 62
4
  6
CONTINUOUS
 10
12.9768361161
 20
8.359983341
 11
13.0130707527
 21
8.3949833143
  0
LINE
  5
2C3
100
AcDbEntity
  8
0
100
AcDbLine
 62
4
  6
CONTINUOUS
 10
13.1052102568
 20
8.4501758473
 11
13.1000338804
 21
8.4451758514
  0
LINE
  5
2C4
100
AcDbEntity
  8
0
100
AcDbLine
 62
4
  6
CONTINUOUS
 10
13.0078943763
 20
8.3223685063
 11
12.9975416237
 21
8.3123685145
  0
LINE
  5
2C5
100
AcDbEntity
  8
0
100
AcDbLine
 62
4
  6
CONTINUOUS
 10
13.0845047506
 20
8.3883190407
 11
13.0922693159
 21
8.3958190353
  0
LINE
  5
2C6
100
AcDbEntity
  8
0
100
AcDbLine
 62
4
  6
CONTINUOUS
 10
12.8971199157
 20
8.1912204584
 11
12.9333545522
 21
8.2262204317
  0
LINE
  5
2C7
100
AcDbEntity
  8
0
100
AcDbLine
 62
4
  6
CONTINUOUS
 10
12.8225800921
 20
8.1063415586
 11
12.8484619755
 21
8.1313415396
  0
LINE
  5
2C8
100
AcDbEntity
  8
0
100
AcDbLine
 62
4
  6
CONTINUOUS
 10
12.8225800921
 20
7.9324749172
 11
12.8174037152
 21
7.9467934293
  0
LINE
  5
2C9
100
AcDbEntity
  8
0
100
AcDbLine
 62
4
  6
CONTINUOUS
 10
12.8329328453
 20
8.863324225
 11
12.8260310097
 21
8.805141515
  0
LINE
  5
2CA
100
AcDbEntity
  8
0
100
AcDbLine
 62
4
  6
CONTINUOUS
 10
12.8536383518
 20
8.7577538477
 11
12.8484619755
 21
8.7334353352
  0
LINE
  5
2CB
100
AcDbEntity
  8
0
100
AcDbLine
 62
4
  6
CONTINUOUS
 10
12.2840643777
 20
7.2108324441
 11
12.2810448232
 21
7.1994639267
  0
LINE
  5
2CC
100
AcDbEntity
  8
0
100
AcDbLine
 62
4
  6
CONTINUOUS
 10
12.28708393
 20
7.4165935443
 11
12.2508492934
 21
7.3393343133
  0
LINE
  5
2CD
100
AcDbEntity
  8
0
100
AcDbLine
 62
4
  6
CONTINUOUS
 10
12.8536383518
 20
8.6450624968
 11
12.8174037152
 21
8.5714254742
  0
LINE
  5
2CE
100
AcDbEntity
  8
0
100
AcDbLine
 62
4
  6
CONTINUOUS
 10
12.9333545522
 20
8.4355043817
 11
12.8971199157
 21
8.3618673752
  0
LINE
  5
2CF
100
AcDbEntity
  8
0
100
AcDbLine
 62
4
  6
CONTINUOUS
 10
13.0819165622
 20
8.3278635169
 11
13.1026220697
 21
8.3478635026
  0
LINE
  5
2D0
100
AcDbEntity
  8
0
100
AcDbLine
 62
4
  6
CONTINUOUS
 10
12.9281781759
 20
8.1632648779
 11
12.9204136103
 21
8.1557648831
  0
LINE
  5
2D1
100
AcDbEntity
  8
0
100
AcDbLine
 62
4
  6
CONTINUOUS
 10
12.9100608576
 20
8.136105637
 11
12.9022962926
 21
8.1286056426
  0
LINE
  5
2D2
100
AcDbEntity
  8
0
100
AcDbLine
 62
4
  6
CONTINUOUS
 10
13.107798446
 20
8.3142264814
 11
13.0845047506
 21
8.291726498
  0
LINE
  5
2D3
100
AcDbEntity
  8
0
100
AcDbLine
 62
4
  6
CONTINUOUS
 10
12.8484619755
 20
8.0637267275
 11
12.8225800921
 21
8.0387267464
  0
LINE
  5
2D4
100
AcDbEntity
  8
0
100
AcDbLine
 62
4
  6
CONTINUOUS
 10
12.8174037152
 20
7.9950897329
 11
12.8536383518
 21
8.0300897063
  0
LINE
  5
2D5
100
AcDbEntity
  8
0
100
AcDbLine
 62
4
  6
CONTINUOUS
 10
13.0819165622
 20
8.2312709097
 11
13.107798446
 21
8.2562708913
  0
LINE
  5
2D6
100
AcDbEntity
  8
0
100
AcDbLine
 62
4
  6
CONTINUOUS
 10
13.0845047506
 20
8.1951338908
 11
13.1181511987
 21
8.227633866
  0
LINE
  5
2D7
100
AcDbEntity
  8
0
100
AcDbLine
 62
4
  6
CONTINUOUS
 10
12.8484619755
 20
7.9574748982
 11
12.8225800921
 21
7.9324749172
  0
LINE
  5
2D8
100
AcDbEntity
  8
0
100
AcDbLine
 62
4
  6
CONTINUOUS
 10
12.8174037152
 20
7.8727390714
 11
12.8536383518
 21
7.9077390447
  0
LINE
  5
2D9
100
AcDbEntity
  8
0
100
AcDbLine
 62
4
  6
CONTINUOUS
 10
13.0819165622
 20
8.105700572
 11
13.107798446
 21
8.1307005535
  0
LINE
  5
2DA
100
AcDbEntity
  8
0
100
AcDbLine
 62
4
  6
CONTINUOUS
 10
13.1155630095
 20
8.1382005463
 11
13.1181511987
 21
8.1407005453
  0
LINE
  5
2DB
100
AcDbEntity
  8
0
100
AcDbLine
 62
4
  6
CONTINUOUS
 10
13.0845047506
 20
8.0566845259
 11
13.1052102568
 21
8.0766845102
  0
LINE
  5
2DC
100
AcDbEntity
  8
0
100
AcDbLine
 62
4
  6
CONTINUOUS
 10
12.9975416237
 20
8.569948748
 11
13.0130707527
 21
8.5463116984
  0
LINE
  5
2DD
100
AcDbEntity
  8
0
100
AcDbLine
 62
4
  6
CONTINUOUS
 10
12.8225800921
 20
8.0387267464
 11
12.8174037152
 21
8.0530452586
  0
LINE
  5
2DE
100
AcDbEntity
  8
0
100
AcDbLine
 62
4
  6
CONTINUOUS
 10
12.8484619755
 20
8.1313415396
 11
12.8536383518
 21
8.117023027
  0
LINE
  5
2DF
100
AcDbEntity
  8
0
100
AcDbLine
 62
4
  6
CONTINUOUS
 10
12.8484619755
 20
8.2440328502
 11
12.8536383518
 21
8.2297143375
  0
LINE
  5
2E0
100
AcDbEntity
  8
0
100
AcDbLine
 62
4
  6
CONTINUOUS
 10
12.9022962926
 20
8.1286056426
 11
12.8971199157
 21
8.142924187
  0
LINE
  5
2E1
100
AcDbEntity
  8
0
100
AcDbLine
 62
4
  6
CONTINUOUS
 10
12.9204136103
 20
8.1557648831
 11
12.915237234
 21
8.1700834279
  0
LINE
  5
2E2
100
AcDbEntity
  8
0
100
AcDbLine
 62
4
  6
CONTINUOUS
 10
13.0819165622
 20
7.9189549034
 11
13.0845047506
 21
7.9117956796
  0
LINE
  5
2E3
100
AcDbEntity
  8
0
100
AcDbLine
 62
4
  6
CONTINUOUS
 10
12.8225800921
 20
8.7084353542
 11
12.8174037152
 21
8.7227538744
  0
LINE
  5
2E4
100
AcDbEntity
  8
0
100
AcDbLine
 62
4
  6
CONTINUOUS
 10
12.8329328453
 20
7.7396304731
 11
12.8260310097
 21
7.7844798557
  0
LINE
  5
2E5
100
AcDbEntity
  8
0
100
AcDbLine
 62
4
  6
CONTINUOUS
 10
12.8174037152
 20
8.4168773414
 11
12.8174037152
 21
8.3589217835
  0
LINE
  5
2E6
100
AcDbEntity
  8
0
100
AcDbLine
 62
4
  6
CONTINUOUS
 10
12.8174037152
 20
7.8727390714
 11
12.8174037152
 21
7.8147835458
  0
LINE
  5
2E7
100
AcDbEntity
  8
0
100
AcDbLine
 62
4
  6
CONTINUOUS
 10
12.8174037152
 20
7.9467934293
 11
12.8174037152
 21
7.9950897329
  0
LINE
  5
2E8
100
AcDbEntity
  8
0
100
AcDbLine
 62
4
  6
CONTINUOUS
 10
12.8174037152
 20
8.0530452586
 11
12.8174037152
 21
8.0820230536
  0
LINE
  5
2E9
100
AcDbEntity
  8
0
100
AcDbLine
 62
4
  6
CONTINUOUS
 10
12.8174037152
 20
8.1560773471
 11
12.8174037152
 21
8.1947143642
  0
LINE
  5
2EA
100
AcDbEntity
  8
0
100
AcDbLine
 62
4
  6
CONTINUOUS
 10
12.8174037152
 20
8.7227538744
 11
12.8174037152
 21
8.7710501618
  0
LINE
  5
2EB
100
AcDbEntity
  8
0
100
AcDbLine
 62
4
  6
CONTINUOUS
 10
12.827756469
 20
8.6458205385
 11
12.827756469
 21
8.5943044942
  0
LINE
  5
2EC
100
AcDbEntity
  8
0
100
AcDbLine
 62
4
  6
CONTINUOUS
 10
12.8381092228
 20
7.85410204
 11
12.8381092228
 21
7.892739057
  0
LINE
  5
2ED
100
AcDbEntity
  8
0
100
AcDbLine
 62
4
  6
CONTINUOUS
 10
12.8381092228
 20
8.3982402777
 11
12.8381092228
 21
8.436877327
  0
LINE
  5
2EE
100
AcDbEntity
  8
0
100
AcDbLine
 62
4
  6
CONTINUOUS
 10
12.8536383518
 20
8.8060501352
 11
12.8536383518
 21
8.7577538477
  0
LINE
  5
2EF
100
AcDbEntity
  8
0
100
AcDbLine
 62
4
  6
CONTINUOUS
 10
12.8536383518
 20
8.5677884304
 11
12.8536383518
 21
8.490514364
  0
LINE
  5
2F0
100
AcDbEntity
  8
0
100
AcDbLine
 62
4
  6
CONTINUOUS
 10
12.8536383518
 20
8.4518773147
 11
12.8536383518
 21
8.3939217568
  0
LINE
  5
2F1
100
AcDbEntity
  8
0
100
AcDbLine
 62
4
  6
CONTINUOUS
 10
12.8536383518
 20
8.2297143375
 11
12.8536383518
 21
8.1910773204
  0
LINE
  5
2F2
100
AcDbEntity
  8
0
100
AcDbLine
 62
4
  6
CONTINUOUS
 10
12.8536383518
 20
8.117023027
 11
12.8536383518
 21
8.0880452319
  0
LINE
  5
2F3
100
AcDbEntity
  8
0
100
AcDbLine
 62
4
  6
CONTINUOUS
 10
12.8536383518
 20
8.0300897063
 11
12.8536383518
 21
7.9817934027
  0
LINE
  5
2F4
100
AcDbEntity
  8
0
100
AcDbLine
 62
4
  6
CONTINUOUS
 10
12.8536383518
 20
7.9077390447
 11
12.8536383518
 21
7.8497835191
  0
LINE
  5
2F5
100
AcDbEntity
  8
0
100
AcDbLine
 62
4
  6
CONTINUOUS
 10
12.8971199157
 20
8.4970969994
 11
12.8971199157
 21
8.4391414416
  0
LINE
  5
2F6
100
AcDbEntity
  8
0
100
AcDbLine
 62
4
  6
CONTINUOUS
 10
12.8971199157
 20
8.142924187
 11
12.8971199157
 21
8.1912204584
  0
LINE
  5
2F7
100
AcDbEntity
  8
0
100
AcDbLine
 62
4
  6
CONTINUOUS
 10
12.9100608576
 20
8.3003130563
 11
12.9100608576
 21
8.2423574985
  0
LINE
  5
2F8
100
AcDbEntity
  8
0
100
AcDbLine
 62
4
  6
CONTINUOUS
 10
12.9126490458
 20
8.570052538
 11
12.9126490458
 21
8.6183488335
  0
LINE
  5
2F9
100
AcDbEntity
  8
0
100
AcDbLine
 62
4
  6
CONTINUOUS
 10
12.915237234
 20
8.1604241737
 11
12.915237234
 21
8.208720445
  0
LINE
  5
2FA
100
AcDbEntity
  8
0
100
AcDbLine
 62
4
  6
CONTINUOUS
 10
12.9178254232
 20
8.4784599519
 11
12.9178254232
 21
8.5170969851
  0
LINE
  5
2FB
100
AcDbEntity
  8
0
100
AcDbLine
 62
4
  6
CONTINUOUS
 10
12.9333545522
 20
8.6383488181
 11
12.9333545522
 21
8.5900525226
  0
LINE
  5
2FC
100
AcDbEntity
  8
0
100
AcDbLine
 62
4
  6
CONTINUOUS
 10
12.9333545522
 20
8.5320969728
 11
12.9333545522
 21
8.4741414149
  0
LINE
  5
2FD
100
AcDbEntity
  8
0
100
AcDbLine
 62
4
  6
CONTINUOUS
 10
12.9333545522
 20
8.2262204317
 11
12.9333545522
 21
8.1972426689
  0
LINE
  5
2FE
100
AcDbEntity
  8
0
100
AcDbLine
 62
4
  6
CONTINUOUS
 10
12.9923652462
 20
8.3266870261
 11
12.9923652462
 21
8.3749833297
  0
LINE
  5
2FF
100
AcDbEntity
  8
0
100
AcDbLine
 62
4
  6
CONTINUOUS
 10
13.0130707527
 20
8.3949833143
 11
13.0130707527
 21
8.3466870107
  0
LINE
  5
300
100
AcDbEntity
  8
0
100
AcDbLine
 62
4
  6
CONTINUOUS
 10
12.9333545522
 20
8.1972426689
 11
12.9324918218
 21
8.1867500809
  0
LINE
  5
301
100
AcDbEntity
  8
0
100
AcDbLine
 62
4
  6
CONTINUOUS
 10
12.8398346816
 20
7.7978131796
 11
12.8329328453
 21
7.7396304731
  0
LINE
  5
302
100
AcDbEntity
  8
0
100
AcDbLine
 62
4
  6
CONTINUOUS
 10
12.9324918218
 20
8.1867500809
 11
12.9281781759
 21
8.1632648779
  0
LINE
  5
303
100
AcDbEntity
  8
0
100
AcDbLine
 62
4
  6
CONTINUOUS
 10
13.0922693159
 20
9.1170437196
 11
13.107798446
 21
9.1996585205
  0
LINE
  5
304
100
AcDbEntity
  8
0
100
AcDbLine
 62
4
  6
CONTINUOUS
 10
12.8174037152
 20
8.1947143642
 11
12.8225800921
 21
8.2190328691
  0
LINE
  5
305
100
AcDbEntity
  8
0
100
AcDbLine
 62
4
  6
CONTINUOUS
 10
12.8174037152
 20
8.0820230536
 11
12.8225800921
 21
8.1063415586
  0
LINE
  5
306
100
AcDbEntity
  8
0
100
AcDbLine
 62
4
  6
CONTINUOUS
 10
12.9333545522
 20
8.5900525226
 11
12.9281781759
 21
8.5657340101
  0
LINE
  5
307
100
AcDbEntity
  8
0
100
AcDbLine
 62
4
  6
CONTINUOUS
 10
13.0845047506
 20
9.1771585371
 11
13.0819165622
 21
9.1649992796
  0
LINE
  5
308
100
AcDbEntity
  8
0
100
AcDbLine
 62
4
  6
CONTINUOUS
 10
12.8536383518
 20
8.0880452319
 11
12.8484619755
 21
8.0637267275
  0
LINE
  5
309
100
AcDbEntity
  8
0
100
AcDbLine
 62
4
  6
CONTINUOUS
 10
12.8536383518
 20
7.9817934027
 11
12.8484619755
 21
7.9574748982
  0
LINE
  5
30A
100
AcDbEntity
  8
0
100
AcDbLine
 62
4
  6
CONTINUOUS
 10
13.087092939
 20
9.07340669
 11
13.0819165622
 21
9.049088177
  0
LINE
  5
30B
100
AcDbEntity
  8
0
100
AcDbLine
 62
4
  6
CONTINUOUS
 10
13.1181511987
 20
9.1517029584
 11
13.1155630095
 21
9.1395437011
  0
LINE
  5
30C
100
AcDbEntity
  8
0
100
AcDbLine
 62
4
  6
CONTINUOUS
 10
12.915237234
 20
8.1604241737
 11
12.9100608576
 21
8.136105637
  0
LINE
  5
30D
100
AcDbEntity
  8
0
100
AcDbLine
 62
4
  6
CONTINUOUS
 10
13.0130707527
 20
8.3466870107
 11
13.0078943763
 21
8.3223685063
  0
LINE
  5
30E
100
AcDbEntity
  8
0
100
AcDbLine
 62
4
  6
CONTINUOUS
 10
13.107798446
 20
8.7263548355
 11
13.1052102568
 21
8.7141955823
  0
LINE
  5
30F
100
AcDbEntity
  8
0
100
AcDbLine
 62
4
  6
CONTINUOUS
 10
12.9126490458
 20
8.5893710566
 11
12.8971199157
 21
8.5357340326
  0
LINE
  5
310
100
AcDbEntity
  8
0
100
AcDbLine
 62
4
  6
CONTINUOUS
 10
13.0130707527
 20
8.6235857729
 11
12.9975416237
 21
8.569948748
  0
LINE
  5
311
100
AcDbEntity
  8
0
100
AcDbLine
 62
4
  6
CONTINUOUS
 10
12.9923652462
 20
8.3460055508
 11
12.9768361161
 21
8.2923685289
  0
LINE
  5
312
100
AcDbEntity
  8
0
100
AcDbLine
 62
4
  6
CONTINUOUS
 10
13.107798446
 20
8.4591153277
 11
13.1052102568
 21
8.4501758473
  0
LINE
  5
313
100
AcDbEntity
  8
0
100
AcDbLine
 62
4
  6
CONTINUOUS
 10
13.1181511987
 20
8.9971548216
 11
13.0819165622
 21
8.8945400361
  0
LINE
  5
314
100
AcDbEntity
  8
0
100
AcDbLine
 62
4
  6
CONTINUOUS
 10
13.1026220697
 20
8.3478635026
 11
13.107798446
 21
8.3625227205
  0
LINE
  5
315
100
AcDbEntity
  8
0
100
AcDbLine
 62
4
  6
CONTINUOUS
 10
13.107798446
 20
8.6780585319
 11
13.0819165622
 21
8.6240807553
  0
LINE
  5
316
100
AcDbEntity
  8
0
100
AcDbLine
 62
4
  6
CONTINUOUS
 10
13.0130707527
 20
8.5076746652
 11
12.9768361161
 21
8.4340376506
  0
LINE
  5
317
100
AcDbEntity
  8
0
100
AcDbLine
 62
4
  6
CONTINUOUS
 10
13.5508100114
 20
8.425962988
 11
13.5447709067
 21
8.4201296605
  0
LINE
  5
318
100
AcDbEntity
  8
0
100
AcDbLine
 62
4
  6
CONTINUOUS
 10
12.2810448232
 20
7.1994639267
 11
12.2750057185
 21
7.1936305992
  0
LINE
  5
319
100
AcDbEntity
  8
0
100
AcDbLine
 62
4
  6
CONTINUOUS
 10
13.0974456923
 20
7.9822511312
 11
13.1052102568
 21
7.9897511251
  0
LINE
  5
31A
100
AcDbEntity
  8
0
100
AcDbLine
 62
4
  6
CONTINUOUS
 10
13.0845047506
 20
7.9117956796
 11
13.0922693159
 21
7.9192956742
  0
LINE
  5
31B
100
AcDbEntity
  8
0
100
AcDbLine
 62
4
  6
CONTINUOUS
 10
13.1052102568
 20
7.9897511251
 11
13.107798446
 21
7.982591902
  0
LINE
  5
31C
100
AcDbEntity
  8
0
100
AcDbLine
 62
4
  6
CONTINUOUS
 10
12.9975416237
 20
8.3123685145
 11
12.9923652462
 21
8.3266870261
  0
LINE
  5
31D
100
AcDbEntity
  8
0
100
AcDbLine
 62
4
  6
CONTINUOUS
 10
12.9178254232
 20
8.5557340183
 11
12.9126490458
 21
8.570052538
  0
LINE
  5
31E
100
AcDbEntity
  8
0
100
AcDbLine
 62
4
  6
CONTINUOUS
 10
13.1052102568
 20
8.0766845102
 11
13.107798446
 21
8.0695252872
  0
LINE
  5
31F
100
AcDbEntity
  8
0
100
AcDbLine
 62
4
  6
CONTINUOUS
 10
12.8398346816
 20
8.818474839
 11
12.8329328453
 21
8.863324225
  0
LINE
  5
320
100
AcDbEntity
  8
0
100
AcDbLine
 62
4
  6
CONTINUOUS
 10
13.0922693159
 20
8.3958190353
 11
13.0948575041
 21
8.3790005248
  0
LINE
  5
321
100
AcDbEntity
  8
0
100
AcDbLine
 62
4
  6
CONTINUOUS
 10
13.0732892677
 20
8.6447252234
 11
13.0732892677
 21
8.6254067148
  0
LINE
  5
322
100
AcDbEntity
  8
0
100
AcDbLine
 62
4
  6
CONTINUOUS
 10
13.0819165622
 20
9.1649992796
 11
13.0819165622
 21
9.1263622434
  0
LINE
  5
323
100
AcDbEntity
  8
0
100
AcDbLine
 62
4
  6
CONTINUOUS
 10
13.0819165622
 20
9.049088177
 11
13.0819165622
 21
9.02011039
  0
LINE
  5
324
100
AcDbEntity
  8
0
100
AcDbLine
 62
4
  6
CONTINUOUS
 10
13.0819165622
 20
8.2795672133
 11
13.0819165622
 21
8.2312709097
  0
LINE
  5
325
100
AcDbEntity
  8
0
100
AcDbLine
 62
4
  6
CONTINUOUS
 10
13.0819165622
 20
7.9575919205
 11
13.0819165622
 21
7.9189549034
  0
LINE
  5
326
100
AcDbEntity
  8
0
100
AcDbLine
 62
4
  6
CONTINUOUS
 10
13.0819165622
 20
8.0058881596
 11
13.0819165622
 21
8.0445253057
  0
LINE
  5
327
100
AcDbEntity
  8
0
100
AcDbLine
 62
4
  6
CONTINUOUS
 10
13.0819165622
 20
8.1636560976
 11
13.0819165622
 21
8.1829746061
  0
LINE
  5
328
100
AcDbEntity
  8
0
100
AcDbLine
 62
4
  6
CONTINUOUS
 10
13.0819165622
 20
8.3278635169
 11
13.0819165622
 21
8.366500534
  0
LINE
  5
329
100
AcDbEntity
  8
0
100
AcDbLine
 62
4
  6
CONTINUOUS
 10
13.0819165622
 20
8.5113894448
 11
13.0819165622
 21
8.5500264618
  0
LINE
  5
32A
100
AcDbEntity
  8
0
100
AcDbLine
 62
4
  6
CONTINUOUS
 10
13.0948575041
 20
8.3790005248
 11
13.0948575041
 21
8.3403635077
  0
LINE
  5
32B
100
AcDbEntity
  8
0
100
AcDbLine
 62
4
  6
CONTINUOUS
 10
13.107798446
 20
8.7746511391
 11
13.107798446
 21
8.7263548355
  0
LINE
  5
32C
100
AcDbEntity
  8
0
100
AcDbLine
 62
4
  6
CONTINUOUS
 10
13.107798446
 20
8.5750264434
 11
13.107798446
 21
8.5363894263
  0
LINE
  5
32D
100
AcDbEntity
  8
0
100
AcDbLine
 62
4
  6
CONTINUOUS
 10
13.107798446
 20
8.4977523447
 11
13.107798446
 21
8.4591153277
  0
LINE
  5
32E
100
AcDbEntity
  8
0
100
AcDbLine
 62
4
  6
CONTINUOUS
 10
13.107798446
 20
8.0695252872
 11
13.107798446
 21
8.0308881412
  0
LINE
  5
32F
100
AcDbEntity
  8
0
100
AcDbLine
 62
4
  6
CONTINUOUS
 10
13.107798446
 20
7.982591902
 11
13.107798446
 21
7.943954885
  0
LINE
  5
330
100
AcDbEntity
  8
0
100
AcDbLine
 62
4
  6
CONTINUOUS
 10
13.107798446
 20
8.3625227205
 11
13.107798446
 21
8.4108190241
  0
LINE
  5
331
100
AcDbEntity
  8
0
100
AcDbLine
 62
4
  6
CONTINUOUS
 10
13.1181511987
 20
9.1903399936
 11
13.1181511987
 21
9.1517029584
  0
LINE
  5
332
100
AcDbEntity
  8
0
100
AcDbLine
 62
4
  6
CONTINUOUS
 10
13.1181511987
 20
8.1407005453
 11
13.1181511987
 21
8.1374808046
  0
LINE
  5
333
100
AcDbEntity
  8
0
100
AcDbLine
 62
4
  6
CONTINUOUS
 10
13.0939947747
 20
7.9306215615
 11
13.0957202335
 21
7.9709252439
  0
LINE
  5
334
100
AcDbEntity
  8
0
100
AcDbLine
 62
4
  6
CONTINUOUS
 10
13.0819165622
 20
8.5500264618
 11
13.0845047506
 21
8.5718449686
  0
LINE
  5
335
100
AcDbEntity
  8
0
100
AcDbLine
 62
4
  6
CONTINUOUS
 10
13.0819165622
 20
8.366500534
 11
13.0845047506
 21
8.3883190407
  0
LINE
  5
336
100
AcDbEntity
  8
0
100
AcDbLine
 62
4
  6
CONTINUOUS
 10
13.0957202335
 20
7.9709252439
 11
13.0974456923
 21
7.9822511312
  0
LINE
  5
337
100
AcDbEntity
  8
0
100
AcDbLine
 62
4
  6
CONTINUOUS
 10
13.0922693159
 20
7.9192956742
 11
13.0939947747
 21
7.9306215615
  0
LINE
  5
338
100
AcDbEntity
  8
0
100
AcDbLine
 62
4
  6
CONTINUOUS
 10
13.0845047506
 20
8.291726498
 11
13.0819165622
 21
8.2795672133
  0
LINE
  5
339
100
AcDbEntity
  8
0
100
AcDbLine
 62
4
  6
CONTINUOUS
 10
13.0819165622
 20
8.1829746061
 11
13.0845047506
 21
8.1951338908
  0
LINE
  5
33A
100
AcDbEntity
  8
0
100
AcDbLine
 62
4
  6
CONTINUOUS
 10
13.0819165622
 20
8.0445253057
 11
13.0845047506
 21
8.0566845259
  0
LINE
  5
33B
100
AcDbEntity
  8
0
100
AcDbLine
 62
4
  6
CONTINUOUS
 10
13.0845047506
 20
7.9697511407
 11
13.0819165622
 21
7.9575919205
  0
LINE
  5
33C
100
AcDbEntity
  8
0
100
AcDbLine
 62
4
  6
CONTINUOUS
 10
13.107798446
 20
7.943954885
 11
13.1052102568
 21
7.9317956639
  0
LINE
  5
33D
100
AcDbEntity
  8
0
100
AcDbLine
 62
4
  6
CONTINUOUS
 10
13.5296731408
 20
8.6168426255
 11
13.5387317999
 21
8.6340444704
  0
LINE
  5
33E
100
AcDbEntity
  8
0
100
AcDbLine
 62
4
  6
CONTINUOUS
 10
13.5447709067
 20
8.4201296605
 11
13.5417513522
 21
8.4256648462
  0
LINE
  5
33F
100
AcDbEntity
  8
0
100
AcDbLine
 62
4
  6
CONTINUOUS
 10
13.5357122465
 20
8.4536389237
 11
13.5296731408
 21
8.4647092982
  0
LINE
  5
340
100
AcDbEntity
  8
0
100
AcDbLine
 62
4
  6
CONTINUOUS
 10
13.5508100114
 20
8.4935778002
 11
13.5538295659
 21
8.4880426145
  0
LINE
  5
341
100
AcDbEntity
  8
0
100
AcDbLine
 62
4
  6
CONTINUOUS
 10
13.5266535879
 20
8.5378592976
 11
13.5236340348
 21
8.5433944846
  0
LINE
  5
342
100
AcDbEntity
  8
0
100
AcDbLine
 62
4
  6
CONTINUOUS
 10
13.5477904591
 20
8.6343426122
 11
13.5538295659
 21
8.6232722387
  0
LINE
  5
343
100
AcDbEntity
  8
0
100
AcDbLine
 62
4
  6
CONTINUOUS
 10
13.0819165622
 20
9.02011039
 11
13.087092939
 21
9.0057918779
  0
LINE
  5
344
100
AcDbEntity
  8
0
100
AcDbLine
 62
4
  6
CONTINUOUS
 10
13.0819165622
 20
9.1263622434
 11
13.087092939
 21
9.1120437232
  0
LINE
  5
345
100
AcDbEntity
  8
0
100
AcDbLine
 62
4
  6
CONTINUOUS
 10
13.1129748224
 20
9.2046585164
 11
13.1181511987
 21
9.1903399936
  0
LINE
  5
346
100
AcDbEntity
  8
0
100
AcDbLine
 62
4
  6
CONTINUOUS
 10
13.1052102568
 20
8.5918449529
 11
13.107798446
 21
8.5750264434
  0
LINE
  5
347
100
AcDbEntity
  8
0
100
AcDbLine
 62
4
  6
CONTINUOUS
 10
13.5206144816
 20
8.4644111564
 11
13.5206144816
 21
8.3967963443
  0
LINE
  5
348
100
AcDbEntity
  8
0
100
AcDbLine
 62
4
  6
CONTINUOUS
 10
13.5206144816
 20
8.5573815231
 11
13.5206144816
 21
8.5742852261
  0
LINE
  5
349
100
AcDbEntity
  8
0
100
AcDbLine
 62
4
  6
CONTINUOUS
 10
13.5568491182
 20
8.6092851995
 11
13.5568491182
 21
8.5923814964
  0
LINE
  5
34A
100
AcDbEntity
  8
0
100
AcDbLine
 62
4
  6
CONTINUOUS
 10
13.5568491182
 20
8.4740555752
 11
13.5568491182
 21
8.4571518722
  0
LINE
  5
34B
100
AcDbEntity
  8
0
100
AcDbLine
 62
4
  6
CONTINUOUS
 10
13.5206144816
 20
8.5742852261
 11
13.5236340348
 21
8.5941055937
  0
LINE
  5
34C
100
AcDbEntity
  8
0
100
AcDbLine
 62
4
  6
CONTINUOUS
 10
13.5568491182
 20
8.5923814964
 11
13.5538295659
 21
8.5725611296
  0
LINE
  5
34D
100
AcDbEntity
  8
0
100
AcDbLine
 62
4
  6
CONTINUOUS
 10
13.5568491182
 20
8.4571518722
 11
13.5538295659
 21
8.4373315054
  0
LINE
  5
34E
100
AcDbEntity
  8
0
100
AcDbLine
 62
4
  6
CONTINUOUS
 10
13.5236340348
 20
8.5941055937
 11
13.5296731408
 21
8.6168426255
  0
LINE
  5
34F
100
AcDbEntity
  8
0
100
AcDbLine
 62
4
  6
CONTINUOUS
 10
13.5538295659
 20
8.5725611296
 11
13.5508100114
 21
8.5611926123
  0
LINE
  5
350
100
AcDbEntity
  8
0
100
AcDbLine
 62
4
  6
CONTINUOUS
 10
13.5538295659
 20
8.4373315054
 11
13.5508100114
 21
8.425962988
  0
LINE
  5
351
100
AcDbEntity
  8
0
100
AcDbLine
 62
4
  6
CONTINUOUS
 10
13.5417513522
 20
8.4256648462
 11
13.5357122465
 21
8.4536389237
  0
LINE
  5
352
100
AcDbEntity
  8
0
100
AcDbLine
 62
4
  6
CONTINUOUS
 10
13.5236340348
 20
8.5433944846
 11
13.5206144816
 21
8.5573815231
  0
LINE
  5
353
100
AcDbEntity
  8
0
100
AcDbLine
 62
4
  6
CONTINUOUS
 10
13.5538295659
 20
8.4880426145
 11
13.5568491182
 21
8.4740555752
  0
LINE
  5
354
100
AcDbEntity
  8
0
100
AcDbLine
 62
4
  6
CONTINUOUS
 10
13.5538295659
 20
8.6232722387
 11
13.5568491182
 21
8.6092851995
  0
LINE
  5
355
100
AcDbEntity
  8
0
100
AcDbLine
 62
7
  6
CONTINUOUS
 10
13.6096481241
 20
10.9835784551
 11
13.6096481241
 21
7.1198749211
  0
LINE
  5
356
100
AcDbEntity
  8
0
100
AcDbLine
 62
7
  6
CONTINUOUS
 10
12.1941679702
 20
5.7526260027
 11
13.6096481241
 21
7.1198749211
  0
LINE
  5
357
100
AcDbEntity
  8
0
100
AcDbLine
 62
7
  6
CONTINUOUS
 10
9.8058320298
 20
11.2473739973
 11
13.6096481241
 21
10.9835784551
  0
ARC
  5
358
100
AcDbEntity
  8
0
100
AcDbCircle
 62
7
  6
CONTINUOUS
 10
11.0832362055
 20
7.4395042066
 40
0.7619477716
100
AcDbArc
 50
135.1217514146
 51
136.5497102809
  0
ARC
  5
359
100
AcDbEntity
  8
0
100
AcDbCircle
 62
7
  6
CONTINUOUS
 10
11.2403674398
 20
7.2768249432
 40
0.761878118
100
AcDbArc
 50
311.4635277029
 51
312.9902244503
  0
ARC
  5
35A
100
AcDbEntity
  8
0
100
AcDbCircle
 62
7
  6
CONTINUOUS
 10
9.6086247157
 20
7.3889428341
 40
0.6050814482
100
AcDbArc
 50
312.9166121231
 51
313.4063001237
  0
ARC
  5
35B
100
AcDbEntity
  8
0
100
AcDbCircle
 62
7
  6
CONTINUOUS
 10
9.8501061867
 20
9.0026788935
 40
0.6050814482
100
AcDbArc
 50
312.9166121231
 51
313.4063001238
  0
ARC
  5
35C
100
AcDbEntity
  8
0
100
AcDbCircle
 62
7
  6
CONTINUOUS
 10
11.876859821
 20
8.0936343282
 40
0.6017918387
100
AcDbArc
 50
176.7686661937
 51
180.0013962683
  0
ARC
  5
35D
100
AcDbEntity
  8
0
100
AcDbCircle
 62
7
  6
CONTINUOUS
 10
11.7879090379
 20
8.017403424
 40
0.5922072299
100
AcDbArc
 50
168.3415664396
 51
180.0433965118
  0
ARC
  5
35E
100
AcDbEntity
  8
0
100
AcDbCircle
 62
7
  6
CONTINUOUS
 10
11.8827694836
 20
8.0972878241
 40
0.5832066068
100
AcDbArc
 50
177.5345932794
 51
180.0007769808
  0
ARC
  5
35F
100
AcDbEntity
  8
0
100
AcDbCircle
 62
7
  6
CONTINUOUS
 10
9.6637938969
 20
9.1589888908
 40
0.5177848037
100
AcDbArc
 50
24.2959557212
 51
24.8205493356
  0
ARC
  5
360
100
AcDbEntity
  8
0
100
AcDbCircle
 62
7
  6
CONTINUOUS
 10
11.8844170462
 20
8.0901794394
 40
0.4824660257
100
AcDbArc
 50
179.7025561308
 51
180.0000197073
  0
ARC
  5
361
100
AcDbEntity
  8
0
100
AcDbCircle
 62
7
  6
CONTINUOUS
 10
9.9990056413
 20
9.3096337174
 40
0.4576068003
100
AcDbArc
 50
172.7246314932
 51
180.0158939798
  0
ARC
  5
362
100
AcDbEntity
  8
0
100
AcDbCircle
 62
7
  6
CONTINUOUS
 10
9.7157431475
 20
9.5292215611
 40
0.3435275099
100
AcDbArc
 50
329.2887610789
 51
334.1999745304
  0
ARC
  5
363
100
AcDbEntity
  8
0
100
AcDbCircle
 62
7
  6
CONTINUOUS
 10
9.8425334336
 20
9.3388205153
 40
0.316141084
100
AcDbArc
 50
150.0672640209
 51
154.2055493594
  0
ARC
  5
364
100
AcDbEntity
  8
0
100
AcDbCircle
 62
7
  6
CONTINUOUS
 10
9.7586205351
 20
9.4157836279
 40
0.2189113326
100
AcDbArc
 50
192.7195750089
 51
211.325611567
  0
ARC
  5
365
100
AcDbEntity
  8
0
100
AcDbCircle
 62
7
  6
CONTINUOUS
 10
9.8939387949
 20
9.4598147072
 40
0.1516302478
100
AcDbArc
 50
353.6862819392
 51
357.9257541513
  0
SPLINE
  5
366
100
AcDbEntity
  8
0
100
AcDbSpline
 62
7
  6
CONTINUOUS
 70
0
 71
3
 72
23
 73
19
 74
0
 42
0.0000001
 43
0.0000001
 44
0.0000000001
 40
0.0
 40
0.0
 40
0.0
 40
0.0
 40
0.0637775561
 40
0.1273446565
 40
0.1907020307
 40
0.2538561431
 40
0.3168131834
 40
0.3795821015
 40
0.4421733894
 40
0.5045993415
 40
0.5668738676
 40
0.6290123791
 40
0.6910316472
 40
0.7529496401
 40
0.8147853492
 40
0.8765585998
 40
0.9382898533
 40
1.0
 40
1.0
 40
1.0
 40
1.0
 10
10.4506717504
 20
9.0127969977
 30
0.0
 10
10.4506717504
 20
9.0020739031
 30
0.0
 10
10.4501585288
 20
8.9806594635
 30
0.0
 10
10.4478419374
 20
8.9486680122
 30
0.0
 10
10.4439849121
 20
8.9169302397
 30
0.0
 10
10.4385965021
 20
8.8855204528
 30
0.0
 10
10.4316888875
 20
8.8545106253
 30
0.0
 10
10.4232780027
 20
8.8239723825
 30
0.0
 10
10.4133831243
 20
8.7939760966
 30
0.0
 10
10.4020270044
 20
8.7645909525
 30
0.0
 10
10.3892357714
 20
8.7358847166
 30
0.0
 10
10.3750388693
 20
8.7079235992
 30
0.0
 10
10.3594689945
 20
8.6807721031
 30
0.0
 10
10.3425619971
 20
8.6544928524
 30
0.0
 10
10.324356891
 20
8.6291465313
 30
0.0
 10
10.3048954232
 20
8.6047914238
 30
0.0
 10
10.2842232494
 20
8.581484468
 30
0.0
 10
10.2696636594
 20
8.5666784209
 30
0.0
 10
10.2622010276
 20
8.5594700902
 30
0.0
  0
SPLINE
  5
367
100
AcDbEntity
  8
0
100
AcDbSpline
 62
7
  6
CONTINUOUS
 70
0
 71
3
 72
23
 73
19
 74
0
 42
0.0000001
 43
0.0000001
 44
0.0000000001
 40
0.0
 40
0.0
 40
0.0
 40
0.0
 40
0.0637775561
 40
0.1273446565
 40
0.1907020307
 40
0.2538561431
 40
0.3168131834
 40
0.3795821015
 40
0.4421733894
 40
0.5045993415
 40
0.5668738676
 40
0.6290123791
 40
0.6910316472
 40
0.7529496401
 40
0.8147853492
 40
0.8765585998
 40
0.9382898533
 40
1.0
 40
1.0
 40
1.0
 40
1.0
 10
10.2091902795
 20
7.3990609382
 30
0.0
 10
10.2091902795
 20
7.3883378436
 30
0.0
 10
10.208677058
 20
7.366923404
 30
0.0
 10
10.2063604665
 20
7.3349319527
 30
0.0
 10
10.2025034412
 20
7.3031941802
 30
0.0
 10
10.1971150312
 20
7.2717843933
 30
0.0
 10
10.1902074166
 20
7.2407745658
 30
0.0
 10
10.1817965318
 20
7.210236323
 30
0.0
 10
10.1719016535
 20
7.1802400371
 30
0.0
 10
10.1605455335
 20
7.150854893
 30
0.0
 10
10.1477543006
 20
7.1221486571
 30
0.0
 10
10.1335573984
 20
7.0941875397
 30
0.0
 10
10.1179875237
 20
7.0670360436
 30
0.0
 10
10.1010805262
 20
7.0407567929
 30
0.0
 10
10.0828754202
 20
7.0154104718
 30
0.0
 10
10.0634139524
 20
6.9910553643
 30
0.0
 10
10.0427417786
 20
6.9677484085
 30
0.0
 10
10.0281821885
 20
6.9529423614
 30
0.0
 10
10.0207195567
 20
6.9457340307
 30
0.0
  0
SPLINE
  5
368
100
AcDbEntity
  8
0
100
AcDbSpline
 62
7
  6
CONTINUOUS
 70
0
 71
3
 72
24
 73
20
 74
0
 42
0.0000001
 43
0.0000001
 44
0.0000000001
 40
0.0
 40
0.0
 40
0.0
 40
0.0
 40
0.0637774298
 40
0.1273438979
 40
0.1907011028
 40
0.2538548461
 40
0.3168115792
 40
0.3795801785
 40
0.4421711488
 40
0.5045967878
 40
0.5668710022
 40
0.6290092041
 40
0.6910281625
 40
0.7220010202
 40
0.7529508971
 40
0.8147862935
 40
0.87655923
 40
0.9382901685
 40
1.0
 40
1.0
 40
1.0
 40
1.0
 10
11.9826303343
 20
7.2760724527
 30
0.0
 10
11.9826303343
 20
7.26257217
 30
0.0
 10
11.9819842144
 20
7.2356116836
 30
0.0
 10
11.979067639
 20
7.1953348428
 30
0.0
 10
11.9742117494
 20
7.1553774246
 30
0.0
 10
11.9674278139
 20
7.1158328731
 30
0.0
 10
11.9587312511
 20
7.0767918908
 30
0.0
 10
11.948142088
 20
7.0383446179
 30
0.0
 10
11.9356846073
 20
7.0005796485
 30
0.0
 10
11.9213874839
 20
6.9635841175
 30
0.0
 10
11.9052835056
 20
6.927443198
 30
0.0
 10
11.8874100819
 20
6.8922407989
 30
0.0
 10
11.8710671185
 20
6.8637411175
 30
0.0
 10
11.8571530728
 20
6.8414960584
 30
0.0
 10
11.8426968205
 20
6.8196460607
 30
0.0
 10
11.8236019906
 20
6.7930607847
 30
0.0
 10
11.7991005523
 20
6.7623982737
 30
0.0
 10
11.7730745767
 20
6.7330549435
 30
0.0
 10
11.7547443474
 20
6.7144142406
 30
0.0
 10
11.7453490045
 20
6.7053390267
 30
0.0
  0
SPLINE
  5
369
100
AcDbEntity
  8
0
100
AcDbSpline
 62
7
  6
CONTINUOUS
 70
0
 71
3
 72
49
 73
45
 74
0
 42
0.0000001
 43
0.0000001
 44
0.0000000001
 40
0.0
 40
0.0
 40
0.0
 40
0.0
 40
0.0417737612
 40
0.0840374079
 40
0.1266587819
 40
0.1695070054
 40
0.212448701
 40
0.2553507859
 40
0.2980801061
 40
0.3405042538
 40
0.3824920091
 40
0.4239138924
 40
0.4646426962
 40
0.5045540236
 40
0.5435268394
 40
0.5814440363
 40
0.6181930245
 40
0.6536663548
 40
0.6877623909
 40
0.7203860578
 40
0.7514496892
 40
0.780874012
 40
0.8085893537
 40
0.8345371708
 40
0.8468342306
 40
0.8586736215
 40
0.8700521874
 40
0.8809680228
 40
0.8914205004
 40
0.9014107098
 40
0.9109413387
 40
0.9200173299
 40
0.9286458445
 40
0.9368369538
 40
0.9446039307
 40
0.9519638612
 40
0.9589383571
 40
0.9655540688
 40
0.9718436438
 40
0.9778460661
 40
0.9836072911
 40
0.989180004
 40
0.9946230597
 40
1.0
 40
1.0
 40
1.0
 40
1.0
 10
12.4692923787
 20
8.61478453
 30
0.0
 10
12.4692923787
 20
8.6217804073
 30
0.0
 10
12.4694015297
 20
8.635854423
 30
0.0
 10
12.4698840207
 20
8.6570612947
 30
0.0
 10
12.4706848791
 20
8.6784386328
 30
0.0
 10
12.4718014191
 20
8.6999154902
 30
0.0
 10
12.4732299942
 20
8.7214209645
 30
0.0
 10
12.4749658588
 20
8.7428838419
 30
0.0
 10
12.477003274
 20
8.764233139
 30
0.0
 10
12.4793354823
 20
8.7853982194
 30
0.0
 10
12.4819547489
 20
8.8063090689
 30
0.0
 10
12.484852377
 20
8.8268965188
 30
0.0
 10
12.4880187405
 20
8.8470924797
 30
0.0
 10
12.4914433154
 20
8.8668301688
 30
0.0
 10
12.4951147139
 20
8.886044334
 30
0.0
 10
12.499020721
 20
8.9046714729
 30
0.0
 10
12.5031483346
 20
8.922650049
 30
0.0
 10
12.5074838072
 20
8.9399207024
 30
0.0
 10
12.5120126924
 20
8.9564264554
 30
0.0
 10
12.5167198915
 20
8.9721129265
 30
0.0
 10
12.5215897074
 20
8.9869284961
 30
0.0
 10
12.5266059045
 20
9.0008246259
 30
0.0
 10
12.5317517868
 20
9.0137556372
 30
0.0
 10
12.5362101251
 20
9.0238658705
 30
0.0
 10
12.5398394485
 20
9.0314283228
 30
0.0
 10
12.5425343881
 20
9.0367310969
 30
0.0
 10
12.5452489224
 20
9.0417625659
 30
0.0
 10
12.5479808275
 20
9.0465186374
 30
0.0
 10
12.5507279239
 20
9.0509954109
 30
0.0
 10
12.5534879013
 20
9.0551892898
 30
0.0
 10
12.5562586302
 20
9.0590968379
 30
0.0
 10
12.5590378171
 20
9.0627149546
 30
0.0
 10
12.5618233571
 20
9.0660406956
 30
0.0
 10
12.5646130694
 20
9.0690714184
 30
0.0
 10
12.5674048787
 20
9.0718046807
 30
0.0
 10
12.5701967927
 20
9.0742382155
 30
0.0
 10
12.5729868025
 20
9.0763700242
 30
0.0
 10
12.5757731019
 20
9.0781980707
 30
0.0
 10
12.578553735
 20
9.0797206145
 30
0.0
 10
12.581326879
 20
9.0809356841
 30
0.0
 10
12.5840903409
 20
9.0818415773
 30
0.0
 10
12.5868418746
 20
9.0824364639
 30
0.0
 10
12.5895781269
 20
9.0827189292
 30
0.0
 10
12.5913947709
 20
9.0826982388
 30
0.0
 10
12.5922930933
 20
9.0826359471
 30
0.0
  0
SPLINE
  5
36A
100
AcDbEntity
  8
0
100
AcDbSpline
 62
7
  6
CONTINUOUS
 70
0
 71
3
 72
49
 73
45
 74
0
 42
0.0000001
 43
0.0000001
 44
0.0000000001
 40
0.0
 40
0.0
 40
0.0
 40
0.0
 40
0.0417737612
 40
0.0840374079
 40
0.1266587819
 40
0.1695070054
 40
0.212448701
 40
0.2553507859
 40
0.2980801061
 40
0.3405042538
 40
0.3824920091
 40
0.4239138924
 40
0.4646426962
 40
0.5045540236
 40
0.5435268394
 40
0.5814440363
 40
0.6181930245
 40
0.6536663548
 40
0.6877623909
 40
0.7203860578
 40
0.7514496892
 40
0.780874012
 40
0.8085893537
 40
0.8345371708
 40
0.8468342306
 40
0.8586736215
 40
0.8700521874
 40
0.8809680228
 40
0.8914205004
 40
0.9014107098
 40
0.9109413387
 40
0.9200173299
 40
0.9286458445
 40
0.9368369538
 40
0.9446039307
 40
0.9519638612
 40
0.9589383571
 40
0.9655540688
 40
0.9718436438
 40
0.9778460661
 40
0.9836072911
 40
0.989180004
 40
0.9946230597
 40
1.0
 40
1.0
 40
1.0
 40
1.0
 10
12.4692923787
 20
6.4414512921
 30
0.0
 10
12.4692923787
 20
6.4484471693
 30
0.0
 10
12.4694015297
 20
6.4625211851
 30
0.0
 10
12.4698840207
 20
6.4837280567
 30
0.0
 10
12.4706848791
 20
6.5051053949
 30
0.0
 10
12.4718014191
 20
6.5265822523
 30
0.0
 10
12.4732299942
 20
6.5480877266
 30
0.0
 10
12.4749658588
 20
6.569550604
 30
0.0
 10
12.477003274
 20
6.590899901
 30
0.0
 10
12.4793354823
 20
6.6120649815
 30
0.0
 10
12.4819547489
 20
6.632975831
 30
0.0
 10
12.484852377
 20
6.6535632809
 30
0.0
 10
12.4880187405
 20
6.6737592417
 30
0.0
 10
12.4914433154
 20
6.6934969309
 30
0.0
 10
12.4951147139
 20
6.7127110961
 30
0.0
 10
12.499020721
 20
6.731338235
 30
0.0
 10
12.5031483346
 20
6.7493168111
 30
0.0
 10
12.5074838072
 20
6.7665874645
 30
0.0
 10
12.5120126924
 20
6.7830932175
 30
0.0
 10
12.5167198915
 20
6.7987796885
 30
0.0
 10
12.5215897074
 20
6.8135952582
 30
0.0
 10
12.5266059045
 20
6.827491388
 30
0.0
 10
12.5317517868
 20
6.8404223993
 30
0.0
 10
12.5362101251
 20
6.8505326325
 30
0.0
 10
12.5398394485
 20
6.8580950849
 30
0.0
 10
12.5425343881
 20
6.863397859
 30
0.0
 10
12.5452489224
 20
6.8684293279
 30
0.0
 10
12.5479808275
 20
6.8731853995
 30
0.0
 10
12.5507279239
 20
6.877662173
 30
0.0
 10
12.5534879013
 20
6.8818560519
 30
0.0
 10
12.5562586302
 20
6.8857636
 30
0.0
 10
12.5590378171
 20
6.8893817167
 30
0.0
 10
12.5618233571
 20
6.8927074577
 30
0.0
 10
12.5646130694
 20
6.8957381804
 30
0.0
 10
12.5674048787
 20
6.8984714427
 30
0.0
 10
12.5701967927
 20
6.9009049775
 30
0.0
 10
12.5729868025
 20
6.9030367863
 30
0.0
 10
12.5757731019
 20
6.9048648328
 30
0.0
 10
12.578553735
 20
6.9063873765
 30
0.0
 10
12.581326879
 20
6.9076024462
 30
0.0
 10
12.5840903409
 20
6.9085083393
 30
0.0
 10
12.5868418746
 20
6.909103226
 30
0.0
 10
12.5895781269
 20
6.9093856913
 30
0.0
 10
12.5913947709
 20
6.9093650008
 30
0.0
 10
12.5922930933
 20
6.9093027091
 30
0.0
  0
SPLINE
  5
36B
100
AcDbEntity
  8
0
100
AcDbSpline
 62
7
  6
CONTINUOUS
 70
0
 71
3
 72
13
 73
9
 74
0
 42
0.0000001
 43
0.0000001
 44
0.0000000001
 40
0.0
 40
0.0
 40
0.0
 40
0.0
 40
0.2469239353
 40
0.3710242227
 40
0.4956246701
 40
0.6207782436
 40
0.7465340049
 40
1.0
 40
1.0
 40
1.0
 40
1.0
 10
11.23396617
 20
7.3430426558
 30
0.0
 10
11.2445541921
 20
7.3405357027
 30
0.0
 10
11.2605353298
 20
7.3370644393
 30
0.0
 10
11.2819886467
 20
7.33297076
 30
0.0
 10
11.2982192798
 20
7.3301451733
 30
0.0
 10
11.3145640716
 20
7.3275623672
 30
0.0
 10
11.3365672952
 20
7.3244233253
 30
0.0
 10
11.3531609936
 20
7.3224260513
 30
0.0
 10
11.3642672127
 20
7.3212430951
 30
0.0
  0
SPLINE
  5
36C
100
AcDbEntity
  8
0
100
AcDbSpline
 62
7
  6
CONTINUOUS
 70
0
 71
3
 72
11
 73
7
 74
0
 42
0.0000001
 43
0.0000001
 44
0.0000000001
 40
0.0
 40
0.0
 40
0.0
 40
0.0
 40
0.2511847788
 40
0.5013687282
 40
0.7508610262
 40
1.0
 40
1.0
 40
1.0
 40
1.0
 10
9.9651977833
 20
7.6579721325
 30
0.0
 10
9.9633950327
 20
7.6535268578
 30
0.0
 10
9.9593377865
 20
7.6448320819
 30
0.0
 10
9.9519461927
 20
7.6325153828
 30
0.0
 10
9.9433329009
 20
7.6210684818
 30
0.0
 10
9.936826868
 20
7.6140868817
 30
0.0
 10
9.9334047694
 20
7.6107813827
 30
0.0
  0
SPLINE
  5
36D
100
AcDbEntity
  8
0
100
AcDbSpline
 62
7
  6
CONTINUOUS
 70
0
 71
3
 72
37
 73
33
 74
0
 42
0.0000001
 43
0.0000001
 44
0.0000000001
 40
0.0
 40
0.0
 40
0.0
 40
0.0
 40
0.0063161244
 40
0.0126711457
 40
0.0191032048
 40
0.0256489923
 40
0.0392092523
 40
0.0536075707
 40
0.0690448396
 40
0.0856783189
 40
0.1036268182
 40
0.1229770616
 40
0.1437901856
 40
0.1661064488
 40
0.1899495672
 40
0.2153299516
 40
0.2422467168
 40
0.2706900061
 40
0.3006420941
 40
0.3320784573
 40
0.3649689672
 40
0.3992781128
 40
0.4349658997
 40
0.4719882735
 40
0.5102972344
 40
0.5498415765
 40
0.5905668526
 40
0.6324157309
 40
0.7192402861
 40
0.8098104776
 40
0.9035852492
 40
1.0
 40
1.0
 40
1.0
 40
1.0
 10
12.5404057877
 20
8.3344329693
 30
0.0
 10
12.5397719654
 20
8.33447692
 30
0.0
 10
12.538503411
 20
8.3346169814
 30
0.0
 10
12.5366148047
 20
8.3349820028
 30
0.0
 10
12.5347387632
 20
8.3355020382
 30
0.0
 10
12.5322267299
 20
8.3364119114
 30
0.0
 10
12.5291053113
 20
8.3379586864
 30
0.0
 10
12.525477648
 20
8.3404062143
 30
0.0
 10
12.5219258494
 20
8.3434591932
 30
0.0
 10
12.518453848
 20
8.3471107095
 30
0.0
 10
12.5150648081
 20
8.3513543485
 30
0.0
 10
12.5117625924
 20
8.3561833286
 30
0.0
 10
12.5085515398
 20
8.3615902832
 30
0.0
 10
12.5054361768
 20
8.3675668659
 30
0.0
 10
12.5024211946
 20
8.3741037725
 30
0.0
 10
12.4995113699
 20
8.3811907047
 30
0.0
 10
12.496711308
 20
8.3888163335
 30
0.0
 10
12.4940256115
 20
8.3969683966
 30
0.0
 10
12.4914586967
 20
8.4056336855
 30
0.0
 10
12.4890147703
 20
8.4147980898
 30
0.0
 10
12.4866979408
 20
8.4244466477
 30
0.0
 10
12.4845120214
 20
8.4345635533
 30
0.0
 10
12.4824606553
 20
8.4451322093
 30
0.0
 10
12.4805472903
 20
8.4561352542
 30
0.0
 10
12.4787750673
 20
8.4675545911
 30
0.0
 10
12.4771469835
 20
8.4793714205
 30
0.0
 10
12.4756657097
 20
8.4915663012
 30
0.0
 10
12.4738677579
 20
8.5085116867
 30
0.0
 10
12.4720192106
 20
8.5304910609
 30
0.0
 10
12.4704444208
 20
8.5577255203
 30
0.0
 10
12.4694978249
 20
8.5859540224
 30
0.0
 10
12.4692923787
 20
8.605086089
 30
0.0
 10
12.4692923787
 20
8.61478453
 30
0.0
  0
SPLINE
  5
36E
100
AcDbEntity
  8
0
100
AcDbSpline
 62
7
  6
CONTINUOUS
 70
0
 71
3
 72
37
 73
33
 74
0
 42
0.0000001
 43
0.0000001
 44
0.0000000001
 40
0.0
 40
0.0
 40
0.0
 40
0.0
 40
0.0063161244
 40
0.0126711457
 40
0.0191032048
 40
0.0256489923
 40
0.0392092523
 40
0.0536075707
 40
0.0690448396
 40
0.0856783189
 40
0.1036268182
 40
0.1229770616
 40
0.1437901856
 40
0.1661064488
 40
0.1899495672
 40
0.2153299516
 40
0.2422467168
 40
0.2706900061
 40
0.3006420941
 40
0.3320784573
 40
0.3649689672
 40
0.3992781128
 40
0.4349658997
 40
0.4719882735
 40
0.5102972344
 40
0.5498415765
 40
0.5905668526
 40
0.6324157309
 40
0.7192402861
 40
0.8098104776
 40
0.9035852492
 40
1.0
 40
1.0
 40
1.0
 40
1.0
 10
12.5404057877
 20
6.1610997314
 30
0.0
 10
12.5397719654
 20
6.1611436821
 30
0.0
 10
12.538503411
 20
6.1612837434
 30
0.0
 10
12.5366148047
 20
6.1616487649
 30
0.0
 10
12.5347387632
 20
6.1621688003
 30
0.0
 10
12.5322267299
 20
6.1630786735
 30
0.0
 10
12.5291053113
 20
6.1646254485
 30
0.0
 10
12.525477648
 20
6.1670729764
 30
0.0
 10
12.5219258494
 20
6.1701259552
 30
0.0
 10
12.518453848
 20
6.1737774716
 30
0.0
 10
12.5150648081
 20
6.1780211106
 30
0.0
 10
12.5117625924
 20
6.1828500907
 30
0.0
 10
12.5085515398
 20
6.1882570453
 30
0.0
 10
12.5054361768
 20
6.1942336279
 30
0.0
 10
12.5024211946
 20
6.2007705346
 30
0.0
 10
12.4995113699
 20
6.2078574668
 30
0.0
 10
12.496711308
 20
6.2154830955
 30
0.0
 10
12.4940256115
 20
6.2236351587
 30
0.0
 10
12.4914586967
 20
6.2323004476
 30
0.0
 10
12.4890147703
 20
6.2414648518
 30
0.0
 10
12.4866979408
 20
6.2511134098
 30
0.0
 10
12.4845120214
 20
6.2612303154
 30
0.0
 10
12.4824606553
 20
6.2717989714
 30
0.0
 10
12.4805472903
 20
6.2828020163
 30
0.0
 10
12.4787750673
 20
6.2942213532
 30
0.0
 10
12.4771469835
 20
6.3060381826
 30
0.0
 10
12.4756657097
 20
6.3182330632
 30
0.0
 10
12.4738677579
 20
6.3351784487
 30
0.0
 10
12.4720192106
 20
6.3571578229
 30
0.0
 10
12.4704444208
 20
6.3843922824
 30
0.0
 10
12.4694978249
 20
6.4126207845
 30
0.0
 10
12.4692923787
 20
6.4317528511
 30
0.0
 10
12.4692923787
 20
6.4414512921
 30
0.0
  0
SPLINE
  5
36F
100
AcDbEntity
  8
0
100
AcDbSpline
 62
7
  6
CONTINUOUS
 70
0
 71
3
 72
46
 73
42
 74
0
 42
0.0000001
 43
0.0000001
 44
0.0000000001
 40
0.0
 40
0.0
 40
0.0
 40
0.0
 40
0.0149720525
 40
0.0299471649
 40
0.0449283772
 40
0.0599186917
 40
0.0749210573
 40
0.0899383484
 40
0.1049733476
 40
0.1200287333
 40
0.1351070597
 40
0.1502107421
 40
0.1653420474
 40
0.1805030776
 40
0.1956957572
 40
0.2109218287
 40
0.2414745667
 40
0.2721768461
 40
0.3030351766
 40
0.3340525707
 40
0.3652285255
 40
0.3965590884
 40
0.4280369959
 40
0.4596518697
 40
0.4913904744
 40
0.523237028
 40
0.5551735471
 40
0.5871802301
 40
0.6192358692
 40
0.6513182802
 40
0.6834047461
 40
0.7154724694
 40
0.7474990252
 40
0.7794628091
 40
0.811343472
 40
0.843122339
 40
0.8747828041
 40
0.9063106918
 40
0.9376946023
 40
0.9689259241
 40
1.0
 40
1.0
 40
1.0
 40
1.0
 10
9.2965054952
 20
9.5592360958
 30
0.0
 10
9.302270955
 20
9.5648050884
 30
0.0
 10
9.3140258451
 20
9.5757161883
 30
0.0
 10
9.3322965254
 20
9.5913710413
 30
0.0
 10
9.3511824408
 20
9.6062942961
 30
0.0
 10
9.3706571739
 20
9.6204651487
 30
0.0
 10
9.3906940216
 20
9.6338641982
 30
0.0
 10
9.4112654265
 20
9.6464729141
 30
0.0
 10
9.4323430334
 20
9.6582740369
 30
0.0
 10
9.4538978378
 20
9.6692513324
 30
0.0
 10
9.4759002122
 20
9.6793896339
 30
0.0
 10
9.4983198271
 20
9.6886750879
 30
0.0
 10
9.5211258723
 20
9.6970949246
 30
0.0
 10
9.5442868674
 20
9.7046374882
 30
0.0
 10
9.5677713654
 20
9.7112925679
 30
0.0
 10
9.5995039392
 20
9.7189783992
 30
0.0
 10
9.6398320004
 20
9.7263186821
 30
0.0
 10
9.68892725
 20
9.7314460877
 30
0.0
 10
9.7385184341
 20
9.7328773928
 30
0.0
 10
9.7883309408
 20
9.7306047764
 30
0.0
 10
9.8380914567
 20
9.7246415308
 30
0.0
 10
9.8875264519
 20
9.7150210145
 30
0.0
 10
9.9363644436
 20
9.7017965554
 30
0.0
 10
9.984337284
 20
9.6850412922
 30
0.0
 10
10.0311816789
 20
9.6648477039
 30
0.0
 10
10.0766405293
 20
9.6413269558
 30
0.0
 10
10.120464394
 20
9.6146084665
 30
0.0
 10
10.1624128558
 20
9.584839175
 30
0.0
 10
10.2022557215
 20
9.5521825923
 30
0.0
 10
10.2397743506
 20
9.5168180505
 30
0.0
 10
10.2747628888
 20
9.4789397446
 30
0.0
 10
10.3070292427
 20
9.438755534
 30
0.0
 10
10.3363962056
 20
9.3964859156
 30
0.0
 10
10.3627025106
 20
9.3523628704
 30
0.0
 10
10.3858035313
 20
9.3066284728
 30
0.0
 10
10.4055721375
 20
9.2595336786
 30
0.0
 10
10.4218995309
 20
9.2113368956
 30
0.0
 10
10.4346956514
 20
9.1623029053
 30
0.0
 10
10.4438896338
 20
9.1127000118
 30
0.0
 10
10.4494306782
 20
9.0628041409
 30
0.0
 10
10.4506717504
 20
9.0294337157
 30
0.0
 10
10.4506717504
 20
9.0127969977
 30
0.0
  0
SPLINE
  5
370
100
AcDbEntity
  8
0
100
AcDbSpline
 62
7
  6
CONTINUOUS
 70
0
 71
3
 72
39
 73
35
 74
0
 42
0.0000001
 43
0.0000001
 44
0.0000000001
 40
0.0
 40
0.0
 40
0.0
 40
0.0
 40
0.029942471
 40
0.0599093183
 40
0.0899243244
 40
0.1200101034
 40
0.1501875624
 40
0.1804754148
 40
0.2108897596
 40
0.2414437361
 40
0.2721472598
 40
0.3030068424
 40
0.3340254951
 40
0.3652027149
 40
0.3965345496
 40
0.4280137343
 40
0.459629891
 40
0.4913697854
 40
0.5232176334
 40
0.5551554501
 40
0.5871634341
 40
0.6192203766
 40
0.6513040925
 40
0.6833918636
 40
0.7154608915
 40
0.7474887505
 40
0.7794538351
 40
0.8113357956
 40
0.8431159562
 40
0.8747777121
 40
0.9063068677
 40
0.9376920929
 40
0.9689246489
 40
1.0
 40
1.0
 40
1.0
 40
1.0
 10
9.4658039444
 20
9.4238452682
 30
0.0
 10
9.473767001
 20
9.4315369579
 30
0.0
 10
9.4903192177
 20
9.4462996337
 30
0.0
 10
9.5168384796
 20
9.4664111375
 30
0.0
 10
9.5449130827
 20
9.4843895308
 30
0.0
 10
9.5743861766
 20
9.5001339414
 30
0.0
 10
9.6050957252
 20
9.5135583389
 30
0.0
 10
9.636872241
 20
9.5245889351
 30
0.0
 10
9.6695406107
 20
9.5331653914
 30
0.0
 10
9.7029208554
 20
9.5392408874
 30
0.0
 10
9.7368291916
 20
9.5427824191
 30
0.0
 10
9.7710790306
 20
9.5437709341
 30
0.0
 10
9.8054820046
 20
9.5422014257
 30
0.0
 10
9.8398490018
 20
9.5380829695
 30
0.0
 10
9.8739911978
 20
9.5314386093
 30
0.0
 10
9.9077210784
 20
9.5223052203
 30
0.0
 10
9.9408534542
 20
9.5107332946
 30
0.0
 10
9.9732064578
 20
9.4967866512
 30
0.0
 10
10.0046025408
 20
9.4805421149
 30
0.0
 10
10.0348694355
 20
9.4620890782
 30
0.0
 10
10.0638410771
 20
9.4415289909
 30
0.0
 10
10.0913585031
 20
9.4189748125
 30
0.0
 10
10.1172707128
 20
9.3945503951
 30
0.0
 10
10.1414354871
 20
9.3683898149
 30
0.0
 10
10.1637201897
 20
9.3406366672
 30
0.0
 10
10.18400246
 20
9.3114432536
 30
0.0
 10
10.2021708778
 20
9.2809697613
 30
0.0
 10
10.2181255705
 20
9.2493833902
 30
0.0
 10
10.2317787539
 20
9.2168574675
 30
0.0
 10
10.2430552272
 20
9.183570447
 30
0.0
 10
10.2518928449
 20
9.1497052016
 30
0.0
 10
10.2582426615
 20
9.1154470607
 30
0.0
 10
10.2620696002
 20
9.0809865662
 30
0.0
 10
10.2629267357
 20
9.0579393515
 30
0.0
 10
10.2629267357
 20
9.0464492285
 30
0.0
  0
SPLINE
  5
371
100
AcDbEntity
  8
0
100
AcDbSpline
 62
7
  6
CONTINUOUS
 70
0
 71
3
 72
23
 73
19
 74
0
 42
0.0000001
 43
0.0000001
 44
0.0000000001
 40
0.0
 40
0.0
 40
0.0
 40
0.0
 40
0.0617101439
 40
0.1234413935
 40
0.1852146431
 40
0.2470503547
 40
0.3089683495
 40
0.3709876176
 40
0.4331261309
 40
0.4954006615
 40
0.5578266134
 40
0.6204179128
 40
0.6831867943
 40
0.7461438773
 40
0.8092980348
 40
0.872655047
 40
0.9362230873
 40
1.0
 40
1.0
 40
1.0
 40
1.0
 10
10.1327606787
 20
8.7333608887
 30
0.0
 10
10.1379147146
 20
8.7383392842
 30
0.0
 10
10.1479701616
 20
8.7485650769
 30
0.0
 10
10.1622472773
 20
8.7646619357
 30
0.0
 10
10.1756882271
 20
8.7814826955
 30
0.0
 10
10.1882614636
 20
8.7989880402
 30
0.0
 10
10.1999381591
 20
8.8171377108
 30
0.0
 10
10.2106913913
 20
8.8358897819
 30
0.0
 10
10.2204964001
 20
8.8552010062
 30
0.0
 10
10.2293305745
 20
8.8750268494
 30
0.0
 10
10.2371735826
 20
8.8953215809
 30
0.0
 10
10.2440074088
 20
8.9160383808
 30
0.0
 10
10.249816357
 20
8.9371294751
 30
0.0
 10
10.2545870649
 20
8.9585462759
 30
0.0
 10
10.2583084986
 20
8.980239274
 30
0.0
 10
10.2609723616
 20
9.0021588886
 30
0.0
 10
10.2625722521
 20
9.0242536318
 30
0.0
 10
10.2629267357
 20
9.0390434478
 30
0.0
 10
10.2629267357
 20
9.0464492285
 30
0.0
  0
SPLINE
  5
372
100
AcDbEntity
  8
0
100
AcDbSpline
 62
7
  6
CONTINUOUS
 70
0
 71
3
 72
15
 73
11
 74
0
 42
0.0000001
 43
0.0000001
 44
0.0000000001
 40
0.0
 40
0.0
 40
0.0
 40
0.0
 40
0.1009539284
 40
0.2088117309
 40
0.3237633868
 40
0.4458579148
 40
0.5749679769
 40
0.7107626396
 40
0.8526911109
 40
1.0
 40
1.0
 40
1.0
 40
1.0
 10
9.5383513702
 20
9.4136984385
 30
0.0
 10
9.5385955799
 20
9.4159047915
 30
0.0
 10
9.5392189135
 20
9.4204559553
 30
0.0
 10
9.5405232651
 20
9.427457046
 30
0.0
 10
9.5422552627
 20
9.4348432453
 30
0.0
 10
9.5444387318
 20
9.4425953477
 30
0.0
 10
9.5470908648
 20
9.4506835932
 30
0.0
 10
9.5502198039
 20
9.4590666946
 30
0.0
 10
9.5538225223
 20
9.467692469
 30
0.0
 10
9.5564863746
 20
9.4734693297
 30
0.0
 10
9.5578923559
 20
9.4763873787
 30
0.0
  0
SPLINE
  5
373
100
AcDbEntity
  8
0
100
AcDbSpline
 62
7
  6
CONTINUOUS
 70
0
 71
3
 72
23
 73
19
 74
0
 42
0.0000001
 43
0.0000001
 44
0.0000000001
 40
0.0
 40
0.0
 40
0.0
 40
0.0
 40
0.0638960463
 40
0.1275625627
 40
0.1910007796
 40
0.2542170903
 40
0.3172182182
 40
0.3800137024
 40
0.442614847
 40
0.5050349522
 40
0.5672891169
 40
0.6293941178
 40
0.6913682762
 40
0.753231189
 40
0.8150038592
 40
0.8767074816
 40
0.9383658203
 40
1.0
 40
1.0
 40
1.0
 40
1.0
 10
11.943465436
 20
7.3301857661
 30
0.0
 10
11.943465436
 20
7.3181487474
 30
0.0
 10
11.9428899723
 20
7.2941138733
 30
0.0
 10
11.9402923077
 20
7.2582127514
 30
0.0
 10
11.93596823
 20
7.2226064336
 30
0.0
 10
11.9299286079
 20
7.1873779248
 30
0.0
 10
11.9221878637
 20
7.152607551
 30
0.0
 10
11.9127645226
 20
7.1183750523
 30
0.0
 10
11.9016807946
 20
7.0847586455
 30
0.0
 10
11.8889626797
 20
7.0518350856
 30
0.0
 10
11.8746398207
 20
7.0196794384
 30
0.0
 10
11.8587454605
 20
6.9883649238
 30
0.0
 10
11.8413163291
 20
6.9579627966
 30
0.0
 10
11.8223925559
 20
6.9285421011
 30
0.0
 10
11.8020176221
 20
6.9001698435
 30
0.0
 10
11.7802379404
 20
6.872910009
 30
0.0
 10
11.7571040931
 20
6.8468256445
 30
0.0
 10
11.7408107494
 20
6.8302559172
 30
0.0
 10
11.7324595432
 20
6.822189271
 30
0.0
  0
SPLINE
  5
374
100
AcDbEntity
  8
0
100
AcDbSpline
 62
7
  6
CONTINUOUS
 70
0
 71
3
 72
46
 73
42
 74
0
 42
0.0000001
 43
0.0000001
 44
0.0000000001
 40
0.0
 40
0.0
 40
0.0
 40
0.0
 40
0.0149720525
 40
0.0299471649
 40
0.0449283772
 40
0.0599186917
 40
0.0749210573
 40
0.0899383484
 40
0.1049733476
 40
0.1200287333
 40
0.1351070597
 40
0.1502107421
 40
0.1653420474
 40
0.1805030776
 40
0.1956957572
 40
0.2109218287
 40
0.2414745667
 40
0.2721768461
 40
0.3030351766
 40
0.3340525707
 40
0.3652285255
 40
0.3965590884
 40
0.4280369959
 40
0.4596518697
 40
0.4913904744
 40
0.523237028
 40
0.5551735471
 40
0.5871802301
 40
0.6192358692
 40
0.6513182802
 40
0.6834047461
 40
0.7154724694
 40
0.7474990252
 40
0.7794628091
 40
0.811343472
 40
0.843122339
 40
0.8747828041
 40
0.9063106918
 40
0.9376946023
 40
0.9689259241
 40
1.0
 40
1.0
 40
1.0
 40
1.0
 10
9.0550240243
 20
7.9455000363
 30
0.0
 10
9.0607894841
 20
7.9510690289
 30
0.0
 10
9.0725443742
 20
7.9619801288
 30
0.0
 10
9.0908150545
 20
7.9776349818
 30
0.0
 10
9.10970097
 20
7.9925582366
 30
0.0
 10
9.129175703
 20
8.0067290892
 30
0.0
 10
9.1492125507
 20
8.0201281387
 30
0.0
 10
9.1697839556
 20
8.0327368547
 30
0.0
 10
9.1908615626
 20
8.0445379774
 30
0.0
 10
9.2124163669
 20
8.0555152729
 30
0.0
 10
9.2344187413
 20
8.0656535744
 30
0.0
 10
9.2568383562
 20
8.0749390284
 30
0.0
 10
9.2796444014
 20
8.0833588651
 30
0.0
 10
9.3028053965
 20
8.0909014287
 30
0.0
 10
9.3262898945
 20
8.0975565084
 30
0.0
 10
9.3580224683
 20
8.1052423397
 30
0.0
 10
9.3983505295
 20
8.1125826226
 30
0.0
 10
9.4474457791
 20
8.1177100282
 30
0.0
 10
9.4970369632
 20
8.1191413333
 30
0.0
 10
9.54684947
 20
8.1168687169
 30
0.0
 10
9.5966099858
 20
8.1109054713
 30
0.0
 10
9.646044981
 20
8.101284955
 30
0.0
 10
9.6948829727
 20
8.0880604959
 30
0.0
 10
9.7428558131
 20
8.0713052327
 30
0.0
 10
9.789700208
 20
8.0511116444
 30
0.0
 10
9.8351590584
 20
8.0275908963
 30
0.0
 10
9.8789829231
 20
8.000872407
 30
0.0
 10
9.920931385
 20
7.9711031155
 30
0.0
 10
9.9607742506
 20
7.9384465328
 30
0.0
 10
9.9982928798
 20
7.903081991
 30
0.0
 10
10.0332814179
 20
7.8652036851
 30
0.0
 10
10.0655477719
 20
7.8250194745
 30
0.0
 10
10.0949147347
 20
7.7827498561
 30
0.0
 10
10.1212210398
 20
7.7386268109
 30
0.0
 10
10.1443220604
 20
7.6928924133
 30
0.0
 10
10.1640906666
 20
7.6457976191
 30
0.0
 10
10.18041806
 20
7.5976008361
 30
0.0
 10
10.1932141805
 20
7.5485668458
 30
0.0
 10
10.2024081629
 20
7.4989639523
 30
0.0
 10
10.2079492073
 20
7.4490680814
 30
0.0
 10
10.2091902795
 20
7.4156976562
 30
0.0
 10
10.2091902795
 20
7.3990609382
 30
0.0
  0
SPLINE
  5
375
100
AcDbEntity
  8
0
100
AcDbSpline
 62
7
  6
CONTINUOUS
 70
0
 71
3
 72
39
 73
35
 74
0
 42
0.0000001
 43
0.0000001
 44
0.0000000001
 40
0.0
 40
0.0
 40
0.0
 40
0.0
 40
0.029942471
 40
0.0599093183
 40
0.0899243244
 40
0.1200101034
 40
0.1501875624
 40
0.1804754148
 40
0.2108897596
 40
0.2414437361
 40
0.2721472598
 40
0.3030068424
 40
0.3340254951
 40
0.3652027149
 40
0.3965345496
 40
0.4280137343
 40
0.459629891
 40
0.4913697854
 40
0.5232176334
 40
0.5551554501
 40
0.5871634341
 40
0.6192203766
 40
0.6513040925
 40
0.6833918636
 40
0.7154608915
 40
0.7474887505
 40
0.7794538351
 40
0.8113357956
 40
0.8431159562
 40
0.8747777121
 40
0.9063068677
 40
0.9376920929
 40
0.9689246489
 40
1.0
 40
1.0
 40
1.0
 40
1.0
 10
9.2243224736
 20
7.8101092087
 30
0.0
 10
9.2322855301
 20
7.8178008984
 30
0.0
 10
9.2488377468
 20
7.8325635742
 30
0.0
 10
9.2753570087
 20
7.852675078
 30
0.0
 10
9.3034316118
 20
7.8706534713
 30
0.0
 10
9.3329047057
 20
7.8863978819
 30
0.0
 10
9.3636142544
 20
7.8998222794
 30
0.0
 10
9.3953907701
 20
7.9108528756
 30
0.0
 10
9.4280591399
 20
7.9194293319
 30
0.0
 10
9.4614393845
 20
7.9255048279
 30
0.0
 10
9.4953477208
 20
7.9290463596
 30
0.0
 10
9.5295975597
 20
7.9300348746
 30
0.0
 10
9.5640005338
 20
7.9284653662
 30
0.0
 10
9.598367531
 20
7.92434691
 30
0.0
 10
9.632509727
 20
7.9177025498
 30
0.0
 10
9.6662396075
 20
7.9085691608
 30
0.0
 10
9.6993719834
 20
7.8969972351
 30
0.0
 10
9.7317249869
 20
7.8830505917
 30
0.0
 10
9.7631210699
 20
7.8668060554
 30
0.0
 10
9.7933879647
 20
7.8483530187
 30
0.0
 10
9.8223596062
 20
7.8277929314
 30
0.0
 10
9.8498770322
 20
7.805238753
 30
0.0
 10
9.875789242
 20
7.7808143356
 30
0.0
 10
9.8999540162
 20
7.7546537554
 30
0.0
 10
9.9222387188
 20
7.7269006077
 30
0.0
 10
9.9425209891
 20
7.6977071941
 30
0.0
 10
9.9606894069
 20
7.6672337018
 30
0.0
 10
9.9766440996
 20
7.6356473307
 30
0.0
 10
9.990297283
 20
7.603121408
 30
0.0
 10
10.0015737563
 20
7.5698343876
 30
0.0
 10
10.010411374
 20
7.5359691421
 30
0.0
 10
10.0167611907
 20
7.5017110012
 30
0.0
 10
10.0205881293
 20
7.4672505067
 30
0.0
 10
10.0214452648
 20
7.444203292
 30
0.0
 10
10.0214452648
 20
7.432713169
 30
0.0
  0
SPLINE
  5
376
100
AcDbEntity
  8
0
100
AcDbSpline
 62
7
  6
CONTINUOUS
 70
0
 71
3
 72
23
 73
19
 74
0
 42
0.0000001
 43
0.0000001
 44
0.0000000001
 40
0.0
 40
0.0
 40
0.0
 40
0.0
 40
0.0617101439
 40
0.1234413935
 40
0.1852146431
 40
0.2470503547
 40
0.3089683495
 40
0.3709876176
 40
0.4331261309
 40
0.4954006615
 40
0.5578266134
 40
0.6204179128
 40
0.6831867943
 40
0.7461438773
 40
0.8092980348
 40
0.872655047
 40
0.9362230873
 40
1.0
 40
1.0
 40
1.0
 40
1.0
 10
9.8912792079
 20
7.1196248292
 30
0.0
 10
9.8964332437
 20
7.1246032247
 30
0.0
 10
9.9064886908
 20
7.1348290174
 30
0.0
 10
9.9207658064
 20
7.1509258762
 30
0.0
 10
9.9342067562
 20
7.167746636
 30
0.0
 10
9.9467799927
 20
7.1852519807
 30
0.0
 10
9.9584566882
 20
7.2034016513
 30
0.0
 10
9.9692099205
 20
7.2221537224
 30
0.0
 10
9.9790149293
 20
7.2414649467
 30
0.0
 10
9.9878491036
 20
7.2612907899
 30
0.0
 10
9.9956921118
 20
7.2815855214
 30
0.0
 10
10.0025259379
 20
7.3023023213
 30
0.0
 10
10.0083348861
 20
7.3233934156
 30
0.0
 10
10.013105594
 20
7.3448102164
 30
0.0
 10
10.0168270277
 20
7.3665032145
 30
0.0
 10
10.0194908908
 20
7.3884228292
 30
0.0
 10
10.0210907812
 20
7.4105175723
 30
0.0
 10
10.0214452648
 20
7.4253073883
 30
0.0
 10
10.0214452648
 20
7.432713169
 30
0.0
  0
SPLINE
  5
377
100
AcDbEntity
  8
0
100
AcDbSpline
 62
7
  6
CONTINUOUS
 70
0
 71
3
 72
47
 73
43
 74
0
 42
0.0000001
 43
0.0000001
 44
0.0000000001
 40
0.0
 40
0.0
 40
0.0
 40
0.0
 40
0.01491376
 40
0.0298316135
 40
0.0447556025
 40
0.0596897218
 40
0.0746371105
 40
0.0896008501
 40
0.1045840385
 40
0.1195895936
 40
0.1346203013
 40
0.1496788014
 40
0.1647675577
 40
0.1798888494
 40
0.1950447633
 40
0.2102371779
 40
0.2254677533
 40
0.2407379284
 40
0.2713961902
 40
0.3022243466
 40
0.3332253859
 40
0.3643984806
 40
0.3957390673
 40
0.4272390308
 40
0.4588869262
 40
0.4906682769
 40
0.5225659116
 40
0.5545603433
 40
0.5866301774
 40
0.6187525515
 40
0.6509035824
 40
0.6830588354
 40
0.715193795
 40
0.7472843354
 40
0.779307191
 40
0.8112404128
 40
0.8430638106
 40
0.8747593699
 40
0.9063116532
 40
0.9377081455
 40
0.968939388
 40
1.0
 40
1.0
 40
1.0
 40
1.0
 10
10.6458758422
 20
7.9471034281
 30
0.0
 10
10.6523347607
 20
7.9533422646
 30
0.0
 10
10.6655043686
 20
7.965565786
 30
0.0
 10
10.6859752009
 20
7.9831026282
 30
0.0
 10
10.7071373189
 20
7.9998192377
 30
0.0
 10
10.7289611461
 20
8.0156922713
 30
0.0
 10
10.7514174172
 20
8.0307003261
 30
0.0
 10
10.7744755513
 20
8.0448227768
 30
0.0
 10
10.7981042373
 20
8.0580402053
 30
0.0
 10
10.8222713744
 20
8.0703344385
 30
0.0
 10
10.8469440798
 20
8.0816885474
 30
0.0
 10
10.8720888073
 20
8.0920867577
 30
0.0
 10
10.8976713191
 20
8.1015146109
 30
0.0
 10
10.9236567141
 20
8.1099590065
 30
0.0
 10
10.9500095891
 20
8.1174080631
 30
0.0
 10
10.976693821
 20
8.1238512341
 30
0.0
 10
11.003673407
 20
8.1292794647
 30
0.0
 10
11.0400338446
 20
8.1351606945
 30
0.0
 10
11.08605298
 20
8.1399301642
 30
0.0
 10
11.1417712474
 20
8.1414916301
 30
0.0
 10
11.1977618407
 20
8.1388897117
 30
0.0
 10
11.2537140639
 20
8.1321361159
 30
0.0
 10
11.309319726
 20
8.1212662636
 30
0.0
 10
11.3642714256
 20
8.1063381266
 30
0.0
 10
11.418265298
 20
8.0874324718
 30
0.0
 10
11.4710025359
 20
8.0646523261
 30
0.0
 10
11.5221910803
 20
8.0381222372
 30
0.0
 10
11.5715474555
 20
8.007987962
 30
0.0
 10
11.6187982627
 20
7.9744153341
 30
0.0
 10
11.6636817616
 20
7.9375894367
 30
0.0
 10
11.7059495185
 20
7.8977137143
 30
0.0
 10
11.7453675637
 20
7.8550085246
 30
0.0
 10
11.7817179515
 20
7.8097101602
 30
0.0
 10
11.8147999337
 20
7.7620693994
 30
0.0
 10
11.8444309253
 20
7.7123499902
 30
0.0
 10
11.8704478666
 20
7.6608273501
 30
0.0
 10
11.8927078221
 20
7.6077868177
 30
0.0
 10
11.9110888845
 20
7.5535219771
 30
0.0
 10
11.9254910185
 20
7.498333479
 30
0.0
 10
11.9358361698
 20
7.4425255132
 30
0.0
 10
11.9420692542
 20
7.3864104381
 30
0.0
 10
11.943465436
 20
7.3488882818
 30
0.0
 10
11.943465436
 20
7.3301857661
 30
0.0
  0
SPLINE
  5
378
100
AcDbEntity
  8
0
100
AcDbSpline
 62
7
  6
CONTINUOUS
 70
0
 71
3
 72
11
 73
7
 74
0
 42
0.0000001
 43
0.0000001
 44
0.0000000001
 40
0.0
 40
0.0
 40
0.0
 40
0.0
 40
0.2491442517
 40
0.4986396096
 40
0.7488223708
 40
1.0
 40
1.0
 40
1.0
 40
1.0
 10
9.7166438501
 20
7.8351887861
 30
0.0
 10
9.7200550511
 20
7.8384837588
 30
0.0
 10
9.7272338103
 20
7.8447250908
 30
0.0
 10
9.7389305633
 20
7.8529160639
 30
0.0
 10
9.75144974
 20
7.8598643622
 30
0.0
 10
9.7602470019
 20
7.8636158788
 30
0.0
 10
9.7647353512
 20
7.8652640624
 30
0.0
  0
SPLINE
  5
379
100
AcDbEntity
  8
0
100
AcDbSpline
 62
7
  6
CONTINUOUS
 70
0
 71
3
 72
50
 73
46
 74
0
 42
0.0000001
 43
0.0000001
 44
0.0000000001
 40
0.0
 40
0.0
 40
0.0
 40
0.0
 40
0.0149717278
 40
0.0299465149
 40
0.044927401
 40
0.0599173893
 40
0.0749194283
 40
0.0899363919
 40
0.1049710634
 40
0.1200261205
 40
0.1351041177
 40
0.1502074705
 40
0.165338445
 40
0.1804991437
 40
0.1956914918
 40
0.21091723
 40
0.2261779061
 40
0.2414748638
 40
0.2568092383
 40
0.2721819537
 40
0.287593716
 40
0.3030450104
 40
0.3185361039
 40
0.3340670439
 40
0.3652423167
 40
0.3965721964
 40
0.4280494165
 40
0.4596636006
 40
0.4914015142
 40
0.5232473741
 40
0.5551831985
 40
0.5871891855
 40
0.6192441282
 40
0.6513258427
 40
0.683411612
 40
0.7154786397
 40
0.7475045014
 40
0.7794675918
 40
0.8113475634
 40
0.8431257421
 40
0.8747855204
 40
0.9063127266
 40
0.9376959415
 40
0.9689266162
 40
1.0
 40
1.0
 40
1.0
 40
1.0
 10
10.529541368
 20
7.9640334569
 30
0.0
 10
10.5368000382
 20
7.9710448013
 30
0.0
 10
10.5515992919
 20
7.9847819127
 30
0.0
 10
10.5746019499
 20
8.0044913225
 30
0.0
 10
10.5983791369
 20
8.0232797141
 30
0.0
 10
10.6228976489
 20
8.0411208367
 30
0.0
 10
10.6481238878
 20
8.0579902287
 30
0.0
 10
10.6740231153
 20
8.0738646252
 30
0.0
 10
10.7005596564
 20
8.0887222609
 30
0.0
 10
10.7276969971
 20
8.10254269
 30
0.0
 10
10.7553978171
 20
8.1153068522
 30
0.0
 10
10.7836239635
 20
8.1269972612
 30
0.0
 10
10.8123365915
 20
8.1375978642
 30
0.0
 10
10.8414962142
 20
8.1470940305
 30
0.0
 10
10.8710626944
 20
8.1554727492
 30
0.0
 10
10.900995342
 20
8.1627225569
 30
0.0
 10
10.9312529901
 20
8.1688334523
 30
0.0
 10
10.9617940111
 20
8.1737970413
 30
0.0
 10
10.9925763848
 20
8.1776065842
 30
0.0
 10
11.0235577659
 20
8.1802568421
 30
0.0
 10
11.0546955819
 20
8.1817441357
 30
0.0
 10
11.0859468609
 20
8.1820665378
 30
0.0
 10
11.117269161
 20
8.1812235457
 30
0.0
 10
11.1591164687
 20
8.1785444342
 30
0.0
 10
11.2113955267
 20
8.1722798656
 30
0.0
 10
11.2736324953
 20
8.1601678033
 30
0.0
 10
11.3351196821
 20
8.1435184307
 30
0.0
 10
11.3955171551
 20
8.1224237516
 30
0.0
 10
11.4544940478
 20
8.097000208
 30
0.0
 10
11.5117265386
 20
8.0673878243
 30
0.0
 10
11.566900589
 20
8.0337494634
 30
0.0
 10
11.6197135285
 20
7.9962701666
 30
0.0
 10
11.669875512
 20
7.9551557466
 30
0.0
 10
11.7171113291
 20
7.9106320534
 30
0.0
 10
11.7611617651
 20
7.8629435207
 30
0.0
 10
11.8017849349
 20
7.8123518222
 30
0.0
 10
11.8387578798
 20
7.7591346695
 30
0.0
 10
11.8718773942
 20
7.7035840015
 30
0.0
 10
11.9009614598
 20
7.6460046468
 30
0.0
 10
11.9258501246
 20
7.5867125946
 30
0.0
 10
11.9464062077
 20
7.5260330953
 30
0.0
 10
11.962516468
 20
7.4642995813
 30
0.0
 10
11.9740917028
 20
7.4018498044
 30
0.0
 10
11.9810678181
 20
7.3390311705
 30
0.0
 10
11.9826303343
 20
7.2970179785
 30
0.0
 10
11.9826303343
 20
7.2760724527
 30
0.0
  0
SPLINE
  5
37A
100
AcDbEntity
  8
0
100
AcDbSpline
 62
7
  6
CONTINUOUS
 70
0
 71
3
 72
53
 73
49
 74
0
 42
0.0000001
 43
0.0000001
 44
0.0000000001
 40
0.0
 40
0.0
 40
0.0
 40
0.0
 40
0.0171075607
 40
0.0338664442
 40
0.0504177535
 40
0.0586677488
 40
0.066928637
 40
0.0752243144
 40
0.0835797977
 40
0.1005724422
 40
0.1092731277
 40
0.1181494386
 40
0.1272347425
 40
0.1365649051
 40
0.1461782632
 40
0.1561171039
 40
0.1664274171
 40
0.1771613414
 40
0.1883772174
 40
0.2001432331
 40
0.2256475108
 40
0.2545279414
 40
0.2706136101
 40
0.2880582094
 40
0.3071065308
 40
0.3280134842
 40
0.3509597581
 40
0.3758703106
 40
0.4021988861
 40
0.4289735225
 40
0.4552415529
 40
0.4804585455
 40
0.504481043
 40
0.5273825793
 40
0.5493103984
 40
0.5704191072
 40
0.6106996933
 40
0.6300931999
 40
0.64909599
 40
0.6861704294
 40
0.722321634
 40
0.7578238807
 40
0.7928751532
 40
0.8276226327
 40
0.8621786395
 40
0.8966308423
 40
0.9310496168
 40
1.0
 40
1.0
 40
1.0
 40
1.0
 10
11.0608762619
 20
7.7199291669
 30
0.0
 10
11.0573956733
 20
7.7200323687
 30
0.0
 10
11.0504947412
 20
7.7199928235
 30
0.0
 10
11.0402590974
 20
7.7191136757
 30
0.0
 10
11.0319136169
 20
7.7176537037
 30
0.0
 10
11.0253810676
 20
7.7160281807
 30
0.0
 10
11.0205440602
 20
7.7145726861
 30
0.0
 10
11.0157646505
 20
7.7128721702
 30
0.0
 10
11.0094355451
 20
7.7102515907
 30
0.0
 10
11.0032445244
 20
7.7071035182
 30
0.0
 10
10.9972400849
 20
7.7034303324
 30
0.0
 10
10.9927648399
 20
7.7003557627
 30
0.0
 10
10.988357599
 20
7.6969699928
 30
0.0
 10
10.9840234346
 20
7.693256014
 30
0.0
 10
10.9797668265
 20
7.6891971696
 30
0.0
 10
10.9755966697
 20
7.6847710497
 30
0.0
 10
10.9715205295
 20
7.6799550907
 30
0.0
 10
10.9675520388
 20
7.6747197678
 30
0.0
 10
10.9637043627
 20
7.6690330837
 30
0.0
 10
10.9586258214
 20
7.6605661049
 30
0.0
 10
10.9526931638
 20
7.6484452972
 30
0.0
 10
10.9479174278
 20
7.6348805418
 30
0.0
 10
10.9448087188
 20
7.6225559994
 30
0.0
 10
10.9428883717
 20
7.6120187439
 30
0.0
 10
10.9416184599
 20
7.6003940286
 30
0.0
 10
10.9412111054
 20
7.5875836552
 30
0.0
 10
10.9419326466
 20
7.5735884094
 30
0.0
 10
10.9440566382
 20
7.558616971
 30
0.0
 10
10.9477532159
 20
7.5431494739
 30
0.0
 10
10.9529758746
 20
7.5278367657
 30
0.0
 10
10.9594626158
 20
7.5132661026
 30
0.0
 10
10.9668650174
 20
7.4997789589
 30
0.0
 10
10.9748807115
 20
7.4874613715
 30
0.0
 10
10.9832998441
 20
7.4762462702
 30
0.0
 10
10.9919909539
 20
7.4660094252
 30
0.0
 10
11.0036506641
 20
7.4536864956
 30
0.0
 10
11.015798232
 20
7.4425669231
 30
0.0
 10
11.0282518945
 20
7.4324952543
 30
0.0
 10
11.0405468679
 20
7.4232807553
 30
0.0
 10
11.0561308024
 20
7.4127898535
 30
0.0
 10
11.0751896244
 20
7.4015206249
 30
0.0
 10
11.0944321873
 20
7.391430976
 30
0.0
 10
11.1138494573
 20
7.3823409767
 30
0.0
 10
11.1334380426
 20
7.374114716
 30
0.0
 10
11.1531970443
 20
7.3666476939
 30
0.0
 10
11.173127697
 20
7.3598578862
 30
0.0
 10
11.1999453583
 20
7.3516161748
 30
0.0
 10
11.2203094136
 20
7.3462762009
 30
0.0
 10
11.23396617
 20
7.3430426558
 30
0.0
  0
SPLINE
  5
37B
100
AcDbEntity
  8
0
100
AcDbSpline
 62
7
  6
CONTINUOUS
 70
0
 71
3
 72
24
 73
20
 74
0
 42
0.0000001
 43
0.0000001
 44
0.0000000001
 40
0.0
 40
0.0
 40
0.0
 40
0.0
 40
0.0451241053
 40
0.0909869994
 40
0.1381278966
 40
0.1870249134
 40
0.2122704496
 40
0.2381024849
 40
0.2916716418
 40
0.3480167441
 40
0.4073476851
 40
0.4698186167
 40
0.5355395263
 40
0.6045797138
 40
0.6769766466
 40
0.7527380917
 40
0.8318536722
 40
0.9142960979
 40
1.0
 40
1.0
 40
1.0
 40
1.0
 10
11.4360518105
 20
7.3419238744
 30
0.0
 10
11.4354693684
 20
7.3408954229
 30
0.0
 10
11.4341683748
 20
7.3388906715
 30
0.0
 10
11.4318502926
 20
7.3361028853
 30
0.0
 10
11.4291622713
 20
7.3335252921
 30
0.0
 10
11.4266459587
 20
7.3315767561
 30
0.0
 10
11.4244646656
 20
7.3301265295
 30
0.0
 10
11.4221132732
 20
7.3287162523
 30
0.0
 10
11.4189436141
 20
7.3270948733
 30
0.0
 10
11.4148432765
 20
7.3253990135
 30
0.0
 10
11.4104089337
 20
7.3239343159
 30
0.0
 10
11.4056498825
 20
7.3227059751
 30
0.0
 10
11.4005759574
 20
7.3217194176
 30
0.0
 10
11.3951978909
 20
7.3209803891
 30
0.0
 10
11.3895273078
 20
7.3204948194
 30
0.0
 10
11.3835765814
 20
7.3202687516
 30
0.0
 10
11.3773587143
 20
7.3203083699
 30
0.0
 10
11.3708880239
 20
7.3206198599
 30
0.0
 10
11.3664994118
 20
7.321005337
 30
0.0
 10
11.3642672127
 20
7.3212430951
 30
0.0
  0
SPLINE
  5
37C
100
AcDbEntity
  8
0
100
AcDbSpline
 62
7
  6
CONTINUOUS
 70
0
 71
3
 72
49
 73
45
 74
0
 42
0.0000001
 43
0.0000001
 44
0.0000000001
 40
0.0
 40
0.0
 40
0.0
 40
0.0
 40
0.0982447785
 40
0.1982913338
 40
0.3001153415
 40
0.3515970198
 40
0.4033210787
 40
0.4550897302
 40
0.5065850131
 40
0.5573247497
 40
0.6066282136
 40
0.6536293488
 40
0.6759686482
 40
0.697378349
 40
0.7177568123
 40
0.7370223962
 40
0.7551184259
 40
0.7720131277
 40
0.7877004633
 40
0.8021982923
 40
0.8155417457
 40
0.8277824683
 40
0.8389817994
 40
0.8492088045
 40
0.8585369126
 40
0.8670425754
 40
0.8748032311
 40
0.8818976833
 40
0.8884048557
 40
0.8944038382
 40
0.8999744153
 40
0.9051950904
 40
0.9101434774
 40
0.9148943947
 40
0.9195179898
 40
0.9240785662
 40
0.9286323042
 40
0.9332272845
 40
0.9426846525
 40
0.9526893994
 40
0.9633756602
 40
0.9748081945
 40
0.987015636
 40
1.0
 40
1.0
 40
1.0
 40
1.0
 10
11.0138577511
 20
8.1306278497
 30
0.0
 10
11.0100086914
 20
8.125366791
 30
0.0
 10
11.0023621018
 20
8.1146580428
 30
0.0
 10
10.9912101471
 20
8.0981576546
 30
0.0
 10
10.9822102161
 20
8.0839554989
 30
0.0
 10
10.9752295115
 20
8.0722781442
 30
0.0
 10
10.9701232472
 20
8.063351885
 30
0.0
 10
10.9652073149
 20
8.0543182141
 30
0.0
 10
10.9605372304
 20
8.0452281544
 30
0.0
 10
10.9561833327
 20
8.036163255
 30
0.0
 10
10.9522291254
 20
8.0272419669
 30
0.0
 10
10.9492922325
 20
8.0199357638
 30
0.0
 10
10.9472203672
 20
8.0142815453
 30
0.0
 10
10.9458443467
 20
8.0102547971
 30
0.0
 10
10.9446253535
 20
8.006391084
 30
0.0
 10
10.9435661823
 20
8.0027087635
 30
0.0
 10
10.9426666808
 20
7.999222422
 30
0.0
 10
10.941924106
 20
7.9959422908
 30
0.0
 10
10.9413332709
 20
7.9928742258
 30
0.0
 10
10.9408871254
 20
7.990020022
 30
0.0
 10
10.9405774988
 20
7.9873778674
 30
0.0
 10
10.9403952949
 20
7.9849432299
 30
0.0
 10
10.9403313884
 20
7.9827093994
 30
0.0
 10
10.9403764543
 20
7.980668313
 30
0.0
 10
10.9405218894
 20
7.9788110348
 30
0.0
 10
10.9407591721
 20
7.9771282385
 30
0.0
 10
10.941080815
 20
7.9756105605
 30
0.0
 10
10.9414797637
 20
7.9742488643
 30
0.0
 10
10.9419494452
 20
7.9730342846
 30
0.0
 10
10.9424846023
 20
7.9719587833
 30
0.0
 10
10.9430794163
 20
7.9710144128
 30
0.0
 10
10.9437295206
 20
7.970194302
 30
0.0
 10
10.944430556
 20
7.9694921659
 30
0.0
 10
10.9451778338
 20
7.9689014406
 30
0.0
 10
10.9459678152
 20
7.9684168309
 30
0.0
 10
10.946796829
 20
7.9680331045
 30
0.0
 10
10.947661371
 20
7.9677445123
 30
0.0
 10
10.9488686922
 20
7.9674775514
 30
0.0
 10
10.9504703047
 20
7.9673646642
 30
0.0
 10
10.9524691709
 20
7.9675428215
 30
0.0
 10
10.9545550623
 20
7.9680038062
 30
0.0
 10
10.9567197306
 20
7.9687224145
 30
0.0
 10
10.9589557485
 20
7.9696798335
 30
0.0
 10
10.9604444173
 20
7.9704427925
 30
0.0
 10
10.9611998933
 20
7.9708569249
 30
0.0
  0
SPLINE
  5
37D
100
AcDbEntity
  8
0
100
AcDbSpline
 62
7
  6
CONTINUOUS
 70
0
 71
3
 72
71
 73
67
 74
0
 42
0.0000001
 43
0.0000001
 44
0.0000000001
 40
0.0
 40
0.0
 40
0.0
 40
0.0
 40
0.0155842919
 40
0.0311159123
 40
0.0465952598
 40
0.0620238813
 40
0.0774034486
 40
0.0927362826
 40
0.1080251225
 40
0.1232731733
 40
0.1384840556
 40
0.1536617767
 40
0.1688106903
 40
0.1839354535
 40
0.1990409785
 40
0.2141323822
 40
0.2292149319
 40
0.2442939893
 40
0.2593749538
 40
0.274463204
 40
0.2895640408
 40
0.3046826306
 40
0.3198239512
 40
0.3349927397
 40
0.3501934437
 40
0.3654301769
 40
0.3807066779
 40
0.3960262749
 40
0.4113918551
 40
0.4268058386
 40
0.442270159
 40
0.4577862486
 40
0.4733550295
 40
0.4889769099
 40
0.5046517846
 40
0.5203790424
 40
0.5361575756
 40
0.551985796
 40
0.5678616541
 40
0.5837826616
 40
0.5997459183
 40
0.6157481418
 40
0.6317856998
 40
0.6478546444
 40
0.6639507499
 40
0.6800695506
 40
0.6962063816
 40
0.7123564199
 40
0.7285147273
 40
0.7446762937
 40
0.7608360805
 40
0.7769890649
 40
0.7931302833
 40
0.8092548746
 40
0.8253581232
 40
0.8414355006
 40
0.857482706
 40
0.8734957058
 40
0.8894707712
 40
0.9054045127
 40
0.9212939185
 40
0.9371363636
 40
0.9529297087
 40
0.9686721119
 40
0.9843625862
 40
1.0
 40
1.0
 40
1.0
 40
1.0
 10
10.4193699554
 20
7.4321584797
 30
0.0
 10
10.4193699554
 20
7.444638849
 30
0.0
 10
10.4199807078
 20
7.4695618326
 30
0.0
 10
10.4227377581
 20
7.5067893294
 30
0.0
 10
10.4273278048
 20
7.5437109751
 30
0.0
 10
10.4337396854
 20
7.580236462
 30
0.0
 10
10.441958182
 20
7.616278204
 30
0.0
 10
10.4519634983
 20
7.6517491804
 30
0.0
 10
10.463731642
 20
7.6865639132
 30
0.0
 10
10.4772343135
 20
7.720638441
 30
0.0
 10
10.4924390423
 20
7.7538905883
 30
0.0
 10
10.5093092379
 20
7.7862401481
 30
0.0
 10
10.5278042767
 20
7.8176090861
 30
0.0
 10
10.5478796035
 20
7.8479217283
 30
0.0
 10
10.5694868403
 20
7.8771049451
 30
0.0
 10
10.5925739025
 20
7.9050883301
 30
0.0
 10
10.617085125
 20
7.9318043731
 30
0.0
 10
10.6429613971
 20
7.9571886246
 30
0.0
 10
10.6701403066
 20
7.9811798539
 30
0.0
 10
10.6985562918
 20
8.0037201988
 30
0.0
 10
10.7281408026
 20
8.0247553053
 30
0.0
 10
10.7588224631
 20
8.0442344679
 30
0.0
 10
10.7905272508
 20
8.0621107483
 30
0.0
 10
10.8231786792
 20
8.078341086
 30
0.0
 10
10.8566979853
 20
8.092886402
 30
0.0
 10
10.8910043212
 20
8.1057116914
 30
0.0
 10
10.9260149513
 20
8.1167861066
 30
0.0
 10
10.9616454539
 20
8.1260830295
 30
0.0
 10
10.9978099252
 20
8.133580134
 30
0.0
 10
11.0344211878
 20
8.1392594359
 30
0.0
 10
11.0713910005
 20
8.1431073415
 30
0.0
 10
11.1086302724
 20
8.1451146767
 30
0.0
 10
11.1460492784
 20
8.1452767008
 30
0.0
 10
11.1835578752
 20
8.1435931171
 30
0.0
 10
11.221065717
 20
8.1400680711
 30
0.0
 10
11.2584824721
 20
8.1347101389
 30
0.0
 10
11.2957180395
 20
8.127532305
 30
0.0
 10
11.3326827638
 20
8.1185519299
 30
0.0
 10
11.36928765
 20
8.1077907064
 30
0.0
 10
11.405444577
 20
8.0952746116
 30
0.0
 10
11.4410665107
 20
8.0810338453
 30
0.0
 10
11.4760677099
 20
8.0651027494
 30
0.0
 10
11.5103639317
 20
8.0475197264
 30
0.0
 10
11.5438726327
 20
8.0283271467
 30
0.0
 10
11.5765131662
 20
8.0075712469
 30
0.0
 10
11.6082069751
 20
7.9853020183
 30
0.0
 10
11.6388777797
 20
7.9615730879
 30
0.0
 10
11.6684517598
 20
7.9364415886
 30
0.0
 10
11.6968577333
 20
7.9099680254
 30
0.0
 10
11.724027331
 20
7.8822161327
 30
0.0
 10
11.7498951545
 20
7.8532527156
 30
0.0
 10
11.7743989342
 20
7.82314749
 30
0.0
 10
11.7974796775
 20
7.7919729161
 30
0.0
 10
11.8190818107
 20
7.7598040247
 30
0.0
 10
11.8391533115
 20
7.7267182383
 30
0.0
 10
11.8576458343
 20
7.6927951851
 30
0.0
 10
11.8745148257
 20
7.6581165094
 30
0.0
 10
11.8897196333
 20
7.6227656761
 30
0.0
 10
11.9032236085
 20
7.5868277745
 30
0.0
 10
11.9149941948
 20
7.5503893062
 30
0.0
 10
11.9250029812
 20
7.5135379959
 30
0.0
 10
11.9332258404
 20
7.4763625148
 30
0.0
 10
11.9396428236
 20
7.4389525076
 30
0.0
 10
11.9442385399
 20
7.4013975938
 30
0.0
 10
11.9470016485
 20
7.3637895627
 30
0.0
 10
11.947618652
 20
7.3386969835
 30
0.0
 10
11.947618652
 20
7.3261740727
 30
0.0
  0
SPLINE
  5
37E
100
AcDbEntity
  8
0
100
AcDbSpline
 62
7
  6
CONTINUOUS
 70
0
 71
3
 72
48
 73
44
 74
0
 42
0.0000001
 43
0.0000001
 44
0.0000000001
 40
0.0
 40
0.0
 40
0.0
 40
0.0
 40
0.0310737286
 40
0.0623047169
 40
0.0936882768
 40
0.1252158192
 40
0.1568759363
 40
0.1886544543
 40
0.2205347671
 40
0.2524981996
 40
0.2845244034
 40
0.3165917744
 40
0.3486778872
 40
0.3807599447
 40
0.4128152307
 40
0.444821561
 40
0.476757727
 40
0.5086039285
 40
0.5403421829
 40
0.5719567057
 40
0.6034342639
 40
0.6347644801
 40
0.6659400877
 40
0.6969571367
 40
0.7278151252
 40
0.7431880054
 40
0.758522545
 40
0.7738196675
 40
0.7890805069
 40
0.8043064089
 40
0.8194989208
 40
0.8346597817
 40
0.8497909186
 40
0.8648944344
 40
0.8799725929
 40
0.8950278113
 40
0.9100626449
 40
0.9250797694
 40
0.9400819686
 40
0.9550721182
 40
0.970053165
 40
0.9850281118
 40
1.0
 40
1.0
 40
1.0
 40
1.0
 10
10.4338136518
 20
7.4370303302
 30
0.0
 10
10.4338136518
 20
7.4183110146
 30
0.0
 10
10.4352100874
 20
7.3807632437
 30
0.0
 10
10.4414447605
 20
7.3246213576
 30
0.0
 10
10.4517896744
 20
7.2688091235
 30
0.0
 10
10.4661876453
 20
7.2136370171
 30
0.0
 10
10.4845589191
 20
7.1594069113
 30
0.0
 10
10.5068022106
 20
7.1064167551
 30
0.0
 10
10.5327950755
 20
7.0549572977
 30
0.0
 10
10.5623944314
 20
7.0053108854
 30
0.0
 10
10.5954376232
 20
6.9577499418
 30
0.0
 10
10.6317431551
 20
6.9125354676
 30
0.0
 10
10.6711115954
 20
6.8699155194
 30
0.0
 10
10.7133268921
 20
6.8301240587
 30
0.0
 10
10.7581573716
 20
6.79337955
 30
0.0
 10
10.805356986
 20
6.7598837147
 30
0.0
 10
10.8546668106
 20
6.7298206526
 30
0.0
 10
10.9058162813
 20
6.7033556343
 30
0.0
 10
10.9585247073
 20
6.6806342045
 30
0.0
 10
11.0125028614
 20
6.661781599
 30
0.0
 10
11.067454486
 20
6.6469017933
 30
0.0
 10
11.123077713
 20
6.6360769826
 30
0.0
 10
11.1790676393
 20
6.6293674036
 30
0.0
 10
11.2351145043
 20
6.6268103015
 30
0.0
 10
11.2816780143
 20
6.6281544977
 30
0.0
 10
11.3186382585
 20
6.6313163605
 30
0.0
 10
11.3461492084
 20
6.6347209615
 30
0.0
 10
11.3734440677
 20
6.639156969
 30
0.0
 10
11.4004857712
 20
6.6446183666
 30
0.0
 10
11.4272370005
 20
6.6510975796
 30
0.0
 10
11.4536609885
 20
6.6585857251
 30
0.0
 10
11.4797213445
 20
6.667072599
 30
0.0
 10
11.5053822364
 20
6.6765464628
 30
0.0
 10
11.5306083566
 20
6.6869943015
 30
0.0
 10
11.5553649554
 20
6.6984018352
 30
0.0
 10
11.5796179936
 20
6.710753308
 30
0.0
 10
11.6033341012
 20
6.7240317324
 30
0.0
 10
11.6264805897
 20
6.7382189233
 30
0.0
 10
11.6490256464
 20
6.7532953095
 30
0.0
 10
11.6709382252
 20
6.7692401121
 30
0.0
 10
11.6921882215
 20
6.7860315706
 30
0.0
 10
11.7127460178
 20
6.8036461419
 30
0.0
 10
11.7259723695
 20
6.8159231337
 30
0.0
 10
11.7324595425
 20
6.8221892718
 30
0.0
  0
SPLINE
  5
37F
100
AcDbEntity
  8
0
100
AcDbSpline
 62
7
  6
CONTINUOUS
 70
0
 71
3
 72
42
 73
38
 74
0
 42
0.0000001
 43
0.0000001
 44
0.0000000001
 40
0.0
 40
0.0
 40
0.0
 40
0.0
 40
0.0310255268
 40
0.0622027355
 40
0.093527506
 40
0.1249920355
 40
0.1565860627
 40
0.188296772
 40
0.2201091141
 40
0.2520061133
 40
0.2839692006
 40
0.315978572
 40
0.3480135642
 40
0.3800530388
 40
0.4120757744
 40
0.4440608598
 40
0.4759880818
 40
0.507838306
 40
0.5395938425
 40
0.57123879
 40
0.602759356
 40
0.6341441485
 40
0.6653844253
 40
0.6964743007
 40
0.7274109055
 40
0.758194491
 40
0.7888284669
 40
0.8193193767
 40
0.8496768073
 40
0.8799132222
 40
0.9100437254
 40
0.9250773345
 40
0.9400911806
 40
0.9550877492
 40
0.9700696203
 40
0.9850394594
 40
1.0
 40
1.0
 40
1.0
 40
1.0
 10
10.7026140704
 20
7.649671612
 30
0.0
 10
10.7026140704
 20
7.632688294
 30
0.0
 10
10.7038368279
 20
7.5986264352
 30
0.0
 10
10.7092979807
 20
7.5476811673
 30
0.0
 10
10.718361946
 20
7.4970058381
 30
0.0
 10
10.7309820586
 20
7.446863154
 30
0.0
 10
10.747093238
 20
7.3975088777
 30
0.0
 10
10.7666126345
 20
7.349195722
 30
0.0
 10
10.7894400577
 20
7.302170743
 30
0.0
 10
10.8154585064
 20
7.2566744946
 30
0.0
 10
10.8445346413
 20
7.212939638
 30
0.0
 10
10.8765195487
 20
7.1711898266
 30
0.0
 10
10.911249537
 20
7.131638604
 30
0.0
 10
10.9485469293
 20
7.0944883116
 30
0.0
 10
10.9882208893
 20
7.0599289793
 30
0.0
 10
11.0300684947
 20
7.0281374574
 30
0.0
 10
11.073875757
 20
6.9992765372
 30
0.0
 10
11.1194186394
 20
6.9734940405
 30
0.0
 10
11.1664642075
 20
6.9509220656
 30
0.0
 10
11.2147718518
 20
6.9316763994
 30
0.0
 10
11.2640944823
 20
6.9158559225
 30
0.0
 10
11.3141797319
 20
6.9035419611
 30
0.0
 10
11.3647712811
 20
6.894797977
 30
0.0
 10
11.4156101451
 20
6.889669267
 30
0.0
 10
11.4664359686
 20
6.8881826566
 30
0.0
 10
11.5169883399
 20
6.8903462568
 30
0.0
 10
11.5670081764
 20
6.8961495646
 30
0.0
 10
11.6162388297
 20
6.9055633847
 30
0.0
 10
11.6644281472
 20
6.9185402099
 30
0.0
 10
11.7113270938
 20
6.9350130341
 30
0.0
 10
11.749168647
 20
6.9515996159
 30
0.0
 10
11.7785441614
 20
6.9665206389
 30
0.0
 10
11.8000932887
 20
6.9785169363
 30
0.0
 10
11.8211454157
 20
6.9913102966
 30
0.0
 10
11.8416740205
 20
7.0048846332
 30
0.0
 10
11.8616523674
 20
7.0192220895
 30
0.0
 10
11.8745914482
 20
7.0292802095
 30
0.0
 10
11.8809595813
 20
7.0344292595
 30
0.0
  0
SPLINE
  5
380
100
AcDbEntity
  8
0
100
AcDbSpline
 62
7
  6
CONTINUOUS
 70
0
 71
3
 72
44
 73
40
 74
0
 42
0.0000001
 43
0.0000001
 44
0.0000000001
 40
0.0
 40
0.0
 40
0.0
 40
0.0
 40
0.0310443156
 40
0.0622424275
 40
0.093590042
 40
0.1250790308
 40
0.156698717
 40
0.1884357731
 40
0.2202745646
 40
0.2521974779
 40
0.2841852731
 40
0.3162174652
 40
0.3482727227
 40
0.3803292746
 40
0.4123653255
 40
0.4443594701
 40
0.4762911023
 40
0.5081408144
 40
0.5398907806
 40
0.5715251153
 40
0.6030302039
 40
0.6343950014
 40
0.6656112869
 40
0.6966738678
 40
0.7275807306
 40
0.7583331346
 40
0.7889356315
 40
0.8193960148
 40
0.8497251974
 40
0.8648475433
 40
0.8799425043
 40
0.8950122209
 40
0.9100589765
 40
0.9250851839
 40
0.940093378
 40
0.9550861953
 40
0.9700663612
 40
0.9850366773
 40
1.0
 40
1.0
 40
1.0
 40
1.0
 10
10.7238272691
 20
7.6551619897
 30
0.0
 10
10.7238272691
 20
7.6382966074
 30
0.0
 10
10.7250582911
 20
7.6044698535
 30
0.0
 10
10.7305556544
 20
7.5538820408
 30
0.0
 10
10.739678738
 20
7.503573196
 30
0.0
 10
10.7523792704
 20
7.4538113136
 30
0.0
 10
10.7685899531
 20
7.40485721
 30
0.0
 10
10.788225126
 20
7.3569684534
 30
0.0
 10
10.8111812217
 20
7.3103966729
 30
0.0
 10
10.8373373345
 20
7.2653866634
 30
0.0
 10
10.866555745
 20
7.222174949
 30
0.0
 10
10.8986826845
 20
7.1809885928
 30
0.0
 10
10.9335491994
 20
7.1420440547
 30
0.0
 10
10.9709720143
 20
7.1055460753
 30
0.0
 10
11.0107543878
 20
7.0716865079
 30
0.0
 10
11.0526872327
 20
7.0406433997
 30
0.0
 10
11.0965502096
 20
7.0125800916
 30
0.0
 10
11.1421128368
 20
6.9876443334
 30
0.0
 10
11.1891356498
 20
6.9659674253
 30
0.0
 10
11.2373715161
 20
6.9476636475
 30
0.0
 10
11.286566902
 20
6.93282967
 30
0.0
 10
11.3364631493
 20
6.9215439394
 30
0.0
 10
11.3867978393
 20
6.9138662645
 30
0.0
 10
11.4373061581
 20
6.9098375754
 30
0.0
 10
11.4877223102
 20
6.9094797124
 30
0.0
 10
11.5377806927
 20
6.9127950553
 30
0.0
 10
11.587218073
 20
6.9197669074
 30
0.0
 10
11.6357720934
 20
6.9303584325
 30
0.0
 10
11.6753300764
 20
6.9421693455
 30
0.0
 10
11.7062666474
 20
6.9533633662
 30
0.0
 10
11.7290716233
 20
6.9626126036
 30
0.0
 10
11.751468359
 20
6.9727104289
 30
0.0
 10
11.7734277543
 20
6.9836437252
 30
0.0
 10
11.7949207311
 20
6.9953980918
 30
0.0
 10
11.8159190568
 20
7.0079579659
 30
0.0
 10
11.8363949603
 20
7.0213068855
 30
0.0
 10
11.8563215758
 20
7.0354273103
 30
0.0
 10
11.8756723196
 20
7.0503002644
 30
0.0
 10
11.8881748462
 20
7.0607068333
 30
0.0
 10
11.8943205106
 20
7.0660278274
 30
0.0
  0
SPLINE
  5
381
100
AcDbEntity
  8
0
100
AcDbSpline
 62
7
  6
CONTINUOUS
 70
0
 71
3
 72
39
 73
35
 74
0
 42
0.0000001
 43
0.0000001
 44
0.0000000001
 40
0.0
 40
0.0
 40
0.0
 40
0.0
 40
0.0310004725
 40
0.0621498355
 40
0.0934442362
 40
0.1248762385
 40
0.1564361347
 40
0.1881117556
 40
0.2198887981
 40
0.2517511035
 40
0.2836809643
 40
0.3156594547
 40
0.3476667763
 40
0.3796826158
 40
0.4116865077
 40
0.4436581996
 40
0.4755780151
 40
0.5074272094
 40
0.5391883123
 40
0.5708454542
 40
0.6023846735
 40
0.6337941941
 40
0.6650646706
 40
0.6961893957
 40
0.7271644666
 40
0.7579889016
 40
0.7886646999
 40
0.8191968449
 40
0.8495932464
 40
0.8798646195
 40
0.9100242952
 40
0.9400879691
 40
0.9700733907
 40
1.0
 40
1.0
 40
1.0
 40
1.0
 10
10.7657608989
 20
7.6956667682
 30
0.0
 10
10.7657608989
 20
7.6793296341
 30
0.0
 10
10.7669158659
 20
7.646565584
 30
0.0
 10
10.7720751364
 20
7.5975541705
 30
0.0
 10
10.7806392365
 20
7.5487888772
 30
0.0
 10
10.7925656432
 20
7.5005135049
 30
0.0
 10
10.8077950474
 20
7.4529655532
 30
0.0
 10
10.8262519608
 20
7.4063798416
 30
0.0
 10
10.8478449811
 20
7.3609861244
 30
0.0
 10
10.8724673236
 20
7.3170083348
 30
0.0
 10
10.8999973357
 20
7.2746634017
 30
0.0
 10
10.930299059
 20
7.2341602023
 30
0.0
 10
10.9632228722
 20
7.1956985065
 30
0.0
 10
10.9986062914
 20
7.1594680512
 30
0.0
 10
11.0362747486
 20
7.1256476084
 30
0.0
 10
11.0760424428
 20
7.0944041175
 30
0.0
 10
11.1177131945
 20
7.0658917974
 30
0.0
 10
11.1610814649
 20
7.0402514574
 30
0.0
 10
11.2059333502
 20
7.0176098066
 30
0.0
 10
11.2520476264
 20
6.9980788475
 30
0.0
 10
11.2991967916
 20
6.9817552468
 30
0.0
 10
11.3471482005
 20
6.9687198896
 30
0.0
 10
11.3956652059
 20
6.9590375117
 30
0.0
 10
11.4445083046
 20
6.9527563754
 30
0.0
 10
11.4934362946
 20
6.9499079772
 30
0.0
 10
11.5422074616
 20
6.9505068407
 30
0.0
 10
11.5905807667
 20
6.9545505066
 30
0.0
 10
11.6383170293
 20
6.9620195132
 30
0.0
 10
11.6851800765
 20
6.9728774502
 30
0.0
 10
11.730938029
 20
6.9870710878
 30
0.0
 10
11.7753641128
 20
7.0045304655
 30
0.0
 10
11.8182390229
 20
7.0251701111
 30
0.0
 10
11.8593474466
 20
7.0488860984
 30
0.0
 10
11.8854662343
 20
7.0666880389
 30
0.0
 10
11.8981549504
 20
7.0760543411
 30
0.0
  0
SPLINE
  5
382
100
AcDbEntity
  8
0
100
AcDbSpline
 62
7
  6
CONTINUOUS
 70
0
 71
3
 72
42
 73
38
 74
0
 42
0.0000001
 43
0.0000001
 44
0.0000000001
 40
0.0
 40
0.0
 40
0.0
 40
0.0
 40
0.0310515893
 40
0.0622577567
 40
0.0936141346
 40
0.1251124814
 40
0.1567419604
 40
0.1884890539
 40
0.2203379096
 40
0.252270676
 40
0.2842678634
 40
0.3163087347
 40
0.3483717111
 40
0.3804347887
 40
0.4124759617
 40
0.4444736456
 40
0.4764070931
 40
0.5082568021
 40
0.540004904
 40
0.5716355271
 40
0.6031351326
 40
0.6344928161
 40
0.6657005609
 40
0.6967534416
 40
0.7276497751
 40
0.7583912057
 40
0.7889827168
 40
0.8194325722
 40
0.8497521836
 40
0.879955894
 40
0.9100606862
 40
0.9250847517
 40
0.9400914759
 40
0.9550835521
 40
0.970063757
 40
0.9850349389
 40
1.0
 40
1.0
 40
1.0
 40
1.0
 10
10.8227115282
 20
7.704176855
 30
0.0
 10
10.8227115282
 20
7.688322187
 30
0.0
 10
10.82387456
 20
7.6565221188
 30
0.0
 10
10.82906805
 20
7.6089672413
 30
0.0
 10
10.8376865044
 20
7.5616784206
 30
0.0
 10
10.8496838687
 20
7.5149100701
 30
0.0
 10
10.8649959315
 20
7.4689097472
 30
0.0
 10
10.8835409762
 20
7.4239218827
 30
0.0
 10
10.9052202196
 20
7.3801852119
 30
0.0
 10
10.9299183519
 20
7.337931914
 30
0.0
 10
10.957504023
 20
7.2973862216
 30
0.0
 10
10.9878306247
 20
7.2587633087
 30
0.0
 10
11.0207370999
 20
7.2222681896
 30
0.0
 10
11.056048749
 20
7.1880946275
 30
0.0
 10
11.093578081
 20
7.1564240358
 30
0.0
 10
11.1331259023
 20
7.1274246188
 30
0.0
 10
11.1744823527
 20
7.1012505044
 30
0.0
 10
11.2174279417
 20
7.0780408402
 30
0.0
 10
11.2617347239
 20
7.057919069
 30
0.0
 10
11.3071675327
 20
7.0409923551
 30
0.0
 10
11.3534851909
 20
7.0273510082
 30
0.0
 10
11.400441734
 20
7.0170678612
 30
0.0
 10
11.4477877483
 20
7.0101979963
 30
0.0
 10
11.4952716667
 20
7.0067784694
 30
0.0
 10
11.5426410762
 20
7.0068280246
 30
0.0
 10
11.5896440457
 20
7.0103469052
 30
0.0
 10
11.6360305103
 20
7.0173169856
 30
0.0
 10
11.6815533916
 20
7.0277017247
 30
0.0
 10
11.725970631
 20
7.0414466015
 30
0.0
 10
11.7690439452
 20
7.0584779249
 30
0.0
 10
11.803656992
 20
7.0753493212
 30
0.0
 10
11.830434894
 20
7.0903862928
 30
0.0
 10
11.8500324906
 20
7.102414344
 30
0.0
 10
11.8691285908
 20
7.1151827856
 30
0.0
 10
11.8876982213
 20
7.1286749617
 30
0.0
 10
11.9057162889
 20
7.1428724591
 30
0.0
 10
11.9173470823
 20
7.1527972849
 30
0.0
 10
11.9230615118
 20
7.1578698197
 30
0.0
  0
SPLINE
  5
383
100
AcDbEntity
  8
0
100
AcDbSpline
 62
7
  6
CONTINUOUS
 70
0
 71
3
 72
42
 73
38
 74
0
 42
0.0000001
 43
0.0000001
 44
0.0000000001
 40
0.0
 40
0.0
 40
0.0
 40
0.0
 40
0.0307260744
 40
0.0461358963
 40
0.061575105
 40
0.0925386881
 40
0.1236161021
 40
0.1548021405
 40
0.186090272
 40
0.2174727159
 40
0.2489405532
 40
0.2804838412
 40
0.31209174
 40
0.3437526459
 40
0.3754543324
 40
0.4071840955
 40
0.4389289039
 40
0.4706755508
 40
0.5024108081
 40
0.5341215805
 40
0.5657950578
 40
0.5974188663
 40
0.6289812149
 40
0.660471038
 40
0.6918781308
 40
0.7231932779
 40
0.754408372
 40
0.785516523
 40
0.816512154
 40
0.8473910849
 40
0.8627874052
 40
0.8781536602
 40
0.9087925576
 40
0.9393111856
 40
0.9545275144
 40
0.969714625
 40
1.0
 40
1.0
 40
1.0
 40
1.0
 10
11.1341999919
 20
8.0050516246
 30
0.0
 10
11.1341999919
 20
7.9927174226
 30
0.0
 10
11.134727053
 20
7.9741918402
 30
0.0
 10
11.1364721345
 20
7.9495334626
 30
0.0
 10
11.138917564
 20
7.9248381989
 30
0.0
 10
11.1432806179
 20
7.8940256686
 30
0.0
 10
11.1505777465
 20
7.8573013728
 30
0.0
 10
11.1599179785
 20
7.8209079406
 30
0.0
 10
11.1712710502
 20
7.7849632498
 30
0.0
 10
11.1846003181
 20
7.7495828189
 30
0.0
 10
11.1998627675
 20
7.7148805824
 30
0.0
 10
11.2170091822
 20
7.6809682187
 30
0.0
 10
11.2359842948
 20
7.6479548765
 30
0.0
 10
11.2567269665
 20
7.6159468037
 30
0.0
 10
11.2791703831
 20
7.5850470142
 30
0.0
 10
11.3032422689
 20
7.5553549569
 30
0.0
 10
11.328865119
 20
7.526966198
 30
0.0
 10
11.355956447
 20
7.4999721156
 30
0.0
 10
11.3844290489
 20
7.4744596072
 30
0.0
 10
11.4141912827
 20
7.4505108116
 30
0.0
 10
11.4451473609
 20
7.428202846
 30
0.0
 10
11.4771976571
 20
7.4076075588
 30
0.0
 10
11.5102390242
 20
7.3887912994
 30
0.0
 10
11.5441651251
 20
7.371814705
 30
0.0
 10
11.5788667666
 20
7.3567325067
 30
0.0
 10
11.6142322711
 20
7.3435933511
 30
0.0
 10
11.6501477459
 20
7.3324396505
 30
0.0
 10
11.6864977718
 20
7.323307418
 30
0.0
 10
11.7231645651
 20
7.3162262548
 30
0.0
 10
11.7539182955
 20
7.3120493286
 30
0.0
 10
11.7785590733
 20
7.3097562091
 30
0.0
 10
11.8031585991
 20
7.3081651945
 30
0.0
 10
11.8338871635
 20
7.3074847043
 30
0.0
 10
11.8645445793
 20
7.3085570536
 30
0.0
 10
11.8889286366
 20
7.3104669877
 30
0.0
 10
11.9131535429
 20
7.3130700782
 30
0.0
 10
11.9312143889
 20
7.3158090334
 30
0.0
 10
11.9431757687
 20
7.3179827856
 30
0.0
  0
SPLINE
  5
384
100
AcDbEntity
  8
0
100
AcDbSpline
 62
7
  6
CONTINUOUS
 70
0
 71
3
 72
40
 73
36
 74
0
 42
0.0000001
 43
0.0000001
 44
0.0000000001
 40
0.0
 40
0.0
 40
0.0
 40
0.0
 40
0.0307247721
 40
0.0615693602
 40
0.0925313201
 40
0.1236069953
 40
0.1547911625
 40
0.1860773313
 40
0.2174577466
 40
0.2489235257
 40
0.280464763
 40
0.3120706589
 40
0.3437296512
 40
0.3754295556
 40
0.4071577099
 40
0.4389011236
 40
0.4706466287
 40
0.5023810331
 40
0.5340912735
 40
0.5657645676
 40
0.5973885637
 40
0.6289514873
 40
0.6604422824
 40
0.6918507467
 40
0.7231676594
 40
0.7543848999
 40
0.7854955565
 40
0.8164940221
 40
0.847376078
 40
0.8781389611
 40
0.9087814159
 40
0.9393037282
 40
0.9545219215
 40
0.9697108994
 40
1.0
 40
1.0
 40
1.0
 40
1.0
 10
11.1812550638
 20
8.0120830262
 30
0.0
 10
11.1812550638
 20
8.0004685295
 30
0.0
 10
11.1819163977
 20
7.9771889826
 30
0.0
 10
11.1848755106
 20
7.9423184764
 30
0.0
 10
11.1897940641
 20
7.9075350726
 30
0.0
 10
11.1966560869
 20
7.8729519926
 30
0.0
 10
11.2054394495
 20
7.8386798608
 30
0.0
 10
11.2161158167
 20
7.8048288294
 30
0.0
 10
11.2286508152
 20
7.7715075362
 30
0.0
 10
11.243004106
 20
7.7388229495
 30
0.0
 10
11.2591295323
 20
7.7068799755
 30
0.0
 10
11.2769752603
 20
7.6757811381
 30
0.0
 10
11.2964839488
 20
7.645626249
 30
0.0
 10
11.317592931
 20
7.6165120901
 30
0.0
 10
11.3402344161
 20
7.5885321051
 30
0.0
 10
11.3643357051
 20
7.5617761018
 30
0.0
 10
11.3898194236
 20
7.5363299653
 30
0.0
 10
11.4166037681
 20
7.512275384
 30
0.0
 10
11.4446027678
 20
7.4896895892
 30
0.0
 10
11.4737265582
 20
7.4686451083
 30
0.0
 10
11.503881668
 20
7.4492095331
 30
0.0
 10
11.5349713168
 20
7.4314453038
 30
0.0
 10
11.5668957236
 20
7.415409509
 30
0.0
 10
11.5995524245
 20
7.401153703
 30
0.0
 10
11.6328365991
 20
7.3887237404
 30
0.0
 10
11.666641405
 20
7.3781596282
 30
0.0
 10
11.7008583126
 20
7.3694953968
 30
0.0
 10
11.7353774727
 20
7.3627589905
 30
0.0
 10
11.7700879842
 20
7.3579721696
 30
0.0
 10
11.80487855
 20
7.3551504635
 30
0.0
 10
11.8396367121
 20
7.354303023
 30
0.0
 10
11.8685125184
 20
7.3552455539
 30
0.0
 10
11.8914817315
 20
7.3569890391
 30
0.0
 10
11.9143028311
 20
7.3593846079
 30
0.0
 10
11.9313190668
 20
7.3619210631
 30
0.0
 10
11.9425895976
 20
7.3639392744
 30
0.0
  0
SPLINE
  5
385
100
AcDbEntity
  8
0
100
AcDbSpline
 62
7
  6
CONTINUOUS
 70
0
 71
3
 72
40
 73
36
 74
0
 42
0.0000001
 43
0.0000001
 44
0.0000000001
 40
0.0
 40
0.0
 40
0.0
 40
0.0
 40
0.0307205196
 40
0.0615603781
 40
0.0925171331
 40
0.1235871915
 40
0.1547653832
 40
0.186045297
 40
0.217419266
 40
0.2488785084
 40
0.280413228
 40
0.3120127413
 40
0.3436656068
 40
0.3753597626
 40
0.4070826686
 40
0.4388214528
 40
0.4705630603
 40
0.5022944037
 40
0.5340025138
 40
0.5656746892
 40
0.5972986443
 40
0.6288626528
 40
0.6603556882
 40
0.6917675564
 40
0.7230890229
 40
0.7543119299
 40
0.7854293043
 40
0.8164354534
 40
0.8473260482
 40
0.8780981916
 40
0.9087504707
 40
0.9392829927
 40
0.9545063581
 40
0.9697005305
 40
1.0
 40
1.0
 40
1.0
 40
1.0
 10
11.1956987603
 20
8.0169548767
 30
0.0
 10
11.1956987603
 20
8.0055525606
 30
0.0
 10
11.1963453898
 20
7.9826985105
 30
0.0
 10
11.1992387831
 20
7.9484647024
 30
0.0
 10
11.2040481993
 20
7.9143151761
 30
0.0
 10
11.2107581398
 20
7.8803602033
 30
0.0
 10
11.2193471451
 20
7.8467075241
 30
0.0
 10
11.2297877261
 20
7.8134644345
 30
0.0
 10
11.24204654
 20
7.7807367654
 30
0.0
 10
11.256084452
 20
7.7486287375
 30
0.0
 10
11.2718566817
 20
7.7172425804
 30
0.0
 10
11.289312937
 20
7.6866782236
 30
0.0
 10
11.3083975773
 20
7.6570329768
 30
0.0
 10
11.3290497895
 20
7.6284012235
 30
0.0
 10
11.3512037807
 20
7.6008741225
 30
0.0
 10
11.3747889872
 20
7.5745393192
 30
0.0
 10
11.399730298
 20
7.5494806685
 30
0.0
 10
11.4259482923
 20
7.5257779695
 30
0.0
 10
11.4533594912
 20
7.5035067128
 30
0.0
 10
11.481876622
 20
7.4827378413
 30
0.0
 10
11.5114088938
 20
7.4635375253
 30
0.0
 10
11.5418622851
 20
7.4459669529
 30
0.0
 10
11.5731398405
 20
7.4300821359
 30
0.0
 10
11.6051419775
 20
7.4159337312
 30
0.0
 10
11.6377668005
 20
7.4035668802
 30
0.0
 10
11.6709104244
 20
7.3930210643
 30
0.0
 10
11.7044672967
 20
7.3843299786
 30
0.0
 10
11.7383305523
 20
7.3775214244
 30
0.0
 10
11.7723922719
 20
7.3726172136
 30
0.0
 10
11.8065441169
 20
7.369633117
 30
0.0
 10
11.840676582
 20
7.3685787383
 30
0.0
 10
11.8690436125
 20
7.3693119719
 30
0.0
 10
11.8916153524
 20
7.3708664779
 30
0.0
 10
11.9140465157
 20
7.3730592009
 30
0.0
 10
11.9307776738
 20
7.3754274615
 30
0.0
 10
11.9418621921
 20
7.3773266256
 30
0.0
  0
SPLINE
  5
386
100
AcDbEntity
  8
0
100
AcDbSpline
 62
7
  6
CONTINUOUS
 70
0
 71
3
 72
39
 73
35
 74
0
 42
0.0000001
 43
0.0000001
 44
0.0000000001
 40
0.0
 40
0.0
 40
0.0
 40
0.0
 40
0.0306419282
 40
0.0613937671
 40
0.0922529619
 40
0.1232171826
 40
0.1542821922
 40
0.1854430491
 40
0.2166937123
 40
0.2480272652
 40
0.279435946
 40
0.3109112441
 40
0.3424439864
 40
0.3740244327
 40
0.405642374
 40
0.4372872347
 40
0.4689481764
 40
0.500614204
 40
0.5322742729
 40
0.5639173961
 40
0.5955327519
 40
0.6271097889
 40
0.6586383318
 40
0.690108682
 40
0.7215117161
 40
0.7528389797
 40
0.7840827764
 40
0.815236251
 40
0.8462934657
 40
0.8772494692
 40
0.9081003572
 40
0.9388433241
 40
0.969476704
 40
1.0
 40
1.0
 40
1.0
 40
1.0
 10
11.2750679825
 20
8.0936196629
 30
0.0
 10
11.2750679825
 20
8.0831369396
 30
0.0
 10
11.2756144122
 20
8.0621299028
 30
0.0
 10
11.2780606594
 20
8.030651525
 30
0.0
 10
11.2821284672
 20
7.9992294567
 30
0.0
 10
11.2878066066
 20
7.9679496091
 30
0.0
 10
11.2950798356
 20
7.9368958137
 30
0.0
 10
11.3039284138
 20
7.9061518375
 30
0.0
 10
11.3143284766
 20
7.8758004343
 30
0.0
 10
11.3262519408
 20
7.8459233436
 30
0.0
 10
11.3396666485
 20
7.8166010105
 30
0.0
 10
11.3545364292
 20
7.7879123871
 30
0.0
 10
11.3708211987
 20
7.7599347138
 30
0.0
 10
11.3884770686
 20
7.7327433146
 30
0.0
 10
11.4074564679
 20
7.7064113965
 30
0.0
 10
11.42770827
 20
7.6810098541
 30
0.0
 10
11.4491779295
 20
7.6566070795
 30
0.0
 10
11.4718076288
 20
7.6332687797
 30
0.0
 10
11.4955364324
 20
7.6110578007
 30
0.0
 10
11.5203004501
 20
7.5900339589
 30
0.0
 10
11.5460330087
 20
7.5702538823
 30
0.0
 10
11.5726648271
 20
7.5517708539
 30
0.0
 10
11.6001242019
 20
7.5346346675
 30
0.0
 10
11.6283372035
 20
7.5188914987
 30
0.0
 10
11.657227873
 20
7.5045837807
 30
0.0
 10
11.6867184252
 20
7.4917500903
 30
0.0
 10
11.7167294561
 20
7.4804250439
 30
0.0
 10
11.7471801576
 20
7.4706392049
 30
0.0
 10
11.7779885233
 20
7.462419
 30
0.0
 10
11.8090716036
 20
7.4557866492
 30
0.0
 10
11.8403455948
 20
7.4507601
 30
0.0
 10
11.8717265544
 20
7.447352984
 30
0.0
 10
11.9031288019
 20
7.4455745375
 30
0.0
 10
11.924061742
 20
7.4454778445
 30
0.0
 10
11.9345014476
 20
7.445703251
 30
0.0
  0
SPLINE
  5
387
100
AcDbEntity
  8
0
100
AcDbSpline
 62
7
  6
CONTINUOUS
 70
0
 71
3
 72
37
 73
33
 74
0
 42
0.0000001
 43
0.0000001
 44
0.0000000001
 40
0.0
 40
0.0
 40
0.0
 40
0.0
 40
0.0306187756
 40
0.0613445853
 40
0.0921741078
 40
0.1231058715
 40
0.1541357791
 40
0.1852593625
 40
0.2164711003
 40
0.2477646461
 40
0.2791328863
 40
0.3105679988
 40
0.3420615379
 40
0.3736045123
 40
0.4051874727
 40
0.4368006028
 40
0.4684338102
 40
0.5000768182
 40
0.5633333064
 40
0.6265051487
 40
0.6580431671
 40
0.6895307441
 40
0.7209589429
 40
0.7523193808
 40
0.7836043104
 40
0.8148066961
 40
0.8459202851
 40
0.8769396725
 40
0.9078603632
 40
0.9386788252
 40
0.9693925328
 40
1.0
 40
1.0
 40
1.0
 40
1.0
 10
11.4019510205
 20
8.0901792734
 30
0.0
 10
11.4019510205
 20
8.0820615378
 30
0.0
 10
11.4023612758
 20
8.065794784
 30
0.0
 10
11.4041981046
 20
8.0414168223
 30
0.0
 10
11.4072530022
 20
8.0170772034
 30
0.0
 10
11.4115178927
 20
7.9928386235
 30
0.0
 10
11.4169821135
 20
7.9687620464
 30
0.0
 10
11.4236317031
 20
7.9449085794
 30
0.0
 10
11.4314498049
 20
7.92133858
 30
0.0
 10
11.4404165574
 20
7.8981117243
 30
0.0
 10
11.4505092145
 20
7.8752868077
 30
0.0
 10
11.4617021926
 20
7.8529216096
 30
0.0
 10
11.4739671359
 20
7.8310727455
 30
0.0
 10
11.4872729724
 20
7.8097955388
 30
0.0
 10
11.5015860159
 20
7.7891438083
 30
0.0
 10
11.5168698771
 20
7.7691699429
 30
0.0
 10
11.5330863461
 20
7.7499240584
 30
0.0
 10
11.5558899862
 20
7.7253056547
 30
0.0
 10
11.5865091855
 20
7.6965953546
 30
0.0
 10
11.6196678422
 20
7.6709044945
 30
0.0
 10
11.6475088536
 20
7.6523302572
 30
0.0
 10
11.6689830509
 20
7.6394289358
 30
0.0
 10
11.6910040122
 20
7.6275848273
 30
0.0
 10
11.7135164953
 20
7.6168275184
 30
0.0
 10
11.736463374
 20
7.6071843816
 30
0.0
 10
11.7597865972
 20
7.5986798408
 30
0.0
 10
11.7834271077
 20
7.5913354861
 30
0.0
 10
11.8073250745
 20
7.5851699782
 30
0.0
 10
11.8314199233
 20
7.5801989807
 30
0.0
 10
11.8556508553
 20
7.5764351124
 30
0.0
 10
11.8799556875
 20
7.5738880012
 30
0.0
 10
11.8961973683
 20
7.5730038083
 30
0.0
 10
11.9043086585
 20
7.5727672966
 30
0.0
  0
SPLINE
  5
388
100
AcDbEntity
  8
0
100
AcDbSpline
 62
7
  6
CONTINUOUS
 70
0
 71
3
 72
23
 73
19
 74
0
 42
0.0000001
 43
0.0000001
 44
0.0000000001
 40
0.0
 40
0.0
 40
0.0
 40
0.0
 40
0.0620565047
 40
0.1242845535
 40
0.186663741
 40
0.2491718065
 40
0.3117849112
 40
0.3744779386
 40
0.4372248039
 40
0.4999987722
 40
0.5627727815
 40
0.6255197693
 40
0.688212999
 40
0.7508263831
 40
0.8133348019
 40
0.8757144125
 40
0.9379429475
 40
1.0
 40
1.0
 40
1.0
 40
1.0
 10
11.5355316898
 20
8.0292288966
 30
0.0
 10
11.5386416275
 20
8.0202347789
 30
0.0
 10
11.5453706412
 20
8.0023903874
 30
0.0
 10
11.5569335876
 20
7.9761891332
 30
0.0
 10
11.5699436831
 20
7.9505969055
 30
0.0
 10
11.5843571296
 20
7.9257000721
 30
0.0
 10
11.6001259465
 20
7.9015812992
 30
0.0
 10
11.617197518
 20
7.878321032
 30
0.0
 10
11.6355149325
 20
7.8559967577
 30
0.0
 10
11.6550171269
 20
7.8346828751
 30
0.0
 10
11.6756391011
 20
7.8144504147
 30
0.0
 10
11.6973121308
 20
7.7953668115
 30
0.0
 10
11.7199639879
 20
7.7774956814
 30
0.0
 10
11.7435192135
 20
7.7608965999
 30
0.0
 10
11.7678992425
 20
7.7456249514
 30
0.0
 10
11.7930231292
 20
7.7317315677
 30
0.0
 10
11.8188060808
 20
7.7192632214
 30
0.0
 10
11.8364054944
 20
7.7119168892
 30
0.0
 10
11.8452859439
 20
7.7084956198
 30
0.0
  0
SPLINE
  5
389
100
AcDbEntity
  8
0
100
AcDbSpline
 62
7
  6
CONTINUOUS
 70
0
 71
3
 72
48
 73
44
 74
0
 42
0.0000001
 43
0.0000001
 44
0.0000000001
 40
0.0
 40
0.0
 40
0.0
 40
0.0
 40
0.0310492833
 40
0.0622530354
 40
0.0936068184
 40
0.1251024782
 40
0.1567291804
 40
0.1884734488
 40
0.2203194731
 40
0.2522494444
 40
0.2842439205
 40
0.3162822128
 40
0.348342788
 40
0.3804036861
 40
0.4124429412
 40
0.4444390024
 40
0.476371149
 40
0.5082198971
 40
0.539967386
 40
0.5715977405
 40
0.6030974096
 40
0.6344554626
 40
0.6656638421
 40
0.6967175751
 40
0.7276149179
 40
0.7430079208
 40
0.7583626959
 40
0.7736799607
 40
0.7889606353
 40
0.8042058445
 40
0.8194169095
 40
0.8345953399
 40
0.849742831
 40
0.8648612539
 40
0.8799526424
 40
0.8950191872
 40
0.9100632228
 40
0.9250872115
 40
0.9400937335
 40
0.9550854717
 40
0.9700651938
 40
0.9850357386
 40
1.0
 40
1.0
 40
1.0
 40
1.0
 10
10.316588999
 20
7.4168000038
 30
0.0
 10
10.316588999
 20
7.3962207793
 30
0.0
 10
10.3180972244
 20
7.3549446538
 30
0.0
 10
10.324832157
 20
7.2932184875
 30
0.0
 10
10.336008736
 20
7.2318367349
 30
0.0
 10
10.351567323
 20
7.1711290606
 30
0.0
 10
10.3714247163
 20
7.1114161638
 30
0.0
 10
10.3954752188
 20
7.0530147951
 30
0.0
 10
10.4235910087
 20
6.9962343377
 30
0.0
 10
10.4556226564
 20
6.9413755853
 30
0.0
 10
10.4914002103
 20
6.8887291737
 30
0.0
 10
10.5307339325
 20
6.838574038
 30
0.0
 10
10.5734152053
 20
6.7911758409
 30
0.0
 10
10.6192178707
 20
6.7467857804
 30
0.0
 10
10.6678992367
 20
6.7056391414
 30
0.0
 10
10.7192013336
 20
6.6679539956
 30
0.0
 10
10.7728524405
 20
6.6339302823
 30
0.0
 10
10.8285683348
 20
6.6037485516
 30
0.0
 10
10.8860538233
 20
6.5775690105
 30
0.0
 10
10.9450043673
 20
6.5555309019
 30
0.0
 10
11.0051076091
 20
6.5377514986
 30
0.0
 10
11.0660448087
 20
6.5243255329
 30
0.0
 10
11.1274935122
 20
6.5153249582
 30
0.0
 10
11.1891255571
 20
6.5107979538
 30
0.0
 10
11.2404387316
 20
6.5107744878
 30
0.0
 10
11.2812429184
 20
6.5130131609
 30
0.0
 10
11.3116532433
 20
6.5158122387
 30
0.0
 10
11.3418643687
 20
6.5197297815
 30
0.0
 10
11.3718366876
 20
6.5247606594
 30
0.0
 10
11.4015302698
 20
6.5308981297
 30
0.0
 10
11.4309057181
 20
6.5381340761
 30
0.0
 10
11.4599239835
 20
6.5464589897
 30
0.0
 10
11.4885465473
 20
6.555861747
 30
0.0
 10
11.5167353904
 20
6.5663298846
 30
0.0
 10
11.544453033
 20
6.5778495983
 30
0.0
 10
11.5716626827
 20
6.5904055224
 30
0.0
 10
11.5983281965
 20
6.6039809918
 30
0.0
 10
11.6244140999
 20
6.618558066
 30
0.0
 10
11.6498857795
 20
6.6341173275
 30
0.0
 10
11.6747093702
 20
6.6506380789
 30
0.0
 10
11.6988519561
 20
6.6680985632
 30
0.0
 10
11.7222810479
 20
6.6864751388
 30
0.0
 10
11.7374073502
 20
6.699323459
 30
0.0
 10
11.7448398225
 20
6.7058907247
 30
0.0
  0
SPLINE
  5
38A
100
AcDbEntity
  8
0
100
AcDbSpline
 62
7
  6
CONTINUOUS
 70
0
 71
3
 72
71
 73
67
 74
0
 42
0.0000001
 43
0.0000001
 44
0.0000000001
 40
0.0
 40
0.0
 40
0.0
 40
0.0
 40
0.0156374138
 40
0.0313278881
 40
0.0470702913
 40
0.0628636364
 40
0.0787060815
 40
0.0945954873
 40
0.1105292288
 40
0.1265042942
 40
0.142517294
 40
0.1585644994
 40
0.1746418768
 40
0.1907451254
 40
0.2068697167
 40
0.2230109351
 40
0.2391639195
 40
0.2553237063
 40
0.2714852727
 40
0.2876435801
 40
0.3037936184
 40
0.3199304494
 40
0.3360492501
 40
0.3521453556
 40
0.3682143002
 40
0.3842518582
 40
0.4002540817
 40
0.4162173384
 40
0.4321383459
 40
0.448014204
 40
0.4638424244
 40
0.4796209576
 40
0.4953482154
 40
0.5110230901
 40
0.5266449705
 40
0.5422137514
 40
0.557729841
 40
0.5731941614
 40
0.5886081449
 40
0.6039737251
 40
0.6192933221
 40
0.6345698231
 40
0.6498065563
 40
0.6650072603
 40
0.6801760488
 40
0.6953173694
 40
0.7104359592
 40
0.725536796
 40
0.7406250462
 40
0.7557060107
 40
0.7707850681
 40
0.7858676178
 40
0.8009590215
 40
0.8160645465
 40
0.8311893097
 40
0.8463382233
 40
0.8615159444
 40
0.8767268267
 40
0.8919748775
 40
0.9072637174
 40
0.9225965514
 40
0.9379761187
 40
0.9534047402
 40
0.9688840877
 40
0.9844157081
 40
1.0
 40
1.0
 40
1.0
 40
1.0
 10
10.4193699554
 20
7.4321584797
 30
0.0
 10
10.4193699554
 20
7.4196355689
 30
0.0
 10
10.4199869588
 20
7.3945429897
 30
0.0
 10
10.4227500674
 20
7.3569349586
 30
0.0
 10
10.4273457837
 20
7.3193800448
 30
0.0
 10
10.4337627669
 20
7.2819700376
 30
0.0
 10
10.4419856261
 20
7.2447945565
 30
0.0
 10
10.4519944125
 20
7.2079432462
 30
0.0
 10
10.4637649988
 20
7.1715047779
 30
0.0
 10
10.477268974
 20
7.1355668763
 30
0.0
 10
10.4924737816
 20
7.100216043
 30
0.0
 10
10.509342773
 20
7.0655373673
 30
0.0
 10
10.5278352958
 20
7.0316143141
 30
0.0
 10
10.5479067966
 20
6.9985285277
 30
0.0
 10
10.5695089298
 20
6.9663596363
 30
0.0
 10
10.5925896731
 20
6.9351850624
 30
0.0
 10
10.6170934528
 20
6.9050798368
 30
0.0
 10
10.6429612764
 20
6.8761164197
 30
0.0
 10
10.670130874
 20
6.848364527
 30
0.0
 10
10.6985368475
 20
6.8218909638
 30
0.0
 10
10.7281108276
 20
6.7967594645
 30
0.0
 10
10.7587816322
 20
6.7730305341
 30
0.0
 10
10.7904754412
 20
6.7507613055
 30
0.0
 10
10.8231159747
 20
6.7300054057
 30
0.0
 10
10.8566246756
 20
6.710812826
 30
0.0
 10
10.8909208974
 20
6.693229803
 30
0.0
 10
10.9259220966
 20
6.6772987071
 30
0.0
 10
10.9615440303
 20
6.6630579408
 30
0.0
 10
10.9977009573
 20
6.650541846
 30
0.0
 10
11.0343058435
 20
6.6397806225
 30
0.0
 10
11.0712705678
 20
6.6308002474
 30
0.0
 10
11.1085061352
 20
6.6236224135
 30
0.0
 10
11.1459228904
 20
6.6182644813
 30
0.0
 10
11.1834307321
 20
6.6147394353
 30
0.0
 10
11.2209393289
 20
6.6130558516
 30
0.0
 10
11.258358335
 20
6.6132178757
 30
0.0
 10
11.2955976068
 20
6.6152252109
 30
0.0
 10
11.3325674195
 20
6.6190731165
 30
0.0
 10
11.3691786822
 20
6.6247524184
 30
0.0
 10
11.4053431534
 20
6.6322495229
 30
0.0
 10
11.440973656
 20
6.6415464458
 30
0.0
 10
11.4759842862
 20
6.652620861
 30
0.0
 10
11.510290622
 20
6.6654461504
 30
0.0
 10
11.5438099281
 20
6.6799914664
 30
0.0
 10
11.5764613566
 20
6.6962218041
 30
0.0
 10
11.6081661442
 20
6.7140980845
 30
0.0
 10
11.6388478048
 20
6.7335772471
 30
0.0
 10
11.6684323156
 20
6.7546123536
 30
0.0
 10
11.6968483007
 20
6.7771526985
 30
0.0
 10
11.7240272102
 20
6.8011439278
 30
0.0
 10
11.7499034823
 20
6.8265281793
 30
0.0
 10
11.7744147049
 20
6.8532442223
 30
0.0
 10
11.7975017671
 20
6.8812276073
 30
0.0
 10
11.8191090038
 20
6.9104108241
 30
0.0
 10
11.8391843306
 20
6.9407234663
 30
0.0
 10
11.8576793694
 20
6.9720924043
 30
0.0
 10
11.874549565
 20
7.0044419641
 30
0.0
 10
11.8897542938
 20
7.0376941114
 30
0.0
 10
11.9032569653
 20
7.0717686392
 30
0.0
 10
11.9150251091
 20
7.106583372
 30
0.0
 10
11.9250304253
 20
7.1420543484
 30
0.0
 10
11.9332489219
 20
7.1780960904
 30
0.0
 10
11.9396608025
 20
7.2146215773
 30
0.0
 10
11.9442508492
 20
7.251543223
 30
0.0
 10
11.9470078995
 20
7.2887707198
 30
0.0
 10
11.947618652
 20
7.3136937034
 30
0.0
 10
11.947618652
 20
7.3261740727
 30
0.0
  0
SPLINE
  5
38B
100
AcDbEntity
  8
0
100
AcDbSpline
 62
7
  6
CONTINUOUS
 70
0
 71
3
 72
15
 73
11
 74
0
 42
0.0000001
 43
0.0000001
 44
0.0000000001
 40
0.0
 40
0.0
 40
0.0
 40
0.0
 40
0.1273483257
 40
0.253860557
 40
0.3795878955
 40
0.504605103
 40
0.6290174424
 40
0.7529533779
 40
0.8765605788
 40
1.0
 40
1.0
 40
1.0
 40
1.0
 10
9.6743398719
 20
7.7334350857
 30
0.0
 10
9.6743398719
 20
7.7382395753
 30
0.0
 10
9.674798603
 20
7.7478236536
 30
0.0
 10
9.6768731765
 20
7.7620154396
 30
0.0
 10
9.6803131639
 20
7.7758506376
 30
0.0
 10
9.6850874952
 20
7.7891998635
 30
0.0
 10
9.6911523558
 20
7.8019400115
 30
0.0
 10
9.6984524889
 20
7.8139534258
 30
0.0
 10
9.7069192366
 20
7.8251275509
 30
0.0
 10
9.7132942713
 20
7.831953336
 30
0.0
 10
9.7166438501
 20
7.8351887861
 30
0.0
  0
SPLINE
  5
38C
100
AcDbEntity
  8
0
100
AcDbSpline
 62
7
  6
CONTINUOUS
 70
0
 71
3
 72
17
 73
13
 74
0
 42
0.0000001
 43
0.0000001
 44
0.0000000001
 40
0.0
 40
0.0
 40
0.0
 40
0.0
 40
0.1266897644
 40
0.2528548111
 40
0.3785049443
 40
0.4411506962
 40
0.5036755662
 40
0.6283627381
 40
0.7526153767
 40
0.8145988087
 40
0.8764892711
 40
1.0
 40
1.0
 40
1.0
 40
1.0
 10
9.3430794353
 20
7.7104620557
 30
0.0
 10
9.3430794353
 20
7.7192190915
 30
0.0
 10
9.3436044539
 20
7.7367016701
 30
0.0
 10
9.3459755967
 20
7.7627720597
 30
0.0
 10
9.349266666
 20
7.7842728526
 30
0.0
 10
9.3526807975
 20
7.8012729818
 30
0.0
 10
9.3566042823
 20
7.8180945443
 30
0.0
 10
9.3624693138
 20
7.8388246843
 30
0.0
 10
9.369607835
 20
7.8591120081
 30
0.0
 10
9.3760603306
 20
7.8750057565
 30
0.0
 10
9.3829908072
 20
7.890640225
 30
0.0
 10
9.3887400683
 20
7.9021062159
 30
0.0
 10
9.3928082733
 20
7.9096118878
 30
0.0
  0
SPLINE
  5
38D
100
AcDbEntity
  8
0
100
AcDbSpline
 62
7
  6
CONTINUOUS
 70
0
 71
3
 72
42
 73
38
 74
0
 42
0.0000001
 43
0.0000001
 44
0.0000000001
 40
0.0
 40
0.0
 40
0.0
 40
0.0
 40
0.0308951075
 40
0.0463967826
 40
0.0619322545
 40
0.0931000872
 40
0.1243967922
 40
0.1558145918
 40
0.1873436929
 40
0.2189725452
 40
0.2506880145
 40
0.2824756104
 40
0.3143197191
 40
0.3462038523
 40
0.3781109051
 40
0.4100234202
 40
0.4419238568
 40
0.4737948594
 40
0.5056195249
 40
0.5373816656
 40
0.5690660631
 40
0.6006587126
 40
0.6321470523
 40
0.6635201758
 40
0.6947690243
 40
0.7258865538
 40
0.7568678756
 40
0.7877103648
 40
0.8184137343
 40
0.8489800726
 40
0.8642152759
 40
0.8794180921
 40
0.9097260705
 40
0.9399172554
 40
0.9549747079
 40
0.9700072533
 40
1.0
 40
1.0
 40
1.0
 40
1.0
 10
9.3430794353
 20
7.7104620557
 30
0.0
 10
9.3430794353
 20
7.7009320617
 30
0.0
 10
9.3435474062
 20
7.686614794
 30
0.0
 10
9.3450949956
 20
7.6675714501
 30
0.0
 10
9.3472636255
 20
7.6485034535
 30
0.0
 10
9.3511313435
 20
7.6247383189
 30
0.0
 10
9.3575921244
 20
7.5964896434
 30
0.0
 10
9.3658501474
 20
7.5685965409
 30
0.0
 10
9.3758701444
 20
7.5411781078
 30
0.0
 10
9.3876094641
 20
7.5143505047
 30
0.0
 10
9.4010181655
 20
7.4882276166
 30
0.0
 10
9.4160392492
 20
7.4629202644
 30
0.0
 10
9.4326088955
 20
7.4385358238
 30
0.0
 10
9.4506567347
 20
7.415177751
 30
0.0
 10
9.4701061438
 20
7.3929451538
 30
0.0
 10
9.4908745699
 20
7.3719323732
 30
0.0
 10
9.5128738778
 20
7.3522285868
 30
0.0
 10
9.5360107212
 20
7.333917433
 30
0.0
 10
9.5601869356
 20
7.3170766587
 30
0.0
 10
9.5852999505
 20
7.3017777913
 30
0.0
 10
9.6112432215
 20
7.2880858367
 30
0.0
 10
9.6379066773
 20
7.2760590045
 30
0.0
 10
9.6651771815
 20
7.2657484613
 30
0.0
 10
9.6929390099
 20
7.257198113
 30
0.0
 10
9.7210743288
 20
7.250444416
 30
0.0
 10
9.749463715
 20
7.2455162244
 30
0.0
 10
9.7779865644
 20
7.2424346482
 30
0.0
 10
9.8065219439
 20
7.2412130146
 30
0.0
 10
9.8349478201
 20
7.2418565996
 30
0.0
 10
9.8584728175
 20
7.2439478974
 30
0.0
 10
9.8771127539
 20
7.2465494549
 30
0.0
 10
9.8955768042
 20
7.2497590906
 30
0.0
 10
9.9183710514
 20
7.2549147722
 30
0.0
 10
9.9407213592
 20
7.2615886791
 30
0.0
 10
9.9582459192
 20
7.2678152
 30
0.0
 10
9.9754895784
 20
7.2746147396
 30
0.0
 10
9.9881439021
 20
7.280373566
 30
0.0
 10
9.9964270301
 20
7.2844945855
 30
0.0
  0
SPLINE
  5
38E
100
AcDbEntity
  8
0
100
AcDbSpline
 62
7
  6
CONTINUOUS
 70
0
 71
3
 72
39
 73
35
 74
0
 42
0.0000001
 43
0.0000001
 44
0.0000000001
 40
0.0
 40
0.0
 40
0.0
 40
0.0
 40
0.0310649259
 40
0.0622858888
 40
0.0936583802
 40
0.125173944
 40
0.1568214421
 40
0.1885869973
 40
0.2204543457
 40
0.2524051873
 40
0.2844195628
 40
0.3164762604
 40
0.3485532383
 40
0.3806280574
 40
0.4126783208
 40
0.4446821121
 40
0.4766184278
 40
0.5084675973
 40
0.5402116824
 40
0.5718348509
 40
0.6033237232
 40
0.6346676735
 40
0.6658590851
 40
0.6968935546
 40
0.7277700365
 40
0.758490912
 40
0.7890619902
 40
0.8194924327
 40
0.849794592
 40
0.8799837686
 40
0.9100778935
 40
0.9400971343
 40
0.9700634341
 40
1.0
 40
1.0
 40
1.0
 40
1.0
 10
9.1163169751
 20
9.1139091824
 30
0.0
 10
9.1163169751
 20
9.097397178
 30
0.0
 10
9.1175394681
 20
9.0642777109
 30
0.0
 10
9.1229979893
 20
9.014753748
 30
0.0
 10
9.1320555847
 20
8.9655143414
 30
0.0
 10
9.1446629581
 20
8.9168293047
 30
0.0
 10
9.1607513691
 20
8.8689610957
 30
0.0
 10
9.1802333712
 20
8.8221687726
 30
0.0
 10
9.2030032885
 20
8.776705241
 30
0.0
 10
9.2289377657
 20
8.7328163069
 30
0.0
 10
9.2578963091
 20
8.6907391731
 30
0.0
 10
9.2897221907
 20
8.650701278
 30
0.0
 10
9.3242432918
 20
8.6129190992
 30
0.0
 10
9.3612729147
 20
8.5775969086
 30
0.0
 10
9.4006108285
 20
8.5449256955
 30
0.0
 10
9.4420444046
 20
8.5150822227
 30
0.0
 10
9.4853497069
 20
8.4882280471
 30
0.0
 10
9.5302926268
 20
8.4645085403
 30
0.0
 10
9.5766302285
 20
8.4440522412
 30
0.0
 10
9.6241120287
 20
8.4269701827
 30
0.0
 10
9.6724812745
 20
8.4133551446
 30
0.0
 10
9.7214763546
 20
8.4032812092
 30
0.0
 10
9.7708322069
 20
8.3968034377
 30
0.0
 10
9.8202817055
 20
8.3939574926
 30
0.0
 10
9.8695570939
 20
8.3947593132
 30
0.0
 10
9.9183914383
 20
8.3992051699
 30
0.0
 10
9.9665200373
 20
8.4072716549
 30
0.0
 10
10.0136818846
 20
8.4189156128
 30
0.0
 10
10.0596210694
 20
8.4340744229
 30
0.0
 10
10.104088235
 20
8.4526664572
 30
0.0
 10
10.1468416382
 20
8.4745910973
 30
0.0
 10
10.1876497893
 20
8.4997303318
 30
0.0
 10
10.2262880547
 20
8.5279452756
 30
0.0
 10
10.2504729907
 20
8.5487150406
 30
0.0
 10
10.2621262522
 20
8.5595502164
 30
0.0
  0
SPLINE
  5
38F
100
AcDbEntity
  8
0
100
AcDbSpline
 62
7
  6
CONTINUOUS
 70
0
 71
3
 72
23
 73
19
 74
0
 42
0.0000001
 43
0.0000001
 44
0.0000000001
 40
0.0
 40
0.0
 40
0.0
 40
0.0
 40
0.0637606747
 40
0.1273162233
 40
0.1906663869
 40
0.2538177974
 40
0.3167760242
 40
0.3795494436
 40
0.4421478626
 40
0.504582756
 40
0.5668671424
 40
0.6290154519
 40
0.6910434126
 40
0.7529679019
 40
0.8148067945
 40
0.8765787949
 40
0.9383032577
 40
1.0
 40
1.0
 40
1.0
 40
1.0
 10
9.1163169751
 20
9.1139091824
 30
0.0
 10
9.1163169751
 20
9.1243847956
 30
0.0
 10
9.1168068044
 20
9.1453057072
 30
0.0
 10
9.1190176145
 20
9.1765644658
 30
0.0
 10
9.122698779
 20
9.2075843713
 30
0.0
 10
9.1278419776
 20
9.238296042
 30
0.0
 10
9.1344361649
 20
9.2686323836
 30
0.0
 10
9.1424668216
 20
9.2985265036
 30
0.0
 10
9.1519163799
 20
9.3279126693
 30
0.0
 10
9.162764085
 20
9.3567262122
 30
0.0
 10
9.1749861191
 20
9.3849037255
 30
0.0
 10
9.188555643
 20
9.4123831916
 30
0.0
 10
9.2034428434
 20
9.4391041149
 30
0.0
 10
9.2196150266
 20
9.4650076746
 30
0.0
 10
9.2370365696
 20
9.4900367954
 30
0.0
 10
9.255669331
 20
9.5141365756
 30
0.0
 10
9.2754716151
 20
9.5372532331
 30
0.0
 10
9.2894271339
 20
9.5519785098
 30
0.0
 10
9.2965825629
 20
9.5591582609
 30
0.0
  0
SPLINE
  5
390
100
AcDbEntity
  8
0
100
AcDbSpline
 62
7
  6
CONTINUOUS
 70
0
 71
3
 72
69
 73
65
 74
0
 42
0.0000001
 43
0.0000001
 44
0.0000000001
 40
0.0
 40
0.0
 40
0.0
 40
0.0
 40
0.0155844229
 40
0.0311165091
 40
0.0465960302
 40
0.0620249355
 40
0.0774047654
 40
0.0927378563
 40
0.1080269574
 40
0.1232752656
 40
0.1384864064
 40
0.1536643855
 40
0.1688135564
 40
0.183938576
 40
0.1990443573
 40
0.2141360176
 40
0.229218824
 40
0.2442981379
 40
0.2593793581
 40
0.2744678638
 40
0.2895689566
 40
0.3046878033
 40
0.3198293814
 40
0.3349984273
 40
0.3501993891
 40
0.365436381
 40
0.380713142
 40
0.3960329999
 40
0.4113988407
 40
0.426813085
 40
0.4422776673
 40
0.4577940207
 40
0.4733630666
 40
0.4889852122
 40
0.5046603528
 40
0.5203878775
 40
0.5361666793
 40
0.551995169
 40
0.5678712962
 40
0.583792573
 40
0.5997561005
 40
0.6157585963
 40
0.6317964271
 40
0.6478656445
 40
0.663962023
 40
0.6800810976
 40
0.7123600126
 40
0.7446719576
 40
0.7608320193
 40
0.7769852787
 40
0.7931267712
 40
0.8092516359
 40
0.8253551578
 40
0.8414328085
 40
0.8574802863
 40
0.8734935576
 40
0.8894688929
 40
0.9054029075
 40
0.9212925804
 40
0.9371352954
 40
0.9529289295
 40
0.9686715104
 40
0.9843624538
 40
1.0
 40
1.0
 40
1.0
 40
1.0
 10
9.2805243753
 20
9.1025213606
 30
0.0
 10
9.2805243753
 20
9.1108038859
 30
0.0
 10
9.2809297306
 20
9.1273440578
 30
0.0
 10
9.2827593992
 20
9.152050077
 30
0.0
 10
9.2858056307
 20
9.1765531918
 30
0.0
 10
9.2900608344
 20
9.2007933001
 30
0.0
 10
9.2955150347
 20
9.224712413
 30
0.0
 10
9.3021550795
 20
9.2482527198
 30
0.0
 10
9.3099650186
 20
9.2713575096
 30
0.0
 10
9.31892607
 20
9.2939710666
 30
0.0
 10
9.3290166768
 20
9.3160388565
 30
0.0
 10
9.3402125719
 20
9.3375076458
 30
0.0
 10
9.3524868124
 20
9.3583256349
 30
0.0
 10
9.3658098069
 20
9.3784426146
 30
0.0
 10
9.3801494439
 20
9.3978100579
 30
0.0
 10
9.3954711603
 20
9.4163812397
 30
0.0
 10
9.4117380286
 20
9.4341113449
 30
0.0
 10
9.428910829
 20
9.450957589
 30
0.0
 10
9.4469481198
 20
9.4668793562
 30
0.0
 10
9.4658063859
 20
9.4818382546
 30
0.0
 10
9.4854401352
 20
9.4957982147
 30
0.0
 10
9.505802013
 20
9.5087255682
 30
0.0
 10
9.5268428996
 20
9.5205891512
 30
0.0
 10
9.5485120206
 20
9.5313604091
 30
0.0
 10
9.5707571038
 20
9.5410134122
 30
0.0
 10
9.5935244973
 20
9.5495249277
 30
0.0
 10
9.6167593014
 20
9.5568744628
 30
0.0
 10
9.6404054884
 20
9.5630443461
 30
0.0
 10
9.6644060397
 20
9.5680197882
 30
0.0
 10
9.6887031001
 20
9.5717888623
 30
0.0
 10
9.7132381118
 20
9.5743425435
 30
0.0
 10
9.7379519528
 20
9.5756747168
 30
0.0
 10
9.762785075
 20
9.5757822321
 30
0.0
 10
9.7876776531
 20
9.5746649166
 30
0.0
 10
9.8125697305
 20
9.5723255253
 30
0.0
 10
9.8374013601
 20
9.5687697456
 30
0.0
 10
9.8621127424
 20
9.564006171
 30
0.0
 10
9.8866443758
 20
9.5580463274
 30
0.0
 10
9.9109372044
 20
9.5509046366
 30
0.0
 10
9.9349327491
 20
9.5425983418
 30
0.0
 10
9.958573252
 20
9.5331474745
 30
0.0
 10
9.9818017911
 20
9.5225748083
 30
0.0
 10
10.0045624933
 20
9.5109058058
 30
0.0
 10
10.0268004573
 20
9.4981687157
 30
0.0
 10
10.0484626515
 20
9.4843938106
 30
0.0
 10
10.0765165062
 20
9.4646823863
 30
0.0
 10
10.1098801017
 20
9.4376212832
 30
0.0
 10
10.1406419418
 20
9.4076048507
 30
0.0
 10
10.1635271419
 20
9.3819807562
 30
0.0
 10
10.1797893635
 20
9.3620011462
 30
0.0
 10
10.1951068083
 20
9.3413122068
 30
0.0
 10
10.2094430793
 20
9.3199633016
 30
0.0
 10
10.222763529
 20
9.2980059295
 30
0.0
 10
10.2350361009
 20
9.2754929
 30
0.0
 10
10.2462311967
 20
9.2524783943
 30
0.0
 10
10.2563218562
 20
9.2290178122
 30
0.0
 10
10.2652837727
 20
9.205167627
 30
0.0
 10
10.2730953326
 20
9.1809852438
 30
0.0
 10
10.27973768
 20
9.1565288776
 30
0.0
 10
10.2851947758
 20
9.1318573593
 30
0.0
 10
10.2894533664
 20
9.1070302404
 30
0.0
 10
10.2925033597
 20
9.0821068575
 30
0.0
 10
10.2943370496
 20
9.0571482966
 30
0.0
 10
10.294746553
 20
9.040495572
 30
0.0
 10
10.294746553
 20
9.0321848136
 30
0.0
  0
SPLINE
  5
391
100
AcDbEntity
  8
0
100
AcDbSpline
 62
7
  6
CONTINUOUS
 70
0
 71
3
 72
15
 73
11
 74
0
 42
0.0000001
 43
0.0000001
 44
0.0000000001
 40
0.0
 40
0.0
 40
0.0
 40
0.0
 40
0.0939997289
 40
0.194613402
 40
0.3028859241
 40
0.4199471421
 40
0.5469771079
 40
0.6851916401
 40
0.8358102505
 40
1.0
 40
1.0
 40
1.0
 40
1.0
 10
9.5450830442
 20
9.3675842101
 30
0.0
 10
9.5443712576
 20
9.3688844016
 30
0.0
 10
9.5430199739
 20
9.371644896
 30
0.0
 10
9.5412959564
 20
9.376104893
 30
0.0
 10
9.5398465583
 20
9.3810421875
 30
0.0
 10
9.5387116551
 20
9.3864872224
 30
0.0
 10
9.5379361388
 20
9.3924713489
 30
0.0
 10
9.5375702049
 20
9.3990244615
 30
0.0
 10
9.5376690728
 20
9.4061727224
 30
0.0
 10
9.5380665362
 20
9.4111250581
 30
0.0
 10
9.5383513702
 20
9.4136984385
 30
0.0
  0
SPLINE
  5
392
100
AcDbEntity
  8
0
100
AcDbSpline
 62
7
  6
CONTINUOUS
 70
0
 71
3
 72
23
 73
19
 74
0
 42
0.0000001
 43
0.0000001
 44
0.0000000001
 40
0.0
 40
0.0
 40
0.0
 40
0.0
 40
0.0637769127
 40
0.127344953
 40
0.1907019652
 40
0.2538561227
 40
0.3168132057
 40
0.3795820872
 40
0.4421733866
 40
0.5045993385
 40
0.5668738691
 40
0.6290123824
 40
0.6910316505
 40
0.7529496453
 40
0.8147853569
 40
0.8765586065
 40
0.9382898561
 40
1.0
 40
1.0
 40
1.0
 40
1.0
 10
9.3356378875
 20
9.1107569285
 30
0.0
 10
9.3356378875
 20
9.1181627091
 30
0.0
 10
9.3359923711
 20
9.1329525252
 30
0.0
 10
9.3375922616
 20
9.1550472683
 30
0.0
 10
9.3402561246
 20
9.1769668829
 30
0.0
 10
9.3439775583
 20
9.1986598811
 30
0.0
 10
9.3487482662
 20
9.2200766819
 30
0.0
 10
9.3545572144
 20
9.2411677762
 30
0.0
 10
9.3613910405
 20
9.261884576
 30
0.0
 10
9.3692340487
 20
9.2821793076
 30
0.0
 10
9.378068223
 20
9.3020051508
 30
0.0
 10
9.3878732318
 20
9.3213163751
 30
0.0
 10
9.3986264641
 20
9.3400684461
 30
0.0
 10
9.4103031596
 20
9.3582181168
 30
0.0
 10
9.4228763961
 20
9.3757234615
 30
0.0
 10
9.4363173459
 20
9.3925442213
 30
0.0
 10
9.4505944615
 20
9.4086410801
 30
0.0
 10
9.4606499086
 20
9.4188668728
 30
0.0
 10
9.4658039444
 20
9.4238452682
 30
0.0
  0
SPLINE
  5
393
100
AcDbEntity
  8
0
100
AcDbSpline
 62
7
  6
CONTINUOUS
 70
0
 71
3
 72
42
 73
38
 74
0
 42
0.0000001
 43
0.0000001
 44
0.0000000001
 40
0.0
 40
0.0
 40
0.0
 40
0.0
 40
0.0308707759
 40
0.0463592667
 40
0.0618809293
 40
0.0930195332
 40
0.1242849634
 40
0.1556698381
 40
0.1871648702
 40
0.2187590896
 40
0.2504400073
 40
0.2821938234
 40
0.3140056422
 40
0.3458597016
 40
0.3777396116
 40
0.4096285989
 40
0.4415097558
 40
0.4733662907
 40
0.5051817766
 40
0.536940397
 40
0.5686271843
 40
0.6002282497
 40
0.6317310014
 40
0.6631243473
 40
0.6943988805
 40
0.7255470441
 40
0.7565632712
 40
0.7874440985
 40
0.8181882492
 40
0.8487966824
 40
0.8640529528
 40
0.8792766831
 40
0.9096255355
 40
0.9398549128
 40
0.9549298449
 40
0.9699786924
 40
1.0
 40
1.0
 40
1.0
 40
1.0
 10
9.5413988585
 20
9.3095067763
 30
0.0
 10
9.5413988585
 20
9.2995909194
 30
0.0
 10
9.54187697
 20
9.2846944732
 30
0.0
 10
9.5434583605
 20
9.2648786601
 30
0.0
 10
9.5456743679
 20
9.2450365058
 30
0.0
 10
9.5496268116
 20
9.220302393
 30
0.0
 10
9.5562303019
 20
9.1908901298
 30
0.0
 10
9.5646724978
 20
9.1618323788
 30
0.0
 10
9.5749186268
 20
9.1332487919
 30
0.0
 10
9.5869266305
 20
9.1052561538
 30
0.0
 10
9.6006472439
 20
9.0779690637
 30
0.0
 10
9.6160242185
 20
9.0514991596
 30
0.0
 10
9.6329945477
 20
9.0259547502
 30
0.0
 10
9.6514887252
 20
9.0014403529
 30
0.0
 10
9.671431027
 20
8.978056276
 30
0.0
 10
9.6927398205
 20
8.9558982102
 30
0.0
 10
9.7153278954
 20
8.9350568404
 30
0.0
 10
9.7391028184
 20
8.9156174776
 30
0.0
 10
9.7639673083
 20
8.8976597115
 30
0.0
 10
9.789819631
 20
8.8812570875
 30
0.0
 10
9.8165540117
 20
8.866476807
 30
0.0
 10
9.8440610639
 20
8.8533794533
 30
0.0
 10
9.8722282324
 20
8.8420187445
 30
0.0
 10
9.9009402505
 20
8.8324413131
 30
0.0
 10
9.9300796007
 20
8.8246865137
 30
0.0
 10
9.9595270148
 20
8.8187862631
 30
0.0
 10
9.9891618647
 20
8.814764894
 30
0.0
 10
10.0188629962
 20
8.8126390991
 30
0.0
 10
10.0485079401
 20
8.8124176774
 30
0.0
 10
10.0730937657
 20
8.813822975
 30
0.0
 10
10.0926085803
 20
8.8158991812
 30
0.0
 10
10.111962525
 20
8.8186008179
 30
0.0
 10
10.1359003478
 20
8.8231525072
 30
0.0
 10
10.1594383628
 20
8.8292668553
 30
0.0
 10
10.1779370074
 20
8.8350751838
 30
0.0
 10
10.1961670777
 20
8.8414770143
 30
0.0
 10
10.2095806942
 20
8.846960626
 30
0.0
 10
10.2183779957
 20
8.8509096758
 30
0.0
  0
SPLINE
  5
394
100
AcDbEntity
  8
0
100
AcDbSpline
 62
7
  6
CONTINUOUS
 70
0
 71
3
 72
69
 73
65
 74
0
 42
0.0000001
 43
0.0000001
 44
0.0000000001
 40
0.0
 40
0.0
 40
0.0
 40
0.0
 40
0.0156375462
 40
0.0313284896
 40
0.0470710705
 40
0.0628647046
 40
0.0787074196
 40
0.0945970925
 40
0.1105311071
 40
0.1265064424
 40
0.1425197137
 40
0.1585671915
 40
0.1746448422
 40
0.1907483641
 40
0.2068732288
 40
0.2230147213
 40
0.2391679807
 40
0.2553280424
 40
0.2876399874
 40
0.3199189024
 40
0.336037977
 40
0.3521343555
 40
0.3682035729
 40
0.3842414037
 40
0.4002438995
 40
0.416207427
 40
0.4321287038
 40
0.448004831
 40
0.4638333207
 40
0.4796121225
 40
0.4953396472
 40
0.5110147878
 40
0.5266369334
 40
0.5422059793
 40
0.5577223327
 40
0.573186915
 40
0.5886011593
 40
0.6039670001
 40
0.619286858
 40
0.634563619
 40
0.6498006109
 40
0.6650015727
 40
0.6801706186
 40
0.6953121967
 40
0.7104310434
 40
0.7255321362
 40
0.7406206419
 40
0.7557018621
 40
0.770781176
 40
0.7858639824
 40
0.8009556427
 40
0.816061424
 40
0.8311864436
 40
0.8463356145
 40
0.8615135936
 40
0.8767247344
 40
0.8919730426
 40
0.9072621437
 40
0.9225952346
 40
0.9379750645
 40
0.9534039698
 40
0.9688834909
 40
0.9844155771
 40
1.0
 40
1.0
 40
1.0
 40
1.0
 10
9.2805243753
 20
9.1025213606
 30
0.0
 10
9.2805243753
 20
9.0942106022
 30
0.0
 10
9.2809338788
 20
9.0775578776
 30
0.0
 10
9.2827675686
 20
9.0525993167
 30
0.0
 10
9.285817562
 20
9.0276759338
 30
0.0
 10
9.2900761525
 20
9.0028488149
 30
0.0
 10
9.2955332484
 20
8.9781772966
 30
0.0
 10
9.3021755957
 20
8.9537209305
 30
0.0
 10
9.3099871557
 20
8.9295385472
 30
0.0
 10
9.3189490722
 20
8.905688362
 30
0.0
 10
9.3290397317
 20
8.8822277799
 30
0.0
 10
9.3402348274
 20
8.8592132742
 30
0.0
 10
9.3525073994
 20
8.8367002447
 30
0.0
 10
9.365827849
 20
8.8147428726
 30
0.0
 10
9.3801641201
 20
8.7933939674
 30
0.0
 10
9.3954815648
 20
8.772705028
 30
0.0
 10
9.4117437864
 20
8.752725418
 30
0.0
 10
9.4346289866
 20
8.7271013235
 30
0.0
 10
9.4653908267
 20
8.697084891
 30
0.0
 10
9.4987544221
 20
8.6700237879
 30
0.0
 10
9.5268082768
 20
8.6503123636
 30
0.0
 10
9.5484704711
 20
8.6365374585
 30
0.0
 10
9.5707084351
 20
8.6238003684
 30
0.0
 10
9.5934691372
 20
8.6121313659
 30
0.0
 10
9.6166976763
 20
8.6015586997
 30
0.0
 10
9.6403381792
 20
8.5921078324
 30
0.0
 10
9.664333724
 20
8.5838015376
 30
0.0
 10
9.6886265526
 20
8.5766598468
 30
0.0
 10
9.7131581859
 20
8.5707000032
 30
0.0
 10
9.7378695682
 20
8.5659364286
 30
0.0
 10
9.7627011978
 20
8.5623806489
 30
0.0
 10
9.7875932753
 20
8.5600412576
 30
0.0
 10
9.8124858534
 20
8.5589239422
 30
0.0
 10
9.8373189755
 20
8.5590314574
 30
0.0
 10
9.8620328166
 20
8.5603636307
 30
0.0
 10
9.8865678283
 20
8.5629173119
 30
0.0
 10
9.9108648887
 20
8.566686386
 30
0.0
 10
9.93486544
 20
8.5716618281
 30
0.0
 10
9.9585116269
 20
8.5778317114
 30
0.0
 10
9.9817464311
 20
8.5851812465
 30
0.0
 10
10.0045138245
 20
8.593692762
 30
0.0
 10
10.0267589077
 20
8.6033457651
 30
0.0
 10
10.0484280288
 20
8.614117023
 30
0.0
 10
10.0694689154
 20
8.625980606
 30
0.0
 10
10.0898307931
 20
8.6389079595
 30
0.0
 10
10.1094645425
 20
8.6528679196
 30
0.0
 10
10.1283228086
 20
8.667826818
 30
0.0
 10
10.1463600994
 20
8.6837485852
 30
0.0
 10
10.1635328998
 20
8.7005948293
 30
0.0
 10
10.179799768
 20
8.7183249345
 30
0.0
 10
10.1951214845
 20
8.7368961163
 30
0.0
 10
10.2094611215
 20
8.7562635596
 30
0.0
 10
10.2227841159
 20
8.7763805393
 30
0.0
 10
10.2350583564
 20
8.7971985285
 30
0.0
 10
10.2462542515
 20
8.8186673177
 30
0.0
 10
10.2563448583
 20
8.8407351076
 30
0.0
 10
10.2653059098
 20
8.8633486646
 30
0.0
 10
10.2731158489
 20
8.8864534545
 30
0.0
 10
10.2797558936
 20
8.9099937612
 30
0.0
 10
10.2852100939
 20
8.9339128741
 30
0.0
 10
10.2894652976
 20
8.9581529824
 30
0.0
 10
10.2925115292
 20
8.9826560972
 30
0.0
 10
10.2943411977
 20
9.0073621164
 30
0.0
 10
10.294746553
 20
9.0239022883
 30
0.0
 10
10.294746553
 20
9.0321848136
 30
0.0
  0
SPLINE
  5
395
100
AcDbEntity
  8
0
100
AcDbSpline
 62
7
  6
CONTINUOUS
 70
0
 71
3
 72
23
 73
19
 74
0
 42
0.0000001
 43
0.0000001
 44
0.0000000001
 40
0.0
 40
0.0
 40
0.0
 40
0.0
 40
0.0637775561
 40
0.1273446565
 40
0.1907020307
 40
0.2538561431
 40
0.3168131834
 40
0.3795821015
 40
0.4421733894
 40
0.5045993415
 40
0.5668738676
 40
0.6290123791
 40
0.6910316472
 40
0.7529496401
 40
0.8147853492
 40
0.8765585998
 40
0.9382898533
 40
1.0
 40
1.0
 40
1.0
 40
1.0
 10
9.1080347723
 20
9.1059091884
 30
0.0
 10
9.1080347723
 20
9.116632283
 30
0.0
 10
9.1085479939
 20
9.1380467226
 30
0.0
 10
9.1108645854
 20
9.1700381739
 30
0.0
 10
9.1147216107
 20
9.2017759464
 30
0.0
 10
9.1201100206
 20
9.2331857332
 30
0.0
 10
9.1270176352
 20
9.2641955608
 30
0.0
 10
9.1354285201
 20
9.2947338036
 30
0.0
 10
9.1453233984
 20
9.3247300895
 30
0.0
 10
9.1566795183
 20
9.3541152336
 30
0.0
 10
9.1694707513
 20
9.3828214694
 30
0.0
 10
9.1836676534
 20
9.4107825869
 30
0.0
 10
9.1992375282
 20
9.4379340829
 30
0.0
 10
9.2161445256
 20
9.4642133337
 30
0.0
 10
9.2343496317
 20
9.4895596548
 30
0.0
 10
9.2538110995
 20
9.5139147623
 30
0.0
 10
9.2744832733
 20
9.5372217181
 30
0.0
 10
9.2890428634
 20
9.5520277652
 30
0.0
 10
9.2965054952
 20
9.5592360958
 30
0.0
  0
SPLINE
  5
396
100
AcDbEntity
  8
0
100
AcDbSpline
 62
7
  6
CONTINUOUS
 70
0
 71
3
 72
39
 73
35
 74
0
 42
0.0000001
 43
0.0000001
 44
0.0000000001
 40
0.0
 40
0.0
 40
0.0
 40
0.0
 40
0.0310753511
 40
0.0623079071
 40
0.0936931323
 40
0.1252222879
 40
0.1568840438
 40
0.1886642044
 40
0.2205461649
 40
0.2525112495
 40
0.2845391085
 40
0.3166081364
 40
0.3486959075
 40
0.3807796234
 40
0.4128365659
 40
0.4448445499
 40
0.4767823666
 40
0.5086302146
 40
0.540370109
 40
0.5719862657
 40
0.6034654504
 40
0.6347972851
 40
0.6659745049
 40
0.6969931576
 40
0.7278527402
 40
0.7585562639
 40
0.7891102404
 40
0.8195245852
 40
0.8498124376
 40
0.8799898966
 40
0.9100756756
 40
0.9400906817
 40
0.970057529
 40
1.0
 40
1.0
 40
1.0
 40
1.0
 10
9.3356378875
 20
9.1107569285
 30
0.0
 10
9.3356378875
 20
9.0992668055
 30
0.0
 10
9.336495023
 20
9.0762195908
 30
0.0
 10
9.3403219616
 20
9.0417590963
 30
0.0
 10
9.3466717783
 20
9.0075009553
 30
0.0
 10
9.355509396
 20
8.9736357099
 30
0.0
 10
9.3667858693
 20
8.9403486895
 30
0.0
 10
9.3804390527
 20
8.9078227667
 30
0.0
 10
9.3963937454
 20
8.8762363957
 30
0.0
 10
9.4145621632
 20
8.8457629034
 30
0.0
 10
9.4348444335
 20
8.8165694898
 30
0.0
 10
9.4571291361
 20
8.7888163421
 30
0.0
 10
9.4812939103
 20
8.7626557619
 30
0.0
 10
9.5072061201
 20
8.7382313445
 30
0.0
 10
9.5347235461
 20
8.715677166
 30
0.0
 10
9.5636951876
 20
8.6951170788
 30
0.0
 10
9.5939620824
 20
8.6766640421
 30
0.0
 10
9.6253581654
 20
8.6604195058
 30
0.0
 10
9.6577111689
 20
8.6464728624
 30
0.0
 10
9.6908435448
 20
8.6349009367
 30
0.0
 10
9.7245734253
 20
8.6257675476
 30
0.0
 10
9.7587156213
 20
8.6191231875
 30
0.0
 10
9.7930826185
 20
8.6150047312
 30
0.0
 10
9.8274855926
 20
8.6134352229
 30
0.0
 10
9.8617354315
 20
8.6144237379
 30
0.0
 10
9.8956437678
 20
8.6179652696
 30
0.0
 10
9.9290240124
 20
8.6240407656
 30
0.0
 10
9.9616923822
 20
8.6326172219
 30
0.0
 10
9.9934688979
 20
8.6436478181
 30
0.0
 10
10.0241784466
 20
8.6570722156
 30
0.0
 10
10.0536515405
 20
8.6728166262
 30
0.0
 10
10.0817261436
 20
8.6907950195
 30
0.0
 10
10.1082454055
 20
8.7109065233
 30
0.0
 10
10.1247976222
 20
8.7256691991
 30
0.0
 10
10.1327606787
 20
8.7333608887
 30
0.0
  0
SPLINE
  5
397
100
AcDbEntity
  8
0
100
AcDbSpline
 62
7
  6
CONTINUOUS
 70
0
 71
3
 72
9
 73
5
 74
0
 42
0.0000001
 43
0.0000001
 44
0.0000000001
 40
0.0
 40
0.0
 40
0.0
 40
0.0
 40
0.5027171113
 40
1.0
 40
1.0
 40
1.0
 40
1.0
 10
9.5851754496
 20
9.3009730235
 30
0.0
 10
9.5828953859
 20
9.3008860739
 30
0.0
 10
9.578347296
 20
9.3009418841
 30
0.0
 10
9.573832805
 20
9.3015299896
 30
0.0
 10
9.5716191493
 20
9.3019704797
 30
0.0
  0
SPLINE
  5
398
100
AcDbEntity
  8
0
100
AcDbSpline
 62
7
  6
CONTINUOUS
 70
0
 71
3
 72
10
 73
6
 74
0
 42
0.0000001
 43
0.0000001
 44
0.0000000001
 40
0.0
 40
0.0
 40
0.0
 40
0.0
 40
0.4996122009
 40
0.7503095337
 40
1.0
 40
1.0
 40
1.0
 40
1.0
 10
10.1474475928
 20
9.3443218395
 30
0.0
 10
10.1455650323
 20
9.3489660947
 30
0.0
 10
10.1427196442
 20
9.3559337267
 30
0.0
 10
10.13878175
 20
9.3651590316
 30
0.0
 10
10.1367501428
 20
9.3697487728
 30
0.0
 10
10.1357197026
 20
9.3720314614
 30
0.0
  0
SPLINE
  5
399
100
AcDbEntity
  8
0
100
AcDbSpline
 62
7
  6
CONTINUOUS
 70
0
 71
3
 72
42
 73
38
 74
0
 42
0.0000001
 43
0.0000001
 44
0.0000000001
 40
0.0
 40
0.0
 40
0.0
 40
0.0
 40
0.0309964017
 40
0.0465464344
 40
0.062128576
 40
0.0933841633
 40
0.124759896
 40
0.1562470261
 40
0.1878350551
 40
0.2195119831
 40
0.2512644764
 40
0.2830780828
 40
0.3149374493
 40
0.3468265522
 40
0.3787289333
 40
0.4106279407
 40
0.4425069717
 40
0.4743497152
 40
0.5061403908
 40
0.5378639829
 40
0.5695064664
 40
0.6010550223
 40
0.632498239
 40
0.6638262986
 40
0.6950311429
 40
0.7261066176
 40
0.757048592
 40
0.7878550493
 40
0.8185261467
 40
0.8490642416
 40
0.8642867669
 40
0.8794779293
 40
0.9097658052
 40
0.9399406643
 40
0.954991065
 40
0.9700173702
 40
1.0
 40
1.0
 40
1.0
 40
1.0
 10
9.5851754496
 20
9.3009730235
 30
0.0
 10
9.5856675062
 20
9.2916644751
 30
0.0
 10
9.5868488423
 20
9.2777043495
 30
0.0
 10
9.5892949254
 20
9.2591790932
 30
0.0
 10
9.5923291321
 20
9.2406614241
 30
0.0
 10
9.5972120737
 20
9.2176361321
 30
0.0
 10
9.6047800601
 20
9.1903444509
 30
0.0
 10
9.6140322149
 20
9.1634706813
 30
0.0
 10
9.6249310195
 20
9.1371238129
 30
0.0
 10
9.6374324451
 20
9.1114098761
 30
0.0
 10
9.6514859955
 20
9.0864325643
 30
0.0
 10
9.6670349426
 20
9.0622925373
 30
0.0
 10
9.6840165474
 20
9.0390870962
 30
0.0
 10
9.7023623132
 20
9.0169097736
 30
0.0
 10
9.7219982596
 20
8.9958499655
 30
0.0
 10
9.7428452193
 20
8.9759925721
 30
0.0
 10
9.7648191548
 20
8.9574176588
 30
0.0
 10
9.7878314942
 20
8.9402001355
 30
0.0
 10
9.8117894861
 20
8.9244094562
 30
0.0
 10
9.8365965692
 20
8.9101093409
 30
0.0
 10
9.862152759
 20
8.8973575199
 30
0.0
 10
9.8883550463
 20
8.886205501
 30
0.0
 10
9.9150978085
 20
8.8766983627
 30
0.0
 10
9.9422732321
 20
8.8688745715
 30
0.0
 10
9.969771737
 20
8.8627658241
 30
0.0
 10
9.9974824367
 20
8.8583969216
 30
0.0
 10
10.025293495
 20
8.8557856514
 30
0.0
 10
10.0530928923
 20
8.854942765
 30
0.0
 10
10.0807676892
 20
8.8558717272
 30
0.0
 10
10.1036601096
 20
8.8581222617
 30
0.0
 10
10.1217957926
 20
8.8608036213
 30
0.0
 10
10.1397603513
 20
8.8640616755
 30
0.0
 10
10.1619373116
 20
8.8692192762
 30
0.0
 10
10.1836851749
 20
8.875817277
 30
0.0
 10
10.2007429744
 20
8.8819375516
 30
0.0
 10
10.2175327838
 20
8.8886016594
 30
0.0
 10
10.2298594291
 20
8.8942254544
 30
0.0
 10
10.2379319277
 20
8.8982423137
 30
0.0
  0
SPLINE
  5
39A
100
AcDbEntity
  8
0
100
AcDbSpline
 62
7
  6
CONTINUOUS
 70
0
 71
3
 72
39
 73
35
 74
0
 42
0.0000001
 43
0.0000001
 44
0.0000000001
 40
0.0
 40
0.0
 40
0.0
 40
0.0
 40
0.0319799254
 40
0.0639783703
 40
0.0959025115
 40
0.1277420957
 40
0.1595095344
 40
0.1912199563
 40
0.2228858174
 40
0.2545161051
 40
0.2861167077
 40
0.3176908232
 40
0.3492395418
 40
0.3807623751
 40
0.4122574612
 40
0.4437219348
 40
0.4751524643
 40
0.5065453801
 40
0.5378965703
 40
0.5692014167
 40
0.6004549746
 40
0.6316521462
 40
0.662787754
 40
0.6938566424
 40
0.7248537864
 40
0.7557743792
 40
0.7866140734
 40
0.8173690053
 40
0.8480359444
 40
0.8786123813
 40
0.9090969405
 40
0.9394888572
 40
0.9697895993
 40
1.0
 40
1.0
 40
1.0
 40
1.0
 10
10.0110915144
 20
9.3537781657
 30
0.0
 10
10.0083235932
 20
9.3491118844
 30
0.0
 10
10.0025710286
 20
9.339902198
 30
0.0
 10
9.9933068485
 20
9.3265199528
 30
0.0
 10
9.9834118726
 20
9.3136261063
 30
0.0
 10
9.9729013003
 20
9.3012799498
 30
0.0
 10
9.9617855612
 20
9.2895250045
 30
0.0
 10
9.9500778475
 20
9.2784017709
 30
0.0
 10
9.9377962707
 20
9.2679509459
 30
0.0
 10
9.9249644285
 20
9.2582138741
 30
0.0
 10
9.9116114528
 20
9.2492320246
 30
0.0
 10
9.8977718714
 20
9.2410463059
 30
0.0
 10
9.883485427
 20
9.2336962998
 30
0.0
 10
9.8687968467
 20
9.2272195134
 30
0.0
 10
9.8537555413
 20
9.2216506877
 30
0.0
 10
9.8384151977
 20
9.2170212048
 30
0.0
 10
9.8228333426
 20
9.2133584345
 30
0.0
 10
9.8070708567
 20
9.2106852932
 30
0.0
 10
9.7911915428
 20
9.2090199003
 30
0.0
 10
9.7752616538
 20
9.2083752317
 30
0.0
 10
9.7593493333
 20
9.2087588841
 30
0.0
 10
9.7435240168
 20
9.210172892
 30
0.0
 10
9.727855839
 20
9.2126136518
 30
0.0
 10
9.7124150622
 20
9.2160719189
 30
0.0
 10
9.6972715231
 20
9.2205328771
 30
0.0
 10
9.6824940831
 20
9.2259762665
 30
0.0
 10
9.6681501395
 20
9.2323765925
 30
0.0
 10
9.6543051581
 20
9.2397033566
 30
0.0
 10
9.6410222989
 20
9.2479213378
 30
0.0
 10
9.6283619561
 20
9.2569908895
 30
0.0
 10
9.6163816407
 20
9.2668682408
 30
0.0
 10
9.6051351298
 20
9.2775060854
 30
0.0
 10
9.5946737116
 20
9.2888527623
 30
0.0
 10
9.5882431542
 20
9.296867247
 30
0.0
 10
9.5851754496
 20
9.3009730235
 30
0.0
  0
SPLINE
  5
39B
100
AcDbEntity
  8
0
100
AcDbSpline
 62
7
  6
CONTINUOUS
 70
0
 71
3
 72
24
 73
20
 74
0
 42
0.0000001
 43
0.0000001
 44
0.0000000001
 40
0.0
 40
0.0
 40
0.0
 40
0.0
 40
0.0637774298
 40
0.1273438979
 40
0.1907011028
 40
0.2538548461
 40
0.3168115792
 40
0.3795801785
 40
0.4421711488
 40
0.5045967878
 40
0.5668710022
 40
0.6290092041
 40
0.6910281625
 40
0.7220010202
 40
0.7529508971
 40
0.8147862935
 40
0.87655923
 40
0.9382901685
 40
1.0
 40
1.0
 40
1.0
 40
1.0
 10
10.2922600382
 20
7.3933000309
 30
0.0
 10
10.2922600382
 20
7.4068003135
 30
0.0
 10
10.2929061581
 20
7.4337608
 30
0.0
 10
10.2958227335
 20
7.4740376407
 30
0.0
 10
10.3006786231
 20
7.513995059
 30
0.0
 10
10.3074625586
 20
7.5535396105
 30
0.0
 10
10.3161591214
 20
7.5925805928
 30
0.0
 10
10.3267482845
 20
7.6310278657
 30
0.0
 10
10.3392057652
 20
7.668792835
 30
0.0
 10
10.3535028886
 20
7.705788366
 30
0.0
 10
10.3696068669
 20
7.7419292856
 30
0.0
 10
10.3874802906
 20
7.7771316847
 30
0.0
 10
10.403823254
 20
7.8056313661
 30
0.0
 10
10.4177372997
 20
7.8278764251
 30
0.0
 10
10.432193552
 20
7.8497264228
 30
0.0
 10
10.4512883819
 20
7.8763116989
 30
0.0
 10
10.4757898202
 20
7.9069742099
 30
0.0
 10
10.5018157958
 20
7.9363175401
 30
0.0
 10
10.5201460251
 20
7.954958243
 30
0.0
 10
10.529541368
 20
7.9640334569
 30
0.0
  0
SPLINE
  5
39C
100
AcDbEntity
  8
0
100
AcDbSpline
 62
7
  6
CONTINUOUS
 70
0
 71
3
 72
39
 73
35
 74
0
 42
0.0000001
 43
0.0000001
 44
0.0000000001
 40
0.0
 40
0.0
 40
0.0
 40
0.0
 40
0.0310649259
 40
0.0622858888
 40
0.0936583802
 40
0.125173944
 40
0.1568214421
 40
0.1885869973
 40
0.2204543457
 40
0.2524051873
 40
0.2844195628
 40
0.3164762604
 40
0.3485532383
 40
0.3806280574
 40
0.4126783208
 40
0.4446821121
 40
0.4766184278
 40
0.5084675973
 40
0.5402116824
 40
0.5718348509
 40
0.6033237232
 40
0.6346676735
 40
0.6658590851
 40
0.6968935546
 40
0.7277700365
 40
0.758490912
 40
0.7890619902
 40
0.8194924327
 40
0.849794592
 40
0.8799837686
 40
0.9100778935
 40
0.9400971343
 40
0.9700634341
 40
1.0
 40
1.0
 40
1.0
 40
1.0
 10
8.8748355042
 20
7.5001731229
 30
0.0
 10
8.8748355042
 20
7.4836611185
 30
0.0
 10
8.8760579973
 20
7.4505416514
 30
0.0
 10
8.8815165184
 20
7.4010176885
 30
0.0
 10
8.8905741138
 20
7.3517782819
 30
0.0
 10
8.9031814872
 20
7.3030932452
 30
0.0
 10
8.9192698982
 20
7.2552250363
 30
0.0
 10
8.9387519003
 20
7.2084327131
 30
0.0
 10
8.9615218176
 20
7.1629691816
 30
0.0
 10
8.9874562948
 20
7.1190802474
 30
0.0
 10
9.0164148382
 20
7.0770031136
 30
0.0
 10
9.0482407199
 20
7.0369652185
 30
0.0
 10
9.082761821
 20
6.9991830397
 30
0.0
 10
9.1197914438
 20
6.9638608491
 30
0.0
 10
9.1591293576
 20
6.931189636
 30
0.0
 10
9.2005629337
 20
6.9013461632
 30
0.0
 10
9.243868236
 20
6.8744919876
 30
0.0
 10
9.288811156
 20
6.8507724808
 30
0.0
 10
9.3351487576
 20
6.8303161817
 30
0.0
 10
9.3826305578
 20
6.8132341232
 30
0.0
 10
9.4309998036
 20
6.7996190851
 30
0.0
 10
9.4799948837
 20
6.7895451497
 30
0.0
 10
9.529350736
 20
6.7830673782
 30
0.0
 10
9.5788002347
 20
6.7802214331
 30
0.0
 10
9.628075623
 20
6.7810232537
 30
0.0
 10
9.6769099674
 20
6.7854691104
 30
0.0
 10
9.7250385664
 20
6.7935355954
 30
0.0
 10
9.7722004138
 20
6.8051795533
 30
0.0
 10
9.8181395985
 20
6.8203383634
 30
0.0
 10
9.8626067641
 20
6.8389303977
 30
0.0
 10
9.9053601674
 20
6.8608550378
 30
0.0
 10
9.9461683185
 20
6.8859942723
 30
0.0
 10
9.9848065838
 20
6.9142092161
 30
0.0
 10
10.0089915198
 20
6.9349789811
 30
0.0
 10
10.0206447813
 20
6.9458141569
 30
0.0
  0
SPLINE
  5
39D
100
AcDbEntity
  8
0
100
AcDbSpline
 62
7
  6
CONTINUOUS
 70
0
 71
3
 72
23
 73
19
 74
0
 42
0.0000001
 43
0.0000001
 44
0.0000000001
 40
0.0
 40
0.0
 40
0.0
 40
0.0
 40
0.0637606747
 40
0.1273162233
 40
0.1906663869
 40
0.2538177974
 40
0.3167760242
 40
0.3795494436
 40
0.4421478626
 40
0.504582756
 40
0.5668671424
 40
0.6290154519
 40
0.6910434126
 40
0.7529679019
 40
0.8148067945
 40
0.8765787949
 40
0.9383032577
 40
1.0
 40
1.0
 40
1.0
 40
1.0
 10
8.8748355042
 20
7.5001731229
 30
0.0
 10
8.8748355042
 20
7.5106487361
 30
0.0
 10
8.8753253335
 20
7.5315696477
 30
0.0
 10
8.8775361437
 20
7.5628284063
 30
0.0
 10
8.8812173081
 20
7.5938483118
 30
0.0
 10
8.8863605068
 20
7.6245599825
 30
0.0
 10
8.892954694
 20
7.6548963241
 30
0.0
 10
8.9009853507
 20
7.6847904441
 30
0.0
 10
8.910434909
 20
7.7141766098
 30
0.0
 10
8.9212826141
 20
7.7429901527
 30
0.0
 10
8.9335046482
 20
7.771167666
 30
0.0
 10
8.9470741721
 20
7.7986471321
 30
0.0
 10
8.9619613725
 20
7.8253680554
 30
0.0
 10
8.9781335558
 20
7.8512716151
 30
0.0
 10
8.9955550987
 20
7.8763007359
 30
0.0
 10
9.0141878601
 20
7.9004005161
 30
0.0
 10
9.0339901442
 20
7.9235171736
 30
0.0
 10
9.047945663
 20
7.9382424503
 30
0.0
 10
9.055101092
 20
7.9454222014
 30
0.0
  0
SPLINE
  5
39E
100
AcDbEntity
  8
0
100
AcDbSpline
 62
7
  6
CONTINUOUS
 70
0
 71
3
 72
69
 73
65
 74
0
 42
0.0000001
 43
0.0000001
 44
0.0000000001
 40
0.0
 40
0.0
 40
0.0
 40
0.0
 40
0.0155844229
 40
0.0311165091
 40
0.0465960302
 40
0.0620249355
 40
0.0774047654
 40
0.0927378563
 40
0.1080269574
 40
0.1232752656
 40
0.1384864064
 40
0.1536643855
 40
0.1688135564
 40
0.183938576
 40
0.1990443573
 40
0.2141360176
 40
0.229218824
 40
0.2442981379
 40
0.2593793581
 40
0.2744678638
 40
0.2895689566
 40
0.3046878033
 40
0.3198293814
 40
0.3349984273
 40
0.3501993891
 40
0.365436381
 40
0.380713142
 40
0.3960329999
 40
0.4113988407
 40
0.426813085
 40
0.4422776673
 40
0.4577940207
 40
0.4733630666
 40
0.4889852122
 40
0.5046603528
 40
0.5203878775
 40
0.5361666793
 40
0.551995169
 40
0.5678712962
 40
0.583792573
 40
0.5997561005
 40
0.6157585963
 40
0.6317964271
 40
0.6478656445
 40
0.663962023
 40
0.6800810976
 40
0.7123600126
 40
0.7446719576
 40
0.7608320193
 40
0.7769852787
 40
0.7931267712
 40
0.8092516359
 40
0.8253551578
 40
0.8414328085
 40
0.8574802863
 40
0.8734935576
 40
0.8894688929
 40
0.9054029075
 40
0.9212925804
 40
0.9371352954
 40
0.9529289295
 40
0.9686715104
 40
0.9843624538
 40
1.0
 40
1.0
 40
1.0
 40
1.0
 10
9.0390429044
 20
7.4887853011
 30
0.0
 10
9.0390429044
 20
7.4970678264
 30
0.0
 10
9.0394482597
 20
7.5136079983
 30
0.0
 10
9.0412779283
 20
7.5383140175
 30
0.0
 10
9.0443241598
 20
7.5628171323
 30
0.0
 10
9.0485793635
 20
7.5870572406
 30
0.0
 10
9.0540335638
 20
7.6109763535
 30
0.0
 10
9.0606736086
 20
7.6345166603
 30
0.0
 10
9.0684835477
 20
7.6576214501
 30
0.0
 10
9.0774445991
 20
7.6802350071
 30
0.0
 10
9.0875352059
 20
7.702302797
 30
0.0
 10
9.098731101
 20
7.7237715863
 30
0.0
 10
9.1110053415
 20
7.7445895754
 30
0.0
 10
9.124328336
 20
7.7647065551
 30
0.0
 10
9.138667973
 20
7.7840739984
 30
0.0
 10
9.1539896894
 20
7.8026451802
 30
0.0
 10
9.1702565577
 20
7.8203752854
 30
0.0
 10
9.1874293581
 20
7.8372215295
 30
0.0
 10
9.2054666489
 20
7.8531432967
 30
0.0
 10
9.224324915
 20
7.8681021951
 30
0.0
 10
9.2439586643
 20
7.8820621552
 30
0.0
 10
9.2643205421
 20
7.8949895087
 30
0.0
 10
9.2853614287
 20
7.9068530917
 30
0.0
 10
9.3070305497
 20
7.9176243496
 30
0.0
 10
9.3292756329
 20
7.9272773527
 30
0.0
 10
9.3520430264
 20
7.9357888682
 30
0.0
 10
9.3752778305
 20
7.9431384033
 30
0.0
 10
9.3989240175
 20
7.9493082866
 30
0.0
 10
9.4229245688
 20
7.9542837287
 30
0.0
 10
9.4472216292
 20
7.9580528028
 30
0.0
 10
9.4717566409
 20
7.9606064841
 30
0.0
 10
9.496470482
 20
7.9619386573
 30
0.0
 10
9.5213036041
 20
7.9620461726
 30
0.0
 10
9.5461961822
 20
7.9609288571
 30
0.0
 10
9.5710882596
 20
7.9585894658
 30
0.0
 10
9.5959198892
 20
7.9550336861
 30
0.0
 10
9.6206312715
 20
7.9502701115
 30
0.0
 10
9.6451629049
 20
7.9443102679
 30
0.0
 10
9.6694557335
 20
7.9371685771
 30
0.0
 10
9.6934512782
 20
7.9288622823
 30
0.0
 10
9.7170917812
 20
7.919411415
 30
0.0
 10
9.7403203203
 20
7.9088387488
 30
0.0
 10
9.7630810224
 20
7.8971697463
 30
0.0
 10
9.7853189864
 20
7.8844326562
 30
0.0
 10
9.8069811806
 20
7.8706577512
 30
0.0
 10
9.8350350354
 20
7.8509463268
 30
0.0
 10
9.8683986308
 20
7.8238852237
 30
0.0
 10
9.8991604709
 20
7.7938687912
 30
0.0
 10
9.9220456711
 20
7.7682446967
 30
0.0
 10
9.9383078927
 20
7.7482650867
 30
0.0
 10
9.9536253374
 20
7.7275761473
 30
0.0
 10
9.9679616085
 20
7.7062272421
 30
0.0
 10
9.9812820581
 20
7.68426987
 30
0.0
 10
9.99355463
 20
7.6617568405
 30
0.0
 10
10.0047497258
 20
7.6387423348
 30
0.0
 10
10.0148403853
 20
7.6152817527
 30
0.0
 10
10.0238023018
 20
7.5914315675
 30
0.0
 10
10.0316138618
 20
7.5672491843
 30
0.0
 10
10.0382562091
 20
7.5427928181
 30
0.0
 10
10.043713305
 20
7.5181212998
 30
0.0
 10
10.0479718955
 20
7.4932941809
 30
0.0
 10
10.0510218889
 20
7.468370798
 30
0.0
 10
10.0528555787
 20
7.4434122371
 30
0.0
 10
10.0532650821
 20
7.4267595125
 30
0.0
 10
10.0532650821
 20
7.4184487541
 30
0.0
  0
SPLINE
  5
39F
100
AcDbEntity
  8
0
100
AcDbSpline
 62
7
  6
CONTINUOUS
 70
0
 71
3
 72
49
 73
45
 74
0
 42
0.0000001
 43
0.0000001
 44
0.0000000001
 40
0.0
 40
0.0
 40
0.0
 40
0.0
 40
0.0417737612
 40
0.0840374079
 40
0.1266587819
 40
0.1695070054
 40
0.212448701
 40
0.2553507859
 40
0.2980801061
 40
0.3405042538
 40
0.3824920091
 40
0.4239138924
 40
0.4646426962
 40
0.5045540236
 40
0.5435268394
 40
0.5814440363
 40
0.6181930245
 40
0.6536663548
 40
0.6877623909
 40
0.7203860578
 40
0.7514496892
 40
0.780874012
 40
0.8085893537
 40
0.8345371708
 40
0.8468342306
 40
0.8586736215
 40
0.8700521874
 40
0.8809680228
 40
0.8914205004
 40
0.9014107098
 40
0.9109413387
 40
0.9200173299
 40
0.9286458445
 40
0.9368369538
 40
0.9446039307
 40
0.9519638612
 40
0.9589383571
 40
0.9655540688
 40
0.9718436438
 40
0.9778460661
 40
0.9836072911
 40
0.989180004
 40
0.9946230597
 40
1.0
 40
1.0
 40
1.0
 40
1.0
 10
12.6634065023
 20
6.6289511485
 30
0.0
 10
12.6634065023
 20
6.6219552712
 30
0.0
 10
12.6632973513
 20
6.6078812555
 30
0.0
 10
12.6628148603
 20
6.5866743838
 30
0.0
 10
12.6620140019
 20
6.5652970456
 30
0.0
 10
12.6608974619
 20
6.5438201883
 30
0.0
 10
12.6594688868
 20
6.522314714
 30
0.0
 10
12.6577330222
 20
6.5008518366
 30
0.0
 10
12.655695607
 20
6.4795025395
 30
0.0
 10
12.6533633987
 20
6.4583374591
 30
0.0
 10
12.6507441321
 20
6.4374266095
 30
0.0
 10
12.647846504
 20
6.4168391597
 30
0.0
 10
12.6446801405
 20
6.3966431988
 30
0.0
 10
12.6412555656
 20
6.3769055096
 30
0.0
 10
12.6375841671
 20
6.3576913445
 30
0.0
 10
12.63367816
 20
6.3390642055
 30
0.0
 10
12.6295505464
 20
6.3210856295
 30
0.0
 10
12.6252150738
 20
6.303814976
 30
0.0
 10
12.6206861886
 20
6.2873092231
 30
0.0
 10
12.6159789895
 20
6.271622752
 30
0.0
 10
12.6111091736
 20
6.2568071823
 30
0.0
 10
12.6060929765
 20
6.2429110526
 30
0.0
 10
12.6009470942
 20
6.2299800412
 30
0.0
 10
12.5964887559
 20
6.219869808
 30
0.0
 10
12.5928594325
 20
6.2123073556
 30
0.0
 10
12.5901644929
 20
6.2070045816
 30
0.0
 10
12.5874499586
 20
6.2019731126
 30
0.0
 10
12.5847180535
 20
6.197217041
 30
0.0
 10
12.5819709571
 20
6.1927402675
 30
0.0
 10
12.5792109797
 20
6.1885463887
 30
0.0
 10
12.5764402508
 20
6.1846388406
 30
0.0
 10
12.5736610639
 20
6.1810207239
 30
0.0
 10
12.5708755239
 20
6.1776949828
 30
0.0
 10
12.5680858116
 20
6.1746642601
 30
0.0
 10
12.5652940023
 20
6.1719309978
 30
0.0
 10
12.5625020883
 20
6.169497463
 30
0.0
 10
12.5597120785
 20
6.1673656543
 30
0.0
 10
12.5569257791
 20
6.1655376078
 30
0.0
 10
12.554145146
 20
6.164015064
 30
0.0
 10
12.551372002
 20
6.1627999943
 30
0.0
 10
12.5486085401
 20
6.1618941012
 30
0.0
 10
12.5458570064
 20
6.1612992145
 30
0.0
 10
12.5431207541
 20
6.1610167492
 30
0.0
 10
12.5413041101
 20
6.1610374397
 30
0.0
 10
12.5404057877
 20
6.1610997314
 30
0.0
  0
SPLINE
  5
3A0
100
AcDbEntity
  8
0
100
AcDbSpline
 62
7
  6
CONTINUOUS
 70
0
 71
3
 72
23
 73
19
 74
0
 42
0.0000001
 43
0.0000001
 44
0.0000000001
 40
0.0
 40
0.0
 40
0.0
 40
0.0
 40
0.0637769127
 40
0.127344953
 40
0.1907019652
 40
0.2538561227
 40
0.3168132057
 40
0.3795820872
 40
0.4421733866
 40
0.5045993385
 40
0.5668738691
 40
0.6290123824
 40
0.6910316505
 40
0.7529496453
 40
0.8147853569
 40
0.8765586065
 40
0.9382898561
 40
1.0
 40
1.0
 40
1.0
 40
1.0
 10
9.0941564166
 20
7.497020869
 30
0.0
 10
9.0941564166
 20
7.5044266496
 30
0.0
 10
9.0945109002
 20
7.5192164657
 30
0.0
 10
9.0961107907
 20
7.5413112088
 30
0.0
 10
9.0987746537
 20
7.5632308234
 30
0.0
 10
9.1024960874
 20
7.5849238216
 30
0.0
 10
9.1072667953
 20
7.6063406224
 30
0.0
 10
9.1130757435
 20
7.6274317167
 30
0.0
 10
9.1199095697
 20
7.6481485165
 30
0.0
 10
9.1277525778
 20
7.6684432481
 30
0.0
 10
9.1365867522
 20
7.6882690913
 30
0.0
 10
9.146391761
 20
7.7075803156
 30
0.0
 10
9.1571449932
 20
7.7263323866
 30
0.0
 10
9.1688216887
 20
7.7444820573
 30
0.0
 10
9.1813949252
 20
7.761987402
 30
0.0
 10
9.194835875
 20
7.7788081618
 30
0.0
 10
9.2091129907
 20
7.7949050206
 30
0.0
 10
9.2191684377
 20
7.8051308133
 30
0.0
 10
9.2243224736
 20
7.8101092087
 30
0.0
  0
SPLINE
  5
3A1
100
AcDbEntity
  8
0
100
AcDbSpline
 62
7
  6
CONTINUOUS
 70
0
 71
3
 72
42
 73
38
 74
0
 42
0.0000001
 43
0.0000001
 44
0.0000000001
 40
0.0
 40
0.0
 40
0.0
 40
0.0
 40
0.030870742
 40
0.0463592086
 40
0.0618808516
 40
0.0930194137
 40
0.1242847971
 40
0.1556696233
 40
0.1871646049
 40
0.2187587731
 40
0.2504396397
 40
0.2821934056
 40
0.3140051763
 40
0.3458591906
 40
0.3777390595
 40
0.4096280108
 40
0.4415091377
 40
0.4733656493
 40
0.5051811194
 40
0.536939732
 40
0.5686265198
 40
0.6002275944
 40
0.6317303639
 40
0.6631237358
 40
0.694398303
 40
0.7255465079
 40
0.7565627826
 40
0.7874436627
 40
0.81818787
 40
0.8487963621
 40
0.8640526618
 40
0.8792764223
 40
0.9096253316
 40
0.9398547688
 40
0.9549297177
 40
0.9699785785
 40
1.0
 40
1.0
 40
1.0
 40
1.0
 10
9.2999173877
 20
7.6957707168
 30
0.0
 10
9.2999173877
 20
7.6858551188
 30
0.0
 10
9.3003954738
 20
7.6709590639
 30
0.0
 10
9.301976782
 20
7.6511437681
 30
0.0
 10
9.304192674
 20
7.631302131
 30
0.0
 10
9.3081449114
 20
7.6065686556
 30
0.0
 10
9.3147480599
 20
7.5771571342
 30
0.0
 10
9.3231898204
 20
7.5481000944
 30
0.0
 10
9.3334354251
 20
7.5195171784
 30
0.0
 10
9.3454428195
 20
7.4915251621
 30
0.0
 10
9.3591627439
 20
7.4642386362
 30
0.0
 10
9.3745389552
 20
7.4377692306
 30
0.0
 10
9.3915084536
 20
7.4122252462
 30
0.0
 10
9.4100017395
 20
7.3877111933
 30
0.0
 10
9.4299430968
 20
7.3643273736
 30
0.0
 10
9.4512509008
 20
7.3421694716
 30
0.0
 10
9.4738379498
 20
7.3213281671
 30
0.0
 10
9.4976118196
 20
7.3018887659
 30
0.0
 10
9.5224752384
 20
7.283930854
 30
0.0
 10
9.5483264817
 20
7.2675279735
 30
0.0
 10
9.5750597847
 20
7.2527473233
 30
0.0
 10
9.6025657711
 20
7.2396494851
 30
0.0
 10
9.6307318958
 20
7.2282881759
 30
0.0
 10
9.6594429025
 20
7.2187100285
 30
0.0
 10
9.6885812838
 20
7.2109543983
 30
0.0
 10
9.718027782
 20
7.2050532038
 30
0.0
 10
9.7476617788
 20
7.2010307801
 30
0.0
 10
9.77736213
 20
7.1989038232
 30
0.0
 10
9.8070063759
 20
7.1986811382
 30
0.0
 10
9.8315916955
 20
7.2000852958
 30
0.0
 10
9.8511061555
 20
7.2021605534
 30
0.0
 10
9.8704597825
 20
7.2048612014
 30
0.0
 10
9.894397275
 20
7.2094116126
 30
0.0
 10
9.9179350565
 20
7.2155246082
 30
0.0
 10
9.9364335694
 20
7.2213318327
 30
0.0
 10
9.9546635803
 20
7.2277325142
 30
0.0
 10
9.968077191
 20
7.2332152884
 30
0.0
 10
9.9768745319
 20
7.2371637509
 30
0.0
  0
SPLINE
  5
3A2
100
AcDbEntity
  8
0
100
AcDbSpline
 62
7
  6
CONTINUOUS
 70
0
 71
3
 72
15
 73
11
 74
0
 42
0.0000001
 43
0.0000001
 44
0.0000000001
 40
0.0
 40
0.0
 40
0.0
 40
0.0
 40
0.1265776784
 40
0.2526735592
 40
0.3782935028
 40
0.5034546268
 40
0.6281766808
 40
0.7524863674
 40
0.8764152464
 40
1.0
 40
1.0
 40
1.0
 40
1.0
 10
9.2999173877
 20
7.6957707168
 30
0.0
 10
9.2999173877
 20
7.7043046105
 30
0.0
 10
9.300387972
 20
7.7213437697
 30
0.0
 10
9.3025129143
 20
7.7467724532
 30
0.0
 10
9.3060493103
 20
7.7719480496
 30
0.0
 10
9.3109862892
 20
7.7967923589
 30
0.0
 10
9.317308912
 20
7.8212295747
 30
0.0
 10
9.3249979768
 20
7.8451849964
 30
0.0
 10
9.3340295721
 20
7.8685842318
 30
0.0
 10
9.3409372875
 20
7.8837870872
 30
0.0
 10
9.3446044011
 20
7.8912688207
 30
0.0
  0
SPLINE
  5
3A3
100
AcDbEntity
  8
0
100
AcDbSpline
 62
7
  6
CONTINUOUS
 70
0
 71
3
 72
69
 73
65
 74
0
 42
0.0000001
 43
0.0000001
 44
0.0000000001
 40
0.0
 40
0.0
 40
0.0
 40
0.0
 40
0.0156375462
 40
0.0313284896
 40
0.0470710705
 40
0.0628647046
 40
0.0787074196
 40
0.0945970925
 40
0.1105311071
 40
0.1265064424
 40
0.1425197137
 40
0.1585671915
 40
0.1746448422
 40
0.1907483641
 40
0.2068732288
 40
0.2230147213
 40
0.2391679807
 40
0.2553280424
 40
0.2876399874
 40
0.3199189024
 40
0.336037977
 40
0.3521343555
 40
0.3682035729
 40
0.3842414037
 40
0.4002438995
 40
0.416207427
 40
0.4321287038
 40
0.448004831
 40
0.4638333207
 40
0.4796121225
 40
0.4953396472
 40
0.5110147878
 40
0.5266369334
 40
0.5422059793
 40
0.5577223327
 40
0.573186915
 40
0.5886011593
 40
0.6039670001
 40
0.619286858
 40
0.634563619
 40
0.6498006109
 40
0.6650015727
 40
0.6801706186
 40
0.6953121967
 40
0.7104310434
 40
0.7255321362
 40
0.7406206419
 40
0.7557018621
 40
0.770781176
 40
0.7858639824
 40
0.8009556427
 40
0.816061424
 40
0.8311864436
 40
0.8463356145
 40
0.8615135936
 40
0.8767247344
 40
0.8919730426
 40
0.9072621437
 40
0.9225952346
 40
0.9379750645
 40
0.9534039698
 40
0.9688834909
 40
0.9844155771
 40
1.0
 40
1.0
 40
1.0
 40
1.0
 10
9.0390429044
 20
7.4887853011
 30
0.0
 10
9.0390429044
 20
7.4804745427
 30
0.0
 10
9.0394524079
 20
7.4638218181
 30
0.0
 10
9.0412860977
 20
7.4388632572
 30
0.0
 10
9.0443360911
 20
7.4139398743
 30
0.0
 10
9.0485946816
 20
7.3891127554
 30
0.0
 10
9.0540517775
 20
7.3644412371
 30
0.0
 10
9.0606941248
 20
7.339984871
 30
0.0
 10
9.0685056848
 20
7.3158024877
 30
0.0
 10
9.0774676013
 20
7.2919523025
 30
0.0
 10
9.0875582608
 20
7.2684917204
 30
0.0
 10
9.0987533566
 20
7.2454772147
 30
0.0
 10
9.1110259285
 20
7.2229641852
 30
0.0
 10
9.1243463781
 20
7.2010068131
 30
0.0
 10
9.1386826492
 20
7.1796579079
 30
0.0
 10
9.1540000939
 20
7.1589689685
 30
0.0
 10
9.1702623155
 20
7.1389893585
 30
0.0
 10
9.1931475157
 20
7.113365264
 30
0.0
 10
9.2239093558
 20
7.0833488315
 30
0.0
 10
9.2572729512
 20
7.0562877284
 30
0.0
 10
9.2853268059
 20
7.0365763041
 30
0.0
 10
9.3069890002
 20
7.022801399
 30
0.0
 10
9.3292269642
 20
7.0100643089
 30
0.0
 10
9.3519876663
 20
6.9983953064
 30
0.0
 10
9.3752162054
 20
6.9878226402
 30
0.0
 10
9.3988567083
 20
6.9783717729
 30
0.0
 10
9.4228522531
 20
6.9700654781
 30
0.0
 10
9.4471450817
 20
6.9629237873
 30
0.0
 10
9.471676715
 20
6.9569639437
 30
0.0
 10
9.4963880974
 20
6.9522003691
 30
0.0
 10
9.521219727
 20
6.9486445894
 30
0.0
 10
9.5461118044
 20
6.9463051981
 30
0.0
 10
9.5710043825
 20
6.9451878827
 30
0.0
 10
9.5958375046
 20
6.9452953979
 30
0.0
 10
9.6205513457
 20
6.9466275712
 30
0.0
 10
9.6450863574
 20
6.9491812524
 30
0.0
 10
9.6693834178
 20
6.9529503265
 30
0.0
 10
9.6933839691
 20
6.9579257686
 30
0.0
 10
9.7170301561
 20
6.9640956519
 30
0.0
 10
9.7402649602
 20
6.971445187
 30
0.0
 10
9.7630323537
 20
6.9799567025
 30
0.0
 10
9.7852774368
 20
6.9896097056
 30
0.0
 10
9.8069465579
 20
7.0003809635
 30
0.0
 10
9.8279874445
 20
7.0122445465
 30
0.0
 10
9.8483493223
 20
7.0251719
 30
0.0
 10
9.8679830716
 20
7.0391318601
 30
0.0
 10
9.8868413377
 20
7.0540907585
 30
0.0
 10
9.9048786285
 20
7.0700125257
 30
0.0
 10
9.9220514289
 20
7.0868587698
 30
0.0
 10
9.9383182971
 20
7.104588875
 30
0.0
 10
9.9536400136
 20
7.1231600568
 30
0.0
 10
9.9679796506
 20
7.1425275001
 30
0.0
 10
9.9813026451
 20
7.1626444798
 30
0.0
 10
9.9935768855
 20
7.183462469
 30
0.0
 10
10.0047727806
 20
7.2049312582
 30
0.0
 10
10.0148633875
 20
7.2269990481
 30
0.0
 10
10.0238244389
 20
7.2496126051
 30
0.0
 10
10.031634378
 20
7.272717395
 30
0.0
 10
10.0382744228
 20
7.2962577017
 30
0.0
 10
10.043728623
 20
7.3201768147
 30
0.0
 10
10.0479838268
 20
7.3444169229
 30
0.0
 10
10.0510300583
 20
7.3689200377
 30
0.0
 10
10.0528597269
 20
7.3936260569
 30
0.0
 10
10.0532650821
 20
7.4101662288
 30
0.0
 10
10.0532650821
 20
7.4184487541
 30
0.0
  0
SPLINE
  5
3A4
100
AcDbEntity
  8
0
100
AcDbSpline
 62
7
  6
CONTINUOUS
 70
0
 71
3
 72
39
 73
35
 74
0
 42
0.0000001
 43
0.0000001
 44
0.0000000001
 40
0.0
 40
0.0
 40
0.0
 40
0.0
 40
0.0310753511
 40
0.0623079071
 40
0.0936931323
 40
0.1252222879
 40
0.1568840438
 40
0.1886642044
 40
0.2205461649
 40
0.2525112495
 40
0.2845391085
 40
0.3166081364
 40
0.3486959075
 40
0.3807796234
 40
0.4128365659
 40
0.4448445499
 40
0.4767823666
 40
0.5086302146
 40
0.540370109
 40
0.5719862657
 40
0.6034654504
 40
0.6347972851
 40
0.6659745049
 40
0.6969931576
 40
0.7278527402
 40
0.7585562639
 40
0.7891102404
 40
0.8195245852
 40
0.8498124376
 40
0.8799898966
 40
0.9100756756
 40
0.9400906817
 40
0.970057529
 40
1.0
 40
1.0
 40
1.0
 40
1.0
 10
9.0941564166
 20
7.497020869
 30
0.0
 10
9.0941564166
 20
7.485530746
 30
0.0
 10
9.0950135521
 20
7.4624835313
 30
0.0
 10
9.0988404908
 20
7.4280230368
 30
0.0
 10
9.1051903074
 20
7.3937648958
 30
0.0
 10
9.1140279251
 20
7.3598996504
 30
0.0
 10
9.1253043984
 20
7.32661263
 30
0.0
 10
9.1389575818
 20
7.2940867072
 30
0.0
 10
9.1549122745
 20
7.2625003362
 30
0.0
 10
9.1730806924
 20
7.2320268439
 30
0.0
 10
9.1933629626
 20
7.2028334303
 30
0.0
 10
9.2156476652
 20
7.1750802826
 30
0.0
 10
9.2398124395
 20
7.1489197024
 30
0.0
 10
9.2657246492
 20
7.124495285
 30
0.0
 10
9.2932420752
 20
7.1019411065
 30
0.0
 10
9.3222137168
 20
7.0813810193
 30
0.0
 10
9.3524806115
 20
7.0629279826
 30
0.0
 10
9.3838766945
 20
7.0466834463
 30
0.0
 10
9.4162296981
 20
7.0327368029
 30
0.0
 10
9.4493620739
 20
7.0211648772
 30
0.0
 10
9.4830919545
 20
7.0120314881
 30
0.0
 10
9.5172341505
 20
7.005387128
 30
0.0
 10
9.5516011477
 20
7.0012686718
 30
0.0
 10
9.5860041217
 20
6.9996991634
 30
0.0
 10
9.6202539607
 20
7.0006876784
 30
0.0
 10
9.6541622969
 20
7.0042292101
 30
0.0
 10
9.6875425416
 20
7.0103047061
 30
0.0
 10
9.7202109113
 20
7.0188811624
 30
0.0
 10
9.7519874271
 20
7.0299117586
 30
0.0
 10
9.7826969757
 20
7.0433361561
 30
0.0
 10
9.8121700696
 20
7.0590805667
 30
0.0
 10
9.8402446727
 20
7.07705896
 30
0.0
 10
9.8667639346
 20
7.0971704638
 30
0.0
 10
9.8833161513
 20
7.1119331396
 30
0.0
 10
9.8912792079
 20
7.1196248292
 30
0.0
  0
SPLINE
  5
3A5
100
AcDbEntity
  8
0
100
AcDbSpline
 62
7
  6
CONTINUOUS
 70
0
 71
3
 72
37
 73
33
 74
0
 42
0.0000001
 43
0.0000001
 44
0.0000000001
 40
0.0
 40
0.0
 40
0.0
 40
0.0
 40
0.0063161244
 40
0.0126711457
 40
0.0191032048
 40
0.0256489923
 40
0.0392092523
 40
0.0536075707
 40
0.0690448396
 40
0.0856783189
 40
0.1036268182
 40
0.1229770616
 40
0.1437901856
 40
0.1661064488
 40
0.1899495672
 40
0.2153299516
 40
0.2422467168
 40
0.2706900061
 40
0.3006420941
 40
0.3320784573
 40
0.3649689672
 40
0.3992781128
 40
0.4349658997
 40
0.4719882735
 40
0.5102972344
 40
0.5498415765
 40
0.5905668526
 40
0.6324157309
 40
0.7192402861
 40
0.8098104776
 40
0.9035852492
 40
1.0
 40
1.0
 40
1.0
 40
1.0
 10
12.5922930933
 20
9.0826359471
 30
0.0
 10
12.5929269155
 20
9.0825919964
 30
0.0
 10
12.59419547
 20
9.082451935
 30
0.0
 10
12.5960840763
 20
9.0820869136
 30
0.0
 10
12.5979601178
 20
9.0815668782
 30
0.0
 10
12.6004721511
 20
9.080657005
 30
0.0
 10
12.6035935697
 20
9.07911023
 30
0.0
 10
12.607221233
 20
9.0766627021
 30
0.0
 10
12.6107730316
 20
9.0736097232
 30
0.0
 10
12.614245033
 20
9.0699582069
 30
0.0
 10
12.6176340729
 20
9.0657145679
 30
0.0
 10
12.6209362886
 20
9.0608855878
 30
0.0
 10
12.6241473412
 20
9.0554786332
 30
0.0
 10
12.6272627042
 20
9.0495020505
 30
0.0
 10
12.6302776864
 20
9.0429651438
 30
0.0
 10
12.6331875111
 20
9.0358782117
 30
0.0
 10
12.635987573
 20
9.0282525829
 30
0.0
 10
12.6386732695
 20
9.0201005198
 30
0.0
 10
12.6412401843
 20
9.0114352309
 30
0.0
 10
12.6436841107
 20
9.0022708266
 30
0.0
 10
12.6460009402
 20
8.9926222687
 30
0.0
 10
12.6481868596
 20
8.9825053631
 30
0.0
 10
12.6502382257
 20
8.9719367071
 30
0.0
 10
12.6521515907
 20
8.9609336622
 30
0.0
 10
12.6539238137
 20
8.9495143253
 30
0.0
 10
12.6555518975
 20
8.9376974959
 30
0.0
 10
12.6570331713
 20
8.9255026152
 30
0.0
 10
12.6588311231
 20
8.9085572297
 30
0.0
 10
12.6606796704
 20
8.8865778555
 30
0.0
 10
12.6622544602
 20
8.8593433961
 30
0.0
 10
12.663201056
 20
8.831114894
 30
0.0
 10
12.6634065023
 20
8.8119828274
 30
0.0
 10
12.6634065023
 20
8.8022843864
 30
0.0
  0
SPLINE
  5
3A6
100
AcDbEntity
  8
0
100
AcDbSpline
 62
7
  6
CONTINUOUS
 70
0
 71
3
 72
37
 73
33
 74
0
 42
0.0000001
 43
0.0000001
 44
0.0000000001
 40
0.0
 40
0.0
 40
0.0
 40
0.0
 40
0.0063161244
 40
0.0126711457
 40
0.0191032048
 40
0.0256489923
 40
0.0392092523
 40
0.0536075707
 40
0.0690448396
 40
0.0856783189
 40
0.1036268182
 40
0.1229770616
 40
0.1437901856
 40
0.1661064488
 40
0.1899495672
 40
0.2153299516
 40
0.2422467168
 40
0.2706900061
 40
0.3006420941
 40
0.3320784573
 40
0.3649689672
 40
0.3992781128
 40
0.4349658997
 40
0.4719882735
 40
0.5102972344
 40
0.5498415765
 40
0.5905668526
 40
0.6324157309
 40
0.7192402861
 40
0.8098104776
 40
0.9035852492
 40
1.0
 40
1.0
 40
1.0
 40
1.0
 10
12.5922930933
 20
6.9093027091
 30
0.0
 10
12.5929269155
 20
6.9092587585
 30
0.0
 10
12.59419547
 20
6.9091186971
 30
0.0
 10
12.5960840763
 20
6.9087536757
 30
0.0
 10
12.5979601178
 20
6.9082336403
 30
0.0
 10
12.6004721511
 20
6.907323767
 30
0.0
 10
12.6035935697
 20
6.905776992
 30
0.0
 10
12.607221233
 20
6.9033294641
 30
0.0
 10
12.6107730316
 20
6.9002764853
 30
0.0
 10
12.614245033
 20
6.896624969
 30
0.0
 10
12.6176340729
 20
6.89238133
 30
0.0
 10
12.6209362886
 20
6.8875523499
 30
0.0
 10
12.6241473412
 20
6.8821453952
 30
0.0
 10
12.6272627042
 20
6.8761688126
 30
0.0
 10
12.6302776864
 20
6.8696319059
 30
0.0
 10
12.6331875111
 20
6.8625449738
 30
0.0
 10
12.635987573
 20
6.854919345
 30
0.0
 10
12.6386732695
 20
6.8467672818
 30
0.0
 10
12.6412401843
 20
6.8381019929
 30
0.0
 10
12.6436841107
 20
6.8289375887
 30
0.0
 10
12.6460009402
 20
6.8192890307
 30
0.0
 10
12.6481868596
 20
6.8091721251
 30
0.0
 10
12.6502382257
 20
6.7986034692
 30
0.0
 10
12.6521515907
 20
6.7876004243
 30
0.0
 10
12.6539238137
 20
6.7761810874
 30
0.0
 10
12.6555518975
 20
6.764364258
 30
0.0
 10
12.6570331713
 20
6.7521693773
 30
0.0
 10
12.6588311231
 20
6.7352239918
 30
0.0
 10
12.6606796704
 20
6.7132446176
 30
0.0
 10
12.6622544602
 20
6.6860101582
 30
0.0
 10
12.663201056
 20
6.657781656
 30
0.0
 10
12.6634065023
 20
6.6386495895
 30
0.0
 10
12.6634065023
 20
6.6289511485
 30
0.0
  0
SPLINE
  5
3A7
100
AcDbEntity
  8
0
100
AcDbSpline
 62
7
  6
CONTINUOUS
 70
0
 71
3
 72
14
 73
10
 74
0
 42
0.0000001
 43
0.0000001
 44
0.0000000001
 40
0.0
 40
0.0
 40
0.0
 40
0.0
 40
0.1418492473
 40
0.2785544219
 40
0.4101866558
 40
0.5368901553
 40
0.6588866556
 40
0.7764762675
 40
1.0
 40
1.0
 40
1.0
 40
1.0
 10
11.154285872
 20
7.6969510853
 30
0.0
 10
11.1500185314
 20
7.6985819341
 30
0.0
 10
11.1416102861
 20
7.7017113885
 30
0.0
 10
11.1291273145
 20
7.7060385101
 30
0.0
 10
11.116992447
 20
7.7098676259
 30
0.0
 10
11.1051905459
 20
7.7131557336
 30
0.0
 10
11.0937033854
 20
7.7158606994
 30
0.0
 10
11.0790377415
 20
7.7185865687
 30
0.0
 10
11.0680718382
 20
7.7197158133
 30
0.0
 10
11.0608762619
 20
7.7199291669
 30
0.0
  0
SPLINE
  5
3A8
100
AcDbEntity
  8
0
100
AcDbSpline
 62
7
  6
CONTINUOUS
 70
0
 71
3
 72
58
 73
54
 74
0
 42
0.0000001
 43
0.0000001
 44
0.0000000001
 40
0.0
 40
0.0
 40
0.0
 40
0.0
 40
0.0094088792
 40
0.0193696315
 40
0.0299058192
 40
0.0410360303
 40
0.052772772
 40
0.0651227069
 40
0.0780879058
 40
0.0916665102
 40
0.1058527843
 40
0.1206378556
 40
0.1360095278
 40
0.151953037
 40
0.1684507027
 40
0.1854824881
 40
0.2030258965
 40
0.2210560771
 40
0.2584667577
 40
0.2974745121
 40
0.337809078
 40
0.3791744886
 40
0.4212542427
 40
0.4637166008
 40
0.5062212898
 40
0.5484297156
 40
0.5900109793
 40
0.6306480867
 40
0.6700440096
 40
0.7079267491
 40
0.7440535136
 40
0.761391694
 40
0.7782149099
 40
0.7945025203
 40
0.8102363509
 40
0.8254008225
 40
0.8399831171
 40
0.853973369
 40
0.8673649181
 40
0.880154613
 40
0.8923431864
 40
0.9039357183
 40
0.9149422275
 40
0.925378319
 40
0.9352659407
 40
0.9446342912
 40
0.9535207593
 40
0.9619719089
 40
0.9700441068
 40
0.9778037045
 40
0.9853263936
 40
0.9926956835
 40
1.0
 40
1.0
 40
1.0
 40
1.0
 10
11.154285872
 20
7.6969510853
 30
0.0
 10
11.1556525801
 20
7.6964287707
 30
0.0
 10
11.1584292003
 20
7.6952550731
 30
0.0
 10
11.1625994289
 20
7.6931919263
 30
0.0
 10
11.1668896859
 20
7.6907833269
 30
0.0
 10
11.1712998582
 20
7.6880360947
 30
0.0
 10
11.1758302539
 20
7.6849571706
 30
0.0
 10
11.1804809709
 20
7.6815542856
 30
0.0
 10
11.1852519457
 20
7.6778357791
 30
0.0
 10
11.1901429376
 20
7.6738106342
 30
0.0
 10
11.1951535501
 20
7.6694884948
 30
0.0
 10
11.2002830044
 20
7.6648795663
 30
0.0
 10
11.2055302959
 20
7.6599947336
 30
0.0
 10
11.2108939316
 20
7.6548454205
 30
0.0
 10
11.2163720525
 20
7.6494436705
 30
0.0
 10
11.2219622301
 20
7.6438020485
 30
0.0
 10
11.2276615472
 20
7.6379337073
 30
0.0
 10
11.2354978364
 20
7.6297238281
 30
0.0
 10
11.2455189999
 20
7.6189860202
 30
0.0
 10
11.2577632749
 20
7.6055804928
 30
0.0
 10
11.2703149724
 20
7.5916237372
 30
0.0
 10
11.2831074821
 20
7.5772415606
 30
0.0
 10
11.2960618767
 20
7.5625607872
 30
0.0
 10
11.309087723
 20
7.547706931
 30
0.0
 10
11.3220847315
 20
7.5328012766
 30
0.0
 10
11.3349448175
 20
7.5179581307
 30
0.0
 10
11.3475546065
 20
7.5032825537
 30
0.0
 10
11.3597976253
 20
7.4888687824
 30
0.0
 10
11.3715568024
 20
7.4747992187
 30
0.0
 10
11.3827165371
 20
7.4611439299
 30
0.0
 10
11.3915404816
 20
7.4500110695
 30
0.0
 10
11.3981981942
 20
7.4413424215
 30
0.0
 10
11.402904063
 20
7.4350653169
 30
0.0
 10
11.4073788906
 20
7.4289275886
 30
0.0
 10
11.4116107827
 20
7.4229329324
 30
0.0
 10
11.4155883872
 20
7.417084582
 30
0.0
 10
11.4193008806
 20
7.4113853276
 30
0.0
 10
11.4227379983
 20
7.4058375773
 30
0.0
 10
11.4258900544
 20
7.4004434096
 30
0.0
 10
11.4287479596
 20
7.3952046246
 30
0.0
 10
11.4313032337
 20
7.3901227933
 30
0.0
 10
11.4335480148
 20
7.3851992992
 30
0.0
 10
11.4354750614
 20
7.3804353877
 30
0.0
 10
11.4370778013
 20
7.3758322309
 30
0.0
 10
11.4383501057
 20
7.371390925
 30
0.0
 10
11.439286691
 20
7.3671126805
 30
0.0
 10
11.4398824975
 20
7.3629987427
 30
0.0
 10
11.4401333245
 20
7.3590506556
 30
0.0
 10
11.4400352709
 20
7.3552703072
 30
0.0
 10
11.4395852636
 20
7.3516602616
 30
0.0
 10
11.4387810182
 20
7.3482236211
 30
0.0
 10
11.4376217316
 20
7.3449649692
 30
0.0
 10
11.4366115449
 20
7.3429122298
 30
0.0
 10
11.4360518105
 20
7.3419238744
 30
0.0
  0
SPLINE
  5
3A9
100
AcDbEntity
  8
0
100
AcDbSpline
 62
7
  6
CONTINUOUS
 70
0
 71
3
 72
14
 73
10
 74
0
 42
0.0000001
 43
0.0000001
 44
0.0000000001
 40
0.0
 40
0.0
 40
0.0
 40
0.0
 40
0.2433119734
 40
0.3677317065
 40
0.4934166803
 40
0.6199363934
 40
0.7468432759
 40
0.8736823678
 40
1.0
 40
1.0
 40
1.0
 40
1.0
 10
11.06428325
 20
7.5913110809
 30
0.0
 10
11.0587313744
 20
7.5786167055
 30
0.0
 10
11.0517066183
 20
7.5587990631
 30
0.0
 10
11.0449551873
 20
7.531512614
 30
0.0
 10
11.0411525839
 20
7.5103891017
 30
0.0
 10
11.0386803134
 20
7.488928809
 30
0.0
 10
11.0375560317
 20
7.46728937
 30
0.0
 10
11.0377882393
 20
7.4456345384
 30
0.0
 10
11.0388498955
 20
7.4312462869
 30
0.0
 10
11.0396081524
 20
7.424093237
 30
0.0
  0
SPLINE
  5
3AA
100
AcDbEntity
  8
0
100
AcDbSpline
 62
7
  6
CONTINUOUS
 70
0
 71
3
 72
15
 73
11
 74
0
 42
0.0000001
 43
0.0000001
 44
0.0000000001
 40
0.0
 40
0.0
 40
0.0
 40
0.0
 40
0.1359180657
 40
0.2689686323
 40
0.3989317241
 40
0.5256527768
 40
0.6490587569
 40
0.7691637911
 40
0.8860743664
 40
1.0
 40
1.0
 40
1.0
 40
1.0
 10
11.06428325
 20
7.5913110809
 30
0.0
 10
11.066846733
 20
7.5971724903
 30
0.0
 10
11.0723065298
 20
7.6086074858
 30
0.0
 10
11.0815657909
 20
7.6249604259
 30
0.0
 10
11.0917530368
 20
7.6402366848
 30
0.0
 10
11.1028002929
 20
7.6543320515
 30
0.0
 10
11.1146340863
 20
7.6671511635
 30
0.0
 10
11.1271764356
 20
7.6786068332
 30
0.0
 10
11.1403420498
 20
7.6886195227
 30
0.0
 10
11.149592287
 20
7.6943578887
 30
0.0
 10
11.154285872
 20
7.6969510853
 30
0.0
  0
SPLINE
  5
3AB
100
AcDbEntity
  8
0
100
AcDbSpline
 62
7
  6
CONTINUOUS
 70
0
 71
3
 72
23
 73
19
 74
0
 42
0.0000001
 43
0.0000001
 44
0.0000000001
 40
0.0
 40
0.0
 40
0.0
 40
0.0
 40
0.0642467731
 40
0.1291904109
 40
0.1944524097
 40
0.2597301192
 40
0.3247940834
 40
0.3894755678
 40
0.4536519957
 40
0.517234578
 40
0.5801592977
 40
0.6423803086
 40
0.7038661535
 40
0.7645979774
 40
0.8245681647
 40
0.8837803242
 40
0.942249474
 40
1.0
 40
1.0
 40
1.0
 40
1.0
 10
9.9916720394
 20
7.5977094564
 30
0.0
 10
9.9894260224
 20
7.5918403399
 30
0.0
 10
9.9851031878
 20
7.5799632136
 30
0.0
 10
9.9792249997
 20
7.5618699996
 30
0.0
 10
9.9740226061
 20
7.5434648784
 30
0.0
 10
9.9696171008
 20
7.5248395208
 30
0.0
 10
9.9661237743
 20
7.5060779163
 30
0.0
 10
9.9636478181
 20
7.4872621368
 30
0.0
 10
9.9622812701
 20
7.4684769875
 30
0.0
 10
9.9621006212
 20
7.449813224
 30
0.0
 10
9.9631651225
 20
7.4313689419
 30
0.0
 10
9.9655148896
 20
7.4132493063
 30
0.0
 10
9.9691700833
 20
7.3955649376
 30
0.0
 10
9.9741304627
 20
7.3784293112
 30
0.0
 10
9.9803757155
 20
7.3619558393
 30
0.0
 10
9.9878672789
 20
7.3462541476
 30
0.0
 10
9.9965487216
 20
7.3314297074
 30
0.0
 10
10.0031252163
 20
7.3221366246
 30
0.0
 10
10.0065873644
 20
7.3176731954
 30
0.0
  0
SPLINE
  5
3AC
100
AcDbEntity
  8
0
100
AcDbSpline
 62
7
  6
CONTINUOUS
 70
0
 71
3
 72
23
 73
19
 74
0
 42
0.0000001
 43
0.0000001
 44
0.0000000001
 40
0.0
 40
0.0
 40
0.0
 40
0.0
 40
0.0637775561
 40
0.1273446565
 40
0.1907020307
 40
0.2538561431
 40
0.3168131834
 40
0.3795821015
 40
0.4421733894
 40
0.5045993415
 40
0.5668738676
 40
0.6290123791
 40
0.6910316472
 40
0.7529496401
 40
0.8147853492
 40
0.8765585998
 40
0.9382898533
 40
1.0
 40
1.0
 40
1.0
 40
1.0
 10
8.8665533014
 20
7.4921731289
 30
0.0
 10
8.8665533014
 20
7.5028962235
 30
0.0
 10
8.867066523
 20
7.5243106631
 30
0.0
 10
8.8693831145
 20
7.5563021144
 30
0.0
 10
8.8732401398
 20
7.5880398869
 30
0.0
 10
8.8786285497
 20
7.6194496737
 30
0.0
 10
8.8855361643
 20
7.6504595013
 30
0.0
 10
8.8939470492
 20
7.6809977441
 30
0.0
 10
8.9038419275
 20
7.71099403
 30
0.0
 10
8.9151980474
 20
7.7403791741
 30
0.0
 10
8.9279892804
 20
7.76908541
 30
0.0
 10
8.9421861826
 20
7.7970465274
 30
0.0
 10
8.9577560573
 20
7.8241980234
 30
0.0
 10
8.9746630547
 20
7.8504772742
 30
0.0
 10
8.9928681608
 20
7.8758235953
 30
0.0
 10
9.0123296286
 20
7.9001787028
 30
0.0
 10
9.0330018024
 20
7.9234856586
 30
0.0
 10
9.0475613925
 20
7.9382917057
 30
0.0
 10
9.0550240243
 20
7.9455000363
 30
0.0
  0
SPLINE
  5
3AD
100
AcDbEntity
  8
0
100
AcDbSpline
 62
7
  6
CONTINUOUS
 70
0
 71
3
 72
24
 73
20
 74
0
 42
0.0000001
 43
0.0000001
 44
0.0000000001
 40
0.0
 40
0.0
 40
0.0
 40
0.0
 40
0.0637773023
 40
0.1273439637
 40
0.1907010681
 40
0.2538548417
 40
0.3168115636
 40
0.379580162
 40
0.4421711307
 40
0.5045967669
 40
0.5668709778
 40
0.6290091748
 40
0.691028128
 40
0.7529458054
 40
0.8147811982
 40
0.8765541325
 40
0.9074261016
 40
0.9382901687
 40
1.0
 40
1.0
 40
1.0
 40
1.0
 10
10.4338136518
 20
7.4370303302
 30
0.0
 10
10.4338136518
 20
7.4490957165
 30
0.0
 10
10.4343911092
 20
7.4731907302
 30
0.0
 10
10.4369976843
 20
7.5091867573
 30
0.0
 10
10.4413374936
 20
7.5448973374
 30
0.0
 10
10.4474003945
 20
7.5802388972
 30
0.0
 10
10.4551726561
 20
7.6151304251
 30
0.0
 10
10.4646363588
 20
7.6494913424
 30
0.0
 10
10.4757698062
 20
7.683242467
 30
0.0
 10
10.4885473964
 20
7.7163059569
 30
0.0
 10
10.5029397431
 20
7.7486055562
 30
0.0
 10
10.5189137204
 20
7.7800667738
 30
0.0
 10
10.536432517
 20
7.8106170065
 30
0.0
 10
10.5554558735
 20
7.8401858899
 30
0.0
 10
10.5759395895
 20
7.8687047848
 30
0.0
 10
10.5941917557
 20
7.8915465851
 30
0.0
 10
10.609471804
 20
7.9092262694
 30
0.0
 10
10.6251927266
 20
7.9264983081
 30
0.0
 10
10.6374790828
 20
7.9389927665
 30
0.0
 10
10.645875843
 20
7.9471034273
 30
0.0
  0
SPLINE
  5
3AE
100
AcDbEntity
  8
0
100
AcDbSpline
 62
7
  6
CONTINUOUS
 70
0
 71
3
 72
46
 73
42
 74
0
 42
0.0000001
 43
0.0000001
 44
0.0000000001
 40
0.0
 40
0.0
 40
0.0
 40
0.0
 40
0.0149720525
 40
0.0299471649
 40
0.0449283772
 40
0.0599186917
 40
0.0749210573
 40
0.0899383484
 40
0.1049733476
 40
0.1200287333
 40
0.1351070597
 40
0.1502107421
 40
0.1653420474
 40
0.1805030776
 40
0.1956957572
 40
0.2109218287
 40
0.2414745667
 40
0.2721768461
 40
0.3030351766
 40
0.3340525707
 40
0.3652285255
 40
0.3965590884
 40
0.4280369959
 40
0.4596518697
 40
0.4913904744
 40
0.523237028
 40
0.5551735471
 40
0.5871802301
 40
0.6192358692
 40
0.6513182802
 40
0.6834047461
 40
0.7154724694
 40
0.7474990252
 40
0.7794628091
 40
0.811343472
 40
0.843122339
 40
0.8747828041
 40
0.9063106918
 40
0.9376946023
 40
0.9689259241
 40
1.0
 40
1.0
 40
1.0
 40
1.0
 10
10.2622010276
 20
8.5594700902
 30
0.0
 10
10.2564355678
 20
8.5539010977
 30
0.0
 10
10.2446806777
 20
8.5429899978
 30
0.0
 10
10.2264099974
 20
8.5273351448
 30
0.0
 10
10.2075240819
 20
8.51241189
 30
0.0
 10
10.1880493488
 20
8.4982410374
 30
0.0
 10
10.1680125011
 20
8.4848419879
 30
0.0
 10
10.1474410963
 20
8.4722332719
 30
0.0
 10
10.1263634893
 20
8.4604321492
 30
0.0
 10
10.1048086849
 20
8.4494548537
 30
0.0
 10
10.0828063106
 20
8.4393165522
 30
0.0
 10
10.0603866957
 20
8.4300310982
 30
0.0
 10
10.0375806505
 20
8.4216112614
 30
0.0
 10
10.0144196553
 20
8.4140686979
 30
0.0
 10
9.9909351574
 20
8.4074136182
 30
0.0
 10
9.9592025835
 20
8.3997277869
 30
0.0
 10
9.9188745223
 20
8.392387504
 30
0.0
 10
9.8697792727
 20
8.3872600984
 30
0.0
 10
9.8201880886
 20
8.3858287933
 30
0.0
 10
9.7703755819
 20
8.3881014097
 30
0.0
 10
9.720615066
 20
8.3940646553
 30
0.0
 10
9.6711800709
 20
8.4036851716
 30
0.0
 10
9.6223420792
 20
8.4169096307
 30
0.0
 10
9.5743692387
 20
8.4336648939
 30
0.0
 10
9.5275248439
 20
8.4538584821
 30
0.0
 10
9.4820659935
 20
8.4773792303
 30
0.0
 10
9.4382421288
 20
8.5040977196
 30
0.0
 10
9.3962936669
 20
8.5338670111
 30
0.0
 10
9.3564508012
 20
8.5665235938
 30
0.0
 10
9.3189321721
 20
8.6018881356
 30
0.0
 10
9.283943634
 20
8.6397664415
 30
0.0
 10
9.25167728
 20
8.6799506521
 30
0.0
 10
9.2223103172
 20
8.7222202705
 30
0.0
 10
9.1960040121
 20
8.7663433157
 30
0.0
 10
9.1729029915
 20
8.8120777133
 30
0.0
 10
9.1531343852
 20
8.8591725075
 30
0.0
 10
9.1368069918
 20
8.9073692905
 30
0.0
 10
9.1240108713
 20
8.9564032808
 30
0.0
 10
9.114816889
 20
9.0060061743
 30
0.0
 10
9.1092758445
 20
9.0559020452
 30
0.0
 10
9.1080347723
 20
9.0892724704
 30
0.0
 10
9.1080347723
 20
9.1059091884
 30
0.0
  0
SPLINE
  5
3AF
100
AcDbEntity
  8
0
100
AcDbSpline
 62
7
  6
CONTINUOUS
 70
0
 71
3
 72
43
 73
39
 74
0
 42
0.0000001
 43
0.0000001
 44
0.0000000001
 40
0.0
 40
0.0
 40
0.0
 40
0.0
 40
0.0309418566
 40
0.0620264468
 40
0.0932503929
 40
0.1246071075
 40
0.1560880002
 40
0.1876822702
 40
0.2193771888
 40
0.2511583275
 40
0.2830098133
 40
0.3149146026
 40
0.3468547693
 40
0.3788118051
 40
0.4107669244
 40
0.4427013728
 40
0.4745967359
 40
0.5064352439
 40
0.5382000686
 40
0.5698756088
 40
0.6014477613
 40
0.6329041747
 40
0.664234477
 40
0.6954304769
 40
0.7264863341
 40
0.7573986955
 40
0.7881667885
 40
0.8187924702
 40
0.8340554786
 40
0.849284788
 40
0.8644813606
 40
0.8796463175
 40
0.909881943
 40
0.9400081755
 40
0.9550369536
 40
0.9700438062
 40
0.985030774
 40
1.0
 40
1.0
 40
1.0
 40
1.0
 10
10.6572155538
 20
7.6528200098
 30
0.0
 10
10.6572155538
 20
7.63579642
 30
0.0
 10
10.6583700126
 20
7.6016598412
 30
0.0
 10
10.6635288994
 20
7.5505792324
 30
0.0
 10
10.6720949159
 20
7.4997250207
 30
0.0
 10
10.6840289153
 20
7.4493312941
 30
0.0
 10
10.6992762566
 20
7.3996263323
 30
0.0
 10
10.7177673685
 20
7.3508361636
 30
0.0
 10
10.7394179325
 20
7.3031823561
 30
0.0
 10
10.7641293582
 20
7.2568813726
 30
0.0
 10
10.7917892119
 20
7.2121435041
 30
0.0
 10
10.8222717205
 20
7.169171955
 30
0.0
 10
10.8554382845
 20
7.1281618778
 30
0.0
 10
10.8911381723
 20
7.08929954
 30
0.0
 10
10.9292091896
 20
7.0527614832
 30
0.0
 10
10.9694784177
 20
7.0187137423
 30
0.0
 10
11.0117629461
 20
6.9873110482
 30
0.0
 10
11.0558707171
 20
6.9586961406
 30
0.0
 10
11.1016014132
 20
6.9329991579
 30
0.0
 10
11.1487473487
 20
6.9103370471
 30
0.0
 10
11.1970943936
 20
6.8908130253
 30
0.0
 10
11.2464229186
 20
6.8745160506
 30
0.0
 10
11.2965088022
 20
6.8615204868
 30
0.0
 10
11.3471244772
 20
6.8518857596
 30
0.0
 10
11.398039765
 20
6.8456560677
 30
0.0
 10
11.4490235902
 20
6.8428602007
 30
0.0
 10
11.4998424723
 20
6.8435110452
 30
0.0
 10
11.5419150676
 20
6.8469282786
 30
0.0
 10
11.5752505904
 20
6.8513797021
 30
0.0
 10
11.6000417676
 20
6.8555670276
 30
0.0
 10
11.6246197212
 20
6.8606021251
 30
0.0
 10
11.6570330594
 20
6.8684292582
 30
0.0
 10
11.696892973
 20
6.8802991491
 30
0.0
 10
11.7357465342
 20
6.8949257587
 30
0.0
 10
11.7660634924
 20
6.9082249505
 30
0.0
 10
11.7883834649
 20
6.9189801082
 30
0.0
 10
11.810275246
 20
6.9305106116
 30
0.0
 10
11.8245766449
 20
6.9387107053
 30
0.0
 10
11.8316465233
 20
6.942935004
 30
0.0
  0
SPLINE
  5
3B0
100
AcDbEntity
  8
0
100
AcDbSpline
 62
7
  6
CONTINUOUS
 70
0
 71
3
 72
15
 73
11
 74
0
 42
0.0000001
 43
0.0000001
 44
0.0000000001
 40
0.0
 40
0.0
 40
0.0
 40
0.0
 40
0.1268936931
 40
0.2531824523
 40
0.378885871
 40
0.5040320099
 40
0.6286612404
 40
0.7528241611
 40
0.8765809068
 40
1.0
 40
1.0
 40
1.0
 40
1.0
 10
10.6572155538
 20
7.6528200098
 30
0.0
 10
10.6572155538
 20
7.6701883466
 30
0.0
 10
10.6584116938
 20
7.7048545497
 30
0.0
 10
10.6638165047
 20
7.7564722025
 30
0.0
 10
10.6728020551
 20
7.8073485878
 30
0.0
 10
10.6853260822
 20
7.8572371999
 30
0.0
 10
10.7013289538
 20
7.9058997131
 30
0.0
 10
10.7207350201
 20
7.9531036667
 30
0.0
 10
10.7434497837
 20
7.9986198932
 30
0.0
 10
10.76075143
 20
8.0277348128
 30
0.0
 10
10.7699105129
 20
8.041929053
 30
0.0
  0
SPLINE
  5
3B1
100
AcDbEntity
  8
0
100
AcDbSpline
 62
7
  6
CONTINUOUS
 70
0
 71
3
 72
23
 73
19
 74
0
 42
0.0000001
 43
0.0000001
 44
0.0000000001
 40
0.0
 40
0.0
 40
0.0
 40
0.0
 40
0.0636929457
 40
0.1271991506
 40
0.1905166521
 40
0.2536515438
 40
0.3166078579
 40
0.3793919483
 40
0.4420114307
 40
0.5044751015
 40
0.5667930256
 40
0.6289763948
 40
0.691037473
 40
0.752989499
 40
0.8148465813
 40
0.8766235904
 40
0.9383360476
 40
1.0
 40
1.0
 40
1.0
 40
1.0
 10
10.7026140704
 20
7.649671612
 30
0.0
 10
10.7026140704
 20
7.6598025407
 30
0.0
 10
10.7030473165
 20
7.6800374287
 30
0.0
 10
10.7050022408
 20
7.7102866897
 30
0.0
 10
10.7082580236
 20
7.7403350811
 30
0.0
 10
10.7128084177
 20
7.7701262904
 30
0.0
 10
10.7186453251
 20
7.7996060058
 30
0.0
 10
10.7257579721
 20
7.8287198651
 30
0.0
 10
10.7341333035
 20
7.8574143676
 30
0.0
 10
10.7437559709
 20
7.8856367344
 30
0.0
 10
10.7546083408
 20
7.9133350377
 30
0.0
 10
10.7666704909
 20
7.9404583219
 30
0.0
 10
10.7799202339
 20
7.9669566956
 30
0.0
 10
10.794333237
 20
7.9927814183
 30
0.0
 10
10.8098829972
 20
8.0178849141
 30
0.0
 10
10.8265410853
 20
8.0422211445
 30
0.0
 10
10.8442763184
 20
8.0657447199
 30
0.0
 10
10.8568012638
 20
8.0808626391
 30
0.0
 10
10.8632304636
 20
8.0882698089
 30
0.0
  0
SPLINE
  5
3B2
100
AcDbEntity
  8
0
100
AcDbSpline
 62
7
  6
CONTINUOUS
 70
0
 71
3
 72
42
 73
38
 74
0
 42
0.0000001
 43
0.0000001
 44
0.0000000001
 40
0.0
 40
0.0
 40
0.0
 40
0.0
 40
0.0299707464
 40
0.0449900254
 40
0.0600328286
 40
0.0901912061
 40
0.1204623372
 40
0.1356455403
 40
0.1508604871
 40
0.1813848083
 40
0.212045052
 40
0.2428442889
 40
0.2737831912
 40
0.3048600536
 40
0.3360708536
 40
0.3674093474
 40
0.3988672001
 40
0.4304341443
 40
0.4620981653
 40
0.4938457079
 40
0.5256619027
 40
0.5575308076
 40
0.5894356614
 40
0.6213591464
 40
0.6532836572
 40
0.6851915729
 40
0.7170655284
 40
0.7488886842
 40
0.7806449899
 40
0.8123194395
 40
0.8438983111
 40
0.8753694074
 40
0.9067222239
 40
0.9379482656
 40
0.9535133885
 40
0.9690448698
 40
1.0
 40
1.0
 40
1.0
 40
1.0
 10
10.2352858356
 20
8.8910059579
 30
0.0
 10
10.2271143009
 20
8.886637597
 30
0.0
 10
10.2146142406
 20
8.8805037269
 30
0.0
 10
10.1975492236
 20
8.8731993011
 30
0.0
 10
10.1801882553
 20
8.8664648571
 30
0.0
 10
10.1580104478
 20
8.8591511666
 30
0.0
 10
10.1353443496
 20
8.8533537137
 30
0.0
 10
10.1169575926
 20
8.8496308444
 30
0.0
 10
10.0983788225
 20
8.8465157364
 30
0.0
 10
10.074898069
 20
8.8437842882
 30
0.0
 10
10.0464743905
 20
8.8423801849
 30
0.0
 10
10.0178914083
 20
8.8428512822
 30
0.0
 10
9.9892720349
 20
8.845195511
 30
0.0
 10
9.9607382827
 20
8.8494026054
 30
0.0
 10
9.9324120356
 20
8.8554544146
 30
0.0
 10
9.9044141867
 20
8.8633249156
 30
0.0
 10
9.8768642207
 20
8.8729803472
 30
0.0
 10
9.8498796852
 20
8.8843793527
 30
0.0
 10
9.8235757009
 20
8.8974731586
 30
0.0
 10
9.7980644736
 20
8.9122057833
 30
0.0
 10
9.7734548216
 20
8.9285142764
 30
0.0
 10
9.7498517158
 20
8.9463289871
 30
0.0
 10
9.7273558364
 20
8.9655738593
 30
0.0
 10
9.7060631473
 20
8.9861667549
 30
0.0
 10
9.68606449
 20
9.0080198015
 30
0.0
 10
9.6674451997
 20
9.0310397646
 30
0.0
 10
9.6502847435
 20
9.0551284418
 30
0.0
 10
9.634656384
 20
9.0801830798
 30
0.0
 10
9.620626868
 20
9.1060968029
 30
0.0
 10
9.6082561437
 20
9.1327590868
 30
0.0
 10
9.5975971075
 20
9.1600561423
 30
0.0
 10
9.58869536
 20
9.1878717038
 30
0.0
 10
9.5815891062
 20
9.2160863786
 30
0.0
 10
9.5771838883
 20
9.2398587478
 30
0.0
 10
9.5745872422
 20
9.2589539388
 30
0.0
 10
9.5726143651
 20
9.2780387419
 30
0.0
 10
9.5718291773
 20
9.2924025672
 30
0.0
 10
9.5716191493
 20
9.3019704797
 30
0.0
  0
SPLINE
  5
3B3
100
AcDbEntity
  8
0
100
AcDbSpline
 62
7
  6
CONTINUOUS
 70
0
 71
3
 72
23
 73
19
 74
0
 42
0.0000001
 43
0.0000001
 44
0.0000000001
 40
0.0
 40
0.0
 40
0.0
 40
0.0
 40
0.0637271823
 40
0.1272587972
 40
0.1905934735
 40
0.25373769
 40
0.3166961407
 40
0.3794761286
 40
0.4420862921
 40
0.5045366716
 40
0.5668387143
 40
0.6290051229
 40
0.6910497827
 40
0.7529876443
 40
0.8148345959
 40
0.8766073259
 40
0.9383231772
 40
1.0
 40
1.0
 40
1.0
 40
1.0
 10
10.7238272691
 20
7.6551619897
 30
0.0
 10
10.7238272691
 20
7.6655375874
 30
0.0
 10
10.7242911373
 20
7.6862600047
 30
0.0
 10
10.7263844827
 20
7.7172304705
 30
0.0
 10
10.7298704596
 20
7.7479804657
 30
0.0
 10
10.7347417937
 20
7.7784470477
 30
0.0
 10
10.7409889765
 20
7.8085694548
 30
0.0
 10
10.748599431
 20
7.8382869642
 30
0.0
 10
10.757557895
 20
7.8675398733
 30
0.0
 10
10.7678464074
 20
7.8962693554
 30
0.0
 10
10.7794443281
 20
7.9244176318
 30
0.0
 10
10.7923284129
 20
7.9519280748
 30
0.0
 10
10.806472773
 20
7.9787453471
 30
0.0
 10
10.8218489894
 20
8.0048155259
 30
0.0
 10
10.8384261221
 20
8.030086118
 30
0.0
 10
10.8561710345
 20
8.0545064536
 30
0.0
 10
10.8750474487
 20
8.0780267176
 30
0.0
 10
10.8883651965
 20
8.0930802468
 30
0.0
 10
10.8951976526
 20
8.1004392378
 30
0.0
  0
SPLINE
  5
3B4
100
AcDbEntity
  8
0
100
AcDbSpline
 62
7
  6
CONTINUOUS
 70
0
 71
3
 72
23
 73
19
 74
0
 42
0.0000001
 43
0.0000001
 44
0.0000000001
 40
0.0
 40
0.0
 40
0.0
 40
0.0
 40
0.0636435929
 40
0.1271127404
 40
0.1904037452
 40
0.2535225941
 40
0.3164727232
 40
0.3792591373
 40
0.4418883093
 40
0.5043675377
 40
0.5667052177
 40
0.6289107336
 40
0.6909943671
 40
0.7529672633
 40
0.8148413532
 40
0.8766292616
 40
0.9383442228
 40
1.0
 40
1.0
 40
1.0
 40
1.0
 10
10.7657608989
 20
7.6956667682
 30
0.0
 10
10.7657608989
 20
7.7049937003
 30
0.0
 10
10.766135802
 20
7.723624219
 30
0.0
 10
10.7678271174
 20
7.751483797
 30
0.0
 10
10.7706442397
 20
7.7791753712
 30
0.0
 10
10.7745823887
 20
7.8066529713
 30
0.0
 10
10.7796353181
 20
7.833872467
 30
0.0
 10
10.7857948021
 20
7.8607895331
 30
0.0
 10
10.7930508713
 20
7.8873604622
 30
0.0
 10
10.8013918363
 20
7.9135420953
 30
0.0
 10
10.810804106
 20
7.9392919217
 30
0.0
 10
10.8212724224
 20
7.9645681194
 30
0.0
 10
10.8327798743
 20
7.9893295946
 30
0.0
 10
10.8453077552
 20
8.0135361466
 30
0.0
 10
10.8588356786
 20
8.0371484269
 30
0.0
 10
10.8733418427
 20
8.0601281864
 30
0.0
 10
10.888802309
 20
8.0824375461
 30
0.0
 10
10.8997341105
 20
8.0968465012
 30
0.0
 10
10.9053492826
 20
8.1039255018
 30
0.0
  0
SPLINE
  5
3B5
100
AcDbEntity
  8
0
100
AcDbSpline
 62
7
  6
CONTINUOUS
 70
0
 71
3
 72
23
 73
19
 74
0
 42
0.0000001
 43
0.0000001
 44
0.0000000001
 40
0.0
 40
0.0
 40
0.0
 40
0.0
 40
0.063739621
 40
0.1272802157
 40
0.1906208134
 40
0.2537679487
 40
0.3167266137
 40
0.3795044963
 40
0.4421106414
 40
0.5045555955
 40
0.5668513603
 40
0.6290112484
 40
0.6910497945
 40
0.7529826309
 40
0.8148263514
 40
0.8765983632
 40
0.9383167282
 40
1.0
 40
1.0
 40
1.0
 40
1.0
 10
10.8227115282
 20
7.704176855
 30
0.0
 10
10.8227115282
 20
7.7140435729
 30
0.0
 10
10.8231599611
 20
7.7337492111
 30
0.0
 10
10.8251837534
 20
7.7631972426
 30
0.0
 10
10.8285537685
 20
7.7924301395
 30
0.0
 10
10.833262765
 20
7.8213860886
 30
0.0
 10
10.8393012208
 20
7.8500053796
 30
0.0
 10
10.8466565807
 20
7.8782283883
 30
0.0
 10
10.855313613
 20
7.9059965081
 30
0.0
 10
10.8652543687
 20
7.9332520221
 30
0.0
 10
10.8764582331
 20
7.9599382776
 30
0.0
 10
10.8889019805
 20
7.9859997929
 30
0.0
 10
10.9025597988
 20
8.0113823696
 30
0.0
 10
10.9174033217
 20
8.036033254
 30
0.0
 10
10.9334016689
 20
8.0599011479
 30
0.0
 10
10.9505217769
 20
8.0829365913
 30
0.0
 10
10.9687274517
 20
8.1050910358
 30
0.0
 10
10.9815669766
 20
8.1192467788
 30
0.0
 10
10.9881526793
 20
8.1261605675
 30
0.0
  0
SPLINE
  5
3B6
100
AcDbEntity
  8
0
100
AcDbSpline
 62
7
  6
CONTINUOUS
 70
0
 71
3
 72
11
 73
7
 74
0
 42
0.0000001
 43
0.0000001
 44
0.0000000001
 40
0.0
 40
0.0
 40
0.0
 40
0.0
 40
0.2513581145
 40
0.5018002695
 40
0.7513379833
 40
1.0
 40
1.0
 40
1.0
 40
1.0
 10
11.1341999919
 20
8.0050516246
 30
0.0
 10
11.1341999919
 20
8.016498562
 30
0.0
 10
11.1348034226
 20
8.0393553951
 30
0.0
 10
11.1375280777
 20
8.0734787433
 30
0.0
 10
11.142062898
 20
8.1072852403
 30
0.0
 10
11.1462923929
 20
8.1295890823
 30
0.0
 10
11.1487046457
 20
8.1406533287
 30
0.0
  0
SPLINE
  5
3B7
100
AcDbEntity
  8
0
100
AcDbSpline
 62
7
  6
CONTINUOUS
 70
0
 71
3
 72
15
 73
11
 74
0
 42
0.0000001
 43
0.0000001
 44
0.0000000001
 40
0.0
 40
0.0
 40
0.0
 40
0.0
 40
0.1126262146
 40
0.2269537996
 40
0.3437947429
 40
0.464127037
 40
0.5890546901
 40
0.71965638
 40
0.8566542155
 40
1.0
 40
1.0
 40
1.0
 40
1.0
 10
10.0446493527
 20
9.443139582
 30
0.0
 10
10.0443741867
 20
9.440649923
 30
0.0
 10
10.0436962252
 20
9.4356458
 30
0.0
 10
10.0423032486
 20
9.4281248838
 30
0.0
 10
10.0405150205
 20
9.4205117589
 30
0.0
 10
10.0383134457
 20
9.4127625461
 30
0.0
 10
10.0356770881
 20
9.4048273021
 30
0.0
 10
10.0325859368
 20
9.3966606186
 30
0.0
 10
10.0290304297
 20
9.3882390611
 30
0.0
 10
10.0264101144
 20
9.3825801053
 30
0.0
 10
10.0250262972
 20
9.3797080751
 30
0.0
  0
SPLINE
  5
3B8
100
AcDbEntity
  8
0
100
AcDbSpline
 62
7
  6
CONTINUOUS
 70
0
 71
3
 72
47
 73
43
 74
0
 42
0.0000001
 43
0.0000001
 44
0.0000000001
 40
0.0
 40
0.0
 40
0.0
 40
0.0
 40
0.015066886
 40
0.0301593635
 40
0.0452803615
 40
0.0604326056
 40
0.0908336624
 40
0.1213865437
 40
0.1367274329
 40
0.1521106627
 40
0.1675371036
 40
0.1830073262
 40
0.2140734452
 40
0.2453142704
 40
0.2767238333
 40
0.3082917666
 40
0.340003638
 40
0.3718413761
 40
0.4037837634
 40
0.4358069927
 40
0.4678852758
 40
0.4999914829
 40
0.5320978052
 40
0.5641764314
 40
0.5962002223
 40
0.6281433768
 40
0.6599820698
 40
0.691695058
 40
0.7232642423
 40
0.7546751607
 40
0.785917409
 40
0.8169849803
 40
0.8324559297
 40
0.8478830887
 40
0.8632670246
 40
0.8786086048
 40
0.9091627995
 40
0.9395650315
 40
0.954717859
 40
0.9698392967
 40
0.9849320815
 40
1.0
 40
1.0
 40
1.0
 40
1.0
 10
9.3856009907
 20
7.9074114507
 30
0.0
 10
9.3826827115
 20
7.902390119
 30
0.0
 10
9.3770592838
 20
7.8922103438
 30
0.0
 10
9.3692879017
 20
7.8765761753
 30
0.0
 10
9.3621857433
 20
7.8605901834
 30
0.0
 10
9.3536164047
 20
7.8388223311
 30
0.0
 10
9.3446369464
 20
7.8108540353
 30
0.0
 10
9.3380474662
 20
7.7821546168
 30
0.0
 10
9.3342194145
 20
7.7588408933
 30
0.0
 10
9.3320722257
 20
7.7411761358
 30
0.0
 10
9.3306571029
 20
7.7233877562
 30
0.0
 10
9.3297478761
 20
7.6995149484
 30
0.0
 10
9.3304580162
 20
7.6695064251
 30
0.0
 10
9.3342456203
 20
7.6335425178
 30
0.0
 10
9.3409435697
 20
7.597807946
 30
0.0
 10
9.350506434
 20
7.5625440539
 30
0.0
 10
9.3628695005
 20
7.5279868352
 30
0.0
 10
9.3779495004
 20
7.4943680645
 30
0.0
 10
9.3956449896
 20
7.4619130217
 30
0.0
 10
9.4158370189
 20
7.430839161
 30
0.0
 10
9.4383900796
 20
7.4013547133
 30
0.0
 10
9.4631529152
 20
7.3736572947
 30
0.0
 10
9.4899594414
 20
7.3479325038
 30
0.0
 10
9.5186299995
 20
7.3243528221
 30
0.0
 10
9.5489725008
 20
7.3030764686
 30
0.0
 10
9.5807835963
 20
7.2842461963
 30
0.0
 10
9.6138501271
 20
7.2679884898
 30
0.0
 10
9.6479505689
 20
7.2544127587
 30
0.0
 10
9.6828562175
 20
7.2436104123
 30
0.0
 10
9.7183334805
 20
7.2356543824
 30
0.0
 10
9.754142776
 20
7.2305986252
 30
0.0
 10
9.7841088618
 20
7.2288287577
 30
0.0
 10
9.8080000053
 20
7.2288938511
 30
0.0
 10
9.8258281085
 20
7.2296795604
 30
0.0
 10
9.8435585265
 20
7.2312011759
 30
0.0
 10
9.8669940273
 20
7.2342028996
 30
0.0
 10
9.8959096431
 20
7.2397739819
 30
0.0
 10
9.9241790866
 20
7.2477592242
 30
0.0
 10
9.9462371505
 20
7.2555537337
 30
0.0
 10
9.9624648065
 20
7.2620862441
 30
0.0
 10
9.9783646711
 20
7.2693001099
 30
0.0
 10
9.9887374368
 20
7.2745601968
 30
0.0
 10
9.99385919
 20
7.2772992465
 30
0.0
  0
SPLINE
  5
3B9
100
AcDbEntity
  8
0
100
AcDbSpline
 62
7
  6
CONTINUOUS
 70
0
 71
3
 72
11
 73
7
 74
0
 42
0.0000001
 43
0.0000001
 44
0.0000000001
 40
0.0
 40
0.0
 40
0.0
 40
0.0
 40
0.2513422312
 40
0.5017803061
 40
0.7513231259
 40
1.0
 40
1.0
 40
1.0
 40
1.0
 10
11.1812550638
 20
8.0120830262
 30
0.0
 10
11.1812550638
 20
8.0227504345
 30
0.0
 10
11.181810825
 20
8.0440511272
 30
0.0
 10
11.1843201132
 20
8.0758541058
 30
0.0
 10
11.1884966898
 20
8.1073673441
 30
0.0
 10
11.1923921851
 20
8.1281628989
 30
0.0
 10
11.1946140762
 20
8.1384806578
 30
0.0
  0
SPLINE
  5
3BA
100
AcDbEntity
  8
0
100
AcDbSpline
 62
7
  6
CONTINUOUS
 70
0
 71
3
 72
21
 73
17
 74
0
 42
0.0000001
 43
0.0000001
 44
0.0000000001
 40
0.0
 40
0.0
 40
0.0
 40
0.0
 40
0.0574964268
 40
0.1155916908
 40
0.1742946149
 40
0.2336133756
 40
0.3541090842
 40
0.4771946496
 40
0.5397598127
 40
0.6030335053
 40
0.6670513187
 40
0.731858829
 40
0.7975110465
 40
0.8640666635
 40
0.9315684972
 40
1.0
 40
1.0
 40
1.0
 40
1.0
 10
10.2340369979
 20
9.2086148466
 30
0.0
 10
10.2316305539
 20
9.2106018703
 30
0.0
 10
10.2268855053
 20
9.2147105561
 30
0.0
 10
10.220019682
 20
9.2212231562
 30
0.0
 10
10.2133783911
 20
9.2281029898
 30
0.0
 10
10.2047905166
 20
9.2377951144
 30
0.0
 10
10.1946628885
 20
9.2507702959
 30
0.0
 10
10.1854644712
 20
9.2646275522
 30
0.0
 10
10.1785860932
 20
9.2762589939
 30
0.0
 10
10.1736325881
 20
9.2852974198
 30
0.0
 10
10.1688995797
 20
9.2945895706
 30
0.0
 10
10.1643661715
 20
9.3041235828
 30
0.0
 10
10.1600024234
 20
9.3138871281
 30
0.0
 10
10.1557665004
 20
9.3238654975
 30
0.0
 10
10.1516022174
 20
9.3340368257
 30
0.0
 10
10.1488429202
 20
9.340879583
 30
0.0
 10
10.1474475928
 20
9.3443218395
 30
0.0
  0
SPLINE
  5
3BB
100
AcDbEntity
  8
0
100
AcDbSpline
 62
7
  6
CONTINUOUS
 70
0
 71
3
 72
50
 73
46
 74
0
 42
0.0000001
 43
0.0000001
 44
0.0000000001
 40
0.0
 40
0.0
 40
0.0
 40
0.0
 40
0.0149717278
 40
0.0299465149
 40
0.044927401
 40
0.0599173893
 40
0.0749194283
 40
0.0899363919
 40
0.1049710634
 40
0.1200261205
 40
0.1351041177
 40
0.1502074705
 40
0.165338445
 40
0.1804991437
 40
0.1956914918
 40
0.21091723
 40
0.2261779061
 40
0.2414748638
 40
0.2568092383
 40
0.2721819537
 40
0.287593716
 40
0.3030450104
 40
0.3185361039
 40
0.3340670439
 40
0.3652423167
 40
0.3965721964
 40
0.4280494165
 40
0.4596636006
 40
0.4914015142
 40
0.5232473741
 40
0.5551831985
 40
0.5871891855
 40
0.6192441282
 40
0.6513258427
 40
0.683411612
 40
0.7154786397
 40
0.7475045014
 40
0.7794675918
 40
0.8113475634
 40
0.8431257421
 40
0.8747855204
 40
0.9063127266
 40
0.9376959415
 40
0.9689266162
 40
1.0
 40
1.0
 40
1.0
 40
1.0
 10
11.7453490045
 20
6.7053390267
 30
0.0
 10
11.7380903343
 20
6.6983276823
 30
0.0
 10
11.7232910806
 20
6.6845905709
 30
0.0
 10
11.7002884226
 20
6.664881161
 30
0.0
 10
11.6765112356
 20
6.6460927694
 30
0.0
 10
11.6519927236
 20
6.6282516469
 30
0.0
 10
11.6267664847
 20
6.6113822549
 30
0.0
 10
11.6008672572
 20
6.5955078584
 30
0.0
 10
11.5743307161
 20
6.5806502227
 30
0.0
 10
11.5471933754
 20
6.5668297935
 30
0.0
 10
11.5194925554
 20
6.5540656314
 30
0.0
 10
11.491266409
 20
6.5423752224
 30
0.0
 10
11.462553781
 20
6.5317746194
 30
0.0
 10
11.4333941583
 20
6.522278453
 30
0.0
 10
11.4038276782
 20
6.5138997344
 30
0.0
 10
11.3738950305
 20
6.5066499266
 30
0.0
 10
11.3436373824
 20
6.5005390312
 30
0.0
 10
11.3130963614
 20
6.4955754423
 30
0.0
 10
11.2823139877
 20
6.4917658994
 30
0.0
 10
11.2513326066
 20
6.4891156415
 30
0.0
 10
11.2201947906
 20
6.4876283479
 30
0.0
 10
11.1889435116
 20
6.4873059457
 30
0.0
 10
11.1576212115
 20
6.4881489378
 30
0.0
 10
11.1157739038
 20
6.4908280494
 30
0.0
 10
11.0634948458
 20
6.4970926179
 30
0.0
 10
11.0012578772
 20
6.5092046802
 30
0.0
 10
10.9397706904
 20
6.5258540528
 30
0.0
 10
10.8793732174
 20
6.546948732
 30
0.0
 10
10.8203963247
 20
6.5723722755
 30
0.0
 10
10.7631638339
 20
6.6019846593
 30
0.0
 10
10.7079897836
 20
6.6356230201
 30
0.0
 10
10.655176844
 20
6.6731023169
 30
0.0
 10
10.6050148605
 20
6.714216737
 30
0.0
 10
10.5577790434
 20
6.7587404302
 30
0.0
 10
10.5137286074
 20
6.8064289628
 30
0.0
 10
10.4731054376
 20
6.8570206613
 30
0.0
 10
10.4361324927
 20
6.9102378141
 30
0.0
 10
10.4030129783
 20
6.965788482
 30
0.0
 10
10.3739289127
 20
7.0233678368
 30
0.0
 10
10.3490402479
 20
7.082659889
 30
0.0
 10
10.3284841648
 20
7.1433393882
 30
0.0
 10
10.3123739045
 20
7.2050729022
 30
0.0
 10
10.3007986697
 20
7.2675226791
 30
0.0
 10
10.2938225544
 20
7.3303413131
 30
0.0
 10
10.2922600382
 20
7.3723545051
 30
0.0
 10
10.2922600382
 20
7.3933000309
 30
0.0
  0
SPLINE
  5
3BC
100
AcDbEntity
  8
0
100
AcDbSpline
 62
7
  6
CONTINUOUS
 70
0
 71
3
 72
39
 73
35
 74
0
 42
0.0000001
 43
0.0000001
 44
0.0000000001
 40
0.0
 40
0.0
 40
0.0
 40
0.0
 40
0.0306354679
 40
0.0613801065
 40
0.0922311459
 40
0.1231864993
 40
0.1542419523
 40
0.1853926988
 40
0.2166328305
 40
0.2479555841
 40
0.2793533677
 40
0.3108178516
 40
0.3423400545
 40
0.3739104338
 40
0.4055189812
 40
0.4371553202
 40
0.4688088067
 40
0.5004686321
 40
0.5321239263
 40
0.5637638635
 40
0.5953777654
 40
0.626955204
 40
0.6584861027
 40
0.6899608345
 40
0.721370318
 40
0.7527061086
 40
0.7839604871
 40
0.8151265413
 40
0.8461982409
 40
0.877170506
 40
0.9080392671
 40
0.9388015166
 40
0.9694553503
 40
1.0
 40
1.0
 40
1.0
 40
1.0
 10
11.2995628768
 20
8.0972799153
 30
0.0
 10
11.2995628768
 20
8.0872122184
 30
0.0
 10
11.3000835278
 20
8.0670371762
 30
0.0
 10
11.3024144352
 20
8.0368046196
 30
0.0
 10
11.3062906101
 20
8.0066244211
 30
0.0
 10
11.311701464
 20
7.9765778479
 30
0.0
 10
11.3186327392
 20
7.9467441247
 30
0.0
 10
11.3270659023
 20
7.9172024811
 30
0.0
 10
11.3369785746
 20
7.8880311839
 30
0.0
 10
11.3483444124
 20
7.859307566
 30
0.0
 10
11.3611332418
 20
7.8311077553
 30
0.0
 10
11.3753111098
 20
7.8035064865
 30
0.0
 10
11.3908403948
 20
7.7765769058
 30
0.0
 10
11.4076799025
 20
7.7503903781
 30
0.0
 10
11.4257849746
 20
7.7250163002
 30
0.0
 10
11.4451076071
 20
7.7005219183
 30
0.0
 10
11.4655965761
 20
7.6769721505
 30
0.0
 10
11.4871975742
 20
7.6544294181
 30
0.0
 10
11.5098533427
 20
7.63295347
 30
0.0
 10
11.5335038308
 20
7.6126012296
 30
0.0
 10
11.5580863574
 20
7.5934266491
 30
0.0
 10
11.5835357754
 20
7.5754805667
 30
0.0
 10
11.609784643
 20
7.5588105728
 30
0.0
 10
11.6367634007
 20
7.5434608843
 30
0.0
 10
11.6644005544
 20
7.529472229
 30
0.0
 10
11.6926228627
 20
7.5168817357
 30
0.0
 10
11.7213555242
 20
7.5057228225
 30
0.0
 10
11.7505223847
 20
7.4960251228
 30
0.0
 10
11.7800461278
 20
7.4878144054
 30
0.0
 10
11.8098485116
 20
7.4811125071
 30
0.0
 10
11.8398504487
 20
7.4759372709
 30
0.0
 10
11.8699726784
 20
7.4723025095
 30
0.0
 10
11.9001342523
 20
7.4702179243
 30
0.0
 10
11.9202533214
 20
7.4698648367
 30
0.0
 10
11.9302908185
 20
7.4699491801
 30
0.0
  0
SPLINE
  5
3BD
100
AcDbEntity
  8
0
100
AcDbSpline
 62
7
  6
CONTINUOUS
 70
0
 71
3
 72
46
 73
42
 74
0
 42
0.0000001
 43
0.0000001
 44
0.0000000001
 40
0.0
 40
0.0
 40
0.0
 40
0.0
 40
0.0149720525
 40
0.0299471649
 40
0.0449283772
 40
0.0599186917
 40
0.0749210573
 40
0.0899383484
 40
0.1049733476
 40
0.1200287333
 40
0.1351070597
 40
0.1502107421
 40
0.1653420474
 40
0.1805030776
 40
0.1956957572
 40
0.2109218287
 40
0.2414745667
 40
0.2721768461
 40
0.3030351766
 40
0.3340525707
 40
0.3652285255
 40
0.3965590884
 40
0.4280369959
 40
0.4596518697
 40
0.4913904744
 40
0.523237028
 40
0.5551735471
 40
0.5871802301
 40
0.6192358692
 40
0.6513182802
 40
0.6834047461
 40
0.7154724694
 40
0.7474990252
 40
0.7794628091
 40
0.811343472
 40
0.843122339
 40
0.8747828041
 40
0.9063106918
 40
0.9376946023
 40
0.9689259241
 40
1.0
 40
1.0
 40
1.0
 40
1.0
 10
10.0207195567
 20
6.9457340307
 30
0.0
 10
10.0149540969
 20
6.9401650382
 30
0.0
 10
10.0031992068
 20
6.9292539383
 30
0.0
 10
9.9849285265
 20
6.9135990853
 30
0.0
 10
9.966042611
 20
6.8986758305
 30
0.0
 10
9.946567878
 20
6.8845049779
 30
0.0
 10
9.9265310302
 20
6.8711059284
 30
0.0
 10
9.9059596254
 20
6.8584972124
 30
0.0
 10
9.8848820184
 20
6.8466960897
 30
0.0
 10
9.863327214
 20
6.8357187942
 30
0.0
 10
9.8413248397
 20
6.8255804927
 30
0.0
 10
9.8189052248
 20
6.8162950387
 30
0.0
 10
9.7960991796
 20
6.8078752019
 30
0.0
 10
9.7729381844
 20
6.8003326384
 30
0.0
 10
9.7494536865
 20
6.7936775587
 30
0.0
 10
9.7177211126
 20
6.7859917274
 30
0.0
 10
9.6773930515
 20
6.7786514445
 30
0.0
 10
9.6282978018
 20
6.7735240389
 30
0.0
 10
9.5787066177
 20
6.7720927338
 30
0.0
 10
9.528894111
 20
6.7743653502
 30
0.0
 10
9.4791335951
 20
6.7803285958
 30
0.0
 10
9.4296986
 20
6.7899491121
 30
0.0
 10
9.3808606083
 20
6.8031735712
 30
0.0
 10
9.3328877679
 20
6.8199288344
 30
0.0
 10
9.286043373
 20
6.8401224226
 30
0.0
 10
9.2405845226
 20
6.8636431708
 30
0.0
 10
9.1967606579
 20
6.8903616601
 30
0.0
 10
9.154812196
 20
6.9201309516
 30
0.0
 10
9.1149693304
 20
6.9527875343
 30
0.0
 10
9.0774507012
 20
6.9881520761
 30
0.0
 10
9.0424621631
 20
7.026030382
 30
0.0
 10
9.0101958091
 20
7.0662145926
 30
0.0
 10
8.9808288463
 20
7.108484211
 30
0.0
 10
8.9545225412
 20
7.1526072562
 30
0.0
 10
8.9314215206
 20
7.1983416538
 30
0.0
 10
8.9116529144
 20
7.245436448
 30
0.0
 10
8.895325521
 20
7.293633231
 30
0.0
 10
8.8825294005
 20
7.3426672213
 30
0.0
 10
8.8733354181
 20
7.3922701148
 30
0.0
 10
8.8677943737
 20
7.4421659857
 30
0.0
 10
8.8665533014
 20
7.4755364109
 30
0.0
 10
8.8665533014
 20
7.4921731289
 30
0.0
  0
SPLINE
  5
3BE
100
AcDbEntity
  8
0
100
AcDbSpline
 62
7
  6
CONTINUOUS
 70
0
 71
3
 72
40
 73
36
 74
0
 42
0.0000001
 43
0.0000001
 44
0.0000000001
 40
0.0
 40
0.0
 40
0.0
 40
0.0
 40
0.0299422961
 40
0.0599089687
 40
0.0899238004
 40
0.1200094052
 40
0.1350882586
 40
0.1501924643
 40
0.1804801427
 40
0.2108943138
 40
0.2414481167
 40
0.2721514658
 40
0.3030108714
 40
0.3340293444
 40
0.3652063826
 40
0.3965380347
 40
0.4280170359
 40
0.4596330083
 40
0.4913727179
 40
0.5232203813
 40
0.5551580145
 40
0.5871658159
 40
0.6192225759
 40
0.6513061084
 40
0.6833936952
 40
0.7154625379
 40
0.7474902107
 40
0.7794551093
 40
0.8113368809
 40
0.8431168638
 40
0.8747784102
 40
0.9063074674
 40
0.9376922747
 40
0.9689251908
 40
1.0
 40
1.0
 40
1.0
 40
1.0
 10
9.9334047694
 20
7.6107813827
 30
0.0
 10
9.9308167836
 20
7.6082815762
 30
0.0
 10
9.9254373195
 20
7.6034837218
 30
0.0
 10
9.9168185016
 20
7.5969474499
 30
0.0
 10
9.9076944893
 20
7.5911045768
 30
0.0
 10
9.8997169974
 20
7.5868430989
 30
0.0
 10
9.8931377811
 20
7.5838115622
 30
0.0
 10
9.8864226252
 20
7.5810302741
 30
0.0
 10
9.877807394
 20
7.5780395945
 30
0.0
 10
9.8671904158
 20
7.575252348
 30
0.0
 10
9.8563417697
 20
7.5732777872
 30
0.0
 10
9.8453215768
 20
7.5721268046
 30
0.0
 10
9.8341903744
 20
7.5718055416
 30
0.0
 10
9.8230094097
 20
7.5723156323
 30
0.0
 10
9.8118401361
 20
7.5736541296
 30
0.0
 10
9.8007439235
 20
7.575813547
 30
0.0
 10
9.7897817138
 20
7.5787819001
 30
0.0
 10
9.7790136932
 20
7.5825427772
 30
0.0
 10
9.7684989663
 20
7.5870754319
 30
0.0
 10
9.7582952362
 20
7.5923548988
 30
0.0
 10
9.7484584924
 20
7.5983521308
 30
0.0
 10
9.7390427078
 20
7.6050341583
 30
0.0
 10
9.7300995466
 20
7.6123642697
 30
0.0
 10
9.721678082
 20
7.6203022095
 30
0.0
 10
9.713824531
 20
7.6288043983
 30
0.0
 10
9.7065820034
 20
7.6378241714
 30
0.0
 10
9.6999902679
 20
7.6473120316
 30
0.0
 10
9.6940855372
 20
7.657215918
 30
0.0
 10
9.6889002642
 20
7.6674814893
 30
0.0
 10
9.6844629845
 20
7.6780524118
 30
0.0
 10
9.6807981105
 20
7.6888706948
 30
0.0
 10
9.677925908
 20
7.6998768821
 30
0.0
 10
9.6758621658
 20
7.7110108157
 30
0.0
 10
9.6746184608
 20
7.7222104752
 30
0.0
 10
9.6743398719
 20
7.7297008394
 30
0.0
 10
9.6743398719
 20
7.7334350857
 30
0.0
  0
SPLINE
  5
3BF
100
AcDbEntity
  8
0
100
AcDbSpline
 62
7
  6
CONTINUOUS
 70
0
 71
3
 72
28
 73
24
 74
0
 42
0.0000001
 43
0.0000001
 44
0.0000000001
 40
0.0
 40
0.0
 40
0.0
 40
0.0
 40
0.017533385
 40
0.0363394596
 40
0.0563606455
 40
0.0775438183
 40
0.0998299887
 40
0.1231712122
 40
0.14751801
 40
0.1728262391
 40
0.199058532
 40
0.2261759532
 40
0.2829391964
 40
0.3428849191
 40
0.4058189744
 40
0.4715690206
 40
0.539991483
 40
0.6109518547
 40
0.6843348268
 40
0.7600293867
 40
0.8379356805
 40
0.9179567206
 40
1.0
 40
1.0
 40
1.0
 40
1.0
 10
10.9611998933
 20
7.9708569249
 30
0.0
 10
10.9622999297
 20
7.9714599363
 30
0.0
 10
10.9645295291
 20
7.9728024834
 30
0.0
 10
10.9678494562
 20
7.9750946257
 30
0.0
 10
10.9712558401
 20
7.9777109638
 30
0.0
 10
10.9747388056
 20
7.9806288893
 30
0.0
 10
10.9782919529
 20
7.9838278243
 30
0.0
 10
10.9819085679
 20
7.9872907442
 30
0.0
 10
10.9855841
 20
7.9910019097
 30
0.0
 10
10.9893145231
 20
7.9949476332
 30
0.0
 10
10.9930963343
 20
7.9991158405
 30
0.0
 10
10.9982834682
 20
8.0050460415
 30
0.0
 10
11.0048668656
 20
8.0129571765
 30
0.0
 10
11.0128303783
 20
8.023047312
 30
0.0
 10
11.0209664533
 20
8.0338162276
 30
0.0
 10
11.0292733421
 20
8.0452132542
 30
0.0
 10
11.0377518177
 20
8.0571938488
 30
0.0
 10
11.0464059628
 20
8.069717828
 30
0.0
 10
11.0552412923
 20
8.0827481873
 30
0.0
 10
11.0642652648
 20
8.0962505494
 30
0.0
 10
11.0734862828
 20
8.1101921769
 30
0.0
 10
11.08291374
 20
8.1245417353
 30
0.0
 10
11.0892660026
 20
8.1342422707
 30
0.0
 10
11.092481654
 20
8.1391531328
 30
0.0
  0
SPLINE
  5
3C0
100
AcDbEntity
  8
0
100
AcDbSpline
 62
7
  6
CONTINUOUS
 70
0
 71
3
 72
23
 73
19
 74
0
 42
0.0000001
 43
0.0000001
 44
0.0000000001
 40
0.0
 40
0.0
 40
0.0
 40
0.0
 40
0.063737234
 40
0.1272755479
 40
0.1906150576
 40
0.2537615683
 40
0.3167202028
 40
0.3794985777
 40
0.4421056052
 40
0.5045517451
 40
0.5668488677
 40
0.6290101574
 40
0.6910500113
 40
0.7529839129
 40
0.8148283005
 40
0.8766004232
 40
0.9383181884
 40
1.0
 40
1.0
 40
1.0
 40
1.0
 10
10.316588999
 20
7.4168000038
 30
0.0
 10
10.316588999
 20
7.4295736857
 30
0.0
 10
10.3171674915
 20
7.4550850553
 30
0.0
 10
10.3197783396
 20
7.4932099779
 30
0.0
 10
10.3241258797
 20
7.5310578633
 30
0.0
 10
10.3302009361
 20
7.5685493559
 30
0.0
 10
10.3379912421
 20
7.6056075996
 30
0.0
 10
10.3474807035
 20
7.6421559701
 30
0.0
 10
10.3586498608
 20
7.6781190905
 30
0.0
 10
10.3714757113
 20
7.7134227304
 30
0.0
 10
10.3859318402
 20
7.7479940278
 30
0.0
 10
10.4019884679
 20
7.7817616219
 30
0.0
 10
10.4196125024
 20
7.8146557971
 30
0.0
 10
10.4387676318
 20
7.8466086535
 30
0.0
 10
10.4594143096
 20
7.8775541475
 30
0.0
 10
10.4815101536
 20
7.907428609
 30
0.0
 10
10.5050087753
 20
7.9361695156
 30
0.0
 10
10.521582487
 20
7.9545404462
 30
0.0
 10
10.530083976
 20
7.9635147195
 30
0.0
  0
SPLINE
  5
3C1
100
AcDbEntity
  8
0
100
AcDbSpline
 62
7
  6
CONTINUOUS
 70
0
 71
3
 72
49
 73
45
 74
0
 42
0.0000001
 43
0.0000001
 44
0.0000000001
 40
0.0
 40
0.0
 40
0.0
 40
0.0
 40
0.0417737612
 40
0.0840374079
 40
0.1266587819
 40
0.1695070054
 40
0.212448701
 40
0.2553507859
 40
0.2980801061
 40
0.3405042538
 40
0.3824920091
 40
0.4239138924
 40
0.4646426962
 40
0.5045540236
 40
0.5435268394
 40
0.5814440363
 40
0.6181930245
 40
0.6536663548
 40
0.6877623909
 40
0.7203860578
 40
0.7514496892
 40
0.780874012
 40
0.8085893537
 40
0.8345371708
 40
0.8468342306
 40
0.8586736215
 40
0.8700521874
 40
0.8809680228
 40
0.8914205004
 40
0.9014107098
 40
0.9109413387
 40
0.9200173299
 40
0.9286458445
 40
0.9368369538
 40
0.9446039307
 40
0.9519638612
 40
0.9589383571
 40
0.9655540688
 40
0.9718436438
 40
0.9778460661
 40
0.9836072911
 40
0.989180004
 40
0.9946230597
 40
1.0
 40
1.0
 40
1.0
 40
1.0
 10
12.6634065023
 20
8.8022843864
 30
0.0
 10
12.6634065023
 20
8.7952885091
 30
0.0
 10
12.6632973513
 20
8.7812144934
 30
0.0
 10
12.6628148603
 20
8.7600076217
 30
0.0
 10
12.6620140019
 20
8.7386302835
 30
0.0
 10
12.6608974619
 20
8.7171534262
 30
0.0
 10
12.6594688868
 20
8.6956479519
 30
0.0
 10
12.6577330222
 20
8.6741850745
 30
0.0
 10
12.655695607
 20
8.6528357774
 30
0.0
 10
12.6533633987
 20
8.631670697
 30
0.0
 10
12.6507441321
 20
8.6107598474
 30
0.0
 10
12.647846504
 20
8.5901723976
 30
0.0
 10
12.6446801405
 20
8.5699764367
 30
0.0
 10
12.6412555656
 20
8.5502387476
 30
0.0
 10
12.6375841671
 20
8.5310245824
 30
0.0
 10
12.63367816
 20
8.5123974434
 30
0.0
 10
12.6295505464
 20
8.4944188674
 30
0.0
 10
12.6252150738
 20
8.4771482139
 30
0.0
 10
12.6206861886
 20
8.460642461
 30
0.0
 10
12.6159789895
 20
8.4449559899
 30
0.0
 10
12.6111091736
 20
8.4301404203
 30
0.0
 10
12.6060929765
 20
8.4162442905
 30
0.0
 10
12.6009470942
 20
8.4033132791
 30
0.0
 10
12.5964887559
 20
8.3932030459
 30
0.0
 10
12.5928594325
 20
8.3856405936
 30
0.0
 10
12.5901644929
 20
8.3803378195
 30
0.0
 10
12.5874499586
 20
8.3753063505
 30
0.0
 10
12.5847180535
 20
8.370550279
 30
0.0
 10
12.5819709571
 20
8.3660735055
 30
0.0
 10
12.5792109797
 20
8.3618796266
 30
0.0
 10
12.5764402508
 20
8.3579720785
 30
0.0
 10
12.5736610639
 20
8.3543539618
 30
0.0
 10
12.5708755239
 20
8.3510282208
 30
0.0
 10
12.5680858116
 20
8.347997498
 30
0.0
 10
12.5652940023
 20
8.3452642357
 30
0.0
 10
12.5625020883
 20
8.3428307009
 30
0.0
 10
12.5597120785
 20
8.3406988922
 30
0.0
 10
12.5569257791
 20
8.3388708457
 30
0.0
 10
12.554145146
 20
8.3373483019
 30
0.0
 10
12.551372002
 20
8.3361332322
 30
0.0
 10
12.5486085401
 20
8.3352273391
 30
0.0
 10
12.5458570064
 20
8.3346324525
 30
0.0
 10
12.5431207541
 20
8.3343499872
 30
0.0
 10
12.5413041101
 20
8.3343706776
 30
0.0
 10
12.5404057877
 20
8.3344329693
 30
0.0
  0
SPLINE
  5
3C2
100
AcDbEntity
  8
0
100
AcDbSpline
 62
4
  6
CONTINUOUS
 70
0
 71
3
 72
281
 73
277
 74
0
 42
0.0000001
 43
0.0000001
 44
0.0000000001
 40
0.0
 40
0.0
 40
0.0
 40
0.0
 40
0.015625
 40
0.0234375
 40
0.03125
 40
0.0390625
 40
0.046875
 40
0.05078125
 40
0.0546875
 40
0.056640625
 40
0.05859375
 40
0.060546875
 40
0.0615234375
 40
0.0620117188
 40
0.0625
 40
0.0629882812
 40
0.0634765625
 40
0.064453125
 40
0.06640625
 40
0.068359375
 40
0.0703125
 40
0.07421875
 40
0.078125
 40
0.0859375
 40
0.09375
 40
0.1015625
 40
0.109375
 40
0.11328125
 40
0.1171875
 40
0.119140625
 40
0.12109375
 40
0.123046875
 40
0.1240234375
 40
0.1245117188
 40
0.125
 40
0.1254882812
 40
0.1259765625
 40
0.126953125
 40
0.12890625
 40
0.130859375
 40
0.1328125
 40
0.13671875
 40
0.140625
 40
0.1484375
 40
0.15625
 40
0.1640625
 40
0.171875
 40
0.17578125
 40
0.1796875
 40
0.181640625
 40
0.18359375
 40
0.185546875
 40
0.1865234375
 40
0.1870117188
 40
0.1875
 40
0.1879882812
 40
0.1884765625
 40
0.189453125
 40
0.19140625
 40
0.193359375
 40
0.1953125
 40
0.19921875
 40
0.203125
 40
0.2109375
 40
0.21875
 40
0.2265625
 40
0.234375
 40
0.23828125
 40
0.2421875
 40
0.24609375
 40
0.248046875
 40
0.2490234375
 40
0.25
 40
0.2509765625
 40
0.251953125
 40
0.25390625
 40
0.2578125
 40
0.26171875
 40
0.265625
 40
0.2734375
 40
0.28125
 40
0.2890625
 40
0.296875
 40
0.30078125
 40
0.3046875
 40
0.30859375
 40
0.310546875
 40
0.3115234375
 40
0.3125
 40
0.3134765625
 40
0.314453125
 40
0.31640625
 40
0.3203125
 40
0.32421875
 40
0.328125
 40
0.3359375
 40
0.34375
 40
0.3515625
 40
0.359375
 40
0.3671875
 40
0.37109375
 40
0.373046875
 40
0.375
 40
0.376953125
 40
0.37890625
 40
0.3828125
 40
0.390625
 40
0.3984375
 40
0.40625
 40
0.4140625
 40
0.421875
 40
0.4296875
 40
0.43359375
 40
0.435546875
 40
0.4375
 40
0.439453125
 40
0.44140625
 40
0.4453125
 40
0.453125
 40
0.4609375
 40
0.46875
 40
0.4765625
 40
0.484375
 40
0.48828125
 40
0.4921875
 40
0.49609375
 40
0.498046875
 40
0.4990234375
 40
0.5
 40
0.5009765625
 40
0.501953125
 40
0.50390625
 40
0.5078125
 40
0.51171875
 40
0.515625
 40
0.5234375
 40
0.53125
 40
0.5390625
 40
0.546875
 40
0.55078125
 40
0.5546875
 40
0.55859375
 40
0.560546875
 40
0.5615234375
 40
0.5625
 40
0.5634765625
 40
0.564453125
 40
0.56640625
 40
0.5703125
 40
0.57421875
 40
0.578125
 40
0.5859375
 40
0.59375
 40
0.6015625
 40
0.609375
 40
0.61328125
 40
0.6171875
 40
0.619140625
 40
0.62109375
 40
0.623046875
 40
0.6240234375
 40
0.6245117188
 40
0.625
 40
0.6254882812
 40
0.6259765625
 40
0.626953125
 40
0.62890625
 40
0.630859375
 40
0.6328125
 40
0.63671875
 40
0.640625
 40
0.6484375
 40
0.65625
 40
0.6640625
 40
0.671875
 40
0.67578125
 40
0.6796875
 40
0.681640625
 40
0.68359375
 40
0.685546875
 40
0.6865234375
 40
0.6870117188
 40
0.6875
 40
0.6879882812
 40
0.6884765625
 40
0.689453125
 40
0.69140625
 40
0.693359375
 40
0.6953125
 40
0.69921875
 40
0.703125
 40
0.7109375
 40
0.71875
 40
0.7265625
 40
0.734375
 40
0.73828125
 40
0.7421875
 40
0.744140625
 40
0.74609375
 40
0.748046875
 40
0.7490234375
 40
0.7495117188
 40
0.75
 40
0.7504882812
 40
0.7509765625
 40
0.751953125
 40
0.75390625
 40
0.755859375
 40
0.7578125
 40
0.76171875
 40
0.765625
 40
0.7734375
 40
0.78125
 40
0.7890625
 40
0.796875
 40
0.80078125
 40
0.8046875
 40
0.806640625
 40
0.80859375
 40
0.810546875
 40
0.8115234375
 40
0.8120117188
 40
0.8125
 40
0.8129882812
 40
0.8134765625
 40
0.814453125
 40
0.81640625
 40
0.818359375
 40
0.8203125
 40
0.82421875
 40
0.828125
 40
0.8359375
 40
0.84375
 40
0.8515625
 40
0.859375
 40
0.86328125
 40
0.8671875
 40
0.869140625
 40
0.87109375
 40
0.873046875
 40
0.8740234375
 40
0.8745117188
 40
0.875
 40
0.8754882812
 40
0.8759765625
 40
0.876953125
 40
0.87890625
 40
0.880859375
 40
0.8828125
 40
0.88671875
 40
0.890625
 40
0.8984375
 40
0.90625
 40
0.9140625
 40
0.921875
 40
0.92578125
 40
0.9296875
 40
0.931640625
 40
0.93359375
 40
0.935546875
 40
0.9365234375
 40
0.9370117188
 40
0.9375
 40
0.9379882812
 40
0.9384765625
 40
0.939453125
 40
0.94140625
 40
0.943359375
 40
0.9453125
 40
0.94921875
 40
0.953125
 40
0.9609375
 40
0.96875
 40
0.9765625
 40
0.984375
 40
1.0
 40
1.0
 40
1.0
 40
1.0
 10
13.1000338804
 20
9.2816032931
 30
0.0
 10
13.0990544239
 20
9.2802987971
 30
0.0
 10
13.0975852391
 20
9.2783420533
 30
0.0
 10
13.095626326
 20
9.2757330604
 30
0.0
 10
13.0941571411
 20
9.2737763185
 30
0.0
 10
13.0926879567
 20
9.2718195663
 30
0.0
 10
13.0914636346
 20
9.2701889716
 30
0.0
 10
13.0904841809
 20
9.2688844238
 30
0.0
 10
13.0898720132
 20
9.2680692455
 30
0.0
 10
13.0893823001
 20
9.2674167272
 30
0.0
 10
13.0890149577
 20
9.2669283668
 30
0.0
 10
13.088709022
 20
9.2665181286
 30
0.0
 10
13.088494508
 20
9.2662373815
 30
0.0
 10
13.0883724891
 20
9.2660669309
 30
0.0
 10
13.0882793959
 20
9.2659673297
 30
0.0
 10
13.0881923385
 20
9.2657597936
 30
0.0
 10
13.0880741567
 20
9.2655207277
 30
0.0
 10
13.0878683194
 20
9.2650848211
 30
0.0
 10
13.0875737533
 20
9.2644712682
 30
0.0
 10
13.0872204934
 20
9.2637310793
 30
0.0
 10
13.0867494036
 20
9.2627455318
 30
0.0
 10
13.0861605677
 20
9.261513128
 30
0.0
 10
13.0852184154
 20
9.2595415444
 30
0.0
 10
13.0840407302
 20
9.2570769742
 30
0.0
 10
13.0826275055
 20
9.2541195312
 30
0.0
 10
13.0812142825
 20
9.2511620686
 30
0.0
 10
13.0800365929
 20
9.2486975474
 30
0.0
 10
13.0790944493
 20
9.2467258659
 30
0.0
 10
13.0785055915
 20
9.2454937106
 30
0.0
 10
13.0780345465
 20
9.2445076531
 30
0.0
 10
13.0776811499
 20
9.2437690225
 30
0.0
 10
13.0773870116
 20
9.2431505941
 30
0.0
 10
13.0771804105
 20
9.2427233911
 30
0.0
 10
13.0770634525
 20
9.2424703798
 30
0.0
 10
13.076972636
 20
9.2423056795
 30
0.0
 10
13.0768936613
 20
9.2420451944
 30
0.0
 10
13.0767842312
 20
9.2417312917
 30
0.0
 10
13.076594653
 20
9.2411663954
 30
0.0
 10
13.0763228209
 20
9.240367539
 30
0.0
 10
13.075997053
 20
9.2394054279
 30
0.0
 10
13.0755625453
 20
9.2381238298
 30
0.0
 10
13.0750194623
 20
9.2365214156
 30
0.0
 10
13.0741505006
 20
9.2339577857
 30
0.0
 10
13.0730643085
 20
9.230753168
 30
0.0
 10
13.0717608733
 20
9.2269076633
 30
0.0
 10
13.0704574407
 20
9.2230621408
 30
0.0
 10
13.0693712421
 20
9.2198575675
 30
0.0
 10
13.0685022934
 20
9.2172938487
 30
0.0
 10
13.0679591774
 20
9.2156916604
 30
0.0
 10
13.0675247374
 20
9.2144095986
 30
0.0
 10
13.0671987628
 20
9.2134489043
 30
0.0
 10
13.0669275774
 20
9.2126456151
 30
0.0
 10
13.0667368447
 20
9.2120886321
 30
0.0
 10
13.0666292643
 20
9.2117620503
 30
0.0
 10
13.066544608
 20
9.2115405114
 30
0.0
 10
13.066475131
 20
9.2112295357
 30
0.0
 10
13.0663772003
 20
9.2108460979
 30
0.0
 10
13.0662082886
 20
9.2101605468
 30
0.0
 10
13.0659656964
 20
9.2091887871
 30
0.0
 10
13.0656751377
 20
9.2080194228
 30
0.0
 10
13.0652875334
 20
9.2064614066
 30
0.0
 10
13.064803094
 20
9.2045134972
 30
0.0
 10
13.0640279539
 20
9.20139706
 30
0.0
 10
13.0630590429
 20
9.1975014358
 30
0.0
 10
13.0618963376
 20
9.1928267331
 30
0.0
 10
13.0607336581
 20
9.1881519692
 30
0.0
 10
13.0597646824
 20
9.1842564983
 30
0.0
 10
13.0589896717
 20
9.1811397544
 30
0.0
 10
13.0584079498
 20
9.1788031988
 30
0.0
 10
13.057924657
 20
9.176852881
 30
0.0
 10
13.0575834565
 20
9.175493915
 30
0.0
 10
13.057393006
 20
9.1747075941
 30
0.0
 10
13.0572374317
 20
9.1741453724
 30
0.0
 10
13.0571305426
 20
9.1734779595
 30
0.0
 10
13.0569710418
 20
9.1726247674
 30
0.0
 10
13.0566998277
 20
9.1711145858
 30
0.0
 10
13.0563082424
 20
9.1689661213
 30
0.0
 10
13.0558401106
 20
9.1663841382
 30
0.0
 10
13.0552153162
 20
9.1629428308
 30
0.0
 10
13.054434537
 20
9.1586407355
 30
0.0
 10
13.0534975039
 20
9.1534784287
 30
0.0
 10
13.0525605211
 20
9.1483160294
 30
0.0
 10
13.051779616
 20
9.1440141653
 30
0.0
 10
13.0511550733
 20
9.1405723954
 30
0.0
 10
13.050686174
 20
9.1379918225
 30
0.0
 10
13.0502969899
 20
9.1358389463
 30
0.0
 10
13.0500214892
 20
9.1343366403
 30
0.0
 10
13.0498688565
 20
9.1334708297
 30
0.0
 10
13.049740871
 20
9.1328421768
 30
0.0
 10
13.0496645313
 20
9.1321343786
 30
0.0
 10
13.0495447303
 20
9.1312182545
 30
0.0
 10
13.0493434719
 20
9.1296021747
 30
0.0
 10
13.0490515718
 20
9.127300214
 30
0.0
 10
13.0487031704
 20
9.1245349824
 30
0.0
 10
13.0482379765
 20
9.120849014
 30
0.0
 10
13.0476567272
 20
9.1162411979
 30
0.0
 10
13.0469590492
 20
9.1107120149
 30
0.0
 10
13.0462616978
 20
9.1051826155
 30
0.0
 10
13.045563219
 20
9.0996538852
 30
0.0
 10
13.044984639
 20
9.0950445603
 30
0.0
 10
13.0445728064
 20
9.0918220443
 30
0.0
 10
13.0443481306
 20
9.0899743447
 30
0.0
 10
13.0441496028
 20
9.0886062096
 30
0.0
 10
13.0440658302
 20
9.0871706469
 30
0.0
 10
13.0439141054
 20
9.0852800829
 30
0.0
 10
13.0436672375
 20
9.0819606374
 30
0.0
 10
13.043304812
 20
9.0772243031
 30
0.0
 10
13.0428741057
 20
9.0715382423
 30
0.0
 10
13.0424421937
 20
9.0658528513
 30
0.0
 10
13.0420109005
 20
9.0601672406
 30
0.0
 10
13.0415783375
 20
9.0544818387
 30
0.0
 10
13.0412215854
 20
9.0497434911
 30
0.0
 10
13.0409646085
 20
9.046427633
 30
0.0
 10
13.0408290788
 20
9.0445313218
 30
0.0
 10
13.0406955603
 20
9.0431134123
 30
0.0
 10
13.0406838697
 20
9.0416789747
 30
0.0
 10
13.0406257873
 20
9.0397721564
 30
0.0
 10
13.0405439425
 20
9.0364325384
 30
0.0
 10
13.0404166679
 20
9.0316630593
 30
0.0
 10
13.0402683793
 20
9.0259390854
 30
0.0
 10
13.0401188927
 20
9.0202152617
 30
0.0
 10
13.039969757
 20
9.0144914358
 30
0.0
 10
13.0398453059
 20
9.0097214632
 30
0.0
 10
13.0397459809
 20
9.0059057688
 30
0.0
 10
13.0396708823
 20
9.0030432174
 30
0.0
 10
13.039610218
 20
9.0006602417
 30
0.0
 10
13.03956399
 20
8.9989872843
 30
0.0
 10
13.0395434494
 20
8.9980389196
 30
0.0
 10
13.039511493
 20
8.997306206
 30
0.0
 10
13.0395428027
 20
8.9966554471
 30
0.0
 10
13.0395624811
 20
8.9957591818
 30
0.0
 10
13.0396072
 20
8.9942040367
 30
0.0
 10
13.0396657087
 20
8.9919754374
 30
0.0
 10
13.0397382201
 20
8.9893040989
 30
0.0
 10
13.039834098
 20
8.9857412726
 30
0.0
 10
13.039954223
 20
8.9812881001
 30
0.0
 10
13.0400982463
 20
8.9759441257
 30
0.0
 10
13.040242332
 20
8.9706002446
 30
0.0
 10
13.0403623012
 20
8.966146839
 30
0.0
 10
13.0404584906
 20
8.962584479
 30
0.0
 10
13.0405300516
 20
8.9599117183
 30
0.0
 10
13.0405915336
 20
8.957687568
 30
0.0
 10
13.0406309449
 20
8.9561244808
 30
0.0
 10
13.0406591274
 20
8.9552409408
 30
0.0
 10
13.040664315
 20
8.9545510939
 30
0.0
 10
13.0407304689
 20
8.9539651882
 30
0.0
 10
13.0407974085
 20
8.9531477247
 30
0.0
 10
13.0409244608
 20
8.951734056
 30
0.0
 10
13.041100784
 20
8.9497056977
 30
0.0
 10
13.0413145891
 20
8.9472754479
 30
0.0
 10
13.041598888
 20
8.9440337944
 30
0.0
 10
13.0419545276
 20
8.939982181
 30
0.0
 10
13.0423811804
 20
8.9351200487
 30
0.0
 10
13.0428078666
 20
8.9302579755
 30
0.0
 10
13.0431634228
 20
8.9262062145
 30
0.0
 10
13.0434478885
 20
8.9229648562
 30
0.0
 10
13.0436256357
 20
8.9209388977
 30
0.0
 10
13.0437679335
 20
8.9193183812
 30
0.0
 10
13.0438743831
 20
8.9181023085
 30
0.0
 10
13.0439639618
 20
8.917091095
 30
0.0
 10
13.0440249581
 20
8.9163789664
 30
0.0
 10
13.0440624813
 20
8.9159787172
 30
0.0
 10
13.0440831076
 20
8.9156597088
 30
0.0
 10
13.0441324641
 20
8.9154126458
 30
0.0
 10
13.0441882515
 20
8.9150581331
 30
0.0
 10
13.0442905484
 20
8.9144494283
 30
0.0
 10
13.0444342459
 20
8.9135737371
 30
0.0
 10
13.0446077277
 20
8.9125255242
 30
0.0
 10
13.0448386718
 20
8.9111269931
 30
0.0
 10
13.0451274769
 20
8.9093791421
 30
0.0
 10
13.0455894952
 20
8.9065824056
 30
0.0
 10
13.0461670422
 20
8.9030865454
 30
0.0
 10
13.0468600876
 20
8.8988914853
 30
0.0
 10
13.0475531384
 20
8.8946964401
 30
0.0
 10
13.0481306718
 20
8.8912005427
 30
0.0
 10
13.0485927173
 20
8.8884038808
 30
0.0
 10
13.0488814533
 20
8.8866558401
 30
0.0
 10
13.0491125392
 20
8.8852576984
 30
0.0
 10
13.0492855879
 20
8.8842082957
 30
0.0
 10
13.0494306405
 20
8.8833363269
 30
0.0
 10
13.0495305183
 20
8.882720977
 30
0.0
 10
13.0495901817
 20
8.8823771115
 30
0.0
 10
13.0496276322
 20
8.8820973437
 30
0.0
 10
13.0496929759
 20
8.8819011692
 30
0.0
 10
13.0497703713
 20
8.8816104449
 30
0.0
 10
13.0499103465
 20
8.8811152627
 30
0.0
 10
13.050107941
 20
8.880400757
 30
0.0
 10
13.0503460689
 20
8.8795463904
 30
0.0
 10
13.0506632184
 20
8.8784061729
 30
0.0
 10
13.0510597767
 20
8.8769812648
 30
0.0
 10
13.051694202
 20
8.8747012084
 30
0.0
 10
13.0524872571
 20
8.8718512082
 30
0.0
 10
13.0534389127
 20
8.8684311753
 30
0.0
 10
13.0543905729
 20
8.865011161
 30
0.0
 10
13.0551836164
 20
8.8621611142
 30
0.0
 10
13.0558180649
 20
8.859881151
 30
0.0
 10
13.0562145642
 20
8.858456006
 30
0.0
 10
13.0565318347
 20
8.8573162747
 30
0.0
 10
13.0567695932
 20
8.856460423
 30
0.0
 10
13.0569683434
 20
8.8557505636
 30
0.0
 10
13.0571062556
 20
8.8552470871
 30
0.0
 10
13.0571869564
 20
8.8549696524
 30
0.0
 10
13.057242147
 20
8.8547326565
 30
0.0
 10
13.0573177308
 20
8.8546062069
 30
0.0
 10
13.0574113959
 20
8.8543990477
 30
0.0
 10
13.057578624
 20
8.8540544848
 30
0.0
 10
13.0578157886
 20
8.8535528594
 30
0.0
 10
13.0581011278
 20
8.8529549293
 30
0.0
 10
13.0584813209
 20
8.8521562849
 30
0.0
 10
13.0589566511
 20
8.8511584602
 30
0.0
 10
13.0597171298
 20
8.849561672
 30
0.0
 10
13.0606677453
 20
8.8475657795
 30
0.0
 10
13.0618084761
 20
8.845170666
 30
0.0
 10
13.0629492105
 20
8.842775574
 30
0.0
 10
13.0638998169
 20
8.8407796279
 30
0.0
 10
13.0646603137
 20
8.8391829469
 30
0.0
 10
13.0651355979
 20
8.8381848495
 30
0.0
 10
13.0655158854
 20
8.837386765
 30
0.0
 10
13.0658009363
 20
8.8367871244
 30
0.0
 10
13.0660390027
 20
8.8362908507
 30
0.0
 10
13.066204621
 20
8.8359367341
 30
0.0
 10
13.0663008654
 20
8.8357448823
 30
0.0
 10
13.0663685263
 20
8.8355714133
 30
0.0
 10
13.0664534741
 20
8.8355110145
 30
0.0
 10
13.066560708
 20
8.8353910426
 30
0.0
 10
13.0667511767
 20
8.8351994677
 30
0.0
 10
13.0670218061
 20
8.8349161822
 30
0.0
 10
13.06734719
 20
8.8345803518
 30
0.0
 10
13.0677808157
 20
8.8341311415
 30
0.0
 10
13.068322923
 20
8.8335701205
 30
0.0
 10
13.0691902526
 20
8.832672212
 30
0.0
 10
13.0702744291
 20
8.8315499213
 30
0.0
 10
13.0715754344
 20
8.8302031289
 30
0.0
 10
13.0728764425
 20
8.8288563587
 30
0.0
 10
13.0739606119
 20
8.8277340124
 30
0.0
 10
13.0748279556
 20
8.8268362151
 30
0.0
 10
13.0753700272
 20
8.8262749115
 30
0.0
 10
13.075803726
 20
8.8258262813
 30
0.0
 10
13.0761288864
 20
8.8254886787
 30
0.0
 10
13.0764002153
 20
8.8252109377
 30
0.0
 10
13.0765894352
 20
8.8250094649
 30
0.0
 10
13.0766986699
 20
8.824905352
 30
0.0
 10
13.0767774719
 20
8.8247962397
 30
0.0
 10
13.0768682158
 20
8.8248057305
 30
0.0
 10
13.0769850421
 20
8.8247770149
 30
0.0
 10
13.077191429
 20
8.8247460377
 30
0.0
 10
13.0774852528
 20
8.8246917072
 30
0.0
 10
13.0778382757
 20
8.824630824
 30
0.0
 10
13.0783088211
 20
8.8245481399
 30
0.0
 10
13.0788970549
 20
8.8244453006
 30
0.0
 10
13.0798381998
 20
8.8242804693
 30
0.0
 10
13.081014641
 20
8.8240745298
 30
0.0
 10
13.082426366
 20
8.8238273568
 30
0.0
 10
13.083838093
 20
8.8235802069
 30
0.0
 10
13.0850145292
 20
8.8233742096
 30
0.0
 10
13.0859556842
 20
8.823209494
 30
0.0
 10
13.0865438924
 20
8.8231063607
 30
0.0
 10
13.0870144902
 20
8.8230242799
 30
0.0
 10
13.087367353
 20
8.8229615536
 30
0.0
 10
13.0876616777
 20
8.8229129898
 30
0.0
 10
13.0878671703
 20
8.8228717181
 30
0.0
 10
13.0879854296
 20
8.8228594967
 30
0.0
 10
13.0880717721
 20
8.8228183226
 30
0.0
 10
13.0881671048
 20
8.8228994994
 30
0.0
 10
13.0882910791
 20
8.8229650578
 30
0.0
 10
13.0885094952
 20
8.8230996691
 30
0.0
 10
13.0888207544
 20
8.8232815753
 30
0.0
 10
13.0891945924
 20
8.8235043124
 30
0.0
 10
13.0896929289
 20
8.823799741
 30
0.0
 10
13.0903158886
 20
8.8241695589
 30
0.0
 10
13.0913126022
 20
8.8247609701
 30
0.0
 10
13.0925585017
 20
8.8255003363
 30
0.0
 10
13.094053578
 20
8.8263875319
 30
0.0
 10
13.0955486551
 20
8.8272747392
 30
0.0
 10
13.0975420909
 20
8.8284576781
 30
0.0
 10
13.0990371678
 20
8.8293448833
 30
0.0
 10
13.1000338857
 20
8.8299363532
 30
0.0
  0
SPLINE
  5
3C3
100
AcDbEntity
  8
0
100
AcDbSpline
 62
4
  6
CONTINUOUS
 70
0
 71
3
 72
281
 73
277
 74
0
 42
0.0000001
 43
0.0000001
 44
0.0000000001
 40
0.0
 40
0.0
 40
0.0
 40
0.0
 40
0.015625
 40
0.0234375
 40
0.03125
 40
0.0390625
 40
0.046875
 40
0.05078125
 40
0.0546875
 40
0.056640625
 40
0.05859375
 40
0.060546875
 40
0.0615234375
 40
0.0620117188
 40
0.0625
 40
0.0629882812
 40
0.0634765625
 40
0.064453125
 40
0.06640625
 40
0.068359375
 40
0.0703125
 40
0.07421875
 40
0.078125
 40
0.0859375
 40
0.09375
 40
0.1015625
 40
0.109375
 40
0.11328125
 40
0.1171875
 40
0.119140625
 40
0.12109375
 40
0.123046875
 40
0.1240234375
 40
0.1245117188
 40
0.125
 40
0.1254882812
 40
0.1259765625
 40
0.126953125
 40
0.12890625
 40
0.130859375
 40
0.1328125
 40
0.13671875
 40
0.140625
 40
0.1484375
 40
0.15625
 40
0.1640625
 40
0.171875
 40
0.17578125
 40
0.1796875
 40
0.181640625
 40
0.18359375
 40
0.185546875
 40
0.1865234375
 40
0.1870117188
 40
0.1875
 40
0.1879882812
 40
0.1884765625
 40
0.189453125
 40
0.19140625
 40
0.193359375
 40
0.1953125
 40
0.19921875
 40
0.203125
 40
0.2109375
 40
0.21875
 40
0.2265625
 40
0.234375
 40
0.23828125
 40
0.2421875
 40
0.24609375
 40
0.248046875
 40
0.2490234375
 40
0.25
 40
0.2509765625
 40
0.251953125
 40
0.25390625
 40
0.2578125
 40
0.26171875
 40
0.265625
 40
0.2734375
 40
0.28125
 40
0.2890625
 40
0.296875
 40
0.30078125
 40
0.3046875
 40
0.30859375
 40
0.310546875
 40
0.3115234375
 40
0.3125
 40
0.3134765625
 40
0.314453125
 40
0.31640625
 40
0.3203125
 40
0.32421875
 40
0.328125
 40
0.3359375
 40
0.34375
 40
0.3515625
 40
0.359375
 40
0.3671875
 40
0.37109375
 40
0.373046875
 40
0.375
 40
0.376953125
 40
0.37890625
 40
0.3828125
 40
0.390625
 40
0.3984375
 40
0.40625
 40
0.4140625
 40
0.421875
 40
0.4296875
 40
0.43359375
 40
0.435546875
 40
0.4375
 40
0.439453125
 40
0.44140625
 40
0.4453125
 40
0.453125
 40
0.4609375
 40
0.46875
 40
0.4765625
 40
0.484375
 40
0.48828125
 40
0.4921875
 40
0.49609375
 40
0.498046875
 40
0.4990234375
 40
0.5
 40
0.5009765625
 40
0.501953125
 40
0.50390625
 40
0.5078125
 40
0.51171875
 40
0.515625
 40
0.5234375
 40
0.53125
 40
0.5390625
 40
0.546875
 40
0.55078125
 40
0.5546875
 40
0.55859375
 40
0.560546875
 40
0.5615234375
 40
0.5625
 40
0.5634765625
 40
0.564453125
 40
0.56640625
 40
0.5703125
 40
0.57421875
 40
0.578125
 40
0.5859375
 40
0.59375
 40
0.6015625
 40
0.609375
 40
0.61328125
 40
0.6171875
 40
0.619140625
 40
0.62109375
 40
0.623046875
 40
0.6240234375
 40
0.6245117188
 40
0.625
 40
0.6254882812
 40
0.6259765625
 40
0.626953125
 40
0.62890625
 40
0.630859375
 40
0.6328125
 40
0.63671875
 40
0.640625
 40
0.6484375
 40
0.65625
 40
0.6640625
 40
0.671875
 40
0.67578125
 40
0.6796875
 40
0.681640625
 40
0.68359375
 40
0.685546875
 40
0.6865234375
 40
0.6870117188
 40
0.6875
 40
0.6879882812
 40
0.6884765625
 40
0.689453125
 40
0.69140625
 40
0.693359375
 40
0.6953125
 40
0.69921875
 40
0.703125
 40
0.7109375
 40
0.71875
 40
0.7265625
 40
0.734375
 40
0.73828125
 40
0.7421875
 40
0.744140625
 40
0.74609375
 40
0.748046875
 40
0.7490234375
 40
0.7495117188
 40
0.75
 40
0.7504882812
 40
0.7509765625
 40
0.751953125
 40
0.75390625
 40
0.755859375
 40
0.7578125
 40
0.76171875
 40
0.765625
 40
0.7734375
 40
0.78125
 40
0.7890625
 40
0.796875
 40
0.80078125
 40
0.8046875
 40
0.806640625
 40
0.80859375
 40
0.810546875
 40
0.8115234375
 40
0.8120117188
 40
0.8125
 40
0.8129882812
 40
0.8134765625
 40
0.814453125
 40
0.81640625
 40
0.818359375
 40
0.8203125
 40
0.82421875
 40
0.828125
 40
0.8359375
 40
0.84375
 40
0.8515625
 40
0.859375
 40
0.86328125
 40
0.8671875
 40
0.869140625
 40
0.87109375
 40
0.873046875
 40
0.8740234375
 40
0.8745117188
 40
0.875
 40
0.8754882812
 40
0.8759765625
 40
0.876953125
 40
0.87890625
 40
0.880859375
 40
0.8828125
 40
0.88671875
 40
0.890625
 40
0.8984375
 40
0.90625
 40
0.9140625
 40
0.921875
 40
0.92578125
 40
0.9296875
 40
0.931640625
 40
0.93359375
 40
0.935546875
 40
0.9365234375
 40
0.9370117188
 40
0.9375
 40
0.9379882812
 40
0.9384765625
 40
0.939453125
 40
0.94140625
 40
0.943359375
 40
0.9453125
 40
0.94921875
 40
0.953125
 40
0.9609375
 40
0.96875
 40
0.9765625
 40
0.984375
 40
1.0
 40
1.0
 40
1.0
 40
1.0
 10
13.1000338804
 20
8.8299363481
 30
0.0
 10
13.101013337
 20
8.8312408441
 30
0.0
 10
13.1024825218
 20
8.8331975879
 30
0.0
 10
13.1044414349
 20
8.8358065807
 30
0.0
 10
13.1059106198
 20
8.8377633226
 30
0.0
 10
13.1073798042
 20
8.8397200748
 30
0.0
 10
13.1086041263
 20
8.8413506695
 30
0.0
 10
13.10958358
 20
8.8426552173
 30
0.0
 10
13.1101957477
 20
8.8434703957
 30
0.0
 10
13.1106854608
 20
8.844122914
 30
0.0
 10
13.1110528032
 20
8.8446112744
 30
0.0
 10
13.1113587389
 20
8.8450215125
 30
0.0
 10
13.1115732529
 20
8.8453022597
 30
0.0
 10
13.1116952718
 20
8.8454727102
 30
0.0
 10
13.111788365
 20
8.8455723115
 30
0.0
 10
13.1118754224
 20
8.8457798476
 30
0.0
 10
13.1119936042
 20
8.8460189134
 30
0.0
 10
13.1121994415
 20
8.84645482
 30
0.0
 10
13.1124940076
 20
8.847068373
 30
0.0
 10
13.1128472675
 20
8.8478085619
 30
0.0
 10
13.1133183572
 20
8.8487941094
 30
0.0
 10
13.1139071932
 20
8.8500265132
 30
0.0
 10
13.1148493455
 20
8.8519980968
 30
0.0
 10
13.1160270307
 20
8.8544626669
 30
0.0
 10
13.1174402554
 20
8.85742011
 30
0.0
 10
13.1188534784
 20
8.8603775726
 30
0.0
 10
13.1200311679
 20
8.8628420938
 30
0.0
 10
13.1209733116
 20
8.8648137752
 30
0.0
 10
13.1215621694
 20
8.8660459305
 30
0.0
 10
13.1220332144
 20
8.8670319881
 30
0.0
 10
13.122386611
 20
8.8677706187
 30
0.0
 10
13.1226807493
 20
8.8683890471
 30
0.0
 10
13.1228873504
 20
8.8688162501
 30
0.0
 10
13.1230043084
 20
8.8690692614
 30
0.0
 10
13.1230951249
 20
8.8692339617
 30
0.0
 10
13.1231740996
 20
8.8694944468
 30
0.0
 10
13.1232835297
 20
8.8698083494
 30
0.0
 10
13.1234731079
 20
8.8703732458
 30
0.0
 10
13.12374494
 20
8.8711721021
 30
0.0
 10
13.1240707079
 20
8.8721342132
 30
0.0
 10
13.1245052156
 20
8.8734158113
 30
0.0
 10
13.1250482986
 20
8.8750182256
 30
0.0
 10
13.1259172603
 20
8.8775818554
 30
0.0
 10
13.1270034524
 20
8.8807864732
 30
0.0
 10
13.1283068876
 20
8.8846319779
 30
0.0
 10
13.1296103202
 20
8.8884775003
 30
0.0
 10
13.1306965188
 20
8.8916820736
 30
0.0
 10
13.1315654675
 20
8.8942457924
 30
0.0
 10
13.1321085835
 20
8.8958479807
 30
0.0
 10
13.1325430234
 20
8.8971300426
 30
0.0
 10
13.132868998
 20
8.8980907369
 30
0.0
 10
13.1331401835
 20
8.898894026
 30
0.0
 10
13.1333309161
 20
8.8994510091
 30
0.0
 10
13.1334384966
 20
8.8997775908
 30
0.0
 10
13.1335231529
 20
8.8999991297
 30
0.0
 10
13.1335926299
 20
8.9003101055
 30
0.0
 10
13.1336905605
 20
8.9006935432
 30
0.0
 10
13.1338594723
 20
8.9013790944
 30
0.0
 10
13.1341020645
 20
8.902350854
 30
0.0
 10
13.1343926232
 20
8.9035202183
 30
0.0
 10
13.1347802275
 20
8.9050782346
 30
0.0
 10
13.1352646669
 20
8.907026144
 30
0.0
 10
13.136039807
 20
8.9101425812
 30
0.0
 10
13.137008718
 20
8.9140382054
 30
0.0
 10
13.1381714233
 20
8.918712908
 30
0.0
 10
13.1393341028
 20
8.923387672
 30
0.0
 10
13.1403030785
 20
8.9272831428
 30
0.0
 10
13.1410780892
 20
8.9303998868
 30
0.0
 10
13.1416598111
 20
8.9327364424
 30
0.0
 10
13.1421431039
 20
8.9346867602
 30
0.0
 10
13.1424843044
 20
8.9360457262
 30
0.0
 10
13.1426747549
 20
8.936832047
 30
0.0
 10
13.1428303292
 20
8.9373942687
 30
0.0
 10
13.1429372183
 20
8.9380616817
 30
0.0
 10
13.1430967191
 20
8.9389148738
 30
0.0
 10
13.1433679332
 20
8.9404250553
 30
0.0
 10
13.1437595185
 20
8.9425735198
 30
0.0
 10
13.1442276503
 20
8.9451555029
 30
0.0
 10
13.1448524447
 20
8.9485968104
 30
0.0
 10
13.1456332239
 20
8.9528989057
 30
0.0
 10
13.146570257
 20
8.9580612125
 30
0.0
 10
13.1475072398
 20
8.9632236118
 30
0.0
 10
13.1482881449
 20
8.9675254759
 30
0.0
 10
13.1489126876
 20
8.9709672457
 30
0.0
 10
13.1493815869
 20
8.9735478186
 30
0.0
 10
13.149770771
 20
8.9757006948
 30
0.0
 10
13.1500462716
 20
8.9772030008
 30
0.0
 10
13.1501989044
 20
8.9780688115
 30
0.0
 10
13.1503268899
 20
8.9786974643
 30
0.0
 10
13.1504032296
 20
8.9794052625
 30
0.0
 10
13.1505230306
 20
8.9803213867
 30
0.0
 10
13.1507242889
 20
8.9819374665
 30
0.0
 10
13.1510161891
 20
8.9842394272
 30
0.0
 10
13.1513645905
 20
8.9870046588
 30
0.0
 10
13.1518297844
 20
8.9906906272
 30
0.0
 10
13.1524110337
 20
8.9952984433
 30
0.0
 10
13.1531087117
 20
9.0008276263
 30
0.0
 10
13.1538060631
 20
9.0063570256
 30
0.0
 10
13.1545045418
 20
9.011885756
 30
0.0
 10
13.1550831218
 20
9.0164950809
 30
0.0
 10
13.1554949545
 20
9.0197175968
 30
0.0
 10
13.1557196303
 20
9.0215652965
 30
0.0
 10
13.1559181581
 20
9.0229334315
 30
0.0
 10
13.1560019307
 20
9.0243689942
 30
0.0
 10
13.1561536555
 20
9.0262595583
 30
0.0
 10
13.1564005234
 20
9.0295790038
 30
0.0
 10
13.1567629489
 20
9.034315338
 30
0.0
 10
13.1571936551
 20
9.0400013989
 30
0.0
 10
13.1576255672
 20
9.0456867899
 30
0.0
 10
13.1580568604
 20
9.0513724005
 30
0.0
 10
13.1584894234
 20
9.0570578025
 30
0.0
 10
13.1588461755
 20
9.0617961501
 30
0.0
 10
13.1591031524
 20
9.0651120082
 30
0.0
 10
13.1592386821
 20
9.0670083194
 30
0.0
 10
13.1593722006
 20
9.0684262289
 30
0.0
 10
13.1593838912
 20
9.0698606665
 30
0.0
 10
13.1594419736
 20
9.0717674847
 30
0.0
 10
13.1595238184
 20
9.0751071028
 30
0.0
 10
13.159651093
 20
9.0798765818
 30
0.0
 10
13.1597993816
 20
9.0856005558
 30
0.0
 10
13.1599488682
 20
9.0913243794
 30
0.0
 10
13.1600980039
 20
9.0970482053
 30
0.0
 10
13.160222455
 20
9.101818178
 30
0.0
 10
13.16032178
 20
9.1056338724
 30
0.0
 10
13.1603968786
 20
9.1084964237
 30
0.0
 10
13.1604575429
 20
9.1108793995
 30
0.0
 10
13.1605037709
 20
9.1125523568
 30
0.0
 10
13.1605243115
 20
9.1135007216
 30
0.0
 10
13.1605562679
 20
9.1142334352
 30
0.0
 10
13.1605249582
 20
9.1148841941
 30
0.0
 10
13.1605052798
 20
9.1157804594
 30
0.0
 10
13.1604605609
 20
9.1173356045
 30
0.0
 10
13.1604020522
 20
9.1195642038
 30
0.0
 10
13.1603295408
 20
9.1222355423
 30
0.0
 10
13.1602336629
 20
9.1257983686
 30
0.0
 10
13.1601135379
 20
9.130251541
 30
0.0
 10
13.1599695146
 20
9.1355955154
 30
0.0
 10
13.1598254289
 20
9.1409393966
 30
0.0
 10
13.1597054597
 20
9.1453928022
 30
0.0
 10
13.1596092703
 20
9.1489551622
 30
0.0
 10
13.1595377092
 20
9.1516279228
 30
0.0
 10
13.1594762273
 20
9.1538520731
 30
0.0
 10
13.159436816
 20
9.1554151604
 30
0.0
 10
13.1594086335
 20
9.1562987004
 30
0.0
 10
13.1594034459
 20
9.1569885473
 30
0.0
 10
13.1593372919
 20
9.157574453
 30
0.0
 10
13.1592703524
 20
9.1583919164
 30
0.0
 10
13.1591433001
 20
9.1598055852
 30
0.0
 10
13.1589669769
 20
9.1618339435
 30
0.0
 10
13.1587531718
 20
9.1642641933
 30
0.0
 10
13.1584688729
 20
9.1675058468
 30
0.0
 10
13.1581132333
 20
9.1715574602
 30
0.0
 10
13.1576865805
 20
9.1764195924
 30
0.0
 10
13.1572598943
 20
9.1812816656
 30
0.0
 10
13.156904338
 20
9.1853334267
 30
0.0
 10
13.1566198724
 20
9.188574785
 30
0.0
 10
13.1564421252
 20
9.1906007435
 30
0.0
 10
13.1562998274
 20
9.1922212599
 30
0.0
 10
13.1561933778
 20
9.1934373327
 30
0.0
 10
13.1561037991
 20
9.1944485462
 30
0.0
 10
13.1560428027
 20
9.1951606747
 30
0.0
 10
13.1560052796
 20
9.1955609239
 30
0.0
 10
13.1559846533
 20
9.1958799324
 30
0.0
 10
13.1559352967
 20
9.1961269953
 30
0.0
 10
13.1558795094
 20
9.196481508
 30
0.0
 10
13.1557772125
 20
9.1970902128
 30
0.0
 10
13.155633515
 20
9.197965904
 30
0.0
 10
13.1554600332
 20
9.1990141169
 30
0.0
 10
13.1552290891
 20
9.2004126481
 30
0.0
 10
13.154940284
 20
9.202160499
 30
0.0
 10
13.1544782657
 20
9.2049572356
 30
0.0
 10
13.1539007187
 20
9.2084530957
 30
0.0
 10
13.1532076733
 20
9.2126481558
 30
0.0
 10
13.1525146225
 20
9.216843201
 30
0.0
 10
13.151937089
 20
9.2203390985
 30
0.0
 10
13.1514750436
 20
9.2231357604
 30
0.0
 10
13.1511863075
 20
9.2248838011
 30
0.0
 10
13.1509552217
 20
9.2262819428
 30
0.0
 10
13.150782173
 20
9.2273313454
 30
0.0
 10
13.1506371204
 20
9.2282033142
 30
0.0
 10
13.1505372426
 20
9.2288186642
 30
0.0
 10
13.1504775792
 20
9.2291625297
 30
0.0
 10
13.1504401287
 20
9.2294422975
 30
0.0
 10
13.150374785
 20
9.229638472
 30
0.0
 10
13.1502973896
 20
9.2299291963
 30
0.0
 10
13.1501574144
 20
9.2304243785
 30
0.0
 10
13.1499598199
 20
9.2311388841
 30
0.0
 10
13.149721692
 20
9.2319932508
 30
0.0
 10
13.1494045424
 20
9.2331334682
 30
0.0
 10
13.1490079842
 20
9.2345583764
 30
0.0
 10
13.1483735589
 20
9.2368384328
 30
0.0
 10
13.1475805038
 20
9.2396884329
 30
0.0
 10
13.1466288482
 20
9.2431084659
 30
0.0
 10
13.145677188
 20
9.2465284802
 30
0.0
 10
13.1448841445
 20
9.2493785269
 30
0.0
 10
13.144249696
 20
9.2516584901
 30
0.0
 10
13.1438531966
 20
9.2530836351
 30
0.0
 10
13.1435359262
 20
9.2542233665
 30
0.0
 10
13.1432981677
 20
9.2550792182
 30
0.0
 10
13.1430994175
 20
9.2557890776
 30
0.0
 10
13.1429615053
 20
9.2562925541
 30
0.0
 10
13.1428808045
 20
9.2565699888
 30
0.0
 10
13.1428256139
 20
9.2568069847
 30
0.0
 10
13.14275003
 20
9.2569334343
 30
0.0
 10
13.142656365
 20
9.2571405935
 30
0.0
 10
13.1424891369
 20
9.2574851564
 30
0.0
 10
13.1422519723
 20
9.2579867818
 30
0.0
 10
13.1419666331
 20
9.2585847119
 30
0.0
 10
13.1415864399
 20
9.2593833563
 30
0.0
 10
13.1411111098
 20
9.2603811809
 30
0.0
 10
13.1403506311
 20
9.2619779692
 30
0.0
 10
13.1394000156
 20
9.2639738617
 30
0.0
 10
13.1382592848
 20
9.2663689752
 30
0.0
 10
13.1371185504
 20
9.2687640672
 30
0.0
 10
13.136167944
 20
9.2707600133
 30
0.0
 10
13.1354074472
 20
9.2723566943
 30
0.0
 10
13.134932163
 20
9.2733547917
 30
0.0
 10
13.1345518755
 20
9.2741528762
 30
0.0
 10
13.1342668246
 20
9.2747525168
 30
0.0
 10
13.1340287582
 20
9.2752487905
 30
0.0
 10
13.1338631399
 20
9.2756029071
 30
0.0
 10
13.1337668955
 20
9.2757947589
 30
0.0
 10
13.1336992346
 20
9.2759682279
 30
0.0
 10
13.1336142868
 20
9.2760286267
 30
0.0
 10
13.1335070529
 20
9.2761485985
 30
0.0
 10
13.1333165842
 20
9.2763401734
 30
0.0
 10
13.1330459548
 20
9.2766234589
 30
0.0
 10
13.1327205708
 20
9.2769592894
 30
0.0
 10
13.1322869452
 20
9.2774084996
 30
0.0
 10
13.1317448379
 20
9.2779695206
 30
0.0
 10
13.1308775083
 20
9.2788674292
 30
0.0
 10
13.1297933318
 20
9.2799897199
 30
0.0
 10
13.1284923265
 20
9.2813365123
 30
0.0
 10
13.1271913184
 20
9.2826832824
 30
0.0
 10
13.126107149
 20
9.2838056287
 30
0.0
 10
13.1252398053
 20
9.2847034261
 30
0.0
 10
13.1246977337
 20
9.2852647297
 30
0.0
 10
13.1242640349
 20
9.2857133599
 30
0.0
 10
13.1239388745
 20
9.2860509625
 30
0.0
 10
13.1236675456
 20
9.2863287035
 30
0.0
 10
13.1234783256
 20
9.2865301762
 30
0.0
 10
13.1233690909
 20
9.2866342892
 30
0.0
 10
13.123290289
 20
9.2867434015
 30
0.0
 10
13.1231995451
 20
9.2867339106
 30
0.0
 10
13.1230827188
 20
9.2867626262
 30
0.0
 10
13.1228763319
 20
9.2867936035
 30
0.0
 10
13.1225825081
 20
9.286847934
 30
0.0
 10
13.1222294852
 20
9.2869088171
 30
0.0
 10
13.1217589398
 20
9.2869915013
 30
0.0
 10
13.121170706
 20
9.2870943406
 30
0.0
 10
13.1202295611
 20
9.2872591719
 30
0.0
 10
13.1190531198
 20
9.2874651113
 30
0.0
 10
13.1176413949
 20
9.2877122844
 30
0.0
 10
13.1162296679
 20
9.2879594342
 30
0.0
 10
13.1150532317
 20
9.2881654315
 30
0.0
 10
13.1141120767
 20
9.2883301472
 30
0.0
 10
13.1135238685
 20
9.2884332804
 30
0.0
 10
13.1130532707
 20
9.2885153613
 30
0.0
 10
13.1127004079
 20
9.2885780875
 30
0.0
 10
13.1124060832
 20
9.2886266514
 30
0.0
 10
13.1122005905
 20
9.288667923
 30
0.0
 10
13.1120823313
 20
9.2886801444
 30
0.0
 10
13.1119959888
 20
9.2887213185
 30
0.0
 10
13.1119006561
 20
9.2886401417
 30
0.0
 10
13.1117766818
 20
9.2885745834
 30
0.0
 10
13.1115582656
 20
9.2884399721
 30
0.0
 10
13.1112470064
 20
9.2882580659
 30
0.0
 10
13.1108731684
 20
9.2880353288
 30
0.0
 10
13.110374832
 20
9.2877399002
 30
0.0
 10
13.1097518723
 20
9.2873700823
 30
0.0
 10
13.1087551587
 20
9.286778671
 30
0.0
 10
13.1075092591
 20
9.2860393049
 30
0.0
 10
13.1060141829
 20
9.2851521093
 30
0.0
 10
13.1045191058
 20
9.284264902
 30
0.0
 10
13.10252567
 20
9.283081963
 30
0.0
 10
13.1010305931
 20
9.2821947579
 30
0.0
 10
13.1000338752
 20
9.281603288
 30
0.0
  0
ENDSEC
  0
SECTION
  2
OBJECTS
  0
DICTIONARY
  5
C
100
AcDbDictionary
280
0
281
1
  3
ACAD_GROUP
350
D
  3
ACAD_MLINESTYLE
350
17
  3
ACAD_LAYOUT
350
1A
  3
ACAD_PLOTSETTINGS
350
19
  3
ACAD_PLOTSTYLENAME
350
E
  3
ACAD_IMAGE_DICT
350
       3C5
  3
ACAD_IMAGE_VARS
350
       3C6
  3
ACAD_TABLESTYLE
350
       3C7
  0
IMAGEDEF_REACTOR
  5
3C4
100
AcDbRasterImageDefReactor
 90
2
330
28A
  0
DICTIONARY
  5
D
102
{ACAD_REACTORS
330
C
102
}
100
AcDbDictionary
280
0
281
1
  0
ACDBDICTIONARYWDFLT
  5
E
102
{ACAD_REACTORS
330
C
102
}
100
AcDbDictionary
281
1
  3
Normal
350
F
100
AcDbDictionaryWithDefault
340
F
  0
DICTIONARY
  5
3C5
330
C
100
AcDbDictionary
281
1
  3
YVR_assy_2_img_1
350
       3CA
  0
RASTERVARIABLES
  5
3C6
330
C
100
AcDbRasterVariables
 90
0
 70
0
 71
1
 72
5
  0
DICTIONARY
  5
17
102
{ACAD_REACTORS
330
C
102
}
100
AcDbDictionary
280
0
281
1
  3
Standard
350
18
  0
DICTIONARY
  5
3C7
330
C
100
AcDbDictionary
281
1
  3
Standard
350
       3CB
  3
Standard1
350
       3CC
  0
DICTIONARY
  5
19
102
{ACAD_REACTORS
330
C
102
}
100
AcDbDictionary
281
1
  0
DICTIONARY
  5
1A
102
{ACAD_REACTORS
330
C
102
}
100
AcDbDictionary
281
1
  3
Model
350
3C8
  3
Layout1
350
3C9
  0
ACDBPLACEHOLDER
  5
F
102
{ACAD_REACTORS
330
E
102
}
  0
MLINESTYLE
  5
18
102
{ACAD_REACTORS
330
17
102
}
100
AcDbMlineStyle
  2
STANDARD
 70
0
  3

 62
256
 51
90.0
 52
90.0
 71
2
 49
0.5
 62
256
  6
BYLAYER
 49
-0.5
 62
256
  6
BYLAYER
  0
LAYOUT
  5
3C8
102
{ACAD_REACTORS
330
1A
102
}
100
AcDbPlotSettings
  1

  2
none_device
  4
ANSI_C_(22.00_x_17.00_Inches)
  6

 40
0.0
 41
0.0
 42
0.0
 43
0.0
 44
558.8
 45
431.8
 46
0.0
 47
0.0
 48
0.0
 49
0.0
140
0.0
141
0.0
142
1.0
143
1.0
 70
1024
 72
0
 73
0
 74
0
  7

 75
0
147
1.0
148
0.0
149
0.0
100
AcDbLayout
  1
Model
 70
0
 71
0
 10
0.0
 20
0.0
 11
22.0
 21
17.0
 12
0.0
 22
0.0
 32
0.0
 14
0.0
 24
0.0
 34
0.0
 15
0.0
 25
0.0
 35
0.0
146
0.0
 13
0.0
 23
0.0
 33
0.0
 16
1.0
 26
0.0
 36
0.0
 17
0.0
 27
1.0
 37
0.0
 76
0
330
207
345
0
346
0
  0
LAYOUT
  5
3C9
102
{ACAD_REACTORS
330
1A
102
}
100
AcDbPlotSettings
  1

  2
none_device
  4
ANSI_C_(22.00_x_17.00_Inches)
  6

 40
0.0
 41
0.0
 42
0.0
 43
0.0
 44
558.8
 45
431.8
 46
0.0
 47
0.0
 48
0.0
 49
0.0
140
0.0
141
0.0
142
1.0
143
1.0
 70
0
 72
0
 73
0
 74
0
  7

 75
0
147
1.0
148
0.0
149
0.0
100
AcDbLayout
  1
Layout1
 70
0
 71
1
 10
0.0
 20
0.0
 11
22.0
 21
17.0
 12
0.0
 22
0.0
 32
0.0
 14
0.0
 24
0.0
 34
0.0
 15
0.0
 25
0.0
 35
0.0
146
0.0
 13
0.0
 23
0.0
 33
0.0
 16
1.0
 26
0.0
 36
0.0
 17
0.0
 27
1.0
 37
0.0
 76
0
330
208
345
0
346
0
  0
IMAGEDEF
  5
3CA
102
{ACAD_REACTORS
330
3C5
330
3C4
102
}
100
AcDbRasterImageDef
 90
0
  1
YVR_assy_2_img_1.png
 10
369.0
 20
92.0
 11
0.0066666667
 21
0.0066666667
280
1
281
0
  0
TABLESTYLE
  5
3CB
102
{ACAD_REACTORS
330
3C7
330
28D
330
28E
102
}
330
3C7
100
AcDbTableStyle
  3
Standard
 70
0
 71
0
 40
0.06
 41
0.06
280
1
281
1
  7
Standard
140
0.18
170
1
 62
0
 63
7
283
0
  7
Standard
140
0.18
170
1
 62
0
 63
7
283
0
  7
Standard
140
0.18
170
1
 62
0
 63
7
283
0
  0
TABLESTYLE
  5
3CC
102
{ACAD_REACTORS
330
3C7
330
28C
102
}
330
3C7
100
AcDbTableStyle
  3
Standard1
 70
1
 71
0
 40
0.06
 41
0.06
280
1
281
1
  7
Standard
140
0.18
170
1
 62
0
 63
7
283
0
  7
Standard
140
0.18
170
1
 62
0
 63
7
283
0
  7
Standard
140
0.18
170
1
 62
0
 63
7
283
0
  0
ENDSEC
  0
EOF
