999
DXF file: YVQ_assy_2.dxf
999
Pro/ENGINEER 2014200 by Parametric Technology Corporation
  0
SECTION
  2
HEADER
  9
$ACADVER
  1
AC1021
  9
$DWGCODEPAGE
  3
ANSI_1252
  9
$EXTMAX
 10
22.0
 20
17.0
 30
0.0
  9
$EXTMIN
 10
0.0
 20
0.0
 30
0.0
  9
$LIMMIN
 10
0.0
 20
0.0
  9
$LIMMAX
 10
22.0
 20
17.0
  9
$VIEWCTR
 10
11.0
 20
8.5
  9
$VIEWSIZE
 40
17.0
  9
$CLAYER
  8
0
  9
$LTSCALE
 40
1.21
  9
$CELTYPE
  6
BYLAYER
  9
$DIMSCALE
 40
1.0
  9
$DIMASZ
 40
0.1875
  9
$DIMEXO
 40
0.0625
  9
$DIMDLI
 40
0.836
  9
$DIMEXE
 40
0.125
  9
$DIMCEN
 40
0.198
  9
$DIMLFAC
 40
1.0
  9
$DIMBLK
  1
_FILLED
  9
$DIMTXT
 40
0.1
  9
$DIMTOL
 70
0
  9
$DIMLIM
 70
0
  9
$DIMTFAC
 40
1.0
  9
$DIMGAP
 40
0.09
  9
$DIMDSEP
 70
46
  9
$AUNITS
 70
0
  9
$PDMODE
 70
3
  9
$PDSIZE
 40
0.3125
  9
$HANDSEED
  5
3CA
  9
$TILEMODE
 70
1
  9
$MEASUREMENT
 70
0
  9
$INSUNITS
 70
1
  0
ENDSEC
  0
SECTION
  2
CLASSES
  0
CLASS
  1
ACDBDICTIONARYWDFLT
  2
AcDbDictionaryWithDefault
  3
AutoCAD 2000
 90
0
 91
1
280
0
281
0
  0
CLASS
  1
ACDBPLACEHOLDER
  2
AcDbPlaceHolder
  3
AutoCAD 2000
 90
0
 91
1
280
0
281
0
  0
CLASS
  1
LAYOUT
  2
AcDbLayout
  3
AutoCAD 2000
 90
0
 91
0
280
0
281
0
  0
CLASS
  1
RASTERVARIABLES
  2
AcDbRasterVariables
  3
ISM
 90
0
 91
1
280
0
281
0
  0
CLASS
  1
IMAGEDEF
  2
AcDbRasterImageDef
  3
ISM
 90
0
 91
1
280
0
281
0
  0
CLASS
  1
IMAGEDEF_REACTOR
  2
AcDbRasterImageDefReactor
  3
ISM
 90
0
 91
1
280
0
281
0
  0
CLASS
  1
IMAGE
  2
AcDbRasterImage
  3
ISM
 90
127
 91
1
280
0
281
1
  0
CLASS
  1
TABLESTYLE
  2
AcDbTableStyle
  3
ObjectDBX Classes
 90
2047
 91
1
280
0
281
0
  0
CLASS
  1
ACAD_TABLE
  2
AcDbTable
  3
ObjectDBX Classes
 90
1025
 91
3
280
0
281
1
  0
ENDSEC
  0
SECTION
  2
TABLES
  0
TABLE
  2
VPORT
  5
8
100
AcDbSymbolTable
 70
2
  0
VPORT
  5
1F4
100
AcDbSymbolTableRecord
100
AcDbViewportTableRecord
  2
*ACTIVE
 70
0
 10
0.0
 20
0.0
 11
1.0
 21
1.0
 12
11.0
 22
8.5
 13
0.0
 23
0.0
 14
1.0
 24
1.0
 15
0.0
 25
0.0
 16
0.0
 26
0.0
 36
1.0
 17
0.0
 27
0.0
 37
0.0
 40
17.0
 41
1.2941176471
 42
50.0
 43
0.0
 44
0.0
 50
0.0
 51
0.0
 71
0
 72
100
 73
1
 74
1
 75
0
 76
0
 77
0
 78
0
  0
ENDTAB
  0
TABLE
  2
LTYPE
  5
5
100
AcDbSymbolTable
 70
6
  0
LTYPE
  5
14
100
AcDbSymbolTableRecord
100
AcDbLinetypeTableRecord
  2
BYBLOCK
 70
0
  3

 72
65
 73
0
 40
0.0
  0
LTYPE
  5
15
100
AcDbSymbolTableRecord
100
AcDbLinetypeTableRecord
  2
BYLAYER
 70
0
  3

 72
65
 73
0
 40
0.0
  0
LTYPE
  5
16
100
AcDbSymbolTableRecord
100
AcDbLinetypeTableRecord
  2
CONTINUOUS
 70
64
  3
Solid line
 72
65
 73
0
 40
0.0
  0
LTYPE
  5
1F5
100
AcDbSymbolTableRecord
100
AcDbLinetypeTableRecord
  2
CENTER
 70
64
  3
____ _ ____ _ ____ _ ____ _ ____ _ ____ _ ____
 72
65
 73
4
 40
0.6
 49
0.375
 74
0
 49
-0.075
 74
0
 49
0.075
 74
0
 49
-0.075
 74
0
  0
LTYPE
  5
1F6
100
AcDbSymbolTableRecord
100
AcDbLinetypeTableRecord
  2
HIDDEN
 70
64
  3
- - - - - - - - - - - - - - - - - - - -
 72
65
 73
2
 40
0.2
 49
0.1
 74
0
 49
-0.1
 74
0
  0
LTYPE
  5
1F7
100
AcDbSymbolTableRecord
100
AcDbLinetypeTableRecord
  2
PHANTOM
 70
64
  3
_____ _ _ _____ _ _ _____ _ _ _____
 72
65
 73
6
 40
0.8
 49
0.45
 74
0
 49
-0.05
 74
0
 49
0.1
 74
0
 49
-0.05
 74
0
 49
0.1
 74
0
 49
-0.05
 74
0
  0
LTYPE
  5
1F8
100
AcDbSymbolTableRecord
100
AcDbLinetypeTableRecord
  2
DOT
 70
64
  3
. . . . . . . . . . . . . . . . . . . .
 72
65
 73
2
 40
0.2
 49
0.1
 74
0
 49
-0.1
 74
0
  0
LTYPE
  5
1F9
100
AcDbSymbolTableRecord
100
AcDbLinetypeTableRecord
  2
DASHED
 70
64
  3
- - - - - - - - - - - - - - - - - - - -
 72
65
 73
2
 40
0.2
 49
0.1
 74
0
 49
-0.1
 74
0
  0
ENDTAB
  0
TABLE
  2
LAYER
  5
2
100
AcDbSymbolTable
 70
36
  0
LAYER
  5
10
100
AcDbSymbolTableRecord
100
AcDbLayerTableRecord
  2
0
 70
0
 62
7
  6
CONTINUOUS
370
-3
390
F
  0
LAYER
  5
1FA
100
AcDbSymbolTableRecord
100
AcDbLayerTableRecord
  2
DEFAULT_1
 70
0
 62
7
  6
CENTER
370
-3
390
F
  0
LAYER
  5
1FB
100
AcDbSymbolTableRecord
100
AcDbLayerTableRecord
  2
DEFAULT_2
 70
0
 62
8
  6
HIDDEN
370
-3
390
F
  0
LAYER
  5
1FC
100
AcDbSymbolTableRecord
100
AcDbLayerTableRecord
  2
DEFAULT_3
 70
0
 62
7
  6
PHANTOM
370
-3
390
F
  0
LAYER
  5
1FD
100
AcDbSymbolTableRecord
100
AcDbLayerTableRecord
  2
DATUM_PLANES
 70
0
 62
7
  6
CONTINUOUS
370
-3
390
F
  0
LAYER
  5
1FE
100
AcDbSymbolTableRecord
100
AcDbLayerTableRecord
  2
DIMENSIONS
 70
0
 62
7
  6
CONTINUOUS
370
-3
390
F
  0
LAYER
  5
1FF
100
AcDbSymbolTableRecord
100
AcDbLayerTableRecord
  2
DTM_500001
 70
0
 62
7
  6
CONTINUOUS
370
-3
390
F
  0
LAYER
  5
200
100
AcDbSymbolTableRecord
100
AcDbLayerTableRecord
  2
PARAMETERDIMENSIONS
 70
0
 62
7
  6
CONTINUOUS
370
-3
390
F
  0
LAYER
  5
201
100
AcDbSymbolTableRecord
100
AcDbLayerTableRecord
  2
PORT_AREAS
 70
0
 62
7
  6
CONTINUOUS
370
-3
390
F
  0
LAYER
  5
202
100
AcDbSymbolTableRecord
100
AcDbLayerTableRecord
  2
SUNNBOMCOSMETIC
 70
0
 62
7
  6
CONTINUOUS
370
-3
390
F
  0
LAYER
  5
203
100
AcDbSymbolTableRecord
100
AcDbLayerTableRecord
  2
SUNNBOMSTAMPING
 70
0
 62
7
  6
CONTINUOUS
370
-3
390
F
  0
LAYER
  5
204
100
AcDbSymbolTableRecord
100
AcDbLayerTableRecord
  2
THREADS
 70
0
 62
7
  6
CONTINUOUS
370
-3
390
F
  0
ENDTAB
  0
TABLE
  2
STYLE
  5
3
100
AcDbSymbolTable
 70
1
  0
STYLE
  5
11
100
AcDbSymbolTableRecord
100
AcDbTextStyleTableRecord
  2
STANDARD
 70
0
 40
0.0
 41
0.8
 50
0.0
 71
0
 42
0.2
  3
txt
  4

  0
STYLE
  5
205
100
AcDbSymbolTableRecord
100
AcDbTextStyleTableRecord
  2
TEXTSTYLE_1
 70
0
 40
0.0
 41
0.8
 50
0.0
 71
0
 42
0.2
  3
gdt
  4

  0
ENDTAB
  0
TABLE
  2
VIEW
  5
6
100
AcDbSymbolTable
 70
0
  0
ENDTAB
  0
TABLE
  2
UCS
  5
7
100
AcDbSymbolTable
 70
0
  0
ENDTAB
  0
TABLE
  2
APPID
  5
9
100
AcDbSymbolTable
 70
1
  0
APPID
  5
206
100
AcDbSymbolTableRecord
100
AcDbRegAppTableRecord
  2
ACAD
 70
0
  0
ENDTAB
  0
TABLE
  2
BLOCK_RECORD
  5
1
100
AcDbSymbolTable
 70
0
  0
BLOCK_RECORD
  5
207
100
AcDbSymbolTableRecord
100
AcDbBlockTableRecord
  2
*Model_Space
  0
BLOCK_RECORD
  5
208
100
AcDbSymbolTableRecord
100
AcDbBlockTableRecord
  2
*Paper_Space
  0
BLOCK_RECORD
  5
209
100
AcDbSymbolTableRecord
100
AcDbBlockTableRecord
  2
SUN_FIRST_THIRD_ANGLE_BL0
  0
BLOCK_RECORD
  5
20A
100
AcDbSymbolTableRecord
100
AcDbBlockTableRecord
  2
*T1
  0
BLOCK_RECORD
  5
20B
100
AcDbSymbolTableRecord
100
AcDbBlockTableRecord
  2
*T2
  0
BLOCK_RECORD
  5
20C
100
AcDbSymbolTableRecord
100
AcDbBlockTableRecord
  2
*T3
  0
ENDTAB
  0
TABLE
  2
DIMSTYLE
  5
A
100
AcDbSymbolTable
 70
1
100
AcDbDimStyleTable
 71
0
  0
DIMSTYLE
105
20D
100
AcDbSymbolTableRecord
100
AcDbDimStyleTableRecord
  2
STANDARD
 70
0
  3

  4

 40
1.0
 41
0.1875
 42
0.0625
 43
0.38
 44
0.125
 45
0.0
 46
0.0
 47
0.001
 48
0.001
140
0.1
141
0.09
142
0.0
143
25.4
144
1.0
145
0.0
146
1.0
147
0.09
 71
0.0
 72
0.0
 73
1
 74
1
 75
0
 76
0
 77
0
 78
4
170
0
171
2
172
0
173
0
174
0
175
0
176
0
177
0
178
0
270
2
271
3
272
3
273
2
274
2
275
0
280
0
281
0
282
0
283
1
284
4
285
0
286
0
287
3
288
0
340
11
278
46
  0
ENDTAB
  0
ENDSEC
  0
SECTION
  2
BLOCKS
  0
BLOCK
  5
20
100
AcDbEntity
  8
0
100
AcDbBlockBegin
  2
*Model_Space
 70
0
 10
0.0
 20
0.0
 30
0.0
  3
*Model_Space
  1

  0
ENDBLK
  5
21
100
AcDbEntity
  8
0
100
AcDbBlockEnd
  0
BLOCK
  5
1C
100
AcDbEntity
  8
0
100
AcDbBlockBegin
  2
*Paper_Space
 70
0
 10
0.0
 20
0.0
 30
0.0
  3
*Paper_Space
  1

  0
ENDBLK
  5
1D
100
AcDbEntity
  8
0
100
AcDbBlockEnd
  0
BLOCK
  5
20E
100
AcDbEntity
  8
0
100
AcDbBlockBegin
 62
2
  6
CONTINUOUS
  2
SUN_FIRST_THIRD_ANGLE_BL0
 70
64
 10
20.4816717061
 20
1.2289683772
  3
SUN_FIRST_THIRD_ANGLE_BL0
  1

  0
TEXT
  5
20F
100
AcDbEntity
  8
0
100
AcDbText
 62
2
  6
CONTINUOUS
 10
19.4750896608
 20
1.4136269581
  7
STANDARD
 40
0.08
  1
FIRST ANGLE
 41
0.8
 72
0
100
AcDbText
  0
TEXT
  5
210
100
AcDbEntity
  8
0
100
AcDbText
 62
2
  6
CONTINUOUS
 10
20.7842537513
 20
1.4047600029
  7
STANDARD
 40
0.08
  1
THIRD ANGLE
 41
0.8
 72
0
100
AcDbText
  0
LINE
  5
211
100
AcDbEntity
  8
0
100
AcDbLine
 62
7
  6
CONTINUOUS
 10
19.4767170086
 20
1.1727031207
 11
19.6334271527
 21
1.1717972817
  0
LINE
  5
212
100
AcDbEntity
  8
0
100
AcDbLine
 62
7
  6
CONTINUOUS
 10
19.6596964832
 20
1.1717972817
 11
19.6950230232
 21
1.171593082
  0
LINE
  5
213
100
AcDbEntity
  8
0
100
AcDbLine
 62
7
  6
CONTINUOUS
 10
19.7194818561
 20
1.1708914427
 11
19.8852396156
 21
1.1699333054
  0
LINE
  5
214
100
AcDbEntity
  8
0
100
AcDbLine
 62
7
  6
CONTINUOUS
 10
19.4758111696
 20
1.2723454088
 11
19.88525039
 21
1.3511534004
  0
LINE
  5
215
100
AcDbEntity
  8
0
100
AcDbLine
 62
7
  6
CONTINUOUS
 10
19.88525039
 20
1.3511534004
 11
19.8831348489
 21
0.9851647912
  0
LINE
  5
216
100
AcDbEntity
  8
0
100
AcDbLine
 62
7
  6
CONTINUOUS
 10
19.8831348489
 20
0.9851647912
 11
19.4767170086
 21
1.0658141206
  0
LINE
  5
217
100
AcDbEntity
  8
0
100
AcDbLine
 62
7
  6
CONTINUOUS
 10
19.4767170086
 20
1.0658141206
 11
19.4779056764
 21
1.2714536432
  0
CIRCLE
  5
218
100
AcDbEntity
  8
0
100
AcDbCircle
 62
7
  6
CONTINUOUS
 10
20.2068232291
 20
1.1717972817
 40
0.175742101
  0
CIRCLE
  5
219
100
AcDbEntity
  8
0
100
AcDbCircle
 62
7
  6
CONTINUOUS
 10
20.2068232291
 20
1.1717972817
 40
0.1005522074
  0
LINE
  5
21A
100
AcDbEntity
  8
0
100
AcDbLine
 62
7
  6
CONTINUOUS
 10
20.2077290681
 20
1.3756110529
 11
20.2071171714
 21
1.2379342989
  0
LINE
  5
21B
100
AcDbEntity
  8
0
100
AcDbLine
 62
7
  6
CONTINUOUS
 10
20.2077290681
 20
1.2016899681
 11
20.2074674401
 21
1.1428236749
  0
LINE
  5
21C
100
AcDbEntity
  8
0
100
AcDbLine
 62
7
  6
CONTINUOUS
 10
20.208634907
 20
1.101141841
 11
20.2080230104
 21
0.963465087
  0
LINE
  5
21D
100
AcDbEntity
  8
0
100
AcDbLine
 62
7
  6
CONTINUOUS
 10
20.0066328138
 20
1.1745147986
 11
20.1443095678
 21
1.1739029019
  0
LINE
  5
21E
100
AcDbEntity
  8
0
100
AcDbLine
 62
7
  6
CONTINUOUS
 10
20.1832714155
 20
1.1727031207
 11
20.238153505
 21
1.172335442
  0
LINE
  5
21F
100
AcDbEntity
  8
0
100
AcDbLine
 62
7
  6
CONTINUOUS
 10
20.2756669918
 20
1.1717972817
 11
20.407916871
 21
1.1712095044
  0
CIRCLE
  5
220
100
AcDbEntity
  8
0
100
AcDbCircle
 62
7
  6
CONTINUOUS
 10
20.7509457401
 20
1.1693297793
 40
0.1722024983
  0
CIRCLE
  5
221
100
AcDbEntity
  8
0
100
AcDbCircle
 62
7
  6
CONTINUOUS
 10
20.7509457401
 20
1.1693297793
 40
0.0985164967
  0
LINE
  5
222
100
AcDbEntity
  8
0
100
AcDbLine
 62
7
  6
CONTINUOUS
 10
20.7169767782
 20
1.170462078
 11
20.7825395137
 21
1.1682766535
  0
LINE
  5
223
100
AcDbEntity
  8
0
100
AcDbLine
 62
7
  6
CONTINUOUS
 10
20.8177513651
 20
1.1693297793
 11
20.947965719
 21
1.1693297793
  0
LINE
  5
224
100
AcDbEntity
  8
0
100
AcDbLine
 62
7
  6
CONTINUOUS
 10
20.6875370113
 20
1.170462078
 11
20.5573226574
 21
1.170462078
  0
LINE
  5
225
100
AcDbEntity
  8
0
100
AcDbLine
 62
7
  6
CONTINUOUS
 10
20.7486811426
 20
1.1987695462
 11
20.7486811426
 21
1.1432869085
  0
LINE
  5
226
100
AcDbEntity
  8
0
100
AcDbLine
 62
7
  6
CONTINUOUS
 10
20.7498134414
 20
1.1059210505
 11
20.7498134414
 21
0.9757066966
  0
LINE
  5
227
100
AcDbEntity
  8
0
100
AcDbLine
 62
7
  6
CONTINUOUS
 10
20.7486811426
 20
1.2338708068
 11
20.7486811426
 21
1.3640851607
  0
LINE
  5
228
100
AcDbEntity
  8
0
100
AcDbLine
 62
7
  6
CONTINUOUS
 10
21.0702539817
 20
1.2701043662
 11
21.4790138229
 21
1.3448360823
  0
LINE
  5
229
100
AcDbEntity
  8
0
100
AcDbLine
 62
7
  6
CONTINUOUS
 10
21.4790138229
 20
1.3448360823
 11
21.4790138229
 21
0.9779712941
  0
LINE
  5
22A
100
AcDbEntity
  8
0
100
AcDbLine
 62
7
  6
CONTINUOUS
 10
21.4790138229
 20
0.9779712941
 11
21.069121683
 21
1.0617614
  0
LINE
  5
22B
100
AcDbEntity
  8
0
100
AcDbLine
 62
7
  6
CONTINUOUS
 10
21.0702539817
 20
1.2701043662
 11
21.069121683
 21
1.0617614
  0
LINE
  5
22C
100
AcDbEntity
  8
0
100
AcDbLine
 62
7
  6
CONTINUOUS
 10
21.4790138229
 20
1.1693297793
 11
21.3159628059
 21
1.1693297793
  0
LINE
  5
22D
100
AcDbEntity
  8
0
100
AcDbLine
 62
7
  6
CONTINUOUS
 10
21.2876553377
 20
1.1693297793
 11
21.2502894796
 21
1.1693297793
  0
LINE
  5
22E
100
AcDbEntity
  8
0
100
AcDbLine
 62
7
  6
CONTINUOUS
 10
21.2208497126
 20
1.1659328831
 11
21.0713862804
 21
1.1659328831
  0
LINE
  5
22F
100
AcDbEntity
  8
0
100
AcDbLine
 62
7
  6
CONTINUOUS
 10
20.4796138713
 20
1.5284908897
 11
20.4766766948
 21
0.9294458646
  0
ENDBLK
  5
230
100
AcDbEntity
  8
0
  6
BYBLOCK
 62
0
100
AcDbBlockEnd
  0
BLOCK
  5
231
100
AcDbEntity
  8
0
100
AcDbBlockBegin
  2
*T1
 70
1
 10
0.0
 20
0.0
  3
*T1
  1

  0
LINE
  5
232
100
AcDbEntity
  8
0
100
AcDbLine
 62
2
  6
CONTINUOUS
 10
9.275
 20
0.0
 11
-0.0
 21
0.0
  0
LINE
  5
233
100
AcDbEntity
  8
0
100
AcDbLine
 62
2
  6
CONTINUOUS
 10
9.275
 20
0.0
 11
9.275
 21
1.25
  0
LINE
  5
234
100
AcDbEntity
  8
0
100
AcDbLine
 62
2
  6
CONTINUOUS
 10
9.275
 20
0.625
 11
-0.0
 21
0.625
  0
LINE
  5
235
100
AcDbEntity
  8
0
100
AcDbLine
 62
2
  6
CONTINUOUS
 10
9.275
 20
1.25
 11
-0.0
 21
1.25
  0
LINE
  5
236
100
AcDbEntity
  8
0
100
AcDbLine
 62
2
  6
CONTINUOUS
 10
6.8
 20
0.0
 11
6.8
 21
1.25
  0
LINE
  5
237
100
AcDbEntity
  8
0
100
AcDbLine
 62
2
  6
CONTINUOUS
 10
6.4
 20
0.0
 11
6.4
 21
0.625
  0
LINE
  5
238
100
AcDbEntity
  8
0
100
AcDbLine
 62
2
  6
CONTINUOUS
 10
5.9
 20
0.0
 11
5.9
 21
0.625
  0
LINE
  5
239
100
AcDbEntity
  8
0
100
AcDbLine
 62
2
  6
CONTINUOUS
 10
5.2
 20
0.0
 11
5.2
 21
0.625
  0
LINE
  5
23A
100
AcDbEntity
  8
0
100
AcDbLine
 62
2
  6
CONTINUOUS
 10
4.1
 20
0.0
 11
4.1
 21
1.25
  0
LINE
  5
23B
100
AcDbEntity
  8
0
100
AcDbLine
 62
2
  6
CONTINUOUS
 10
-0.0
 20
0.0
 11
-0.0
 21
1.25
  0
MTEXT
  5
23C
100
AcDbEntity
  8
0
100
AcDbMText
 62
2
  6
CONTINUOUS
  7
STANDARD
 71
2
 72
1
 10
6.6
 20
0.325
 30
0.0
 11
1.0
 21
0.0
 31
0.0
 44
0.9
  1
2
 40
0.125
 41
0.2
  0
MTEXT
  5
23D
100
AcDbEntity
  8
0
100
AcDbMText
 62
2
  6
CONTINUOUS
  7
STANDARD
 71
2
 72
1
 10
6.15
 20
0.325
 30
0.0
 11
1.0
 21
0.0
 31
0.0
 44
0.9
  1
C
 40
0.125
 41
0.2
  0
MTEXT
  5
23E
100
AcDbEntity
  8
0
100
AcDbMText
 62
2
  6
CONTINUOUS
  7
STANDARD
 71
2
 72
1
 10
5.55
 20
0.325
 30
0.0
 11
1.0
 21
0.0
 31
0.0
 44
0.9
  1
1.000
 40
0.125
 41
1.0
  0
MTEXT
  5
23F
100
AcDbEntity
  8
0
100
AcDbMText
 62
2
  6
CONTINUOUS
  7
STANDARD
 71
2
 72
1
 10
4.65
 20
0.325
 30
0.0
 11
1.0
 21
0.0
 31
0.0
 44
0.9
  1
Jul-09-19
 40
0.125
 41
1.8
  0
MTEXT
  5
240
100
AcDbEntity
  8
0
100
AcDbMText
 62
2
  6
CONTINUOUS
  7
STANDARD
 71
2
 72
1
 10
2.05
 20
0.4625
 30
0.0
 11
1.0
 21
0.0
 31
0.0
 44
0.9
  1
T-17A Gasket mount Sun\PDirect mount, cross pilot
 40
0.125
 41
5.0
  0
MTEXT
  5
241
100
AcDbEntity
  8
0
100
AcDbMText
 62
2
  6
CONTINUOUS
  7
STANDARD
 71
1
 72
1
 10
6.45
 20
0.5625
 30
0.0
 11
1.0
 21
0.0
 31
0.0
 44
0.9
  1
SHEET
 40
0.06
 41
0.48
  0
MTEXT
  5
242
100
AcDbEntity
  8
0
100
AcDbMText
 62
2
  6
CONTINUOUS
  7
STANDARD
 71
1
 72
1
 10
5.95
 20
0.5625
 30
0.0
 11
1.0
 21
0.0
 31
0.0
 44
0.9
  1
DWG SIZE
 40
0.06
 41
0.768
  0
MTEXT
  5
243
100
AcDbEntity
  8
0
100
AcDbMText
 62
2
  6
CONTINUOUS
  7
STANDARD
 71
1
 72
1
 10
5.25
 20
0.5625
 30
0.0
 11
1.0
 21
0.0
 31
0.0
 44
0.9
  1
SCALE
 40
0.06
 41
0.48
  0
MTEXT
  5
244
100
AcDbEntity
  8
0
100
AcDbMText
 62
2
  6
CONTINUOUS
  7
STANDARD
 71
1
 72
1
 10
4.15
 20
0.5625
 30
0.0
 11
1.0
 21
0.0
 31
0.0
 44
0.9
  1
DATE
 40
0.06
 41
0.384
  0
MTEXT
  5
245
100
AcDbEntity
  8
0
100
AcDbMText
 62
2
  6
CONTINUOUS
  7
STANDARD
 71
1
 72
1
 10
0.05
 20
0.5625
 30
0.0
 11
1.0
 21
0.0
 31
0.0
 44
0.9
  1
DESCRIPTION
 40
0.06
 41
1.056
  0
MTEXT
  5
246
100
AcDbEntity
  8
0
100
AcDbMText
 62
2
  6
CONTINUOUS
  7
STANDARD
 71
2
 72
1
 10
5.45
 20
1.0375
 30
0.0
 11
1.0
 21
0.0
 31
0.0
 44
0.9
  1
ALL DIMENSIONS IN INCH\PVIEWS ARE THIRD ANGLE
 40
0.12
 41
4.224
  0
MTEXT
  5
247
100
AcDbEntity
  8
0
100
AcDbMText
 62
2
  6
CONTINUOUS
  7
STANDARD
 71
2
 72
1
 10
2.05
 20
0.95
 30
0.0
 11
1.0
 21
0.0
 31
0.0
 44
0.9
  1
YVQ
 40
0.125
 41
0.6
  0
MTEXT
  5
248
100
AcDbEntity
  8
0
100
AcDbMText
 62
2
  6
CONTINUOUS
  7
STANDARD
 71
1
 72
1
 10
0.05
 20
1.1875
 30
0.0
 11
1.0
 21
0.0
 31
0.0
 44
0.9
  1
MODEL
 40
0.06
 41
0.48
  0
ENDBLK
  5
249
100
AcDbEntity
  8
0
  6
BYBLOCK
 62
0
100
AcDbBlockEnd
  0
BLOCK
  5
24A
100
AcDbEntity
  8
0
100
AcDbBlockBegin
  2
*T2
 70
1
 10
0.0
 20
0.0
  3
*T2
  1

  0
LINE
  5
24B
100
AcDbEntity
  8
0
100
AcDbLine
 62
2
  6
CONTINUOUS
 10
0.0
 20
0.0
 11
9.055
 21
0.0
  0
LINE
  5
24C
100
AcDbEntity
  8
0
100
AcDbLine
 62
2
  6
CONTINUOUS
 10
0.0
 20
0.0
 11
0.0
 21
-3.094
  0
LINE
  5
24D
100
AcDbEntity
  8
0
100
AcDbLine
 62
2
  6
CONTINUOUS
 10
0.0
 20
-0.344
 11
9.055
 21
-0.344
  0
LINE
  5
24E
100
AcDbEntity
  8
0
100
AcDbLine
 62
2
  6
CONTINUOUS
 10
0.0
 20
-0.594
 11
9.055
 21
-0.594
  0
LINE
  5
24F
100
AcDbEntity
  8
0
100
AcDbLine
 62
2
  6
CONTINUOUS
 10
0.0
 20
-0.844
 11
9.055
 21
-0.844
  0
LINE
  5
250
100
AcDbEntity
  8
0
100
AcDbLine
 62
2
  6
CONTINUOUS
 10
0.0
 20
-1.094
 11
9.055
 21
-1.094
  0
LINE
  5
251
100
AcDbEntity
  8
0
100
AcDbLine
 62
2
  6
CONTINUOUS
 10
0.0
 20
-1.344
 11
9.055
 21
-1.344
  0
LINE
  5
252
100
AcDbEntity
  8
0
100
AcDbLine
 62
2
  6
CONTINUOUS
 10
0.0
 20
-1.594
 11
9.055
 21
-1.594
  0
LINE
  5
253
100
AcDbEntity
  8
0
100
AcDbLine
 62
2
  6
CONTINUOUS
 10
0.0
 20
-1.844
 11
9.055
 21
-1.844
  0
LINE
  5
254
100
AcDbEntity
  8
0
100
AcDbLine
 62
2
  6
CONTINUOUS
 10
0.0
 20
-2.094
 11
9.055
 21
-2.094
  0
LINE
  5
255
100
AcDbEntity
  8
0
100
AcDbLine
 62
2
  6
CONTINUOUS
 10
0.0
 20
-2.344
 11
9.055
 21
-2.344
  0
LINE
  5
256
100
AcDbEntity
  8
0
100
AcDbLine
 62
2
  6
CONTINUOUS
 10
0.0
 20
-2.594
 11
9.055
 21
-2.594
  0
LINE
  5
257
100
AcDbEntity
  8
0
100
AcDbLine
 62
2
  6
CONTINUOUS
 10
0.0
 20
-2.844
 11
9.055
 21
-2.844
  0
LINE
  5
258
100
AcDbEntity
  8
0
100
AcDbLine
 62
2
  6
CONTINUOUS
 10
0.0
 20
-3.094
 11
9.055
 21
-3.094
  0
LINE
  5
259
100
AcDbEntity
  8
0
100
AcDbLine
 62
2
  6
CONTINUOUS
 10
3.055
 20
0.0
 11
3.055
 21
-3.094
  0
LINE
  5
25A
100
AcDbEntity
  8
0
100
AcDbLine
 62
2
  6
CONTINUOUS
 10
9.055
 20
0.0
 11
9.055
 21
-3.094
  0
MTEXT
  5
25B
100
AcDbEntity
  8
0
100
AcDbMText
 62
2
  6
CONTINUOUS
  7
STANDARD
 71
2
 72
1
 10
1.5275
 20
-0.0995
 30
0.0
 11
1.0
 21
0.0
 31
0.0
 44
0.9
  1
Technical Data
 40
0.145
 41
3.248
  0
MTEXT
  5
25C
100
AcDbEntity
  8
0
100
AcDbMText
 62
2
  6
CONTINUOUS
  7
STANDARD
 71
2
 72
1
 10
4.555
 20
-0.0995
 30
0.0
 11
1.0
 21
0.0
 31
0.0
 44
0.9
  1
U.S. Units
 40
0.145
 41
2.32
  0
MTEXT
  5
25D
100
AcDbEntity
  8
0
100
AcDbMText
 62
2
  6
CONTINUOUS
  7
STANDARD
 71
2
 72
1
 10
7.555
 20
-0.0995
 30
0.0
 11
1.0
 21
0.0
 31
0.0
 44
0.9
  1
Metric Units
 40
0.145
 41
2.784
  0
MTEXT
  5
25E
100
AcDbEntity
  8
0
100
AcDbMText
 62
2
  6
CONTINUOUS
  7
STANDARD
 71
2
 72
1
 10
1.5275
 20
-0.4065
 30
0.0
 11
1.0
 21
0.0
 31
0.0
 44
0.9
  1
Cavity
 40
0.125
 41
1.2
  0
MTEXT
  5
25F
100
AcDbEntity
  8
0
100
AcDbMText
 62
2
  6
CONTINUOUS
  7
STANDARD
 71
2
 72
1
 10
6.055
 20
-0.4065
 30
0.0
 11
1.0
 21
0.0
 31
0.0
 44
0.9
  1
T-17A
 40
0.125
 41
1.0
  0
MTEXT
  5
260
100
AcDbEntity
  8
0
100
AcDbMText
 62
2
  6
CONTINUOUS
  7
STANDARD
 71
2
 72
1
 10
1.5275
 20
-0.6565
 30
0.0
 11
1.0
 21
0.0
 31
0.0
 44
0.9
  1
Body Features
 40
0.125
 41
2.6
  0
MTEXT
  5
261
100
AcDbEntity
  8
0
100
AcDbMText
 62
2
  6
CONTINUOUS
  7
STANDARD
 71
2
 72
1
 10
6.055
 20
-0.6565
 30
0.0
 11
1.0
 21
0.0
 31
0.0
 44
0.9
  1
Direct mount, cross pilot
 40
0.125
 41
5.0
  0
MTEXT
  5
262
100
AcDbEntity
  8
0
100
AcDbMText
 62
2
  6
CONTINUOUS
  7
STANDARD
 71
2
 72
1
 10
1.5275
 20
-0.9065
 30
0.0
 11
1.0
 21
0.0
 31
0.0
 44
0.9
  1
Body Type
 40
0.125
 41
1.8
  0
MTEXT
  5
263
100
AcDbEntity
  8
0
100
AcDbMText
 62
2
  6
CONTINUOUS
  7
STANDARD
 71
2
 72
1
 10
6.055
 20
-0.9065
 30
0.0
 11
1.0
 21
0.0
 31
0.0
 44
0.9
  1
Gasket mount
 40
0.125
 41
2.4
  0
MTEXT
  5
264
100
AcDbEntity
  8
0
100
AcDbMText
 62
2
  6
CONTINUOUS
  7
STANDARD
 71
2
 72
1
 10
1.5275
 20
-1.1565
 30
0.0
 11
1.0
 21
0.0
 31
0.0
 44
0.9
  1
Interface
 40
0.125
 41
1.8
  0
MTEXT
  5
265
100
AcDbEntity
  8
0
100
AcDbMText
 62
2
  6
CONTINUOUS
  7
STANDARD
 71
2
 72
1
 10
6.055
 20
-1.1565
 30
0.0
 11
1.0
 21
0.0
 31
0.0
 44
0.9
  1
Sun
 40
0.125
 41
0.6
  0
MTEXT
  5
266
100
AcDbEntity
  8
0
100
AcDbMText
 62
2
  6
CONTINUOUS
  7
STANDARD
 71
2
 72
1
 10
1.5275
 20
-1.4065
 30
0.0
 11
1.0
 21
0.0
 31
0.0
 44
0.9
  1
Open Cavity Quantity
 40
0.125
 41
4.0
  0
MTEXT
  5
267
100
AcDbEntity
  8
0
100
AcDbMText
 62
2
  6
CONTINUOUS
  7
STANDARD
 71
2
 72
1
 10
6.055
 20
-1.4065
 30
0.0
 11
1.0
 21
0.0
 31
0.0
 44
0.9
  1
2
 40
0.125
 41
0.2
  0
MTEXT
  5
268
100
AcDbEntity
  8
0
100
AcDbMText
 62
2
  6
CONTINUOUS
  7
STANDARD
 71
2
 72
1
 10
1.5275
 20
-1.6565
 30
0.0
 11
1.0
 21
0.0
 31
0.0
 44
0.9
  1
Weight
 40
0.125
 41
1.2
  0
MTEXT
  5
269
100
AcDbEntity
  8
0
100
AcDbMText
 62
2
  6
CONTINUOUS
  7
STANDARD
 71
2
 72
1
 10
4.555
 20
-1.6565
 30
0.0
 11
1.0
 21
0.0
 31
0.0
 44
0.9
  1
6.560 lb.
 40
0.125
 41
1.8
  0
MTEXT
  5
26A
100
AcDbEntity
  8
0
100
AcDbMText
 62
2
  6
CONTINUOUS
  7
STANDARD
 71
2
 72
1
 10
7.555
 20
-1.6565
 30
0.0
 11
1.0
 21
0.0
 31
0.0
 44
0.9
  1
2,976 kg.
 40
0.125
 41
1.8
  0
MTEXT
  5
26B
100
AcDbEntity
  8
0
100
AcDbMText
 62
2
  6
CONTINUOUS
  7
STANDARD
 71
2
 72
1
 10
1.5275
 20
-1.9065
 30
0.0
 11
1.0
 21
0.0
 31
0.0
 44
0.9
  1
Mounting Hole Diameter
 40
0.125
 41
4.4
  0
MTEXT
  5
26C
100
AcDbEntity
  8
0
100
AcDbMText
 62
2
  6
CONTINUOUS
  7
STANDARD
 71
2
 72
1
 10
4.555
 20
-1.9065
 30
0.0
 11
1.0
 21
0.0
 31
0.0
 44
0.9
  1
.53 in.
 40
0.125
 41
1.4
  0
MTEXT
  5
26D
100
AcDbEntity
  8
0
100
AcDbMText
 62
2
  6
CONTINUOUS
  7
STANDARD
 71
2
 72
1
 10
7.555
 20
-1.9065
 30
0.0
 11
1.0
 21
0.0
 31
0.0
 44
0.9
  1
13,5 mm
 40
0.125
 41
1.4
  0
MTEXT
  5
26E
100
AcDbEntity
  8
0
100
AcDbMText
 62
2
  6
CONTINUOUS
  7
STANDARD
 71
2
 72
1
 10
1.5275
 20
-2.1565
 30
0.0
 11
1.0
 21
0.0
 31
0.0
 44
0.9
  1
Mounting Hole Depth
 40
0.125
 41
3.8
  0
MTEXT
  5
26F
100
AcDbEntity
  8
0
100
AcDbMText
 62
2
  6
CONTINUOUS
  7
STANDARD
 71
2
 72
1
 10
6.055
 20
-2.1565
 30
0.0
 11
1.0
 21
0.0
 31
0.0
 44
0.9
  1
Through
 40
0.125
 41
1.4
  0
MTEXT
  5
270
100
AcDbEntity
  8
0
100
AcDbMText
 62
2
  6
CONTINUOUS
  7
STANDARD
 71
2
 72
1
 10
1.5275
 20
-2.4065
 30
0.0
 11
1.0
 21
0.0
 31
0.0
 44
0.9
  1
Mounting Hole Quantity
 40
0.125
 41
4.4
  0
MTEXT
  5
271
100
AcDbEntity
  8
0
100
AcDbMText
 62
2
  6
CONTINUOUS
  7
STANDARD
 71
2
 72
1
 10
6.055
 20
-2.4065
 30
0.0
 11
1.0
 21
0.0
 31
0.0
 44
0.9
  1
2
 40
0.125
 41
0.2
  0
MTEXT
  5
272
100
AcDbEntity
  8
0
100
AcDbMText
 62
2
  6
CONTINUOUS
  7
STANDARD
 71
2
 72
1
 10
1.5275
 20
-2.6565
 30
0.0
 11
1.0
 21
0.0
 31
0.0
 44
0.9
  1
Mounting Hole C'bore Diameter
 40
0.125
 41
5.8
  0
MTEXT
  5
273
100
AcDbEntity
  8
0
100
AcDbMText
 62
2
  6
CONTINUOUS
  7
STANDARD
 71
2
 72
1
 10
4.555
 20
-2.6565
 30
0.0
 11
1.0
 21
0.0
 31
0.0
 44
0.9
  1
.78 in.
 40
0.125
 41
1.4
  0
MTEXT
  5
274
100
AcDbEntity
  8
0
100
AcDbMText
 62
2
  6
CONTINUOUS
  7
STANDARD
 71
2
 72
1
 10
7.555
 20
-2.6565
 30
0.0
 11
1.0
 21
0.0
 31
0.0
 44
0.9
  1
19,8 mm
 40
0.125
 41
1.4
  0
MTEXT
  5
275
100
AcDbEntity
  8
0
100
AcDbMText
 62
2
  6
CONTINUOUS
  7
STANDARD
 71
2
 72
1
 10
1.5275
 20
-2.9065
 30
0.0
 11
1.0
 21
0.0
 31
0.0
 44
0.9
  1
Mounting Hole C'bore Depth
 40
0.125
 41
5.2
  0
MTEXT
  5
276
100
AcDbEntity
  8
0
100
AcDbMText
 62
2
  6
CONTINUOUS
  7
STANDARD
 71
2
 72
1
 10
4.555
 20
-2.9065
 30
0.0
 11
1.0
 21
0.0
 31
0.0
 44
0.9
  1
.44 in.
 40
0.125
 41
1.4
  0
MTEXT
  5
277
100
AcDbEntity
  8
0
100
AcDbMText
 62
2
  6
CONTINUOUS
  7
STANDARD
 71
2
 72
1
 10
7.555
 20
-2.9065
 30
0.0
 11
1.0
 21
0.0
 31
0.0
 44
0.9
  1
11,1 mm
 40
0.125
 41
1.4
  0
ENDBLK
  5
278
100
AcDbEntity
  8
0
  6
BYBLOCK
 62
0
100
AcDbBlockEnd
  0
BLOCK
  5
279
100
AcDbEntity
  8
0
100
AcDbBlockBegin
  2
*T3
 70
1
 10
0.0
 20
0.0
  3
*T3
  1

  0
LINE
  5
27A
100
AcDbEntity
  8
0
100
AcDbLine
 62
2
  6
CONTINUOUS
 10
0.0
 20
0.0
 11
4.6
 21
0.0
  0
LINE
  5
27B
100
AcDbEntity
  8
0
100
AcDbLine
 62
2
  6
CONTINUOUS
 10
0.0
 20
0.0
 11
0.0
 21
-0.93775
  0
LINE
  5
27C
100
AcDbEntity
  8
0
100
AcDbLine
 62
2
  6
CONTINUOUS
 10
0.0
 20
-0.34375
 11
4.6
 21
-0.34375
  0
LINE
  5
27D
100
AcDbEntity
  8
0
100
AcDbLine
 62
2
  6
CONTINUOUS
 10
0.0
 20
-0.68775
 11
4.6
 21
-0.68775
  0
LINE
  5
27E
100
AcDbEntity
  8
0
100
AcDbLine
 62
2
  6
CONTINUOUS
 10
0.0
 20
-0.93775
 11
4.6
 21
-0.93775
  0
LINE
  5
27F
100
AcDbEntity
  8
0
100
AcDbLine
 62
2
  6
CONTINUOUS
 10
1.3
 20
-0.34375
 11
1.3
 21
-0.93775
  0
LINE
  5
280
100
AcDbEntity
  8
0
100
AcDbLine
 62
2
  6
CONTINUOUS
 10
3.3
 20
-0.34375
 11
3.3
 21
-0.93775
  0
LINE
  5
281
100
AcDbEntity
  8
0
100
AcDbLine
 62
2
  6
CONTINUOUS
 10
4.6
 20
0.0
 11
4.6
 21
-0.93775
  0
MTEXT
  5
282
100
AcDbEntity
  8
0
100
AcDbMText
 62
2
  6
CONTINUOUS
  7
STANDARD
 71
2
 72
1
 10
2.3
 20
-0.099375
 30
0.0
 11
1.0
 21
0.0
 31
0.0
 44
0.9
  1
Port Headings
 40
0.145
 41
3.016
  0
MTEXT
  5
283
100
AcDbEntity
  8
0
100
AcDbMText
 62
2
  6
CONTINUOUS
  7
STANDARD
 71
2
 72
1
 10
0.65
 20
-0.44325
 30
0.0
 11
1.0
 21
0.0
 31
0.0
 44
0.9
  1
Product
 40
0.145
 41
1.624
  0
MTEXT
  5
284
100
AcDbEntity
  8
0
100
AcDbMText
 62
2
  6
CONTINUOUS
  7
STANDARD
 71
2
 72
1
 10
2.3
 20
-0.44325
 30
0.0
 11
1.0
 21
0.0
 31
0.0
 44
0.9
  1
Port
 40
0.145
 41
0.928
  0
MTEXT
  5
285
100
AcDbEntity
  8
0
100
AcDbMText
 62
2
  6
CONTINUOUS
  7
STANDARD
 71
2
 72
1
 10
3.95
 20
-0.44325
 30
0.0
 11
1.0
 21
0.0
 31
0.0
 44
0.9
  1
Size
 40
0.145
 41
0.928
  0
MTEXT
  5
286
100
AcDbEntity
  8
0
100
AcDbMText
 62
2
  6
CONTINUOUS
  7
STANDARD
 71
2
 72
1
 10
0.65
 20
-0.75025
 30
0.0
 11
1.0
 21
0.0
 31
0.0
 44
0.9
  1
YVQ
 40
0.125
 41
0.6
  0
MTEXT
  5
287
100
AcDbEntity
  8
0
100
AcDbMText
 62
2
  6
CONTINUOUS
  7
STANDARD
 71
2
 72
1
 10
2.3
 20
-0.75025
 30
0.0
 11
1.0
 21
0.0
 31
0.0
 44
0.9
  1
Ports C2, V1, V2
 40
0.125
 41
3.2
  0
MTEXT
  5
288
100
AcDbEntity
  8
0
100
AcDbMText
 62
2
  6
CONTINUOUS
  7
STANDARD
 71
2
 72
1
 10
3.95
 20
-0.75025
 30
0.0
 11
1.0
 21
0.0
 31
0.0
 44
0.9
  1
SAE 16
 40
0.125
 41
1.2
  0
ENDBLK
  5
289
100
AcDbEntity
  8
0
  6
BYBLOCK
 62
0
100
AcDbBlockEnd
  0
ENDSEC
  0
SECTION
  2
ENTITIES
  0
IMAGE
  5
28A
100
AcDbEntity
  8
0
100
AcDbRasterImage
 62
7
  6
CONTINUOUS
 10
19.2297077316
 20
0.3094318264
 30
0.0
 11
0.0066666667
 21
0.0
 31
0.0
 12
0.0
 22
0.0066666667
 32
0.0
 13
369.0
 23
92.0
340
       3C7
 70
9
280
0
281
50
282
50
283
0
360
       3C1
 71
1
 91
2
 14
-0.5
 24
-0.5
 14
368.5
 24
91.5
  0
INSERT
  5
28B
100
AcDbEntity
  8
0
100
AcDbBlockReference
 62
2
  6
CONTINUOUS
  2
SUN_FIRST_THIRD_ANGLE_BL0
 10
20.4816717061
 20
1.2289683772
  0
ACAD_TABLE
  5
28C
100
AcDbEntity
  8
0
 62
2
  6
CONTINUOUS
100
AcDbBlockReference
  2
*T1
 10
12.42375
 20
0.30125
 30
0.0
100
AcDbTable
342
       3C9
343
20A
 11
1.0
 21
0.0
 31
0.0
 90
6
 91
4
 92
6
 93
20
 94
0
 95
0
 96
0
 70
1
 41
0.0
141
0.525
141
0.1
141
0.525
141
0.1
142
4.1
142
1.1
142
0.7
142
0.5
142
0.4
142
2.475
171
1
172
0
173
0
174
0
175
1
176
1
 91
33
178
0
145
0.0
301
CELL_VALUE
 90
4
  1
T-17A Gasket mount Sun\PDirect mount, cross pilot
304
ACVALUE_END
170
2
140
0.125
171
1
172
0
173
0
174
0
175
1
176
1
 91
33
178
0
145
0.0
301
CELL_VALUE
 90
4
  1
Jul-09-19
304
ACVALUE_END
170
5
140
0.125
171
1
172
0
173
0
174
0
175
1
176
1
 91
33
178
0
145
0.0
301
CELL_VALUE
 90
4
  1
1.000
304
ACVALUE_END
170
5
140
0.125
171
1
172
0
173
0
174
0
175
1
176
1
 91
33
178
0
145
0.0
301
CELL_VALUE
 90
4
  1
C
304
ACVALUE_END
170
5
140
0.125
171
1
172
0
173
0
174
0
175
1
176
1
 91
33
178
0
145
0.0
301
CELL_VALUE
 90
4
  1
2
304
ACVALUE_END
170
5
140
0.125
171
1
172
0
173
0
174
0
175
1
176
1
 91
33
178
0
145
0.0
301
CELL_VALUE
 90
4
  1
 
304
ACVALUE_END
170
1
140
0.125
171
1
172
0
173
0
174
0
175
1
176
1
 91
33
178
0
145
0.0
301
CELL_VALUE
 90
4
  1
DESCRIPTION
304
ACVALUE_END
170
1
140
0.06
171
1
172
0
173
0
174
0
175
1
176
1
 91
33
178
0
145
0.0
301
CELL_VALUE
 90
4
  1
DATE
304
ACVALUE_END
170
1
140
0.06
171
1
172
0
173
0
174
0
175
1
176
1
 91
33
178
0
145
0.0
301
CELL_VALUE
 90
4
  1
SCALE
304
ACVALUE_END
170
1
140
0.06
171
1
172
0
173
0
174
0
175
1
176
1
 91
33
178
0
145
0.0
301
CELL_VALUE
 90
4
  1
DWG SIZE
304
ACVALUE_END
170
1
140
0.06
171
1
172
0
173
0
174
0
175
1
176
1
 91
33
178
0
145
0.0
301
CELL_VALUE
 90
4
  1
SHEET
304
ACVALUE_END
170
1
140
0.06
171
1
172
0
173
0
174
0
175
1
176
1
 91
33
178
0
145
0.0
301
CELL_VALUE
 90
4
  1
 
304
ACVALUE_END
170
1
140
0.125
171
1
172
0
173
0
174
0
175
1
176
1
 91
33
178
0
145
0.0
301
CELL_VALUE
 90
4
  1
YVQ
304
ACVALUE_END
170
5
140
0.125
171
1
172
0
173
0
174
0
175
4
176
1
 91
33
178
0
145
0.0
301
CELL_VALUE
 90
4
  1
ALL DIMENSIONS IN INCH\PVIEWS ARE THIRD ANGLE
304
ACVALUE_END
170
5
140
0.12
171
1
172
0
173
1
174
0
175
1
176
1
 91
1
178
0
145
0.0
170
1
171
1
172
0
173
1
174
0
175
1
176
1
 91
1
178
0
145
0.0
170
1
171
1
172
0
173
1
174
0
175
1
176
1
 91
1
178
0
145
0.0
170
5
171
1
172
0
173
0
174
0
175
1
176
1
 91
33
178
0
145
0.0
301
CELL_VALUE
 90
4
  1
 
304
ACVALUE_END
170
1
140
0.125
171
1
172
0
173
0
174
0
175
1
176
1
 91
33
178
0
145
0.0
301
CELL_VALUE
 90
4
  1
MODEL
304
ACVALUE_END
170
1
140
0.06
171
1
172
0
173
0
174
0
175
1
176
1
 91
33
178
0
145
0.0
301
CELL_VALUE
 90
4
  1
 
304
ACVALUE_END
170
1
140
0.125
171
1
172
0
173
0
174
0
175
1
176
1
 91
33
178
0
145
0.0
301
CELL_VALUE
 90
4
  1
 
304
ACVALUE_END
170
1
140
0.125
171
1
172
0
173
0
174
0
175
1
176
1
 91
33
178
0
145
0.0
301
CELL_VALUE
 90
4
  1
 
304
ACVALUE_END
170
1
140
0.125
171
1
172
0
173
0
174
0
175
1
176
1
 91
33
178
0
145
0.0
301
CELL_VALUE
 90
4
  1
 
304
ACVALUE_END
170
1
140
0.125
171
1
172
0
173
0
174
0
175
1
176
1
 91
33
178
0
145
0.0
301
CELL_VALUE
 90
4
  1
 
304
ACVALUE_END
170
1
140
0.125
  0
ACAD_TABLE
  5
28D
100
AcDbEntity
  8
0
 62
2
  6
CONTINUOUS
100
AcDbBlockReference
  2
*T2
 10
12.4237499994
 20
16.47875
 30
0.0
100
AcDbTable
342
       3C8
343
20B
 11
1.0
 21
0.0
 31
0.0
 90
22
 91
12
 92
3
 93
16
 94
0
 95
0
 96
0
 41
0.028
141
0.344
141
0.25
141
0.25
141
0.25
141
0.25
141
0.25
141
0.25
141
0.25
141
0.25
141
0.25
141
0.25
141
0.25
142
3.055
142
3.0
142
3.0
171
1
172
0
173
0
174
0
175
1
176
1
 91
33
178
0
145
0.0
301
CELL_VALUE
 90
4
  1
Technical Data
304
ACVALUE_END
170
5
140
0.145
171
1
172
0
173
0
174
0
175
1
176
1
 91
33
178
0
145
0.0
301
CELL_VALUE
 90
4
  1
U.S. Units
304
ACVALUE_END
170
5
140
0.145
171
1
172
0
173
0
174
0
175
1
176
1
 91
33
178
0
145
0.0
301
CELL_VALUE
 90
4
  1
Metric Units
304
ACVALUE_END
170
5
140
0.145
171
1
172
0
173
0
174
0
175
1
176
1
 91
33
178
0
145
0.0
301
CELL_VALUE
 90
4
  1
Cavity
304
ACVALUE_END
170
5
140
0.125
171
1
172
0
173
0
174
0
175
2
176
1
 91
33
178
0
145
0.0
301
CELL_VALUE
 90
4
  1
T-17A
304
ACVALUE_END
170
5
140
0.125
171
1
172
0
173
1
174
0
175
1
176
1
 91
1
178
0
145
0.0
170
1
171
1
172
0
173
0
174
0
175
1
176
1
 91
33
178
0
145
0.0
301
CELL_VALUE
 90
4
  1
Body Features
304
ACVALUE_END
170
5
140
0.125
171
1
172
0
173
0
174
0
175
2
176
1
 91
33
178
0
145
0.0
301
CELL_VALUE
 90
4
  1
Direct mount, cross pilot
304
ACVALUE_END
170
5
140
0.125
171
1
172
0
173
1
174
0
175
1
176
1
 91
1
178
0
145
0.0
170
1
171
1
172
0
173
0
174
0
175
1
176
1
 91
33
178
0
145
0.0
301
CELL_VALUE
 90
4
  1
Body Type
304
ACVALUE_END
170
5
140
0.125
171
1
172
0
173
0
174
0
175
2
176
1
 91
33
178
0
145
0.0
301
CELL_VALUE
 90
4
  1
Gasket mount
304
ACVALUE_END
170
5
140
0.125
171
1
172
0
173
1
174
0
175
1
176
1
 91
1
178
0
145
0.0
170
1
171
1
172
0
173
0
174
0
175
1
176
1
 91
33
178
0
145
0.0
301
CELL_VALUE
 90
4
  1
Interface
304
ACVALUE_END
170
5
140
0.125
171
1
172
0
173
0
174
0
175
2
176
1
 91
33
178
0
145
0.0
301
CELL_VALUE
 90
4
  1
Sun
304
ACVALUE_END
170
5
140
0.125
171
1
172
0
173
1
174
0
175
1
176
1
 91
1
178
0
145
0.0
170
1
171
1
172
0
173
0
174
0
175
1
176
1
 91
33
178
0
145
0.0
301
CELL_VALUE
 90
4
  1
Open Cavity Quantity
304
ACVALUE_END
170
5
140
0.125
171
1
172
0
173
0
174
0
175
2
176
1
 91
33
178
0
145
0.0
301
CELL_VALUE
 90
4
  1
2
304
ACVALUE_END
170
5
140
0.125
171
1
172
0
173
1
174
0
175
1
176
1
 91
1
178
0
145
0.0
170
1
171
1
172
0
173
0
174
0
175
1
176
1
 91
33
178
0
145
0.0
301
CELL_VALUE
 90
4
  1
Weight
304
ACVALUE_END
170
5
140
0.125
171
1
172
0
173
0
174
0
175
1
176
1
 91
33
178
0
145
0.0
301
CELL_VALUE
 90
4
  1
6.560 lb.
304
ACVALUE_END
170
5
140
0.125
171
1
172
0
173
0
174
0
175
1
176
1
 91
33
178
0
145
0.0
301
CELL_VALUE
 90
4
  1
2,976 kg.
304
ACVALUE_END
170
5
140
0.125
171
1
172
0
173
0
174
0
175
1
176
1
 91
33
178
0
145
0.0
301
CELL_VALUE
 90
4
  1
Mounting Hole Diameter
304
ACVALUE_END
170
5
140
0.125
171
1
172
0
173
0
174
0
175
1
176
1
 91
33
178
0
145
0.0
301
CELL_VALUE
 90
4
  1
.53 in.
304
ACVALUE_END
170
5
140
0.125
171
1
172
0
173
0
174
0
175
1
176
1
 91
33
178
0
145
0.0
301
CELL_VALUE
 90
4
  1
13,5 mm
304
ACVALUE_END
170
5
140
0.125
171
1
172
0
173
0
174
0
175
1
176
1
 91
33
178
0
145
0.0
301
CELL_VALUE
 90
4
  1
Mounting Hole Depth
304
ACVALUE_END
170
5
140
0.125
171
1
172
0
173
0
174
0
175
2
176
1
 91
33
178
0
145
0.0
301
CELL_VALUE
 90
4
  1
Through
304
ACVALUE_END
170
5
140
0.125
171
1
172
0
173
1
174
0
175
1
176
1
 91
1
178
0
145
0.0
170
1
171
1
172
0
173
0
174
0
175
1
176
1
 91
33
178
0
145
0.0
301
CELL_VALUE
 90
4
  1
Mounting Hole Quantity
304
ACVALUE_END
170
5
140
0.125
171
1
172
0
173
0
174
0
175
2
176
1
 91
33
178
0
145
0.0
301
CELL_VALUE
 90
4
  1
2
304
ACVALUE_END
170
5
140
0.125
171
1
172
0
173
1
174
0
175
1
176
1
 91
1
178
0
145
0.0
170
1
171
1
172
0
173
0
174
0
175
1
176
1
 91
33
178
0
145
0.0
301
CELL_VALUE
 90
4
  1
Mounting Hole C'bore Diameter
304
ACVALUE_END
170
5
140
0.125
171
1
172
0
173
0
174
0
175
1
176
1
 91
33
178
0
145
0.0
301
CELL_VALUE
 90
4
  1
.78 in.
304
ACVALUE_END
170
5
140
0.125
171
1
172
0
173
0
174
0
175
1
176
1
 91
33
178
0
145
0.0
301
CELL_VALUE
 90
4
  1
19,8 mm
304
ACVALUE_END
170
5
140
0.125
171
1
172
0
173
0
174
0
175
1
176
1
 91
33
178
0
145
0.0
301
CELL_VALUE
 90
4
  1
Mounting Hole C'bore Depth
304
ACVALUE_END
170
5
140
0.125
171
1
172
0
173
0
174
0
175
1
176
1
 91
33
178
0
145
0.0
301
CELL_VALUE
 90
4
  1
.44 in.
304
ACVALUE_END
170
5
140
0.125
171
1
172
0
173
0
174
0
175
1
176
1
 91
33
178
0
145
0.0
301
CELL_VALUE
 90
4
  1
11,1 mm
304
ACVALUE_END
170
5
140
0.125
  0
ACAD_TABLE
  5
28E
100
AcDbEntity
  8
0
 62
2
  6
CONTINUOUS
100
AcDbBlockReference
  2
*T3
 10
0.52125
 20
1.459
 30
0.0
100
AcDbTable
342
       3C8
343
20C
 11
1.0
 21
0.0
 31
0.0
 90
22
 91
3
 92
3
 93
16
 94
0
 95
0
 96
0
 41
0.05
141
0.34375
141
0.344
141
0.25
142
1.3
142
2.0
142
1.3
171
1
172
0
173
0
174
0
175
3
176
1
 91
33
178
0
145
0.0
301
CELL_VALUE
 90
4
  1
Port Headings
304
ACVALUE_END
170
5
140
0.145
171
1
172
0
173
1
174
0
175
1
176
1
 91
1
178
0
145
0.0
170
1
171
1
172
0
173
1
174
0
175
1
176
1
 91
1
178
0
145
0.0
170
1
171
1
172
0
173
0
174
0
175
1
176
1
 91
33
178
0
145
0.0
301
CELL_VALUE
 90
4
  1
Product
304
ACVALUE_END
170
5
140
0.145
171
1
172
0
173
0
174
0
175
1
176
1
 91
33
178
0
145
0.0
301
CELL_VALUE
 90
4
  1
Port
304
ACVALUE_END
170
5
140
0.145
171
1
172
0
173
0
174
0
175
1
176
1
 91
33
178
0
145
0.0
301
CELL_VALUE
 90
4
  1
Size
304
ACVALUE_END
170
5
140
0.145
171
1
172
0
173
0
174
0
175
1
176
1
 91
33
178
0
145
0.0
301
CELL_VALUE
 90
4
  1
YVQ
304
ACVALUE_END
170
5
140
0.125
171
1
172
0
173
0
174
0
175
1
176
1
 91
33
178
0
145
0.0
301
CELL_VALUE
 90
4
  1
Ports C2, V1, V2
304
ACVALUE_END
170
5
140
0.125
171
1
172
0
173
0
174
0
175
1
176
1
 91
33
178
0
145
0.0
301
CELL_VALUE
 90
4
  1
SAE 16
304
ACVALUE_END
170
5
140
0.125
  0
MTEXT
  5
28F
100
AcDbEntity
  8
0
100
AcDbMText
 62
2
  6
CONTINUOUS
  7
STANDARD
 71
1
 72
1
 10
0.52125
 20
5.75995
 30
0.0
 11
1.0
 21
0.0
 31
0.0
 44
0.6
  3
Notes\P \P1. Important: Carefully consider\P   the maximum system pressure. The\P   pressure rating of the manifold is\P   dependent on the manifold material,\P   with the port type/size a secondary\P   consideration. Manifolds\P   constructed of alu
  1
minum are not\P   rated for pressures higher than\P   3000 psi (210 bar), regardless of\P   the port type/size specified.
 40
0.1
 41
3.04
  0
LINE
  5
290
100
AcDbEntity
  8
0
100
AcDbLine
 62
7
  6
CONTINUOUS
 10
0.30125
 20
0.30125
 11
0.30125
 21
16.69875
  0
LINE
  5
291
100
AcDbEntity
  8
0
100
AcDbLine
 62
7
  6
CONTINUOUS
 10
0.30125
 20
0.30125
 11
21.69875
 21
0.30125
  0
LINE
  5
292
100
AcDbEntity
  8
0
100
AcDbLine
 62
7
  6
CONTINUOUS
 10
0.30125
 20
16.69875
 11
21.69875
 21
16.69875
  0
LINE
  5
293
100
AcDbEntity
  8
0
100
AcDbLine
 62
7
  6
CONTINUOUS
 10
21.69875
 20
0.30125
 11
21.69875
 21
16.69875
  0
LINE
  5
294
100
AcDbEntity
  8
0
100
AcDbLine
 62
7
  6
CONTINUOUS
 10
8.3903518759
 20
9.8801250789
 11
9.8058320298
 21
11.2473739973
  0
LINE
  5
295
100
AcDbEntity
  8
0
100
AcDbLine
 62
7
  6
CONTINUOUS
 10
8.3903518759
 20
9.8801250789
 11
8.3903518759
 21
6.0164215449
  0
LINE
  5
296
100
AcDbEntity
  8
0
100
AcDbLine
 62
7
  6
CONTINUOUS
 10
12.1941679702
 20
5.7526260027
 11
8.3903518759
 21
6.0164215449
  0
LINE
  5
297
100
AcDbEntity
  8
0
100
AcDbLine
 62
4
  6
CONTINUOUS
 10
10.3888525069
 20
6.109647318
 11
10.3695339943
 21
6.1109870614
  0
LINE
  5
298
100
AcDbEntity
  8
0
100
AcDbLine
 62
4
  6
CONTINUOUS
 10
10.3212376989
 20
6.1650475286
 11
10.292259923
 21
6.1743015881
  0
LINE
  5
299
100
AcDbEntity
  8
0
100
AcDbLine
 62
4
  6
CONTINUOUS
 10
10.292259923
 20
6.2612349157
 11
10.4081710265
 21
6.2169742336
  0
LINE
  5
29A
100
AcDbEntity
  8
0
100
AcDbLine
 62
4
  6
CONTINUOUS
 10
10.3695339943
 20
6.1109870614
 11
10.3598747311
 21
6.1189013775
  0
LINE
  5
29B
100
AcDbEntity
  8
0
100
AcDbLine
 62
4
  6
CONTINUOUS
 10
10.4081710265
 20
6.2894186732
 11
10.292259923
 21
6.2612349157
  0
LINE
  5
29C
100
AcDbEntity
  8
0
100
AcDbLine
 62
4
  6
CONTINUOUS
 10
10.340556215
 20
6.149218897
 11
10.3212376989
 21
6.1650475286
  0
LINE
  5
29D
100
AcDbEntity
  8
0
100
AcDbLine
 62
4
  6
CONTINUOUS
 10
10.3888525069
 20
6.1676028697
 11
10.3985117701
 21
6.1596885536
  0
LINE
  5
29E
100
AcDbEntity
  8
0
100
AcDbLine
 62
4
  6
CONTINUOUS
 10
10.3598747311
 20
6.1189013775
 11
10.340556215
 21
6.149218897
  0
LINE
  5
29F
100
AcDbEntity
  8
0
100
AcDbLine
 62
4
  6
CONTINUOUS
 10
10.3985117701
 20
6.1596885536
 11
10.4081710265
 21
6.1445297939
  0
LINE
  5
2A0
100
AcDbEntity
  8
0
100
AcDbLine
 62
7
  6
CONTINUOUS
 10
9.9456217954
 20
9.7722667437
 11
9.9539039982
 21
9.7802667377
  0
LINE
  5
2A1
100
AcDbEntity
  8
0
100
AcDbLine
 62
7
  6
CONTINUOUS
 10
10.5790106109
 20
9.7283410801
 11
10.5872928137
 21
9.7363410742
  0
LINE
  5
2A2
100
AcDbEntity
  8
0
100
AcDbLine
 62
7
  6
CONTINUOUS
 10
9.9714054253
 20
7.3575564771
 11
10.0478157149
 21
7.375998297
  0
LINE
  5
2A3
100
AcDbEntity
  8
0
100
AcDbLine
 62
4
  6
CONTINUOUS
 10
10.292259923
 20
6.1743015881
 11
10.292259923
 21
6.1163460364
  0
LINE
  5
2A4
100
AcDbEntity
  8
0
100
AcDbLine
 62
4
  6
CONTINUOUS
 10
10.4081710265
 20
6.1445297939
 11
10.4081710265
 21
6.130040906
  0
LINE
  5
2A5
100
AcDbEntity
  8
0
100
AcDbLine
 62
7
  6
CONTINUOUS
 10
13.6096481241
 20
10.9835784551
 11
12.1941679702
 21
9.6163295368
  0
LINE
  5
2A6
100
AcDbEntity
  8
0
100
AcDbLine
 62
7
  6
CONTINUOUS
 10
10.9136250656
 20
8.1652189487
 11
10.9219072684
 21
8.1732189428
  0
LINE
  5
2A7
100
AcDbEntity
  8
0
100
AcDbLine
 62
7
  6
CONTINUOUS
 10
10.2940175628
 20
7.4476554668
 11
10.3022997656
 21
7.4556554609
  0
LINE
  5
2A8
100
AcDbEntity
  8
0
100
AcDbLine
 62
7
  6
CONTINUOUS
 10
10.529540739
 20
7.9640327838
 11
10.5393667965
 21
7.9735199298
  0
LINE
  5
2A9
100
AcDbEntity
  8
0
100
AcDbLine
 62
7
  6
CONTINUOUS
 10
10.9317099194
 20
8.1821786379
 11
10.9136250656
 21
8.1652189487
  0
LINE
  5
2AA
100
AcDbEntity
  8
0
100
AcDbLine
 62
4
  6
CONTINUOUS
 10
13.1238452153
 20
8.5810971937
 11
13.1549034744
 21
8.5779797139
  0
LINE
  5
2AB
100
AcDbEntity
  8
0
100
AcDbLine
 62
4
  6
CONTINUOUS
 10
13.0555170453
 20
8.8269532886
 11
13.0865753044
 21
8.8238358088
  0
LINE
  5
2AC
100
AcDbEntity
  8
0
100
AcDbLine
 62
4
  6
CONTINUOUS
 10
13.2449724257
 20
8.3227659179
 11
13.2427539779
 21
8.3233828393
  0
LINE
  5
2AD
100
AcDbEntity
  8
0
100
AcDbLine
 62
7
  6
CONTINUOUS
 10
10.3769874936
 20
7.0185854001
 11
10.3852696964
 21
7.0265853941
  0
LINE
  5
2AE
100
AcDbEntity
  8
0
100
AcDbLine
 62
4
  6
CONTINUOUS
 10
13.206519343
 20
8.7409881155
 11
13.236098638
 21
8.7364420798
  0
LINE
  5
2AF
100
AcDbEntity
  8
0
100
AcDbLine
 62
4
  6
CONTINUOUS
 10
10.4081710265
 20
6.130040906
 11
10.3985117701
 21
6.1162218898
  0
LINE
  5
2B0
100
AcDbEntity
  8
0
100
AcDbLine
 62
4
  6
CONTINUOUS
 10
13.236098638
 20
9.2332039358
 11
13.2405355318
 21
9.2374896465
  0
LINE
  5
2B1
100
AcDbEntity
  8
0
100
AcDbLine
 62
4
  6
CONTINUOUS
 10
11.2253443967
 20
9.5651917582
 11
11.1094332933
 21
9.5370080007
  0
LINE
  5
2B2
100
AcDbEntity
  8
0
100
AcDbLine
 62
4
  6
CONTINUOUS
 10
11.2253443967
 20
9.4130584349
 11
11.1094332933
 21
9.4210968972
  0
LINE
  5
2B3
100
AcDbEntity
  8
0
100
AcDbLine
 62
4
  6
CONTINUOUS
 10
11.1094332933
 20
9.5370080007
 11
11.2253443967
 21
9.4927473185
  0
LINE
  5
2B4
100
AcDbEntity
  8
0
100
AcDbLine
 62
7
  6
CONTINUOUS
 10
12.1941679702
 20
9.6163295368
 11
12.1941679702
 21
5.7526260027
  0
LINE
  5
2B5
100
AcDbEntity
  8
0
100
AcDbLine
 62
4
  6
CONTINUOUS
 10
13.218351061
 20
9.1581055402
 11
13.2227879554
 21
9.1623912513
  0
LINE
  5
2B6
100
AcDbEntity
  8
0
100
AcDbLine
 62
4
  6
CONTINUOUS
 10
13.2449724257
 20
9.1507023493
 11
13.218351061
 21
9.124988084
  0
LINE
  5
2B7
100
AcDbEntity
  8
0
100
AcDbLine
 62
4
  6
CONTINUOUS
 10
13.0555170453
 20
8.9318252331
 11
13.0865753044
 21
8.9618252094
  0
LINE
  5
2B8
100
AcDbEntity
  8
0
100
AcDbLine
 62
4
  6
CONTINUOUS
 10
13.218351061
 20
9.0670325323
 11
13.2449724257
 21
9.0927467976
  0
LINE
  5
2B9
100
AcDbEntity
  8
0
100
AcDbLine
 62
4
  6
CONTINUOUS
 10
13.2139141667
 20
9.0296293651
 11
13.2449724257
 21
9.0596293414
  0
LINE
  5
2BA
100
AcDbEntity
  8
0
100
AcDbLine
 62
4
  6
CONTINUOUS
 10
13.0821384105
 20
8.8995839539
 11
13.0599539397
 21
8.8781553993
  0
LINE
  5
2BB
100
AcDbEntity
  8
0
100
AcDbLine
 62
4
  6
CONTINUOUS
 10
13.2139141667
 20
8.9716738133
 11
13.2449724257
 21
9.0016737897
  0
LINE
  5
2BC
100
AcDbEntity
  8
0
100
AcDbLine
 62
4
  6
CONTINUOUS
 10
13.0555170453
 20
8.6944834502
 11
13.0865753044
 21
8.7244834265
  0
LINE
  5
2BD
100
AcDbEntity
  8
0
100
AcDbLine
 62
4
  6
CONTINUOUS
 10
13.2139141667
 20
8.8474833493
 11
13.2449724257
 21
8.8774833257
  0
LINE
  5
2BE
100
AcDbEntity
  8
0
100
AcDbLine
 62
7
  6
CONTINUOUS
 10
12.1941679702
 20
9.6163295368
 11
10.5790106109
 21
9.7283410801
  0
LINE
  5
2BF
100
AcDbEntity
  8
0
100
AcDbLine
 62
7
  6
CONTINUOUS
 10
9.9456217954
 20
9.7722667437
 11
8.3903518759
 21
9.8801250789
  0
LINE
  5
2C0
100
AcDbEntity
  8
0
100
AcDbLine
 62
7
  6
CONTINUOUS
 10
10.5872928137
 20
9.7363410742
 11
9.9539039982
 21
9.7802667377
  0
LINE
  5
2C1
100
AcDbEntity
  8
0
100
AcDbLine
 62
4
  6
CONTINUOUS
 10
13.2338801901
 20
8.817092857
 11
13.2139141667
 21
8.7978071582
  0
LINE
  5
2C2
100
AcDbEntity
  8
0
100
AcDbLine
 62
4
  6
CONTINUOUS
 10
13.0555170453
 20
8.6282485379
 11
13.0865753044
 21
8.6582485142
  0
LINE
  5
2C3
100
AcDbEntity
  8
0
100
AcDbLine
 62
4
  6
CONTINUOUS
 10
13.1415927927
 20
8.6975924169
 11
13.1238452153
 21
8.6804495725
  0
LINE
  5
2C4
100
AcDbEntity
  8
0
100
AcDbLine
 62
4
  6
CONTINUOUS
 10
13.2161326138
 20
8.6950780485
 11
13.2338801901
 21
8.7122208918
  0
LINE
  5
2C5
100
AcDbEntity
  8
0
100
AcDbLine
 62
4
  6
CONTINUOUS
 10
13.2449724257
 20
8.6732590058
 11
13.2139141667
 21
8.6432590295
  0
LINE
  5
2C6
100
AcDbEntity
  8
0
100
AcDbLine
 62
4
  6
CONTINUOUS
 10
13.2139141667
 20
8.6101415319
 11
13.236098638
 21
8.6315700869
  0
LINE
  5
2C7
100
AcDbEntity
  8
0
100
AcDbLine
 62
4
  6
CONTINUOUS
 10
13.0599539397
 20
8.4586675662
 11
13.0821384105
 21
8.4800961208
  0
LINE
  5
2C8
100
AcDbEntity
  8
0
100
AcDbLine
 62
4
  6
CONTINUOUS
 10
13.1282821097
 20
8.5219077839
 11
13.1504665805
 21
8.5433363385
  0
LINE
  5
2C9
100
AcDbEntity
  8
0
100
AcDbLine
 62
4
  6
CONTINUOUS
 10
13.2338801901
 20
8.5907902331
 11
13.2294432962
 21
8.5865045224
  0
LINE
  5
2CA
100
AcDbEntity
  8
0
100
AcDbLine
 62
4
  6
CONTINUOUS
 10
13.1504665805
 20
8.4853807868
 11
13.1282821097
 21
8.4639522322
  0
LINE
  5
2CB
100
AcDbEntity
  8
0
100
AcDbLine
 62
4
  6
CONTINUOUS
 10
13.2161326138
 20
8.5377701146
 11
13.2227879554
 21
8.5441986812
  0
LINE
  5
2CC
100
AcDbEntity
  8
0
100
AcDbLine
 62
4
  6
CONTINUOUS
 10
13.0599539397
 20
8.3620750168
 11
13.0821384105
 21
8.3835035714
  0
LINE
  5
2CD
100
AcDbEntity
  8
0
100
AcDbLine
 62
4
  6
CONTINUOUS
 10
13.2139141667
 20
8.4859510955
 11
13.2316617441
 21
8.5030939399
  0
LINE
  5
2CE
100
AcDbEntity
  8
0
100
AcDbLine
 62
4
  6
CONTINUOUS
 10
13.0865753044
 20
8.8238358088
 11
13.0555170453
 21
8.7607183625
  0
LINE
  5
2CF
100
AcDbEntity
  8
0
100
AcDbLine
 62
4
  6
CONTINUOUS
 10
13.236098638
 20
8.4742622082
 11
13.2161326138
 21
8.4549765087
  0
LINE
  5
2D0
100
AcDbEntity
  8
0
100
AcDbLine
 62
4
  6
CONTINUOUS
 10
13.0821384105
 20
8.3255480197
 11
13.0599539397
 21
8.3041194651
  0
LINE
  5
2D1
100
AcDbEntity
  8
0
100
AcDbLine
 62
4
  6
CONTINUOUS
 10
13.0555170453
 20
8.2667163117
 11
13.0865753044
 21
8.296716288
  0
LINE
  5
2D2
100
AcDbEntity
  8
0
100
AcDbLine
 62
4
  6
CONTINUOUS
 10
13.2139141667
 20
8.4031574344
 11
13.236098638
 21
8.4245859895
  0
LINE
  5
2D3
100
AcDbEntity
  8
0
100
AcDbLine
 62
4
  6
CONTINUOUS
 10
13.2161326138
 20
8.3721828476
 11
13.2449724257
 21
8.4000399684
  0
LINE
  5
2D4
100
AcDbEntity
  8
0
100
AcDbLine
 62
4
  6
CONTINUOUS
 10
13.0821384105
 20
8.2344750257
 11
13.0599539397
 21
8.2130464711
  0
LINE
  5
2D5
100
AcDbEntity
  8
0
100
AcDbLine
 62
4
  6
CONTINUOUS
 10
13.0555170453
 20
8.1618443189
 11
13.0865753044
 21
8.1918442952
  0
LINE
  5
2D6
100
AcDbEntity
  8
0
100
AcDbLine
 62
4
  6
CONTINUOUS
 10
13.2427539779
 20
8.3233828393
 11
13.2449724257
 21
8.3255256956
  0
LINE
  5
2D7
100
AcDbEntity
  8
0
100
AcDbLine
 62
4
  6
CONTINUOUS
 10
13.2139141667
 20
8.2955257192
 11
13.236098638
 21
8.3169542742
  0
LINE
  5
2D8
100
AcDbEntity
  8
0
100
AcDbLine
 62
4
  6
CONTINUOUS
 10
13.2161326138
 20
8.2535119666
 11
13.2338801901
 21
8.2706548098
  0
LINE
  5
2D9
100
AcDbEntity
  8
0
100
AcDbLine
 62
4
  6
CONTINUOUS
 10
13.2272248492
 20
8.1897119157
 11
13.2338801901
 21
8.1961404817
  0
LINE
  5
2DA
100
AcDbEntity
  8
0
100
AcDbLine
 62
4
  6
CONTINUOUS
 10
10.3985117701
 20
6.1162218898
 11
10.3888525069
 21
6.109647318
  0
LINE
  5
2DB
100
AcDbEntity
  8
0
100
AcDbLine
 62
4
  6
CONTINUOUS
 10
13.0688277279
 20
9.0109172851
 11
13.0629118689
 21
8.9610463921
  0
LINE
  5
2DC
100
AcDbEntity
  8
0
100
AcDbLine
 62
4
  6
CONTINUOUS
 10
13.0865753044
 20
8.9204283927
 11
13.0821384105
 21
8.8995839539
  0
LINE
  5
2DD
100
AcDbEntity
  8
0
100
AcDbLine
 62
4
  6
CONTINUOUS
 10
13.2161326138
 20
9.2139182363
 11
13.2139141667
 21
9.2034960159
  0
LINE
  5
2DE
100
AcDbEntity
  8
0
100
AcDbLine
 62
4
  6
CONTINUOUS
 10
13.0555170453
 20
8.4378231339
 11
13.0599539397
 21
8.4586675662
  0
LINE
  5
2DF
100
AcDbEntity
  8
0
100
AcDbLine
 62
4
  6
CONTINUOUS
 10
13.218351061
 20
9.124988084
 11
13.2139141667
 21
9.1041436448
  0
LINE
  5
2E0
100
AcDbEntity
  8
0
100
AcDbLine
 62
4
  6
CONTINUOUS
 10
13.0555170453
 20
8.3412305846
 11
13.0599539397
 21
8.3620750168
  0
LINE
  5
2E1
100
AcDbEntity
  8
0
100
AcDbLine
 62
4
  6
CONTINUOUS
 10
13.2449724257
 20
9.1920991695
 11
13.2427539779
 21
9.1816769492
  0
LINE
  5
2E2
100
AcDbEntity
  8
0
100
AcDbLine
 62
4
  6
CONTINUOUS
 10
13.1549034744
 20
8.7435670084
 11
13.1415927927
 21
8.6975924169
  0
LINE
  5
2E3
100
AcDbEntity
  8
0
100
AcDbLine
 62
4
  6
CONTINUOUS
 10
13.2449724257
 20
9.0596293414
 11
13.2139141667
 21
8.9716738133
  0
LINE
  5
2E4
100
AcDbEntity
  8
0
100
AcDbLine
 62
4
  6
CONTINUOUS
 10
13.236098638
 20
8.7861182433
 11
13.2139141667
 21
8.7398515788
  0
LINE
  5
2E5
100
AcDbEntity
  8
0
100
AcDbLine
 62
4
  6
CONTINUOUS
 10
13.1549034744
 20
8.6442146331
 11
13.1238452153
 21
8.5810971937
  0
LINE
  5
2E6
100
AcDbEntity
  8
0
100
AcDbLine
 62
4
  6
CONTINUOUS
 10
13.2161326138
 20
8.1293215302
 11
13.2227879554
 21
8.1357500968
  0
LINE
  5
2E7
100
AcDbEntity
  8
0
100
AcDbLine
 62
4
  6
CONTINUOUS
 10
13.1415927927
 20
8.6975924169
 11
13.1549034744
 21
8.6773320892
  0
LINE
  5
2E8
100
AcDbEntity
  8
0
100
AcDbLine
 62
4
  6
CONTINUOUS
 10
13.0599539397
 20
8.2130464711
 11
13.0555170453
 21
8.2253194811
  0
LINE
  5
2E9
100
AcDbEntity
  8
0
100
AcDbLine
 62
4
  6
CONTINUOUS
 10
13.0599539397
 20
8.3041194651
 11
13.0555170453
 21
8.3163924752
  0
LINE
  5
2EA
100
AcDbEntity
  8
0
100
AcDbLine
 62
4
  6
CONTINUOUS
 10
13.0821384105
 20
8.3835035714
 11
13.0865753044
 21
8.3712305609
  0
LINE
  5
2EB
100
AcDbEntity
  8
0
100
AcDbLine
 62
4
  6
CONTINUOUS
 10
13.0821384105
 20
8.4800961208
 11
13.0865753044
 21
8.4678231103
  0
LINE
  5
2EC
100
AcDbEntity
  8
0
100
AcDbLine
 62
4
  6
CONTINUOUS
 10
13.2139141667
 20
8.1354580076
 11
13.2161326138
 21
8.1293215302
  0
LINE
  5
2ED
100
AcDbEntity
  8
0
100
AcDbLine
 62
4
  6
CONTINUOUS
 10
13.1282821097
 20
8.4639522322
 11
13.1238452153
 21
8.4762252423
  0
LINE
  5
2EE
100
AcDbEntity
  8
0
100
AcDbLine
 62
4
  6
CONTINUOUS
 10
13.2338801901
 20
8.1961404817
 11
13.236098638
 21
8.1900040049
  0
LINE
  5
2EF
100
AcDbEntity
  8
0
100
AcDbLine
 62
4
  6
CONTINUOUS
 10
13.2338801901
 20
8.2706548098
 11
13.236098638
 21
8.2645183331
  0
LINE
  5
2F0
100
AcDbEntity
  8
0
100
AcDbLine
 62
4
  6
CONTINUOUS
 10
13.1504665805
 20
8.5433363385
 11
13.1549034744
 21
8.5310633142
  0
LINE
  5
2F1
100
AcDbEntity
  8
0
100
AcDbLine
 62
4
  6
CONTINUOUS
 10
13.0688277279
 20
8.0477512377
 11
13.0629118689
 21
8.0861935646
  0
LINE
  5
2F2
100
AcDbEntity
  8
0
100
AcDbLine
 62
4
  6
CONTINUOUS
 10
13.0555170453
 20
8.6282485379
 11
13.0555170453
 21
8.5785723467
  0
LINE
  5
2F3
100
AcDbEntity
  8
0
100
AcDbLine
 62
4
  6
CONTINUOUS
 10
13.0555170453
 20
8.1618443189
 11
13.0555170453
 21
8.1121681554
  0
LINE
  5
2F4
100
AcDbEntity
  8
0
100
AcDbLine
 62
4
  6
CONTINUOUS
 10
13.0555170453
 20
8.2253194811
 11
13.0555170453
 21
8.2667163117
  0
LINE
  5
2F5
100
AcDbEntity
  8
0
100
AcDbLine
 62
4
  6
CONTINUOUS
 10
13.0555170453
 20
8.3163924752
 11
13.0555170453
 21
8.3412305846
  0
LINE
  5
2F6
100
AcDbEntity
  8
0
100
AcDbLine
 62
4
  6
CONTINUOUS
 10
13.0555170453
 20
8.4047056916
 11
13.0555170453
 21
8.4378231339
  0
LINE
  5
2F7
100
AcDbEntity
  8
0
100
AcDbLine
 62
4
  6
CONTINUOUS
 10
13.0555170453
 20
8.8904284163
 11
13.0555170453
 21
8.9318252331
  0
LINE
  5
2F8
100
AcDbEntity
  8
0
100
AcDbLine
 62
4
  6
CONTINUOUS
 10
13.064390834
 20
8.8244855587
 11
13.064390834
 21
8.7803289505
  0
LINE
  5
2F9
100
AcDbEntity
  8
0
100
AcDbLine
 62
4
  6
CONTINUOUS
 10
13.0732646227
 20
8.1458697209
 11
13.0732646227
 21
8.1789871633
  0
LINE
  5
2FA
100
AcDbEntity
  8
0
100
AcDbLine
 62
4
  6
CONTINUOUS
 10
13.0732646227
 20
8.6122739123
 11
13.0732646227
 21
8.6453913823
  0
LINE
  5
2FB
100
AcDbEntity
  8
0
100
AcDbLine
 62
4
  6
CONTINUOUS
 10
13.0865753044
 20
8.9618252094
 11
13.0865753044
 21
8.9204283927
  0
LINE
  5
2FC
100
AcDbEntity
  8
0
100
AcDbLine
 62
4
  6
CONTINUOUS
 10
13.0865753044
 20
8.7576008965
 11
13.0865753044
 21
8.6913659842
  0
LINE
  5
2FD
100
AcDbEntity
  8
0
100
AcDbLine
 62
4
  6
CONTINUOUS
 10
13.0865753044
 20
8.6582485142
 11
13.0865753044
 21
8.6085723231
  0
LINE
  5
2FE
100
AcDbEntity
  8
0
100
AcDbLine
 62
4
  6
CONTINUOUS
 10
13.0865753044
 20
8.4678231103
 11
13.0865753044
 21
8.4347056679
  0
LINE
  5
2FF
100
AcDbEntity
  8
0
100
AcDbLine
 62
4
  6
CONTINUOUS
 10
13.0865753044
 20
8.3712305609
 11
13.0865753044
 21
8.3463924515
  0
LINE
  5
300
100
AcDbEntity
  8
0
100
AcDbLine
 62
4
  6
CONTINUOUS
 10
13.0865753044
 20
8.296716288
 11
13.0865753044
 21
8.2553194575
  0
LINE
  5
301
100
AcDbEntity
  8
0
100
AcDbLine
 62
4
  6
CONTINUOUS
 10
13.0865753044
 20
8.1918442952
 11
13.0865753044
 21
8.1421681317
  0
LINE
  5
302
100
AcDbEntity
  8
0
100
AcDbLine
 62
4
  6
CONTINUOUS
 10
13.1238452153
 20
8.4762252423
 11
13.1238452153
 21
8.5010633379
  0
LINE
  5
303
100
AcDbEntity
  8
0
100
AcDbLine
 62
4
  6
CONTINUOUS
 10
13.1549034744
 20
8.5310633142
 11
13.1549034744
 21
8.5062252186
  0
LINE
  5
304
100
AcDbEntity
  8
0
100
AcDbLine
 62
4
  6
CONTINUOUS
 10
13.206519343
 20
8.7575468367
 11
13.206519343
 21
8.7409881155
  0
LINE
  5
305
100
AcDbEntity
  8
0
100
AcDbLine
 62
4
  6
CONTINUOUS
 10
13.2139141667
 20
9.2034960159
 11
13.2139141667
 21
9.1703785571
  0
LINE
  5
306
100
AcDbEntity
  8
0
100
AcDbLine
 62
4
  6
CONTINUOUS
 10
13.2139141667
 20
9.1041436448
 11
13.2139141667
 21
9.0793055424
  0
LINE
  5
307
100
AcDbEntity
  8
0
100
AcDbLine
 62
4
  6
CONTINUOUS
 10
13.2139141667
 20
8.444554265
 11
13.2139141667
 21
8.4031574344
  0
LINE
  5
308
100
AcDbEntity
  8
0
100
AcDbLine
 62
4
  6
CONTINUOUS
 10
13.2139141667
 20
8.1685754499
 11
13.2139141667
 21
8.1354580076
  0
LINE
  5
309
100
AcDbEntity
  8
0
100
AcDbLine
 62
4
  6
CONTINUOUS
 10
13.2139141667
 20
8.2099722252
 11
13.2139141667
 21
8.2430897781
  0
LINE
  5
30A
100
AcDbEntity
  8
0
100
AcDbLine
 62
4
  6
CONTINUOUS
 10
13.2139141667
 20
8.3452018827
 11
13.2139141667
 21
8.3617606039
  0
LINE
  5
30B
100
AcDbEntity
  8
0
100
AcDbLine
 62
4
  6
CONTINUOUS
 10
13.2139141667
 20
8.4859510955
 11
13.2139141667
 21
8.5190685378
  0
LINE
  5
30C
100
AcDbEntity
  8
0
100
AcDbLine
 62
4
  6
CONTINUOUS
 10
13.2139141667
 20
8.6432590295
 11
13.2139141667
 21
8.6763764718
  0
LINE
  5
30D
100
AcDbEntity
  8
0
100
AcDbLine
 62
4
  6
CONTINUOUS
 10
13.2250064023
 20
8.5297828154
 11
13.2250064023
 21
8.496665373
  0
LINE
  5
30E
100
AcDbEntity
  8
0
100
AcDbLine
 62
4
  6
CONTINUOUS
 10
13.236098638
 20
8.8689119044
 11
13.236098638
 21
8.8275150738
  0
LINE
  5
30F
100
AcDbEntity
  8
0
100
AcDbLine
 62
4
  6
CONTINUOUS
 10
13.236098638
 20
8.6978050269
 11
13.236098638
 21
8.6646875845
  0
LINE
  5
310
100
AcDbEntity
  8
0
100
AcDbLine
 62
4
  6
CONTINUOUS
 10
13.236098638
 20
8.6315700869
 11
13.236098638
 21
8.5984526446
  0
LINE
  5
311
100
AcDbEntity
  8
0
100
AcDbLine
 62
4
  6
CONTINUOUS
 10
13.236098638
 20
8.2645183331
 11
13.236098638
 21
8.2314007802
  0
LINE
  5
312
100
AcDbEntity
  8
0
100
AcDbLine
 62
4
  6
CONTINUOUS
 10
13.236098638
 20
8.1900040049
 11
13.236098638
 21
8.1568865626
  0
LINE
  5
313
100
AcDbEntity
  8
0
100
AcDbLine
 62
4
  6
CONTINUOUS
 10
13.236098638
 20
8.5156589835
 11
13.236098638
 21
8.5570558141
  0
LINE
  5
314
100
AcDbEntity
  8
0
100
AcDbLine
 62
4
  6
CONTINUOUS
 10
13.2449724257
 20
9.2252166273
 11
13.2449724257
 21
9.1920991695
  0
LINE
  5
315
100
AcDbEntity
  8
0
100
AcDbLine
 62
4
  6
CONTINUOUS
 10
13.2449724257
 20
8.3255256956
 11
13.2449724257
 21
8.3227659179
  0
LINE
  5
316
100
AcDbEntity
  8
0
100
AcDbLine
 62
4
  6
CONTINUOUS
 10
13.22426692
 20
8.145458
 11
13.2257458846
 21
8.1800040125
  0
LINE
  5
317
100
AcDbEntity
  8
0
100
AcDbLine
 62
4
  6
CONTINUOUS
 10
13.0747435874
 20
8.0976221276
 11
13.0688277279
 21
8.0477512377
  0
LINE
  5
318
100
AcDbEntity
  8
0
100
AcDbLine
 62
4
  6
CONTINUOUS
 10
13.2139141667
 20
8.6763764718
 11
13.2161326138
 21
8.6950780485
  0
LINE
  5
319
100
AcDbEntity
  8
0
100
AcDbLine
 62
4
  6
CONTINUOUS
 10
13.2139141667
 20
8.5190685378
 11
13.2161326138
 21
8.5377701146
  0
LINE
  5
31A
100
AcDbEntity
  8
0
100
AcDbLine
 62
4
  6
CONTINUOUS
 10
13.2257458846
 20
8.1800040125
 11
13.2272248492
 21
8.1897119157
  0
LINE
  5
31B
100
AcDbEntity
  8
0
100
AcDbLine
 62
4
  6
CONTINUOUS
 10
13.2227879554
 20
8.1357500968
 11
13.22426692
 21
8.145458
  0
LINE
  5
31C
100
AcDbEntity
  8
0
100
AcDbLine
 62
4
  6
CONTINUOUS
 10
13.132719004
 20
8.5013553995
 11
13.1238452153
 21
8.4513871605
  0
LINE
  5
31D
100
AcDbEntity
  8
0
100
AcDbLine
 62
4
  6
CONTINUOUS
 10
13.2227879554
 20
9.1623912513
 11
13.236098638
 21
9.2332039358
  0
LINE
  5
31E
100
AcDbEntity
  8
0
100
AcDbLine
 62
4
  6
CONTINUOUS
 10
13.0865753044
 20
8.3463924515
 11
13.0821384105
 21
8.3255480197
  0
LINE
  5
31F
100
AcDbEntity
  8
0
100
AcDbLine
 62
4
  6
CONTINUOUS
 10
13.1238452153
 20
8.5010633379
 11
13.1282821097
 21
8.5219077839
  0
LINE
  5
320
100
AcDbEntity
  8
0
100
AcDbLine
 62
4
  6
CONTINUOUS
 10
13.0865753044
 20
8.2553194575
 11
13.0821384105
 21
8.2344750257
  0
LINE
  5
321
100
AcDbEntity
  8
0
100
AcDbLine
 62
4
  6
CONTINUOUS
 10
13.1549034744
 20
8.5062252186
 11
13.1504665805
 21
8.4853807868
  0
LINE
  5
322
100
AcDbEntity
  8
0
100
AcDbLine
 62
4
  6
CONTINUOUS
 10
13.236098638
 20
8.8275150738
 11
13.2338801901
 21
8.817092857
  0
LINE
  5
323
100
AcDbEntity
  8
0
100
AcDbLine
 62
4
  6
CONTINUOUS
 10
13.2161326138
 20
8.4549765087
 11
13.2139141667
 21
8.444554265
  0
LINE
  5
324
100
AcDbEntity
  8
0
100
AcDbLine
 62
4
  6
CONTINUOUS
 10
13.2139141667
 20
8.3617606039
 11
13.2161326138
 21
8.3721828476
  0
LINE
  5
325
100
AcDbEntity
  8
0
100
AcDbLine
 62
4
  6
CONTINUOUS
 10
13.2139141667
 20
8.2430897781
 11
13.2161326138
 21
8.2535119666
  0
LINE
  5
326
100
AcDbEntity
  8
0
100
AcDbLine
 62
4
  6
CONTINUOUS
 10
13.2161326138
 20
8.1789976384
 11
13.2139141667
 21
8.1685754499
  0
LINE
  5
327
100
AcDbEntity
  8
0
100
AcDbLine
 62
4
  6
CONTINUOUS
 10
13.236098638
 20
8.1568865626
 11
13.2338801901
 21
8.1464643734
  0
LINE
  5
328
100
AcDbEntity
  8
0
100
AcDbLine
 62
4
  6
CONTINUOUS
 10
13.236098638
 20
8.5984526446
 11
13.2338801901
 21
8.5907902331
  0
LINE
  5
329
100
AcDbEntity
  8
0
100
AcDbLine
 62
4
  6
CONTINUOUS
 10
13.2316617441
 20
8.5030939399
 11
13.236098638
 21
8.5156589835
  0
LINE
  5
32A
100
AcDbEntity
  8
0
100
AcDbLine
 62
4
  6
CONTINUOUS
 10
13.0599539397
 20
8.8781553993
 11
13.0555170453
 21
8.8904284163
  0
LINE
  5
32B
100
AcDbEntity
  8
0
100
AcDbLine
 62
4
  6
CONTINUOUS
 10
13.2139141667
 20
9.0793055424
 11
13.218351061
 21
9.0670325323
  0
LINE
  5
32C
100
AcDbEntity
  8
0
100
AcDbLine
 62
4
  6
CONTINUOUS
 10
13.0747435874
 20
8.9724749552
 11
13.0688277279
 21
9.0109172851
  0
LINE
  5
32D
100
AcDbEntity
  8
0
100
AcDbLine
 62
4
  6
CONTINUOUS
 10
13.2227879554
 20
8.5441986812
 11
13.2250064023
 21
8.5297828154
  0
LINE
  5
32E
100
AcDbEntity
  8
0
100
AcDbLine
 62
4
  6
CONTINUOUS
 10
13.2338801901
 20
8.7122208918
 11
13.236098638
 21
8.6978050269
  0
LINE
  5
32F
100
AcDbEntity
  8
0
100
AcDbLine
 62
4
  6
CONTINUOUS
 10
13.2139141667
 20
9.1703785571
 11
13.218351061
 21
9.1581055402
  0
LINE
  5
330
100
AcDbEntity
  8
0
100
AcDbLine
 62
4
  6
CONTINUOUS
 10
13.2405355318
 20
9.2374896465
 11
13.2449724257
 21
9.2252166273
  0
LINE
  5
331
100
AcDbEntity
  8
0
100
AcDbLine
 62
7
  6
CONTINUOUS
 10
13.6096481241
 20
10.9835784551
 11
13.6096481241
 21
7.1198749211
  0
LINE
  5
332
100
AcDbEntity
  8
0
100
AcDbLine
 62
7
  6
CONTINUOUS
 10
13.6096481241
 20
7.1198749211
 11
12.1941679702
 21
5.7526260027
  0
LINE
  5
333
100
AcDbEntity
  8
0
100
AcDbLine
 62
7
  6
CONTINUOUS
 10
9.8058320298
 20
11.2473739973
 11
13.6096481241
 21
10.9835784551
  0
ARC
  5
334
100
AcDbEntity
  8
0
100
AcDbCircle
 62
7
  6
CONTINUOUS
 10
-0.8049907265
 20
10.2140218792
 40
11.1224446732
100
AcDbArc
 50
354.3824178437
 51
354.7865273341
  0
ARC
  5
335
100
AcDbEntity
  8
0
100
AcDbCircle
 62
7
  6
CONTINUOUS
 10
13.3868480983
 20
-0.7455989414
 40
8.9617527477
100
AcDbArc
 50
112.5277353423
 51
112.7203255256
  0
ARC
  5
336
100
AcDbEntity
  8
0
100
AcDbCircle
 62
7
  6
CONTINUOUS
 10
11.8888173131
 20
7.5708069781
 40
1.0190592128
100
AcDbArc
 50
146.4160277137
 51
147.3604966305
  0
ARC
  5
337
100
AcDbEntity
  8
0
100
AcDbCircle
 62
7
  6
CONTINUOUS
 10
11.1410222755
 20
7.4013301383
 40
0.840480035
100
AcDbArc
 50
176.2940427138
 51
180.002052839
  0
ARC
  5
338
100
AcDbEntity
  8
0
100
AcDbCircle
 62
7
  6
CONTINUOUS
 10
10.357298048
 20
8.7934126688
 40
0.8387036602
100
AcDbArc
 50
312.3139633569
 51
313.2211815065
  0
ARC
  5
339
100
AcDbEntity
  8
0
100
AcDbCircle
 62
7
  6
CONTINUOUS
 10
11.0829821261
 20
7.4392500207
 40
0.7619540889
100
AcDbArc
 50
135.4961735086
 51
136.361630878
  0
ARC
  5
33A
100
AcDbEntity
  8
0
100
AcDbCircle
 62
7
  6
CONTINUOUS
 10
11.2401085784
 20
7.2765750271
 40
0.7618782078
100
AcDbArc
 50
311.4904762486
 51
312.9993084103
  0
ARC
  5
33B
100
AcDbEntity
  8
0
100
AcDbCircle
 62
7
  6
CONTINUOUS
 10
11.0828359048
 20
7.4393934195
 40
0.7617492869
100
AcDbArc
 50
134.9389044584
 51
135.4961567936
  0
ARC
  5
33C
100
AcDbEntity
  8
0
100
AcDbCircle
 62
7
  6
CONTINUOUS
 10
9.497080293
 20
7.1185546816
 40
0.6344228749
100
AcDbArc
 50
356.6734683951
 51
358.3583541095
  0
ARC
  5
33D
100
AcDbEntity
  8
0
100
AcDbCircle
 62
7
  6
CONTINUOUS
 10
10.3123217212
 20
8.8731284129
 40
0.6344228749
100
AcDbArc
 50
356.6734683951
 51
358.3583541095
  0
ARC
  5
33E
100
AcDbEntity
  8
0
100
AcDbCircle
 62
7
  6
CONTINUOUS
 10
11.8766010209
 20
8.0933843465
 40
0.6017918387
100
AcDbArc
 50
176.7686661936
 51
180.0013962683
  0
ARC
  5
33F
100
AcDbEntity
  8
0
100
AcDbCircle
 62
7
  6
CONTINUOUS
 10
11.7876502378
 20
8.0171534423
 40
0.5922072299
100
AcDbArc
 50
168.3415664396
 51
180.0433965118
  0
ARC
  5
340
100
AcDbEntity
  8
0
100
AcDbCircle
 62
7
  6
CONTINUOUS
 10
10.5020487291
 20
9.1506704383
 40
0.5917466622
100
AcDbArc
 50
176.8903096959
 51
180.0014484658
  0
ARC
  5
341
100
AcDbEntity
  8
0
100
AcDbCircle
 62
7
  6
CONTINUOUS
 10
11.8825106835
 20
8.0970378424
 40
0.5832066068
100
AcDbArc
 50
177.5345932794
 51
180.0007769808
  0
ARC
  5
342
100
AcDbEntity
  8
0
100
AcDbCircle
 62
7
  6
CONTINUOUS
 10
10.4883308996
 20
7.5680205845
 40
0.558128199
100
AcDbArc
 50
199.8960487328
 51
202.1534961849
  0
ARC
  5
343
100
AcDbEntity
  8
0
100
AcDbCircle
 62
7
  6
CONTINUOUS
 10
11.8841582461
 20
8.0899294577
 40
0.4824660257
100
AcDbArc
 50
179.7025561308
 51
180.0000197073
  0
ARC
  5
344
100
AcDbEntity
  8
0
100
AcDbCircle
 62
7
  6
CONTINUOUS
 10
10.1158217787
 20
9.2528127061
 40
0.2836342711
100
AcDbArc
 50
67.0787987204
 51
71.1029120594
  0
ARC
  5
345
100
AcDbEntity
  8
0
100
AcDbCircle
 62
7
  6
CONTINUOUS
 10
11.1052716755
 20
7.3857708495
 40
0.2632384771
100
AcDbArc
 50
33.6772850338
 51
47.4365848313
  0
ARC
  5
346
100
AcDbEntity
  8
0
100
AcDbCircle
 62
7
  6
CONTINUOUS
 10
10.3385895334
 20
9.3065657684
 40
0.2359282781
100
AcDbArc
 50
112.4095578842
 51
118.4245716071
  0
ARC
  5
347
100
AcDbEntity
  8
0
100
AcDbCircle
 62
7
  6
CONTINUOUS
 10
10.1483318653
 20
7.215664757
 40
0.2358697266
100
AcDbArc
 50
225.7823727959
 51
253.108102786
  0
ARC
  5
348
100
AcDbEntity
  8
0
100
AcDbCircle
 62
7
  6
CONTINUOUS
 10
10.1720997404
 20
9.4676611003
 40
0.1559337429
100
AcDbArc
 50
17.6723089288
 51
21.1471053319
  0
SPLINE
  5
349
100
AcDbEntity
  8
0
100
AcDbSpline
 62
7
  6
CONTINUOUS
 70
0
 71
3
 72
49
 73
45
 74
0
 42
0.0000001
 43
0.0000001
 44
0.0000000001
 40
0.0
 40
0.0
 40
0.0
 40
0.0
 40
0.0417737612
 40
0.0840374079
 40
0.1266587819
 40
0.1695070054
 40
0.212448701
 40
0.2553507859
 40
0.2980801061
 40
0.3405042538
 40
0.3824920091
 40
0.4239138924
 40
0.4646426962
 40
0.5045540236
 40
0.5435268394
 40
0.5814440363
 40
0.6181930245
 40
0.6536663548
 40
0.6877623909
 40
0.7203860578
 40
0.7514496892
 40
0.780874012
 40
0.8085893537
 40
0.8345371708
 40
0.8468342306
 40
0.8586736215
 40
0.8700521874
 40
0.8809680228
 40
0.8914205004
 40
0.9014107098
 40
0.9109413387
 40
0.9200173299
 40
0.9286458445
 40
0.9368369538
 40
0.9446039307
 40
0.9519638612
 40
0.9589383571
 40
0.9655540688
 40
0.9718436438
 40
0.9778460661
 40
0.9836072911
 40
0.989180004
 40
0.9946230597
 40
1.0
 40
1.0
 40
1.0
 40
1.0
 10
12.4652806868
 20
8.610909533
 30
0.0
 10
12.4652806868
 20
8.6181945732
 30
0.0
 10
12.4653943494
 20
8.6328503149
 30
0.0
 10
12.4658967834
 20
8.6549337372
 30
0.0
 10
12.4667307439
 20
8.6771946721
 30
0.0
 10
12.4678934342
 20
8.6995592395
 30
0.0
 10
12.4693810571
 20
8.7219536068
 30
0.0
 10
12.4711886708
 20
8.7443036164
 30
0.0
 10
12.4733102991
 20
8.7665353511
 30
0.0
 10
12.4757389054
 20
8.7885752548
 30
0.0
 10
12.4784664349
 20
8.8103504195
 30
0.0
 10
12.4814838317
 20
8.8317888173
 30
0.0
 10
12.4847810716
 20
8.8528195446
 30
0.0
 10
12.4883471956
 20
8.8733730582
 30
0.0
 10
12.4921703452
 20
8.8933814088
 30
0.0
 10
12.4962378006
 20
8.9127784696
 30
0.0
 10
12.5005360223
 20
8.9315001601
 30
0.0
 10
12.5050506944
 20
8.9494846672
 30
0.0
 10
12.5097667735
 20
8.966672658
 30
0.0
 10
12.5146685368
 20
8.9830075031
 30
0.0
 10
12.5197396384
 20
8.9984354497
 30
0.0
 10
12.5249631717
 20
9.0129059528
 30
0.0
 10
12.5303217504
 20
9.026371446
 30
0.0
 10
12.5349643667
 20
9.0368995688
 30
0.0
 10
12.5387437022
 20
9.0447746026
 30
0.0
 10
12.5415500326
 20
9.0502965579
 30
0.0
 10
12.5443767676
 20
9.0555359943
 30
0.0
 10
12.5472215915
 20
9.0604886502
 30
0.0
 10
12.5500822346
 20
9.0651504636
 30
0.0
 10
12.552956291
 20
9.0695176895
 30
0.0
 10
12.5558415434
 20
9.0735867496
 30
0.0
 10
12.5587356033
 20
9.0773544151
 30
0.0
 10
12.561636279
 20
9.0808176201
 30
0.0
 10
12.5645412994
 20
9.0839736127
 30
0.0
 10
12.5674485035
 20
9.0868198499
 30
0.0
 10
12.5703558166
 20
9.0893539708
 30
0.0
 10
12.5732611468
 20
9.0915738942
 30
0.0
 10
12.5761626132
 20
9.0934775
 30
0.0
 10
12.5790581792
 20
9.0950629756
 30
0.0
 10
12.5819459465
 20
9.0963282682
 30
0.0
 10
12.5848236315
 20
9.0972716049
 30
0.0
 10
12.5876888952
 20
9.0978910802
 30
0.0
 10
12.590538246
 20
9.0981852207
 30
0.0
 10
12.5924299779
 20
9.098163675
 30
0.0
 10
12.5933654309
 20
9.0980988086
 30
0.0
  0
SPLINE
  5
34A
100
AcDbEntity
  8
0
100
AcDbSpline
 62
7
  6
CONTINUOUS
 70
0
 71
3
 72
49
 73
45
 74
0
 42
0.0000001
 43
0.0000001
 44
0.0000000001
 40
0.0
 40
0.0
 40
0.0
 40
0.0
 40
0.0417737612
 40
0.0840374079
 40
0.1266587819
 40
0.1695070054
 40
0.212448701
 40
0.2553507859
 40
0.2980801061
 40
0.3405042538
 40
0.3824920091
 40
0.4239138924
 40
0.4646426962
 40
0.5045540236
 40
0.5435268394
 40
0.5814440363
 40
0.6181930245
 40
0.6536663548
 40
0.6877623909
 40
0.7203860578
 40
0.7514496892
 40
0.780874012
 40
0.8085893537
 40
0.8345371708
 40
0.8468342306
 40
0.8586736215
 40
0.8700521874
 40
0.8809680228
 40
0.8914205004
 40
0.9014107098
 40
0.9109413387
 40
0.9200173299
 40
0.9286458445
 40
0.9368369538
 40
0.9446039307
 40
0.9519638612
 40
0.9589383571
 40
0.9655540688
 40
0.9718436438
 40
0.9778460661
 40
0.9836072911
 40
0.989180004
 40
0.9946230597
 40
1.0
 40
1.0
 40
1.0
 40
1.0
 10
12.4652806868
 20
6.4375762951
 30
0.0
 10
12.4652806868
 20
6.4448613352
 30
0.0
 10
12.4653943494
 20
6.4595170769
 30
0.0
 10
12.4658967834
 20
6.4816004993
 30
0.0
 10
12.4667307439
 20
6.5038614341
 30
0.0
 10
12.4678934342
 20
6.5262260016
 30
0.0
 10
12.4693810571
 20
6.5486203688
 30
0.0
 10
12.4711886708
 20
6.5709703785
 30
0.0
 10
12.4733102991
 20
6.5932021132
 30
0.0
 10
12.4757389054
 20
6.6152420169
 30
0.0
 10
12.4784664349
 20
6.6370171816
 30
0.0
 10
12.4814838317
 20
6.6584555794
 30
0.0
 10
12.4847810716
 20
6.6794863066
 30
0.0
 10
12.4883471956
 20
6.7000398203
 30
0.0
 10
12.4921703452
 20
6.7200481709
 30
0.0
 10
12.4962378006
 20
6.7394452316
 30
0.0
 10
12.5005360223
 20
6.7581669221
 30
0.0
 10
12.5050506944
 20
6.7761514293
 30
0.0
 10
12.5097667735
 20
6.79333942
 30
0.0
 10
12.5146685368
 20
6.8096742652
 30
0.0
 10
12.5197396384
 20
6.8251022118
 30
0.0
 10
12.5249631717
 20
6.8395727149
 30
0.0
 10
12.5303217504
 20
6.8530382081
 30
0.0
 10
12.5349643667
 20
6.8635663309
 30
0.0
 10
12.5387437022
 20
6.8714413646
 30
0.0
 10
12.5415500326
 20
6.87696332
 30
0.0
 10
12.5443767676
 20
6.8822027564
 30
0.0
 10
12.5472215915
 20
6.8871554122
 30
0.0
 10
12.5500822346
 20
6.8918172257
 30
0.0
 10
12.552956291
 20
6.8961844516
 30
0.0
 10
12.5558415434
 20
6.9002535116
 30
0.0
 10
12.5587356033
 20
6.9040211772
 30
0.0
 10
12.561636279
 20
6.9074843822
 30
0.0
 10
12.5645412994
 20
6.9106403748
 30
0.0
 10
12.5674485035
 20
6.9134866119
 30
0.0
 10
12.5703558166
 20
6.9160207328
 30
0.0
 10
12.5732611468
 20
6.9182406563
 30
0.0
 10
12.5761626132
 20
6.9201442621
 30
0.0
 10
12.5790581792
 20
6.9217297377
 30
0.0
 10
12.5819459465
 20
6.9229950302
 30
0.0
 10
12.5848236315
 20
6.9239383669
 30
0.0
 10
12.5876888952
 20
6.9245578422
 30
0.0
 10
12.590538246
 20
6.9248519828
 30
0.0
 10
12.5924299779
 20
6.9248304371
 30
0.0
 10
12.5933654309
 20
6.9247655707
 30
0.0
  0
SPLINE
  5
34B
100
AcDbEntity
  8
0
100
AcDbSpline
 62
7
  6
CONTINUOUS
 70
0
 71
3
 72
24
 73
20
 74
0
 42
0.0000001
 43
0.0000001
 44
0.0000000001
 40
0.0
 40
0.0
 40
0.0
 40
0.0
 40
0.0637774618
 40
0.1273438829
 40
0.1907011132
 40
0.2538548476
 40
0.3168115833
 40
0.3795801813
 40
0.4421711506
 40
0.5045967883
 40
0.5668710012
 40
0.6290092019
 40
0.6910281595
 40
0.7220010173
 40
0.7529508938
 40
0.8147862904
 40
0.8765592275
 40
0.938290167
 40
1.0
 40
1.0
 40
1.0
 40
1.0
 10
11.9826303343
 20
7.2760724527
 30
0.0
 10
11.9826303343
 20
7.2625721342
 30
0.0
 10
11.981984214
 20
7.2356115927
 30
0.0
 10
11.9790676215
 20
7.1953346638
 30
0.0
 10
11.9742117168
 20
7.1553771666
 30
0.0
 10
11.9674277484
 20
7.1158325288
 30
0.0
 10
11.9587311489
 20
7.0767914681
 30
0.0
 10
11.9481419383
 20
7.0383441191
 30
0.0
 10
11.9356844028
 20
7.0005790783
 30
0.0
 10
11.921387217
 20
6.9635834807
 30
0.0
 10
11.9052831704
 20
6.9274424991
 30
0.0
 10
11.8874096708
 20
6.8922400443
 30
0.0
 10
11.8710666483
 20
6.8637403154
 30
0.0
 10
11.8571525356
 20
6.8414952319
 30
0.0
 10
11.8426962364
 20
6.8196451977
 30
0.0
 10
11.8236013239
 20
6.7930598936
 30
0.0
 10
11.7990997861
 20
6.7623973538
 30
0.0
 10
11.7730737095
 20
6.7330539985
 30
0.0
 10
11.7547433932
 20
6.7144133021
 30
0.0
 10
11.7453480217
 20
6.7053380769
 30
0.0
  0
SPLINE
  5
34C
100
AcDbEntity
  8
0
100
AcDbSpline
 62
7
  6
CONTINUOUS
 70
0
 71
3
 72
43
 73
39
 74
0
 42
0.0000001
 43
0.0000001
 44
0.0000000001
 40
0.0
 40
0.0
 40
0.0
 40
0.0
 40
0.0302547849
 40
0.0454265004
 40
0.0606272793
 40
0.0911153914
 40
0.1217247259
 40
0.1370768056
 40
0.1524594084
 40
0.1833124155
 40
0.2142846126
 40
0.2453721718
 40
0.2765697952
 40
0.3078707959
 40
0.3392671955
 40
0.3707498348
 40
0.4023084961
 40
0.4339320357
 40
0.4656085251
 40
0.497325398
 40
0.5290696045
 40
0.5608277678
 40
0.592586345
 40
0.6243317877
 40
0.6560507046
 40
0.6877300208
 40
0.7193571364
 40
0.7509200794
 40
0.7824076542
 40
0.8138095834
 40
0.8451166385
 40
0.8607335253
 40
0.8763237799
 40
0.9074182014
 40
0.938397595
 40
0.9538442471
 40
0.9692609611
 40
1.0
 40
1.0
 40
1.0
 40
1.0
 10
10.9136250656
 20
8.1652189487
 30
0.0
 10
10.9292624633
 20
8.1684288696
 30
0.0
 10
10.9528923433
 20
8.1725521498
 30
0.0
 10
10.9846202108
 20
8.1766564492
 30
0.0
 10
11.0165782454
 20
8.1798414284
 30
0.0
 10
11.0567978972
 20
8.1820753222
 30
0.0
 10
11.0971589029
 20
8.1819754059
 30
0.0
 10
11.1294963887
 20
8.1805015438
 30
0.0
 10
11.1619066127
 20
8.1780931064
 30
0.0
 10
11.2023893122
 20
8.17333528
 30
0.0
 10
11.2507014776
 20
8.1648637997
 30
0.0
 10
11.298639537
 20
8.1536524711
 30
0.0
 10
11.3460443636
 20
8.1397385105
 30
0.0
 10
11.3927599006
 20
8.1231679618
 30
0.0
 10
11.4386320344
 20
8.1039956274
 30
0.0
 10
11.4835095403
 20
8.082284865
 30
0.0
 10
11.5272444591
 20
8.058107386
 30
0.0
 10
11.5696926119
 20
8.0315430128
 30
0.0
 10
11.6107140627
 20
8.0026794173
 30
0.0
 10
11.6501735789
 20
7.9716118322
 30
0.0
 10
11.6879410727
 20
7.9384427386
 30
0.0
 10
11.7238920274
 20
7.9032815298
 30
0.0
 10
11.757907905
 20
7.8662441522
 30
0.0
 10
11.7898765346
 20
7.8274527263
 30
0.0
 10
11.8196924803
 20
7.7870351443
 30
0.0
 10
11.8472573847
 20
7.7451246588
 30
0.0
 10
11.8724803031
 20
7.7018594198
 30
0.0
 10
11.8952779729
 20
7.6573821296
 30
0.0
 10
11.9155751884
 20
7.6118391687
 30
0.0
 10
11.9333046655
 20
7.5653816282
 30
0.0
 10
11.9459017956
 20
7.5259969486
 30
0.0
 10
11.9546378512
 20
7.4941864601
 30
0.0
 10
11.9624606484
 20
7.4622546103
 30
0.0
 10
11.9705457989
 20
7.4220588169
 30
0.0
 10
11.9763519584
 20
7.3815473743
 30
0.0
 10
11.9796064397
 20
7.3490756866
 30
0.0
 10
11.9819288443
 20
7.3166521673
 30
0.0
 10
11.9826303343
 20
7.2922914135
 30
0.0
 10
11.9826303343
 20
7.2760724527
 30
0.0
  0
SPLINE
  5
34D
100
AcDbEntity
  8
0
100
AcDbSpline
 62
7
  6
CONTINUOUS
 70
0
 71
3
 72
45
 73
41
 74
0
 42
0.0000001
 43
0.0000001
 44
0.0000000001
 40
0.0
 40
0.0
 40
0.0
 40
0.0
 40
0.011694795
 40
0.0231000476
 40
0.0343342144
 40
0.0455620022
 40
0.0512454775
 40
0.0570163762
 40
0.0629130332
 40
0.0689779051
 40
0.0817936646
 40
0.0959009485
 40
0.1117923837
 40
0.1300206174
 40
0.1402018502
 40
0.1511936736
 40
0.163071554
 40
0.1759070644
 40
0.1897620841
 40
0.204683797
 40
0.2206984436
 40
0.2378044707
 40
0.2559674437
 40
0.275118917
 40
0.2951594354
 40
0.3159657925
 40
0.3374014908
 40
0.3593279034
 40
0.4041398868
 40
0.4495479024
 40
0.4949718693
 40
0.5400679995
 40
0.5846554597
 40
0.628654107
 40
0.6720415446
 40
0.7148265118
 40
0.7570334501
 40
0.8398421593
 40
0.920745259
 40
1.0
 40
1.0
 40
1.0
 40
1.0
 10
10.9792763026
 20
7.8554068231
 30
0.0
 10
10.9781124961
 20
7.855130933
 30
0.0
 10
10.9757852246
 20
7.8546961713
 30
0.0
 10
10.9722748108
 20
7.8544422116
 30
0.0
 10
10.96880606
 20
7.8546319296
 30
0.0
 10
10.9659720702
 20
7.8551994105
 30
0.0
 10
10.9637632404
 20
7.8559149057
 30
0.0
 10
10.9621223842
 20
7.856595841
 30
0.0
 10
10.9605077992
 20
7.8574263047
 30
0.0
 10
10.9583555465
 20
7.8587686764
 30
0.0
 10
10.9557302095
 20
7.8609144374
 30
0.0
 10
10.9528237333
 20
7.8642134096
 30
0.0
 10
10.9501571504
 20
7.8683836895
 30
0.0
 10
10.9482680637
 20
7.8725174035
 30
0.0
 10
10.9469325686
 20
7.8763211864
 30
0.0
 10
10.9460043943
 20
7.8795736275
 30
0.0
 10
10.9452007985
 20
7.8831375841
 30
0.0
 10
10.9445377989
 20
7.8870277461
 30
0.0
 10
10.9440325167
 20
7.8912551114
 30
0.0
 10
10.9437022916
 20
7.8958257161
 30
0.0
 10
10.9435639854
 20
7.9007386898
 30
0.0
 10
10.9436326766
 20
7.90598456
 30
0.0
 10
10.9439202577
 20
7.9115441584
 30
0.0
 10
10.9444342263
 20
7.9173886455
 30
0.0
 10
10.9451768106
 20
7.9234808356
 30
0.0
 10
10.9461446958
 20
7.9297776587
 30
0.0
 10
10.9473294232
 20
7.9362334212
 30
0.0
 10
10.9491952001
 20
7.9450570337
 30
0.0
 10
10.951988095
 20
7.9561860459
 30
0.0
 10
10.9559354793
 20
7.9694888784
 30
0.0
 10
10.9603800444
 20
7.9826639461
 30
0.0
 10
10.9652173599
 20
7.995609633
 30
0.0
 10
10.9703659995
 20
8.0082769859
 30
0.0
 10
10.9757643561
 20
8.020649147
 30
0.0
 10
10.9813663066
 20
8.032727271
 30
0.0
 10
10.9871372667
 20
8.0445217212
 30
0.0
 10
10.9949719731
 20
8.0597913423
 30
0.0
 10
11.0050740311
 20
8.0782749697
 30
0.0
 10
11.017649357
 20
8.0997104912
 30
0.0
 10
11.026315619
 20
8.1136123758
 30
0.0
 10
11.0306871834
 20
8.1204380905
 30
0.0
  0
SPLINE
  5
34E
100
AcDbEntity
  8
0
100
AcDbSpline
 62
7
  6
CONTINUOUS
 70
0
 71
3
 72
10
 73
6
 74
0
 42
0.0000001
 43
0.0000001
 44
0.0000000001
 40
0.0
 40
0.0
 40
0.0
 40
0.0
 40
0.483658329
 40
0.7375633759
 40
1.0
 40
1.0
 40
1.0
 40
1.0
 10
10.9792763026
 20
7.8554068231
 30
0.0
 10
10.981456423
 20
7.8559236391
 30
0.0
 10
10.9847142699
 20
7.8570125926
 30
0.0
 10
10.9889369362
 20
7.8589200438
 30
0.0
 10
10.9910539963
 20
7.8600375228
 30
0.0
 10
10.9921133705
 20
7.8606339588
 30
0.0
  0
SPLINE
  5
34F
100
AcDbEntity
  8
0
100
AcDbSpline
 62
7
  6
CONTINUOUS
 70
0
 71
3
 72
47
 73
43
 74
0
 42
0.0000001
 43
0.0000001
 44
0.0000000001
 40
0.0
 40
0.0
 40
0.0
 40
0.0
 40
0.0381813666
 40
0.0776726607
 40
0.1187836105
 40
0.1618939157
 40
0.2074253058
 40
0.2312213452
 40
0.2557279355
 40
0.2809147735
 40
0.3066843883
 40
0.3328533952
 40
0.3591518319
 40
0.385252723
 40
0.4108294156
 40
0.4356140716
 40
0.4594316983
 40
0.4821999562
 40
0.5039088522
 40
0.5443095098
 40
0.5811554462
 40
0.6150083269
 40
0.6309701089
 40
0.6463571125
 40
0.6612151478
 40
0.6755841686
 40
0.689500388
 40
0.7029952249
 40
0.7288292711
 40
0.7532842458
 40
0.7765206973
 40
0.8198434454
 40
0.8401735712
 40
0.8597429968
 40
0.8786452025
 40
0.8969713305
 40
0.9148121402
 40
0.9322592493
 40
0.9494057858
 40
0.9663469094
 40
0.9831789869
 40
1.0
 40
1.0
 40
1.0
 40
1.0
 10
11.1148808755
 20
7.3755897834
 30
0.0
 10
11.1100390887
 20
7.3781644893
 30
0.0
 10
11.1003168032
 20
7.3836467296
 30
0.0
 10
11.0859266311
 20
7.3928274031
 30
0.0
 10
11.0715502856
 20
7.40329084
 30
0.0
 10
11.0572681424
 20
7.4152874357
 30
0.0
 10
11.0457494533
 20
7.4266364153
 30
0.0
 10
11.036801036
 20
7.4367193998
 30
0.0
 10
11.0301816364
 20
7.4449465086
 30
0.0
 10
11.0238272193
 20
7.4537328859
 30
0.0
 10
11.0178291185
 20
7.4630523605
 30
0.0
 10
11.0122899879
 20
7.4728362305
 30
0.0
 10
11.0073108292
 20
7.4829700048
 30
0.0
 10
11.0029731286
 20
7.4933022845
 30
0.0
 10
10.9993238422
 20
7.5036667503
 30
0.0
 10
10.9963690242
 20
7.5139087275
 30
0.0
 10
10.9940784527
 20
7.5239052615
 30
0.0
 10
10.9923978721
 20
7.5335736893
 30
0.0
 10
10.9909180121
 20
7.5456782085
 30
0.0
 10
10.9901835834
 20
7.5598932198
 30
0.0
 10
10.9907328262
 20
7.5758572072
 30
0.0
 10
10.9921309228
 20
7.5882377394
 30
0.0
 10
10.9936905162
 20
7.5974731223
 30
0.0
 10
10.9950225136
 20
7.6039759067
 30
0.0
 10
10.9965179054
 20
7.6102078508
 30
0.0
 10
10.9981609946
 20
7.6161835915
 30
0.0
 10
10.9999353701
 20
7.6219170028
 30
0.0
 10
11.0024249049
 20
7.6291488266
 30
0.0
 10
11.0057996861
 20
7.6376719787
 30
0.0
 10
11.0102752025
 20
7.6472441694
 30
0.0
 10
11.0165102601
 20
7.6587392749
 30
0.0
 10
11.0234158072
 20
7.6691776344
 30
0.0
 10
11.0309197807
 20
7.6784893322
 30
0.0
 10
11.0366252765
 20
7.6847241204
 30
0.0
 10
11.0425122777
 20
7.6903794396
 30
0.0
 10
11.0485709886
 20
7.6954729032
 30
0.0
 10
11.054793391
 20
7.7000193779
 30
0.0
 10
11.0611745849
 20
7.7040304815
 30
0.0
 10
11.0677110599
 20
7.7075166271
 30
0.0
 10
11.0744017251
 20
7.7104856385
 30
0.0
 10
11.0812458766
 20
7.7129452216
 30
0.0
 10
11.0859057241
 20
7.7142473168
 30
0.0
 10
11.0882541839
 20
7.7148142283
 30
0.0
  0
SPLINE
  5
350
100
AcDbEntity
  8
0
100
AcDbSpline
 62
7
  6
CONTINUOUS
 70
0
 71
3
 72
26
 73
22
 74
0
 42
0.0000001
 43
0.0000001
 44
0.0000000001
 40
0.0
 40
0.0
 40
0.0
 40
0.0
 40
0.1198142138
 40
0.1798472063
 40
0.2400122583
 40
0.3003539797
 40
0.3609225349
 40
0.4217765717
 40
0.4829834341
 40
0.5446243034
 40
0.6067950202
 40
0.6381160518
 40
0.6696153265
 40
0.7013118732
 40
0.7332272093
 40
0.7978072968
 40
0.8305319298
 40
0.8635885243
 40
0.930856667
 40
0.9651677248
 40
1.0
 40
1.0
 40
1.0
 40
1.0
 10
11.3816950682
 20
7.319927947
 30
0.0
 10
11.3707107214
 20
7.3200540655
 30
0.0
 10
11.3542236008
 20
7.3205103093
 30
0.0
 10
11.3322503205
 20
7.3217148802
 30
0.0
 10
11.3157416753
 20
7.3229365241
 30
0.0
 10
11.2992124284
 20
7.324499106
 30
0.0
 10
11.2826577755
 20
7.3264250747
 30
0.0
 10
11.266073493
 20
7.3287454509
 30
0.0
 10
11.2494542799
 20
7.3314906634
 30
0.0
 10
11.2327956024
 20
7.3347018543
 30
0.0
 10
11.2189101849
 20
7.3377940707
 30
0.0
 10
11.2077855479
 20
7.3405466806
 30
0.0
 10
11.1994080596
 20
7.3427645678
 30
0.0
 10
11.1910170044
 20
7.3451395027
 30
0.0
 10
11.1797667191
 20
7.3485422483
 30
0.0
 10
11.1685237439
 20
7.3522896496
 30
0.0
 10
11.1573062567
 20
7.3564175009
 30
0.0
 10
11.1459513154
 20
7.3608769476
 30
0.0
 10
11.1346195396
 20
7.3657869765
 30
0.0
 10
11.1233407452
 20
7.371193991
 30
0.0
 10
11.1177005618
 20
7.3740903652
 30
0.0
 10
11.1148808755
 20
7.3755897834
 30
0.0
  0
SPLINE
  5
351
100
AcDbEntity
  8
0
100
AcDbSpline
 62
7
  6
CONTINUOUS
 70
0
 71
3
 72
15
 73
11
 74
0
 42
0.0000001
 43
0.0000001
 44
0.0000000001
 40
0.0
 40
0.0
 40
0.0
 40
0.0
 40
0.1265527251
 40
0.2571819702
 40
0.3893152263
 40
0.5205473065
 40
0.6487929928
 40
0.7723328538
 40
0.8897783118
 40
1.0
 40
1.0
 40
1.0
 40
1.0
 10
10.7319757285
 20
8.5069168554
 30
0.0
 10
10.735259867
 20
8.5085675963
 30
0.0
 10
10.7418721425
 20
8.5120462854
 30
0.0
 10
10.7517036658
 20
8.5176354172
 30
0.0
 10
10.7614824432
 20
8.5235819733
 30
0.0
 10
10.7710420473
 20
8.5297473906
 30
0.0
 10
10.780246009
 20
8.5359975045
 30
0.0
 10
10.7889884741
 20
8.542209765
 30
0.0
 10
10.7971897572
 20
8.5482763146
 30
0.0
 10
10.8024375195
 20
8.5523000689
 30
0.0
 10
10.8049619079
 20
8.554268831
 30
0.0
  0
SPLINE
  5
352
100
AcDbEntity
  8
0
100
AcDbSpline
 62
7
  6
CONTINUOUS
 70
0
 71
3
 72
39
 73
35
 74
0
 42
0.0000001
 43
0.0000001
 44
0.0000000001
 40
0.0
 40
0.0
 40
0.0
 40
0.0
 40
0.0318145474
 40
0.0637145392
 40
0.0956873716
 40
0.1277187312
 40
0.1597937761
 40
0.1918969799
 40
0.2240124318
 40
0.2561240497
 40
0.2882158048
 40
0.3202719463
 40
0.3522772228
 40
0.3842170998
 40
0.4160779691
 40
0.4478473482
 40
0.4795140689
 40
0.5110684504
 40
0.5425024572
 40
0.573809835
 40
0.6049862249
 40
0.636029252
 40
0.6669385883
 40
0.6977159845
 40
0.7283652684
 40
0.7588923102
 40
0.7893049533
 40
0.8196129098
 40
0.8498276214
 40
0.8799620835
 40
0.9100306466
 40
0.9400487714
 40
0.9700327092
 40
1.0
 40
1.0
 40
1.0
 40
1.0
 10
10.5790106109
 20
9.7283410801
 30
0.0
 10
10.5971903849
 20
9.7205013543
 30
0.0
 10
10.6331410682
 20
9.7037145339
 30
0.0
 10
10.6855441136
 20
9.6753677203
 30
0.0
 10
10.7363101881
 20
9.6439232868
 30
0.0
 10
10.7852405529
 20
9.6095038624
 30
0.0
 10
10.8321466401
 20
9.572242467
 30
0.0
 10
10.8768469057
 20
9.5322832907
 30
0.0
 10
10.9191685675
 20
9.4897809061
 30
0.0
 10
10.9589479539
 20
9.4448996996
 30
0.0
 10
10.996031211
 20
9.397813223
 30
0.0
 10
11.0302748687
 20
9.3487035347
 30
0.0
 10
11.0615464009
 20
9.2977605057
 30
0.0
 10
11.0897247762
 20
9.2451811144
 30
0.0
 10
11.1147008787
 20
9.1911686587
 30
0.0
 10
11.1363779309
 20
9.1359319835
 30
0.0
 10
11.1546718642
 20
9.0796846809
 30
0.0
 10
11.169511654
 20
9.0226442784
 30
0.0
 10
11.1808396406
 20
8.9650314138
 30
0.0
 10
11.1886117029
 20
8.9070689727
 30
0.0
 10
11.1927974403
 20
8.8489812402
 30
0.0
 10
11.1933802935
 20
8.7909930425
 30
0.0
 10
11.1903576327
 20
8.7333288864
 30
0.0
 10
11.1837408195
 20
8.6762120895
 30
0.0
 10
11.1735551186
 20
8.6198639187
 30
0.0
 10
11.159839623
 20
8.5645027374
 30
0.0
 10
11.1426471126
 20
8.5103431625
 30
0.0
 10
11.1220438801
 20
8.4575952191
 30
0.0
 10
11.0981095367
 20
8.4064635205
 30
0.0
 10
11.0709365894
 20
8.3571464072
 30
0.0
 10
11.0406303745
 20
8.3098354306
 30
0.0
 10
11.0073076491
 20
8.2647136647
 30
0.0
 10
10.9710997516
 20
8.2219582092
 30
0.0
 10
10.9451229486
 20
8.1951347172
 30
0.0
 10
10.9317099931
 20
8.1821785616
 30
0.0
  0
SPLINE
  5
353
100
AcDbEntity
  8
0
100
AcDbSpline
 62
7
  6
CONTINUOUS
 70
0
 71
3
 72
15
 73
11
 74
0
 42
0.0000001
 43
0.0000001
 44
0.0000000001
 40
0.0
 40
0.0
 40
0.0
 40
0.0
 40
0.1241845892
 40
0.2484528881
 40
0.3728859323
 40
0.4975596548
 40
0.6225458899
 40
0.7479104434
 40
0.8737112767
 40
1.0
 40
1.0
 40
1.0
 40
1.0
 10
10.5393667965
 20
7.9735199298
 30
0.0
 10
10.5524192284
 20
7.9860568539
 30
0.0
 10
10.5794372878
 20
8.0102167041
 30
0.0
 10
10.6224573034
 20
8.0434905832
 30
0.0
 10
10.6677940739
 20
8.0736650189
 30
0.0
 10
10.7152442009
 20
8.1006039471
 30
0.0
 10
10.7645976813
 20
8.1241889299
 30
0.0
 10
10.8156364343
 20
8.1443156785
 30
0.0
 10
10.8681311044
 20
8.1608949296
 30
0.0
 10
10.9038784608
 20
8.1695181322
 30
0.0
 10
10.9219072684
 20
8.1732189428
 30
0.0
  0
SPLINE
  5
354
100
AcDbEntity
  8
0
100
AcDbSpline
 62
7
  6
CONTINUOUS
 70
0
 71
3
 72
14
 73
10
 74
0
 42
0.0000001
 43
0.0000001
 44
0.0000000001
 40
0.0
 40
0.0
 40
0.0
 40
0.0
 40
0.1222283052
 40
0.2474346178
 40
0.3744246167
 40
0.5020388704
 40
0.6292249456
 40
0.7550791482
 40
1.0
 40
1.0
 40
1.0
 40
1.0
 10
9.909797826
 20
9.3280639586
 30
0.0
 10
9.9118226486
 20
9.3329351484
 30
0.0
 10
9.9161406633
 20
9.3427064202
 30
0.0
 10
9.9232685075
 20
9.3572136157
 30
0.0
 10
9.9310470872
 20
9.3716469224
 30
0.0
 10
9.9393645178
 20
9.3858748606
 30
0.0
 10
9.94810438
 20
9.3997890507
 30
0.0
 10
9.9600612105
 20
9.4176500111
 30
0.0
 10
9.9694826032
 20
9.4305949868
 30
0.0
 10
9.975889816
 20
9.4390023881
 30
0.0
  0
SPLINE
  5
355
100
AcDbEntity
  8
0
100
AcDbSpline
 62
7
  6
CONTINUOUS
 70
0
 71
3
 72
23
 73
19
 74
0
 42
0.0000001
 43
0.0000001
 44
0.0000000001
 40
0.0
 40
0.0
 40
0.0
 40
0.0
 40
0.0636783458
 40
0.1271588214
 40
0.1904438462
 40
0.2535401826
 40
0.3164546199
 40
0.3791961718
 40
0.441775141
 40
0.5042033236
 40
0.5664938368
 40
0.62866103
 40
0.690720361
 40
0.7526882624
 40
0.8145819974
 40
0.8764195052
 40
0.9382192395
 40
1.0
 40
1.0
 40
1.0
 40
1.0
 10
10.3769874936
 20
7.0185854001
 30
0.0
 10
10.3764194998
 20
7.004549718
 30
0.0
 10
10.374644945
 20
6.9765435579
 30
0.0
 10
10.3700604535
 20
6.934769055
 30
0.0
 10
10.3635665199
 20
6.8933774096
 30
0.0
 10
10.355176767
 20
6.8524555924
 30
0.0
 10
10.344908308
 20
6.8120878268
 30
0.0
 10
10.3327824049
 20
6.7723578043
 30
0.0
 10
10.3188240395
 20
6.7333477192
 30
0.0
 10
10.3030620445
 20
6.6951383402
 30
0.0
 10
10.2855289728
 20
6.6578087752
 30
0.0
 10
10.2662610665
 20
6.6214363155
 30
0.0
 10
10.2452981719
 20
6.5860962811
 30
0.0
 10
10.2226836297
 20
6.5518618375
 30
0.0
 10
10.1984642924
 20
6.5188039451
 30
0.0
 10
10.1726900319
 20
6.4869908274
 30
0.0
 10
10.1454151097
 20
6.4564892574
 30
0.0
 10
10.1262657695
 20
6.43706815
 30
0.0
 10
10.1164633592
 20
6.4275997447
 30
0.0
  0
SPLINE
  5
356
100
AcDbEntity
  8
0
100
AcDbSpline
 62
7
  6
CONTINUOUS
 70
0
 71
3
 72
15
 73
11
 74
0
 42
0.0000001
 43
0.0000001
 44
0.0000000001
 40
0.0
 40
0.0
 40
0.0
 40
0.0
 40
0.1273482292
 40
0.2538605354
 40
0.3795879276
 40
0.5046050833
 40
0.6290174349
 40
0.7529533662
 40
0.8765605734
 40
1.0
 40
1.0
 40
1.0
 40
1.0
 10
9.8685053477
 20
7.4026720109
 30
0.0
 10
9.8685053477
 20
7.3988222625
 30
0.0
 10
9.8681377758
 20
7.3911427133
 30
0.0
 10
9.8664754591
 20
7.3797710888
 30
0.0
 10
9.8637190564
 20
7.368685191
 30
0.0
 10
9.8598934593
 20
7.3579886995
 30
0.0
 10
9.8550337922
 20
7.3477802513
 30
0.0
 10
9.8491843366
 20
7.3381541117
 30
0.0
 10
9.8424000929
 20
7.3292004796
 30
0.0
 10
9.8372919035
 20
7.3237310878
 30
0.0
 10
9.8346079384
 20
7.3211385877
 30
0.0
  0
SPLINE
  5
357
100
AcDbEntity
  8
0
100
AcDbSpline
 62
7
  6
CONTINUOUS
 70
0
 71
3
 72
37
 73
33
 74
0
 42
0.0000001
 43
0.0000001
 44
0.0000000001
 40
0.0
 40
0.0
 40
0.0
 40
0.0
 40
0.0063161244
 40
0.0126711457
 40
0.0191032048
 40
0.0256489923
 40
0.0392092523
 40
0.0536075707
 40
0.0690448396
 40
0.0856783189
 40
0.1036268182
 40
0.1229770616
 40
0.1437901856
 40
0.1661064488
 40
0.1899495672
 40
0.2153299516
 40
0.2422467168
 40
0.2706900061
 40
0.3006420941
 40
0.3320784573
 40
0.3649689672
 40
0.3992781128
 40
0.4349658997
 40
0.4719882735
 40
0.5102972344
 40
0.5498415765
 40
0.5905668526
 40
0.6324157309
 40
0.7192402861
 40
0.8098104776
 40
0.9035852492
 40
1.0
 40
1.0
 40
1.0
 40
1.0
 10
12.5393334501
 20
6.1456368699
 30
0.0
 10
12.5386734298
 20
6.1456826372
 30
0.0
 10
12.5373524418
 20
6.1458284877
 30
0.0
 10
12.5353857731
 20
6.1462085967
 30
0.0
 10
12.5334321885
 20
6.1467501269
 30
0.0
 10
12.5308163245
 20
6.1476976082
 30
0.0
 10
12.5275658873
 20
6.1493083166
 30
0.0
 10
12.5237882806
 20
6.151857009
 30
0.0
 10
12.5200896743
 20
6.1550361776
 30
0.0
 10
12.5164741635
 20
6.1588386233
 30
0.0
 10
12.5129450433
 20
6.1632576661
 30
0.0
 10
12.509506336
 20
6.168286244
 30
0.0
 10
12.5061625599
 20
6.1739166861
 30
0.0
 10
12.5029184286
 20
6.1801403008
 30
0.0
 10
12.4997788271
 20
6.1869473996
 30
0.0
 10
12.4967487296
 20
6.1943272583
 30
0.0
 10
12.4938329318
 20
6.2022680797
 30
0.0
 10
12.4910362266
 20
6.2107570948
 30
0.0
 10
12.4883632127
 20
6.219780549
 30
0.0
 10
12.4858182706
 20
6.2293237486
 30
0.0
 10
12.4834056788
 20
6.2393711136
 30
0.0
 10
12.4811294081
 20
6.2499061847
 30
0.0
 10
12.4789932522
 20
6.2609116784
 30
0.0
 10
12.4770008015
 20
6.2723695158
 30
0.0
 10
12.4751553266
 20
6.284260852
 30
0.0
 10
12.4734599486
 20
6.2965661104
 30
0.0
 10
12.4719174488
 20
6.3092650461
 30
0.0
 10
12.4700451817
 20
6.3269108409
 30
0.0
 10
12.4681202277
 20
6.3497986959
 30
0.0
 10
12.4664803466
 20
6.3781588463
 30
0.0
 10
12.4654946248
 20
6.4075541265
 30
0.0
 10
12.4652806868
 20
6.4274769851
 30
0.0
 10
12.4652806868
 20
6.4375762951
 30
0.0
  0
SPLINE
  5
358
100
AcDbEntity
  8
0
100
AcDbSpline
 62
7
  6
CONTINUOUS
 70
0
 71
3
 72
37
 73
33
 74
0
 42
0.0000001
 43
0.0000001
 44
0.0000000001
 40
0.0
 40
0.0
 40
0.0
 40
0.0
 40
0.0063161244
 40
0.0126711457
 40
0.0191032048
 40
0.0256489923
 40
0.0392092523
 40
0.0536075707
 40
0.0690448396
 40
0.0856783189
 40
0.1036268182
 40
0.1229770616
 40
0.1437901856
 40
0.1661064488
 40
0.1899495672
 40
0.2153299516
 40
0.2422467168
 40
0.2706900061
 40
0.3006420941
 40
0.3320784573
 40
0.3649689672
 40
0.3992781128
 40
0.4349658997
 40
0.4719882735
 40
0.5102972344
 40
0.5498415765
 40
0.5905668526
 40
0.6324157309
 40
0.7192402861
 40
0.8098104776
 40
0.9035852492
 40
1.0
 40
1.0
 40
1.0
 40
1.0
 10
12.5393334501
 20
8.3189701078
 30
0.0
 10
12.5386734298
 20
8.3190158751
 30
0.0
 10
12.5373524418
 20
8.3191617257
 30
0.0
 10
12.5353857731
 20
8.3195418346
 30
0.0
 10
12.5334321885
 20
8.3200833648
 30
0.0
 10
12.5308163245
 20
8.3210308462
 30
0.0
 10
12.5275658873
 20
8.3226415545
 30
0.0
 10
12.5237882806
 20
8.3251902469
 30
0.0
 10
12.5200896743
 20
8.3283694155
 30
0.0
 10
12.5164741635
 20
8.3321718612
 30
0.0
 10
12.5129450433
 20
8.336590904
 30
0.0
 10
12.509506336
 20
8.3416194819
 30
0.0
 10
12.5061625599
 20
8.347249924
 30
0.0
 10
12.5029184286
 20
8.3534735387
 30
0.0
 10
12.4997788271
 20
8.3602806375
 30
0.0
 10
12.4967487296
 20
8.3676604962
 30
0.0
 10
12.4938329318
 20
8.3756013177
 30
0.0
 10
12.4910362266
 20
8.3840903328
 30
0.0
 10
12.4883632127
 20
8.3931137869
 30
0.0
 10
12.4858182706
 20
8.4026569865
 30
0.0
 10
12.4834056788
 20
8.4127043516
 30
0.0
 10
12.4811294081
 20
8.4232394226
 30
0.0
 10
12.4789932522
 20
8.4342449163
 30
0.0
 10
12.4770008015
 20
8.4457027538
 30
0.0
 10
12.4751553266
 20
8.4575940899
 30
0.0
 10
12.4734599486
 20
8.4698993483
 30
0.0
 10
12.4719174488
 20
8.482598284
 30
0.0
 10
12.4700451817
 20
8.5002440788
 30
0.0
 10
12.4681202277
 20
8.5231319338
 30
0.0
 10
12.4664803466
 20
8.5514920842
 30
0.0
 10
12.4654946248
 20
8.5808873644
 30
0.0
 10
12.4652806868
 20
8.6008102231
 30
0.0
 10
12.4652806868
 20
8.610909533
 30
0.0
  0
SPLINE
  5
359
100
AcDbEntity
  8
0
100
AcDbSpline
 62
7
  6
CONTINUOUS
 70
0
 71
3
 72
22
 73
18
 74
0
 42
0.0000001
 43
0.0000001
 44
0.0000000001
 40
0.0
 40
0.0
 40
0.0
 40
0.0
 40
0.0476272075
 40
0.096347599
 40
0.1464534978
 40
0.1982046605
 40
0.2518249785
 40
0.3075064726
 40
0.3654062688
 40
0.4256545696
 40
0.4883521734
 40
0.5535781785
 40
0.6213881489
 40
0.6918196182
 40
0.7648962622
 40
0.8406296116
 40
1.0
 40
1.0
 40
1.0
 40
1.0
 10
11.4348938706
 20
7.3372443919
 30
0.0
 10
11.4343178261
 20
7.3365314613
 30
0.0
 10
11.43308674
 20
7.3351411719
 30
0.0
 10
11.4310415518
 20
7.3331973428
 30
0.0
 10
11.4287827867
 20
7.3313771287
 30
0.0
 10
11.4263134149
 20
7.3296826361
 30
0.0
 10
11.4236364505
 20
7.3281156123
 30
0.0
 10
11.4207552073
 20
7.3266780739
 30
0.0
 10
11.4176732841
 20
7.3253719552
 30
0.0
 10
11.4143945579
 20
7.324199426
 30
0.0
 10
11.4109231992
 20
7.3231626256
 30
0.0
 10
11.4072637039
 20
7.3222638725
 30
0.0
 10
11.403420882
 20
7.3215054639
 30
0.0
 10
11.3993998508
 20
7.3208897923
 30
0.0
 10
11.3952058158
 20
7.320419246
 30
0.0
 10
11.3892901654
 20
7.3199813287
 30
0.0
 10
11.3847618912
 20
7.3198927348
 30
0.0
 10
11.3816950682
 20
7.319927947
 30
0.0
  0
SPLINE
  5
35A
100
AcDbEntity
  8
0
100
AcDbSpline
 62
7
  6
CONTINUOUS
 70
0
 71
3
 72
47
 73
43
 74
0
 42
0.0000001
 43
0.0000001
 44
0.0000000001
 40
0.0
 40
0.0
 40
0.0
 40
0.0
 40
0.01491376
 40
0.0298316135
 40
0.0447556025
 40
0.0596897218
 40
0.0746371105
 40
0.0896008501
 40
0.1045840385
 40
0.1195895936
 40
0.1346203013
 40
0.1496788014
 40
0.1647675577
 40
0.1798888494
 40
0.1950447633
 40
0.2102371779
 40
0.2254677533
 40
0.2407379284
 40
0.2713961902
 40
0.3022243466
 40
0.3332253859
 40
0.3643984806
 40
0.3957390673
 40
0.4272390308
 40
0.4588869262
 40
0.4906682769
 40
0.5225659116
 40
0.5545603433
 40
0.5866301774
 40
0.6187525515
 40
0.6509035824
 40
0.6830588354
 40
0.715193795
 40
0.7472843354
 40
0.779307191
 40
0.8112404128
 40
0.8430638106
 40
0.8747593699
 40
0.9063116532
 40
0.9377081455
 40
0.968939388
 40
1.0
 40
1.0
 40
1.0
 40
1.0
 10
10.6456170422
 20
7.9468534464
 30
0.0
 10
10.6520759606
 20
7.9530922829
 30
0.0
 10
10.6652455685
 20
7.9653158043
 30
0.0
 10
10.6857164008
 20
7.9828526465
 30
0.0
 10
10.7068785188
 20
7.999569256
 30
0.0
 10
10.728702346
 20
8.0154422896
 30
0.0
 10
10.7511586171
 20
8.0304503444
 30
0.0
 10
10.7742167513
 20
8.0445727951
 30
0.0
 10
10.7978454372
 20
8.0577902236
 30
0.0
 10
10.8220125743
 20
8.0700844569
 30
0.0
 10
10.8466852797
 20
8.0814385658
 30
0.0
 10
10.8718300073
 20
8.0918367761
 30
0.0
 10
10.897412519
 20
8.1012646292
 30
0.0
 10
10.923397914
 20
8.1097090248
 30
0.0
 10
10.9497507891
 20
8.1171580815
 30
0.0
 10
10.976435021
 20
8.1236012525
 30
0.0
 10
11.0034146069
 20
8.129029483
 30
0.0
 10
11.0397750445
 20
8.1349107128
 30
0.0
 10
11.0857941799
 20
8.1396801825
 30
0.0
 10
11.1415124473
 20
8.1412416484
 30
0.0
 10
11.1975030406
 20
8.13863973
 30
0.0
 10
11.2534552638
 20
8.1318861342
 30
0.0
 10
11.3090609259
 20
8.1210162819
 30
0.0
 10
11.3640126256
 20
8.106088145
 30
0.0
 10
11.418006498
 20
8.0871824901
 30
0.0
 10
11.4707437359
 20
8.0644023444
 30
0.0
 10
11.5219322802
 20
8.0378722555
 30
0.0
 10
11.5712886554
 20
8.0077379803
 30
0.0
 10
11.6185394626
 20
7.9741653524
 30
0.0
 10
11.6634229615
 20
7.937339455
 30
0.0
 10
11.7056907185
 20
7.8974637326
 30
0.0
 10
11.7451087636
 20
7.8547585429
 30
0.0
 10
11.7814591514
 20
7.8094601785
 30
0.0
 10
11.8145411337
 20
7.7618194177
 30
0.0
 10
11.8441721252
 20
7.7121000085
 30
0.0
 10
11.8701890666
 20
7.6605773684
 30
0.0
 10
11.8924490221
 20
7.607536836
 30
0.0
 10
11.9108300845
 20
7.5532719954
 30
0.0
 10
11.9252322184
 20
7.4980834973
 30
0.0
 10
11.9355773698
 20
7.4422755315
 30
0.0
 10
11.9418104541
 20
7.3861604564
 30
0.0
 10
11.943206636
 20
7.3486383002
 30
0.0
 10
11.943206636
 20
7.3299357844
 30
0.0
  0
SPLINE
  5
35B
100
AcDbEntity
  8
0
100
AcDbSpline
 62
7
  6
CONTINUOUS
 70
0
 71
3
 72
39
 73
35
 74
0
 42
0.0000001
 43
0.0000001
 44
0.0000000001
 40
0.0
 40
0.0
 40
0.0
 40
0.0
 40
0.0299424741
 40
0.0599093236
 40
0.0899243299
 40
0.1200101071
 40
0.1501875628
 40
0.1804754121
 40
0.2108897558
 40
0.2414437341
 40
0.2721472619
 40
0.3030068476
 40
0.3340255003
 40
0.3652027176
 40
0.3965345493
 40
0.4280137317
 40
0.459629888
 40
0.4913697842
 40
0.5232176352
 40
0.5551554541
 40
0.5871634377
 40
0.6192203778
 40
0.6513040905
 40
0.68339186
 40
0.715460889
 40
0.7474887514
 40
0.779453839
 40
0.8113357971
 40
0.8431159663
 40
0.8747776774
 40
0.9063069717
 40
0.937691796
 40
0.9689252179
 40
1.0
 40
1.0
 40
1.0
 40
1.0
 10
9.6609212861
 20
7.500952231
 30
0.0
 10
9.662994999
 20
7.5029552752
 30
0.0
 10
9.6673054699
 20
7.5067997249
 30
0.0
 10
9.6742115327
 20
7.5120370896
 30
0.0
 10
9.6815226316
 20
7.5167189553
 30
0.0
 10
9.6891979188
 20
7.5208190557
 30
0.0
 10
9.697195195
 20
7.5243149938
 30
0.0
 10
9.7054703254
 20
7.5271875522
 30
0.0
 10
9.7139777106
 20
7.5294210124
 30
0.0
 10
9.7226704821
 20
7.5310031772
 30
0.0
 10
9.7315007792
 20
7.531925446
 30
0.0
 10
9.7404200085
 20
7.5321828632
 30
0.0
 10
9.7493791157
 20
7.5317741339
 30
0.0
 10
9.7583288535
 20
7.5307016189
 30
0.0
 10
9.7672200494
 20
7.5289713185
 30
0.0
 10
9.7760038723
 20
7.5265928347
 30
0.0
 10
9.7846320957
 20
7.5235793159
 30
0.0
 10
9.7930573593
 20
7.5199473827
 30
0.0
 10
9.8012334232
 20
7.515717035
 30
0.0
 10
9.8091154245
 20
7.5109115524
 30
0.0
 10
9.8166601185
 20
7.5055573578
 30
0.0
 10
9.8238261105
 20
7.4996838702
 30
0.0
 10
9.8305740805
 20
7.4933233454
 30
0.0
 10
9.8368669955
 20
7.4865107003
 30
0.0
 10
9.8426703106
 20
7.4792833239
 30
0.0
 10
9.8479521564
 20
7.471680875
 30
0.0
 10
9.85268351
 20
7.4637450666
 30
0.0
 10
9.8568383714
 20
7.4555194451
 30
0.0
 10
9.8603938752
 20
7.4470491527
 30
0.0
 10
9.8633304756
 20
7.4383806534
 30
0.0
 10
9.8656319029
 20
7.4295616019
 30
0.0
 10
9.8672855699
 20
7.4206401646
 30
0.0
 10
9.8682821075
 20
7.4116660803
 30
0.0
 10
9.8685053477
 20
7.4056641755
 30
0.0
 10
9.8685053477
 20
7.4026720109
 30
0.0
  0
SPLINE
  5
35C
100
AcDbEntity
  8
0
100
AcDbSpline
 62
7
  6
CONTINUOUS
 70
0
 71
3
 72
23
 73
19
 74
0
 42
0.0000001
 43
0.0000001
 44
0.0000000001
 40
0.0
 40
0.0
 40
0.0
 40
0.0
 40
0.0617101465
 40
0.1234413984
 40
0.1852146462
 40
0.2470503535
 40
0.3089683476
 40
0.3709876198
 40
0.4331261355
 40
0.4954006635
 40
0.5578266123
 40
0.620417904
 40
0.6831868136
 40
0.7461438604
 40
0.8092980134
 40
0.8726552092
 40
0.9362227185
 40
1.0
 40
1.0
 40
1.0
 40
1.0
 10
9.930990366
 20
6.7322808327
 30
0.0
 10
9.9375993256
 20
6.7386646067
 30
0.0
 10
9.9504933803
 20
6.7517770173
 30
0.0
 10
9.9688007779
 20
6.7724179142
 30
0.0
 10
9.9860359761
 20
6.7939870483
 30
0.0
 10
10.002158545
 20
6.8164339951
 30
0.0
 10
10.0171315045
 20
6.8397071474
 30
0.0
 10
10.0309202829
 20
6.863752775
 30
0.0
 10
10.0434931306
 20
6.8885154149
 30
0.0
 10
10.0548211109
 20
6.9139379307
 30
0.0
 10
10.0648781598
 20
6.9399616839
 30
0.0
 10
10.0736411387
 20
6.9665266604
 30
0.0
 10
10.0810898839
 20
6.9935715988
 30
0.0
 10
10.0872073035
 20
7.021034186
 30
0.0
 10
10.091979289
 20
7.0488509548
 30
0.0
 10
10.0953951187
 20
7.0769582436
 30
0.0
 10
10.0974466795
 20
7.1052901494
 30
0.0
 10
10.0979012081
 20
7.1242549843
 30
0.0
 10
10.0979012081
 20
7.13375141
 30
0.0
  0
SPLINE
  5
35D
100
AcDbEntity
  8
0
100
AcDbSpline
 62
7
  6
CONTINUOUS
 70
0
 71
3
 72
39
 73
35
 74
0
 42
0.0000001
 43
0.0000001
 44
0.0000000001
 40
0.0
 40
0.0
 40
0.0
 40
0.0
 40
0.0299424711
 40
0.0599093186
 40
0.0899243248
 40
0.1200101037
 40
0.1501875627
 40
0.180475415
 40
0.2108897594
 40
0.2414437357
 40
0.2721472604
 40
0.3030068436
 40
0.3340254954
 40
0.3652027141
 40
0.3965345493
 40
0.4280137349
 40
0.4596298917
 40
0.4913697854
 40
0.5232176332
 40
0.5551554502
 40
0.5871634342
 40
0.6192203768
 40
0.6513040925
 40
0.6833918636
 40
0.7154608917
 40
0.7474887511
 40
0.7794538353
 40
0.8113357951
 40
0.8431159563
 40
0.8747777105
 40
0.9063068747
 40
0.9376920817
 40
0.9689246483
 40
1.0
 40
1.0
 40
1.0
 40
1.0
 10
9.0757572875
 20
7.6176832152
 30
0.0
 10
9.0859682208
 20
7.6275462336
 30
0.0
 10
9.1071930262
 20
7.6464762538
 30
0.0
 10
9.1411984498
 20
7.6722650707
 30
0.0
 10
9.1771982854
 20
7.6953186072
 30
0.0
 10
9.214991385
 20
7.7155075393
 30
0.0
 10
9.2543699874
 20
7.7327215242
 30
0.0
 10
9.2951167475
 20
7.7468659677
 30
0.0
 10
9.3370071214
 20
7.7578635012
 30
0.0
 10
9.3798103295
 20
7.7656540737
 30
0.0
 10
9.4232907113
 20
7.7701953202
 30
0.0
 10
9.4672089945
 20
7.7714628625
 30
0.0
 10
9.5113236411
 20
7.7694503181
 30
0.0
 10
9.5553921593
 20
7.7641692882
 30
0.0
 10
9.5991724114
 20
7.7556492667
 30
0.0
 10
9.6424239508
 20
7.7439375752
 30
0.0
 10
9.6849093176
 20
7.729098985
 30
0.0
 10
9.7263953131
 20
7.711215341
 30
0.0
 10
9.7666542492
 20
7.6903851074
 30
0.0
 10
9.8054652341
 20
7.6667229287
 30
0.0
 10
9.8426153313
 20
7.6403589038
 30
0.0
 10
9.8779007008
 20
7.6114378716
 30
0.0
 10
9.9111276936
 20
7.5801186253
 30
0.0
 10
9.9421139829
 20
7.5465731327
 30
0.0
 10
9.970689489
 20
7.5109855167
 30
0.0
 10
9.9966972928
 20
7.4735510567
 30
0.0
 10
10.0199944814
 20
7.4344751374
 30
0.0
 10
10.0404530267
 20
7.3939721855
 30
0.0
 10
10.0579603982
 20
7.3522644711
 30
0.0
 10
10.0724201634
 20
7.3095808103
 30
0.0
 10
10.08375255
 20
7.2661556884
 30
0.0
 10
10.0918948631
 20
7.2222267587
 30
0.0
 10
10.0968021049
 20
7.1780383559
 30
0.0
 10
10.0979012081
 20
7.1484850994
 30
0.0
 10
10.0979012081
 20
7.13375141
 30
0.0
  0
SPLINE
  5
35E
100
AcDbEntity
  8
0
100
AcDbSpline
 62
7
  6
CONTINUOUS
 70
0
 71
3
 72
39
 73
35
 74
0
 42
0.0000001
 43
0.0000001
 44
0.0000000001
 40
0.0
 40
0.0
 40
0.0
 40
0.0
 40
0.0306155599
 40
0.061336879
 40
0.0921623718
 40
0.1230894265
 40
0.1541144401
 40
0.1852328628
 40
0.2164392498
 40
0.2477273207
 40
0.2790900251
 40
0.3105196145
 40
0.3420077193
 40
0.3735454296
 40
0.4051233797
 40
0.4367318353
 40
0.4683607836
 40
0.500000025
 40
0.5316392659
 40
0.5632682131
 40
0.5948766672
 40
0.6264546155
 40
0.657992324
 40
0.6894804267
 40
0.7209100135
 40
0.7522727147
 40
0.7835607818
 40
0.8147671632
 40
0.8458855864
 40
0.8769105776
 40
0.9078376834
 40
0.9386630269
 40
0.9693846252
 40
1.0
 40
1.0
 40
1.0
 40
1.0
 10
9.4319276965
 20
7.8059682013
 30
0.0
 10
9.4432469161
 20
7.8055756832
 30
0.0
 10
9.4659087137
 20
7.8042190701
 30
0.0
 10
9.4998121693
 20
7.8004877326
 30
0.0
 10
9.5336040978
 20
7.7950657354
 30
0.0
 10
9.5671983738
 20
7.7879668517
 30
0.0
 10
9.6005108119
 20
7.7792089984
 30
0.0
 10
9.6334575578
 20
7.7688142744
 30
0.0
 10
9.6659557869
 20
7.7568088826
 30
0.0
 10
9.6979237787
 20
7.7432230673
 30
0.0
 10
9.7292811605
 20
7.7280910471
 30
0.0
 10
9.7599490983
 20
7.7114509242
 30
0.0
 10
9.7898504942
 20
7.693344582
 30
0.0
 10
9.818910178
 20
7.673817582
 30
0.0
 10
9.8470550953
 20
7.6529190492
 30
0.0
 10
9.8742144894
 20
7.6307015489
 30
0.0
 10
9.9003200783
 20
7.607220956
 30
0.0
 10
9.9253062238
 20
7.5825363137
 30
0.0
 10
9.9491101017
 20
7.5567096918
 30
0.0
 10
9.971671861
 20
7.5298060314
 30
0.0
 10
9.9929347669
 20
7.5018929749
 30
0.0
 10
10.012845344
 20
7.4730406989
 30
0.0
 10
10.0313535097
 20
7.4433217385
 30
0.0
 10
10.048412699
 20
7.4128108061
 30
0.0
 10
10.0639799818
 20
7.3815846054
 30
0.0
 10
10.0780161696
 20
7.3497216391
 30
0.0
 10
10.0904859156
 20
7.3173020157
 30
0.0
 10
10.1013578202
 20
7.2844072471
 30
0.0
 10
10.1106044719
 20
7.2511200566
 30
0.0
 10
10.1182025916
 20
7.2175241062
 30
0.0
 10
10.1241329139
 20
7.1837040278
 30
0.0
 10
10.1283806006
 20
7.1497444308
 30
0.0
 10
10.1309346707
 20
7.1157320419
 30
0.0
 10
10.1315050865
 20
7.0930368085
 30
0.0
 10
10.1315050962
 20
7.0817108537
 30
0.0
  0
SPLINE
  5
35F
100
AcDbEntity
  8
0
100
AcDbSpline
 62
7
  6
CONTINUOUS
 70
0
 71
3
 72
39
 73
35
 74
0
 42
0.0000001
 43
0.0000001
 44
0.0000000001
 40
0.0
 40
0.0
 40
0.0
 40
0.0
 40
0.029979125
 40
0.0599746856
 40
0.0900028478
 40
0.1200792444
 40
0.1502187223
 40
0.1804351065
 40
0.2107409858
 40
0.2411475215
 40
0.2716642855
 40
0.3022991265
 40
0.3330580682
 40
0.3639452395
 40
0.3949628355
 40
0.4261111093
 40
0.4573883916
 40
0.4887911389
 40
0.5203140065
 40
0.551949946
 40
0.5836903221
 40
0.6155250486
 40
0.6474427405
 40
0.679430879
 40
0.7114759904
 40
0.7435638328
 40
0.775679591
 40
0.8078080761
 40
0.8399339289
 40
0.8720418277
 40
0.9041166742
 40
0.9361438959
 40
0.9681092526
 40
1.0
 40
1.0
 40
1.0
 40
1.0
 10
8.7776865767
 20
7.8136032281
 30
0.0
 10
8.7907928344
 20
7.8262628986
 30
0.0
 10
8.8178466031
 20
7.8507417564
 30
0.0
 10
8.86074466
 20
7.8847492019
 30
0.0
 10
8.9058130674
 20
7.9159311387
 30
0.0
 10
8.9528826312
 20
7.9441700503
 30
0.0
 10
9.0017795208
 20
7.9693620869
 30
0.0
 10
9.0523224152
 20
7.9914140105
 30
0.0
 10
9.104324134
 20
8.0102444536
 30
0.0
 10
9.1575920867
 20
8.0257839653
 30
0.0
 10
9.2119290636
 20
8.0379753206
 30
0.0
 10
9.2671339489
 20
8.0467737189
 30
0.0
 10
9.3230024765
 20
8.0521469551
 30
0.0
 10
9.3793279925
 20
8.0540754934
 30
0.0
 10
9.4359022173
 20
8.052552533
 30
0.0
 10
9.4925160115
 20
8.0475840216
 30
0.0
 10
9.5489601424
 20
8.0391886178
 30
0.0
 10
9.6050260539
 20
8.0273976396
 30
0.0
 10
9.6605066347
 20
8.0122549384
 30
0.0
 10
9.7151969722
 20
7.9938167087
 30
0.0
 10
9.7688951016
 20
7.9721512814
 30
0.0
 10
9.8214027436
 20
7.9473388693
 30
0.0
 10
9.8725260252
 20
7.9194712656
 30
0.0
 10
9.9220762039
 20
7.8886515327
 30
0.0
 10
9.9698703546
 20
7.8549936066
 30
0.0
 10
10.0157320309
 20
7.8186218652
 30
0.0
 10
10.0594919118
 20
7.7796706758
 30
0.0
 10
10.1009884223
 20
7.7382838975
 30
0.0
 10
10.1400683173
 20
7.694614372
 30
0.0
 10
10.1765872835
 20
7.6488233126
 30
0.0
 10
10.2104104014
 20
7.6010799504
 30
0.0
 10
10.2414128648
 20
7.5515599844
 30
0.0
 10
10.2694792492
 20
7.5004485121
 30
0.0
 10
10.2861877379
 20
7.4653876541
 30
0.0
 10
10.2940175628
 20
7.4476554668
 30
0.0
  0
SPLINE
  5
360
100
AcDbEntity
  8
0
100
AcDbSpline
 62
7
  6
CONTINUOUS
 70
0
 71
3
 72
11
 73
7
 74
0
 42
0.0000001
 43
0.0000001
 44
0.0000000001
 40
0.0
 40
0.0
 40
0.0
 40
0.0
 40
0.2429975077
 40
0.4902696107
 40
0.7424349613
 40
1.0
 40
1.0
 40
1.0
 40
1.0
 10
10.7939952316
 20
9.1600154794
 30
0.0
 10
10.7969515132
 20
9.1638913861
 30
0.0
 10
10.8025132634
 20
9.1720273099
 30
0.0
 10
10.8096472265
 20
9.1851281523
 30
0.0
 10
10.8155749579
 20
9.199134347
 30
0.0
 10
10.8186503965
 20
9.2089048133
 30
0.0
 10
10.8199752701
 20
9.2138989523
 30
0.0
  0
SPLINE
  5
361
100
AcDbEntity
  8
0
100
AcDbSpline
 62
7
  6
CONTINUOUS
 70
0
 71
3
 72
23
 73
19
 74
0
 42
0.0000001
 43
0.0000001
 44
0.0000000001
 40
0.0
 40
0.0
 40
0.0
 40
0.0
 40
0.0638960463
 40
0.1275625627
 40
0.1910007796
 40
0.2542170903
 40
0.3172182182
 40
0.3800137024
 40
0.442614847
 40
0.5050349522
 40
0.5672891169
 40
0.6293941178
 40
0.6913682762
 40
0.753231189
 40
0.8150038592
 40
0.8767074816
 40
0.9383658203
 40
1.0
 40
1.0
 40
1.0
 40
1.0
 10
11.943206636
 20
7.3299357844
 30
0.0
 10
11.943206636
 20
7.3178987657
 30
0.0
 10
11.9426311723
 20
7.2938638916
 30
0.0
 10
11.9400335076
 20
7.2579627697
 30
0.0
 10
11.9357094299
 20
7.2223564519
 30
0.0
 10
11.9296698079
 20
7.1871279431
 30
0.0
 10
11.9219290636
 20
7.1523575693
 30
0.0
 10
11.9125057225
 20
7.1181250706
 30
0.0
 10
11.9014219945
 20
7.0845086638
 30
0.0
 10
11.8887038797
 20
7.0515851039
 30
0.0
 10
11.8743810206
 20
7.0194294568
 30
0.0
 10
11.8584866604
 20
6.9881149421
 30
0.0
 10
11.8410575291
 20
6.9577128149
 30
0.0
 10
11.8221337559
 20
6.9282921194
 30
0.0
 10
11.8017588221
 20
6.8999198618
 30
0.0
 10
11.7799791403
 20
6.8726600274
 30
0.0
 10
11.756845293
 20
6.8465756628
 30
0.0
 10
11.7405519493
 20
6.8300059355
 30
0.0
 10
11.7322007432
 20
6.8219392894
 30
0.0
  0
SPLINE
  5
362
100
AcDbEntity
  8
0
100
AcDbSpline
 62
7
  6
CONTINUOUS
 70
0
 71
3
 72
22
 73
18
 74
0
 42
0.0000001
 43
0.0000001
 44
0.0000000001
 40
0.0
 40
0.0
 40
0.0
 40
0.0
 40
0.0389448441
 40
0.0805062328
 40
0.124869182
 40
0.1722090088
 40
0.2226861595
 40
0.2764412287
 40
0.3335908629
 40
0.3942213282
 40
0.4583812625
 40
0.5260757109
 40
0.5972600067
 40
0.6718343426
 40
0.7496413988
 40
0.8304642559
 40
1.0
 40
1.0
 40
1.0
 40
1.0
 10
9.8936256483
 20
9.2084506399
 30
0.0
 10
9.8931413231
 20
9.2099710606
 30
0.0
 10
9.8922426141
 20
9.2131474578
 30
0.0
 10
9.8911464852
 20
9.2181477508
 30
0.0
 10
9.8902816144
 20
9.2235419592
 30
0.0
 10
9.8896702562
 20
9.2293380426
 30
0.0
 10
9.8893356345
 20
9.2355420107
 30
0.0
 10
9.889301487
 20
9.2421567537
 30
0.0
 10
9.8895916052
 20
9.2491815318
 30
0.0
 10
9.8902292814
 20
9.2566112286
 30
0.0
 10
9.8912364908
 20
9.2644356631
 30
0.0
 10
9.8926330093
 20
9.2726389875
 30
0.0
 10
9.8944354797
 20
9.2811992728
 30
0.0
 10
9.8966563852
 20
9.2900882515
 30
0.0
 10
9.8993031704
 20
9.2992716506
 30
0.0
 10
9.9034683274
 20
9.3120582833
 30
0.0
 10
9.9071315524
 20
9.3216496066
 30
0.0
 10
9.909797826
 20
9.3280639586
 30
0.0
  0
SPLINE
  5
363
100
AcDbEntity
  8
0
100
AcDbSpline
 62
7
  6
CONTINUOUS
 70
0
 71
3
 72
30
 73
26
 74
0
 42
0.0000001
 43
0.0000001
 44
0.0000000001
 40
0.0
 40
0.0
 40
0.0
 40
0.0
 40
0.008892359
 40
0.0181226393
 40
0.0280319454
 40
0.0388985905
 40
0.0509363902
 40
0.0643042476
 40
0.0791199597
 40
0.0954716676
 40
0.1134258997
 40
0.13303446
 40
0.1543376963
 40
0.177367435
 40
0.2021495487
 40
0.2287031902
 40
0.2871760049
 40
0.352855397
 40
0.4257269448
 40
0.5056875864
 40
0.5925288212
 40
0.6859196592
 40
0.7853911585
 40
0.8903338542
 40
1.0
 40
1.0
 40
1.0
 40
1.0
 10
10.6735273921
 20
8.4927568563
 30
0.0
 10
10.6735938688
 20
8.4925841929
 30
0.0
 10
10.6737682378
 20
8.4922460143
 30
0.0
 10
10.6741403565
 20
8.4917921054
 30
0.0
 10
10.6746216508
 20
8.4913894955
 30
0.0
 10
10.6752100422
 20
8.4910386003
 30
0.0
 10
10.6759047775
 20
8.4907393231
 30
0.0
 10
10.6767057034
 20
8.4904922253
 30
0.0
 10
10.6776128232
 20
8.490298289
 30
0.0
 10
10.6786260853
 20
8.4901587779
 30
0.0
 10
10.6797453543
 20
8.4900752177
 30
0.0
 10
10.6809703681
 20
8.4900491942
 30
0.0
 10
10.6823007627
 20
8.4900823703
 30
0.0
 10
10.6837360657
 20
8.4901764822
 30
0.0
 10
10.6852756929
 20
8.4903332177
 30
0.0
 10
10.6875403245
 20
8.4906380691
 30
0.0
 10
10.6906276323
 20
8.4911961993
 30
0.0
 10
10.6946224664
 20
8.492121853
 30
0.0
 10
10.6990051257
 20
8.4933358286
 30
0.0
 10
10.7037582481
 20
8.4948477956
 30
0.0
 10
10.7088591084
 20
8.496664283
 30
0.0
 10
10.7142786146
 20
8.4987873132
 30
0.0
 10
10.7199810476
 20
8.5012134119
 30
0.0
 10
10.7259240676
 20
8.5039327081
 30
0.0
 10
10.729937016
 20
8.505892116
 30
0.0
 10
10.7319757285
 20
8.5069168554
 30
0.0
  0
SPLINE
  5
364
100
AcDbEntity
  8
0
100
AcDbSpline
 62
7
  6
CONTINUOUS
 70
0
 71
3
 72
23
 73
19
 74
0
 42
0.0000001
 43
0.0000001
 44
0.0000000001
 40
0.0
 40
0.0
 40
0.0
 40
0.0
 40
0.0617101465
 40
0.1234413984
 40
0.1852146462
 40
0.2470503535
 40
0.3089683476
 40
0.3709876198
 40
0.4331261355
 40
0.4954006635
 40
0.5578266123
 40
0.620417904
 40
0.6831868136
 40
0.7461438604
 40
0.8092980134
 40
0.8726552092
 40
0.9362227185
 40
1.0
 40
1.0
 40
1.0
 40
1.0
 10
10.7462317942
 20
8.4868545641
 30
0.0
 10
10.7528407538
 20
8.4932383381
 30
0.0
 10
10.7657348085
 20
8.5063507487
 30
0.0
 10
10.7840422061
 20
8.5269916456
 30
0.0
 10
10.8012774042
 20
8.5485607796
 30
0.0
 10
10.8173999732
 20
8.5710077265
 30
0.0
 10
10.8323729327
 20
8.5942808788
 30
0.0
 10
10.8461617111
 20
8.6183265064
 30
0.0
 10
10.8587345588
 20
8.6430891463
 30
0.0
 10
10.8700625391
 20
8.6685116621
 30
0.0
 10
10.880119588
 20
8.6945354153
 30
0.0
 10
10.8888825669
 20
8.7211003918
 30
0.0
 10
10.8963313121
 20
8.7481453302
 30
0.0
 10
10.9024487317
 20
8.7756079173
 30
0.0
 10
10.9072207172
 20
8.8034246862
 30
0.0
 10
10.9106365468
 20
8.831531975
 30
0.0
 10
10.9126881077
 20
8.8598638808
 30
0.0
 10
10.9131426363
 20
8.8788287156
 30
0.0
 10
10.9131426363
 20
8.8883251414
 30
0.0
  0
SPLINE
  5
365
100
AcDbEntity
  8
0
100
AcDbSpline
 62
7
  6
CONTINUOUS
 70
0
 71
3
 72
15
 73
11
 74
0
 42
0.0000001
 43
0.0000001
 44
0.0000000001
 40
0.0
 40
0.0
 40
0.0
 40
0.0
 40
0.124398474
 40
0.248856753
 40
0.3734337795
 40
0.4981868163
 40
0.6231705118
 40
0.748436591
 40
0.8740317074
 40
1.0
 40
1.0
 40
1.0
 40
1.0
 10
9.5929265439
 20
9.5681755674
 30
0.0
 10
9.6051973988
 20
9.5800283294
 30
0.0
 10
9.6304755491
 20
9.6029964303
 30
0.0
 10
9.6704331873
 20
9.6350804544
 30
0.0
 10
9.7123111845
 20
9.6647015258
 30
0.0
 10
9.7559717991
 20
9.6917618079
 30
0.0
 10
9.8012735817
 20
9.7161740303
 30
0.0
 10
9.8480698697
 20
9.7378590524
 30
0.0
 10
9.8962065411
 20
9.7567461641
 30
0.0
 10
9.9290408683
 20
9.7674162765
 30
0.0
 10
9.9456217954
 20
9.7722667437
 30
0.0
  0
SPLINE
  5
366
100
AcDbEntity
  8
0
100
AcDbSpline
 62
7
  6
CONTINUOUS
 70
0
 71
3
 72
39
 73
35
 74
0
 42
0.0000001
 43
0.0000001
 44
0.0000000001
 40
0.0
 40
0.0
 40
0.0
 40
0.0
 40
0.0299424711
 40
0.0599093186
 40
0.0899243248
 40
0.1200101037
 40
0.1501875627
 40
0.180475415
 40
0.2108897594
 40
0.2414437357
 40
0.2721472604
 40
0.3030068436
 40
0.3340254954
 40
0.3652027141
 40
0.3965345493
 40
0.4280137349
 40
0.4596298917
 40
0.4913697854
 40
0.5232176332
 40
0.5551554502
 40
0.5871634342
 40
0.6192203768
 40
0.6513040925
 40
0.6833918636
 40
0.7154608917
 40
0.7474887511
 40
0.7794538353
 40
0.8113357951
 40
0.8431159563
 40
0.8747777105
 40
0.9063068747
 40
0.9376920817
 40
0.9689246483
 40
1.0
 40
1.0
 40
1.0
 40
1.0
 10
9.8909987157
 20
9.3722569466
 30
0.0
 10
9.901209649
 20
9.382119965
 30
0.0
 10
9.9224344544
 20
9.4010499852
 30
0.0
 10
9.956439878
 20
9.4268388021
 30
0.0
 10
9.9924397136
 20
9.4498923386
 30
0.0
 10
10.0302328132
 20
9.4700812707
 30
0.0
 10
10.0696114155
 20
9.4872952555
 30
0.0
 10
10.1103581757
 20
9.5014396991
 30
0.0
 10
10.1522485496
 20
9.5124372325
 30
0.0
 10
10.1950517577
 20
9.520227805
 30
0.0
 10
10.2385321394
 20
9.5247690516
 30
0.0
 10
10.2824504227
 20
9.5260365939
 30
0.0
 10
10.3265650693
 20
9.5240240495
 30
0.0
 10
10.3706335875
 20
9.5187430196
 30
0.0
 10
10.4144138395
 20
9.5102229981
 30
0.0
 10
10.4576653789
 20
9.4985113066
 30
0.0
 10
10.5001507458
 20
9.4836727164
 30
0.0
 10
10.5416367413
 20
9.4657890724
 30
0.0
 10
10.5818956774
 20
9.4449588388
 30
0.0
 10
10.6207066623
 20
9.42129666
 30
0.0
 10
10.6578567595
 20
9.3949326351
 30
0.0
 10
10.693142129
 20
9.3660116029
 30
0.0
 10
10.7263691218
 20
9.3346923567
 30
0.0
 10
10.7573554111
 20
9.3011468641
 30
0.0
 10
10.7859309172
 20
9.2655592481
 30
0.0
 10
10.811938721
 20
9.2281247881
 30
0.0
 10
10.8352359096
 20
9.1890488688
 30
0.0
 10
10.8556944549
 20
9.1485459169
 30
0.0
 10
10.8732018264
 20
9.1068382025
 30
0.0
 10
10.8876615916
 20
9.0641545417
 30
0.0
 10
10.8989939782
 20
9.0207294198
 30
0.0
 10
10.9071362912
 20
8.9768004901
 30
0.0
 10
10.9120435331
 20
8.9326120873
 30
0.0
 10
10.9131426363
 20
8.9030588308
 30
0.0
 10
10.9131426363
 20
8.8883251414
 30
0.0
  0
SPLINE
  5
367
100
AcDbEntity
  8
0
100
AcDbSpline
 62
7
  6
CONTINUOUS
 70
0
 71
3
 72
39
 73
35
 74
0
 42
0.0000001
 43
0.0000001
 44
0.0000000001
 40
0.0
 40
0.0
 40
0.0
 40
0.0
 40
0.0306155599
 40
0.061336879
 40
0.0921623718
 40
0.1230894265
 40
0.1541144401
 40
0.1852328628
 40
0.2164392498
 40
0.2477273207
 40
0.2790900251
 40
0.3105196145
 40
0.3420077193
 40
0.3735454296
 40
0.4051233797
 40
0.4367318353
 40
0.4683607836
 40
0.500000025
 40
0.5316392659
 40
0.5632682131
 40
0.5948766672
 40
0.6264546155
 40
0.657992324
 40
0.6894804267
 40
0.7209100135
 40
0.7522727147
 40
0.7835607818
 40
0.8147671632
 40
0.8458855864
 40
0.8769105776
 40
0.9078376834
 40
0.9386630269
 40
0.9693846252
 40
1.0
 40
1.0
 40
1.0
 40
1.0
 10
10.2471691246
 20
9.5605419327
 30
0.0
 10
10.2584883443
 20
9.5601494146
 30
0.0
 10
10.2811501419
 20
9.5587928015
 30
0.0
 10
10.3150535975
 20
9.555061464
 30
0.0
 10
10.348845526
 20
9.5496394667
 30
0.0
 10
10.382439802
 20
9.5425405831
 30
0.0
 10
10.4157522401
 20
9.5337827297
 30
0.0
 10
10.448698986
 20
9.5233880058
 30
0.0
 10
10.4811972151
 20
9.511382614
 30
0.0
 10
10.5131652069
 20
9.4977967987
 30
0.0
 10
10.5445225887
 20
9.4826647785
 30
0.0
 10
10.5751905265
 20
9.4660246555
 30
0.0
 10
10.6050919224
 20
9.4479183133
 30
0.0
 10
10.6341516062
 20
9.4283913134
 30
0.0
 10
10.6622965235
 20
9.4074927806
 30
0.0
 10
10.6894559176
 20
9.3852752803
 30
0.0
 10
10.7155615065
 20
9.3617946874
 30
0.0
 10
10.740547652
 20
9.3371100451
 30
0.0
 10
10.7643515299
 20
9.3112834232
 30
0.0
 10
10.7869132891
 20
9.2843797627
 30
0.0
 10
10.8081761951
 20
9.2564667062
 30
0.0
 10
10.8280867722
 20
9.2276144303
 30
0.0
 10
10.8465949379
 20
9.1978954699
 30
0.0
 10
10.8636541272
 20
9.1673845375
 30
0.0
 10
10.87922141
 20
9.1361583368
 30
0.0
 10
10.8932575978
 20
9.1042953705
 30
0.0
 10
10.9057273438
 20
9.0718757471
 30
0.0
 10
10.9165992484
 20
9.0389809785
 30
0.0
 10
10.9258459001
 20
9.005693788
 30
0.0
 10
10.9334440198
 20
8.9720978376
 30
0.0
 10
10.9393743421
 20
8.9382777592
 30
0.0
 10
10.9436220288
 20
8.9043181622
 30
0.0
 10
10.9461760989
 20
8.8703057733
 30
0.0
 10
10.9467465147
 20
8.8476105399
 30
0.0
 10
10.9467465244
 20
8.836284585
 30
0.0
  0
SPLINE
  5
368
100
AcDbEntity
  8
0
100
AcDbSpline
 62
7
  6
CONTINUOUS
 70
0
 71
3
 72
21
 73
17
 74
0
 42
0.0000001
 43
0.0000001
 44
0.0000000001
 40
0.0
 40
0.0
 40
0.0
 40
0.0
 40
0.0633626633
 40
0.1266105172
 40
0.1897623385
 40
0.2528248022
 40
0.3786403896
 40
0.5040523233
 40
0.5666042652
 40
0.6290239427
 40
0.6912986803
 40
0.7534147445
 40
0.8153580932
 40
0.8771129042
 40
0.9386662661
 40
1.0
 40
1.0
 40
1.0
 40
1.0
 10
10.5112240202
 20
9.1606185334
 30
0.0
 10
10.5065526155
 20
9.1578509579
 30
0.0
 10
10.4970971557
 20
9.1525220651
 30
0.0
 10
10.4825820957
 20
9.1451797118
 30
0.0
 10
10.4677669348
 20
9.1385236762
 30
0.0
 10
10.4476658972
 20
9.1306075513
 30
0.0
 10
10.4219181737
 20
9.1225545434
 30
0.0
 10
10.3955325365
 20
9.1171231446
 30
0.0
 10
10.3742351505
 20
9.114451024
 30
0.0
 10
10.3582227705
 20
9.1133018067
 30
0.0
 10
10.342209032
 20
9.1130238204
 30
0.0
 10
10.3262448401
 20
9.1136317367
 30
0.0
 10
10.3103846822
 20
9.1151374283
 30
0.0
 10
10.2946850847
 20
9.1175491986
 30
0.0
 10
10.2792063489
 20
9.1208714721
 30
0.0
 10
10.269054635
 20
9.1236991815
 30
0.0
 10
10.2640373851
 20
9.1252647102
 30
0.0
  0
SPLINE
  5
369
100
AcDbEntity
  8
0
100
AcDbSpline
 62
7
  6
CONTINUOUS
 70
0
 71
3
 72
23
 73
19
 74
0
 42
0.0000001
 43
0.0000001
 44
0.0000000001
 40
0.0
 40
0.0
 40
0.0
 40
0.0
 40
0.0591714776
 40
0.1188701594
 40
0.1791044192
 40
0.2398751434
 40
0.3011727503
 40
0.3629793049
 40
0.4252683313
 40
0.4880056792
 40
0.5511501452
 40
0.6146542595
 40
0.6784651319
 40
0.7425252318
 40
0.806773565
 40
0.8711458296
 40
0.9355772514
 40
1.0
 40
1.0
 40
1.0
 40
1.0
 10
10.5154381483
 20
9.1670741301
 30
0.0
 10
10.5107159844
 20
9.1652469697
 30
0.0
 10
10.5010988946
 20
9.1619049396
 30
0.0
 10
10.4863031333
 20
9.1578662792
 30
0.0
 10
10.4711363167
 20
9.1547965351
 30
0.0
 10
10.4556658251
 20
9.1527091896
 30
0.0
 10
10.4399590354
 20
9.1516131054
 30
0.0
 10
10.4240847208
 20
9.1515128715
 30
0.0
 10
10.4081122332
 20
9.1524087563
 30
0.0
 10
10.3921113664
 20
9.1542966832
 30
0.0
 10
10.3761520108
 20
9.1571682722
 30
0.0
 10
10.3603038625
 20
9.161010863
 30
0.0
 10
10.3446361346
 20
9.1658075815
 30
0.0
 10
10.3292172136
 20
9.1715374007
 30
0.0
 10
10.3141145041
 20
9.1781752281
 30
0.0
 10
10.29939372
 20
9.1856921242
 30
0.0
 10
10.2851198338
 20
9.1940548528
 30
0.0
 10
10.2759381403
 20
9.2001730454
 30
0.0
 10
10.2714410552
 20
9.2033614539
 30
0.0
  0
SPLINE
  5
36A
100
AcDbEntity
  8
0
100
AcDbSpline
 62
7
  6
CONTINUOUS
 70
0
 71
3
 72
27
 73
23
 74
0
 42
0.0000001
 43
0.0000001
 44
0.0000000001
 40
0.0
 40
0.0
 40
0.0
 40
0.0
 40
0.0319985949
 40
0.0639157563
 40
0.0957482286
 40
0.1274988312
 40
0.1907501382
 40
0.2536999249
 40
0.2850758807
 40
0.3163869457
 40
0.347637458
 40
0.3788321166
 40
0.4410618841
 40
0.5031326843
 40
0.5650925376
 40
0.6269922673
 40
0.6888842198
 40
0.7508209391
 40
0.8128538336
 40
0.8750318812
 40
0.9374004096
 40
1.0
 40
1.0
 40
1.0
 40
1.0
 10
9.2905144494
 20
7.3960817584
 30
0.0
 10
9.2905144494
 20
7.4012738914
 30
0.0
 10
9.2907105278
 20
7.4116460427
 30
0.0
 10
9.2915948155
 20
7.4271606305
 30
0.0
 10
9.2930679941
 20
7.4425904777
 30
0.0
 10
9.2958104377
 20
7.4629914861
 30
0.0
 10
9.3006938193
 20
7.48817929
 30
0.0
 10
9.3075109643
 20
7.5128514602
 30
0.0
 10
9.3140937112
 20
7.5321501115
 30
0.0
 10
9.3195824305
 20
7.5463744098
 30
0.0
 10
9.3256199918
 20
7.5603426014
 30
0.0
 10
9.3343817646
 20
7.5785815238
 30
0.0
 10
9.3466644888
 20
7.6006546074
 30
0.0
 10
9.363453903
 20
7.6258235126
 30
0.0
 10
9.3821881777
 20
7.6495135273
 30
0.0
 10
9.4027593422
 20
7.671587394
 30
0.0
 10
9.4250494063
 20
7.6919186289
 30
0.0
 10
9.4489303526
 20
7.7103904297
 30
0.0
 10
9.4742648338
 20
7.7268967678
 30
0.0
 10
9.5009079196
 20
7.7413432167
 30
0.0
 10
9.5287041716
 20
7.7536464069
 30
0.0
 10
9.547864301
 20
7.7603609577
 30
0.0
 10
9.5575750788
 20
7.7633401177
 30
0.0
  0
SPLINE
  5
36B
100
AcDbEntity
  8
0
100
AcDbSpline
 62
7
  6
CONTINUOUS
 70
0
 71
3
 72
39
 73
35
 74
0
 42
0.0000001
 43
0.0000001
 44
0.0000000001
 40
0.0
 40
0.0
 40
0.0
 40
0.0
 40
0.0299287546
 40
0.0598969074
 40
0.0899270614
 40
0.1200395093
 40
0.150253072
 40
0.1805841519
 40
0.211046533
 40
0.2416510769
 40
0.2724055283
 40
0.3033143931
 40
0.3343788897
 40
0.3655969724
 40
0.3969634212
 40
0.4284699929
 40
0.4601056272
 40
0.4918567021
 40
0.5237073303
 40
0.5556396898
 40
0.5876343831
 40
0.6196708186
 40
0.6517276088
 40
0.6837829795
 40
0.7158151841
 40
0.747802916
 40
0.779725717
 40
0.8115643724
 40
0.8433012909
 40
0.8749208658
 40
0.9064097701
 40
0.9377573976
 40
0.968955553
 40
1.0
 40
1.0
 40
1.0
 40
1.0
 10
9.9838391177
 20
7.0466172403
 30
0.0
 10
9.9765498489
 20
7.0403226266
 30
0.0
 10
9.9614651699
 20
7.0282873323
 30
0.0
 10
9.9374903847
 20
7.0120323139
 30
0.0
 10
9.9122788181
 20
6.9976477943
 30
0.0
 10
9.8859650813
 20
6.9852109908
 30
0.0
 10
9.8586876211
 20
6.9747868073
 30
0.0
 10
9.8305903671
 20
6.966430027
 30
0.0
 10
9.8018213903
 20
6.9601843352
 30
0.0
 10
9.7725322615
 20
6.9560822915
 30
0.0
 10
9.7428772004
 20
6.9541451247
 30
0.0
 10
9.7130122721
 20
6.9543826708
 30
0.0
 10
9.6830945657
 20
6.9567933321
 30
0.0
 10
9.6532813767
 20
6.9613641038
 30
0.0
 10
9.6237293888
 20
6.9680706563
 30
0.0
 10
9.5945938614
 20
6.9768774674
 30
0.0
 10
9.566027817
 20
6.9877380009
 30
0.0
 10
9.5381812536
 20
7.0005949807
 30
0.0
 10
9.5112003685
 20
7.0153806907
 30
0.0
 10
9.4852268015
 20
7.0320173321
 30
0.0
 10
9.4603969016
 20
7.0504174291
 30
0.0
 10
9.4368410228
 20
7.0704842878
 30
0.0
 10
9.4146828311
 20
7.0921124819
 30
0.0
 10
9.394038671
 20
7.1151884167
 30
0.0
 10
9.3750169651
 20
7.1395909239
 30
0.0
 10
9.3577176503
 20
7.1651918901
 30
0.0
 10
9.3422316569
 20
7.1918569197
 30
0.0
 10
9.3286404391
 20
7.2194460382
 30
0.0
 10
9.3170155322
 20
7.2478143937
 30
0.0
 10
9.307418188
 20
7.2768130704
 30
0.0
 10
9.2998990123
 20
7.306289651
 30
0.0
 10
9.2944978511
 20
7.3360898006
 30
0.0
 10
9.2912432417
 20
7.3660549453
 30
0.0
 10
9.2905144494
 20
7.3860917615
 30
0.0
 10
9.2905144494
 20
7.3960817584
 30
0.0
  0
SPLINE
  5
36C
100
AcDbEntity
  8
0
100
AcDbSpline
 62
7
  6
CONTINUOUS
 70
0
 71
3
 72
43
 73
39
 74
0
 42
0.0000001
 43
0.0000001
 44
0.0000000001
 40
0.0
 40
0.0
 40
0.0
 40
0.0
 40
0.030933917
 40
0.0620097504
 40
0.0932241798
 40
0.1245706961
 40
0.1560408846
 40
0.187624107
 40
0.2193078444
 40
0.2510778923
 40
0.2829186168
 40
0.314813221
 40
0.3467440269
 40
0.378692767
 40
0.4106408821
 40
0.4425698231
 40
0.4744613523
 40
0.5062978416
 40
0.538062564
 40
0.5697399737
 40
0.6013159727
 40
0.6327781585
 40
0.6641160509
 40
0.6953212922
 40
0.7263878176
 40
0.7573119912
 40
0.7880927036
 40
0.818731426
 40
0.8340009507
 40
0.8492367165
 40
0.8644396284
 40
0.8796107483
 40
0.9098579809
 40
0.9399943622
 40
0.9550274807
 40
0.9700381208
 40
0.985028267
 40
1.0
 40
1.0
 40
1.0
 40
1.0
 10
9.0950606389
 20
7.3960817472
 30
0.0
 10
9.0950606389
 20
7.3827592869
 30
0.0
 10
9.0959589227
 20
7.3560448349
 30
0.0
 10
9.0999732606
 20
7.3160687498
 30
0.0
 10
9.1066390874
 20
7.2762667625
 30
0.0
 10
9.115926301
 20
7.236820012
 30
0.0
 10
9.127792817
 20
7.1979051561
 30
0.0
 10
9.1421851278
 20
7.1596971416
 30
0.0
 10
9.1590383657
 20
7.1223675233
 30
0.0
 10
9.1782766682
 20
7.0860839498
 30
0.0
 10
9.1998134798
 20
7.0510093408
 30
0.0
 10
9.2235519577
 20
7.0173011857
 30
0.0
 10
9.2493854082
 20
6.9851108418
 30
0.0
 10
9.2771977619
 20
6.9545828619
 30
0.0
 10
9.306864091
 20
6.9258543517
 30
0.0
 10
9.3382511647
 20
6.8990543595
 30
0.0
 10
9.3712180443
 20
6.8743033036
 30
0.0
 10
9.4056167013
 20
6.8517124248
 30
0.0
 10
9.4412926787
 20
6.8313832884
 30
0.0
 10
9.4780857849
 20
6.813407341
 30
0.0
 10
9.5158308023
 20
6.797865499
 30
0.0
 10
9.5543582238
 20
6.7848277865
 30
0.0
 10
9.5934949937
 20
6.7743530171
 30
0.0
 10
9.6330653148
 20
6.7664885344
 30
0.0
 10
9.6728912829
 20
6.7612699651
 30
0.0
 10
9.7127942119
 20
6.7587211221
 30
0.0
 10
9.7525934541
 20
6.7588536034
 30
0.0
 10
9.7855658568
 20
6.761201523
 30
0.0
 10
9.811706181
 20
6.7644178481
 30
0.0
 10
9.8311541396
 20
6.7674917896
 30
0.0
 10
9.8504429338
 20
6.771226555
 30
0.0
 10
9.8758919694
 20
6.7770750572
 30
0.0
 10
9.9072091389
 20
6.7860129474
 30
0.0
 10
9.9377676579
 20
6.7971032448
 30
0.0
 10
9.9616325757
 20
6.8072248001
 30
0.0
 10
9.979212701
 20
6.8154266656
 30
0.0
 10
9.9964666223
 20
6.8242352283
 30
0.0
 10
10.007746069
 20
6.8305095079
 30
0.0
 10
10.0133240654
 20
6.8337440097
 30
0.0
  0
SPLINE
  5
36D
100
AcDbEntity
  8
0
100
AcDbSpline
 62
7
  6
CONTINUOUS
 70
0
 71
3
 72
15
 73
11
 74
0
 42
0.0000001
 43
0.0000001
 44
0.0000000001
 40
0.0
 40
0.0
 40
0.0
 40
0.0
 40
0.1268604244
 40
0.2531295491
 40
0.3788258318
 40
0.5039752309
 40
0.6286156463
 40
0.7527943453
 40
0.8765676866
 40
1.0
 40
1.0
 40
1.0
 40
1.0
 10
9.0950606389
 20
7.3960817472
 30
0.0
 10
9.0950606389
 20
7.4094429374
 30
0.0
 10
9.0959600133
 20
7.4361120944
 30
0.0
 10
9.1000236534
 20
7.4758332347
 30
0.0
 10
9.1067803291
 20
7.5150053334
 30
0.0
 10
9.1161996953
 20
7.5534471191
 30
0.0
 10
9.128238853
 20
7.5909831989
 30
0.0
 10
9.1428434956
 20
7.6274423234
 30
0.0
 10
9.1599457184
 20
7.6626554182
 30
0.0
 10
9.1729792045
 20
7.6852250648
 30
0.0
 10
9.179881286
 20
7.696241633
 30
0.0
  0
SPLINE
  5
36E
100
AcDbEntity
  8
0
100
AcDbSpline
 62
7
  6
CONTINUOUS
 70
0
 71
3
 72
15
 73
11
 74
0
 42
0.0000001
 43
0.0000001
 44
0.0000000001
 40
0.0
 40
0.0
 40
0.0
 40
0.0
 40
0.1264040367
 40
0.252464719
 40
0.3781481427
 40
0.5034227543
 40
0.628262937
 40
0.7526483554
 40
0.8765632953
 40
1.0
 40
1.0
 40
1.0
 40
1.0
 10
10.3852696964
 20
7.0265853941
 30
0.0
 10
10.3783389796
 20
7.0413555285
 30
0.0
 10
10.3652816261
 20
7.071231697
 30
0.0
 10
10.3481585987
 20
7.1169624339
 30
0.0
 10
10.3335747507
 20
7.1634140656
 30
0.0
 10
10.3215774774
 20
7.2104372721
 30
0.0
 10
10.3122048572
 20
7.2578826182
 30
0.0
 10
10.3054870311
 20
7.3055994677
 30
0.0
 10
10.3014454415
 20
7.3534340043
 30
0.0
 10
10.300542241
 20
7.3853676458
 30
0.0
 10
10.300542241
 20
7.4013000249
 30
0.0
  0
SPLINE
  5
36F
100
AcDbEntity
  8
0
100
AcDbSpline
 62
7
  6
CONTINUOUS
 70
0
 71
3
 72
39
 73
35
 74
0
 42
0.0000001
 43
0.0000001
 44
0.0000000001
 40
0.0
 40
0.0
 40
0.0
 40
0.0
 40
0.0318887346
 40
0.0636723445
 40
0.0953510007
 40
0.1269280624
 40
0.1584065801
 40
0.1897910366
 40
0.2210866788
 40
0.252299652
 40
0.2834369127
 40
0.3145061665
 40
0.345515799
 40
0.3764747941
 40
0.4073926469
 40
0.4382792695
 40
0.469144893
 40
0.4999999632
 40
0.5308550339
 40
0.5617206589
 40
0.5926072837
 40
0.6235251388
 40
0.6544841365
 40
0.6854937723
 40
0.7165630302
 40
0.7477002958
 40
0.7789132752
 40
0.8102089235
 40
0.8415933819
 40
0.8730719255
 40
0.9046489205
 40
0.9363277901
 40
0.9681109913
 40
1.0
 40
1.0
 40
1.0
 40
1.0
 10
8.7792088593
 20
7.1754923379
 30
0.0
 10
8.7792088593
 20
7.1862925519
 30
0.0
 10
8.7797257776
 20
7.2078610365
 30
0.0
 10
8.7820590211
 20
7.2400826069
 30
0.0
 10
8.7859437964
 20
7.2720486888
 30
0.0
 10
8.7913709523
 20
7.3036844074
 30
0.0
 10
8.7983282459
 20
7.3349172992
 30
0.0
 10
8.8067996221
 20
7.3656752124
 30
0.0
 10
8.816765674
 20
7.3958872681
 30
0.0
 10
8.8282034733
 20
7.4254837879
 30
0.0
 10
8.8410867015
 20
7.4543965198
 30
0.0
 10
8.8553857044
 20
7.4825587766
 30
0.0
 10
8.8710675573
 20
7.5099055942
 30
0.0
 10
8.8880961407
 20
7.5363738814
 30
0.0
 10
8.9064322251
 20
7.561902565
 30
0.0
 10
8.9260335443
 20
7.5864327434
 30
0.0
 10
8.9468548932
 20
7.6099078297
 30
0.0
 10
8.9688482517
 20
7.6322736698
 30
0.0
 10
8.9919628915
 20
7.6534786712
 30
0.0
 10
9.0161454947
 20
7.6734739218
 30
0.0
 10
9.0413402781
 20
7.6922133025
 30
0.0
 10
9.0674891183
 20
7.7096536
 30
0.0
 10
9.0945316773
 20
7.7257546264
 30
0.0
 10
9.1224055633
 20
7.740479287
 30
0.0
 10
9.1510464729
 20
7.7537936685
 30
0.0
 10
9.1803883412
 20
7.765667115
 30
0.0
 10
9.2103634941
 20
7.7760722976
 30
0.0
 10
9.2409028071
 20
7.7849852744
 30
0.0
 10
9.2719358499
 20
7.7923855745
 30
0.0
 10
9.3033910902
 20
7.7982562162
 30
0.0
 10
9.3351959482
 20
7.8025837473
 30
0.0
 10
9.3672773795
 20
7.8053582538
 30
0.0
 10
9.3995604807
 20
7.8065734583
 30
0.0
 10
9.4211338775
 20
7.8063425001
 30
0.0
 10
9.4319276965
 20
7.8059682013
 30
0.0
  0
SPLINE
  5
370
100
AcDbEntity
  8
0
100
AcDbSpline
 62
7
  6
CONTINUOUS
 70
0
 71
3
 72
39
 73
35
 74
0
 42
0.0000001
 43
0.0000001
 44
0.0000000001
 40
0.0
 40
0.0
 40
0.0
 40
0.0
 40
0.0319038287
 40
0.0637048589
 40
0.0954027757
 40
0.1270010357
 40
0.1585024171
 40
0.1899111407
 40
0.2212321584
 40
0.2524712515
 40
0.283634984
 40
0.3147306284
 40
0.3457661096
 40
0.3767499311
 40
0.4076910981
 40
0.4385990306
 40
0.4694834732
 40
0.5003543996
 40
0.5312219151
 40
0.5620961592
 40
0.5929872063
 40
0.6239049664
 40
0.6548590877
 40
0.6858588629
 40
0.7169131407
 40
0.7480302446
 40
0.7792178949
 40
0.810483139
 40
0.841832288
 40
0.8732708626
 40
0.9048035513
 40
0.9364341738
 40
0.9681656538
 40
1.0
 40
1.0
 40
1.0
 40
1.0
 10
8.8506428884
 20
7.207515327
 30
0.0
 10
8.8506428884
 20
7.2175348237
 30
0.0
 10
8.8511126083
 20
7.2375447891
 30
0.0
 10
8.8532326368
 20
7.2674419757
 30
0.0
 10
8.8567626419
 20
7.2971097917
 30
0.0
 10
8.8616945758
 20
7.3264815047
 30
0.0
 10
8.8680178105
 20
7.3554926381
 30
0.0
 10
8.8757183563
 20
7.3840788777
 30
0.0
 10
8.8847792603
 20
7.4121770455
 30
0.0
 10
8.8951805233
 20
7.439724987
 30
0.0
 10
8.9068991904
 20
7.4666617643
 30
0.0
 10
8.9199093979
 20
7.4929277793
 30
0.0
 10
8.9341824294
 20
7.5184649022
 30
0.0
 10
8.9496867433
 20
7.5432166222
 30
0.0
 10
8.9663880526
 20
7.5671281746
 30
0.0
 10
8.984249429
 20
7.5901466452
 30
0.0
 10
9.0032313752
 20
7.6122210919
 30
0.0
 10
9.0232919178
 20
7.6333026514
 30
0.0
 10
9.0443866789
 20
7.6533446673
 30
0.0
 10
9.0664689657
 20
7.6723028116
 30
0.0
 10
9.0894899105
 20
7.6901351502
 30
0.0
 10
9.1133985706
 20
7.7068022409
 30
0.0
 10
9.1381420445
 20
7.7222672166
 30
0.0
 10
9.163665582
 20
7.7364958743
 30
0.0
 10
9.1899126884
 20
7.74945679
 30
0.0
 10
9.2168252825
 20
7.7611213408
 30
0.0
 10
9.2443438197
 20
7.7714637711
 30
0.0
 10
9.2724074266
 20
7.7804612473
 30
0.0
 10
9.3009540259
 20
7.7880939037
 30
0.0
 10
9.3299204891
 20
7.7943449382
 30
0.0
 10
9.3592426941
 20
7.7992006033
 30
0.0
 10
9.3888560401
 20
7.8026502224
 30
0.0
 10
9.4186941877
 20
7.8046862446
 30
0.0
 10
9.4386618257
 20
7.8050975043
 30
0.0
 10
9.448659457
 20
7.8050677613
 30
0.0
  0
SPLINE
  5
371
100
AcDbEntity
  8
0
100
AcDbSpline
 62
7
  6
CONTINUOUS
 70
0
 71
3
 72
23
 73
19
 74
0
 42
0.0000001
 43
0.0000001
 44
0.0000000001
 40
0.0
 40
0.0
 40
0.0
 40
0.0
 40
0.0637772815
 40
0.1273447908
 40
0.1907019866
 40
0.2538561396
 40
0.3168131864
 40
0.379582096
 40
0.4421733877
 40
0.5045993365
 40
0.5668738645
 40
0.6290123802
 40
0.6910316524
 40
0.7529496465
 40
0.8147853538
 40
0.8765586016
 40
0.9382898535
 40
1.0
 40
1.0
 40
1.0
 40
1.0
 10
8.9088464455
 20
7.2162126379
 30
0.0
 10
8.9088464455
 20
7.2257090636
 30
0.0
 10
8.9093009741
 20
7.2446738985
 30
0.0
 10
8.9113525349
 20
7.2730058043
 30
0.0
 10
8.9147683646
 20
7.3011130931
 30
0.0
 10
8.9195403501
 20
7.3289298619
 30
0.0
 10
8.9256577697
 20
7.3563924491
 30
0.0
 10
8.9331065148
 20
7.3834373875
 30
0.0
 10
8.9418694938
 20
7.410002364
 30
0.0
 10
8.9519265427
 20
7.4360261172
 30
0.0
 10
8.963254523
 20
7.461448633
 30
0.0
 10
8.9758273706
 20
7.4862112729
 30
0.0
 10
8.9896161491
 20
7.5102569005
 30
0.0
 10
9.0045891086
 20
7.5335300528
 30
0.0
 10
9.0207116775
 20
7.5559769996
 30
0.0
 10
9.0379468757
 20
7.5775461337
 30
0.0
 10
9.0562542733
 20
7.5981870306
 30
0.0
 10
9.069148328
 20
7.6112994412
 30
0.0
 10
9.0757572875
 20
7.6176832152
 30
0.0
  0
SPLINE
  5
372
100
AcDbEntity
  8
0
100
AcDbSpline
 62
7
  6
CONTINUOUS
 70
0
 71
3
 72
71
 73
67
 74
0
 42
0.0000001
 43
0.0000001
 44
0.0000000001
 40
0.0
 40
0.0
 40
0.0
 40
0.0
 40
0.0156373785
 40
0.031327908
 40
0.0470702843
 40
0.0628636379
 40
0.078706081
 40
0.0945954869
 40
0.110529229
 40
0.1265042947
 40
0.1425172947
 40
0.1585644997
 40
0.1746418765
 40
0.1907451247
 40
0.2068697161
 40
0.223010935
 40
0.23916392
 40
0.2553237071
 40
0.2714852732
 40
0.2876435801
 40
0.3037936179
 40
0.3199304487
 40
0.3360492498
 40
0.3521453559
 40
0.3682143008
 40
0.3842518587
 40
0.4002540819
 40
0.4162173382
 40
0.4321383455
 40
0.4480142037
 40
0.4638424245
 40
0.4796209578
 40
0.4953482155
 40
0.5110230902
 40
0.5266449705
 40
0.5422137516
 40
0.5577298414
 40
0.5731941618
 40
0.588608145
 40
0.6039737248
 40
0.6192933216
 40
0.6345698226
 40
0.6498065561
 40
0.6650072606
 40
0.6801760496
 40
0.6953173702
 40
0.7104359597
 40
0.7255367959
 40
0.7406250456
 40
0.7557060099
 40
0.7707850676
 40
0.7858676178
 40
0.800959022
 40
0.8160645473
 40
0.8311893104
 40
0.8463382237
 40
0.8615159442
 40
0.8767268262
 40
0.8919748769
 40
0.9072637173
 40
0.9225965518
 40
0.9379761174
 40
0.9534047476
 40
0.9688840681
 40
0.9844157435
 40
1.0
 40
1.0
 40
1.0
 40
1.0
 10
8.7792088593
 20
7.1754923379
 30
0.0
 10
8.7792088593
 20
7.1644112574
 30
0.0
 10
8.7797548351
 20
7.1422076584
 30
0.0
 10
8.7821998005
 20
7.1089295712
 30
0.0
 10
8.7862664174
 20
7.0756984584
 30
0.0
 10
8.7919445766
 20
7.0425956048
 30
0.0
 10
8.7992207094
 20
7.0097002579
 30
0.0
 10
8.8080771435
 20
6.9770917633
 30
0.0
 10
8.818492541
 20
6.9448485782
 30
0.0
 10
8.8304417677
 20
6.9130483321
 30
0.0
 10
8.8438960054
 20
6.8817675652
 30
0.0
 10
8.858822816
 20
6.8510815656
 30
0.0
 10
8.8751862276
 20
6.8210641877
 30
0.0
 10
8.8929468193
 20
6.7917876754
 30
0.0
 10
8.9120618157
 20
6.7633224911
 30
0.0
 10
8.932485189
 20
6.7357371463
 30
0.0
 10
8.9541677705
 20
6.7090980403
 30
0.0
 10
8.977057354
 20
6.6834692883
 30
0.0
 10
9.0010988321
 20
6.6589125742
 30
0.0
 10
9.0262343325
 20
6.6354870072
 30
0.0
 10
9.0524033554
 20
6.6132489791
 30
0.0
 10
9.079542918
 20
6.5922520308
 30
0.0
 10
9.107587704
 20
6.5725467229
 30
0.0
 10
9.136470222
 20
6.5541805182
 30
0.0
 10
9.1661209567
 20
6.5371976516
 30
0.0
 10
9.1964685421
 20
6.52163903
 30
0.0
 10
9.2274399367
 20
6.5075421418
 30
0.0
 10
9.2589605963
 20
6.4949409654
 30
0.0
 10
9.290954652
 20
6.4838658881
 30
0.0
 10
9.323345091
 20
6.4743436323
 30
0.0
 10
9.3560539406
 20
6.4663971941
 30
0.0
 10
9.3890024514
 20
6.4600457714
 30
0.0
 10
9.4221112889
 20
6.4553047195
 30
0.0
 10
9.4553007255
 20
6.4521855255
 30
0.0
 10
9.4884908301
 20
6.450695777
 30
0.0
 10
9.5216016591
 20
6.4508391433
 30
0.0
 10
9.5545534477
 20
6.4526153642
 30
0.0
 10
9.5872668
 20
6.4560202517
 30
0.0
 10
9.6196628818
 20
6.4610456851
 30
0.0
 10
9.6516636132
 20
6.4676796257
 30
0.0
 10
9.683191855
 20
6.4759061602
 30
0.0
 10
9.7141715946
 20
6.4857055335
 30
0.0
 10
9.7445281294
 20
6.4970541949
 30
0.0
 10
9.774188248
 20
6.5099248524
 30
0.0
 10
9.8030804066
 20
6.5242865384
 30
0.0
 10
9.8311349077
 20
6.5401046743
 30
0.0
 10
9.8582840764
 20
6.5573411462
 30
0.0
 10
9.8844624175
 20
6.5759544137
 30
0.0
 10
9.9096067768
 20
6.5958996066
 30
0.0
 10
9.9336564946
 20
6.617128634
 30
0.0
 10
9.956553554
 20
6.6395903005
 30
0.0
 10
9.9782427216
 20
6.6632304314
 30
0.0
 10
9.9986716861
 20
6.6879920005
 30
0.0
 10
10.0177911985
 20
6.7138152624
 30
0.0
 10
10.0355551756
 20
6.740637913
 30
0.0
 10
10.0519208134
 20
6.7683952402
 30
0.0
 10
10.0668486897
 20
6.7970202823
 30
0.0
 10
10.0803028577
 20
6.8264439909
 30
0.0
 10
10.092250931
 20
6.8565953989
 30
0.0
 10
10.1026641671
 20
6.8874017945
 30
0.0
 10
10.1115175304
 20
6.9187888783
 30
0.0
 10
10.1187898029
 20
6.9506810179
 30
0.0
 10
10.1244634468
 20
6.9830011894
 30
0.0
 10
10.1285250472
 20
7.0156719443
 30
0.0
 10
10.1309646515
 20
7.0486133093
 30
0.0
 10
10.1315050962
 20
7.0706668385
 30
0.0
 10
10.1315050962
 20
7.0817102753
 30
0.0
  0
SPLINE
  5
373
100
AcDbEntity
  8
0
100
AcDbSpline
 62
7
  6
CONTINUOUS
 70
0
 71
3
 72
71
 73
67
 74
0
 42
0.0000001
 43
0.0000001
 44
0.0000000001
 40
0.0
 40
0.0
 40
0.0
 40
0.0
 40
0.0156359889
 40
0.0313242534
 40
0.0470633496
 40
0.062852592
 40
0.0786901472
 40
0.0945740094
 40
0.1105016916
 40
0.1264703337
 40
0.1424767207
 40
0.1585173098
 40
0.1745882653
 40
0.1906854918
 40
0.20680467
 40
0.2229412951
 40
0.2390907158
 40
0.2552481737
 40
0.2714088424
 40
0.2875678686
 40
0.303720412
 40
0.3198616874
 40
0.3359870046
 40
0.3520918077
 40
0.368171714
 40
0.3842225513
 40
0.4002403951
 40
0.4162216047
 40
0.4321628552
 40
0.4480611691
 40
0.4639139441
 40
0.4797189791
 40
0.4954744987
 40
0.5111791728
 40
0.5268321324
 40
0.5424329819
 40
0.5579818068
 40
0.5734791785
 40
0.5889261545
 40
0.6043242727
 40
0.619675541
 40
0.6349824224
 40
0.650247814
 40
0.6654750232
 40
0.6806677381
 40
0.6958299934
 40
0.7109661316
 40
0.7260807602
 40
0.7411787061
 40
0.7562649669
 40
0.7713446608
 40
0.7864229738
 40
0.8015051061
 40
0.8165962187
 40
0.8317013798
 40
0.846825513
 40
0.861973348
 40
0.8771493733
 40
0.8923577923
 40
0.9076024812
 40
0.9228869538
 40
0.9382143314
 40
0.9535872943
 40
0.9690081471
 40
0.9844785467
 40
1.0
 40
1.0
 40
1.0
 40
1.0
 10
8.8506428884
 20
7.207515327
 30
0.0
 10
8.8506428884
 20
7.1972142728
 30
0.0
 10
8.8511410079
 20
7.176574345
 30
0.0
 10
8.8533718347
 20
7.145637971
 30
0.0
 10
8.8570825818
 20
7.1147417142
 30
0.0
 10
8.8622642919
 20
7.0839584455
 30
0.0
 10
8.8689050852
 20
7.0533591009
 30
0.0
 10
8.8769894176
 20
7.0230148061
 30
0.0
 10
8.8864985327
 20
6.9929958929
 30
0.0
 10
8.8974103038
 20
6.96337198
 30
0.0
 10
8.9096993767
 20
6.9342117549
 30
0.0
 10
8.9233372146
 20
6.9055828297
 30
0.0
 10
8.9382921623
 20
6.8775515848
 30
0.0
 10
8.9545295247
 20
6.8501830192
 30
0.0
 10
8.9720116289
 20
6.8235405924
 30
0.0
 10
8.9906979031
 20
6.7976860681
 30
0.0
 10
9.0105449989
 20
6.7726793883
 30
0.0
 10
9.0315068851
 20
6.7485785336
 30
0.0
 10
9.0535349534
 20
6.7254393899
 30
0.0
 10
9.0765781339
 20
6.7033156253
 30
0.0
 10
9.1005829922
 20
6.6822585454
 30
0.0
 10
9.125493859
 20
6.6623169752
 30
0.0
 10
9.1512529747
 20
6.6435371641
 30
0.0
 10
9.1778006174
 20
6.6259626766
 30
0.0
 10
9.2050752401
 20
6.6096342919
 30
0.0
 10
9.2330136135
 20
6.5945899159
 30
0.0
 10
9.2615509557
 20
6.5808644607
 30
0.0
 10
9.2906210938
 20
6.5684897805
 30
0.0
 10
9.3201566225
 20
6.5574946101
 30
0.0
 10
9.3500890556
 20
6.5479044962
 30
0.0
 10
9.3803489828
 20
6.5397417387
 30
0.0
 10
9.4108662294
 20
6.533025341
 30
0.0
 10
9.4415700102
 20
6.5277709279
 30
0.0
 10
9.4723891039
 20
6.5239907398
 30
0.0
 10
9.5032520158
 20
6.5216936081
 30
0.0
 10
9.5340871407
 20
6.5208849327
 30
0.0
 10
9.5648229274
 20
6.5215666698
 30
0.0
 10
9.5953880426
 20
6.5237373215
 30
0.0
 10
9.6257115405
 20
6.5273919043
 30
0.0
 10
9.6557230278
 20
6.5325219979
 30
0.0
 10
9.6853528242
 20
6.5391157609
 30
0.0
 10
9.7145321233
 20
6.547157956
 30
0.0
 10
9.7431931505
 20
6.556629986
 30
0.0
 10
9.7712693248
 20
6.5675099224
 30
0.0
 10
9.7986954256
 20
6.5797725347
 30
0.0
 10
9.8254077335
 20
6.5933893841
 30
0.0
 10
9.8513441797
 20
6.6083288823
 30
0.0
 10
9.8764444912
 20
6.6245563639
 30
0.0
 10
9.9006503281
 20
6.6420341695
 30
0.0
 10
9.9239054356
 20
6.6607217128
 30
0.0
 10
9.9461557828
 20
6.6805755737
 30
0.0
 10
9.9673496721
 20
6.7015496247
 30
0.0
 10
9.9874378625
 20
6.7235951329
 30
0.0
 10
10.0063736851
 20
6.7466608746
 30
0.0
 10
10.024113146
 20
6.7706932575
 30
0.0
 10
10.0406150576
 20
6.7956364263
 30
0.0
 10
10.0558411261
 20
6.8214324064
 30
0.0
 10
10.0697560239
 20
6.8480212513
 30
0.0
 10
10.0823274734
 20
6.8753411797
 30
0.0
 10
10.0935263209
 20
6.9033287215
 30
0.0
 10
10.1033266014
 20
6.9319188598
 30
0.0
 10
10.1117056176
 20
6.9610451917
 30
0.0
 10
10.1186440224
 20
6.9906400207
 30
0.0
 10
10.1241257209
 20
7.020634827
 30
0.0
 10
10.1281381037
 20
7.0509590863
 30
0.0
 10
10.1298246105
 20
7.0713164603
 30
0.0
 10
10.1304215566
 20
7.0815246189
 30
0.0
  0
LINE
  5
374
100
AcDbEntity
  8
0
100
AcDbLine
 62
7
  6
CONTINUOUS
 10
10.1304215566
 20
7.0815246189
 11
10.1304341994
 21
7.0817414588
  0
SPLINE
  5
375
100
AcDbEntity
  8
0
100
AcDbSpline
 62
7
  6
CONTINUOUS
 70
0
 71
3
 72
24
 73
20
 74
0
 42
0.0000001
 43
0.0000001
 44
0.0000000001
 40
0.0
 40
0.0
 40
0.0
 40
0.0
 40
0.0637773023
 40
0.1273439637
 40
0.1907010681
 40
0.2538548417
 40
0.3168115636
 40
0.379580162
 40
0.4421711307
 40
0.5045967669
 40
0.5668709778
 40
0.6290091748
 40
0.691028128
 40
0.7529458054
 40
0.8147811982
 40
0.8765541325
 40
0.9074261016
 40
0.9382901687
 40
1.0
 40
1.0
 40
1.0
 40
1.0
 10
10.4335548518
 20
7.4367803485
 30
0.0
 10
10.4335548518
 20
7.4488457348
 30
0.0
 10
10.4341323091
 20
7.4729407485
 30
0.0
 10
10.4367388843
 20
7.5089367757
 30
0.0
 10
10.4410786935
 20
7.5446473557
 30
0.0
 10
10.4471415944
 20
7.5799889155
 30
0.0
 10
10.454913856
 20
7.6148804434
 30
0.0
 10
10.4643775587
 20
7.6492413607
 30
0.0
 10
10.4755110061
 20
7.6829924853
 30
0.0
 10
10.4882885963
 20
7.7160559752
 30
0.0
 10
10.502680943
 20
7.7483555745
 30
0.0
 10
10.5186549203
 20
7.7798167921
 30
0.0
 10
10.536173717
 20
7.8103670248
 30
0.0
 10
10.5551970734
 20
7.8399359082
 30
0.0
 10
10.5756807894
 20
7.8684548031
 30
0.0
 10
10.5939329556
 20
7.8912966034
 30
0.0
 10
10.6092130039
 20
7.9089762877
 30
0.0
 10
10.6249339265
 20
7.9262483265
 30
0.0
 10
10.6372202827
 20
7.9387427848
 30
0.0
 10
10.6456170429
 20
7.9468534456
 30
0.0
  0
SPLINE
  5
376
100
AcDbEntity
  8
0
100
AcDbSpline
 62
7
  6
CONTINUOUS
 70
0
 71
3
 72
39
 73
35
 74
0
 42
0.0000001
 43
0.0000001
 44
0.0000000001
 40
0.0
 40
0.0
 40
0.0
 40
0.0
 40
0.0310753517
 40
0.0623079183
 40
0.0936931253
 40
0.1252222895
 40
0.1568840437
 40
0.1886642049
 40
0.2205461647
 40
0.2525112489
 40
0.2845391083
 40
0.3166081364
 40
0.3486959075
 40
0.3807796232
 40
0.4128365658
 40
0.4448445498
 40
0.4767823668
 40
0.5086302146
 40
0.5403701083
 40
0.5719862651
 40
0.6034654507
 40
0.6347972859
 40
0.6659745046
 40
0.6969931564
 40
0.7278527396
 40
0.7585562643
 40
0.7891102406
 40
0.819524585
 40
0.8498124373
 40
0.8799898963
 40
0.9100756752
 40
0.9400906814
 40
0.9700575289
 40
1.0
 40
1.0
 40
1.0
 40
1.0
 10
8.9088464455
 20
7.2162126379
 30
0.0
 10
8.9088464455
 20
7.2014789485
 30
0.0
 10
8.9099455487
 20
7.171925692
 30
0.0
 10
8.9148527905
 20
7.1277372892
 30
0.0
 10
8.9229951035
 20
7.0838083595
 30
0.0
 10
8.9343274902
 20
7.0403832376
 30
0.0
 10
8.9487872554
 20
6.9976995768
 30
0.0
 10
8.9662946268
 20
6.9559918624
 30
0.0
 10
8.9867531722
 20
6.9154889105
 30
0.0
 10
9.0100503608
 20
6.8764129912
 30
0.0
 10
9.0360581646
 20
6.8389785312
 30
0.0
 10
9.0646336707
 20
6.8033909152
 30
0.0
 10
9.0956199599
 20
6.7698454225
 30
0.0
 10
9.1288469528
 20
6.7385261763
 30
0.0
 10
9.1641323222
 20
6.7096051441
 30
0.0
 10
9.2012824195
 20
6.6832411192
 30
0.0
 10
9.2400934044
 20
6.6595789405
 30
0.0
 10
9.2803523404
 20
6.6387487069
 30
0.0
 10
9.321838336
 20
6.6208650629
 30
0.0
 10
9.3643237028
 20
6.6060264727
 30
0.0
 10
9.4075752422
 20
6.5943147812
 30
0.0
 10
9.4513554942
 20
6.5857947597
 30
0.0
 10
9.4954240124
 20
6.5805137298
 30
0.0
 10
9.5395386591
 20
6.5785011854
 30
0.0
 10
9.5834569423
 20
6.5797687277
 30
0.0
 10
9.6269373241
 20
6.5843099742
 30
0.0
 10
9.6697405322
 20
6.5921005467
 30
0.0
 10
9.7116309061
 20
6.6030980802
 30
0.0
 10
9.7523776662
 20
6.6172425237
 30
0.0
 10
9.7917562685
 20
6.6344565086
 30
0.0
 10
9.8295493682
 20
6.6546454407
 30
0.0
 10
9.8655492038
 20
6.6776989772
 30
0.0
 10
9.8995546274
 20
6.7034877941
 30
0.0
 10
9.9207794327
 20
6.7224178143
 30
0.0
 10
9.930990366
 20
6.7322808327
 30
0.0
  0
SPLINE
  5
377
100
AcDbEntity
  8
0
100
AcDbSpline
 62
7
  6
CONTINUOUS
 70
0
 71
3
 72
23
 73
19
 74
0
 42
0.0000001
 43
0.0000001
 44
0.0000000001
 40
0.0
 40
0.0
 40
0.0
 40
0.0
 40
0.0636184712
 40
0.1270472483
 40
0.1902892675
 40
0.2533515894
 40
0.3162411612
 40
0.3789669662
 40
0.4415391155
 40
0.5039690469
 40
0.5662693653
 40
0.6284537591
 40
0.6905369068
 40
0.7525342854
 40
0.8144622911
 40
0.876337379
 40
0.9381776251
 40
1.0
 40
1.0
 40
1.0
 40
1.0
 10
10.2940175628
 20
7.4476554668
 30
0.0
 10
10.2948147921
 20
7.4599430256
 30
0.0
 10
10.2969507931
 20
7.484449782
 30
0.0
 10
10.3017844419
 20
7.5209736427
 30
0.0
 10
10.3082340022
 20
7.5571385788
 30
0.0
 10
10.3162868132
 20
7.5928735493
 30
0.0
 10
10.3259275094
 20
7.6281098152
 30
0.0
 10
10.3371374251
 20
7.662779092
 30
0.0
 10
10.3498949655
 20
7.6968143406
 30
0.0
 10
10.364175494
 20
7.7301496956
 30
0.0
 10
10.3799514369
 20
7.7627206497
 30
0.0
 10
10.3971923066
 20
7.7944641763
 30
0.0
 10
10.4158647797
 20
7.8253188265
 30
0.0
 10
10.4359327618
 20
7.8552249293
 30
0.0
 10
10.4573574016
 20
7.8841244726
 30
0.0
 10
10.4800974559
 20
7.9119618515
 30
0.0
 10
10.5041082426
 20
7.9386823505
 30
0.0
 10
10.5209342952
 20
7.9557196314
 30
0.0
 10
10.5295406949
 20
7.9640328295
 30
0.0
  0
SPLINE
  5
378
100
AcDbEntity
  8
0
100
AcDbSpline
 62
7
  6
CONTINUOUS
 70
0
 71
3
 72
15
 73
11
 74
0
 42
0.0000001
 43
0.0000001
 44
0.0000000001
 40
0.0
 40
0.0
 40
0.0
 40
0.0
 40
0.1273482292
 40
0.2538605354
 40
0.3795879276
 40
0.5046050833
 40
0.6290174349
 40
0.7529533662
 40
0.8765605734
 40
1.0
 40
1.0
 40
1.0
 40
1.0
 10
9.6270238768
 20
7.4194188078
 30
0.0
 10
9.6270238768
 20
7.4232685561
 30
0.0
 10
9.6273914487
 20
7.4309481053
 30
0.0
 10
9.6290537654
 20
7.4423197298
 30
0.0
 10
9.6318101681
 20
7.4534056276
 30
0.0
 10
9.6356357652
 20
7.4641021191
 30
0.0
 10
9.6404954322
 20
7.4743105673
 30
0.0
 10
9.6463448879
 20
7.4839367069
 30
0.0
 10
9.6531291315
 20
7.492890339
 30
0.0
 10
9.6582373209
 20
7.4983597308
 30
0.0
 10
9.6609212861
 20
7.500952231
 30
0.0
  0
SPLINE
  5
379
100
AcDbEntity
  8
0
100
AcDbSpline
 62
7
  6
CONTINUOUS
 70
0
 71
3
 72
11
 73
7
 74
0
 42
0.0000001
 43
0.0000001
 44
0.0000000001
 40
0.0
 40
0.0
 40
0.0
 40
0.0
 40
0.2596848127
 40
0.5133261832
 40
0.7602545979
 40
1.0
 40
1.0
 40
1.0
 40
1.0
 10
9.8876371516
 20
7.5734026771
 30
0.0
 10
9.8844151099
 20
7.5782165697
 30
0.0
 10
9.8781475669
 20
7.5878009765
 30
0.0
 10
9.8692382727
 20
7.6022335758
 30
0.0
 10
9.8610103084
 20
7.6165551998
 30
0.0
 10
9.8559614407
 20
7.6261699778
 30
0.0
 10
9.8535840048
 20
7.6309603651
 30
0.0
  0
SPLINE
  5
37A
100
AcDbEntity
  8
0
100
AcDbSpline
 62
7
  6
CONTINUOUS
 70
0
 71
3
 72
11
 73
7
 74
0
 42
0.0000001
 43
0.0000001
 44
0.0000000001
 40
0.0
 40
0.0
 40
0.0
 40
0.0
 40
0.252973374
 40
0.5047217498
 40
0.7540762136
 40
1.0
 40
1.0
 40
1.0
 40
1.0
 10
9.9255208864
 20
7.5207319402
 30
0.0
 10
9.9221921752
 20
7.5250747745
 30
0.0
 10
9.9156169658
 20
7.5337902722
 30
0.0
 10
9.9059851977
 20
7.5469539957
 30
0.0
 10
9.896642362
 20
7.5601379556
 30
0.0
 10
9.8905958947
 20
7.568982166
 30
0.0
 10
9.8876371516
 20
7.5734026771
 30
0.0
  0
SPLINE
  5
37B
100
AcDbEntity
  8
0
100
AcDbSpline
 62
7
  6
CONTINUOUS
 70
0
 71
3
 72
15
 73
11
 74
0
 42
0.0000001
 43
0.0000001
 44
0.0000000001
 40
0.0
 40
0.0
 40
0.0
 40
0.0
 40
0.1302375456
 40
0.2595645104
 40
0.3876879806
 40
0.5143048951
 40
0.6391152836
 40
0.7618338416
 40
0.8822016828
 40
1.0
 40
1.0
 40
1.0
 40
1.0
 10
9.9508473017
 20
7.2715923709
 30
0.0
 10
9.9514536415
 20
7.2753853592
 30
0.0
 10
9.9527359304
 20
7.2829332107
 30
0.0
 10
9.9548644328
 20
7.29416823
 30
0.0
 10
9.9571803152
 20
7.3052570909
 30
0.0
 10
9.9596738601
 20
7.3161707586
 30
0.0
 10
9.9623383179
 20
7.3268798057
 30
0.0
 10
9.9651701559
 20
7.3373551041
 30
0.0
 10
9.9681690453
 20
7.3475684794
 30
0.0
 10
9.970305707
 20
7.354260846
 30
0.0
 10
9.9714054253
 20
7.3575564771
 30
0.0
  0
SPLINE
  5
37C
100
AcDbEntity
  8
0
100
AcDbSpline
 62
7
  6
CONTINUOUS
 70
0
 71
3
 72
21
 73
17
 74
0
 42
0.0000001
 43
0.0000001
 44
0.0000000001
 40
0.0
 40
0.0
 40
0.0
 40
0.0
 40
0.057755763
 40
0.1162803713
 40
0.1755739436
 40
0.2356300962
 40
0.2964312682
 40
0.3579518152
 40
0.4829671955
 40
0.610348297
 40
0.674776839
 40
0.739575252
 40
0.8046377874
 40
0.8698367179
 40
0.9350179463
 40
1.0
 40
1.0
 40
1.0
 40
1.0
 10
9.9838391177
 20
7.0466172403
 30
0.0
 10
9.9813343786
 20
7.0503329653
 30
0.0
 10
9.976551067
 20
7.0579922252
 30
0.0
 10
9.9701221393
 20
7.0700126339
 30
0.0
 10
9.964409916
 20
7.0825860819
 30
0.0
 10
9.9594258835
 20
7.0956537727
 30
0.0
 10
9.9551726781
 20
7.1091581151
 30
0.0
 10
9.9504445232
 20
7.1277655144
 30
0.0
 10
9.9463497663
 20
7.1518203787
 30
0.0
 10
9.944507716
 20
7.1763646834
 30
0.0
 10
9.9442208486
 20
7.1962759355
 30
0.0
 10
9.9445684113
 20
7.2113498039
 30
0.0
 10
9.945439179
 20
7.2264615746
 30
0.0
 10
9.946791772
 20
7.2415673735
 30
0.0
 10
9.9485849099
 20
7.2566204692
 30
0.0
 10
9.950051438
 20
7.2666138063
 30
0.0
 10
9.9508473017
 20
7.2715923709
 30
0.0
  0
SPLINE
  5
37D
100
AcDbEntity
  8
0
100
AcDbSpline
 62
7
  6
CONTINUOUS
 70
0
 71
3
 72
43
 73
39
 74
0
 42
0.0000001
 43
0.0000001
 44
0.0000000001
 40
0.0
 40
0.0
 40
0.0
 40
0.0
 40
0.0309418566
 40
0.0620264468
 40
0.0932503929
 40
0.1246071075
 40
0.1560880002
 40
0.1876822702
 40
0.2193771888
 40
0.2511583275
 40
0.2830098133
 40
0.3149146026
 40
0.3468547693
 40
0.3788118051
 40
0.4107669244
 40
0.4427013728
 40
0.4745967359
 40
0.5064352439
 40
0.5382000686
 40
0.5698756088
 40
0.6014477613
 40
0.6329041747
 40
0.664234477
 40
0.6954304769
 40
0.7264863341
 40
0.7573986955
 40
0.7881667885
 40
0.8187924702
 40
0.8340554786
 40
0.849284788
 40
0.8644813606
 40
0.8796463175
 40
0.909881943
 40
0.9400081755
 40
0.9550369536
 40
0.9700438062
 40
0.985030774
 40
1.0
 40
1.0
 40
1.0
 40
1.0
 10
10.6569567538
 20
7.6525700281
 30
0.0
 10
10.6569567538
 20
7.6355464383
 30
0.0
 10
10.6581112125
 20
7.6014098595
 30
0.0
 10
10.6632700994
 20
7.5503292508
 30
0.0
 10
10.6718361158
 20
7.499475039
 30
0.0
 10
10.6837701152
 20
7.4490813125
 30
0.0
 10
10.6990174565
 20
7.3993763506
 30
0.0
 10
10.7175085685
 20
7.3505861819
 30
0.0
 10
10.7391591324
 20
7.3029323744
 30
0.0
 10
10.7638705582
 20
7.2566313909
 30
0.0
 10
10.7915304118
 20
7.2118935225
 30
0.0
 10
10.8220129204
 20
7.1689219733
 30
0.0
 10
10.8551794845
 20
7.1279118961
 30
0.0
 10
10.8908793722
 20
7.0890495583
 30
0.0
 10
10.9289503896
 20
7.0525115015
 30
0.0
 10
10.9692196177
 20
7.0184637606
 30
0.0
 10
11.011504146
 20
6.9870610665
 30
0.0
 10
11.0556119171
 20
6.9584461589
 30
0.0
 10
11.1013426131
 20
6.9327491762
 30
0.0
 10
11.1484885486
 20
6.9100870654
 30
0.0
 10
11.1968355936
 20
6.8905630436
 30
0.0
 10
11.2461641186
 20
6.8742660689
 30
0.0
 10
11.2962500021
 20
6.8612705051
 30
0.0
 10
11.3468656772
 20
6.8516357779
 30
0.0
 10
11.3977809649
 20
6.845406086
 30
0.0
 10
11.4487647901
 20
6.842610219
 30
0.0
 10
11.4995836723
 20
6.8432610635
 30
0.0
 10
11.5416562675
 20
6.8466782969
 30
0.0
 10
11.5749917903
 20
6.8511297204
 30
0.0
 10
11.5997829675
 20
6.8553170459
 30
0.0
 10
11.6243609211
 20
6.8603521434
 30
0.0
 10
11.6567742594
 20
6.8681792765
 30
0.0
 10
11.6966341729
 20
6.8800491674
 30
0.0
 10
11.7354877341
 20
6.894675777
 30
0.0
 10
11.7658046923
 20
6.9079749688
 30
0.0
 10
11.7881246649
 20
6.9187301265
 30
0.0
 10
11.8100164459
 20
6.9302606299
 30
0.0
 10
11.8243178449
 20
6.9384607236
 30
0.0
 10
11.8313877233
 20
6.9426850223
 30
0.0
  0
SPLINE
  5
37E
100
AcDbEntity
  8
0
100
AcDbSpline
 62
7
  6
CONTINUOUS
 70
0
 71
3
 72
15
 73
11
 74
0
 42
0.0000001
 43
0.0000001
 44
0.0000000001
 40
0.0
 40
0.0
 40
0.0
 40
0.0
 40
0.1268936931
 40
0.2531824523
 40
0.378885871
 40
0.5040320099
 40
0.6286612404
 40
0.7528241611
 40
0.8765809068
 40
1.0
 40
1.0
 40
1.0
 40
1.0
 10
10.6569567538
 20
7.6525700281
 30
0.0
 10
10.6569567538
 20
7.6699383649
 30
0.0
 10
10.6581528937
 20
7.704604568
 30
0.0
 10
10.6635577047
 20
7.7562222208
 30
0.0
 10
10.672543255
 20
7.8070986061
 30
0.0
 10
10.6850672821
 20
7.8569872182
 30
0.0
 10
10.7010701537
 20
7.9056497314
 30
0.0
 10
10.7204762201
 20
7.952853685
 30
0.0
 10
10.7431909836
 20
7.9983699116
 30
0.0
 10
10.76049263
 20
8.0274848311
 30
0.0
 10
10.7696517128
 20
8.0416790713
 30
0.0
  0
SPLINE
  5
37F
100
AcDbEntity
  8
0
100
AcDbSpline
 62
7
  6
CONTINUOUS
 70
0
 71
3
 72
23
 73
19
 74
0
 42
0.0000001
 43
0.0000001
 44
0.0000000001
 40
0.0
 40
0.0
 40
0.0
 40
0.0
 40
0.0636929457
 40
0.1271991506
 40
0.1905166521
 40
0.2536515438
 40
0.3166078579
 40
0.3793919483
 40
0.4420114307
 40
0.5044751015
 40
0.5667930256
 40
0.6289763948
 40
0.691037473
 40
0.752989499
 40
0.8148465813
 40
0.8766235904
 40
0.9383360476
 40
1.0
 40
1.0
 40
1.0
 40
1.0
 10
10.7023552703
 20
7.6494216303
 30
0.0
 10
10.7023552703
 20
7.659552559
 30
0.0
 10
10.7027885164
 20
7.679787447
 30
0.0
 10
10.7047434407
 20
7.710036708
 30
0.0
 10
10.7079992235
 20
7.7400850994
 30
0.0
 10
10.7125496177
 20
7.7698763087
 30
0.0
 10
10.718386525
 20
7.7993560241
 30
0.0
 10
10.7254991721
 20
7.8284698834
 30
0.0
 10
10.7338745034
 20
7.8571643859
 30
0.0
 10
10.7434971708
 20
7.8853867527
 30
0.0
 10
10.7543495407
 20
7.9130850561
 30
0.0
 10
10.7664116908
 20
7.9402083402
 30
0.0
 10
10.7796614338
 20
7.9667067139
 30
0.0
 10
10.794074437
 20
7.9925314366
 30
0.0
 10
10.8096241971
 20
8.0176349324
 30
0.0
 10
10.8262822852
 20
8.0419711628
 30
0.0
 10
10.8440175183
 20
8.0654947382
 30
0.0
 10
10.8565424638
 20
8.0806126574
 30
0.0
 10
10.8629716635
 20
8.0880198272
 30
0.0
  0
SPLINE
  5
380
100
AcDbEntity
  8
0
100
AcDbSpline
 62
7
  6
CONTINUOUS
 70
0
 71
3
 72
15
 73
11
 74
0
 42
0.0000001
 43
0.0000001
 44
0.0000000001
 40
0.0
 40
0.0
 40
0.0
 40
0.0
 40
0.1229950399
 40
0.2475595457
 40
0.3732119825
 40
0.4994474219
 40
0.6257535056
 40
0.7516160588
 40
0.8765284281
 40
1.0
 40
1.0
 40
1.0
 40
1.0
 10
11.0699391496
 20
7.5416880666
 30
0.0
 10
11.0699391496
 20
7.5348033099
 30
0.0
 10
11.0703572949
 20
7.5209427093
 30
0.0
 10
11.0721998165
 20
7.5001223364
 30
0.0
 10
11.075248985
 20
7.4792603778
 30
0.0
 10
11.0794830142
 20
7.4585071333
 30
0.0
 10
11.0848714654
 20
7.438011125
 30
0.0
 10
11.0913758933
 20
7.4179189939
 30
0.0
 10
11.0989493283
 20
7.3983755449
 30
0.0
 10
11.1047165576
 20
7.3857142333
 30
0.0
 10
11.1077681424
 20
7.3795129666
 30
0.0
  0
SPLINE
  5
381
100
AcDbEntity
  8
0
100
AcDbSpline
 62
7
  6
CONTINUOUS
 70
0
 71
3
 72
21
 73
17
 74
0
 42
0.0000001
 43
0.0000001
 44
0.0000000001
 40
0.0
 40
0.0
 40
0.0
 40
0.0
 40
0.1428910724
 40
0.2128363693
 40
0.2816363394
 40
0.3491999294
 40
0.4154499098
 40
0.4803219902
 40
0.5437667652
 40
0.6057511539
 40
0.6662598638
 40
0.7828292436
 40
0.8390190778
 40
0.8938773935
 40
0.947500088
 40
1.0
 40
1.0
 40
1.0
 40
1.0
 10
11.0699391496
 20
7.5416880666
 30
0.0
 10
11.0699391496
 20
7.550874921
 30
0.0
 10
11.0704898478
 20
7.564568933
 30
0.0
 10
11.0723884624
 20
7.5825804291
 30
0.0
 10
11.0743628877
 20
7.5957016742
 30
0.0
 10
11.0768912177
 20
7.6084852896
 30
0.0
 10
11.0799651461
 20
7.6208891549
 30
0.0
 10
11.083574619
 20
7.6328719694
 30
0.0
 10
11.0877076343
 20
7.6443936365
 30
0.0
 10
11.0923512035
 20
7.6554167603
 30
0.0
 10
11.0991161884
 20
7.6692240146
 30
0.0
 10
11.1069034793
 20
7.6820967877
 30
0.0
 10
11.1156974648
 20
7.6938055331
 30
0.0
 10
11.122632538
 20
7.701817467
 30
0.0
 10
11.1299628262
 20
7.7091367431
 30
0.0
 10
11.1351491028
 20
7.7135826283
 30
0.0
 10
11.1377973699
 20
7.715675413
 30
0.0
  0
SPLINE
  5
382
100
AcDbEntity
  8
0
100
AcDbSpline
 62
7
  6
CONTINUOUS
 70
0
 71
3
 72
23
 73
19
 74
0
 42
0.0000001
 43
0.0000001
 44
0.0000000001
 40
0.0
 40
0.0
 40
0.0
 40
0.0
 40
0.0637271823
 40
0.1272587972
 40
0.1905934735
 40
0.25373769
 40
0.3166961407
 40
0.3794761286
 40
0.4420862921
 40
0.5045366716
 40
0.5668387143
 40
0.6290051229
 40
0.6910497827
 40
0.7529876443
 40
0.8148345959
 40
0.8766073259
 40
0.9383231772
 40
1.0
 40
1.0
 40
1.0
 40
1.0
 10
10.723568469
 20
7.654912008
 30
0.0
 10
10.723568469
 20
7.6652876058
 30
0.0
 10
10.7240323372
 20
7.6860100231
 30
0.0
 10
10.7261256827
 20
7.7169804889
 30
0.0
 10
10.7296116595
 20
7.747730484
 30
0.0
 10
10.7344829936
 20
7.778197066
 30
0.0
 10
10.7407301765
 20
7.8083194731
 30
0.0
 10
10.7483406309
 20
7.8380369825
 30
0.0
 10
10.7572990949
 20
7.8672898917
 30
0.0
 10
10.7675876073
 20
7.8960193737
 30
0.0
 10
10.779185528
 20
7.9241676501
 30
0.0
 10
10.7920696128
 20
7.9516780931
 30
0.0
 10
10.8062139729
 20
7.9784953654
 30
0.0
 10
10.8215901893
 20
8.0045655442
 30
0.0
 10
10.8381673221
 20
8.0298361363
 30
0.0
 10
10.8559122344
 20
8.0542564719
 30
0.0
 10
10.8747886486
 20
8.0777767359
 30
0.0
 10
10.8881063964
 20
8.0928302651
 30
0.0
 10
10.8949388525
 20
8.1001892561
 30
0.0
  0
SPLINE
  5
383
100
AcDbEntity
  8
0
100
AcDbSpline
 62
7
  6
CONTINUOUS
 70
0
 71
3
 72
15
 73
11
 74
0
 42
0.0000001
 43
0.0000001
 44
0.0000000001
 40
0.0
 40
0.0
 40
0.0
 40
0.0
 40
0.1334043251
 40
0.2649395772
 40
0.3943087243
 40
0.5212362283
 40
0.6454724626
 40
0.7667960394
 40
0.8850222903
 40
1.0
 40
1.0
 40
1.0
 40
1.0
 10
11.0009453092
 20
8.0705097704
 30
0.0
 10
11.004272526
 20
8.0665220723
 30
0.0
 10
11.0110451872
 20
8.0587382707
 30
0.0
 10
11.0216098836
 20
8.0475952225
 30
0.0
 10
11.0324739664
 20
8.03710295
 30
0.0
 10
11.0435924528
 20
8.0273050084
 30
0.0
 10
11.054919578
 20
8.0182418428
 30
0.0
 10
11.0664089093
 20
8.0099507412
 30
0.0
 10
11.0780126701
 20
8.002466363
 30
0.0
 10
11.0859067003
 20
7.9979705183
 30
0.0
 10
11.0898601649
 20
7.9958715378
 30
0.0
  0
SPLINE
  5
384
100
AcDbEntity
  8
0
100
AcDbSpline
 62
7
  6
CONTINUOUS
 70
0
 71
3
 72
23
 73
19
 74
0
 42
0.0000001
 43
0.0000001
 44
0.0000000001
 40
0.0
 40
0.0
 40
0.0
 40
0.0
 40
0.0636435929
 40
0.1271127404
 40
0.1904037452
 40
0.2535225941
 40
0.3164727232
 40
0.3792591373
 40
0.4418883093
 40
0.5043675377
 40
0.5667052177
 40
0.6289107336
 40
0.6909943671
 40
0.7529672633
 40
0.8148413532
 40
0.8766292616
 40
0.9383442228
 40
1.0
 40
1.0
 40
1.0
 40
1.0
 10
10.7655020989
 20
7.6954167865
 30
0.0
 10
10.7655020989
 20
7.7047437186
 30
0.0
 10
10.7658770019
 20
7.7233742373
 30
0.0
 10
10.7675683173
 20
7.7512338153
 30
0.0
 10
10.7703854396
 20
7.7789253895
 30
0.0
 10
10.7743235886
 20
7.8064029896
 30
0.0
 10
10.779376518
 20
7.8336224853
 30
0.0
 10
10.785536002
 20
7.8605395514
 30
0.0
 10
10.7927920712
 20
7.8871104805
 30
0.0
 10
10.8011330362
 20
7.9132921136
 30
0.0
 10
10.8105453059
 20
7.93904194
 30
0.0
 10
10.8210136223
 20
7.9643181377
 30
0.0
 10
10.8325210742
 20
7.9890796129
 30
0.0
 10
10.8450489551
 20
8.0132861649
 30
0.0
 10
10.8585768785
 20
8.0368984452
 30
0.0
 10
10.8730830426
 20
8.0598782047
 30
0.0
 10
10.8885435089
 20
8.0821875644
 30
0.0
 10
10.8994753105
 20
8.0965965195
 30
0.0
 10
10.9050904825
 20
8.1036755202
 30
0.0
  0
SPLINE
  5
385
100
AcDbEntity
  8
0
100
AcDbSpline
 62
7
  6
CONTINUOUS
 70
0
 71
3
 72
15
 73
11
 74
0
 42
0.0000001
 43
0.0000001
 44
0.0000000001
 40
0.0
 40
0.0
 40
0.0
 40
0.0
 40
0.1301129239
 40
0.2604546041
 40
0.39014582
 40
0.5182667086
 40
0.6439501187
 40
0.7664657207
 40
0.8852676507
 40
1.0
 40
1.0
 40
1.0
 40
1.0
 10
9.9635164808
 20
7.3780813513
 30
0.0
 10
9.9613285475
 20
7.3841067159
 30
0.0
 10
9.9571302179
 20
7.3962344167
 30
0.0
 10
9.9512923174
 20
7.4145493853
 30
0.0
 10
9.9458617169
 20
7.4328866323
 30
0.0
 10
9.9408291379
 20
7.4510988737
 30
0.0
 10
9.9362140642
 20
7.4690566452
 30
0.0
 10
9.9320638532
 20
7.48665654
 30
0.0
 10
9.9284482589
 20
7.5038233794
 30
0.0
 10
9.9264140355
 20
7.515150398
 30
0.0
 10
9.9255208864
 20
7.5207319402
 30
0.0
  0
SPLINE
  5
386
100
AcDbEntity
  8
0
100
AcDbSpline
 62
7
  6
CONTINUOUS
 70
0
 71
3
 72
23
 73
19
 74
0
 42
0.0000001
 43
0.0000001
 44
0.0000000001
 40
0.0
 40
0.0
 40
0.0
 40
0.0
 40
0.063739621
 40
0.1272802157
 40
0.1906208134
 40
0.2537679487
 40
0.3167266137
 40
0.3795044963
 40
0.4421106414
 40
0.5045555955
 40
0.5668513603
 40
0.6290112484
 40
0.6910497945
 40
0.7529826309
 40
0.8148263514
 40
0.8765983632
 40
0.9383167282
 40
1.0
 40
1.0
 40
1.0
 40
1.0
 10
10.8224527281
 20
7.7039268734
 30
0.0
 10
10.8224527281
 20
7.7137935912
 30
0.0
 10
10.822901161
 20
7.7334992294
 30
0.0
 10
10.8249249533
 20
7.7629472609
 30
0.0
 10
10.8282949685
 20
7.7921801578
 30
0.0
 10
10.8330039649
 20
7.821136107
 30
0.0
 10
10.8390424207
 20
7.8497553979
 30
0.0
 10
10.8463977807
 20
7.8779784066
 30
0.0
 10
10.8550548129
 20
7.9057465264
 30
0.0
 10
10.8649955686
 20
7.9330020404
 30
0.0
 10
10.876199433
 20
7.9596882959
 30
0.0
 10
10.8886431805
 20
7.9857498112
 30
0.0
 10
10.9023009987
 20
8.0111323879
 30
0.0
 10
10.9171445216
 20
8.0357832724
 30
0.0
 10
10.9331428689
 20
8.0596511663
 30
0.0
 10
10.9502629768
 20
8.0826866096
 30
0.0
 10
10.9684686516
 20
8.1048410542
 30
0.0
 10
10.9813081766
 20
8.1189967971
 30
0.0
 10
10.9878938793
 20
8.1259105858
 30
0.0
  0
SPLINE
  5
387
100
AcDbEntity
  8
0
100
AcDbSpline
 62
7
  6
CONTINUOUS
 70
0
 71
3
 72
11
 73
7
 74
0
 42
0.0000001
 43
0.0000001
 44
0.0000000001
 40
0.0
 40
0.0
 40
0.0
 40
0.0
 40
0.2513583309
 40
0.5017997487
 40
0.7513379536
 40
1.0
 40
1.0
 40
1.0
 40
1.0
 10
11.1339411918
 20
8.0048016429
 30
0.0
 10
11.1339411918
 20
8.0162464859
 30
0.0
 10
11.134544392
 20
8.0390990923
 30
0.0
 10
11.1372680545
 20
8.0732161997
 30
0.0
 10
11.1418011831
 20
8.1070165811
 30
0.0
 10
11.1460291189
 20
8.1293164907
 30
0.0
 10
11.1484404856
 20
8.1403788011
 30
0.0
  0
SPLINE
  5
388
100
AcDbEntity
  8
0
100
AcDbSpline
 62
7
  6
CONTINUOUS
 70
0
 71
3
 72
11
 73
7
 74
0
 42
0.0000001
 43
0.0000001
 44
0.0000000001
 40
0.0
 40
0.0
 40
0.0
 40
0.0
 40
0.2513422312
 40
0.5017803061
 40
0.7513231259
 40
1.0
 40
1.0
 40
1.0
 40
1.0
 10
11.1809962637
 20
8.0118330446
 30
0.0
 10
11.1809962637
 20
8.0225004528
 30
0.0
 10
11.1815520249
 20
8.0438011455
 30
0.0
 10
11.1840613131
 20
8.0756041241
 30
0.0
 10
11.1882378898
 20
8.1071173624
 30
0.0
 10
11.192133385
 20
8.1279129172
 30
0.0
 10
11.1943552761
 20
8.1382306761
 30
0.0
  0
SPLINE
  5
389
100
AcDbEntity
  8
0
100
AcDbSpline
 62
7
  6
CONTINUOUS
 70
0
 71
3
 72
39
 73
35
 74
0
 42
0.0000001
 43
0.0000001
 44
0.0000000001
 40
0.0
 40
0.0
 40
0.0
 40
0.0
 40
0.0306354679
 40
0.0613801065
 40
0.0922311459
 40
0.1231864993
 40
0.1542419523
 40
0.1853926988
 40
0.2166328305
 40
0.2479555841
 40
0.2793533677
 40
0.3108178516
 40
0.3423400545
 40
0.3739104338
 40
0.4055189812
 40
0.4371553202
 40
0.4688088067
 40
0.5004686321
 40
0.5321239263
 40
0.5637638635
 40
0.5953777654
 40
0.626955204
 40
0.6584861027
 40
0.6899608345
 40
0.721370318
 40
0.7527061086
 40
0.7839604871
 40
0.8151265413
 40
0.8461982409
 40
0.877170506
 40
0.9080392671
 40
0.9388015166
 40
0.9694553503
 40
1.0
 40
1.0
 40
1.0
 40
1.0
 10
11.2993040768
 20
8.0970299336
 30
0.0
 10
11.2993040768
 20
8.0869622367
 30
0.0
 10
11.2998247277
 20
8.0667871945
 30
0.0
 10
11.3021556352
 20
8.0365546379
 30
0.0
 10
11.3060318101
 20
8.0063744394
 30
0.0
 10
11.3114426639
 20
7.9763278662
 30
0.0
 10
11.3183739392
 20
7.9464941431
 30
0.0
 10
11.3268071022
 20
7.9169524994
 30
0.0
 10
11.3367197745
 20
7.8877812022
 30
0.0
 10
11.3480856123
 20
7.8590575843
 30
0.0
 10
11.3608744417
 20
7.8308577737
 30
0.0
 10
11.3750523097
 20
7.8032565049
 30
0.0
 10
11.3905815948
 20
7.7763269241
 30
0.0
 10
11.4074211024
 20
7.7501403964
 30
0.0
 10
11.4255261745
 20
7.7247663185
 30
0.0
 10
11.444848807
 20
7.7002719366
 30
0.0
 10
11.465337776
 20
7.6767221688
 30
0.0
 10
11.4869387741
 20
7.6541794364
 30
0.0
 10
11.5095945427
 20
7.6327034883
 30
0.0
 10
11.5332450307
 20
7.6123512479
 30
0.0
 10
11.5578275574
 20
7.5931766675
 30
0.0
 10
11.5832769754
 20
7.5752305851
 30
0.0
 10
11.6095258429
 20
7.5585605911
 30
0.0
 10
11.6365046006
 20
7.5432109026
 30
0.0
 10
11.6641417544
 20
7.5292222473
 30
0.0
 10
11.6923640627
 20
7.516631754
 30
0.0
 10
11.7210967241
 20
7.5054728408
 30
0.0
 10
11.7502635846
 20
7.4957751411
 30
0.0
 10
11.7797873277
 20
7.4875644237
 30
0.0
 10
11.8095897115
 20
7.4808625254
 30
0.0
 10
11.8395916486
 20
7.4756872892
 30
0.0
 10
11.8697138783
 20
7.4720525278
 30
0.0
 10
11.8998754523
 20
7.4699679426
 30
0.0
 10
11.9199945213
 20
7.469614855
 30
0.0
 10
11.9300320184
 20
7.4696991985
 30
0.0
  0
SPLINE
  5
38A
100
AcDbEntity
  8
0
100
AcDbSpline
 62
7
  6
CONTINUOUS
 70
0
 71
3
 72
23
 73
19
 74
0
 42
0.0000001
 43
0.0000001
 44
0.0000000001
 40
0.0
 40
0.0
 40
0.0
 40
0.0
 40
0.0637376874
 40
0.1272763281
 40
0.190616052
 40
0.2537626658
 40
0.3167213047
 40
0.3794995985
 40
0.4421064752
 40
0.5045524133
 40
0.5668493035
 40
0.6290103529
 40
0.6910499825
 40
0.7529837015
 40
0.8148279742
 40
0.8766000762
 40
0.9383179415
 40
1.0
 40
1.0
 40
1.0
 40
1.0
 10
10.3163301989
 20
7.4165500221
 30
0.0
 10
10.3163301989
 20
7.4293314148
 30
0.0
 10
10.3169093895
 20
7.4548581637
 30
0.0
 10
10.3195233931
 20
7.4930059349
 30
0.0
 10
10.3238761809
 20
7.5308762395
 30
0.0
 10
10.3299585564
 20
7.5683895801
 30
0.0
 10
10.3377582227
 20
7.6054689617
 30
0.0
 10
10.3472590465
 20
7.6420376241
 30
0.0
 10
10.3584415215
 20
7.6780200571
 30
0.0
 10
10.3712825904
 20
7.7133419003
 30
0.0
 10
10.3857557748
 20
7.7479301659
 30
0.0
 10
10.4018312238
 20
7.7817133716
 30
0.0
 10
10.4194757664
 20
7.8146216852
 30
0.0
 10
10.4386530042
 20
7.8465870954
 30
0.0
 10
10.4593232968
 20
7.8775434528
 30
0.0
 10
10.4814441633
 20
7.9074269871
 30
0.0
 10
10.5049691054
 20
7.9361750819
 30
0.0
 10
10.5215611413
 20
7.9545494684
 30
0.0
 10
10.5300719621
 20
7.9635251254
 30
0.0
  0
LINE
  5
38B
100
AcDbEntity
  8
0
100
AcDbLine
 62
7
  6
CONTINUOUS
 10
10.5300719621
 20
7.9635251254
 11
10.5315484213
 21
7.9650778469
  0
SPLINE
  5
38C
100
AcDbEntity
  8
0
100
AcDbSpline
 62
7
  6
CONTINUOUS
 70
0
 71
3
 72
71
 73
67
 74
0
 42
0.0000001
 43
0.0000001
 44
0.0000000001
 40
0.0
 40
0.0
 40
0.0
 40
0.0
 40
0.0155842919
 40
0.0311159123
 40
0.0465952598
 40
0.0620238813
 40
0.0774034486
 40
0.0927362826
 40
0.1080251225
 40
0.1232731733
 40
0.1384840556
 40
0.1536617767
 40
0.1688106903
 40
0.1839354535
 40
0.1990409785
 40
0.2141323822
 40
0.2292149319
 40
0.2442939893
 40
0.2593749538
 40
0.274463204
 40
0.2895640408
 40
0.3046826306
 40
0.3198239512
 40
0.3349927397
 40
0.3501934437
 40
0.3654301769
 40
0.3807066779
 40
0.3960262749
 40
0.4113918551
 40
0.4268058386
 40
0.442270159
 40
0.4577862486
 40
0.4733550295
 40
0.4889769099
 40
0.5046517846
 40
0.5203790424
 40
0.5361575756
 40
0.551985796
 40
0.5678616541
 40
0.5837826616
 40
0.5997459183
 40
0.6157481418
 40
0.6317856998
 40
0.6478546444
 40
0.6639507499
 40
0.6800695506
 40
0.6962063816
 40
0.7123564199
 40
0.7285147273
 40
0.7446762937
 40
0.7608360805
 40
0.7769890649
 40
0.7931302833
 40
0.8092548746
 40
0.8253581232
 40
0.8414355006
 40
0.857482706
 40
0.8734957058
 40
0.8894707712
 40
0.9054045127
 40
0.9212939185
 40
0.9371363636
 40
0.9529297087
 40
0.9686721119
 40
0.9843625862
 40
1.0
 40
1.0
 40
1.0
 40
1.0
 10
10.4191111553
 20
7.4319084981
 30
0.0
 10
10.4191111553
 20
7.4443888673
 30
0.0
 10
10.4197219078
 20
7.4693118509
 30
0.0
 10
10.422478958
 20
7.5065393477
 30
0.0
 10
10.4270690047
 20
7.5434609934
 30
0.0
 10
10.4334808854
 20
7.5799864803
 30
0.0
 10
10.4416993819
 20
7.6160282223
 30
0.0
 10
10.4517046982
 20
7.6514991987
 30
0.0
 10
10.463472842
 20
7.6863139315
 30
0.0
 10
10.4769755134
 20
7.7203884593
 30
0.0
 10
10.4921802422
 20
7.7536406067
 30
0.0
 10
10.5090504379
 20
7.7859901664
 30
0.0
 10
10.5275454767
 20
7.8173591044
 30
0.0
 10
10.5476208034
 20
7.8476717466
 30
0.0
 10
10.5692280402
 20
7.8768549634
 30
0.0
 10
10.5923151024
 20
7.9048383484
 30
0.0
 10
10.6168263249
 20
7.9315543914
 30
0.0
 10
10.642702597
 20
7.9569386429
 30
0.0
 10
10.6698815065
 20
7.9809298722
 30
0.0
 10
10.6982974917
 20
8.0034702171
 30
0.0
 10
10.7278820025
 20
8.0245053236
 30
0.0
 10
10.7585636631
 20
8.0439844862
 30
0.0
 10
10.7902684507
 20
8.0618607666
 30
0.0
 10
10.8229198791
 20
8.0780911043
 30
0.0
 10
10.8564391852
 20
8.0926364203
 30
0.0
 10
10.8907455211
 20
8.1054617097
 30
0.0
 10
10.9257561513
 20
8.1165361249
 30
0.0
 10
10.9613866538
 20
8.1258330479
 30
0.0
 10
10.9975511251
 20
8.1333301523
 30
0.0
 10
11.0341623878
 20
8.1390094542
 30
0.0
 10
11.0711322005
 20
8.1428573598
 30
0.0
 10
11.1083714723
 20
8.144864695
 30
0.0
 10
11.1457904784
 20
8.1450267191
 30
0.0
 10
11.1832990751
 20
8.1433431354
 30
0.0
 10
11.2208069169
 20
8.1398180894
 30
0.0
 10
11.2582236721
 20
8.1344601572
 30
0.0
 10
11.2954592394
 20
8.1272823233
 30
0.0
 10
11.3324239638
 20
8.1183019482
 30
0.0
 10
11.3690288499
 20
8.1075407247
 30
0.0
 10
11.4051857769
 20
8.0950246299
 30
0.0
 10
11.4408077106
 20
8.0807838636
 30
0.0
 10
11.4758089098
 20
8.0648527677
 30
0.0
 10
11.5101051316
 20
8.0472697447
 30
0.0
 10
11.5436138326
 20
8.028077165
 30
0.0
 10
11.5762543661
 20
8.0073212652
 30
0.0
 10
11.607948175
 20
7.9850520367
 30
0.0
 10
11.6386189797
 20
7.9613231062
 30
0.0
 10
11.6681929598
 20
7.9361916069
 30
0.0
 10
11.6965989332
 20
7.9097180437
 30
0.0
 10
11.7237685309
 20
7.8819661511
 30
0.0
 10
11.7496363544
 20
7.8530027339
 30
0.0
 10
11.7741401341
 20
7.8228975083
 30
0.0
 10
11.7972208775
 20
7.7917229344
 30
0.0
 10
11.8188230106
 20
7.759554043
 30
0.0
 10
11.8388945114
 20
7.7264682566
 30
0.0
 10
11.8573870342
 20
7.6925452034
 30
0.0
 10
11.8742560256
 20
7.6578665277
 30
0.0
 10
11.8894608333
 20
7.6225156944
 30
0.0
 10
11.9029648084
 20
7.5865777929
 30
0.0
 10
11.9147353947
 20
7.5501393245
 30
0.0
 10
11.9247441811
 20
7.5132880142
 30
0.0
 10
11.9329670403
 20
7.4761125331
 30
0.0
 10
11.9393840236
 20
7.4387025259
 30
0.0
 10
11.9439797398
 20
7.4011476121
 30
0.0
 10
11.9467428485
 20
7.363539581
 30
0.0
 10
11.9473598519
 20
7.3384470018
 30
0.0
 10
11.9473598519
 20
7.325924091
 30
0.0
  0
SPLINE
  5
38D
100
AcDbEntity
  8
0
100
AcDbSpline
 62
7
  6
CONTINUOUS
 70
0
 71
3
 72
48
 73
44
 74
0
 42
0.0000001
 43
0.0000001
 44
0.0000000001
 40
0.0
 40
0.0
 40
0.0
 40
0.0
 40
0.0310737286
 40
0.0623047169
 40
0.0936882768
 40
0.1252158192
 40
0.1568759363
 40
0.1886544543
 40
0.2205347671
 40
0.2524981996
 40
0.2845244034
 40
0.3165917744
 40
0.3486778872
 40
0.3807599447
 40
0.4128152307
 40
0.444821561
 40
0.476757727
 40
0.5086039285
 40
0.5403421829
 40
0.5719567057
 40
0.6034342639
 40
0.6347644801
 40
0.6659400877
 40
0.6969571367
 40
0.7278151252
 40
0.7431880054
 40
0.758522545
 40
0.7738196675
 40
0.7890805069
 40
0.8043064089
 40
0.8194989208
 40
0.8346597817
 40
0.8497909186
 40
0.8648944344
 40
0.8799725929
 40
0.8950278113
 40
0.9100626449
 40
0.9250797694
 40
0.9400819686
 40
0.9550721182
 40
0.970053165
 40
0.9850281118
 40
1.0
 40
1.0
 40
1.0
 40
1.0
 10
10.4335548518
 20
7.4367803485
 30
0.0
 10
10.4335548518
 20
7.4180610329
 30
0.0
 10
10.4349512873
 20
7.380513262
 30
0.0
 10
10.4411859604
 20
7.3243713759
 30
0.0
 10
10.4515308743
 20
7.2685591419
 30
0.0
 10
10.4659288452
 20
7.2133870354
 30
0.0
 10
10.484300119
 20
7.1591569297
 30
0.0
 10
10.5065434105
 20
7.1061667734
 30
0.0
 10
10.5325362755
 20
7.054707316
 30
0.0
 10
10.5621356313
 20
7.0050609037
 30
0.0
 10
10.5951788231
 20
6.9574999602
 30
0.0
 10
10.631484355
 20
6.9122854859
 30
0.0
 10
10.6708527953
 20
6.8696655377
 30
0.0
 10
10.713068092
 20
6.829874077
 30
0.0
 10
10.7578985715
 20
6.7931295683
 30
0.0
 10
10.8050981859
 20
6.759633733
 30
0.0
 10
10.8544080106
 20
6.7295706709
 30
0.0
 10
10.9055574812
 20
6.7031056526
 30
0.0
 10
10.9582659073
 20
6.6803842228
 30
0.0
 10
11.0122440614
 20
6.6615316173
 30
0.0
 10
11.0671956859
 20
6.6466518116
 30
0.0
 10
11.1228189129
 20
6.6358270009
 30
0.0
 10
11.1788088393
 20
6.6291174219
 30
0.0
 10
11.2348557043
 20
6.6265603198
 30
0.0
 10
11.2814192143
 20
6.627904516
 30
0.0
 10
11.3183794585
 20
6.6310663788
 30
0.0
 10
11.3458904084
 20
6.6344709799
 30
0.0
 10
11.3731852676
 20
6.6389069873
 30
0.0
 10
11.4002269711
 20
6.6443683849
 30
0.0
 10
11.4269782004
 20
6.6508475979
 30
0.0
 10
11.4534021884
 20
6.6583357434
 30
0.0
 10
11.4794625444
 20
6.6668226174
 30
0.0
 10
11.5051234364
 20
6.6762964811
 30
0.0
 10
11.5303495566
 20
6.6867443198
 30
0.0
 10
11.5551061553
 20
6.6981518536
 30
0.0
 10
11.5793591935
 20
6.7105033263
 30
0.0
 10
11.6030753011
 20
6.7237817507
 30
0.0
 10
11.6262217896
 20
6.7379689416
 30
0.0
 10
11.6487668463
 20
6.7530453278
 30
0.0
 10
11.6706794251
 20
6.7689901304
 30
0.0
 10
11.6919294214
 20
6.7857815889
 30
0.0
 10
11.7124872178
 20
6.8033961602
 30
0.0
 10
11.7257135694
 20
6.815673152
 30
0.0
 10
11.7322007424
 20
6.8219392901
 30
0.0
  0
SPLINE
  5
38E
100
AcDbEntity
  8
0
100
AcDbSpline
 62
7
  6
CONTINUOUS
 70
0
 71
3
 72
42
 73
38
 74
0
 42
0.0000001
 43
0.0000001
 44
0.0000000001
 40
0.0
 40
0.0
 40
0.0
 40
0.0
 40
0.0310255268
 40
0.0622027355
 40
0.093527506
 40
0.1249920355
 40
0.1565860627
 40
0.188296772
 40
0.2201091141
 40
0.2520061133
 40
0.2839692006
 40
0.315978572
 40
0.3480135642
 40
0.3800530388
 40
0.4120757744
 40
0.4440608598
 40
0.4759880818
 40
0.507838306
 40
0.5395938425
 40
0.57123879
 40
0.602759356
 40
0.6341441485
 40
0.6653844253
 40
0.6964743007
 40
0.7274109055
 40
0.758194491
 40
0.7888284669
 40
0.8193193767
 40
0.8496768073
 40
0.8799132222
 40
0.9100437254
 40
0.9250773345
 40
0.9400911806
 40
0.9550877492
 40
0.9700696203
 40
0.9850394594
 40
1.0
 40
1.0
 40
1.0
 40
1.0
 10
10.7023552703
 20
7.6494216303
 30
0.0
 10
10.7023552703
 20
7.6324383123
 30
0.0
 10
10.7035780278
 20
7.5983764535
 30
0.0
 10
10.7090391806
 20
7.5474311856
 30
0.0
 10
10.718103146
 20
7.4967558565
 30
0.0
 10
10.7307232585
 20
7.4466131723
 30
0.0
 10
10.7468344379
 20
7.397258896
 30
0.0
 10
10.7663538344
 20
7.3489457403
 30
0.0
 10
10.7891812576
 20
7.3019207613
 30
0.0
 10
10.8151997063
 20
7.2564245129
 30
0.0
 10
10.8442758412
 20
7.2126896563
 30
0.0
 10
10.8762607486
 20
7.1709398449
 30
0.0
 10
10.9109907369
 20
7.1313886223
 30
0.0
 10
10.9482881292
 20
7.0942383299
 30
0.0
 10
10.9879620892
 20
7.0596789976
 30
0.0
 10
11.0298096946
 20
7.0278874757
 30
0.0
 10
11.0736169569
 20
6.9990265555
 30
0.0
 10
11.1191598393
 20
6.9732440588
 30
0.0
 10
11.1662054075
 20
6.950672084
 30
0.0
 10
11.2145130518
 20
6.9314264177
 30
0.0
 10
11.2638356823
 20
6.9156059408
 30
0.0
 10
11.3139209318
 20
6.9032919794
 30
0.0
 10
11.364512481
 20
6.8945479953
 30
0.0
 10
11.415351345
 20
6.8894192853
 30
0.0
 10
11.4661771685
 20
6.8879326749
 30
0.0
 10
11.5167295398
 20
6.8900962751
 30
0.0
 10
11.5667493764
 20
6.8958995829
 30
0.0
 10
11.6159800296
 20
6.905313403
 30
0.0
 10
11.6641693471
 20
6.9182902282
 30
0.0
 10
11.7110682937
 20
6.9347630524
 30
0.0
 10
11.7489098469
 20
6.9513496343
 30
0.0
 10
11.7782853613
 20
6.9662706572
 30
0.0
 10
11.7998344886
 20
6.9782669546
 30
0.0
 10
11.8208866156
 20
6.9910603149
 30
0.0
 10
11.8414152204
 20
7.0046346515
 30
0.0
 10
11.8613935674
 20
7.0189721078
 30
0.0
 10
11.8743326481
 20
7.0290302279
 30
0.0
 10
11.8807007812
 20
7.0341792778
 30
0.0
  0
SPLINE
  5
38F
100
AcDbEntity
  8
0
100
AcDbSpline
 62
7
  6
CONTINUOUS
 70
0
 71
3
 72
44
 73
40
 74
0
 42
0.0000001
 43
0.0000001
 44
0.0000000001
 40
0.0
 40
0.0
 40
0.0
 40
0.0
 40
0.0310443156
 40
0.0622424275
 40
0.093590042
 40
0.1250790308
 40
0.156698717
 40
0.1884357731
 40
0.2202745646
 40
0.2521974779
 40
0.2841852731
 40
0.3162174652
 40
0.3482727227
 40
0.3803292746
 40
0.4123653255
 40
0.4443594701
 40
0.4762911023
 40
0.5081408144
 40
0.5398907806
 40
0.5715251153
 40
0.6030302039
 40
0.6343950014
 40
0.6656112869
 40
0.6966738678
 40
0.7275807306
 40
0.7583331346
 40
0.7889356315
 40
0.8193960148
 40
0.8497251974
 40
0.8648475433
 40
0.8799425043
 40
0.8950122209
 40
0.9100589765
 40
0.9250851839
 40
0.940093378
 40
0.9550861953
 40
0.9700663612
 40
0.9850366773
 40
1.0
 40
1.0
 40
1.0
 40
1.0
 10
10.723568469
 20
7.654912008
 30
0.0
 10
10.723568469
 20
7.6380466257
 30
0.0
 10
10.7247994911
 20
7.6042198718
 30
0.0
 10
10.7302968543
 20
7.5536320592
 30
0.0
 10
10.739419938
 20
7.5033232143
 30
0.0
 10
10.7521204703
 20
7.4535613319
 30
0.0
 10
10.7683311531
 20
7.4046072284
 30
0.0
 10
10.7879663259
 20
7.3567184717
 30
0.0
 10
10.8109224216
 20
7.3101466912
 30
0.0
 10
10.8370785344
 20
7.2651366817
 30
0.0
 10
10.866296945
 20
7.2219249673
 30
0.0
 10
10.8984238845
 20
7.1807386111
 30
0.0
 10
10.9332903993
 20
7.141794073
 30
0.0
 10
10.9707132143
 20
7.1052960936
 30
0.0
 10
11.0104955878
 20
7.0714365262
 30
0.0
 10
11.0524284327
 20
7.040393418
 30
0.0
 10
11.0962914096
 20
7.0123301099
 30
0.0
 10
11.1418540367
 20
6.9873943518
 30
0.0
 10
11.1888768497
 20
6.9657174437
 30
0.0
 10
11.237112716
 20
6.9474136658
 30
0.0
 10
11.2863081019
 20
6.9325796883
 30
0.0
 10
11.3362043492
 20
6.9212939578
 30
0.0
 10
11.3865390392
 20
6.9136162828
 30
0.0
 10
11.437047358
 20
6.9095875937
 30
0.0
 10
11.4874635101
 20
6.9092297307
 30
0.0
 10
11.5375218927
 20
6.9125450737
 30
0.0
 10
11.5869592729
 20
6.9195169257
 30
0.0
 10
11.6355132933
 20
6.9301084508
 30
0.0
 10
11.6750712764
 20
6.9419193638
 30
0.0
 10
11.7060078474
 20
6.9531133845
 30
0.0
 10
11.7288128232
 20
6.9623626219
 30
0.0
 10
11.751209559
 20
6.9724604472
 30
0.0
 10
11.7731689543
 20
6.9833937435
 30
0.0
 10
11.7946619311
 20
6.9951481101
 30
0.0
 10
11.8156602567
 20
7.0077079842
 30
0.0
 10
11.8361361603
 20
7.0210569038
 30
0.0
 10
11.8560627757
 20
7.0351773286
 30
0.0
 10
11.8754135195
 20
7.0500502827
 30
0.0
 10
11.8879160462
 20
7.0604568516
 30
0.0
 10
11.8940617105
 20
7.0657778457
 30
0.0
  0
SPLINE
  5
390
100
AcDbEntity
  8
0
100
AcDbSpline
 62
7
  6
CONTINUOUS
 70
0
 71
3
 72
39
 73
35
 74
0
 42
0.0000001
 43
0.0000001
 44
0.0000000001
 40
0.0
 40
0.0
 40
0.0
 40
0.0
 40
0.0310004725
 40
0.0621498355
 40
0.0934442362
 40
0.1248762385
 40
0.1564361347
 40
0.1881117556
 40
0.2198887981
 40
0.2517511035
 40
0.2836809643
 40
0.3156594547
 40
0.3476667763
 40
0.3796826158
 40
0.4116865077
 40
0.4436581996
 40
0.4755780151
 40
0.5074272094
 40
0.5391883123
 40
0.5708454542
 40
0.6023846735
 40
0.6337941941
 40
0.6650646706
 40
0.6961893957
 40
0.7271644666
 40
0.7579889016
 40
0.7886646999
 40
0.8191968449
 40
0.8495932464
 40
0.8798646195
 40
0.9100242952
 40
0.9400879691
 40
0.9700733907
 40
1.0
 40
1.0
 40
1.0
 40
1.0
 10
10.7655020989
 20
7.6954167865
 30
0.0
 10
10.7655020989
 20
7.6790796524
 30
0.0
 10
10.7666570658
 20
7.6463156023
 30
0.0
 10
10.7718163363
 20
7.5973041888
 30
0.0
 10
10.7803804365
 20
7.5485388955
 30
0.0
 10
10.7923068432
 20
7.5002635233
 30
0.0
 10
10.8075362474
 20
7.4527155715
 30
0.0
 10
10.8259931607
 20
7.4061298599
 30
0.0
 10
10.847586181
 20
7.3607361427
 30
0.0
 10
10.8722085236
 20
7.3167583531
 30
0.0
 10
10.8997385356
 20
7.2744134201
 30
0.0
 10
10.9300402589
 20
7.2339102206
 30
0.0
 10
10.9629640721
 20
7.1954485248
 30
0.0
 10
10.9983474913
 20
7.1592180695
 30
0.0
 10
11.0360159485
 20
7.1253976267
 30
0.0
 10
11.0757836427
 20
7.0941541358
 30
0.0
 10
11.1174543944
 20
7.0656418157
 30
0.0
 10
11.1608226648
 20
7.0400014758
 30
0.0
 10
11.2056745501
 20
7.0173598249
 30
0.0
 10
11.2517888263
 20
6.9978288658
 30
0.0
 10
11.2989379915
 20
6.9815052651
 30
0.0
 10
11.3468894004
 20
6.9684699079
 30
0.0
 10
11.3954064058
 20
6.95878753
 30
0.0
 10
11.4442495045
 20
6.9525063937
 30
0.0
 10
11.4931774946
 20
6.9496579956
 30
0.0
 10
11.5419486615
 20
6.950256859
 30
0.0
 10
11.5903219667
 20
6.9543005249
 30
0.0
 10
11.6380582292
 20
6.9617695316
 30
0.0
 10
11.6849212765
 20
6.9726274685
 30
0.0
 10
11.7306792289
 20
6.9868211061
 30
0.0
 10
11.7751053127
 20
7.0042804838
 30
0.0
 10
11.8179802228
 20
7.0249201294
 30
0.0
 10
11.8590886465
 20
7.0486361167
 30
0.0
 10
11.8852074343
 20
7.0664380573
 30
0.0
 10
11.8978961503
 20
7.0758043594
 30
0.0
  0
SPLINE
  5
391
100
AcDbEntity
  8
0
100
AcDbSpline
 62
7
  6
CONTINUOUS
 70
0
 71
3
 72
20
 73
16
 74
0
 42
0.0000001
 43
0.0000001
 44
0.0000000001
 40
0.0
 40
0.0
 40
0.0
 40
0.0
 40
0.1481744382
 40
0.2920511212
 40
0.4303231199
 40
0.4969785539
 40
0.5617922243
 40
0.6246328402
 40
0.6853767567
 40
0.7439085261
 40
0.8001219492
 40
0.8539192831
 40
0.905212889
 40
0.9539299748
 40
1.0
 40
1.0
 40
1.0
 40
1.0
 10
11.1421427575
 20
8.1403165636
 30
0.0
 10
11.1397141093
 20
8.1331227972
 30
0.0
 10
11.1349824423
 20
8.1189252896
 30
0.0
 10
11.1280872224
 20
8.0979807618
 30
0.0
 10
11.1224789643
 20
8.0810101535
 30
0.0
 10
11.1180745856
 20
8.0679087044
 30
0.0
 10
11.1148546206
 20
8.0584869794
 30
0.0
 10
11.1116713705
 20
8.0493730132
 30
0.0
 10
11.1085186914
 20
8.0405896443
 30
0.0
 10
11.1053906932
 20
8.0321586912
 30
0.0
 10
11.1022819676
 20
8.0241009319
 30
0.0
 10
11.099187651
 20
8.0164361117
 30
0.0
 10
11.0961033917
 20
8.009182745
 30
0.0
 10
11.0930258305
 20
8.0023586052
 30
0.0
 10
11.0909172515
 20
7.9979823293
 30
0.0
 10
11.0898601649
 20
7.9958715378
 30
0.0
  0
SPLINE
  5
392
100
AcDbEntity
  8
0
100
AcDbSpline
 62
7
  6
CONTINUOUS
 70
0
 71
3
 72
30
 73
26
 74
0
 42
0.0000001
 43
0.0000001
 44
0.0000000001
 40
0.0
 40
0.0
 40
0.0
 40
0.0
 40
0.0334912133
 40
0.0515164975
 40
0.0704818233
 40
0.0904416106
 40
0.1114370179
 40
0.1334984419
 40
0.1566468919
 40
0.1808952329
 40
0.2062490352
 40
0.2327076413
 40
0.2602648628
 40
0.2889095125
 40
0.3186260661
 40
0.3493948337
 40
0.3811926894
 40
0.4477647745
 40
0.5180942407
 40
0.5918873882
 40
0.668811219
 40
0.7484972461
 40
0.8305460318
 40
0.9145296915
 40
1.0
 40
1.0
 40
1.0
 40
1.0
 10
11.1377973699
 20
7.715675413
 30
0.0
 10
11.1400150538
 20
7.7152973264
 30
0.0
 10
11.1433789975
 20
7.7144133287
 30
0.0
 10
11.1478155638
 20
7.7127570484
 30
0.0
 10
11.1513134414
 20
7.7112017701
 30
0.0
 10
11.1548985488
 20
7.7093685729
 30
0.0
 10
11.1585718062
 20
7.7072619853
 30
0.0
 10
11.1623330657
 20
7.7048869953
 30
0.0
 10
11.1661825924
 20
7.7022490684
 30
0.0
 10
11.1701204718
 20
7.6993539182
 30
0.0
 10
11.1741468464
 20
7.6962077151
 30
0.0
 10
11.1782617455
 20
7.6928169202
 30
0.0
 10
11.1824651574
 20
7.689188382
 30
0.0
 10
11.1867569546
 20
7.6853292569
 30
0.0
 10
11.1911368758
 20
7.6812470265
 30
0.0
 10
11.1956045456
 20
7.6769494907
 30
0.0
 10
11.2017722286
 20
7.6708493743
 30
0.0
 10
11.2096809458
 20
7.6627322722
 30
0.0
 10
11.2193677691
 20
7.6524131408
 30
0.0
 10
11.2293765964
 20
7.6414448368
 30
0.0
 10
11.2396884599
 20
7.6299036067
 30
0.0
 10
11.2502785442
 20
7.6178680469
 30
0.0
 10
11.2611157221
 20
7.6054186242
 30
0.0
 10
11.2721624288
 20
7.5926366429
 30
0.0
 10
11.2795856835
 20
7.5840076571
 30
0.0
 10
11.2833268397
 20
7.5796527087
 30
0.0
  0
SPLINE
  5
393
100
AcDbEntity
  8
0
100
AcDbSpline
 62
7
  6
CONTINUOUS
 70
0
 71
3
 72
36
 73
32
 74
0
 42
0.0000001
 43
0.0000001
 44
0.0000000001
 40
0.0
 40
0.0
 40
0.0
 40
0.0
 40
0.0924472702
 40
0.183137812
 40
0.271318379
 40
0.3562834574
 40
0.3973559684
 40
0.4373877107
 40
0.4763090462
 40
0.5140554477
 40
0.5505677994
 40
0.5857927902
 40
0.619683405
 40
0.6521994888
 40
0.6833084631
 40
0.7129862449
 40
0.7412183754
 40
0.7680013681
 40
0.7933443763
 40
0.8172713126
 40
0.8398234483
 40
0.8610624455
 40
0.8810738234
 40
0.8906555857
 40
0.8999752674
 40
0.9178999477
 40
0.9350276022
 40
0.9515637279
 40
0.9677394483
 40
0.9838015238
 40
1.0
 40
1.0
 40
1.0
 40
1.0
 10
11.3243318109
 20
7.531740358
 30
0.0
 10
11.3290172907
 20
7.5262450815
 30
0.0
 10
11.3382899651
 20
7.5153510568
 30
0.0
 10
11.3519770546
 20
7.4991687861
 30
0.0
 10
11.3652027174
 20
7.4833620461
 30
0.0
 10
11.375832945
 20
7.4704379167
 30
0.0
 10
11.3839773365
 20
7.4603402876
 30
0.0
 10
11.3898076339
 20
7.4529974177
 30
0.0
 10
11.3954111583
 20
7.4458066859
 30
0.0
 10
11.4007702699
 20
7.4387746138
 30
0.0
 10
11.405867775
 20
7.4319069888
 30
0.0
 10
11.4106869447
 20
7.4252088979
 30
0.0
 10
11.4152115833
 20
7.4186848057
 30
0.0
 10
11.4194260835
 20
7.4123386237
 30
0.0
 10
11.4233154845
 20
7.4061737802
 30
0.0
 10
11.4268655297
 20
7.4001932872
 30
0.0
 10
11.4300627213
 20
7.3943998047
 30
0.0
 10
11.432894364
 20
7.3887957097
 30
0.0
 10
11.4353486015
 20
7.3833831458
 30
0.0
 10
11.4374144499
 20
7.3781641289
 30
0.0
 10
11.4390818568
 20
7.3731404645
 30
0.0
 10
11.4403414963
 20
7.3683142668
 30
0.0
 10
11.4410544857
 20
7.364403161
 30
0.0
 10
11.4414036031
 20
7.3613825848
 30
0.0
 10
11.4416029767
 20
7.3585119861
 30
0.0
 10
11.4415940455
 20
7.3550393353
 30
0.0
 10
11.4411466986
 20
7.3510257391
 30
0.0
 10
11.4402583815
 20
7.3472251106
 30
0.0
 10
11.4389265489
 20
7.3436440404
 30
0.0
 10
11.4371523313
 20
7.3402904192
 30
0.0
 10
11.4356891248
 20
7.338228623
 30
0.0
 10
11.4348938706
 20
7.3372443919
 30
0.0
  0
SPLINE
  5
394
100
AcDbEntity
  8
0
100
AcDbSpline
 62
7
  6
CONTINUOUS
 70
0
 71
3
 72
42
 73
38
 74
0
 42
0.0000001
 43
0.0000001
 44
0.0000000001
 40
0.0
 40
0.0
 40
0.0
 40
0.0
 40
0.0310515893
 40
0.0622577567
 40
0.0936141346
 40
0.1251124814
 40
0.1567419604
 40
0.1884890539
 40
0.2203379096
 40
0.252270676
 40
0.2842678634
 40
0.3163087347
 40
0.3483717111
 40
0.3804347887
 40
0.4124759617
 40
0.4444736456
 40
0.4764070931
 40
0.5082568021
 40
0.540004904
 40
0.5716355271
 40
0.6031351326
 40
0.6344928161
 40
0.6657005609
 40
0.6967534416
 40
0.7276497751
 40
0.7583912057
 40
0.7889827168
 40
0.8194325722
 40
0.8497521836
 40
0.879955894
 40
0.9100606862
 40
0.9250847517
 40
0.9400914759
 40
0.9550835521
 40
0.970063757
 40
0.9850349389
 40
1.0
 40
1.0
 40
1.0
 40
1.0
 10
10.8224527281
 20
7.7039268734
 30
0.0
 10
10.8224527281
 20
7.6880722053
 30
0.0
 10
10.8236157599
 20
7.6562721371
 30
0.0
 10
10.8288092499
 20
7.6087172596
 30
0.0
 10
10.8374277044
 20
7.5614284389
 30
0.0
 10
10.8494250686
 20
7.5146600884
 30
0.0
 10
10.8647371314
 20
7.4686597655
 30
0.0
 10
10.8832821761
 20
7.423671901
 30
0.0
 10
10.9049614195
 20
7.3799352302
 30
0.0
 10
10.9296595518
 20
7.3376819323
 30
0.0
 10
10.9572452229
 20
7.29713624
 30
0.0
 10
10.9875718246
 20
7.258513327
 30
0.0
 10
11.0204782998
 20
7.2220182079
 30
0.0
 10
11.0557899489
 20
7.1878446458
 30
0.0
 10
11.0933192809
 20
7.1561740541
 30
0.0
 10
11.1328671022
 20
7.1271746371
 30
0.0
 10
11.1742235526
 20
7.1010005227
 30
0.0
 10
11.2171691417
 20
7.0777908586
 30
0.0
 10
11.2614759238
 20
7.0576690874
 30
0.0
 10
11.3069087326
 20
7.0407423734
 30
0.0
 10
11.3532263908
 20
7.0271010265
 30
0.0
 10
11.4001829339
 20
7.0168178795
 30
0.0
 10
11.4475289483
 20
7.0099480147
 30
0.0
 10
11.4950128667
 20
7.0065284877
 30
0.0
 10
11.5423822761
 20
7.0065780429
 30
0.0
 10
11.5893852456
 20
7.0100969235
 30
0.0
 10
11.6357717102
 20
7.0170670039
 30
0.0
 10
11.6812945915
 20
7.027451743
 30
0.0
 10
11.7257118309
 20
7.0411966198
 30
0.0
 10
11.7687851451
 20
7.0582279432
 30
0.0
 10
11.8033981919
 20
7.0750993395
 30
0.0
 10
11.830176094
 20
7.0901363111
 30
0.0
 10
11.8497736906
 20
7.1021643623
 30
0.0
 10
11.8688697908
 20
7.1149328039
 30
0.0
 10
11.8874394212
 20
7.12842498
 30
0.0
 10
11.9054574888
 20
7.1426224774
 30
0.0
 10
11.9170882822
 20
7.1525473032
 30
0.0
 10
11.9228027118
 20
7.157619838
 30
0.0
  0
SPLINE
  5
395
100
AcDbEntity
  8
0
100
AcDbSpline
 62
7
  6
CONTINUOUS
 70
0
 71
3
 72
21
 73
17
 74
0
 42
0.0000001
 43
0.0000001
 44
0.0000000001
 40
0.0
 40
0.0
 40
0.0
 40
0.0
 40
0.0613402126
 40
0.1228646261
 40
0.1845685522
 40
0.2464504258
 40
0.3706988911
 40
0.4955857719
 40
0.5582607286
 40
0.6210676674
 40
0.6839953798
 40
0.7470317991
 40
0.8101643339
 40
0.8733788207
 40
0.9366631138
 40
1.0
 40
1.0
 40
1.0
 40
1.0
 10
11.1339411918
 20
8.0048016429
 30
0.0
 10
11.1339411918
 20
7.9954181257
 30
0.0
 10
11.1343480016
 20
7.9766204098
 30
0.0
 10
11.1361708769
 20
7.948436825
 30
0.0
 10
11.1392042312
 20
7.9202734501
 30
0.0
 10
11.1448612527
 20
7.8827758459
 30
0.0
 10
11.1549373275
 20
7.8362159916
 30
0.0
 10
11.1688980655
 20
7.7905446134
 30
0.0
 10
11.1823432832
 20
7.7546723664
 30
0.0
 10
11.1935643322
 20
7.728115213
 30
0.0
 10
11.2058881741
 20
7.7019909256
 30
0.0
 10
11.2192919688
 20
7.6763476194
 30
0.0
 10
11.2337506096
 20
7.6512334188
 30
0.0
 10
11.2492372235
 20
7.626694764
 30
0.0
 10
11.2657225427
 20
7.6027782396
 30
0.0
 10
11.2773549165
 20
7.5872823906
 30
0.0
 10
11.2833268397
 20
7.5796527087
 30
0.0
  0
SPLINE
  5
396
100
AcDbEntity
  8
0
100
AcDbSpline
 62
7
  6
CONTINUOUS
 70
0
 71
3
 72
27
 73
23
 74
0
 42
0.0000001
 43
0.0000001
 44
0.0000000001
 40
0.0
 40
0.0
 40
0.0
 40
0.0
 40
0.0636434692
 40
0.1272615782
 40
0.1908214226
 40
0.254289499
 40
0.3176344017
 40
0.3808263851
 40
0.4438380848
 40
0.5066449007
 40
0.569225414
 40
0.6315617537
 40
0.6626376925
 40
0.6936476778
 40
0.7245906115
 40
0.7554656663
 40
0.8170022491
 40
0.8782642779
 40
0.9087973475
 40
0.9392635032
 40
0.9696639077
 40
1.0
 40
1.0
 40
1.0
 40
1.0
 10
11.3243318109
 20
7.531740358
 30
0.0
 10
11.3342148196
 20
7.5211654524
 30
0.0
 10
11.3546183826
 20
7.5006090211
 30
0.0
 10
11.3870061871
 20
7.4716855687
 30
0.0
 10
11.4210466401
 20
7.444788213
 30
0.0
 10
11.4565972379
 20
7.4200301724
 30
0.0
 10
11.4935107078
 20
7.3975139043
 30
0.0
 10
11.5316338293
 20
7.3773330978
 30
0.0
 10
11.5708083291
 20
7.3595716567
 30
0.0
 10
11.6108719167
 20
7.3443034496
 30
0.0
 10
11.6516571804
 20
7.3315922394
 30
0.0
 10
11.6861448125
 20
7.3231651451
 30
0.0
 10
11.7139234816
 20
7.3177540806
 30
0.0
 10
11.7348114896
 20
7.3143667901
 30
0.0
 10
11.7557512264
 20
7.3116502644
 30
0.0
 10
11.7836770603
 20
7.3089295872
 30
0.0
 10
11.8186099263
 20
7.3072121179
 30
0.0
 10
11.8535035885
 20
7.3077541585
 30
0.0
 10
11.8812553249
 20
7.3095467059
 30
0.0
 10
11.9019477025
 20
7.3115655157
 30
0.0
 10
11.9225176442
 20
7.3142580421
 30
0.0
 10
11.9361501407
 20
7.3165028126
 30
0.0
 10
11.9429381406
 20
7.3177366604
 30
0.0
  0
SPLINE
  5
397
100
AcDbEntity
  8
0
100
AcDbSpline
 62
7
  6
CONTINUOUS
 70
0
 71
3
 72
40
 73
36
 74
0
 42
0.0000001
 43
0.0000001
 44
0.0000000001
 40
0.0
 40
0.0
 40
0.0
 40
0.0
 40
0.0307247721
 40
0.0615693602
 40
0.0925313201
 40
0.1236069953
 40
0.1547911625
 40
0.1860773313
 40
0.2174577466
 40
0.2489235257
 40
0.280464763
 40
0.3120706589
 40
0.3437296512
 40
0.3754295556
 40
0.4071577099
 40
0.4389011236
 40
0.4706466287
 40
0.5023810331
 40
0.5340912735
 40
0.5657645676
 40
0.5973885637
 40
0.6289514873
 40
0.6604422824
 40
0.6918507467
 40
0.7231676594
 40
0.7543848999
 40
0.7854955565
 40
0.8164940221
 40
0.847376078
 40
0.8781389611
 40
0.9087814159
 40
0.9393037282
 40
0.9545219215
 40
0.9697108994
 40
1.0
 40
1.0
 40
1.0
 40
1.0
 10
11.1809962637
 20
8.0118330446
 30
0.0
 10
11.1809962637
 20
8.0002185478
 30
0.0
 10
11.1816575976
 20
7.9769390009
 30
0.0
 10
11.1846167106
 20
7.9420684947
 30
0.0
 10
11.1895352641
 20
7.9072850909
 30
0.0
 10
11.1963972868
 20
7.8727020109
 30
0.0
 10
11.2051806494
 20
7.8384298791
 30
0.0
 10
11.2158570166
 20
7.8045788477
 30
0.0
 10
11.2283920152
 20
7.7712575545
 30
0.0
 10
11.242745306
 20
7.7385729678
 30
0.0
 10
11.2588707322
 20
7.7066299938
 30
0.0
 10
11.2767164602
 20
7.6755311564
 30
0.0
 10
11.2962251487
 20
7.6453762673
 30
0.0
 10
11.3173341309
 20
7.6162621084
 30
0.0
 10
11.339975616
 20
7.5882821235
 30
0.0
 10
11.3640769051
 20
7.5615261202
 30
0.0
 10
11.3895606235
 20
7.5360799836
 30
0.0
 10
11.416344968
 20
7.5120254023
 30
0.0
 10
11.4443439677
 20
7.4894396075
 30
0.0
 10
11.4734677581
 20
7.4683951266
 30
0.0
 10
11.5036228679
 20
7.4489595514
 30
0.0
 10
11.5347125167
 20
7.4311953221
 30
0.0
 10
11.5666369235
 20
7.4151595273
 30
0.0
 10
11.5992936245
 20
7.4009037213
 30
0.0
 10
11.632577799
 20
7.3884737587
 30
0.0
 10
11.6663826049
 20
7.3779096465
 30
0.0
 10
11.7005995126
 20
7.3692454151
 30
0.0
 10
11.7351186726
 20
7.3625090088
 30
0.0
 10
11.7698291842
 20
7.3577221879
 30
0.0
 10
11.8046197499
 20
7.3549004818
 30
0.0
 10
11.839377912
 20
7.3540530413
 30
0.0
 10
11.8682537183
 20
7.3549955722
 30
0.0
 10
11.8912229314
 20
7.3567390574
 30
0.0
 10
11.914044031
 20
7.3591346262
 30
0.0
 10
11.9310602667
 20
7.3616710814
 30
0.0
 10
11.9423307975
 20
7.3636892927
 30
0.0
  0
SPLINE
  5
398
100
AcDbEntity
  8
0
100
AcDbSpline
 62
7
  6
CONTINUOUS
 70
0
 71
3
 72
40
 73
36
 74
0
 42
0.0000001
 43
0.0000001
 44
0.0000000001
 40
0.0
 40
0.0
 40
0.0
 40
0.0
 40
0.0307205196
 40
0.0615603781
 40
0.0925171331
 40
0.1235871915
 40
0.1547653832
 40
0.186045297
 40
0.217419266
 40
0.2488785084
 40
0.280413228
 40
0.3120127413
 40
0.3436656068
 40
0.3753597626
 40
0.4070826686
 40
0.4388214528
 40
0.4705630603
 40
0.5022944037
 40
0.5340025138
 40
0.5656746892
 40
0.5972986443
 40
0.6288626528
 40
0.6603556882
 40
0.6917675564
 40
0.7230890229
 40
0.7543119299
 40
0.7854293043
 40
0.8164354534
 40
0.8473260482
 40
0.8780981916
 40
0.9087504707
 40
0.9392829927
 40
0.9545063581
 40
0.9697005305
 40
1.0
 40
1.0
 40
1.0
 40
1.0
 10
11.1954399602
 20
8.016704895
 30
0.0
 10
11.1954399602
 20
8.0053025789
 30
0.0
 10
11.1960865898
 20
7.9824485288
 30
0.0
 10
11.198979983
 20
7.9482147207
 30
0.0
 10
11.2037893992
 20
7.9140651944
 30
0.0
 10
11.2104993397
 20
7.8801102216
 30
0.0
 10
11.219088345
 20
7.8464575424
 30
0.0
 10
11.2295289261
 20
7.8132144528
 30
0.0
 10
11.2417877399
 20
7.7804867837
 30
0.0
 10
11.2558256519
 20
7.7483787558
 30
0.0
 10
11.2715978816
 20
7.7169925987
 30
0.0
 10
11.2890541369
 20
7.6864282419
 30
0.0
 10
11.3081387773
 20
7.6567829951
 30
0.0
 10
11.3287909894
 20
7.6281512418
 30
0.0
 10
11.3509449806
 20
7.6006241408
 30
0.0
 10
11.3745301872
 20
7.5742893375
 30
0.0
 10
11.3994714979
 20
7.5492306868
 30
0.0
 10
11.4256894922
 20
7.5255279878
 30
0.0
 10
11.4531006911
 20
7.5032567311
 30
0.0
 10
11.4816178219
 20
7.4824878596
 30
0.0
 10
11.5111500938
 20
7.4632875436
 30
0.0
 10
11.5416034851
 20
7.4457169712
 30
0.0
 10
11.5728810405
 20
7.4298321542
 30
0.0
 10
11.6048831774
 20
7.4156837495
 30
0.0
 10
11.6375080005
 20
7.4033168985
 30
0.0
 10
11.6706516244
 20
7.3927710826
 30
0.0
 10
11.7042084967
 20
7.384079997
 30
0.0
 10
11.7380717522
 20
7.3772714427
 30
0.0
 10
11.7721334718
 20
7.3723672319
 30
0.0
 10
11.8062853168
 20
7.3693831353
 30
0.0
 10
11.8404177819
 20
7.3683287566
 30
0.0
 10
11.8687848124
 20
7.3690619903
 30
0.0
 10
11.8913565523
 20
7.3706164962
 30
0.0
 10
11.9137877157
 20
7.3728092192
 30
0.0
 10
11.9305188737
 20
7.3751774798
 30
0.0
 10
11.941603392
 20
7.3770766439
 30
0.0
  0
SPLINE
  5
399
100
AcDbEntity
  8
0
100
AcDbSpline
 62
7
  6
CONTINUOUS
 70
0
 71
3
 72
39
 73
35
 74
0
 42
0.0000001
 43
0.0000001
 44
0.0000000001
 40
0.0
 40
0.0
 40
0.0
 40
0.0
 40
0.0306419282
 40
0.0613937671
 40
0.0922529619
 40
0.1232171826
 40
0.1542821922
 40
0.1854430491
 40
0.2166937123
 40
0.2480272652
 40
0.279435946
 40
0.3109112441
 40
0.3424439864
 40
0.3740244327
 40
0.405642374
 40
0.4372872347
 40
0.4689481764
 40
0.500614204
 40
0.5322742729
 40
0.5639173961
 40
0.5955327519
 40
0.6271097889
 40
0.6586383318
 40
0.690108682
 40
0.7215117161
 40
0.7528389797
 40
0.7840827764
 40
0.815236251
 40
0.8462934657
 40
0.8772494692
 40
0.9081003572
 40
0.9388433241
 40
0.969476704
 40
1.0
 40
1.0
 40
1.0
 40
1.0
 10
11.2748091825
 20
8.0933696812
 30
0.0
 10
11.2748091825
 20
8.0828869579
 30
0.0
 10
11.2753556122
 20
8.0618799211
 30
0.0
 10
11.2778018594
 20
8.0304015433
 30
0.0
 10
11.2818696671
 20
7.998979475
 30
0.0
 10
11.2875478066
 20
7.9676996274
 30
0.0
 10
11.2948210355
 20
7.9366458321
 30
0.0
 10
11.3036696137
 20
7.9059018558
 30
0.0
 10
11.3140696765
 20
7.8755504526
 30
0.0
 10
11.3259931407
 20
7.8456733619
 30
0.0
 10
11.3394078484
 20
7.8163510288
 30
0.0
 10
11.3542776291
 20
7.7876624054
 30
0.0
 10
11.3705623987
 20
7.7596847321
 30
0.0
 10
11.3882182685
 20
7.7324933329
 30
0.0
 10
11.4071976678
 20
7.7061614148
 30
0.0
 10
11.4274494699
 20
7.6807598724
 30
0.0
 10
11.4489191294
 20
7.6563570979
 30
0.0
 10
11.4715488287
 20
7.6330187981
 30
0.0
 10
11.4952776323
 20
7.610807819
 30
0.0
 10
11.52004165
 20
7.5897839773
 30
0.0
 10
11.5457742086
 20
7.5700039006
 30
0.0
 10
11.572406027
 20
7.5515208722
 30
0.0
 10
11.5998654018
 20
7.5343846858
 30
0.0
 10
11.6280784035
 20
7.518641517
 30
0.0
 10
11.6569690729
 20
7.504333799
 30
0.0
 10
11.6864596251
 20
7.4915001086
 30
0.0
 10
11.716470656
 20
7.4801750622
 30
0.0
 10
11.7469213575
 20
7.4703892232
 30
0.0
 10
11.7777297232
 20
7.4621690184
 30
0.0
 10
11.8088128035
 20
7.4555366675
 30
0.0
 10
11.8400867947
 20
7.4505101184
 30
0.0
 10
11.8714677544
 20
7.4471030023
 30
0.0
 10
11.9028700018
 20
7.4453245558
 30
0.0
 10
11.923802942
 20
7.4452278628
 30
0.0
 10
11.9342426475
 20
7.4454532694
 30
0.0
  0
SPLINE
  5
39A
100
AcDbEntity
  8
0
100
AcDbSpline
 62
7
  6
CONTINUOUS
 70
0
 71
3
 72
37
 73
33
 74
0
 42
0.0000001
 43
0.0000001
 44
0.0000000001
 40
0.0
 40
0.0
 40
0.0
 40
0.0
 40
0.0306187734
 40
0.0613445808
 40
0.0921741011
 40
0.1231058626
 40
0.154135768
 40
0.1852593492
 40
0.2164710847
 40
0.2477646282
 40
0.2791328662
 40
0.3105679764
 40
0.3420615133
 40
0.3736044854
 40
0.4051874435
 40
0.4368005714
 40
0.5000593218
 40
0.5633158055
 40
0.5949261203
 40
0.6265051756
 40
0.6580431917
 40
0.6895307664
 40
0.720958963
 40
0.7523193986
 40
0.7836043259
 40
0.8148067094
 40
0.8459202962
 40
0.8769396814
 40
0.9078603698
 40
0.9386788296
 40
0.969392535
 40
1.0
 40
1.0
 40
1.0
 40
1.0
 10
11.4016922204
 20
8.0899292917
 30
0.0
 10
11.4016922204
 20
8.0818115561
 30
0.0
 10
11.4021024758
 20
8.0655448023
 30
0.0
 10
11.4039393046
 20
8.0411668406
 30
0.0
 10
11.4069942022
 20
8.0168272217
 30
0.0
 10
11.4112590927
 20
7.9925886418
 30
0.0
 10
11.4167233134
 20
7.9685120647
 30
0.0
 10
11.4233729031
 20
7.9446585978
 30
0.0
 10
11.4311910049
 20
7.9210885982
 30
0.0
 10
11.4401577571
 20
7.8978617429
 30
0.0
 10
11.4502504155
 20
7.8750368248
 30
0.0
 10
11.4614433887
 20
7.8526716322
 30
0.0
 10
11.4737083502
 20
7.830822748
 30
0.0
 10
11.4870141183
 20
7.8095456166
 30
0.0
 10
11.5013274178
 20
7.7888936043
 30
0.0
 10
11.5217071673
 20
7.7622598637
 30
0.0
 10
11.5495099023
 20
7.7307940033
 30
0.0
 10
11.5801407641
 20
7.7020749999
 30
0.0
 10
11.6061596861
 20
7.6809197032
 30
0.0
 10
11.6263780011
 20
7.6660052621
 30
0.0
 10
11.6472502872
 20
7.6520800883
 30
0.0
 10
11.6687241884
 20
7.6391790041
 30
0.0
 10
11.6907452288
 20
7.6273348323
 30
0.0
 10
11.7132576907
 20
7.6165775402
 30
0.0
 10
11.7362045751
 20
7.606934399
 30
0.0
 10
11.7595277968
 20
7.5984298593
 30
0.0
 10
11.7831683077
 20
7.5910855043
 30
0.0
 10
11.8070662744
 20
7.5849199965
 30
0.0
 10
11.8311611233
 20
7.579948999
 30
0.0
 10
11.8553920552
 20
7.5761851307
 30
0.0
 10
11.8796968875
 20
7.5736380196
 30
0.0
 10
11.8959385683
 20
7.5727538266
 30
0.0
 10
11.9040498584
 20
7.5725173149
 30
0.0
  0
SPLINE
  5
39B
100
AcDbEntity
  8
0
100
AcDbSpline
 62
7
  6
CONTINUOUS
 70
0
 71
3
 72
23
 73
19
 74
0
 42
0.0000001
 43
0.0000001
 44
0.0000000001
 40
0.0
 40
0.0
 40
0.0
 40
0.0
 40
0.0620565047
 40
0.1242845535
 40
0.186663741
 40
0.2491718065
 40
0.3117849112
 40
0.3744779386
 40
0.4372248039
 40
0.4999987722
 40
0.5627727815
 40
0.6255197693
 40
0.688212999
 40
0.7508263831
 40
0.8133348019
 40
0.8757144125
 40
0.9379429475
 40
1.0
 40
1.0
 40
1.0
 40
1.0
 10
11.5352728897
 20
8.028978915
 30
0.0
 10
11.5383828275
 20
8.0199847972
 30
0.0
 10
11.5451118411
 20
8.0021404057
 30
0.0
 10
11.5566747876
 20
7.9759391516
 30
0.0
 10
11.569684883
 20
7.9503469238
 30
0.0
 10
11.5840983295
 20
7.9254500904
 30
0.0
 10
11.5998671464
 20
7.9013313175
 30
0.0
 10
11.6169387179
 20
7.8780710504
 30
0.0
 10
11.6352561324
 20
7.8557467761
 30
0.0
 10
11.6547583269
 20
7.8344328934
 30
0.0
 10
11.675380301
 20
7.814200433
 30
0.0
 10
11.6970533307
 20
7.7951168298
 30
0.0
 10
11.7197051878
 20
7.7772456997
 30
0.0
 10
11.7432604135
 20
7.7606466182
 30
0.0
 10
11.7676404424
 20
7.7453749697
 30
0.0
 10
11.7927643292
 20
7.731481586
 30
0.0
 10
11.8185472807
 20
7.7190132397
 30
0.0
 10
11.8361466944
 20
7.7116669075
 30
0.0
 10
11.8450271438
 20
7.7082456381
 30
0.0
  0
SPLINE
  5
39C
100
AcDbEntity
  8
0
100
AcDbSpline
 62
7
  6
CONTINUOUS
 70
0
 71
3
 72
48
 73
44
 74
0
 42
0.0000001
 43
0.0000001
 44
0.0000000001
 40
0.0
 40
0.0
 40
0.0
 40
0.0
 40
0.0310495458
 40
0.0622535904
 40
0.0936076925
 40
0.125103694
 40
0.1567307543
 40
0.18847539
 40
0.2203217825
 40
0.2522521138
 40
0.2842469323
 40
0.3162855395
 40
0.3483463931
 40
0.3804075241
 40
0.4124469584
 40
0.4444431385
 40
0.4763753383
 40
0.5082240704
 40
0.5399714725
 40
0.57160167
 40
0.603101115
 40
0.6344588819
 40
0.6656669215
 40
0.6967202711
 40
0.7276171993
 40
0.743009989
 40
0.7583645488
 40
0.7736815984
 40
0.7889620601
 40
0.804207061
 40
0.8194179246
 40
0.8345961628
 40
0.8497434736
 40
0.8648617302
 40
0.8799529691
 40
0.8950193833
 40
0.9100633096
 40
0.9250872127
 40
0.9400936748
 40
0.9550853811
 40
0.9700651012
 40
0.9850356756
 40
1.0
 40
1.0
 40
1.0
 40
1.0
 10
10.3163301989
 20
7.4165500221
 30
0.0
 10
10.3163301989
 20
7.3959669168
 30
0.0
 10
10.3178389944
 20
7.3546829829
 30
0.0
 10
10.3245764603
 20
7.2929452402
 30
0.0
 10
10.3357572267
 20
7.2315521647
 30
0.0
 10
10.35132161
 20
7.1708336057
 30
0.0
 10
10.3711863461
 20
7.1111104401
 30
0.0
 10
10.3952456596
 20
7.0526995923
 30
0.0
 10
10.4233716334
 20
6.9959106115
 30
0.0
 10
10.4554147275
 20
6.9410444495
 30
0.0
 10
10.4912048668
 20
6.888391891
 30
0.0
 10
10.5305521742
 20
6.8382320078
 30
0.0
 10
10.5732478819
 20
6.7908305874
 30
0.0
 10
10.6190656717
 20
6.7464389406
 30
0.0
 10
10.6677626789
 20
6.7052924476
 30
0.0
 10
10.7190807548
 20
6.667609262
 30
0.0
 10
10.7727479925
 20
6.6335893893
 30
0.0
 10
10.8284799756
 20
6.6034134254
 30
0.0
 10
10.885981316
 20
6.5772416082
 30
0.0
 10
10.9449472765
 20
6.555213194
 30
0.0
 10
11.0050652994
 20
6.5374454457
 30
0.0
 10
11.0660164467
 20
6.5240330721
 30
0.0
 10
11.1274780694
 20
6.5150479833
 30
0.0
 10
11.1891218115
 20
6.5105382907
 30
0.0
 10
11.2404435856
 20
6.5105307309
 30
0.0
 10
11.2812538427
 20
6.5127829507
 30
0.0
 10
11.311668294
 20
6.5155925745
 30
0.0
 10
11.3418831072
 20
6.5195210422
 30
0.0
 10
11.3718586554
 20
6.5245632102
 30
0.0
 10
11.4015549888
 20
6.5307123189
 30
0.0
 10
11.4309326922
 20
6.5379602303
 30
0.0
 10
11.4599526987
 20
6.5462974181
 30
0.0
 10
11.488576472
 20
6.5557127397
 30
0.0
 10
11.5167659784
 20
6.5661937071
 30
0.0
 10
11.5444837225
 20
6.5777264952
 30
0.0
 10
11.5716928969
 20
6.5902957171
 30
0.0
 10
11.5983573472
 20
6.6038846806
 30
0.0
 10
11.6244415865
 20
6.6184754214
 30
0.0
 10
11.6499109892
 20
6.634048499
 30
0.0
 10
11.6747316823
 20
6.6505831865
 30
0.0
 10
11.6988707412
 20
6.6680577006
 30
0.0
 10
11.7222956667
 20
6.6864483754
 30
0.0
 10
11.7374187464
 20
6.6993061065
 30
0.0
 10
11.7448494984
 20
6.7058780785
 30
0.0
  0
SPLINE
  5
39D
100
AcDbEntity
  8
0
100
AcDbSpline
 62
7
  6
CONTINUOUS
 70
0
 71
3
 72
71
 73
67
 74
0
 42
0.0000001
 43
0.0000001
 44
0.0000000001
 40
0.0
 40
0.0
 40
0.0
 40
0.0
 40
0.0156374138
 40
0.0313278881
 40
0.0470702913
 40
0.0628636364
 40
0.0787060815
 40
0.0945954873
 40
0.1105292288
 40
0.1265042942
 40
0.142517294
 40
0.1585644994
 40
0.1746418768
 40
0.1907451254
 40
0.2068697167
 40
0.2230109351
 40
0.2391639195
 40
0.2553237063
 40
0.2714852727
 40
0.2876435801
 40
0.3037936184
 40
0.3199304494
 40
0.3360492501
 40
0.3521453556
 40
0.3682143002
 40
0.3842518582
 40
0.4002540817
 40
0.4162173384
 40
0.4321383459
 40
0.448014204
 40
0.4638424244
 40
0.4796209576
 40
0.4953482154
 40
0.5110230901
 40
0.5266449705
 40
0.5422137514
 40
0.557729841
 40
0.5731941614
 40
0.5886081449
 40
0.6039737251
 40
0.6192933221
 40
0.6345698231
 40
0.6498065563
 40
0.6650072603
 40
0.6801760488
 40
0.6953173694
 40
0.7104359592
 40
0.725536796
 40
0.7406250462
 40
0.7557060107
 40
0.7707850681
 40
0.7858676178
 40
0.8009590215
 40
0.8160645465
 40
0.8311893097
 40
0.8463382233
 40
0.8615159444
 40
0.8767268267
 40
0.8919748775
 40
0.9072637174
 40
0.9225965514
 40
0.9379761187
 40
0.9534047402
 40
0.9688840877
 40
0.9844157081
 40
1.0
 40
1.0
 40
1.0
 40
1.0
 10
10.4191111553
 20
7.4319084981
 30
0.0
 10
10.4191111553
 20
7.4193855872
 30
0.0
 10
10.4197281587
 20
7.394293008
 30
0.0
 10
10.4224912673
 20
7.3566849769
 30
0.0
 10
10.4270869836
 20
7.3191300631
 30
0.0
 10
10.4335039669
 20
7.281720056
 30
0.0
 10
10.441726826
 20
7.2445445748
 30
0.0
 10
10.4517356124
 20
7.2076932645
 30
0.0
 10
10.4635061988
 20
7.1712547962
 30
0.0
 10
10.4770101739
 20
7.1353168946
 30
0.0
 10
10.4922149815
 20
7.0999660613
 30
0.0
 10
10.5090839729
 20
7.0652873856
 30
0.0
 10
10.5275764958
 20
7.0313643324
 30
0.0
 10
10.5476479966
 20
6.998278546
 30
0.0
 10
10.5692501297
 20
6.9661096547
 30
0.0
 10
10.5923308731
 20
6.9349350807
 30
0.0
 10
10.6168346528
 20
6.9048298551
 30
0.0
 10
10.6427024763
 20
6.875866438
 30
0.0
 10
10.6698720739
 20
6.8481145454
 30
0.0
 10
10.6982780474
 20
6.8216409821
 30
0.0
 10
10.7278520275
 20
6.7965094828
 30
0.0
 10
10.7585228322
 20
6.7727805524
 30
0.0
 10
10.7902166411
 20
6.7505113238
 30
0.0
 10
10.8228571746
 20
6.729755424
 30
0.0
 10
10.8563658756
 20
6.7105628443
 30
0.0
 10
10.8906620973
 20
6.6929798214
 30
0.0
 10
10.9256632965
 20
6.6770487254
 30
0.0
 10
10.9612852303
 20
6.6628079591
 30
0.0
 10
10.9974421573
 20
6.6502918643
 30
0.0
 10
11.0340470434
 20
6.6395306408
 30
0.0
 10
11.0710117678
 20
6.6305502657
 30
0.0
 10
11.1082473351
 20
6.6233724318
 30
0.0
 10
11.1456640903
 20
6.6180144996
 30
0.0
 10
11.183171932
 20
6.6144894536
 30
0.0
 10
11.2206805288
 20
6.6128058699
 30
0.0
 10
11.2580995349
 20
6.612967894
 30
0.0
 10
11.2953388067
 20
6.6149752292
 30
0.0
 10
11.3323086194
 20
6.6188231348
 30
0.0
 10
11.3689198821
 20
6.6245024367
 30
0.0
 10
11.4050843533
 20
6.6319995412
 30
0.0
 10
11.4407148559
 20
6.6412964641
 30
0.0
 10
11.4757254861
 20
6.6523708793
 30
0.0
 10
11.510031822
 20
6.6651961687
 30
0.0
 10
11.543551128
 20
6.6797414847
 30
0.0
 10
11.5762025565
 20
6.6959718224
 30
0.0
 10
11.6079073441
 20
6.7138481028
 30
0.0
 10
11.6385890047
 20
6.7333272654
 30
0.0
 10
11.6681735155
 20
6.7543623719
 30
0.0
 10
11.6965895007
 20
6.7769027168
 30
0.0
 10
11.7237684102
 20
6.8008939461
 30
0.0
 10
11.7496446823
 20
6.8262781976
 30
0.0
 10
11.7741559048
 20
6.8529942406
 30
0.0
 10
11.797242967
 20
6.8809776257
 30
0.0
 10
11.8188502038
 20
6.9101608424
 30
0.0
 10
11.8389255305
 20
6.9404734846
 30
0.0
 10
11.8574205693
 20
6.9718424226
 30
0.0
 10
11.874290765
 20
7.0041919824
 30
0.0
 10
11.8894954938
 20
7.0374441297
 30
0.0
 10
11.9029981652
 20
7.0715186575
 30
0.0
 10
11.914766309
 20
7.1063333903
 30
0.0
 10
11.9247716252
 20
7.1418043667
 30
0.0
 10
11.9329901218
 20
7.1778461087
 30
0.0
 10
11.9394020024
 20
7.2143715956
 30
0.0
 10
11.9439920491
 20
7.2512932413
 30
0.0
 10
11.9467490994
 20
7.2885207381
 30
0.0
 10
11.9473598519
 20
7.3134437217
 30
0.0
 10
11.9473598519
 20
7.325924091
 30
0.0
  0
SPLINE
  5
39E
100
AcDbEntity
  8
0
100
AcDbSpline
 62
7
  6
CONTINUOUS
 70
0
 71
3
 72
37
 73
33
 74
0
 42
0.0000001
 43
0.0000001
 44
0.0000000001
 40
0.0
 40
0.0
 40
0.0
 40
0.0
 40
0.0868165266
 40
0.1763767379
 40
0.2670947928
 40
0.3573666682
 40
0.4456235928
 40
0.5303839743
 40
0.6103061728
 40
0.6480837709
 40
0.6842353677
 40
0.7186513759
 40
0.7512365813
 40
0.7819113874
 40
0.8106109378
 40
0.8372843364
 40
0.8618955756
 40
0.8844222198
 40
0.9048556617
 40
0.9232027107
 40
0.9394866731
 40
0.9537527827
 40
0.9601531862
 40
0.966081183
 40
0.9715539525
 40
0.9765935016
 40
0.9812281614
 40
0.9854944782
 40
0.9894391648
 40
0.9931212419
 40
0.9966132638
 40
1.0
 40
1.0
 40
1.0
 40
1.0
 10
10.7856638254
 20
8.5587755778
 30
0.0
 10
10.7822455038
 20
8.5570573911
 30
0.0
 10
10.7752906694
 20
8.5535869075
 30
0.0
 10
10.764733803
 20
8.5483816199
 30
0.0
 10
10.7540237867
 20
8.5431427953
 30
0.0
 10
10.7433607654
 20
8.5379386447
 30
0.0
 10
10.7329440905
 20
8.5328283103
 30
0.0
 10
10.7229649428
 20
8.5278619489
 30
0.0
 10
10.715017687
 20
8.5238061841
 30
0.0
 10
10.7090158529
 20
8.5206523296
 30
0.0
 10
10.7048105106
 20
8.5183912526
 30
0.0
 10
10.7008312207
 20
8.5161934877
 30
0.0
 10
10.6970912796
 20
8.5140622881
 30
0.0
 10
10.6936020924
 20
8.5120007804
 30
0.0
 10
10.690373253
 20
8.5100119342
 30
0.0
 10
10.6874126722
 20
8.5080985199
 30
0.0
 10
10.6847265801
 20
8.5062633472
 30
0.0
 10
10.6823196958
 20
8.5045091657
 30
0.0
 10
10.6801954517
 20
8.5028386689
 30
0.0
 10
10.6783558171
 20
8.5012546757
 30
0.0
 10
10.6768020251
 20
8.4997599653
 30
0.0
 10
10.6757084716
 20
8.4985507442
 30
0.0
 10
10.6749855797
 20
8.4976277038
 30
0.0
 10
10.6745351466
 20
8.496984922
 30
0.0
 10
10.6741564162
 20
8.496366679
 30
0.0
 10
10.6738492751
 20
8.4957732835
 30
0.0
 10
10.6736136407
 20
8.4952050105
 30
0.0
 10
10.6734495571
 20
8.494662084
 30
0.0
 10
10.6733571934
 20
8.4941447855
 30
0.0
 10
10.6733369722
 20
8.4936534813
 30
0.0
 10
10.6733894045
 20
8.4931891207
 30
0.0
 10
10.6734737679
 20
8.4928961373
 30
0.0
 10
10.6735273921
 20
8.4927568563
 30
0.0
  0
SPLINE
  5
39F
100
AcDbEntity
  8
0
100
AcDbSpline
 62
7
  6
CONTINUOUS
 70
0
 71
3
 72
69
 73
65
 74
0
 42
0.0000001
 43
0.0000001
 44
0.0000000001
 40
0.0
 40
0.0
 40
0.0
 40
0.0
 40
0.0152772363
 40
0.0305949157
 40
0.045953787
 40
0.0613554317
 40
0.076800517
 40
0.0922896192
 40
0.1078229697
 40
0.1234004997
 40
0.1390218497
 40
0.1546863652
 40
0.1703931074
 40
0.1861408594
 40
0.2019281386
 40
0.2177532073
 40
0.2336140859
 40
0.2495085664
 40
0.2654342278
 40
0.2813884536
 40
0.2973684491
 40
0.3133712592
 40
0.3293937871
 40
0.345432814
 40
0.3614850202
 40
0.3775470053
 40
0.3936153091
 40
0.4096864321
 40
0.4418171568
 40
0.4739171301
 40
0.4899500105
 40
0.5059651026
 40
0.5219592343
 40
0.5379293628
 40
0.553872594
 40
0.5697862009
 40
0.5856676427
 40
0.6015145817
 40
0.6173248988
 40
0.633096708
 40
0.6488283706
 40
0.6645185083
 40
0.6801660142
 40
0.6957700613
 40
0.7113301105
 40
0.7268459161
 40
0.742317532
 40
0.7577453122
 40
0.7731299117
 40
0.7884722832
 40
0.803773674
 40
0.8190356201
 40
0.8342599373
 40
0.8494487103
 40
0.8646042787
 40
0.8797292229
 40
0.8948263467
 40
0.9098986587
 40
0.92494935
 40
0.9399817719
 40
0.954999411
 40
0.9700058651
 40
0.9850048154
 40
1.0
 40
1.0
 40
1.0
 40
1.0
 10
10.5310845937
 20
7.9655199357
 30
0.0
 10
10.5188564899
 20
7.9626794403
 30
0.0
 10
10.4942434986
 20
7.9575122333
 30
0.0
 10
10.4569818941
 20
7.9513235894
 30
0.0
 10
10.4193906416
 20
7.9466971207
 30
0.0
 10
10.3815345449
 20
7.9436406029
 30
0.0
 10
10.3434771031
 20
7.9421592367
 30
0.0
 10
10.3052828446
 20
7.9422554591
 30
0.0
 10
10.2670163008
 20
7.9439290513
 30
0.0
 10
10.2287421731
 20
7.9471771301
 30
0.0
 10
10.1905251614
 20
7.9519941574
 30
0.0
 10
10.1524298648
 20
7.9583719618
 30
0.0
 10
10.114520678
 20
7.9662997404
 30
0.0
 10
10.0768616688
 20
7.9757640332
 30
0.0
 10
10.0395164791
 20
7.9867487982
 30
0.0
 10
10.0025482185
 20
7.9992354365
 30
0.0
 10
9.9660193607
 20
8.0132028248
 30
0.0
 10
9.9299916402
 20
8.0286273461
 30
0.0
 10
9.8945259273
 20
8.0454828866
 30
0.0
 10
9.8596821441
 20
8.0637409298
 30
0.0
 10
9.825519164
 20
8.0833706016
 30
0.0
 10
9.792094716
 20
8.1043387222
 30
0.0
 10
9.7594652841
 20
8.1266098603
 30
0.0
 10
9.7276859977
 20
8.1501463393
 30
0.0
 10
9.6968105146
 20
8.1749084076
 30
0.0
 10
9.6668911245
 20
8.2008540732
 30
0.0
 10
9.6379779384
 20
8.2279400273
 30
0.0
 10
9.6008416127
 20
8.26550572
 30
0.0
 10
9.5571806158
 20
8.3150736517
 30
0.0
 10
9.517470578
 20
8.3678208592
 30
0.0
 10
9.4882455805
 20
8.4117025239
 30
0.0
 10
9.4676411523
 20
8.445388287
 30
0.0
 10
9.4483803529
 20
8.4798002821
 30
0.0
 10
9.4304953217
 20
8.5148809102
 30
0.0
 10
9.4140164274
 20
8.5505707569
 30
0.0
 10
9.3989715256
 20
8.5868095611
 30
0.0
 10
9.3853860537
 20
8.6235360685
 30
0.0
 10
9.3732829889
 20
8.6606882203
 30
0.0
 10
9.3626828168
 20
8.6982032358
 30
0.0
 10
9.3536034987
 20
8.7360177215
 30
0.0
 10
9.346060431
 20
8.7740677729
 30
0.0
 10
9.340066378
 20
8.8122890764
 30
0.0
 10
9.3356315033
 20
8.8506170311
 30
0.0
 10
9.3327633457
 20
8.8889868523
 30
0.0
 10
9.3314668112
 20
8.9273336795
 30
0.0
 10
9.3317441516
 20
8.9655926835
 30
0.0
 10
9.3335949198
 20
9.0036991791
 30
0.0
 10
9.3370160258
 20
9.0415887357
 30
0.0
 10
9.3420017328
 20
9.0791972827
 30
0.0
 10
9.3485436715
 20
9.1164612156
 30
0.0
 10
9.356630839
 20
9.1533175043
 30
0.0
 10
9.3662495798
 20
9.1897038104
 30
0.0
 10
9.3773836624
 20
9.2255585842
 30
0.0
 10
9.3900142976
 20
9.2608211667
 30
0.0
 10
9.4041201741
 20
9.2954318892
 30
0.0
 10
9.4196774781
 20
9.3293321796
 30
0.0
 10
9.4366599009
 20
9.3624646795
 30
0.0
 10
9.4550387357
 20
9.3947733229
 30
0.0
 10
9.4747829106
 20
9.4262034267
 30
0.0
 10
9.4958590667
 20
9.4567017999
 30
0.0
 10
9.5182315201
 20
9.4862167661
 30
0.0
 10
9.5418625854
 20
9.5146985632
 30
0.0
 10
9.5667116114
 20
9.5420983243
 30
0.0
 10
9.5840639605
 20
9.5596149503
 30
0.0
 10
9.5929265439
 20
9.5681755674
 30
0.0
  0
SPLINE
  5
3A0
100
AcDbEntity
  8
0
100
AcDbSpline
 62
7
  6
CONTINUOUS
 70
0
 71
3
 72
43
 73
39
 74
0
 42
0.0000001
 43
0.0000001
 44
0.0000000001
 40
0.0
 40
0.0
 40
0.0
 40
0.0
 40
0.0309337323
 40
0.0620093658
 40
0.0932235758
 40
0.1245698569
 40
0.1560397989
 40
0.1876227666
 40
0.219306246
 40
0.251076038
 40
0.2829165141
 40
0.3148108831
 40
0.3467414726
 40
0.3786900205
 40
0.4106379729
 40
0.4425667855
 40
0.4744582248
 40
0.5062946661
 40
0.5380593844
 40
0.5697368353
 40
0.6013129207
 40
0.6327752372
 40
0.6641133026
 40
0.6953187555
 40
0.726385526
 40
0.7573099714
 40
0.7880909745
 40
0.8187299976
 40
0.8339996738
 40
0.8492355881
 40
0.8644386481
 40
0.8796099103
 40
0.9098574134
 40
0.939994033
 40
0.9550272531
 40
0.9700379842
 40
0.9850282058
 40
1.0
 40
1.0
 40
1.0
 40
1.0
 10
9.9103020671
 20
9.1506554786
 30
0.0
 10
9.9103020671
 20
9.1373347813
 30
0.0
 10
9.9112001128
 20
9.1106238729
 30
0.0
 10
9.9152133908
 20
9.0706530527
 30
0.0
 10
9.921877465
 20
9.0308562361
 30
0.0
 10
9.9311622491
 20
8.9914144924
 30
0.0
 10
9.9430256796
 20
8.9525044097
 30
0.0
 10
9.9574142772
 20
8.9143008669
 30
0.0
 10
9.9742632066
 20
8.8769753532
 30
0.0
 10
9.9934966433
 20
8.8406954535
 30
0.0
 10
10.0150280821
 20
8.8056240308
 30
0.0
 10
10.0387607288
 20
8.7719185187
 30
0.0
 10
10.0645879435
 20
8.7397302227
 30
0.0
 10
10.0923937144
 20
8.7092036478
 30
0.0
 10
10.122053175
 20
8.6804758563
 30
0.0
 10
10.1534331599
 20
8.6536758582
 30
0.0
 10
10.1863927969
 20
8.6289240361
 30
0.0
 10
10.2207841344
 20
8.6063316111
 30
0.0
 10
10.2564527902
 20
8.5860001321
 30
0.0
 10
10.2932386459
 20
8.5680210303
 30
0.0
 10
10.3309765592
 20
8.5524752135
 30
0.0
 10
10.369497099
 20
8.5394327031
 30
0.0
 10
10.4086272858
 20
8.5289523165
 30
0.0
 10
10.448191398
 20
8.5210814057
 30
0.0
 10
10.4880116077
 20
8.5158556175
 30
0.0
 10
10.5279093031
 20
8.5132988067
 30
0.0
 10
10.5677039071
 20
8.5134225936
 30
0.0
 10
10.6006729884
 20
8.5157627047
 30
0.0
 10
10.626811031
 20
8.5189724249
 30
0.0
 10
10.6462574625
 20
8.5220413142
 30
0.0
 10
10.6655449398
 20
8.5257708047
 30
0.0
 10
10.6909924688
 20
8.5316122022
 30
0.0
 10
10.7223082923
 20
8.5405407882
 30
0.0
 10
10.7528662368
 20
8.5516213751
 30
0.0
 10
10.7767311499
 20
8.5617350192
 30
0.0
 10
10.7943115382
 20
8.5699307921
 30
0.0
 10
10.8115659189
 20
8.5787332818
 30
0.0
 10
10.8228458893
 20
8.585003382
 30
0.0
 10
10.8284241751
 20
8.5882358125
 30
0.0
  0
SPLINE
  5
3A1
100
AcDbEntity
  8
0
100
AcDbSpline
 62
7
  6
CONTINUOUS
 70
0
 71
3
 72
21
 73
17
 74
0
 42
0.0000001
 43
0.0000001
 44
0.0000000001
 40
0.0
 40
0.0
 40
0.0
 40
0.0
 40
0.061490623
 40
0.1231679639
 40
0.185021952
 40
0.2470454868
 40
0.3092274932
 40
0.3715569306
 40
0.4965567382
 40
0.621992596
 40
0.6848664114
 40
0.7478086033
 40
0.8108060688
 40
0.8738450099
 40
0.9369144649
 40
1.0
 40
1.0
 40
1.0
 40
1.0
 10
9.9111734081
 20
9.1827713292
 30
0.0
 10
9.913903041
 20
9.178598357
 30
0.0
 10
9.9196222686
 20
9.1704013707
 30
0.0
 10
9.9289263116
 20
9.1586199941
 30
0.0
 10
9.9389355513
 20
9.1473729888
 30
0.0
 10
9.9496127654
 20
9.1367005708
 30
0.0
 10
9.9609206219
 20
9.1266400237
 30
0.0
 10
9.9767965339
 20
9.1140808573
 30
0.0
 10
9.9980232799
 20
9.1000901143
 30
0.0
 10
10.020756182
 20
9.088610286
 30
0.0
 10
10.0396778404
 20
9.0810283372
 30
0.0
 10
10.0542051359
 20
9.0761629527
 30
0.0
 10
10.0690034817
 20
9.0721478644
 30
0.0
 10
10.084021873
 20
9.0690032922
 30
0.0
 10
10.0992059669
 20
9.066747558
 30
0.0
 10
10.1094036255
 20
9.0658462679
 30
0.0
 10
10.1145107175
 20
9.0655483044
 30
0.0
  0
SPLINE
  5
3A2
100
AcDbEntity
  8
0
100
AcDbSpline
 62
7
  6
CONTINUOUS
 70
0
 71
3
 72
39
 73
35
 74
0
 42
0.0000001
 43
0.0000001
 44
0.0000000001
 40
0.0
 40
0.0
 40
0.0
 40
0.0
 40
0.0318887346
 40
0.0636723445
 40
0.0953510007
 40
0.1269280624
 40
0.1584065801
 40
0.1897910366
 40
0.2210866788
 40
0.252299652
 40
0.2834369127
 40
0.3145061665
 40
0.345515799
 40
0.3764747941
 40
0.4073926469
 40
0.4382792695
 40
0.469144893
 40
0.4999999632
 40
0.5308550339
 40
0.5617206589
 40
0.5926072837
 40
0.6235251388
 40
0.6544841365
 40
0.6854937723
 40
0.7165630302
 40
0.7477002958
 40
0.7789132752
 40
0.8102089235
 40
0.8415933819
 40
0.8730719255
 40
0.9046489205
 40
0.9363277901
 40
0.9681109913
 40
1.0
 40
1.0
 40
1.0
 40
1.0
 10
9.5944502875
 20
8.9300660693
 30
0.0
 10
9.5944502875
 20
8.9408662832
 30
0.0
 10
9.5949672058
 20
8.9624347679
 30
0.0
 10
9.5973004493
 20
8.9946563383
 30
0.0
 10
9.6011852246
 20
9.0266224202
 30
0.0
 10
9.6066123805
 20
9.0582581387
 30
0.0
 10
9.6135696741
 20
9.0894910306
 30
0.0
 10
9.6220410503
 20
9.1202489437
 30
0.0
 10
9.6320071022
 20
9.1504609995
 30
0.0
 10
9.6434449015
 20
9.1800575193
 30
0.0
 10
9.6563281297
 20
9.2089702512
 30
0.0
 10
9.6706271326
 20
9.237132508
 30
0.0
 10
9.6863089855
 20
9.2644793256
 30
0.0
 10
9.7033375689
 20
9.2909476128
 30
0.0
 10
9.7216736533
 20
9.3164762964
 30
0.0
 10
9.7412749724
 20
9.3410064747
 30
0.0
 10
9.7620963214
 20
9.3644815611
 30
0.0
 10
9.7840896799
 20
9.3868474012
 30
0.0
 10
9.8072043197
 20
9.4080524026
 30
0.0
 10
9.8313869229
 20
9.4280476532
 30
0.0
 10
9.8565817063
 20
9.4467870339
 30
0.0
 10
9.8827305465
 20
9.4642273314
 30
0.0
 10
9.9097731055
 20
9.4803283577
 30
0.0
 10
9.9376469915
 20
9.4950530184
 30
0.0
 10
9.9662879011
 20
9.5083673999
 30
0.0
 10
9.9956297694
 20
9.5202408464
 30
0.0
 10
10.0256049223
 20
9.530646029
 30
0.0
 10
10.0561442353
 20
9.5395590057
 30
0.0
 10
10.0871772781
 20
9.5469593059
 30
0.0
 10
10.1186325184
 20
9.5528299476
 30
0.0
 10
10.1504373764
 20
9.5571574787
 30
0.0
 10
10.1825188077
 20
9.5599319852
 30
0.0
 10
10.2148019089
 20
9.5611471896
 30
0.0
 10
10.2363753057
 20
9.5609162315
 30
0.0
 10
10.2471691246
 20
9.5605419327
 30
0.0
  0
SPLINE
  5
3A3
100
AcDbEntity
  8
0
100
AcDbSpline
 62
7
  6
CONTINUOUS
 70
0
 71
3
 72
39
 73
35
 74
0
 42
0.0000001
 43
0.0000001
 44
0.0000000001
 40
0.0
 40
0.0
 40
0.0
 40
0.0
 40
0.0319038287
 40
0.0637048589
 40
0.0954027757
 40
0.1270010357
 40
0.1585024171
 40
0.1899111407
 40
0.2212321584
 40
0.2524712515
 40
0.283634984
 40
0.3147306284
 40
0.3457661096
 40
0.3767499311
 40
0.4076910981
 40
0.4385990306
 40
0.4694834732
 40
0.5003543996
 40
0.5312219151
 40
0.5620961592
 40
0.5929872063
 40
0.6239049664
 40
0.6548590877
 40
0.6858588629
 40
0.7169131407
 40
0.7480302446
 40
0.7792178949
 40
0.810483139
 40
0.841832288
 40
0.8732708626
 40
0.9048035513
 40
0.9364341738
 40
0.9681656538
 40
1.0
 40
1.0
 40
1.0
 40
1.0
 10
9.6658843166
 20
8.9620890584
 30
0.0
 10
9.6658843166
 20
8.9721085551
 30
0.0
 10
9.6663540365
 20
8.9921185205
 30
0.0
 10
9.668474065
 20
9.0220157071
 30
0.0
 10
9.6720040701
 20
9.0516835231
 30
0.0
 10
9.676936004
 20
9.0810552361
 30
0.0
 10
9.6832592387
 20
9.1100663694
 30
0.0
 10
9.6909597845
 20
9.138652609
 30
0.0
 10
9.7000206885
 20
9.1667507769
 30
0.0
 10
9.7104219515
 20
9.1942987184
 30
0.0
 10
9.7221406186
 20
9.2212354956
 30
0.0
 10
9.7351508261
 20
9.2475015106
 30
0.0
 10
9.7494238575
 20
9.2730386336
 30
0.0
 10
9.7649281715
 20
9.2977903536
 30
0.0
 10
9.7816294808
 20
9.321701906
 30
0.0
 10
9.7994908572
 20
9.3447203766
 30
0.0
 10
9.8184728034
 20
9.3667948233
 30
0.0
 10
9.838533346
 20
9.3878763828
 30
0.0
 10
9.859628107
 20
9.4079183987
 30
0.0
 10
9.8817103939
 20
9.426876543
 30
0.0
 10
9.9047313387
 20
9.4447088816
 30
0.0
 10
9.9286399987
 20
9.4613759723
 30
0.0
 10
9.9533834727
 20
9.476840948
 30
0.0
 10
9.9789070101
 20
9.4910696056
 30
0.0
 10
10.0051541166
 20
9.5040305214
 30
0.0
 10
10.0320667107
 20
9.5156950722
 30
0.0
 10
10.0595852479
 20
9.5260375025
 30
0.0
 10
10.0876488547
 20
9.5350349787
 30
0.0
 10
10.1161954541
 20
9.5426676351
 30
0.0
 10
10.1451619173
 20
9.5489186695
 30
0.0
 10
10.1744841223
 20
9.5537743347
 30
0.0
 10
10.2040974683
 20
9.5572239538
 30
0.0
 10
10.2339356158
 20
9.5592599759
 30
0.0
 10
10.2539032539
 20
9.5596712357
 30
0.0
 10
10.2639008852
 20
9.5596414927
 30
0.0
  0
SPLINE
  5
3A4
100
AcDbEntity
  8
0
100
AcDbSpline
 62
7
  6
CONTINUOUS
 70
0
 71
3
 72
15
 73
11
 74
0
 42
0.0000001
 43
0.0000001
 44
0.0000000001
 40
0.0
 40
0.0
 40
0.0
 40
0.0
 40
0.1037100656
 40
0.2115684556
 40
0.3245067408
 40
0.4434940136
 40
0.5695320679
 40
0.7036239812
 40
0.8467800147
 40
1.0
 40
1.0
 40
1.0
 40
1.0
 10
9.9111734081
 20
9.1827713292
 30
0.0
 10
9.9102654285
 20
9.1833838571
 30
0.0
 10
9.9084717123
 20
9.1847225763
 30
0.0
 10
9.9059246405
 20
9.1870223575
 30
0.0
 10
9.9034877417
 20
9.1896630884
 30
0.0
 10
9.9011766328
 20
9.1926607568
 30
0.0
 10
9.8990069393
 20
9.1960311698
 30
0.0
 10
9.8969969199
 20
9.1997911442
 30
0.0
 10
9.8951658889
 20
9.203956651
 30
0.0
 10
9.894116785
 20
9.206908836
 30
0.0
 10
9.8936256483
 20
9.2084506399
 30
0.0
  0
SPLINE
  5
3A5
100
AcDbEntity
  8
0
100
AcDbSpline
 62
7
  6
CONTINUOUS
 70
0
 71
3
 72
23
 73
19
 74
0
 42
0.0000001
 43
0.0000001
 44
0.0000000001
 40
0.0
 40
0.0
 40
0.0
 40
0.0
 40
0.0637772815
 40
0.1273447908
 40
0.1907019866
 40
0.2538561396
 40
0.3168131864
 40
0.379582096
 40
0.4421733877
 40
0.5045993365
 40
0.5668738645
 40
0.6290123802
 40
0.6910316524
 40
0.7529496465
 40
0.8147853538
 40
0.8765586016
 40
0.9382898535
 40
1.0
 40
1.0
 40
1.0
 40
1.0
 10
9.7240878737
 20
8.9707863693
 30
0.0
 10
9.7240878737
 20
8.980282795
 30
0.0
 10
9.7245424023
 20
8.9992476299
 30
0.0
 10
9.7265939631
 20
9.0275795357
 30
0.0
 10
9.7300097928
 20
9.0556868245
 30
0.0
 10
9.7347817783
 20
9.0835035933
 30
0.0
 10
9.7408991979
 20
9.1109661804
 30
0.0
 10
9.748347943
 20
9.1380111189
 30
0.0
 10
9.757110922
 20
9.1645760954
 30
0.0
 10
9.7671679709
 20
9.1905998486
 30
0.0
 10
9.7784959512
 20
9.2160223644
 30
0.0
 10
9.7910687988
 20
9.2407850043
 30
0.0
 10
9.8048575773
 20
9.2648306319
 30
0.0
 10
9.8198305368
 20
9.2881037842
 30
0.0
 10
9.8359531057
 20
9.310550731
 30
0.0
 10
9.8531883038
 20
9.3321198651
 30
0.0
 10
9.8714957015
 20
9.352760762
 30
0.0
 10
9.8843897561
 20
9.3658731726
 30
0.0
 10
9.8909987157
 20
9.3722569466
 30
0.0
  0
SPLINE
  5
3A6
100
AcDbEntity
  8
0
100
AcDbSpline
 62
7
  6
CONTINUOUS
 70
0
 71
3
 72
71
 73
67
 74
0
 42
0.0000001
 43
0.0000001
 44
0.0000000001
 40
0.0
 40
0.0
 40
0.0
 40
0.0
 40
0.0156373785
 40
0.031327908
 40
0.0470702843
 40
0.0628636379
 40
0.078706081
 40
0.0945954869
 40
0.110529229
 40
0.1265042947
 40
0.1425172947
 40
0.1585644997
 40
0.1746418765
 40
0.1907451247
 40
0.2068697161
 40
0.223010935
 40
0.23916392
 40
0.2553237071
 40
0.2714852732
 40
0.2876435801
 40
0.3037936179
 40
0.3199304487
 40
0.3360492498
 40
0.3521453559
 40
0.3682143008
 40
0.3842518587
 40
0.4002540819
 40
0.4162173382
 40
0.4321383455
 40
0.4480142037
 40
0.4638424245
 40
0.4796209578
 40
0.4953482155
 40
0.5110230902
 40
0.5266449705
 40
0.5422137516
 40
0.5577298414
 40
0.5731941618
 40
0.588608145
 40
0.6039737248
 40
0.6192933216
 40
0.6345698226
 40
0.6498065561
 40
0.6650072606
 40
0.6801760496
 40
0.6953173702
 40
0.7104359597
 40
0.7255367959
 40
0.7406250456
 40
0.7557060099
 40
0.7707850676
 40
0.7858676178
 40
0.800959022
 40
0.8160645473
 40
0.8311893104
 40
0.8463382237
 40
0.8615159442
 40
0.8767268262
 40
0.8919748769
 40
0.9072637173
 40
0.9225965518
 40
0.9379761174
 40
0.9534047476
 40
0.9688840681
 40
0.9844157435
 40
1.0
 40
1.0
 40
1.0
 40
1.0
 10
9.5944502875
 20
8.9300660693
 30
0.0
 10
9.5944502875
 20
8.9189849887
 30
0.0
 10
9.5949962633
 20
8.8967813898
 30
0.0
 10
9.5974412287
 20
8.8635033026
 30
0.0
 10
9.6015078456
 20
8.8302721898
 30
0.0
 10
9.6071860048
 20
8.7971693362
 30
0.0
 10
9.6144621376
 20
8.7642739893
 30
0.0
 10
9.6233185716
 20
8.7316654947
 30
0.0
 10
9.6337339692
 20
8.6994223096
 30
0.0
 10
9.6456831959
 20
8.6676220635
 30
0.0
 10
9.6591374336
 20
8.6363412966
 30
0.0
 10
9.6740642442
 20
8.605655297
 30
0.0
 10
9.6904276558
 20
8.575637919
 30
0.0
 10
9.7081882475
 20
8.5463614068
 30
0.0
 10
9.7273032439
 20
8.5178962225
 30
0.0
 10
9.7477266172
 20
8.4903108777
 30
0.0
 10
9.7694091987
 20
8.4636717717
 30
0.0
 10
9.7922987822
 20
8.4380430197
 30
0.0
 10
9.8163402602
 20
8.4134863056
 30
0.0
 10
9.8414757607
 20
8.3900607386
 30
0.0
 10
9.8676447836
 20
8.3678227105
 30
0.0
 10
9.8947843462
 20
8.3468257622
 30
0.0
 10
9.9228291322
 20
8.3271204543
 30
0.0
 10
9.9517116502
 20
8.3087542496
 30
0.0
 10
9.9813623849
 20
8.291771383
 30
0.0
 10
10.0117099703
 20
8.2762127614
 30
0.0
 10
10.0426813649
 20
8.2621158732
 30
0.0
 10
10.0742020244
 20
8.2495146967
 30
0.0
 10
10.1061960802
 20
8.2384396195
 30
0.0
 10
10.1385865191
 20
8.2289173637
 30
0.0
 10
10.1712953687
 20
8.2209709255
 30
0.0
 10
10.2042438796
 20
8.2146195028
 30
0.0
 10
10.2373527171
 20
8.2098784509
 30
0.0
 10
10.2705421537
 20
8.2067592569
 30
0.0
 10
10.3037322583
 20
8.2052695084
 30
0.0
 10
10.3368430873
 20
8.2054128747
 30
0.0
 10
10.3697948759
 20
8.2071890956
 30
0.0
 10
10.4025082281
 20
8.2105939831
 30
0.0
 10
10.43490431
 20
8.2156194165
 30
0.0
 10
10.4669050414
 20
8.2222533571
 30
0.0
 10
10.4984332832
 20
8.2304798916
 30
0.0
 10
10.5294130228
 20
8.2402792649
 30
0.0
 10
10.5597695576
 20
8.2516279263
 30
0.0
 10
10.5894296762
 20
8.2644985838
 30
0.0
 10
10.6183218348
 20
8.2788602697
 30
0.0
 10
10.6463763359
 20
8.2946784056
 30
0.0
 10
10.6735255045
 20
8.3119148776
 30
0.0
 10
10.6997038457
 20
8.3305281451
 30
0.0
 10
10.724848205
 20
8.350473338
 30
0.0
 10
10.7488979228
 20
8.3717023654
 30
0.0
 10
10.7717949822
 20
8.3941640319
 30
0.0
 10
10.7934841498
 20
8.4178041628
 30
0.0
 10
10.8139131143
 20
8.4425657319
 30
0.0
 10
10.8330326267
 20
8.4683889938
 30
0.0
 10
10.8507966038
 20
8.4952116444
 30
0.0
 10
10.8671622416
 20
8.5229689716
 30
0.0
 10
10.8820901178
 20
8.5515940137
 30
0.0
 10
10.8955442859
 20
8.5810177223
 30
0.0
 10
10.9074923592
 20
8.6111691303
 30
0.0
 10
10.9179055953
 20
8.6419755259
 30
0.0
 10
10.9267589586
 20
8.6733626097
 30
0.0
 10
10.9340312311
 20
8.7052547493
 30
0.0
 10
10.939704875
 20
8.7375749208
 30
0.0
 10
10.9437664754
 20
8.7702456757
 30
0.0
 10
10.9462060797
 20
8.8031870407
 30
0.0
 10
10.9467465244
 20
8.8252405699
 30
0.0
 10
10.9467465244
 20
8.8362840067
 30
0.0
  0
SPLINE
  5
3A7
100
AcDbEntity
  8
0
100
AcDbSpline
 62
7
  6
CONTINUOUS
 70
0
 71
3
 72
71
 73
67
 74
0
 42
0.0000001
 43
0.0000001
 44
0.0000000001
 40
0.0
 40
0.0
 40
0.0
 40
0.0
 40
0.0156359889
 40
0.0313242534
 40
0.0470633496
 40
0.062852592
 40
0.0786901472
 40
0.0945740094
 40
0.1105016916
 40
0.1264703337
 40
0.1424767207
 40
0.1585173098
 40
0.1745882653
 40
0.1906854918
 40
0.20680467
 40
0.2229412951
 40
0.2390907158
 40
0.2552481737
 40
0.2714088424
 40
0.2875678686
 40
0.303720412
 40
0.3198616874
 40
0.3359870046
 40
0.3520918077
 40
0.368171714
 40
0.3842225513
 40
0.4002403951
 40
0.4162216047
 40
0.4321628552
 40
0.4480611691
 40
0.4639139441
 40
0.4797189791
 40
0.4954744987
 40
0.5111791728
 40
0.5268321324
 40
0.5424329819
 40
0.5579818068
 40
0.5734791785
 40
0.5889261545
 40
0.6043242727
 40
0.619675541
 40
0.6349824224
 40
0.650247814
 40
0.6654750232
 40
0.6806677381
 40
0.6958299934
 40
0.7109661316
 40
0.7260807602
 40
0.7411787061
 40
0.7562649669
 40
0.7713446608
 40
0.7864229738
 40
0.8015051061
 40
0.8165962187
 40
0.8317013798
 40
0.846825513
 40
0.861973348
 40
0.8771493733
 40
0.8923577923
 40
0.9076024812
 40
0.9228869538
 40
0.9382143314
 40
0.9535872943
 40
0.9690081471
 40
0.9844785467
 40
1.0
 40
1.0
 40
1.0
 40
1.0
 10
9.6658843166
 20
8.9620890584
 30
0.0
 10
9.6658843166
 20
8.9517880042
 30
0.0
 10
9.6663824361
 20
8.9311480764
 30
0.0
 10
9.6686132629
 20
8.9002117024
 30
0.0
 10
9.67232401
 20
8.8693154455
 30
0.0
 10
9.6775057201
 20
8.8385321769
 30
0.0
 10
9.6841465134
 20
8.8079328323
 30
0.0
 10
9.6922308458
 20
8.7775885375
 30
0.0
 10
9.7017399609
 20
8.7475696242
 30
0.0
 10
9.712651732
 20
8.7179457114
 30
0.0
 10
9.7249408049
 20
8.6887854862
 30
0.0
 10
9.7385786428
 20
8.6601565611
 30
0.0
 10
9.7535335905
 20
8.6321253162
 30
0.0
 10
9.7697709529
 20
8.6047567506
 30
0.0
 10
9.7872530571
 20
8.5781143238
 30
0.0
 10
9.8059393313
 20
8.5522597995
 30
0.0
 10
9.8257864271
 20
8.5272531197
 30
0.0
 10
9.8467483133
 20
8.503152265
 30
0.0
 10
9.8687763816
 20
8.4800131213
 30
0.0
 10
9.8918195621
 20
8.4578893567
 30
0.0
 10
9.9158244204
 20
8.4368322768
 30
0.0
 10
9.9407352872
 20
8.4168907066
 30
0.0
 10
9.9664944029
 20
8.3981108955
 30
0.0
 10
9.9930420456
 20
8.3805364079
 30
0.0
 10
10.0203166683
 20
8.3642080233
 30
0.0
 10
10.0482550417
 20
8.3491636473
 30
0.0
 10
10.0767923839
 20
8.3354381921
 30
0.0
 10
10.105862522
 20
8.3230635119
 30
0.0
 10
10.1353980507
 20
8.3120683415
 30
0.0
 10
10.1653304838
 20
8.3024782276
 30
0.0
 10
10.195590411
 20
8.2943154701
 30
0.0
 10
10.2261076576
 20
8.2875990724
 30
0.0
 10
10.2568114384
 20
8.2823446593
 30
0.0
 10
10.2876305321
 20
8.2785644711
 30
0.0
 10
10.318493444
 20
8.2762673395
 30
0.0
 10
10.3493285689
 20
8.2754586641
 30
0.0
 10
10.3800643556
 20
8.2761404012
 30
0.0
 10
10.4106294708
 20
8.2783110529
 30
0.0
 10
10.4409529687
 20
8.2819656357
 30
0.0
 10
10.470964456
 20
8.2870957293
 30
0.0
 10
10.5005942524
 20
8.2936894923
 30
0.0
 10
10.5297735515
 20
8.3017316873
 30
0.0
 10
10.5584345787
 20
8.3112037174
 30
0.0
 10
10.586510753
 20
8.3220836538
 30
0.0
 10
10.6139368538
 20
8.3343462661
 30
0.0
 10
10.6406491617
 20
8.3479631155
 30
0.0
 10
10.6665856079
 20
8.3629026137
 30
0.0
 10
10.6916859194
 20
8.3791300952
 30
0.0
 10
10.7158917563
 20
8.3966079009
 30
0.0
 10
10.7391468638
 20
8.4152954442
 30
0.0
 10
10.761397211
 20
8.4351493051
 30
0.0
 10
10.7825911003
 20
8.456123356
 30
0.0
 10
10.8026792907
 20
8.4781688643
 30
0.0
 10
10.8216151133
 20
8.501234606
 30
0.0
 10
10.8393545742
 20
8.5252669888
 30
0.0
 10
10.8558564858
 20
8.5502101577
 30
0.0
 10
10.8710825543
 20
8.5760061377
 30
0.0
 10
10.8849974521
 20
8.6025949827
 30
0.0
 10
10.8975689016
 20
8.6299149111
 30
0.0
 10
10.9087677491
 20
8.6579024529
 30
0.0
 10
10.9185680296
 20
8.6864925912
 30
0.0
 10
10.9269470458
 20
8.7156189231
 30
0.0
 10
10.9338854506
 20
8.7452137521
 30
0.0
 10
10.9393671491
 20
8.7752085584
 30
0.0
 10
10.9433795319
 20
8.8055328177
 30
0.0
 10
10.9450660386
 20
8.8258901917
 30
0.0
 10
10.9456629848
 20
8.8360983503
 30
0.0
  0
LINE
  5
3A8
100
AcDbEntity
  8
0
100
AcDbLine
 62
7
  6
CONTINUOUS
 10
10.9456629848
 20
8.8360983503
 11
10.9456756276
 21
8.8363151902
  0
SPLINE
  5
3A9
100
AcDbEntity
  8
0
100
AcDbSpline
 62
7
  6
CONTINUOUS
 70
0
 71
3
 72
39
 73
35
 74
0
 42
0.0000001
 43
0.0000001
 44
0.0000000001
 40
0.0
 40
0.0
 40
0.0
 40
0.0
 40
0.0310753517
 40
0.0623079183
 40
0.0936931253
 40
0.1252222895
 40
0.1568840437
 40
0.1886642049
 40
0.2205461647
 40
0.2525112489
 40
0.2845391083
 40
0.3166081364
 40
0.3486959075
 40
0.3807796232
 40
0.4128365658
 40
0.4448445498
 40
0.4767823668
 40
0.5086302146
 40
0.5403701083
 40
0.5719862651
 40
0.6034654507
 40
0.6347972859
 40
0.6659745046
 40
0.6969931564
 40
0.7278527396
 40
0.7585562643
 40
0.7891102406
 40
0.819524585
 40
0.8498124373
 40
0.8799898963
 40
0.9100756752
 40
0.9400906814
 40
0.9700575289
 40
1.0
 40
1.0
 40
1.0
 40
1.0
 10
9.7240878737
 20
8.9707863693
 30
0.0
 10
9.7240878737
 20
8.9560526799
 30
0.0
 10
9.7251869769
 20
8.9264994234
 30
0.0
 10
9.7300942187
 20
8.8823110206
 30
0.0
 10
9.7382365317
 20
8.8383820908
 30
0.0
 10
9.7495689184
 20
8.794956969
 30
0.0
 10
9.7640286836
 20
8.7522733082
 30
0.0
 10
9.781536055
 20
8.7105655938
 30
0.0
 10
9.8019946004
 20
8.6700626418
 30
0.0
 10
9.8252917889
 20
8.6309867226
 30
0.0
 10
9.8512995928
 20
8.5935522626
 30
0.0
 10
9.8798750989
 20
8.5579646466
 30
0.0
 10
9.9108613881
 20
8.5244191539
 30
0.0
 10
9.944088381
 20
8.4930999077
 30
0.0
 10
9.9793737504
 20
8.4641788755
 30
0.0
 10
10.0165238477
 20
8.4378148506
 30
0.0
 10
10.0553348326
 20
8.4141526719
 30
0.0
 10
10.0955937686
 20
8.3933224383
 30
0.0
 10
10.1370797642
 20
8.3754387943
 30
0.0
 10
10.179565131
 20
8.3606002041
 30
0.0
 10
10.2228166704
 20
8.3488885126
 30
0.0
 10
10.2665969224
 20
8.3403684911
 30
0.0
 10
10.3106654406
 20
8.3350874612
 30
0.0
 10
10.3547800873
 20
8.3330749167
 30
0.0
 10
10.3986983705
 20
8.3343424591
 30
0.0
 10
10.4421787522
 20
8.3388837056
 30
0.0
 10
10.4849819604
 20
8.3466742781
 30
0.0
 10
10.5268723343
 20
8.3576718116
 30
0.0
 10
10.5676190944
 20
8.3718162551
 30
0.0
 10
10.6069976967
 20
8.38903024
 30
0.0
 10
10.6447907964
 20
8.4092191721
 30
0.0
 10
10.680790632
 20
8.4322727085
 30
0.0
 10
10.7147960556
 20
8.4580615254
 30
0.0
 10
10.7360208609
 20
8.4769915457
 30
0.0
 10
10.7462317942
 20
8.4868545641
 30
0.0
  0
SPLINE
  5
3AA
100
AcDbEntity
  8
0
100
AcDbSpline
 62
7
  6
CONTINUOUS
 70
0
 71
3
 72
15
 73
11
 74
0
 42
0.0000001
 43
0.0000001
 44
0.0000000001
 40
0.0
 40
0.0
 40
0.0
 40
0.0
 40
0.1225583948
 40
0.2458943301
 40
0.3700681846
 40
0.4951165739
 40
0.621001193
 40
0.7475127207
 40
0.8741372576
 40
1.0
 40
1.0
 40
1.0
 40
1.0
 10
10.5112240202
 20
9.1606185334
 30
0.0
 10
10.5133413948
 20
9.1597814736
 30
0.0
 10
10.5176033901
 20
9.1581368174
 30
0.0
 10
10.5240517782
 20
9.1557524056
 30
0.0
 10
10.5305698981
 20
9.1534246381
 30
0.0
 10
10.5371494244
 20
9.1511288225
 30
0.0
 10
10.5437750477
 20
9.1488334433
 30
0.0
 10
10.5504190477
 20
9.1465016236
 30
0.0
 10
10.5570368368
 20
9.1440971622
 30
0.0
 10
10.5614178447
 20
9.1424204253
 30
0.0
 10
10.5635930935
 20
9.1415627901
 30
0.0
  0
SPLINE
  5
3AB
100
AcDbEntity
  8
0
100
AcDbSpline
 62
7
  6
CONTINUOUS
 70
0
 71
3
 72
37
 73
33
 74
0
 42
0.0000001
 43
0.0000001
 44
0.0000000001
 40
0.0
 40
0.0
 40
0.0
 40
0.0
 40
0.0063161244
 40
0.0126711457
 40
0.0191032048
 40
0.0256489923
 40
0.0392092523
 40
0.0536075707
 40
0.0690448396
 40
0.0856783189
 40
0.1036268182
 40
0.1229770616
 40
0.1437901856
 40
0.1661064488
 40
0.1899495672
 40
0.2153299516
 40
0.2422467168
 40
0.2706900061
 40
0.3006420941
 40
0.3320784573
 40
0.3649689672
 40
0.3992781128
 40
0.4349658997
 40
0.4719882735
 40
0.5102972344
 40
0.5498415765
 40
0.5905668526
 40
0.6324157309
 40
0.7192402861
 40
0.8098104776
 40
0.9035852492
 40
1.0
 40
1.0
 40
1.0
 40
1.0
 10
12.5933654309
 20
6.9247655707
 30
0.0
 10
12.5940254512
 20
6.9247198034
 30
0.0
 10
12.5953464392
 20
6.9245739528
 30
0.0
 10
12.5973131079
 20
6.9241938438
 30
0.0
 10
12.5992666925
 20
6.9236523136
 30
0.0
 10
12.6018825565
 20
6.9227048323
 30
0.0
 10
12.6051329937
 20
6.9210941239
 30
0.0
 10
12.6089106004
 20
6.9185454315
 30
0.0
 10
12.6126092067
 20
6.9153662629
 30
0.0
 10
12.6162247175
 20
6.9115638173
 30
0.0
 10
12.6197538377
 20
6.9071447745
 30
0.0
 10
12.623192545
 20
6.9021161966
 30
0.0
 10
12.6265363211
 20
6.8964857545
 30
0.0
 10
12.6297804524
 20
6.8902621398
 30
0.0
 10
12.6329200539
 20
6.8834550409
 30
0.0
 10
12.6359501514
 20
6.8760751822
 30
0.0
 10
12.6388659492
 20
6.8681343608
 30
0.0
 10
12.6416626544
 20
6.8596453457
 30
0.0
 10
12.6443356683
 20
6.8506218916
 30
0.0
 10
12.6468806104
 20
6.8410786919
 30
0.0
 10
12.6492932022
 20
6.8310313269
 30
0.0
 10
12.6515694729
 20
6.8204962559
 30
0.0
 10
12.6537056288
 20
6.8094907621
 30
0.0
 10
12.6556980795
 20
6.7980329247
 30
0.0
 10
12.6575435544
 20
6.7861415885
 30
0.0
 10
12.6592389324
 20
6.7738363302
 30
0.0
 10
12.6607814322
 20
6.7611373945
 30
0.0
 10
12.6626536993
 20
6.7434915997
 30
0.0
 10
12.6645786533
 20
6.7206037447
 30
0.0
 10
12.6662185344
 20
6.6922435943
 30
0.0
 10
12.6672042562
 20
6.6628483141
 30
0.0
 10
12.6674181942
 20
6.6429254554
 30
0.0
 10
12.6674181942
 20
6.6328261455
 30
0.0
  0
SPLINE
  5
3AC
100
AcDbEntity
  8
0
100
AcDbSpline
 62
7
  6
CONTINUOUS
 70
0
 71
3
 72
39
 73
35
 74
0
 42
0.0000001
 43
0.0000001
 44
0.0000000001
 40
0.0
 40
0.0
 40
0.0
 40
0.0
 40
0.0199614341
 40
0.0396292314
 40
0.05894863
 40
0.0779023187
 40
0.0965010539
 40
0.1147666058
 40
0.1327310068
 40
0.150426026
 40
0.1851201915
 40
0.2190382064
 40
0.2523150725
 40
0.2850458789
 40
0.3172990432
 40
0.349125685
 40
0.3805658472
 40
0.411652865
 40
0.472863433
 40
0.5329776006
 40
0.5921905653
 40
0.6507051482
 40
0.6797775802
 40
0.7087573479
 40
0.7376734709
 40
0.7665554595
 40
0.7954334003
 40
0.8243376748
 40
0.8532987053
 40
0.8823469009
 40
0.9115121497
 40
0.9408239241
 40
0.9703106857
 40
1.0
 40
1.0
 40
1.0
 40
1.0
 10
10.5635930935
 20
9.1415627901
 30
0.0
 10
10.5651614084
 20
9.1409444507
 30
0.0
 10
10.5682661583
 20
9.1396943919
 30
0.0
 10
10.5728584217
 20
9.1377716433
 30
0.0
 10
10.5773499949
 20
9.135829743
 30
0.0
 10
10.5817429496
 20
9.1338877882
 30
0.0
 10
10.5860461227
 20
9.1319630362
 30
0.0
 10
10.590272114
 20
9.1300703674
 30
0.0
 10
10.5944337391
 20
9.1282206929
 30
0.0
 10
10.5998775099
 20
9.1258399009
 30
0.0
 10
10.6065925873
 20
9.1230036487
 30
0.0
 10
10.6146011475
 20
9.1198531366
 30
0.0
 10
10.6225455026
 20
9.117001865
 30
0.0
 10
10.6304489029
 20
9.1144661499
 30
0.0
 10
10.6383231687
 20
9.1122581014
 30
0.0
 10
10.6461724317
 20
9.1103872596
 30
0.0
 10
10.6539960245
 20
9.1088613247
 30
0.0
 10
10.6643319386
 20
9.1073033983
 30
0.0
 10
10.6771785264
 20
9.1062328109
 30
0.0
 10
10.6924480593
 20
9.1064035797
 30
0.0
 10
10.7074014529
 20
9.1080535987
 30
0.0
 10
10.7195443771
 20
9.1106735126
 30
0.0
 10
10.7289760537
 20
9.1135077909
 30
0.0
 10
10.7358906411
 20
9.1159954022
 30
0.0
 10
10.7426458978
 20
9.1188464071
 30
0.0
 10
10.7492283353
 20
9.1220571099
 30
0.0
 10
10.7556242085
 20
9.1256230089
 30
0.0
 10
10.7618199139
 20
9.129538912
 30
0.0
 10
10.7678021408
 20
9.1337986333
 30
0.0
 10
10.7735576129
 20
9.1383954946
 30
0.0
 10
10.7790735908
 20
9.1433217016
 30
0.0
 10
10.7843374321
 20
9.1485691137
 30
0.0
 10
10.7893369564
 20
9.1541282764
 30
0.0
 10
10.7924746173
 20
9.1580218403
 30
0.0
 10
10.7939952316
 20
9.1600154794
 30
0.0
  0
SPLINE
  5
3AD
100
AcDbEntity
  8
0
100
AcDbSpline
 62
7
  6
CONTINUOUS
 70
0
 71
3
 72
39
 73
35
 74
0
 42
0.0000001
 43
0.0000001
 44
0.0000000001
 40
0.0
 40
0.0
 40
0.0
 40
0.0
 40
0.030981512
 40
0.0618805642
 40
0.0927060357
 40
0.1234676649
 40
0.1541759422
 40
0.1848419916
 40
0.2154774404
 40
0.2460942818
 40
0.2767047315
 40
0.3073210809
 40
0.3379555501
 40
0.3686201429
 40
0.3993265039
 40
0.4300857807
 40
0.4609084933
 40
0.4918044132
 40
0.5227824539
 40
0.5538505763
 40
0.5850157048
 40
0.6162836576
 40
0.6476590902
 40
0.6791454542
 40
0.7107449725
 40
0.7424586305
 40
0.7742861778
 40
0.8062261438
 40
0.8382758647
 40
0.8704315224
 40
0.9026881983
 40
0.9350399359
 40
0.9674798092
 40
1.0
 40
1.0
 40
1.0
 40
1.0
 10
10.9084910934
 20
8.9633145757
 30
0.0
 10
10.9062130252
 20
8.9567152193
 30
0.0
 10
10.9013048529
 20
8.9436544978
 30
0.0
 10
10.8928967781
 20
8.9245197101
 30
0.0
 10
10.8834749844
 20
8.9059179247
 30
0.0
 10
10.8730651699
 20
8.8879002348
 30
0.0
 10
10.8616953783
 20
8.8705151962
 30
0.0
 10
10.8493963692
 20
8.8538098995
 30
0.0
 10
10.8362013903
 20
8.8378295328
 30
0.0
 10
10.8221461245
 20
8.8226173427
 30
0.0
 10
10.8072685849
 20
8.8082144932
 30
0.0
 10
10.7916090106
 20
8.7946599638
 30
0.0
 10
10.7752097797
 20
8.7819904141
 30
0.0
 10
10.7581152765
 20
8.7702400951
 30
0.0
 10
10.7403717609
 20
8.759440768
 30
0.0
 10
10.7220272441
 20
8.7496216164
 30
0.0
 10
10.7031313579
 20
8.7408091695
 30
0.0
 10
10.6837352212
 20
8.7330272301
 30
0.0
 10
10.6638913111
 20
8.7262967776
 30
0.0
 10
10.6436533026
 20
8.7206359461
 30
0.0
 10
10.6230759236
 20
8.7160599772
 30
0.0
 10
10.6022148079
 20
8.7125811802
 30
0.0
 10
10.5811263452
 20
8.710208905
 30
0.0
 10
10.5598675325
 20
8.7089495007
 30
0.0
 10
10.5384958169
 20
8.7088062868
 30
0.0
 10
10.5170689372
 20
8.709779579
 30
0.0
 10
10.4956447704
 20
8.7118666836
 30
0.0
 10
10.4742811763
 20
8.7150619076
 30
0.0
 10
10.4530358507
 20
8.7193565771
 30
0.0
 10
10.431966145
 20
8.7247390389
 30
0.0
 10
10.4111289824
 20
8.7311946729
 30
0.0
 10
10.3905804437
 20
8.7387060838
 30
0.0
 10
10.3703766131
 20
8.7472526342
 30
0.0
 10
10.3571871444
 20
8.7536185131
 30
0.0
 10
10.3506677556
 20
8.7569651965
 30
0.0
  0
SPLINE
  5
3AE
100
AcDbEntity
  8
0
100
AcDbSpline
 62
7
  6
CONTINUOUS
 70
0
 71
3
 72
37
 73
33
 74
0
 42
0.0000001
 43
0.0000001
 44
0.0000000001
 40
0.0
 40
0.0
 40
0.0
 40
0.0
 40
0.0063161244
 40
0.0126711457
 40
0.0191032048
 40
0.0256489923
 40
0.0392092523
 40
0.0536075707
 40
0.0690448396
 40
0.0856783189
 40
0.1036268182
 40
0.1229770616
 40
0.1437901856
 40
0.1661064488
 40
0.1899495672
 40
0.2153299516
 40
0.2422467168
 40
0.2706900061
 40
0.3006420941
 40
0.3320784573
 40
0.3649689672
 40
0.3992781128
 40
0.4349658997
 40
0.4719882735
 40
0.5102972344
 40
0.5498415765
 40
0.5905668526
 40
0.6324157309
 40
0.7192402861
 40
0.8098104776
 40
0.9035852492
 40
1.0
 40
1.0
 40
1.0
 40
1.0
 10
12.5933654309
 20
9.0980988086
 30
0.0
 10
12.5940254512
 20
9.0980530413
 30
0.0
 10
12.5953464392
 20
9.0979071907
 30
0.0
 10
12.5973131079
 20
9.0975270818
 30
0.0
 10
12.5992666925
 20
9.0969855516
 30
0.0
 10
12.6018825565
 20
9.0960380702
 30
0.0
 10
12.6051329937
 20
9.0944273619
 30
0.0
 10
12.6089106004
 20
9.0918786695
 30
0.0
 10
12.6126092067
 20
9.0886995009
 30
0.0
 10
12.6162247175
 20
9.0848970552
 30
0.0
 10
12.6197538377
 20
9.0804780124
 30
0.0
 10
12.623192545
 20
9.0754494345
 30
0.0
 10
12.6265363211
 20
9.0698189924
 30
0.0
 10
12.6297804524
 20
9.0635953777
 30
0.0
 10
12.6329200539
 20
9.0567882789
 30
0.0
 10
12.6359501514
 20
9.0494084202
 30
0.0
 10
12.6388659492
 20
9.0414675987
 30
0.0
 10
12.6416626544
 20
9.0329785836
 30
0.0
 10
12.6443356683
 20
9.0239551295
 30
0.0
 10
12.6468806104
 20
9.0144119299
 30
0.0
 10
12.6492932022
 20
9.0043645648
 30
0.0
 10
12.6515694729
 20
8.9938294938
 30
0.0
 10
12.6537056288
 20
8.9828240001
 30
0.0
 10
12.6556980795
 20
8.9713661626
 30
0.0
 10
12.6575435544
 20
8.9594748265
 30
0.0
 10
12.6592389324
 20
8.9471695681
 30
0.0
 10
12.6607814322
 20
8.9344706324
 30
0.0
 10
12.6626536993
 20
8.9168248376
 30
0.0
 10
12.6645786533
 20
8.8939369826
 30
0.0
 10
12.6662185344
 20
8.8655768322
 30
0.0
 10
12.6672042562
 20
8.836181552
 30
0.0
 10
12.6674181942
 20
8.8162586933
 30
0.0
 10
12.6674181942
 20
8.8061593834
 30
0.0
  0
SPLINE
  5
3AF
100
AcDbEntity
  8
0
100
AcDbSpline
 62
7
  6
CONTINUOUS
 70
0
 71
3
 72
15
 73
11
 74
0
 42
0.0000001
 43
0.0000001
 44
0.0000000001
 40
0.0
 40
0.0
 40
0.0
 40
0.0
 40
0.1234607479
 40
0.2473696578
 40
0.3717255684
 40
0.496523878
 40
0.6217619557
 40
0.7474316337
 40
0.8735197273
 40
1.0
 40
1.0
 40
1.0
 40
1.0
 10
10.1145107175
 20
9.0655483044
 30
0.0
 10
10.1212432501
 20
9.0658709201
 30
0.0
 10
10.1347118509
 20
9.0670999077
 30
0.0
 10
10.1547144299
 20
9.0706612346
 30
0.0
 10
10.1744190744
 20
9.075907371
 30
0.0
 10
10.1936908869
 20
9.0827854917
 30
0.0
 10
10.2124083315
 20
9.0912277796
 30
0.0
 10
10.2304624142
 20
9.10115399
 30
0.0
 10
10.2477565233
 20
9.112472146
 30
0.0
 10
10.2587117166
 20
9.1208695134
 30
0.0
 10
10.2640373851
 20
9.1252647102
 30
0.0
  0
SPLINE
  5
3B0
100
AcDbEntity
  8
0
100
AcDbSpline
 62
7
  6
CONTINUOUS
 70
0
 71
3
 72
24
 73
20
 74
0
 42
0.0000001
 43
0.0000001
 44
0.0000000001
 40
0.0
 40
0.0
 40
0.0
 40
0.0
 40
0.0211581852
 40
0.0429797592
 40
0.088633444
 40
0.1369886429
 40
0.1880354452
 40
0.2417443771
 40
0.2980876852
 40
0.3570308186
 40
0.4185451687
 40
0.482600255
 40
0.5491706905
 40
0.6182295654
 40
0.68975308
 40
0.7637161649
 40
0.8400971297
 40
0.9188692499
 40
1.0
 40
1.0
 40
1.0
 40
1.0
 10
10.9921133705
 20
7.8606339588
 30
0.0
 10
10.993150549
 20
7.8612178985
 30
0.0
 10
10.9952262885
 20
7.8624601191
 30
0.0
 10
10.9993811236
 20
7.8652192303
 30
0.0
 10
11.0045709613
 20
7.8691716837
 30
0.0
 10
11.0107035459
 20
7.8745629311
 30
0.0
 10
11.0168264243
 20
7.8806271972
 30
0.0
 10
11.0229363784
 20
7.8873250015
 30
0.0
 10
11.029031443
 20
7.894624423
 30
0.0
 10
11.0351124176
 20
7.9024975571
 30
0.0
 10
11.0411809007
 20
7.9109207006
 30
0.0
 10
11.0472405397
 20
7.9198729382
 30
0.0
 10
11.053295836
 20
7.929335795
 30
0.0
 10
11.059352755
 20
7.93929258
 30
0.0
 10
11.0654182133
 20
7.9497279201
 30
0.0
 10
11.0715001798
 20
7.960627702
 30
0.0
 10
11.0776077293
 20
7.9719783022
 30
0.0
 10
11.0837503093
 20
7.9837664783
 30
0.0
 10
11.0878164477
 20
7.991790641
 30
0.0
 10
11.0898601649
 20
7.9958715378
 30
0.0
  0
SPLINE
  5
3B1
100
AcDbEntity
  8
0
100
AcDbSpline
 62
7
  6
CONTINUOUS
 70
0
 71
3
 72
14
 73
10
 74
0
 42
0.0000001
 43
0.0000001
 44
0.0000000001
 40
0.0
 40
0.0
 40
0.0
 40
0.0
 40
0.1187482443
 40
0.2384408205
 40
0.359516063
 40
0.482403207
 40
0.6075204746
 40
0.735261019
 40
1.0
 40
1.0
 40
1.0
 40
1.0
 10
11.0882541839
 20
7.7148142283
 30
0.0
 10
11.0901737789
 20
7.7152776131
 30
0.0
 10
11.0940562228
 20
7.7160960312
 30
0.0
 10
11.0999699856
 20
7.7169942827
 30
0.0
 10
11.1059930455
 20
7.7175697163
 30
0.0
 10
11.1121281417
 20
7.7178252399
 30
0.0
 10
11.1183790938
 20
7.7177638615
 30
0.0
 10
11.1269741388
 20
7.7172576
 30
0.0
 10
11.1334574922
 20
7.7164153065
 30
0.0
 10
11.1377973699
 20
7.715675413
 30
0.0
  0
SPLINE
  5
3B2
100
AcDbEntity
  8
0
100
AcDbSpline
 62
7
  6
CONTINUOUS
 70
0
 71
3
 72
39
 73
35
 74
0
 42
0.0000001
 43
0.0000001
 44
0.0000000001
 40
0.0
 40
0.0
 40
0.0
 40
0.0
 40
0.0299424741
 40
0.0599093236
 40
0.0899243299
 40
0.1200101071
 40
0.1501875628
 40
0.1804754121
 40
0.2108897558
 40
0.2414437341
 40
0.2721472619
 40
0.3030068476
 40
0.3340255003
 40
0.3652027176
 40
0.3965345493
 40
0.4280137317
 40
0.459629888
 40
0.4913697842
 40
0.5232176352
 40
0.5551554541
 40
0.5871634377
 40
0.6192203778
 40
0.6513040905
 40
0.68339186
 40
0.715460889
 40
0.7474887514
 40
0.779453839
 40
0.8113357971
 40
0.8431159663
 40
0.8747776774
 40
0.9063069717
 40
0.937691796
 40
0.9689252179
 40
1.0
 40
1.0
 40
1.0
 40
1.0
 10
9.8346079384
 20
7.3211385877
 30
0.0
 10
9.8325342255
 20
7.3191355435
 30
0.0
 10
9.8282237546
 20
7.3152910938
 30
0.0
 10
9.8213176918
 20
7.310053729
 30
0.0
 10
9.8140065929
 20
7.3053718633
 30
0.0
 10
9.8063313057
 20
7.301271763
 30
0.0
 10
9.7983340295
 20
7.2977758248
 30
0.0
 10
9.7900588991
 20
7.2949032664
 30
0.0
 10
9.7815515138
 20
7.2926698063
 30
0.0
 10
9.7728587424
 20
7.2910876414
 30
0.0
 10
9.7640284453
 20
7.2901653727
 30
0.0
 10
9.755109216
 20
7.2899079554
 30
0.0
 10
9.7461501088
 20
7.2903166848
 30
0.0
 10
9.737200371
 20
7.2913891998
 30
0.0
 10
9.7283091751
 20
7.2931195002
 30
0.0
 10
9.7195253522
 20
7.2954979839
 30
0.0
 10
9.7108971287
 20
7.2985115027
 30
0.0
 10
9.7024718651
 20
7.3021434359
 30
0.0
 10
9.6942958013
 20
7.3063737837
 30
0.0
 10
9.6864138
 20
7.3111792663
 30
0.0
 10
9.678869106
 20
7.3165334608
 30
0.0
 10
9.671703114
 20
7.3224069484
 30
0.0
 10
9.664955144
 20
7.3287674733
 30
0.0
 10
9.658662229
 20
7.3355801184
 30
0.0
 10
9.6528589139
 20
7.3428074947
 30
0.0
 10
9.6475770681
 20
7.3504099436
 30
0.0
 10
9.6428457144
 20
7.358345752
 30
0.0
 10
9.6386908531
 20
7.3665713735
 30
0.0
 10
9.6351353493
 20
7.375041666
 30
0.0
 10
9.6321987489
 20
7.3837101652
 30
0.0
 10
9.6298973215
 20
7.3925292168
 30
0.0
 10
9.6282436546
 20
7.401450654
 30
0.0
 10
9.6272471169
 20
7.4104247383
 30
0.0
 10
9.6270238768
 20
7.4164266432
 30
0.0
 10
9.6270238768
 20
7.4194188078
 30
0.0
  0
SPLINE
  5
3B3
100
AcDbEntity
  8
0
100
AcDbSpline
 62
7
  6
CONTINUOUS
 70
0
 71
3
 72
22
 73
18
 74
0
 42
0.0000001
 43
0.0000001
 44
0.0000000001
 40
0.0
 40
0.0
 40
0.0
 40
0.0
 40
0.0440744732
 40
0.0908223883
 40
0.140282789
 40
0.1924647016
 40
0.2473421765
 40
0.3048633286
 40
0.3649532754
 40
0.4275170296
 40
0.4924417464
 40
0.5595973979
 40
0.6288376457
 40
0.6999998624
 40
0.7729046297
 40
0.8473547915
 40
1.0
 40
1.0
 40
1.0
 40
1.0
 10
10.2714410552
 20
9.2033614539
 30
0.0
 10
10.2716546691
 20
9.2057109691
 30
0.0
 10
10.2722512096
 20
9.2105390227
 30
0.0
 10
10.2735616746
 20
9.217935418
 30
0.0
 10
10.2752846805
 20
9.2256914005
 30
0.0
 10
10.2773872086
 20
9.2338028105
 30
0.0
 10
10.2798332234
 20
9.2422669486
 30
0.0
 10
10.2825835462
 20
9.2510812347
 30
0.0
 10
10.2855965691
 20
9.2602431066
 30
0.0
 10
10.2888284635
 20
9.2697494818
 30
0.0
 10
10.2922333814
 20
9.2795962729
 30
0.0
 10
10.295763665
 20
9.2897778356
 30
0.0
 10
10.2993701023
 20
9.3002863697
 30
0.0
 10
10.3030020711
 20
9.3111112832
 30
0.0
 10
10.3066077589
 20
9.3222387656
 30
0.0
 10
10.3113492072
 20
9.3375813237
 30
0.0
 10
10.3146436741
 20
9.3492866121
 30
0.0
 10
10.3166803336
 20
9.3571994603
 30
0.0
  0
SPLINE
  5
3B4
100
AcDbEntity
  8
0
100
AcDbSpline
 62
7
  6
CONTINUOUS
 70
0
 71
3
 72
75
 73
71
 74
0
 42
0.0000001
 43
0.0000001
 44
0.0000000001
 40
0.0
 40
0.0
 40
0.0
 40
0.0
 40
0.0150795967
 40
0.0226217333
 40
0.0301658885
 40
0.045261605
 40
0.0603732691
 40
0.0679373137
 40
0.0755072218
 40
0.0906657101
 40
0.1058545795
 40
0.1210780663
 40
0.1363400459
 40
0.1516439951
 40
0.1669929597
 40
0.1823895275
 40
0.1978358057
 40
0.2133334053
 40
0.2288834292
 40
0.2444864672
 40
0.2601425949
 40
0.2758513785
 40
0.2916118841
 40
0.3074226911
 40
0.3232819102
 40
0.3391872053
 40
0.3551358186
 40
0.3711245992
 40
0.3871500344
 40
0.4032082837
 40
0.4192952151
 40
0.4354064429
 40
0.4515373679
 40
0.4676832181
 40
0.4838390914
 40
0.4999999981
 40
0.5161609049
 40
0.5323167784
 40
0.5484626289
 40
0.5645935543
 40
0.5807047825
 40
0.5967917143
 40
0.6128499639
 40
0.6288753994
 40
0.64486418
 40
0.6608127932
 40
0.6767180882
 40
0.692577307
 40
0.7083881137
 40
0.7241486191
 40
0.7398574025
 40
0.7555135302
 40
0.7711165682
 40
0.7866665923
 40
0.8021641921
 40
0.8176104707
 40
0.8330070389
 40
0.848356004
 40
0.8636599537
 40
0.8789219337
 40
0.8941454208
 40
0.9093342905
 40
0.9244927788
 40
0.9320626866
 40
0.9396267316
 40
0.9547383956
 40
0.9698341118
 40
0.9773782669
 40
0.9849204037
 40
1.0
 40
1.0
 40
1.0
 40
1.0
 10
10.1164633592
 20
6.4275997447
 30
0.0
 10
10.1058843144
 20
6.4173811677
 30
0.0
 10
10.0896064514
 20
6.4024654492
 30
0.0
 10
10.067144298
 20
6.3834570505
 30
0.0
 10
10.0441776582
 20
6.3650351052
 30
0.0
 10
10.0145541334
 20
6.3431345223
 30
0.0
 10
9.9838068691
 20
6.3228066272
 30
0.0
 10
9.9585762212
 20
6.3075129504
 30
0.0
 10
9.9329152015
 20
6.2928607047
 30
0.0
 10
9.9000892138
 20
6.27578443
 30
0.0
 10
9.8596266651
 20
6.2573394075
 30
0.0
 10
9.8181699884
 20
6.2409745189
 30
0.0
 10
9.7758198259
 20
6.2267295232
 30
0.0
 10
9.7326781272
 20
6.2146385618
 30
0.0
 10
9.6888489593
 20
6.204730706
 30
0.0
 10
9.6444379697
 20
6.1970297209
 30
0.0
 10
9.599552207
 20
6.1915540563
 30
0.0
 10
9.5542998423
 20
6.1883167932
 30
0.0
 10
9.5087899135
 20
6.1873256181
 30
0.0
 10
9.4631320614
 20
6.1885828064
 30
0.0
 10
9.417436267
 20
6.1920852198
 30
0.0
 10
9.3718125872
 20
6.1978243159
 30
0.0
 10
9.3263708912
 20
6.2057861709
 30
0.0
 10
9.281220597
 20
6.2159515143
 30
0.0
 10
9.2364704093
 20
6.2282957767
 30
0.0
 10
9.1922280595
 20
6.2427891506
 30
0.0
 10
9.1486000481
 20
6.2593966632
 30
0.0
 10
9.1056913899
 20
6.2780782615
 30
0.0
 10
9.0636053623
 20
6.2987889083
 30
0.0
 10
9.0224432592
 20
6.3214786918
 30
0.0
 10
8.9823041477
 20
6.3460929452
 30
0.0
 10
8.9432846317
 20
6.3725723781
 30
0.0
 10
8.9054786204
 20
6.4008532192
 30
0.0
 10
8.8689771037
 20
6.4308673692
 30
0.0
 10
8.8338679339
 20
6.4625425643
 30
0.0
 10
8.800235616
 20
6.4958025493
 30
0.0
 10
8.7681611046
 20
6.5305672605
 30
0.0
 10
8.7377216102
 20
6.5667530177
 30
0.0
 10
8.7089904143
 20
6.6042727244
 30
0.0
 10
8.6820366935
 20
6.643036077
 30
0.0
 10
8.6569253535
 20
6.6829497803
 30
0.0
 10
8.6337168736
 20
6.7239177716
 30
0.0
 10
8.6124671604
 20
6.7658414496
 30
0.0
 10
8.5932274144
 20
6.8086199119
 30
0.0
 10
8.5760440067
 20
6.8521501954
 30
0.0
 10
8.5609583676
 20
6.8963275237
 30
0.0
 10
8.5480068866
 20
6.9410455569
 30
0.0
 10
8.537220824
 20
6.9861966467
 30
0.0
 10
8.5286262353
 20
7.0316720934
 30
0.0
 10
8.5222439076
 20
7.0773624063
 30
0.0
 10
8.5180893078
 20
7.1231575658
 30
0.0
 10
8.5161725446
 20
7.1689472865
 30
0.0
 10
8.5164983417
 20
7.2146212818
 30
0.0
 10
8.519066025
 20
7.2600695281
 30
0.0
 10
8.5238695214
 20
7.3051825293
 30
0.0
 10
8.5308973709
 20
7.3498515792
 30
0.0
 10
8.5401327525
 20
7.3939690249
 30
0.0
 10
8.5515535181
 20
7.437428521
 30
0.0
 10
8.5651322563
 20
7.4801253067
 30
0.0
 10
8.5808363073
 20
7.5219563843
 30
0.0
 10
8.598628017
 20
7.5628210485
 30
0.0
 10
8.6184641613
 20
7.6026200955
 30
0.0
 10
8.6366677415
 20
7.6348345998
 30
0.0
 10
8.6522004501
 20
7.659972444
 30
0.0
 10
8.6683592935
 20
7.6846579438
 30
0.0
 10
8.6897404946
 20
7.7146822991
 30
0.0
 10
8.7126545349
 20
7.7435290552
 30
0.0
 10
8.731861246
 20
7.7658435545
 30
0.0
 10
8.751636697
 20
7.7876334398
 30
0.0
 10
8.7671075289
 20
7.8033846546
 30
0.0
 10
8.7776865767
 20
7.8136032281
 30
0.0
  0
SPLINE
  5
3B5
100
AcDbEntity
  8
0
100
AcDbSpline
 62
7
  6
CONTINUOUS
 70
0
 71
3
 72
75
 73
71
 74
0
 42
0.0000001
 43
0.0000001
 44
0.0000000001
 40
0.0
 40
0.0
 40
0.0
 40
0.0
 40
0.0150761381
 40
0.0226170283
 40
0.0301602489
 40
0.0452549945
 40
0.0603667548
 40
0.0679311962
 40
0.0755017186
 40
0.0906620419
 40
0.1058534089
 40
0.1210799153
 40
0.1363452969
 40
0.1516528943
 40
0.1670056221
 40
0.182405944
 40
0.1978558518
 40
0.2133568508
 40
0.2289099499
 40
0.2445156568
 40
0.260173978
 40
0.2758844242
 40
0.2916460195
 40
0.3074573151
 40
0.323316407
 40
0.3392209579
 40
0.3551682212
 40
0.3711550693
 40
0.3871780241
 40
0.4032332899
 40
0.4193167887
 40
0.4354241969
 40
0.4515509841
 40
0.4676924528
 40
0.4838437797
 40
0.5000000566
 40
0.5161563332
 40
0.532307659
 40
0.5484491262
 40
0.5645759112
 40
0.5806833168
 40
0.5967668126
 40
0.6128220751
 40
0.6288450264
 40
0.6448318708
 40
0.6607791301
 40
0.6766836767
 40
0.6925427642
 40
0.708354055
 40
0.7241156452
 40
0.7398260861
 40
0.7554844018
 40
0.771090103
 40
0.7866431963
 40
0.8021441895
 40
0.8175940917
 40
0.8329944081
 40
0.8483471309
 40
0.8636547237
 40
0.8789201011
 40
0.8941466037
 40
0.9093379675
 40
0.9244982882
 40
0.932068809
 40
0.9396332495
 40
0.9547450081
 40
0.9698397525
 40
0.9773829721
 40
0.9849238622
 40
1.0
 40
1.0
 40
1.0
 40
1.0
 10
8.7777424535
 20
7.8135473384
 30
0.0
 10
8.7673891379
 20
7.8032683908
 30
0.0
 10
8.7522558884
 20
7.7874385184
 30
0.0
 10
8.7329263254
 20
7.7655673824
 30
0.0
 10
8.7141612263
 20
7.7431856625
 30
0.0
 10
8.6917918459
 20
7.7142826797
 30
0.0
 10
8.6709434136
 20
7.6842391326
 30
0.0
 10
8.6552018229
 20
7.6595591018
 30
0.0
 10
8.640080133
 20
7.6344396504
 30
0.0
 10
8.6223781326
 20
7.6022735564
 30
0.0
 10
8.6031217664
 20
7.5625716604
 30
0.0
 10
8.5858856002
 20
7.5218410243
 30
0.0
 10
8.5707108369
 20
7.4801789112
 30
0.0
 10
8.5576332639
 20
7.4376839884
 30
0.0
 10
8.5466838237
 20
7.3944570969
 30
0.0
 10
8.5378883677
 20
7.3506007411
 30
0.0
 10
8.5312676436
 20
7.3062189169
 30
0.0
 10
8.5268372359
 20
7.2614168456
 30
0.0
 10
8.5246075364
 20
7.2163007285
 30
0.0
 10
8.5245837211
 20
7.1709774948
 30
0.0
 10
8.5267657403
 20
7.1255545488
 30
0.0
 10
8.5311483212
 20
7.0801395161
 30
0.0
 10
8.537720982
 20
7.0348399901
 30
0.0
 10
8.5464680587
 20
6.9897632779
 30
0.0
 10
8.5573687432
 20
6.9450161483
 30
0.0
 10
8.5703971341
 20
6.9007045795
 30
0.0
 10
8.5855222986
 20
6.8569335103
 30
0.0
 10
8.6027083465
 20
6.8138065929
 30
0.0
 10
8.6219145157
 20
6.7714259487
 30
0.0
 10
8.6430952687
 20
6.7298919283
 30
0.0
 10
8.6662004007
 20
6.689302875
 30
0.0
 10
8.6911751585
 20
6.6497548935
 30
0.0
 10
8.7179603689
 20
6.6113416232
 30
0.0
 10
8.7464925785
 20
6.5741540167
 30
0.0
 10
8.7767042046
 20
6.5382801269
 30
0.0
 10
8.8085236941
 20
6.5038048987
 30
0.0
 10
8.8418756929
 20
6.4708099695
 30
0.0
 10
8.8766812233
 20
6.4393734763
 30
0.0
 10
8.9128578701
 20
6.4095698716
 30
0.0
 10
8.950319975
 20
6.3814697478
 30
0.0
 10
8.9889788382
 20
6.3551396709
 30
0.0
 10
9.0287429276
 20
6.3306420228
 30
0.0
 10
9.0695180942
 20
6.3080348548
 30
0.0
 10
9.111207794
 20
6.2873717496
 30
0.0
 10
9.153713315
 20
6.2687016953
 30
0.0
 10
9.1969340096
 20
6.2520689688
 30
0.0
 10
9.2407675316
 20
6.2375130313
 30
0.0
 10
9.285110077
 20
6.2250684339
 30
0.0
 10
9.3298566284
 20
6.2147647353
 30
0.0
 10
9.3749012016
 20
6.2066264298
 30
0.0
 10
9.4201370963
 20
6.2006728893
 30
0.0
 10
9.4654571466
 20
6.1969183167
 30
0.0
 10
9.5107539742
 20
6.1953717099
 30
0.0
 10
9.5559202412
 20
6.1960368391
 30
0.0
 10
9.6008489036
 20
6.1989122358
 30
0.0
 10
9.645433464
 20
6.2039911934
 30
0.0
 10
9.6895682252
 20
6.2112617817
 30
0.0
 10
9.7331485349
 20
6.2207068693
 30
0.0
 10
9.7760710552
 20
6.2323041727
 30
0.0
 10
9.8182339323
 20
6.2460262646
 30
0.0
 10
9.8595373212
 20
6.261840793
 30
0.0
 10
9.8998825776
 20
6.2797099713
 30
0.0
 10
9.93264273
 20
6.2962867763
 30
0.0
 10
9.9582709998
 20
6.3105291007
 30
0.0
 10
9.9834816836
 20
6.3254060213
 30
0.0
 10
10.0142295344
 20
6.345201004
 30
0.0
 10
10.0438902549
 20
6.3665554645
 30
0.0
 10
10.0669086856
 20
6.3845338414
 30
0.0
 10
10.0894364738
 20
6.403093941
 30
0.0
 10
10.1057811458
 20
6.4176696664
 30
0.0
 10
10.1164126746
 20
6.427660587
 30
0.0
  0
SPLINE
  5
3B6
100
AcDbEntity
  8
0
100
AcDbSpline
 62
7
  6
CONTINUOUS
 70
0
 71
3
 72
15
 73
11
 74
0
 42
0.0000001
 43
0.0000001
 44
0.0000000001
 40
0.0
 40
0.0
 40
0.0
 40
0.0
 40
0.264773443
 40
0.3972718032
 40
0.5277583601
 40
0.6546534001
 40
0.7764674131
 40
0.8350690714
 40
0.8919376462
 40
1.0
 40
1.0
 40
1.0
 40
1.0
 10
10.3166803336
 20
9.3571994603
 30
0.0
 10
10.320196474
 20
9.3708604009
 30
0.0
 10
10.324684752
 20
9.3915859485
 30
0.0
 10
10.3284003379
 20
9.4194699543
 30
0.0
 10
10.3298687821
 20
9.4402050115
 30
0.0
 10
10.3298912523
 20
9.4604246584
 30
0.0
 10
10.3286405409
 20
9.4767694032
 30
0.0
 10
10.3268577848
 20
9.4892888454
 30
0.0
 10
10.3246502631
 20
9.5009939432
 30
0.0
 10
10.3224237517
 20
9.5095132474
 30
0.0
 10
10.3206747063
 20
9.5149983127
 30
0.0
  0
SPLINE
  5
3B7
100
AcDbEntity
  8
0
100
AcDbSpline
 62
7
  6
CONTINUOUS
 70
0
 71
3
 72
35
 73
31
 74
0
 42
0.0000001
 43
0.0000001
 44
0.0000000001
 40
0.0
 40
0.0
 40
0.0
 40
0.0
 40
0.0339010548
 40
0.0688379726
 40
0.1046831754
 40
0.1412998118
 40
0.2162600508
 40
0.2925429038
 40
0.3689671734
 40
0.4444165297
 40
0.4814546075
 40
0.5178770883
 40
0.5535767534
 40
0.5884548937
 40
0.6224211996
 40
0.6553942333
 40
0.6873014592
 40
0.7180799187
 40
0.7476776638
 40
0.7760553595
 40
0.8031886291
 40
0.8290716203
 40
0.8537211939
 40
0.8771819141
 40
0.8995315403
 40
0.9208857899
 40
0.9414008191
 40
0.9612710314
 40
0.9807235989
 40
1.0
 40
1.0
 40
1.0
 40
1.0
 10
10.4628856226
 20
9.4960594582
 30
0.0
 10
10.462705572
 20
9.4922350853
 30
0.0
 10
10.4625006952
 20
9.4844611549
 30
0.0
 10
10.4626437027
 20
9.4726370778
 30
0.0
 10
10.463230141
 20
9.460519584
 30
0.0
 10
10.4646026177
 20
9.4439244776
 30
0.0
 10
10.4673737648
 20
9.4228759308
 30
0.0
 10
10.4721458983
 20
9.3976000241
 30
0.0
 10
10.4781226294
 20
9.3725276797
 30
0.0
 10
10.4838694334
 20
9.3519771694
 30
0.0
 10
10.4887519416
 20
9.3358841162
 30
0.0
 10
10.4924700329
 20
9.3241299091
 30
0.0
 10
10.4962170165
 20
9.3126413553
 30
0.0
 10
10.4999423572
 20
9.3014377852
 30
0.0
 10
10.5035950444
 20
9.290534634
 30
0.0
 10
10.5071236479
 20
9.2799437496
 30
0.0
 10
10.5104765444
 20
9.2696739017
 30
0.0
 10
10.5136020158
 20
9.2597312486
 30
0.0
 10
10.5164482943
 20
9.2501197879
 30
0.0
 10
10.5189637784
 20
9.2408418863
 30
0.0
 10
10.5210972954
 20
9.2318988268
 30
0.0
 10
10.5227982667
 20
9.2232913365
 30
0.0
 10
10.5240172852
 20
9.2150202315
 30
0.0
 10
10.52470671
 20
9.2070871028
 30
0.0
 10
10.5248213541
 20
9.199495127
 30
0.0
 10
10.5243195412
 20
9.1922500223
 30
0.0
 10
10.5231649807
 20
9.1853613446
 30
0.0
 10
10.5213287439
 20
9.1788425324
 30
0.0
 10
10.518792477
 20
9.1727132783
 30
0.0
 10
10.5166281652
 20
9.1688970637
 30
0.0
 10
10.5154381483
 20
9.1670741301
 30
0.0
  0
SPLINE
  5
3B8
100
AcDbEntity
  8
0
100
AcDbSpline
 62
7
  6
CONTINUOUS
 70
0
 71
3
 72
41
 73
37
 74
0
 42
0.0000001
 43
0.0000001
 44
0.0000000001
 40
0.0
 40
0.0
 40
0.0
 40
0.0
 40
0.0299863207
 40
0.0599886767
 40
0.0900228466
 40
0.1201041013
 40
0.1502469636
 40
0.1804649824
 40
0.2107705275
 40
0.2411746064
 40
0.2716867074
 40
0.3023146701
 40
0.3330645861
 40
0.3639407271
 40
0.3949455051
 40
0.4260794598
 40
0.4573412743
 40
0.4887278166
 40
0.5202342044
 40
0.5518538937
 40
0.5835787855
 40
0.6153993521
 40
0.6473047785
 40
0.6792831176
 40
0.7113214562
 40
0.7273604547
 40
0.7434092601
 40
0.7755258806
 40
0.8076597589
 40
0.8237300776
 40
0.8397990953
 40
0.8719226025
 40
0.9040185981
 40
0.9360726989
 40
0.9680707577
 40
1.0
 40
1.0
 40
1.0
 40
1.0
 10
11.7453480217
 20
6.7053380769
 30
0.0
 10
11.7335933962
 20
6.6939839889
 30
0.0
 10
11.7093391951
 20
6.6720204089
 30
0.0
 10
11.670903529
 20
6.6414745088
 30
0.0
 10
11.6305419798
 20
6.613428549
 30
0.0
 10
11.5884023292
 20
6.5879856101
 30
0.0
 10
11.5446363478
 20
6.5652369634
 30
0.0
 10
11.4994023199
 20
6.5452647298
 30
0.0
 10
11.4528636272
 20
6.5281407916
 30
0.0
 10
11.4051883732
 20
6.5139267531
 30
0.0
 10
11.3565487075
 20
6.5026736706
 30
0.0
 10
11.3071202152
 20
6.4944218914
 30
0.0
 10
11.257081275
 20
6.4892009189
 30
0.0
 10
11.206612417
 20
6.4870293014
 30
0.0
 10
11.155895668
 20
6.4879145814
 30
0.0
 10
11.1051138965
 20
6.4918532875
 30
0.0
 10
11.0544501578
 20
6.4988309535
 30
0.0
 10
11.004087039
 20
6.5088221782
 30
0.0
 10
10.9542060056
 20
6.5217907236
 30
0.0
 10
10.9049867611
 20
6.5376896479
 30
0.0
 10
10.8566065782
 20
6.5564614863
 30
0.0
 10
10.809239757
 20
6.5780383873
 30
0.0
 10
10.7630566541
 20
6.6023426379
 30
0.0
 10
10.7182243998
 20
6.629285946
 30
0.0
 10
10.682134808
 20
6.6538500725
 30
0.0
 10
10.6540951753
 20
6.6747188363
 30
0.0
 10
10.6266194548
 20
6.6963937741
 30
0.0
 10
10.5934134129
 20
6.7249378051
 30
0.0
 10
10.5618507223
 20
6.7553058953
 30
0.0
 10
10.5376478373
 20
6.7806349747
 30
0.0
 10
10.5141677979
 20
6.8066277966
 30
0.0
 10
10.486210053
 20
6.8403220338
 30
0.0
 10
10.4550067613
 20
6.8825388796
 30
0.0
 10
10.4262624482
 20
6.9263868377
 30
0.0
 10
10.4000821962
 20
6.9717052814
 30
0.0
 10
10.3843796699
 20
7.0028318436
 30
0.0
 10
10.3769874936
 20
7.0185854001
 30
0.0
  0
SPLINE
  5
3B9
100
AcDbEntity
  8
0
100
AcDbSpline
 62
7
  6
CONTINUOUS
 70
0
 71
3
 72
49
 73
45
 74
0
 42
0.0000001
 43
0.0000001
 44
0.0000000001
 40
0.0
 40
0.0
 40
0.0
 40
0.0
 40
0.0417737612
 40
0.0840374079
 40
0.1266587819
 40
0.1695070054
 40
0.212448701
 40
0.2553507859
 40
0.2980801061
 40
0.3405042538
 40
0.3824920091
 40
0.4239138924
 40
0.4646426962
 40
0.5045540236
 40
0.5435268394
 40
0.5814440363
 40
0.6181930245
 40
0.6536663548
 40
0.6877623909
 40
0.7203860578
 40
0.7514496892
 40
0.780874012
 40
0.8085893537
 40
0.8345371708
 40
0.8468342306
 40
0.8586736215
 40
0.8700521874
 40
0.8809680228
 40
0.8914205004
 40
0.9014107098
 40
0.9109413387
 40
0.9200173299
 40
0.9286458445
 40
0.9368369538
 40
0.9446039307
 40
0.9519638612
 40
0.9589383571
 40
0.9655540688
 40
0.9718436438
 40
0.9778460661
 40
0.9836072911
 40
0.989180004
 40
0.9946230597
 40
1.0
 40
1.0
 40
1.0
 40
1.0
 10
12.6674181942
 20
8.8061593834
 30
0.0
 10
12.6674181942
 20
8.7988743432
 30
0.0
 10
12.6673045316
 20
8.7842186015
 30
0.0
 10
12.6668020976
 20
8.7621351792
 30
0.0
 10
12.6659681371
 20
8.7398742443
 30
0.0
 10
12.6648054468
 20
8.7175096769
 30
0.0
 10
12.6633178239
 20
8.6951153096
 30
0.0
 10
12.6615102102
 20
8.6727653
 30
0.0
 10
12.6593885819
 20
8.6505335653
 30
0.0
 10
12.6569599756
 20
8.6284936616
 30
0.0
 10
12.6542324461
 20
8.6067184969
 30
0.0
 10
12.6512150493
 20
8.5852800991
 30
0.0
 10
12.6479178094
 20
8.5642493718
 30
0.0
 10
12.6443516854
 20
8.5436958582
 30
0.0
 10
12.6405285358
 20
8.5236875075
 30
0.0
 10
12.6364610804
 20
8.5042904468
 30
0.0
 10
12.6321628587
 20
8.4855687563
 30
0.0
 10
12.6276481866
 20
8.4675842492
 30
0.0
 10
12.6229321075
 20
8.4503962584
 30
0.0
 10
12.6180303442
 20
8.4340614133
 30
0.0
 10
12.6129592426
 20
8.4186334667
 30
0.0
 10
12.6077357093
 20
8.4041629636
 30
0.0
 10
12.6023771306
 20
8.3906974704
 30
0.0
 10
12.5977345143
 20
8.3801693476
 30
0.0
 10
12.5939551788
 20
8.3722943138
 30
0.0
 10
12.5911488484
 20
8.3667723585
 30
0.0
 10
12.5883221134
 20
8.3615329221
 30
0.0
 10
12.5854772895
 20
8.3565802662
 30
0.0
 10
12.5826166464
 20
8.3519184527
 30
0.0
 10
12.57974259
 20
8.3475512269
 30
0.0
 10
12.5768573376
 20
8.3434821668
 30
0.0
 10
12.5739632777
 20
8.3397145013
 30
0.0
 10
12.571062602
 20
8.3362512963
 30
0.0
 10
12.5681575816
 20
8.3330953037
 30
0.0
 10
12.5652503775
 20
8.3302490665
 30
0.0
 10
12.5623430644
 20
8.3277149456
 30
0.0
 10
12.5594377342
 20
8.3254950222
 30
0.0
 10
12.5565362678
 20
8.3235914164
 30
0.0
 10
12.5536407018
 20
8.3220059408
 30
0.0
 10
12.5507529345
 20
8.3207406482
 30
0.0
 10
12.5478752495
 20
8.3197973115
 30
0.0
 10
12.5450099858
 20
8.3191778362
 30
0.0
 10
12.542160635
 20
8.3188836957
 30
0.0
 10
12.5402689031
 20
8.3189052414
 30
0.0
 10
12.5393334501
 20
8.3189701078
 30
0.0
  0
LINE
  5
3BA
100
AcDbEntity
  8
0
100
AcDbLine
 62
7
  6
CONTINUOUS
 10
10.5154381483
 20
9.1670741301
 11
10.5112240202
 21
9.1606185334
  0
SPLINE
  5
3BB
100
AcDbEntity
  8
0
100
AcDbSpline
 62
7
  6
CONTINUOUS
 70
0
 71
3
 72
49
 73
45
 74
0
 42
0.0000001
 43
0.0000001
 44
0.0000000001
 40
0.0
 40
0.0
 40
0.0
 40
0.0
 40
0.0417737612
 40
0.0840374079
 40
0.1266587819
 40
0.1695070054
 40
0.212448701
 40
0.2553507859
 40
0.2980801061
 40
0.3405042538
 40
0.3824920091
 40
0.4239138924
 40
0.4646426962
 40
0.5045540236
 40
0.5435268394
 40
0.5814440363
 40
0.6181930245
 40
0.6536663548
 40
0.6877623909
 40
0.7203860578
 40
0.7514496892
 40
0.780874012
 40
0.8085893537
 40
0.8345371708
 40
0.8468342306
 40
0.8586736215
 40
0.8700521874
 40
0.8809680228
 40
0.8914205004
 40
0.9014107098
 40
0.9109413387
 40
0.9200173299
 40
0.9286458445
 40
0.9368369538
 40
0.9446039307
 40
0.9519638612
 40
0.9589383571
 40
0.9655540688
 40
0.9718436438
 40
0.9778460661
 40
0.9836072911
 40
0.989180004
 40
0.9946230597
 40
1.0
 40
1.0
 40
1.0
 40
1.0
 10
12.6674181942
 20
6.6328261455
 30
0.0
 10
12.6674181942
 20
6.6255411053
 30
0.0
 10
12.6673045316
 20
6.6108853636
 30
0.0
 10
12.6668020976
 20
6.5888019412
 30
0.0
 10
12.6659681371
 20
6.5665410064
 30
0.0
 10
12.6648054468
 20
6.544176439
 30
0.0
 10
12.6633178239
 20
6.5217820717
 30
0.0
 10
12.6615102102
 20
6.4994320621
 30
0.0
 10
12.6593885819
 20
6.4772003274
 30
0.0
 10
12.6569599756
 20
6.4551604236
 30
0.0
 10
12.6542324461
 20
6.4333852589
 30
0.0
 10
12.6512150493
 20
6.4119468612
 30
0.0
 10
12.6479178094
 20
6.3909161339
 30
0.0
 10
12.6443516854
 20
6.3703626203
 30
0.0
 10
12.6405285358
 20
6.3503542696
 30
0.0
 10
12.6364610804
 20
6.3309572089
 30
0.0
 10
12.6321628587
 20
6.3122355184
 30
0.0
 10
12.6276481866
 20
6.2942510113
 30
0.0
 10
12.6229321075
 20
6.2770630205
 30
0.0
 10
12.6180303442
 20
6.2607281753
 30
0.0
 10
12.6129592426
 20
6.2453002288
 30
0.0
 10
12.6077357093
 20
6.2308297257
 30
0.0
 10
12.6023771306
 20
6.2173642325
 30
0.0
 10
12.5977345143
 20
6.2068361096
 30
0.0
 10
12.5939551788
 20
6.1989610759
 30
0.0
 10
12.5911488484
 20
6.1934391205
 30
0.0
 10
12.5883221134
 20
6.1881996842
 30
0.0
 10
12.5854772895
 20
6.1832470283
 30
0.0
 10
12.5826166464
 20
6.1785852148
 30
0.0
 10
12.57974259
 20
6.174217989
 30
0.0
 10
12.5768573376
 20
6.1701489289
 30
0.0
 10
12.5739632777
 20
6.1663812633
 30
0.0
 10
12.571062602
 20
6.1629180583
 30
0.0
 10
12.5681575816
 20
6.1597620658
 30
0.0
 10
12.5652503775
 20
6.1569158286
 30
0.0
 10
12.5623430644
 20
6.1543817077
 30
0.0
 10
12.5594377342
 20
6.1521617842
 30
0.0
 10
12.5565362678
 20
6.1502581785
 30
0.0
 10
12.5536407018
 20
6.1486727029
 30
0.0
 10
12.5507529345
 20
6.1474074103
 30
0.0
 10
12.5478752495
 20
6.1464640736
 30
0.0
 10
12.5450099858
 20
6.1458445983
 30
0.0
 10
12.542160635
 20
6.1455504578
 30
0.0
 10
12.5402689031
 20
6.1455720035
 30
0.0
 10
12.5393334501
 20
6.1456368699
 30
0.0
  0
LINE
  5
3BC
100
AcDbEntity
  8
0
100
AcDbLine
 62
7
  6
CONTINUOUS
 10
10.8207109443
 20
8.5768242118
 11
10.7856638254
 21
8.5587755778
  0
SPLINE
  5
3BD
100
AcDbEntity
  8
0
100
AcDbSpline
 62
7
  6
CONTINUOUS
 70
0
 71
3
 72
69
 73
65
 74
0
 42
0.0000001
 43
0.0000001
 44
0.0000000001
 40
0.0
 40
0.0
 40
0.0
 40
0.0
 40
0.0149929875
 40
0.0299908659
 40
0.0449973215
 40
0.0600159775
 40
0.0750503667
 40
0.0901039053
 40
0.1051798684
 40
0.1202813667
 40
0.1354113251
 40
0.1505724624
 40
0.1657672722
 40
0.1809980064
 40
0.1962666614
 40
0.2115749667
 40
0.2269243739
 40
0.2423160489
 40
0.2577508652
 40
0.273229402
 40
0.2887519425
 40
0.3043184745
 40
0.3199286922
 40
0.3355820002
 40
0.3512775215
 40
0.3670141048
 40
0.3827903344
 40
0.3986045401
 40
0.4144548098
 40
0.4303390045
 40
0.4462547726
 40
0.4621995659
 40
0.4781706555
 40
0.4941651503
 40
0.5101800159
 40
0.5262120936
 40
0.5583088714
 40
0.5904343662
 40
0.6065021587
 40
0.6225667216
 40
0.6386245935
 40
0.6546723539
 40
0.6707066438
 40
0.6867241862
 40
0.7027218053
 40
0.7186964472
 40
0.7346451995
 40
0.7505653095
 40
0.7664542018
 40
0.7823094947
 40
0.7981290172
 40
0.8139108245
 40
0.8296532115
 40
0.8453547246
 40
0.8610141729
 40
0.8766306394
 40
0.892203488
 40
0.9077323736
 40
0.923217237
 40
0.9386583164
 40
0.9540561877
 40
0.9694115141
 40
0.9847258778
 40
1.0
 40
1.0
 40
1.0
 40
1.0
 10
9.5929854394
 20
9.5681226293
 30
0.0
 10
9.5842832682
 20
9.5594829764
 30
0.0
 10
9.5672527792
 20
9.5418166053
 30
0.0
 10
9.5428890774
 20
9.5142180073
 30
0.0
 10
9.5197436664
 20
9.4855621
 30
0.0
 10
9.4978559873
 20
9.45589756
 30
0.0
 10
9.4772625266
 20
9.4252739304
 30
0.0
 10
9.4579978424
 20
9.3937425718
 30
0.0
 10
9.4400941743
 20
9.3613563248
 30
0.0
 10
9.4235814792
 20
9.3281694812
 30
0.0
 10
9.4084873892
 20
9.2942376569
 30
0.0
 10
9.3948371635
 20
9.2596177099
 30
0.0
 10
9.3826536568
 20
9.2243676423
 30
0.0
 10
9.3719572273
 20
9.1885465216
 30
0.0
 10
9.3627657336
 20
9.152214366
 30
0.0
 10
9.3550945259
 20
9.115432038
 30
0.0
 10
9.3489564148
 20
9.0782611461
 30
0.0
 10
9.3443616592
 20
9.0407639439
 30
0.0
 10
9.3413178904
 20
9.0030032328
 30
0.0
 10
9.3398301453
 20
8.9650422465
 30
0.0
 10
9.3399008692
 20
8.9269445459
 30
0.0
 10
9.3415299096
 20
8.8887739152
 30
0.0
 10
9.344714519
 20
8.8505942592
 30
0.0
 10
9.349449303
 20
8.8124694908
 30
0.0
 10
9.3557262846
 20
8.7744634247
 30
0.0
 10
9.3635349189
 20
8.7366396732
 30
0.0
 10
9.3728621123
 20
8.6990615423
 30
0.0
 10
9.3836922382
 20
8.6617919287
 30
0.0
 10
9.3960071161
 20
8.6248931983
 30
0.0
 10
9.4097860974
 20
8.5884270966
 30
0.0
 10
9.4250060987
 20
8.552454642
 30
0.0
 10
9.4416416309
 20
8.5170360441
 30
0.0
 10
9.4596648759
 20
8.4822305391
 30
0.0
 10
9.4790455182
 20
8.4480964993
 30
0.0
 10
9.4997515261
 20
8.4146905028
 30
0.0
 10
9.5290874049
 20
8.3711836827
 30
0.0
 10
9.5688911438
 20
8.3189043093
 30
0.0
 10
9.6125895397
 20
8.2697950355
 30
0.0
 10
9.6497228689
 20
8.2325882209
 30
0.0
 10
9.6786173344
 20
8.205766905
 30
0.0
 10
9.7085024863
 20
8.180079986
 30
0.0
 10
9.7393287497
 20
8.1555699179
 30
0.0
 10
9.7710444226
 20
8.1322778597
 30
0.0
 10
9.8035964712
 20
8.1102427645
 30
0.0
 10
9.8369304312
 20
8.0895015486
 30
0.0
 10
9.8709905259
 20
8.0700889337
 30
0.0
 10
9.9057197531
 20
8.0520374072
 30
0.0
 10
9.941060001
 20
8.0353771958
 30
0.0
 10
9.9769521371
 20
8.0201362084
 30
0.0
 10
10.0133361095
 20
8.0063400002
 30
0.0
 10
10.0501510282
 20
7.9940116825
 30
0.0
 10
10.0873352791
 20
7.9831719019
 30
0.0
 10
10.1248266336
 20
7.9738388324
 30
0.0
 10
10.1625623472
 20
7.9660281373
 30
0.0
 10
10.2004792646
 20
7.9597529526
 30
0.0
 10
10.2385139149
 20
7.9550238099
 30
0.0
 10
10.2766026299
 20
7.9518486489
 30
0.0
 10
10.3146816474
 20
7.9502328307
 30
0.0
 10
10.3526872086
 20
7.9501791107
 30
0.0
 10
10.3905557235
 20
7.9516876381
 30
0.0
 10
10.4282236047
 20
7.9547559539
 30
0.0
 10
10.4656282903
 20
7.9593788846
 30
0.0
 10
10.5027059131
 20
7.9655487387
 30
0.0
 10
10.5271982511
 20
7.9706932693
 30
0.0
 10
10.5393667965
 20
7.9735199298
 30
0.0
  0
SPLINE
  5
3BE
100
AcDbEntity
  8
0
100
AcDbSpline
 62
7
  6
CONTINUOUS
 70
0
 71
3
 72
23
 73
19
 74
0
 42
0.0000001
 43
0.0000001
 44
0.0000000001
 40
0.0
 40
0.0
 40
0.0
 40
0.0
 40
0.0624383847
 40
0.1250097386
 40
0.1876890794
 40
0.2504500476
 40
0.313265247
 40
0.3761065948
 40
0.4389456781
 40
0.5017541122
 40
0.564503901
 40
0.6271677867
 40
0.6897196194
 40
0.7521346268
 40
0.8143899515
 40
0.8764643699
 40
0.9383400274
 40
1.0
 40
1.0
 40
1.0
 40
1.0
 10
10.3506677556
 20
8.7569651965
 30
0.0
 10
10.3432319329
 20
8.7607823249
 30
0.0
 10
10.3285556123
 20
8.768844229
 30
0.0
 10
10.3072324486
 20
8.7821563607
 30
0.0
 10
10.2866455013
 20
8.7966573368
 30
0.0
 10
10.2668676102
 20
8.8122959826
 30
0.0
 10
10.2479676183
 20
8.8290177605
 30
0.0
 10
10.2300116208
 20
8.8467641968
 30
0.0
 10
10.2130623366
 20
8.8654732896
 30
0.0
 10
10.1971789967
 20
8.8850796693
 30
0.0
 10
10.1824171126
 20
8.9055148398
 30
0.0
 10
10.1688282841
 20
8.9267074137
 30
0.0
 10
10.1564600366
 20
8.9485833532
 30
0.0
 10
10.145355607
 20
8.9710662619
 30
0.0
 10
10.1355539158
 20
8.9940775059
 30
0.0
 10
10.1270891399
 20
9.0175370178
 30
0.0
 10
10.1199912686
 20
9.0413617234
 30
0.0
 10
10.1161797027
 20
9.0574646571
 30
0.0
 10
10.1145107175
 20
9.0655483044
 30
0.0
  0
SPLINE
  5
3BF
100
AcDbEntity
  8
0
100
AcDbSpline
 62
4
  6
CONTINUOUS
 70
0
 71
3
 72
277
 73
273
 74
0
 42
0.0000001
 43
0.0000001
 44
0.0000000001
 40
0.0
 40
0.0
 40
0.0
 40
0.0
 40
0.015625
 40
0.0234375
 40
0.03125
 40
0.0390625
 40
0.046875
 40
0.05078125
 40
0.0546875
 40
0.056640625
 40
0.05859375
 40
0.060546875
 40
0.0615234375
 40
0.0620117188
 40
0.0625
 40
0.0629882812
 40
0.0634765625
 40
0.064453125
 40
0.06640625
 40
0.068359375
 40
0.0703125
 40
0.07421875
 40
0.078125
 40
0.0859375
 40
0.09375
 40
0.1015625
 40
0.109375
 40
0.11328125
 40
0.1171875
 40
0.119140625
 40
0.12109375
 40
0.123046875
 40
0.1240234375
 40
0.1245117188
 40
0.125
 40
0.1254882812
 40
0.1259765625
 40
0.126953125
 40
0.12890625
 40
0.130859375
 40
0.1328125
 40
0.13671875
 40
0.140625
 40
0.1484375
 40
0.15625
 40
0.1640625
 40
0.171875
 40
0.17578125
 40
0.1796875
 40
0.181640625
 40
0.18359375
 40
0.185546875
 40
0.1865234375
 40
0.1870117188
 40
0.1875
 40
0.1879882812
 40
0.1884765625
 40
0.189453125
 40
0.19140625
 40
0.193359375
 40
0.1953125
 40
0.19921875
 40
0.203125
 40
0.2109375
 40
0.21875
 40
0.2265625
 40
0.234375
 40
0.23828125
 40
0.2421875
 40
0.24609375
 40
0.248046875
 40
0.2490234375
 40
0.25
 40
0.2509765625
 40
0.251953125
 40
0.25390625
 40
0.2578125
 40
0.26171875
 40
0.265625
 40
0.2734375
 40
0.28125
 40
0.2890625
 40
0.296875
 40
0.30078125
 40
0.3046875
 40
0.30859375
 40
0.310546875
 40
0.3115234375
 40
0.3125
 40
0.3134765625
 40
0.314453125
 40
0.31640625
 40
0.3203125
 40
0.32421875
 40
0.328125
 40
0.3359375
 40
0.34375
 40
0.3515625
 40
0.359375
 40
0.3671875
 40
0.37109375
 40
0.373046875
 40
0.375
 40
0.376953125
 40
0.37890625
 40
0.3828125
 40
0.390625
 40
0.3984375
 40
0.40625
 40
0.4140625
 40
0.421875
 40
0.4296875
 40
0.43359375
 40
0.435546875
 40
0.4375
 40
0.439453125
 40
0.44140625
 40
0.4453125
 40
0.453125
 40
0.4609375
 40
0.46875
 40
0.4765625
 40
0.484375
 40
0.48828125
 40
0.4921875
 40
0.49609375
 40
0.498046875
 40
0.4990234375
 40
0.5
 40
0.5009765625
 40
0.501953125
 40
0.50390625
 40
0.5078125
 40
0.51171875
 40
0.515625
 40
0.5234375
 40
0.53125
 40
0.5390625
 40
0.546875
 40
0.55078125
 40
0.5546875
 40
0.55859375
 40
0.560546875
 40
0.5615234375
 40
0.5625
 40
0.5634765625
 40
0.564453125
 40
0.56640625
 40
0.5703125
 40
0.57421875
 40
0.578125
 40
0.5859375
 40
0.59375
 40
0.6015625
 40
0.609375
 40
0.61328125
 40
0.6171875
 40
0.62109375
 40
0.623046875
 40
0.6240234375
 40
0.625
 40
0.6259765625
 40
0.626953125
 40
0.62890625
 40
0.6328125
 40
0.63671875
 40
0.640625
 40
0.6484375
 40
0.65625
 40
0.6640625
 40
0.671875
 40
0.67578125
 40
0.6796875
 40
0.681640625
 40
0.68359375
 40
0.685546875
 40
0.6865234375
 40
0.6870117188
 40
0.6875
 40
0.6879882812
 40
0.6884765625
 40
0.689453125
 40
0.69140625
 40
0.693359375
 40
0.6953125
 40
0.69921875
 40
0.703125
 40
0.7109375
 40
0.71875
 40
0.7265625
 40
0.734375
 40
0.73828125
 40
0.7421875
 40
0.744140625
 40
0.74609375
 40
0.748046875
 40
0.7490234375
 40
0.7495117188
 40
0.75
 40
0.7504882812
 40
0.7509765625
 40
0.751953125
 40
0.75390625
 40
0.755859375
 40
0.7578125
 40
0.76171875
 40
0.765625
 40
0.7734375
 40
0.78125
 40
0.7890625
 40
0.796875
 40
0.80078125
 40
0.8046875
 40
0.806640625
 40
0.80859375
 40
0.810546875
 40
0.8115234375
 40
0.8120117188
 40
0.8125
 40
0.8129882812
 40
0.8134765625
 40
0.814453125
 40
0.81640625
 40
0.818359375
 40
0.8203125
 40
0.82421875
 40
0.828125
 40
0.8359375
 40
0.84375
 40
0.8515625
 40
0.859375
 40
0.86328125
 40
0.8671875
 40
0.869140625
 40
0.87109375
 40
0.873046875
 40
0.8740234375
 40
0.8745117188
 40
0.875
 40
0.8754882812
 40
0.8759765625
 40
0.876953125
 40
0.87890625
 40
0.880859375
 40
0.8828125
 40
0.88671875
 40
0.890625
 40
0.8984375
 40
0.90625
 40
0.9140625
 40
0.921875
 40
0.92578125
 40
0.9296875
 40
0.931640625
 40
0.93359375
 40
0.935546875
 40
0.9365234375
 40
0.9370117188
 40
0.9375
 40
0.9379882812
 40
0.9384765625
 40
0.939453125
 40
0.94140625
 40
0.943359375
 40
0.9453125
 40
0.94921875
 40
0.953125
 40
0.9609375
 40
0.96875
 40
0.9765625
 40
0.984375
 40
1.0
 40
1.0
 40
1.0
 40
1.0
 10
13.2294432962
 20
9.3034422961
 30
0.0
 10
13.228603762
 20
9.3023241566
 30
0.0
 10
13.2273444608
 20
9.3006469477
 30
0.0
 10
13.2256653925
 20
9.2984106682
 30
0.0
 10
13.2244060911
 20
9.2967334609
 30
0.0
 10
13.2231467903
 20
9.2950562448
 30
0.0
 10
13.2220973714
 20
9.2936585922
 30
0.0
 10
13.2212578397
 20
9.2925404084
 30
0.0
 10
13.2207331245
 20
9.2918416841
 30
0.0
 10
13.2203133704
 20
9.2912823828
 30
0.0
 10
13.2199985055
 20
9.2908637882
 30
0.0
 10
13.2197362749
 20
9.2905121555
 30
0.0
 10
13.2195524058
 20
9.290271515
 30
0.0
 10
13.2194478182
 20
9.2901254146
 30
0.0
 10
13.219368024
 20
9.2900400421
 30
0.0
 10
13.2192934034
 20
9.289862154
 30
0.0
 10
13.2191921047
 20
9.2896572404
 30
0.0
 10
13.2190156727
 20
9.2892836062
 30
0.0
 10
13.2187631875
 20
9.2887577037
 30
0.0
 10
13.2184603933
 20
9.2881232561
 30
0.0
 10
13.2180566021
 20
9.2872785011
 30
0.0
 10
13.2175518856
 20
9.286222155
 30
0.0
 10
13.2167443265
 20
9.2845322262
 30
0.0
 10
13.2157348821
 20
9.2824197376
 30
0.0
 10
13.2145235466
 20
9.2798847865
 30
0.0
 10
13.2133122126
 20
9.2773498186
 30
0.0
 10
13.2123027645
 20
9.2752373719
 30
0.0
 10
13.2114952128
 20
9.2735473593
 30
0.0
 10
13.2109904776
 20
9.2724912262
 30
0.0
 10
13.2105867247
 20
9.2716460341
 30
0.0
 10
13.2102838134
 20
9.2710129221
 30
0.0
 10
13.2100316948
 20
9.2704828406
 30
0.0
 10
13.2098546082
 20
9.2701166666
 30
0.0
 10
13.2097543584
 20
9.2698997999
 30
0.0
 10
13.2096765158
 20
9.2697586281
 30
0.0
 10
13.2096088232
 20
9.2695353552
 30
0.0
 10
13.209515026
 20
9.2692662958
 30
0.0
 10
13.2093525304
 20
9.268782099
 30
0.0
 10
13.2091195314
 20
9.268097365
 30
0.0
 10
13.2088403018
 20
9.2672726983
 30
0.0
 10
13.2084678666
 20
9.2661741857
 30
0.0
 10
13.2080023669
 20
9.2648006878
 30
0.0
 10
13.2072575426
 20
9.2626032908
 30
0.0
 10
13.2063265209
 20
9.2598564757
 30
0.0
 10
13.2052092907
 20
9.2565603289
 30
0.0
 10
13.2040920628
 20
9.2532641669
 30
0.0
 10
13.2031610355
 20
9.2505173898
 30
0.0
 10
13.2024162223
 20
9.2483199167
 30
0.0
 10
13.2019506943
 20
9.2469466125
 30
0.0
 10
13.2015783172
 20
9.2458477023
 30
0.0
 10
13.2012989104
 20
9.2450242501
 30
0.0
 10
13.2010664658
 20
9.2443357165
 30
0.0
 10
13.2009029806
 20
9.2438583025
 30
0.0
 10
13.2008107689
 20
9.2435783753
 30
0.0
 10
13.2007382063
 20
9.2433884848
 30
0.0
 10
13.2006786546
 20
9.2431219342
 30
0.0
 10
13.200594714
 20
9.2427932733
 30
0.0
 10
13.2004499325
 20
9.242205658
 30
0.0
 10
13.2002419963
 20
9.2413727212
 30
0.0
 10
13.1999929461
 20
9.240370409
 30
0.0
 10
13.1996607138
 20
9.2390349665
 30
0.0
 10
13.19924548
 20
9.2373653299
 30
0.0
 10
13.1985810743
 20
9.2346940981
 30
0.0
 10
13.1977505791
 20
9.2313549917
 30
0.0
 10
13.1967539746
 20
9.2273481039
 30
0.0
 10
13.1957573922
 20
9.2233411634
 30
0.0
 10
13.1949268416
 20
9.2200021885
 30
0.0
 10
13.1942625468
 20
9.2173306938
 30
0.0
 10
13.193763928
 20
9.2153279318
 30
0.0
 10
13.1933496771
 20
9.213656231
 30
0.0
 10
13.1930572195
 20
9.212491403
 30
0.0
 10
13.1928939762
 20
9.2118174137
 30
0.0
 10
13.1927606268
 20
9.2113355094
 30
0.0
 10
13.1926690076
 20
9.2107634411
 30
0.0
 10
13.1925322926
 20
9.2100321337
 30
0.0
 10
13.1922998234
 20
9.2087376924
 30
0.0
 10
13.1919641788
 20
9.2068961514
 30
0.0
 10
13.1915629231
 20
9.2046830231
 30
0.0
 10
13.191027385
 20
9.2017333311
 30
0.0
 10
13.1903581457
 20
9.1980458209
 30
0.0
 10
13.1895549745
 20
9.1936209866
 30
0.0
 10
13.1887518464
 20
9.1891960731
 30
0.0
 10
13.1880824992
 20
9.1855087611
 30
0.0
 10
13.1875471769
 20
9.1825586727
 30
0.0
 10
13.1871452632
 20
9.1803467531
 30
0.0
 10
13.1868116768
 20
9.1785014308
 30
0.0
 10
13.1865755335
 20
9.1772137399
 30
0.0
 10
13.1864447054
 20
9.1764716165
 30
0.0
 10
13.1863350036
 20
9.1759327713
 30
0.0
 10
13.1862695695
 20
9.1753260871
 30
0.0
 10
13.1861668829
 20
9.1745408378
 30
0.0
 10
13.1859943758
 20
9.1731556266
 30
0.0
 10
13.1857441756
 20
9.1711825175
 30
0.0
 10
13.1854455459
 20
9.1688123191
 30
0.0
 10
13.1850468083
 20
9.1656529176
 30
0.0
 10
13.1845485946
 20
9.1617033611
 30
0.0
 10
13.1839505849
 20
9.1569640615
 30
0.0
 10
13.1833528552
 20
9.1522245765
 30
0.0
 10
13.1827541591
 20
9.1474856649
 30
0.0
 10
13.1822582334
 20
9.1435348151
 30
0.0
 10
13.181905234
 20
9.1407726586
 30
0.0
 10
13.1817126547
 20
9.1391889161
 30
0.0
 10
13.1815424881
 20
9.1380162289
 30
0.0
 10
13.181470683
 20
9.1367857467
 30
0.0
 10
13.1813406331
 20
9.1351652632
 30
0.0
 10
13.1811290321
 20
9.1323200243
 30
0.0
 10
13.1808183817
 20
9.1282603093
 30
0.0
 10
13.1804492049
 20
9.123386543
 30
0.0
 10
13.1800789946
 20
9.1185133508
 30
0.0
 10
13.1797093147
 20
9.1136399704
 30
0.0
 10
13.1793385464
 20
9.1087667689
 30
0.0
 10
13.179032759
 20
9.1047053282
 30
0.0
 10
13.178812493
 20
9.1018631642
 30
0.0
 10
13.1786963247
 20
9.1002377546
 30
0.0
 10
13.1785818803
 20
9.0990224037
 30
0.0
 10
13.1785718598
 20
9.0977928858
 30
0.0
 10
13.1785220749
 20
9.0961584702
 30
0.0
 10
13.1784519222
 20
9.0932959405
 30
0.0
 10
13.1783428297
 20
9.0892078157
 30
0.0
 10
13.1782157251
 20
9.0843015524
 30
0.0
 10
13.1780875938
 20
9.079395418
 30
0.0
 10
13.1779597632
 20
9.0744892817
 30
0.0
 10
13.1778530908
 20
9.0704007338
 30
0.0
 10
13.1777679551
 20
9.0671301387
 30
0.0
 10
13.1777035848
 20
9.0646765233
 30
0.0
 10
13.1776515869
 20
9.0626339727
 30
0.0
 10
13.1776119629
 20
9.0612000093
 30
0.0
 10
13.1775943567
 20
9.0603871252
 30
0.0
 10
13.1775669655
 20
9.059759085
 30
0.0
 10
13.1775938024
 20
9.0592012917
 30
0.0
 10
13.1776106695
 20
9.0584330643
 30
0.0
 10
13.1776490001
 20
9.0571000828
 30
0.0
 10
13.1776991504
 20
9.0551898549
 30
0.0
 10
13.177761303
 20
9.0529001363
 30
0.0
 10
13.177843484
 20
9.0498462852
 30
0.0
 10
13.1779464483
 20
9.0460292804
 30
0.0
 10
13.1780698969
 20
9.041448731
 30
0.0
 10
13.1781933989
 20
9.0368682616
 30
0.0
 10
13.1782962296
 20
9.0330510569
 30
0.0
 10
13.1783786777
 20
9.0299976055
 30
0.0
 10
13.1784400157
 20
9.0277066679
 30
0.0
 10
13.1784927145
 20
9.0258002534
 30
0.0
 10
13.1785264956
 20
9.0244604643
 30
0.0
 10
13.1785506521
 20
9.0237031444
 30
0.0
 10
13.1785550986
 20
9.0231118471
 30
0.0
 10
13.178611802
 20
9.0226096422
 30
0.0
 10
13.1786691787
 20
9.0219089592
 30
0.0
 10
13.1787780807
 20
9.0206972432
 30
0.0
 10
13.1789292148
 20
9.0189586504
 30
0.0
 10
13.1791124764
 20
9.0168755793
 30
0.0
 10
13.179356161
 20
9.0140970188
 30
0.0
 10
13.1796609961
 20
9.0106242103
 30
0.0
 10
13.1800266938
 20
9.0064566566
 30
0.0
 10
13.1803924424
 20
9.0022892095
 30
0.0
 10
13.1806971501
 20
8.9988161346
 30
0.0
 10
13.1809410894
 20
8.9960381069
 30
0.0
 10
13.1811235744
 20
8.9939534107
 30
0.0
 10
13.1812771379
 20
8.9922199019
 30
0.0
 10
13.1813817031
 20
8.9909991102
 30
0.0
 10
13.1814460285
 20
8.9903129687
 30
0.0
 10
13.1814813878
 20
8.9897660971
 30
0.0
 10
13.1815659991
 20
8.9893425606
 30
0.0
 10
13.1816616345
 20
8.9887348246
 30
0.0
 10
13.1818370007
 20
8.9876913307
 30
0.0
 10
13.1820833392
 20
8.9861901458
 30
0.0
 10
13.1823807366
 20
8.9843932094
 30
0.0
 10
13.1827766407
 20
8.9819957274
 30
0.0
 10
13.1832717357
 20
8.9789994129
 30
0.0
 10
13.183865757
 20
8.9754036031
 30
0.0
 10
13.1844598052
 20
8.9718078621
 30
0.0
 10
13.1849548327
 20
8.9688113757
 30
0.0
 10
13.1853508719
 20
8.9664142374
 30
0.0
 10
13.1855983598
 20
8.9649159168
 30
0.0
 10
13.1857964335
 20
8.9637175096
 30
0.0
 10
13.1859447609
 20
8.9628180217
 30
0.0
 10
13.1860690917
 20
8.9620706199
 30
0.0
 10
13.1861547012
 20
8.9615431771
 30
0.0
 10
13.1862058413
 20
8.9612484352
 30
0.0
 10
13.1862379417
 20
8.9610086343
 30
0.0
 10
13.1862939506
 20
8.9608404847
 30
0.0
 10
13.1863602895
 20
8.9605912924
 30
0.0
 10
13.1864802682
 20
8.9601668506
 30
0.0
 10
13.186649635
 20
8.9595544172
 30
0.0
 10
13.1868537446
 20
8.9588221029
 30
0.0
 10
13.187125587
 20
8.9578447737
 30
0.0
 10
13.1874654941
 20
8.9566234239
 30
0.0
 10
13.1880092872
 20
8.9546690899
 30
0.0
 10
13.1886890487
 20
8.9522262327
 30
0.0
 10
13.1895047535
 20
8.9492947759
 30
0.0
 10
13.1903204622
 20
8.9463633352
 30
0.0
 10
13.1910002137
 20
8.9439204381
 30
0.0
 10
13.1915440268
 20
8.9419661839
 30
0.0
 10
13.1918838833
 20
8.9407446311
 30
0.0
 10
13.1921558294
 20
8.9397677185
 30
0.0
 10
13.1923596224
 20
8.9390341314
 30
0.0
 10
13.1925299797
 20
8.9384256805
 30
0.0
 10
13.1926481901
 20
8.9379941292
 30
0.0
 10
13.1927173623
 20
8.937756328
 30
0.0
 10
13.1927646685
 20
8.9375531887
 30
0.0
 10
13.1928294547
 20
8.9374448034
 30
0.0
 10
13.192909739
 20
8.9372672383
 30
0.0
 10
13.1930530774
 20
8.9369718987
 30
0.0
 10
13.1932563613
 20
8.9365419341
 30
0.0
 10
13.1935009377
 20
8.9360294226
 30
0.0
 10
13.1938268176
 20
8.9353448703
 30
0.0
 10
13.1942342434
 20
8.934489592
 30
0.0
 10
13.1948860823
 20
8.9331209164
 30
0.0
 10
13.1957008955
 20
8.9314101515
 30
0.0
 10
13.1966786647
 20
8.9293571971
 30
0.0
 10
13.1976564371
 20
8.9273042611
 30
0.0
 10
13.1984712426
 20
8.9255934502
 30
0.0
 10
13.1991230969
 20
8.9242248666
 30
0.0
 10
13.1995304834
 20
8.9233693545
 30
0.0
 10
13.1998564441
 20
8.9226852821
 30
0.0
 10
13.2001007734
 20
8.9221713044
 30
0.0
 10
13.2003048303
 20
8.921745927
 30
0.0
 10
13.2004467889
 20
8.9214423985
 30
0.0
 10
13.2005292841
 20
8.9212779541
 30
0.0
 10
13.2005872791
 20
8.9211292664
 30
0.0
 10
13.2006600915
 20
8.921077496
 30
0.0
 10
13.2007520063
 20
8.920974663
 30
0.0
 10
13.2009152652
 20
8.920810456
 30
0.0
 10
13.2011472332
 20
8.9205676398
 30
0.0
 10
13.2014261337
 20
8.9202797851
 30
0.0
 10
13.2017978129
 20
8.9198947478
 30
0.0
 10
13.2022624762
 20
8.9194138727
 30
0.0
 10
13.2030059016
 20
8.9186442368
 30
0.0
 10
13.2039351957
 20
8.9176822734
 30
0.0
 10
13.2050503431
 20
8.9165278799
 30
0.0
 10
13.2061654928
 20
8.9153735055
 30
0.0
 10
13.2070947809
 20
8.9144114944
 30
0.0
 10
13.2078382183
 20
8.9136419539
 30
0.0
 10
13.2083028511
 20
8.9131608365
 30
0.0
 10
13.208674593
 20
8.9127762963
 30
0.0
 10
13.2089533018
 20
8.9124869227
 30
0.0
 10
13.2091858694
 20
8.912248859
 30
0.0
 10
13.209348058
 20
8.9120761681
 30
0.0
 10
13.2094416877
 20
8.9119869284
 30
0.0
 10
13.2095092322
 20
8.9118934036
 30
0.0
 10
13.2095870127
 20
8.9119015386
 30
0.0
 10
13.2096871496
 20
8.9118769252
 30
0.0
 10
13.2098640526
 20
8.9118503733
 30
0.0
 10
13.2101159016
 20
8.9118038043
 30
0.0
 10
13.2104184926
 20
8.9117516187
 30
0.0
 10
13.2108218173
 20
8.9116807466
 30
0.0
 10
13.2113260176
 20
8.9115925986
 30
0.0
 10
13.2121327133
 20
8.9114513147
 30
0.0
 10
13.2131410914
 20
8.9112747951
 30
0.0
 10
13.2143511414
 20
8.9110629326
 30
0.0
 10
13.215561193
 20
8.9108510898
 30
0.0
 10
13.2165695669
 20
8.9106745207
 30
0.0
 10
13.2173762711
 20
8.9105333359
 30
0.0
 10
13.2178804496
 20
8.9104449359
 30
0.0
 10
13.2182838192
 20
8.9103745809
 30
0.0
 10
13.2185862729
 20
8.9103208156
 30
0.0
 10
13.2188385513
 20
8.9102791894
 30
0.0
 10
13.2190146878
 20
8.9102438137
 30
0.0
 10
13.2191160529
 20
8.9102333382
 30
0.0
 10
13.2191900608
 20
8.9101980461
 30
0.0
 10
13.2192717745
 20
8.9102676262
 30
0.0
 10
13.2193780382
 20
8.9103238191
 30
0.0
 10
13.219565252
 20
8.9104392002
 30
0.0
 10
13.2198320456
 20
8.9105951198
 30
0.0
 10
13.2201524781
 20
8.9107860373
 30
0.0
 10
13.2205796237
 20
8.9110392618
 30
0.0
 10
13.2211135891
 20
8.9113562486
 30
0.0
 10
13.221967915
 20
8.9118631725
 30
0.0
 10
13.2230358289
 20
8.9124969149
 30
0.0
 10
13.2243173228
 20
8.9132573682
 30
0.0
 10
13.2255988174
 20
8.9140178316
 30
0.0
 10
13.2273074766
 20
8.9150317793
 30
0.0
 10
13.2285889711
 20
8.9157922408
 30
0.0
 10
13.2294433007
 20
8.916299215
 30
0.0
  0
SPLINE
  5
3C0
100
AcDbEntity
  8
0
100
AcDbSpline
 62
4
  6
CONTINUOUS
 70
0
 71
3
 72
277
 73
273
 74
0
 42
0.0000001
 43
0.0000001
 44
0.0000000001
 40
0.0
 40
0.0
 40
0.0
 40
0.0
 40
0.015625
 40
0.0234375
 40
0.03125
 40
0.0390625
 40
0.046875
 40
0.05078125
 40
0.0546875
 40
0.056640625
 40
0.05859375
 40
0.060546875
 40
0.0615234375
 40
0.0620117188
 40
0.0625
 40
0.0629882812
 40
0.0634765625
 40
0.064453125
 40
0.06640625
 40
0.068359375
 40
0.0703125
 40
0.07421875
 40
0.078125
 40
0.0859375
 40
0.09375
 40
0.1015625
 40
0.109375
 40
0.11328125
 40
0.1171875
 40
0.119140625
 40
0.12109375
 40
0.123046875
 40
0.1240234375
 40
0.1245117188
 40
0.125
 40
0.1254882812
 40
0.1259765625
 40
0.126953125
 40
0.12890625
 40
0.130859375
 40
0.1328125
 40
0.13671875
 40
0.140625
 40
0.1484375
 40
0.15625
 40
0.1640625
 40
0.171875
 40
0.17578125
 40
0.1796875
 40
0.181640625
 40
0.18359375
 40
0.185546875
 40
0.1865234375
 40
0.1870117188
 40
0.1875
 40
0.1879882812
 40
0.1884765625
 40
0.189453125
 40
0.19140625
 40
0.193359375
 40
0.1953125
 40
0.19921875
 40
0.203125
 40
0.2109375
 40
0.21875
 40
0.2265625
 40
0.234375
 40
0.23828125
 40
0.2421875
 40
0.24609375
 40
0.248046875
 40
0.2490234375
 40
0.25
 40
0.2509765625
 40
0.251953125
 40
0.25390625
 40
0.2578125
 40
0.26171875
 40
0.265625
 40
0.2734375
 40
0.28125
 40
0.2890625
 40
0.296875
 40
0.30078125
 40
0.3046875
 40
0.30859375
 40
0.310546875
 40
0.3115234375
 40
0.3125
 40
0.3134765625
 40
0.314453125
 40
0.31640625
 40
0.3203125
 40
0.32421875
 40
0.328125
 40
0.3359375
 40
0.34375
 40
0.3515625
 40
0.359375
 40
0.3671875
 40
0.37109375
 40
0.373046875
 40
0.375
 40
0.376953125
 40
0.37890625
 40
0.3828125
 40
0.390625
 40
0.3984375
 40
0.40625
 40
0.4140625
 40
0.421875
 40
0.4296875
 40
0.43359375
 40
0.435546875
 40
0.4375
 40
0.439453125
 40
0.44140625
 40
0.4453125
 40
0.453125
 40
0.4609375
 40
0.46875
 40
0.4765625
 40
0.484375
 40
0.48828125
 40
0.4921875
 40
0.49609375
 40
0.498046875
 40
0.4990234375
 40
0.5
 40
0.5009765625
 40
0.501953125
 40
0.50390625
 40
0.5078125
 40
0.51171875
 40
0.515625
 40
0.5234375
 40
0.53125
 40
0.5390625
 40
0.546875
 40
0.55078125
 40
0.5546875
 40
0.55859375
 40
0.560546875
 40
0.5615234375
 40
0.5625
 40
0.5634765625
 40
0.564453125
 40
0.56640625
 40
0.5703125
 40
0.57421875
 40
0.578125
 40
0.5859375
 40
0.59375
 40
0.6015625
 40
0.609375
 40
0.61328125
 40
0.6171875
 40
0.62109375
 40
0.623046875
 40
0.6240234375
 40
0.625
 40
0.6259765625
 40
0.626953125
 40
0.62890625
 40
0.6328125
 40
0.63671875
 40
0.640625
 40
0.6484375
 40
0.65625
 40
0.6640625
 40
0.671875
 40
0.67578125
 40
0.6796875
 40
0.681640625
 40
0.68359375
 40
0.685546875
 40
0.6865234375
 40
0.6870117188
 40
0.6875
 40
0.6879882812
 40
0.6884765625
 40
0.689453125
 40
0.69140625
 40
0.693359375
 40
0.6953125
 40
0.69921875
 40
0.703125
 40
0.7109375
 40
0.71875
 40
0.7265625
 40
0.734375
 40
0.73828125
 40
0.7421875
 40
0.744140625
 40
0.74609375
 40
0.748046875
 40
0.7490234375
 40
0.7495117188
 40
0.75
 40
0.7504882812
 40
0.7509765625
 40
0.751953125
 40
0.75390625
 40
0.755859375
 40
0.7578125
 40
0.76171875
 40
0.765625
 40
0.7734375
 40
0.78125
 40
0.7890625
 40
0.796875
 40
0.80078125
 40
0.8046875
 40
0.806640625
 40
0.80859375
 40
0.810546875
 40
0.8115234375
 40
0.8120117188
 40
0.8125
 40
0.8129882812
 40
0.8134765625
 40
0.814453125
 40
0.81640625
 40
0.818359375
 40
0.8203125
 40
0.82421875
 40
0.828125
 40
0.8359375
 40
0.84375
 40
0.8515625
 40
0.859375
 40
0.86328125
 40
0.8671875
 40
0.869140625
 40
0.87109375
 40
0.873046875
 40
0.8740234375
 40
0.8745117188
 40
0.875
 40
0.8754882812
 40
0.8759765625
 40
0.876953125
 40
0.87890625
 40
0.880859375
 40
0.8828125
 40
0.88671875
 40
0.890625
 40
0.8984375
 40
0.90625
 40
0.9140625
 40
0.921875
 40
0.92578125
 40
0.9296875
 40
0.931640625
 40
0.93359375
 40
0.935546875
 40
0.9365234375
 40
0.9370117188
 40
0.9375
 40
0.9379882812
 40
0.9384765625
 40
0.939453125
 40
0.94140625
 40
0.943359375
 40
0.9453125
 40
0.94921875
 40
0.953125
 40
0.9609375
 40
0.96875
 40
0.9765625
 40
0.984375
 40
1.0
 40
1.0
 40
1.0
 40
1.0
 10
13.2294432962
 20
8.9162992106
 30
0.0
 10
13.2302828304
 20
8.9174173501
 30
0.0
 10
13.2315421316
 20
8.919094559
 30
0.0
 10
13.2332211999
 20
8.9213308385
 30
0.0
 10
13.2344805012
 20
8.9230080458
 30
0.0
 10
13.2357398021
 20
8.9246852619
 30
0.0
 10
13.236789221
 20
8.9260829145
 30
0.0
 10
13.2376287527
 20
8.9272010983
 30
0.0
 10
13.2381534679
 20
8.9278998226
 30
0.0
 10
13.238573222
 20
8.9284591239
 30
0.0
 10
13.2388880869
 20
8.9288777186
 30
0.0
 10
13.2391503175
 20
8.9292293513
 30
0.0
 10
13.2393341866
 20
8.9294699917
 30
0.0
 10
13.2394387742
 20
8.9296160921
 30
0.0
 10
13.2395185684
 20
8.9297014647
 30
0.0
 10
13.239593189
 20
8.9298793527
 30
0.0
 10
13.2396944877
 20
8.9300842663
 30
0.0
 10
13.2398709197
 20
8.9304579005
 30
0.0
 10
13.2401234049
 20
8.930983803
 30
0.0
 10
13.2404261991
 20
8.9316182506
 30
0.0
 10
13.2408299903
 20
8.9324630056
 30
0.0
 10
13.2413347068
 20
8.9335193517
 30
0.0
 10
13.2421422659
 20
8.9352092805
 30
0.0
 10
13.2431517103
 20
8.9373217691
 30
0.0
 10
13.2443630458
 20
8.9398567202
 30
0.0
 10
13.2455743798
 20
8.9423916881
 30
0.0
 10
13.2465838279
 20
8.9445041348
 30
0.0
 10
13.2473913796
 20
8.9461941474
 30
0.0
 10
13.2478961148
 20
8.9472502805
 30
0.0
 10
13.2482998677
 20
8.9480954726
 30
0.0
 10
13.248602779
 20
8.9487285846
 30
0.0
 10
13.2488548975
 20
8.9492586661
 30
0.0
 10
13.2490319842
 20
8.9496248401
 30
0.0
 10
13.2491322339
 20
8.9498417068
 30
0.0
 10
13.2492100766
 20
8.9499828786
 30
0.0
 10
13.2492777692
 20
8.9502061515
 30
0.0
 10
13.2493715664
 20
8.9504752109
 30
0.0
 10
13.249534062
 20
8.9509594078
 30
0.0
 10
13.249767061
 20
8.9516441417
 30
0.0
 10
13.2500462906
 20
8.9524688084
 30
0.0
 10
13.2504187257
 20
8.953567321
 30
0.0
 10
13.2508842255
 20
8.9549408189
 30
0.0
 10
13.2516290497
 20
8.9571382159
 30
0.0
 10
13.2525600715
 20
8.959885031
 30
0.0
 10
13.2536773017
 20
8.9631811778
 30
0.0
 10
13.2547945296
 20
8.9664773398
 30
0.0
 10
13.2557255569
 20
8.9692241169
 30
0.0
 10
13.2564703701
 20
8.97142159
 30
0.0
 10
13.256935898
 20
8.9727948943
 30
0.0
 10
13.2573082752
 20
8.9738938044
 30
0.0
 10
13.257587682
 20
8.9747172566
 30
0.0
 10
13.2578201266
 20
8.9754057902
 30
0.0
 10
13.2579836118
 20
8.9758832042
 30
0.0
 10
13.2580758235
 20
8.9761631314
 30
0.0
 10
13.2581483861
 20
8.9763530219
 30
0.0
 10
13.2582079378
 20
8.9766195725
 30
0.0
 10
13.2582918784
 20
8.9769482334
 30
0.0
 10
13.2584366599
 20
8.9775358487
 30
0.0
 10
13.2586445961
 20
8.9783687855
 30
0.0
 10
13.2588936463
 20
8.9793710977
 30
0.0
 10
13.2592258786
 20
8.9807065402
 30
0.0
 10
13.2596411123
 20
8.9823761768
 30
0.0
 10
13.2603055181
 20
8.9850474086
 30
0.0
 10
13.2611360133
 20
8.988386515
 30
0.0
 10
13.2621326178
 20
8.9923934028
 30
0.0
 10
13.2631292002
 20
8.9964003433
 30
0.0
 10
13.2639597507
 20
8.9997393182
 30
0.0
 10
13.2646240456
 20
9.002410813
 30
0.0
 10
13.2651226644
 20
9.0044135749
 30
0.0
 10
13.2655369153
 20
9.0060852757
 30
0.0
 10
13.2658293729
 20
9.0072501037
 30
0.0
 10
13.2659926162
 20
9.007924093
 30
0.0
 10
13.2661259656
 20
9.0084059973
 30
0.0
 10
13.2662175848
 20
9.0089780656
 30
0.0
 10
13.2663542998
 20
9.009709373
 30
0.0
 10
13.266586769
 20
9.0110038143
 30
0.0
 10
13.2669224136
 20
9.0128453553
 30
0.0
 10
13.2673236693
 20
9.0150584836
 30
0.0
 10
13.2678592074
 20
9.0180081756
 30
0.0
 10
13.2685284467
 20
9.0216956858
 30
0.0
 10
13.2693316179
 20
9.0261205201
 30
0.0
 10
13.270134746
 20
9.0305454337
 30
0.0
 10
13.2708040932
 20
9.0342327456
 30
0.0
 10
13.2713394155
 20
9.037182834
 30
0.0
 10
13.2717413292
 20
9.0393947536
 30
0.0
 10
13.2720749156
 20
9.041240076
 30
0.0
 10
13.2723110589
 20
9.0425277668
 30
0.0
 10
13.272441887
 20
9.0432698902
 30
0.0
 10
13.2725515888
 20
9.0438087355
 30
0.0
 10
13.2726170229
 20
9.0444154196
 30
0.0
 10
13.2727197095
 20
9.0452006689
 30
0.0
 10
13.2728922166
 20
9.0465858801
 30
0.0
 10
13.2731424168
 20
9.0485589892
 30
0.0
 10
13.2734410465
 20
9.0509291876
 30
0.0
 10
13.2738397841
 20
9.0540885891
 30
0.0
 10
13.2743379978
 20
9.0580381456
 30
0.0
 10
13.2749360074
 20
9.0627774452
 30
0.0
 10
13.2755337372
 20
9.0675169302
 30
0.0
 10
13.2761324333
 20
9.0722558418
 30
0.0
 10
13.276628359
 20
9.0762066917
 30
0.0
 10
13.2769813584
 20
9.0789688481
 30
0.0
 10
13.2771739377
 20
9.0805525906
 30
0.0
 10
13.2773441043
 20
9.0817252778
 30
0.0
 10
13.2774159094
 20
9.0829557601
 30
0.0
 10
13.2775459593
 20
9.0845762435
 30
0.0
 10
13.2777575603
 20
9.0874214824
 30
0.0
 10
13.2780682107
 20
9.0914811974
 30
0.0
 10
13.2784373875
 20
9.0963549637
 30
0.0
 10
13.2788075978
 20
9.1012281559
 30
0.0
 10
13.2791772777
 20
9.1061015363
 30
0.0
 10
13.279548046
 20
9.1109747378
 30
0.0
 10
13.2798538334
 20
9.1150361785
 30
0.0
 10
13.2800740994
 20
9.1178783425
 30
0.0
 10
13.2801902677
 20
9.1195037521
 30
0.0
 10
13.2803047121
 20
9.120719103
 30
0.0
 10
13.2803147326
 20
9.1219486209
 30
0.0
 10
13.2803645175
 20
9.1235830366
 30
0.0
 10
13.2804346702
 20
9.1264455662
 30
0.0
 10
13.2805437627
 20
9.130533691
 30
0.0
 10
13.2806708673
 20
9.1354399543
 30
0.0
 10
13.2807989986
 20
9.1403460887
 30
0.0
 10
13.2809268292
 20
9.145252225
 30
0.0
 10
13.2810335016
 20
9.1493407729
 30
0.0
 10
13.2811186373
 20
9.152611368
 30
0.0
 10
13.2811830076
 20
9.1550649834
 30
0.0
 10
13.2812350055
 20
9.157107534
 30
0.0
 10
13.2812746295
 20
9.1585414974
 30
0.0
 10
13.2812922357
 20
9.1593543815
 30
0.0
 10
13.2813196269
 20
9.1599824217
 30
0.0
 10
13.28129279
 20
9.160540215
 30
0.0
 10
13.2812759229
 20
9.1613084424
 30
0.0
 10
13.2812375923
 20
9.1626414239
 30
0.0
 10
13.281187442
 20
9.1645516518
 30
0.0
 10
13.2811252894
 20
9.1668413705
 30
0.0
 10
13.2810431083
 20
9.1698952215
 30
0.0
 10
13.2809401441
 20
9.1737122263
 30
0.0
 10
13.2808166955
 20
9.1782927757
 30
0.0
 10
13.2806931935
 20
9.1828732452
 30
0.0
 10
13.2805903628
 20
9.1866904498
 30
0.0
 10
13.2805079147
 20
9.1897439012
 30
0.0
 10
13.2804465767
 20
9.1920348388
 30
0.0
 10
13.2803938779
 20
9.1939412533
 30
0.0
 10
13.2803600968
 20
9.1952810424
 30
0.0
 10
13.2803359403
 20
9.1960383623
 30
0.0
 10
13.2803314938
 20
9.1966296596
 30
0.0
 10
13.2802747904
 20
9.1971318645
 30
0.0
 10
13.2802174137
 20
9.1978325475
 30
0.0
 10
13.2801085117
 20
9.1990442635
 30
0.0
 10
13.2799573775
 20
9.2007828563
 30
0.0
 10
13.279774116
 20
9.2028659274
 30
0.0
 10
13.2795304314
 20
9.2056444879
 30
0.0
 10
13.2792255963
 20
9.2091172964
 30
0.0
 10
13.2788598986
 20
9.2132848501
 30
0.0
 10
13.27849415
 20
9.2174522972
 30
0.0
 10
13.2781894422
 20
9.2209253722
 30
0.0
 10
13.277945503
 20
9.2237033998
 30
0.0
 10
13.277763018
 20
9.225788096
 30
0.0
 10
13.2776094545
 20
9.2275216048
 30
0.0
 10
13.2775048893
 20
9.2287423965
 30
0.0
 10
13.2774405639
 20
9.229428538
 30
0.0
 10
13.2774052046
 20
9.2299754096
 30
0.0
 10
13.2773205933
 20
9.2303989461
 30
0.0
 10
13.2772249579
 20
9.2310066821
 30
0.0
 10
13.2770495917
 20
9.2320501761
 30
0.0
 10
13.2768032532
 20
9.2335513609
 30
0.0
 10
13.2765058558
 20
9.2353482973
 30
0.0
 10
13.2761099517
 20
9.2377457793
 30
0.0
 10
13.2756148567
 20
9.2407420938
 30
0.0
 10
13.2750208354
 20
9.2443379036
 30
0.0
 10
13.2744267871
 20
9.2479336446
 30
0.0
 10
13.2739317597
 20
9.250930131
 30
0.0
 10
13.2735357205
 20
9.2533272693
 30
0.0
 10
13.2732882325
 20
9.2548255899
 30
0.0
 10
13.2730901589
 20
9.2560239971
 30
0.0
 10
13.2729418315
 20
9.256923485
 30
0.0
 10
13.2728175007
 20
9.2576708868
 30
0.0
 10
13.2727318912
 20
9.2581983296
 30
0.0
 10
13.2726807511
 20
9.2584930715
 30
0.0
 10
13.2726486507
 20
9.2587328724
 30
0.0
 10
13.2725926418
 20
9.258901022
 30
0.0
 10
13.2725263029
 20
9.2591502143
 30
0.0
 10
13.2724063242
 20
9.2595746561
 30
0.0
 10
13.2722369574
 20
9.2601870895
 30
0.0
 10
13.2720328478
 20
9.2609194038
 30
0.0
 10
13.2717610054
 20
9.261896733
 30
0.0
 10
13.2714210983
 20
9.2631180828
 30
0.0
 10
13.2708773052
 20
9.2650724168
 30
0.0
 10
13.2701975437
 20
9.267515274
 30
0.0
 10
13.2693818389
 20
9.2704467308
 30
0.0
 10
13.2685661302
 20
9.2733781715
 30
0.0
 10
13.2678863786
 20
9.2758210687
 30
0.0
 10
13.2673425656
 20
9.2777753228
 30
0.0
 10
13.2670027091
 20
9.2789968756
 30
0.0
 10
13.266730763
 20
9.2799737882
 30
0.0
 10
13.26652697
 20
9.2807073753
 30
0.0
 10
13.2663566127
 20
9.2813158262
 30
0.0
 10
13.2662384022
 20
9.2817473775
 30
0.0
 10
13.2661692301
 20
9.2819851787
 30
0.0
 10
13.2661219239
 20
9.282188318
 30
0.0
 10
13.2660571377
 20
9.2822967033
 30
0.0
 10
13.2659768534
 20
9.2824742684
 30
0.0
 10
13.265833515
 20
9.282769608
 30
0.0
 10
13.2656302311
 20
9.2831995726
 30
0.0
 10
13.2653856547
 20
9.2837120841
 30
0.0
 10
13.2650597748
 20
9.2843966364
 30
0.0
 10
13.264652349
 20
9.2852519147
 30
0.0
 10
13.2640005101
 20
9.2866205903
 30
0.0
 10
13.2631856969
 20
9.2883313553
 30
0.0
 10
13.2622079276
 20
9.2903843096
 30
0.0
 10
13.2612301553
 20
9.2924372456
 30
0.0
 10
13.2604153498
 20
9.2941480565
 30
0.0
 10
13.2597634955
 20
9.2955166401
 30
0.0
 10
13.259356109
 20
9.2963721522
 30
0.0
 10
13.2590301483
 20
9.2970562246
 30
0.0
 10
13.2587858189
 20
9.2975702023
 30
0.0
 10
13.2585817621
 20
9.2979955797
 30
0.0
 10
13.2584398035
 20
9.2982991082
 30
0.0
 10
13.2583573083
 20
9.2984635526
 30
0.0
 10
13.2582993133
 20
9.2986122403
 30
0.0
 10
13.2582265008
 20
9.2986640107
 30
0.0
 10
13.2581345861
 20
9.2987668437
 30
0.0
 10
13.2579713272
 20
9.2989310507
 30
0.0
 10
13.2577393592
 20
9.2991738669
 30
0.0
 10
13.2574604587
 20
9.2994617216
 30
0.0
 10
13.2570887795
 20
9.2998467589
 30
0.0
 10
13.2566241162
 20
9.300327634
 30
0.0
 10
13.2558806908
 20
9.3010972699
 30
0.0
 10
13.2549513967
 20
9.3020592334
 30
0.0
 10
13.2538362493
 20
9.3032136268
 30
0.0
 10
13.2527210996
 20
9.3043680012
 30
0.0
 10
13.2517918115
 20
9.3053300123
 30
0.0
 10
13.2510483741
 20
9.3060995529
 30
0.0
 10
13.2505837413
 20
9.3065806702
 30
0.0
 10
13.2502119994
 20
9.3069652104
 30
0.0
 10
13.2499332906
 20
9.307254584
 30
0.0
 10
13.2497007229
 20
9.3074926477
 30
0.0
 10
13.2495385344
 20
9.3076653386
 30
0.0
 10
13.2494449047
 20
9.3077545783
 30
0.0
 10
13.2493773602
 20
9.3078481031
 30
0.0
 10
13.2492995797
 20
9.3078399681
 30
0.0
 10
13.2491994428
 20
9.3078645815
 30
0.0
 10
13.2490225397
 20
9.3078911334
 30
0.0
 10
13.2487706908
 20
9.3079377024
 30
0.0
 10
13.2484680998
 20
9.307989888
 30
0.0
 10
13.2480647751
 20
9.3080607601
 30
0.0
 10
13.2475605748
 20
9.3081489081
 30
0.0
 10
13.2467538791
 20
9.308290192
 30
0.0
 10
13.245745501
 20
9.3084667116
 30
0.0
 10
13.244535451
 20
9.3086785742
 30
0.0
 10
13.2433253994
 20
9.3088904169
 30
0.0
 10
13.2423170255
 20
9.309066986
 30
0.0
 10
13.2415103213
 20
9.3092081709
 30
0.0
 10
13.2410061428
 20
9.3092965708
 30
0.0
 10
13.2406027732
 20
9.3093669258
 30
0.0
 10
13.2403003195
 20
9.3094206912
 30
0.0
 10
13.2400480411
 20
9.3094623173
 30
0.0
 10
13.2398719046
 20
9.309497693
 30
0.0
 10
13.2397705395
 20
9.3095081685
 30
0.0
 10
13.2396965316
 20
9.3095434606
 30
0.0
 10
13.2396148179
 20
9.3094738805
 30
0.0
 10
13.2395085542
 20
9.3094176876
 30
0.0
 10
13.2393213404
 20
9.3093023065
 30
0.0
 10
13.2390545468
 20
9.3091463869
 30
0.0
 10
13.2387341142
 20
9.3089554694
 30
0.0
 10
13.2383069687
 20
9.3087022449
 30
0.0
 10
13.2377730033
 20
9.3083852581
 30
0.0
 10
13.2369186773
 20
9.3078783342
 30
0.0
 10
13.2358507635
 20
9.3072445918
 30
0.0
 10
13.2345692696
 20
9.3064841385
 30
0.0
 10
13.233287775
 20
9.3057236751
 30
0.0
 10
13.2315791158
 20
9.3047097274
 30
0.0
 10
13.2302976213
 20
9.3039492659
 30
0.0
 10
13.2294432917
 20
9.3034422917
 30
0.0
  0
ENDSEC
  0
SECTION
  2
OBJECTS
  0
DICTIONARY
  5
C
100
AcDbDictionary
280
0
281
1
  3
ACAD_GROUP
350
D
  3
ACAD_MLINESTYLE
350
17
  3
ACAD_LAYOUT
350
1A
  3
ACAD_PLOTSETTINGS
350
19
  3
ACAD_PLOTSTYLENAME
350
E
  3
ACAD_IMAGE_DICT
350
       3C2
  3
ACAD_IMAGE_VARS
350
       3C3
  3
ACAD_TABLESTYLE
350
       3C4
  0
IMAGEDEF_REACTOR
  5
3C1
100
AcDbRasterImageDefReactor
 90
2
330
28A
  0
DICTIONARY
  5
D
102
{ACAD_REACTORS
330
C
102
}
100
AcDbDictionary
280
0
281
1
  0
ACDBDICTIONARYWDFLT
  5
E
102
{ACAD_REACTORS
330
C
102
}
100
AcDbDictionary
281
1
  3
Normal
350
F
100
AcDbDictionaryWithDefault
340
F
  0
DICTIONARY
  5
3C2
330
C
100
AcDbDictionary
281
1
  3
YVQ_assy_2_img_1
350
       3C7
  0
RASTERVARIABLES
  5
3C3
330
C
100
AcDbRasterVariables
 90
0
 70
0
 71
1
 72
5
  0
DICTIONARY
  5
17
102
{ACAD_REACTORS
330
C
102
}
100
AcDbDictionary
280
0
281
1
  3
Standard
350
18
  0
DICTIONARY
  5
3C4
330
C
100
AcDbDictionary
281
1
  3
Standard
350
       3C8
  3
Standard1
350
       3C9
  0
DICTIONARY
  5
19
102
{ACAD_REACTORS
330
C
102
}
100
AcDbDictionary
281
1
  0
DICTIONARY
  5
1A
102
{ACAD_REACTORS
330
C
102
}
100
AcDbDictionary
281
1
  3
Model
350
3C5
  3
Layout1
350
3C6
  0
ACDBPLACEHOLDER
  5
F
102
{ACAD_REACTORS
330
E
102
}
  0
MLINESTYLE
  5
18
102
{ACAD_REACTORS
330
17
102
}
100
AcDbMlineStyle
  2
STANDARD
 70
0
  3

 62
256
 51
90.0
 52
90.0
 71
2
 49
0.5
 62
256
  6
BYLAYER
 49
-0.5
 62
256
  6
BYLAYER
  0
LAYOUT
  5
3C5
102
{ACAD_REACTORS
330
1A
102
}
100
AcDbPlotSettings
  1

  2
none_device
  4
ANSI_C_(22.00_x_17.00_Inches)
  6

 40
0.0
 41
0.0
 42
0.0
 43
0.0
 44
558.8
 45
431.8
 46
0.0
 47
0.0
 48
0.0
 49
0.0
140
0.0
141
0.0
142
1.0
143
1.0
 70
1024
 72
0
 73
0
 74
0
  7

 75
0
147
1.0
148
0.0
149
0.0
100
AcDbLayout
  1
Model
 70
0
 71
0
 10
0.0
 20
0.0
 11
22.0
 21
17.0
 12
0.0
 22
0.0
 32
0.0
 14
0.0
 24
0.0
 34
0.0
 15
0.0
 25
0.0
 35
0.0
146
0.0
 13
0.0
 23
0.0
 33
0.0
 16
1.0
 26
0.0
 36
0.0
 17
0.0
 27
1.0
 37
0.0
 76
0
330
207
345
0
346
0
  0
LAYOUT
  5
3C6
102
{ACAD_REACTORS
330
1A
102
}
100
AcDbPlotSettings
  1

  2
none_device
  4
ANSI_C_(22.00_x_17.00_Inches)
  6

 40
0.0
 41
0.0
 42
0.0
 43
0.0
 44
558.8
 45
431.8
 46
0.0
 47
0.0
 48
0.0
 49
0.0
140
0.0
141
0.0
142
1.0
143
1.0
 70
0
 72
0
 73
0
 74
0
  7

 75
0
147
1.0
148
0.0
149
0.0
100
AcDbLayout
  1
Layout1
 70
0
 71
1
 10
0.0
 20
0.0
 11
22.0
 21
17.0
 12
0.0
 22
0.0
 32
0.0
 14
0.0
 24
0.0
 34
0.0
 15
0.0
 25
0.0
 35
0.0
146
0.0
 13
0.0
 23
0.0
 33
0.0
 16
1.0
 26
0.0
 36
0.0
 17
0.0
 27
1.0
 37
0.0
 76
0
330
208
345
0
346
0
  0
IMAGEDEF
  5
3C7
102
{ACAD_REACTORS
330
3C2
330
3C1
102
}
100
AcDbRasterImageDef
 90
0
  1
YVQ_assy_2_img_1.png
 10
369.0
 20
92.0
 11
0.0066666667
 21
0.0066666667
280
1
281
0
  0
TABLESTYLE
  5
3C8
102
{ACAD_REACTORS
330
3C4
330
28D
330
28E
102
}
330
3C4
100
AcDbTableStyle
  3
Standard
 70
0
 71
0
 40
0.06
 41
0.06
280
1
281
1
  7
Standard
140
0.18
170
1
 62
0
 63
7
283
0
  7
Standard
140
0.18
170
1
 62
0
 63
7
283
0
  7
Standard
140
0.18
170
1
 62
0
 63
7
283
0
  0
TABLESTYLE
  5
3C9
102
{ACAD_REACTORS
330
3C4
330
28C
102
}
330
3C4
100
AcDbTableStyle
  3
Standard1
 70
1
 71
0
 40
0.06
 41
0.06
280
1
281
1
  7
Standard
140
0.18
170
1
 62
0
 63
7
283
0
  7
Standard
140
0.18
170
1
 62
0
 63
7
283
0
  7
Standard
140
0.18
170
1
 62
0
 63
7
283
0
  0
ENDSEC
  0
EOF
