999
DXF file: YVO_assy_2.dxf
999
Pro/ENGINEER 2014200 by Parametric Technology Corporation
  0
SECTION
  2
HEADER
  9
$ACADVER
  1
AC1021
  9
$DWGCODEPAGE
  3
ANSI_1252
  9
$EXTMAX
 10
22.0
 20
17.0
 30
0.0
  9
$EXTMIN
 10
0.0
 20
0.0
 30
0.0
  9
$LIMMIN
 10
0.0
 20
0.0
  9
$LIMMAX
 10
22.0
 20
17.0
  9
$VIEWCTR
 10
11.0
 20
8.5
  9
$VIEWSIZE
 40
17.0
  9
$CLAYER
  8
0
  9
$LTSCALE
 40
1.21
  9
$CELTYPE
  6
BYLAYER
  9
$DIMSCALE
 40
1.0
  9
$DIMASZ
 40
0.1875
  9
$DIMEXO
 40
0.0625
  9
$DIMDLI
 40
0.836
  9
$DIMEXE
 40
0.125
  9
$DIMCEN
 40
0.198
  9
$DIMLFAC
 40
1.0
  9
$DIMBLK
  1
_FILLED
  9
$DIMTXT
 40
0.1
  9
$DIMTOL
 70
0
  9
$DIMLIM
 70
0
  9
$DIMTFAC
 40
1.0
  9
$DIMGAP
 40
0.09
  9
$DIMDSEP
 70
46
  9
$AUNITS
 70
0
  9
$PDMODE
 70
3
  9
$PDSIZE
 40
0.3125
  9
$HANDSEED
  5
331
  9
$TILEMODE
 70
1
  9
$MEASUREMENT
 70
0
  9
$INSUNITS
 70
1
  0
ENDSEC
  0
SECTION
  2
CLASSES
  0
CLASS
  1
ACDBDICTIONARYWDFLT
  2
AcDbDictionaryWithDefault
  3
AutoCAD 2000
 90
0
 91
1
280
0
281
0
  0
CLASS
  1
ACDBPLACEHOLDER
  2
AcDbPlaceHolder
  3
AutoCAD 2000
 90
0
 91
1
280
0
281
0
  0
CLASS
  1
LAYOUT
  2
AcDbLayout
  3
AutoCAD 2000
 90
0
 91
0
280
0
281
0
  0
CLASS
  1
RASTERVARIABLES
  2
AcDbRasterVariables
  3
ISM
 90
0
 91
1
280
0
281
0
  0
CLASS
  1
IMAGEDEF
  2
AcDbRasterImageDef
  3
ISM
 90
0
 91
1
280
0
281
0
  0
CLASS
  1
IMAGEDEF_REACTOR
  2
AcDbRasterImageDefReactor
  3
ISM
 90
0
 91
1
280
0
281
0
  0
CLASS
  1
IMAGE
  2
AcDbRasterImage
  3
ISM
 90
127
 91
1
280
0
281
1
  0
CLASS
  1
TABLESTYLE
  2
AcDbTableStyle
  3
ObjectDBX Classes
 90
2047
 91
1
280
0
281
0
  0
CLASS
  1
ACAD_TABLE
  2
AcDbTable
  3
ObjectDBX Classes
 90
1025
 91
3
280
0
281
1
  0
ENDSEC
  0
SECTION
  2
TABLES
  0
TABLE
  2
VPORT
  5
8
100
AcDbSymbolTable
 70
2
  0
VPORT
  5
1F4
100
AcDbSymbolTableRecord
100
AcDbViewportTableRecord
  2
*ACTIVE
 70
0
 10
0.0
 20
0.0
 11
1.0
 21
1.0
 12
11.0
 22
8.5
 13
0.0
 23
0.0
 14
1.0
 24
1.0
 15
0.0
 25
0.0
 16
0.0
 26
0.0
 36
1.0
 17
0.0
 27
0.0
 37
0.0
 40
17.0
 41
1.2941176471
 42
50.0
 43
0.0
 44
0.0
 50
0.0
 51
0.0
 71
0
 72
100
 73
1
 74
1
 75
0
 76
0
 77
0
 78
0
  0
ENDTAB
  0
TABLE
  2
LTYPE
  5
5
100
AcDbSymbolTable
 70
6
  0
LTYPE
  5
14
100
AcDbSymbolTableRecord
100
AcDbLinetypeTableRecord
  2
BYBLOCK
 70
0
  3

 72
65
 73
0
 40
0.0
  0
LTYPE
  5
15
100
AcDbSymbolTableRecord
100
AcDbLinetypeTableRecord
  2
BYLAYER
 70
0
  3

 72
65
 73
0
 40
0.0
  0
LTYPE
  5
16
100
AcDbSymbolTableRecord
100
AcDbLinetypeTableRecord
  2
CONTINUOUS
 70
64
  3
Solid line
 72
65
 73
0
 40
0.0
  0
LTYPE
  5
1F5
100
AcDbSymbolTableRecord
100
AcDbLinetypeTableRecord
  2
CENTER
 70
64
  3
____ _ ____ _ ____ _ ____ _ ____ _ ____ _ ____
 72
65
 73
4
 40
0.6
 49
0.375
 74
0
 49
-0.075
 74
0
 49
0.075
 74
0
 49
-0.075
 74
0
  0
LTYPE
  5
1F6
100
AcDbSymbolTableRecord
100
AcDbLinetypeTableRecord
  2
HIDDEN
 70
64
  3
- - - - - - - - - - - - - - - - - - - -
 72
65
 73
2
 40
0.2
 49
0.1
 74
0
 49
-0.1
 74
0
  0
LTYPE
  5
1F7
100
AcDbSymbolTableRecord
100
AcDbLinetypeTableRecord
  2
PHANTOM
 70
64
  3
_____ _ _ _____ _ _ _____ _ _ _____
 72
65
 73
6
 40
0.8
 49
0.45
 74
0
 49
-0.05
 74
0
 49
0.1
 74
0
 49
-0.05
 74
0
 49
0.1
 74
0
 49
-0.05
 74
0
  0
LTYPE
  5
1F8
100
AcDbSymbolTableRecord
100
AcDbLinetypeTableRecord
  2
DOT
 70
64
  3
. . . . . . . . . . . . . . . . . . . .
 72
65
 73
2
 40
0.2
 49
0.1
 74
0
 49
-0.1
 74
0
  0
LTYPE
  5
1F9
100
AcDbSymbolTableRecord
100
AcDbLinetypeTableRecord
  2
DASHED
 70
64
  3
- - - - - - - - - - - - - - - - - - - -
 72
65
 73
2
 40
0.2
 49
0.1
 74
0
 49
-0.1
 74
0
  0
ENDTAB
  0
TABLE
  2
LAYER
  5
2
100
AcDbSymbolTable
 70
36
  0
LAYER
  5
10
100
AcDbSymbolTableRecord
100
AcDbLayerTableRecord
  2
0
 70
0
 62
7
  6
CONTINUOUS
370
-3
390
F
  0
LAYER
  5
1FA
100
AcDbSymbolTableRecord
100
AcDbLayerTableRecord
  2
DEFAULT_1
 70
0
 62
7
  6
CENTER
370
-3
390
F
  0
LAYER
  5
1FB
100
AcDbSymbolTableRecord
100
AcDbLayerTableRecord
  2
DEFAULT_2
 70
0
 62
8
  6
HIDDEN
370
-3
390
F
  0
LAYER
  5
1FC
100
AcDbSymbolTableRecord
100
AcDbLayerTableRecord
  2
DEFAULT_3
 70
0
 62
7
  6
PHANTOM
370
-3
390
F
  0
LAYER
  5
1FD
100
AcDbSymbolTableRecord
100
AcDbLayerTableRecord
  2
01___PRT_ALL_DTM_PLN
 70
0
 62
7
  6
CONTINUOUS
370
-3
390
F
  0
LAYER
  5
1FE
100
AcDbSymbolTableRecord
100
AcDbLayerTableRecord
  2
01___PRT_DEF_DTM_PLN
 70
0
 62
7
  6
CONTINUOUS
370
-3
390
F
  0
LAYER
  5
1FF
100
AcDbSymbolTableRecord
100
AcDbLayerTableRecord
  2
02___PRT_ALL_AXES
 70
0
 62
7
  6
CONTINUOUS
370
-3
390
F
  0
LAYER
  5
200
100
AcDbSymbolTableRecord
100
AcDbLayerTableRecord
  2
03___PRT_ALL_CURVES
 70
0
 62
7
  6
CONTINUOUS
370
-3
390
F
  0
LAYER
  5
201
100
AcDbSymbolTableRecord
100
AcDbLayerTableRecord
  2
04___PRT_ALL_DTM_PNT
 70
0
 62
7
  6
CONTINUOUS
370
-3
390
F
  0
LAYER
  5
202
100
AcDbSymbolTableRecord
100
AcDbLayerTableRecord
  2
05___PRT_ALL_DTM_CSYS
 70
0
 62
7
  6
CONTINUOUS
370
-3
390
F
  0
LAYER
  5
203
100
AcDbSymbolTableRecord
100
AcDbLayerTableRecord
  2
05___PRT_DEF_DTM_CSYS
 70
0
 62
7
  6
CONTINUOUS
370
-3
390
F
  0
LAYER
  5
204
100
AcDbSymbolTableRecord
100
AcDbLayerTableRecord
  2
06___PRT_ALL_SURFS
 70
0
 62
7
  6
CONTINUOUS
370
-3
390
F
  0
LAYER
  5
205
100
AcDbSymbolTableRecord
100
AcDbLayerTableRecord
  2
DATUM_PLANES
 70
0
 62
7
  6
CONTINUOUS
370
-3
390
F
  0
LAYER
  5
206
100
AcDbSymbolTableRecord
100
AcDbLayerTableRecord
  2
DIMENSIONS
 70
0
 62
7
  6
CONTINUOUS
370
-3
390
F
  0
LAYER
  5
207
100
AcDbSymbolTableRecord
100
AcDbLayerTableRecord
  2
PARAMETERDIMENSIONS
 70
0
 62
7
  6
CONTINUOUS
370
-3
390
F
  0
LAYER
  5
208
100
AcDbSymbolTableRecord
100
AcDbLayerTableRecord
  2
PORT_AREAS
 70
0
 62
7
  6
CONTINUOUS
370
-3
390
F
  0
LAYER
  5
209
100
AcDbSymbolTableRecord
100
AcDbLayerTableRecord
  2
SUNNBOMCOSMETIC
 70
0
 62
7
  6
CONTINUOUS
370
-3
390
F
  0
LAYER
  5
20A
100
AcDbSymbolTableRecord
100
AcDbLayerTableRecord
  2
SUNNBOMSTAMPING
 70
0
 62
7
  6
CONTINUOUS
370
-3
390
F
  0
LAYER
  5
20B
100
AcDbSymbolTableRecord
100
AcDbLayerTableRecord
  2
THREADS
 70
0
 62
7
  6
CONTINUOUS
370
-3
390
F
  0
ENDTAB
  0
TABLE
  2
STYLE
  5
3
100
AcDbSymbolTable
 70
1
  0
STYLE
  5
11
100
AcDbSymbolTableRecord
100
AcDbTextStyleTableRecord
  2
STANDARD
 70
0
 40
0.0
 41
0.8
 50
0.0
 71
0
 42
0.2
  3
txt
  4

  0
STYLE
  5
20C
100
AcDbSymbolTableRecord
100
AcDbTextStyleTableRecord
  2
TEXTSTYLE_1
 70
0
 40
0.0
 41
0.8
 50
0.0
 71
0
 42
0.2
  3
gdt
  4

  0
ENDTAB
  0
TABLE
  2
VIEW
  5
6
100
AcDbSymbolTable
 70
0
  0
ENDTAB
  0
TABLE
  2
UCS
  5
7
100
AcDbSymbolTable
 70
0
  0
ENDTAB
  0
TABLE
  2
APPID
  5
9
100
AcDbSymbolTable
 70
1
  0
APPID
  5
20D
100
AcDbSymbolTableRecord
100
AcDbRegAppTableRecord
  2
ACAD
 70
0
  0
ENDTAB
  0
TABLE
  2
BLOCK_RECORD
  5
1
100
AcDbSymbolTable
 70
0
  0
BLOCK_RECORD
  5
20E
100
AcDbSymbolTableRecord
100
AcDbBlockTableRecord
  2
*Model_Space
  0
BLOCK_RECORD
  5
20F
100
AcDbSymbolTableRecord
100
AcDbBlockTableRecord
  2
*Paper_Space
  0
BLOCK_RECORD
  5
210
100
AcDbSymbolTableRecord
100
AcDbBlockTableRecord
  2
SUN_FIRST_THIRD_ANGLE_BL0
  0
BLOCK_RECORD
  5
211
100
AcDbSymbolTableRecord
100
AcDbBlockTableRecord
  2
*T1
  0
BLOCK_RECORD
  5
212
100
AcDbSymbolTableRecord
100
AcDbBlockTableRecord
  2
*T2
  0
BLOCK_RECORD
  5
213
100
AcDbSymbolTableRecord
100
AcDbBlockTableRecord
  2
*T3
  0
ENDTAB
  0
TABLE
  2
DIMSTYLE
  5
A
100
AcDbSymbolTable
 70
1
100
AcDbDimStyleTable
 71
0
  0
DIMSTYLE
105
214
100
AcDbSymbolTableRecord
100
AcDbDimStyleTableRecord
  2
STANDARD
 70
0
  3

  4

 40
1.0
 41
0.1875
 42
0.0625
 43
0.38
 44
0.125
 45
0.0
 46
0.0
 47
0.001
 48
0.001
140
0.1
141
0.09
142
0.0
143
25.4
144
1.0
145
0.0
146
1.0
147
0.09
 71
0.0
 72
0.0
 73
1
 74
1
 75
0
 76
0
 77
0
 78
4
170
0
171
2
172
0
173
0
174
0
175
0
176
0
177
0
178
0
270
2
271
3
272
3
273
2
274
2
275
0
280
0
281
0
282
0
283
1
284
4
285
0
286
0
287
3
288
0
340
11
278
46
  0
ENDTAB
  0
ENDSEC
  0
SECTION
  2
BLOCKS
  0
BLOCK
  5
20
100
AcDbEntity
  8
0
100
AcDbBlockBegin
  2
*Model_Space
 70
0
 10
0.0
 20
0.0
 30
0.0
  3
*Model_Space
  1

  0
ENDBLK
  5
21
100
AcDbEntity
  8
0
100
AcDbBlockEnd
  0
BLOCK
  5
1C
100
AcDbEntity
  8
0
100
AcDbBlockBegin
  2
*Paper_Space
 70
0
 10
0.0
 20
0.0
 30
0.0
  3
*Paper_Space
  1

  0
ENDBLK
  5
1D
100
AcDbEntity
  8
0
100
AcDbBlockEnd
  0
BLOCK
  5
215
100
AcDbEntity
  8
0
100
AcDbBlockBegin
 62
2
  6
CONTINUOUS
  2
SUN_FIRST_THIRD_ANGLE_BL0
 70
64
 10
20.4816717061
 20
1.2289683772
  3
SUN_FIRST_THIRD_ANGLE_BL0
  1

  0
TEXT
  5
216
100
AcDbEntity
  8
0
100
AcDbText
 62
2
  6
CONTINUOUS
 10
19.4750896608
 20
1.4136269581
  7
STANDARD
 40
0.08
  1
FIRST ANGLE
 41
0.8
 72
0
100
AcDbText
  0
TEXT
  5
217
100
AcDbEntity
  8
0
100
AcDbText
 62
2
  6
CONTINUOUS
 10
20.7842537513
 20
1.4047600029
  7
STANDARD
 40
0.08
  1
THIRD ANGLE
 41
0.8
 72
0
100
AcDbText
  0
LINE
  5
218
100
AcDbEntity
  8
0
100
AcDbLine
 62
7
  6
CONTINUOUS
 10
19.4767170086
 20
1.1727031207
 11
19.6334271527
 21
1.1717972817
  0
LINE
  5
219
100
AcDbEntity
  8
0
100
AcDbLine
 62
7
  6
CONTINUOUS
 10
19.6596964832
 20
1.1717972817
 11
19.6950230232
 21
1.171593082
  0
LINE
  5
21A
100
AcDbEntity
  8
0
100
AcDbLine
 62
7
  6
CONTINUOUS
 10
19.7194818561
 20
1.1708914427
 11
19.8852396156
 21
1.1699333054
  0
LINE
  5
21B
100
AcDbEntity
  8
0
100
AcDbLine
 62
7
  6
CONTINUOUS
 10
19.4758111696
 20
1.2723454088
 11
19.88525039
 21
1.3511534004
  0
LINE
  5
21C
100
AcDbEntity
  8
0
100
AcDbLine
 62
7
  6
CONTINUOUS
 10
19.88525039
 20
1.3511534004
 11
19.8831348489
 21
0.9851647912
  0
LINE
  5
21D
100
AcDbEntity
  8
0
100
AcDbLine
 62
7
  6
CONTINUOUS
 10
19.8831348489
 20
0.9851647912
 11
19.4767170086
 21
1.0658141206
  0
LINE
  5
21E
100
AcDbEntity
  8
0
100
AcDbLine
 62
7
  6
CONTINUOUS
 10
19.4767170086
 20
1.0658141206
 11
19.4779056764
 21
1.2714536432
  0
CIRCLE
  5
21F
100
AcDbEntity
  8
0
100
AcDbCircle
 62
7
  6
CONTINUOUS
 10
20.2068232291
 20
1.1717972817
 40
0.175742101
  0
CIRCLE
  5
220
100
AcDbEntity
  8
0
100
AcDbCircle
 62
7
  6
CONTINUOUS
 10
20.2068232291
 20
1.1717972817
 40
0.1005522074
  0
LINE
  5
221
100
AcDbEntity
  8
0
100
AcDbLine
 62
7
  6
CONTINUOUS
 10
20.2077290681
 20
1.3756110529
 11
20.2071171714
 21
1.2379342989
  0
LINE
  5
222
100
AcDbEntity
  8
0
100
AcDbLine
 62
7
  6
CONTINUOUS
 10
20.2077290681
 20
1.2016899681
 11
20.2074674401
 21
1.1428236749
  0
LINE
  5
223
100
AcDbEntity
  8
0
100
AcDbLine
 62
7
  6
CONTINUOUS
 10
20.208634907
 20
1.101141841
 11
20.2080230104
 21
0.963465087
  0
LINE
  5
224
100
AcDbEntity
  8
0
100
AcDbLine
 62
7
  6
CONTINUOUS
 10
20.0066328138
 20
1.1745147986
 11
20.1443095678
 21
1.1739029019
  0
LINE
  5
225
100
AcDbEntity
  8
0
100
AcDbLine
 62
7
  6
CONTINUOUS
 10
20.1832714155
 20
1.1727031207
 11
20.238153505
 21
1.172335442
  0
LINE
  5
226
100
AcDbEntity
  8
0
100
AcDbLine
 62
7
  6
CONTINUOUS
 10
20.2756669918
 20
1.1717972817
 11
20.407916871
 21
1.1712095044
  0
CIRCLE
  5
227
100
AcDbEntity
  8
0
100
AcDbCircle
 62
7
  6
CONTINUOUS
 10
20.7509457401
 20
1.1693297793
 40
0.1722024983
  0
CIRCLE
  5
228
100
AcDbEntity
  8
0
100
AcDbCircle
 62
7
  6
CONTINUOUS
 10
20.7509457401
 20
1.1693297793
 40
0.0985164967
  0
LINE
  5
229
100
AcDbEntity
  8
0
100
AcDbLine
 62
7
  6
CONTINUOUS
 10
20.7169767782
 20
1.170462078
 11
20.7825395137
 21
1.1682766535
  0
LINE
  5
22A
100
AcDbEntity
  8
0
100
AcDbLine
 62
7
  6
CONTINUOUS
 10
20.8177513651
 20
1.1693297793
 11
20.947965719
 21
1.1693297793
  0
LINE
  5
22B
100
AcDbEntity
  8
0
100
AcDbLine
 62
7
  6
CONTINUOUS
 10
20.6875370113
 20
1.170462078
 11
20.5573226574
 21
1.170462078
  0
LINE
  5
22C
100
AcDbEntity
  8
0
100
AcDbLine
 62
7
  6
CONTINUOUS
 10
20.7486811426
 20
1.1987695462
 11
20.7486811426
 21
1.1432869085
  0
LINE
  5
22D
100
AcDbEntity
  8
0
100
AcDbLine
 62
7
  6
CONTINUOUS
 10
20.7498134414
 20
1.1059210505
 11
20.7498134414
 21
0.9757066966
  0
LINE
  5
22E
100
AcDbEntity
  8
0
100
AcDbLine
 62
7
  6
CONTINUOUS
 10
20.7486811426
 20
1.2338708068
 11
20.7486811426
 21
1.3640851607
  0
LINE
  5
22F
100
AcDbEntity
  8
0
100
AcDbLine
 62
7
  6
CONTINUOUS
 10
21.0702539817
 20
1.2701043662
 11
21.4790138229
 21
1.3448360823
  0
LINE
  5
230
100
AcDbEntity
  8
0
100
AcDbLine
 62
7
  6
CONTINUOUS
 10
21.4790138229
 20
1.3448360823
 11
21.4790138229
 21
0.9779712941
  0
LINE
  5
231
100
AcDbEntity
  8
0
100
AcDbLine
 62
7
  6
CONTINUOUS
 10
21.4790138229
 20
0.9779712941
 11
21.069121683
 21
1.0617614
  0
LINE
  5
232
100
AcDbEntity
  8
0
100
AcDbLine
 62
7
  6
CONTINUOUS
 10
21.0702539817
 20
1.2701043662
 11
21.069121683
 21
1.0617614
  0
LINE
  5
233
100
AcDbEntity
  8
0
100
AcDbLine
 62
7
  6
CONTINUOUS
 10
21.4790138229
 20
1.1693297793
 11
21.3159628059
 21
1.1693297793
  0
LINE
  5
234
100
AcDbEntity
  8
0
100
AcDbLine
 62
7
  6
CONTINUOUS
 10
21.2876553377
 20
1.1693297793
 11
21.2502894796
 21
1.1693297793
  0
LINE
  5
235
100
AcDbEntity
  8
0
100
AcDbLine
 62
7
  6
CONTINUOUS
 10
21.2208497126
 20
1.1659328831
 11
21.0713862804
 21
1.1659328831
  0
LINE
  5
236
100
AcDbEntity
  8
0
100
AcDbLine
 62
7
  6
CONTINUOUS
 10
20.4796138713
 20
1.5284908897
 11
20.4766766948
 21
0.9294458646
  0
ENDBLK
  5
237
100
AcDbEntity
  8
0
  6
BYBLOCK
 62
0
100
AcDbBlockEnd
  0
BLOCK
  5
238
100
AcDbEntity
  8
0
100
AcDbBlockBegin
  2
*T1
 70
1
 10
0.0
 20
0.0
  3
*T1
  1

  0
LINE
  5
239
100
AcDbEntity
  8
0
100
AcDbLine
 62
2
  6
CONTINUOUS
 10
9.275
 20
0.0
 11
-0.0
 21
0.0
  0
LINE
  5
23A
100
AcDbEntity
  8
0
100
AcDbLine
 62
2
  6
CONTINUOUS
 10
9.275
 20
0.0
 11
9.275
 21
1.25
  0
LINE
  5
23B
100
AcDbEntity
  8
0
100
AcDbLine
 62
2
  6
CONTINUOUS
 10
9.275
 20
0.625
 11
-0.0
 21
0.625
  0
LINE
  5
23C
100
AcDbEntity
  8
0
100
AcDbLine
 62
2
  6
CONTINUOUS
 10
9.275
 20
1.25
 11
-0.0
 21
1.25
  0
LINE
  5
23D
100
AcDbEntity
  8
0
100
AcDbLine
 62
2
  6
CONTINUOUS
 10
6.8
 20
0.0
 11
6.8
 21
1.25
  0
LINE
  5
23E
100
AcDbEntity
  8
0
100
AcDbLine
 62
2
  6
CONTINUOUS
 10
6.4
 20
0.0
 11
6.4
 21
0.625
  0
LINE
  5
23F
100
AcDbEntity
  8
0
100
AcDbLine
 62
2
  6
CONTINUOUS
 10
5.9
 20
0.0
 11
5.9
 21
0.625
  0
LINE
  5
240
100
AcDbEntity
  8
0
100
AcDbLine
 62
2
  6
CONTINUOUS
 10
5.2
 20
0.0
 11
5.2
 21
0.625
  0
LINE
  5
241
100
AcDbEntity
  8
0
100
AcDbLine
 62
2
  6
CONTINUOUS
 10
4.1
 20
0.0
 11
4.1
 21
1.25
  0
LINE
  5
242
100
AcDbEntity
  8
0
100
AcDbLine
 62
2
  6
CONTINUOUS
 10
-0.0
 20
0.0
 11
-0.0
 21
1.25
  0
MTEXT
  5
243
100
AcDbEntity
  8
0
100
AcDbMText
 62
2
  6
CONTINUOUS
  7
STANDARD
 71
2
 72
1
 10
6.6
 20
0.325
 30
0.0
 11
1.0
 21
0.0
 31
0.0
 44
0.9
  1
2
 40
0.125
 41
0.2
  0
MTEXT
  5
244
100
AcDbEntity
  8
0
100
AcDbMText
 62
2
  6
CONTINUOUS
  7
STANDARD
 71
2
 72
1
 10
6.15
 20
0.325
 30
0.0
 11
1.0
 21
0.0
 31
0.0
 44
0.9
  1
C
 40
0.125
 41
0.2
  0
MTEXT
  5
245
100
AcDbEntity
  8
0
100
AcDbMText
 62
2
  6
CONTINUOUS
  7
STANDARD
 71
2
 72
1
 10
5.55
 20
0.325
 30
0.0
 11
1.0
 21
0.0
 31
0.0
 44
0.9
  1
2.000
 40
0.125
 41
1.0
  0
MTEXT
  5
246
100
AcDbEntity
  8
0
100
AcDbMText
 62
2
  6
CONTINUOUS
  7
STANDARD
 71
2
 72
1
 10
4.65
 20
0.325
 30
0.0
 11
1.0
 21
0.0
 31
0.0
 44
0.9
  1
Sep-18-19
 40
0.125
 41
1.8
  0
MTEXT
  5
247
100
AcDbEntity
  8
0
100
AcDbMText
 62
2
  6
CONTINUOUS
  7
STANDARD
 71
2
 72
1
 10
2.05
 20
0.4625
 30
0.0
 11
1.0
 21
0.0
 31
0.0
 44
0.9
  1
T-11A Motor mount Eaton/Char-Lynn H & S\PCross pilot with shuttle
 40
0.125
 41
7.8
  0
MTEXT
  5
248
100
AcDbEntity
  8
0
100
AcDbMText
 62
2
  6
CONTINUOUS
  7
STANDARD
 71
1
 72
1
 10
6.45
 20
0.5625
 30
0.0
 11
1.0
 21
0.0
 31
0.0
 44
0.9
  1
SHEET
 40
0.06
 41
0.48
  0
MTEXT
  5
249
100
AcDbEntity
  8
0
100
AcDbMText
 62
2
  6
CONTINUOUS
  7
STANDARD
 71
1
 72
1
 10
5.95
 20
0.5625
 30
0.0
 11
1.0
 21
0.0
 31
0.0
 44
0.9
  1
DWG SIZE
 40
0.06
 41
0.768
  0
MTEXT
  5
24A
100
AcDbEntity
  8
0
100
AcDbMText
 62
2
  6
CONTINUOUS
  7
STANDARD
 71
1
 72
1
 10
5.25
 20
0.5625
 30
0.0
 11
1.0
 21
0.0
 31
0.0
 44
0.9
  1
SCALE
 40
0.06
 41
0.48
  0
MTEXT
  5
24B
100
AcDbEntity
  8
0
100
AcDbMText
 62
2
  6
CONTINUOUS
  7
STANDARD
 71
1
 72
1
 10
4.15
 20
0.5625
 30
0.0
 11
1.0
 21
0.0
 31
0.0
 44
0.9
  1
DATE
 40
0.06
 41
0.384
  0
MTEXT
  5
24C
100
AcDbEntity
  8
0
100
AcDbMText
 62
2
  6
CONTINUOUS
  7
STANDARD
 71
1
 72
1
 10
0.05
 20
0.5625
 30
0.0
 11
1.0
 21
0.0
 31
0.0
 44
0.9
  1
DESCRIPTION
 40
0.06
 41
1.056
  0
MTEXT
  5
24D
100
AcDbEntity
  8
0
100
AcDbMText
 62
2
  6
CONTINUOUS
  7
STANDARD
 71
2
 72
1
 10
5.45
 20
1.0375
 30
0.0
 11
1.0
 21
0.0
 31
0.0
 44
0.9
  1
ALL DIMENSIONS IN INCH\PVIEWS ARE THIRD ANGLE
 40
0.12
 41
4.224
  0
MTEXT
  5
24E
100
AcDbEntity
  8
0
100
AcDbMText
 62
2
  6
CONTINUOUS
  7
STANDARD
 71
2
 72
1
 10
2.05
 20
0.95
 30
0.0
 11
1.0
 21
0.0
 31
0.0
 44
0.9
  1
YVO
 40
0.125
 41
0.6
  0
MTEXT
  5
24F
100
AcDbEntity
  8
0
100
AcDbMText
 62
2
  6
CONTINUOUS
  7
STANDARD
 71
1
 72
1
 10
0.05
 20
1.1875
 30
0.0
 11
1.0
 21
0.0
 31
0.0
 44
0.9
  1
MODEL
 40
0.06
 41
0.48
  0
ENDBLK
  5
250
100
AcDbEntity
  8
0
  6
BYBLOCK
 62
0
100
AcDbBlockEnd
  0
BLOCK
  5
251
100
AcDbEntity
  8
0
100
AcDbBlockBegin
  2
*T2
 70
1
 10
0.0
 20
0.0
  3
*T2
  1

  0
LINE
  5
252
100
AcDbEntity
  8
0
100
AcDbLine
 62
2
  6
CONTINUOUS
 10
0.0
 20
0.0
 11
9.055
 21
0.0
  0
LINE
  5
253
100
AcDbEntity
  8
0
100
AcDbLine
 62
2
  6
CONTINUOUS
 10
0.0
 20
0.0
 11
0.0
 21
-2.594
  0
LINE
  5
254
100
AcDbEntity
  8
0
100
AcDbLine
 62
2
  6
CONTINUOUS
 10
0.0
 20
-0.344
 11
9.055
 21
-0.344
  0
LINE
  5
255
100
AcDbEntity
  8
0
100
AcDbLine
 62
2
  6
CONTINUOUS
 10
0.0
 20
-0.594
 11
9.055
 21
-0.594
  0
LINE
  5
256
100
AcDbEntity
  8
0
100
AcDbLine
 62
2
  6
CONTINUOUS
 10
0.0
 20
-0.844
 11
9.055
 21
-0.844
  0
LINE
  5
257
100
AcDbEntity
  8
0
100
AcDbLine
 62
2
  6
CONTINUOUS
 10
0.0
 20
-1.094
 11
9.055
 21
-1.094
  0
LINE
  5
258
100
AcDbEntity
  8
0
100
AcDbLine
 62
2
  6
CONTINUOUS
 10
0.0
 20
-1.344
 11
9.055
 21
-1.344
  0
LINE
  5
259
100
AcDbEntity
  8
0
100
AcDbLine
 62
2
  6
CONTINUOUS
 10
0.0
 20
-1.594
 11
9.055
 21
-1.594
  0
LINE
  5
25A
100
AcDbEntity
  8
0
100
AcDbLine
 62
2
  6
CONTINUOUS
 10
0.0
 20
-1.844
 11
9.055
 21
-1.844
  0
LINE
  5
25B
100
AcDbEntity
  8
0
100
AcDbLine
 62
2
  6
CONTINUOUS
 10
0.0
 20
-2.094
 11
9.055
 21
-2.094
  0
LINE
  5
25C
100
AcDbEntity
  8
0
100
AcDbLine
 62
2
  6
CONTINUOUS
 10
0.0
 20
-2.344
 11
9.055
 21
-2.344
  0
LINE
  5
25D
100
AcDbEntity
  8
0
100
AcDbLine
 62
2
  6
CONTINUOUS
 10
0.0
 20
-2.594
 11
9.055
 21
-2.594
  0
LINE
  5
25E
100
AcDbEntity
  8
0
100
AcDbLine
 62
2
  6
CONTINUOUS
 10
3.055
 20
0.0
 11
3.055
 21
-2.594
  0
LINE
  5
25F
100
AcDbEntity
  8
0
100
AcDbLine
 62
2
  6
CONTINUOUS
 10
9.055
 20
0.0
 11
9.055
 21
-2.594
  0
MTEXT
  5
260
100
AcDbEntity
  8
0
100
AcDbMText
 62
2
  6
CONTINUOUS
  7
STANDARD
 71
2
 72
1
 10
1.5275
 20
-0.0995
 30
0.0
 11
1.0
 21
0.0
 31
0.0
 44
0.9
  1
Technical Data
 40
0.145
 41
3.248
  0
MTEXT
  5
261
100
AcDbEntity
  8
0
100
AcDbMText
 62
2
  6
CONTINUOUS
  7
STANDARD
 71
2
 72
1
 10
4.555
 20
-0.0995
 30
0.0
 11
1.0
 21
0.0
 31
0.0
 44
0.9
  1
U.S. Units
 40
0.145
 41
2.32
  0
MTEXT
  5
262
100
AcDbEntity
  8
0
100
AcDbMText
 62
2
  6
CONTINUOUS
  7
STANDARD
 71
2
 72
1
 10
7.555
 20
-0.0995
 30
0.0
 11
1.0
 21
0.0
 31
0.0
 44
0.9
  1
Metric Units
 40
0.145
 41
2.784
  0
MTEXT
  5
263
100
AcDbEntity
  8
0
100
AcDbMText
 62
2
  6
CONTINUOUS
  7
STANDARD
 71
2
 72
1
 10
1.5275
 20
-0.4065
 30
0.0
 11
1.0
 21
0.0
 31
0.0
 44
0.9
  1
Cavity
 40
0.125
 41
1.2
  0
MTEXT
  5
264
100
AcDbEntity
  8
0
100
AcDbMText
 62
2
  6
CONTINUOUS
  7
STANDARD
 71
2
 72
1
 10
6.055
 20
-0.4065
 30
0.0
 11
1.0
 21
0.0
 31
0.0
 44
0.9
  1
T-11A
 40
0.125
 41
1.0
  0
MTEXT
  5
265
100
AcDbEntity
  8
0
100
AcDbMText
 62
2
  6
CONTINUOUS
  7
STANDARD
 71
2
 72
1
 10
1.5275
 20
-0.6565
 30
0.0
 11
1.0
 21
0.0
 31
0.0
 44
0.9
  1
Body Features
 40
0.125
 41
2.6
  0
MTEXT
  5
266
100
AcDbEntity
  8
0
100
AcDbMText
 62
2
  6
CONTINUOUS
  7
STANDARD
 71
2
 72
1
 10
6.055
 20
-0.6565
 30
0.0
 11
1.0
 21
0.0
 31
0.0
 44
0.9
  1
Cross pilot with shuttle
 40
0.125
 41
4.8
  0
MTEXT
  5
267
100
AcDbEntity
  8
0
100
AcDbMText
 62
2
  6
CONTINUOUS
  7
STANDARD
 71
2
 72
1
 10
1.5275
 20
-0.9065
 30
0.0
 11
1.0
 21
0.0
 31
0.0
 44
0.9
  1
Body Type
 40
0.125
 41
1.8
  0
MTEXT
  5
268
100
AcDbEntity
  8
0
100
AcDbMText
 62
2
  6
CONTINUOUS
  7
STANDARD
 71
2
 72
1
 10
6.055
 20
-0.9065
 30
0.0
 11
1.0
 21
0.0
 31
0.0
 44
0.9
  1
Motor mount
 40
0.125
 41
2.2
  0
MTEXT
  5
269
100
AcDbEntity
  8
0
100
AcDbMText
 62
2
  6
CONTINUOUS
  7
STANDARD
 71
2
 72
1
 10
1.5275
 20
-1.1565
 30
0.0
 11
1.0
 21
0.0
 31
0.0
 44
0.9
  1
Interface
 40
0.125
 41
1.8
  0
MTEXT
  5
26A
100
AcDbEntity
  8
0
100
AcDbMText
 62
2
  6
CONTINUOUS
  7
STANDARD
 71
2
 72
1
 10
6.055
 20
-1.1565
 30
0.0
 11
1.0
 21
0.0
 31
0.0
 44
0.9
  1
Eaton/Char-Lynn H & S
 40
0.125
 41
4.2
  0
MTEXT
  5
26B
100
AcDbEntity
  8
0
100
AcDbMText
 62
2
  6
CONTINUOUS
  7
STANDARD
 71
2
 72
1
 10
1.5275
 20
-1.4065
 30
0.0
 11
1.0
 21
0.0
 31
0.0
 44
0.9
  1
Open Cavity Quantity
 40
0.125
 41
4.0
  0
MTEXT
  5
26C
100
AcDbEntity
  8
0
100
AcDbMText
 62
2
  6
CONTINUOUS
  7
STANDARD
 71
2
 72
1
 10
6.055
 20
-1.4065
 30
0.0
 11
1.0
 21
0.0
 31
0.0
 44
0.9
  1
2
 40
0.125
 41
0.2
  0
MTEXT
  5
26D
100
AcDbEntity
  8
0
100
AcDbMText
 62
2
  6
CONTINUOUS
  7
STANDARD
 71
2
 72
1
 10
1.5275
 20
-1.6565
 30
0.0
 11
1.0
 21
0.0
 31
0.0
 44
0.9
  1
Weight
 40
0.125
 41
1.2
  0
MTEXT
  5
26E
100
AcDbEntity
  8
0
100
AcDbMText
 62
2
  6
CONTINUOUS
  7
STANDARD
 71
2
 72
1
 10
4.555
 20
-1.6565
 30
0.0
 11
1.0
 21
0.0
 31
0.0
 44
0.9
  1
1.663 lb.
 40
0.125
 41
1.8
  0
MTEXT
  5
26F
100
AcDbEntity
  8
0
100
AcDbMText
 62
2
  6
CONTINUOUS
  7
STANDARD
 71
2
 72
1
 10
7.555
 20
-1.6565
 30
0.0
 11
1.0
 21
0.0
 31
0.0
 44
0.9
  1
0,754 kg.
 40
0.125
 41
1.8
  0
MTEXT
  5
270
100
AcDbEntity
  8
0
100
AcDbMText
 62
2
  6
CONTINUOUS
  7
STANDARD
 71
2
 72
1
 10
1.5275
 20
-1.9065
 30
0.0
 11
1.0
 21
0.0
 31
0.0
 44
0.9
  1
Mounting Hole Diameter
 40
0.125
 41
4.4
  0
MTEXT
  5
271
100
AcDbEntity
  8
0
100
AcDbMText
 62
2
  6
CONTINUOUS
  7
STANDARD
 71
2
 72
1
 10
4.555
 20
-1.9065
 30
0.0
 11
1.0
 21
0.0
 31
0.0
 44
0.9
  1
.34 in.
 40
0.125
 41
1.4
  0
MTEXT
  5
272
100
AcDbEntity
  8
0
100
AcDbMText
 62
2
  6
CONTINUOUS
  7
STANDARD
 71
2
 72
1
 10
7.555
 20
-1.9065
 30
0.0
 11
1.0
 21
0.0
 31
0.0
 44
0.9
  1
8.6 mm
 40
0.125
 41
1.2
  0
MTEXT
  5
273
100
AcDbEntity
  8
0
100
AcDbMText
 62
2
  6
CONTINUOUS
  7
STANDARD
 71
2
 72
1
 10
1.5275
 20
-2.1565
 30
0.0
 11
1.0
 21
0.0
 31
0.0
 44
0.9
  1
Mounting Hole Depth
 40
0.125
 41
3.8
  0
MTEXT
  5
274
100
AcDbEntity
  8
0
100
AcDbMText
 62
2
  6
CONTINUOUS
  7
STANDARD
 71
2
 72
1
 10
6.055
 20
-2.1565
 30
0.0
 11
1.0
 21
0.0
 31
0.0
 44
0.9
  1
Through
 40
0.125
 41
1.4
  0
MTEXT
  5
275
100
AcDbEntity
  8
0
100
AcDbMText
 62
2
  6
CONTINUOUS
  7
STANDARD
 71
2
 72
1
 10
1.5275
 20
-2.4065
 30
0.0
 11
1.0
 21
0.0
 31
0.0
 44
0.9
  1
Mounting Hole Quantity
 40
0.125
 41
4.4
  0
MTEXT
  5
276
100
AcDbEntity
  8
0
100
AcDbMText
 62
2
  6
CONTINUOUS
  7
STANDARD
 71
2
 72
1
 10
6.055
 20
-2.4065
 30
0.0
 11
1.0
 21
0.0
 31
0.0
 44
0.9
  1
4
 40
0.125
 41
0.2
  0
ENDBLK
  5
277
100
AcDbEntity
  8
0
  6
BYBLOCK
 62
0
100
AcDbBlockEnd
  0
BLOCK
  5
278
100
AcDbEntity
  8
0
100
AcDbBlockBegin
  2
*T3
 70
1
 10
0.0
 20
0.0
  3
*T3
  1

  0
LINE
  5
279
100
AcDbEntity
  8
0
100
AcDbLine
 62
2
  6
CONTINUOUS
 10
0.0
 20
0.0
 11
4.6
 21
0.0
  0
LINE
  5
27A
100
AcDbEntity
  8
0
100
AcDbLine
 62
2
  6
CONTINUOUS
 10
0.0
 20
0.0
 11
0.0
 21
-1.18775
  0
LINE
  5
27B
100
AcDbEntity
  8
0
100
AcDbLine
 62
2
  6
CONTINUOUS
 10
0.0
 20
-0.34375
 11
4.6
 21
-0.34375
  0
LINE
  5
27C
100
AcDbEntity
  8
0
100
AcDbLine
 62
2
  6
CONTINUOUS
 10
0.0
 20
-0.68775
 11
4.6
 21
-0.68775
  0
LINE
  5
27D
100
AcDbEntity
  8
0
100
AcDbLine
 62
2
  6
CONTINUOUS
 10
0.0
 20
-0.93775
 11
4.6
 21
-0.93775
  0
LINE
  5
27E
100
AcDbEntity
  8
0
100
AcDbLine
 62
2
  6
CONTINUOUS
 10
0.0
 20
-1.18775
 11
4.6
 21
-1.18775
  0
LINE
  5
27F
100
AcDbEntity
  8
0
100
AcDbLine
 62
2
  6
CONTINUOUS
 10
1.3
 20
-0.34375
 11
1.3
 21
-1.18775
  0
LINE
  5
280
100
AcDbEntity
  8
0
100
AcDbLine
 62
2
  6
CONTINUOUS
 10
3.3
 20
-0.34375
 11
3.3
 21
-1.18775
  0
LINE
  5
281
100
AcDbEntity
  8
0
100
AcDbLine
 62
2
  6
CONTINUOUS
 10
4.6
 20
0.0
 11
4.6
 21
-1.18775
  0
MTEXT
  5
282
100
AcDbEntity
  8
0
100
AcDbMText
 62
2
  6
CONTINUOUS
  7
STANDARD
 71
2
 72
1
 10
2.3
 20
-0.099375
 30
0.0
 11
1.0
 21
0.0
 31
0.0
 44
0.9
  1
Port Headings
 40
0.145
 41
3.016
  0
MTEXT
  5
283
100
AcDbEntity
  8
0
100
AcDbMText
 62
2
  6
CONTINUOUS
  7
STANDARD
 71
2
 72
1
 10
0.65
 20
-0.44325
 30
0.0
 11
1.0
 21
0.0
 31
0.0
 44
0.9
  1
Product
 40
0.145
 41
1.624
  0
MTEXT
  5
284
100
AcDbEntity
  8
0
100
AcDbMText
 62
2
  6
CONTINUOUS
  7
STANDARD
 71
2
 72
1
 10
2.3
 20
-0.44325
 30
0.0
 11
1.0
 21
0.0
 31
0.0
 44
0.9
  1
Port
 40
0.145
 41
0.928
  0
MTEXT
  5
285
100
AcDbEntity
  8
0
100
AcDbMText
 62
2
  6
CONTINUOUS
  7
STANDARD
 71
2
 72
1
 10
3.95
 20
-0.44325
 30
0.0
 11
1.0
 21
0.0
 31
0.0
 44
0.9
  1
Size
 40
0.145
 41
0.928
  0
MTEXT
  5
286
100
AcDbEntity
  8
0
100
AcDbMText
 62
2
  6
CONTINUOUS
  7
STANDARD
 71
2
 72
1
 10
0.65
 20
-0.75025
 30
0.0
 11
1.0
 21
0.0
 31
0.0
 44
0.9
  1
YVO
 40
0.125
 41
0.6
  0
MTEXT
  5
287
100
AcDbEntity
  8
0
100
AcDbMText
 62
2
  6
CONTINUOUS
  7
STANDARD
 71
2
 72
1
 10
2.3
 20
-0.75025
 30
0.0
 11
1.0
 21
0.0
 31
0.0
 44
0.9
  1
Ports VA & VB
 40
0.125
 41
2.6
  0
MTEXT
  5
288
100
AcDbEntity
  8
0
100
AcDbMText
 62
2
  6
CONTINUOUS
  7
STANDARD
 71
2
 72
1
 10
3.95
 20
-0.75025
 30
0.0
 11
1.0
 21
0.0
 31
0.0
 44
0.9
  1
1/2" NPTF
 40
0.125
 41
1.8
  0
MTEXT
  5
289
100
AcDbEntity
  8
0
100
AcDbMText
 62
2
  6
CONTINUOUS
  7
STANDARD
 71
2
 72
1
 10
0.65
 20
-1.00025
 30
0.0
 11
1.0
 21
0.0
 31
0.0
 44
0.9
  1
YVO
 40
0.125
 41
0.6
  0
MTEXT
  5
28A
100
AcDbEntity
  8
0
100
AcDbMText
 62
2
  6
CONTINUOUS
  7
STANDARD
 71
2
 72
1
 10
2.3
 20
-1.00025
 30
0.0
 11
1.0
 21
0.0
 31
0.0
 44
0.9
  1
Port S
 40
0.125
 41
1.2
  0
MTEXT
  5
28B
100
AcDbEntity
  8
0
100
AcDbMText
 62
2
  6
CONTINUOUS
  7
STANDARD
 71
2
 72
1
 10
3.95
 20
-1.00025
 30
0.0
 11
1.0
 21
0.0
 31
0.0
 44
0.9
  1
1/4" NPTF
 40
0.125
 41
1.8
  0
ENDBLK
  5
28C
100
AcDbEntity
  8
0
  6
BYBLOCK
 62
0
100
AcDbBlockEnd
  0
ENDSEC
  0
SECTION
  2
ENTITIES
  0
IMAGE
  5
28D
100
AcDbEntity
  8
0
100
AcDbRasterImage
 62
7
  6
CONTINUOUS
 10
19.2297077316
 20
0.3094318264
 30
0.0
 11
0.0066666667
 21
0.0
 31
0.0
 12
0.0
 22
0.0066666667
 32
0.0
 13
369.0
 23
92.0
340
       32E
 70
9
280
0
281
50
282
50
283
0
360
       328
 71
1
 91
2
 14
-0.5
 24
-0.5
 14
368.5
 24
91.5
  0
INSERT
  5
28E
100
AcDbEntity
  8
0
100
AcDbBlockReference
 62
2
  6
CONTINUOUS
  2
SUN_FIRST_THIRD_ANGLE_BL0
 10
20.4816717061
 20
1.2289683772
  0
ACAD_TABLE
  5
28F
100
AcDbEntity
  8
0
 62
2
  6
CONTINUOUS
100
AcDbBlockReference
  2
*T1
 10
12.42375
 20
0.30125
 30
0.0
100
AcDbTable
342
       330
343
211
 11
1.0
 21
0.0
 31
0.0
 90
6
 91
4
 92
6
 93
20
 94
0
 95
0
 96
0
 70
1
 41
0.0
141
0.525
141
0.1
141
0.525
141
0.1
142
4.1
142
1.1
142
0.7
142
0.5
142
0.4
142
2.475
171
1
172
0
173
0
174
0
175
1
176
1
 91
33
178
0
145
0.0
301
CELL_VALUE
 90
4
  1
T-11A Motor mount Eaton/Char-Lynn H & S\PCross pilot with shuttle
304
ACVALUE_END
170
2
140
0.125
171
1
172
0
173
0
174
0
175
1
176
1
 91
33
178
0
145
0.0
301
CELL_VALUE
 90
4
  1
Sep-18-19
304
ACVALUE_END
170
5
140
0.125
171
1
172
0
173
0
174
0
175
1
176
1
 91
33
178
0
145
0.0
301
CELL_VALUE
 90
4
  1
2.000
304
ACVALUE_END
170
5
140
0.125
171
1
172
0
173
0
174
0
175
1
176
1
 91
33
178
0
145
0.0
301
CELL_VALUE
 90
4
  1
C
304
ACVALUE_END
170
5
140
0.125
171
1
172
0
173
0
174
0
175
1
176
1
 91
33
178
0
145
0.0
301
CELL_VALUE
 90
4
  1
2
304
ACVALUE_END
170
5
140
0.125
171
1
172
0
173
0
174
0
175
1
176
1
 91
33
178
0
145
0.0
301
CELL_VALUE
 90
4
  1
 
304
ACVALUE_END
170
1
140
0.125
171
1
172
0
173
0
174
0
175
1
176
1
 91
33
178
0
145
0.0
301
CELL_VALUE
 90
4
  1
DESCRIPTION
304
ACVALUE_END
170
1
140
0.06
171
1
172
0
173
0
174
0
175
1
176
1
 91
33
178
0
145
0.0
301
CELL_VALUE
 90
4
  1
DATE
304
ACVALUE_END
170
1
140
0.06
171
1
172
0
173
0
174
0
175
1
176
1
 91
33
178
0
145
0.0
301
CELL_VALUE
 90
4
  1
SCALE
304
ACVALUE_END
170
1
140
0.06
171
1
172
0
173
0
174
0
175
1
176
1
 91
33
178
0
145
0.0
301
CELL_VALUE
 90
4
  1
DWG SIZE
304
ACVALUE_END
170
1
140
0.06
171
1
172
0
173
0
174
0
175
1
176
1
 91
33
178
0
145
0.0
301
CELL_VALUE
 90
4
  1
SHEET
304
ACVALUE_END
170
1
140
0.06
171
1
172
0
173
0
174
0
175
1
176
1
 91
33
178
0
145
0.0
301
CELL_VALUE
 90
4
  1
 
304
ACVALUE_END
170
1
140
0.125
171
1
172
0
173
0
174
0
175
1
176
1
 91
33
178
0
145
0.0
301
CELL_VALUE
 90
4
  1
YVO
304
ACVALUE_END
170
5
140
0.125
171
1
172
0
173
0
174
0
175
4
176
1
 91
33
178
0
145
0.0
301
CELL_VALUE
 90
4
  1
ALL DIMENSIONS IN INCH\PVIEWS ARE THIRD ANGLE
304
ACVALUE_END
170
5
140
0.12
171
1
172
0
173
1
174
0
175
1
176
1
 91
1
178
0
145
0.0
170
1
171
1
172
0
173
1
174
0
175
1
176
1
 91
1
178
0
145
0.0
170
1
171
1
172
0
173
1
174
0
175
1
176
1
 91
1
178
0
145
0.0
170
5
171
1
172
0
173
0
174
0
175
1
176
1
 91
33
178
0
145
0.0
301
CELL_VALUE
 90
4
  1
 
304
ACVALUE_END
170
1
140
0.125
171
1
172
0
173
0
174
0
175
1
176
1
 91
33
178
0
145
0.0
301
CELL_VALUE
 90
4
  1
MODEL
304
ACVALUE_END
170
1
140
0.06
171
1
172
0
173
0
174
0
175
1
176
1
 91
33
178
0
145
0.0
301
CELL_VALUE
 90
4
  1
 
304
ACVALUE_END
170
1
140
0.125
171
1
172
0
173
0
174
0
175
1
176
1
 91
33
178
0
145
0.0
301
CELL_VALUE
 90
4
  1
 
304
ACVALUE_END
170
1
140
0.125
171
1
172
0
173
0
174
0
175
1
176
1
 91
33
178
0
145
0.0
301
CELL_VALUE
 90
4
  1
 
304
ACVALUE_END
170
1
140
0.125
171
1
172
0
173
0
174
0
175
1
176
1
 91
33
178
0
145
0.0
301
CELL_VALUE
 90
4
  1
 
304
ACVALUE_END
170
1
140
0.125
171
1
172
0
173
0
174
0
175
1
176
1
 91
33
178
0
145
0.0
301
CELL_VALUE
 90
4
  1
 
304
ACVALUE_END
170
1
140
0.125
  0
ACAD_TABLE
  5
290
100
AcDbEntity
  8
0
 62
2
  6
CONTINUOUS
100
AcDbBlockReference
  2
*T2
 10
12.4237499994
 20
16.47875
 30
0.0
100
AcDbTable
342
       32F
343
212
 11
1.0
 21
0.0
 31
0.0
 90
22
 91
10
 92
3
 93
16
 94
0
 95
0
 96
0
 41
0.028
141
0.344
141
0.25
141
0.25
141
0.25
141
0.25
141
0.25
141
0.25
141
0.25
141
0.25
141
0.25
142
3.055
142
3.0
142
3.0
171
1
172
0
173
0
174
0
175
1
176
1
 91
33
178
0
145
0.0
301
CELL_VALUE
 90
4
  1
Technical Data
304
ACVALUE_END
170
5
140
0.145
171
1
172
0
173
0
174
0
175
1
176
1
 91
33
178
0
145
0.0
301
CELL_VALUE
 90
4
  1
U.S. Units
304
ACVALUE_END
170
5
140
0.145
171
1
172
0
173
0
174
0
175
1
176
1
 91
33
178
0
145
0.0
301
CELL_VALUE
 90
4
  1
Metric Units
304
ACVALUE_END
170
5
140
0.145
171
1
172
0
173
0
174
0
175
1
176
1
 91
33
178
0
145
0.0
301
CELL_VALUE
 90
4
  1
Cavity
304
ACVALUE_END
170
5
140
0.125
171
1
172
0
173
0
174
0
175
2
176
1
 91
33
178
0
145
0.0
301
CELL_VALUE
 90
4
  1
T-11A
304
ACVALUE_END
170
5
140
0.125
171
1
172
0
173
1
174
0
175
1
176
1
 91
1
178
0
145
0.0
170
1
171
1
172
0
173
0
174
0
175
1
176
1
 91
33
178
0
145
0.0
301
CELL_VALUE
 90
4
  1
Body Features
304
ACVALUE_END
170
5
140
0.125
171
1
172
0
173
0
174
0
175
2
176
1
 91
33
178
0
145
0.0
301
CELL_VALUE
 90
4
  1
Cross pilot with shuttle
304
ACVALUE_END
170
5
140
0.125
171
1
172
0
173
1
174
0
175
1
176
1
 91
1
178
0
145
0.0
170
1
171
1
172
0
173
0
174
0
175
1
176
1
 91
33
178
0
145
0.0
301
CELL_VALUE
 90
4
  1
Body Type
304
ACVALUE_END
170
5
140
0.125
171
1
172
0
173
0
174
0
175
2
176
1
 91
33
178
0
145
0.0
301
CELL_VALUE
 90
4
  1
Motor mount
304
ACVALUE_END
170
5
140
0.125
171
1
172
0
173
1
174
0
175
1
176
1
 91
1
178
0
145
0.0
170
1
171
1
172
0
173
0
174
0
175
1
176
1
 91
33
178
0
145
0.0
301
CELL_VALUE
 90
4
  1
Interface
304
ACVALUE_END
170
5
140
0.125
171
1
172
0
173
0
174
0
175
2
176
1
 91
33
178
0
145
0.0
301
CELL_VALUE
 90
4
  1
Eaton/Char-Lynn H & S
304
ACVALUE_END
170
5
140
0.125
171
1
172
0
173
1
174
0
175
1
176
1
 91
1
178
0
145
0.0
170
1
171
1
172
0
173
0
174
0
175
1
176
1
 91
33
178
0
145
0.0
301
CELL_VALUE
 90
4
  1
Open Cavity Quantity
304
ACVALUE_END
170
5
140
0.125
171
1
172
0
173
0
174
0
175
2
176
1
 91
33
178
0
145
0.0
301
CELL_VALUE
 90
4
  1
2
304
ACVALUE_END
170
5
140
0.125
171
1
172
0
173
1
174
0
175
1
176
1
 91
1
178
0
145
0.0
170
1
171
1
172
0
173
0
174
0
175
1
176
1
 91
33
178
0
145
0.0
301
CELL_VALUE
 90
4
  1
Weight
304
ACVALUE_END
170
5
140
0.125
171
1
172
0
173
0
174
0
175
1
176
1
 91
33
178
0
145
0.0
301
CELL_VALUE
 90
4
  1
1.663 lb.
304
ACVALUE_END
170
5
140
0.125
171
1
172
0
173
0
174
0
175
1
176
1
 91
33
178
0
145
0.0
301
CELL_VALUE
 90
4
  1
0,754 kg.
304
ACVALUE_END
170
5
140
0.125
171
1
172
0
173
0
174
0
175
1
176
1
 91
33
178
0
145
0.0
301
CELL_VALUE
 90
4
  1
Mounting Hole Diameter
304
ACVALUE_END
170
5
140
0.125
171
1
172
0
173
0
174
0
175
1
176
1
 91
33
178
0
145
0.0
301
CELL_VALUE
 90
4
  1
.34 in.
304
ACVALUE_END
170
5
140
0.125
171
1
172
0
173
0
174
0
175
1
176
1
 91
33
178
0
145
0.0
301
CELL_VALUE
 90
4
  1
8.6 mm
304
ACVALUE_END
170
5
140
0.125
171
1
172
0
173
0
174
0
175
1
176
1
 91
33
178
0
145
0.0
301
CELL_VALUE
 90
4
  1
Mounting Hole Depth
304
ACVALUE_END
170
5
140
0.125
171
1
172
0
173
0
174
0
175
2
176
1
 91
33
178
0
145
0.0
301
CELL_VALUE
 90
4
  1
Through
304
ACVALUE_END
170
5
140
0.125
171
1
172
0
173
1
174
0
175
1
176
1
 91
1
178
0
145
0.0
170
1
171
1
172
0
173
0
174
0
175
1
176
1
 91
33
178
0
145
0.0
301
CELL_VALUE
 90
4
  1
Mounting Hole Quantity
304
ACVALUE_END
170
5
140
0.125
171
1
172
0
173
0
174
0
175
2
176
1
 91
33
178
0
145
0.0
301
CELL_VALUE
 90
4
  1
4
304
ACVALUE_END
170
5
140
0.125
171
1
172
0
173
1
174
0
175
1
176
1
 91
1
178
0
145
0.0
170
1
  0
ACAD_TABLE
  5
291
100
AcDbEntity
  8
0
 62
2
  6
CONTINUOUS
100
AcDbBlockReference
  2
*T3
 10
0.52125
 20
1.709
 30
0.0
100
AcDbTable
342
       32F
343
213
 11
1.0
 21
0.0
 31
0.0
 90
22
 91
4
 92
3
 93
16
 94
0
 95
0
 96
0
 41
0.05
141
0.34375
141
0.344
141
0.25
141
0.25
142
1.3
142
2.0
142
1.3
171
1
172
0
173
0
174
0
175
3
176
1
 91
33
178
0
145
0.0
301
CELL_VALUE
 90
4
  1
Port Headings
304
ACVALUE_END
170
5
140
0.145
171
1
172
0
173
1
174
0
175
1
176
1
 91
1
178
0
145
0.0
170
1
171
1
172
0
173
1
174
0
175
1
176
1
 91
1
178
0
145
0.0
170
1
171
1
172
0
173
0
174
0
175
1
176
1
 91
33
178
0
145
0.0
301
CELL_VALUE
 90
4
  1
Product
304
ACVALUE_END
170
5
140
0.145
171
1
172
0
173
0
174
0
175
1
176
1
 91
33
178
0
145
0.0
301
CELL_VALUE
 90
4
  1
Port
304
ACVALUE_END
170
5
140
0.145
171
1
172
0
173
0
174
0
175
1
176
1
 91
33
178
0
145
0.0
301
CELL_VALUE
 90
4
  1
Size
304
ACVALUE_END
170
5
140
0.145
171
1
172
0
173
0
174
0
175
1
176
1
 91
33
178
0
145
0.0
301
CELL_VALUE
 90
4
  1
YVO
304
ACVALUE_END
170
5
140
0.125
171
1
172
0
173
0
174
0
175
1
176
1
 91
33
178
0
145
0.0
301
CELL_VALUE
 90
4
  1
Ports VA & VB
304
ACVALUE_END
170
5
140
0.125
171
1
172
0
173
0
174
0
175
1
176
1
 91
33
178
0
145
0.0
301
CELL_VALUE
 90
4
  1
1/2" NPTF
304
ACVALUE_END
170
5
140
0.125
171
1
172
0
173
0
174
0
175
1
176
1
 91
33
178
0
145
0.0
301
CELL_VALUE
 90
4
  1
YVO
304
ACVALUE_END
170
5
140
0.125
171
1
172
0
173
0
174
0
175
1
176
1
 91
33
178
0
145
0.0
301
CELL_VALUE
 90
4
  1
Port S
304
ACVALUE_END
170
5
140
0.125
171
1
172
0
173
0
174
0
175
1
176
1
 91
33
178
0
145
0.0
301
CELL_VALUE
 90
4
  1
1/4" NPTF
304
ACVALUE_END
170
5
140
0.125
  0
MTEXT
  5
292
100
AcDbEntity
  8
0
100
AcDbMText
 62
2
  6
CONTINUOUS
  7
STANDARD
 71
1
 72
1
 10
0.52125
 20
5.75995
 30
0.0
 11
1.0
 21
0.0
 31
0.0
 44
0.6
  3
Notes\P \P1. A riser gage port adapter is\P   required for this product when used\P   with the Char-Lynn "S" series\P   motors. For details on gage port\P   adapters, see Sun models ZVQ (NPT),\P   WPA (SAE), and WPB (BSPP).\P2. Important: Carefully c
  3
onsider\P   the maximum system pressure. The\P   pressure rating of the manifold is\P   dependent on the manifold material,\P   with the port type/size a secondary\P   consideration. Manifolds\P   constructed of aluminum are not\P   rated for pressur
  1
es higher than\P   3000 psi (210 bar), regardless of\P   the port type/size specified.
 40
0.1
 41
3.04
  0
LINE
  5
293
100
AcDbEntity
  8
0
100
AcDbLine
 62
7
  6
CONTINUOUS
 10
0.30125
 20
0.30125
 11
0.30125
 21
16.69875
  0
LINE
  5
294
100
AcDbEntity
  8
0
100
AcDbLine
 62
7
  6
CONTINUOUS
 10
0.30125
 20
0.30125
 11
21.69875
 21
0.30125
  0
LINE
  5
295
100
AcDbEntity
  8
0
100
AcDbLine
 62
7
  6
CONTINUOUS
 10
0.30125
 20
16.69875
 11
21.69875
 21
16.69875
  0
LINE
  5
296
100
AcDbEntity
  8
0
100
AcDbLine
 62
7
  6
CONTINUOUS
 10
21.69875
 20
0.30125
 11
21.69875
 21
16.69875
  0
LINE
  5
297
100
AcDbEntity
  8
0
100
AcDbLine
 62
7
  6
CONTINUOUS
 10
7.1476985082
 20
9.6509266052
 11
7.1476985082
 21
5.9069979507
  0
LINE
  5
298
100
AcDbEntity
  8
0
100
AcDbLine
 62
7
  6
CONTINUOUS
 10
9.0567461906
 20
11.4949251746
 11
7.1476985082
 21
9.6509266052
  0
LINE
  5
299
100
AcDbEntity
  8
0
100
AcDbLine
 62
4
  6
CONTINUOUS
 10
9.4998830451
 20
10.997962334
 11
9.4843539165
 21
10.9829623467
  0
LINE
  5
29A
100
AcDbEntity
  8
0
100
AcDbLine
 62
4
  6
CONTINUOUS
 10
9.483313673
 20
10.966957549
 11
9.4677845435
 21
10.9519575608
  0
LINE
  5
29B
100
AcDbEntity
  8
0
100
AcDbLine
 62
4
  6
CONTINUOUS
 10
9.5785192716
 20
10.9389191036
 11
9.6406357898
 21
10.9989190563
  0
LINE
  5
29C
100
AcDbEntity
  8
0
100
AcDbLine
 62
4
  6
CONTINUOUS
 10
9.6654525992
 20
10.9328902569
 11
9.7275691174
 21
10.9928902096
  0
LINE
  5
29D
100
AcDbEntity
  8
0
100
AcDbLine
 62
4
  6
CONTINUOUS
 10
9.8724579967
 20
10.9828421317
 11
9.8103414785
 21
10.922842179
  0
LINE
  5
29E
100
AcDbEntity
  8
0
100
AcDbLine
 62
4
  6
CONTINUOUS
 10
9.7896608037
 20
10.9778661782
 11
9.6654525992
 21
10.9328902569
  0
LINE
  5
29F
100
AcDbEntity
  8
0
100
AcDbLine
 62
7
  6
CONTINUOUS
 10
7.1476985082
 20
5.9069979507
 11
12.9432538094
 21
5.5050748254
  0
LINE
  5
2A0
100
AcDbEntity
  8
0
100
AcDbLine
 62
4
  6
CONTINUOUS
 10
13.1372872625
 20
10.7564254531
 11
13.0027263046
 21
10.7014495393
  0
LINE
  5
2A1
100
AcDbEntity
  8
0
100
AcDbLine
 62
4
  6
CONTINUOUS
 10
13.2863122763
 20
10.735372575
 11
13.1621040719
 21
10.6903966536
  0
LINE
  5
2A2
100
AcDbEntity
  8
0
100
AcDbLine
 62
7
  6
CONTINUOUS
 10
14.3428009463
 20
7.4725385237
 11
14.3015441847
 21
7.4753996898
  0
LINE
  5
2A3
100
AcDbEntity
  8
0
100
AcDbLine
 62
7
  6
CONTINUOUS
 10
14.4389028762
 20
7.8777156793
 11
14.3629885631
 21
7.8829803548
  0
LINE
  5
2A4
100
AcDbEntity
  8
0
100
AcDbLine
 62
4
  6
CONTINUOUS
 10
13.1621040719
 20
10.6903966536
 11
13.22422059
 21
10.7503966063
  0
LINE
  5
2A5
100
AcDbEntity
  8
0
100
AcDbLine
 62
4
  6
CONTINUOUS
 10
13.3691094693
 20
10.7403485284
 11
13.3069929511
 21
10.6803485757
  0
LINE
  5
2A6
100
AcDbEntity
  8
0
100
AcDbLine
 62
7
  6
CONTINUOUS
 10
14.4669955511
 20
8.0864451873
 11
14.3640792277
 21
8.0935824585
  0
LINE
  5
2A7
100
AcDbEntity
  8
0
100
AcDbLine
 62
4
  6
CONTINUOUS
 10
9.8103414785
 20
10.922842179
 11
9.7896608037
 21
10.9778661782
  0
LINE
  5
2A8
100
AcDbEntity
  8
0
100
AcDbLine
 62
7
  6
CONTINUOUS
 10
14.4207022049
 20
8.5958405284
 11
14.3794655023
 21
8.5987003035
  0
LINE
  5
2A9
100
AcDbEntity
  8
0
100
AcDbLine
 62
7
  6
CONTINUOUS
 10
14.8523014918
 20
11.0930020493
 11
12.9432538094
 21
9.24900348
  0
LINE
  5
2AA
100
AcDbEntity
  8
0
100
AcDbLine
 62
7
  6
CONTINUOUS
 10
12.9432538094
 20
9.24900348
 11
7.1476985082
 21
9.6509266052
  0
LINE
  5
2AB
100
AcDbEntity
  8
0
100
AcDbLine
 62
4
  6
CONTINUOUS
 10
9.4677845435
 20
10.9519575608
 11
9.4770970561
 21
10.9459527582
  0
LINE
  5
2AC
100
AcDbEntity
  8
0
100
AcDbLine
 62
4
  6
CONTINUOUS
 10
9.4843539165
 20
10.9829623467
 11
9.5029789399
 21
10.9709527396
  0
LINE
  5
2AD
100
AcDbEntity
  8
0
100
AcDbLine
 62
7
  6
CONTINUOUS
 10
12.9432538094
 20
5.5050748254
 11
12.9432538094
 21
9.24900348
  0
LINE
  5
2AE
100
AcDbEntity
  8
0
100
AcDbLine
 62
7
  6
CONTINUOUS
 10
14.4132012123
 20
8.2440934132
 11
14.4126612038
 21
8.2435837045
  0
LINE
  5
2AF
100
AcDbEntity
  8
0
100
AcDbLine
 62
4
  6
CONTINUOUS
 10
9.4770970561
 20
10.9459527582
 11
9.5785192716
 21
10.9389191036
  0
LINE
  5
2B0
100
AcDbEntity
  8
0
100
AcDbLine
 62
4
  6
CONTINUOUS
 10
9.6044011554
 20
10.9639190851
 11
9.5029789399
 21
10.9709527396
  0
LINE
  5
2B1
100
AcDbEntity
  8
0
100
AcDbLine
 62
4
  6
CONTINUOUS
 10
13.0876039799
 20
10.7384350838
 11
13.0006706524
 21
10.7444639306
  0
LINE
  5
2B2
100
AcDbEntity
  8
0
100
AcDbLine
 62
4
  6
CONTINUOUS
 10
9.6406357898
 20
10.9989190563
 11
9.5392135743
 21
11.0059527109
  0
LINE
  5
2B3
100
AcDbEntity
  8
0
100
AcDbLine
 62
4
  6
CONTINUOUS
 10
13.0027263046
 20
10.7014495393
 11
12.9923983832
 21
10.766473531
  0
LINE
  5
2B4
100
AcDbEntity
  8
0
100
AcDbLine
 62
4
  6
CONTINUOUS
 10
9.5029789399
 20
10.9709527396
 11
9.483313673
 21
10.966957549
  0
LINE
  5
2B5
100
AcDbEntity
  8
0
100
AcDbLine
 62
4
  6
CONTINUOUS
 10
9.5392135743
 20
11.0059527109
 11
9.4998830451
 21
10.997962334
  0
LINE
  5
2B6
100
AcDbEntity
  8
0
100
AcDbLine
 62
7
  6
CONTINUOUS
 10
14.8523014918
 20
11.0930020493
 11
9.0567461906
 21
11.4949251746
  0
LINE
  5
2B7
100
AcDbEntity
  8
0
100
AcDbLine
 62
7
  6
CONTINUOUS
 10
14.4823459882
 20
8.5414401796
 11
14.4556358196
 21
8.5742817278
  0
LINE
  5
2B8
100
AcDbEntity
  8
0
100
AcDbLine
 62
4
  6
CONTINUOUS
 10
13.3069929511
 20
10.6803485757
 11
13.2863122763
 21
10.735372575
  0
LINE
  5
2B9
100
AcDbEntity
  8
0
100
AcDbLine
 62
7
  6
CONTINUOUS
 10
14.4126612038
 20
7.5191392919
 11
14.4113551493
 21
7.5179043336
  0
LINE
  5
2BA
100
AcDbEntity
  8
0
100
AcDbLine
 62
7
  6
CONTINUOUS
 10
14.4113638603
 20
7.5179090074
 11
14.3803760494
 21
7.4890688277
  0
LINE
  5
2BB
100
AcDbEntity
  8
0
100
AcDbLine
 62
7
  6
CONTINUOUS
 10
14.8523014918
 20
7.3490733948
 11
12.9432538094
 21
5.5050748254
  0
LINE
  5
2BC
100
AcDbEntity
  8
0
100
AcDbLine
 62
7
  6
CONTINUOUS
 10
14.8523014918
 20
7.3490733948
 11
14.8523014918
 21
11.0930020493
  0
ARC
  5
2BD
100
AcDbEntity
  8
0
100
AcDbCircle
 62
7
  6
CONTINUOUS
 10
14.420217941
 20
7.8511525984
 40
0.0465859313
100
AcDbArc
 50
214.6639418077
 51
216.7740184536
  0
ARC
  5
2BE
100
AcDbEntity
  8
0
100
AcDbCircle
 62
7
  6
CONTINUOUS
 10
14.416066729
 20
7.8480680072
 40
0.0414141781
100
AcDbArc
 50
216.7939403026
 51
219.0901123117
  0
SPLINE
  5
2BF
100
AcDbEntity
  8
0
100
AcDbSpline
 62
7
  6
CONTINUOUS
 70
0
 71
3
 72
50
 73
46
 74
0
 42
0.0000001
 43
0.0000001
 44
0.0000000001
 40
0.0
 40
0.0
 40
0.0
 40
0.0
 40
0.0075791485
 40
0.0157370876
 40
0.0244894744
 40
0.0338459717
 40
0.0438116586
 40
0.0543871615
 40
0.0655695464
 40
0.0773535699
 40
0.0897321852
 40
0.1026952709
 40
0.1162286885
 40
0.1303170452
 40
0.1600914748
 40
0.1918703645
 40
0.2254824806
 40
0.2607422248
 40
0.2974457295
 40
0.3353807925
 40
0.3743216534
 40
0.4140375419
 40
0.4542895121
 40
0.4948355752
 40
0.5354313342
 40
0.5758314323
 40
0.6157930145
 40
0.6550755649
 40
0.6934445148
 40
0.7306725851
 40
0.7665405496
 40
0.8008428373
 40
0.8333837143
 40
0.8639882802
 40
0.8924949614
 40
0.9059200812
 40
0.9187727085
 40
0.9310392351
 40
0.942709173
 40
0.9537756049
 40
0.9642335536
 40
0.974080406
 40
0.9833175622
 40
0.9919530023
 40
1.0
 40
1.0
 40
1.0
 40
1.0
 10
14.4126612038
 20
8.2435837045
 30
0.0
 10
14.4118749713
 20
8.2428242622
 30
0.0
 10
14.4103054066
 20
8.2411814598
 30
0.0
 10
14.408038893
 20
8.238469863
 30
0.0
 10
14.4057790495
 20
8.2354269754
 30
0.0
 10
14.4035300779
 20
8.2320580786
 30
0.0
 10
14.4012962624
 20
8.2283682646
 30
0.0
 10
14.3990811189
 20
8.2243636478
 30
0.0
 10
14.3968877979
 20
8.2200507861
 30
0.0
 10
14.3947196539
 20
8.2154362938
 30
0.0
 10
14.392580182
 20
8.2105270385
 30
0.0
 10
14.390472849
 20
8.2053306654
 30
0.0
 10
14.3884007219
 20
8.1998557159
 30
0.0
 10
14.3856382832
 20
8.1920515561
 30
0.0
 10
14.3823122799
 20
8.1816583297
 30
0.0
 10
14.3785830893
 20
8.1684468055
 30
0.0
 10
14.3750697195
 20
8.1543596298
 30
0.0
 10
14.3717958704
 20
8.1394870664
 30
0.0
 10
14.3687816516
 20
8.1239243426
 30
0.0
 10
14.3660481382
 20
8.1077712964
 30
0.0
 10
14.363611489
 20
8.0911316917
 30
0.0
 10
14.3614890795
 20
8.0741123655
 30
0.0
 10
14.3596931495
 20
8.0568227727
 30
0.0
 10
14.3582366194
 20
8.0393739627
 30
0.0
 10
14.3571278114
 20
8.0218782106
 30
0.0
 10
14.3563746015
 20
8.0044479023
 30
0.0
 10
14.3559813761
 20
7.9871951736
 30
0.0
 10
14.3559506223
 20
7.9702308715
 30
0.0
 10
14.3562827663
 20
7.9536640295
 30
0.0
 10
14.3569747711
 20
7.9376011014
 30
0.0
 10
14.3580230781
 20
7.9221451338
 30
0.0
 10
14.3594192284
 20
7.9073953806
 30
0.0
 10
14.3611555936
 20
7.8934461017
 30
0.0
 10
14.3632187889
 20
7.8803867756
 30
0.0
 10
14.3652387189
 20
7.8701185882
 30
0.0
 10
14.3670222482
 20
7.8624204532
 30
0.0
 10
14.3684060823
 20
7.8570356953
 30
0.0
 10
14.3698609198
 20
7.8519323551
 30
0.0
 10
14.3713845344
 20
7.847118572
 30
0.0
 10
14.3729741233
 20
7.8426016862
 30
0.0
 10
14.3746271187
 20
7.8383887054
 30
0.0
 10
14.3763410115
 20
7.8344864682
 30
0.0
 10
14.3781135892
 20
7.8309012267
 30
0.0
 10
14.37994164
 20
7.8276383768
 30
0.0
 10
14.3812406393
 20
7.8256107679
 30
0.0
 10
14.3819009126
 20
7.8246562906
 30
0.0
  0
SPLINE
  5
2C0
100
AcDbEntity
  8
0
100
AcDbSpline
 62
7
  6
CONTINUOUS
 70
0
 71
3
 72
13
 73
9
 74
0
 42
0.0000001
 43
0.0000001
 44
0.0000000001
 40
0.0
 40
0.0
 40
0.0
 40
0.0
 40
0.2725316601
 40
0.5318563102
 40
0.65576167
 40
0.7753345126
 40
0.8901985042
 40
1.0
 40
1.0
 40
1.0
 40
1.0
 10
14.4389028762
 20
8.2409038115
 30
0.0
 10
14.4353623172
 20
8.2398704172
 30
0.0
 10
14.4284737312
 20
8.2377806927
 30
0.0
 10
14.4200545166
 20
8.2349686963
 30
0.0
 10
14.4136619051
 20
8.2326356289
 30
0.0
 10
14.4091418223
 20
8.2308773343
 30
0.0
 10
14.4048419226
 20
8.2290831476
 30
0.0
 10
14.4020696903
 20
8.22783301
 30
0.0
 10
14.4007256048
 20
8.2271992895
 30
0.0
  0
SPLINE
  5
2C1
100
AcDbEntity
  8
0
100
AcDbSpline
 62
7
  6
CONTINUOUS
 70
0
 71
3
 72
16
 73
12
 74
0
 42
0.0000001
 43
0.0000001
 44
0.0000000001
 40
0.0
 40
0.0
 40
0.0
 40
0.0
 40
0.1491769314
 40
0.2895973161
 40
0.4219490506
 40
0.48537778
 40
0.5471266964
 40
0.666107749
 40
0.7802246869
 40
0.8909748487
 40
1.0
 40
1.0
 40
1.0
 40
1.0
 10
14.3803760496
 20
7.4890689081
 30
0.0
 10
14.3788391209
 20
7.4876386653
 30
0.0
 10
14.3757663324
 20
7.4849552661
 30
0.0
 10
14.3710141725
 20
7.4813849533
 30
0.0
 10
14.3670030322
 20
7.4788623877
 30
0.0
 10
14.3638046361
 20
7.4771547469
 30
0.0
 10
14.3606962009
 20
7.4756874641
 30
0.0
 10
14.3568098816
 20
7.4742080319
 30
0.0
 10
14.3521088753
 20
7.473012467
 30
0.0
 10
14.3474350444
 20
7.4724214006
 30
0.0
 10
14.3443316479
 20
7.4724323269
 30
0.0
 10
14.3428009413
 20
7.4725384525
 30
0.0
  0
SPLINE
  5
2C2
100
AcDbEntity
  8
0
100
AcDbSpline
 62
7
  6
CONTINUOUS
 70
0
 71
3
 72
57
 73
53
 74
0
 42
0.0000001
 43
0.0000001
 44
0.0000000001
 40
0.0
 40
0.0
 40
0.0
 40
0.0
 40
0.0075206938
 40
0.0156241014
 40
0.0243315401
 40
0.0336555214
 40
0.0436031767
 40
0.0541774702
 40
0.0653760278
 40
0.077192624
 40
0.0896190592
 40
0.1026449487
 40
0.1162562121
 40
0.1304371569
 40
0.1451712296
 40
0.1604399192
 40
0.1762222695
 40
0.1924966817
 40
0.2092410023
 40
0.2264310861
 40
0.2620456537
 40
0.2991316772
 40
0.3374645182
 40
0.376811015
 40
0.4169281429
 40
0.4575678171
 40
0.4984769648
 40
0.5394009943
 40
0.58008463
 40
0.6202751746
 40
0.6597229417
 40
0.698185461
 40
0.7354267501
 40
0.7712228899
 40
0.7885119832
 40
0.8053614336
 40
0.8217469981
 40
0.8376449349
 40
0.8530336786
 40
0.8678932336
 40
0.8822041759
 40
0.8959483276
 40
0.9091104961
 40
0.9216769731
 40
0.9336352807
 40
0.944976123
 40
0.9556945877
 40
0.965788291
 40
0.9752579131
 40
0.9841085552
 40
0.9923504306
 40
1.0
 40
1.0
 40
1.0
 40
1.0
 10
14.482347697
 20
8.5414374348
 30
0.0
 10
14.4840200453
 20
8.5393811165
 30
0.0
 10
14.4873153665
 20
8.5349617846
 30
0.0
 10
14.4919525264
 20
8.5277421106
 30
0.0
 10
14.4964568499
 20
8.5197022974
 30
0.0
 10
14.5008220874
 20
8.5108562333
 30
0.0
 10
14.5050414938
 20
8.5012175086
 30
0.0
 10
14.5091074282
 20
8.4908010168
 30
0.0
 10
14.5130137673
 20
8.479623823
 30
0.0
 10
14.5167545144
 20
8.4677044744
 30
0.0
 10
14.5203231677
 20
8.4550621967
 30
0.0
 10
14.5237131234
 20
8.4417174634
 30
0.0
 10
14.526919474
 20
8.427692579
 30
0.0
 10
14.5299369483
 20
8.4130108542
 30
0.0
 10
14.5327600034
 20
8.3976962691
 30
0.0
 10
14.5353837273
 20
8.381774109
 30
0.0
 10
14.5378043504
 20
8.3652710285
 30
0.0
 10
14.5400177351
 20
8.3482144006
 30
0.0
 10
14.5420196125
 20
8.3306322661
 30
0.0
 10
14.5444309714
 20
8.3062393679
 30
0.0
 10
14.546875008
 20
8.2746494642
 30
0.0
 10
14.5488885371
 20
8.2355660938
 30
0.0
 10
14.5500041673
 20
8.1951312127
 30
0.0
 10
14.5502122156
 20
8.1536135377
 30
0.0
 10
14.5495124204
 20
8.1112883088
 30
0.0
 10
14.5479081756
 20
8.0684367082
 30
0.0
 10
14.545410482
 20
8.0253430994
 30
0.0
 10
14.5420359319
 20
7.9822937323
 30
0.0
 10
14.5378063739
 20
7.9395743856
 30
0.0
 10
14.5327511224
 20
7.897468709
 30
0.0
 10
14.5269024105
 20
7.8562562203
 30
0.0
 10
14.520301308
 20
7.8162102813
 30
0.0
 10
14.5129898634
 20
7.7775968279
 30
0.0
 10
14.5062726669
 20
7.7464756512
 30
0.0
 10
14.5005643182
 20
7.722498058
 30
0.0
 10
14.4961871398
 20
7.7052375938
 30
0.0
 10
14.4916719092
 20
7.6885200336
 30
0.0
 10
14.4870255479
 20
7.6723733907
 30
0.0
 10
14.4822560075
 20
7.6568243211
 30
0.0
 10
14.4773716028
 20
7.6418982584
 30
0.0
 10
14.4723803481
 20
7.6276200744
 30
0.0
 10
14.4672899115
 20
7.6140137442
 30
0.0
 10
14.4621094736
 20
7.6011014444
 30
0.0
 10
14.4568479865
 20
7.5889043159
 30
0.0
 10
14.451513889
 20
7.5774428094
 30
0.0
 10
14.4461155426
 20
7.5667357457
 30
0.0
 10
14.4406621025
 20
7.5567997266
 30
0.0
 10
14.4351621266
 20
7.5476503055
 30
0.0
 10
14.4296235601
 20
7.5393030397
 30
0.0
 10
14.4240560937
 20
7.5317714583
 30
0.0
 10
14.4184707816
 20
7.5250684952
 30
0.0
 10
14.4146002621
 20
7.5210122785
 30
0.0
 10
14.4126612038
 20
7.5191392919
 30
0.0
  0
SPLINE
  5
2C3
100
AcDbEntity
  8
0
100
AcDbSpline
 62
7
  6
CONTINUOUS
 70
0
 71
3
 72
16
 73
12
 74
0
 42
0.0000001
 43
0.0000001
 44
0.0000000001
 40
0.0
 40
0.0
 40
0.0
 40
0.0
 40
0.1090299121
 40
0.2197874449
 40
0.3339055687
 40
0.4528620072
 40
0.5145856865
 40
0.5779866132
 40
0.7103007537
 40
0.8507367287
 40
1.0
 40
1.0
 40
1.0
 40
1.0
 10
14.4207022098
 20
8.5958405996
 30
0.0
 10
14.4222329933
 20
8.5957344686
 30
0.0
 10
14.4253084155
 20
8.5953169414
 30
0.0
 10
14.4298558909
 20
8.594085347
 30
0.0
 10
14.4343463778
 20
8.5922517529
 30
0.0
 10
14.4379909496
 20
8.5902509014
 30
0.0
 10
14.4408668068
 20
8.5883701125
 30
0.0
 10
14.4437985076
 20
8.5862389493
 30
0.0
 10
14.447422862
 20
8.5831876054
 30
0.0
 10
14.4516367635
 20
8.5789941981
 30
0.0
 10
14.4543102511
 20
8.5759108633
 30
0.0
 10
14.4556357397
 20
8.5742811436
 30
0.0
  0
SPLINE
  5
2C4
100
AcDbEntity
  8
0
100
AcDbSpline
 62
7
  6
CONTINUOUS
 70
0
 71
3
 72
24
 73
20
 74
0
 42
0.0000001
 43
0.0000001
 44
0.0000000001
 40
0.0
 40
0.0
 40
0.0
 40
0.0
 40
0.1279434508
 40
0.1917593551
 40
0.2554099803
 40
0.3188723208
 40
0.3821037338
 40
0.4136272067
 40
0.4450826873
 40
0.5077604513
 40
0.5701350484
 40
0.6012170335
 40
0.6322244578
 40
0.694022403
 40
0.7555748461
 40
0.8169109851
 40
0.8780794544
 40
0.9391014843
 40
1.0
 40
1.0
 40
1.0
 40
1.0
 10
14.4669955511
 20
8.0864451873
 30
0.0
 10
14.4618289467
 20
8.0786154314
 30
0.0
 10
14.4544653983
 20
8.0666163388
 30
0.0
 10
14.4457404955
 20
8.0500400102
 30
0.0
 10
14.4398468258
 20
8.0373345576
 30
0.0
 10
14.4347031451
 20
8.0243523711
 30
0.0
 10
14.4311158534
 20
8.0133106668
 30
0.0
 10
14.428718456
 20
8.004371087
 30
0.0
 10
14.4266510432
 20
7.9953912348
 30
0.0
 10
14.4246868243
 20
7.9840740148
 30
0.0
 10
14.423589574
 20
7.9726673843
 30
0.0
 10
14.423222281
 20
7.9635473598
 30
0.0
 10
14.4231905416
 20
7.9544622159
 30
0.0
 10
14.4237626466
 20
7.9431492114
 30
0.0
 10
14.4253469132
 20
7.9296920363
 30
0.0
 10
14.4277422758
 20
7.9164036124
 30
0.0
 10
14.4308471628
 20
7.9033045946
 30
0.0
 10
14.434568526
 20
7.8904021009
 30
0.0
 10
14.4374078932
 20
7.8819230275
 30
0.0
 10
14.4389028762
 20
7.8777156793
 30
0.0
  0
SPLINE
  5
2C5
100
AcDbEntity
  8
0
100
AcDbSpline
 62
7
  6
CONTINUOUS
 70
0
 71
3
 72
26
 73
22
 74
0
 42
0.0000001
 43
0.0000001
 44
0.0000000001
 40
0.0
 40
0.0
 40
0.0
 40
0.0
 40
0.0573248607
 40
0.1144504653
 40
0.1714745054
 40
0.2285447607
 40
0.2571753699
 40
0.2859125567
 40
0.3438301596
 40
0.3731148153
 40
0.4026687711
 40
0.4627138508
 40
0.5242693487
 40
0.5875066092
 40
0.6197862177
 40
0.65250121
 40
0.719180286
 40
0.7874332322
 40
0.8571093813
 40
0.9280223339
 40
1.0
 40
1.0
 40
1.0
 40
1.0
 10
14.4389028762
 20
8.2409038115
 30
0.0
 10
14.437412441
 20
8.238045548
 30
0.0
 10
14.4345795493
 20
8.2322626237
 30
0.0
 10
14.4308543044
 20
8.2233620114
 30
0.0
 10
14.4277447901
 20
8.2142412285
 30
0.0
 10
14.4257472502
 20
8.2064577473
 30
0.0
 10
14.424556086
 20
8.2001317722
 30
0.0
 10
14.4236464978
 20
8.1937114016
 30
0.0
 10
14.4231899246
 20
8.1871955821
 30
0.0
 10
14.4232227917
 20
8.1806278647
 30
0.0
 10
14.4235929197
 20
8.1739505276
 30
0.0
 10
14.4247051612
 20
8.1655080887
 30
0.0
 10
14.4270780841
 20
8.1553731315
 30
0.0
 10
14.4298667323
 20
8.1469797635
 30
0.0
 10
14.4325592072
 20
8.1402889052
 30
0.0
 10
14.4355861962
 20
8.1335297861
 30
0.0
 10
14.4399036598
 20
8.125140506
 30
0.0
 10
14.4457967303
 20
8.1152516975
 30
0.0
 10
14.4523329249
 20
8.1054894389
 30
0.0
 10
14.4594202731
 20
8.0958600984
 30
0.0
 10
14.4644254535
 20
8.0895719589
 30
0.0
 10
14.4669955511
 20
8.0864451873
 30
0.0
  0
SPLINE
  5
2C6
100
AcDbEntity
  8
0
100
AcDbSpline
 62
7
  6
CONTINUOUS
 70
0
 71
3
 72
84
 73
80
 74
0
 42
0.0000001
 43
0.0000001
 44
0.0000000001
 40
0.0
 40
0.0
 40
0.0
 40
0.0
 40
0.0039460605
 40
0.0077168288
 40
0.0113216132
 40
0.0147714338
 40
0.0180792498
 40
0.0212601722
 40
0.0243319053
 40
0.0273148744
 40
0.0302314922
 40
0.0331057827
 40
0.0359628996
 40
0.0388285134
 40
0.0417280697
 40
0.0446859242
 40
0.0477248344
 40
0.0508656239
 40
0.0541270025
 40
0.0575255361
 40
0.0610756165
 40
0.0647892766
 40
0.0686766194
 40
0.0727461288
 40
0.0770048926
 40
0.0814588048
 40
0.0861126438
 40
0.0909698131
 40
0.0960327839
 40
0.1013033644
 40
0.1124709551
 40
0.1244776132
 40
0.1373174151
 40
0.1509786995
 40
0.1654459392
 40
0.180697283
 40
0.1967073817
 40
0.2134488895
 40
0.230889883
 40
0.248995884
 40
0.2677312932
 40
0.2870570985
 40
0.3069322508
 40
0.3273150458
 40
0.348161309
 40
0.369425232
 40
0.4130186773
 40
0.4577103857
 40
0.4803445899
 40
0.5031031383
 40
0.5487883825
 40
0.5943572002
 40
0.6169704725
 40
0.6394019271
 40
0.6835179917
 40
0.7051058839
 40
0.7263159656
 40
0.7471016163
 40
0.7674181801
 40
0.7872214765
 40
0.8064690723
 40
0.8251213569
 40
0.8431395294
 40
0.8604869841
 40
0.8771310041
 40
0.8930402807
 40
0.9081862231
 40
0.9225452049
 40
0.9360961165
 40
0.9488221721
 40
0.9607146947
 40
0.9663475599
 40
0.9717712692
 40
0.9769864327
 40
0.9819942924
 40
0.9867966754
 40
0.9913960742
 40
0.9957957731
 40
1.0
 40
1.0
 40
1.0
 40
1.0
 10
14.4113551407
 20
7.5179009698
 30
0.0
 10
14.4102602366
 20
7.5168823283
 30
0.0
 10
14.4080709217
 20
7.5149410794
 30
0.0
 10
14.4047110813
 20
7.5122690557
 30
0.0
 10
14.4013539276
 20
7.5099064283
 30
0.0
 10
14.3980016473
 20
7.5078551668
 30
0.0
 10
14.3946563099
 20
7.5061172102
 30
0.0
 10
14.3913199021
 20
7.5046946992
 30
0.0
 10
14.3879944157
 20
7.5035895408
 30
0.0
 10
14.3846821078
 20
7.5028024899
 30
0.0
 10
14.381385153
 20
7.5023343187
 30
0.0
 10
14.3781059614
 20
7.5021856671
 30
0.0
 10
14.3748471289
 20
7.5023569578
 30
0.0
 10
14.371611359
 20
7.5028483638
 30
0.0
 10
14.3684014095
 20
7.5036595356
 30
0.0
 10
14.3652196899
 20
7.5047889222
 30
0.0
 10
14.3620683704
 20
7.5062349874
 30
0.0
 10
14.3589493909
 20
7.5079961855
 30
0.0
 10
14.3558645091
 20
7.5100710739
 30
0.0
 10
14.3528154168
 20
7.5124583308
 30
0.0
 10
14.3498038788
 20
7.5151565522
 30
0.0
 10
14.3468311585
 20
7.5181635644
 30
0.0
 10
14.3438986933
 20
7.5214772683
 30
0.0
 10
14.3410079811
 20
7.525095587
 30
0.0
 10
14.3381605699
 20
7.5290164845
 30
0.0
 10
14.3353580676
 20
7.5332379092
 30
0.0
 10
14.3326022444
 20
7.5377576187
 30
0.0
 10
14.3298944602
 20
7.5425727574
 30
0.0
 10
14.3272361423
 20
7.547680292
 30
0.0
 10
14.3236912226
 20
7.5550184012
 30
0.0
 10
14.319411989
 20
7.5649184387
 30
0.0
 10
14.3145941008
 20
7.577692842
 30
0.0
 10
14.3100088718
 20
7.5915512928
 30
0.0
 10
14.3056671366
 20
7.60646112
 30
0.0
 10
14.3015806001
 20
7.6223878117
 30
0.0
 10
14.2977580931
 20
7.6392934174
 30
0.0
 10
14.2942086386
 20
7.6571378196
 30
0.0
 10
14.2909419978
 20
7.6758788475
 30
0.0
 10
14.2879653018
 20
7.6954717166
 30
0.0
 10
14.2852854329
 20
7.7158696292
 30
0.0
 10
14.2829099312
 20
7.7370240518
 30
0.0
 10
14.2808439676
 20
7.7588843875
 30
0.0
 10
14.2790921279
 20
7.7813983216
 30
0.0
 10
14.2776596158
 20
7.8045121053
 30
0.0
 10
14.2765494382
 20
7.8281704901
 30
0.0
 10
14.2754934197
 20
7.8606341553
 30
0.0
 10
14.2750131026
 20
7.9021536126
 30
0.0
 10
14.2756203247
 20
7.9441901166
 30
0.0
 10
14.2767529396
 20
7.9783122206
 30
0.0
 10
14.2783247927
 20
8.0127938572
 30
0.0
 10
14.2810880819
 20
8.0559183957
 30
0.0
 10
14.2848964081
 20
8.0989080028
 30
0.0
 10
14.2885640855
 20
8.1330530644
 30
0.0
 10
14.2925948515
 20
8.1666025449
 30
0.0
 10
14.2972120947
 20
8.1996880124
 30
0.0
 10
14.3024264325
 20
8.2322121081
 30
0.0
 10
14.3065723226
 20
8.2559505149
 30
0.0
 10
14.3109717849
 20
8.2791530171
 30
0.0
 10
14.3156134193
 20
8.3017643612
 30
0.0
 10
14.320486504
 20
8.3237303404
 30
0.0
 10
14.3255798243
 20
8.3449983474
 30
0.0
 10
14.330880163
 20
8.3655178035
 30
0.0
 10
14.3363751156
 20
8.3852395827
 30
0.0
 10
14.3420521325
 20
8.4041164554
 30
0.0
 10
14.3478965623
 20
8.4221037987
 30
0.0
 10
14.3538946608
 20
8.4391587236
 30
0.0
 10
14.3600328574
 20
8.4552403437
 30
0.0
 10
14.3662950688
 20
8.4703108888
 30
0.0
 10
14.3726662893
 20
8.4843347773
 30
0.0
 10
14.3791324553
 20
8.4972784741
 30
0.0
 10
14.3846829171
 20
8.5073149613
 30
0.0
 10
14.3891702303
 20
8.5147661516
 30
0.0
 10
14.3924890549
 20
8.5199644736
 30
0.0
 10
14.39582042
 20
8.5248710424
 30
0.0
 10
14.3991619648
 20
8.5294830121
 30
0.0
 10
14.4025113504
 20
8.5337975677
 30
0.0
 10
14.4058663094
 20
8.5378119528
 30
0.0
 10
14.4092244556
 20
8.5415232705
 30
0.0
 10
14.411515205
 20
8.5438456302
 30
0.0
 10
14.4126612038
 20
8.5449525802
 30
0.0
  0
SPLINE
  5
2C7
100
AcDbEntity
  8
0
100
AcDbSpline
 62
7
  6
CONTINUOUS
 70
0
 71
3
 72
20
 73
16
 74
0
 42
0.0000001
 43
0.0000001
 44
0.0000000001
 40
0.0
 40
0.0
 40
0.0
 40
0.0
 40
0.0425215842
 40
0.0879878321
 40
0.1364452891
 40
0.187904296
 40
0.2423279876
 40
0.299623413
 40
0.3596732535
 40
0.4223438254
 40
0.4874921332
 40
0.5549675792
 40
0.6962520906
 40
0.8449639943
 40
1.0
 40
1.0
 40
1.0
 40
1.0
 10
14.3827175014
 20
7.8525284728
 30
0.0
 10
14.3833500396
 20
7.8531394577
 30
0.0
 10
14.3847088752
 20
7.8543526183
 30
0.0
 10
14.3869328944
 20
7.8560921867
 30
0.0
 10
14.3894026464
 20
7.8578096788
 30
0.0
 10
14.3921103894
 20
7.8595021669
 30
0.0
 10
14.3950466156
 20
7.8611677671
 30
0.0
 10
14.3981992377
 20
7.8628067798
 30
0.0
 10
14.4015559591
 20
7.8644186126
 30
0.0
 10
14.4051043954
 20
7.8660026721
 30
0.0
 10
14.4088319851
 20
7.867559025
 30
0.0
 10
14.414105354
 20
7.8696297095
 30
0.0
 10
14.4210625326
 20
7.872135914
 30
0.0
 10
14.429810203
 20
7.8750016816
 30
0.0
 10
14.4358248358
 20
7.8768172818
 30
0.0
 10
14.4389028762
 20
7.8777156793
 30
0.0
  0
SPLINE
  5
2C8
100
AcDbEntity
  8
0
100
AcDbSpline
 62
7
  6
CONTINUOUS
 70
0
 71
3
 72
15
 73
11
 74
0
 42
0.0000001
 43
0.0000001
 44
0.0000000001
 40
0.0
 40
0.0
 40
0.0
 40
0.0
 40
0.1184199586
 40
0.2335456869
 40
0.3474463534
 40
0.4628114041
 40
0.5827314659
 40
0.7104618824
 40
0.8488173292
 40
1.0
 40
1.0
 40
1.0
 40
1.0
 10
14.3772374818
 20
7.832774046
 30
0.0
 10
14.3769434841
 20
7.8335847964
 30
0.0
 10
14.3764540151
 20
7.8352190884
 30
0.0
 10
14.3760618191
 20
7.8377275814
 30
0.0
 10
14.376059884
 20
7.8402465995
 30
0.0
 10
14.3764794781
 20
7.8427667676
 30
0.0
 10
14.3773447808
 20
7.8452774905
 30
0.0
 10
14.3786770547
 20
7.8477651479
 30
0.0
 10
14.3804792095
 20
7.8502222549
 30
0.0
 10
14.3819255957
 20
7.8517635505
 30
0.0
 10
14.3827175014
 20
7.8525284728
 30
0.0
  0
SPLINE
  5
2C9
100
AcDbEntity
  8
0
100
AcDbSpline
 62
7
  6
CONTINUOUS
 70
0
 71
3
 72
23
 73
19
 74
0
 42
0.0000001
 43
0.0000001
 44
0.0000000001
 40
0.0
 40
0.0
 40
0.0
 40
0.0
 40
0.0755493506
 40
0.1465781137
 40
0.2134209155
 40
0.2764972924
 40
0.3363264137
 40
0.393550056
 40
0.4489238843
 40
0.5032842931
 40
0.5575175409
 40
0.6125176493
 40
0.6691350224
 40
0.7281410513
 40
0.790210366
 40
0.8559157723
 40
0.9257235102
 40
1.0
 40
1.0
 40
1.0
 40
1.0
 10
14.4126612038
 20
8.5449525802
 30
0.0
 10
14.4141361275
 20
8.5463772471
 30
0.0
 10
14.4170848578
 20
8.5490535209
 30
0.0
 10
14.4216492693
 20
8.5526294524
 30
0.0
 10
14.4262094163
 20
8.5556344422
 30
0.0
 10
14.4307604442
 20
8.5580631548
 30
0.0
 10
14.4352981871
 20
8.5599094468
 30
0.0
 10
14.4398175307
 20
8.5611680326
 30
0.0
 10
14.4443122646
 20
8.5618357971
 30
0.0
 10
14.4487752938
 20
8.5619099285
 30
0.0
 10
14.4531983718
 20
8.5613890944
 30
0.0
 10
14.4575727967
 20
8.5602739974
 30
0.0
 10
14.4618913099
 20
8.5585695389
 30
0.0
 10
14.4661483416
 20
8.5562809963
 30
0.0
 10
14.4703395998
 20
8.5534133163
 30
0.0
 10
14.47446116
 20
8.5499705291
 30
0.0
 10
14.4785096244
 20
8.5459578757
 30
0.0
 10
14.4810756443
 20
8.54300155
 30
0.0
 10
14.482347697
 20
8.5414374348
 30
0.0
  0
SPLINE
  5
2CA
100
AcDbEntity
  8
0
100
AcDbSpline
 62
7
  6
CONTINUOUS
 70
0
 71
3
 72
17
 73
13
 74
0
 42
0.0000001
 43
0.0000001
 44
0.0000000001
 40
0.0
 40
0.0
 40
0.0
 40
0.0
 40
0.1503824987
 40
0.2916131423
 40
0.4243865528
 40
0.4878859743
 40
0.5496162545
 40
0.6683083772
 40
0.7818474148
 40
0.8918106403
 40
0.9460210325
 40
1.0
 40
1.0
 40
1.0
 40
1.0
 10
14.3817515756
 20
8.5780057985
 30
0.0
 10
14.3833422146
 20
8.5795422379
 30
0.0
 10
14.3865223002
 20
8.5824254145
 30
0.0
 10
14.3914473332
 20
8.5862683116
 30
0.0
 10
14.3956081332
 20
8.5889877077
 30
0.0
 10
14.3989266471
 20
8.5908300478
 30
0.0
 10
14.4021474118
 20
8.5924119826
 30
0.0
 10
14.4061746907
 20
8.5940099569
 30
0.0
 10
14.4110494939
 20
8.5953067665
 30
0.0
 10
14.4151103738
 20
8.5958487592
 30
0.0
 10
14.4183187791
 20
8.595951732
 30
0.0
 10
14.4199103013
 20
8.5958955035
 30
0.0
 10
14.4207022098
 20
8.5958405996
 30
0.0
  0
SPLINE
  5
2CB
100
AcDbEntity
  8
0
100
AcDbSpline
 62
7
  6
CONTINUOUS
 70
0
 71
3
 72
62
 73
58
 74
0
 42
0.0000001
 43
0.0000001
 44
0.0000000001
 40
0.0
 40
0.0
 40
0.0
 40
0.0
 40
0.0086004184
 40
0.0180007096
 40
0.0282235826
 40
0.0392808585
 40
0.0511753323
 40
0.0639022528
 40
0.0774521901
 40
0.0918114638
 40
0.1069585582
 40
0.1228679158
 40
0.1395123474
 40
0.1568614039
 40
0.1748801448
 40
0.1935324272
 40
0.2325840348
 40
0.2736862379
 40
0.3164850653
 40
0.3606027146
 40
0.4056484764
 40
0.4512190187
 40
0.4969063186
 40
0.54229991
 40
0.5869939699
 40
0.6305889634
 40
0.6727003923
 40
0.7129589805
 40
0.751020525
 40
0.7691274816
 40
0.7865696845
 40
0.8033122323
 40
0.8193230412
 40
0.8345751555
 40
0.8490436684
 40
0.8627059962
 40
0.875546038
 40
0.8875536119
 40
0.8987228984
 40
0.9090554381
 40
0.9185652283
 40
0.9272775949
 40
0.935232515
 40
0.9424927855
 40
0.949149274
 40
0.9553241426
 40
0.9582818929
 40
0.9611813308
 40
0.9640469898
 40
0.9669042785
 40
0.9697788346
 40
0.9726958505
 40
0.9756794556
 40
0.9787521618
 40
0.9852374942
 40
0.9922879759
 40
1.0
 40
1.0
 40
1.0
 40
1.0
 10
14.4126612038
 20
7.8205081676
 30
0.0
 10
14.4136280229
 20
7.8214420431
 30
0.0
 10
14.4155558942
 20
7.8234968662
 30
0.0
 10
14.4183158634
 20
7.8269422926
 30
0.0
 10
14.4210631982
 20
7.8308761105
 30
0.0
 10
14.4237899587
 20
7.8352889189
 30
0.0
 10
14.4264895118
 20
7.8401704416
 30
0.0
 10
14.4291562791
 20
7.8455088986
 30
0.0
 10
14.431784114
 20
7.8512923456
 30
0.0
 10
14.4343664766
 20
7.8575077535
 30
0.0
 10
14.4368977043
 20
7.8641402803
 30
0.0
 10
14.4393718008
 20
7.871173994
 30
0.0
 10
14.4417823958
 20
7.8785923787
 30
0.0
 10
14.4441234297
 20
7.886377844
 30
0.0
 10
14.4463898356
 20
7.8945115684
 30
0.0
 10
14.4493501165
 20
7.9059709849
 30
0.0
 10
14.4528084762
 20
7.921024886
 30
0.0
 10
14.4565204122
 20
7.9398825758
 30
0.0
 10
14.4598171755
 20
7.9596203359
 30
0.0
 10
14.46266833
 20
7.9800496113
 30
0.0
 10
14.4650453117
 20
8.0009753998
 30
0.0
 10
14.4669256961
 20
8.0221978585
 30
0.0
 10
14.4682914911
 20
8.0435141039
 30
0.0
 10
14.4691290789
 20
8.0647205692
 30
0.0
 10
14.4694316322
 20
8.0856144734
 30
0.0
 10
14.4691951442
 20
8.1059963651
 30
0.0
 10
14.4684238093
 20
8.1256715941
 30
0.0
 10
14.4671239694
 20
8.1444523487
 30
0.0
 10
14.4655883413
 20
8.1594484139
 30
0.0
 10
14.4640898036
 20
8.1708559865
 30
0.0
 10
14.4628622272
 20
8.1789367788
 30
0.0
 10
14.4615150696
 20
8.1866662097
 30
0.0
 10
14.4600511685
 20
8.1940257808
 30
0.0
 10
14.4584746295
 20
8.200998213
 30
0.0
 10
14.4567893793
 20
8.2075670275
 30
0.0
 10
14.4549988985
 20
8.2137164205
 30
0.0
 10
14.4531076288
 20
8.2194320051
 30
0.0
 10
14.4511205491
 20
8.2247007921
 30
0.0
 10
14.4490421745
 20
8.2295105272
 30
0.0
 10
14.4468764979
 20
8.2338499048
 30
0.0
 10
14.4446288452
 20
8.2377097109
 30
0.0
 10
14.4423037841
 20
8.2410819101
 30
0.0
 10
14.4399044551
 20
8.243958596
 30
0.0
 10
14.4374335128
 20
8.2463328667
 30
0.0
 10
14.4348947384
 20
8.2481984253
 30
0.0
 10
14.432691266
 20
8.2493380285
 30
0.0
 10
14.4309167944
 20
8.2499678154
 30
0.0
 10
14.4295929433
 20
8.2503022587
 30
0.0
 10
14.4282584986
 20
8.2505049892
 30
0.0
 10
14.4269144662
 20
8.2505758731
 30
0.0
 10
14.4255619543
 20
8.250514826
 30
0.0
 10
14.4242020403
 20
8.250321908
 30
0.0
 10
14.4228356625
 20
8.2499972454
 30
0.0
 10
14.4209735852
 20
8.2493780197
 30
0.0
 10
14.4186219053
 20
8.2482525629
 30
0.0
 10
14.4158483265
 20
8.2464112247
 30
0.0
 10
14.4140837639
 20
8.2449166301
 30
0.0
 10
14.413201218
 20
8.2440956736
 30
0.0
  0
SPLINE
  5
2CC
100
AcDbEntity
  8
0
100
AcDbSpline
 62
7
  6
CONTINUOUS
 70
0
 71
3
 72
23
 73
19
 74
0
 42
0.0000001
 43
0.0000001
 44
0.0000000001
 40
0.0
 40
0.0
 40
0.0
 40
0.0
 40
0.074268336
 40
0.144063996
 40
0.2097651649
 40
0.2718372069
 40
0.3308445251
 40
0.3874574953
 40
0.442452966
 40
0.4966870178
 40
0.551052246
 40
0.6064353138
 40
0.6636760912
 40
0.723525645
 40
0.7866121066
 40
0.8534536872
 40
0.9244708493
 40
1.0
 40
1.0
 40
1.0
 40
1.0
 10
14.383922898
 20
7.8219546337
 30
0.0
 10
14.3844474542
 20
7.8213097393
 30
0.0
 10
14.3855057206
 20
7.8200909909
 30
0.0
 10
14.3871755978
 20
7.8184370437
 30
0.0
 10
14.3888753653
 20
7.8170177415
 30
0.0
 10
14.3906036193
 20
7.8158350271
 30
0.0
 10
14.3923589724
 20
7.8148910035
 30
0.0
 10
14.3941398334
 20
7.8141883023
 30
0.0
 10
14.3959438065
 20
7.8137290884
 30
0.0
 10
14.3977677912
 20
7.813514466
 30
0.0
 10
14.3996084066
 20
7.8135450209
 30
0.0
 10
14.4014622813
 20
7.8138204973
 30
0.0
 10
14.4033263397
 20
7.8143401416
 30
0.0
 10
14.4051978471
 20
7.8151022886
 30
0.0
 10
14.4070748188
 20
7.8161040623
 30
0.0
 10
14.4089553293
 20
7.8173431756
 30
0.0
 10
14.4108373827
 20
7.8188174664
 30
0.0
 10
14.4120531421
 20
7.819920825
 30
0.0
 10
14.4126612038
 20
7.8205081676
 30
0.0
  0
SPLINE
  5
2CD
100
AcDbEntity
  8
0
100
AcDbSpline
 62
7
  6
CONTINUOUS
 70
0
 71
3
 72
23
 73
19
 74
0
 42
0.0000001
 43
0.0000001
 44
0.0000000001
 40
0.0
 40
0.0
 40
0.0
 40
0.0
 40
0.0462897252
 40
0.0930890024
 40
0.1408873094
 40
0.1901398108
 40
0.2412590569
 40
0.294610761
 40
0.350513376
 40
0.4092354331
 40
0.4709968064
 40
0.5359789064
 40
0.6043306229
 40
0.6761734459
 40
0.7516039916
 40
0.8306895133
 40
0.9134771843
 40
1.0
 40
1.0
 40
1.0
 40
1.0
 10
14.3428009413
 20
7.4725384525
 30
0.0
 10
14.3415286524
 20
7.4726266618
 30
0.0
 10
14.3389776156
 20
7.4729439933
 30
0.0
 10
14.3351930373
 20
7.4738374107
 30
0.0
 10
14.3314450567
 20
7.4751470435
 30
0.0
 10
14.3277375138
 20
7.4768703676
 30
0.0
 10
14.3240730517
 20
7.4790049697
 30
0.0
 10
14.3204541599
 20
7.4815485907
 30
0.0
 10
14.3168833051
 20
7.4844992675
 30
0.0
 10
14.3133626605
 20
7.4878544064
 30
0.0
 10
14.3098939732
 20
7.4916107924
 30
0.0
 10
14.3064793251
 20
7.4957654346
 30
0.0
 10
14.3031208611
 20
7.5003153716
 30
0.0
 10
14.299820847
 20
7.5052576553
 30
0.0
 10
14.2965818103
 20
7.5105890569
 30
0.0
 10
14.2934056672
 20
7.5163054888
 30
0.0
 10
14.2902945743
 20
7.5224025014
 30
0.0
 10
14.2883092381
 20
7.5266246142
 30
0.0
 10
14.2873262325
 20
7.5287963159
 30
0.0
  0
SPLINE
  5
2CE
100
AcDbEntity
  8
0
100
AcDbSpline
 62
7
  6
CONTINUOUS
 70
0
 71
3
 72
11
 73
7
 74
0
 42
0.0000001
 43
0.0000001
 44
0.0000000001
 40
0.0
 40
0.0
 40
0.0
 40
0.0
 40
0.2760336306
 40
0.5344879608
 40
0.7756559527
 40
1.0
 40
1.0
 40
1.0
 40
1.0
 10
14.358830557
 20
8.5490958531
 30
0.0
 10
14.360666065
 20
8.5519597975
 30
0.0
 10
14.3643388511
 20
8.5574307505
 30
0.0
 10
14.3700574829
 20
8.5650956529
 30
0.0
 10
14.3757932904
 20
8.5719357987
 30
0.0
 10
14.3797630754
 20
8.5760850547
 30
0.0
 10
14.3817515756
 20
8.5780057985
 30
0.0
  0
SPLINE
  5
2CF
100
AcDbEntity
  8
0
100
AcDbSpline
 62
7
  6
CONTINUOUS
 70
0
 71
3
 72
39
 73
35
 74
0
 42
0.0000001
 43
0.0000001
 44
0.0000000001
 40
0.0
 40
0.0
 40
0.0
 40
0.0
 40
0.0958313223
 40
0.1890999066
 40
0.2792396479
 40
0.3229663115
 40
0.3657099292
 40
0.4074081191
 40
0.4480006754
 40
0.4874302648
 40
0.5256424385
 40
0.5625857699
 40
0.5982125807
 40
0.6324786396
 40
0.665344311
 40
0.6967743203
 40
0.7267388303
 40
0.7552139511
 40
0.7821824427
 40
0.807635341
 40
0.8315726205
 40
0.8540058864
 40
0.8749600023
 40
0.8944766962
 40
0.9126183481
 40
0.9294727137
 40
0.94515911
 40
0.9598336921
 40
0.9668557838
 40
0.973702854
 40
0.9804062715
 40
0.9869997015
 40
0.9935186515
 40
1.0
 40
1.0
 40
1.0
 40
1.0
 10
14.1508954562
 20
10.9154958047
 30
0.0
 10
14.1419356393
 20
10.9161171701
 30
0.0
 10
14.1242685068
 20
10.9175403371
 30
0.0
 10
14.0982371025
 20
10.9202570138
 30
0.0
 10
14.0771242924
 20
10.9229969016
 30
0.0
 10
14.0607566744
 20
10.9254632417
 30
0.0
 10
14.0489049067
 20
10.9274212472
 30
0.0
 10
14.0373725547
 20
10.9295027973
 30
0.0
 10
14.0261788683
 20
10.9317044687
 30
0.0
 10
14.0153425431
 20
10.934022528
 30
0.0
 10
14.0048816612
 20
10.9364530678
 30
0.0
 10
13.9948136728
 20
10.9389920449
 30
0.0
 10
13.9851553516
 20
10.9416351183
 30
0.0
 10
13.9759227846
 20
10.94437793
 30
0.0
 10
13.9671313103
 20
10.9472157913
 30
0.0
 10
13.9587955234
 20
10.9501439992
 30
0.0
 10
13.9509292173
 20
10.9531576287
 30
0.0
 10
13.9435453599
 20
10.9562516295
 30
0.0
 10
13.9366560929
 20
10.9594209331
 30
0.0
 10
13.9302726273
 20
10.9626602287
 30
0.0
 10
13.9244053372
 20
10.9659643756
 30
0.0
 10
13.9190635875
 20
10.9693280282
 30
0.0
 10
13.9142558833
 20
10.9727460933
 30
0.0
 10
13.9099897891
 20
10.976213586
 30
0.0
 10
13.9062720573
 20
10.9797257325
 30
0.0
 10
13.9031088806
 20
10.9832785119
 30
0.0
 10
13.9005062852
 20
10.9868672981
 30
0.0
 10
13.8987848647
 20
10.9899301612
 30
0.0
 10
13.8977117248
 20
10.9923825768
 30
0.0
 10
13.897062004
 20
10.9941996295
 30
0.0
 10
13.8965561941
 20
10.9960202666
 30
0.0
 10
13.8961945708
 20
10.9978437291
 30
0.0
 10
13.8959774545
 20
10.9996689693
 30
0.0
 10
13.895929158
 20
11.0008879049
 30
0.0
 10
13.8959291527
 20
11.0014953386
 30
0.0
  0
SPLINE
  5
2D0
100
AcDbEntity
  8
0
100
AcDbSpline
 62
7
  6
CONTINUOUS
 70
0
 71
3
 72
39
 73
35
 74
0
 42
0.0000001
 43
0.0000001
 44
0.0000000001
 40
0.0
 40
0.0
 40
0.0
 40
0.0
 40
0.0958313223
 40
0.1890999066
 40
0.2792396479
 40
0.3229663115
 40
0.3657099292
 40
0.4074081191
 40
0.4480006754
 40
0.4874302648
 40
0.5256424385
 40
0.5625857699
 40
0.5982125807
 40
0.6324786396
 40
0.665344311
 40
0.6967743203
 40
0.7267388303
 40
0.7552139511
 40
0.7821824427
 40
0.807635341
 40
0.8315726205
 40
0.8540058864
 40
0.8749600023
 40
0.8944766962
 40
0.9126183481
 40
0.9294727137
 40
0.94515911
 40
0.9598336921
 40
0.9668557838
 40
0.973702854
 40
0.9804062715
 40
0.9869997015
 40
0.9935186515
 40
1.0
 40
1.0
 40
1.0
 40
1.0
 10
13.5685530853
 20
10.3529962356
 30
0.0
 10
13.5595932684
 20
10.353617601
 30
0.0
 10
13.5419261359
 20
10.355040768
 30
0.0
 10
13.5158947317
 20
10.3577574447
 30
0.0
 10
13.4947819215
 20
10.3604973325
 30
0.0
 10
13.4784143035
 20
10.3629636726
 30
0.0
 10
13.4665625358
 20
10.3649216781
 30
0.0
 10
13.4550301838
 20
10.3670032282
 30
0.0
 10
13.4438364974
 20
10.3692048996
 30
0.0
 10
13.4330001722
 20
10.3715229589
 30
0.0
 10
13.4225392903
 20
10.3739534986
 30
0.0
 10
13.412471302
 20
10.3764924758
 30
0.0
 10
13.4028129807
 20
10.3791355492
 30
0.0
 10
13.3935804137
 20
10.3818783609
 30
0.0
 10
13.3847889394
 20
10.3847162222
 30
0.0
 10
13.3764531525
 20
10.3876444301
 30
0.0
 10
13.3685868464
 20
10.3906580596
 30
0.0
 10
13.361202989
 20
10.3937520604
 30
0.0
 10
13.3543137221
 20
10.396921364
 30
0.0
 10
13.3479302564
 20
10.4001606596
 30
0.0
 10
13.3420629663
 20
10.4034648065
 30
0.0
 10
13.3367212166
 20
10.4068284591
 30
0.0
 10
13.3319135124
 20
10.4102465242
 30
0.0
 10
13.3276474182
 20
10.4137140169
 30
0.0
 10
13.3239296864
 20
10.4172261634
 30
0.0
 10
13.3207665097
 20
10.4207789428
 30
0.0
 10
13.3181639143
 20
10.4243677289
 30
0.0
 10
13.3164424938
 20
10.4274305921
 30
0.0
 10
13.3153693539
 20
10.4298830077
 30
0.0
 10
13.3147196331
 20
10.4317000604
 30
0.0
 10
13.3142138232
 20
10.4335206975
 30
0.0
 10
13.3138521999
 20
10.43534416
 30
0.0
 10
13.3136350836
 20
10.4371694002
 30
0.0
 10
13.3135867871
 20
10.4383883358
 30
0.0
 10
13.3135867818
 20
10.4389957695
 30
0.0
  0
SPLINE
  5
2D1
100
AcDbEntity
  8
0
100
AcDbSpline
 62
7
  6
CONTINUOUS
 70
0
 71
3
 72
39
 73
35
 74
0
 42
0.0000001
 43
0.0000001
 44
0.0000000001
 40
0.0
 40
0.0
 40
0.0
 40
0.0
 40
0.0958313223
 40
0.1890999066
 40
0.2792396479
 40
0.3229663115
 40
0.3657099292
 40
0.4074081191
 40
0.4480006754
 40
0.4874302648
 40
0.5256424385
 40
0.5625857699
 40
0.5982125807
 40
0.6324786396
 40
0.665344311
 40
0.6967743203
 40
0.7267388303
 40
0.7552139511
 40
0.7821824427
 40
0.807635341
 40
0.8315726205
 40
0.8540058864
 40
0.8749600023
 40
0.8944766962
 40
0.9126183481
 40
0.9294727137
 40
0.94515911
 40
0.9598336921
 40
0.9668557838
 40
0.973702854
 40
0.9804062715
 40
0.9869997015
 40
0.9935186515
 40
1.0
 40
1.0
 40
1.0
 40
1.0
 10
8.7389236677
 20
10.6879321733
 30
0.0
 10
8.7299638508
 20
10.6885535387
 30
0.0
 10
8.7122967183
 20
10.6899767057
 30
0.0
 10
8.686265314
 20
10.6926933824
 30
0.0
 10
8.6651525039
 20
10.6954332702
 30
0.0
 10
8.6487848859
 20
10.6978996103
 30
0.0
 10
8.6369331182
 20
10.6998576158
 30
0.0
 10
8.6254007662
 20
10.7019391659
 30
0.0
 10
8.6142070798
 20
10.7041408373
 30
0.0
 10
8.6033707546
 20
10.7064588966
 30
0.0
 10
8.5929098727
 20
10.7088894364
 30
0.0
 10
8.5828418843
 20
10.7114284135
 30
0.0
 10
8.5731835631
 20
10.7140714869
 30
0.0
 10
8.5639509961
 20
10.7168142986
 30
0.0
 10
8.5551595218
 20
10.7196521599
 30
0.0
 10
8.5468237349
 20
10.7225803678
 30
0.0
 10
8.5389574288
 20
10.7255939973
 30
0.0
 10
8.5315735714
 20
10.7286879981
 30
0.0
 10
8.5246843045
 20
10.7318573017
 30
0.0
 10
8.5183008388
 20
10.7350965973
 30
0.0
 10
8.5124335487
 20
10.7384007442
 30
0.0
 10
8.507091799
 20
10.7417643968
 30
0.0
 10
8.5022840948
 20
10.7451824619
 30
0.0
 10
8.4980180006
 20
10.7486499546
 30
0.0
 10
8.4943002688
 20
10.7521621011
 30
0.0
 10
8.4911370921
 20
10.7557148805
 30
0.0
 10
8.4885344967
 20
10.7593036667
 30
0.0
 10
8.4868130762
 20
10.7623665298
 30
0.0
 10
8.4857399363
 20
10.7648189454
 30
0.0
 10
8.4850902155
 20
10.7666359981
 30
0.0
 10
8.4845844056
 20
10.7684566352
 30
0.0
 10
8.4842227823
 20
10.7702800977
 30
0.0
 10
8.484005666
 20
10.7721053379
 30
0.0
 10
8.4839573695
 20
10.7733242735
 30
0.0
 10
8.4839573642
 20
10.7739317072
 30
0.0
  0
SPLINE
  5
2D2
100
AcDbEntity
  8
0
100
AcDbSpline
 62
7
  6
CONTINUOUS
 70
0
 71
3
 72
39
 73
35
 74
0
 42
0.0000001
 43
0.0000001
 44
0.0000000001
 40
0.0
 40
0.0
 40
0.0
 40
0.0
 40
0.0958313223
 40
0.1890999066
 40
0.2792396479
 40
0.3229663115
 40
0.3657099292
 40
0.4074081191
 40
0.4480006754
 40
0.4874302648
 40
0.5256424385
 40
0.5625857699
 40
0.5982125807
 40
0.6324786396
 40
0.665344311
 40
0.6967743203
 40
0.7267388303
 40
0.7552139511
 40
0.7821824427
 40
0.807635341
 40
0.8315726205
 40
0.8540058864
 40
0.8749600023
 40
0.8944766962
 40
0.9126183481
 40
0.9294727137
 40
0.94515911
 40
0.9598336921
 40
0.9668557838
 40
0.973702854
 40
0.9804062715
 40
0.9869997015
 40
0.9935186515
 40
1.0
 40
1.0
 40
1.0
 40
1.0
 10
9.3212660386
 20
11.2504317424
 30
0.0
 10
9.3123062217
 20
11.2510531078
 30
0.0
 10
9.2946390892
 20
11.2524762748
 30
0.0
 10
9.2686076849
 20
11.2551929515
 30
0.0
 10
9.2474948748
 20
11.2579328393
 30
0.0
 10
9.2311272568
 20
11.2603991794
 30
0.0
 10
9.2192754891
 20
11.2623571849
 30
0.0
 10
9.2077431371
 20
11.264438735
 30
0.0
 10
9.1965494507
 20
11.2666404064
 30
0.0
 10
9.1857131255
 20
11.2689584657
 30
0.0
 10
9.1752522436
 20
11.2713890055
 30
0.0
 10
9.1651842552
 20
11.2739279826
 30
0.0
 10
9.155525934
 20
11.276571056
 30
0.0
 10
9.146293367
 20
11.2793138678
 30
0.0
 10
9.1375018927
 20
11.282151729
 30
0.0
 10
9.1291661058
 20
11.2850799369
 30
0.0
 10
9.1212997997
 20
11.2880935664
 30
0.0
 10
9.1139159423
 20
11.2911875672
 30
0.0
 10
9.1070266753
 20
11.2943568708
 30
0.0
 10
9.1006432097
 20
11.2975961664
 30
0.0
 10
9.0947759196
 20
11.3009003133
 30
0.0
 10
9.0894341699
 20
11.3042639659
 30
0.0
 10
9.0846264656
 20
11.307682031
 30
0.0
 10
9.0803603715
 20
11.3111495237
 30
0.0
 10
9.0766426397
 20
11.3146616702
 30
0.0
 10
9.073479463
 20
11.3182144496
 30
0.0
 10
9.0708768676
 20
11.3218032358
 30
0.0
 10
9.069155447
 20
11.3248660989
 30
0.0
 10
9.0680823072
 20
11.3273185145
 30
0.0
 10
9.0674325864
 20
11.3291355672
 30
0.0
 10
9.0669267765
 20
11.3309562043
 30
0.0
 10
9.0665651531
 20
11.3327796668
 30
0.0
 10
9.0663480368
 20
11.334604907
 30
0.0
 10
9.0662997403
 20
11.3358238426
 30
0.0
 10
9.0662997351
 20
11.3364312763
 30
0.0
  0
SPLINE
  5
2D3
100
AcDbEntity
  8
0
100
AcDbSpline
 62
7
  6
CONTINUOUS
 70
0
 71
3
 72
48
 73
44
 74
0
 42
0.0000001
 43
0.0000001
 44
0.0000000001
 40
0.0
 40
0.0
 40
0.0
 40
0.0
 40
0.0958289108
 40
0.142819055
 40
0.1890969168
 40
0.2345923855
 40
0.2792361893
 40
0.3229617116
 40
0.3657043166
 40
0.4074013795
 40
0.4479928869
 40
0.4874214928
 40
0.5256326153
 40
0.562575023
 40
0.5982008659
 40
0.6324660346
 40
0.6653308135
 40
0.6967600002
 40
0.7267236806
 40
0.7551980185
 40
0.7821658055
 40
0.8076179191
 40
0.8197760323
 40
0.8315562182
 40
0.842960205
 40
0.853990731
 40
0.8646513669
 40
0.874946647
 40
0.8848824259
 40
0.8944657713
 40
0.9037050845
 40
0.9126105078
 40
0.9211939149
 40
0.9294690276
 40
0.9374518266
 40
0.9451606221
 40
0.9598347913
 40
0.966856672
 40
0.9737035577
 40
0.9804067923
 40
0.9870000416
 40
0.993518817
 40
1.0
 40
1.0
 40
1.0
 40
1.0
 10
13.1434591995
 20
10.642387096
 30
0.0
 10
13.1304361808
 20
10.6432902454
 30
0.0
 10
13.1110411672
 20
10.6448525342
 30
0.0
 10
13.0854051378
 20
10.6473785361
 30
0.0
 10
13.0666166354
 20
10.6494611846
 30
0.0
 10
13.0481730369
 20
10.6517406734
 30
0.0
 10
13.0301051597
 20
10.6542132456
 30
0.0
 10
13.0124432648
 20
10.6568747261
 30
0.0
 10
12.9952168389
 20
10.6597206119
 30
0.0
 10
12.9784546688
 20
10.662746163
 30
0.0
 10
12.9621847542
 20
10.6659462712
 30
0.0
 10
12.946434258
 20
10.6693155361
 30
0.0
 10
12.9312294725
 20
10.6728483384
 30
0.0
 10
12.9165957514
 20
10.6765386954
 30
0.0
 10
12.9025574826
 20
10.6803804053
 30
0.0
 10
12.889138044
 20
10.6843670476
 30
0.0
 10
12.876359734
 20
10.6884918718
 30
0.0
 10
12.8642437568
 20
10.6927479885
 30
0.0
 10
12.8528101857
 20
10.6971282834
 30
0.0
 10
12.8420778089
 20
10.701625405
 30
0.0
 10
12.8320644512
 20
10.7062319138
 30
0.0
 10
12.8242171076
 20
10.7102140191
 30
0.0
 10
12.8183204729
 20
10.7134552021
 30
0.0
 10
12.8141556662
 20
10.7158714693
 30
0.0
 10
12.8101825576
 20
10.7183093059
 30
0.0
 10
12.8064027517
 20
10.7207676886
 30
0.0
 10
12.8028178085
 20
10.723245608
 30
0.0
 10
12.7994292411
 20
10.725742106
 30
0.0
 10
12.7962384151
 20
10.7282561324
 30
0.0
 10
12.7932466347
 20
10.7307866719
 30
0.0
 10
12.7904551828
 20
10.7333327748
 30
0.0
 10
12.7878651938
 20
10.7358934012
 30
0.0
 10
12.7854777178
 20
10.7384675611
 30
0.0
 10
12.7832938698
 20
10.7410542391
 30
0.0
 10
12.7813144377
 20
10.7436526991
 30
0.0
 10
12.7789876606
 20
10.7470743831
 30
0.0
 10
12.7770191597
 20
10.7505769732
 30
0.0
 10
12.7754594789
 20
10.7541414353
 30
0.0
 10
12.7745151116
 20
10.7567825217
 30
0.0
 10
12.7737799474
 20
10.7594287978
 30
0.0
 10
12.7732543601
 20
10.7620791875
 30
0.0
 10
12.7729388265
 20
10.7647321596
 30
0.0
 10
12.7728686391
 20
10.7665038704
 30
0.0
 10
12.772868636
 20
10.7673867699
 30
0.0
  0
SPLINE
  5
2D4
100
AcDbEntity
  8
0
100
AcDbSpline
 62
7
  6
CONTINUOUS
 70
0
 71
3
 72
48
 73
44
 74
0
 42
0.0000001
 43
0.0000001
 44
0.0000000001
 40
0.0
 40
0.0
 40
0.0
 40
0.0
 40
0.0958289108
 40
0.142819055
 40
0.1890969168
 40
0.2345923855
 40
0.2792361893
 40
0.3229617116
 40
0.3657043166
 40
0.4074013795
 40
0.4479928869
 40
0.4874214928
 40
0.5256326153
 40
0.562575023
 40
0.5982008659
 40
0.6324660346
 40
0.6653308135
 40
0.6967600002
 40
0.7267236806
 40
0.7551980185
 40
0.7821658055
 40
0.8076179191
 40
0.8197760323
 40
0.8315562182
 40
0.842960205
 40
0.853990731
 40
0.8646513669
 40
0.874946647
 40
0.8848824259
 40
0.8944657713
 40
0.9037050845
 40
0.9126105078
 40
0.9211939149
 40
0.9294690276
 40
0.9374518266
 40
0.9451606221
 40
0.9598347913
 40
0.966856672
 40
0.9737035577
 40
0.9804067923
 40
0.9870000416
 40
0.993518817
 40
1.0
 40
1.0
 40
1.0
 40
1.0
 10
9.6661258806
 20
10.8835409807
 30
0.0
 10
9.653102862
 20
10.8844441301
 30
0.0
 10
9.6337078484
 20
10.8860064189
 30
0.0
 10
9.6080718189
 20
10.8885324208
 30
0.0
 10
9.5892833166
 20
10.8906150693
 30
0.0
 10
9.5708397181
 20
10.8928945581
 30
0.0
 10
9.5527718409
 20
10.8953671304
 30
0.0
 10
9.535109946
 20
10.8980286108
 30
0.0
 10
9.5178835201
 20
10.9008744967
 30
0.0
 10
9.50112135
 20
10.9039000477
 30
0.0
 10
9.4848514354
 20
10.9071001559
 30
0.0
 10
9.4691009391
 20
10.9104694209
 30
0.0
 10
9.4538961536
 20
10.9140022231
 30
0.0
 10
9.4392624326
 20
10.9176925801
 30
0.0
 10
9.4252241638
 20
10.92153429
 30
0.0
 10
9.4118047251
 20
10.9255209323
 30
0.0
 10
9.3990264152
 20
10.9296457566
 30
0.0
 10
9.3869104379
 20
10.9339018732
 30
0.0
 10
9.3754768669
 20
10.9382821681
 30
0.0
 10
9.36474449
 20
10.9427792897
 30
0.0
 10
9.3547311323
 20
10.9473857985
 30
0.0
 10
9.3468837888
 20
10.9513679039
 30
0.0
 10
9.340987154
 20
10.9546090869
 30
0.0
 10
9.3368223473
 20
10.957025354
 30
0.0
 10
9.3328492387
 20
10.9594631906
 30
0.0
 10
9.3290694329
 20
10.9619215734
 30
0.0
 10
9.3254844896
 20
10.9643994927
 30
0.0
 10
9.3220959223
 20
10.9668959907
 30
0.0
 10
9.3189050962
 20
10.9694100171
 30
0.0
 10
9.3159133158
 20
10.9719405567
 30
0.0
 10
9.3131218639
 20
10.9744866595
 30
0.0
 10
9.310531875
 20
10.977047286
 30
0.0
 10
9.3081443989
 20
10.9796214459
 30
0.0
 10
9.305960551
 20
10.9822081238
 30
0.0
 10
9.3039811189
 20
10.9848065839
 30
0.0
 10
9.3016543418
 20
10.9882282678
 30
0.0
 10
9.2996858408
 20
10.9917308579
 30
0.0
 10
9.2981261601
 20
10.99529532
 30
0.0
 10
9.2971817927
 20
10.9979364064
 30
0.0
 10
9.2964466285
 20
11.0005826825
 30
0.0
 10
9.2959210412
 20
11.0032330723
 30
0.0
 10
9.2956055077
 20
11.0058860443
 30
0.0
 10
9.2955353202
 20
11.0076577552
 30
0.0
 10
9.2955353172
 20
11.0085406546
 30
0.0
  0
SPLINE
  5
2D5
100
AcDbEntity
  8
0
100
AcDbSpline
 62
7
  6
CONTINUOUS
 70
0
 71
3
 72
18
 73
14
 74
0
 42
0.0000001
 43
0.0000001
 44
0.0000000001
 40
0.0
 40
0.0
 40
0.0
 40
0.0
 40
0.1504644953
 40
0.2917101341
 40
0.4244370579
 40
0.5495623416
 40
0.6682137756
 40
0.7255498092
 40
0.7817913051
 40
0.8371402808
 40
0.8918094146
 40
0.9460200883
 40
1.0
 40
1.0
 40
1.0
 40
1.0
 10
14.4319797215
 20
8.679808386
 30
0.0
 10
14.4338794975
 20
8.6816434288
 30
0.0
 10
14.4376764566
 20
8.6850864853
 30
0.0
 10
14.4435559571
 20
8.6896750396
 30
0.0
 10
14.4494286332
 20
8.6935126305
 30
0.0
 10
14.4552882626
 20
8.6965929969
 30
0.0
 10
14.4602132122
 20
8.6985462567
 30
0.0
 10
14.4641234011
 20
8.6997068274
 30
0.0
 10
14.467014415
 20
8.7003756874
 30
0.0
 10
14.4698958176
 20
8.7008524396
 30
0.0
 10
14.4727668219
 20
8.7011368802
 30
0.0
 10
14.4756262893
 20
8.7012287702
 30
0.0
 10
14.4775260337
 20
8.7011615579
 30
0.0
 10
14.4784713476
 20
8.701096001
 30
0.0
  0
SPLINE
  5
2D6
100
AcDbEntity
  8
0
100
AcDbSpline
 62
7
  6
CONTINUOUS
 70
0
 71
3
 72
53
 73
49
 74
0
 42
0.0000001
 43
0.0000001
 44
0.0000000001
 40
0.0
 40
0.0
 40
0.0
 40
0.0
 40
0.0311426844
 40
0.0624383931
 40
0.0938812286
 40
0.1254614913
 40
0.1571669836
 40
0.1889829512
 40
0.2208924493
 40
0.2528766959
 40
0.2849154495
 40
0.3169874116
 40
0.3490706423
 40
0.3811429843
 40
0.4131824906
 40
0.4451678483
 40
0.477078794
 40
0.5088965168
 40
0.5406040388
 40
0.5721865671
 40
0.587929481
 40
0.6036367678
 40
0.6193073317
 40
0.6349402614
 40
0.650534846
 40
0.6660905727
 40
0.6816071306
 40
0.6970844215
 40
0.7125225531
 40
0.7279218437
 40
0.7432828261
 40
0.7586062374
 40
0.7738930241
 40
0.7891443373
 40
0.8043615217
 40
0.8195461182
 40
0.8346998512
 40
0.8498246181
 40
0.8649224865
 40
0.8799956769
 40
0.8950465515
 40
0.9100776058
 40
0.9250914485
 40
0.9400907894
 40
0.9550784261
 40
0.9700572226
 40
0.985030096
 40
1.0
 40
1.0
 40
1.0
 40
1.0
 10
11.3934840064
 20
9.0601829382
 30
0.0
 10
11.4137924326
 20
9.0587745441
 30
0.0
 10
11.4544210965
 20
9.0544643387
 30
0.0
 10
11.5148715134
 20
9.0436067997
 30
0.0
 10
11.5746744519
 20
9.0283986965
 30
0.0
 10
11.6335069375
 20
9.008921735
 30
0.0
 10
11.691056393
 20
8.9852802932
 30
0.0
 10
11.7470158532
 20
8.957600906
 30
0.0
 10
11.8010872177
 20
8.926031474
 30
0.0
 10
11.8529823235
 20
8.890740498
 30
0.0
 10
11.9024246988
 20
8.8519163349
 30
0.0
 10
11.9491509169
 20
8.8097660722
 30
0.0
 10
11.9929119474
 20
8.7645144014
 30
0.0
 10
12.033474512
 20
8.716402493
 30
0.0
 10
12.0706223994
 20
8.6656867982
 30
0.0
 10
12.1041574912
 20
8.6126375131
 30
0.0
 10
12.1339007408
 20
8.557537411
 30
0.0
 10
12.1596934653
 20
8.50067956
 30
0.0
 10
12.1813973996
 20
8.4423689906
 30
0.0
 10
12.1959973107
 20
8.3927644106
 30
0.0
 10
12.2055201255
 20
8.3526697395
 30
0.0
 10
12.2115713623
 20
8.3224613801
 30
0.0
 10
12.2165301714
 20
8.2921277807
 30
0.0
 10
12.2203899518
 20
8.2617089546
 30
0.0
 10
12.2231456358
 20
8.2312456565
 30
0.0
 10
12.2247934605
 20
8.2007785136
 30
0.0
 10
12.2253311518
 20
8.1703482158
 30
0.0
 10
12.2247581049
 20
8.139995394
 30
0.0
 10
12.2230749371
 20
8.1097605794
 30
0.0
 10
12.2202839008
 20
8.0796841518
 30
0.0
 10
12.2163887915
 20
8.0498062659
 30
0.0
 10
12.2113946395
 20
8.0201668455
 30
0.0
 10
12.2053081902
 20
7.9908054678
 30
0.0
 10
12.1981375763
 20
7.9617613415
 30
0.0
 10
12.1898922209
 20
7.9330733014
 30
0.0
 10
12.1805832563
 20
7.9047796357
 30
0.0
 10
12.1702230523
 20
7.8769181548
 30
0.0
 10
12.1588253522
 20
7.8495261188
 30
0.0
 10
12.1464055025
 20
7.8226400712
 30
0.0
 10
12.1329799801
 20
7.7962959803
 30
0.0
 10
12.1185667021
 20
7.7705290595
 30
0.0
 10
12.1031850136
 20
7.7453736819
 30
0.0
 10
12.0868553321
 20
7.7208635427
 30
0.0
 10
12.0695995197
 20
7.6970313563
 30
0.0
 10
12.0514407031
 20
7.673908962
 30
0.0
 10
12.0324029071
 20
7.6515272477
 30
0.0
 10
12.0125121004
 20
7.6299164477
 30
0.0
 10
11.998699068
 20
7.6160409813
 30
0.0
 10
11.9916608386
 20
7.6092425632
 30
0.0
  0
SPLINE
  5
2D7
100
AcDbEntity
  8
0
100
AcDbSpline
 62
7
  6
CONTINUOUS
 70
0
 71
3
 72
25
 73
21
 74
0
 42
0.0000001
 43
0.0000001
 44
0.0000000001
 40
0.0
 40
0.0
 40
0.0
 40
0.0
 40
0.0638612781
 40
0.0957121911
 40
0.1275067411
 40
0.190926209
 40
0.2541301216
 40
0.2856554877
 40
0.3171294121
 40
0.3799223073
 40
0.44252455
 40
0.5049487613
 40
0.5672094491
 40
0.629322891
 40
0.6913069674
 40
0.7531809757
 40
0.8149654269
 40
0.8766818235
 40
0.9383524247
 40
1.0
 40
1.0
 40
1.0
 40
1.0
 10
11.3934840064
 20
9.0601829382
 30
0.0
 10
11.3796013404
 20
9.0611457044
 30
0.0
 10
11.358753683
 20
9.0620701947
 30
0.0
 10
11.3309671846
 20
9.0622529141
 30
0.0
 10
11.3032806035
 20
9.0617365213
 30
0.0
 10
11.2687993445
 20
9.0597832121
 30
0.0
 10
11.2345204358
 20
9.0560814435
 30
0.0
 10
11.2073098179
 20
9.0520775583
 30
0.0
 10
11.1802996244
 20
9.0473898117
 30
0.0
 10
11.1468549776
 20
9.0402419141
 30
0.0
 10
11.1073122677
 20
9.0296147694
 30
0.0
 10
11.0684887141
 20
9.0169709457
 30
0.0
 10
11.0304827894
 20
9.0023422683
 30
0.0
 10
10.9933900677
 20
8.9857654734
 30
0.0
 10
10.9573040655
 20
8.9672822561
 30
0.0
 10
10.9223156848
 20
8.9469390919
 30
0.0
 10
10.8885131858
 20
8.9247872548
 30
0.0
 10
10.8559814627
 20
8.9008822301
 30
0.0
 10
10.8248036153
 20
8.875285274
 30
0.0
 10
10.8049693614
 20
8.8571319125
 30
0.0
 10
10.7953071743
 20
8.8477989418
 30
0.0
  0
SPLINE
  5
2D8
100
AcDbEntity
  8
0
100
AcDbSpline
 62
7
  6
CONTINUOUS
 70
0
 71
3
 72
46
 73
42
 74
0
 42
0.0000001
 43
0.0000001
 44
0.0000000001
 40
0.0
 40
0.0
 40
0.0
 40
0.0
 40
0.0446341881
 40
0.0920368819
 40
0.1419548319
 40
0.1939731553
 40
0.2475025544
 40
0.3017973623
 40
0.3560149727
 40
0.4093102516
 40
0.4609333119
 40
0.510298512
 40
0.5570107891
 40
0.6008510743
 40
0.6417407338
 40
0.67970062
 40
0.7148150589
 40
0.7472045842
 40
0.7770063254
 40
0.804362083
 40
0.8294114987
 40
0.8522867067
 40
0.8731130022
 40
0.8920055777
 40
0.909074058
 40
0.9244206022
 40
0.9381467042
 40
0.9444341512
 40
0.9503554267
 40
0.9559247737
 40
0.9611568503
 40
0.9660681487
 40
0.970677482
 40
0.9750061955
 40
0.9790780686
 40
0.9829208229
 40
0.9865669077
 40
0.9900537331
 40
0.9934233309
 40
0.9967221294
 40
1.0
 40
1.0
 40
1.0
 40
1.0
 10
10.8115533018
 20
8.731806195
 30
0.0
 10
10.8122260255
 20
8.7346899541
 30
0.0
 10
10.8137291129
 20
8.7406098052
 30
0.0
 10
10.8163746841
 20
8.7496502769
 30
0.0
 10
10.8194847728
 20
8.7590591749
 30
0.0
 10
10.8230453539
 20
8.7687411603
 30
0.0
 10
10.8270206009
 20
8.778574235
 30
0.0
 10
10.8313514684
 20
8.7884154248
 30
0.0
 10
10.8359586248
 20
8.7981129751
 30
0.0
 10
10.8407499911
 20
8.807522173
 30
0.0
 10
10.8456311696
 20
8.8165202956
 30
0.0
 10
10.8505153052
 20
8.8250163821
 30
0.0
 10
10.8553298837
 20
8.8329537737
 30
0.0
 10
10.8600195404
 20
8.8403065758
 30
0.0
 10
10.8645454439
 20
8.8470727137
 30
0.0
 10
10.8688827513
 20
8.8532663823
 30
0.0
 10
10.8730174439
 20
8.8589115078
 30
0.0
 10
10.8769433424
 20
8.8640367992
 30
0.0
 10
10.8806596835
 20
8.8686723797
 30
0.0
 10
10.8841690953
 20
8.8728478528
 30
0.0
 10
10.8874763583
 20
8.8765910003
 30
0.0
 10
10.8905877915
 20
8.8799269813
 30
0.0
 10
10.893509695
 20
8.882878793
 30
0.0
 10
10.8962493438
 20
8.885466098
 30
0.0
 10
10.8988131247
 20
8.8877067681
 30
0.0
 10
10.9012079577
 20
8.8896152939
 30
0.0
 10
10.9031199188
 20
8.890977359
 30
0.0
 10
10.9045707116
 20
8.8919030015
 30
0.0
 10
10.9055880323
 20
8.8925004046
 30
0.0
 10
10.9065672986
 20
8.8930225845
 30
0.0
 10
10.9075091974
 20
8.8934702105
 30
0.0
 10
10.9084143134
 20
8.893843949
 30
0.0
 10
10.9092832337
 20
8.8941444169
 30
0.0
 10
10.9101164859
 20
8.8943722188
 30
0.0
 10
10.9109146431
 20
8.8945274709
 30
0.0
 10
10.9116781683
 20
8.8946101677
 30
0.0
 10
10.9124074495
 20
8.894620216
 30
0.0
 10
10.9131027555
 20
8.8945575529
 30
0.0
 10
10.9137642444
 20
8.8944218028
 30
0.0
 10
10.9143916555
 20
8.8942124009
 30
0.0
 10
10.9147865096
 20
8.8940236812
 30
0.0
 10
10.914976577
 20
8.8939180141
 30
0.0
  0
SPLINE
  5
2D9
100
AcDbEntity
  8
0
100
AcDbSpline
 62
7
  6
CONTINUOUS
 70
0
 71
3
 72
39
 73
35
 74
0
 42
0.0000001
 43
0.0000001
 44
0.0000000001
 40
0.0
 40
0.0
 40
0.0
 40
0.0
 40
0.0439795446
 40
0.0899210716
 40
0.1375718898
 40
0.1864653042
 40
0.2359353759
 40
0.2852035199
 40
0.3335176203
 40
0.3802736044
 40
0.4250708854
 40
0.4677014698
 40
0.5081030845
 40
0.5463073893
 40
0.5823986148
 40
0.6164853385
 40
0.6486837018
 40
0.6791090271
 40
0.7078703396
 40
0.7350695686
 40
0.7608011075
 40
0.7851528584
 40
0.8082075223
 40
0.8300440921
 40
0.850739851
 40
0.8703721023
 40
0.8890201523
 40
0.9067675596
 40
0.9237038177
 40
0.939926727
 40
0.9555437431
 40
0.9706732788
 40
0.9854452198
 40
1.0
 40
1.0
 40
1.0
 40
1.0
 10
11.322640409
 20
8.6087226514
 30
0.0
 10
11.3213438559
 20
8.6112004784
 30
0.0
 10
11.3188279706
 20
8.6163385881
 30
0.0
 10
11.3154060402
 20
8.6243938293
 30
0.0
 10
11.3123232366
 20
8.6329184924
 30
0.0
 10
11.3096521865
 20
8.6418156386
 30
0.0
 10
11.3074534743
 20
8.6509469596
 30
0.0
 10
11.3057640543
 20
8.6601484228
 30
0.0
 10
11.3045902165
 20
8.6692554263
 30
0.0
 10
11.3039097547
 20
8.678126992
 30
0.0
 10
11.3036802664
 20
8.6866596882
 30
0.0
 10
11.3038494695
 20
8.6947892439
 30
0.0
 10
11.3043636801
 20
8.7024838184
 30
0.0
 10
11.3051729908
 20
8.7097344223
 30
0.0
 10
11.3062335825
 20
8.716546212
 30
0.0
 10
11.3075082839
 20
8.7229320232
 30
0.0
 10
11.3089659081
 20
8.7289082181
 30
0.0
 10
11.3105804545
 20
8.7344921724
 30
0.0
 10
11.3123310676
 20
8.7397005992
 30
0.0
 10
11.3141995173
 20
8.7445493359
 30
0.0
 10
11.3161717083
 20
8.7490522996
 30
0.0
 10
11.3182351768
 20
8.7532220916
 30
0.0
 10
11.3203800577
 20
8.7570694463
 30
0.0
 10
11.3225978631
 20
8.7606037126
 30
0.0
 10
11.3248817717
 20
8.7638326473
 30
0.0
 10
11.3272258989
 20
8.7667628727
 30
0.0
 10
11.3296257958
 20
8.7693994402
 30
0.0
 10
11.3320773374
 20
8.7717467693
 30
0.0
 10
11.3345778853
 20
8.7738074388
 30
0.0
 10
11.3371246238
 20
8.7755839595
 30
0.0
 10
11.33971603
 20
8.7770767513
 30
0.0
 10
11.3423503796
 20
8.7782864277
 30
0.0
 10
11.3450261812
 20
8.7792118316
 30
0.0
 10
11.346845102
 20
8.7796403077
 30
0.0
 10
11.3477557764
 20
8.7798053074
 30
0.0
  0
SPLINE
  5
2DA
100
AcDbEntity
  8
0
100
AcDbSpline
 62
7
  6
CONTINUOUS
 70
0
 71
3
 72
26
 73
22
 74
0
 42
0.0000001
 43
0.0000001
 44
0.0000000001
 40
0.0
 40
0.0
 40
0.0
 40
0.0
 40
0.0815175359
 40
0.1603969894
 40
0.2366642806
 40
0.3103514907
 40
0.3814868958
 40
0.4500948243
 40
0.5161921732
 40
0.5797882644
 40
0.6408858105
 40
0.6994835822
 40
0.7555815991
 40
0.8091890611
 40
0.8350735074
 40
0.8603491429
 40
0.9090991285
 40
0.9326184769
 40
0.9555891876
 40
0.9780386838
 40
1.0
 40
1.0
 40
1.0
 40
1.0
 10
11.9327954203
 20
8.0404660079
 30
0.0
 10
11.9253978494
 20
8.0425293587
 30
0.0
 10
11.9109712389
 20
8.0470719224
 30
0.0
 10
11.8901899839
 20
8.055196394
 30
0.0
 10
11.8706758742
 20
8.0644006424
 30
0.0
 10
11.85247474
 20
8.0745624034
 30
0.0
 10
11.8356216344
 20
8.085559752
 30
0.0
 10
11.8201446872
 20
8.0972710884
 30
0.0
 10
11.8060663017
 20
8.1095763406
 30
0.0
 10
11.7934048237
 20
8.1223571741
 30
0.0
 10
11.7821759451
 20
8.1354971399
 30
0.0
 10
11.772393667
 20
8.1488820931
 30
0.0
 10
11.7640718731
 20
8.1623988643
 30
0.0
 10
11.7582982452
 20
8.1738133621
 30
0.0
 10
11.7544475008
 20
8.1829051391
 30
0.0
 10
11.7511806867
 20
8.191735328
 30
0.0
 10
11.7486084025
 20
8.2005772
 30
0.0
 10
11.7467925469
 20
8.2093678964
 30
0.0
 10
11.7458283746
 20
8.2157945116
 30
0.0
 10
11.7452474858
 20
8.2221194465
 30
0.0
 10
11.7451154605
 20
8.2263045406
 30
0.0
 10
11.7451158558
 20
8.2283735627
 30
0.0
  0
SPLINE
  5
2DB
100
AcDbEntity
  8
0
100
AcDbSpline
 62
7
  6
CONTINUOUS
 70
0
 71
3
 72
53
 73
49
 74
0
 42
0.0000001
 43
0.0000001
 44
0.0000000001
 40
0.0
 40
0.0
 40
0.0
 40
0.0
 40
0.0311426844
 40
0.0624383931
 40
0.0938812286
 40
0.1254614913
 40
0.1571669836
 40
0.1889829512
 40
0.2208924493
 40
0.2528766959
 40
0.2849154495
 40
0.3169874116
 40
0.3490706423
 40
0.3811429843
 40
0.4131824906
 40
0.4451678483
 40
0.477078794
 40
0.5088965168
 40
0.5406040388
 40
0.5721865671
 40
0.587929481
 40
0.6036367678
 40
0.6193073317
 40
0.6349402614
 40
0.650534846
 40
0.6660905727
 40
0.6816071306
 40
0.6970844215
 40
0.7125225531
 40
0.7279218437
 40
0.7432828261
 40
0.7586062374
 40
0.7738930241
 40
0.7891443373
 40
0.8043615217
 40
0.8195461182
 40
0.8346998512
 40
0.8498246181
 40
0.8649224865
 40
0.8799956769
 40
0.8950465515
 40
0.9100776058
 40
0.9250914485
 40
0.9400907894
 40
0.9550784261
 40
0.9700572226
 40
0.985030096
 40
1.0
 40
1.0
 40
1.0
 40
1.0
 10
8.7352559999
 20
9.2445316766
 30
0.0
 10
8.755564426
 20
9.2431232825
 30
0.0
 10
8.7961930899
 20
9.2388130771
 30
0.0
 10
8.8566435068
 20
9.2279555381
 30
0.0
 10
8.9164464454
 20
9.2127474349
 30
0.0
 10
8.9752789309
 20
9.1932704734
 30
0.0
 10
9.0328283864
 20
9.1696290316
 30
0.0
 10
9.0887878466
 20
9.1419496444
 30
0.0
 10
9.1428592112
 20
9.1103802124
 30
0.0
 10
9.1947543169
 20
9.0750892364
 30
0.0
 10
9.2441966922
 20
9.0362650733
 30
0.0
 10
9.2909229103
 20
8.9941148106
 30
0.0
 10
9.3346839408
 20
8.9488631398
 30
0.0
 10
9.3752465054
 20
8.9007512314
 30
0.0
 10
9.4123943928
 20
8.8500355366
 30
0.0
 10
9.4459294847
 20
8.7969862515
 30
0.0
 10
9.4756727342
 20
8.7418861494
 30
0.0
 10
9.5014654587
 20
8.6850282984
 30
0.0
 10
9.523169393
 20
8.626717729
 30
0.0
 10
9.5377693041
 20
8.577113149
 30
0.0
 10
9.5472921189
 20
8.5370184779
 30
0.0
 10
9.5533433557
 20
8.5068101185
 30
0.0
 10
9.5583021648
 20
8.4764765191
 30
0.0
 10
9.5621619452
 20
8.446057693
 30
0.0
 10
9.5649176292
 20
8.4155943949
 30
0.0
 10
9.5665654539
 20
8.385127252
 30
0.0
 10
9.5671031452
 20
8.3546969542
 30
0.0
 10
9.5665300984
 20
8.3243441324
 30
0.0
 10
9.5648469305
 20
8.2941093178
 30
0.0
 10
9.5620558942
 20
8.2640328902
 30
0.0
 10
9.5581607849
 20
8.2341550043
 30
0.0
 10
9.5531666329
 20
8.2045155839
 30
0.0
 10
9.5470801836
 20
8.1751542061
 30
0.0
 10
9.5399095697
 20
8.1461100799
 30
0.0
 10
9.5316642143
 20
8.1174220398
 30
0.0
 10
9.5223552497
 20
8.0891283741
 30
0.0
 10
9.5119950457
 20
8.0612668932
 30
0.0
 10
9.5005973457
 20
8.0338748571
 30
0.0
 10
9.4881774959
 20
8.0069888096
 30
0.0
 10
9.4747519735
 20
7.9806447186
 30
0.0
 10
9.4603386955
 20
7.9548777978
 30
0.0
 10
9.444957007
 20
7.9297224203
 30
0.0
 10
9.4286273255
 20
7.9052122811
 30
0.0
 10
9.4113715131
 20
7.8813800947
 30
0.0
 10
9.3932126965
 20
7.8582577004
 30
0.0
 10
9.3741749005
 20
7.8358759861
 30
0.0
 10
9.3542840938
 20
7.8142651861
 30
0.0
 10
9.3404710614
 20
7.8003897197
 30
0.0
 10
9.333432832
 20
7.7935913016
 30
0.0
  0
SPLINE
  5
2DC
100
AcDbEntity
  8
0
100
AcDbSpline
 62
7
  6
CONTINUOUS
 70
0
 71
3
 72
14
 73
10
 74
0
 42
0.0000001
 43
0.0000001
 44
0.0000000001
 40
0.0
 40
0.0
 40
0.0
 40
0.0
 40
0.1124517847
 40
0.22922195
 40
0.4741003569
 40
0.6015602273
 40
0.7319090551
 40
0.8648273123
 40
1.0
 40
1.0
 40
1.0
 40
1.0
 10
9.5653806186
 20
8.3077298216
 30
0.0
 10
9.5551462691
 20
8.302706942
 30
0.0
 10
9.5340948787
 20
8.2928480162
 30
0.0
 10
9.4898144832
 20
8.2741339278
 30
0.0
 10
9.4429578261
 20
8.2576772439
 30
0.0
 10
9.393808397
 20
8.2441429052
 30
0.0
 10
9.3551227356
 20
8.2355386836
 30
0.0
 10
9.3152633441
 20
8.2288717644
 30
0.0
 10
9.2882279423
 20
8.2259052329
 30
0.0
 10
9.2745674331
 20
8.224814765
 30
0.0
  0
SPLINE
  5
2DD
100
AcDbEntity
  8
0
100
AcDbSpline
 62
7
  6
CONTINUOUS
 70
0
 71
3
 72
25
 73
21
 74
0
 42
0.0000001
 43
0.0000001
 44
0.0000000001
 40
0.0
 40
0.0
 40
0.0
 40
0.0
 40
0.0638612781
 40
0.0957121911
 40
0.1275067411
 40
0.190926209
 40
0.2541301216
 40
0.2856554877
 40
0.3171294121
 40
0.3799223073
 40
0.44252455
 40
0.5049487613
 40
0.5672094491
 40
0.629322891
 40
0.6913069674
 40
0.7531809757
 40
0.8149654269
 40
0.8766818235
 40
0.9383524247
 40
1.0
 40
1.0
 40
1.0
 40
1.0
 10
8.7352559999
 20
9.2445316766
 30
0.0
 10
8.7213733338
 20
9.2454944428
 30
0.0
 10
8.7005256764
 20
9.2464189331
 30
0.0
 10
8.672739178
 20
9.2466016525
 30
0.0
 10
8.6450525969
 20
9.2460852597
 30
0.0
 10
8.610571338
 20
9.2441319505
 30
0.0
 10
8.5762924292
 20
9.2404301819
 30
0.0
 10
8.5490818113
 20
9.2364262967
 30
0.0
 10
8.5220716179
 20
9.2317385501
 30
0.0
 10
8.488626971
 20
9.2245906525
 30
0.0
 10
8.4490842611
 20
9.2139635078
 30
0.0
 10
8.4102607075
 20
9.2013196841
 30
0.0
 10
8.3722547828
 20
9.1866910067
 30
0.0
 10
8.3351620611
 20
9.1701142118
 30
0.0
 10
8.2990760589
 20
9.1516309945
 30
0.0
 10
8.2640876782
 20
9.1312878303
 30
0.0
 10
8.2302851792
 20
9.1091359932
 30
0.0
 10
8.1977534561
 20
9.0852309685
 30
0.0
 10
8.1665756087
 20
9.0596340124
 30
0.0
 10
8.1467413548
 20
9.0414806509
 30
0.0
 10
8.1370791677
 20
9.0321476802
 30
0.0
  0
SPLINE
  5
2DE
100
AcDbEntity
  8
0
100
AcDbSpline
 62
7
  6
CONTINUOUS
 70
0
 71
3
 72
52
 73
48
 74
0
 42
0.0000001
 43
0.0000001
 44
0.0000000001
 40
0.0
 40
0.0
 40
0.0
 40
0.0
 40
0.0308867963
 40
0.0464798109
 40
0.0621573894
 40
0.0779088577
 40
0.0937236268
 40
0.1095915131
 40
0.1255025257
 40
0.1414471802
 40
0.1574165878
 40
0.1734025552
 40
0.1893977201
 40
0.2053955847
 40
0.2213906247
 40
0.237378377
 40
0.2533553239
 40
0.2693189396
 40
0.2852677269
 40
0.3012009596
 40
0.3171187745
 40
0.3330220417
 40
0.3489120874
 40
0.3647909319
 40
0.380660841
 40
0.3965244168
 40
0.4123844996
 40
0.4441013318
 40
0.4758384103
 40
0.5076154583
 40
0.5394467295
 40
0.5713383674
 40
0.6032856734
 40
0.6352704323
 40
0.6672586533
 40
0.6991990906
 40
0.7310234813
 40
0.7626492813
 40
0.7939854728
 40
0.824941274
 40
0.8554366629
 40
0.8854124472
 40
0.914838067
 40
0.943715621
 40
0.9720799559
 40
0.9860906566
 40
1.0
 40
1.0
 40
1.0
 40
1.0
 10
9.2745674331
 20
8.224814765
 30
0.0
 10
9.2597886452
 20
8.223635029
 30
0.0
 10
9.2374823111
 20
8.2225727392
 30
0.0
 10
9.2076425429
 20
8.222652432
 30
0.0
 10
9.1850823783
 20
8.2234903429
 30
0.0
 10
9.1624598102
 20
8.2251305165
 30
0.0
 10
9.1398197702
 20
8.2275936201
 30
0.0
 10
9.1172093513
 20
8.230896465
 30
0.0
 10
9.0946762617
 20
8.2350511218
 30
0.0
 10
9.0722686187
 20
8.2400652337
 30
0.0
 10
9.0500342638
 20
8.2459420216
 30
0.0
 10
9.028020023
 20
8.2526797067
 30
0.0
 10
9.0062711559
 20
8.2602719484
 30
0.0
 10
8.9848309297
 20
8.268708437
 30
0.0
 10
8.9637399099
 20
8.2779746406
 30
0.0
 10
8.9430355699
 20
8.2880523471
 30
0.0
 10
8.9227522505
 20
8.2989206452
 30
0.0
 10
8.9029206863
 20
8.3105558357
 30
0.0
 10
8.8835679301
 20
8.3229320293
 30
0.0
 10
8.8647176956
 20
8.3360222094
 30
0.0
 10
8.8463900174
 20
8.3497979617
 30
0.0
 10
8.8286016605
 20
8.3642303039
 30
0.0
 10
8.8113664942
 20
8.3792902794
 30
0.0
 10
8.7946952601
 20
8.394948634
 30
0.0
 10
8.7785965077
 20
8.411176774
 30
0.0
 10
8.7630761591
 20
8.4279467575
 30
0.0
 10
8.7431612251
 20
8.4509901174
 30
0.0
 10
8.7197207353
 20
8.4810271122
 30
0.0
 10
8.6939463495
 20
8.518814222
 30
0.0
 10
8.6705138563
 20
8.5581590697
 30
0.0
 10
8.6494097079
 20
8.5988812692
 30
0.0
 10
8.6306178142
 20
8.640808511
 30
0.0
 10
8.614125132
 20
8.6837696163
 30
0.0
 10
8.5999239279
 20
8.7275891365
 30
0.0
 10
8.5880131556
 20
8.7720815177
 30
0.0
 10
8.578398279
 20
8.8170465456
 30
0.0
 10
8.5710897804
 20
8.862267033
 30
0.0
 10
8.566100543
 20
8.907510049
 30
0.0
 10
8.563442658
 20
8.9525323876
 30
0.0
 10
8.5631243731
 20
8.9970900507
 30
0.0
 10
8.5651481305
 20
9.040950187
 30
0.0
 10
8.5695101511
 20
9.0839027454
 30
0.0
 10
8.5762020142
 20
9.1257699706
 30
0.0
 10
8.5852125147
 20
9.166408802
 30
0.0
 10
8.5946850093
 20
9.1992988368
 30
0.0
 10
8.6034181156
 20
9.2248691949
 30
0.0
 10
8.6081656207
 20
9.2374051209
 30
0.0
 10
8.610634678
 20
9.2436083487
 30
0.0
  0
SPLINE
  5
2DF
100
AcDbEntity
  8
0
100
AcDbSpline
 62
7
  6
CONTINUOUS
 70
0
 71
3
 72
39
 73
35
 74
0
 42
0.0000001
 43
0.0000001
 44
0.0000000001
 40
0.0
 40
0.0
 40
0.0
 40
0.0
 40
0.0311449947
 40
0.0624431119
 40
0.0938883503
 40
0.1254709881
 40
0.1571788868
 40
0.1889972614
 40
0.2209091758
 40
0.2528958433
 40
0.2849370222
 40
0.3170114123
 40
0.3490970723
 40
0.3811718431
 40
0.4132137759
 40
0.4452015559
 40
0.4771149186
 40
0.5089350513
 40
0.5406449739
 40
0.572229893
 40
0.6036775221
 40
0.6349783619
 40
0.6661259329
 40
0.6971169532
 40
0.7279514559
 40
0.7586328387
 40
0.7891678401
 40
0.8195664404
 40
0.8498416824
 40
0.8800094153
 40
0.9100879623
 40
0.9400977195
 40
0.9700606952
 40
1.0
 40
1.0
 40
1.0
 40
1.0
 10
10.0811931575
 20
6.8745332089
 30
0.0
 10
10.0911468655
 20
6.8738429169
 30
0.0
 10
10.1110600985
 20
6.8717303692
 30
0.0
 10
10.140688531
 20
6.8664087937
 30
0.0
 10
10.1699996227
 20
6.8589548668
 30
0.0
 10
10.1988350544
 20
6.849408651
 30
0.0
 10
10.2270416416
 20
6.83782134
 30
0.0
 10
10.2544689242
 20
6.8242548962
 30
0.0
 10
10.2809707924
 20
6.8087818301
 30
0.0
 10
10.3064060288
 20
6.7914847521
 30
0.0
 10
10.3306391151
 20
6.7724559606
 30
0.0
 10
10.3535409272
 20
6.7517969428
 30
0.0
 10
10.3749894209
 20
6.7296178418
 30
0.0
 10
10.3948702738
 20
6.7060368733
 30
0.0
 10
10.4130774893
 20
6.6811797025
 30
0.0
 10
10.4295139562
 20
6.6551787811
 30
0.0
 10
10.4440919625
 20
6.6281726492
 30
0.0
 10
10.4567336622
 20
6.6003052072
 30
0.0
 10
10.4673714884
 20
6.5717249567
 30
0.0
 10
10.4759485122
 20
6.5425842196
 30
0.0
 10
10.4824187491
 20
6.5130383367
 30
0.0
 10
10.4867474088
 20
6.4832448511
 30
0.0
 10
10.4889110883
 20
6.4533626796
 30
0.0
 10
10.4888979068
 20
6.4235512752
 30
0.0
 10
10.4867075825
 20
6.3939697856
 30
0.0
 10
10.4823514505
 20
6.3647762098
 30
0.0
 10
10.4758524212
 20
6.336126559
 30
0.0
 10
10.4672448744
 20
6.3081740182
 30
0.0
 10
10.45657451
 20
6.2810681353
 30
0.0
 10
10.4438980706
 20
6.2549539592
 30
0.0
 10
10.4292832466
 20
6.2299714377
 30
0.0
 10
10.412807612
 20
6.2062539426
 30
0.0
 10
10.3945608745
 20
6.1839301521
 30
0.0
 10
10.3812748662
 20
6.1700506109
 30
0.0
 10
10.3743762186
 20
6.1633870644
 30
0.0
  0
SPLINE
  5
2E0
100
AcDbEntity
  8
0
100
AcDbSpline
 62
7
  6
CONTINUOUS
 70
0
 71
3
 72
25
 73
21
 74
0
 42
0.0000001
 43
0.0000001
 44
0.0000000001
 40
0.0
 40
0.0
 40
0.0
 40
0.0
 40
0.0638600801
 40
0.1275020905
 40
0.1909209128
 40
0.2541248095
 40
0.3171189224
 40
0.3799117047
 40
0.4425139184
 40
0.5049380808
 40
0.5671987142
 40
0.6293121052
 40
0.6912961359
 40
0.722248368
 40
0.7531756068
 40
0.814960008
 40
0.8766763542
 40
0.9075187236
 40
0.9383524717
 40
1.0
 40
1.0
 40
1.0
 40
1.0
 10
10.0811931575
 20
6.8745332089
 30
0.0
 10
10.074389
 20
6.8750050788
 30
0.0
 10
10.0607779334
 20
6.8756086485
 30
0.0
 10
10.0403789742
 20
6.8754871464
 30
0.0
 10
10.0200816678
 20
6.8743372444
 30
0.0
 10
9.999938166
 20
6.8721620578
 30
0.0
 10
9.9799986904
 20
6.8689667997
 30
0.0
 10
9.9603135907
 20
6.8647595579
 30
0.0
 10
9.9409323997
 20
6.8595508964
 30
0.0
 10
9.9219039664
 20
6.853353819
 30
0.0
 10
9.9032761506
 20
6.8461838449
 30
0.0
 10
9.8850961764
 20
6.8380592109
 30
0.0
 10
9.8703496053
 20
6.8305060457
 30
0.0
 10
9.8588245105
 20
6.8240085927
 30
0.0
 10
9.8474950891
 20
6.8172169945
 30
0.0
 10
9.8336929183
 20
6.8081720057
 30
0.0
 10
9.8204024813
 20
6.7984058828
 30
0.0
 10
9.8101043579
 20
6.7901798677
 30
0.0
 10
9.8000366819
 20
6.781685269
 30
0.0
 10
9.7927458183
 20
6.7750122394
 30
0.0
 10
9.7880100965
 20
6.7704379077
 30
0.0
  0
SPLINE
  5
2E1
100
AcDbEntity
  8
0
100
AcDbSpline
 62
7
  6
CONTINUOUS
 70
0
 71
3
 72
19
 73
15
 74
0
 42
0.0000001
 43
0.0000001
 44
0.0000000001
 40
0.0
 40
0.0
 40
0.0
 40
0.0
 40
0.0695439396
 40
0.1383603856
 40
0.2063945095
 40
0.2735928144
 40
0.4052526004
 40
0.5329926281
 40
0.5953084953
 40
0.6565371419
 40
0.7166535089
 40
0.7756384642
 40
0.8901342333
 40
1.0
 40
1.0
 40
1.0
 40
1.0
 10
12.2181173679
 20
8.0649958705
 30
0.0
 10
12.2118664548
 20
8.0624234686
 30
0.0
 10
12.1993360899
 20
8.0575301917
 30
0.0
 10
12.1803874577
 20
8.0509291225
 30
0.0
 10
12.1614201959
 20
8.0451154361
 30
0.0
 10
12.1363385121
 20
8.038471928
 30
0.0
 10
12.1051953729
 20
8.0321412131
 30
0.0
 10
12.0741103619
 20
8.0284092914
 30
0.0
 10
12.0497185444
 20
8.0270344833
 30
0.0
 10
12.0318633074
 20
8.0267849364
 30
0.0
 10
12.0143372985
 20
8.0272914723
 30
0.0
 10
11.9916853883
 20
8.0289301811
 30
0.0
 10
11.9643668821
 20
8.0327009784
 30
0.0
 10
11.9430815159
 20
8.0375969817
 30
0.0
 10
11.9327954203
 20
8.0404660079
 30
0.0
  0
SPLINE
  5
2E2
100
AcDbEntity
  8
0
100
AcDbSpline
 62
7
  6
CONTINUOUS
 70
0
 71
3
 72
24
 73
20
 74
0
 42
0.0000001
 43
0.0000001
 44
0.0000000001
 40
0.0
 40
0.0
 40
0.0
 40
0.0
 40
0.0149468872
 40
0.0302740265
 40
0.0624228376
 40
0.0971802088
 40
0.13517237
 40
0.1769480827
 40
0.2229915763
 40
0.27373696
 40
0.329582277
 40
0.3908993858
 40
0.4580404767
 40
0.531341408
 40
0.6111183116
 40
0.6976616025
 40
0.79121739
 40
0.8919715114
 40
1.0
 40
1.0
 40
1.0
 40
1.0
 10
10.8185647911
 20
8.6615032174
 30
0.0
 10
10.8182418251
 20
8.6616825457
 30
0.0
 10
10.8176030598
 20
8.6620742566
 30
0.0
 10
10.816358229
 20
8.6629880515
 30
0.0
 10
10.8148719032
 20
8.6643870801
 30
0.0
 10
10.8132542101
 20
8.6664226856
 30
0.0
 10
10.8117834682
 20
8.6688488496
 30
0.0
 10
10.8104714129
 20
8.6716738667
 30
0.0
 10
10.8093309967
 20
8.6749078632
 30
0.0
 10
10.8083773741
 20
8.6785616742
 30
0.0
 10
10.8076272032
 20
8.6826465251
 30
0.0
 10
10.8070994017
 20
8.687173843
 30
0.0
 10
10.8068144339
 20
8.6921547828
 30
0.0
 10
10.8067945691
 20
8.6975998328
 30
0.0
 10
10.8070637996
 20
8.7035181506
 30
0.0
 10
10.807647446
 20
8.7099164859
 30
0.0
 10
10.8085716383
 20
8.7167979814
 30
0.0
 10
10.8098625815
 20
8.7241597645
 30
0.0
 10
10.8109467467
 20
8.7292060805
 30
0.0
 10
10.8115533018
 20
8.731806195
 30
0.0
  0
SPLINE
  5
2E3
100
AcDbEntity
  8
0
100
AcDbSpline
 62
7
  6
CONTINUOUS
 70
0
 71
3
 72
28
 73
24
 74
0
 42
0.0000001
 43
0.0000001
 44
0.0000000001
 40
0.0
 40
0.0
 40
0.0
 40
0.0
 40
0.0423189037
 40
0.0640188902
 40
0.0861175199
 40
0.1086442093
 40
0.1316265692
 40
0.1550891708
 40
0.1790556008
 40
0.2285881114
 40
0.2804264528
 40
0.3072800886
 40
0.3347907385
 40
0.3919044461
 40
0.4520642102
 40
0.483398393
 40
0.5156314598
 40
0.5830199684
 40
0.6547732457
 40
0.7315449694
 40
0.8141124973
 40
0.9033340621
 40
1.0
 40
1.0
 40
1.0
 40
1.0
 10
11.4280499383
 20
8.5402845214
 30
0.0
 10
11.4261990773
 20
8.5399489586
 30
0.0
 10
11.4233670482
 20
8.5396036356
 30
0.0
 10
11.4195419926
 20
8.5394353811
 30
0.0
 10
11.4165926498
 20
8.5394511909
 30
0.0
 10
11.4135906803
 20
8.5396092946
 30
0.0
 10
11.4105386535
 20
8.5399092611
 30
0.0
 10
11.4074392134
 20
8.540350473
 30
0.0
 10
11.4032004203
 20
8.5411357132
 30
0.0
 10
11.3977891073
 20
8.5424863575
 30
0.0
 10
11.3923749347
 20
8.5442843477
 30
0.0
 10
11.3879811534
 20
8.5460126046
 30
0.0
 10
11.3834367418
 20
8.547990138
 30
0.0
 10
11.3776769737
 20
8.5508733703
 30
0.0
 10
11.3719838004
 20
8.5542338146
 30
0.0
 10
11.3673955733
 20
8.5572675178
 30
0.0
 10
11.3626522485
 20
8.5606431709
 30
0.0
 10
11.3566819324
 20
8.5653847815
 30
0.0
 10
11.3495979425
 20
8.5718711794
 30
0.0
 10
11.3425350721
 20
8.5793421536
 30
0.0
 10
11.3355582051
 20
8.5879227619
 30
0.0
 10
11.3287664164
 20
8.5977483703
 30
0.0
 10
11.3246324755
 20
8.6049156369
 30
0.0
 10
11.322640409
 20
8.6087226514
 30
0.0
  0
SPLINE
  5
2E4
100
AcDbEntity
  8
0
100
AcDbSpline
 62
7
  6
CONTINUOUS
 70
0
 71
3
 72
93
 73
89
 74
0
 42
0.0000001
 43
0.0000001
 44
0.0000000001
 40
0.0
 40
0.0
 40
0.0
 40
0.0
 40
0.0027164123
 40
0.0054532003
 40
0.0082302511
 40
0.0110665188
 40
0.0139797087
 40
0.0169859919
 40
0.0200999248
 40
0.0233344222
 40
0.0267007415
 40
0.0302086647
 40
0.0338665533
 40
0.0376814767
 40
0.0416594243
 40
0.0458053166
 40
0.0501232008
 40
0.0546163657
 40
0.0592873336
 40
0.0641380659
 40
0.0691699599
 40
0.0743838844
 40
0.0797803377
 40
0.0853593655
 40
0.0911206686
 40
0.0970636691
 40
0.103187422
 40
0.1094907654
 40
0.115972287
 40
0.1226302975
 40
0.1364678668
 40
0.1509865713
 40
0.1661663509
 40
0.1819846841
 40
0.1984168097
 40
0.2154359588
 40
0.2330135682
 40
0.2511194356
 40
0.2697218355
 40
0.2887876743
 40
0.3082826313
 40
0.3281712652
 40
0.3484171046
 40
0.3689827784
 40
0.3898301268
 40
0.4109202943
 40
0.4322138195
 40
0.4536707533
 40
0.4752507569
 40
0.4969131917
 40
0.5186172186
 40
0.5403219038
 40
0.5619863112
 40
0.5835695967
 40
0.6050311154
 40
0.6263305167
 40
0.6474278353
 40
0.6682835944
 40
0.6888589193
 40
0.7091156245
 40
0.7290163086
 40
0.7485244738
 40
0.7676046457
 40
0.7862224624
 40
0.8043447853
 40
0.8219398498
 40
0.8389774029
 40
0.8554288215
 40
0.8712672731
 40
0.8864679379
 40
0.9010082173
 40
0.9148679618
 40
0.9215372541
 40
0.9280301704
 40
0.9343450165
 40
0.9404803482
 40
0.9464349973
 40
0.9522079991
 40
0.9577987498
 40
0.9632069499
 40
0.9684326097
 40
0.9734761809
 40
0.9783384898
 40
0.983020908
 40
0.9875254607
 40
0.9918547019
 40
0.9960116651
 40
1.0
 40
1.0
 40
1.0
 40
1.0
 10
14.3854880954
 20
7.3603163836
 30
0.0
 10
14.3842338902
 20
7.3604033619
 30
0.0
 10
14.3817224911
 20
7.3606914608
 30
0.0
 10
14.3779873686
 20
7.3614624934
 30
0.0
 10
14.3742804877
 20
7.3625722487
 30
0.0
 10
14.370604445
 20
7.3640195624
 30
0.0
 10
14.3669612118
 20
7.3658033085
 30
0.0
 10
14.3633525929
 20
7.367921952
 30
0.0
 10
14.3597802623
 20
7.370374028
 30
0.0
 10
14.3562458613
 20
7.3731580389
 30
0.0
 10
14.3527508297
 20
7.3762722575
 30
0.0
 10
14.3492967422
 20
7.3797150606
 30
0.0
 10
14.3458851006
 20
7.3834846353
 30
0.0
 10
14.3425173574
 20
7.3875790271
 30
0.0
 10
14.3391951312
 20
7.3919962641
 30
0.0
 10
14.3359198882
 20
7.3967341122
 30
0.0
 10
14.3326931657
 20
7.4017902447
 30
0.0
 10
14.3295165689
 20
7.4071622076
 30
0.0
 10
14.326391541
 20
7.4128473085
 30
0.0
 10
14.3233196599
 20
7.4188427696
 30
0.0
 10
14.320302442
 20
7.4251456252
 30
0.0
 10
14.3173413146
 20
7.4317527283
 30
0.0
 10
14.3144378265
 20
7.438660825
 30
0.0
 10
14.3115933782
 20
7.4458664594
 30
0.0
 10
14.3088093771
 20
7.4533660382
 30
0.0
 10
14.3060872826
 20
7.4611558347
 30
0.0
 10
14.3034283872
 20
7.4692319378
 30
0.0
 10
14.3008340679
 20
7.4775903135
 30
0.0
 10
14.2983056269
 20
7.4862267911
 30
0.0
 10
14.2949811227
 20
7.4982620919
 30
0.0
 10
14.291010507
 20
7.513975898
 30
0.0
 10
14.2865869753
 20
7.5336358756
 30
0.0
 10
14.2824545612
 20
7.5542947025
 30
0.0
 10
14.2786216644
 20
7.5759109263
 30
0.0
 10
14.2750960858
 20
7.5984412989
 30
0.0
 10
14.2718849866
 20
7.6218406307
 30
0.0
 10
14.2689949063
 20
7.6460619798
 30
0.0
 10
14.2664317453
 20
7.6710567256
 30
0.0
 10
14.2642007122
 20
7.6967746638
 30
0.0
 10
14.2623063399
 20
7.7231641167
 30
0.0
 10
14.260752491
 20
7.7501720531
 30
0.0
 10
14.2595423499
 20
7.7777441884
 30
0.0
 10
14.2586783754
 20
7.8058250892
 30
0.0
 10
14.25816233
 20
7.8343582912
 30
0.0
 10
14.2579952833
 20
7.8632864219
 30
0.0
 10
14.258177609
 20
7.892551309
 30
0.0
 10
14.2587089452
 20
7.9220940968
 30
0.0
 10
14.2595882331
 20
7.9518553683
 30
0.0
 10
14.2608137213
 20
7.981775268
 30
0.0
 10
14.2623829659
 20
8.0117936185
 30
0.0
 10
14.2642928005
 20
8.0418500441
 30
0.0
 10
14.2665393819
 20
8.0718840922
 30
0.0
 10
14.2691181975
 20
8.1018353547
 30
0.0
 10
14.2720240661
 20
8.1316435899
 30
0.0
 10
14.2752511202
 20
8.1612488483
 30
0.0
 10
14.2787928559
 20
8.1905915898
 30
0.0
 10
14.2826421449
 20
8.2196127998
 30
0.0
 10
14.2867912345
 20
8.248254115
 30
0.0
 10
14.2912317436
 20
8.2764579458
 30
0.0
 10
14.2959547145
 20
8.3041675842
 30
0.0
 10
14.3009506305
 20
8.3313273146
 30
0.0
 10
14.3062094135
 20
8.3578825387
 30
0.0
 10
14.3117204347
 20
8.3837798909
 30
0.0
 10
14.3174725665
 20
8.4089673332
 30
0.0
 10
14.3234542062
 20
8.4333942591
 30
0.0
 10
14.32965327
 20
8.4570116166
 30
0.0
 10
14.3360572196
 20
8.4797720105
 30
0.0
 10
14.3426531129
 20
8.5016297893
 30
0.0
 10
14.3494276366
 20
8.5225411226
 30
0.0
 10
14.3563670948
 20
8.5424641943
 30
0.0
 10
14.3634574604
 20
8.5613590417
 30
0.0
 10
14.3695554671
 20
8.5764033003
 30
0.0
 10
14.3745067234
 20
8.5878882736
 30
0.0
 10
14.3782013254
 20
8.5961112049
 30
0.0
 10
14.3819228936
 20
8.6040498682
 30
0.0
 10
14.3856695906
 20
8.6117002918
 30
0.0
 10
14.3894394748
 20
8.6190586671
 30
0.0
 10
14.3932307256
 20
8.6261212915
 30
0.0
 10
14.3970414087
 20
8.632884659
 30
0.0
 10
14.40086961
 20
8.6393454107
 30
0.0
 10
14.4047134844
 20
8.6455002909
 30
0.0
 10
14.4085710305
 20
8.6513462667
 30
0.0
 10
14.4124403623
 20
8.6568804195
 30
0.0
 10
14.4163196351
 20
8.6621000234
 30
0.0
 10
14.4202069458
 20
8.6670025906
 30
0.0
 10
14.4241005179
 20
8.671585657
 30
0.0
 10
14.4279981585
 20
8.6758467395
 30
0.0
 10
14.430652055
 20
8.6785259586
 30
0.0
 10
14.4319797215
 20
8.679808386
 30
0.0
  0
SPLINE
  5
2E5
100
AcDbEntity
  8
0
100
AcDbSpline
 62
7
  6
CONTINUOUS
 70
0
 71
3
 72
52
 73
48
 74
0
 42
0.0000001
 43
0.0000001
 44
0.0000000001
 40
0.0
 40
0.0
 40
0.0
 40
0.0
 40
0.0055575432
 40
0.0111779614
 40
0.0169218945
 40
0.0228457475
 40
0.0290005144
 40
0.0354308862
 40
0.0421752934
 40
0.0492661335
 40
0.0567301231
 40
0.0645892225
 40
0.0728608672
 40
0.0815588606
 40
0.0906937967
 40
0.1002733464
 40
0.1103030146
 40
0.1207860058
 40
0.1317238562
 40
0.1431165283
 40
0.1549624431
 40
0.1672590102
 40
0.1800022976
 40
0.1931875122
 40
0.2068089526
 40
0.2208599541
 40
0.2353333061
 40
0.2502208768
 40
0.2812026952
 40
0.3137297793
 40
0.3477171238
 40
0.3830722713
 40
0.4196961455
 40
0.4574837832
 40
0.4963250606
 40
0.5361053206
 40
0.5767059552
 40
0.6180049532
 40
0.6598774413
 40
0.7021962436
 40
0.7448324284
 40
0.7876557765
 40
0.8305353181
 40
0.8733401
 40
0.9159383712
 40
0.9582024049
 40
1.0
 40
1.0
 40
1.0
 40
1.0
 10
14.5839291158
 20
11.0014961391
 30
0.0
 10
14.5839291232
 20
11.0006451489
 30
0.0
 10
14.5838338825
 20
10.9989320588
 30
0.0
 10
14.5834063258
 20
10.9963715547
 30
0.0
 10
14.5826947052
 20
10.9938167834
 30
0.0
 10
14.5817005628
 20
10.9912706509
 30
0.0
 10
14.5804253537
 20
10.9887352955
 30
0.0
 10
14.5788709351
 20
10.9862125961
 30
0.0
 10
14.5770390167
 20
10.9837043069
 30
0.0
 10
14.5749313703
 20
10.9812121535
 30
0.0
 10
14.5725499617
 20
10.978737728
 30
0.0
 10
14.5698966886
 20
10.9762828566
 30
0.0
 10
14.566973786
 20
10.9738492072
 30
0.0
 10
14.5637835603
 20
10.9714386103
 30
0.0
 10
14.5603285394
 20
10.9690529237
 30
0.0
 10
14.5566115188
 20
10.9666939078
 30
0.0
 10
14.5526354154
 20
10.9643635207
 30
0.0
 10
14.5484034586
 20
10.9620635305
 30
0.0
 10
14.5439190347
 20
10.9597958182
 30
0.0
 10
14.5391857572
 20
10.9575622407
 30
0.0
 10
14.5342074774
 20
10.9553645399
 30
0.0
 10
14.5289882062
 20
10.9532045976
 30
0.0
 10
14.5235322074
 20
10.9510841027
 30
0.0
 10
14.5178439123
 20
10.949004824
 30
0.0
 10
14.5119279539
 20
10.9469684836
 30
0.0
 10
14.5057891705
 20
10.9449766965
 30
0.0
 10
14.499432553
 20
10.943031158
 30
0.0
 10
14.4905553217
 20
10.9404667423
 30
0.0
 10
14.4789482515
 20
10.9373970264
 30
0.0
 10
14.4644165598
 20
10.9339691084
 30
0.0
 10
14.4491498927
 20
10.9307611073
 30
0.0
 10
14.4331981883
 20
10.9277836304
 30
0.0
 10
14.4166135297
 20
10.9250465478
 30
0.0
 10
14.3994501656
 20
10.922558907
 30
0.0
 10
14.3817642568
 20
10.9203289354
 30
0.0
 10
14.3636136964
 20
10.9183640061
 30
0.0
 10
14.3450579136
 20
10.916670618
 30
0.0
 10
14.3261576824
 20
10.9152543719
 30
0.0
 10
14.3069749193
 20
10.9141199379
 30
0.0
 10
14.2875724716
 20
10.9132710584
 30
0.0
 10
14.2680139106
 20
10.9127105372
 30
0.0
 10
14.2483633259
 20
10.912440229
 30
0.0
 10
14.2286850786
 20
10.9124610263
 30
0.0
 10
14.2090437606
 20
10.9127728745
 30
0.0
 10
14.1895034569
 20
10.9133746946
 30
0.0
 10
14.17012857
 20
10.9142645736
 30
0.0
 10
14.1572803129
 20
10.9150530134
 30
0.0
 10
14.1508954562
 20
10.9154958047
 30
0.0
  0
SPLINE
  5
2E6
100
AcDbEntity
  8
0
100
AcDbSpline
 62
7
  6
CONTINUOUS
 70
0
 71
3
 72
52
 73
48
 74
0
 42
0.0000001
 43
0.0000001
 44
0.0000000001
 40
0.0
 40
0.0
 40
0.0
 40
0.0
 40
0.0055575432
 40
0.0111779614
 40
0.0169218945
 40
0.0228457475
 40
0.0290005144
 40
0.0354308862
 40
0.0421752934
 40
0.0492661335
 40
0.0567301231
 40
0.0645892225
 40
0.0728608672
 40
0.0815588606
 40
0.0906937967
 40
0.1002733464
 40
0.1103030146
 40
0.1207860058
 40
0.1317238562
 40
0.1431165283
 40
0.1549624431
 40
0.1672590102
 40
0.1800022976
 40
0.1931875122
 40
0.2068089526
 40
0.2208599541
 40
0.2353333061
 40
0.2502208768
 40
0.2812026952
 40
0.3137297793
 40
0.3477171238
 40
0.3830722713
 40
0.4196961455
 40
0.4574837832
 40
0.4963250606
 40
0.5361053206
 40
0.5767059552
 40
0.6180049532
 40
0.6598774413
 40
0.7021962436
 40
0.7448324284
 40
0.7876557765
 40
0.8305353181
 40
0.8733401
 40
0.9159383712
 40
0.9582024049
 40
1.0
 40
1.0
 40
1.0
 40
1.0
 10
14.001586745
 20
10.43899657
 30
0.0
 10
14.0015867523
 20
10.4381455798
 30
0.0
 10
14.0014915116
 20
10.4364324897
 30
0.0
 10
14.0010639549
 20
10.4338719856
 30
0.0
 10
14.0003523343
 20
10.4313172143
 30
0.0
 10
13.9993581919
 20
10.4287710818
 30
0.0
 10
13.9980829828
 20
10.4262357264
 30
0.0
 10
13.9965285642
 20
10.423713027
 30
0.0
 10
13.9946966458
 20
10.4212047378
 30
0.0
 10
13.9925889995
 20
10.4187125844
 30
0.0
 10
13.9902075908
 20
10.4162381589
 30
0.0
 10
13.9875543177
 20
10.4137832875
 30
0.0
 10
13.9846314151
 20
10.4113496381
 30
0.0
 10
13.9814411894
 20
10.4089390412
 30
0.0
 10
13.9779861685
 20
10.4065533545
 30
0.0
 10
13.9742691479
 20
10.4041943387
 30
0.0
 10
13.9702930445
 20
10.4018639516
 30
0.0
 10
13.9660610877
 20
10.3995639614
 30
0.0
 10
13.9615766639
 20
10.3972962491
 30
0.0
 10
13.9568433863
 20
10.3950626716
 30
0.0
 10
13.9518651065
 20
10.3928649708
 30
0.0
 10
13.9466458353
 20
10.3907050285
 30
0.0
 10
13.9411898365
 20
10.3885845336
 30
0.0
 10
13.9355015414
 20
10.3865052549
 30
0.0
 10
13.929585583
 20
10.3844689145
 30
0.0
 10
13.9234467996
 20
10.3824771274
 30
0.0
 10
13.9170901821
 20
10.3805315889
 30
0.0
 10
13.9082129509
 20
10.3779671731
 30
0.0
 10
13.8966058806
 20
10.3748974573
 30
0.0
 10
13.8820741889
 20
10.3714695393
 30
0.0
 10
13.8668075218
 20
10.3682615382
 30
0.0
 10
13.8508558174
 20
10.3652840613
 30
0.0
 10
13.8342711588
 20
10.3625469787
 30
0.0
 10
13.8171077947
 20
10.3600593379
 30
0.0
 10
13.799421886
 20
10.3578293663
 30
0.0
 10
13.7812713255
 20
10.355864437
 30
0.0
 10
13.7627155427
 20
10.3541710489
 30
0.0
 10
13.7438153115
 20
10.3527548028
 30
0.0
 10
13.7246325484
 20
10.3516203688
 30
0.0
 10
13.7052301007
 20
10.3507714893
 30
0.0
 10
13.6856715397
 20
10.3502109681
 30
0.0
 10
13.666020955
 20
10.3499406599
 30
0.0
 10
13.6463427077
 20
10.3499614572
 30
0.0
 10
13.6267013897
 20
10.3502733054
 30
0.0
 10
13.607161086
 20
10.3508751255
 30
0.0
 10
13.5877861992
 20
10.3517650045
 30
0.0
 10
13.574937942
 20
10.3525534443
 30
0.0
 10
13.5685530853
 20
10.3529962356
 30
0.0
  0
SPLINE
  5
2E7
100
AcDbEntity
  8
0
100
AcDbSpline
 62
7
  6
CONTINUOUS
 70
0
 71
3
 72
52
 73
48
 74
0
 42
0.0000001
 43
0.0000001
 44
0.0000000001
 40
0.0
 40
0.0
 40
0.0
 40
0.0
 40
0.0055575432
 40
0.0111779614
 40
0.0169218945
 40
0.0228457475
 40
0.0290005144
 40
0.0354308862
 40
0.0421752934
 40
0.0492661335
 40
0.0567301231
 40
0.0645892225
 40
0.0728608672
 40
0.0815588606
 40
0.0906937967
 40
0.1002733464
 40
0.1103030146
 40
0.1207860058
 40
0.1317238562
 40
0.1431165283
 40
0.1549624431
 40
0.1672590102
 40
0.1800022976
 40
0.1931875122
 40
0.2068089526
 40
0.2208599541
 40
0.2353333061
 40
0.2502208768
 40
0.2812026952
 40
0.3137297793
 40
0.3477171238
 40
0.3830722713
 40
0.4196961455
 40
0.4574837832
 40
0.4963250606
 40
0.5361053206
 40
0.5767059552
 40
0.6180049532
 40
0.6598774413
 40
0.7021962436
 40
0.7448324284
 40
0.7876557765
 40
0.8305353181
 40
0.8733401
 40
0.9159383712
 40
0.9582024049
 40
1.0
 40
1.0
 40
1.0
 40
1.0
 10
9.1719573273
 20
10.7739325077
 30
0.0
 10
9.1719573347
 20
10.7730815175
 30
0.0
 10
9.171862094
 20
10.7713684274
 30
0.0
 10
9.1714345373
 20
10.7688079233
 30
0.0
 10
9.1707229167
 20
10.766253152
 30
0.0
 10
9.1697287743
 20
10.7637070195
 30
0.0
 10
9.1684535652
 20
10.7611716641
 30
0.0
 10
9.1668991466
 20
10.7586489647
 30
0.0
 10
9.1650672282
 20
10.7561406755
 30
0.0
 10
9.1629595818
 20
10.7536485221
 30
0.0
 10
9.1605781732
 20
10.7511740966
 30
0.0
 10
9.1579249001
 20
10.7487192252
 30
0.0
 10
9.1550019975
 20
10.7462855758
 30
0.0
 10
9.1518117718
 20
10.7438749789
 30
0.0
 10
9.1483567509
 20
10.7414892923
 30
0.0
 10
9.1446397303
 20
10.7391302764
 30
0.0
 10
9.1406636269
 20
10.7367998893
 30
0.0
 10
9.1364316701
 20
10.7344998991
 30
0.0
 10
9.1319472462
 20
10.7322321868
 30
0.0
 10
9.1272139687
 20
10.7299986093
 30
0.0
 10
9.1222356889
 20
10.7278009085
 30
0.0
 10
9.1170164177
 20
10.7256409662
 30
0.0
 10
9.1115604189
 20
10.7235204713
 30
0.0
 10
9.1058721238
 20
10.7214411926
 30
0.0
 10
9.0999561654
 20
10.7194048522
 30
0.0
 10
9.093817382
 20
10.7174130651
 30
0.0
 10
9.0874607645
 20
10.7154675266
 30
0.0
 10
9.0785835332
 20
10.7129031108
 30
0.0
 10
9.066976463
 20
10.709833395
 30
0.0
 10
9.0524447713
 20
10.706405477
 30
0.0
 10
9.0371781042
 20
10.7031974759
 30
0.0
 10
9.0212263998
 20
10.700219999
 30
0.0
 10
9.0046417412
 20
10.6974829164
 30
0.0
 10
8.9874783771
 20
10.6949952756
 30
0.0
 10
8.9697924683
 20
10.692765304
 30
0.0
 10
8.9516419079
 20
10.6908003747
 30
0.0
 10
8.9330861251
 20
10.6891069866
 30
0.0
 10
8.9141858939
 20
10.6876907405
 30
0.0
 10
8.8950031308
 20
10.6865563065
 30
0.0
 10
8.8756006831
 20
10.685707427
 30
0.0
 10
8.8560421221
 20
10.6851469058
 30
0.0
 10
8.8363915374
 20
10.6848765976
 30
0.0
 10
8.8167132901
 20
10.6848973949
 30
0.0
 10
8.7970719721
 20
10.6852092431
 30
0.0
 10
8.7775316684
 20
10.6858110632
 30
0.0
 10
8.7581567815
 20
10.6867009422
 30
0.0
 10
8.7453085244
 20
10.687489382
 30
0.0
 10
8.7389236677
 20
10.6879321733
 30
0.0
  0
SPLINE
  5
2E8
100
AcDbEntity
  8
0
100
AcDbSpline
 62
7
  6
CONTINUOUS
 70
0
 71
3
 72
52
 73
48
 74
0
 42
0.0000001
 43
0.0000001
 44
0.0000000001
 40
0.0
 40
0.0
 40
0.0
 40
0.0
 40
0.0055575432
 40
0.0111779614
 40
0.0169218945
 40
0.0228457475
 40
0.0290005144
 40
0.0354308862
 40
0.0421752934
 40
0.0492661335
 40
0.0567301231
 40
0.0645892225
 40
0.0728608672
 40
0.0815588606
 40
0.0906937967
 40
0.1002733464
 40
0.1103030146
 40
0.1207860058
 40
0.1317238562
 40
0.1431165283
 40
0.1549624431
 40
0.1672590102
 40
0.1800022976
 40
0.1931875122
 40
0.2068089526
 40
0.2208599541
 40
0.2353333061
 40
0.2502208768
 40
0.2812026952
 40
0.3137297793
 40
0.3477171238
 40
0.3830722713
 40
0.4196961455
 40
0.4574837832
 40
0.4963250606
 40
0.5361053206
 40
0.5767059552
 40
0.6180049532
 40
0.6598774413
 40
0.7021962436
 40
0.7448324284
 40
0.7876557765
 40
0.8305353181
 40
0.8733401
 40
0.9159383712
 40
0.9582024049
 40
1.0
 40
1.0
 40
1.0
 40
1.0
 10
9.7542996982
 20
11.3364320768
 30
0.0
 10
9.7542997056
 20
11.3355810866
 30
0.0
 10
9.7542044649
 20
11.3338679965
 30
0.0
 10
9.7537769082
 20
11.3313074924
 30
0.0
 10
9.7530652876
 20
11.3287527211
 30
0.0
 10
9.7520711451
 20
11.3262065886
 30
0.0
 10
9.750795936
 20
11.3236712332
 30
0.0
 10
9.7492415175
 20
11.3211485338
 30
0.0
 10
9.7474095991
 20
11.3186402446
 30
0.0
 10
9.7453019527
 20
11.3161480912
 30
0.0
 10
9.742920544
 20
11.3136736657
 30
0.0
 10
9.740267271
 20
11.3112187943
 30
0.0
 10
9.7373443684
 20
11.3087851449
 30
0.0
 10
9.7341541427
 20
11.306374548
 30
0.0
 10
9.7306991218
 20
11.3039888614
 30
0.0
 10
9.7269821012
 20
11.3016298455
 30
0.0
 10
9.7230059978
 20
11.2992994584
 30
0.0
 10
9.718774041
 20
11.2969994682
 30
0.0
 10
9.7142896171
 20
11.2947317559
 30
0.0
 10
9.7095563396
 20
11.2924981784
 30
0.0
 10
9.7045780598
 20
11.2903004776
 30
0.0
 10
9.6993587886
 20
11.2881405353
 30
0.0
 10
9.6939027898
 20
11.2860200404
 30
0.0
 10
9.6882144947
 20
11.2839407617
 30
0.0
 10
9.6822985363
 20
11.2819044214
 30
0.0
 10
9.6761597529
 20
11.2799126342
 30
0.0
 10
9.6698031354
 20
11.2779670957
 30
0.0
 10
9.6609259041
 20
11.27540268
 30
0.0
 10
9.6493188339
 20
11.2723329641
 30
0.0
 10
9.6347871422
 20
11.2689050461
 30
0.0
 10
9.6195204751
 20
11.2656970451
 30
0.0
 10
9.6035687706
 20
11.2627195681
 30
0.0
 10
9.5869841121
 20
11.2599824855
 30
0.0
 10
9.569820748
 20
11.2574948447
 30
0.0
 10
9.5521348392
 20
11.2552648731
 30
0.0
 10
9.5339842788
 20
11.2532999439
 30
0.0
 10
9.515428496
 20
11.2516065558
 30
0.0
 10
9.4965282647
 20
11.2501903097
 30
0.0
 10
9.4773455017
 20
11.2490558756
 30
0.0
 10
9.4579430539
 20
11.2482069961
 30
0.0
 10
9.438384493
 20
11.2476464749
 30
0.0
 10
9.4187339083
 20
11.2473761667
 30
0.0
 10
9.399055661
 20
11.247396964
 30
0.0
 10
9.379414343
 20
11.2477088122
 30
0.0
 10
9.3598740393
 20
11.2483106323
 30
0.0
 10
9.3404991524
 20
11.2492005113
 30
0.0
 10
9.3276508953
 20
11.2499889511
 30
0.0
 10
9.3212660386
 20
11.2504317424
 30
0.0
  0
SPLINE
  5
2E9
100
AcDbEntity
  8
0
100
AcDbSpline
 62
7
  6
CONTINUOUS
 70
0
 71
3
 72
53
 73
49
 74
0
 42
0.0000001
 43
0.0000001
 44
0.0000000001
 40
0.0
 40
0.0
 40
0.0
 40
0.0
 40
0.0055575355
 40
0.0111779584
 40
0.0169218842
 40
0.0228457596
 40
0.0290005288
 40
0.0354309082
 40
0.0421753579
 40
0.049266174
 40
0.0567302319
 40
0.0645893082
 40
0.0728609926
 40
0.0815590107
 40
0.0906939367
 40
0.100273546
 40
0.1103031856
 40
0.1207862202
 40
0.1317240722
 40
0.1431167523
 40
0.1549626917
 40
0.1672592543
 40
0.1800025488
 40
0.1931877811
 40
0.2068092042
 40
0.2208602277
 40
0.2353335682
 40
0.2502211252
 40
0.2655142941
 40
0.2812037029
 40
0.3137307812
 40
0.3477181239
 40
0.38307325
 40
0.4196970735
 40
0.457484656
 40
0.4963258842
 40
0.5361060969
 40
0.5767066741
 40
0.6180056028
 40
0.6598780224
 40
0.7021967636
 40
0.744832873
 40
0.7876561572
 40
0.8305356229
 40
0.8733402528
 40
0.9159387641
 40
0.9582020244
 40
1.0
 40
1.0
 40
1.0
 40
1.0
 10
13.7728685944
 20
10.7673872306
 30
0.0
 10
13.7728685987
 20
10.7661503276
 30
0.0
 10
13.7727301588
 20
10.7636603693
 30
0.0
 10
13.7721086129
 20
10.759938726
 30
0.0
 10
13.7710743176
 20
10.7562253798
 30
0.0
 10
13.7696292438
 20
10.7525246372
 30
0.0
 10
13.7677757436
 20
10.7488395215
 30
0.0
 10
13.7655163935
 20
10.7451728012
 30
0.0
 10
13.7628536427
 20
10.7415270837
 30
0.0
 10
13.7597902433
 20
10.737904706
 30
0.0
 10
13.7563287949
 20
10.7343082426
 30
0.0
 10
13.7524723218
 20
10.7307400579
 30
0.0
 10
13.7482238646
 20
10.7272028196
 30
0.0
 10
13.7435868865
 20
10.7236990546
 30
0.0
 10
13.7385650479
 20
10.7202314618
 30
0.0
 10
13.7331623566
 20
10.7168027193
 30
0.0
 10
13.7273831421
 20
10.7134154837
 30
0.0
 10
13.7212320096
 20
10.7100725218
 30
0.0
 10
13.7147139423
 20
10.7067764178
 30
0.0
 10
13.7078341633
 20
10.7035299476
 30
0.0
 10
13.700598274
 20
10.7003356343
 30
0.0
 10
13.6930121161
 20
10.6971961808
 30
0.0
 10
13.6850818744
 20
10.6941140752
 30
0.0
 10
13.6768139921
 20
10.6910918874
 30
0.0
 10
13.6682152118
 20
10.6881320802
 30
0.0
 10
13.6592925496
 20
10.6852370644
 30
0.0
 10
13.6500532854
 20
10.6824092619
 30
0.0
 10
13.6405049779
 20
10.6796509325
 30
0.0
 10
13.6306554143
 20
10.6769644015
 30
0.0
 10
13.6169668985
 20
10.6734385726
 30
0.0
 10
13.5991578507
 20
10.6692377198
 30
0.0
 10
13.5769680432
 20
10.6645749265
 30
0.0
 10
13.5537823989
 20
10.6602472245
 30
0.0
 10
13.5296768212
 20
10.6562689121
 30
0.0
 10
13.5047300953
 20
10.6526531634
 30
0.0
 10
13.479023859
 20
10.6494119367
 30
0.0
 10
13.452642256
 20
10.6465559497
 30
0.0
 10
13.4256716721
 20
10.6440946422
 30
0.0
 10
13.3982004418
 20
10.6420361475
 30
0.0
 10
13.3703185555
 20
10.6403872646
 30
0.0
 10
13.342117361
 20
10.6391534378
 30
0.0
 10
13.3136892568
 20
10.6383387382
 30
0.0
 10
13.2851274006
 20
10.6379458587
 30
0.0
 10
13.2565253545
 20
10.6379760864
 30
0.0
 10
13.2279769165
 20
10.6384293409
 30
0.0
 10
13.1995754578
 20
10.6393040945
 30
0.0
 10
13.1714143107
 20
10.6405975018
 30
0.0
 10
13.1527396013
 20
10.6417434979
 30
0.0
 10
13.1434591995
 20
10.642387096
 30
0.0
  0
SPLINE
  5
2EA
100
AcDbEntity
  8
0
100
AcDbSpline
 62
7
  6
CONTINUOUS
 70
0
 71
3
 72
53
 73
49
 74
0
 42
0.0000001
 43
0.0000001
 44
0.0000000001
 40
0.0
 40
0.0
 40
0.0
 40
0.0
 40
0.0055575355
 40
0.0111779584
 40
0.0169218842
 40
0.0228457596
 40
0.0290005288
 40
0.0354309082
 40
0.0421753579
 40
0.049266174
 40
0.0567302319
 40
0.0645893082
 40
0.0728609926
 40
0.0815590107
 40
0.0906939367
 40
0.100273546
 40
0.1103031856
 40
0.1207862202
 40
0.1317240722
 40
0.1431167523
 40
0.1549626917
 40
0.1672592543
 40
0.1800025488
 40
0.1931877811
 40
0.2068092042
 40
0.2208602277
 40
0.2353335682
 40
0.2502211252
 40
0.2655142941
 40
0.2812037029
 40
0.3137307812
 40
0.3477181239
 40
0.38307325
 40
0.4196970735
 40
0.457484656
 40
0.4963258842
 40
0.5361060969
 40
0.5767066741
 40
0.6180056028
 40
0.6598780224
 40
0.7021967636
 40
0.744832873
 40
0.7876561572
 40
0.8305356229
 40
0.8733402528
 40
0.9159387641
 40
0.9582020244
 40
1.0
 40
1.0
 40
1.0
 40
1.0
 10
10.2955352755
 20
11.0085411153
 30
0.0
 10
10.2955352798
 20
11.0073042123
 30
0.0
 10
10.2953968399
 20
11.004814254
 30
0.0
 10
10.2947752941
 20
11.0010926107
 30
0.0
 10
10.2937409987
 20
10.9973792646
 30
0.0
 10
10.2922959249
 20
10.9936785219
 30
0.0
 10
10.2904424247
 20
10.9899934063
 30
0.0
 10
10.2881830747
 20
10.9863266859
 30
0.0
 10
10.2855203238
 20
10.9826809684
 30
0.0
 10
10.2824569245
 20
10.9790585908
 30
0.0
 10
10.278995476
 20
10.9754621273
 30
0.0
 10
10.2751390029
 20
10.9718939426
 30
0.0
 10
10.2708905458
 20
10.9683567043
 30
0.0
 10
10.2662535677
 20
10.9648529393
 30
0.0
 10
10.2612317291
 20
10.9613853465
 30
0.0
 10
10.2558290377
 20
10.9579566041
 30
0.0
 10
10.2500498232
 20
10.9545693684
 30
0.0
 10
10.2438986907
 20
10.9512264065
 30
0.0
 10
10.2373806234
 20
10.9479303026
 30
0.0
 10
10.2305008444
 20
10.9446838323
 30
0.0
 10
10.2232649551
 20
10.941489519
 30
0.0
 10
10.2156787973
 20
10.9383500656
 30
0.0
 10
10.2077485556
 20
10.9352679599
 30
0.0
 10
10.1994806732
 20
10.9322457722
 30
0.0
 10
10.1908818929
 20
10.929285965
 30
0.0
 10
10.1819592308
 20
10.9263909491
 30
0.0
 10
10.1727199665
 20
10.9235631466
 30
0.0
 10
10.1631716591
 20
10.9208048172
 30
0.0
 10
10.1533220955
 20
10.9181182862
 30
0.0
 10
10.1396335796
 20
10.9145924573
 30
0.0
 10
10.1218245318
 20
10.9103916045
 30
0.0
 10
10.0996347243
 20
10.9057288113
 30
0.0
 10
10.0764490801
 20
10.9014011093
 30
0.0
 10
10.0523435023
 20
10.8974227968
 30
0.0
 10
10.0273967765
 20
10.8938070481
 30
0.0
 10
10.0016905402
 20
10.8905658214
 30
0.0
 10
9.9753089371
 20
10.8877098345
 30
0.0
 10
9.9483383533
 20
10.885248527
 30
0.0
 10
9.920867123
 20
10.8831900322
 30
0.0
 10
9.8929852366
 20
10.8815411494
 30
0.0
 10
9.8647840421
 20
10.8803073225
 30
0.0
 10
9.8363559379
 20
10.8794926229
 30
0.0
 10
9.8077940817
 20
10.8790997434
 30
0.0
 10
9.7791920356
 20
10.8791299711
 30
0.0
 10
9.7506435976
 20
10.8795832256
 30
0.0
 10
9.7222421389
 20
10.8804579792
 30
0.0
 10
9.6940809918
 20
10.8817513865
 30
0.0
 10
9.6754062825
 20
10.8828973827
 30
0.0
 10
9.6661258806
 20
10.8835409807
 30
0.0
  0
SPLINE
  5
2EB
100
AcDbEntity
  8
0
100
AcDbSpline
 62
7
  6
CONTINUOUS
 70
0
 71
3
 72
45
 73
41
 74
0
 42
0.0000001
 43
0.0000001
 44
0.0000000001
 40
0.0
 40
0.0
 40
0.0
 40
0.0
 40
0.0149741965
 40
0.0299676951
 40
0.0449824043
 40
0.0600201303
 40
0.0750825757
 40
0.09017133
 40
0.1052878597
 40
0.1204335108
 40
0.135609491
 40
0.1508168795
 40
0.1660566089
 40
0.1813294738
 40
0.2119728639
 40
0.242754687
 40
0.2736759573
 40
0.3047353198
 40
0.3359291052
 40
0.36725142
 40
0.3986942703
 40
0.4302477155
 40
0.4619000479
 40
0.4936379946
 40
0.5254469392
 40
0.557311159
 40
0.5892140753
 40
0.6211385127
 40
0.6530669649
 40
0.6849818636
 40
0.7168658492
 40
0.7487020375
 40
0.7804742835
 40
0.8121674356
 40
0.8437675783
 40
0.8752622684
 40
0.9066407109
 40
0.9378940914
 40
0.9690152736
 40
1.0
 40
1.0
 40
1.0
 40
1.0
 10
11.0296283802
 20
9.0016190157
 30
0.0
 10
11.0252900539
 20
8.9942916219
 30
0.0
 10
11.0168612902
 20
8.9794756083
 30
0.0
 10
11.0049861375
 20
8.9568134617
 30
0.0
 10
10.993883285
 20
8.933722685
 30
0.0
 10
10.9835647823
 20
8.9102281994
 30
0.0
 10
10.9740414401
 20
8.8863549713
 30
0.0
 10
10.9653235817
 20
8.8621283755
 30
0.0
 10
10.9574202435
 20
8.8375742762
 30
0.0
 10
10.950340074
 20
8.812718745
 30
0.0
 10
10.9440903707
 20
8.7875882802
 30
0.0
 10
10.9386779504
 20
8.7622096866
 30
0.0
 10
10.9341084459
 20
8.7366096373
 30
0.0
 10
10.9291410737
 20
8.7021832701
 30
0.0
 10
10.925067591
 20
8.6587230842
 30
0.0
 10
10.9236145804
 20
8.606191842
 30
0.0
 10
10.9255960436
 20
8.5534404608
 30
0.0
 10
10.9310034129
 20
8.5006948763
 30
0.0
 10
10.9398132525
 20
8.4481789893
 30
0.0
 10
10.9519877779
 20
8.3961161873
 30
0.0
 10
10.9674749146
 20
8.3447277396
 30
0.0
 10
10.9862085552
 20
8.2942320474
 30
0.0
 10
11.008108836
 20
8.2448436769
 30
0.0
 10
11.0330824823
 20
8.1967724726
 30
0.0
 10
11.0610231949
 20
8.1502226666
 30
0.0
 10
11.0918121011
 20
8.1053920172
 30
0.0
 10
11.1253182689
 20
8.0624709828
 30
0.0
 10
11.1613992577
 20
8.0216419191
 30
0.0
 10
11.1999017198
 20
7.9830783116
 30
0.0
 10
11.2406620472
 20
7.9469440451
 30
0.0
 10
11.2835070601
 20
7.9133927126
 30
0.0
 10
11.3282547379
 20
7.8825669688
 30
0.0
 10
11.3747149799
 20
7.8545979227
 30
0.0
 10
11.4226904087
 20
7.8296045762
 30
0.0
 10
11.4719771851
 20
7.8076933245
 30
0.0
 10
11.5223659498
 20
7.7889575301
 30
0.0
 10
11.5736423971
 20
7.7734770534
 30
0.0
 10
11.6255893049
 20
7.7613180603
 30
0.0
 10
11.6779830221
 20
7.752532596
 30
0.0
 10
11.7131470618
 20
7.7489414205
 30
0.0
 10
11.7307249439
 20
7.7477223902
 30
0.0
  0
SPLINE
  5
2EC
100
AcDbEntity
  8
0
100
AcDbSpline
 62
7
  6
CONTINUOUS
 70
0
 71
3
 72
18
 73
14
 74
0
 42
0.0000001
 43
0.0000001
 44
0.0000000001
 40
0.0
 40
0.0
 40
0.0
 40
0.0
 40
0.1504644953
 40
0.2917101341
 40
0.4244370579
 40
0.5495623416
 40
0.6682137756
 40
0.7255498092
 40
0.7817913051
 40
0.8371402808
 40
0.8918094146
 40
0.9460200883
 40
1.0
 40
1.0
 40
1.0
 40
1.0
 10
14.4319797215
 20
7.3816039986
 30
0.0
 10
14.4300799456
 20
7.3797689558
 30
0.0
 10
14.4262829864
 20
7.3763258993
 30
0.0
 10
14.4204034859
 20
7.371737345
 30
0.0
 10
14.4145308098
 20
7.3678997541
 30
0.0
 10
14.4086711804
 20
7.3648193877
 30
0.0
 10
14.4037462308
 20
7.3628661279
 30
0.0
 10
14.3998360419
 20
7.3617055572
 30
0.0
 10
14.396945028
 20
7.3610366972
 30
0.0
 10
14.3940636255
 20
7.360559945
 30
0.0
 10
14.3911926211
 20
7.3602755044
 30
0.0
 10
14.3883331537
 20
7.3601836145
 30
0.0
 10
14.3864334093
 20
7.3602508267
 30
0.0
 10
14.3854880954
 20
7.3603163836
 30
0.0
  0
SPLINE
  5
2ED
100
AcDbEntity
  8
0
100
AcDbSpline
 62
7
  6
CONTINUOUS
 70
0
 71
3
 72
39
 73
35
 74
0
 42
0.0000001
 43
0.0000001
 44
0.0000000001
 40
0.0
 40
0.0
 40
0.0
 40
0.0
 40
0.0958313223
 40
0.1890999066
 40
0.2792396479
 40
0.3229663115
 40
0.3657099292
 40
0.4074081191
 40
0.4480006754
 40
0.4874302648
 40
0.5256424385
 40
0.5625857699
 40
0.5982125807
 40
0.6324786396
 40
0.665344311
 40
0.6967743203
 40
0.7267388303
 40
0.7552139511
 40
0.7821824427
 40
0.807635341
 40
0.8315726205
 40
0.8540058864
 40
0.8749600023
 40
0.8944766962
 40
0.9126183481
 40
0.9294727137
 40
0.94515911
 40
0.9598336921
 40
0.9668557838
 40
0.973702854
 40
0.9804062715
 40
0.9869997015
 40
0.9935186515
 40
1.0
 40
1.0
 40
1.0
 40
1.0
 10
8.9169910238
 20
10.8599320415
 30
0.0
 10
8.9259508407
 20
10.8593106761
 30
0.0
 10
8.9436179733
 20
10.8578875091
 30
0.0
 10
8.9696493775
 20
10.8551708325
 30
0.0
 10
8.9907621876
 20
10.8524309446
 30
0.0
 10
9.0071298056
 20
10.8499646045
 30
0.0
 10
9.0189815733
 20
10.848006599
 30
0.0
 10
9.0305139253
 20
10.8459250489
 30
0.0
 10
9.0417076118
 20
10.8437233775
 30
0.0
 10
9.0525439369
 20
10.8414053182
 30
0.0
 10
9.0630048188
 20
10.8389747785
 30
0.0
 10
9.0730728072
 20
10.8364358013
 30
0.0
 10
9.0827311285
 20
10.833792728
 30
0.0
 10
9.0919636954
 20
10.8310499162
 30
0.0
 10
9.1007551697
 20
10.828212055
 30
0.0
 10
9.1090909567
 20
10.8252838471
 30
0.0
 10
9.1169572628
 20
10.8222702176
 30
0.0
 10
9.1243411201
 20
10.8191762167
 30
0.0
 10
9.1312303871
 20
10.8160069131
 30
0.0
 10
9.1376138527
 20
10.8127676175
 30
0.0
 10
9.1434811428
 20
10.8094634706
 30
0.0
 10
9.1488228925
 20
10.806099818
 30
0.0
 10
9.1536305968
 20
10.802681753
 30
0.0
 10
9.157896691
 20
10.7992142602
 30
0.0
 10
9.1616144227
 20
10.7957021138
 30
0.0
 10
9.1647775994
 20
10.7921493344
 30
0.0
 10
9.1673801948
 20
10.7885605482
 30
0.0
 10
9.1691016154
 20
10.785497685
 30
0.0
 10
9.1701747552
 20
10.7830452694
 30
0.0
 10
9.1708244761
 20
10.7812282168
 30
0.0
 10
9.1713302859
 20
10.7794075796
 30
0.0
 10
9.1716919093
 20
10.7775841171
 30
0.0
 10
9.1719090256
 20
10.7757588769
 30
0.0
 10
9.1719573221
 20
10.7745399414
 30
0.0
 10
9.1719573273
 20
10.7739325077
 30
0.0
  0
SPLINE
  5
2EE
100
AcDbEntity
  8
0
100
AcDbSpline
 62
7
  6
CONTINUOUS
 70
0
 71
3
 72
39
 73
35
 74
0
 42
0.0000001
 43
0.0000001
 44
0.0000000001
 40
0.0
 40
0.0
 40
0.0
 40
0.0
 40
0.0958313223
 40
0.1890999066
 40
0.2792396479
 40
0.3229663115
 40
0.3657099292
 40
0.4074081191
 40
0.4480006754
 40
0.4874302648
 40
0.5256424385
 40
0.5625857699
 40
0.5982125807
 40
0.6324786396
 40
0.665344311
 40
0.6967743203
 40
0.7267388303
 40
0.7552139511
 40
0.7821824427
 40
0.807635341
 40
0.8315726205
 40
0.8540058864
 40
0.8749600023
 40
0.8944766962
 40
0.9126183481
 40
0.9294727137
 40
0.94515911
 40
0.9598336921
 40
0.9668557838
 40
0.973702854
 40
0.9804062715
 40
0.9869997015
 40
0.9935186515
 40
1.0
 40
1.0
 40
1.0
 40
1.0
 10
14.3289628123
 20
11.0874956729
 30
0.0
 10
14.3379226292
 20
11.0868743075
 30
0.0
 10
14.3555897618
 20
11.0854511405
 30
0.0
 10
14.381621166
 20
11.0827344639
 30
0.0
 10
14.4027339761
 20
11.079994576
 30
0.0
 10
14.4191015941
 20
11.0775282359
 30
0.0
 10
14.4309533618
 20
11.0755702304
 30
0.0
 10
14.4424857138
 20
11.0734886803
 30
0.0
 10
14.4536794003
 20
11.0712870089
 30
0.0
 10
14.4645157254
 20
11.0689689496
 30
0.0
 10
14.4749766073
 20
11.0665384099
 30
0.0
 10
14.4850445957
 20
11.0639994327
 30
0.0
 10
14.494702917
 20
11.0613563594
 30
0.0
 10
14.5039354839
 20
11.0586135476
 30
0.0
 10
14.5127269582
 20
11.0557756864
 30
0.0
 10
14.5210627452
 20
11.0528474785
 30
0.0
 10
14.5289290512
 20
11.049833849
 30
0.0
 10
14.5363129086
 20
11.0467398481
 30
0.0
 10
14.5432021756
 20
11.0435705445
 30
0.0
 10
14.5495856412
 20
11.0403312489
 30
0.0
 10
14.5554529313
 20
11.037027102
 30
0.0
 10
14.560794681
 20
11.0336634494
 30
0.0
 10
14.5656023853
 20
11.0302453844
 30
0.0
 10
14.5698684794
 20
11.0267778916
 30
0.0
 10
14.5735862112
 20
11.0232657452
 30
0.0
 10
14.5767493879
 20
11.0197129658
 30
0.0
 10
14.5793519833
 20
11.0161241796
 30
0.0
 10
14.5810734039
 20
11.0130613164
 30
0.0
 10
14.5821465437
 20
11.0106089008
 30
0.0
 10
14.5827962646
 20
11.0087918482
 30
0.0
 10
14.5833020744
 20
11.006971211
 30
0.0
 10
14.5836636978
 20
11.0051477485
 30
0.0
 10
14.5838808141
 20
11.0033225083
 30
0.0
 10
14.5839291106
 20
11.0021035728
 30
0.0
 10
14.5839291158
 20
11.0014961391
 30
0.0
  0
SPLINE
  5
2EF
100
AcDbEntity
  8
0
100
AcDbSpline
 62
7
  6
CONTINUOUS
 70
0
 71
3
 72
25
 73
21
 74
0
 42
0.0000001
 43
0.0000001
 44
0.0000000001
 40
0.0
 40
0.0
 40
0.0
 40
0.0
 40
0.0616475753
 40
0.1233181765
 40
0.1850345731
 40
0.2468190243
 40
0.3086930326
 40
0.370677109
 40
0.4327905509
 40
0.4950512387
 40
0.55747545
 40
0.6200776927
 40
0.6828705879
 40
0.7143445123
 40
0.7458698784
 40
0.809073791
 40
0.8724932589
 40
0.9042878089
 40
0.9361387219
 40
1.0
 40
1.0
 40
1.0
 40
1.0
 10
11.9916608386
 20
7.6092425632
 30
0.0
 10
11.9819986515
 20
7.5999095925
 30
0.0
 10
11.9621643976
 20
7.581756231
 30
0.0
 10
11.9309865502
 20
7.5561592749
 30
0.0
 10
11.8984548271
 20
7.5322542502
 30
0.0
 10
11.8646523281
 20
7.5101024131
 30
0.0
 10
11.8296639474
 20
7.4897592488
 30
0.0
 10
11.7935779452
 20
7.4712760316
 30
0.0
 10
11.7564852235
 20
7.4546992367
 30
0.0
 10
11.7184792988
 20
7.4400705593
 30
0.0
 10
11.6796557452
 20
7.4274267356
 30
0.0
 10
11.6401130353
 20
7.4167995909
 30
0.0
 10
11.6066683885
 20
7.4096516933
 30
0.0
 10
11.579658195
 20
7.4049639467
 30
0.0
 10
11.5524475771
 20
7.4009600615
 30
0.0
 10
11.5181686684
 20
7.3972582929
 30
0.0
 10
11.4836874094
 20
7.3953049837
 30
0.0
 10
11.4560008283
 20
7.3947885909
 30
0.0
 10
11.4282143299
 20
7.3949713103
 30
0.0
 10
11.4073666725
 20
7.3958958006
 30
0.0
 10
11.3934840064
 20
7.3968585668
 30
0.0
  0
SPLINE
  5
2F0
100
AcDbEntity
  8
0
100
AcDbSpline
 62
7
  6
CONTINUOUS
 70
0
 71
3
 72
21
 73
17
 74
0
 42
0.0000001
 43
0.0000001
 44
0.0000000001
 40
0.0
 40
0.0
 40
0.0
 40
0.0
 40
0.0616600948
 40
0.1234074108
 40
0.1852488118
 40
0.247190739
 40
0.3092392065
 40
0.3713997723
 40
0.4336775186
 40
0.4960770431
 40
0.558602355
 40
0.6212570368
 40
0.6840442648
 40
0.7469662741
 40
0.8732051157
 40
1.0
 40
1.0
 40
1.0
 40
1.0
 10
12.1340648652
 20
7.7989894344
 30
0.0
 10
12.1263878674
 20
7.7952644591
 30
0.0
 10
12.1108968339
 20
7.7880661466
 30
0.0
 10
12.0872961299
 20
7.7780437677
 30
0.0
 10
12.0633381338
 20
7.7687986863
 30
0.0
 10
12.0390471741
 20
7.7603403631
 30
0.0
 10
12.0144475306
 20
7.7526771068
 30
0.0
 10
11.98956382
 20
7.7458167693
 30
0.0
 10
11.9644210182
 20
7.7397659883
 30
0.0
 10
11.9390442651
 20
7.7345310625
 30
0.0
 10
11.9134590124
 20
7.7301169776
 30
0.0
 10
11.887690903
 20
7.7265283436
 30
0.0
 10
11.8617654883
 20
7.7237686266
 30
0.0
 10
11.8269889985
 20
7.7211953263
 30
0.0
 10
11.783248214
 20
7.7200692666
 30
0.0
 10
11.7482297129
 20
7.7213943574
 30
0.0
 10
11.7307249439
 20
7.7226083172
 30
0.0
  0
SPLINE
  5
2F1
100
AcDbEntity
  8
0
100
AcDbSpline
 62
7
  6
CONTINUOUS
 70
0
 71
3
 72
23
 73
19
 74
0
 42
0.0000001
 43
0.0000001
 44
0.0000000001
 40
0.0
 40
0.0
 40
0.0
 40
0.0
 40
0.0616112542
 40
0.1233043217
 40
0.1850890911
 40
0.2469749249
 40
0.3089706087
 40
0.3710843274
 40
0.4333235864
 40
0.4956952159
 40
0.5582053162
 40
0.6208591491
 40
0.6836613639
 40
0.7466158537
 40
0.8097248297
 40
0.8729908694
 40
0.9364181611
 40
1.0
 40
1.0
 40
1.0
 40
1.0
 10
12.1691779743
 20
7.8747197599
 30
0.0
 10
12.1612506682
 20
7.8701076335
 30
0.0
 10
12.1452065912
 20
7.8611809646
 30
0.0
 10
12.1206293911
 20
7.8487137714
 30
0.0
 10
12.0955567905
 20
7.8371764216
 30
0.0
 10
12.0700218392
 20
7.8265843224
 30
0.0
 10
12.0440577308
 20
7.8169510065
 30
0.0
 10
12.0176982544
 20
7.8082891377
 30
0.0
 10
11.9909777272
 20
7.800609956
 30
0.0
 10
11.9639309603
 20
7.7939233342
 30
0.0
 10
11.9365931259
 20
7.7882381331
 30
0.0
 10
11.9089998381
 20
7.7835615742
 30
0.0
 10
11.8811869733
 20
7.7798997633
 30
0.0
 10
11.8531907812
 20
7.7772575811
 30
0.0
 10
11.8250477685
 20
7.7756381853
 30
0.0
 10
11.7967940153
 20
7.7750438501
 30
0.0
 10
11.7684673363
 20
7.7754754275
 30
0.0
 10
11.7495810014
 20
7.776445287
 30
0.0
 10
11.7401389786
 20
7.7771000935
 30
0.0
  0
SPLINE
  5
2F2
100
AcDbEntity
  8
0
100
AcDbSpline
 62
7
  6
CONTINUOUS
 70
0
 71
3
 72
18
 73
14
 74
0
 42
0.0000001
 43
0.0000001
 44
0.0000000001
 40
0.0
 40
0.0
 40
0.0
 40
0.0
 40
0.0616743878
 40
0.1234363631
 40
0.185292269
 40
0.2472480913
 40
0.3093093754
 40
0.3714812747
 40
0.4961594034
 40
0.6213302589
 40
0.7470182002
 40
0.8732384932
 40
1.0
 40
1.0
 40
1.0
 40
1.0
 10
12.1836875703
 20
7.9138758348
 30
0.0
 10
12.1765677042
 20
7.9105431989
 30
0.0
 10
12.1622080347
 20
7.9041050036
 30
0.0
 10
12.1403507505
 20
7.8951465013
 30
0.0
 10
12.1181809122
 20
7.8868880417
 30
0.0
 10
12.0957198916
 20
7.8793378258
 30
0.0
 10
12.0729887043
 20
7.8725027534
 30
0.0
 10
12.0423237459
 20
7.8643448148
 30
0.0
 10
12.0034143025
 20
7.8559692678
 30
0.0
 10
11.9560437876
 20
7.8488790298
 30
0.0
 10
11.9081241871
 20
7.8447649469
 30
0.0
 10
11.85984114
 20
7.8436424661
 30
0.0
 10
11.8275951655
 20
7.8448889352
 30
0.0
 10
11.8114764193
 20
7.846006774
 30
0.0
  0
SPLINE
  5
2F3
100
AcDbEntity
  8
0
100
AcDbSpline
 62
7
  6
CONTINUOUS
 70
0
 71
3
 72
22
 73
18
 74
0
 42
0.0000001
 43
0.0000001
 44
0.0000000001
 40
0.0
 40
0.0
 40
0.0
 40
0.0
 40
0.0616181259
 40
0.1233193304
 40
0.1851129715
 40
0.2470079158
 40
0.3090124835
 40
0.3711343822
 40
0.4333807234
 40
0.4957579398
 40
0.5582717477
 40
0.6209271287
 40
0.6837285335
 40
0.7466794696
 40
0.8097818404
 40
0.8730387383
 40
1.0
 40
1.0
 40
1.0
 40
1.0
 10
12.2124082284
 20
8.0274919356
 30
0.0
 10
12.2053475243
 20
8.0234952527
 30
0.0
 10
12.1910646137
 20
8.0157616601
 30
0.0
 10
12.1692056066
 20
8.0049658284
 30
0.0
 10
12.1469245425
 20
7.9949800871
 30
0.0
 10
12.1242497718
 20
7.9858170179
 30
0.0
 10
12.1012095031
 20
7.9774882228
 30
0.0
 10
12.077832694
 20
7.9700039095
 30
0.0
 10
12.0541485445
 20
7.9633736054
 30
0.0
 10
12.0301867388
 20
7.9576055147
 30
0.0
 10
12.0059772807
 20
7.952706807
 30
0.0
 10
11.981550453
 20
7.9486837284
 30
0.0
 10
11.9569367925
 20
7.9455411099
 30
0.0
 10
11.932167366
 20
7.943283099
 30
0.0
 10
11.9072724318
 20
7.9419122727
 30
0.0
 10
11.8739186237
 20
7.9412689775
 30
0.0
 10
11.8488591195
 20
7.9421242621
 30
0.0
 10
11.8321819258
 20
7.9432808294
 30
0.0
  0
SPLINE
  5
2F4
100
AcDbEntity
  8
0
100
AcDbSpline
 62
7
  6
CONTINUOUS
 70
0
 71
3
 72
53
 73
49
 74
0
 42
0.0000001
 43
0.0000001
 44
0.0000000001
 40
0.0
 40
0.0
 40
0.0
 40
0.0
 40
0.014969904
 40
0.0299427774
 40
0.0449215739
 40
0.0599092106
 40
0.0749085515
 40
0.0899223942
 40
0.1049534485
 40
0.1200043231
 40
0.1350775135
 40
0.1501753819
 40
0.1653001488
 40
0.1804538818
 40
0.1956384783
 40
0.2108556627
 40
0.2261069759
 40
0.2413937626
 40
0.2567171739
 40
0.2720781563
 40
0.2874774469
 40
0.3029155785
 40
0.3183928694
 40
0.3339094273
 40
0.349465154
 40
0.3650597386
 40
0.3806926683
 40
0.3963632322
 40
0.412070519
 40
0.4278134329
 40
0.4593959612
 40
0.4911034832
 40
0.522921206
 40
0.5548321517
 40
0.5868175094
 40
0.6188570157
 40
0.6509293577
 40
0.6830125884
 40
0.7150845505
 40
0.7471233041
 40
0.7791075507
 40
0.8110170488
 40
0.8428330164
 40
0.8745385087
 40
0.9061187714
 40
0.9375616069
 40
0.9688573156
 40
1.0
 40
1.0
 40
1.0
 40
1.0
 10
10.7953071743
 20
8.8477989418
 30
0.0
 10
10.7882689449
 20
8.8410005237
 30
0.0
 10
10.7744559125
 20
8.8271250573
 30
0.0
 10
10.7545651058
 20
8.8055142573
 30
0.0
 10
10.7355273098
 20
8.783132543
 30
0.0
 10
10.7173684932
 20
8.7600101486
 30
0.0
 10
10.7001126808
 20
8.7361779622
 30
0.0
 10
10.6837829993
 20
8.7116678231
 30
0.0
 10
10.6684013108
 20
8.6865124455
 30
0.0
 10
10.6539880328
 20
8.6607455247
 30
0.0
 10
10.6405625104
 20
8.6344014338
 30
0.0
 10
10.6281426607
 20
8.6075153862
 30
0.0
 10
10.6167449606
 20
8.5801233502
 30
0.0
 10
10.6063847566
 20
8.5522618692
 30
0.0
 10
10.597075792
 20
8.5239682036
 30
0.0
 10
10.5888304366
 20
8.4952801634
 30
0.0
 10
10.5816598227
 20
8.4662360372
 30
0.0
 10
10.5755733734
 20
8.4368746595
 30
0.0
 10
10.5705792214
 20
8.4072352391
 30
0.0
 10
10.5666841121
 20
8.3773573532
 30
0.0
 10
10.5638930758
 20
8.3472809255
 30
0.0
 10
10.562209908
 20
8.317046111
 30
0.0
 10
10.5616368611
 20
8.2866932892
 30
0.0
 10
10.5621745524
 20
8.2562629914
 30
0.0
 10
10.5638223771
 20
8.2257958485
 30
0.0
 10
10.5665780611
 20
8.1953325504
 30
0.0
 10
10.5704378415
 20
8.1649137243
 30
0.0
 10
10.5753966506
 20
8.1345801249
 30
0.0
 10
10.5814478874
 20
8.1043717655
 30
0.0
 10
10.5909707022
 20
8.0642770944
 30
0.0
 10
10.6055706133
 20
8.0146725144
 30
0.0
 10
10.6272745476
 20
7.956361945
 30
0.0
 10
10.6530672721
 20
7.899504094
 30
0.0
 10
10.6828105217
 20
7.8444039918
 30
0.0
 10
10.7163456135
 20
7.7913547067
 30
0.0
 10
10.7534935009
 20
7.7406390119
 30
0.0
 10
10.7940560655
 20
7.6925271036
 30
0.0
 10
10.837817096
 20
7.6472754328
 30
0.0
 10
10.8845433141
 20
7.6051251701
 30
0.0
 10
10.9339856894
 20
7.566301007
 30
0.0
 10
10.9858807952
 20
7.531010031
 30
0.0
 10
11.0399521597
 20
7.4994405989
 30
0.0
 10
11.0959116199
 20
7.4717612118
 30
0.0
 10
11.1534610754
 20
7.44811977
 30
0.0
 10
11.212293561
 20
7.4286428085
 30
0.0
 10
11.2720964995
 20
7.4134347053
 30
0.0
 10
11.3325469164
 20
7.4025771663
 30
0.0
 10
11.3731755803
 20
7.3982669609
 30
0.0
 10
11.3934840064
 20
7.3968585668
 30
0.0
  0
SPLINE
  5
2F5
100
AcDbEntity
  8
0
100
AcDbSpline
 62
7
  6
CONTINUOUS
 70
0
 71
3
 72
45
 73
41
 74
0
 42
0.0000001
 43
0.0000001
 44
0.0000000001
 40
0.0
 40
0.0
 40
0.0
 40
0.0
 40
0.0149873549
 40
0.0299960901
 40
0.0450279009
 40
0.0600843806
 40
0.0751670126
 40
0.0902771705
 40
0.1054161027
 40
0.1205849401
 40
0.1357846793
 40
0.1510161904
 40
0.166280206
 40
0.1815773225
 40
0.2122685845
 40
0.2430959953
 40
0.2740593218
 40
0.3051561359
 40
0.3363818816
 40
0.3677299728
 40
0.3991919198
 40
0.4307574807
 40
0.4624148351
 40
0.4941507768
 40
0.5259509218
 40
0.5577999311
 40
0.589681742
 40
0.6215798084
 40
0.6534773446
 40
0.6853575729
 40
0.7172039701
 40
0.7490005122
 40
0.7807319133
 40
0.8123838579
 40
0.84394322
 40
0.8753982787
 40
0.9067388746
 40
0.9379567189
 40
0.9690450966
 40
1.0
 40
1.0
 40
1.0
 40
1.0
 10
10.990003058
 20
8.9837839705
 30
0.0
 10
10.9859772216
 20
8.976177188
 30
0.0
 10
10.9781764776
 20
8.9608153375
 30
0.0
 10
10.9672506175
 20
8.9373749115
 30
0.0
 10
10.9571024322
 20
8.913544013
 30
0.0
 10
10.9477426207
 20
8.8893471975
 30
0.0
 10
10.9391804418
 20
8.8648091173
 30
0.0
 10
10.93142486
 20
8.8399547242
 30
0.0
 10
10.924483543
 20
8.8148094082
 30
0.0
 10
10.9183637277
 20
8.7893987529
 30
0.0
 10
10.913071533
 20
8.7637486544
 30
0.0
 10
10.9086123633
 20
8.7378853354
 30
0.0
 10
10.9049908045
 20
8.7118347913
 30
0.0
 10
10.9012798091
 20
8.6768520946
 30
0.0
 10
10.8987578921
 20
8.6327797711
 30
0.0
 10
10.8991249349
 20
8.5796385628
 30
0.0
 10
10.9028794098
 20
8.5263947261
 30
0.0
 10
10.9100058548
 20
8.4732665344
 30
0.0
 10
10.9204748801
 20
8.4204698598
 30
0.0
 10
10.9342435827
 20
8.3682196796
 30
0.0
 10
10.9512556507
 20
8.3167285694
 30
0.0
 10
10.9714416175
 20
8.2662060207
 30
0.0
 10
10.9947191415
 20
8.216857551
 30
0.0
 10
11.0209933433
 20
8.1688838896
 30
0.0
 10
11.0501571798
 20
8.122480158
 30
0.0
 10
11.0820918913
 20
8.0778350901
 30
0.0
 10
11.116667483
 20
8.0351302715
 30
0.0
 10
11.1537432497
 20
7.9945394077
 30
0.0
 10
11.1931683453
 20
7.9562276236
 30
0.0
 10
11.2347823909
 20
7.9203507973
 30
0.0
 10
11.2784161219
 20
7.8870549303
 30
0.0
 10
11.3238920721
 20
7.8564755597
 30
0.0
 10
11.3710252817
 20
7.8287372007
 30
0.0
 10
11.4196240512
 20
7.8039528437
 30
0.0
 10
11.4694906958
 20
7.7822234964
 30
0.0
 10
11.5204224223
 20
7.7636377971
 30
0.0
 10
11.572211851
 20
7.7482715849
 30
0.0
 10
11.6246489403
 20
7.7361877299
 30
0.0
 10
11.6775175588
 20
7.7274357464
 30
0.0
 10
11.7129918205
 20
7.7238381135
 30
0.0
 10
11.7307249439
 20
7.7226083172
 30
0.0
  0
SPLINE
  5
2F6
100
AcDbEntity
  8
0
100
AcDbSpline
 62
7
  6
CONTINUOUS
 70
0
 71
3
 72
41
 73
37
 74
0
 42
0.0000001
 43
0.0000001
 44
0.0000000001
 40
0.0
 40
0.0
 40
0.0
 40
0.0
 40
0.0149685735
 40
0.0299551384
 40
0.044961719
 40
0.0599902466
 40
0.0901158173
 40
0.1203496456
 40
0.1507029451
 40
0.1811847285
 40
0.2118016713
 40
0.2425580216
 40
0.2734555578
 40
0.3044935905
 40
0.3356690076
 40
0.3669763591
 40
0.3984079786
 40
0.4299541376
 40
0.4616032274
 40
0.4933419668
 40
0.5251556306
 40
0.5570282956
 40
0.5889431009
 40
0.6208825192
 40
0.6528286352
 40
0.6847634285
 40
0.7166690568
 40
0.7485281378
 40
0.7803240261
 40
0.8120410818
 40
0.843664927
 40
0.8751826938
 40
0.9065832156
 40
0.9378573663
 40
0.9689977587
 40
1.0
 40
1.0
 40
1.0
 40
1.0
 10
11.0668971343
 20
9.0162009351
 30
0.0
 10
11.0624238282
 20
9.0090961025
 30
0.0
 10
11.0537210385
 20
8.9947192255
 30
0.0
 10
11.0414234521
 20
8.9726965448
 30
0.0
 10
11.0298877725
 20
8.9502268876
 30
0.0
 10
11.0155297693
 20
8.9196840449
 30
0.0
 10
10.9995475116
 20
8.8804961842
 30
0.0
 10
10.9836186535
 20
8.8321324433
 30
0.0
 10
10.9709900718
 20
8.7825969213
 30
0.0
 10
10.9617172142
 20
8.7321073913
 30
0.0
 10
10.9558399265
 20
8.6808838347
 30
0.0
 10
10.953383479
 20
8.6291498502
 30
0.0
 10
10.9543581561
 20
8.5771310411
 30
0.0
 10
10.9587593151
 20
8.5250542091
 30
0.0
 10
10.9665673933
 20
8.4731463269
 30
0.0
 10
10.9777479948
 20
8.421633566
 30
0.0
 10
10.9922520717
 20
8.3707403193
 30
0.0
 10
11.0100161421
 20
8.3206882354
 30
0.0
 10
11.0309625728
 20
8.2716952647
 30
0.0
 10
11.0549999188
 20
8.2239747218
 30
0.0
 10
11.0820233221
 20
8.1777343669
 30
0.0
 10
11.1119149696
 20
8.1331755131
 30
0.0
 10
11.1445445858
 20
8.0904921463
 30
0.0
 10
11.1797700106
 20
8.0498700936
 30
0.0
 10
11.2174378197
 20
8.0114862262
 30
0.0
 10
11.2573839857
 20
7.975507695
 30
0.0
 10
11.2994345862
 20
7.9420912098
 30
0.0
 10
11.3434065544
 20
7.9113823616
 30
0.0
 10
11.3891084672
 20
7.8835149952
 30
0.0
 10
11.4363413715
 20
7.8586106212
 30
0.0
 10
11.4848996156
 20
7.8367778747
 30
0.0
 10
11.5345718331
 20
7.8181120827
 30
0.0
 10
11.5851415392
 20
7.8026947783
 30
0.0
 10
11.6363892048
 20
7.7905934902
 30
0.0
 10
11.6880887323
 20
7.7818612988
 30
0.0
 10
11.7227916802
 20
7.7783031328
 30
0.0
 10
11.7401389786
 20
7.7771000935
 30
0.0
  0
SPLINE
  5
2F7
100
AcDbEntity
  8
0
100
AcDbSpline
 62
7
  6
CONTINUOUS
 70
0
 71
3
 72
43
 73
39
 74
0
 42
0.0000001
 43
0.0000001
 44
0.0000000001
 40
0.0
 40
0.0
 40
0.0
 40
0.0
 40
0.0149922815
 40
0.0300065289
 40
0.0450443736
 40
0.0601073401
 40
0.0903100955
 40
0.120628899
 40
0.1358364054
 40
0.1510757489
 40
0.1663475983
 40
0.1816524967
 40
0.2123589992
 40
0.2432007975
 40
0.2741772953
 40
0.3052857551
 40
0.336521368
 40
0.3678773542
 40
0.3993450893
 40
0.4309142554
 40
0.4625730125
 40
0.4943081876
 40
0.5261054799
 40
0.5579496772
 40
0.5898248824
 40
0.6217147477
 40
0.6536027121
 40
0.6854722421
 40
0.717307072
 40
0.7490914414
 40
0.780810327
 40
0.8124496682
 40
0.8439965783
 40
0.8754395568
 40
0.9067686348
 40
0.9379756813
 40
0.9690541284
 40
1.0
 40
1.0
 40
1.0
 40
1.0
 10
11.1062491176
 20
9.0288345668
 30
0.0
 10
11.1025731673
 20
9.0216327385
 30
0.0
 10
11.0954570045
 20
9.007093984
 30
0.0
 10
11.0855102186
 20
8.984925405
 30
0.0
 10
11.0762928264
 20
8.9624020227
 30
0.0
 10
11.0649790899
 20
8.9319047083
 30
0.0
 10
11.0527067808
 20
8.8929980639
 30
0.0
 10
11.0429979583
 20
8.8532942641
 30
0.0
 10
11.0367757601
 20
8.8211129749
 30
0.0
 10
11.0328824162
 20
8.7967605025
 30
0.0
 10
11.0297714151
 20
8.7722428572
 30
0.0
 10
11.0266676404
 20
8.7393325559
 30
0.0
 10
11.0247636182
 20
8.6978966139
 30
0.0
 10
11.0256430404
 20
8.6479709092
 30
0.0
 10
11.029679676
 20
8.5979827621
 30
0.0
 10
11.0368571702
 20
8.5481342841
 30
0.0
 10
11.0471463624
 20
8.4986252516
 30
0.0
 10
11.0605056805
 20
8.4496544974
 30
0.0
 10
11.0768812461
 20
8.4014185316
 30
0.0
 10
11.0962071135
 20
8.3541109194
 30
0.0
 10
11.1184055318
 20
8.3079214703
 30
0.0
 10
11.1433872591
 20
8.263035495
 30
0.0
 10
11.1710519203
 20
8.2196330669
 30
0.0
 10
11.2012884086
 20
8.1778883068
 30
0.0
 10
11.2339753291
 20
8.1379686904
 30
0.0
 10
11.2689814832
 20
8.1000343823
 30
0.0
 10
11.3061663917
 20
8.0642375987
 30
0.0
 10
11.3453808536
 20
8.0307220003
 30
0.0
 10
11.3864675369
 20
7.9996221158
 30
0.0
 10
11.4292616103
 20
7.97106281
 30
0.0
 10
11.4735913966
 20
7.9451587848
 30
0.0
 10
11.5192790612
 20
7.9220141236
 30
0.0
 10
11.566141297
 20
7.9017218656
 30
0.0
 10
11.6139901291
 20
7.8843636605
 30
0.0
 10
11.6626333869
 20
7.8700093716
 30
0.0
 10
11.7118764884
 20
7.8587169211
 30
0.0
 10
11.7615192248
 20
7.8505319594
 30
0.0
 10
11.7948265022
 20
7.8471614497
 30
0.0
 10
11.8114764193
 20
7.846006774
 30
0.0
  0
SPLINE
  5
2F8
100
AcDbEntity
  8
0
100
AcDbSpline
 62
7
  6
CONTINUOUS
 70
0
 71
3
 72
45
 73
41
 74
0
 42
0.0000001
 43
0.0000001
 44
0.0000000001
 40
0.0
 40
0.0
 40
0.0
 40
0.0
 40
0.0149707935
 40
0.0299601745
 40
0.0449701176
 40
0.0600024973
 40
0.0750590848
 40
0.0901415393
 40
0.105251397
 40
0.1203900734
 40
0.1355588446
 40
0.1507588582
 40
0.1659911115
 40
0.1812564655
 40
0.2118849016
 40
0.2426523386
 40
0.2735602086
 40
0.3046075197
 40
0.3357909059
 40
0.3671047144
 40
0.3985411285
 40
0.4300903209
 40
0.4617406355
 40
0.4934787922
 40
0.5252901123
 40
0.5571587612
 40
0.5890680032
 40
0.621000468
 40
0.6529384227
 40
0.6848640491
 40
0.716759721
 40
0.7486082799
 40
0.7803933052
 40
0.8120993774
 40
0.8437123254
 40
0.8752194747
 40
0.9066098222
 40
0.9378743816
 40
0.9690059074
 40
1.0
 40
1.0
 40
1.0
 40
1.0
 10
11.2209341408
 20
9.0538853003
 30
0.0
 10
11.2169991096
 20
9.0474624175
 30
0.0
 10
11.2093480179
 20
9.0344699852
 30
0.0
 10
11.198550569
 20
9.0145811359
 30
0.0
 10
11.1884365689
 20
8.9943012492
 30
0.0
 10
11.1790172264
 20
8.9736524693
 30
0.0
 10
11.1703024841
 20
8.9526570712
 30
0.0
 10
11.1623019625
 20
8.9313376523
 30
0.0
 10
11.1550240337
 20
8.909717304
 30
0.0
 10
11.1484768079
 20
8.8878192787
 30
0.0
 10
11.1426670747
 20
8.8656672612
 30
0.0
 10
11.1376013347
 20
8.8432851807
 30
0.0
 10
11.1332848278
 20
8.820696905
 30
0.0
 10
11.1285299833
 20
8.7903067093
 30
0.0
 10
11.1244864163
 20
8.7519162496
 30
0.0
 10
11.1226935534
 20
8.7054759072
 30
0.0
 10
11.1239610308
 20
8.6588068018
 30
0.0
 10
11.1282832875
 20
8.6121115584
 30
0.0
 10
11.1356412819
 20
8.5655911111
 30
0.0
 10
11.1460030015
 20
8.5194460532
 30
0.0
 10
11.1593234987
 20
8.4738751861
 30
0.0
 10
11.17554512
 20
8.4290748323
 30
0.0
 10
11.1945977507
 20
8.3852379557
 30
0.0
 10
11.2163991211
 20
8.3425533518
 30
0.0
 10
11.240855161
 20
8.3012048399
 30
0.0
 10
11.2678604042
 20
8.2613704804
 30
0.0
 10
11.2972984412
 20
8.2232218155
 30
0.0
 10
11.3290424172
 20
8.186923137
 30
0.0
 10
11.362955576
 20
8.1526307859
 30
0.0
 10
11.3988918412
 20
8.1204924817
 30
0.0
 10
11.436696441
 20
8.0906466896
 30
0.0
 10
11.4762065727
 20
8.0632220322
 30
0.0
 10
11.5172520952
 20
8.0383367373
 30
0.0
 10
11.5596562611
 20
8.016098135
 30
0.0
 10
11.603236448
 20
7.9966021864
 30
0.0
 10
11.647805014
 20
7.9799331004
 30
0.0
 10
11.69316982
 20
7.9661628987
 30
0.0
 10
11.7391360773
 20
7.9553512373
 30
0.0
 10
11.7855031675
 20
7.9475450409
 30
0.0
 10
11.8166248183
 20
7.9443597185
 30
0.0
 10
11.8321819258
 20
7.9432808294
 30
0.0
  0
SPLINE
  5
2F9
100
AcDbEntity
  8
0
100
AcDbSpline
 62
7
  6
CONTINUOUS
 70
0
 71
3
 72
35
 73
31
 74
0
 42
0.0000001
 43
0.0000001
 44
0.0000000001
 40
0.0
 40
0.0
 40
0.0
 40
0.0
 40
0.0308199991
 40
0.0617165631
 40
0.092686843
 40
0.123727539
 40
0.1548349393
 40
0.186004941
 40
0.2172330648
 40
0.2485145004
 40
0.2798441276
 40
0.3112165411
 40
0.3426260977
 40
0.3740669383
 40
0.4055330211
 40
0.4370181681
 40
0.5000096439
 40
0.5630011603
 40
0.6259417142
 40
0.6887814579
 40
0.720154
 40
0.751483768
 40
0.7827653646
 40
0.8139936665
 40
0.8451638537
 40
0.876271463
 40
0.9073123796
 40
0.9382828589
 40
0.9691797025
 40
1.0
 40
1.0
 40
1.0
 40
1.0
 10
11.5898012807
 20
9.02277425
 30
0.0
 10
11.5913746974
 20
9.013421155
 30
0.0
 10
11.5948891235
 20
8.9947508603
 30
0.0
 10
11.6012430812
 20
8.9669373763
 30
0.0
 10
11.6086765928
 20
8.9393220158
 30
0.0
 10
11.6171777927
 20
8.9119486628
 30
0.0
 10
11.626733288
 20
8.884860107
 30
0.0
 10
11.6373281819
 20
8.8580989478
 30
0.0
 10
11.6489457488
 20
8.8317071448
 30
0.0
 10
11.6615677029
 20
8.805726098
 30
0.0
 10
11.6751743425
 20
8.7801966374
 30
0.0
 10
11.6897441979
 20
8.7551587868
 30
0.0
 10
11.7052544054
 20
8.7306517976
 30
0.0
 10
11.7216806255
 20
8.7067142995
 30
0.0
 10
11.7389973215
 20
8.6833834126
 30
0.0
 10
11.763237586
 20
8.6531325574
 30
0.0
 10
11.7956232132
 20
8.6170199136
 30
0.0
 10
11.8375682496
 20
8.5766859421
 30
0.0
 10
11.8823436571
 20
8.539592033
 30
0.0
 10
11.9218094786
 20
8.511555698
 30
0.0
 10
11.9545119242
 20
8.490971271
 30
0.0
 10
11.9795532222
 20
8.476484954
 30
0.0
 10
12.0050796868
 20
8.4629671242
 30
0.0
 10
12.0310517214
 20
8.4504387865
 30
0.0
 10
12.057428457
 20
8.4389197168
 30
0.0
 10
12.0841684971
 20
8.4284278851
 30
0.0
 10
12.1112298634
 20
8.4189798973
 30
0.0
 10
12.1385702397
 20
8.4105905444
 30
0.0
 10
12.1661461457
 20
8.403273043
 30
0.0
 10
12.1846831261
 20
8.3991115307
 30
0.0
 10
12.1939759283
 20
8.3972137438
 30
0.0
  0
SPLINE
  5
2FA
100
AcDbEntity
  8
0
100
AcDbSpline
 62
7
  6
CONTINUOUS
 70
0
 71
3
 72
26
 73
22
 74
0
 42
0.0000001
 43
0.0000001
 44
0.0000000001
 40
0.0
 40
0.0
 40
0.0
 40
0.0
 40
0.0618322954
 40
0.1239171955
 40
0.1862283878
 40
0.2487351636
 40
0.3114030537
 40
0.3741945158
 40
0.4370696657
 40
0.4999870397
 40
0.5629043801
 40
0.625779431
 40
0.6885707313
 40
0.751238399
 40
0.8137448947
 40
0.8449313737
 40
0.8760649325
 40
0.9071418707
 40
0.9381587454
 40
0.9691123861
 40
1.0
 40
1.0
 40
1.0
 40
1.0
 10
11.6517150051
 20
9.0006843271
 30
0.0
 10
11.6553015519
 20
8.9848027178
 30
0.0
 10
11.6636091871
 20
8.9532160243
 30
0.0
 10
11.679353971
 20
8.9067359462
 30
0.0
 10
11.6983293877
 20
8.8612838308
 30
0.0
 10
11.7204358013
 20
8.8170988555
 30
0.0
 10
11.7455583011
 20
8.7744096782
 30
0.0
 10
11.7735661332
 20
8.733438237
 30
0.0
 10
11.8043136974
 20
8.6943972804
 30
0.0
 10
11.8376411668
 20
8.6574896148
 30
0.0
 10
11.8733753804
 20
8.6229069368
 30
0.0
 10
11.9113306017
 20
8.5908289783
 30
0.0
 10
11.9513100716
 20
8.5614222945
 30
0.0
 10
11.99310476
 20
8.534840441
 30
0.0
 10
12.029298325
 20
8.5151406858
 30
0.0
 10
12.0589412922
 20
8.5009274212
 30
0.0
 10
12.0814734892
 20
8.4910597856
 30
0.0
 10
12.1042903589
 20
8.4819905259
 30
0.0
 10
12.1273627108
 20
8.4737314307
 30
0.0
 10
12.150659998
 20
8.4662932293
 30
0.0
 10
12.1663394307
 20
8.46188315
 30
0.0
 10
12.1742062738
 20
8.4598185163
 30
0.0
  0
SPLINE
  5
2FB
100
AcDbEntity
  8
0
100
AcDbSpline
 62
7
  6
CONTINUOUS
 70
0
 71
3
 72
31
 73
27
 74
0
 42
0.0000001
 43
0.0000001
 44
0.0000000001
 40
0.0
 40
0.0
 40
0.0
 40
0.0
 40
0.0104182372
 40
0.0211152237
 40
0.0322606979
 40
0.0440104909
 40
0.0565027633
 40
0.0698580344
 40
0.0841853409
 40
0.0995822413
 40
0.1161345249
 40
0.1339192634
 40
0.1530131528
 40
0.173489719
 40
0.1954175393
 40
0.2188653355
 40
0.2439077675
 40
0.2706182115
 40
0.3293421853
 40
0.3957038814
 40
0.4704363726
 40
0.5543591944
 40
0.6483740469
 40
0.7534278654
 40
0.8704136347
 40
1.0
 40
1.0
 40
1.0
 40
1.0
 10
10.914976577
 20
8.8939180141
 30
0.0
 10
10.9151796708
 20
8.8938051051
 30
0.0
 10
10.9155766583
 20
8.8935488698
 30
0.0
 10
10.9161284349
 20
8.8930843606
 30
0.0
 10
10.9166413722
 20
8.892535956
 30
0.0
 10
10.9171154136
 20
8.8919031299
 30
0.0
 10
10.9175508258
 20
8.8911850711
 30
0.0
 10
10.9179479477
 20
8.8903807178
 30
0.0
 10
10.9183066696
 20
8.8894884607
 30
0.0
 10
10.9186268253
 20
8.8885065027
 30
0.0
 10
10.9189082493
 20
8.8874329492
 30
0.0
 10
10.9191507849
 20
8.8862656888
 30
0.0
 10
10.91935381
 20
8.8850022507
 30
0.0
 10
10.9195166967
 20
8.8836399621
 30
0.0
 10
10.9196388661
 20
8.8821759998
 30
0.0
 10
10.9197195961
 20
8.8806072273
 30
0.0
 10
10.9197577938
 20
8.8789301694
 30
0.0
 10
10.9197503169
 20
8.8764658653
 30
0.0
 10
10.9196188756
 20
8.8730815939
 30
0.0
 10
10.9192754899
 20
8.8686372281
 30
0.0
 10
10.9187271504
 20
8.8636477033
 30
0.0
 10
10.9179561382
 20
8.8580644864
 30
0.0
 10
10.9169410655
 20
8.851834216
 30
0.0
 10
10.9156572764
 20
8.8449022834
 30
0.0
 10
10.9140779578
 20
8.8372197906
 30
0.0
 10
10.912872579
 20
8.8318535938
 30
0.0
 10
10.9122159575
 20
8.8290388597
 30
0.0
  0
SPLINE
  5
2FC
100
AcDbEntity
  8
0
100
AcDbSpline
 62
7
  6
CONTINUOUS
 70
0
 71
3
 72
48
 73
44
 74
0
 42
0.0000001
 43
0.0000001
 44
0.0000000001
 40
0.0
 40
0.0
 40
0.0
 40
0.0
 40
0.0958289108
 40
0.142819055
 40
0.1890969168
 40
0.2345923855
 40
0.2792361893
 40
0.3229617116
 40
0.3657043166
 40
0.4074013795
 40
0.4479928869
 40
0.4874214928
 40
0.5256326153
 40
0.562575023
 40
0.5982008659
 40
0.6324660346
 40
0.6653308135
 40
0.6967600002
 40
0.7267236806
 40
0.7551980185
 40
0.7821658055
 40
0.8076179191
 40
0.8197760323
 40
0.8315562182
 40
0.842960205
 40
0.853990731
 40
0.8646513669
 40
0.874946647
 40
0.8848824259
 40
0.8944657713
 40
0.9037050845
 40
0.9126105078
 40
0.9211939149
 40
0.9294690276
 40
0.9374518266
 40
0.9451606221
 40
0.9598347913
 40
0.966856672
 40
0.9737035577
 40
0.9804067923
 40
0.9870000416
 40
0.993518817
 40
1.0
 40
1.0
 40
1.0
 40
1.0
 10
9.9249447121
 20
11.1335407892
 30
0.0
 10
9.9379677308
 20
11.1326376398
 30
0.0
 10
9.9573627444
 20
11.131075351
 30
0.0
 10
9.9829987738
 20
11.1285493491
 30
0.0
 10
10.0017872762
 20
11.1264667006
 30
0.0
 10
10.0202308747
 20
11.1241872118
 30
0.0
 10
10.0382987519
 20
11.1217146396
 30
0.0
 10
10.0559606468
 20
11.1190531591
 30
0.0
 10
10.0731870726
 20
11.1162072733
 30
0.0
 10
10.0899492428
 20
11.1131817222
 30
0.0
 10
10.1062191574
 20
11.109981614
 30
0.0
 10
10.1219696536
 20
11.1066123491
 30
0.0
 10
10.1371744391
 20
11.1030795468
 30
0.0
 10
10.1518081602
 20
11.0993891898
 30
0.0
 10
10.165846429
 20
11.0955474799
 30
0.0
 10
10.1792658676
 20
11.0915608376
 30
0.0
 10
10.1920441776
 20
11.0874360134
 30
0.0
 10
10.2041601548
 20
11.0831798967
 30
0.0
 10
10.2155937259
 20
11.0787996018
 30
0.0
 10
10.2263261027
 20
11.0743024802
 30
0.0
 10
10.2363394604
 20
11.0696959714
 30
0.0
 10
10.244186804
 20
11.0657138661
 30
0.0
 10
10.2500834387
 20
11.0624726831
 30
0.0
 10
10.2542482454
 20
11.0600564159
 30
0.0
 10
10.258221354
 20
11.0576185793
 30
0.0
 10
10.2620011599
 20
11.0551601966
 30
0.0
 10
10.2655861031
 20
11.0526822772
 30
0.0
 10
10.2689746704
 20
11.0501857792
 30
0.0
 10
10.2721654965
 20
11.0476717528
 30
0.0
 10
10.2751572769
 20
11.0451412133
 30
0.0
 10
10.2779487288
 20
11.0425951104
 30
0.0
 10
10.2805387178
 20
11.040034484
 30
0.0
 10
10.2829261938
 20
11.0374603241
 30
0.0
 10
10.2851100418
 20
11.0348736461
 30
0.0
 10
10.2870894739
 20
11.0322751861
 30
0.0
 10
10.289416251
 20
11.0288535021
 30
0.0
 10
10.2913847519
 20
11.025350912
 30
0.0
 10
10.2929444327
 20
11.0217864499
 30
0.0
 10
10.2938888
 20
11.0191453635
 30
0.0
 10
10.2946239642
 20
11.0164990874
 30
0.0
 10
10.2951495515
 20
11.0138486977
 30
0.0
 10
10.2954650851
 20
11.0111957256
 30
0.0
 10
10.2955352725
 20
11.0094240148
 30
0.0
 10
10.2955352755
 20
11.0085411153
 30
0.0
  0
SPLINE
  5
2FD
100
AcDbEntity
  8
0
100
AcDbSpline
 62
7
  6
CONTINUOUS
 70
0
 71
3
 72
25
 73
21
 74
0
 42
0.0000001
 43
0.0000001
 44
0.0000000001
 40
0.0
 40
0.0
 40
0.0
 40
0.0
 40
0.0616475753
 40
0.1233181765
 40
0.1850345731
 40
0.2468190243
 40
0.3086930326
 40
0.370677109
 40
0.4327905509
 40
0.4950512387
 40
0.55747545
 40
0.6200776927
 40
0.6828705879
 40
0.7143445123
 40
0.7458698784
 40
0.809073791
 40
0.8724932589
 40
0.9042878089
 40
0.9361387219
 40
1.0
 40
1.0
 40
1.0
 40
1.0
 10
9.333432832
 20
7.7935913016
 30
0.0
 10
9.3237706449
 20
7.7842583309
 30
0.0
 10
9.303936391
 20
7.7661049694
 30
0.0
 10
9.2727585436
 20
7.7405080132
 30
0.0
 10
9.2402268205
 20
7.7166029886
 30
0.0
 10
9.2064243215
 20
7.6944511515
 30
0.0
 10
9.1714359408
 20
7.6741079872
 30
0.0
 10
9.1353499386
 20
7.6556247699
 30
0.0
 10
9.0982572169
 20
7.6390479751
 30
0.0
 10
9.0602512923
 20
7.6244192977
 30
0.0
 10
9.0214277386
 20
7.611775474
 30
0.0
 10
8.9818850287
 20
7.6011483293
 30
0.0
 10
8.9484403819
 20
7.5940004317
 30
0.0
 10
8.9214301884
 20
7.5893126851
 30
0.0
 10
8.8942195706
 20
7.5853087999
 30
0.0
 10
8.8599406618
 20
7.5816070313
 30
0.0
 10
8.8254594028
 20
7.5796537221
 30
0.0
 10
8.7977728217
 20
7.5791373293
 30
0.0
 10
8.7699863233
 20
7.5793200487
 30
0.0
 10
8.7491386659
 20
7.580244539
 30
0.0
 10
8.7352559999
 20
7.5812073052
 30
0.0
  0
SPLINE
  5
2FE
100
AcDbEntity
  8
0
100
AcDbSpline
 62
7
  6
CONTINUOUS
 70
0
 71
3
 72
21
 73
17
 74
0
 42
0.0000001
 43
0.0000001
 44
0.0000000001
 40
0.0
 40
0.0
 40
0.0
 40
0.0
 40
0.0616600948
 40
0.1234074108
 40
0.1852488118
 40
0.247190739
 40
0.3092392065
 40
0.3713997723
 40
0.4336775186
 40
0.4960770431
 40
0.558602355
 40
0.6212570368
 40
0.6840442648
 40
0.7469662741
 40
0.8732051157
 40
1.0
 40
1.0
 40
1.0
 40
1.0
 10
9.4758368587
 20
7.9833381728
 30
0.0
 10
9.4681598608
 20
7.9796131975
 30
0.0
 10
9.4526688274
 20
7.972414885
 30
0.0
 10
9.4290681233
 20
7.9623925061
 30
0.0
 10
9.4051101272
 20
7.9531474246
 30
0.0
 10
9.3808191675
 20
7.9446891015
 30
0.0
 10
9.356219524
 20
7.9370258452
 30
0.0
 10
9.3313358134
 20
7.9301655077
 30
0.0
 10
9.3061930116
 20
7.9241147266
 30
0.0
 10
9.2808162585
 20
7.9188798009
 30
0.0
 10
9.2552310058
 20
7.9144657159
 30
0.0
 10
9.2294628964
 20
7.910877082
 30
0.0
 10
9.2035374817
 20
7.908117365
 30
0.0
 10
9.1687609919
 20
7.9055440647
 30
0.0
 10
9.1250202074
 20
7.904418005
 30
0.0
 10
9.0900017063
 20
7.9057430958
 30
0.0
 10
9.0724969373
 20
7.9069570556
 30
0.0
  0
SPLINE
  5
2FF
100
AcDbEntity
  8
0
100
AcDbSpline
 62
7
  6
CONTINUOUS
 70
0
 71
3
 72
23
 73
19
 74
0
 42
0.0000001
 43
0.0000001
 44
0.0000000001
 40
0.0
 40
0.0
 40
0.0
 40
0.0
 40
0.0616112542
 40
0.1233043217
 40
0.1850890911
 40
0.2469749249
 40
0.3089706087
 40
0.3710843274
 40
0.4333235864
 40
0.4956952159
 40
0.5582053162
 40
0.6208591491
 40
0.6836613639
 40
0.7466158537
 40
0.8097248297
 40
0.8729908694
 40
0.9364181611
 40
1.0
 40
1.0
 40
1.0
 40
1.0
 10
9.5109499677
 20
8.0590684983
 30
0.0
 10
9.5030226616
 20
8.0544563719
 30
0.0
 10
9.4869785846
 20
8.045529703
 30
0.0
 10
9.4624013846
 20
8.0330625098
 30
0.0
 10
9.4373287839
 20
8.0215251599
 30
0.0
 10
9.4117938326
 20
8.0109330608
 30
0.0
 10
9.3858297242
 20
8.0012997449
 30
0.0
 10
9.3594702478
 20
7.9926378761
 30
0.0
 10
9.3327497206
 20
7.9849586944
 30
0.0
 10
9.3057029537
 20
7.9782720726
 30
0.0
 10
9.2783651194
 20
7.9725868715
 30
0.0
 10
9.2507718315
 20
7.9679103126
 30
0.0
 10
9.2229589667
 20
7.9642485017
 30
0.0
 10
9.1949627746
 20
7.9616063195
 30
0.0
 10
9.166819762
 20
7.9599869237
 30
0.0
 10
9.1385660087
 20
7.9593925885
 30
0.0
 10
9.1102393298
 20
7.9598241659
 30
0.0
 10
9.0913529948
 20
7.9607940254
 30
0.0
 10
9.081910972
 20
7.9614488319
 30
0.0
  0
SPLINE
  5
300
100
AcDbEntity
  8
0
100
AcDbSpline
 62
7
  6
CONTINUOUS
 70
0
 71
3
 72
18
 73
14
 74
0
 42
0.0000001
 43
0.0000001
 44
0.0000000001
 40
0.0
 40
0.0
 40
0.0
 40
0.0
 40
0.0616743878
 40
0.1234363631
 40
0.185292269
 40
0.2472480913
 40
0.3093093754
 40
0.3714812747
 40
0.4961594034
 40
0.6213302589
 40
0.7470182002
 40
0.8732384932
 40
1.0
 40
1.0
 40
1.0
 40
1.0
 10
9.5254595637
 20
8.0982245732
 30
0.0
 10
9.5183396976
 20
8.0948919373
 30
0.0
 10
9.5039800281
 20
8.088453742
 30
0.0
 10
9.482122744
 20
8.0794952396
 30
0.0
 10
9.4599529056
 20
8.0712367801
 30
0.0
 10
9.437491885
 20
8.0636865642
 30
0.0
 10
9.4147606977
 20
8.0568514918
 30
0.0
 10
9.3840957393
 20
8.0486935532
 30
0.0
 10
9.3451862959
 20
8.0403180062
 30
0.0
 10
9.2978157811
 20
8.0332277682
 30
0.0
 10
9.2498961806
 20
8.0291136853
 30
0.0
 10
9.2016131334
 20
8.0279912045
 30
0.0
 10
9.1693671589
 20
8.0292376736
 30
0.0
 10
9.1532484127
 20
8.0303555124
 30
0.0
  0
SPLINE
  5
301
100
AcDbEntity
  8
0
100
AcDbSpline
 62
7
  6
CONTINUOUS
 70
0
 71
3
 72
22
 73
18
 74
0
 42
0.0000001
 43
0.0000001
 44
0.0000000001
 40
0.0
 40
0.0
 40
0.0
 40
0.0
 40
0.0616181259
 40
0.1233193304
 40
0.1851129715
 40
0.2470079158
 40
0.3090124835
 40
0.3711343822
 40
0.4333807234
 40
0.4957579398
 40
0.5582717477
 40
0.6209271287
 40
0.6837285335
 40
0.7466794696
 40
0.8097818404
 40
0.8730387383
 40
1.0
 40
1.0
 40
1.0
 40
1.0
 10
9.5541802218
 20
8.211840674
 30
0.0
 10
9.5471195177
 20
8.2078439911
 30
0.0
 10
9.5328366071
 20
8.2001103985
 30
0.0
 10
9.5109776001
 20
8.1893145668
 30
0.0
 10
9.4886965359
 20
8.1793288255
 30
0.0
 10
9.4660217653
 20
8.1701657563
 30
0.0
 10
9.4429814965
 20
8.1618369612
 30
0.0
 10
9.4196046874
 20
8.1543526479
 30
0.0
 10
9.3959205379
 20
8.1477223438
 30
0.0
 10
9.3719587322
 20
8.1419542531
 30
0.0
 10
9.3477492742
 20
8.1370555454
 30
0.0
 10
9.3233224464
 20
8.1330324668
 30
0.0
 10
9.2987087859
 20
8.1298898483
 30
0.0
 10
9.2739393594
 20
8.1276318374
 30
0.0
 10
9.2490444253
 20
8.1262610111
 30
0.0
 10
9.2156906171
 20
8.1256177158
 30
0.0
 10
9.1906311129
 20
8.1264730005
 30
0.0
 10
9.1739539193
 20
8.1276295678
 30
0.0
  0
SPLINE
  5
302
100
AcDbEntity
  8
0
100
AcDbSpline
 62
7
  6
CONTINUOUS
 70
0
 71
3
 72
39
 73
35
 74
0
 42
0.0000001
 43
0.0000001
 44
0.0000000001
 40
0.0
 40
0.0
 40
0.0
 40
0.0
 40
0.0958313223
 40
0.1890999066
 40
0.2792396479
 40
0.3229663115
 40
0.3657099292
 40
0.4074081191
 40
0.4480006754
 40
0.4874302648
 40
0.5256424385
 40
0.5625857699
 40
0.5982125807
 40
0.6324786396
 40
0.665344311
 40
0.6967743203
 40
0.7267388303
 40
0.7552139511
 40
0.7821824427
 40
0.807635341
 40
0.8315726205
 40
0.8540058864
 40
0.8749600023
 40
0.8944766962
 40
0.9126183481
 40
0.9294727137
 40
0.94515911
 40
0.9598336921
 40
0.9668557838
 40
0.973702854
 40
0.9804062715
 40
0.9869997015
 40
0.9935186515
 40
1.0
 40
1.0
 40
1.0
 40
1.0
 10
9.4993333947
 20
11.4224316107
 30
0.0
 10
9.5082932116
 20
11.4218102452
 30
0.0
 10
9.5259603441
 20
11.4203870782
 30
0.0
 10
9.5519917484
 20
11.4176704016
 30
0.0
 10
9.5731045585
 20
11.4149305137
 30
0.0
 10
9.5894721765
 20
11.4124641736
 30
0.0
 10
9.6013239442
 20
11.4105061681
 30
0.0
 10
9.6128562962
 20
11.408424618
 30
0.0
 10
9.6240499827
 20
11.4062229466
 30
0.0
 10
9.6348863078
 20
11.4039048873
 30
0.0
 10
9.6453471897
 20
11.4014743476
 30
0.0
 10
9.6554151781
 20
11.3989353705
 30
0.0
 10
9.6650734993
 20
11.3962922971
 30
0.0
 10
9.6743060663
 20
11.3935494853
 30
0.0
 10
9.6830975406
 20
11.3907116241
 30
0.0
 10
9.6914333276
 20
11.3877834162
 30
0.0
 10
9.6992996336
 20
11.3847697867
 30
0.0
 10
9.706683491
 20
11.3816757858
 30
0.0
 10
9.713572758
 20
11.3785064822
 30
0.0
 10
9.7199562236
 20
11.3752671866
 30
0.0
 10
9.7258235137
 20
11.3719630397
 30
0.0
 10
9.7311652634
 20
11.3685993871
 30
0.0
 10
9.7359729677
 20
11.3651813221
 30
0.0
 10
9.7402390618
 20
11.3617138293
 30
0.0
 10
9.7439567936
 20
11.3582016829
 30
0.0
 10
9.7471199703
 20
11.3546489035
 30
0.0
 10
9.7497225657
 20
11.3510601173
 30
0.0
 10
9.7514439863
 20
11.3479972541
 30
0.0
 10
9.7525171261
 20
11.3455448385
 30
0.0
 10
9.7531668469
 20
11.3437277859
 30
0.0
 10
9.7536726568
 20
11.3419071488
 30
0.0
 10
9.7540342802
 20
11.3400836862
 30
0.0
 10
9.7542513965
 20
11.338258446
 30
0.0
 10
9.754299693
 20
11.3370395105
 30
0.0
 10
9.7542996982
 20
11.3364320768
 30
0.0
  0
SPLINE
  5
303
100
AcDbEntity
  8
0
100
AcDbSpline
 62
7
  6
CONTINUOUS
 70
0
 71
3
 72
53
 73
49
 74
0
 42
0.0000001
 43
0.0000001
 44
0.0000000001
 40
0.0
 40
0.0
 40
0.0
 40
0.0
 40
0.014969904
 40
0.0299427774
 40
0.0449215739
 40
0.0599092106
 40
0.0749085515
 40
0.0899223942
 40
0.1049534485
 40
0.1200043231
 40
0.1350775135
 40
0.1501753819
 40
0.1653001488
 40
0.1804538818
 40
0.1956384783
 40
0.2108556627
 40
0.2261069759
 40
0.2413937626
 40
0.2567171739
 40
0.2720781563
 40
0.2874774469
 40
0.3029155785
 40
0.3183928694
 40
0.3339094273
 40
0.349465154
 40
0.3650597386
 40
0.3806926683
 40
0.3963632322
 40
0.412070519
 40
0.4278134329
 40
0.4593959612
 40
0.4911034832
 40
0.522921206
 40
0.5548321517
 40
0.5868175094
 40
0.6188570157
 40
0.6509293577
 40
0.6830125884
 40
0.7150845505
 40
0.7471233041
 40
0.7791075507
 40
0.8110170488
 40
0.8428330164
 40
0.8745385087
 40
0.9061187714
 40
0.9375616069
 40
0.9688573156
 40
1.0
 40
1.0
 40
1.0
 40
1.0
 10
8.1370791677
 20
9.0321476802
 30
0.0
 10
8.1300409384
 20
9.0253492621
 30
0.0
 10
8.1162279059
 20
9.0114737956
 30
0.0
 10
8.0963370993
 20
8.9898629956
 30
0.0
 10
8.0772993032
 20
8.9674812814
 30
0.0
 10
8.0591404866
 20
8.944358887
 30
0.0
 10
8.0418846742
 20
8.9205267006
 30
0.0
 10
8.0255549927
 20
8.8960165614
 30
0.0
 10
8.0101733042
 20
8.8708611839
 30
0.0
 10
7.9957600262
 20
8.8450942631
 30
0.0
 10
7.9823345038
 20
8.8187501722
 30
0.0
 10
7.9699146541
 20
8.7918641246
 30
0.0
 10
7.958516954
 20
8.7644720886
 30
0.0
 10
7.94815675
 20
8.7366106076
 30
0.0
 10
7.9388477854
 20
8.708316942
 30
0.0
 10
7.9306024301
 20
8.6796289018
 30
0.0
 10
7.9234318162
 20
8.6505847756
 30
0.0
 10
7.9173453668
 20
8.6212233978
 30
0.0
 10
7.9123512148
 20
8.5915839775
 30
0.0
 10
7.9084561055
 20
8.5617060916
 30
0.0
 10
7.9056650692
 20
8.5316296639
 30
0.0
 10
7.9039819014
 20
8.5013948494
 30
0.0
 10
7.9034088546
 20
8.4710420276
 30
0.0
 10
7.9039465458
 20
8.4406117298
 30
0.0
 10
7.9055943705
 20
8.4101445869
 30
0.0
 10
7.9083500545
 20
8.3796812888
 30
0.0
 10
7.9122098349
 20
8.3492624627
 30
0.0
 10
7.917168644
 20
8.3189288633
 30
0.0
 10
7.9232198808
 20
8.2887205039
 30
0.0
 10
7.9327426956
 20
8.2486258328
 30
0.0
 10
7.9473426067
 20
8.1990212528
 30
0.0
 10
7.969046541
 20
8.1407106834
 30
0.0
 10
7.9948392655
 20
8.0838528324
 30
0.0
 10
8.0245825151
 20
8.0287527302
 30
0.0
 10
8.0581176069
 20
7.9757034451
 30
0.0
 10
8.0952654943
 20
7.9249877503
 30
0.0
 10
8.1358280589
 20
7.876875842
 30
0.0
 10
8.1795890894
 20
7.8316241711
 30
0.0
 10
8.2263153075
 20
7.7894739085
 30
0.0
 10
8.2757576828
 20
7.7506497454
 30
0.0
 10
8.3276527886
 20
7.7153587694
 30
0.0
 10
8.3817241531
 20
7.6837893373
 30
0.0
 10
8.4376836133
 20
7.6561099502
 30
0.0
 10
8.4952330689
 20
7.6324685084
 30
0.0
 10
8.5540655544
 20
7.6129915469
 30
0.0
 10
8.6138684929
 20
7.5977834437
 30
0.0
 10
8.6743189098
 20
7.5869259047
 30
0.0
 10
8.7149475737
 20
7.5826156993
 30
0.0
 10
8.7352559999
 20
7.5812073052
 30
0.0
  0
SPLINE
  5
304
100
AcDbEntity
  8
0
100
AcDbSpline
 62
7
  6
CONTINUOUS
 70
0
 71
3
 72
45
 73
41
 74
0
 42
0.0000001
 43
0.0000001
 44
0.0000000001
 40
0.0
 40
0.0
 40
0.0
 40
0.0
 40
0.0149873549
 40
0.0299960901
 40
0.0450279009
 40
0.0600843806
 40
0.0751670126
 40
0.0902771705
 40
0.1054161027
 40
0.1205849401
 40
0.1357846793
 40
0.1510161904
 40
0.166280206
 40
0.1815773225
 40
0.2122685845
 40
0.2430959953
 40
0.2740593218
 40
0.3051561359
 40
0.3363818816
 40
0.3677299728
 40
0.3991919198
 40
0.4307574807
 40
0.4624148351
 40
0.4941507768
 40
0.5259509218
 40
0.5577999311
 40
0.589681742
 40
0.6215798084
 40
0.6534773446
 40
0.6853575729
 40
0.7172039701
 40
0.7490005122
 40
0.7807319133
 40
0.8123838579
 40
0.84394322
 40
0.8753982787
 40
0.9067388746
 40
0.9379567189
 40
0.9690450966
 40
1.0
 40
1.0
 40
1.0
 40
1.0
 10
8.3317750514
 20
9.1681327088
 30
0.0
 10
8.327749215
 20
9.1605259264
 30
0.0
 10
8.319948471
 20
9.1451640759
 30
0.0
 10
8.309022611
 20
9.1217236499
 30
0.0
 10
8.2988744256
 20
9.0978927514
 30
0.0
 10
8.2895146142
 20
9.0736959359
 30
0.0
 10
8.2809524352
 20
9.0491578557
 30
0.0
 10
8.2731968534
 20
9.0243034626
 30
0.0
 10
8.2662555364
 20
8.9991581466
 30
0.0
 10
8.2601357211
 20
8.9737474913
 30
0.0
 10
8.2548435265
 20
8.9480973928
 30
0.0
 10
8.2503843568
 20
8.9222340738
 30
0.0
 10
8.2467627979
 20
8.8961835297
 30
0.0
 10
8.2430518025
 20
8.861200833
 30
0.0
 10
8.2405298855
 20
8.8171285095
 30
0.0
 10
8.2408969283
 20
8.7639873012
 30
0.0
 10
8.2446514032
 20
8.7107434645
 30
0.0
 10
8.2517778483
 20
8.6576152728
 30
0.0
 10
8.2622468735
 20
8.6048185982
 30
0.0
 10
8.2760155761
 20
8.552568418
 30
0.0
 10
8.2930276441
 20
8.5010773078
 30
0.0
 10
8.313213611
 20
8.4505547591
 30
0.0
 10
8.3364911349
 20
8.4012062894
 30
0.0
 10
8.3627653367
 20
8.353232628
 30
0.0
 10
8.3919291732
 20
8.3068288964
 30
0.0
 10
8.4238638848
 20
8.2621838285
 30
0.0
 10
8.4584394764
 20
8.2194790099
 30
0.0
 10
8.4955152432
 20
8.1788881461
 30
0.0
 10
8.5349403387
 20
8.140576362
 30
0.0
 10
8.5765543843
 20
8.1046995357
 30
0.0
 10
8.6201881153
 20
8.0714036687
 30
0.0
 10
8.6656640655
 20
8.0408242981
 30
0.0
 10
8.7127972751
 20
8.0130859391
 30
0.0
 10
8.7613960446
 20
7.9883015821
 30
0.0
 10
8.8112626892
 20
7.9665722348
 30
0.0
 10
8.8621944157
 20
7.9479865355
 30
0.0
 10
8.9139838444
 20
7.9326203233
 30
0.0
 10
8.9664209337
 20
7.9205364683
 30
0.0
 10
9.0192895522
 20
7.9117844848
 30
0.0
 10
9.0547638139
 20
7.9081868519
 30
0.0
 10
9.0724969373
 20
7.9069570556
 30
0.0
  0
SPLINE
  5
305
100
AcDbEntity
  8
0
100
AcDbSpline
 62
7
  6
CONTINUOUS
 70
0
 71
3
 72
41
 73
37
 74
0
 42
0.0000001
 43
0.0000001
 44
0.0000000001
 40
0.0
 40
0.0
 40
0.0
 40
0.0
 40
0.0149685735
 40
0.0299551384
 40
0.044961719
 40
0.0599902466
 40
0.0901158173
 40
0.1203496456
 40
0.1507029451
 40
0.1811847285
 40
0.2118016713
 40
0.2425580216
 40
0.2734555578
 40
0.3044935905
 40
0.3356690076
 40
0.3669763591
 40
0.3984079786
 40
0.4299541376
 40
0.4616032274
 40
0.4933419668
 40
0.5251556306
 40
0.5570282956
 40
0.5889431009
 40
0.6208825192
 40
0.6528286352
 40
0.6847634285
 40
0.7166690568
 40
0.7485281378
 40
0.7803240261
 40
0.8120410818
 40
0.843664927
 40
0.8751826938
 40
0.9065832156
 40
0.9378573663
 40
0.9689977587
 40
1.0
 40
1.0
 40
1.0
 40
1.0
 10
8.4086691277
 20
9.2005496735
 30
0.0
 10
8.4041958216
 20
9.1934448409
 30
0.0
 10
8.3954930319
 20
9.1790679639
 30
0.0
 10
8.3831954455
 20
9.1570452832
 30
0.0
 10
8.3716597659
 20
9.1345756259
 30
0.0
 10
8.3573017627
 20
9.1040327833
 30
0.0
 10
8.3413195051
 20
9.0648449226
 30
0.0
 10
8.3253906469
 20
9.0164811817
 30
0.0
 10
8.3127620652
 20
8.9669456597
 30
0.0
 10
8.3034892076
 20
8.9164561297
 30
0.0
 10
8.2976119199
 20
8.8652325731
 30
0.0
 10
8.2951554725
 20
8.8134985886
 30
0.0
 10
8.2961301495
 20
8.7614797795
 30
0.0
 10
8.3005313085
 20
8.7094029475
 30
0.0
 10
8.3083393867
 20
8.6574950653
 30
0.0
 10
8.3195199883
 20
8.6059823044
 30
0.0
 10
8.3340240651
 20
8.5550890577
 30
0.0
 10
8.3517881356
 20
8.5050369738
 30
0.0
 10
8.3727345662
 20
8.4560440031
 30
0.0
 10
8.3967719122
 20
8.4083234602
 30
0.0
 10
8.4237953155
 20
8.3620831053
 30
0.0
 10
8.4536869631
 20
8.3175242515
 30
0.0
 10
8.4863165792
 20
8.2748408847
 30
0.0
 10
8.521542004
 20
8.234218832
 30
0.0
 10
8.5592098131
 20
8.1958349646
 30
0.0
 10
8.5991559791
 20
8.1598564334
 30
0.0
 10
8.6412065797
 20
8.1264399482
 30
0.0
 10
8.6851785478
 20
8.0957310999
 30
0.0
 10
8.7308804607
 20
8.0678637335
 30
0.0
 10
8.7781133649
 20
8.0429593596
 30
0.0
 10
8.826671609
 20
8.0211266131
 30
0.0
 10
8.8763438265
 20
8.0024608211
 30
0.0
 10
8.9269135327
 20
7.9870435167
 30
0.0
 10
8.9781611983
 20
7.9749422286
 30
0.0
 10
9.0298607257
 20
7.9662100372
 30
0.0
 10
9.0645636736
 20
7.9626518712
 30
0.0
 10
9.081910972
 20
7.9614488319
 30
0.0
  0
SPLINE
  5
306
100
AcDbEntity
  8
0
100
AcDbSpline
 62
7
  6
CONTINUOUS
 70
0
 71
3
 72
43
 73
39
 74
0
 42
0.0000001
 43
0.0000001
 44
0.0000000001
 40
0.0
 40
0.0
 40
0.0
 40
0.0
 40
0.0149922815
 40
0.0300065289
 40
0.0450443736
 40
0.0601073401
 40
0.0903100955
 40
0.120628899
 40
0.1358364054
 40
0.1510757489
 40
0.1663475983
 40
0.1816524967
 40
0.2123589992
 40
0.2432007975
 40
0.2741772953
 40
0.3052857551
 40
0.336521368
 40
0.3678773542
 40
0.3993450893
 40
0.4309142554
 40
0.4625730125
 40
0.4943081876
 40
0.5261054799
 40
0.5579496772
 40
0.5898248824
 40
0.6217147477
 40
0.6536027121
 40
0.6854722421
 40
0.717307072
 40
0.7490914414
 40
0.780810327
 40
0.8124496682
 40
0.8439965783
 40
0.8754395568
 40
0.9067686348
 40
0.9379756813
 40
0.9690541284
 40
1.0
 40
1.0
 40
1.0
 40
1.0
 10
8.448021111
 20
9.2131833052
 30
0.0
 10
8.4443451608
 20
9.2059814769
 30
0.0
 10
8.4372289979
 20
9.1914427224
 30
0.0
 10
8.427282212
 20
9.1692741434
 30
0.0
 10
8.4180648198
 20
9.146750761
 30
0.0
 10
8.4067510833
 20
9.1162534467
 30
0.0
 10
8.3944787742
 20
9.0773468023
 30
0.0
 10
8.3847699518
 20
9.0376430025
 30
0.0
 10
8.3785477535
 20
9.0054617133
 30
0.0
 10
8.3746544096
 20
8.9811092409
 30
0.0
 10
8.3715434085
 20
8.9565915956
 30
0.0
 10
8.3684396338
 20
8.9236812943
 30
0.0
 10
8.3665356116
 20
8.8822453523
 30
0.0
 10
8.3674150338
 20
8.8323196476
 30
0.0
 10
8.3714516694
 20
8.7823315005
 30
0.0
 10
8.3786291636
 20
8.7324830225
 30
0.0
 10
8.3889183558
 20
8.68297399
 30
0.0
 10
8.4022776739
 20
8.6340032358
 30
0.0
 10
8.4186532395
 20
8.58576727
 30
0.0
 10
8.4379791069
 20
8.5384596578
 30
0.0
 10
8.4601775252
 20
8.4922702086
 30
0.0
 10
8.4851592525
 20
8.4473842334
 30
0.0
 10
8.5128239137
 20
8.4039818053
 30
0.0
 10
8.543060402
 20
8.3622370452
 30
0.0
 10
8.5757473225
 20
8.3223174288
 30
0.0
 10
8.6107534766
 20
8.2843831207
 30
0.0
 10
8.6479383851
 20
8.2485863371
 30
0.0
 10
8.687152847
 20
8.2150707387
 30
0.0
 10
8.7282395303
 20
8.1839708541
 30
0.0
 10
8.7710336038
 20
8.1554115484
 30
0.0
 10
8.8153633901
 20
8.1295075231
 30
0.0
 10
8.8610510546
 20
8.1063628619
 30
0.0
 10
8.9079132905
 20
8.086070604
 30
0.0
 10
8.9557621225
 20
8.0687123989
 30
0.0
 10
9.0044053803
 20
8.05435811
 30
0.0
 10
9.0536484818
 20
8.0430656595
 30
0.0
 10
9.1032912182
 20
8.0348806978
 30
0.0
 10
9.1365984956
 20
8.0315101881
 30
0.0
 10
9.1532484127
 20
8.0303555124
 30
0.0
  0
SPLINE
  5
307
100
AcDbEntity
  8
0
100
AcDbSpline
 62
7
  6
CONTINUOUS
 70
0
 71
3
 72
45
 73
41
 74
0
 42
0.0000001
 43
0.0000001
 44
0.0000000001
 40
0.0
 40
0.0
 40
0.0
 40
0.0
 40
0.0149707935
 40
0.0299601745
 40
0.0449701176
 40
0.0600024973
 40
0.0750590848
 40
0.0901415393
 40
0.105251397
 40
0.1203900734
 40
0.1355588446
 40
0.1507588582
 40
0.1659911115
 40
0.1812564655
 40
0.2118849016
 40
0.2426523386
 40
0.2735602086
 40
0.3046075197
 40
0.3357909059
 40
0.3671047144
 40
0.3985411285
 40
0.4300903209
 40
0.4617406355
 40
0.4934787922
 40
0.5252901123
 40
0.5571587612
 40
0.5890680032
 40
0.621000468
 40
0.6529384227
 40
0.6848640491
 40
0.716759721
 40
0.7486082799
 40
0.7803933052
 40
0.8120993774
 40
0.8437123254
 40
0.8752194747
 40
0.9066098222
 40
0.9378743816
 40
0.9690059074
 40
1.0
 40
1.0
 40
1.0
 40
1.0
 10
8.5627061342
 20
9.2382340386
 30
0.0
 10
8.558771103
 20
9.2318111559
 30
0.0
 10
8.5511200114
 20
9.2188187236
 30
0.0
 10
8.5403225624
 20
9.1989298742
 30
0.0
 10
8.5302085623
 20
9.1786499876
 30
0.0
 10
8.5207892199
 20
9.1580012077
 30
0.0
 10
8.5120744775
 20
9.1370058096
 30
0.0
 10
8.5040739559
 20
9.1156863907
 30
0.0
 10
8.4967960271
 20
9.0940660424
 30
0.0
 10
8.4902488013
 20
9.0721680171
 30
0.0
 10
8.4844390681
 20
9.0500159996
 30
0.0
 10
8.4793733281
 20
9.0276339191
 30
0.0
 10
8.4750568213
 20
9.0050456434
 30
0.0
 10
8.4703019767
 20
8.9746554477
 30
0.0
 10
8.4662584097
 20
8.936264988
 30
0.0
 10
8.4644655469
 20
8.8898246456
 30
0.0
 10
8.4657330242
 20
8.8431555402
 30
0.0
 10
8.4700552809
 20
8.7964602968
 30
0.0
 10
8.4774132753
 20
8.7499398494
 30
0.0
 10
8.4877749949
 20
8.7037947916
 30
0.0
 10
8.5010954921
 20
8.6582239245
 30
0.0
 10
8.5173171134
 20
8.6134235706
 30
0.0
 10
8.5363697441
 20
8.5695866941
 30
0.0
 10
8.5581711145
 20
8.5269020902
 30
0.0
 10
8.5826271544
 20
8.4855535783
 30
0.0
 10
8.6096323976
 20
8.4457192188
 30
0.0
 10
8.6390704346
 20
8.4075705539
 30
0.0
 10
8.6708144107
 20
8.3712718754
 30
0.0
 10
8.7047275694
 20
8.3369795243
 30
0.0
 10
8.7406638346
 20
8.3048412201
 30
0.0
 10
8.7784684344
 20
8.274995428
 30
0.0
 10
8.8179785661
 20
8.2475707706
 30
0.0
 10
8.8590240886
 20
8.2226854757
 30
0.0
 10
8.9014282545
 20
8.2004468734
 30
0.0
 10
8.9450084415
 20
8.1809509247
 30
0.0
 10
8.9895770075
 20
8.1642818388
 30
0.0
 10
9.0349418134
 20
8.1505116371
 30
0.0
 10
9.0809080707
 20
8.1396999757
 30
0.0
 10
9.1272751609
 20
8.1318937793
 30
0.0
 10
9.1583968117
 20
8.1287084568
 30
0.0
 10
9.1739539193
 20
8.1276295678
 30
0.0
  0
SPLINE
  5
308
100
AcDbEntity
  8
0
100
AcDbSpline
 62
7
  6
CONTINUOUS
 70
0
 71
3
 72
72
 73
68
 74
0
 42
0.0000001
 43
0.0000001
 44
0.0000000001
 40
0.0
 40
0.0
 40
0.0
 40
0.0
 40
0.0156746159
 40
0.0314022226
 40
0.0471805696
 40
0.0630088157
 40
0.0788846503
 40
0.0948056352
 40
0.1107688743
 40
0.1267710768
 40
0.1428086156
 40
0.1588775416
 40
0.1749736277
 40
0.1910924083
 40
0.2072292191
 40
0.223379238
 40
0.2395375258
 40
0.2556990719
 40
0.2718588387
 40
0.288011804
 40
0.3041530034
 40
0.3202775749
 40
0.3363808032
 40
0.3524581608
 40
0.368505347
 40
0.3845183271
 40
0.4004933723
 40
0.4164270948
 40
0.4323164798
 40
0.4481589142
 40
0.463952216
 40
0.47969466
 40
0.4953849967
 40
0.5110224671
 40
0.5266068151
 40
0.5421382975
 40
0.5576176867
 40
0.5730462665
 40
0.5884258238
 40
0.6037586366
 40
0.6190474577
 40
0.6342954895
 40
0.6495063537
 40
0.6646840563
 40
0.6798329509
 40
0.6949576952
 40
0.7100632021
 40
0.7251545882
 40
0.7402371198
 40
0.7553161586
 40
0.7703971041
 40
0.7854853358
 40
0.8005861545
 40
0.8157047258
 40
0.8308460273
 40
0.8460147969
 40
0.8612154829
 40
0.8764521986
 40
0.8917286803
 40
0.9070482605
 40
0.9224138179
 40
0.9301152223
 40
0.9378289995
 40
0.9532933468
 40
0.9688092505
 40
0.9843783794
 40
1.0
 40
1.0
 40
1.0
 40
1.0
 10
10.0454761588
 20
6.9733310072
 30
0.0
 10
10.0543408524
 20
6.9727162386
 30
0.0
 10
10.0720730509
 20
6.9710497175
 30
0.0
 10
10.0985595909
 20
6.9672569991
 30
0.0
 10
10.1249186602
 20
6.9621757381
 30
0.0
 10
10.1510856452
 20
6.9558186666
 30
0.0
 10
10.176998027
 20
6.9482008516
 30
0.0
 10
10.2025932615
 20
6.9393407789
 30
0.0
 10
10.2278097883
 20
6.9292598375
 30
0.0
 10
10.2525869074
 20
6.9179823335
 30
0.0
 10
10.2768649816
 20
6.9055354475
 30
0.0
 10
10.3005855604
 20
6.8919491373
 30
0.0
 10
10.3236915651
 20
6.8772561597
 30
0.0
 10
10.3461273971
 20
6.8614919203
 30
0.0
 10
10.3678390611
 20
6.8446943804
 30
0.0
 10
10.3887742872
 20
6.8269039658
 30
0.0
 10
10.4088826743
 20
6.8081634969
 30
0.0
 10
10.4281158465
 20
6.7885181163
 30
0.0
 10
10.4464275138
 20
6.7680151165
 30
0.0
 10
10.4637735913
 20
6.7467038421
 30
0.0
 10
10.4801122885
 20
6.724635565
 30
0.0
 10
10.4954042769
 20
6.7018634121
 30
0.0
 10
10.5096127523
 20
6.6784422041
 30
0.0
 10
10.5227034943
 20
6.6544283084
 30
0.0
 10
10.5346449494
 20
6.6298795112
 30
0.0
 10
10.5454083166
 20
6.604854888
 30
0.0
 10
10.5549676842
 20
6.5794146872
 30
0.0
 10
10.5633000106
 20
6.553620145
 30
0.0
 10
10.5703851898
 20
6.5275333497
 30
0.0
 10
10.5762060816
 20
6.501217093
 30
0.0
 10
10.5807486243
 20
6.4747347368
 30
0.0
 10
10.5840018557
 20
6.4481500494
 30
0.0
 10
10.5859578859
 20
6.4215270451
 30
0.0
 10
10.586611929
 20
6.3949298391
 30
0.0
 10
10.5859623117
 20
6.3684224972
 30
0.0
 10
10.5840105688
 20
6.3420688774
 30
0.0
 10
10.5807613516
 20
6.3159324722
 30
0.0
 10
10.5762224208
 20
6.2900762621
 30
0.0
 10
10.5704046177
 20
6.2645625709
 30
0.0
 10
10.5633218945
 20
6.2394529062
 30
0.0
 10
10.5549912969
 20
6.2148077965
 30
0.0
 10
10.5454328524
 20
6.1906866651
 30
0.0
 10
10.5346695415
 20
6.1671476867
 30
0.0
 10
10.5227272336
 20
6.1442476555
 30
0.0
 10
10.5096347102
 20
6.1220418017
 30
0.0
 10
10.4954235266
 20
6.1005836834
 30
0.0
 10
10.4801279258
 20
6.0799250676
 30
0.0
 10
10.4637847554
 20
6.0601158108
 30
0.0
 10
10.4464334089
 20
6.041203718
 30
0.0
 10
10.428115761
 20
6.0232343868
 30
0.0
 10
10.4088759971
 20
6.0062511542
 30
0.0
 10
10.3887605226
 20
5.9902949825
 30
0.0
 10
10.3678178418
 20
5.9754043773
 30
0.0
 10
10.3460984935
 20
5.9616152209
 30
0.0
 10
10.3236548896
 20
5.9489607196
 30
0.0
 10
10.3005411732
 20
5.9374713556
 30
0.0
 10
10.2768130814
 20
5.9271748102
 30
0.0
 10
10.2525278665
 20
5.9180958969
 30
0.0
 10
10.2277440045
 20
5.9102563928
 30
0.0
 10
10.2025216643
 20
5.9036752122
 30
0.0
 10
10.1812033755
 20
5.8992558079
 30
0.0
 10
10.1639935871
 20
5.8963626901
 30
0.0
 10
10.1466609803
 20
5.8938956456
 30
0.0
 10
10.1248332082
 20
5.8916237885
 30
0.0
 10
10.0984717648
 20
5.8902027558
 30
0.0
 10
10.0719835675
 20
5.8900881051
 30
0.0
 10
10.0543108812
 20
5.8908813276
 30
0.0
 10
10.0454761588
 20
5.8914940177
 30
0.0
  0
SPLINE
  5
309
100
AcDbEntity
  8
0
100
AcDbSpline
 62
7
  6
CONTINUOUS
 70
0
 71
3
 72
35
 73
31
 74
0
 42
0.0000001
 43
0.0000001
 44
0.0000000001
 40
0.0
 40
0.0
 40
0.0
 40
0.0
 40
0.0308199991
 40
0.0617165631
 40
0.092686843
 40
0.123727539
 40
0.1548349393
 40
0.186004941
 40
0.2172330648
 40
0.2485145004
 40
0.2798441276
 40
0.3112165411
 40
0.3426260977
 40
0.3740669383
 40
0.4055330211
 40
0.4370181681
 40
0.5000096439
 40
0.5630011603
 40
0.6259417142
 40
0.6887814579
 40
0.720154
 40
0.751483768
 40
0.7827653646
 40
0.8139936665
 40
0.8451638537
 40
0.876271463
 40
0.9073123796
 40
0.9382828589
 40
0.9691797025
 40
1.0
 40
1.0
 40
1.0
 40
1.0
 10
8.9315732741
 20
9.2071229884
 30
0.0
 10
8.9331466908
 20
9.1977698933
 30
0.0
 10
8.9366611169
 20
9.1790995987
 30
0.0
 10
8.9430150747
 20
9.1512861147
 30
0.0
 10
8.9504485862
 20
9.1236707542
 30
0.0
 10
8.9589497861
 20
9.0962974012
 30
0.0
 10
8.9685052814
 20
9.0692088454
 30
0.0
 10
8.9791001753
 20
9.0424476862
 30
0.0
 10
8.9907177422
 20
9.0160558832
 30
0.0
 10
9.0033396963
 20
8.9900748364
 30
0.0
 10
9.0169463359
 20
8.9645453758
 30
0.0
 10
9.0315161913
 20
8.9395075252
 30
0.0
 10
9.0470263989
 20
8.915000536
 30
0.0
 10
9.0634526189
 20
8.8910630379
 30
0.0
 10
9.080769315
 20
8.867732151
 30
0.0
 10
9.1050095794
 20
8.8374812958
 30
0.0
 10
9.1373952066
 20
8.801368652
 30
0.0
 10
9.179340243
 20
8.7610346805
 30
0.0
 10
9.2241156505
 20
8.7239407714
 30
0.0
 10
9.263581472
 20
8.6959044364
 30
0.0
 10
9.2962839177
 20
8.6753200093
 30
0.0
 10
9.3213252156
 20
8.6608336924
 30
0.0
 10
9.3468516802
 20
8.6473158626
 30
0.0
 10
9.3728237148
 20
8.6347875249
 30
0.0
 10
9.3992004505
 20
8.6232684552
 30
0.0
 10
9.4259404905
 20
8.6127766235
 30
0.0
 10
9.4530018569
 20
8.6033286357
 30
0.0
 10
9.4803422331
 20
8.5949392828
 30
0.0
 10
9.5079181391
 20
8.5876217814
 30
0.0
 10
9.5264551195
 20
8.5834602691
 30
0.0
 10
9.5357479217
 20
8.5815624822
 30
0.0
  0
SPLINE
  5
30A
100
AcDbEntity
  8
0
100
AcDbSpline
 62
7
  6
CONTINUOUS
 70
0
 71
3
 72
26
 73
22
 74
0
 42
0.0000001
 43
0.0000001
 44
0.0000000001
 40
0.0
 40
0.0
 40
0.0
 40
0.0
 40
0.0618322954
 40
0.1239171955
 40
0.1862283878
 40
0.2487351636
 40
0.3114030537
 40
0.3741945158
 40
0.4370696657
 40
0.4999870397
 40
0.5629043801
 40
0.625779431
 40
0.6885707313
 40
0.751238399
 40
0.8137448947
 40
0.8449313737
 40
0.8760649325
 40
0.9071418707
 40
0.9381587454
 40
0.9691123861
 40
1.0
 40
1.0
 40
1.0
 40
1.0
 10
8.9934869985
 20
9.1850330655
 30
0.0
 10
8.9970735453
 20
9.1691514562
 30
0.0
 10
9.0053811805
 20
9.1375647627
 30
0.0
 10
9.0211259645
 20
9.0910846846
 30
0.0
 10
9.0401013811
 20
9.0456325692
 30
0.0
 10
9.0622077947
 20
9.0014475939
 30
0.0
 10
9.0873302945
 20
8.9587584166
 30
0.0
 10
9.1153381266
 20
8.9177869754
 30
0.0
 10
9.1460856908
 20
8.8787460188
 30
0.0
 10
9.1794131603
 20
8.8418383532
 30
0.0
 10
9.2151473738
 20
8.8072556752
 30
0.0
 10
9.2531025951
 20
8.7751777167
 30
0.0
 10
9.293082065
 20
8.7457710329
 30
0.0
 10
9.3348767534
 20
8.7191891794
 30
0.0
 10
9.3710703184
 20
8.6994894242
 30
0.0
 10
9.4007132856
 20
8.6852761596
 30
0.0
 10
9.4232454826
 20
8.675408524
 30
0.0
 10
9.4460623523
 20
8.6663392643
 30
0.0
 10
9.4691347042
 20
8.6580801691
 30
0.0
 10
9.4924319914
 20
8.6506419677
 30
0.0
 10
9.5081114241
 20
8.6462318884
 30
0.0
 10
9.5159782672
 20
8.6441672547
 30
0.0
  0
SPLINE
  5
30B
100
AcDbEntity
  8
0
100
AcDbSpline
 62
7
  6
CONTINUOUS
 70
0
 71
3
 72
39
 73
35
 74
0
 42
0.0000001
 43
0.0000001
 44
0.0000000001
 40
0.0
 40
0.0
 40
0.0
 40
0.0
 40
0.0427607174
 40
0.0870568488
 40
0.1327352003
 40
0.1795877127
 40
0.2273265427
 40
0.275581564
 40
0.323899781
 40
0.3717609666
 40
0.4186112328
 40
0.4639119229
 40
0.5071923936
 40
0.5480945361
 40
0.5863961097
 40
0.622010135
 40
0.6549670934
 40
0.6853877882
 40
0.7134549664
 40
0.7393888624
 40
0.7634291283
 40
0.7858220243
 40
0.8068101719
 40
0.8266275635
 40
0.8454941985
 40
0.8636142592
 40
0.8811733047
 40
0.8983378668
 40
0.9152547312
 40
0.9320515374
 40
0.948838208
 40
0.965707877
 40
0.9827395053
 40
1.0
 40
1.0
 40
1.0
 40
1.0
 10
11.4233030647
 20
8.7059553161
 30
0.0
 10
11.4245505934
 20
8.7035711791
 30
0.0
 10
11.4270457311
 20
8.6986937683
 30
0.0
 10
11.4307160894
 20
8.6911902952
 30
0.0
 10
11.4343589622
 20
8.6833882416
 30
0.0
 10
11.4379438285
 20
8.6753216569
 30
0.0
 10
11.4414331124
 20
8.6670369585
 30
0.0
 10
11.4447822189
 20
8.6585951861
 30
0.0
 10
11.4479408843
 20
8.650071958
 30
0.0
 10
11.4508559183
 20
8.641555542
 30
0.0
 10
11.4534753063
 20
8.6331420258
 30
0.0
 10
11.4557530434
 20
8.624928126
 30
0.0
 10
11.4576535874
 20
8.6170029427
 30
0.0
 10
11.459154748
 20
8.6094406985
 30
0.0
 10
11.460248371
 20
8.6022961679
 30
0.0
 10
11.4609389151
 20
8.5956035316
 30
0.0
 10
11.4612406657
 20
8.5893782022
 30
0.0
 10
11.4611745064
 20
8.5836204573
 30
0.0
 10
11.4607649772
 20
8.5783196938
 30
0.0
 10
11.4600378918
 20
8.5734583553
 30
0.0
 10
11.4590189252
 20
8.5690150447
 30
0.0
 10
11.4577326491
 20
8.5649667856
 30
0.0
 10
11.4562016007
 20
8.5612907468
 30
0.0
 10
11.4544472582
 20
8.5579647315
 30
0.0
 10
11.4524882279
 20
8.5549685032
 30
0.0
 10
11.4503425686
 20
8.5522827454
 30
0.0
 10
11.4480254394
 20
8.5498907422
 30
0.0
 10
11.4455517425
 20
8.5477762198
 30
0.0
 10
11.4429335073
 20
8.545926055
 30
0.0
 10
11.4401828836
 20
8.5443266484
 30
0.0
 10
11.4373093238
 20
8.5429681702
 30
0.0
 10
11.4343223225
 20
8.5418400632
 30
0.0
 10
11.4312298897
 20
8.5409345089
 30
0.0
 10
11.4291186678
 20
8.540478283
 30
0.0
 10
11.4280499383
 20
8.5402845214
 30
0.0
  0
SPLINE
  5
30C
100
AcDbEntity
  8
0
100
AcDbSpline
 62
7
  6
CONTINUOUS
 70
0
 71
3
 72
27
 73
23
 74
0
 42
0.0000001
 43
0.0000001
 44
0.0000000001
 40
0.0
 40
0.0
 40
0.0
 40
0.0
 40
0.0180593277
 40
0.036159174
 40
0.0544027427
 40
0.072893612
 40
0.0917346044
 40
0.1110253826
 40
0.1308622688
 40
0.1513380407
 40
0.1945338464
 40
0.2412762746
 40
0.2921323982
 40
0.347602441
 40
0.408128788
 40
0.4741040795
 40
0.5458762591
 40
0.6237480633
 40
0.7079695157
 40
0.7987225914
 40
0.8960872152
 40
1.0
 40
1.0
 40
1.0
 40
1.0
 10
11.3477557764
 20
8.7798053074
 30
0.0
 10
11.3484153
 20
8.7799248027
 30
0.0
 10
11.3497454161
 20
8.7801143014
 30
0.0
 10
11.351762065
 20
8.7802464632
 30
0.0
 10
11.3537990419
 20
8.7802257057
 30
0.0
 10
11.3558561506
 20
8.7800510603
 30
0.0
 10
11.3579334638
 20
8.779721383
 30
0.0
 10
11.3600311127
 20
8.7792356419
 30
0.0
 10
11.3621494287
 20
8.7785926006
 30
0.0
 10
11.3650533415
 20
8.7775042577
 30
0.0
 10
11.3687511736
 20
8.7757154893
 30
0.0
 10
11.3731955586
 20
8.7729519746
 30
0.0
 10
11.3777317246
 20
8.7695204074
 30
0.0
 10
11.3823661933
 20
8.7654049267
 30
0.0
 10
11.387106153
 20
8.7605877503
 30
0.0
 10
11.3919578703
 20
8.7550501751
 30
0.0
 10
11.3969264243
 20
8.748773177
 30
0.0
 10
11.4020147445
 20
8.7417383551
 30
0.0
 10
11.4072223694
 20
8.7339292501
 30
0.0
 10
11.4125434572
 20
8.7253334877
 30
0.0
 10
11.4179641252
 20
8.7159461212
 30
0.0
 10
11.4215150143
 20
8.7093724379
 30
0.0
 10
11.4233030647
 20
8.7059553161
 30
0.0
  0
SPLINE
  5
30D
100
AcDbEntity
  8
0
100
AcDbSpline
 62
7
  6
CONTINUOUS
 70
0
 71
3
 72
37
 73
33
 74
0
 42
0.0000001
 43
0.0000001
 44
0.0000000001
 40
0.0
 40
0.0
 40
0.0
 40
0.0
 40
0.0173073443
 40
0.0351772583
 40
0.0537099389
 40
0.0729959892
 40
0.0931122863
 40
0.1141217093
 40
0.1360745714
 40
0.1590094254
 40
0.1829544818
 40
0.207928578
 40
0.2339429226
 40
0.2610018783
 40
0.2891045297
 40
0.3182451987
 40
0.3484147243
 40
0.3796007378
 40
0.411788603
 40
0.4449615422
 40
0.4791012097
 40
0.5141877672
 40
0.550200055
 40
0.587115747
 40
0.624911161
 40
0.6635614741
 40
0.7030402558
 40
0.7433196758
 40
0.7843700049
 40
0.8261597106
 40
0.9118194698
 40
1.0
 40
1.0
 40
1.0
 40
1.0
 10
11.7690699456
 20
8.286529852
 30
0.0
 10
11.7709319408
 20
8.2883284013
 30
0.0
 10
11.77488525
 20
8.2918128088
 30
0.0
 10
11.7813466774
 20
8.2966010137
 30
0.0
 10
11.788415034
 20
8.30102335
 30
0.0
 10
11.7960793802
 20
8.3050817538
 30
0.0
 10
11.8043299353
 20
8.3087813373
 30
0.0
 10
11.8131560818
 20
8.3121298455
 30
0.0
 10
11.8225469301
 20
8.3151375799
 30
0.0
 10
11.8324915128
 20
8.3178166327
 30
0.0
 10
11.8429785321
 20
8.3201817487
 30
0.0
 10
11.8539968715
 20
8.3222485256
 30
0.0
 10
11.865535207
 20
8.3240350504
 30
0.0
 10
11.8775825207
 20
8.3255597623
 30
0.0
 10
11.8901277834
 20
8.3268431111
 30
0.0
 10
11.9031602932
 20
8.3279056768
 30
0.0
 10
11.9166694551
 20
8.3287694931
 30
0.0
 10
11.930644953
 20
8.3294566384
 30
0.0
 10
11.9450765883
 20
8.329990161
 30
0.0
 10
11.9599543264
 20
8.3303931249
 30
0.0
 10
11.9752681621
 20
8.3306892077
 30
0.0
 10
11.9910080687
 20
8.3309020968
 30
0.0
 10
12.0071638776
 20
8.3310558606
 30
0.0
 10
12.0237251559
 20
8.3311745791
 30
0.0
 10
12.0406810978
 20
8.3312825706
 30
0.0
 10
12.0580203423
 20
8.3314041662
 30
0.0
 10
12.0757308604
 20
8.3315638446
 30
0.0
 10
12.0937997419
 20
8.3317860754
 30
0.0
 10
12.1122130971
 20
8.3320954208
 30
0.0
 10
12.1374105967
 20
8.3326612356
 30
0.0
 10
12.1696479258
 20
8.3337158644
 30
0.0
 10
12.1956194221
 20
8.3350274675
 30
0.0
 10
12.2087845461
 20
8.3358338888
 30
0.0
  0
SPLINE
  5
30E
100
AcDbEntity
  8
0
100
AcDbSpline
 62
7
  6
CONTINUOUS
 70
0
 71
3
 72
25
 73
21
 74
0
 42
0.0000001
 43
0.0000001
 44
0.0000000001
 40
0.0
 40
0.0
 40
0.0
 40
0.0
 40
0.0616475283
 40
0.0924812764
 40
0.1233236458
 40
0.185039992
 40
0.2468243932
 40
0.277751632
 40
0.3087038641
 40
0.3706878948
 40
0.4328012858
 40
0.4950619192
 40
0.5574860816
 40
0.6200882953
 40
0.6828810776
 40
0.7458751905
 40
0.8090790872
 40
0.8724979095
 40
0.9361399199
 40
1.0
 40
1.0
 40
1.0
 40
1.0
 10
10.3743762186
 20
6.1633870644
 30
0.0
 10
10.3696404967
 20
6.1588127326
 30
0.0
 10
10.3623496331
 20
6.1521397031
 30
0.0
 10
10.3522819572
 20
6.1436451044
 30
0.0
 10
10.3419838337
 20
6.1354190893
 30
0.0
 10
10.3286933968
 20
6.1256529663
 30
0.0
 10
10.3148912259
 20
6.1166079775
 30
0.0
 10
10.3035618046
 20
6.1098163793
 30
0.0
 10
10.2920367097
 20
6.1033189264
 30
0.0
 10
10.2772901387
 20
6.0957657611
 30
0.0
 10
10.2591101645
 20
6.0876411272
 30
0.0
 10
10.2404823486
 20
6.0804711531
 30
0.0
 10
10.2214539154
 20
6.0742740756
 30
0.0
 10
10.2020727244
 20
6.0690654142
 30
0.0
 10
10.1823876247
 20
6.0648581724
 30
0.0
 10
10.162448149
 20
6.0616629143
 30
0.0
 10
10.1423046472
 20
6.0594877277
 30
0.0
 10
10.1220073409
 20
6.0583378257
 30
0.0
 10
10.1016083817
 20
6.0582163236
 30
0.0
 10
10.0879973151
 20
6.0588198933
 30
0.0
 10
10.0811931575
 20
6.0592917632
 30
0.0
  0
SPLINE
  5
30F
100
AcDbEntity
  8
0
100
AcDbSpline
 62
7
  6
CONTINUOUS
 70
0
 71
3
 72
13
 73
9
 74
0
 42
0.0000001
 43
0.0000001
 44
0.0000000001
 40
0.0
 40
0.0
 40
0.0
 40
0.0
 40
0.1239203432
 40
0.2481360823
 40
0.3726581368
 40
0.4974945115
 40
0.7480882688
 40
1.0
 40
1.0
 40
1.0
 40
1.0
 10
10.4743576958
 20
6.3318713671
 30
0.0
 10
10.4694489559
 20
6.3306802719
 30
0.0
 10
10.4595719146
 20
6.3284877658
 30
0.0
 10
10.4446221465
 20
6.3257760489
 30
0.0
 10
10.429541069
 20
6.3236410684
 30
0.0
 10
10.4092639474
 20
6.3215651349
 30
0.0
 10
10.3836916702
 20
6.3204306447
 30
0.0
 10
10.3631966319
 20
6.321081159
 30
0.0
 10
10.3529529306
 20
6.3217915621
 30
0.0
  0
SPLINE
  5
310
100
AcDbEntity
  8
0
100
AcDbSpline
 62
7
  6
CONTINUOUS
 70
0
 71
3
 72
39
 73
35
 74
0
 42
0.0000001
 43
0.0000001
 44
0.0000000001
 40
0.0
 40
0.0
 40
0.0
 40
0.0
 40
0.0299393048
 40
0.0599022805
 40
0.0899120377
 40
0.1199905847
 40
0.1501583176
 40
0.1804335596
 40
0.2108321599
 40
0.2413671613
 40
0.2720485441
 40
0.3028830468
 40
0.3338740671
 40
0.3650216381
 40
0.3963224779
 40
0.427770107
 40
0.4593550261
 40
0.4910649487
 40
0.5228850814
 40
0.5547984441
 40
0.5867862241
 40
0.6188281569
 40
0.6509029277
 40
0.6829885877
 40
0.7150629778
 40
0.7471041567
 40
0.7790908242
 40
0.8110027386
 40
0.8428211132
 40
0.8745290119
 40
0.9061116497
 40
0.9375568881
 40
0.9688550053
 40
1.0
 40
1.0
 40
1.0
 40
1.0
 10
9.7880100965
 20
6.7704379077
 30
0.0
 10
9.7811114489
 20
6.7637743612
 30
0.0
 10
9.7678254406
 20
6.7498948199
 30
0.0
 10
9.749578703
 20
6.7275710295
 30
0.0
 10
9.7331030685
 20
6.7038535344
 30
0.0
 10
9.7184882445
 20
6.6788710128
 30
0.0
 10
9.7058118051
 20
6.6527568368
 30
0.0
 10
9.6951414407
 20
6.6256509538
 30
0.0
 10
9.6865338939
 20
6.5976984131
 30
0.0
 10
9.6800348646
 20
6.5690487623
 30
0.0
 10
9.6756787325
 20
6.5398551865
 30
0.0
 10
9.6734884083
 20
6.5102736968
 30
0.0
 10
9.6734752268
 20
6.4804622924
 30
0.0
 10
9.6756389062
 20
6.450580121
 30
0.0
 10
9.679967566
 20
6.4207866354
 30
0.0
 10
9.6864378029
 20
6.3912407525
 30
0.0
 10
9.6950148267
 20
6.3621000154
 30
0.0
 10
9.7056526528
 20
6.3335197649
 30
0.0
 10
9.7182943526
 20
6.3056523228
 30
0.0
 10
9.7328723588
 20
6.2786461909
 30
0.0
 10
9.7493088258
 20
6.2526452695
 30
0.0
 10
9.7675160413
 20
6.2277880988
 30
0.0
 10
9.7873968942
 20
6.2042071303
 30
0.0
 10
9.8088453878
 20
6.1820280293
 30
0.0
 10
9.8317472
 20
6.1613690115
 30
0.0
 10
9.8559802863
 20
6.14234022
 30
0.0
 10
9.8814155227
 20
6.125043142
 30
0.0
 10
9.9079173909
 20
6.1095700758
 30
0.0
 10
9.9353446734
 20
6.0960036321
 30
0.0
 10
9.9635512607
 20
6.0844163211
 30
0.0
 10
9.9923866924
 20
6.0748701053
 30
0.0
 10
10.0216977841
 20
6.0674161784
 30
0.0
 10
10.0513262166
 20
6.0620946028
 30
0.0
 10
10.0712394496
 20
6.0599820552
 30
0.0
 10
10.0811931575
 20
6.0592917632
 30
0.0
  0
SPLINE
  5
311
100
AcDbEntity
  8
0
100
AcDbSpline
 62
7
  6
CONTINUOUS
 70
0
 71
3
 72
41
 73
37
 74
0
 42
0.0000001
 43
0.0000001
 44
0.0000000001
 40
0.0
 40
0.0
 40
0.0
 40
0.0
 40
0.0301996198
 40
0.045342508
 40
0.0605139487
 40
0.0909414784
 40
0.1214889653
 40
0.1368099272
 40
0.1521614419
 40
0.1829528133
 40
0.2138648917
 40
0.2448947517
 40
0.2760379565
 40
0.3072886329
 40
0.33863956
 40
0.370082271
 40
0.401607168
 40
0.4332036472
 40
0.4648602348
 40
0.4965647335
 40
0.5283043721
 40
0.5600659599
 40
0.5918360437
 40
0.6236010676
 40
0.6553475353
 40
0.6870621727
 40
0.7187320874
 40
0.750344924
 40
0.7818890125
 40
0.8133535165
 40
0.8447285731
 40
0.8760053779
 40
0.9071765439
 40
0.938235339
 40
0.9691781916
 40
1.0
 40
1.0
 40
1.0
 40
1.0
 10
9.9597829632
 20
6.8642520776
 30
0.0
 10
9.9577201859
 20
6.8568558329
 30
0.0
 10
9.9549532756
 20
6.8456549062
 30
0.0
 10
9.9519280521
 20
6.8305674721
 30
0.0
 10
9.9493381903
 20
6.8153399614
 30
0.0
 10
9.9469337561
 20
6.7961171847
 30
0.0
 10
9.9456490328
 20
6.7767493288
 30
0.0
 10
9.9452912282
 20
6.7611858724
 30
0.0
 10
9.9453813344
 20
6.7455565724
 30
0.0
 10
9.946336781
 20
6.7259764219
 30
0.0
 10
9.9488229394
 20
6.7025172784
 30
0.0
 10
9.9526415409
 20
6.6791469822
 30
0.0
 10
9.9577799072
 20
6.6559430378
 30
0.0
 10
9.9642210103
 20
6.6329817623
 30
0.0
 10
9.9719435489
 20
6.6103388315
 30
0.0
 10
9.9809220146
 20
6.5880888203
 30
0.0
 10
9.9911267761
 20
6.5663050179
 30
0.0
 10
10.0025241791
 20
6.5450591768
 30
0.0
 10
10.0150766252
 20
6.5244212641
 30
0.0
 10
10.0287427234
 20
6.5044592417
 30
0.0
 10
10.0434774302
 20
6.485238848
 30
0.0
 10
10.0592321959
 20
6.4668233844
 30
0.0
 10
10.0759551215
 20
6.4492735083
 30
0.0
 10
10.0935911315
 20
6.4326470402
 30
0.0
 10
10.1120821344
 20
6.416998753
 30
0.0
 10
10.1313672207
 20
6.4023801953
 30
0.0
 10
10.1513828762
 20
6.3888395372
 30
0.0
 10
10.1720631857
 20
6.3764214117
 30
0.0
 10
10.1933400463
 20
6.3651667683
 30
0.0
 10
10.2151433931
 20
6.3551127394
 30
0.0
 10
10.2374014077
 20
6.3462925264
 30
0.0
 10
10.2600408088
 20
6.3387351906
 30
0.0
 10
10.282986876
 20
6.3324658253
 30
0.0
 10
10.3061644614
 20
6.3275049106
 30
0.0
 10
10.3294959759
 20
6.3238692964
 30
0.0
 10
10.3451350033
 20
6.3223337372
 30
0.0
 10
10.3529529306
 20
6.3217915621
 30
0.0
  0
SPLINE
  5
312
100
AcDbEntity
  8
0
100
AcDbSpline
 62
7
  6
CONTINUOUS
 70
0
 71
3
 72
15
 73
11
 74
0
 42
0.0000001
 43
0.0000001
 44
0.0000000001
 40
0.0
 40
0.0
 40
0.0
 40
0.0
 40
0.1235610027
 40
0.2474847276
 40
0.3718013714
 40
0.4965372579
 40
0.6217122405
 40
0.7473396808
 40
0.8734406836
 40
1.0
 40
1.0
 40
1.0
 40
1.0
 10
10.4790099503
 20
6.5276377748
 30
0.0
 10
10.4750828046
 20
6.5261157952
 30
0.0
 10
10.4671292635
 20
6.5232884662
 30
0.0
 10
10.4549630384
 20
6.5197168438
 30
0.0
 10
10.4425776683
 20
6.5168181939
 30
0.0
 10
10.430009212
 20
6.5146009817
 30
0.0
 10
10.4172937246
 20
6.5130715132
 30
0.0
 10
10.4044673347
 20
6.5122340696
 30
0.0
 10
10.3915676864
 20
6.5120911993
 30
0.0
 10
10.3829583617
 20
6.5124583994
 30
0.0
 10
10.3786547396
 20
6.5127568566
 30
0.0
  0
SPLINE
  5
313
100
AcDbEntity
  8
0
100
AcDbSpline
 62
7
  6
CONTINUOUS
 70
0
 71
3
 72
75
 73
71
 74
0
 42
0.0000001
 43
0.0000001
 44
0.0000000001
 40
0.0
 40
0.0
 40
0.0
 40
0.0
 40
0.0156747273
 40
0.0235325814
 40
0.031403181
 40
0.0471815803
 40
0.0630097508
 40
0.0788855268
 40
0.0948064622
 40
0.1107696438
 40
0.1267717932
 40
0.1347869014
 40
0.1428103611
 40
0.1588792318
 40
0.1749752631
 40
0.1910939891
 40
0.2072307449
 40
0.2233807077
 40
0.2395389397
 40
0.2557004309
 40
0.2718601429
 40
0.2880130529
 40
0.3041541969
 40
0.3202787136
 40
0.3363818874
 40
0.3524591897
 40
0.36850632
 40
0.3845192451
 40
0.4004942363
 40
0.4164279049
 40
0.4323172352
 40
0.4481596152
 40
0.4639528635
 40
0.4796952542
 40
0.4953855368
 40
0.5110229526
 40
0.526607247
 40
0.5421386771
 40
0.5576180139
 40
0.5730465408
 40
0.5884260451
 40
0.6037588059
 40
0.6190475753
 40
0.6342955548
 40
0.649506366
 40
0.6646840161
 40
0.6798328593
 40
0.6949575524
 40
0.7100630078
 40
0.725154342
 40
0.7402368221
 40
0.7553158097
 40
0.7703967041
 40
0.7854848839
 40
0.80058565
 40
0.8157041693
 40
0.8308454194
 40
0.8460141376
 40
0.8612147716
 40
0.8764514346
 40
0.8917278653
 40
0.9070473908
 40
0.9224129018
 40
0.9301142846
 40
0.9378280267
 40
0.9532922984
 40
0.9688082546
 40
0.9765865231
 40
0.9843782672
 40
1.0
 40
1.0
 40
1.0
 40
1.0
 10
11.3745902197
 20
9.1124455751
 30
0.0
 10
11.3893754187
 20
9.1114202181
 30
0.0
 10
11.4115397603
 20
9.1093371495
 30
0.0
 10
11.4409831947
 20
9.1054857101
 30
0.0
 10
11.4704223381
 20
9.1009083931
 30
0.0
 10
11.5070891774
 20
9.0938401995
 30
0.0
 10
11.5507317116
 20
9.0832374693
 30
0.0
 10
11.5939499077
 20
9.070532045
 30
0.0
 10
11.636639185
 20
9.05575471
 30
0.0
 10
11.6786964235
 20
9.0389413103
 30
0.0
 10
11.7131158748
 20
9.0232749867
 30
0.0
 10
11.7402359574
 20
9.009768254
 30
0.0
 10
11.767090537
 20
8.9956052771
 30
0.0
 10
11.8000765502
 20
8.9767120995
 30
0.0
 10
11.8386137397
 20
8.9522065096
 30
0.0
 10
11.8760335911
 20
8.925913951
 30
0.0
 10
11.9122455025
 20
8.8978980397
 30
0.0
 10
11.9471624673
 20
8.8682261551
 30
0.0
 10
11.9807004073
 20
8.8369697555
 30
0.0
 10
12.0127786083
 20
8.8042040789
 30
0.0
 10
12.0433198509
 20
8.7700079968
 30
0.0
 10
12.0722506118
 20
8.7344638172
 30
0.0
 10
12.0995012347
 20
8.6976570883
 30
0.0
 10
12.1250061066
 20
8.6596763994
 30
0.0
 10
12.1487038111
 20
8.6206131645
 30
0.0
 10
12.170537273
 20
8.5805614005
 30
0.0
 10
12.1904538949
 20
8.5396175036
 30
0.0
 10
12.2084056841
 20
8.4978800185
 30
0.0
 10
12.2243493678
 20
8.4554494027
 30
0.0
 10
12.2382464967
 20
8.4124277866
 30
0.0
 10
12.2500635389
 20
8.3689187295
 30
0.0
 10
12.2597719589
 20
8.3250269716
 30
0.0
 10
12.2673482961
 20
8.2808581854
 30
0.0
 10
12.2727742205
 20
8.2365187206
 30
0.0
 10
12.2760365717
 20
8.1921153487
 30
0.0
 10
12.2771273931
 20
8.1477550077
 30
0.0
 10
12.276043953
 20
8.1035445462
 30
0.0
 10
12.2727887529
 20
8.0595904671
 30
0.0
 10
12.2673695236
 20
8.0159986727
 30
0.0
 10
12.2597992102
 20
7.9728742096
 30
0.0
 10
12.2500959415
 20
7.9303210168
 30
0.0
 10
12.2382829961
 20
7.8884416728
 30
0.0
 10
12.224388751
 20
7.8473371459
 30
0.0
 10
12.2084466065
 20
7.8071065517
 30
0.0
 10
12.1904949102
 20
7.7678469123
 30
0.0
 10
12.1705768665
 20
7.7296529205
 30
0.0
 10
12.1487404343
 20
7.6926167093
 30
0.0
 10
12.1250382126
 20
7.6568276269
 30
0.0
 10
12.0995273152
 20
7.6223720181
 30
0.0
 10
12.0722692318
 20
7.5893330137
 30
0.0
 10
12.0433296833
 20
7.5577903241
 30
0.0
 10
12.0127784656
 20
7.5278200388
 30
0.0
 10
11.9806892709
 20
7.499494447
 30
0.0
 10
11.9471395089
 20
7.4728818603
 30
0.0
 10
11.9122101174
 20
7.4480464462
 30
0.0
 10
11.8759853645
 20
7.4250480724
 30
0.0
 10
11.838552641
 20
7.4039421618
 30
0.0
 10
11.8000022521
 20
7.3847795596
 30
0.0
 10
11.7604271755
 20
7.3676064093
 30
0.0
 10
11.7199229138
 20
7.3524640505
 30
0.0
 10
11.6785869722
 20
7.3393888758
 30
0.0
 10
11.6365197065
 20
7.3284123929
 30
0.0
 10
11.6009638129
 20
7.3210415618
 30
0.0
 10
11.5722603723
 20
7.3162161195
 30
0.0
 10
11.5433520263
 20
7.3121015749
 30
0.0
 10
11.5069466598
 20
7.3083123047
 30
0.0
 10
11.4703370774
 20
7.3063389705
 30
0.0
 10
11.4409461833
 20
7.3058468973
 30
0.0
 10
11.4114526668
 20
7.3060808939
 30
0.0
 10
11.3893254316
 20
7.307074044
 30
0.0
 10
11.3745902197
 20
7.3080959344
 30
0.0
  0
SPLINE
  5
314
100
AcDbEntity
  8
0
100
AcDbSpline
 62
7
  6
CONTINUOUS
 70
0
 71
3
 72
45
 73
41
 74
0
 42
0.0000001
 43
0.0000001
 44
0.0000000001
 40
0.0
 40
0.0
 40
0.0
 40
0.0
 40
0.0149741965
 40
0.0299676951
 40
0.0449824043
 40
0.0600201303
 40
0.0750825757
 40
0.09017133
 40
0.1052878597
 40
0.1204335108
 40
0.135609491
 40
0.1508168795
 40
0.1660566089
 40
0.1813294738
 40
0.2119728639
 40
0.242754687
 40
0.2736759573
 40
0.3047353198
 40
0.3359291052
 40
0.36725142
 40
0.3986942703
 40
0.4302477155
 40
0.4619000479
 40
0.4936379946
 40
0.5254469392
 40
0.557311159
 40
0.5892140753
 40
0.6211385127
 40
0.6530669649
 40
0.6849818636
 40
0.7168658492
 40
0.7487020375
 40
0.7804742835
 40
0.8121674356
 40
0.8437675783
 40
0.8752622684
 40
0.9066407109
 40
0.9378940914
 40
0.9690152736
 40
1.0
 40
1.0
 40
1.0
 40
1.0
 10
8.3714003737
 20
9.1859677541
 30
0.0
 10
8.3670620474
 20
9.1786403603
 30
0.0
 10
8.3586332837
 20
9.1638243467
 30
0.0
 10
8.3467581309
 20
9.1411622001
 30
0.0
 10
8.3356552785
 20
9.1180714234
 30
0.0
 10
8.3253367757
 20
9.0945769378
 30
0.0
 10
8.3158134335
 20
9.0707037096
 30
0.0
 10
8.3070955751
 20
9.0464771139
 30
0.0
 10
8.2991922369
 20
9.0219230146
 30
0.0
 10
8.2921120675
 20
8.9970674834
 30
0.0
 10
8.2858623641
 20
8.9719370186
 30
0.0
 10
8.2804499438
 20
8.946558425
 30
0.0
 10
8.2758804394
 20
8.9209583757
 30
0.0
 10
8.2709130671
 20
8.8865320085
 30
0.0
 10
8.2668395845
 20
8.8430718226
 30
0.0
 10
8.2653865738
 20
8.7905405804
 30
0.0
 10
8.267368037
 20
8.7377891992
 30
0.0
 10
8.2727754063
 20
8.6850436146
 30
0.0
 10
8.2815852459
 20
8.6325277277
 30
0.0
 10
8.2937597713
 20
8.5804649257
 30
0.0
 10
8.309246908
 20
8.529076478
 30
0.0
 10
8.3279805486
 20
8.4785807858
 30
0.0
 10
8.3498808294
 20
8.4291924153
 30
0.0
 10
8.3748544757
 20
8.381121211
 30
0.0
 10
8.4027951883
 20
8.334571405
 30
0.0
 10
8.4335840945
 20
8.2897407556
 30
0.0
 10
8.4670902623
 20
8.2468197212
 30
0.0
 10
8.5031712511
 20
8.2059906575
 30
0.0
 10
8.5416737132
 20
8.16742705
 30
0.0
 10
8.5824340406
 20
8.1312927835
 30
0.0
 10
8.6252790536
 20
8.097741451
 30
0.0
 10
8.6700267314
 20
8.0669157072
 30
0.0
 10
8.7164869733
 20
8.0389466611
 30
0.0
 10
8.7644624021
 20
8.0139533146
 30
0.0
 10
8.8137491785
 20
7.9920420629
 30
0.0
 10
8.8641379433
 20
7.9733062685
 30
0.0
 10
8.9154143905
 20
7.9578257918
 30
0.0
 10
8.9673612983
 20
7.9456667987
 30
0.0
 10
9.0197550155
 20
7.9368813344
 30
0.0
 10
9.0549190552
 20
7.9332901589
 30
0.0
 10
9.0724969373
 20
7.9320711286
 30
0.0
  0
SPLINE
  5
315
100
AcDbEntity
  8
0
100
AcDbSpline
 62
7
  6
CONTINUOUS
 70
0
 71
3
 72
20
 73
16
 74
0
 42
0.0000001
 43
0.0000001
 44
0.0000000001
 40
0.0
 40
0.0
 40
0.0
 40
0.0
 40
0.1301903886
 40
0.2571813446
 40
0.3816864071
 40
0.4432838333
 40
0.5045852566
 40
0.565713866
 40
0.6267968316
 40
0.6879686581
 40
0.7493681791
 40
0.8111341738
 40
0.8734048346
 40
0.9363162059
 40
1.0
 40
1.0
 40
1.0
 40
1.0
 10
11.7451158558
 20
8.2283735627
 30
0.0
 10
11.7451163921
 20
8.2311809663
 30
0.0
 10
11.7453564442
 20
8.2367304642
 30
0.0
 10
11.7464737447
 20
8.2448965899
 30
0.0
 10
11.7480405402
 20
8.2514765967
 30
0.0
 10
11.749671177
 20
8.2565583253
 30
0.0
 10
11.7510779351
 20
8.2602709443
 30
0.0
 10
11.7526724756
 20
8.2638946852
 30
0.0
 10
11.7544547318
 20
8.2674268043
 30
0.0
 10
11.7564243115
 20
8.2708647229
 30
0.0
 10
11.7585806443
 20
8.2742062275
 30
0.0
 10
11.7609232886
 20
8.2774491069
 30
0.0
 10
11.7634515929
 20
8.2805913564
 30
0.0
 10
11.7661642902
 20
8.2836313213
 30
0.0
 10
11.7680822173
 20
8.2855757797
 30
0.0
 10
11.7690699456
 20
8.286529852
 30
0.0
  0
SPLINE
  5
316
100
AcDbEntity
  8
0
100
AcDbSpline
 62
7
  6
CONTINUOUS
 70
0
 71
3
 72
20
 73
16
 74
0
 42
0.0000001
 43
0.0000001
 44
0.0000000001
 40
0.0
 40
0.0
 40
0.0
 40
0.0
 40
0.0616286583
 40
0.1233417705
 40
0.1851480591
 40
0.2470557841
 40
0.3711857121
 40
0.4958069226
 40
0.5583261169
 40
0.6209840803
 40
0.6837849129
 40
0.7467318899
 40
0.8098267559
 40
0.8730722394
 40
1.0
 40
1.0
 40
1.0
 40
1.0
 10
12.1535960424
 20
7.838140206
 30
0.0
 10
12.1456947879
 20
7.8338232893
 30
0.0
 10
12.1297215455
 20
7.8254725721
 30
0.0
 10
12.1053035354
 20
7.8138224172
 30
0.0
 10
12.0804393203
 20
7.8030530035
 30
0.0
 10
12.0467064937
 20
7.7898752914
 30
0.0
 10
12.0035574031
 20
7.7756681876
 30
0.0
 10
11.9594135381
 20
7.7645752103
 30
0.0
 10
11.9235892172
 20
7.7575810474
 30
0.0
 10
11.8964598591
 20
7.7532770293
 30
0.0
 10
11.8691337486
 20
7.7499259905
 30
0.0
 10
11.8416432584
 20
7.7475320088
 30
0.0
 10
11.8140204341
 20
7.7460977024
 30
0.0
 10
11.7770195611
 20
7.7454664345
 30
0.0
 10
11.7492240325
 20
7.7464394741
 30
0.0
 10
11.7307249439
 20
7.7477223902
 30
0.0
  0
SPLINE
  5
317
100
AcDbEntity
  8
0
100
AcDbSpline
 62
7
  6
CONTINUOUS
 70
0
 71
3
 72
43
 73
39
 74
0
 42
0.0000001
 43
0.0000001
 44
0.0000000001
 40
0.0
 40
0.0
 40
0.0
 40
0.0
 40
0.0448295038
 40
0.0932520662
 40
0.1446361914
 40
0.1979578402
 40
0.2519564294
 40
0.3054028963
 40
0.3573262307
 40
0.4070960382
 40
0.4543831827
 40
0.499070454
 40
0.5411687507
 40
0.5807567049
 40
0.6179435166
 40
0.6528471825
 40
0.6855837313
 40
0.7162624924
 40
0.7449826849
 40
0.7718353796
 40
0.7969026741
 40
0.8202600161
 40
0.8419789272
 40
0.8621275834
 40
0.8807766987
 40
0.8979999014
 40
0.9138823564
 40
0.9285231526
 40
0.9420470157
 40
0.9546098525
 40
0.9605959271
 40
0.9664207233
 40
0.9721167147
 40
0.9777197268
 40
0.9832683465
 40
0.9888030053
 40
0.9943658577
 40
1.0
 40
1.0
 40
1.0
 40
1.0
 10
10.9122159575
 20
8.8290388597
 30
0.0
 10
10.9115262766
 20
8.8260824102
 30
0.0
 10
10.9100384242
 20
8.8199448679
 30
0.0
 10
10.9075781379
 20
8.8104638111
 30
0.0
 10
10.9048142516
 20
8.800468704
 30
0.0
 10
10.9017847179
 20
8.7901566812
 30
0.0
 10
10.8985467858
 20
8.7797617834
 30
0.0
 10
10.8951662066
 20
8.7695120382
 30
0.0
 10
10.8917050704
 20
8.7595920074
 30
0.0
 10
10.8882131712
 20
8.7501261323
 30
0.0
 10
10.8847256431
 20
8.7411826602
 30
0.0
 10
10.8812647733
 20
8.7327881846
 30
0.0
 10
10.8778434599
 20
8.7249432186
 30
0.0
 10
10.8744684825
 20
8.7176341355
 30
0.0
 10
10.8711429606
 20
8.7108409576
 30
0.0
 10
10.8678679592
 20
8.7045418903
 30
0.0
 10
10.8646435579
 20
8.698715711
 30
0.0
 10
10.8614695556
 20
8.6933429557
 30
0.0
 10
10.8583455529
 20
8.6884065107
 30
0.0
 10
10.8552716235
 20
8.6838915652
 30
0.0
 10
10.8522480229
 20
8.6797857284
 30
0.0
 10
10.8492754691
 20
8.6760787937
 30
0.0
 10
10.8463552594
 20
8.6727625098
 30
0.0
 10
10.843488896
 20
8.6698306099
 30
0.0
 10
10.8406786855
 20
8.6672783052
 30
0.0
 10
10.8379269089
 20
8.6651026684
 30
0.0
 10
10.8352366974
 20
8.663301952
 30
0.0
 10
10.8326108218
 20
8.6618764163
 30
0.0
 10
10.8300534723
 20
8.6608277007
 30
0.0
 10
10.8279484846
 20
8.6602625478
 30
0.0
 10
10.8263152205
 20
8.6600144728
 30
0.0
 10
10.8251314944
 20
8.659928288
 30
0.0
 10
10.8239705601
 20
8.6599398424
 30
0.0
 10
10.8228334825
 20
8.6600499038
 30
0.0
 10
10.8217214787
 20
8.6602592147
 30
0.0
 10
10.8206358556
 20
8.6605687388
 30
0.0
 10
10.8195781437
 20
8.6609792961
 30
0.0
 10
10.8188983604
 20
8.6613180015
 30
0.0
 10
10.8185647911
 20
8.6615032174
 30
0.0
  0
SPLINE
  5
318
100
AcDbEntity
  8
0
100
AcDbSpline
 62
7
  6
CONTINUOUS
 70
0
 71
3
 72
48
 73
44
 74
0
 42
0.0000001
 43
0.0000001
 44
0.0000000001
 40
0.0
 40
0.0
 40
0.0
 40
0.0
 40
0.0958289108
 40
0.142819055
 40
0.1890969168
 40
0.2345923855
 40
0.2792361893
 40
0.3229617116
 40
0.3657043166
 40
0.4074013795
 40
0.4479928869
 40
0.4874214928
 40
0.5256326153
 40
0.562575023
 40
0.5982008659
 40
0.6324660346
 40
0.6653308135
 40
0.6967600002
 40
0.7267236806
 40
0.7551980185
 40
0.7821658055
 40
0.8076179191
 40
0.8197760323
 40
0.8315562182
 40
0.842960205
 40
0.853990731
 40
0.8646513669
 40
0.874946647
 40
0.8848824259
 40
0.8944657713
 40
0.9037050845
 40
0.9126105078
 40
0.9211939149
 40
0.9294690276
 40
0.9374518266
 40
0.9451606221
 40
0.9598347913
 40
0.966856672
 40
0.9737035577
 40
0.9804067923
 40
0.9870000416
 40
0.993518817
 40
1.0
 40
1.0
 40
1.0
 40
1.0
 10
13.402278031
 20
10.8923869045
 30
0.0
 10
13.4153010496
 20
10.8914837551
 30
0.0
 10
13.4346960632
 20
10.8899214663
 30
0.0
 10
13.4603320927
 20
10.8873954644
 30
0.0
 10
13.479120595
 20
10.8853128159
 30
0.0
 10
13.4975641935
 20
10.8830333271
 30
0.0
 10
13.5156320707
 20
10.8805607548
 30
0.0
 10
13.5332939656
 20
10.8778992744
 30
0.0
 10
13.5505203915
 20
10.8750533885
 30
0.0
 10
13.5672825616
 20
10.8720278375
 30
0.0
 10
13.5835524762
 20
10.8688277293
 30
0.0
 10
13.5993029724
 20
10.8654584643
 30
0.0
 10
13.614507758
 20
10.8619256621
 30
0.0
 10
13.629141479
 20
10.8582353051
 30
0.0
 10
13.6431797478
 20
10.8543935952
 30
0.0
 10
13.6565991865
 20
10.8504069529
 30
0.0
 10
13.6693774964
 20
10.8462821286
 30
0.0
 10
13.6814934737
 20
10.842026012
 30
0.0
 10
13.6929270447
 20
10.8376457171
 30
0.0
 10
13.7036594216
 20
10.8331485955
 30
0.0
 10
13.7136727793
 20
10.8285420867
 30
0.0
 10
13.7215201228
 20
10.8245599813
 30
0.0
 10
13.7274167576
 20
10.8213187983
 30
0.0
 10
13.7315815643
 20
10.8189025312
 30
0.0
 10
13.7355546729
 20
10.8164646946
 30
0.0
 10
13.7393344787
 20
10.8140063118
 30
0.0
 10
13.742919422
 20
10.8115283925
 30
0.0
 10
13.7463079893
 20
10.8090318945
 30
0.0
 10
13.7494988154
 20
10.8065178681
 30
0.0
 10
13.7524905958
 20
10.8039873285
 30
0.0
 10
13.7552820477
 20
10.8014412257
 30
0.0
 10
13.7578720366
 20
10.7988805992
 30
0.0
 10
13.7602595127
 20
10.7963064393
 30
0.0
 10
13.7624433606
 20
10.7937197614
 30
0.0
 10
13.7644227927
 20
10.7911213013
 30
0.0
 10
13.7667495698
 20
10.7876996174
 30
0.0
 10
13.7687180707
 20
10.7841970273
 30
0.0
 10
13.7702777515
 20
10.7806325652
 30
0.0
 10
13.7712221189
 20
10.7779914788
 30
0.0
 10
13.7719572831
 20
10.7753452027
 30
0.0
 10
13.7724828704
 20
10.7726948129
 30
0.0
 10
13.7727984039
 20
10.7700418409
 30
0.0
 10
13.7728685914
 20
10.76827013
 30
0.0
 10
13.7728685944
 20
10.7673872306
 30
0.0
  0
SPLINE
  5
319
100
AcDbEntity
  8
0
100
AcDbSpline
 62
7
  6
CONTINUOUS
 70
0
 71
3
 72
93
 73
89
 74
0
 42
0.0000001
 43
0.0000001
 44
0.0000000001
 40
0.0
 40
0.0
 40
0.0
 40
0.0
 40
0.0027164123
 40
0.0054532003
 40
0.0082302511
 40
0.0110665188
 40
0.0139797087
 40
0.0169859919
 40
0.0200999248
 40
0.0233344222
 40
0.0267007415
 40
0.0302086647
 40
0.0338665533
 40
0.0376814767
 40
0.0416594243
 40
0.0458053166
 40
0.0501232008
 40
0.0546163657
 40
0.0592873336
 40
0.0641380659
 40
0.0691699599
 40
0.0743838844
 40
0.0797803377
 40
0.0853593655
 40
0.0911206686
 40
0.0970636691
 40
0.103187422
 40
0.1094907654
 40
0.115972287
 40
0.1226302975
 40
0.1364678668
 40
0.1509865713
 40
0.1661663509
 40
0.1819846841
 40
0.1984168097
 40
0.2154359588
 40
0.2330135682
 40
0.2511194356
 40
0.2697218355
 40
0.2887876743
 40
0.3082826313
 40
0.3281712652
 40
0.3484171046
 40
0.3689827784
 40
0.3898301268
 40
0.4109202943
 40
0.4322138195
 40
0.4536707533
 40
0.4752507569
 40
0.4969131917
 40
0.5186172186
 40
0.5403219038
 40
0.5619863112
 40
0.5835695967
 40
0.6050311154
 40
0.6263305167
 40
0.6474278353
 40
0.6682835944
 40
0.6888589193
 40
0.7091156245
 40
0.7290163086
 40
0.7485244738
 40
0.7676046457
 40
0.7862224624
 40
0.8043447853
 40
0.8219398498
 40
0.8389774029
 40
0.8554288215
 40
0.8712672731
 40
0.8864679379
 40
0.9010082173
 40
0.9148679618
 40
0.9215372541
 40
0.9280301704
 40
0.9343450165
 40
0.9404803482
 40
0.9464349973
 40
0.9522079991
 40
0.9577987498
 40
0.9632069499
 40
0.9684326097
 40
0.9734761809
 40
0.9783384898
 40
0.983020908
 40
0.9875254607
 40
0.9918547019
 40
0.9960116651
 40
1.0
 40
1.0
 40
1.0
 40
1.0
 10
14.4784713476
 20
8.701096001
 30
0.0
 10
14.4797255528
 20
8.7010090227
 30
0.0
 10
14.4822369519
 20
8.7007209238
 30
0.0
 10
14.4859720745
 20
8.6999498912
 30
0.0
 10
14.4896789554
 20
8.6988401359
 30
0.0
 10
14.493354998
 20
8.6973928222
 30
0.0
 10
14.4969982312
 20
8.6956090761
 30
0.0
 10
14.5006068501
 20
8.6934904326
 30
0.0
 10
14.5041791807
 20
8.6910383567
 30
0.0
 10
14.5077135817
 20
8.6882543457
 30
0.0
 10
14.5112086134
 20
8.6851401271
 30
0.0
 10
14.5146627008
 20
8.681697324
 30
0.0
 10
14.5180743424
 20
8.6779277493
 30
0.0
 10
14.5214420856
 20
8.6738333575
 30
0.0
 10
14.5247643118
 20
8.6694161205
 30
0.0
 10
14.5280395548
 20
8.6646782724
 30
0.0
 10
14.5312662773
 20
8.6596221399
 30
0.0
 10
14.5344428741
 20
8.654250177
 30
0.0
 10
14.537567902
 20
8.6485650761
 30
0.0
 10
14.5406397831
 20
8.642569615
 30
0.0
 10
14.543657001
 20
8.6362667594
 30
0.0
 10
14.5466181284
 20
8.6296596563
 30
0.0
 10
14.5495216166
 20
8.6227515596
 30
0.0
 10
14.5523660648
 20
8.6155459252
 30
0.0
 10
14.5551500659
 20
8.6080463464
 30
0.0
 10
14.5578721604
 20
8.6002565499
 30
0.0
 10
14.5605310558
 20
8.5921804468
 30
0.0
 10
14.5631253751
 20
8.5838220711
 30
0.0
 10
14.5656538162
 20
8.5751855935
 30
0.0
 10
14.5689783203
 20
8.5631502927
 30
0.0
 10
14.572948936
 20
8.5474364866
 30
0.0
 10
14.5773724677
 20
8.527776509
 30
0.0
 10
14.5815048818
 20
8.5071176821
 30
0.0
 10
14.5853377786
 20
8.4855014583
 30
0.0
 10
14.5888633572
 20
8.4629710857
 30
0.0
 10
14.5920744564
 20
8.4395717539
 30
0.0
 10
14.5949645367
 20
8.4153504048
 30
0.0
 10
14.5975276977
 20
8.390355659
 30
0.0
 10
14.5997587309
 20
8.3646377208
 30
0.0
 10
14.6016531031
 20
8.3382482679
 30
0.0
 10
14.603206952
 20
8.3112403315
 30
0.0
 10
14.6044170931
 20
8.2836681962
 30
0.0
 10
14.6052810676
 20
8.2555872954
 30
0.0
 10
14.605797113
 20
8.2270540934
 30
0.0
 10
14.6059641597
 20
8.1981259627
 30
0.0
 10
14.605781834
 20
8.1688610756
 30
0.0
 10
14.6052504978
 20
8.1393182878
 30
0.0
 10
14.6043712099
 20
8.1095570163
 30
0.0
 10
14.6031457218
 20
8.0796371166
 30
0.0
 10
14.6015764772
 20
8.0496187661
 30
0.0
 10
14.5996666425
 20
8.0195623405
 30
0.0
 10
14.5974200611
 20
7.9895282924
 30
0.0
 10
14.5948412455
 20
7.9595770299
 30
0.0
 10
14.5919353769
 20
7.9297687947
 30
0.0
 10
14.5887083228
 20
7.9001635363
 30
0.0
 10
14.5851665871
 20
7.8708207948
 30
0.0
 10
14.5813172981
 20
7.8417995848
 30
0.0
 10
14.5771682085
 20
7.8131582696
 30
0.0
 10
14.5727276995
 20
7.7849544388
 30
0.0
 10
14.5680047285
 20
7.7572448004
 30
0.0
 10
14.5630088126
 20
7.73008507
 30
0.0
 10
14.5577500295
 20
7.7035298459
 30
0.0
 10
14.5522390083
 20
7.6776324937
 30
0.0
 10
14.5464868765
 20
7.6524450514
 30
0.0
 10
14.5405052369
 20
7.6280181255
 30
0.0
 10
14.534306173
 20
7.604400768
 30
0.0
 10
14.5279022234
 20
7.5816403741
 30
0.0
 10
14.5213063301
 20
7.5597825953
 30
0.0
 10
14.5145318064
 20
7.538871262
 30
0.0
 10
14.5075923482
 20
7.5189481903
 30
0.0
 10
14.5005019826
 20
7.5000533429
 30
0.0
 10
14.4944039759
 20
7.4850090843
 30
0.0
 10
14.4894527196
 20
7.473524111
 30
0.0
 10
14.4857581176
 20
7.4653011797
 30
0.0
 10
14.4820365494
 20
7.4573625164
 30
0.0
 10
14.4782898524
 20
7.4497120928
 30
0.0
 10
14.4745199682
 20
7.4423537175
 30
0.0
 10
14.4707287174
 20
7.4352910931
 30
0.0
 10
14.4669180344
 20
7.4285277256
 30
0.0
 10
14.463089833
 20
7.4220669739
 30
0.0
 10
14.4592459586
 20
7.4159120937
 30
0.0
 10
14.4553884125
 20
7.4100661179
 30
0.0
 10
14.4515190807
 20
7.4045319651
 30
0.0
 10
14.4476398079
 20
7.3993123612
 30
0.0
 10
14.4437524972
 20
7.394409794
 30
0.0
 10
14.4398589252
 20
7.3898267276
 30
0.0
 10
14.4359612846
 20
7.3855656451
 30
0.0
 10
14.433307388
 20
7.382886426
 30
0.0
 10
14.4319797215
 20
7.3816039986
 30
0.0
  0
SPLINE
  5
31A
100
AcDbEntity
  8
0
100
AcDbSpline
 62
7
  6
CONTINUOUS
 70
0
 71
3
 72
39
 73
35
 74
0
 42
0.0000001
 43
0.0000001
 44
0.0000000001
 40
0.0
 40
0.0
 40
0.0
 40
0.0
 40
0.0958313223
 40
0.1890999066
 40
0.2792396479
 40
0.3229663115
 40
0.3657099292
 40
0.4074081191
 40
0.4480006754
 40
0.4874302648
 40
0.5256424385
 40
0.5625857699
 40
0.5982125807
 40
0.6324786396
 40
0.665344311
 40
0.6967743203
 40
0.7267388303
 40
0.7552139511
 40
0.7821824427
 40
0.807635341
 40
0.8315726205
 40
0.8540058864
 40
0.8749600023
 40
0.8944766962
 40
0.9126183481
 40
0.9294727137
 40
0.94515911
 40
0.9598336921
 40
0.9668557838
 40
0.973702854
 40
0.9804062715
 40
0.9869997015
 40
0.9935186515
 40
1.0
 40
1.0
 40
1.0
 40
1.0
 10
13.7466204414
 20
10.5249961038
 30
0.0
 10
13.7555802584
 20
10.5243747384
 30
0.0
 10
13.7732473909
 20
10.5229515714
 30
0.0
 10
13.7992787951
 20
10.5202348947
 30
0.0
 10
13.8203916052
 20
10.5174950069
 30
0.0
 10
13.8367592232
 20
10.5150286668
 30
0.0
 10
13.8486109909
 20
10.5130706613
 30
0.0
 10
13.8601433429
 20
10.5109891112
 30
0.0
 10
13.8713370294
 20
10.5087874398
 30
0.0
 10
13.8821733545
 20
10.5064693805
 30
0.0
 10
13.8926342364
 20
10.5040388408
 30
0.0
 10
13.9027022248
 20
10.5014998636
 30
0.0
 10
13.9123605461
 20
10.4988567903
 30
0.0
 10
13.921593113
 20
10.4961139785
 30
0.0
 10
13.9303845873
 20
10.4932761173
 30
0.0
 10
13.9387203743
 20
10.4903479094
 30
0.0
 10
13.9465866804
 20
10.4873342799
 30
0.0
 10
13.9539705377
 20
10.484240279
 30
0.0
 10
13.9608598047
 20
10.4810709754
 30
0.0
 10
13.9672432703
 20
10.4778316798
 30
0.0
 10
13.9731105604
 20
10.4745275329
 30
0.0
 10
13.9784523101
 20
10.4711638803
 30
0.0
 10
13.9832600144
 20
10.4677458152
 30
0.0
 10
13.9875261086
 20
10.4642783225
 30
0.0
 10
13.9912438403
 20
10.4607661761
 30
0.0
 10
13.9944070171
 20
10.4572133966
 30
0.0
 10
13.9970096125
 20
10.4536246105
 30
0.0
 10
13.998731033
 20
10.4505617473
 30
0.0
 10
13.9998041728
 20
10.4481093317
 30
0.0
 10
14.0004538937
 20
10.4462922791
 30
0.0
 10
14.0009597035
 20
10.4444716419
 30
0.0
 10
14.0013213269
 20
10.4426481794
 30
0.0
 10
14.0015384432
 20
10.4408229392
 30
0.0
 10
14.0015867397
 20
10.4396040037
 30
0.0
 10
14.001586745
 20
10.43899657
 30
0.0
  0
SPLINE
  5
31B
100
AcDbEntity
  8
0
100
AcDbSpline
 62
7
  6
CONTINUOUS
 70
0
 71
3
 72
72
 73
68
 74
0
 42
0.0000001
 43
0.0000001
 44
0.0000000001
 40
0.0
 40
0.0
 40
0.0
 40
0.0
 40
0.0156746159
 40
0.0314022226
 40
0.0471805696
 40
0.0630088157
 40
0.0788846503
 40
0.0948056352
 40
0.1107688743
 40
0.1267710768
 40
0.1428086156
 40
0.1588775416
 40
0.1749736277
 40
0.1910924083
 40
0.2072292191
 40
0.223379238
 40
0.2395375258
 40
0.2556990719
 40
0.2718588387
 40
0.288011804
 40
0.3041530034
 40
0.3202775749
 40
0.3363808032
 40
0.3524581608
 40
0.368505347
 40
0.3845183271
 40
0.4004933723
 40
0.4164270948
 40
0.4323164798
 40
0.4481589142
 40
0.463952216
 40
0.47969466
 40
0.4953849967
 40
0.5110224671
 40
0.5266068151
 40
0.5421382975
 40
0.5576176867
 40
0.5730462665
 40
0.5884258238
 40
0.6037586366
 40
0.6190474577
 40
0.6342954895
 40
0.6495063537
 40
0.6646840563
 40
0.6798329509
 40
0.6949576952
 40
0.7100632021
 40
0.7251545882
 40
0.7402371198
 40
0.7553161586
 40
0.7703971041
 40
0.7854853358
 40
0.8005861545
 40
0.8157047258
 40
0.8308460273
 40
0.8460147969
 40
0.8612154829
 40
0.8764521986
 40
0.8917286803
 40
0.9070482605
 40
0.9224138179
 40
0.9301152223
 40
0.9378289995
 40
0.9532933468
 40
0.9688092505
 40
0.9843783794
 40
1.0
 40
1.0
 40
1.0
 40
1.0
 10
10.0454761588
 20
5.8914940177
 30
0.0
 10
10.0366114652
 20
5.8921087863
 30
0.0
 10
10.0188792667
 20
5.8937753075
 30
0.0
 10
9.9923927267
 20
5.8975680258
 30
0.0
 10
9.9660336574
 20
5.9026492868
 30
0.0
 10
9.9398666724
 20
5.9090063583
 30
0.0
 10
9.9139542906
 20
5.9166241733
 30
0.0
 10
9.8883590561
 20
5.925484246
 30
0.0
 10
9.8631425293
 20
5.9355651874
 30
0.0
 10
9.8383654102
 20
5.9468426914
 30
0.0
 10
9.8140873359
 20
5.9592895775
 30
0.0
 10
9.7903667571
 20
5.9728758877
 30
0.0
 10
9.7672607525
 20
5.9875688652
 30
0.0
 10
9.7448249205
 20
6.0033331046
 30
0.0
 10
9.7231132565
 20
6.0201306445
 30
0.0
 10
9.7021780304
 20
6.0379210592
 30
0.0
 10
9.6820696433
 20
6.0566615281
 30
0.0
 10
9.6628364711
 20
6.0763069086
 30
0.0
 10
9.6445248038
 20
6.0968099085
 30
0.0
 10
9.6271787263
 20
6.1181211828
 30
0.0
 10
9.610840029
 20
6.1401894599
 30
0.0
 10
9.5955480407
 20
6.1629616128
 30
0.0
 10
9.5813395653
 20
6.1863828208
 30
0.0
 10
9.5682488233
 20
6.2103967165
 30
0.0
 10
9.5563073681
 20
6.2349455138
 30
0.0
 10
9.545544001
 20
6.2599701369
 30
0.0
 10
9.5359846334
 20
6.2854103377
 30
0.0
 10
9.527652307
 20
6.31120488
 30
0.0
 10
9.5205671278
 20
6.3372916752
 30
0.0
 10
9.514746236
 20
6.3636079319
 30
0.0
 10
9.5102036933
 20
6.3900902881
 30
0.0
 10
9.5069504619
 20
6.4166749756
 30
0.0
 10
9.5049944316
 20
6.4432979799
 30
0.0
 10
9.5043403885
 20
6.4698951859
 30
0.0
 10
9.5049900059
 20
6.4964025277
 30
0.0
 10
9.5069417487
 20
6.5227561475
 30
0.0
 10
9.510190966
 20
6.5488925527
 30
0.0
 10
9.5147298968
 20
6.5747487629
 30
0.0
 10
9.5205476999
 20
6.600262454
 30
0.0
 10
9.5276304231
 20
6.6253721188
 30
0.0
 10
9.5359610206
 20
6.6500172285
 30
0.0
 10
9.5455194652
 20
6.6741383598
 30
0.0
 10
9.556282776
 20
6.6976773382
 30
0.0
 10
9.568225084
 20
6.7205773694
 30
0.0
 10
9.5813176073
 20
6.7427832232
 30
0.0
 10
9.595528791
 20
6.7642413415
 30
0.0
 10
9.6108243918
 20
6.7848999574
 30
0.0
 10
9.6271675621
 20
6.8047092142
 30
0.0
 10
9.6445189087
 20
6.8236213069
 30
0.0
 10
9.6628365566
 20
6.8415906382
 30
0.0
 10
9.6820763204
 20
6.8585738708
 30
0.0
 10
9.702191795
 20
6.8745300425
 30
0.0
 10
9.7231344758
 20
6.8894206476
 30
0.0
 10
9.7448538241
 20
6.903209804
 30
0.0
 10
9.767297428
 20
6.9158643053
 30
0.0
 10
9.7904111444
 20
6.9273536693
 30
0.0
 10
9.8141392362
 20
6.9376502148
 30
0.0
 10
9.8384244511
 20
6.946729128
 30
0.0
 10
9.863208313
 20
6.9545686322
 30
0.0
 10
9.8884306533
 20
6.9611498127
 30
0.0
 10
9.9097489421
 20
6.965569217
 30
0.0
 10
9.9269587305
 20
6.9684623348
 30
0.0
 10
9.9442913373
 20
6.9709293793
 30
0.0
 10
9.9661191094
 20
6.9732012364
 30
0.0
 10
9.9924805527
 20
6.9746222692
 30
0.0
 10
10.01896875
 20
6.9747369198
 30
0.0
 10
10.0366414364
 20
6.9739436973
 30
0.0
 10
10.0454761588
 20
6.9733310072
 30
0.0
  0
SPLINE
  5
31C
100
AcDbEntity
  8
0
100
AcDbSpline
 62
7
  6
CONTINUOUS
 70
0
 71
3
 72
52
 73
48
 74
0
 42
0.0000001
 43
0.0000001
 44
0.0000000001
 40
0.0
 40
0.0
 40
0.0
 40
0.0
 40
0.0055575432
 40
0.0111779614
 40
0.0169218945
 40
0.0228457475
 40
0.0290005144
 40
0.0354308862
 40
0.0421752934
 40
0.0492661335
 40
0.0567301231
 40
0.0645892225
 40
0.0728608672
 40
0.0815588606
 40
0.0906937967
 40
0.1002733464
 40
0.1103030146
 40
0.1207860058
 40
0.1317238562
 40
0.1431165283
 40
0.1549624431
 40
0.1672590102
 40
0.1800022976
 40
0.1931875122
 40
0.2068089526
 40
0.2208599541
 40
0.2353333061
 40
0.2502208768
 40
0.2812026952
 40
0.3137297793
 40
0.3477171238
 40
0.3830722713
 40
0.4196961455
 40
0.4574837832
 40
0.4963250606
 40
0.5361053206
 40
0.5767059552
 40
0.6180049532
 40
0.6598774413
 40
0.7021962436
 40
0.7448324284
 40
0.7876557765
 40
0.8305353181
 40
0.8733401
 40
0.9159383712
 40
0.9582024049
 40
1.0
 40
1.0
 40
1.0
 40
1.0
 10
13.8959291527
 20
11.0014953386
 30
0.0
 10
13.8959291453
 20
11.0023463288
 30
0.0
 10
13.896024386
 20
11.0040594188
 30
0.0
 10
13.8964519428
 20
11.0066199229
 30
0.0
 10
13.8971635633
 20
11.0091746942
 30
0.0
 10
13.8981577058
 20
11.0117208268
 30
0.0
 10
13.8994329149
 20
11.0142561822
 30
0.0
 10
13.9009873334
 20
11.0167788815
 30
0.0
 10
13.9028192518
 20
11.0192871707
 30
0.0
 10
13.9049268982
 20
11.0217793242
 30
0.0
 10
13.9073083069
 20
11.0242537497
 30
0.0
 10
13.90996158
 20
11.0267086211
 30
0.0
 10
13.9128844825
 20
11.0291422704
 30
0.0
 10
13.9160747083
 20
11.0315528673
 30
0.0
 10
13.9195297291
 20
11.033938554
 30
0.0
 10
13.9232467497
 20
11.0362975699
 30
0.0
 10
13.9272228532
 20
11.0386279569
 30
0.0
 10
13.9314548099
 20
11.0409279472
 30
0.0
 10
13.9359392338
 20
11.0431956594
 30
0.0
 10
13.9406725113
 20
11.0454292369
 30
0.0
 10
13.9456507911
 20
11.0476269377
 30
0.0
 10
13.9508700623
 20
11.0497868801
 30
0.0
 10
13.9563260611
 20
11.051907375
 30
0.0
 10
13.9620143562
 20
11.0539866537
 30
0.0
 10
13.9679303147
 20
11.056022994
 30
0.0
 10
13.9740690981
 20
11.0580147811
 30
0.0
 10
13.9804257156
 20
11.0599603196
 30
0.0
 10
13.9893029468
 20
11.0625247354
 30
0.0
 10
14.0009100171
 20
11.0655944512
 30
0.0
 10
14.0154417087
 20
11.0690223693
 30
0.0
 10
14.0307083758
 20
11.0722303703
 30
0.0
 10
14.0466600803
 20
11.0752078473
 30
0.0
 10
14.0632447389
 20
11.0779449299
 30
0.0
 10
14.0804081029
 20
11.0804325706
 30
0.0
 10
14.0980940117
 20
11.0826625423
 30
0.0
 10
14.1162445721
 20
11.0846274715
 30
0.0
 10
14.1348003549
 20
11.0863208596
 30
0.0
 10
14.1537005862
 20
11.0877371057
 30
0.0
 10
14.1728833492
 20
11.0888715398
 30
0.0
 10
14.192285797
 20
11.0897204193
 30
0.0
 10
14.2118443579
 20
11.0902809404
 30
0.0
 10
14.2314949427
 20
11.0905512487
 30
0.0
 10
14.2511731899
 20
11.0905304514
 30
0.0
 10
14.2708145079
 20
11.0902186031
 30
0.0
 10
14.2903548116
 20
11.0896167831
 30
0.0
 10
14.3097296985
 20
11.0887269041
 30
0.0
 10
14.3225779556
 20
11.0879384643
 30
0.0
 10
14.3289628123
 20
11.0874956729
 30
0.0
  0
SPLINE
  5
31D
100
AcDbEntity
  8
0
100
AcDbSpline
 62
7
  6
CONTINUOUS
 70
0
 71
3
 72
40
 73
36
 74
0
 42
0.0000001
 43
0.0000001
 44
0.0000000001
 40
0.0
 40
0.0
 40
0.0
 40
0.0
 40
0.0309031088
 40
0.0619362954
 40
0.0930926111
 40
0.1243682514
 40
0.1557549711
 40
0.187243861
 40
0.2188243685
 40
0.2504846637
 40
0.282211835
 40
0.3139920348
 40
0.3458106875
 40
0.3776526895
 40
0.409502624
 40
0.4413449686
 40
0.4731643023
 40
0.504945513
 40
0.5366740097
 40
0.5683359295
 40
0.5999183291
 40
0.6314093668
 40
0.6627984745
 40
0.6940765262
 40
0.7252359841
 40
0.756271021
 40
0.7871776211
 40
0.8179536594
 40
0.8485989656
 40
0.8791153525
 40
0.9095066095
 40
0.9397784653
 40
0.9548738363
 40
0.9699423653
 40
1.0
 40
1.0
 40
1.0
 40
1.0
 10
10.3786547396
 20
6.5127568566
 30
0.0
 10
10.3737035723
 20
6.5131002213
 30
0.0
 10
10.3637988798
 20
6.5140925322
 30
0.0
 10
10.3490316278
 20
6.516482197
 30
0.0
 10
10.3343757183
 20
6.5197676429
 30
0.0
 10
10.319887258
 20
6.523936018
 30
0.0
 10
10.3056203996
 20
6.5289718298
 30
0.0
 10
10.2916289599
 20
6.5348559804
 30
0.0
 10
10.277965542
 20
6.5415662795
 30
0.0
 10
10.2646815507
 20
6.549077416
 30
0.0
 10
10.2518269556
 20
6.5573610863
 30
0.0
 10
10.2394501199
 20
6.5663861043
 30
0.0
 10
10.2275976222
 20
6.5761185084
 30
0.0
 10
10.2163140405
 20
6.586521644
 30
0.0
 10
10.205641818
 20
6.5975563494
 30
0.0
 10
10.1956211108
 20
6.6091811036
 30
0.0
 10
10.1862896391
 20
6.6213521771
 30
0.0
 10
10.1776825522
 20
6.6340237947
 30
0.0
 10
10.1698322418
 20
6.6471482702
 30
0.0
 10
10.162768263
 20
6.6606762228
 30
0.0
 10
10.1565172326
 20
6.6745567612
 30
0.0
 10
10.1511027282
 20
6.6887376682
 30
0.0
 10
10.1465452067
 20
6.7031655945
 30
0.0
 10
10.1428618623
 20
6.7177862382
 30
0.0
 10
10.1400666104
 20
6.7325445706
 30
0.0
 10
10.1381700461
 20
6.7473850404
 30
0.0
 10
10.1371793985
 20
6.7622517733
 30
0.0
 10
10.1370985128
 20
6.7770887877
 30
0.0
 10
10.1379277535
 20
6.7918401644
 30
0.0
 10
10.1396640939
 20
6.8064504153
 30
0.0
 10
10.1423009834
 20
6.8208641261
 30
0.0
 10
10.1452437613
 20
6.8326788618
 30
0.0
 10
10.148037329
 20
6.8419757315
 30
0.0
 10
10.1511151125
 20
6.8511457876
 30
0.0
 10
10.1537509023
 20
6.8579038363
 30
0.0
 10
10.1556492957
 20
6.8623421571
 30
0.0
  0
SPLINE
  5
31E
100
AcDbEntity
  8
0
100
AcDbSpline
 62
7
  6
CONTINUOUS
 70
0
 71
3
 72
52
 73
48
 74
0
 42
0.0000001
 43
0.0000001
 44
0.0000000001
 40
0.0
 40
0.0
 40
0.0
 40
0.0
 40
0.0055575432
 40
0.0111779614
 40
0.0169218945
 40
0.0228457475
 40
0.0290005144
 40
0.0354308862
 40
0.0421752934
 40
0.0492661335
 40
0.0567301231
 40
0.0645892225
 40
0.0728608672
 40
0.0815588606
 40
0.0906937967
 40
0.1002733464
 40
0.1103030146
 40
0.1207860058
 40
0.1317238562
 40
0.1431165283
 40
0.1549624431
 40
0.1672590102
 40
0.1800022976
 40
0.1931875122
 40
0.2068089526
 40
0.2208599541
 40
0.2353333061
 40
0.2502208768
 40
0.2812026952
 40
0.3137297793
 40
0.3477171238
 40
0.3830722713
 40
0.4196961455
 40
0.4574837832
 40
0.4963250606
 40
0.5361053206
 40
0.5767059552
 40
0.6180049532
 40
0.6598774413
 40
0.7021962436
 40
0.7448324284
 40
0.7876557765
 40
0.8305353181
 40
0.8733401
 40
0.9159383712
 40
0.9582024049
 40
1.0
 40
1.0
 40
1.0
 40
1.0
 10
13.3135867818
 20
10.4389957695
 30
0.0
 10
13.3135867744
 20
10.4398467597
 30
0.0
 10
13.3136820151
 20
10.4415598497
 30
0.0
 10
13.3141095719
 20
10.4441203538
 30
0.0
 10
13.3148211924
 20
10.4466751251
 30
0.0
 10
13.3158153349
 20
10.4492212576
 30
0.0
 10
13.317090544
 20
10.451756613
 30
0.0
 10
13.3186449625
 20
10.4542793124
 30
0.0
 10
13.3204768809
 20
10.4567876016
 30
0.0
 10
13.3225845273
 20
10.4592797551
 30
0.0
 10
13.324965936
 20
10.4617541806
 30
0.0
 10
13.3276192091
 20
10.4642090519
 30
0.0
 10
13.3305421116
 20
10.4666427013
 30
0.0
 10
13.3337323374
 20
10.4690532982
 30
0.0
 10
13.3371873582
 20
10.4714389849
 30
0.0
 10
13.3409043788
 20
10.4737980008
 30
0.0
 10
13.3448804823
 20
10.4761283878
 30
0.0
 10
13.3491124391
 20
10.478428378
 30
0.0
 10
13.3535968629
 20
10.4806960903
 30
0.0
 10
13.3583301404
 20
10.4829296678
 30
0.0
 10
13.3633084203
 20
10.4851273686
 30
0.0
 10
13.3685276914
 20
10.487287311
 30
0.0
 10
13.3739836902
 20
10.4894078059
 30
0.0
 10
13.3796719853
 20
10.4914870845
 30
0.0
 10
13.3855879438
 20
10.4935234249
 30
0.0
 10
13.3917267272
 20
10.495515212
 30
0.0
 10
13.3980833447
 20
10.4974607505
 30
0.0
 10
13.4069605759
 20
10.5000251663
 30
0.0
 10
13.4185676462
 20
10.5030948821
 30
0.0
 10
13.4330993379
 20
10.5065228002
 30
0.0
 10
13.4483660049
 20
10.5097308012
 30
0.0
 10
13.4643177094
 20
10.5127082781
 30
0.0
 10
13.480902368
 20
10.5154453608
 30
0.0
 10
13.498065732
 20
10.5179330015
 30
0.0
 10
13.5157516408
 20
10.5201629732
 30
0.0
 10
13.5339022013
 20
10.5221279024
 30
0.0
 10
13.552457984
 20
10.5238212905
 30
0.0
 10
13.5713582153
 20
10.5252375366
 30
0.0
 10
13.5905409783
 20
10.5263719707
 30
0.0
 10
13.6099434261
 20
10.5272208502
 30
0.0
 10
13.6295019871
 20
10.5277813713
 30
0.0
 10
13.6491525718
 20
10.5280516796
 30
0.0
 10
13.668830819
 20
10.5280308823
 30
0.0
 10
13.6884721371
 20
10.527719034
 30
0.0
 10
13.7080124408
 20
10.527117214
 30
0.0
 10
13.7273873276
 20
10.526227335
 30
0.0
 10
13.7402355847
 20
10.5254388952
 30
0.0
 10
13.7466204414
 20
10.5249961038
 30
0.0
  0
SPLINE
  5
31F
100
AcDbEntity
  8
0
100
AcDbSpline
 62
7
  6
CONTINUOUS
 70
0
 71
3
 72
75
 73
71
 74
0
 42
0.0000001
 43
0.0000001
 44
0.0000000001
 40
0.0
 40
0.0
 40
0.0
 40
0.0
 40
0.0156747273
 40
0.0235325814
 40
0.031403181
 40
0.0471815803
 40
0.0630097508
 40
0.0788855268
 40
0.0948064622
 40
0.1107696438
 40
0.1267717932
 40
0.1347869014
 40
0.1428103611
 40
0.1588792318
 40
0.1749752631
 40
0.1910939891
 40
0.2072307449
 40
0.2233807077
 40
0.2395389397
 40
0.2557004309
 40
0.2718601429
 40
0.2880130529
 40
0.3041541969
 40
0.3202787136
 40
0.3363818874
 40
0.3524591897
 40
0.36850632
 40
0.3845192451
 40
0.4004942363
 40
0.4164279049
 40
0.4323172352
 40
0.4481596152
 40
0.4639528635
 40
0.4796952542
 40
0.4953855368
 40
0.5110229526
 40
0.526607247
 40
0.5421386771
 40
0.5576180139
 40
0.5730465408
 40
0.5884260451
 40
0.6037588059
 40
0.6190475753
 40
0.6342955548
 40
0.649506366
 40
0.6646840161
 40
0.6798328593
 40
0.6949575524
 40
0.7100630078
 40
0.725154342
 40
0.7402368221
 40
0.7553158097
 40
0.7703967041
 40
0.7854848839
 40
0.80058565
 40
0.8157041693
 40
0.8308454194
 40
0.8460141376
 40
0.8612147716
 40
0.8764514346
 40
0.8917278653
 40
0.9070473908
 40
0.9224129018
 40
0.9301142846
 40
0.9378280267
 40
0.9532922984
 40
0.9688082546
 40
0.9765865231
 40
0.9843782672
 40
1.0
 40
1.0
 40
1.0
 40
1.0
 10
11.3745902197
 20
7.3080959344
 30
0.0
 10
11.3598050206
 20
7.3091212915
 30
0.0
 10
11.337640679
 20
7.31120436
 30
0.0
 10
11.3081972446
 20
7.3150557994
 30
0.0
 10
11.2787581012
 20
7.3196331165
 30
0.0
 10
11.2420912619
 20
7.3267013101
 30
0.0
 10
11.1984487277
 20
7.3373040403
 30
0.0
 10
11.1552305316
 20
7.3500094645
 30
0.0
 10
11.1125412543
 20
7.3647867996
 30
0.0
 10
11.0704840158
 20
7.3816001993
 30
0.0
 10
11.0360645646
 20
7.3972665229
 30
0.0
 10
11.0089444819
 20
7.4107732556
 30
0.0
 10
10.9820899023
 20
7.4249362325
 30
0.0
 10
10.9491038891
 20
7.4438294101
 30
0.0
 10
10.9105666996
 20
7.468335
 30
0.0
 10
10.8731468482
 20
7.4946275585
 30
0.0
 10
10.8369349368
 20
7.5226434699
 30
0.0
 10
10.802017972
 20
7.5523153545
 30
0.0
 10
10.768480032
 20
7.583571754
 30
0.0
 10
10.736401831
 20
7.6163374307
 30
0.0
 10
10.7058605884
 20
7.6505335127
 30
0.0
 10
10.6769298275
 20
7.6860776924
 30
0.0
 10
10.6496792046
 20
7.7228844213
 30
0.0
 10
10.6241743328
 20
7.7608651101
 30
0.0
 10
10.6004766282
 20
7.7999283451
 30
0.0
 10
10.5786431663
 20
7.8399801091
 30
0.0
 10
10.5587265444
 20
7.880924006
 30
0.0
 10
10.5407747552
 20
7.9226614911
 30
0.0
 10
10.5248310715
 20
7.9650921069
 30
0.0
 10
10.5109339426
 20
8.008113723
 30
0.0
 10
10.4991169004
 20
8.0516227801
 30
0.0
 10
10.4894084804
 20
8.095514538
 30
0.0
 10
10.4818321432
 20
8.1396833242
 30
0.0
 10
10.4764062188
 20
8.184022789
 30
0.0
 10
10.4731438676
 20
8.2284261609
 30
0.0
 10
10.4720530462
 20
8.2727865019
 30
0.0
 10
10.4731364863
 20
8.3169969634
 30
0.0
 10
10.4763916864
 20
8.3609510425
 30
0.0
 10
10.4818109157
 20
8.4045428369
 30
0.0
 10
10.4893812291
 20
8.4476672999
 30
0.0
 10
10.4990844979
 20
8.4902204928
 30
0.0
 10
10.5108974432
 20
8.5320998368
 30
0.0
 10
10.5247916883
 20
8.5732043637
 30
0.0
 10
10.5407338329
 20
8.6134349579
 30
0.0
 10
10.5586855291
 20
8.6526945973
 30
0.0
 10
10.5786035728
 20
8.6908885891
 30
0.0
 10
10.600440005
 20
8.7279248003
 30
0.0
 10
10.6241422267
 20
8.7637138827
 30
0.0
 10
10.6496531241
 20
8.7981694915
 30
0.0
 10
10.6769112075
 20
8.8312084959
 30
0.0
 10
10.705850756
 20
8.8627511855
 30
0.0
 10
10.7364019737
 20
8.8927214708
 30
0.0
 10
10.7684911684
 20
8.9210470626
 30
0.0
 10
10.8020409304
 20
8.9476596493
 30
0.0
 10
10.8369703219
 20
8.9724950634
 30
0.0
 10
10.8731950748
 20
8.9954934372
 30
0.0
 10
10.9106277983
 20
9.0165993478
 30
0.0
 10
10.9491781872
 20
9.03576195
 30
0.0
 10
10.9887532638
 20
9.0529351003
 30
0.0
 10
11.0292575255
 20
9.0680774591
 30
0.0
 10
11.0705934671
 20
9.0811526338
 30
0.0
 10
11.1126607328
 20
9.0921291166
 30
0.0
 10
11.1482166264
 20
9.0994999478
 30
0.0
 10
11.176920067
 20
9.10432539
 30
0.0
 10
11.205828413
 20
9.1084399347
 30
0.0
 10
11.2422337795
 20
9.1122292049
 30
0.0
 10
11.2788433619
 20
9.1142025391
 30
0.0
 10
11.308234256
 20
9.1146946122
 30
0.0
 10
11.3377277725
 20
9.1144606157
 30
0.0
 10
11.3598550077
 20
9.1134674656
 30
0.0
 10
11.3745902197
 20
9.1124455751
 30
0.0
  0
SPLINE
  5
320
100
AcDbEntity
  8
0
100
AcDbSpline
 62
7
  6
CONTINUOUS
 70
0
 71
3
 72
52
 73
48
 74
0
 42
0.0000001
 43
0.0000001
 44
0.0000000001
 40
0.0
 40
0.0
 40
0.0
 40
0.0
 40
0.0055575432
 40
0.0111779614
 40
0.0169218945
 40
0.0228457475
 40
0.0290005144
 40
0.0354308862
 40
0.0421752934
 40
0.0492661335
 40
0.0567301231
 40
0.0645892225
 40
0.0728608672
 40
0.0815588606
 40
0.0906937967
 40
0.1002733464
 40
0.1103030146
 40
0.1207860058
 40
0.1317238562
 40
0.1431165283
 40
0.1549624431
 40
0.1672590102
 40
0.1800022976
 40
0.1931875122
 40
0.2068089526
 40
0.2208599541
 40
0.2353333061
 40
0.2502208768
 40
0.2812026952
 40
0.3137297793
 40
0.3477171238
 40
0.3830722713
 40
0.4196961455
 40
0.4574837832
 40
0.4963250606
 40
0.5361053206
 40
0.5767059552
 40
0.6180049532
 40
0.6598774413
 40
0.7021962436
 40
0.7448324284
 40
0.7876557765
 40
0.8305353181
 40
0.8733401
 40
0.9159383712
 40
0.9582024049
 40
1.0
 40
1.0
 40
1.0
 40
1.0
 10
8.4839573642
 20
10.7739317072
 30
0.0
 10
8.4839573568
 20
10.7747826974
 30
0.0
 10
8.4840525975
 20
10.7764957874
 30
0.0
 10
8.4844801543
 20
10.7790562915
 30
0.0
 10
8.4851917748
 20
10.7816110628
 30
0.0
 10
8.4861859173
 20
10.7841571954
 30
0.0
 10
8.4874611264
 20
10.7866925508
 30
0.0
 10
8.4890155449
 20
10.7892152501
 30
0.0
 10
8.4908474633
 20
10.7917235393
 30
0.0
 10
8.4929551097
 20
10.7942156928
 30
0.0
 10
8.4953365184
 20
10.7966901183
 30
0.0
 10
8.4979897915
 20
10.7991449896
 30
0.0
 10
8.500912694
 20
10.801578639
 30
0.0
 10
8.5041029198
 20
10.8039892359
 30
0.0
 10
8.5075579406
 20
10.8063749226
 30
0.0
 10
8.5112749612
 20
10.8087339385
 30
0.0
 10
8.5152510647
 20
10.8110643255
 30
0.0
 10
8.5194830214
 20
10.8133643158
 30
0.0
 10
8.5239674453
 20
10.815632028
 30
0.0
 10
8.5287007228
 20
10.8178656055
 30
0.0
 10
8.5336790026
 20
10.8200633063
 30
0.0
 10
8.5388982738
 20
10.8222232487
 30
0.0
 10
8.5443542726
 20
10.8243437436
 30
0.0
 10
8.5500425677
 20
10.8264230223
 30
0.0
 10
8.5559585262
 20
10.8284593626
 30
0.0
 10
8.5620973096
 20
10.8304511497
 30
0.0
 10
8.5684539271
 20
10.8323966882
 30
0.0
 10
8.5773311583
 20
10.834961104
 30
0.0
 10
8.5889382286
 20
10.8380308198
 30
0.0
 10
8.6034699202
 20
10.8414587379
 30
0.0
 10
8.6187365873
 20
10.8446667389
 30
0.0
 10
8.6346882918
 20
10.8476442159
 30
0.0
 10
8.6512729504
 20
10.8503812985
 30
0.0
 10
8.6684363144
 20
10.8528689392
 30
0.0
 10
8.6861222232
 20
10.8550989109
 30
0.0
 10
8.7042727836
 20
10.8570638401
 30
0.0
 10
8.7228285664
 20
10.8587572282
 30
0.0
 10
8.7417287977
 20
10.8601734743
 30
0.0
 10
8.7609115607
 20
10.8613079084
 30
0.0
 10
8.7803140085
 20
10.8621567879
 30
0.0
 10
8.7998725694
 20
10.862717309
 30
0.0
 10
8.8195231542
 20
10.8629876173
 30
0.0
 10
8.8392014014
 20
10.86296682
 30
0.0
 10
8.8588427194
 20
10.8626549717
 30
0.0
 10
8.8783830231
 20
10.8620531517
 30
0.0
 10
8.89775791
 20
10.8611632727
 30
0.0
 10
8.9106061671
 20
10.8603748329
 30
0.0
 10
8.9169910238
 20
10.8599320415
 30
0.0
  0
SPLINE
  5
321
100
AcDbEntity
  8
0
100
AcDbSpline
 62
7
  6
CONTINUOUS
 70
0
 71
3
 72
20
 73
16
 74
0
 42
0.0000001
 43
0.0000001
 44
0.0000000001
 40
0.0
 40
0.0
 40
0.0
 40
0.0
 40
0.0616286583
 40
0.1233417705
 40
0.1851480591
 40
0.2470557841
 40
0.3711857121
 40
0.4958069226
 40
0.5583261169
 40
0.6209840803
 40
0.6837849129
 40
0.7467318899
 40
0.8098267559
 40
0.8730722394
 40
1.0
 40
1.0
 40
1.0
 40
1.0
 10
9.4953680359
 20
8.0224889444
 30
0.0
 10
9.4874667813
 20
8.0181720277
 30
0.0
 10
9.4714935389
 20
8.0098213105
 30
0.0
 10
9.4470755288
 20
7.9981711556
 30
0.0
 10
9.4222113137
 20
7.9874017418
 30
0.0
 10
9.3884784871
 20
7.9742240298
 30
0.0
 10
9.3453293966
 20
7.960016926
 30
0.0
 10
9.3011855316
 20
7.9489239487
 30
0.0
 10
9.2653612106
 20
7.9419297858
 30
0.0
 10
9.2382318525
 20
7.9376257677
 30
0.0
 10
9.210905742
 20
7.9342747289
 30
0.0
 10
9.1834152518
 20
7.9318807472
 30
0.0
 10
9.1557924275
 20
7.9304464408
 30
0.0
 10
9.1187915545
 20
7.9298151729
 30
0.0
 10
9.0909960259
 20
7.9307882125
 30
0.0
 10
9.0724969373
 20
7.9320711286
 30
0.0
  0
SPLINE
  5
322
100
AcDbEntity
  8
0
100
AcDbSpline
 62
7
  6
CONTINUOUS
 70
0
 71
3
 72
52
 73
48
 74
0
 42
0.0000001
 43
0.0000001
 44
0.0000000001
 40
0.0
 40
0.0
 40
0.0
 40
0.0
 40
0.0055575432
 40
0.0111779614
 40
0.0169218945
 40
0.0228457475
 40
0.0290005144
 40
0.0354308862
 40
0.0421752934
 40
0.0492661335
 40
0.0567301231
 40
0.0645892225
 40
0.0728608672
 40
0.0815588606
 40
0.0906937967
 40
0.1002733464
 40
0.1103030146
 40
0.1207860058
 40
0.1317238562
 40
0.1431165283
 40
0.1549624431
 40
0.1672590102
 40
0.1800022976
 40
0.1931875122
 40
0.2068089526
 40
0.2208599541
 40
0.2353333061
 40
0.2502208768
 40
0.2812026952
 40
0.3137297793
 40
0.3477171238
 40
0.3830722713
 40
0.4196961455
 40
0.4574837832
 40
0.4963250606
 40
0.5361053206
 40
0.5767059552
 40
0.6180049532
 40
0.6598774413
 40
0.7021962436
 40
0.7448324284
 40
0.7876557765
 40
0.8305353181
 40
0.8733401
 40
0.9159383712
 40
0.9582024049
 40
1.0
 40
1.0
 40
1.0
 40
1.0
 10
9.0662997351
 20
11.3364312763
 30
0.0
 10
9.0662997277
 20
11.3372822665
 30
0.0
 10
9.0663949684
 20
11.3389953565
 30
0.0
 10
9.0668225251
 20
11.3415558606
 30
0.0
 10
9.0675341457
 20
11.3441106319
 30
0.0
 10
9.0685282882
 20
11.3466567645
 30
0.0
 10
9.0698034973
 20
11.3491921199
 30
0.0
 10
9.0713579158
 20
11.3517148193
 30
0.0
 10
9.0731898342
 20
11.3542231084
 30
0.0
 10
9.0752974806
 20
11.3567152619
 30
0.0
 10
9.0776788893
 20
11.3591896874
 30
0.0
 10
9.0803321623
 20
11.3616445588
 30
0.0
 10
9.0832550649
 20
11.3640782082
 30
0.0
 10
9.0864452906
 20
11.366488805
 30
0.0
 10
9.0899003115
 20
11.3688744917
 30
0.0
 10
9.0936173321
 20
11.3712335076
 30
0.0
 10
9.0975934355
 20
11.3735638946
 30
0.0
 10
9.1018253923
 20
11.3758638849
 30
0.0
 10
9.1063098162
 20
11.3781315971
 30
0.0
 10
9.1110430937
 20
11.3803651747
 30
0.0
 10
9.1160213735
 20
11.3825628754
 30
0.0
 10
9.1212406447
 20
11.3847228178
 30
0.0
 10
9.1266966435
 20
11.3868433127
 30
0.0
 10
9.1323849386
 20
11.3889225914
 30
0.0
 10
9.1383008971
 20
11.3909589317
 30
0.0
 10
9.1444396804
 20
11.3929507188
 30
0.0
 10
9.1507962979
 20
11.3948962573
 30
0.0
 10
9.1596735292
 20
11.3974606731
 30
0.0
 10
9.1712805994
 20
11.4005303889
 30
0.0
 10
9.1858122911
 20
11.403958307
 30
0.0
 10
9.2010789582
 20
11.407166308
 30
0.0
 10
9.2170306627
 20
11.410143785
 30
0.0
 10
9.2336153212
 20
11.4128808676
 30
0.0
 10
9.2507786853
 20
11.4153685083
 30
0.0
 10
9.2684645941
 20
11.41759848
 30
0.0
 10
9.2866151545
 20
11.4195634092
 30
0.0
 10
9.3051709373
 20
11.4212567973
 30
0.0
 10
9.3240711686
 20
11.4226730434
 30
0.0
 10
9.3432539316
 20
11.4238074775
 30
0.0
 10
9.3626563794
 20
11.424656357
 30
0.0
 10
9.3822149403
 20
11.4252168781
 30
0.0
 10
9.401865525
 20
11.4254871864
 30
0.0
 10
9.4215437723
 20
11.4254663891
 30
0.0
 10
9.4411850903
 20
11.4251545408
 30
0.0
 10
9.460725394
 20
11.4245527208
 30
0.0
 10
9.4801002809
 20
11.4236628418
 30
0.0
 10
9.492948538
 20
11.422874402
 30
0.0
 10
9.4993333947
 20
11.4224316107
 30
0.0
  0
SPLINE
  5
323
100
AcDbEntity
  8
0
100
AcDbSpline
 62
7
  6
CONTINUOUS
 70
0
 71
3
 72
75
 73
71
 74
0
 42
0.0000001
 43
0.0000001
 44
0.0000000001
 40
0.0
 40
0.0
 40
0.0
 40
0.0
 40
0.0156747273
 40
0.0235325814
 40
0.031403181
 40
0.0471815803
 40
0.0630097508
 40
0.0788855268
 40
0.0948064622
 40
0.1107696438
 40
0.1267717932
 40
0.1347869014
 40
0.1428103611
 40
0.1588792318
 40
0.1749752631
 40
0.1910939891
 40
0.2072307449
 40
0.2233807077
 40
0.2395389397
 40
0.2557004309
 40
0.2718601429
 40
0.2880130529
 40
0.3041541969
 40
0.3202787136
 40
0.3363818874
 40
0.3524591897
 40
0.36850632
 40
0.3845192451
 40
0.4004942363
 40
0.4164279049
 40
0.4323172352
 40
0.4481596152
 40
0.4639528635
 40
0.4796952542
 40
0.4953855368
 40
0.5110229526
 40
0.526607247
 40
0.5421386771
 40
0.5576180139
 40
0.5730465408
 40
0.5884260451
 40
0.6037588059
 40
0.6190475753
 40
0.6342955548
 40
0.649506366
 40
0.6646840161
 40
0.6798328593
 40
0.6949575524
 40
0.7100630078
 40
0.725154342
 40
0.7402368221
 40
0.7553158097
 40
0.7703967041
 40
0.7854848839
 40
0.80058565
 40
0.8157041693
 40
0.8308454194
 40
0.8460141376
 40
0.8612147716
 40
0.8764514346
 40
0.8917278653
 40
0.9070473908
 40
0.9224129018
 40
0.9301142846
 40
0.9378280267
 40
0.9532922984
 40
0.9688082546
 40
0.9765865231
 40
0.9843782672
 40
1.0
 40
1.0
 40
1.0
 40
1.0
 10
8.7163622131
 20
9.2967943135
 30
0.0
 10
8.7311474121
 20
9.2957689565
 30
0.0
 10
8.7533117537
 20
9.2936858879
 30
0.0
 10
8.7827551882
 20
9.2898344485
 30
0.0
 10
8.8121943315
 20
9.2852571315
 30
0.0
 10
8.8488611708
 20
9.2781889378
 30
0.0
 10
8.892503705
 20
9.2675862077
 30
0.0
 10
8.9357219011
 20
9.2548807834
 30
0.0
 10
8.9784111784
 20
9.2401034484
 30
0.0
 10
9.020468417
 20
9.2232900487
 30
0.0
 10
9.0548878682
 20
9.2076237251
 30
0.0
 10
9.0820079509
 20
9.1941169923
 30
0.0
 10
9.1088625304
 20
9.1799540155
 30
0.0
 10
9.1418485436
 20
9.1610608379
 30
0.0
 10
9.1803857331
 20
9.136555248
 30
0.0
 10
9.2178055845
 20
9.1102626894
 30
0.0
 10
9.2540174959
 20
9.0822467781
 30
0.0
 10
9.2889344608
 20
9.0525748935
 30
0.0
 10
9.3224724007
 20
9.0213184939
 30
0.0
 10
9.3545506018
 20
8.9885528173
 30
0.0
 10
9.3850918443
 20
8.9543567352
 30
0.0
 10
9.4140226052
 20
8.9188125556
 30
0.0
 10
9.4412732281
 20
8.8820058267
 30
0.0
 10
9.4667781
 20
8.8440251378
 30
0.0
 10
9.4904758046
 20
8.8049619028
 30
0.0
 10
9.5123092664
 20
8.7649101388
 30
0.0
 10
9.5322258883
 20
8.723966242
 30
0.0
 10
9.5501776776
 20
8.6822287569
 30
0.0
 10
9.5661213612
 20
8.6397981411
 30
0.0
 10
9.5800184901
 20
8.596776525
 30
0.0
 10
9.5918355323
 20
8.5532674679
 30
0.0
 10
9.6015439523
 20
8.50937571
 30
0.0
 10
9.6091202895
 20
8.4652069238
 30
0.0
 10
9.6145462139
 20
8.420867459
 30
0.0
 10
9.6178085651
 20
8.3764640871
 30
0.0
 10
9.6188993866
 20
8.3321037461
 30
0.0
 10
9.6178159465
 20
8.2878932846
 30
0.0
 10
9.6145607463
 20
8.2439392055
 30
0.0
 10
9.609141517
 20
8.2003474111
 30
0.0
 10
9.6015712036
 20
8.157222948
 30
0.0
 10
9.5918679349
 20
8.1146697552
 30
0.0
 10
9.5800549895
 20
8.0727904112
 30
0.0
 10
9.5661607444
 20
8.0316858843
 30
0.0
 10
9.5502185999
 20
7.9914552901
 30
0.0
 10
9.5322669036
 20
7.9521956507
 30
0.0
 10
9.5123488599
 20
7.9140016589
 30
0.0
 10
9.4905124277
 20
7.8769654477
 30
0.0
 10
9.4668102061
 20
7.8411763653
 30
0.0
 10
9.4412993086
 20
7.8067207565
 30
0.0
 10
9.4140412252
 20
7.7736817521
 30
0.0
 10
9.3851016767
 20
7.7421390625
 30
0.0
 10
9.3545504591
 20
7.7121687772
 30
0.0
 10
9.3224612643
 20
7.6838431854
 30
0.0
 10
9.2889115023
 20
7.6572305987
 30
0.0
 10
9.2539821108
 20
7.6323951846
 30
0.0
 10
9.2177573579
 20
7.6093968107
 30
0.0
 10
9.1803246344
 20
7.5882909001
 30
0.0
 10
9.1417742455
 20
7.569128298
 30
0.0
 10
9.1021991689
 20
7.5519551477
 30
0.0
 10
9.0616949072
 20
7.5368127889
 30
0.0
 10
9.0203589656
 20
7.5237376142
 30
0.0
 10
8.9782917
 20
7.5127611313
 30
0.0
 10
8.9427358063
 20
7.5053903002
 30
0.0
 10
8.9140323657
 20
7.5005648579
 30
0.0
 10
8.8851240197
 20
7.4964503133
 30
0.0
 10
8.8487186532
 20
7.492661043
 30
0.0
 10
8.8121090709
 20
7.4906877089
 30
0.0
 10
8.7827181768
 20
7.4901956357
 30
0.0
 10
8.7532246602
 20
7.4904296323
 30
0.0
 10
8.731097425
 20
7.4914227824
 30
0.0
 10
8.7163622131
 20
7.4924446728
 30
0.0
  0
SPLINE
  5
324
100
AcDbEntity
  8
0
100
AcDbSpline
 62
7
  6
CONTINUOUS
 70
0
 71
3
 72
36
 73
32
 74
0
 42
0.0000001
 43
0.0000001
 44
0.0000000001
 40
0.0
 40
0.0
 40
0.0
 40
0.0
 40
0.0314751081
 40
0.0628508248
 40
0.0941464783
 40
0.12538625
 40
0.1565980463
 40
0.187812221
 40
0.2190601546
 40
0.2503728146
 40
0.2817794792
 40
0.3133066442
 40
0.344976995
 40
0.3768083241
 40
0.4088126577
 40
0.4409953989
 40
0.4733543317
 40
0.505878664
 40
0.5385481919
 40
0.5713323832
 40
0.6041895133
 40
0.6370660052
 40
0.6698960075
 40
0.7026015212
 40
0.7672637049
 40
0.830231896
 40
0.8905903291
 40
0.9195081677
 40
0.9474427124
 40
0.974300623
 40
1.0
 40
1.0
 40
1.0
 40
1.0
 10
8.8789785704
 20
9.2218921951
 30
0.0
 10
8.8800474308
 20
9.2112945623
 30
0.0
 10
8.8827433266
 20
9.190185058
 30
0.0
 10
8.8884464116
 20
9.1588255918
 30
0.0
 10
8.8957653896
 20
9.1278847153
 30
0.0
 10
8.9046559664
 20
9.0974168388
 30
0.0
 10
8.9150691172
 20
9.0674649155
 30
0.0
 10
8.9269528192
 20
9.038063177
 30
0.0
 10
8.9402539305
 20
9.0092380415
 30
0.0
 10
8.9549194471
 20
8.981009916
 30
0.0
 10
8.9708972236
 20
8.9533948341
 30
0.0
 10
8.9881362868
 20
8.926406068
 30
0.0
 10
9.0065868105
 20
8.9000556873
 30
0.0
 10
9.0261996053
 20
8.8743558756
 30
0.0
 10
9.0469253248
 20
8.8493200318
 30
0.0
 10
9.0687134837
 20
8.8249636969
 30
0.0
 10
9.0915112179
 20
8.8013052678
 30
0.0
 10
9.1152618477
 20
8.7783664287
 30
0.0
 10
9.1399034252
 20
8.7561723933
 30
0.0
 10
9.1653672057
 20
8.7347518967
 30
0.0
 10
9.1915761715
 20
8.7141369001
 30
0.0
 10
9.218443517
 20
8.6943620986
 30
0.0
 10
9.2458720605
 20
8.6754636412
 30
0.0
 10
9.28290148
 20
8.6515769324
 30
0.0
 10
9.3297828527
 20
8.6241946762
 30
0.0
 10
9.3864613656
 20
8.5952377218
 30
0.0
 10
9.4335490833
 20
8.5742680614
 30
0.0
 10
9.4703757288
 20
8.5595248806
 30
0.0
 10
9.4969241415
 20
8.5496341583
 30
0.0
 10
9.5226646241
 20
8.5407173302
 30
0.0
 10
9.5395960502
 20
8.5352660446
 30
0.0
 10
9.5479021728
 20
8.5326885399
 30
0.0
  0
SPLINE
  5
325
100
AcDbEntity
  8
0
100
AcDbSpline
 62
7
  6
CONTINUOUS
 70
0
 71
3
 72
75
 73
71
 74
0
 42
0.0000001
 43
0.0000001
 44
0.0000000001
 40
0.0
 40
0.0
 40
0.0
 40
0.0
 40
0.0156747273
 40
0.0235325814
 40
0.031403181
 40
0.0471815803
 40
0.0630097508
 40
0.0788855268
 40
0.0948064622
 40
0.1107696438
 40
0.1267717932
 40
0.1347869014
 40
0.1428103611
 40
0.1588792318
 40
0.1749752631
 40
0.1910939891
 40
0.2072307449
 40
0.2233807077
 40
0.2395389397
 40
0.2557004309
 40
0.2718601429
 40
0.2880130529
 40
0.3041541969
 40
0.3202787136
 40
0.3363818874
 40
0.3524591897
 40
0.36850632
 40
0.3845192451
 40
0.4004942363
 40
0.4164279049
 40
0.4323172352
 40
0.4481596152
 40
0.4639528635
 40
0.4796952542
 40
0.4953855368
 40
0.5110229526
 40
0.526607247
 40
0.5421386771
 40
0.5576180139
 40
0.5730465408
 40
0.5884260451
 40
0.6037588059
 40
0.6190475753
 40
0.6342955548
 40
0.649506366
 40
0.6646840161
 40
0.6798328593
 40
0.6949575524
 40
0.7100630078
 40
0.725154342
 40
0.7402368221
 40
0.7553158097
 40
0.7703967041
 40
0.7854848839
 40
0.80058565
 40
0.8157041693
 40
0.8308454194
 40
0.8460141376
 40
0.8612147716
 40
0.8764514346
 40
0.8917278653
 40
0.9070473908
 40
0.9224129018
 40
0.9301142846
 40
0.9378280267
 40
0.9532922984
 40
0.9688082546
 40
0.9765865231
 40
0.9843782672
 40
1.0
 40
1.0
 40
1.0
 40
1.0
 10
8.7163622131
 20
7.4924446728
 30
0.0
 10
8.701577014
 20
7.4934700299
 30
0.0
 10
8.6794126724
 20
7.4955530984
 30
0.0
 10
8.649969238
 20
7.4994045378
 30
0.0
 10
8.6205300946
 20
7.5039818549
 30
0.0
 10
8.5838632553
 20
7.5110500485
 30
0.0
 10
8.5402207211
 20
7.5216527787
 30
0.0
 10
8.497002525
 20
7.5343582029
 30
0.0
 10
8.4543132478
 20
7.549135538
 30
0.0
 10
8.4122560092
 20
7.5659489377
 30
0.0
 10
8.377836558
 20
7.5816152613
 30
0.0
 10
8.3507164753
 20
7.595121994
 30
0.0
 10
8.3238618958
 20
7.6092849709
 30
0.0
 10
8.2908758826
 20
7.6281781485
 30
0.0
 10
8.252338693
 20
7.6526837384
 30
0.0
 10
8.2149188416
 20
7.6789762969
 30
0.0
 10
8.1787069302
 20
7.7069922083
 30
0.0
 10
8.1437899654
 20
7.7366640929
 30
0.0
 10
8.1102520254
 20
7.7679204924
 30
0.0
 10
8.0781738244
 20
7.8006861691
 30
0.0
 10
8.0476325818
 20
7.8348822511
 30
0.0
 10
8.0187018209
 20
7.8704264308
 30
0.0
 10
7.991451198
 20
7.9072331597
 30
0.0
 10
7.9659463262
 20
7.9452138485
 30
0.0
 10
7.9422486216
 20
7.9842770835
 30
0.0
 10
7.9204151598
 20
8.0243288475
 30
0.0
 10
7.9004985379
 20
8.0652727444
 30
0.0
 10
7.8825467486
 20
8.1070102294
 30
0.0
 10
7.8666030649
 20
8.1494408452
 30
0.0
 10
7.852705936
 20
8.1924624614
 30
0.0
 10
7.8408888939
 20
8.2359715185
 30
0.0
 10
7.8311804739
 20
8.2798632763
 30
0.0
 10
7.8236041367
 20
8.3240320626
 30
0.0
 10
7.8181782122
 20
8.3683715274
 30
0.0
 10
7.8149158611
 20
8.4127748993
 30
0.0
 10
7.8138250396
 20
8.4571352402
 30
0.0
 10
7.8149084797
 20
8.5013457018
 30
0.0
 10
7.8181636799
 20
8.5452997809
 30
0.0
 10
7.8235829091
 20
8.5888915753
 30
0.0
 10
7.8311532226
 20
8.6320160383
 30
0.0
 10
7.8408564913
 20
8.6745692312
 30
0.0
 10
7.8526694366
 20
8.7164485752
 30
0.0
 10
7.8665636817
 20
8.7575531021
 30
0.0
 10
7.8825058263
 20
8.7977836963
 30
0.0
 10
7.9004575226
 20
8.8370433357
 30
0.0
 10
7.9203755662
 20
8.8752373275
 30
0.0
 10
7.9422119984
 20
8.9122735386
 30
0.0
 10
7.9659142201
 20
8.9480626211
 30
0.0
 10
7.9914251175
 20
8.9825182299
 30
0.0
 10
8.0186832009
 20
9.0155572343
 30
0.0
 10
8.0476227494
 20
9.0470999239
 30
0.0
 10
8.0781739671
 20
9.0770702092
 30
0.0
 10
8.1102631618
 20
9.105395801
 30
0.0
 10
8.1438129238
 20
9.1320083877
 30
0.0
 10
8.1787423153
 20
9.1568438018
 30
0.0
 10
8.2149670682
 20
9.1798421756
 30
0.0
 10
8.2523997917
 20
9.2009480862
 30
0.0
 10
8.2909501807
 20
9.2201106884
 30
0.0
 10
8.3305252572
 20
9.2372838387
 30
0.0
 10
8.3710295189
 20
9.2524261975
 30
0.0
 10
8.4123654606
 20
9.2655013722
 30
0.0
 10
8.4544327262
 20
9.276477855
 30
0.0
 10
8.4899886198
 20
9.2838486861
 30
0.0
 10
8.5186920604
 20
9.2886741284
 30
0.0
 10
8.5476004064
 20
9.2927886731
 30
0.0
 10
8.584005773
 20
9.2965779433
 30
0.0
 10
8.6206153553
 20
9.2985512775
 30
0.0
 10
8.6500062494
 20
9.2990433506
 30
0.0
 10
8.679499766
 20
9.2988093541
 30
0.0
 10
8.7016270011
 20
9.2978162039
 30
0.0
 10
8.7163622131
 20
9.2967943135
 30
0.0
  0
SPLINE
  5
326
100
AcDbEntity
  8
0
100
AcDbSpline
 62
7
  6
CONTINUOUS
 70
0
 71
3
 72
53
 73
49
 74
0
 42
0.0000001
 43
0.0000001
 44
0.0000000001
 40
0.0
 40
0.0
 40
0.0
 40
0.0
 40
0.0055575355
 40
0.0111779584
 40
0.0169218842
 40
0.0228457596
 40
0.0290005288
 40
0.0354309082
 40
0.0421753579
 40
0.049266174
 40
0.0567302319
 40
0.0645893082
 40
0.0728609926
 40
0.0815590107
 40
0.0906939367
 40
0.100273546
 40
0.1103031856
 40
0.1207862202
 40
0.1317240722
 40
0.1431167523
 40
0.1549626917
 40
0.1672592543
 40
0.1800025488
 40
0.1931877811
 40
0.2068092042
 40
0.2208602277
 40
0.2353335682
 40
0.2502211252
 40
0.2655142941
 40
0.2812037029
 40
0.3137307812
 40
0.3477181239
 40
0.38307325
 40
0.4196970735
 40
0.457484656
 40
0.4963258842
 40
0.5361060969
 40
0.5767066741
 40
0.6180056028
 40
0.6598780224
 40
0.7021967636
 40
0.744832873
 40
0.7876561572
 40
0.8305356229
 40
0.8733402528
 40
0.9159387641
 40
0.9582020244
 40
1.0
 40
1.0
 40
1.0
 40
1.0
 10
9.2955353172
 20
11.0085406546
 30
0.0
 10
9.2955353129
 20
11.0097775576
 30
0.0
 10
9.2956737528
 20
11.0122675159
 30
0.0
 10
9.2962952986
 20
11.0159891592
 30
0.0
 10
9.297329594
 20
11.0197025054
 30
0.0
 10
9.2987746678
 20
11.023403248
 30
0.0
 10
9.300628168
 20
11.0270883637
 30
0.0
 10
9.3028875181
 20
11.030755084
 30
0.0
 10
9.3055502689
 20
11.0344008015
 30
0.0
 10
9.3086136682
 20
11.0380231792
 30
0.0
 10
9.3120751167
 20
11.0416196426
 30
0.0
 10
9.3159315898
 20
11.0451878273
 30
0.0
 10
9.320180047
 20
11.0487250656
 30
0.0
 10
9.324817025
 20
11.0522288306
 30
0.0
 10
9.3298388637
 20
11.0556964234
 30
0.0
 10
9.335241555
 20
11.0591251659
 30
0.0
 10
9.3410207695
 20
11.0625124015
 30
0.0
 10
9.347171902
 20
11.0658553634
 30
0.0
 10
9.3536899693
 20
11.0691514674
 30
0.0
 10
9.3605697483
 20
11.0723979376
 30
0.0
 10
9.3678056376
 20
11.0755922509
 30
0.0
 10
9.3753917955
 20
11.0787317044
 30
0.0
 10
9.3833220372
 20
11.08181381
 30
0.0
 10
9.3915899195
 20
11.0848359978
 30
0.0
 10
9.4001886998
 20
11.087795805
 30
0.0
 10
9.409111362
 20
11.0906908208
 30
0.0
 10
9.4183506262
 20
11.0935186233
 30
0.0
 10
9.4278989336
 20
11.0962769527
 30
0.0
 10
9.4377484973
 20
11.0989634837
 30
0.0
 10
9.4514370131
 20
11.1024893126
 30
0.0
 10
9.4692460609
 20
11.1066901654
 30
0.0
 10
9.4914358684
 20
11.1113529587
 30
0.0
 10
9.5146215126
 20
11.1156806607
 30
0.0
 10
9.5387270904
 20
11.1196589731
 30
0.0
 10
9.5636738162
 20
11.1232747218
 30
0.0
 10
9.5893800525
 20
11.1265159485
 30
0.0
 10
9.6157616556
 20
11.1293719355
 30
0.0
 10
9.6427322395
 20
11.131833243
 30
0.0
 10
9.6702034698
 20
11.1338917377
 30
0.0
 10
9.6980853561
 20
11.1355406206
 30
0.0
 10
9.7262865506
 20
11.1367744474
 30
0.0
 10
9.7547146548
 20
11.137589147
 30
0.0
 10
9.783276511
 20
11.1379820265
 30
0.0
 10
9.8118785571
 20
11.1379517988
 30
0.0
 10
9.8404269951
 20
11.1374985443
 30
0.0
 10
9.8688284538
 20
11.1366237907
 30
0.0
 10
9.8969896009
 20
11.1353303834
 30
0.0
 10
9.9156643102
 20
11.1341843873
 30
0.0
 10
9.9249447121
 20
11.1335407892
 30
0.0
  0
SPLINE
  5
327
100
AcDbEntity
  8
0
100
AcDbSpline
 62
7
  6
CONTINUOUS
 70
0
 71
3
 72
53
 73
49
 74
0
 42
0.0000001
 43
0.0000001
 44
0.0000000001
 40
0.0
 40
0.0
 40
0.0
 40
0.0
 40
0.0055575355
 40
0.0111779584
 40
0.0169218842
 40
0.0228457596
 40
0.0290005288
 40
0.0354309082
 40
0.0421753579
 40
0.049266174
 40
0.0567302319
 40
0.0645893082
 40
0.0728609926
 40
0.0815590107
 40
0.0906939367
 40
0.100273546
 40
0.1103031856
 40
0.1207862202
 40
0.1317240722
 40
0.1431167523
 40
0.1549626917
 40
0.1672592543
 40
0.1800025488
 40
0.1931877811
 40
0.2068092042
 40
0.2208602277
 40
0.2353335682
 40
0.2502211252
 40
0.2655142941
 40
0.2812037029
 40
0.3137307812
 40
0.3477181239
 40
0.38307325
 40
0.4196970735
 40
0.457484656
 40
0.4963258842
 40
0.5361060969
 40
0.5767066741
 40
0.6180056028
 40
0.6598780224
 40
0.7021967636
 40
0.744832873
 40
0.7876561572
 40
0.8305356229
 40
0.8733402528
 40
0.9159387641
 40
0.9582020244
 40
1.0
 40
1.0
 40
1.0
 40
1.0
 10
12.772868636
 20
10.7673867699
 30
0.0
 10
12.7728686318
 20
10.7686236729
 30
0.0
 10
12.7730070717
 20
10.7711136312
 30
0.0
 10
12.7736286175
 20
10.7748352745
 30
0.0
 10
12.7746629129
 20
10.7785486206
 30
0.0
 10
12.7761079867
 20
10.7822493633
 30
0.0
 10
12.7779614869
 20
10.7859344789
 30
0.0
 10
12.7802208369
 20
10.7896011993
 30
0.0
 10
12.7828835878
 20
10.7932469168
 30
0.0
 10
12.7859469871
 20
10.7968692944
 30
0.0
 10
12.7894084356
 20
10.8004657579
 30
0.0
 10
12.7932649087
 20
10.8040339426
 30
0.0
 10
12.7975133658
 20
10.8075711809
 30
0.0
 10
12.8021503439
 20
10.8110749459
 30
0.0
 10
12.8071721825
 20
10.8145425387
 30
0.0
 10
12.8125748739
 20
10.8179712811
 30
0.0
 10
12.8183540884
 20
10.8213585168
 30
0.0
 10
12.8245052209
 20
10.8247014787
 30
0.0
 10
12.8310232882
 20
10.8279975826
 30
0.0
 10
12.8379030672
 20
10.8312440529
 30
0.0
 10
12.8451389565
 20
10.8344383662
 30
0.0
 10
12.8527251143
 20
10.8375778196
 30
0.0
 10
12.860655356
 20
10.8406599253
 30
0.0
 10
12.8689232383
 20
10.843682113
 30
0.0
 10
12.8775220187
 20
10.8466419202
 30
0.0
 10
12.8864446808
 20
10.8495369361
 30
0.0
 10
12.8956839451
 20
10.8523647386
 30
0.0
 10
12.9052322525
 20
10.855123068
 30
0.0
 10
12.9150818161
 20
10.857809599
 30
0.0
 10
12.928770332
 20
10.8613354279
 30
0.0
 10
12.9465793798
 20
10.8655362807
 30
0.0
 10
12.9687691873
 20
10.8701990739
 30
0.0
 10
12.9919548315
 20
10.8745267759
 30
0.0
 10
13.0160604093
 20
10.8785050884
 30
0.0
 10
13.0410071351
 20
10.8821208371
 30
0.0
 10
13.0667133714
 20
10.8853620638
 30
0.0
 10
13.0930949745
 20
10.8882180507
 30
0.0
 10
13.1200655583
 20
10.8906793582
 30
0.0
 10
13.1475367886
 20
10.892737853
 30
0.0
 10
13.175418675
 20
10.8943867358
 30
0.0
 10
13.2036198694
 20
10.8956205627
 30
0.0
 10
13.2320479736
 20
10.8964352623
 30
0.0
 10
13.2606098299
 20
10.8968281418
 30
0.0
 10
13.289211876
 20
10.8967979141
 30
0.0
 10
13.317760314
 20
10.8963446596
 30
0.0
 10
13.3461617727
 20
10.895469906
 30
0.0
 10
13.3743229198
 20
10.8941764987
 30
0.0
 10
13.3929976291
 20
10.8930305025
 30
0.0
 10
13.402278031
 20
10.8923869045
 30
0.0
  0
ENDSEC
  0
SECTION
  2
OBJECTS
  0
DICTIONARY
  5
C
100
AcDbDictionary
280
0
281
1
  3
ACAD_GROUP
350
D
  3
ACAD_MLINESTYLE
350
17
  3
ACAD_LAYOUT
350
1A
  3
ACAD_PLOTSETTINGS
350
19
  3
ACAD_PLOTSTYLENAME
350
E
  3
ACAD_IMAGE_DICT
350
       329
  3
ACAD_IMAGE_VARS
350
       32A
  3
ACAD_TABLESTYLE
350
       32B
  0
IMAGEDEF_REACTOR
  5
328
100
AcDbRasterImageDefReactor
 90
2
330
28D
  0
DICTIONARY
  5
D
102
{ACAD_REACTORS
330
C
102
}
100
AcDbDictionary
280
0
281
1
  0
ACDBDICTIONARYWDFLT
  5
E
102
{ACAD_REACTORS
330
C
102
}
100
AcDbDictionary
281
1
  3
Normal
350
F
100
AcDbDictionaryWithDefault
340
F
  0
DICTIONARY
  5
329
330
C
100
AcDbDictionary
281
1
  3
YVO_assy_2_img_1
350
       32E
  0
RASTERVARIABLES
  5
32A
330
C
100
AcDbRasterVariables
 90
0
 70
0
 71
1
 72
5
  0
DICTIONARY
  5
17
102
{ACAD_REACTORS
330
C
102
}
100
AcDbDictionary
280
0
281
1
  3
Standard
350
18
  0
DICTIONARY
  5
32B
330
C
100
AcDbDictionary
281
1
  3
Standard
350
       32F
  3
Standard1
350
       330
  0
DICTIONARY
  5
19
102
{ACAD_REACTORS
330
C
102
}
100
AcDbDictionary
281
1
  0
DICTIONARY
  5
1A
102
{ACAD_REACTORS
330
C
102
}
100
AcDbDictionary
281
1
  3
Model
350
32C
  3
Layout1
350
32D
  0
ACDBPLACEHOLDER
  5
F
102
{ACAD_REACTORS
330
E
102
}
  0
MLINESTYLE
  5
18
102
{ACAD_REACTORS
330
17
102
}
100
AcDbMlineStyle
  2
STANDARD
 70
0
  3

 62
256
 51
90.0
 52
90.0
 71
2
 49
0.5
 62
256
  6
BYLAYER
 49
-0.5
 62
256
  6
BYLAYER
  0
LAYOUT
  5
32C
102
{ACAD_REACTORS
330
1A
102
}
100
AcDbPlotSettings
  1

  2
none_device
  4
ANSI_C_(22.00_x_17.00_Inches)
  6

 40
0.0
 41
0.0
 42
0.0
 43
0.0
 44
558.8
 45
431.8
 46
0.0
 47
0.0
 48
0.0
 49
0.0
140
0.0
141
0.0
142
1.0
143
1.0
 70
1024
 72
0
 73
0
 74
0
  7

 75
0
147
1.0
148
0.0
149
0.0
100
AcDbLayout
  1
Model
 70
0
 71
0
 10
0.0
 20
0.0
 11
22.0
 21
17.0
 12
0.0
 22
0.0
 32
0.0
 14
0.0
 24
0.0
 34
0.0
 15
0.0
 25
0.0
 35
0.0
146
0.0
 13
0.0
 23
0.0
 33
0.0
 16
1.0
 26
0.0
 36
0.0
 17
0.0
 27
1.0
 37
0.0
 76
0
330
20E
345
0
346
0
  0
LAYOUT
  5
32D
102
{ACAD_REACTORS
330
1A
102
}
100
AcDbPlotSettings
  1

  2
none_device
  4
ANSI_C_(22.00_x_17.00_Inches)
  6

 40
0.0
 41
0.0
 42
0.0
 43
0.0
 44
558.8
 45
431.8
 46
0.0
 47
0.0
 48
0.0
 49
0.0
140
0.0
141
0.0
142
1.0
143
1.0
 70
0
 72
0
 73
0
 74
0
  7

 75
0
147
1.0
148
0.0
149
0.0
100
AcDbLayout
  1
Layout1
 70
0
 71
1
 10
0.0
 20
0.0
 11
22.0
 21
17.0
 12
0.0
 22
0.0
 32
0.0
 14
0.0
 24
0.0
 34
0.0
 15
0.0
 25
0.0
 35
0.0
146
0.0
 13
0.0
 23
0.0
 33
0.0
 16
1.0
 26
0.0
 36
0.0
 17
0.0
 27
1.0
 37
0.0
 76
0
330
20F
345
0
346
0
  0
IMAGEDEF
  5
32E
102
{ACAD_REACTORS
330
329
330
328
102
}
100
AcDbRasterImageDef
 90
0
  1
YVO_assy_2_img_1.png
 10
369.0
 20
92.0
 11
0.0066666667
 21
0.0066666667
280
1
281
0
  0
TABLESTYLE
  5
32F
102
{ACAD_REACTORS
330
32B
330
290
330
291
102
}
330
32B
100
AcDbTableStyle
  3
Standard
 70
0
 71
0
 40
0.06
 41
0.06
280
1
281
1
  7
Standard
140
0.18
170
1
 62
0
 63
7
283
0
  7
Standard
140
0.18
170
1
 62
0
 63
7
283
0
  7
Standard
140
0.18
170
1
 62
0
 63
7
283
0
  0
TABLESTYLE
  5
330
102
{ACAD_REACTORS
330
32B
330
28F
102
}
330
32B
100
AcDbTableStyle
  3
Standard1
 70
1
 71
0
 40
0.06
 41
0.06
280
1
281
1
  7
Standard
140
0.18
170
1
 62
0
 63
7
283
0
  7
Standard
140
0.18
170
1
 62
0
 63
7
283
0
  7
Standard
140
0.18
170
1
 62
0
 63
7
283
0
  0
ENDSEC
  0
EOF
