999
DXF file: YVM_assy_2.dxf
999
Pro/ENGINEER 2014200 by Parametric Technology Corporation
  0
SECTION
  2
HEADER
  9
$ACADVER
  1
AC1021
  9
$DWGCODEPAGE
  3
ANSI_1252
  9
$EXTMAX
 10
22.0
 20
17.0
 30
0.0
  9
$EXTMIN
 10
0.0
 20
0.0
 30
0.0
  9
$LIMMIN
 10
0.0
 20
0.0
  9
$LIMMAX
 10
22.0
 20
17.0
  9
$VIEWCTR
 10
11.0
 20
8.5
  9
$VIEWSIZE
 40
17.0
  9
$CLAYER
  8
0
  9
$LTSCALE
 40
1.21
  9
$CELTYPE
  6
BYLAYER
  9
$DIMSCALE
 40
1.0
  9
$DIMASZ
 40
0.1875
  9
$DIMEXO
 40
0.0625
  9
$DIMDLI
 40
0.836
  9
$DIMEXE
 40
0.125
  9
$DIMCEN
 40
0.198
  9
$DIMLFAC
 40
1.0
  9
$DIMBLK
  1
_FILLED
  9
$DIMTXT
 40
0.1
  9
$DIMTOL
 70
0
  9
$DIMLIM
 70
0
  9
$DIMTFAC
 40
1.0
  9
$DIMGAP
 40
0.09
  9
$DIMDSEP
 70
46
  9
$AUNITS
 70
0
  9
$PDMODE
 70
3
  9
$PDSIZE
 40
0.3125
  9
$HANDSEED
  5
384
  9
$TILEMODE
 70
1
  9
$MEASUREMENT
 70
0
  9
$INSUNITS
 70
1
  0
ENDSEC
  0
SECTION
  2
CLASSES
  0
CLASS
  1
ACDBDICTIONARYWDFLT
  2
AcDbDictionaryWithDefault
  3
AutoCAD 2000
 90
0
 91
1
280
0
281
0
  0
CLASS
  1
ACDBPLACEHOLDER
  2
AcDbPlaceHolder
  3
AutoCAD 2000
 90
0
 91
1
280
0
281
0
  0
CLASS
  1
LAYOUT
  2
AcDbLayout
  3
AutoCAD 2000
 90
0
 91
0
280
0
281
0
  0
CLASS
  1
RASTERVARIABLES
  2
AcDbRasterVariables
  3
ISM
 90
0
 91
1
280
0
281
0
  0
CLASS
  1
IMAGEDEF
  2
AcDbRasterImageDef
  3
ISM
 90
0
 91
1
280
0
281
0
  0
CLASS
  1
IMAGEDEF_REACTOR
  2
AcDbRasterImageDefReactor
  3
ISM
 90
0
 91
1
280
0
281
0
  0
CLASS
  1
IMAGE
  2
AcDbRasterImage
  3
ISM
 90
127
 91
1
280
0
281
1
  0
CLASS
  1
TABLESTYLE
  2
AcDbTableStyle
  3
ObjectDBX Classes
 90
2047
 91
1
280
0
281
0
  0
CLASS
  1
ACAD_TABLE
  2
AcDbTable
  3
ObjectDBX Classes
 90
1025
 91
3
280
0
281
1
  0
ENDSEC
  0
SECTION
  2
TABLES
  0
TABLE
  2
VPORT
  5
8
100
AcDbSymbolTable
 70
2
  0
VPORT
  5
1F4
100
AcDbSymbolTableRecord
100
AcDbViewportTableRecord
  2
*ACTIVE
 70
0
 10
0.0
 20
0.0
 11
1.0
 21
1.0
 12
11.0
 22
8.5
 13
0.0
 23
0.0
 14
1.0
 24
1.0
 15
0.0
 25
0.0
 16
0.0
 26
0.0
 36
1.0
 17
0.0
 27
0.0
 37
0.0
 40
17.0
 41
1.2941176471
 42
50.0
 43
0.0
 44
0.0
 50
0.0
 51
0.0
 71
0
 72
100
 73
1
 74
1
 75
0
 76
0
 77
0
 78
0
  0
ENDTAB
  0
TABLE
  2
LTYPE
  5
5
100
AcDbSymbolTable
 70
6
  0
LTYPE
  5
14
100
AcDbSymbolTableRecord
100
AcDbLinetypeTableRecord
  2
BYBLOCK
 70
0
  3

 72
65
 73
0
 40
0.0
  0
LTYPE
  5
15
100
AcDbSymbolTableRecord
100
AcDbLinetypeTableRecord
  2
BYLAYER
 70
0
  3

 72
65
 73
0
 40
0.0
  0
LTYPE
  5
16
100
AcDbSymbolTableRecord
100
AcDbLinetypeTableRecord
  2
CONTINUOUS
 70
64
  3
Solid line
 72
65
 73
0
 40
0.0
  0
LTYPE
  5
1F5
100
AcDbSymbolTableRecord
100
AcDbLinetypeTableRecord
  2
CENTER
 70
64
  3
____ _ ____ _ ____ _ ____ _ ____ _ ____ _ ____
 72
65
 73
4
 40
0.6
 49
0.375
 74
0
 49
-0.075
 74
0
 49
0.075
 74
0
 49
-0.075
 74
0
  0
LTYPE
  5
1F6
100
AcDbSymbolTableRecord
100
AcDbLinetypeTableRecord
  2
HIDDEN
 70
64
  3
- - - - - - - - - - - - - - - - - - - -
 72
65
 73
2
 40
0.2
 49
0.1
 74
0
 49
-0.1
 74
0
  0
LTYPE
  5
1F7
100
AcDbSymbolTableRecord
100
AcDbLinetypeTableRecord
  2
PHANTOM
 70
64
  3
_____ _ _ _____ _ _ _____ _ _ _____
 72
65
 73
6
 40
0.8
 49
0.45
 74
0
 49
-0.05
 74
0
 49
0.1
 74
0
 49
-0.05
 74
0
 49
0.1
 74
0
 49
-0.05
 74
0
  0
LTYPE
  5
1F8
100
AcDbSymbolTableRecord
100
AcDbLinetypeTableRecord
  2
DOT
 70
64
  3
. . . . . . . . . . . . . . . . . . . .
 72
65
 73
2
 40
0.2
 49
0.1
 74
0
 49
-0.1
 74
0
  0
LTYPE
  5
1F9
100
AcDbSymbolTableRecord
100
AcDbLinetypeTableRecord
  2
DASHED
 70
64
  3
- - - - - - - - - - - - - - - - - - - -
 72
65
 73
2
 40
0.2
 49
0.1
 74
0
 49
-0.1
 74
0
  0
ENDTAB
  0
TABLE
  2
LAYER
  5
2
100
AcDbSymbolTable
 70
36
  0
LAYER
  5
10
100
AcDbSymbolTableRecord
100
AcDbLayerTableRecord
  2
0
 70
0
 62
7
  6
CONTINUOUS
370
-3
390
F
  0
LAYER
  5
1FA
100
AcDbSymbolTableRecord
100
AcDbLayerTableRecord
  2
DEFAULT_1
 70
0
 62
7
  6
CENTER
370
-3
390
F
  0
LAYER
  5
1FB
100
AcDbSymbolTableRecord
100
AcDbLayerTableRecord
  2
DEFAULT_2
 70
0
 62
8
  6
HIDDEN
370
-3
390
F
  0
LAYER
  5
1FC
100
AcDbSymbolTableRecord
100
AcDbLayerTableRecord
  2
DEFAULT_3
 70
0
 62
7
  6
PHANTOM
370
-3
390
F
  0
LAYER
  5
1FD
100
AcDbSymbolTableRecord
100
AcDbLayerTableRecord
  2
DATUM_PLANES
 70
0
 62
7
  6
CONTINUOUS
370
-3
390
F
  0
LAYER
  5
1FE
100
AcDbSymbolTableRecord
100
AcDbLayerTableRecord
  2
DIMENSIONS
 70
0
 62
7
  6
CONTINUOUS
370
-3
390
F
  0
LAYER
  5
1FF
100
AcDbSymbolTableRecord
100
AcDbLayerTableRecord
  2
DTM_500001
 70
0
 62
7
  6
CONTINUOUS
370
-3
390
F
  0
LAYER
  5
200
100
AcDbSymbolTableRecord
100
AcDbLayerTableRecord
  2
PARAMETERDIMENSIONS
 70
0
 62
7
  6
CONTINUOUS
370
-3
390
F
  0
LAYER
  5
201
100
AcDbSymbolTableRecord
100
AcDbLayerTableRecord
  2
PORT_AREAS
 70
0
 62
7
  6
CONTINUOUS
370
-3
390
F
  0
LAYER
  5
202
100
AcDbSymbolTableRecord
100
AcDbLayerTableRecord
  2
SUNNBOMCOSMETIC
 70
0
 62
7
  6
CONTINUOUS
370
-3
390
F
  0
LAYER
  5
203
100
AcDbSymbolTableRecord
100
AcDbLayerTableRecord
  2
SUNNBOMSTAMPING
 70
0
 62
7
  6
CONTINUOUS
370
-3
390
F
  0
LAYER
  5
204
100
AcDbSymbolTableRecord
100
AcDbLayerTableRecord
  2
THREADS
 70
0
 62
7
  6
CONTINUOUS
370
-3
390
F
  0
ENDTAB
  0
TABLE
  2
STYLE
  5
3
100
AcDbSymbolTable
 70
1
  0
STYLE
  5
11
100
AcDbSymbolTableRecord
100
AcDbTextStyleTableRecord
  2
STANDARD
 70
0
 40
0.0
 41
0.8
 50
0.0
 71
0
 42
0.2
  3
txt
  4

  0
STYLE
  5
205
100
AcDbSymbolTableRecord
100
AcDbTextStyleTableRecord
  2
TEXTSTYLE_1
 70
0
 40
0.0
 41
0.8
 50
0.0
 71
0
 42
0.2
  3
gdt
  4

  0
ENDTAB
  0
TABLE
  2
VIEW
  5
6
100
AcDbSymbolTable
 70
0
  0
ENDTAB
  0
TABLE
  2
UCS
  5
7
100
AcDbSymbolTable
 70
0
  0
ENDTAB
  0
TABLE
  2
APPID
  5
9
100
AcDbSymbolTable
 70
1
  0
APPID
  5
206
100
AcDbSymbolTableRecord
100
AcDbRegAppTableRecord
  2
ACAD
 70
0
  0
ENDTAB
  0
TABLE
  2
BLOCK_RECORD
  5
1
100
AcDbSymbolTable
 70
0
  0
BLOCK_RECORD
  5
207
100
AcDbSymbolTableRecord
100
AcDbBlockTableRecord
  2
*Model_Space
  0
BLOCK_RECORD
  5
208
100
AcDbSymbolTableRecord
100
AcDbBlockTableRecord
  2
*Paper_Space
  0
BLOCK_RECORD
  5
209
100
AcDbSymbolTableRecord
100
AcDbBlockTableRecord
  2
SUN_FIRST_THIRD_ANGLE_BL0
  0
BLOCK_RECORD
  5
20A
100
AcDbSymbolTableRecord
100
AcDbBlockTableRecord
  2
*T1
  0
BLOCK_RECORD
  5
20B
100
AcDbSymbolTableRecord
100
AcDbBlockTableRecord
  2
*T2
  0
BLOCK_RECORD
  5
20C
100
AcDbSymbolTableRecord
100
AcDbBlockTableRecord
  2
*T3
  0
ENDTAB
  0
TABLE
  2
DIMSTYLE
  5
A
100
AcDbSymbolTable
 70
1
100
AcDbDimStyleTable
 71
0
  0
DIMSTYLE
105
20D
100
AcDbSymbolTableRecord
100
AcDbDimStyleTableRecord
  2
STANDARD
 70
0
  3

  4

 40
1.0
 41
0.1875
 42
0.0625
 43
0.38
 44
0.125
 45
0.0
 46
0.0
 47
0.001
 48
0.001
140
0.1
141
0.09
142
0.0
143
25.4
144
1.0
145
0.0
146
1.0
147
0.09
 71
0.0
 72
0.0
 73
1
 74
1
 75
0
 76
0
 77
0
 78
4
170
0
171
2
172
0
173
0
174
0
175
0
176
0
177
0
178
0
270
2
271
3
272
3
273
2
274
2
275
0
280
0
281
0
282
0
283
1
284
4
285
0
286
0
287
3
288
0
340
11
278
46
  0
ENDTAB
  0
ENDSEC
  0
SECTION
  2
BLOCKS
  0
BLOCK
  5
20
100
AcDbEntity
  8
0
100
AcDbBlockBegin
  2
*Model_Space
 70
0
 10
0.0
 20
0.0
 30
0.0
  3
*Model_Space
  1

  0
ENDBLK
  5
21
100
AcDbEntity
  8
0
100
AcDbBlockEnd
  0
BLOCK
  5
1C
100
AcDbEntity
  8
0
100
AcDbBlockBegin
  2
*Paper_Space
 70
0
 10
0.0
 20
0.0
 30
0.0
  3
*Paper_Space
  1

  0
ENDBLK
  5
1D
100
AcDbEntity
  8
0
100
AcDbBlockEnd
  0
BLOCK
  5
20E
100
AcDbEntity
  8
0
100
AcDbBlockBegin
 62
2
  6
CONTINUOUS
  2
SUN_FIRST_THIRD_ANGLE_BL0
 70
64
 10
20.4816717061
 20
1.2289683772
  3
SUN_FIRST_THIRD_ANGLE_BL0
  1

  0
TEXT
  5
20F
100
AcDbEntity
  8
0
100
AcDbText
 62
2
  6
CONTINUOUS
 10
19.4750896608
 20
1.4136269581
  7
STANDARD
 40
0.08
  1
FIRST ANGLE
 41
0.8
 72
0
100
AcDbText
  0
TEXT
  5
210
100
AcDbEntity
  8
0
100
AcDbText
 62
2
  6
CONTINUOUS
 10
20.7842537513
 20
1.4047600029
  7
STANDARD
 40
0.08
  1
THIRD ANGLE
 41
0.8
 72
0
100
AcDbText
  0
LINE
  5
211
100
AcDbEntity
  8
0
100
AcDbLine
 62
7
  6
CONTINUOUS
 10
19.4767170086
 20
1.1727031207
 11
19.6334271527
 21
1.1717972817
  0
LINE
  5
212
100
AcDbEntity
  8
0
100
AcDbLine
 62
7
  6
CONTINUOUS
 10
19.6596964832
 20
1.1717972817
 11
19.6950230232
 21
1.171593082
  0
LINE
  5
213
100
AcDbEntity
  8
0
100
AcDbLine
 62
7
  6
CONTINUOUS
 10
19.7194818561
 20
1.1708914427
 11
19.8852396156
 21
1.1699333054
  0
LINE
  5
214
100
AcDbEntity
  8
0
100
AcDbLine
 62
7
  6
CONTINUOUS
 10
19.4758111696
 20
1.2723454088
 11
19.88525039
 21
1.3511534004
  0
LINE
  5
215
100
AcDbEntity
  8
0
100
AcDbLine
 62
7
  6
CONTINUOUS
 10
19.88525039
 20
1.3511534004
 11
19.8831348489
 21
0.9851647912
  0
LINE
  5
216
100
AcDbEntity
  8
0
100
AcDbLine
 62
7
  6
CONTINUOUS
 10
19.8831348489
 20
0.9851647912
 11
19.4767170086
 21
1.0658141206
  0
LINE
  5
217
100
AcDbEntity
  8
0
100
AcDbLine
 62
7
  6
CONTINUOUS
 10
19.4767170086
 20
1.0658141206
 11
19.4779056764
 21
1.2714536432
  0
CIRCLE
  5
218
100
AcDbEntity
  8
0
100
AcDbCircle
 62
7
  6
CONTINUOUS
 10
20.2068232291
 20
1.1717972817
 40
0.175742101
  0
CIRCLE
  5
219
100
AcDbEntity
  8
0
100
AcDbCircle
 62
7
  6
CONTINUOUS
 10
20.2068232291
 20
1.1717972817
 40
0.1005522074
  0
LINE
  5
21A
100
AcDbEntity
  8
0
100
AcDbLine
 62
7
  6
CONTINUOUS
 10
20.2077290681
 20
1.3756110529
 11
20.2071171714
 21
1.2379342989
  0
LINE
  5
21B
100
AcDbEntity
  8
0
100
AcDbLine
 62
7
  6
CONTINUOUS
 10
20.2077290681
 20
1.2016899681
 11
20.2074674401
 21
1.1428236749
  0
LINE
  5
21C
100
AcDbEntity
  8
0
100
AcDbLine
 62
7
  6
CONTINUOUS
 10
20.208634907
 20
1.101141841
 11
20.2080230104
 21
0.963465087
  0
LINE
  5
21D
100
AcDbEntity
  8
0
100
AcDbLine
 62
7
  6
CONTINUOUS
 10
20.0066328138
 20
1.1745147986
 11
20.1443095678
 21
1.1739029019
  0
LINE
  5
21E
100
AcDbEntity
  8
0
100
AcDbLine
 62
7
  6
CONTINUOUS
 10
20.1832714155
 20
1.1727031207
 11
20.238153505
 21
1.172335442
  0
LINE
  5
21F
100
AcDbEntity
  8
0
100
AcDbLine
 62
7
  6
CONTINUOUS
 10
20.2756669918
 20
1.1717972817
 11
20.407916871
 21
1.1712095044
  0
CIRCLE
  5
220
100
AcDbEntity
  8
0
100
AcDbCircle
 62
7
  6
CONTINUOUS
 10
20.7509457401
 20
1.1693297793
 40
0.1722024983
  0
CIRCLE
  5
221
100
AcDbEntity
  8
0
100
AcDbCircle
 62
7
  6
CONTINUOUS
 10
20.7509457401
 20
1.1693297793
 40
0.0985164967
  0
LINE
  5
222
100
AcDbEntity
  8
0
100
AcDbLine
 62
7
  6
CONTINUOUS
 10
20.7169767782
 20
1.170462078
 11
20.7825395137
 21
1.1682766535
  0
LINE
  5
223
100
AcDbEntity
  8
0
100
AcDbLine
 62
7
  6
CONTINUOUS
 10
20.8177513651
 20
1.1693297793
 11
20.947965719
 21
1.1693297793
  0
LINE
  5
224
100
AcDbEntity
  8
0
100
AcDbLine
 62
7
  6
CONTINUOUS
 10
20.6875370113
 20
1.170462078
 11
20.5573226574
 21
1.170462078
  0
LINE
  5
225
100
AcDbEntity
  8
0
100
AcDbLine
 62
7
  6
CONTINUOUS
 10
20.7486811426
 20
1.1987695462
 11
20.7486811426
 21
1.1432869085
  0
LINE
  5
226
100
AcDbEntity
  8
0
100
AcDbLine
 62
7
  6
CONTINUOUS
 10
20.7498134414
 20
1.1059210505
 11
20.7498134414
 21
0.9757066966
  0
LINE
  5
227
100
AcDbEntity
  8
0
100
AcDbLine
 62
7
  6
CONTINUOUS
 10
20.7486811426
 20
1.2338708068
 11
20.7486811426
 21
1.3640851607
  0
LINE
  5
228
100
AcDbEntity
  8
0
100
AcDbLine
 62
7
  6
CONTINUOUS
 10
21.0702539817
 20
1.2701043662
 11
21.4790138229
 21
1.3448360823
  0
LINE
  5
229
100
AcDbEntity
  8
0
100
AcDbLine
 62
7
  6
CONTINUOUS
 10
21.4790138229
 20
1.3448360823
 11
21.4790138229
 21
0.9779712941
  0
LINE
  5
22A
100
AcDbEntity
  8
0
100
AcDbLine
 62
7
  6
CONTINUOUS
 10
21.4790138229
 20
0.9779712941
 11
21.069121683
 21
1.0617614
  0
LINE
  5
22B
100
AcDbEntity
  8
0
100
AcDbLine
 62
7
  6
CONTINUOUS
 10
21.0702539817
 20
1.2701043662
 11
21.069121683
 21
1.0617614
  0
LINE
  5
22C
100
AcDbEntity
  8
0
100
AcDbLine
 62
7
  6
CONTINUOUS
 10
21.4790138229
 20
1.1693297793
 11
21.3159628059
 21
1.1693297793
  0
LINE
  5
22D
100
AcDbEntity
  8
0
100
AcDbLine
 62
7
  6
CONTINUOUS
 10
21.2876553377
 20
1.1693297793
 11
21.2502894796
 21
1.1693297793
  0
LINE
  5
22E
100
AcDbEntity
  8
0
100
AcDbLine
 62
7
  6
CONTINUOUS
 10
21.2208497126
 20
1.1659328831
 11
21.0713862804
 21
1.1659328831
  0
LINE
  5
22F
100
AcDbEntity
  8
0
100
AcDbLine
 62
7
  6
CONTINUOUS
 10
20.4796138713
 20
1.5284908897
 11
20.4766766948
 21
0.9294458646
  0
ENDBLK
  5
230
100
AcDbEntity
  8
0
  6
BYBLOCK
 62
0
100
AcDbBlockEnd
  0
BLOCK
  5
231
100
AcDbEntity
  8
0
100
AcDbBlockBegin
  2
*T1
 70
1
 10
0.0
 20
0.0
  3
*T1
  1

  0
LINE
  5
232
100
AcDbEntity
  8
0
100
AcDbLine
 62
2
  6
CONTINUOUS
 10
9.275
 20
0.0
 11
-0.0
 21
0.0
  0
LINE
  5
233
100
AcDbEntity
  8
0
100
AcDbLine
 62
2
  6
CONTINUOUS
 10
9.275
 20
0.0
 11
9.275
 21
1.25
  0
LINE
  5
234
100
AcDbEntity
  8
0
100
AcDbLine
 62
2
  6
CONTINUOUS
 10
9.275
 20
0.625
 11
-0.0
 21
0.625
  0
LINE
  5
235
100
AcDbEntity
  8
0
100
AcDbLine
 62
2
  6
CONTINUOUS
 10
9.275
 20
1.25
 11
-0.0
 21
1.25
  0
LINE
  5
236
100
AcDbEntity
  8
0
100
AcDbLine
 62
2
  6
CONTINUOUS
 10
6.8
 20
0.0
 11
6.8
 21
1.25
  0
LINE
  5
237
100
AcDbEntity
  8
0
100
AcDbLine
 62
2
  6
CONTINUOUS
 10
6.4
 20
0.0
 11
6.4
 21
0.625
  0
LINE
  5
238
100
AcDbEntity
  8
0
100
AcDbLine
 62
2
  6
CONTINUOUS
 10
5.9
 20
0.0
 11
5.9
 21
0.625
  0
LINE
  5
239
100
AcDbEntity
  8
0
100
AcDbLine
 62
2
  6
CONTINUOUS
 10
5.2
 20
0.0
 11
5.2
 21
0.625
  0
LINE
  5
23A
100
AcDbEntity
  8
0
100
AcDbLine
 62
2
  6
CONTINUOUS
 10
4.1
 20
0.0
 11
4.1
 21
1.25
  0
LINE
  5
23B
100
AcDbEntity
  8
0
100
AcDbLine
 62
2
  6
CONTINUOUS
 10
-0.0
 20
0.0
 11
-0.0
 21
1.25
  0
MTEXT
  5
23C
100
AcDbEntity
  8
0
100
AcDbMText
 62
2
  6
CONTINUOUS
  7
STANDARD
 71
2
 72
1
 10
6.6
 20
0.325
 30
0.0
 11
1.0
 21
0.0
 31
0.0
 44
0.9
  1
2
 40
0.125
 41
0.2
  0
MTEXT
  5
23D
100
AcDbEntity
  8
0
100
AcDbMText
 62
2
  6
CONTINUOUS
  7
STANDARD
 71
2
 72
1
 10
6.15
 20
0.325
 30
0.0
 11
1.0
 21
0.0
 31
0.0
 44
0.9
  1
C
 40
0.125
 41
0.2
  0
MTEXT
  5
23E
100
AcDbEntity
  8
0
100
AcDbMText
 62
2
  6
CONTINUOUS
  7
STANDARD
 71
2
 72
1
 10
5.55
 20
0.325
 30
0.0
 11
1.0
 21
0.0
 31
0.0
 44
0.9
  1
2.000
 40
0.125
 41
1.0
  0
MTEXT
  5
23F
100
AcDbEntity
  8
0
100
AcDbMText
 62
2
  6
CONTINUOUS
  7
STANDARD
 71
2
 72
1
 10
4.65
 20
0.325
 30
0.0
 11
1.0
 21
0.0
 31
0.0
 44
0.9
  1
Sep-26-19
 40
0.125
 41
1.8
  0
MTEXT
  5
240
100
AcDbEntity
  8
0
100
AcDbMText
 62
2
  6
CONTINUOUS
  7
STANDARD
 71
2
 72
1
 10
2.05
 20
0.4625
 30
0.0
 11
1.0
 21
0.0
 31
0.0
 44
0.9
  1
T-11A Gasket mount Sun\PDirect mount, cross pilot
 40
0.125
 41
5.0
  0
MTEXT
  5
241
100
AcDbEntity
  8
0
100
AcDbMText
 62
2
  6
CONTINUOUS
  7
STANDARD
 71
1
 72
1
 10
6.45
 20
0.5625
 30
0.0
 11
1.0
 21
0.0
 31
0.0
 44
0.9
  1
SHEET
 40
0.06
 41
0.48
  0
MTEXT
  5
242
100
AcDbEntity
  8
0
100
AcDbMText
 62
2
  6
CONTINUOUS
  7
STANDARD
 71
1
 72
1
 10
5.95
 20
0.5625
 30
0.0
 11
1.0
 21
0.0
 31
0.0
 44
0.9
  1
DWG SIZE
 40
0.06
 41
0.768
  0
MTEXT
  5
243
100
AcDbEntity
  8
0
100
AcDbMText
 62
2
  6
CONTINUOUS
  7
STANDARD
 71
1
 72
1
 10
5.25
 20
0.5625
 30
0.0
 11
1.0
 21
0.0
 31
0.0
 44
0.9
  1
SCALE
 40
0.06
 41
0.48
  0
MTEXT
  5
244
100
AcDbEntity
  8
0
100
AcDbMText
 62
2
  6
CONTINUOUS
  7
STANDARD
 71
1
 72
1
 10
4.15
 20
0.5625
 30
0.0
 11
1.0
 21
0.0
 31
0.0
 44
0.9
  1
DATE
 40
0.06
 41
0.384
  0
MTEXT
  5
245
100
AcDbEntity
  8
0
100
AcDbMText
 62
2
  6
CONTINUOUS
  7
STANDARD
 71
1
 72
1
 10
0.05
 20
0.5625
 30
0.0
 11
1.0
 21
0.0
 31
0.0
 44
0.9
  1
DESCRIPTION
 40
0.06
 41
1.056
  0
MTEXT
  5
246
100
AcDbEntity
  8
0
100
AcDbMText
 62
2
  6
CONTINUOUS
  7
STANDARD
 71
2
 72
1
 10
5.45
 20
1.0375
 30
0.0
 11
1.0
 21
0.0
 31
0.0
 44
0.9
  1
ALL DIMENSIONS IN INCH\PVIEWS ARE THIRD ANGLE
 40
0.12
 41
4.224
  0
MTEXT
  5
247
100
AcDbEntity
  8
0
100
AcDbMText
 62
2
  6
CONTINUOUS
  7
STANDARD
 71
2
 72
1
 10
2.05
 20
0.95
 30
0.0
 11
1.0
 21
0.0
 31
0.0
 44
0.9
  1
YVM
 40
0.125
 41
0.6
  0
MTEXT
  5
248
100
AcDbEntity
  8
0
100
AcDbMText
 62
2
  6
CONTINUOUS
  7
STANDARD
 71
1
 72
1
 10
0.05
 20
1.1875
 30
0.0
 11
1.0
 21
0.0
 31
0.0
 44
0.9
  1
MODEL
 40
0.06
 41
0.48
  0
ENDBLK
  5
249
100
AcDbEntity
  8
0
  6
BYBLOCK
 62
0
100
AcDbBlockEnd
  0
BLOCK
  5
24A
100
AcDbEntity
  8
0
100
AcDbBlockBegin
  2
*T2
 70
1
 10
0.0
 20
0.0
  3
*T2
  1

  0
LINE
  5
24B
100
AcDbEntity
  8
0
100
AcDbLine
 62
2
  6
CONTINUOUS
 10
0.0
 20
0.0
 11
9.055
 21
0.0
  0
LINE
  5
24C
100
AcDbEntity
  8
0
100
AcDbLine
 62
2
  6
CONTINUOUS
 10
0.0
 20
0.0
 11
0.0
 21
-3.094
  0
LINE
  5
24D
100
AcDbEntity
  8
0
100
AcDbLine
 62
2
  6
CONTINUOUS
 10
0.0
 20
-0.344
 11
9.055
 21
-0.344
  0
LINE
  5
24E
100
AcDbEntity
  8
0
100
AcDbLine
 62
2
  6
CONTINUOUS
 10
0.0
 20
-0.594
 11
9.055
 21
-0.594
  0
LINE
  5
24F
100
AcDbEntity
  8
0
100
AcDbLine
 62
2
  6
CONTINUOUS
 10
0.0
 20
-0.844
 11
9.055
 21
-0.844
  0
LINE
  5
250
100
AcDbEntity
  8
0
100
AcDbLine
 62
2
  6
CONTINUOUS
 10
0.0
 20
-1.094
 11
9.055
 21
-1.094
  0
LINE
  5
251
100
AcDbEntity
  8
0
100
AcDbLine
 62
2
  6
CONTINUOUS
 10
0.0
 20
-1.344
 11
9.055
 21
-1.344
  0
LINE
  5
252
100
AcDbEntity
  8
0
100
AcDbLine
 62
2
  6
CONTINUOUS
 10
0.0
 20
-1.594
 11
9.055
 21
-1.594
  0
LINE
  5
253
100
AcDbEntity
  8
0
100
AcDbLine
 62
2
  6
CONTINUOUS
 10
0.0
 20
-1.844
 11
9.055
 21
-1.844
  0
LINE
  5
254
100
AcDbEntity
  8
0
100
AcDbLine
 62
2
  6
CONTINUOUS
 10
0.0
 20
-2.094
 11
9.055
 21
-2.094
  0
LINE
  5
255
100
AcDbEntity
  8
0
100
AcDbLine
 62
2
  6
CONTINUOUS
 10
0.0
 20
-2.344
 11
9.055
 21
-2.344
  0
LINE
  5
256
100
AcDbEntity
  8
0
100
AcDbLine
 62
2
  6
CONTINUOUS
 10
0.0
 20
-2.594
 11
9.055
 21
-2.594
  0
LINE
  5
257
100
AcDbEntity
  8
0
100
AcDbLine
 62
2
  6
CONTINUOUS
 10
0.0
 20
-2.844
 11
9.055
 21
-2.844
  0
LINE
  5
258
100
AcDbEntity
  8
0
100
AcDbLine
 62
2
  6
CONTINUOUS
 10
0.0
 20
-3.094
 11
9.055
 21
-3.094
  0
LINE
  5
259
100
AcDbEntity
  8
0
100
AcDbLine
 62
2
  6
CONTINUOUS
 10
3.055
 20
0.0
 11
3.055
 21
-3.094
  0
LINE
  5
25A
100
AcDbEntity
  8
0
100
AcDbLine
 62
2
  6
CONTINUOUS
 10
9.055
 20
0.0
 11
9.055
 21
-3.094
  0
MTEXT
  5
25B
100
AcDbEntity
  8
0
100
AcDbMText
 62
2
  6
CONTINUOUS
  7
STANDARD
 71
2
 72
1
 10
1.5275
 20
-0.0995
 30
0.0
 11
1.0
 21
0.0
 31
0.0
 44
0.9
  1
Technical Data
 40
0.145
 41
3.248
  0
MTEXT
  5
25C
100
AcDbEntity
  8
0
100
AcDbMText
 62
2
  6
CONTINUOUS
  7
STANDARD
 71
2
 72
1
 10
4.555
 20
-0.0995
 30
0.0
 11
1.0
 21
0.0
 31
0.0
 44
0.9
  1
U.S. Units
 40
0.145
 41
2.32
  0
MTEXT
  5
25D
100
AcDbEntity
  8
0
100
AcDbMText
 62
2
  6
CONTINUOUS
  7
STANDARD
 71
2
 72
1
 10
7.555
 20
-0.0995
 30
0.0
 11
1.0
 21
0.0
 31
0.0
 44
0.9
  1
Metric Units
 40
0.145
 41
2.784
  0
MTEXT
  5
25E
100
AcDbEntity
  8
0
100
AcDbMText
 62
2
  6
CONTINUOUS
  7
STANDARD
 71
2
 72
1
 10
1.5275
 20
-0.4065
 30
0.0
 11
1.0
 21
0.0
 31
0.0
 44
0.9
  1
Cavity
 40
0.125
 41
1.2
  0
MTEXT
  5
25F
100
AcDbEntity
  8
0
100
AcDbMText
 62
2
  6
CONTINUOUS
  7
STANDARD
 71
2
 72
1
 10
6.055
 20
-0.4065
 30
0.0
 11
1.0
 21
0.0
 31
0.0
 44
0.9
  1
T-11A
 40
0.125
 41
1.0
  0
MTEXT
  5
260
100
AcDbEntity
  8
0
100
AcDbMText
 62
2
  6
CONTINUOUS
  7
STANDARD
 71
2
 72
1
 10
1.5275
 20
-0.6565
 30
0.0
 11
1.0
 21
0.0
 31
0.0
 44
0.9
  1
Body Features
 40
0.125
 41
2.6
  0
MTEXT
  5
261
100
AcDbEntity
  8
0
100
AcDbMText
 62
2
  6
CONTINUOUS
  7
STANDARD
 71
2
 72
1
 10
6.055
 20
-0.6565
 30
0.0
 11
1.0
 21
0.0
 31
0.0
 44
0.9
  1
Direct mount, cross pilot
 40
0.125
 41
5.0
  0
MTEXT
  5
262
100
AcDbEntity
  8
0
100
AcDbMText
 62
2
  6
CONTINUOUS
  7
STANDARD
 71
2
 72
1
 10
1.5275
 20
-0.9065
 30
0.0
 11
1.0
 21
0.0
 31
0.0
 44
0.9
  1
Body Type
 40
0.125
 41
1.8
  0
MTEXT
  5
263
100
AcDbEntity
  8
0
100
AcDbMText
 62
2
  6
CONTINUOUS
  7
STANDARD
 71
2
 72
1
 10
6.055
 20
-0.9065
 30
0.0
 11
1.0
 21
0.0
 31
0.0
 44
0.9
  1
Gasket mount
 40
0.125
 41
2.4
  0
MTEXT
  5
264
100
AcDbEntity
  8
0
100
AcDbMText
 62
2
  6
CONTINUOUS
  7
STANDARD
 71
2
 72
1
 10
1.5275
 20
-1.1565
 30
0.0
 11
1.0
 21
0.0
 31
0.0
 44
0.9
  1
Interface
 40
0.125
 41
1.8
  0
MTEXT
  5
265
100
AcDbEntity
  8
0
100
AcDbMText
 62
2
  6
CONTINUOUS
  7
STANDARD
 71
2
 72
1
 10
6.055
 20
-1.1565
 30
0.0
 11
1.0
 21
0.0
 31
0.0
 44
0.9
  1
Sun
 40
0.125
 41
0.6
  0
MTEXT
  5
266
100
AcDbEntity
  8
0
100
AcDbMText
 62
2
  6
CONTINUOUS
  7
STANDARD
 71
2
 72
1
 10
1.5275
 20
-1.4065
 30
0.0
 11
1.0
 21
0.0
 31
0.0
 44
0.9
  1
Open Cavity Quantity
 40
0.125
 41
4.0
  0
MTEXT
  5
267
100
AcDbEntity
  8
0
100
AcDbMText
 62
2
  6
CONTINUOUS
  7
STANDARD
 71
2
 72
1
 10
6.055
 20
-1.4065
 30
0.0
 11
1.0
 21
0.0
 31
0.0
 44
0.9
  1
2
 40
0.125
 41
0.2
  0
MTEXT
  5
268
100
AcDbEntity
  8
0
100
AcDbMText
 62
2
  6
CONTINUOUS
  7
STANDARD
 71
2
 72
1
 10
1.5275
 20
-1.6565
 30
0.0
 11
1.0
 21
0.0
 31
0.0
 44
0.9
  1
Weight
 40
0.125
 41
1.2
  0
MTEXT
  5
269
100
AcDbEntity
  8
0
100
AcDbMText
 62
2
  6
CONTINUOUS
  7
STANDARD
 71
2
 72
1
 10
4.555
 20
-1.6565
 30
0.0
 11
1.0
 21
0.0
 31
0.0
 44
0.9
  1
1.629 lb.
 40
0.125
 41
1.8
  0
MTEXT
  5
26A
100
AcDbEntity
  8
0
100
AcDbMText
 62
2
  6
CONTINUOUS
  7
STANDARD
 71
2
 72
1
 10
7.555
 20
-1.6565
 30
0.0
 11
1.0
 21
0.0
 31
0.0
 44
0.9
  1
0,739 kg.
 40
0.125
 41
1.8
  0
MTEXT
  5
26B
100
AcDbEntity
  8
0
100
AcDbMText
 62
2
  6
CONTINUOUS
  7
STANDARD
 71
2
 72
1
 10
1.5275
 20
-1.9065
 30
0.0
 11
1.0
 21
0.0
 31
0.0
 44
0.9
  1
Mounting Hole Diameter
 40
0.125
 41
4.4
  0
MTEXT
  5
26C
100
AcDbEntity
  8
0
100
AcDbMText
 62
2
  6
CONTINUOUS
  7
STANDARD
 71
2
 72
1
 10
4.555
 20
-1.9065
 30
0.0
 11
1.0
 21
0.0
 31
0.0
 44
0.9
  1
.34 in.
 40
0.125
 41
1.4
  0
MTEXT
  5
26D
100
AcDbEntity
  8
0
100
AcDbMText
 62
2
  6
CONTINUOUS
  7
STANDARD
 71
2
 72
1
 10
7.555
 20
-1.9065
 30
0.0
 11
1.0
 21
0.0
 31
0.0
 44
0.9
  1
8.6 mm
 40
0.125
 41
1.2
  0
MTEXT
  5
26E
100
AcDbEntity
  8
0
100
AcDbMText
 62
2
  6
CONTINUOUS
  7
STANDARD
 71
2
 72
1
 10
1.5275
 20
-2.1565
 30
0.0
 11
1.0
 21
0.0
 31
0.0
 44
0.9
  1
Mounting Hole Depth
 40
0.125
 41
3.8
  0
MTEXT
  5
26F
100
AcDbEntity
  8
0
100
AcDbMText
 62
2
  6
CONTINUOUS
  7
STANDARD
 71
2
 72
1
 10
6.055
 20
-2.1565
 30
0.0
 11
1.0
 21
0.0
 31
0.0
 44
0.9
  1
Through
 40
0.125
 41
1.4
  0
MTEXT
  5
270
100
AcDbEntity
  8
0
100
AcDbMText
 62
2
  6
CONTINUOUS
  7
STANDARD
 71
2
 72
1
 10
1.5275
 20
-2.4065
 30
0.0
 11
1.0
 21
0.0
 31
0.0
 44
0.9
  1
Mounting Hole Quantity
 40
0.125
 41
4.4
  0
MTEXT
  5
271
100
AcDbEntity
  8
0
100
AcDbMText
 62
2
  6
CONTINUOUS
  7
STANDARD
 71
2
 72
1
 10
6.055
 20
-2.4065
 30
0.0
 11
1.0
 21
0.0
 31
0.0
 44
0.9
  1
2
 40
0.125
 41
0.2
  0
MTEXT
  5
272
100
AcDbEntity
  8
0
100
AcDbMText
 62
2
  6
CONTINUOUS
  7
STANDARD
 71
2
 72
1
 10
1.5275
 20
-2.6565
 30
0.0
 11
1.0
 21
0.0
 31
0.0
 44
0.9
  1
Mounting Hole C'bore Diameter
 40
0.125
 41
5.8
  0
MTEXT
  5
273
100
AcDbEntity
  8
0
100
AcDbMText
 62
2
  6
CONTINUOUS
  7
STANDARD
 71
2
 72
1
 10
4.555
 20
-2.6565
 30
0.0
 11
1.0
 21
0.0
 31
0.0
 44
0.9
  1
.53 in.
 40
0.125
 41
1.4
  0
MTEXT
  5
274
100
AcDbEntity
  8
0
100
AcDbMText
 62
2
  6
CONTINUOUS
  7
STANDARD
 71
2
 72
1
 10
7.555
 20
-2.6565
 30
0.0
 11
1.0
 21
0.0
 31
0.0
 44
0.9
  1
13,5 mm
 40
0.125
 41
1.4
  0
MTEXT
  5
275
100
AcDbEntity
  8
0
100
AcDbMText
 62
2
  6
CONTINUOUS
  7
STANDARD
 71
2
 72
1
 10
1.5275
 20
-2.9065
 30
0.0
 11
1.0
 21
0.0
 31
0.0
 44
0.9
  1
Mounting Hole C'bore Depth
 40
0.125
 41
5.2
  0
MTEXT
  5
276
100
AcDbEntity
  8
0
100
AcDbMText
 62
2
  6
CONTINUOUS
  7
STANDARD
 71
2
 72
1
 10
4.555
 20
-2.9065
 30
0.0
 11
1.0
 21
0.0
 31
0.0
 44
0.9
  1
.25 in.
 40
0.125
 41
1.4
  0
MTEXT
  5
277
100
AcDbEntity
  8
0
100
AcDbMText
 62
2
  6
CONTINUOUS
  7
STANDARD
 71
2
 72
1
 10
7.555
 20
-2.9065
 30
0.0
 11
1.0
 21
0.0
 31
0.0
 44
0.9
  1
6,4 mm
 40
0.125
 41
1.2
  0
ENDBLK
  5
278
100
AcDbEntity
  8
0
  6
BYBLOCK
 62
0
100
AcDbBlockEnd
  0
BLOCK
  5
279
100
AcDbEntity
  8
0
100
AcDbBlockBegin
  2
*T3
 70
1
 10
0.0
 20
0.0
  3
*T3
  1

  0
LINE
  5
27A
100
AcDbEntity
  8
0
100
AcDbLine
 62
2
  6
CONTINUOUS
 10
0.0
 20
0.0
 11
4.6
 21
0.0
  0
LINE
  5
27B
100
AcDbEntity
  8
0
100
AcDbLine
 62
2
  6
CONTINUOUS
 10
0.0
 20
0.0
 11
0.0
 21
-0.93775
  0
LINE
  5
27C
100
AcDbEntity
  8
0
100
AcDbLine
 62
2
  6
CONTINUOUS
 10
0.0
 20
-0.34375
 11
4.6
 21
-0.34375
  0
LINE
  5
27D
100
AcDbEntity
  8
0
100
AcDbLine
 62
2
  6
CONTINUOUS
 10
0.0
 20
-0.68775
 11
4.6
 21
-0.68775
  0
LINE
  5
27E
100
AcDbEntity
  8
0
100
AcDbLine
 62
2
  6
CONTINUOUS
 10
0.0
 20
-0.93775
 11
4.6
 21
-0.93775
  0
LINE
  5
27F
100
AcDbEntity
  8
0
100
AcDbLine
 62
2
  6
CONTINUOUS
 10
1.3
 20
-0.34375
 11
1.3
 21
-0.93775
  0
LINE
  5
280
100
AcDbEntity
  8
0
100
AcDbLine
 62
2
  6
CONTINUOUS
 10
3.3
 20
-0.34375
 11
3.3
 21
-0.93775
  0
LINE
  5
281
100
AcDbEntity
  8
0
100
AcDbLine
 62
2
  6
CONTINUOUS
 10
4.6
 20
0.0
 11
4.6
 21
-0.93775
  0
MTEXT
  5
282
100
AcDbEntity
  8
0
100
AcDbMText
 62
2
  6
CONTINUOUS
  7
STANDARD
 71
2
 72
1
 10
2.3
 20
-0.099375
 30
0.0
 11
1.0
 21
0.0
 31
0.0
 44
0.9
  1
Port Headings
 40
0.145
 41
3.016
  0
MTEXT
  5
283
100
AcDbEntity
  8
0
100
AcDbMText
 62
2
  6
CONTINUOUS
  7
STANDARD
 71
2
 72
1
 10
0.65
 20
-0.44325
 30
0.0
 11
1.0
 21
0.0
 31
0.0
 44
0.9
  1
Product
 40
0.145
 41
1.624
  0
MTEXT
  5
284
100
AcDbEntity
  8
0
100
AcDbMText
 62
2
  6
CONTINUOUS
  7
STANDARD
 71
2
 72
1
 10
2.3
 20
-0.44325
 30
0.0
 11
1.0
 21
0.0
 31
0.0
 44
0.9
  1
Port
 40
0.145
 41
0.928
  0
MTEXT
  5
285
100
AcDbEntity
  8
0
100
AcDbMText
 62
2
  6
CONTINUOUS
  7
STANDARD
 71
2
 72
1
 10
3.95
 20
-0.44325
 30
0.0
 11
1.0
 21
0.0
 31
0.0
 44
0.9
  1
Size
 40
0.145
 41
0.928
  0
MTEXT
  5
286
100
AcDbEntity
  8
0
100
AcDbMText
 62
2
  6
CONTINUOUS
  7
STANDARD
 71
2
 72
1
 10
0.65
 20
-0.75025
 30
0.0
 11
1.0
 21
0.0
 31
0.0
 44
0.9
  1
YVM
 40
0.125
 41
0.6
  0
MTEXT
  5
287
100
AcDbEntity
  8
0
100
AcDbMText
 62
2
  6
CONTINUOUS
  7
STANDARD
 71
2
 72
1
 10
2.3
 20
-0.75025
 30
0.0
 11
1.0
 21
0.0
 31
0.0
 44
0.9
  1
Ports C2, V1, V2
 40
0.125
 41
3.2
  0
MTEXT
  5
288
100
AcDbEntity
  8
0
100
AcDbMText
 62
2
  6
CONTINUOUS
  7
STANDARD
 71
2
 72
1
 10
3.95
 20
-0.75025
 30
0.0
 11
1.0
 21
0.0
 31
0.0
 44
0.9
  1
3/8" NPTF
 40
0.125
 41
1.8
  0
ENDBLK
  5
289
100
AcDbEntity
  8
0
  6
BYBLOCK
 62
0
100
AcDbBlockEnd
  0
ENDSEC
  0
SECTION
  2
ENTITIES
  0
IMAGE
  5
28A
100
AcDbEntity
  8
0
100
AcDbRasterImage
 62
7
  6
CONTINUOUS
 10
19.2297077316
 20
0.3094318264
 30
0.0
 11
0.0066666667
 21
0.0
 31
0.0
 12
0.0
 22
0.0066666667
 32
0.0
 13
369.0
 23
92.0
340
       381
 70
9
280
0
281
50
282
50
283
0
360
       37B
 71
1
 91
2
 14
-0.5
 24
-0.5
 14
368.5
 24
91.5
  0
INSERT
  5
28B
100
AcDbEntity
  8
0
100
AcDbBlockReference
 62
2
  6
CONTINUOUS
  2
SUN_FIRST_THIRD_ANGLE_BL0
 10
20.4816717061
 20
1.2289683772
  0
ACAD_TABLE
  5
28C
100
AcDbEntity
  8
0
 62
2
  6
CONTINUOUS
100
AcDbBlockReference
  2
*T1
 10
12.42375
 20
0.30125
 30
0.0
100
AcDbTable
342
       383
343
20A
 11
1.0
 21
0.0
 31
0.0
 90
6
 91
4
 92
6
 93
20
 94
0
 95
0
 96
0
 70
1
 41
0.0
141
0.525
141
0.1
141
0.525
141
0.1
142
4.1
142
1.1
142
0.7
142
0.5
142
0.4
142
2.475
171
1
172
0
173
0
174
0
175
1
176
1
 91
33
178
0
145
0.0
301
CELL_VALUE
 90
4
  1
T-11A Gasket mount Sun\PDirect mount, cross pilot
304
ACVALUE_END
170
2
140
0.125
171
1
172
0
173
0
174
0
175
1
176
1
 91
33
178
0
145
0.0
301
CELL_VALUE
 90
4
  1
Sep-26-19
304
ACVALUE_END
170
5
140
0.125
171
1
172
0
173
0
174
0
175
1
176
1
 91
33
178
0
145
0.0
301
CELL_VALUE
 90
4
  1
2.000
304
ACVALUE_END
170
5
140
0.125
171
1
172
0
173
0
174
0
175
1
176
1
 91
33
178
0
145
0.0
301
CELL_VALUE
 90
4
  1
C
304
ACVALUE_END
170
5
140
0.125
171
1
172
0
173
0
174
0
175
1
176
1
 91
33
178
0
145
0.0
301
CELL_VALUE
 90
4
  1
2
304
ACVALUE_END
170
5
140
0.125
171
1
172
0
173
0
174
0
175
1
176
1
 91
33
178
0
145
0.0
301
CELL_VALUE
 90
4
  1
 
304
ACVALUE_END
170
1
140
0.125
171
1
172
0
173
0
174
0
175
1
176
1
 91
33
178
0
145
0.0
301
CELL_VALUE
 90
4
  1
DESCRIPTION
304
ACVALUE_END
170
1
140
0.06
171
1
172
0
173
0
174
0
175
1
176
1
 91
33
178
0
145
0.0
301
CELL_VALUE
 90
4
  1
DATE
304
ACVALUE_END
170
1
140
0.06
171
1
172
0
173
0
174
0
175
1
176
1
 91
33
178
0
145
0.0
301
CELL_VALUE
 90
4
  1
SCALE
304
ACVALUE_END
170
1
140
0.06
171
1
172
0
173
0
174
0
175
1
176
1
 91
33
178
0
145
0.0
301
CELL_VALUE
 90
4
  1
DWG SIZE
304
ACVALUE_END
170
1
140
0.06
171
1
172
0
173
0
174
0
175
1
176
1
 91
33
178
0
145
0.0
301
CELL_VALUE
 90
4
  1
SHEET
304
ACVALUE_END
170
1
140
0.06
171
1
172
0
173
0
174
0
175
1
176
1
 91
33
178
0
145
0.0
301
CELL_VALUE
 90
4
  1
 
304
ACVALUE_END
170
1
140
0.125
171
1
172
0
173
0
174
0
175
1
176
1
 91
33
178
0
145
0.0
301
CELL_VALUE
 90
4
  1
YVM
304
ACVALUE_END
170
5
140
0.125
171
1
172
0
173
0
174
0
175
4
176
1
 91
33
178
0
145
0.0
301
CELL_VALUE
 90
4
  1
ALL DIMENSIONS IN INCH\PVIEWS ARE THIRD ANGLE
304
ACVALUE_END
170
5
140
0.12
171
1
172
0
173
1
174
0
175
1
176
1
 91
1
178
0
145
0.0
170
1
171
1
172
0
173
1
174
0
175
1
176
1
 91
1
178
0
145
0.0
170
1
171
1
172
0
173
1
174
0
175
1
176
1
 91
1
178
0
145
0.0
170
5
171
1
172
0
173
0
174
0
175
1
176
1
 91
33
178
0
145
0.0
301
CELL_VALUE
 90
4
  1
 
304
ACVALUE_END
170
1
140
0.125
171
1
172
0
173
0
174
0
175
1
176
1
 91
33
178
0
145
0.0
301
CELL_VALUE
 90
4
  1
MODEL
304
ACVALUE_END
170
1
140
0.06
171
1
172
0
173
0
174
0
175
1
176
1
 91
33
178
0
145
0.0
301
CELL_VALUE
 90
4
  1
 
304
ACVALUE_END
170
1
140
0.125
171
1
172
0
173
0
174
0
175
1
176
1
 91
33
178
0
145
0.0
301
CELL_VALUE
 90
4
  1
 
304
ACVALUE_END
170
1
140
0.125
171
1
172
0
173
0
174
0
175
1
176
1
 91
33
178
0
145
0.0
301
CELL_VALUE
 90
4
  1
 
304
ACVALUE_END
170
1
140
0.125
171
1
172
0
173
0
174
0
175
1
176
1
 91
33
178
0
145
0.0
301
CELL_VALUE
 90
4
  1
 
304
ACVALUE_END
170
1
140
0.125
171
1
172
0
173
0
174
0
175
1
176
1
 91
33
178
0
145
0.0
301
CELL_VALUE
 90
4
  1
 
304
ACVALUE_END
170
1
140
0.125
  0
ACAD_TABLE
  5
28D
100
AcDbEntity
  8
0
 62
2
  6
CONTINUOUS
100
AcDbBlockReference
  2
*T2
 10
12.4237499994
 20
16.47875
 30
0.0
100
AcDbTable
342
       382
343
20B
 11
1.0
 21
0.0
 31
0.0
 90
22
 91
12
 92
3
 93
16
 94
0
 95
0
 96
0
 41
0.028
141
0.344
141
0.25
141
0.25
141
0.25
141
0.25
141
0.25
141
0.25
141
0.25
141
0.25
141
0.25
141
0.25
141
0.25
142
3.055
142
3.0
142
3.0
171
1
172
0
173
0
174
0
175
1
176
1
 91
33
178
0
145
0.0
301
CELL_VALUE
 90
4
  1
Technical Data
304
ACVALUE_END
170
5
140
0.145
171
1
172
0
173
0
174
0
175
1
176
1
 91
33
178
0
145
0.0
301
CELL_VALUE
 90
4
  1
U.S. Units
304
ACVALUE_END
170
5
140
0.145
171
1
172
0
173
0
174
0
175
1
176
1
 91
33
178
0
145
0.0
301
CELL_VALUE
 90
4
  1
Metric Units
304
ACVALUE_END
170
5
140
0.145
171
1
172
0
173
0
174
0
175
1
176
1
 91
33
178
0
145
0.0
301
CELL_VALUE
 90
4
  1
Cavity
304
ACVALUE_END
170
5
140
0.125
171
1
172
0
173
0
174
0
175
2
176
1
 91
33
178
0
145
0.0
301
CELL_VALUE
 90
4
  1
T-11A
304
ACVALUE_END
170
5
140
0.125
171
1
172
0
173
1
174
0
175
1
176
1
 91
1
178
0
145
0.0
170
1
171
1
172
0
173
0
174
0
175
1
176
1
 91
33
178
0
145
0.0
301
CELL_VALUE
 90
4
  1
Body Features
304
ACVALUE_END
170
5
140
0.125
171
1
172
0
173
0
174
0
175
2
176
1
 91
33
178
0
145
0.0
301
CELL_VALUE
 90
4
  1
Direct mount, cross pilot
304
ACVALUE_END
170
5
140
0.125
171
1
172
0
173
1
174
0
175
1
176
1
 91
1
178
0
145
0.0
170
1
171
1
172
0
173
0
174
0
175
1
176
1
 91
33
178
0
145
0.0
301
CELL_VALUE
 90
4
  1
Body Type
304
ACVALUE_END
170
5
140
0.125
171
1
172
0
173
0
174
0
175
2
176
1
 91
33
178
0
145
0.0
301
CELL_VALUE
 90
4
  1
Gasket mount
304
ACVALUE_END
170
5
140
0.125
171
1
172
0
173
1
174
0
175
1
176
1
 91
1
178
0
145
0.0
170
1
171
1
172
0
173
0
174
0
175
1
176
1
 91
33
178
0
145
0.0
301
CELL_VALUE
 90
4
  1
Interface
304
ACVALUE_END
170
5
140
0.125
171
1
172
0
173
0
174
0
175
2
176
1
 91
33
178
0
145
0.0
301
CELL_VALUE
 90
4
  1
Sun
304
ACVALUE_END
170
5
140
0.125
171
1
172
0
173
1
174
0
175
1
176
1
 91
1
178
0
145
0.0
170
1
171
1
172
0
173
0
174
0
175
1
176
1
 91
33
178
0
145
0.0
301
CELL_VALUE
 90
4
  1
Open Cavity Quantity
304
ACVALUE_END
170
5
140
0.125
171
1
172
0
173
0
174
0
175
2
176
1
 91
33
178
0
145
0.0
301
CELL_VALUE
 90
4
  1
2
304
ACVALUE_END
170
5
140
0.125
171
1
172
0
173
1
174
0
175
1
176
1
 91
1
178
0
145
0.0
170
1
171
1
172
0
173
0
174
0
175
1
176
1
 91
33
178
0
145
0.0
301
CELL_VALUE
 90
4
  1
Weight
304
ACVALUE_END
170
5
140
0.125
171
1
172
0
173
0
174
0
175
1
176
1
 91
33
178
0
145
0.0
301
CELL_VALUE
 90
4
  1
1.629 lb.
304
ACVALUE_END
170
5
140
0.125
171
1
172
0
173
0
174
0
175
1
176
1
 91
33
178
0
145
0.0
301
CELL_VALUE
 90
4
  1
0,739 kg.
304
ACVALUE_END
170
5
140
0.125
171
1
172
0
173
0
174
0
175
1
176
1
 91
33
178
0
145
0.0
301
CELL_VALUE
 90
4
  1
Mounting Hole Diameter
304
ACVALUE_END
170
5
140
0.125
171
1
172
0
173
0
174
0
175
1
176
1
 91
33
178
0
145
0.0
301
CELL_VALUE
 90
4
  1
.34 in.
304
ACVALUE_END
170
5
140
0.125
171
1
172
0
173
0
174
0
175
1
176
1
 91
33
178
0
145
0.0
301
CELL_VALUE
 90
4
  1
8.6 mm
304
ACVALUE_END
170
5
140
0.125
171
1
172
0
173
0
174
0
175
1
176
1
 91
33
178
0
145
0.0
301
CELL_VALUE
 90
4
  1
Mounting Hole Depth
304
ACVALUE_END
170
5
140
0.125
171
1
172
0
173
0
174
0
175
2
176
1
 91
33
178
0
145
0.0
301
CELL_VALUE
 90
4
  1
Through
304
ACVALUE_END
170
5
140
0.125
171
1
172
0
173
1
174
0
175
1
176
1
 91
1
178
0
145
0.0
170
1
171
1
172
0
173
0
174
0
175
1
176
1
 91
33
178
0
145
0.0
301
CELL_VALUE
 90
4
  1
Mounting Hole Quantity
304
ACVALUE_END
170
5
140
0.125
171
1
172
0
173
0
174
0
175
2
176
1
 91
33
178
0
145
0.0
301
CELL_VALUE
 90
4
  1
2
304
ACVALUE_END
170
5
140
0.125
171
1
172
0
173
1
174
0
175
1
176
1
 91
1
178
0
145
0.0
170
1
171
1
172
0
173
0
174
0
175
1
176
1
 91
33
178
0
145
0.0
301
CELL_VALUE
 90
4
  1
Mounting Hole C'bore Diameter
304
ACVALUE_END
170
5
140
0.125
171
1
172
0
173
0
174
0
175
1
176
1
 91
33
178
0
145
0.0
301
CELL_VALUE
 90
4
  1
.53 in.
304
ACVALUE_END
170
5
140
0.125
171
1
172
0
173
0
174
0
175
1
176
1
 91
33
178
0
145
0.0
301
CELL_VALUE
 90
4
  1
13,5 mm
304
ACVALUE_END
170
5
140
0.125
171
1
172
0
173
0
174
0
175
1
176
1
 91
33
178
0
145
0.0
301
CELL_VALUE
 90
4
  1
Mounting Hole C'bore Depth
304
ACVALUE_END
170
5
140
0.125
171
1
172
0
173
0
174
0
175
1
176
1
 91
33
178
0
145
0.0
301
CELL_VALUE
 90
4
  1
.25 in.
304
ACVALUE_END
170
5
140
0.125
171
1
172
0
173
0
174
0
175
1
176
1
 91
33
178
0
145
0.0
301
CELL_VALUE
 90
4
  1
6,4 mm
304
ACVALUE_END
170
5
140
0.125
  0
ACAD_TABLE
  5
28E
100
AcDbEntity
  8
0
 62
2
  6
CONTINUOUS
100
AcDbBlockReference
  2
*T3
 10
0.52125
 20
1.459
 30
0.0
100
AcDbTable
342
       382
343
20C
 11
1.0
 21
0.0
 31
0.0
 90
22
 91
3
 92
3
 93
16
 94
0
 95
0
 96
0
 41
0.05
141
0.34375
141
0.344
141
0.25
142
1.3
142
2.0
142
1.3
171
1
172
0
173
0
174
0
175
3
176
1
 91
33
178
0
145
0.0
301
CELL_VALUE
 90
4
  1
Port Headings
304
ACVALUE_END
170
5
140
0.145
171
1
172
0
173
1
174
0
175
1
176
1
 91
1
178
0
145
0.0
170
1
171
1
172
0
173
1
174
0
175
1
176
1
 91
1
178
0
145
0.0
170
1
171
1
172
0
173
0
174
0
175
1
176
1
 91
33
178
0
145
0.0
301
CELL_VALUE
 90
4
  1
Product
304
ACVALUE_END
170
5
140
0.145
171
1
172
0
173
0
174
0
175
1
176
1
 91
33
178
0
145
0.0
301
CELL_VALUE
 90
4
  1
Port
304
ACVALUE_END
170
5
140
0.145
171
1
172
0
173
0
174
0
175
1
176
1
 91
33
178
0
145
0.0
301
CELL_VALUE
 90
4
  1
Size
304
ACVALUE_END
170
5
140
0.145
171
1
172
0
173
0
174
0
175
1
176
1
 91
33
178
0
145
0.0
301
CELL_VALUE
 90
4
  1
YVM
304
ACVALUE_END
170
5
140
0.125
171
1
172
0
173
0
174
0
175
1
176
1
 91
33
178
0
145
0.0
301
CELL_VALUE
 90
4
  1
Ports C2, V1, V2
304
ACVALUE_END
170
5
140
0.125
171
1
172
0
173
0
174
0
175
1
176
1
 91
33
178
0
145
0.0
301
CELL_VALUE
 90
4
  1
3/8" NPTF
304
ACVALUE_END
170
5
140
0.125
  0
MTEXT
  5
28F
100
AcDbEntity
  8
0
100
AcDbMText
 62
2
  6
CONTINUOUS
  7
STANDARD
 71
1
 72
1
 10
0.52125
 20
5.75995
 30
0.0
 11
1.0
 21
0.0
 31
0.0
 44
0.6
  3
Notes\P \P1. Important: Carefully consider\P   the maximum system pressure. The\P   pressure rating of the manifold is\P   dependent on the manifold material,\P   with the port type/size a secondary\P   consideration. Manifolds\P   constructed of alu
  1
minum are not\P   rated for pressures higher than\P   3000 psi (210 bar), regardless of\P   the port type/size specified.
 40
0.1
 41
3.04
  0
LINE
  5
290
100
AcDbEntity
  8
0
100
AcDbLine
 62
7
  6
CONTINUOUS
 10
0.30125
 20
0.30125
 11
0.30125
 21
16.69875
  0
LINE
  5
291
100
AcDbEntity
  8
0
100
AcDbLine
 62
7
  6
CONTINUOUS
 10
0.30125
 20
0.30125
 11
21.69875
 21
0.30125
  0
LINE
  5
292
100
AcDbEntity
  8
0
100
AcDbLine
 62
7
  6
CONTINUOUS
 10
0.30125
 20
16.69875
 11
21.69875
 21
16.69875
  0
LINE
  5
293
100
AcDbEntity
  8
0
100
AcDbLine
 62
7
  6
CONTINUOUS
 10
21.69875
 20
0.30125
 11
21.69875
 21
16.69875
  0
LINE
  5
294
100
AcDbEntity
  8
0
100
AcDbLine
 62
7
  6
CONTINUOUS
 10
12.14287518
 20
5.0011180454
 11
7.9159835837
 21
5.2942539733
  0
LINE
  5
295
100
AcDbEntity
  8
0
100
AcDbLine
 62
7
  6
CONTINUOUS
 10
7.9159835837
 20
5.2942539733
 11
7.9159835837
 21
10.1238833909
  0
LINE
  5
296
100
AcDbEntity
  8
0
100
AcDbLine
 62
7
  6
CONTINUOUS
 10
7.9159835837
 20
10.1238833909
 11
9.85712482
 21
11.9988819546
  0
LINE
  5
297
100
AcDbEntity
  8
0
100
AcDbLine
 62
7
  6
CONTINUOUS
 10
8.8769875848
 20
9.6121140772
 11
8.8768476629
 21
9.6140641085
  0
LINE
  5
298
100
AcDbEntity
  8
0
100
AcDbLine
 62
4
  6
CONTINUOUS
 10
12.2567554643
 20
6.4189816809
 11
12.2412263347
 21
6.4184705806
  0
LINE
  5
299
100
AcDbEntity
  8
0
100
AcDbLine
 62
4
  6
CONTINUOUS
 10
12.2412263347
 20
6.5923372358
 11
12.3033428529
 21
6.5798927488
  0
LINE
  5
29A
100
AcDbEntity
  8
0
100
AcDbLine
 62
7
  6
CONTINUOUS
 10
12.14287518
 20
9.830747463
 11
14.0840164163
 21
11.7057460267
  0
LINE
  5
29B
100
AcDbEntity
  8
0
100
AcDbLine
 62
4
  6
CONTINUOUS
 10
13.9054314222
 20
8.4760906328
 11
13.8899022927
 21
8.4755795326
  0
LINE
  5
29C
100
AcDbEntity
  8
0
100
AcDbLine
 62
4
  6
CONTINUOUS
 10
13.9209605517
 20
8.7663794916
 11
13.9364896813
 21
8.7668905919
  0
LINE
  5
29D
100
AcDbEntity
  8
0
100
AcDbLine
 62
4
  6
CONTINUOUS
 10
13.2257731757
 20
8.4591721765
 11
13.2878896939
 21
8.4529372169
  0
LINE
  5
29E
100
AcDbEntity
  8
0
100
AcDbLine
 62
4
  6
CONTINUOUS
 10
13.4680275966
 20
7.942509625
 11
13.4635907009
 21
7.9437434678
  0
LINE
  5
29F
100
AcDbEntity
  8
0
100
AcDbLine
 62
4
  6
CONTINUOUS
 10
12.2826373481
 20
6.3425594468
 11
12.2774609691
 21
6.3520483363
  0
LINE
  5
2A0
100
AcDbEntity
  8
0
100
AcDbLine
 62
4
  6
CONTINUOUS
 10
12.2671082167
 20
6.4000038965
 11
12.2567554643
 21
6.4189816809
  0
LINE
  5
2A1
100
AcDbEntity
  8
0
100
AcDbLine
 62
4
  6
CONTINUOUS
 10
12.2929900986
 20
6.46847054
 11
12.2981664776
 21
6.4589816505
  0
LINE
  5
2A2
100
AcDbEntity
  8
0
100
AcDbLine
 62
4
  6
CONTINUOUS
 10
13.0891168358
 20
8.9508843664
 11
13.1512333539
 21
8.9446494068
  0
LINE
  5
2A3
100
AcDbEntity
  8
0
100
AcDbLine
 62
4
  6
CONTINUOUS
 10
13.3911214312
 20
8.7789540202
 11
13.450280021
 21
8.7698619487
  0
LINE
  5
2A4
100
AcDbEntity
  8
0
100
AcDbLine
 62
4
  6
CONTINUOUS
 10
12.3033428529
 20
9.1395962793
 11
12.2412263347
 21
9.007151887
  0
LINE
  5
2A5
100
AcDbEntity
  8
0
100
AcDbLine
 62
4
  6
CONTINUOUS
 10
12.3033428529
 20
8.8353296328
 11
12.2412263347
 21
8.7753296801
  0
LINE
  5
2A6
100
AcDbEntity
  8
0
100
AcDbLine
 62
4
  6
CONTINUOUS
 10
13.450280021
 20
9.7633856609
 11
13.4591538088
 21
9.7719570822
  0
LINE
  5
2A7
100
AcDbEntity
  8
0
100
AcDbLine
 62
4
  6
CONTINUOUS
 10
13.4147848671
 20
9.6131888695
 11
13.4236586559
 21
9.6217602917
  0
LINE
  5
2A8
100
AcDbEntity
  8
0
100
AcDbLine
 62
4
  6
CONTINUOUS
 10
13.4680275966
 20
9.5983824877
 11
13.4147848671
 21
9.5469539572
  0
LINE
  5
2A9
100
AcDbEntity
  8
0
100
AcDbLine
 62
4
  6
CONTINUOUS
 10
12.2412263347
 20
9.007151887
 11
12.3033428529
 21
8.9947074001
  0
LINE
  5
2AA
100
AcDbEntity
  8
0
100
AcDbLine
 62
4
  6
CONTINUOUS
 10
12.2774609691
 20
6.3520483363
 11
12.2671082167
 21
6.4000038965
  0
LINE
  5
2AB
100
AcDbEntity
  8
0
100
AcDbLine
 62
4
  6
CONTINUOUS
 10
12.2981664776
 20
6.4589816505
 11
12.3033428529
 21
6.4350038695
  0
LINE
  5
2AC
100
AcDbEntity
  8
0
100
AcDbLine
 62
7
  6
CONTINUOUS
 10
12.14287518
 20
9.830747463
 11
12.14287518
 21
5.0011180454
  0
LINE
  5
2AD
100
AcDbEntity
  8
0
100
AcDbLine
 62
4
  6
CONTINUOUS
 10
12.2412263347
 20
6.4184705806
 11
12.2412263347
 21
6.3025594772
  0
LINE
  5
2AE
100
AcDbEntity
  8
0
100
AcDbLine
 62
4
  6
CONTINUOUS
 10
13.0891168358
 20
9.1606282553
 11
13.1512333539
 21
9.220628208
  0
LINE
  5
2AF
100
AcDbEntity
  8
0
100
AcDbLine
 62
4
  6
CONTINUOUS
 10
13.4147848671
 20
9.4310428538
 11
13.4680275966
 21
9.4824713843
  0
LINE
  5
2B0
100
AcDbEntity
  8
0
100
AcDbLine
 62
4
  6
CONTINUOUS
 10
13.4059110784
 20
9.3562365193
 11
13.4680275966
 21
9.416236472
  0
LINE
  5
2B1
100
AcDbEntity
  8
0
100
AcDbLine
 62
4
  6
CONTINUOUS
 10
13.1423595661
 20
9.0961456971
 11
13.0979906245
 21
9.0532885879
  0
LINE
  5
2B2
100
AcDbEntity
  8
0
100
AcDbLine
 62
4
  6
CONTINUOUS
 10
13.4059110784
 20
9.2403254159
 11
13.4680275966
 21
9.3003253686
  0
LINE
  5
2B3
100
AcDbEntity
  8
0
100
AcDbLine
 62
4
  6
CONTINUOUS
 10
12.3033428529
 20
6.4350038695
 11
12.3033428529
 21
6.4060260937
  0
LINE
  5
2B4
100
AcDbEntity
  8
0
100
AcDbLine
 62
4
  6
CONTINUOUS
 10
13.0891168358
 20
8.6859446895
 11
13.1512333539
 21
8.7459446422
  0
LINE
  5
2B5
100
AcDbEntity
  8
0
100
AcDbLine
 62
4
  6
CONTINUOUS
 10
13.4059110784
 20
8.9919444878
 11
13.4680275966
 21
9.0519444405
  0
LINE
  5
2B6
100
AcDbEntity
  8
0
100
AcDbLine
 62
4
  6
CONTINUOUS
 10
13.4458431253
 20
8.9311635032
 11
13.4059110784
 21
8.8925921056
  0
LINE
  5
2B7
100
AcDbEntity
  8
0
100
AcDbLine
 62
4
  6
CONTINUOUS
 10
13.0891168358
 20
8.5534748649
 11
13.1512333539
 21
8.6134748176
  0
LINE
  5
2B8
100
AcDbEntity
  8
0
100
AcDbLine
 62
4
  6
CONTINUOUS
 10
13.2612683306
 20
8.6921626229
 11
13.2257731757
 21
8.6578769342
  0
LINE
  5
2B9
100
AcDbEntity
  8
0
100
AcDbLine
 62
4
  6
CONTINUOUS
 10
13.4103479728
 20
8.6871338863
 11
13.4458431253
 21
8.7214195728
  0
LINE
  5
2BA
100
AcDbEntity
  8
0
100
AcDbLine
 62
7
  6
CONTINUOUS
 10
7.9159835837
 20
10.1238833909
 11
12.14287518
 21
9.830747463
  0
LINE
  5
2BB
100
AcDbEntity
  8
0
100
AcDbLine
 62
4
  6
CONTINUOUS
 10
13.2523945409
 20
8.2917012883
 11
13.2878896939
 21
8.259752063
  0
LINE
  5
2BC
100
AcDbEntity
  8
0
100
AcDbLine
 62
4
  6
CONTINUOUS
 10
12.3033428529
 20
6.4060260937
 11
12.2981664776
 21
6.372048323
  0
LINE
  5
2BD
100
AcDbEntity
  8
0
100
AcDbLine
 62
4
  6
CONTINUOUS
 10
12.2981664776
 20
6.372048323
 11
12.2929900986
 21
6.3525594366
  0
LINE
  5
2BE
100
AcDbEntity
  8
0
100
AcDbLine
 62
4
  6
CONTINUOUS
 10
13.1512333539
 20
8.9446494068
 11
13.0891168358
 21
8.8184145141
  0
LINE
  5
2BF
100
AcDbEntity
  8
0
100
AcDbLine
 62
4
  6
CONTINUOUS
 10
13.4680275966
 20
8.6434958009
 11
13.4059110784
 21
8.5834958482
  0
LINE
  5
2C0
100
AcDbEntity
  8
0
100
AcDbLine
 62
4
  6
CONTINUOUS
 10
13.4059110784
 20
8.517260853
 11
13.450280021
 21
8.5601179631
  0
LINE
  5
2C1
100
AcDbEntity
  8
0
100
AcDbLine
 62
4
  6
CONTINUOUS
 10
13.0979906245
 20
8.2143129216
 11
13.1423595661
 21
8.2571700308
  0
LINE
  5
2C2
100
AcDbEntity
  8
0
100
AcDbLine
 62
4
  6
CONTINUOUS
 10
13.2257731757
 20
8.3322219349
 11
13.2878896939
 21
8.3922218876
  0
LINE
  5
2C3
100
AcDbEntity
  8
0
100
AcDbLine
 62
4
  6
CONTINUOUS
 10
13.4458431253
 20
8.4785582554
 11
13.4369693375
 21
8.4699868341
  0
LINE
  5
2C4
100
AcDbEntity
  8
0
100
AcDbLine
 62
4
  6
CONTINUOUS
 10
13.2878896939
 20
8.259752063
 11
13.2257731757
 21
8.1997521103
  0
LINE
  5
2C5
100
AcDbEntity
  8
0
100
AcDbLine
 62
4
  6
CONTINUOUS
 10
13.4103479728
 20
8.3725180183
 11
13.4236586559
 21
8.3853751516
  0
LINE
  5
2C6
100
AcDbEntity
  8
0
100
AcDbLine
 62
4
  6
CONTINUOUS
 10
13.0979906245
 20
8.0211278229
 11
13.1423595661
 21
8.0639849321
  0
LINE
  5
2C7
100
AcDbEntity
  8
0
100
AcDbLine
 62
4
  6
CONTINUOUS
 10
13.4059110784
 20
8.2688799802
 11
13.4414062333
 21
8.303165669
  0
LINE
  5
2C8
100
AcDbEntity
  8
0
100
AcDbLine
 62
4
  6
CONTINUOUS
 10
13.450280021
 20
8.2455022056
 11
13.4103479728
 21
8.2069308067
  0
LINE
  5
2C9
100
AcDbEntity
  8
0
100
AcDbLine
 62
4
  6
CONTINUOUS
 10
13.1423595661
 20
7.9480738286
 11
13.0979906245
 21
7.9052167194
  0
LINE
  5
2CA
100
AcDbEntity
  8
0
100
AcDbLine
 62
4
  6
CONTINUOUS
 10
13.0979906245
 20
7.7230707313
 11
13.0891168358
 21
7.7476167515
  0
LINE
  5
2CB
100
AcDbEntity
  8
0
100
AcDbLine
 62
4
  6
CONTINUOUS
 10
13.0979906245
 20
7.9052167194
 11
13.0891168358
 21
7.9297627396
  0
LINE
  5
2CC
100
AcDbEntity
  8
0
100
AcDbLine
 62
4
  6
CONTINUOUS
 10
13.1423595661
 20
8.0639849321
 11
13.1512333539
 21
8.039438911
  0
LINE
  5
2CD
100
AcDbEntity
  8
0
100
AcDbLine
 62
4
  6
CONTINUOUS
 10
13.0891168358
 20
8.5534748649
 11
13.0891168358
 21
8.4541224827
  0
LINE
  5
2CE
100
AcDbEntity
  8
0
100
AcDbLine
 62
4
  6
CONTINUOUS
 10
13.0891168358
 20
7.6206664269
 11
13.0891168358
 21
7.5213140999
  0
LINE
  5
2CF
100
AcDbEntity
  8
0
100
AcDbLine
 62
4
  6
CONTINUOUS
 10
13.0891168358
 20
7.7476167515
 11
13.0891168358
 21
7.8304104126
  0
LINE
  5
2D0
100
AcDbEntity
  8
0
100
AcDbLine
 62
4
  6
CONTINUOUS
 10
13.0891168358
 20
7.9297627396
 11
13.0891168358
 21
7.9794389583
  0
LINE
  5
2D1
100
AcDbEntity
  8
0
100
AcDbLine
 62
4
  6
CONTINUOUS
 10
13.0891168358
 20
8.1063891724
 11
13.0891168358
 21
8.172624057
  0
LINE
  5
2D2
100
AcDbEntity
  8
0
100
AcDbLine
 62
4
  6
CONTINUOUS
 10
13.0891168358
 20
9.0778346218
 11
13.0891168358
 21
9.1606282553
  0
LINE
  5
2D3
100
AcDbEntity
  8
0
100
AcDbLine
 62
4
  6
CONTINUOUS
 10
13.1068644132
 20
8.9459489066
 11
13.1068644132
 21
8.8576356902
  0
LINE
  5
2D4
100
AcDbEntity
  8
0
100
AcDbLine
 62
4
  6
CONTINUOUS
 10
13.1246119906
 20
7.588717231
 11
13.1246119906
 21
7.6549521157
  0
LINE
  5
2D5
100
AcDbEntity
  8
0
100
AcDbLine
 62
4
  6
CONTINUOUS
 10
13.1246119906
 20
8.5215256138
 11
13.1246119906
 21
8.5877605537
  0
LINE
  5
2D6
100
AcDbEntity
  8
0
100
AcDbLine
 62
4
  6
CONTINUOUS
 10
13.1512333539
 20
9.220628208
 11
13.1512333539
 21
9.1378345745
  0
LINE
  5
2D7
100
AcDbEntity
  8
0
100
AcDbLine
 62
4
  6
CONTINUOUS
 10
13.1512333539
 20
8.8121795822
 11
13.1512333539
 21
8.6797097576
  0
LINE
  5
2D8
100
AcDbEntity
  8
0
100
AcDbLine
 62
4
  6
CONTINUOUS
 10
13.1512333539
 20
8.6134748176
 11
13.1512333539
 21
8.5141224354
  0
LINE
  5
2D9
100
AcDbEntity
  8
0
100
AcDbLine
 62
4
  6
CONTINUOUS
 10
13.1512333539
 20
8.2326240097
 11
13.1512333539
 21
8.1663891251
  0
LINE
  5
2DA
100
AcDbEntity
  8
0
100
AcDbLine
 62
4
  6
CONTINUOUS
 10
13.1512333539
 20
8.039438911
 11
13.1512333539
 21
7.9897626923
  0
LINE
  5
2DB
100
AcDbEntity
  8
0
100
AcDbLine
 62
4
  6
CONTINUOUS
 10
13.1512333539
 20
7.8904103653
 11
13.1512333539
 21
7.8076167042
  0
LINE
  5
2DC
100
AcDbEntity
  8
0
100
AcDbLine
 62
4
  6
CONTINUOUS
 10
13.1512333539
 20
7.6806663796
 11
13.1512333539
 21
7.5813140526
  0
LINE
  5
2DD
100
AcDbEntity
  8
0
100
AcDbLine
 62
4
  6
CONTINUOUS
 10
13.115738201
 20
9.3188123594
 11
13.103906483
 21
9.2190705735
  0
LINE
  5
2DE
100
AcDbEntity
  8
0
100
AcDbLine
 62
4
  6
CONTINUOUS
 10
13.4236586559
 20
9.6217602917
 11
13.450280021
 21
9.7633856609
  0
LINE
  5
2DF
100
AcDbEntity
  8
0
100
AcDbLine
 62
4
  6
CONTINUOUS
 10
13.1512333539
 20
9.1378345745
 11
13.1423595661
 21
9.0961456971
  0
LINE
  5
2E0
100
AcDbEntity
  8
0
100
AcDbLine
 62
4
  6
CONTINUOUS
 10
13.4103479728
 20
9.7248142619
 11
13.4059110784
 21
9.703969821
  0
LINE
  5
2E1
100
AcDbEntity
  8
0
100
AcDbLine
 62
4
  6
CONTINUOUS
 10
13.0891168358
 20
8.172624057
 11
13.0979906245
 21
8.2143129216
  0
LINE
  5
2E2
100
AcDbEntity
  8
0
100
AcDbLine
 62
4
  6
CONTINUOUS
 10
13.4147848671
 20
9.5469539572
 11
13.4059110784
 21
9.5052650789
  0
LINE
  5
2E3
100
AcDbEntity
  8
0
100
AcDbLine
 62
4
  6
CONTINUOUS
 10
13.0891168358
 20
7.9794389583
 11
13.0979906245
 21
8.0211278229
  0
LINE
  5
2E4
100
AcDbEntity
  8
0
100
AcDbLine
 62
4
  6
CONTINUOUS
 10
13.4680275966
 20
9.6811761281
 11
13.4635907009
 21
9.6603316876
  0
LINE
  5
2E5
100
AcDbEntity
  8
0
100
AcDbLine
 62
4
  6
CONTINUOUS
 10
13.1512333539
 20
7.9897626923
 11
13.1423595661
 21
7.9480738286
  0
LINE
  5
2E6
100
AcDbEntity
  8
0
100
AcDbLine
 62
4
  6
CONTINUOUS
 10
13.2878896939
 20
8.7841118061
 11
13.2612683306
 21
8.6921626229
  0
LINE
  5
2E7
100
AcDbEntity
  8
0
100
AcDbLine
 62
4
  6
CONTINUOUS
 10
13.4680275966
 20
9.416236472
 11
13.4059110784
 21
9.2403254159
  0
LINE
  5
2E8
100
AcDbEntity
  8
0
100
AcDbLine
 62
4
  6
CONTINUOUS
 10
13.2878896939
 20
8.3922218876
 11
13.2523945409
 21
8.2917012883
  0
LINE
  5
2E9
100
AcDbEntity
  8
0
100
AcDbLine
 62
4
  6
CONTINUOUS
 10
12.3033428529
 20
6.7247816281
 11
12.2412263347
 21
6.5923372358
  0
LINE
  5
2EA
100
AcDbEntity
  8
0
100
AcDbLine
 62
4
  6
CONTINUOUS
 10
13.450280021
 20
8.8692142757
 11
13.4059110784
 21
8.7766809469
  0
LINE
  5
2EB
100
AcDbEntity
  8
0
100
AcDbLine
 62
4
  6
CONTINUOUS
 10
13.2878896939
 20
8.5854070553
 11
13.2257731757
 21
8.4591721765
  0
LINE
  5
2EC
100
AcDbEntity
  8
0
100
AcDbLine
 62
4
  6
CONTINUOUS
 10
13.0891168358
 20
7.8304104126
 11
13.1512333539
 21
7.8904103653
  0
LINE
  5
2ED
100
AcDbEntity
  8
0
100
AcDbLine
 62
4
  6
CONTINUOUS
 10
13.4059110784
 20
8.103292658
 11
13.450280021
 21
8.1461497681
  0
LINE
  5
2EE
100
AcDbEntity
  8
0
100
AcDbLine
 62
4
  6
CONTINUOUS
 10
13.4103479728
 20
8.0413434845
 11
13.4680275966
 21
8.097057726
  0
LINE
  5
2EF
100
AcDbEntity
  8
0
100
AcDbLine
 62
4
  6
CONTINUOUS
 10
13.1423595661
 20
7.7659278405
 11
13.0979906245
 21
7.7230707313
  0
LINE
  5
2F0
100
AcDbEntity
  8
0
100
AcDbLine
 62
4
  6
CONTINUOUS
 10
13.0891168358
 20
7.6206664269
 11
13.1512333539
 21
7.6806663796
  0
LINE
  5
2F1
100
AcDbEntity
  8
0
100
AcDbLine
 62
4
  6
CONTINUOUS
 10
13.9416660566
 20
8.4096683885
 11
13.931313306
 21
8.3996683988
  0
LINE
  5
2F2
100
AcDbEntity
  8
0
100
AcDbLine
 62
4
  6
CONTINUOUS
 10
13.4059110784
 20
7.8880292276
 11
13.450280021
 21
7.9308863377
  0
LINE
  5
2F3
100
AcDbEntity
  8
0
100
AcDbLine
 62
4
  6
CONTINUOUS
 10
13.4635907009
 20
7.9437434678
 11
13.4680275966
 21
7.9480291803
  0
LINE
  5
2F4
100
AcDbEntity
  8
0
100
AcDbLine
 62
4
  6
CONTINUOUS
 10
13.4103479728
 20
7.8040017223
 11
13.4458431253
 21
7.8382874088
  0
LINE
  5
2F5
100
AcDbEntity
  8
0
100
AcDbLine
 62
4
  6
CONTINUOUS
 10
13.2612683306
 20
8.6921626229
 11
13.2878896939
 21
8.6516419676
  0
LINE
  5
2F6
100
AcDbEntity
  8
0
100
AcDbLine
 62
4
  6
CONTINUOUS
 10
13.1423595661
 20
8.2571700308
 11
13.1512333539
 21
8.2326240097
  0
LINE
  5
2F7
100
AcDbEntity
  8
0
100
AcDbLine
 62
4
  6
CONTINUOUS
 10
13.4059110784
 20
7.5678938043
 11
13.4103479728
 21
7.5556208495
  0
LINE
  5
2F8
100
AcDbEntity
  8
0
100
AcDbLine
 62
4
  6
CONTINUOUS
 10
13.4458431253
 20
7.6892587525
 11
13.450280021
 21
7.6769857991
  0
LINE
  5
2F9
100
AcDbEntity
  8
0
100
AcDbLine
 62
4
  6
CONTINUOUS
 10
13.4458431253
 20
7.8382874088
 11
13.450280021
 21
7.8260144554
  0
LINE
  5
2FA
100
AcDbEntity
  8
0
100
AcDbLine
 62
4
  6
CONTINUOUS
 10
13.0979906245
 20
9.0532885879
 11
13.0891168358
 21
9.0778346218
  0
LINE
  5
2FB
100
AcDbEntity
  8
0
100
AcDbLine
 62
4
  6
CONTINUOUS
 10
13.115738201
 20
7.3924802645
 11
13.103906483
 21
7.4693649183
  0
LINE
  5
2FC
100
AcDbEntity
  8
0
100
AcDbLine
 62
4
  6
CONTINUOUS
 10
13.1275699198
 20
9.2419276996
 11
13.115738201
 21
9.3188123594
  0
LINE
  5
2FD
100
AcDbEntity
  8
0
100
AcDbLine
 62
4
  6
CONTINUOUS
 10
13.3911214312
 20
8.8120714626
 11
13.3911214312
 21
8.7789540202
  0
LINE
  5
2FE
100
AcDbEntity
  8
0
100
AcDbLine
 62
4
  6
CONTINUOUS
 10
13.4059110784
 20
9.703969821
 11
13.4059110784
 21
9.6377349035
  0
LINE
  5
2FF
100
AcDbEntity
  8
0
100
AcDbLine
 62
4
  6
CONTINUOUS
 10
13.4059110784
 20
9.5052650789
 11
13.4059110784
 21
9.4555888739
  0
LINE
  5
300
100
AcDbEntity
  8
0
100
AcDbLine
 62
4
  6
CONTINUOUS
 10
13.4059110784
 20
8.1860863191
 11
13.4059110784
 21
8.103292658
  0
LINE
  5
301
100
AcDbEntity
  8
0
100
AcDbLine
 62
4
  6
CONTINUOUS
 10
13.4059110784
 20
7.634128689
 11
13.4059110784
 21
7.5678938043
  0
LINE
  5
302
100
AcDbEntity
  8
0
100
AcDbLine
 62
4
  6
CONTINUOUS
 10
13.4059110784
 20
7.7169222395
 11
13.4059110784
 21
7.7831573453
  0
LINE
  5
303
100
AcDbEntity
  8
0
100
AcDbLine
 62
4
  6
CONTINUOUS
 10
13.4059110784
 20
7.9873815546
 11
13.4059110784
 21
8.0204989969
  0
LINE
  5
304
100
AcDbEntity
  8
0
100
AcDbLine
 62
4
  6
CONTINUOUS
 10
13.4059110784
 20
8.2688799802
 11
13.4059110784
 21
8.3351148649
  0
LINE
  5
305
100
AcDbEntity
  8
0
100
AcDbLine
 62
4
  6
CONTINUOUS
 10
13.4059110784
 20
8.5834958482
 11
13.4059110784
 21
8.6497307328
  0
LINE
  5
306
100
AcDbEntity
  8
0
100
AcDbLine
 62
4
  6
CONTINUOUS
 10
13.4280955497
 20
8.3565434199
 11
13.4280955497
 21
8.2903085353
  0
LINE
  5
307
100
AcDbEntity
  8
0
100
AcDbLine
 62
4
  6
CONTINUOUS
 10
13.450280021
 20
9.0348015979
 11
13.450280021
 21
8.9520079368
  0
LINE
  5
308
100
AcDbEntity
  8
0
100
AcDbLine
 62
4
  6
CONTINUOUS
 10
13.450280021
 20
8.6925878429
 11
13.450280021
 21
8.6263529583
  0
LINE
  5
309
100
AcDbEntity
  8
0
100
AcDbLine
 62
4
  6
CONTINUOUS
 10
13.450280021
 20
8.5601179631
 11
13.450280021
 21
8.4938830784
  0
LINE
  5
30A
100
AcDbEntity
  8
0
100
AcDbLine
 62
4
  6
CONTINUOUS
 10
13.450280021
 20
7.8260144554
 11
13.450280021
 21
7.7597793496
  0
LINE
  5
30B
100
AcDbEntity
  8
0
100
AcDbLine
 62
4
  6
CONTINUOUS
 10
13.450280021
 20
7.6769857991
 11
13.450280021
 21
7.6107509144
  0
LINE
  5
30C
100
AcDbEntity
  8
0
100
AcDbLine
 62
4
  6
CONTINUOUS
 10
13.450280021
 20
8.3282957562
 11
13.450280021
 21
8.4110894173
  0
LINE
  5
30D
100
AcDbEntity
  8
0
100
AcDbLine
 62
4
  6
CONTINUOUS
 10
13.4680275966
 20
9.7474110439
 11
13.4680275966
 21
9.6811761281
  0
LINE
  5
30E
100
AcDbEntity
  8
0
100
AcDbLine
 62
4
  6
CONTINUOUS
 10
13.4680275966
 20
7.9480291803
 11
13.4680275966
 21
7.942509625
  0
LINE
  5
30F
100
AcDbEntity
  8
0
100
AcDbLine
 62
4
  6
CONTINUOUS
 10
13.4266165851
 20
7.5878937892
 11
13.4295745144
 21
7.6569858143
  0
LINE
  5
310
100
AcDbEntity
  8
0
100
AcDbLine
 62
4
  6
CONTINUOUS
 10
13.1275699198
 20
7.4922220445
 11
13.115738201
 21
7.3924802645
  0
LINE
  5
311
100
AcDbEntity
  8
0
100
AcDbLine
 62
4
  6
CONTINUOUS
 10
13.4059110784
 20
8.6497307328
 11
13.4103479728
 21
8.6871338863
  0
LINE
  5
312
100
AcDbEntity
  8
0
100
AcDbLine
 62
4
  6
CONTINUOUS
 10
13.4059110784
 20
8.3351148649
 11
13.4103479728
 21
8.3725180183
  0
LINE
  5
313
100
AcDbEntity
  8
0
100
AcDbLine
 62
4
  6
CONTINUOUS
 10
13.4295745144
 20
7.6569858143
 11
13.4325324436
 21
7.6764016206
  0
LINE
  5
314
100
AcDbEntity
  8
0
100
AcDbLine
 62
4
  6
CONTINUOUS
 10
13.1512333539
 20
7.8076167042
 11
13.1423595661
 21
7.7659278405
  0
LINE
  5
315
100
AcDbEntity
  8
0
100
AcDbLine
 62
4
  6
CONTINUOUS
 10
13.450280021
 20
8.9520079368
 11
13.4458431253
 21
8.9311635032
  0
LINE
  5
316
100
AcDbEntity
  8
0
100
AcDbLine
 62
4
  6
CONTINUOUS
 10
13.4103479728
 20
8.2069308067
 11
13.4059110784
 21
8.1860863191
  0
LINE
  5
317
100
AcDbEntity
  8
0
100
AcDbLine
 62
4
  6
CONTINUOUS
 10
13.4059110784
 20
8.0204989969
 11
13.4103479728
 21
8.0413434845
  0
LINE
  5
318
100
AcDbEntity
  8
0
100
AcDbLine
 62
4
  6
CONTINUOUS
 10
13.4059110784
 20
7.7831573453
 11
13.4103479728
 21
7.8040017223
  0
LINE
  5
319
100
AcDbEntity
  8
0
100
AcDbLine
 62
4
  6
CONTINUOUS
 10
13.450280021
 20
8.4938830784
 11
13.4458431253
 21
8.4785582554
  0
LINE
  5
31A
100
AcDbEntity
  8
0
100
AcDbLine
 62
4
  6
CONTINUOUS
 10
13.4414062333
 20
8.303165669
 11
13.450280021
 21
8.3282957562
  0
LINE
  5
31B
100
AcDbEntity
  8
0
100
AcDbLine
 62
4
  6
CONTINUOUS
 10
13.9054314222
 20
8.7368906155
 11
13.9209605517
 21
8.7663794916
  0
LINE
  5
31C
100
AcDbEntity
  8
0
100
AcDbLine
 62
4
  6
CONTINUOUS
 10
13.4325324436
 20
7.6764016206
 11
13.4458431253
 21
7.6892587525
  0
LINE
  5
31D
100
AcDbEntity
  8
0
100
AcDbLine
 62
4
  6
CONTINUOUS
 10
13.4103479728
 20
7.5556208495
 11
13.4236586559
 21
7.5684779828
  0
LINE
  5
31E
100
AcDbEntity
  8
0
100
AcDbLine
 62
4
  6
CONTINUOUS
 10
12.2929900986
 20
6.3525594366
 11
12.2826373481
 21
6.3425594468
  0
LINE
  5
31F
100
AcDbEntity
  8
0
100
AcDbLine
 62
4
  6
CONTINUOUS
 10
13.931313306
 20
8.3996683988
 11
13.926136927
 21
8.4091572883
  0
LINE
  5
320
100
AcDbEntity
  8
0
100
AcDbLine
 62
4
  6
CONTINUOUS
 10
13.4236586559
 20
8.3853751516
 11
13.4280955497
 21
8.3565434199
  0
LINE
  5
321
100
AcDbEntity
  8
0
100
AcDbLine
 62
4
  6
CONTINUOUS
 10
13.4458431253
 20
8.7214195728
 11
13.450280021
 21
8.6925878429
  0
LINE
  5
322
100
AcDbEntity
  8
0
100
AcDbLine
 62
4
  6
CONTINUOUS
 10
13.4236586559
 20
7.5684779828
 11
13.4266165851
 21
7.5878937892
  0
LINE
  5
323
100
AcDbEntity
  8
0
100
AcDbLine
 62
4
  6
CONTINUOUS
 10
13.8899022927
 20
8.6639350756
 11
13.8950786693
 21
8.6979128477
  0
LINE
  5
324
100
AcDbEntity
  8
0
100
AcDbLine
 62
4
  6
CONTINUOUS
 10
13.4103479728
 20
7.654973066
 11
13.4059110784
 21
7.634128689
  0
LINE
  5
325
100
AcDbEntity
  8
0
100
AcDbLine
 62
4
  6
CONTINUOUS
 10
13.450280021
 20
7.6107509144
 11
13.4458431253
 21
7.5899065361
  0
LINE
  5
326
100
AcDbEntity
  8
0
100
AcDbLine
 62
4
  6
CONTINUOUS
 10
13.8950786693
 20
8.6979128477
 11
13.9054314222
 21
8.7368906155
  0
LINE
  5
327
100
AcDbEntity
  8
0
100
AcDbLine
 62
4
  6
CONTINUOUS
 10
13.9468424355
 20
8.6609794818
 11
13.9416660566
 21
8.6414905954
  0
LINE
  5
328
100
AcDbEntity
  8
0
100
AcDbLine
 62
4
  6
CONTINUOUS
 10
13.9157841746
 20
8.4571128485
 11
13.9054314222
 21
8.4760906328
  0
LINE
  5
329
100
AcDbEntity
  8
0
100
AcDbLine
 62
4
  6
CONTINUOUS
 10
13.9416660566
 20
8.525579492
 11
13.9468424355
 21
8.5160906025
  0
LINE
  5
32A
100
AcDbEntity
  8
0
100
AcDbLine
 62
4
  6
CONTINUOUS
 10
13.900255046
 20
8.6014906284
 11
13.8950786693
 21
8.6109795201
  0
LINE
  5
32B
100
AcDbEntity
  8
0
100
AcDbLine
 62
4
  6
CONTINUOUS
 10
13.9364896813
 20
8.7668905919
 11
13.9468424355
 21
8.7479128093
  0
LINE
  5
32C
100
AcDbEntity
  8
0
100
AcDbLine
 62
4
  6
CONTINUOUS
 10
13.4059110784
 20
9.4555888739
 11
13.4147848671
 21
9.4310428538
  0
LINE
  5
32D
100
AcDbEntity
  8
0
100
AcDbLine
 62
4
  6
CONTINUOUS
 10
13.4059110784
 20
9.6377349035
 11
13.4147848671
 21
9.6131888695
  0
LINE
  5
32E
100
AcDbEntity
  8
0
100
AcDbLine
 62
4
  6
CONTINUOUS
 10
13.4591538088
 20
9.7719570822
 11
13.4680275966
 21
9.7474110439
  0
LINE
  5
32F
100
AcDbEntity
  8
0
100
AcDbLine
 62
4
  6
CONTINUOUS
 10
13.8899022927
 20
8.4755795326
 11
13.8899022927
 21
8.3596684291
  0
LINE
  5
330
100
AcDbEntity
  8
0
100
AcDbLine
 62
4
  6
CONTINUOUS
 10
13.8899022927
 20
8.6349572998
 11
13.8899022927
 21
8.6639350756
  0
LINE
  5
331
100
AcDbEntity
  8
0
100
AcDbLine
 62
4
  6
CONTINUOUS
 10
13.9520188108
 20
8.7239350283
 11
13.9520188108
 21
8.6949572525
  0
LINE
  5
332
100
AcDbEntity
  8
0
100
AcDbLine
 62
4
  6
CONTINUOUS
 10
13.9520188108
 20
8.4921128215
 11
13.9520188108
 21
8.4631350456
  0
LINE
  5
333
100
AcDbEntity
  8
0
100
AcDbLine
 62
7
  6
CONTINUOUS
 10
14.0840164163
 20
11.7057460267
 11
14.0840164163
 21
6.8761166091
  0
LINE
  5
334
100
AcDbEntity
  8
0
100
AcDbLine
 62
4
  6
CONTINUOUS
 10
13.9520188108
 20
8.6949572525
 11
13.9468424355
 21
8.6609794818
  0
LINE
  5
335
100
AcDbEntity
  8
0
100
AcDbLine
 62
4
  6
CONTINUOUS
 10
13.9520188108
 20
8.4631350456
 11
13.9468424355
 21
8.4291572749
  0
LINE
  5
336
100
AcDbEntity
  8
0
100
AcDbLine
 62
4
  6
CONTINUOUS
 10
13.9468424355
 20
8.4291572749
 11
13.9416660566
 21
8.4096683885
  0
LINE
  5
337
100
AcDbEntity
  8
0
100
AcDbLine
 62
4
  6
CONTINUOUS
 10
13.926136927
 20
8.4091572883
 11
13.9157841746
 21
8.4571128485
  0
LINE
  5
338
100
AcDbEntity
  8
0
100
AcDbLine
 62
4
  6
CONTINUOUS
 10
13.8950786693
 20
8.6109795201
 11
13.8899022927
 21
8.6349572998
  0
LINE
  5
339
100
AcDbEntity
  8
0
100
AcDbLine
 62
4
  6
CONTINUOUS
 10
13.9468424355
 20
8.5160906025
 11
13.9520188108
 21
8.4921128215
  0
LINE
  5
33A
100
AcDbEntity
  8
0
100
AcDbLine
 62
4
  6
CONTINUOUS
 10
13.9468424355
 20
8.7479128093
 11
13.9520188108
 21
8.7239350283
  0
LINE
  5
33B
100
AcDbEntity
  8
0
100
AcDbLine
 62
7
  6
CONTINUOUS
 10
12.14287518
 20
5.0011180454
 11
14.0840164163
 21
6.8761166091
  0
LINE
  5
33C
100
AcDbEntity
  8
0
100
AcDbLine
 62
7
  6
CONTINUOUS
 10
9.85712482
 20
11.9988819546
 11
14.0840164163
 21
11.7057460267
  0
ARC
  5
33D
100
AcDbEntity
  8
0
100
AcDbCircle
 62
7
  6
CONTINUOUS
 10
11.6050568218
 20
7.2066707653
 40
0.3357019684
100
AcDbArc
 50
171.9309034739
 51
175.5831339162
  0
ARC
  5
33E
100
AcDbEntity
  8
0
100
AcDbCircle
 62
7
  6
CONTINUOUS
 10
9.8400517392
 20
8.8659923176
 40
0.2759520628
100
AcDbArc
 50
183.8486459846
 51
191.7160521394
  0
SPLINE
  5
33F
100
AcDbEntity
  8
0
100
AcDbSpline
 62
7
  6
CONTINUOUS
 70
0
 71
3
 72
53
 73
49
 74
0
 42
0.0000001
 43
0.0000001
 44
0.0000000001
 40
0.0
 40
0.0
 40
0.0
 40
0.0
 40
0.0417737855
 40
0.0840372804
 40
0.1266586658
 40
0.1695068268
 40
0.2124484817
 40
0.2553505161
 40
0.2980797819
 40
0.3405038709
 40
0.3824915641
 40
0.4239133811
 40
0.4646421101
 40
0.5045533515
 40
0.5435260687
 40
0.5814431539
 40
0.6181920188
 40
0.6536652174
 40
0.6877611189
 40
0.7203846489
 40
0.7361168986
 40
0.751448868
 40
0.7663708503
 40
0.7808738904
 40
0.7949495081
 40
0.8085900804
 40
0.821788593
 40
0.8345389529
 40
0.8468359066
 40
0.8586751859
 40
0.8700536732
 40
0.8809693639
 40
0.891421781
 40
0.9014118319
 40
0.9109423967
 40
0.9200182439
 40
0.9286466706
 40
0.9368376675
 40
0.9446045284
 40
0.9519643801
 40
0.9589387458
 40
0.9655544017
 40
0.9718438599
 40
0.9778462342
 40
0.9836073809
 40
0.9891800528
 40
0.994623075
 40
1.0
 40
1.0
 40
1.0
 40
1.0
 10
12.5230800435
 20
8.7491083564
 30
0.0
 10
12.5230800435
 20
8.7590145775
 30
0.0
 10
12.5232346006
 20
8.7789434604
 30
0.0
 10
12.5239178173
 20
8.808972524
 30
0.0
 10
12.5250518378
 20
8.8392429491
 30
0.0
 10
12.5266328748
 20
8.8696543199
 30
0.0
 10
12.528655754
 20
8.9001061979
 30
0.0
 10
12.5311137606
 20
8.9304977599
 30
0.0
 10
12.5339987654
 20
8.9607284867
 30
0.0
 10
12.5373011998
 20
8.9906983584
 30
0.0
 10
12.5410101093
 20
9.0203082344
 30
0.0
 10
12.5451131813
 20
9.0494601699
 30
0.0
 10
12.5495967871
 20
9.0780577475
 30
0.0
 10
12.5544460239
 20
9.1060064008
 30
0.0
 10
12.5596447662
 20
9.1332137297
 30
0.0
 10
12.5651757163
 20
9.159589818
 30
0.0
 10
12.571020464
 20
9.1850475185
 30
0.0
 10
12.5771595354
 20
9.2095028217
 30
0.0
 10
12.5835724956
 20
9.2328749021
 30
0.0
 10
12.5891928281
 20
9.2516046261
 30
0.0
 10
12.5938191968
 20
9.2659818987
 30
0.0
 10
12.5973019941
 20
9.2763163348
 30
0.0
 10
12.6008369795
 20
9.2863244241
 30
0.0
 10
12.6044211563
 20
9.2959979293
 30
0.0
 10
12.6080516405
 20
9.3053288524
 30
0.0
 10
12.6117253404
 20
9.314309517
 30
0.0
 10
12.6154392808
 20
9.3229325135
 30
0.0
 10
12.6191903468
 20
9.3311907544
 30
0.0
 10
12.6229754491
 20
9.3390774532
 30
0.0
 10
12.6267914875
 20
9.3465861304
 30
0.0
 10
12.6306352639
 20
9.3537106578
 30
0.0
 10
12.6345037111
 20
9.3604451835
 30
0.0
 10
12.6383935593
 20
9.3667842661
 30
0.0
 10
12.6423017728
 20
9.3727227072
 30
0.0
 10
12.6462250843
 20
9.3782557621
 30
0.0
 10
12.6501604792
 20
9.3833789204
 30
0.0
 10
12.6541047946
 20
9.3880881127
 30
0.0
 10
12.6580550496
 20
9.3923795382
 30
0.0
 10
12.6620082884
 20
9.3962497356
 30
0.0
 10
12.6659616144
 20
9.399695578
 30
0.0
 10
12.6699123405
 20
9.4027140614
 30
0.0
 10
12.6738576929
 20
9.4053025669
 30
0.0
 10
12.6777951433
 20
9.4074582935
 30
0.0
 10
12.6817218816
 20
9.4091788219
 30
0.0
 10
12.6856349876
 20
9.4104613837
 30
0.0
 10
12.6895311556
 20
9.4113036732
 30
0.0
 10
12.6934057056
 20
9.4117035297
 30
0.0
 10
12.6959780717
 20
9.4116741063
 30
0.0
 10
12.697250098
 20
9.411585881
 30
0.0
  0
SPLINE
  5
340
100
AcDbEntity
  8
0
100
AcDbSpline
 62
7
  6
CONTINUOUS
 70
0
 71
3
 72
53
 73
49
 74
0
 42
0.0000001
 43
0.0000001
 44
0.0000000001
 40
0.0
 40
0.0
 40
0.0
 40
0.0
 40
0.0417737855
 40
0.0840372804
 40
0.1266586658
 40
0.1695068268
 40
0.2124484817
 40
0.2553505161
 40
0.2980797819
 40
0.3405038709
 40
0.3824915641
 40
0.4239133811
 40
0.4646421101
 40
0.5045533515
 40
0.5435260687
 40
0.5814431539
 40
0.6181920188
 40
0.6536652174
 40
0.6877611189
 40
0.7203846489
 40
0.7361168986
 40
0.751448868
 40
0.7663708503
 40
0.7808738904
 40
0.7949495081
 40
0.8085900804
 40
0.821788593
 40
0.8345389529
 40
0.8468359066
 40
0.8586751859
 40
0.8700536732
 40
0.8809693639
 40
0.891421781
 40
0.9014118319
 40
0.9109423967
 40
0.9200182439
 40
0.9286466706
 40
0.9368376675
 40
0.9446045284
 40
0.9519643801
 40
0.9589387458
 40
0.9655544017
 40
0.9718438599
 40
0.9778462342
 40
0.9836073809
 40
0.9891800528
 40
0.994623075
 40
1.0
 40
1.0
 40
1.0
 40
1.0
 10
12.5230800435
 20
5.9711055854
 30
0.0
 10
12.5230800435
 20
5.9810118065
 30
0.0
 10
12.5232346006
 20
6.0009406894
 30
0.0
 10
12.5239178173
 20
6.030969753
 30
0.0
 10
12.5250518378
 20
6.0612401781
 30
0.0
 10
12.5266328748
 20
6.0916515489
 30
0.0
 10
12.528655754
 20
6.1221034269
 30
0.0
 10
12.5311137606
 20
6.1524949889
 30
0.0
 10
12.5339987654
 20
6.1827257157
 30
0.0
 10
12.5373011998
 20
6.2126955874
 30
0.0
 10
12.5410101093
 20
6.2423054634
 30
0.0
 10
12.5451131813
 20
6.2714573989
 30
0.0
 10
12.5495967871
 20
6.3000549765
 30
0.0
 10
12.5544460239
 20
6.3280036298
 30
0.0
 10
12.5596447662
 20
6.3552109587
 30
0.0
 10
12.5651757163
 20
6.381587047
 30
0.0
 10
12.571020464
 20
6.4070447475
 30
0.0
 10
12.5771595354
 20
6.4315000507
 30
0.0
 10
12.5835724956
 20
6.4548721311
 30
0.0
 10
12.5891928281
 20
6.4736018551
 30
0.0
 10
12.5938191968
 20
6.4879791277
 30
0.0
 10
12.5973019941
 20
6.4983135638
 30
0.0
 10
12.6008369795
 20
6.5083216531
 30
0.0
 10
12.6044211563
 20
6.5179951583
 30
0.0
 10
12.6080516405
 20
6.5273260814
 30
0.0
 10
12.6117253404
 20
6.536306746
 30
0.0
 10
12.6154392808
 20
6.5449297425
 30
0.0
 10
12.6191903468
 20
6.5531879834
 30
0.0
 10
12.6229754491
 20
6.5610746822
 30
0.0
 10
12.6267914875
 20
6.5685833594
 30
0.0
 10
12.6306352639
 20
6.5757078868
 30
0.0
 10
12.6345037111
 20
6.5824424125
 30
0.0
 10
12.6383935593
 20
6.5887814951
 30
0.0
 10
12.6423017728
 20
6.5947199362
 30
0.0
 10
12.6462250843
 20
6.6002529911
 30
0.0
 10
12.6501604792
 20
6.6053761494
 30
0.0
 10
12.6541047946
 20
6.6100853417
 30
0.0
 10
12.6580550496
 20
6.6143767672
 30
0.0
 10
12.6620082884
 20
6.6182469646
 30
0.0
 10
12.6659616144
 20
6.621692807
 30
0.0
 10
12.6699123405
 20
6.6247112904
 30
0.0
 10
12.6738576929
 20
6.6272997959
 30
0.0
 10
12.6777951433
 20
6.6294555225
 30
0.0
 10
12.6817218816
 20
6.6311760509
 30
0.0
 10
12.6856349876
 20
6.6324586127
 30
0.0
 10
12.6895311556
 20
6.6333009022
 30
0.0
 10
12.6934057056
 20
6.6337007587
 30
0.0
 10
12.6959780717
 20
6.6336713353
 30
0.0
 10
12.697250098
 20
6.63358311
 30
0.0
  0
SPLINE
  5
341
100
AcDbEntity
  8
0
100
AcDbSpline
 62
7
  6
CONTINUOUS
 70
0
 71
3
 72
66
 73
62
 74
0
 42
0.0000001
 43
0.0000001
 44
0.0000000001
 40
0.0
 40
0.0
 40
0.0
 40
0.0
 40
0.0712856657
 40
0.1069818862
 40
0.1427480275
 40
0.1606679236
 40
0.1786186636
 40
0.2146337235
 40
0.2327115764
 40
0.2508456198
 40
0.2873158566
 40
0.32412507
 40
0.3613756979
 40
0.3992016934
 40
0.4377819222
 40
0.4574294857
 40
0.4773639886
 40
0.497630899
 40
0.5182836111
 40
0.5393840872
 40
0.5610014942
 40
0.5832061997
 40
0.6060517287
 40
0.6177180348
 40
0.6295326128
 40
0.6414688718
 40
0.6534809656
 40
0.6654987044
 40
0.6774254477
 40
0.6891423794
 40
0.7005212999
 40
0.7114440452
 40
0.7218214339
 40
0.7407702689
 40
0.7573891426
 40
0.7720126247
 40
0.7850483726
 40
0.7968614061
 40
0.8077468608
 40
0.8129178472
 40
0.817938849
 40
0.8228306971
 40
0.8276116173
 40
0.8369009444
 40
0.8459177547
 40
0.850352131
 40
0.8547485692
 40
0.8591149058
 40
0.8634580874
 40
0.8677844464
 40
0.8720996169
 40
0.8807145015
 40
0.8893385569
 40
0.906713426
 40
0.9155117629
 40
0.924402977
 40
0.9333999391
 40
0.9425126028
 40
0.9611154732
 40
0.9802662415
 40
1.0
 40
1.0
 40
1.0
 40
1.0
 10
11.6060446696
 20
7.1718268134
 30
0.0
 10
11.5915017962
 20
7.1713216391
 30
0.0
 10
11.5696583817
 20
7.1709806115
 30
0.0
 10
11.5405210083
 20
7.1714349284
 30
0.0
 10
11.5222863376
 20
7.1721196662
 30
0.0
 10
11.5076847351
 20
7.1729217477
 30
0.0
 10
11.4930431243
 20
7.1739021473
 30
0.0
 10
11.4783883843
 20
7.1751559297
 30
0.0
 10
11.4637257099
 20
7.1767040398
 30
0.0
 10
11.4489933702
 20
7.1784641121
 30
0.0
 10
11.4305136812
 20
7.1810758258
 30
0.0
 10
11.4082783722
 20
7.1849282639
 30
0.0
 10
11.3859164775
 20
7.1895990272
 30
0.0
 10
11.3633983273
 20
7.1952114257
 30
0.0
 10
11.3445891384
 20
7.2007776928
 30
0.0
 10
11.3294682723
 20
7.205875165
 30
0.0
 10
11.3180003904
 20
7.2100924472
 30
0.0
 10
11.3064723717
 20
7.2147256155
 30
0.0
 10
11.2948837233
 20
7.2198293789
 30
0.0
 10
11.2832392699
 20
7.225470866
 30
0.0
 10
11.2715539142
 20
7.2317317333
 30
0.0
 10
11.2598632353
 20
7.2387084709
 30
0.0
 10
11.2502440476
 20
7.2451641823
 30
0.0
 10
11.2426413996
 20
7.2507905044
 30
0.0
 10
11.2369761338
 20
7.2552844892
 30
0.0
 10
11.2314243059
 20
7.2600276463
 30
0.0
 10
11.2260336601
 20
7.2650149977
 30
0.0
 10
11.2208631551
 20
7.2702280048
 30
0.0
 10
11.2159804646
 20
7.2756310793
 30
0.0
 10
11.2114559299
 20
7.2811705485
 30
0.0
 10
11.2073535327
 20
7.2867777244
 30
0.0
 10
11.2037207807
 20
7.2923773449
 30
0.0
 10
11.1996579124
 20
7.2995227016
 30
0.0
 10
11.1957420891
 20
7.3080729011
 30
0.0
 10
11.1926547801
 20
7.3178697092
 30
0.0
 10
11.1910273972
 20
7.3267841478
 30
0.0
 10
11.1905627559
 20
7.3348481559
 30
0.0
 10
11.1910171574
 20
7.342144958
 30
0.0
 10
11.192025377
 20
7.3477572387
 30
0.0
 10
11.1931392143
 20
7.3519149488
 30
0.0
 10
11.1940949718
 20
7.3548435048
 30
0.0
 10
11.1951729453
 20
7.3576440194
 30
0.0
 10
11.1967460621
 20
7.3611821958
 30
0.0
 10
11.1989731405
 20
7.3653443211
 30
0.0
 10
11.2015360997
 20
7.369222442
 30
0.0
 10
11.2037377044
 20
7.3721263476
 30
0.0
 10
11.2054536768
 20
7.3742041048
 30
0.0
 10
11.2072387448
 20
7.3761977334
 30
0.0
 10
11.2090889267
 20
7.3781111735
 30
0.0
 10
11.2110012775
 20
7.3799474108
 30
0.0
 10
11.2136280903
 20
7.3822952999
 30
0.0
 10
11.217057025
 20
7.3850581217
 30
0.0
 10
11.222831716
 20
7.3891359073
 30
0.0
 10
11.2289846109
 20
7.3927182761
 30
0.0
 10
11.2354217692
 20
7.3958518231
 30
0.0
 10
11.2404253428
 20
7.3980108965
 30
0.0
 10
11.245575392
 20
7.3999787597
 30
0.0
 10
11.2526762402
 20
7.4023796587
 30
0.0
 10
11.2619000204
 20
7.4049486938
 30
0.0
 10
11.2733821757
 20
7.4073992231
 30
0.0
 10
11.2812249516
 20
7.408645923
 30
0.0
 10
11.2852162774
 20
7.4091903128
 30
0.0
  0
SPLINE
  5
342
100
AcDbEntity
  8
0
100
AcDbSpline
 62
7
  6
CONTINUOUS
 70
0
 71
3
 72
50
 73
46
 74
0
 42
0.0000001
 43
0.0000001
 44
0.0000000001
 40
0.0
 40
0.0
 40
0.0
 40
0.0
 40
0.0149717278
 40
0.0299465139
 40
0.0449274008
 40
0.0599173886
 40
0.0749194279
 40
0.0899363914
 40
0.1049710629
 40
0.1200261212
 40
0.1351041172
 40
0.1502074714
 40
0.1653384461
 40
0.1804991445
 40
0.1956914937
 40
0.2109172316
 40
0.2261779093
 40
0.241474866
 40
0.2568092421
 40
0.272181958
 40
0.2875937194
 40
0.3030450157
 40
0.3185361086
 40
0.3340670497
 40
0.3652423231
 40
0.3965722029
 40
0.4280494245
 40
0.4596636092
 40
0.4914015229
 40
0.5232473829
 40
0.5551832065
 40
0.5871891935
 40
0.6192441362
 40
0.6513258501
 40
0.6834116188
 40
0.7154786457
 40
0.7475045064
 40
0.7794675968
 40
0.8113475679
 40
0.8431257449
 40
0.8747855261
 40
0.9063127118
 40
0.9376959827
 40
0.9689265925
 40
1.0
 40
1.0
 40
1.0
 40
1.0
 10
8.7087729013
 20
9.5170977762
 30
0.0
 10
8.7134350399
 20
9.5216010606
 30
0.0
 10
8.7229404383
 20
9.5304241498
 30
0.0
 10
8.7377146838
 20
9.5430832476
 30
0.0
 10
8.7529864481
 20
9.5551507312
 30
0.0
 10
8.7687343497
 20
9.5666097996
 30
0.0
 10
8.7849367931
 20
9.5774447705
 30
0.0
 10
8.8015715179
 20
9.587640619
 30
0.0
 10
8.8186155329
 20
9.5971834996
 30
0.0
 10
8.8360454937
 20
9.6060600798
 30
0.0
 10
8.8538373122
 20
9.6142583483
 30
0.0
 10
8.871966566
 20
9.6217669075
 30
0.0
 10
8.8904082875
 20
9.6285754711
 30
0.0
 10
8.9091370781
 20
9.634674758
 30
0.0
 10
8.9281272166
 20
9.6400562248
 30
0.0
 10
8.9473525145
 20
9.6447127021
 30
0.0
 10
8.9667865753
 20
9.6486375784
 30
0.0
 10
8.9864026258
 20
9.6518256407
 30
0.0
 10
9.0061737002
 20
9.6542724433
 30
0.0
 10
9.0260725957
 20
9.6559746036
 30
0.0
 10
9.0460719605
 20
9.6569299305
 30
0.0
 10
9.0661442043
 20
9.6571369304
 30
0.0
 10
9.0862620634
 20
9.6565955103
 30
0.0
 10
9.1131399796
 20
9.6548747164
 30
0.0
 10
9.1467180572
 20
9.6508510701
 30
0.0
 10
9.1866919603
 20
9.6430716702
 30
0.0
 10
9.2261842731
 20
9.6323779658
 30
0.0
 10
9.2649766879
 20
9.6188291468
 30
0.0
 10
9.3028566793
 20
9.6024999494
 30
0.0
 10
9.3396162626
 20
9.583480322
 30
0.0
 10
9.3750537626
 20
9.5618749075
 30
0.0
 10
9.4089747306
 20
9.5378024776
 30
0.0
 10
9.4411930395
 20
9.5113952794
 30
0.0
 10
9.4715319031
 20
9.4827983415
 30
0.0
 10
9.4998248284
 20
9.4521686652
 30
0.0
 10
9.5259165107
 20
9.4196743627
 30
0.0
 10
9.5496636783
 20
9.3854937473
 30
0.0
 10
9.5709358712
 20
9.3498143684
 30
0.0
 10
9.5896161464
 20
9.3128319869
 30
0.0
 10
9.6056017388
 20
9.2747495484
 30
0.0
 10
9.6188046114
 20
9.2357759973
 30
0.0
 10
9.6291519961
 20
9.19612544
 30
0.0
 10
9.6365865748
 20
9.1560148651
 30
0.0
 10
9.6410672817
 20
9.1156673685
 30
0.0
 10
9.6420708436
 20
9.0886829222
 30
0.0
 10
9.6420708436
 20
9.0752299051
 30
0.0
  0
SPLINE
  5
343
100
AcDbEntity
  8
0
100
AcDbSpline
 62
7
  6
CONTINUOUS
 70
0
 71
3
 72
24
 73
20
 74
0
 42
0.0000001
 43
0.0000001
 44
0.0000000001
 40
0.0
 40
0.0
 40
0.0
 40
0.0
 40
0.0617098353
 40
0.1234407738
 40
0.1852137086
 40
0.2470491059
 40
0.2779989826
 40
0.3089718424
 40
0.3709907986
 40
0.4331289968
 40
0.4954032096
 40
0.5578288482
 40
0.6204198348
 40
0.6831883877
 40
0.7461451742
 40
0.8092989976
 40
0.8726556328
 40
0.9362235592
 40
1.0
 40
1.0
 40
1.0
 40
1.0
 10
9.4896680929
 20
8.7086556329
 30
0.0
 10
9.4957025951
 20
8.7144845201
 30
0.0
 10
9.507475865
 20
8.7264571806
 30
0.0
 10
9.5241919981
 20
8.7453040044
 30
0.0
 10
9.5399289612
 20
8.7649981023
 30
0.0
 10
9.552193351
 20
8.7820734386
 30
0.0
 10
9.561478386
 20
8.7961074103
 30
0.0
 10
9.5704152099
 20
8.8103950978
 30
0.0
 10
9.580912062
 20
8.8287000643
 30
0.0
 10
9.5923919497
 20
8.8513100719
 30
0.0
 10
9.6027353529
 20
8.8745228794
 30
0.0
 10
9.6119181989
 20
8.8982846123
 30
0.0
 10
9.6199194605
 20
8.9225405396
 30
0.0
 10
9.6267207685
 20
8.9472346967
 30
0.0
 10
9.6323064802
 20
8.9723101989
 30
0.0
 10
9.6366636587
 20
8.9977090772
 30
0.0
 10
9.6397826012
 20
9.023373311
 30
0.0
 10
9.641655794
 20
9.0492425736
 30
0.0
 10
9.6420708436
 20
9.0665589907
 30
0.0
 10
9.6420708436
 20
9.0752299051
 30
0.0
  0
SPLINE
  5
344
100
AcDbEntity
  8
0
100
AcDbSpline
 62
7
  6
CONTINUOUS
 70
0
 71
3
 72
27
 73
23
 74
0
 42
0.0000001
 43
0.0000001
 44
0.0000000001
 40
0.0
 40
0.0
 40
0.0
 40
0.0
 40
0.0995345141
 40
0.1944186501
 40
0.2844454527
 40
0.3694515637
 40
0.4493181459
 40
0.523974336
 40
0.5933956895
 40
0.6576009942
 40
0.7166551755
 40
0.7706660698
 40
0.8197795378
 40
0.8425609746
 40
0.8641914534
 40
0.8847015211
 40
0.9041244784
 40
0.9224948487
 40
0.9398502426
 40
0.9562331143
 40
0.9716884588
 40
1.0
 40
1.0
 40
1.0
 40
1.0
 10
9.5309895275
 20
8.7541113088
 30
0.0
 10
9.5284334941
 20
8.7522696424
 30
0.0
 10
9.523389876
 20
8.7487423537
 30
0.0
 10
9.5158593213
 20
8.7438056877
 30
0.0
 10
9.5085699133
 20
8.7393473444
 30
0.0
 10
9.501551433
 20
8.7353652903
 30
0.0
 10
9.4948307534
 20
8.7318532443
 30
0.0
 10
9.4884316083
 20
8.7288009892
 30
0.0
 10
9.4823741895
 20
8.7261949917
 30
0.0
 10
9.4766749949
 20
8.7240189499
 30
0.0
 10
9.4713467527
 20
8.7222540673
 30
0.0
 10
9.4663986662
 20
8.720880042
 30
0.0
 10
9.4625044933
 20
8.7200222109
 30
0.0
 10
9.4595866628
 20
8.7195205515
 30
0.0
 10
9.4575509384
 20
8.7192378672
 30
0.0
 10
9.4556124034
 20
8.7190363755
 30
0.0
 10
9.4537706861
 20
8.7189132778
 30
0.0
 10
9.4520253041
 20
8.7188657363
 30
0.0
 10
9.450375684
 20
8.7188909766
 30
0.0
 10
9.4488208575
 20
8.7189863449
 30
0.0
 10
9.4469284043
 20
8.7191973494
 30
0.0
 10
9.4455637944
 20
8.7194588063
 30
0.0
 10
9.4446969515
 20
8.7196859118
 30
0.0
  0
SPLINE
  5
345
100
AcDbEntity
  8
0
100
AcDbSpline
 62
7
  6
CONTINUOUS
 70
0
 71
3
 72
9
 73
5
 74
0
 42
0.0000001
 43
0.0000001
 44
0.0000000001
 40
0.0
 40
0.0
 40
0.0
 40
0.0
 40
0.4738555443
 40
1.0
 40
1.0
 40
1.0
 40
1.0
 10
8.8768431219
 20
9.6140549162
 30
0.0
 10
8.8767637559
 20
9.6155424151
 30
0.0
 10
8.8767421576
 20
9.6186902161
 30
0.0
 10
8.8769702673
 20
9.6218287763
 30
0.0
 10
8.8771462795
 20
9.6234733748
 30
0.0
  0
SPLINE
  5
346
100
AcDbEntity
  8
0
100
AcDbSpline
 62
7
  6
CONTINUOUS
 70
0
 71
3
 72
48
 73
44
 74
0
 42
0.0000001
 43
0.0000001
 44
0.0000000001
 40
0.0
 40
0.0
 40
0.0
 40
0.0
 40
0.0063158757
 40
0.0126706723
 40
0.0191025153
 40
0.0256480656
 40
0.0323419735
 40
0.0392163471
 40
0.0536142197
 40
0.0611949889
 40
0.0690567529
 40
0.0772179107
 40
0.0856943607
 40
0.0944997659
 40
0.103645921
 40
0.1131427623
 40
0.1229985381
 40
0.1332201926
 40
0.1438133623
 40
0.1547824065
 40
0.1661307821
 40
0.177861045
 40
0.189974755
 40
0.2153542741
 40
0.242270138
 40
0.2707124992
 40
0.3006635018
 40
0.3320987844
 40
0.3649881127
 40
0.3992959802
 40
0.4349824885
 40
0.4720034577
 40
0.510310969
 40
0.5498538267
 40
0.5905775201
 40
0.6324247899
 40
0.6753357769
 40
0.7192480049
 40
0.7640970224
 40
0.8098164065
 40
0.8563370501
 40
0.9035891101
 40
1.0
 40
1.0
 40
1.0
 40
1.0
 10
12.6237755881
 20
5.5741278575
 30
0.0
 10
12.6228781015
 20
5.5741901055
 30
0.0
 10
12.6210818388
 20
5.5743884468
 30
0.0
 10
12.6184075864
 20
5.5749054653
 30
0.0
 10
12.615751204
 20
5.575641878
 30
0.0
 10
12.6131142418
 20
5.5765971255
 30
0.0
 10
12.6104977628
 20
5.5777707215
 30
0.0
 10
12.6069845213
 20
5.5796540602
 30
0.0
 10
12.6035666738
 20
5.5819595229
 30
0.0
 10
12.600259101
 20
5.5846312209
 30
0.0
 10
12.5977607363
 20
5.5868837379
 30
0.0
 10
12.5952890707
 20
5.5893491447
 30
0.0
 10
12.592844716
 20
5.5920265473
 30
0.0
 10
12.590428626
 20
5.5949147505
 30
0.0
 10
12.5880417378
 20
5.5980126271
 30
0.0
 10
12.5856849712
 20
5.6013189056
 30
0.0
 10
12.5833591947
 20
5.6048322123
 30
0.0
 10
12.5810653584
 20
5.6085511516
 30
0.0
 10
12.5788043895
 20
5.6124742238
 30
0.0
 10
12.5765771407
 20
5.6165998054
 30
0.0
 10
12.5743845384
 20
5.6209262336
 30
0.0
 10
12.5722274784
 20
5.6254517713
 30
0.0
 10
12.5693552345
 20
5.6318484868
 30
0.0
 10
12.5658696341
 20
5.6403380764
 30
0.0
 10
12.5619047959
 20
5.6511358734
 30
0.0
 10
12.5581019107
 20
5.6626792464
 30
0.0
 10
12.5544671731
 20
5.6749492829
 30
0.0
 10
12.5510066294
 20
5.6879260758
 30
0.0
 10
12.5477260349
 20
5.7015884134
 30
0.0
 10
12.5446307936
 20
5.7159139208
 30
0.0
 10
12.5417261123
 20
5.7308791003
 30
0.0
 10
12.5390168062
 20
5.7464593628
 30
0.0
 10
12.5365073683
 20
5.7626290841
 30
0.0
 10
12.5342020312
 20
5.7793616535
 30
0.0
 10
12.5321045916
 20
5.796629513
 30
0.0
 10
12.5302185545
 20
5.8144042136
 30
0.0
 10
12.5285470946
 20
5.8326564561
 30
0.0
 10
12.5270929487
 20
5.8513561494
 30
0.0
 10
12.5258585705
 20
5.8704724864
 30
0.0
 10
12.5248460416
 20
5.8899738726
 30
0.0
 10
12.5240569728
 20
5.9098281637
 30
0.0
 10
12.5232997143
 20
5.9369080407
 30
0.0
 10
12.5230800435
 20
5.9573726766
 30
0.0
 10
12.5230800435
 20
5.9711055854
 30
0.0
  0
SPLINE
  5
347
100
AcDbEntity
  8
0
100
AcDbSpline
 62
7
  6
CONTINUOUS
 70
0
 71
3
 72
48
 73
44
 74
0
 42
0.0000001
 43
0.0000001
 44
0.0000000001
 40
0.0
 40
0.0
 40
0.0
 40
0.0
 40
0.0063158757
 40
0.0126706723
 40
0.0191025153
 40
0.0256480656
 40
0.0323419735
 40
0.0392163471
 40
0.0536142197
 40
0.0611949889
 40
0.0690567529
 40
0.0772179107
 40
0.0856943607
 40
0.0944997659
 40
0.103645921
 40
0.1131427623
 40
0.1229985381
 40
0.1332201926
 40
0.1438133623
 40
0.1547824065
 40
0.1661307821
 40
0.177861045
 40
0.189974755
 40
0.2153542741
 40
0.242270138
 40
0.2707124992
 40
0.3006635018
 40
0.3320987844
 40
0.3649881127
 40
0.3992959802
 40
0.4349824885
 40
0.4720034577
 40
0.510310969
 40
0.5498538267
 40
0.5905775201
 40
0.6324247899
 40
0.6753357769
 40
0.7192480049
 40
0.7640970224
 40
0.8098164065
 40
0.8563370501
 40
0.9035891101
 40
1.0
 40
1.0
 40
1.0
 40
1.0
 10
12.6237755881
 20
8.3521306285
 30
0.0
 10
12.6228781015
 20
8.3521928765
 30
0.0
 10
12.6210818388
 20
8.3523912178
 30
0.0
 10
12.6184075864
 20
8.3529082363
 30
0.0
 10
12.615751204
 20
8.353644649
 30
0.0
 10
12.6131142418
 20
8.3545998965
 30
0.0
 10
12.6104977628
 20
8.3557734925
 30
0.0
 10
12.6069845213
 20
8.3576568312
 30
0.0
 10
12.6035666738
 20
8.3599622939
 30
0.0
 10
12.600259101
 20
8.3626339919
 30
0.0
 10
12.5977607363
 20
8.3648865089
 30
0.0
 10
12.5952890707
 20
8.3673519157
 30
0.0
 10
12.592844716
 20
8.3700293183
 30
0.0
 10
12.590428626
 20
8.3729175215
 30
0.0
 10
12.5880417378
 20
8.3760153981
 30
0.0
 10
12.5856849712
 20
8.3793216766
 30
0.0
 10
12.5833591947
 20
8.3828349833
 30
0.0
 10
12.5810653584
 20
8.3865539226
 30
0.0
 10
12.5788043895
 20
8.3904769948
 30
0.0
 10
12.5765771407
 20
8.3946025764
 30
0.0
 10
12.5743845384
 20
8.3989290046
 30
0.0
 10
12.5722274784
 20
8.4034545423
 30
0.0
 10
12.5693552345
 20
8.4098512578
 30
0.0
 10
12.5658696341
 20
8.4183408474
 30
0.0
 10
12.5619047959
 20
8.4291386444
 30
0.0
 10
12.5581019107
 20
8.4406820174
 30
0.0
 10
12.5544671731
 20
8.4529520539
 30
0.0
 10
12.5510066294
 20
8.4659288468
 30
0.0
 10
12.5477260349
 20
8.4795911844
 30
0.0
 10
12.5446307936
 20
8.4939166918
 30
0.0
 10
12.5417261123
 20
8.5088818713
 30
0.0
 10
12.5390168062
 20
8.5244621338
 30
0.0
 10
12.5365073683
 20
8.5406318551
 30
0.0
 10
12.5342020312
 20
8.5573644245
 30
0.0
 10
12.5321045916
 20
8.574632284
 30
0.0
 10
12.5302185545
 20
8.5924069846
 30
0.0
 10
12.5285470946
 20
8.6106592271
 30
0.0
 10
12.5270929487
 20
8.6293589204
 30
0.0
 10
12.5258585705
 20
8.6484752574
 30
0.0
 10
12.5248460416
 20
8.6679766436
 30
0.0
 10
12.5240569728
 20
8.6878309347
 30
0.0
 10
12.5232997143
 20
8.7149108117
 30
0.0
 10
12.5230800435
 20
8.7353754476
 30
0.0
 10
12.5230800435
 20
8.7491083564
 30
0.0
  0
SPLINE
  5
348
100
AcDbEntity
  8
0
100
AcDbSpline
 62
7
  6
CONTINUOUS
 70
0
 71
3
 72
54
 73
50
 74
0
 42
0.0000001
 43
0.0000001
 44
0.0000000001
 40
0.0
 40
0.0
 40
0.0
 40
0.0
 40
0.0149714205
 40
0.0299459006
 40
0.0449264792
 40
0.0599161603
 40
0.0749178921
 40
0.0899345472
 40
0.1049689108
 40
0.1200236601
 40
0.1351013475
 40
0.1502043911
 40
0.1653350566
 40
0.1804954436
 40
0.1956874807
 40
0.2109129081
 40
0.2261732707
 40
0.2414699153
 40
0.2568039766
 40
0.2721763765
 40
0.2875878234
 40
0.3030388016
 40
0.3185295776
 40
0.3340601997
 40
0.3496304932
 40
0.3652400703
 40
0.380888332
 40
0.3965744676
 40
0.4122974686
 40
0.428056131
 40
0.4438490605
 40
0.459674688
 40
0.4914119511
 40
0.5232571588
 40
0.5551923276
 40
0.5871976582
 40
0.6192519435
 40
0.6513329996
 40
0.6834181105
 40
0.7154844799
 40
0.747509684
 40
0.7794721189
 40
0.8113514357
 40
0.8431289617
 40
0.8747880907
 40
0.9063146458
 40
0.9376972376
 40
0.9689272313
 40
1.0
 40
1.0
 40
1.0
 40
1.0
 10
10.4160722355
 20
7.7099661996
 30
0.0
 10
10.4232147707
 20
7.7168653531
 30
0.0
 10
10.4377772362
 20
7.7303826597
 30
0.0
 10
10.4604118727
 20
7.7497766769
 30
0.0
 10
10.4838086313
 20
7.7682644265
 30
0.0
 10
10.5079348389
 20
7.7858200845
 30
0.0
 10
10.5327574895
 20
7.8024194989
 30
0.0
 10
10.5582423219
 20
7.818039894
 30
0.0
 10
10.5843542661
 20
7.8326598096
 30
0.0
 10
10.6110574414
 20
7.846259025
 30
0.0
 10
10.638315034
 20
7.8588189621
 30
0.0
 10
10.6660895491
 20
7.8703223315
 30
0.0
 10
10.694342798
 20
7.8807532321
 30
0.0
 10
10.7230358523
 20
7.8900974651
 30
0.0
 10
10.7521292568
 20
7.8983421319
 30
0.0
 10
10.781582992
 20
7.9054758575
 30
0.0
 10
10.8113565051
 20
7.9114889809
 30
0.0
 10
10.8414088598
 20
7.9163731556
 30
0.0
 10
10.8716987116
 20
7.9201216784
 30
0.0
 10
10.9021843856
 20
7.9227295293
 30
0.0
 10
10.9328239634
 20
7.9241930221
 30
0.0
 10
10.9635752987
 20
7.9245102073
 30
0.0
 10
10.9943961047
 20
7.9236807542
 30
0.0
 10
11.0252439942
 20
7.921705691
 30
0.0
 10
11.0560765508
 20
7.9185878387
 30
0.0
 10
11.086851389
 20
7.9143315503
 30
0.0
 10
11.1175261783
 20
7.9089425666
 30
0.0
 10
11.1480587537
 20
7.9024284353
 30
0.0
 10
11.1784071782
 20
7.8947981186
 30
0.0
 10
11.2085295771
 20
7.8860620712
 30
0.0
 10
11.2383850373
 20
7.8762322373
 30
0.0
 10
11.2778139942
 20
7.8616736737
 30
0.0
 10
11.3262264718
 20
7.8408044567
 30
0.0
 10
11.3825419453
 20
7.8116662613
 30
0.0
 10
11.4368335433
 20
7.7785660394
 30
0.0
 10
11.4888013369
 20
7.741686414
 30
0.0
 10
11.538160713
 20
7.7012298087
 30
0.0
 10
11.5846407291
 20
7.6574185101
 30
0.0
 10
11.6279863282
 20
7.6104929989
 30
0.0
 10
11.667959505
 20
7.5607107819
 30
0.0
 10
11.7043408253
 20
7.508345095
 30
0.0
 10
11.7369304406
 20
7.4536832767
 30
0.0
 10
11.7655491398
 20
7.3970252068
 30
0.0
 10
11.7900395156
 20
7.3386818271
 30
0.0
 10
11.8102667424
 20
7.2789732441
 30
0.0
 10
11.8261192216
 20
7.2182274731
 30
0.0
 10
11.8375091959
 20
7.1567769245
 30
0.0
 10
11.8443737372
 20
7.0949634165
 30
0.0
 10
11.8459112379
 20
7.0536224621
 30
0.0
 10
11.8459112379
 20
7.0330120579
 30
0.0
  0
SPLINE
  5
349
100
AcDbEntity
  8
0
100
AcDbSpline
 62
7
  6
CONTINUOUS
 70
0
 71
3
 72
24
 73
20
 74
0
 42
0.0000001
 43
0.0000001
 44
0.0000000001
 40
0.0
 40
0.0
 40
0.0
 40
0.0
 40
0.0617098353
 40
0.1234407738
 40
0.1852137086
 40
0.2470491059
 40
0.2779989826
 40
0.3089718424
 40
0.3709907986
 40
0.4331289968
 40
0.4954032096
 40
0.5578288482
 40
0.6204198348
 40
0.6831883877
 40
0.7461451742
 40
0.8092989976
 40
0.8726556328
 40
0.9362235592
 40
1.0
 40
1.0
 40
1.0
 40
1.0
 10
9.3080740618
 20
6.3663219527
 30
0.0
 10
9.314108564
 20
6.3721508399
 30
0.0
 10
9.3258818339
 20
6.3841235004
 30
0.0
 10
9.342597967
 20
6.4029703242
 30
0.0
 10
9.3583349301
 20
6.4226644221
 30
0.0
 10
9.3705993199
 20
6.4397397584
 30
0.0
 10
9.3798843549
 20
6.4537737301
 30
0.0
 10
9.3888211788
 20
6.4680614176
 30
0.0
 10
9.3993180309
 20
6.4863663841
 30
0.0
 10
9.4107979186
 20
6.5089763917
 30
0.0
 10
9.4211413218
 20
6.5321891992
 30
0.0
 10
9.4303241678
 20
6.5559509321
 30
0.0
 10
9.4383254294
 20
6.5802068594
 30
0.0
 10
9.4451267374
 20
6.6049010165
 30
0.0
 10
9.4507124491
 20
6.6299765187
 30
0.0
 10
9.4550696276
 20
6.655375397
 30
0.0
 10
9.4581885701
 20
6.6810396308
 30
0.0
 10
9.4600617629
 20
6.7069088934
 30
0.0
 10
9.4604768125
 20
6.7242253105
 30
0.0
 10
9.4604768125
 20
6.732896225
 30
0.0
  0
SPLINE
  5
34A
100
AcDbEntity
  8
0
100
AcDbSpline
 62
7
  6
CONTINUOUS
 70
0
 71
3
 72
50
 73
46
 74
0
 42
0.0000001
 43
0.0000001
 44
0.0000000001
 40
0.0
 40
0.0
 40
0.0
 40
0.0
 40
0.0149717278
 40
0.0299465139
 40
0.0449274008
 40
0.0599173886
 40
0.0749194279
 40
0.0899363914
 40
0.1049710629
 40
0.1200261212
 40
0.1351041172
 40
0.1502074714
 40
0.1653384461
 40
0.1804991445
 40
0.1956914937
 40
0.2109172316
 40
0.2261779093
 40
0.241474866
 40
0.2568092421
 40
0.272181958
 40
0.2875937194
 40
0.3030450157
 40
0.3185361086
 40
0.3340670497
 40
0.3652423231
 40
0.3965722029
 40
0.4280494245
 40
0.4596636092
 40
0.4914015229
 40
0.5232473829
 40
0.5551832065
 40
0.5871891935
 40
0.6192441362
 40
0.6513258501
 40
0.6834116188
 40
0.7154786457
 40
0.7475045064
 40
0.7794675968
 40
0.8113475679
 40
0.8431257449
 40
0.8747855261
 40
0.9063127118
 40
0.9376959827
 40
0.9689265925
 40
1.0
 40
1.0
 40
1.0
 40
1.0
 10
8.5271788702
 20
7.174764096
 30
0.0
 10
8.5318410088
 20
7.1792673804
 30
0.0
 10
8.5413464072
 20
7.1880904696
 30
0.0
 10
8.5561206527
 20
7.2007495674
 30
0.0
 10
8.571392417
 20
7.212817051
 30
0.0
 10
8.5871403186
 20
7.2242761194
 30
0.0
 10
8.603342762
 20
7.2351110903
 30
0.0
 10
8.6199774868
 20
7.2453069388
 30
0.0
 10
8.6370215018
 20
7.2548498194
 30
0.0
 10
8.6544514626
 20
7.2637263996
 30
0.0
 10
8.6722432811
 20
7.2719246681
 30
0.0
 10
8.6903725349
 20
7.2794332273
 30
0.0
 10
8.7088142564
 20
7.2862417909
 30
0.0
 10
8.727543047
 20
7.2923410778
 30
0.0
 10
8.7465331855
 20
7.2977225446
 30
0.0
 10
8.7657584834
 20
7.3023790219
 30
0.0
 10
8.7851925442
 20
7.3063038982
 30
0.0
 10
8.8048085947
 20
7.3094919606
 30
0.0
 10
8.8245796691
 20
7.3119387631
 30
0.0
 10
8.8444785646
 20
7.3136409234
 30
0.0
 10
8.8644779294
 20
7.3145962503
 30
0.0
 10
8.8845501732
 20
7.3148032502
 30
0.0
 10
8.9046680323
 20
7.3142618301
 30
0.0
 10
8.9315459485
 20
7.3125410362
 30
0.0
 10
8.9651240261
 20
7.3085173899
 30
0.0
 10
9.0050979292
 20
7.3007379901
 30
0.0
 10
9.044590242
 20
7.2900442856
 30
0.0
 10
9.0833826568
 20
7.2764954666
 30
0.0
 10
9.1212626482
 20
7.2601662692
 30
0.0
 10
9.1580222315
 20
7.2411466418
 30
0.0
 10
9.1934597315
 20
7.2195412273
 30
0.0
 10
9.2273806995
 20
7.1954687974
 30
0.0
 10
9.2595990084
 20
7.1690615992
 30
0.0
 10
9.289937872
 20
7.1404646613
 30
0.0
 10
9.3182307973
 20
7.109834985
 30
0.0
 10
9.3443224796
 20
7.0773406825
 30
0.0
 10
9.3680696472
 20
7.0431600671
 30
0.0
 10
9.3893418401
 20
7.0074806882
 30
0.0
 10
9.4080221153
 20
6.9704983067
 30
0.0
 10
9.4240077077
 20
6.9324158682
 30
0.0
 10
9.4372105803
 20
6.8934423171
 30
0.0
 10
9.447557965
 20
6.8537917598
 30
0.0
 10
9.4549925437
 20
6.8136811849
 30
0.0
 10
9.4594732506
 20
6.7733336884
 30
0.0
 10
9.4604768125
 20
6.746349242
 30
0.0
 10
9.4604768125
 20
6.732896225
 30
0.0
  0
SPLINE
  5
34B
100
AcDbEntity
  8
0
100
AcDbSpline
 62
7
  6
CONTINUOUS
 70
0
 71
3
 72
28
 73
24
 74
0
 42
0.0000001
 43
0.0000001
 44
0.0000000001
 40
0.0
 40
0.0
 40
0.0
 40
0.0
 40
0.0308555399
 40
0.0617137224
 40
0.0925771844
 40
0.1234485457
 40
0.1852202674
 40
0.2470544482
 40
0.2780037146
 40
0.3089759646
 40
0.3709937009
 40
0.4331306768
 40
0.4954036634
 40
0.557828071
 40
0.6204178126
 40
0.683185178
 40
0.7146412158
 40
0.7461454681
 40
0.8092980338
 40
0.872653783
 40
0.9044120924
 40
0.9362241051
 40
1.0
 40
1.0
 40
1.0
 40
1.0
 10
11.6124258688
 20
6.4714098531
 30
0.0
 10
11.6170485717
 20
6.4758750375
 30
0.0
 10
11.6261799552
 20
6.484925136
 30
0.0
 10
11.639523828
 20
6.4988487928
 30
0.0
 10
11.6525076971
 20
6.5131135421
 30
0.0
 10
11.669331191
 20
6.5325791857
 30
0.0
 10
11.6894271826
 20
6.5577282933
 30
0.0
 10
11.7082163191
 20
6.5838879906
 30
0.0
 10
11.7224413234
 20
6.6053884403
 30
0.0
 10
11.7361327596
 20
6.6272775933
 30
0.0
 10
11.7522142666
 20
6.6553213093
 30
0.0
 10
11.7698017588
 20
6.6899605041
 30
0.0
 10
11.7856481171
 20
6.7255231703
 30
0.0
 10
11.7997165588
 20
6.7619268995
 30
0.0
 10
11.811974678
 20
6.7990873031
 30
0.0
 10
11.8206517397
 20
6.8305923337
 30
0.0
 10
11.8266634079
 20
6.8560838538
 30
0.0
 10
11.8320598542
 20
6.8817947314
 30
0.0
 10
11.8376273514
 20
6.9142480508
 30
0.0
 10
11.8416059879
 20
6.9469872492
 30
0.0
 10
11.843836967
 20
6.9733334596
 30
0.0
 10
11.8454338938
 20
6.999812858
 30
0.0
 10
11.8459112379
 20
7.0197278222
 30
0.0
 10
11.8459112379
 20
7.0330120579
 30
0.0
  0
SPLINE
  5
34C
100
AcDbEntity
  8
0
100
AcDbSpline
 62
7
  6
CONTINUOUS
 70
0
 71
3
 72
34
 73
30
 74
0
 42
0.0000001
 43
0.0000001
 44
0.0000000001
 40
0.0
 40
0.0
 40
0.0
 40
0.0
 40
0.0217015823
 40
0.0428607076
 40
0.0636354598
 40
0.0841909689
 40
0.1046967439
 40
0.1253210115
 40
0.1462262478
 40
0.1675667826
 40
0.1894837648
 40
0.2121044144
 40
0.235541999
 40
0.2598935408
 40
0.2852426197
 40
0.3116601128
 40
0.3392037046
 40
0.3679216198
 40
0.397852477
 40
0.4290258195
 40
0.4614652735
 40
0.4951873273
 40
0.5302027559
 40
0.56651862
 40
0.6430470906
 40
0.7247554799
 40
0.8115651363
 40
0.9033681764
 40
1.0
 40
1.0
 40
1.0
 40
1.0
 10
11.6853030968
 20
7.2142140822
 30
0.0
 10
11.685408467
 20
7.2135011768
 30
0.0
 10
11.685560596
 20
7.2120841014
 30
0.0
 10
11.6856056158
 20
7.2099688213
 30
0.0
 10
11.6854639794
 20
7.2078956645
 30
0.0
 10
11.6851359318
 20
7.2058656576
 30
0.0
 10
11.6846218241
 20
7.203879757
 30
0.0
 10
11.6839223946
 20
7.2019390348
 30
0.0
 10
11.6830386637
 20
7.200044511
 30
0.0
 10
11.6819717359
 20
7.1981972366
 30
0.0
 10
11.680722941
 20
7.1963981754
 30
0.0
 10
11.6792936433
 20
7.1946482984
 30
0.0
 10
11.6776852514
 20
7.1929486353
 30
0.0
 10
11.6758992422
 20
7.191300253
 30
0.0
 10
11.6739371258
 20
7.1897043491
 30
0.0
 10
11.6718005007
 20
7.1881622239
 30
0.0
 10
11.6694910251
 20
7.1866753226
 30
0.0
 10
11.6670104775
 20
7.1852452153
 30
0.0
 10
11.6643607497
 20
7.1838735888
 30
0.0
 10
11.6615438261
 20
7.1825622974
 30
0.0
 10
11.6585618574
 20
7.1813132654
 30
0.0
 10
11.6554171114
 20
7.1801285621
 30
0.0
 10
11.6521119609
 20
7.1790103555
 30
0.0
 10
11.6474122818
 20
7.177586208
 30
0.0
 10
11.6411460313
 20
7.1759975549
 30
0.0
 10
11.6331582132
 20
7.1744268635
 30
0.0
 10
11.6246005184
 20
7.1731809844
 30
0.0
 10
11.6155017763
 20
7.172282272
 30
0.0
 10
11.609251615
 20
7.1719382127
 30
0.0
 10
11.6060446696
 20
7.1718268134
 30
0.0
  0
SPLINE
  5
34D
100
AcDbEntity
  8
0
100
AcDbSpline
 62
7
  6
CONTINUOUS
 70
0
 71
3
 72
28
 73
24
 74
0
 42
0.0000001
 43
0.0000001
 44
0.0000000001
 40
0.0
 40
0.0
 40
0.0
 40
0.0
 40
0.0148897462
 40
0.0240403903
 40
0.0345412785
 40
0.0465011381
 40
0.0599945866
 40
0.0750758124
 40
0.0917858643
 40
0.1101554294
 40
0.1302058256
 40
0.1519536911
 40
0.1754125992
 40
0.2274938006
 40
0.2864842974
 40
0.352381686
 40
0.425143204
 40
0.5047004642
 40
0.5909515929
 40
0.683771548
 40
0.7830071998
 40
0.8884829127
 40
1.0
 40
1.0
 40
1.0
 40
1.0
 10
10.4650481329
 20
7.7331882547
 30
0.0
 10
10.4649424669
 20
7.7333616495
 30
0.0
 10
10.4648473836
 20
7.7336865505
 30
0.0
 10
10.4648098367
 20
7.7341555084
 30
0.0
 10
10.4648234315
 20
7.7345875472
 30
0.0
 10
10.4648816078
 20
7.7350747295
 30
0.0
 10
10.4649847269
 20
7.7356182035
 30
0.0
 10
10.4651334627
 20
7.7362178323
 30
0.0
 10
10.4653284064
 20
7.7368737302
 30
0.0
 10
10.4655701352
 20
7.7375857907
 30
0.0
 10
10.4658591756
 20
7.7383538492
 30
0.0
 10
10.4661960218
 20
7.7391776727
 30
0.0
 10
10.466728432
 20
7.7403930167
 30
0.0
 10
10.4675209314
 20
7.742048231
 30
0.0
 10
10.46863841
 20
7.7441877032
 30
0.0
 10
10.4699557628
 20
7.7465396141
 30
0.0
 10
10.4714749084
 20
7.7490988166
 30
0.0
 10
10.4731971921
 20
7.7518592595
 30
0.0
 10
10.4751231839
 20
7.7548141714
 30
0.0
 10
10.4772527314
 20
7.757955975
 30
0.0
 10
10.4795849175
 20
7.761276452
 30
0.0
 10
10.4821180281
 20
7.7647667339
 30
0.0
 10
10.4838909307
 20
7.7671361656
 30
0.0
 10
10.4848101859
 20
7.7683476692
 30
0.0
  0
SPLINE
  5
34E
100
AcDbEntity
  8
0
100
AcDbSpline
 62
7
  6
CONTINUOUS
 70
0
 71
3
 72
72
 73
68
 74
0
 42
0.0000001
 43
0.0000001
 44
0.0000000001
 40
0.0
 40
0.0
 40
0.0
 40
0.0
 40
0.0155841933
 40
0.0311159166
 40
0.0465951879
 40
0.062023807
 40
0.0697201918
 40
0.0774045832
 40
0.0927373981
 40
0.1080262201
 40
0.1232742512
 40
0.1384851142
 40
0.1536628162
 40
0.1688117115
 40
0.1839364566
 40
0.1990419634
 40
0.2141333485
 40
0.2292158794
 40
0.2442949183
 40
0.2593758643
 40
0.2744640962
 40
0.2895649144
 40
0.3046834852
 40
0.3198247867
 40
0.3349935563
 40
0.350194242
 40
0.3654309572
 40
0.38070744
 40
0.3960270182
 40
0.4113925789
 40
0.4268065427
 40
0.4422708439
 40
0.4577869148
 40
0.473355677
 40
0.4889775381
 40
0.5046523934
 40
0.5203796317
 40
0.5361581458
 40
0.5519863474
 40
0.5678621859
 40
0.5837831732
 40
0.5997464096
 40
0.6157486133
 40
0.6317861521
 40
0.6478550777
 40
0.6639511636
 40
0.6800699442
 40
0.6962067549
 40
0.7123567731
 40
0.7285150609
 40
0.7446766075
 40
0.7608363744
 40
0.7769893388
 40
0.7931305374
 40
0.8092551094
 40
0.8253583386
 40
0.8414356959
 40
0.8574828808
 40
0.8734958605
 40
0.889470906
 40
0.9054046296
 40
0.9212940155
 40
0.9371364388
 40
0.9529297806
 40
0.9686721073
 40
0.9843626845
 40
1.0
 40
1.0
 40
1.0
 40
1.0
 10
8.3873553799
 20
9.1252677623
 30
0.0
 10
8.3873553799
 20
9.1363111679
 30
0.0
 10
8.3878958331
 20
9.1583646931
 30
0.0
 10
8.3903354361
 20
9.1913061422
 30
0.0
 10
8.3943969864
 20
9.2239766063
 30
0.0
 10
8.3991290797
 20
9.2509329941
 30
0.0
 10
8.4037152912
 20
9.2722803465
 30
0.0
 10
8.4088237724
 20
9.2934389132
 30
0.0
 10
8.4161963598
 20
9.319576494
 30
0.0
 10
8.4266095398
 20
9.3503825685
 30
0.0
 10
8.4385576392
 20
9.3805340567
 30
0.0
 10
8.4520117954
 20
9.4099577449
 30
0.0
 10
8.46693966
 20
9.4385828
 30
0.0
 10
8.4833052849
 20
9.4663401342
 30
0.0
 10
8.5010692644
 20
9.4931627852
 30
0.0
 10
8.5201887949
 20
9.5189860337
 30
0.0
 10
8.5406177728
 20
9.5437475903
 30
0.0
 10
8.562306937
 20
9.5673877221
 30
0.0
 10
8.5852039825
 20
9.5898494017
 30
0.0
 10
8.6092536866
 20
9.6110784455
 30
0.0
 10
8.6343980467
 20
9.6310236398
 30
0.0
 10
8.6605763994
 20
9.6496368927
 30
0.0
 10
8.6877255774
 20
9.6668733496
 30
0.0
 10
8.7157800806
 20
9.6826914791
 30
0.0
 10
8.744672232
 20
9.6970531763
 30
0.0
 10
8.7743323415
 20
9.7099238541
 30
0.0
 10
8.8046888763
 20
9.721272518
 30
0.0
 10
8.8356686202
 20
9.7310718808
 30
0.0
 10
8.8671968651
 20
9.7392984047
 30
0.0
 10
8.899197597
 20
9.7459323407
 30
0.0
 10
8.9315936774
 20
9.7509577774
 30
0.0
 10
8.9643070281
 20
9.7543626768
 30
0.0
 10
8.9972588168
 20
9.7561388979
 30
0.0
 10
9.030369646
 20
9.7562822591
 30
0.0
 10
9.0635597504
 20
9.7547925083
 30
0.0
 10
9.096749187
 20
9.7516733166
 30
0.0
 10
9.1298580252
 20
9.7469322697
 30
0.0
 10
9.1628065364
 20
9.7405808468
 30
0.0
 10
9.1955153834
 20
9.7326343971
 30
0.0
 10
9.2279058209
 20
9.7231121382
 30
0.0
 10
9.2598998773
 20
9.7120370655
 30
0.0
 10
9.2914205404
 20
9.6994358991
 30
0.0
 10
9.3223919398
 20
9.6853390206
 30
0.0
 10
9.3527395251
 20
9.6697803963
 30
0.0
 10
9.3823902498
 20
9.6527975112
 30
0.0
 10
9.4112727604
 20
9.6344312964
 30
0.0
 10
9.439317549
 20
9.6147259944
 30
0.0
 10
9.466457121
 20
9.5937290596
 30
0.0
 10
9.4926261557
 20
9.5714910445
 30
0.0
 10
9.5177616566
 20
9.548065476
 30
0.0
 10
9.5418031209
 20
9.5235087477
 30
0.0
 10
9.5646926906
 20
9.4978799844
 30
0.0
 10
9.586375269
 20
9.4712408777
 30
0.0
 10
9.6067986554
 20
9.4436555436
 30
0.0
 10
9.6259136698
 20
9.4151903705
 30
0.0
 10
9.6436742638
 20
9.3859138582
 30
0.0
 10
9.660037663
 20
9.355896473
 30
0.0
 10
9.6749644608
 20
9.3252104679
 30
0.0
 10
9.6884186918
 20
9.2939296995
 30
0.0
 10
9.7003679252
 20
9.2621294563
 30
0.0
 10
9.7107833392
 20
9.2298862766
 30
0.0
 10
9.7196397757
 20
9.1972777823
 30
0.0
 10
9.7269159045
 20
9.1643824294
 30
0.0
 10
9.7325940452
 20
9.1312795896
 30
0.0
 10
9.7366606835
 20
9.0980484477
 30
0.0
 10
9.7391056282
 20
9.064770364
 30
0.0
 10
9.7396516168
 20
9.0425667492
 30
0.0
 10
9.7396516168
 20
9.0314856997
 30
0.0
  0
SPLINE
  5
34F
100
AcDbEntity
  8
0
100
AcDbSpline
 62
7
  6
CONTINUOUS
 70
0
 71
3
 72
23
 73
19
 74
0
 42
0.0000001
 43
0.0000001
 44
0.0000000001
 40
0.0
 40
0.0
 40
0.0
 40
0.0
 40
0.0720086796
 40
0.1430108272
 40
0.2128990314
 40
0.2815908622
 40
0.3490078375
 40
0.4150861544
 40
0.4797761751
 40
0.5430434315
 40
0.6048704656
 40
0.6652581936
 40
0.7242270256
 40
0.7818182756
 40
0.8380949099
 40
0.893140987
 40
0.9470683372
 40
1.0
 40
1.0
 40
1.0
 40
1.0
 10
11.272678467
 20
7.253792319
 30
0.0
 10
11.2733155224
 20
7.2582810238
 30
0.0
 10
11.2747656895
 20
7.2671706765
 30
0.0
 10
11.2774888794
 20
7.2802994358
 30
0.0
 10
11.2807373477
 20
7.2930932936
 30
0.0
 10
11.2845002257
 20
7.305509915
 30
0.0
 10
11.2887655557
 20
7.3175090495
 30
0.0
 10
11.2935194475
 20
7.3290514331
 30
0.0
 10
11.2987465249
 20
7.3400994042
 30
0.0
 10
11.3044299408
 20
7.3506168601
 30
0.0
 10
11.3105513977
 20
7.3605693839
 30
0.0
 10
11.3170911536
 20
7.3699243958
 30
0.0
 10
11.3240281366
 20
7.3786512101
 30
0.0
 10
11.3313400582
 20
7.3867210946
 30
0.0
 10
11.339003315
 20
7.3941072125
 30
0.0
 10
11.3469933893
 20
7.4007853755
 30
0.0
 10
11.3552836458
 20
7.4067324193
 30
0.0
 10
11.3610424718
 20
7.4102267133
 30
0.0
 10
11.3639586713
 20
7.4118397693
 30
0.0
  0
SPLINE
  5
350
100
AcDbEntity
  8
0
100
AcDbSpline
 62
7
  6
CONTINUOUS
 70
0
 71
3
 72
24
 73
20
 74
0
 42
0.0000001
 43
0.0000001
 44
0.0000000001
 40
0.0
 40
0.0
 40
0.0
 40
0.0
 40
0.0637764408
 40
0.1273443672
 40
0.1907010024
 40
0.2538548258
 40
0.3168116123
 40
0.3795801652
 40
0.4421711518
 40
0.5045967904
 40
0.5668710032
 40
0.6290092014
 40
0.6910281576
 40
0.7220010174
 40
0.7529508941
 40
0.8147862914
 40
0.8765592262
 40
0.9382901647
 40
1.0
 40
1.0
 40
1.0
 40
1.0
 10
8.3747761194
 20
6.8081898238
 30
0.0
 10
8.3747761194
 20
6.8168607382
 30
0.0
 10
8.3751911691
 20
6.8341771553
 30
0.0
 10
8.3770643618
 20
6.8600464179
 30
0.0
 10
8.3801833043
 20
6.8857106517
 30
0.0
 10
8.3845404828
 20
6.91110953
 30
0.0
 10
8.3901261945
 20
6.9361850322
 30
0.0
 10
8.3969275026
 20
6.9608791893
 30
0.0
 10
8.4049287642
 20
6.9851351166
 30
0.0
 10
8.4141116102
 20
7.0088968495
 30
0.0
 10
8.4244550134
 20
7.032109657
 30
0.0
 10
8.4359349011
 20
7.0547196646
 30
0.0
 10
8.4464317531
 20
7.0730246311
 30
0.0
 10
8.4553685771
 20
7.0873123186
 30
0.0
 10
8.4646536121
 20
7.1013462903
 30
0.0
 10
8.4769180019
 20
7.1184216266
 30
0.0
 10
8.4926549649
 20
7.1381157245
 30
0.0
 10
8.509371098
 20
7.1569625483
 30
0.0
 10
8.5211443679
 20
7.1689352088
 30
0.0
 10
8.5271788702
 20
7.174764096
 30
0.0
  0
SPLINE
  5
351
100
AcDbEntity
  8
0
100
AcDbSpline
 62
7
  6
CONTINUOUS
 70
0
 71
3
 72
50
 73
46
 74
0
 42
0.0000001
 43
0.0000001
 44
0.0000000001
 40
0.0
 40
0.0
 40
0.0
 40
0.0
 40
0.0310734075
 40
0.0623040173
 40
0.0936872882
 40
0.1252144739
 40
0.1568742551
 40
0.1886524321
 40
0.2205324032
 40
0.2524954936
 40
0.2845213543
 40
0.3165883812
 40
0.3486741499
 40
0.3807558638
 40
0.4128108065
 40
0.4448167935
 40
0.4767526171
 40
0.5085984771
 40
0.5403363908
 40
0.5719505755
 40
0.6034277971
 40
0.6347576769
 40
0.6659329503
 40
0.6814638914
 40
0.6969549843
 40
0.7124062806
 40
0.727818042
 40
0.7431907579
 40
0.758525134
 40
0.7738220907
 40
0.7890827684
 40
0.8043085063
 40
0.8195008555
 40
0.8346615539
 40
0.8497925286
 40
0.8648958828
 40
0.8799738788
 40
0.8950289371
 40
0.9100636086
 40
0.9250805721
 40
0.9400826114
 40
0.9550725992
 40
0.9700534861
 40
0.9850282722
 40
1.0
 40
1.0
 40
1.0
 40
1.0
 10
8.3747761194
 20
6.8081898238
 30
0.0
 10
8.3747761194
 20
6.7947368067
 30
0.0
 10
8.3757796813
 20
6.7677523604
 30
0.0
 10
8.3802603883
 20
6.7274048638
 30
0.0
 10
8.3876949669
 20
6.6872942889
 30
0.0
 10
8.3980423517
 20
6.6476437316
 30
0.0
 10
8.4112452243
 20
6.6086701805
 30
0.0
 10
8.4272308167
 20
6.570587742
 30
0.0
 10
8.4459110919
 20
6.5336053605
 30
0.0
 10
8.4671832848
 20
6.4979259816
 30
0.0
 10
8.4909304523
 20
6.4637453662
 30
0.0
 10
8.5170221347
 20
6.4312510637
 30
0.0
 10
8.54531506
 20
6.4006213874
 30
0.0
 10
8.5756539235
 20
6.3720244495
 30
0.0
 10
8.6078722325
 20
6.3456172513
 30
0.0
 10
8.6417932004
 20
6.3215448214
 30
0.0
 10
8.6772307004
 20
6.2999394069
 30
0.0
 10
8.7139902838
 20
6.2809197795
 30
0.0
 10
8.7518702752
 20
6.2645905821
 30
0.0
 10
8.79066269
 20
6.2510417631
 30
0.0
 10
8.8301550028
 20
6.2403480587
 30
0.0
 10
8.8701289059
 20
6.2325686588
 30
0.0
 10
8.9037069835
 20
6.2285450125
 30
0.0
 10
8.9305848997
 20
6.2268242186
 30
0.0
 10
8.9507027588
 20
6.2262827985
 30
0.0
 10
8.9707750025
 20
6.2264897984
 30
0.0
 10
8.9907743673
 20
6.2274451253
 30
0.0
 10
9.0106732629
 20
6.2291472856
 30
0.0
 10
9.0304443373
 20
6.2315940882
 30
0.0
 10
9.0500603877
 20
6.2347821505
 30
0.0
 10
9.0694944485
 20
6.2387070268
 30
0.0
 10
9.0887197465
 20
6.2433635041
 30
0.0
 10
9.1077098849
 20
6.2487449709
 30
0.0
 10
9.1264386755
 20
6.2548442578
 30
0.0
 10
9.144880397
 20
6.2616528214
 30
0.0
 10
9.1630096509
 20
6.2691613806
 30
0.0
 10
9.1808014694
 20
6.2773596491
 30
0.0
 10
9.1982314302
 20
6.2862362293
 30
0.0
 10
9.2152754452
 20
6.2957791099
 30
0.0
 10
9.23191017
 20
6.3059749584
 30
0.0
 10
9.2481126134
 20
6.3168099293
 30
0.0
 10
9.263860515
 20
6.3282689977
 30
0.0
 10
9.2791322793
 20
6.3403364813
 30
0.0
 10
9.2939065247
 20
6.3529955791
 30
0.0
 10
9.3034119232
 20
6.3618186683
 30
0.0
 10
9.3080740618
 20
6.3663219527
 30
0.0
  0
SPLINE
  5
352
100
AcDbEntity
  8
0
100
AcDbSpline
 62
7
  6
CONTINUOUS
 70
0
 71
3
 72
15
 73
11
 74
0
 42
0.0000001
 43
0.0000001
 44
0.0000000001
 40
0.0
 40
0.0
 40
0.0
 40
0.0
 40
0.1265123601
 40
0.252574451
 40
0.3781735807
 40
0.5033338798
 40
0.6280717195
 40
0.7524091434
 40
0.8763745848
 40
1.0
 40
1.0
 40
1.0
 40
1.0
 10
9.0752781297
 20
7.1728228469
 30
0.0
 10
9.0752781297
 20
7.1770690702
 30
0.0
 10
9.0755019081
 20
7.1855481498
 30
0.0
 10
9.0765118927
 20
7.1982065819
 30
0.0
 10
9.0781931874
 20
7.2107480993
 30
0.0
 10
9.0805409094
 20
7.2231368474
 30
0.0
 10
9.0835485943
 20
7.2353385728
 30
0.0
 10
9.0872079094
 20
7.2473191968
 30
0.0
 10
9.0915084821
 20
7.2590447447
 30
0.0
 10
9.0947997882
 20
7.2666807558
 30
0.0
 10
9.0965477779
 20
7.2704439252
 30
0.0
  0
SPLINE
  5
353
100
AcDbEntity
  8
0
100
AcDbSpline
 62
7
  6
CONTINUOUS
 70
0
 71
3
 72
13
 73
9
 74
0
 42
0.0000001
 43
0.0000001
 44
0.0000000001
 40
0.0
 40
0.0
 40
0.0
 40
0.0
 40
0.2517656373
 40
0.5023104688
 40
0.6271575192
 40
0.7517158188
 40
0.8759932454
 40
1.0
 40
1.0
 40
1.0
 40
1.0
 10
8.727287368
 20
7.1486895629
 30
0.0
 10
8.727287368
 20
7.161390774
 30
0.0
 10
8.728177296
 20
7.1867403001
 30
0.0
 10
8.7315335035
 20
7.2182292267
 30
0.0
 10
8.7355538379
 20
7.2431332025
 30
0.0
 10
8.7392277911
 20
7.2616278853
 30
0.0
 10
8.7435590103
 20
7.2799357722
 30
0.0
 10
8.7468849535
 20
7.2920151213
 30
0.0
 10
8.7486556506
 20
7.2980152611
 30
0.0
  0
SPLINE
  5
354
100
AcDbEntity
  8
0
100
AcDbSpline
 62
7
  6
CONTINUOUS
 70
0
 71
3
 72
42
 73
38
 74
0
 42
0.0000001
 43
0.0000001
 44
0.0000000001
 40
0.0
 40
0.0
 40
0.0
 40
0.0
 40
0.0307680247
 40
0.0616610298
 40
0.0926757604
 40
0.1238084629
 40
0.1550531096
 40
0.1864024809
 40
0.2178478762
 40
0.2493793805
 40
0.2809859577
 40
0.3126556132
 40
0.3443755492
 40
0.3761323314
 40
0.407912061
 40
0.4397005505
 40
0.4714835023
 40
0.5032466887
 40
0.5349761306
 40
0.5666582739
 40
0.5982801626
 40
0.6298296065
 40
0.6612953415
 40
0.692667181
 40
0.7239361576
 40
0.7550946514
 40
0.7861365046
 40
0.8170571194
 40
0.8478535383
 40
0.8632063813
 40
0.8785278523
 40
0.9090738467
 40
0.9394971035
 40
0.9546656126
 40
0.9698050711
 40
0.9849162467
 40
1.0
 40
1.0
 40
1.0
 40
1.0
 10
8.727287368
 20
7.1486895629
 30
0.0
 10
8.727287368
 20
7.1379989792
 30
0.0
 10
8.727920625
 20
7.1165691543
 30
0.0
 10
8.7307532264
 20
7.0844757154
 30
0.0
 10
8.7354606465
 20
7.0524742416
 30
0.0
 10
8.7420262088
 20
7.020677495
 30
0.0
 10
8.7504271075
 20
6.989195416
 30
0.0
 10
8.760633968
 20
6.9581374792
 30
0.0
 10
8.7726112715
 20
6.9276114835
 30
0.0
 10
8.7863173152
 20
6.8977234226
 30
0.0
 10
8.8017044317
 20
6.8685770552
 30
0.0
 10
8.818719124
 20
6.8402735638
 30
0.0
 10
8.8373022625
 20
6.8129112031
 30
0.0
 10
8.8573892853
 20
6.7865849618
 30
0.0
 10
8.8789104232
 20
6.7613862363
 30
0.0
 10
8.901790938
 20
6.7374025128
 30
0.0
 10
8.9259513805
 20
6.7147170656
 30
0.0
 10
8.9513078676
 20
6.6934086715
 30
0.0
 10
8.9777723708
 20
6.6735513376
 30
0.0
 10
9.0052530201
 20
6.6552140463
 30
0.0
 10
9.03365442
 20
6.6384605165
 30
0.0
 10
9.0628779781
 20
6.6233489837
 30
0.0
 10
9.0928222459
 20
6.6099319982
 30
0.0
 10
9.1233832618
 20
6.5982562427
 30
0.0
 10
9.1544549312
 20
6.5883623697
 30
0.0
 10
9.1859293085
 20
6.5802848615
 30
0.0
 10
9.217697277
 20
6.574051901
 30
0.0
 10
9.2496477776
 20
6.5696853014
 30
0.0
 10
9.2763626912
 20
6.567612329
 30
0.0
 10
9.2977120376
 20
6.5669021865
 30
0.0
 10
9.3189860656
 20
6.5668233175
 30
0.0
 10
9.3454884364
 20
6.567903969
 30
0.0
 10
9.371826282
 20
6.5705623538
 30
0.0
 10
9.392706387
 20
6.5736297154
 30
0.0
 10
9.408245967
 20
6.5763954333
 30
0.0
 10
9.4236652874
 20
6.5796257593
 30
0.0
 10
9.4338653137
 20
6.5820896625
 30
0.0
 10
9.438940313
 20
6.5833981315
 30
0.0
  0
SPLINE
  5
355
100
AcDbEntity
  8
0
100
AcDbSpline
 62
7
  6
CONTINUOUS
 70
0
 71
3
 72
72
 73
68
 74
0
 42
0.0000001
 43
0.0000001
 44
0.0000000001
 40
0.0
 40
0.0
 40
0.0
 40
0.0
 40
0.0155841933
 40
0.0311159166
 40
0.0465951879
 40
0.062023807
 40
0.0697201918
 40
0.0774045832
 40
0.0927373981
 40
0.1080262201
 40
0.1232742512
 40
0.1384851142
 40
0.1536628162
 40
0.1688117115
 40
0.1839364566
 40
0.1990419634
 40
0.2141333485
 40
0.2292158794
 40
0.2442949183
 40
0.2593758643
 40
0.2744640962
 40
0.2895649144
 40
0.3046834852
 40
0.3198247867
 40
0.3349935563
 40
0.350194242
 40
0.3654309572
 40
0.38070744
 40
0.3960270182
 40
0.4113925789
 40
0.4268065427
 40
0.4422708439
 40
0.4577869148
 40
0.473355677
 40
0.4889775381
 40
0.5046523934
 40
0.5203796317
 40
0.5361581458
 40
0.5519863474
 40
0.5678621859
 40
0.5837831732
 40
0.5997464096
 40
0.6157486133
 40
0.6317861521
 40
0.6478550777
 40
0.6639511636
 40
0.6800699442
 40
0.6962067549
 40
0.7123567731
 40
0.7285150609
 40
0.7446766075
 40
0.7608363744
 40
0.7769893388
 40
0.7931305374
 40
0.8092551094
 40
0.8253583386
 40
0.8414356959
 40
0.8574828808
 40
0.8734958605
 40
0.889470906
 40
0.9054046296
 40
0.9212940155
 40
0.9371364388
 40
0.9529297806
 40
0.9686721073
 40
0.9843626845
 40
1.0
 40
1.0
 40
1.0
 40
1.0
 10
9.7396516168
 20
9.0314856997
 30
0.0
 10
9.7396516168
 20
9.0204422941
 30
0.0
 10
9.7391111636
 20
8.9983887688
 30
0.0
 10
9.7366715606
 20
8.9654473197
 30
0.0
 10
9.7326100103
 20
8.9327768556
 30
0.0
 10
9.727877917
 20
8.9058204679
 30
0.0
 10
9.7232917055
 20
8.8844731154
 30
0.0
 10
9.7181832242
 20
8.8633145488
 30
0.0
 10
9.7108106369
 20
8.837176968
 30
0.0
 10
9.7003974569
 20
8.8063708935
 30
0.0
 10
9.6884493574
 20
8.7762194053
 30
0.0
 10
9.6749952013
 20
8.7467957171
 30
0.0
 10
9.6600673367
 20
8.718170662
 30
0.0
 10
9.6437017118
 20
8.6904133277
 30
0.0
 10
9.6259377323
 20
8.6635906767
 30
0.0
 10
9.6068182017
 20
8.6377674283
 30
0.0
 10
9.5863892239
 20
8.6130058716
 30
0.0
 10
9.5647000597
 20
8.5893657398
 30
0.0
 10
9.5418030142
 20
8.5669040603
 30
0.0
 10
9.51775331
 20
8.5456750165
 30
0.0
 10
9.49260895
 20
8.5257298221
 30
0.0
 10
9.4664305972
 20
8.5071165693
 30
0.0
 10
9.4392814193
 20
8.4898801124
 30
0.0
 10
9.4112269161
 20
8.4740619829
 30
0.0
 10
9.3823347647
 20
8.4597002856
 30
0.0
 10
9.3526746552
 20
8.4468296079
 30
0.0
 10
9.3223181204
 20
8.4354809439
 30
0.0
 10
9.2913383765
 20
8.4256815811
 30
0.0
 10
9.2598101316
 20
8.4174550573
 30
0.0
 10
9.2278093997
 20
8.4108211213
 30
0.0
 10
9.1954133192
 20
8.4057956845
 30
0.0
 10
9.1626999686
 20
8.4023907851
 30
0.0
 10
9.1297481799
 20
8.4006145641
 30
0.0
 10
9.0966373506
 20
8.4004712029
 30
0.0
 10
9.0634472462
 20
8.4019609536
 30
0.0
 10
9.0302578097
 20
8.4050801453
 30
0.0
 10
8.9971489715
 20
8.4098211922
 30
0.0
 10
8.9642004602
 20
8.4161726152
 30
0.0
 10
8.9314916133
 20
8.4241190649
 30
0.0
 10
8.8991011758
 20
8.4336413237
 30
0.0
 10
8.8671071193
 20
8.4447163965
 30
0.0
 10
8.8355864563
 20
8.4573175628
 30
0.0
 10
8.8046150569
 20
8.4714144414
 30
0.0
 10
8.7742674715
 20
8.4869730656
 30
0.0
 10
8.7446167468
 20
8.5039559507
 30
0.0
 10
8.7157342363
 20
8.5223221656
 30
0.0
 10
8.6876894477
 20
8.5420274675
 30
0.0
 10
8.6605498756
 20
8.5630244024
 30
0.0
 10
8.634380841
 20
8.5852624175
 30
0.0
 10
8.60924534
 20
8.6086879859
 30
0.0
 10
8.5852038757
 20
8.6332447143
 30
0.0
 10
8.562314306
 20
8.6588734775
 30
0.0
 10
8.5406317277
 20
8.6855125842
 30
0.0
 10
8.5202083412
 20
8.7130979183
 30
0.0
 10
8.5010933269
 20
8.7415630914
 30
0.0
 10
8.4833327329
 20
8.7708396037
 30
0.0
 10
8.4669693336
 20
8.8008569889
 30
0.0
 10
8.4520425359
 20
8.831542994
 30
0.0
 10
8.4385883049
 20
8.8628237624
 30
0.0
 10
8.4266390715
 20
8.8946240056
 30
0.0
 10
8.4162236575
 20
8.9268671854
 30
0.0
 10
8.4073672209
 20
8.9594756796
 30
0.0
 10
8.4000910922
 20
8.9923710325
 30
0.0
 10
8.3944129514
 20
9.0254738723
 30
0.0
 10
8.3903463132
 20
9.0587050143
 30
0.0
 10
8.3879013685
 20
9.091983098
 30
0.0
 10
8.3873553799
 20
9.1141867128
 30
0.0
 10
8.3873553799
 20
9.1252677623
 30
0.0
  0
SPLINE
  5
356
100
AcDbEntity
  8
0
100
AcDbSpline
 62
7
  6
CONTINUOUS
 70
0
 71
3
 72
53
 73
49
 74
0
 42
0.0000001
 43
0.0000001
 44
0.0000000001
 40
0.0
 40
0.0
 40
0.0
 40
0.0
 40
0.0417737855
 40
0.0840372804
 40
0.1266586658
 40
0.1695068268
 40
0.2124484817
 40
0.2553505161
 40
0.2980797819
 40
0.3405038709
 40
0.3824915641
 40
0.4239133811
 40
0.4646421101
 40
0.5045533515
 40
0.5435260687
 40
0.5814431539
 40
0.6181920188
 40
0.6536652174
 40
0.6877611189
 40
0.7203846489
 40
0.7361168986
 40
0.751448868
 40
0.7663708503
 40
0.7808738904
 40
0.7949495081
 40
0.8085900804
 40
0.821788593
 40
0.8345389529
 40
0.8468359066
 40
0.8586751859
 40
0.8700536732
 40
0.8809693639
 40
0.891421781
 40
0.9014118319
 40
0.9109423967
 40
0.9200182439
 40
0.9286466706
 40
0.9368376675
 40
0.9446045284
 40
0.9519643801
 40
0.9589387458
 40
0.9655544017
 40
0.9718438599
 40
0.9778462342
 40
0.9836073809
 40
0.9891800528
 40
0.994623075
 40
1.0
 40
1.0
 40
1.0
 40
1.0
 10
12.7979456425
 20
9.0146081531
 30
0.0
 10
12.7979456425
 20
9.004701932
 30
0.0
 10
12.7977910854
 20
8.9847730491
 30
0.0
 10
12.7971078687
 20
8.9547439854
 30
0.0
 10
12.7959738482
 20
8.9244735604
 30
0.0
 10
12.7943928112
 20
8.8940621895
 30
0.0
 10
12.792369932
 20
8.8636103116
 30
0.0
 10
12.7899119254
 20
8.8332187496
 30
0.0
 10
12.7870269206
 20
8.8029880228
 30
0.0
 10
12.7837244862
 20
8.7730181511
 30
0.0
 10
12.7800155767
 20
8.7434082751
 30
0.0
 10
12.7759125048
 20
8.7142563396
 30
0.0
 10
12.771428899
 20
8.6856587619
 30
0.0
 10
12.7665796621
 20
8.6577101087
 30
0.0
 10
12.7613809198
 20
8.6305027798
 30
0.0
 10
12.7558499697
 20
8.6041266915
 30
0.0
 10
12.750005222
 20
8.578668991
 30
0.0
 10
12.7438661506
 20
8.5542136878
 30
0.0
 10
12.7374531904
 20
8.5308416074
 30
0.0
 10
12.731832858
 20
8.5121118834
 30
0.0
 10
12.7272064892
 20
8.4977346108
 30
0.0
 10
12.7237236919
 20
8.4874001747
 30
0.0
 10
12.7201887065
 20
8.4773920854
 30
0.0
 10
12.7166045297
 20
8.4677185802
 30
0.0
 10
12.7129740455
 20
8.4583876571
 30
0.0
 10
12.7093003456
 20
8.4494069924
 30
0.0
 10
12.7055864052
 20
8.440783996
 30
0.0
 10
12.7018353392
 20
8.4325257551
 30
0.0
 10
12.698050237
 20
8.4246390563
 30
0.0
 10
12.6942341986
 20
8.4171303791
 30
0.0
 10
12.6903904222
 20
8.4100058517
 30
0.0
 10
12.6865219749
 20
8.403271326
 30
0.0
 10
12.6826321267
 20
8.3969322434
 30
0.0
 10
12.6787239132
 20
8.3909938023
 30
0.0
 10
12.6748006017
 20
8.3854607474
 30
0.0
 10
12.6708652068
 20
8.3803375891
 30
0.0
 10
12.6669208914
 20
8.3756283968
 30
0.0
 10
12.6629706364
 20
8.3713369713
 30
0.0
 10
12.6590173976
 20
8.3674667739
 30
0.0
 10
12.6550640717
 20
8.3640209315
 30
0.0
 10
12.6511133455
 20
8.3610024481
 30
0.0
 10
12.6471679931
 20
8.3584139426
 30
0.0
 10
12.6432305427
 20
8.356258216
 30
0.0
 10
12.6393038044
 20
8.3545376876
 30
0.0
 10
12.6353906984
 20
8.3532551258
 30
0.0
 10
12.6314945304
 20
8.3524128363
 30
0.0
 10
12.6276199805
 20
8.3520129797
 30
0.0
 10
12.6250476143
 20
8.3520424032
 30
0.0
 10
12.6237755881
 20
8.3521306285
 30
0.0
  0
SPLINE
  5
357
100
AcDbEntity
  8
0
100
AcDbSpline
 62
7
  6
CONTINUOUS
 70
0
 71
3
 72
75
 73
71
 74
0
 42
0.0000001
 43
0.0000001
 44
0.0000000001
 40
0.0
 40
0.0
 40
0.0
 40
0.0
 40
0.0155842192
 40
0.0233572755
 40
0.0311169608
 40
0.046596236
 40
0.0620247854
 40
0.0697211414
 40
0.0774055104
 40
0.0927382729
 40
0.1080270414
 40
0.123275021
 40
0.1384858323
 40
0.1536634824
 40
0.1688123253
 40
0.1839370178
 40
0.1990424723
 40
0.2141338055
 40
0.2292162847
 40
0.2442952718
 40
0.2593761658
 40
0.2744643456
 40
0.2895651118
 40
0.304683631
 40
0.3198248809
 40
0.3349935985
 40
0.3501942316
 40
0.3654308936
 40
0.3807073232
 40
0.3960268487
 40
0.4113923571
 40
0.4268062686
 40
0.4422705168
 40
0.4577865339
 40
0.4733552422
 40
0.4889770495
 40
0.5046518511
 40
0.5203790354
 40
0.5361574949
 40
0.5519856415
 40
0.5678614254
 40
0.5837823585
 40
0.5997455407
 40
0.6157476895
 40
0.6317851725
 40
0.6478540421
 40
0.6639500724
 40
0.6800687979
 40
0.6962055534
 40
0.7123555163
 40
0.7285137483
 40
0.7446752392
 40
0.7608349505
 40
0.7769878595
 40
0.7931290025
 40
0.8092535185
 40
0.8253566919
 40
0.8414339942
 40
0.8574811246
 40
0.8654926466
 40
0.8734951387
 40
0.8894701295
 40
0.9054037966
 40
0.9212931282
 40
0.9371354993
 40
0.9529287706
 40
0.9686711003
 40
0.9765233353
 40
0.9843626592
 40
1.0
 40
1.0
 40
1.0
 40
1.0
 10
10.093180445
 20
7.1350040649
 30
0.0
 10
10.093180445
 20
7.1497391992
 30
0.0
 10
10.093721825
 20
7.171829024
 30
0.0
 10
10.0955332171
 20
7.2011969655
 30
0.0
 10
10.0980635871
 20
7.2304127037
 30
0.0
 10
10.1025759352
 20
7.2667101142
 30
0.0
 10
10.1088899477
 20
7.3026773661
 30
0.0
 10
10.1150092104
 20
7.3311608717
 30
0.0
 10
10.121825454
 20
7.3593924224
 30
0.0
 10
10.131662567
 20
7.3942674385
 30
0.0
 10
10.1455567143
 20
7.435371549
 30
0.0
 10
10.1614988683
 20
7.4756022621
 30
0.0
 10
10.1794505521
 20
7.5148618761
 30
0.0
 10
10.1993686021
 20
7.5530558749
 30
0.0
 10
10.2212050454
 20
7.5900920778
 30
0.0
 10
10.2449072798
 20
7.6258811519
 30
0.0
 10
10.2704181864
 20
7.6603367523
 30
0.0
 10
10.2976762711
 20
7.6933757537
 30
0.0
 10
10.326615812
 20
7.7249184487
 30
0.0
 10
10.357167019
 20
7.7548887443
 30
0.0
 10
10.3892562042
 20
7.7832143473
 30
0.0
 10
10.4228059614
 20
7.809826942
 30
0.0
 10
10.4577353558
 20
7.8346623547
 30
0.0
 10
10.4939601164
 20
7.8576607187
 30
0.0
 10
10.5313928473
 20
7.8787666161
 30
0.0
 10
10.5699432438
 20
7.8979292067
 30
0.0
 10
10.609518313
 20
7.9151023511
 30
0.0
 10
10.6500226006
 20
7.9302447206
 30
0.0
 10
10.6913584238
 20
7.9433198942
 30
0.0
 10
10.7334261087
 20
7.9542964451
 30
0.0
 10
10.7761242316
 20
7.9631480134
 30
0.0
 10
10.8193498655
 20
7.9698533659
 30
0.0
 10
10.8629988268
 20
7.9743964531
 30
0.0
 10
10.9069659291
 20
7.9767664435
 30
0.0
 10
10.9511452373
 20
7.9769577397
 30
0.0
 10
10.9954303221
 20
7.9749699914
 30
0.0
 10
11.0397145155
 20
7.9708080932
 30
0.0
 10
11.0838911661
 20
7.9644821705
 30
0.0
 10
11.1278538946
 20
7.9560075538
 30
0.0
 10
11.1714968483
 20
7.9454047399
 30
0.0
 10
11.2147149537
 20
7.9326993407
 30
0.0
 10
11.2574041693
 20
7.9179220265
 30
0.0
 10
11.2994617372
 20
7.9011084531
 30
0.0
 10
11.3407864256
 20
7.8822991668
 30
0.0
 10
11.3812787719
 20
7.8615395082
 30
0.0
 10
11.42084132
 20
7.8388795025
 30
0.0
 10
11.4593788532
 20
7.8143737395
 30
0.0
 10
11.4967986219
 20
7.7880812423
 30
0.0
 10
11.5330105654
 20
7.7600653264
 30
0.0
 10
11.5679275265
 20
7.7303934465
 30
0.0
 10
11.6014654632
 20
7.6991370387
 30
0.0
 10
11.6335436543
 20
7.6663713525
 30
0.0
 10
11.6640848866
 20
7.6321752611
 30
0.0
 10
11.6930156391
 20
7.5966310789
 30
0.0
 10
11.7202662664
 20
7.5598243459
 30
0.0
 10
11.7457711358
 20
7.5218436894
 30
0.0
 10
11.7694688963
 20
7.4827803672
 30
0.0
 10
11.7913022078
 20
7.4427289597
 30
0.0
 10
11.8079087896
 20
7.4085896766
 30
0.0
 10
11.8202099954
 20
7.3808807701
 30
0.0
 10
11.8318355121
 20
7.3529555421
 30
0.0
 10
11.8451145267
 20
7.3176163992
 30
0.0
 10
11.8590115039
 20
7.2745951248
 30
0.0
 10
11.8708285628
 20
7.2310860047
 30
0.0
 10
11.8805370015
 20
7.1871941539
 30
0.0
 10
11.888113284
 20
7.1430257947
 30
0.0
 10
11.892638808
 20
7.1060441353
 30
0.0
 10
11.895174569
 20
7.0764285975
 30
0.0
 10
11.8969840964
 20
7.0468598682
 30
0.0
 10
11.8975300857
 20
7.024657354
 30
0.0
 10
11.8975300857
 20
7.0098719923
 30
0.0
  0
SPLINE
  5
358
100
AcDbEntity
  8
0
100
AcDbSpline
 62
7
  6
CONTINUOUS
 70
0
 71
3
 72
53
 73
49
 74
0
 42
0.0000001
 43
0.0000001
 44
0.0000000001
 40
0.0
 40
0.0
 40
0.0
 40
0.0
 40
0.0417737855
 40
0.0840372804
 40
0.1266586658
 40
0.1695068268
 40
0.2124484817
 40
0.2553505161
 40
0.2980797819
 40
0.3405038709
 40
0.3824915641
 40
0.4239133811
 40
0.4646421101
 40
0.5045533515
 40
0.5435260687
 40
0.5814431539
 40
0.6181920188
 40
0.6536652174
 40
0.6877611189
 40
0.7203846489
 40
0.7361168986
 40
0.751448868
 40
0.7663708503
 40
0.7808738904
 40
0.7949495081
 40
0.8085900804
 40
0.821788593
 40
0.8345389529
 40
0.8468359066
 40
0.8586751859
 40
0.8700536732
 40
0.8809693639
 40
0.891421781
 40
0.9014118319
 40
0.9109423967
 40
0.9200182439
 40
0.9286466706
 40
0.9368376675
 40
0.9446045284
 40
0.9519643801
 40
0.9589387458
 40
0.9655544017
 40
0.9718438599
 40
0.9778462342
 40
0.9836073809
 40
0.9891800528
 40
0.994623075
 40
1.0
 40
1.0
 40
1.0
 40
1.0
 10
12.7979456425
 20
6.2366053821
 30
0.0
 10
12.7979456425
 20
6.226699161
 30
0.0
 10
12.7977910854
 20
6.2067702781
 30
0.0
 10
12.7971078687
 20
6.1767412144
 30
0.0
 10
12.7959738482
 20
6.1464707894
 30
0.0
 10
12.7943928112
 20
6.1160594185
 30
0.0
 10
12.792369932
 20
6.0856075406
 30
0.0
 10
12.7899119254
 20
6.0552159786
 30
0.0
 10
12.7870269206
 20
6.0249852518
 30
0.0
 10
12.7837244862
 20
5.9950153801
 30
0.0
 10
12.7800155767
 20
5.9654055041
 30
0.0
 10
12.7759125048
 20
5.9362535686
 30
0.0
 10
12.771428899
 20
5.9076559909
 30
0.0
 10
12.7665796621
 20
5.8797073377
 30
0.0
 10
12.7613809198
 20
5.8525000088
 30
0.0
 10
12.7558499697
 20
5.8261239205
 30
0.0
 10
12.750005222
 20
5.80066622
 30
0.0
 10
12.7438661506
 20
5.7762109168
 30
0.0
 10
12.7374531904
 20
5.7528388364
 30
0.0
 10
12.731832858
 20
5.7341091124
 30
0.0
 10
12.7272064892
 20
5.7197318398
 30
0.0
 10
12.7237236919
 20
5.7093974037
 30
0.0
 10
12.7201887065
 20
5.6993893144
 30
0.0
 10
12.7166045297
 20
5.6897158092
 30
0.0
 10
12.7129740455
 20
5.6803848861
 30
0.0
 10
12.7093003456
 20
5.6714042214
 30
0.0
 10
12.7055864052
 20
5.662781225
 30
0.0
 10
12.7018353392
 20
5.6545229841
 30
0.0
 10
12.698050237
 20
5.6466362853
 30
0.0
 10
12.6942341986
 20
5.6391276081
 30
0.0
 10
12.6903904222
 20
5.6320030807
 30
0.0
 10
12.6865219749
 20
5.625268555
 30
0.0
 10
12.6826321267
 20
5.6189294724
 30
0.0
 10
12.6787239132
 20
5.6129910313
 30
0.0
 10
12.6748006017
 20
5.6074579764
 30
0.0
 10
12.6708652068
 20
5.6023348181
 30
0.0
 10
12.6669208914
 20
5.5976256258
 30
0.0
 10
12.6629706364
 20
5.5933342003
 30
0.0
 10
12.6590173976
 20
5.5894640029
 30
0.0
 10
12.6550640717
 20
5.5860181605
 30
0.0
 10
12.6511133455
 20
5.5829996771
 30
0.0
 10
12.6471679931
 20
5.5804111716
 30
0.0
 10
12.6432305427
 20
5.578255445
 30
0.0
 10
12.6393038044
 20
5.5765349166
 30
0.0
 10
12.6353906984
 20
5.5752523548
 30
0.0
 10
12.6314945304
 20
5.5744100653
 30
0.0
 10
12.6276199805
 20
5.5740102087
 30
0.0
 10
12.6250476143
 20
5.5740396322
 30
0.0
 10
12.6237755881
 20
5.5741278575
 30
0.0
  0
SPLINE
  5
359
100
AcDbEntity
  8
0
100
AcDbSpline
 62
7
  6
CONTINUOUS
 70
0
 71
3
 72
24
 73
20
 74
0
 42
0.0000001
 43
0.0000001
 44
0.0000000001
 40
0.0
 40
0.0
 40
0.0
 40
0.0
 40
0.0637764408
 40
0.1273443672
 40
0.1907010024
 40
0.2538548258
 40
0.3168116123
 40
0.3795801652
 40
0.4421711518
 40
0.5045967904
 40
0.5668710032
 40
0.6290092014
 40
0.6910281576
 40
0.7220010174
 40
0.7529508941
 40
0.8147862914
 40
0.8765592262
 40
0.9382901647
 40
1.0
 40
1.0
 40
1.0
 40
1.0
 10
8.5563701505
 20
9.1505235039
 30
0.0
 10
8.5563701505
 20
9.1591944184
 30
0.0
 10
8.5567852002
 20
9.1765108355
 30
0.0
 10
8.5586583929
 20
9.2023800981
 30
0.0
 10
8.5617773354
 20
9.2280443319
 30
0.0
 10
8.5661345139
 20
9.2534432102
 30
0.0
 10
8.5717202256
 20
9.2785187124
 30
0.0
 10
8.5785215337
 20
9.3032128695
 30
0.0
 10
8.5865227953
 20
9.3274687968
 30
0.0
 10
8.5957056413
 20
9.3512305297
 30
0.0
 10
8.6060490445
 20
9.3744433372
 30
0.0
 10
8.6175289322
 20
9.3970533448
 30
0.0
 10
8.6280257842
 20
9.4153583113
 30
0.0
 10
8.6369626082
 20
9.4296459988
 30
0.0
 10
8.6462476432
 20
9.4436799705
 30
0.0
 10
8.658512033
 20
9.4607553068
 30
0.0
 10
8.674248996
 20
9.4804494047
 30
0.0
 10
8.6909651291
 20
9.4992962285
 30
0.0
 10
8.702738399
 20
9.511268889
 30
0.0
 10
8.7087729013
 20
9.5170977762
 30
0.0
  0
SPLINE
  5
35A
100
AcDbEntity
  8
0
100
AcDbSpline
 62
7
  6
CONTINUOUS
 70
0
 71
3
 72
17
 73
13
 74
0
 42
0.0000001
 43
0.0000001
 44
0.0000000001
 40
0.0
 40
0.0
 40
0.0
 40
0.0
 40
0.0596113223
 40
0.1200912529
 40
0.1813126011
 40
0.2431456803
 40
0.3681472036
 40
0.4942438354
 40
0.6208084599
 40
0.7474333598
 40
0.8738750806
 40
1.0
 40
1.0
 40
1.0
 40
1.0
 10
9.3299262728
 20
9.5449258295
 30
0.0
 10
9.3282808706
 20
9.5427776932
 30
0.0
 10
9.3249126837
 20
9.5384907586
 30
0.0
 10
9.3196755461
 20
9.5321409697
 30
0.0
 10
9.3142263191
 20
9.5258381868
 30
0.0
 10
9.3066678898
 20
9.5174912446
 30
0.0
 10
9.2967731719
 20
9.5072921778
 30
0.0
 10
9.2842755419
 20
9.4955490639
 30
0.0
 10
9.2711748748
 20
9.4843678333
 30
0.0
 10
9.2575217737
 20
9.4738414869
 30
0.0
 10
9.2433577897
 20
9.46404822
 30
0.0
 10
9.2335835459
 20
9.4580433417
 30
0.0
 10
9.2286231697
 20
9.455184792
 30
0.0
  0
SPLINE
  5
35B
100
AcDbEntity
  8
0
100
AcDbSpline
 62
7
  6
CONTINUOUS
 70
0
 71
3
 72
75
 73
71
 74
0
 42
0.0000001
 43
0.0000001
 44
0.0000000001
 40
0.0
 40
0.0
 40
0.0
 40
0.0
 40
0.0155842192
 40
0.0233572755
 40
0.0311169608
 40
0.046596236
 40
0.0620247854
 40
0.0697211414
 40
0.0774055104
 40
0.0927382729
 40
0.1080270414
 40
0.123275021
 40
0.1384858323
 40
0.1536634824
 40
0.1688123253
 40
0.1839370178
 40
0.1990424723
 40
0.2141338055
 40
0.2292162847
 40
0.2442952718
 40
0.2593761658
 40
0.2744643456
 40
0.2895651118
 40
0.304683631
 40
0.3198248809
 40
0.3349935985
 40
0.3501942316
 40
0.3654308936
 40
0.3807073232
 40
0.3960268487
 40
0.4113923571
 40
0.4268062686
 40
0.4422705168
 40
0.4577865339
 40
0.4733552422
 40
0.4889770495
 40
0.5046518511
 40
0.5203790354
 40
0.5361574949
 40
0.5519856415
 40
0.5678614254
 40
0.5837823585
 40
0.5997455407
 40
0.6157476895
 40
0.6317851725
 40
0.6478540421
 40
0.6639500724
 40
0.6800687979
 40
0.6962055534
 40
0.7123555163
 40
0.7285137483
 40
0.7446752392
 40
0.7608349505
 40
0.7769878595
 40
0.7931290025
 40
0.8092535185
 40
0.8253566919
 40
0.8414339942
 40
0.8574811246
 40
0.8654926466
 40
0.8734951387
 40
0.8894701295
 40
0.9054037966
 40
0.9212931282
 40
0.9371354993
 40
0.9529287706
 40
0.9686711003
 40
0.9765233353
 40
0.9843626592
 40
1.0
 40
1.0
 40
1.0
 40
1.0
 10
11.8975300857
 20
7.0098719923
 30
0.0
 10
11.8975300857
 20
6.9951368581
 30
0.0
 10
11.8969887057
 20
6.9730470333
 30
0.0
 10
11.8951773136
 20
6.9436790918
 30
0.0
 10
11.8926469436
 20
6.9144633536
 30
0.0
 10
11.8881345956
 20
6.8781659431
 30
0.0
 10
11.8818205831
 20
6.8421986911
 30
0.0
 10
11.8757013204
 20
6.8137151856
 30
0.0
 10
11.8688850767
 20
6.7854836348
 30
0.0
 10
11.8590479638
 20
6.7506086187
 30
0.0
 10
11.8451538164
 20
6.7095045082
 30
0.0
 10
11.8292116625
 20
6.6692737952
 30
0.0
 10
11.8112599786
 20
6.6300141811
 30
0.0
 10
11.7913419286
 20
6.5918201823
 30
0.0
 10
11.7695054853
 20
6.5547839795
 30
0.0
 10
11.745803251
 20
6.5189949053
 30
0.0
 10
11.7202923443
 20
6.4845393049
 30
0.0
 10
11.6930342596
 20
6.4515003035
 30
0.0
 10
11.6640947188
 20
6.4199576085
 30
0.0
 10
11.6335435118
 20
6.389987313
 30
0.0
 10
11.6014543265
 20
6.3616617099
 30
0.0
 10
11.5679045693
 20
6.3350491152
 30
0.0
 10
11.532975175
 20
6.3102137026
 30
0.0
 10
11.4967504143
 20
6.2872153385
 30
0.0
 10
11.4593176835
 20
6.2661094412
 30
0.0
 10
11.420767287
 20
6.2469468506
 30
0.0
 10
11.3811922178
 20
6.2297737061
 30
0.0
 10
11.3406879302
 20
6.2146313367
 30
0.0
 10
11.2993521069
 20
6.201556163
 30
0.0
 10
11.2572844221
 20
6.1905796122
 30
0.0
 10
11.2145862992
 20
6.1817280438
 30
0.0
 10
11.1713606653
 20
6.1750226913
 30
0.0
 10
11.127711704
 20
6.1704796041
 30
0.0
 10
11.0837446017
 20
6.1681096138
 30
0.0
 10
11.0395652935
 20
6.1679183176
 30
0.0
 10
10.9952802087
 20
6.1699060659
 30
0.0
 10
10.9509960153
 20
6.1740679641
 30
0.0
 10
10.9068193647
 20
6.1803938867
 30
0.0
 10
10.8628566362
 20
6.1888685035
 30
0.0
 10
10.8192136824
 20
6.1994713174
 30
0.0
 10
10.7759955771
 20
6.2121767166
 30
0.0
 10
10.7333063614
 20
6.2269540308
 30
0.0
 10
10.6912487935
 20
6.2437676041
 30
0.0
 10
10.6499241051
 20
6.2625768904
 30
0.0
 10
10.6094317588
 20
6.283336549
 30
0.0
 10
10.5698692107
 20
6.3059965547
 30
0.0
 10
10.5313316775
 20
6.3305023178
 30
0.0
 10
10.4939119088
 20
6.3567948149
 30
0.0
 10
10.4576999654
 20
6.3848107309
 30
0.0
 10
10.4227830042
 20
6.4144826108
 30
0.0
 10
10.3892450675
 20
6.4457390185
 30
0.0
 10
10.3571668765
 20
6.4785047048
 30
0.0
 10
10.3266256442
 20
6.5127007961
 30
0.0
 10
10.2976948917
 20
6.5482449784
 30
0.0
 10
10.2704442643
 20
6.5850517114
 30
0.0
 10
10.244939395
 20
6.6230323678
 30
0.0
 10
10.2212416344
 20
6.66209569
 30
0.0
 10
10.1994083229
 20
6.7021470976
 30
0.0
 10
10.1828017412
 20
6.7362863807
 30
0.0
 10
10.1705005353
 20
6.7639952872
 30
0.0
 10
10.1588750187
 20
6.7919205152
 30
0.0
 10
10.1455960041
 20
6.827259658
 30
0.0
 10
10.1316990269
 20
6.8702809325
 30
0.0
 10
10.1198819679
 20
6.9137900525
 30
0.0
 10
10.1101735292
 20
6.9576819033
 30
0.0
 10
10.1025972468
 20
7.0018502626
 30
0.0
 10
10.0980717228
 20
7.0388319219
 30
0.0
 10
10.0955359618
 20
7.0684474598
 30
0.0
 10
10.0937264343
 20
7.0980161891
 30
0.0
 10
10.093180445
 20
7.1202187033
 30
0.0
 10
10.093180445
 20
7.1350040649
 30
0.0
  0
SPLINE
  5
35C
100
AcDbEntity
  8
0
100
AcDbSpline
 62
7
  6
CONTINUOUS
 70
0
 71
3
 72
50
 73
46
 74
0
 42
0.0000001
 43
0.0000001
 44
0.0000000001
 40
0.0
 40
0.0
 40
0.0
 40
0.0
 40
0.0310734075
 40
0.0623040173
 40
0.0936872882
 40
0.1252144739
 40
0.1568742551
 40
0.1886524321
 40
0.2205324032
 40
0.2524954936
 40
0.2845213543
 40
0.3165883812
 40
0.3486741499
 40
0.3807558638
 40
0.4128108065
 40
0.4448167935
 40
0.4767526171
 40
0.5085984771
 40
0.5403363908
 40
0.5719505755
 40
0.6034277971
 40
0.6347576769
 40
0.6659329503
 40
0.6814638914
 40
0.6969549843
 40
0.7124062806
 40
0.727818042
 40
0.7431907579
 40
0.758525134
 40
0.7738220907
 40
0.7890827684
 40
0.8043085063
 40
0.8195008555
 40
0.8346615539
 40
0.8497925286
 40
0.8648958828
 40
0.8799738788
 40
0.8950289371
 40
0.9100636086
 40
0.9250805721
 40
0.9400826114
 40
0.9550725992
 40
0.9700534861
 40
0.9850282722
 40
1.0
 40
1.0
 40
1.0
 40
1.0
 10
8.5563701505
 20
9.1505235039
 30
0.0
 10
8.5563701505
 20
9.1370704869
 30
0.0
 10
8.5573737124
 20
9.1100860405
 30
0.0
 10
8.5618544194
 20
9.069738544
 30
0.0
 10
8.569288998
 20
9.0296279691
 30
0.0
 10
8.5796363828
 20
8.9899774118
 30
0.0
 10
8.5928392554
 20
8.9510038607
 30
0.0
 10
8.6088248478
 20
8.9129214222
 30
0.0
 10
8.627505123
 20
8.8759390407
 30
0.0
 10
8.6487773159
 20
8.8402596618
 30
0.0
 10
8.6725244834
 20
8.8060790464
 30
0.0
 10
8.6986161658
 20
8.7735847439
 30
0.0
 10
8.7269090911
 20
8.7429550676
 30
0.0
 10
8.7572479546
 20
8.7143581297
 30
0.0
 10
8.7894662636
 20
8.6879509315
 30
0.0
 10
8.8233872315
 20
8.6638785016
 30
0.0
 10
8.8588247315
 20
8.6422730871
 30
0.0
 10
8.8955843149
 20
8.6232534597
 30
0.0
 10
8.9334643063
 20
8.6069242623
 30
0.0
 10
8.9722567211
 20
8.5933754433
 30
0.0
 10
9.0117490339
 20
8.5826817388
 30
0.0
 10
9.051722937
 20
8.574902339
 30
0.0
 10
9.0853010146
 20
8.5708786927
 30
0.0
 10
9.1121789308
 20
8.5691578988
 30
0.0
 10
9.1322967899
 20
8.5686164787
 30
0.0
 10
9.1523690336
 20
8.5688234786
 30
0.0
 10
9.1723683984
 20
8.5697788055
 30
0.0
 10
9.192267294
 20
8.5714809658
 30
0.0
 10
9.2120383684
 20
8.5739277683
 30
0.0
 10
9.2316544188
 20
8.5771158307
 30
0.0
 10
9.2510884796
 20
8.581040707
 30
0.0
 10
9.2703137776
 20
8.5856971843
 30
0.0
 10
9.289303916
 20
8.5910786511
 30
0.0
 10
9.3080327066
 20
8.597177938
 30
0.0
 10
9.3264744281
 20
8.6039865016
 30
0.0
 10
9.344603682
 20
8.6114950608
 30
0.0
 10
9.3623955005
 20
8.6196933293
 30
0.0
 10
9.3798254613
 20
8.6285699095
 30
0.0
 10
9.3968694763
 20
8.6381127901
 30
0.0
 10
9.4135042011
 20
8.6483086386
 30
0.0
 10
9.4297066445
 20
8.6591436095
 30
0.0
 10
9.4454545461
 20
8.6706026779
 30
0.0
 10
9.4607263104
 20
8.6826701615
 30
0.0
 10
9.4755005558
 20
8.6953292593
 30
0.0
 10
9.4850059543
 20
8.7041523485
 30
0.0
 10
9.4896680929
 20
8.7086556329
 30
0.0
  0
SPLINE
  5
35D
100
AcDbEntity
  8
0
100
AcDbSpline
 62
7
  6
CONTINUOUS
 70
0
 71
3
 72
13
 73
9
 74
0
 42
0.0000001
 43
0.0000001
 44
0.0000000001
 40
0.0
 40
0.0
 40
0.0
 40
0.0
 40
0.1093000325
 40
0.223283736
 40
0.3418496813
 40
0.4649032239
 40
0.7240920519
 40
1.0
 40
1.0
 40
1.0
 40
1.0
 10
9.5647219925
 20
8.8474701275
 30
0.0
 10
9.565980239
 20
8.8483166376
 30
0.0
 10
9.5685618874
 20
8.8500292692
 30
0.0
 10
9.5725431572
 20
8.8526073747
 30
0.0
 10
9.576710387
 20
8.8552489403
 30
0.0
 10
9.5826101712
 20
8.8589198417
 30
0.0
 10
9.5904157835
 20
8.8636593629
 30
0.0
 10
9.5967998776
 20
8.8674493756
 30
0.0
 10
9.6000975
 20
8.8693936464
 30
0.0
  0
SPLINE
  5
35E
100
AcDbEntity
  8
0
100
AcDbSpline
 62
7
  6
CONTINUOUS
 70
0
 71
3
 72
43
 73
39
 74
0
 42
0.0000001
 43
0.0000001
 44
0.0000000001
 40
0.0
 40
0.0
 40
0.0
 40
0.0
 40
0.0308276478
 40
0.0617863723
 40
0.0928731288
 40
0.1240830514
 40
0.1554094006
 40
0.1868437593
 40
0.2183761415
 40
0.2499951606
 40
0.2816881997
 40
0.3134415996
 40
0.3452408556
 40
0.3770708243
 40
0.4089159356
 40
0.4407604098
 40
0.4725884759
 40
0.5043845903
 40
0.5361336532
 40
0.5678212206
 40
0.5994337099
 40
0.6309585968
 40
0.662384601
 40
0.6937018585
 40
0.7249020784
 40
0.7559786801
 40
0.7869269109
 40
0.8177439383
 40
0.8331047593
 40
0.8484326344
 40
0.8637277702
 40
0.8789905105
 40
0.909416977
 40
0.9397209945
 40
0.9548312585
 40
0.9699137486
 40
0.9849694825
 40
1.0
 40
1.0
 40
1.0
 40
1.0
 10
8.8441766912
 20
9.428523291
 30
0.0
 10
8.8441766912
 20
9.4172929206
 30
0.0
 10
8.8448755938
 20
9.3947783714
 30
0.0
 10
8.848000829
 20
9.3610696476
 30
0.0
 10
8.8531930178
 20
9.3274748862
 30
0.0
 10
8.8604320664
 20
9.2941245529
 30
0.0
 10
8.8696900797
 20
9.2611459604
 30
0.0
 10
8.8809314288
 20
9.2286655724
 30
0.0
 10
8.8941129162
 20
9.1968077654
 30
0.0
 10
8.909183929
 20
9.1656945621
 30
0.0
 10
8.9260866398
 20
9.1354451133
 30
0.0
 10
8.9447562252
 20
9.1061752606
 30
0.0
 10
8.9651211143
 20
9.0779970926
 30
0.0
 10
8.9871032619
 20
9.0510185203
 30
0.0
 10
9.0106184453
 20
9.0253428669
 30
0.0
 10
9.0355765853
 20
9.0010684752
 30
0.0
 10
9.0618820887
 20
8.9782883333
 30
0.0
 10
9.0894342119
 20
8.9570897214
 30
0.0
 10
9.1181274438
 20
8.9375538788
 30
0.0
 10
9.1478519065
 20
8.9197556951
 30
0.0
 10
9.1784937725
 20
8.9037634244
 30
0.0
 10
9.209935698
 20
8.8896384242
 30
0.0
 10
9.2420572614
 20
8.8774349212
 30
0.0
 10
9.274735447
 20
8.8671998028
 30
0.0
 10
9.3078450103
 20
8.8589724363
 30
0.0
 10
9.3412593293
 20
8.8527845163
 30
0.0
 10
9.3748494883
 20
8.848659938
 30
0.0
 10
9.4029138485
 20
8.8469537189
 30
0.0
 10
9.4253208232
 20
8.8466358331
 30
0.0
 10
9.4420729294
 20
8.8469195455
 30
0.0
 10
9.4587723098
 20
8.8477250218
 30
0.0
 10
9.4809213463
 20
8.8494914768
 30
0.0
 10
9.5084024921
 20
8.8529954519
 30
0.0
 10
9.5355512938
 20
8.8582282018
 30
0.0
 10
9.5569691768
 20
8.8634356763
 30
0.0
 10
9.5728557796
 20
8.8678437729
 30
0.0
 10
9.5885638497
 20
8.8727533979
 30
0.0
 10
9.5989158442
 20
8.8763608975
 30
0.0
 10
9.6040564523
 20
8.8782465748
 30
0.0
  0
SPLINE
  5
35F
100
AcDbEntity
  8
0
100
AcDbSpline
 62
7
  6
CONTINUOUS
 70
0
 71
3
 72
15
 73
11
 74
0
 42
0.0000001
 43
0.0000001
 44
0.0000000001
 40
0.0
 40
0.0
 40
0.0
 40
0.0
 40
0.1262772202
 40
0.2521779557
 40
0.3776971971
 40
0.5028482564
 40
0.6276397307
 40
0.7520831168
 40
0.8762001128
 40
1.0
 40
1.0
 40
1.0
 40
1.0
 10
8.8441766912
 20
9.428523291
 30
0.0
 10
8.8441766912
 20
9.4364148966
 30
0.0
 10
8.8445205025
 20
9.4521767898
 30
0.0
 10
8.8460719063
 20
9.4757369648
 30
0.0
 10
8.8486555689
 20
9.4991361077
 30
0.0
 10
8.8522663473
 20
9.5223286988
 30
0.0
 10
8.8568975769
 20
9.5452707341
 30
0.0
 10
8.8625403715
 20
9.5679187428
 30
0.0
 10
8.869183914
 20
9.5902285515
 30
0.0
 10
8.8742782379
 20
9.6048671949
 30
0.0
 10
8.8769875848
 20
9.6121140772
 30
0.0
  0
SPLINE
  5
360
100
AcDbEntity
  8
0
100
AcDbSpline
 62
7
  6
CONTINUOUS
 70
0
 71
3
 72
41
 73
37
 74
0
 42
0.0000001
 43
0.0000001
 44
0.0000000001
 40
0.0
 40
0.0
 40
0.0
 40
0.0
 40
0.0298445455
 40
0.0447714982
 40
0.0597012457
 40
0.0895753778
 40
0.1194889633
 40
0.1344670823
 40
0.1494603068
 40
0.1794944134
 40
0.2096077246
 40
0.2398110035
 40
0.2701136427
 40
0.3005236291
 40
0.3310475733
 40
0.3616907359
 40
0.3924571037
 40
0.4233494751
 40
0.4543695469
 40
0.4855180123
 40
0.5167946718
 40
0.5481985744
 40
0.5797281701
 40
0.6113814171
 40
0.6431559365
 40
0.6750492033
 40
0.7070584976
 40
0.7391807925
 40
0.7714133113
 40
0.8037540648
 40
0.836201641
 40
0.8687549037
 40
0.9014129272
 40
0.9341746337
 40
0.9670381378
 40
1.0
 40
1.0
 40
1.0
 40
1.0
 10
8.8769875848
 20
9.6121140772
 30
0.0
 10
8.8773250782
 20
9.6075375062
 30
0.0
 10
8.8780658
 20
9.6006861903
 30
0.0
 10
8.8795178688
 20
9.591620619
 30
0.0
 10
8.8812790195
 20
9.5826049787
 30
0.0
 10
8.8840573784
 20
9.5714474742
 30
0.0
 10
8.8875908757
 20
9.5604978144
 30
0.0
 10
8.8908621264
 20
9.5518887048
 30
0.0
 10
8.8944307738
 20
9.5433784863
 30
0.0
 10
8.8994394346
 20
9.5329560185
 30
0.0
 10
8.9062949938
 20
9.5208608359
 30
0.0
 10
8.9139732437
 20
9.509220634
 30
0.0
 10
8.9224439492
 20
9.4980865445
 30
0.0
 10
8.9316737267
 20
9.4875076202
 30
0.0
 10
8.9416258414
 20
9.4775311717
 30
0.0
 10
8.9522603127
 20
9.4682022708
 30
0.0
 10
8.9635340281
 20
9.4595634958
 30
0.0
 10
8.9754009074
 20
9.4516546095
 30
0.0
 10
8.9878120782
 20
9.4445122197
 30
0.0
 10
9.0007161108
 20
9.4381694472
 30
0.0
 10
9.0140592835
 20
9.4326555484
 30
0.0
 10
9.0277859329
 20
9.4279955619
 30
0.0
 10
9.0418388875
 20
9.4242100699
 30
0.0
 10
9.0561599233
 20
9.4213149268
 30
0.0
 10
9.070690288
 20
9.4193210848
 30
0.0
 10
9.0853712317
 20
9.4182344341
 30
0.0
 10
9.1001445388
 20
9.4180556929
 30
0.0
 10
9.1149531511
 20
9.4187804672
 30
0.0
 10
9.1297418563
 20
9.4203994882
 30
0.0
 10
9.1444579616
 20
9.4228986931
 30
0.0
 10
9.1590517953
 20
9.4262596178
 30
0.0
 10
9.17347708
 20
9.4304597718
 30
0.0
 10
9.1876911808
 20
9.4354729811
 30
0.0
 10
9.2016554744
 20
9.4412698841
 30
0.0
 10
9.2153347134
 20
9.4478178511
 30
0.0
 10
9.2242318298
 20
9.4526541647
 30
0.0
 10
9.2286231697
 20
9.455184792
 30
0.0
  0
SPLINE
  5
361
100
AcDbEntity
  8
0
100
AcDbSpline
 62
7
  6
CONTINUOUS
 70
0
 71
3
 72
28
 73
24
 74
0
 42
0.0000001
 43
0.0000001
 44
0.0000000001
 40
0.0
 40
0.0
 40
0.0
 40
0.0
 40
0.0637758949
 40
0.0955879076
 40
0.127346217
 40
0.1907019662
 40
0.2538545319
 40
0.2853587842
 40
0.316814822
 40
0.3795821874
 40
0.442171929
 40
0.5045963366
 40
0.5668693232
 40
0.6290062991
 40
0.6910240354
 40
0.7219962854
 40
0.7529455518
 40
0.8147797326
 40
0.8765514543
 40
0.9074228156
 40
0.9382862776
 40
0.9691444601
 40
1.0
 40
1.0
 40
1.0
 40
1.0
 10
10.1825868665
 20
7.1483639948
 30
0.0
 10
10.1825868665
 20
7.1616482305
 30
0.0
 10
10.1830642106
 20
7.1815631947
 30
0.0
 10
10.1846611373
 20
7.2080425931
 30
0.0
 10
10.1868921165
 20
7.2343888034
 30
0.0
 10
10.1908707529
 20
7.2671280019
 30
0.0
 10
10.1964382502
 20
7.2995813212
 30
0.0
 10
10.2018346965
 20
7.3252921988
 30
0.0
 10
10.2078463646
 20
7.350783719
 30
0.0
 10
10.2165234264
 20
7.3822887496
 30
0.0
 10
10.2287815455
 20
7.4194491532
 30
0.0
 10
10.2428499873
 20
7.4558528824
 30
0.0
 10
10.2586963455
 20
7.4914155486
 30
0.0
 10
10.2762838377
 20
7.5260547434
 30
0.0
 10
10.2923653447
 20
7.5540984594
 30
0.0
 10
10.306056781
 20
7.5759876124
 30
0.0
 10
10.3202817853
 20
7.5974880621
 30
0.0
 10
10.3390709217
 20
7.6236477593
 30
0.0
 10
10.3591669133
 20
7.6487968669
 30
0.0
 10
10.3759904072
 20
7.6682625106
 30
0.0
 10
10.3889742764
 20
7.6825272599
 30
0.0
 10
10.4023181491
 20
7.6964509167
 30
0.0
 10
10.4114495327
 20
7.7055010151
 30
0.0
 10
10.4160722355
 20
7.7099661996
 30
0.0
  0
SPLINE
  5
362
100
AcDbEntity
  8
0
100
AcDbSpline
 62
7
  6
CONTINUOUS
 70
0
 71
3
 72
38
 73
34
 74
0
 42
0.0000001
 43
0.0000001
 44
0.0000000001
 40
0.0
 40
0.0
 40
0.0
 40
0.0
 40
0.1099355118
 40
0.2147413751
 40
0.314166511
 40
0.4079598948
 40
0.4958649161
 40
0.5776138847
 40
0.6529259117
 40
0.7215067326
 40
0.7531777387
 40
0.7830501581
 40
0.81108407
 40
0.837240452
 40
0.8614800746
 40
0.8837651389
 40
0.9040603935
 40
0.9223338005
 40
0.9385596925
 40
0.9459001488
 40
0.9527242551
 40
0.959032921
 40
0.9648289893
 40
0.970118027
 40
0.9749094502
 40
0.9792181243
 40
0.9830669686
 40
0.9864909426
 40
0.9895427924
 40
0.9922999488
 40
0.994869942
 40
0.9973878152
 40
1.0
 40
1.0
 40
1.0
 40
1.0
 10
10.5251268444
 20
7.7967989654
 30
0.0
 10
10.5230706353
 20
7.7942761087
 30
0.0
 10
10.5190531706
 20
7.7893489191
 30
0.0
 10
10.5131627
 20
7.7821509891
 30
0.0
 10
10.5075525113
 20
7.7753412474
 30
0.0
 10
10.5022288089
 20
7.7689438702
 30
0.0
 10
10.4971990003
 20
7.7629829216
 30
0.0
 10
10.4924721335
 20
7.7574825676
 30
0.0
 10
10.4880590697
 20
7.7524674127
 30
0.0
 10
10.4845670261
 20
7.7486172522
 30
0.0
 10
10.4819361696
 20
7.7458030547
 30
0.0
 10
10.480103266
 20
7.7438863764
 30
0.0
 10
10.4783599983
 20
7.7421101452
 30
0.0
 10
10.4767086847
 20
7.7404776632
 30
0.0
 10
10.4751519418
 20
7.7389920388
 30
0.0
 10
10.4736924659
 20
7.7376563996
 30
0.0
 10
10.4723330343
 20
7.736473812
 30
0.0
 10
10.4710766918
 20
7.7354471363
 30
0.0
 10
10.4700876695
 20
7.7347006066
 30
0.0
 10
10.4693489117
 20
7.7341868835
 30
0.0
 10
10.46884128
 20
7.733855514
 30
0.0
 10
10.4683617499
 20
7.7335652882
 30
0.0
 10
10.4679106958
 20
7.7333165145
 30
0.0
 10
10.4674884835
 20
7.7331094734
 30
0.0
 10
10.4670954657
 20
7.7329443814
 30
0.0
 10
10.4667319269
 20
7.7328214589
 30
0.0
 10
10.4663980523
 20
7.7327409614
 30
0.0
 10
10.4660938921
 20
7.7327032788
 30
0.0
 10
10.4658194173
 20
7.7327091082
 30
0.0
 10
10.4655748355
 20
7.7327596179
 30
0.0
 10
10.4653612979
 20
7.7328564336
 30
0.0
 10
10.4651813707
 20
7.7330001349
 30
0.0
 10
10.4650883763
 20
7.7331222165
 30
0.0
 10
10.4650481329
 20
7.7331882547
 30
0.0
  0
SPLINE
  5
363
100
AcDbEntity
  8
0
100
AcDbSpline
 62
7
  6
CONTINUOUS
 70
0
 71
3
 72
45
 73
41
 74
0
 42
0.0000001
 43
0.0000001
 44
0.0000000001
 40
0.0
 40
0.0
 40
0.0
 40
0.0
 40
0.0308888763
 40
0.0619149959
 40
0.0930753644
 40
0.1243640716
 40
0.1557734808
 40
0.1872939167
 40
0.2189139717
 40
0.2506206707
 40
0.2823996921
 40
0.3142355978
 40
0.3461120772
 40
0.3780122001
 40
0.409918676
 40
0.4418141177
 40
0.4736813058
 40
0.5055034513
 40
0.5372644542
 40
0.5689491544
 40
0.6005435716
 40
0.6320351322
 40
0.6634128795
 40
0.6946676637
 40
0.7257923093
 40
0.7567817559
 40
0.7722268217
 40
0.7876372148
 40
0.8030129446
 40
0.8183541596
 40
0.8336611625
 40
0.8489343971
 40
0.8641744555
 40
0.8793820745
 40
0.9096993754
 40
0.9398991779
 40
0.9549604764
 40
0.9699965997
 40
0.9850091916
 40
1.0
 40
1.0
 40
1.0
 40
1.0
 10
10.5198278039
 20
7.4741137453
 30
0.0
 10
10.5198278039
 20
7.4560796724
 30
0.0
 10
10.5210043447
 20
7.419920725
 30
0.0
 10
10.5262636173
 20
7.365799505
 30
0.0
 10
10.5349985648
 20
7.3118911199
 30
0.0
 10
10.5471722507
 20
7.2584253572
 30
0.0
 10
10.5627330123
 20
7.2056264921
 30
0.0
 10
10.5816151343
 20
7.1537168535
 30
0.0
 10
10.6037389052
 20
7.1029147572
 30
0.0
 10
10.6290110455
 20
7.0534339083
 30
0.0
 10
10.6573250532
 20
7.0054824156
 30
0.0
 10
10.6885616695
 20
6.9592619507
 30
0.0
 10
10.7225893854
 20
6.9149669068
 30
0.0
 10
10.7592649897
 20
6.8727835892
 30
0.0
 10
10.7984341683
 20
6.8328894392
 30
0.0
 10
10.8399321465
 20
6.7954522941
 30
0.0
 10
10.8835843788
 20
6.7606296886
 30
0.0
 10
10.9292072695
 20
6.7285681893
 30
0.0
 10
10.9766089345
 20
6.6994027727
 30
0.0
 10
11.0255900168
 20
6.6732562765
 30
0.0
 10
11.0759445014
 20
6.650238883
 30
0.0
 10
11.1274606199
 20
6.6304476549
 30
0.0
 10
11.1799215539
 20
6.6139661343
 30
0.0
 10
11.2331069956
 20
6.6008639621
 30
0.0
 10
11.2867916177
 20
6.5911966774
 30
0.0
 10
11.3318121947
 20
6.5860311717
 30
0.0
 10
11.367846535
 20
6.5836560546
 30
0.0
 10
11.3948279006
 20
6.5827538151
 30
0.0
 10
11.421763459
 20
6.5827298033
 30
0.0
 10
11.4486251808
 20
6.583584224
 30
0.0
 10
11.4753847033
 20
6.5853159762
 30
0.0
 10
11.5020137527
 20
6.587923423
 30
0.0
 10
11.52848463
 20
6.5914037829
 30
0.0
 10
11.5634908793
 20
6.5971965493
 30
0.0
 10
11.6067273011
 20
6.6065951593
 30
0.0
 10
11.6491514517
 20
6.6188598341
 30
0.0
 10
11.6824340093
 20
6.6303478543
 30
0.0
 10
11.7070277518
 20
6.639785237
 30
0.0
 10
11.7312464186
 20
6.6500407631
 30
0.0
 10
11.7471371584
 20
6.657421557
 30
0.0
 10
11.7550103645
 20
6.6612443132
 30
0.0
  0
SPLINE
  5
364
100
AcDbEntity
  8
0
100
AcDbSpline
 62
7
  6
CONTINUOUS
 70
0
 71
3
 72
15
 73
11
 74
0
 42
0.0000001
 43
0.0000001
 44
0.0000000001
 40
0.0
 40
0.0
 40
0.0
 40
0.0
 40
0.1266657107
 40
0.2528159899
 40
0.3784623416
 40
0.5036223797
 40
0.6283213213
 40
0.7525908691
 40
0.876469128
 40
1.0
 40
1.0
 40
1.0
 40
1.0
 10
10.5198278039
 20
7.4741137453
 30
0.0
 10
10.5198278039
 20
7.4904238739
 30
0.0
 10
10.5207859834
 20
7.5229861425
 30
0.0
 10
10.5251136755
 20
7.5715540417
 30
0.0
 10
10.5323139987
 20
7.6195858852
 30
0.0
 10
10.5423622513
 20
7.66691251
 30
0.0
 10
10.5552236136
 20
7.7133696891
 30
0.0
 10
10.5708539126
 20
7.7587962166
 30
0.0
 10
10.5891978534
 20
7.8030318501
 30
0.0
 10
10.6032144437
 20
7.8316674822
 30
0.0
 10
10.6106504445
 20
7.8457288371
 30
0.0
  0
SPLINE
  5
365
100
AcDbEntity
  8
0
100
AcDbSpline
 62
7
  6
CONTINUOUS
 70
0
 71
3
 72
21
 73
17
 74
0
 42
0.0000001
 43
0.0000001
 44
0.0000000001
 40
0.0
 40
0.0
 40
0.0
 40
0.0
 40
0.1267811194
 40
0.2529974271
 40
0.3159071122
 40
0.3786820335
 40
0.4413252199
 40
0.5038406716
 40
0.5662328071
 40
0.6285064862
 40
0.6906671687
 40
0.7527208059
 40
0.8146738218
 40
0.8765330958
 40
0.9383059209
 40
1.0
 40
1.0
 40
1.0
 40
1.0
 10
10.5449418769
 20
7.4723720784
 30
0.0
 10
10.5449418769
 20
7.4896909668
 30
0.0
 10
10.5460556508
 20
7.5242615446
 30
0.0
 10
10.5502544576
 20
7.5672434811
 30
0.0
 10
10.5552860988
 20
7.6012898376
 30
0.0
 10
10.5598860156
 20
7.6266066626
 30
0.0
 10
10.5653110794
 20
7.6517042897
 30
0.0
 10
10.5715557939
 20
7.6765568079
 30
0.0
 10
10.578613445
 20
7.7011383043
 30
0.0
 10
10.5864769424
 20
7.7254230925
 30
0.0
 10
10.5951378444
 20
7.7493859167
 30
0.0
 10
10.6045873528
 20
7.7730017221
 30
0.0
 10
10.6148154455
 20
7.7962459193
 30
0.0
 10
10.6258116156
 20
7.8190943185
 30
0.0
 10
10.6375641814
 20
7.8415227632
 30
0.0
 10
10.6459007587
 20
7.8561890571
 30
0.0
 10
10.6501904882
 20
7.8634433179
 30
0.0
  0
SPLINE
  5
366
100
AcDbEntity
  8
0
100
AcDbSpline
 62
7
  6
CONTINUOUS
 70
0
 71
3
 72
21
 73
17
 74
0
 42
0.0000001
 43
0.0000001
 44
0.0000000001
 40
0.0
 40
0.0
 40
0.0
 40
0.0
 40
0.1268496787
 40
0.2531064616
 40
0.3160276163
 40
0.3788078695
 40
0.4414509476
 40
0.5039614291
 40
0.5663443396
 40
0.6286053272
 40
0.6907506632
 40
0.752787199
 40
0.8147222916
 40
0.8765638244
 40
0.9383201393
 40
1.0
 40
1.0
 40
1.0
 40
1.0
 10
10.5746403551
 20
7.4800586072
 30
0.0
 10
10.5746403551
 20
7.4977784008
 30
0.0
 10
10.575836296
 20
7.5331464062
 30
0.0
 10
10.5803458731
 20
7.5770982686
 30
0.0
 10
10.5857486993
 20
7.6118835624
 30
0.0
 10
10.5906869746
 20
7.6377316452
 30
0.0
 10
10.5965098018
 20
7.663335883
 30
0.0
 10
10.6032107162
 20
7.6886671603
 30
0.0
 10
10.6107818811
 20
7.7136963387
 30
0.0
 10
10.6192146812
 20
7.7383946625
 30
0.0
 10
10.6284994808
 20
7.7627337246
 30
0.0
 10
10.6386254899
 20
7.7866856254
 30
0.0
 10
10.6495812709
 20
7.8102227278
 30
0.0
 10
10.661354102
 20
7.8333181793
 30
0.0
 10
10.673930397
 20
7.8559449824
 30
0.0
 10
10.6828461968
 20
7.870709136
 30
0.0
 10
10.6874325223
 20
7.8780032063
 30
0.0
  0
SPLINE
  5
367
100
AcDbEntity
  8
0
100
AcDbSpline
 62
7
  6
CONTINUOUS
 70
0
 71
3
 72
15
 73
11
 74
0
 42
0.0000001
 43
0.0000001
 44
0.0000000001
 40
0.0
 40
0.0
 40
0.0
 40
0.0
 40
0.126624159
 40
0.2527485726
 40
0.3783827735
 40
0.5035435336
 40
0.6282536459
 40
0.7525422464
 40
0.8764442497
 40
1.0
 40
1.0
 40
1.0
 40
1.0
 10
10.6459777959
 20
7.5489652877
 30
0.0
 10
10.6459777959
 20
7.5639321153
 30
0.0
 10
10.6468312657
 20
7.59381394
 30
0.0
 10
10.6506856611
 20
7.6383958501
 30
0.0
 10
10.6570993232
 20
7.682509084
 30
0.0
 10
10.6660514353
 20
7.7260072388
 30
0.0
 10
10.6775128297
 20
7.7687481861
 30
0.0
 10
10.6914463988
 20
7.8105922093
 30
0.0
 10
10.7078056915
 20
7.8514003001
 30
0.0
 10
10.720311805
 20
7.8778643108
 30
0.0
 10
10.7269485794
 20
7.8908733186
 30
0.0
  0
SPLINE
  5
368
100
AcDbEntity
  8
0
100
AcDbSpline
 62
7
  6
CONTINUOUS
 70
0
 71
3
 72
15
 73
11
 74
0
 42
0.0000001
 43
0.0000001
 44
0.0000000001
 40
0.0
 40
0.0
 40
0.0
 40
0.0
 40
0.1268350498
 40
0.2530891189
 40
0.3787796254
 40
0.5039312012
 40
0.6285798738
 40
0.7527705364
 40
0.8765568173
 40
1.0
 40
1.0
 40
1.0
 40
1.0
 10
10.7439573731
 20
7.5636062974
 30
0.0
 10
10.7439573731
 20
7.5792638319
 30
0.0
 10
10.7449930771
 20
7.6105174195
 30
0.0
 10
10.7496724695
 20
7.6570761298
 30
0.0
 10
10.7574536864
 20
7.7030097536
 30
0.0
 10
10.7683029787
 20
7.7481130487
 30
0.0
 10
10.7821726219
 20
7.7921873317
 30
0.0
 10
10.7990022145
 20
7.8350384653
 30
0.0
 10
10.8187161663
 20
7.8764746072
 30
0.0
 10
10.8337458669
 20
7.9030716544
 30
0.0
 10
10.8417070995
 20
7.9160655094
 30
0.0
  0
SPLINE
  5
369
100
AcDbEntity
  8
0
100
AcDbSpline
 62
7
  6
CONTINUOUS
 70
0
 71
3
 72
72
 73
68
 74
0
 42
0.0000001
 43
0.0000001
 44
0.0000000001
 40
0.0
 40
0.0
 40
0.0
 40
0.0
 40
0.0155841933
 40
0.0311159166
 40
0.0465951879
 40
0.062023807
 40
0.0697201918
 40
0.0774045832
 40
0.0927373981
 40
0.1080262201
 40
0.1232742512
 40
0.1384851142
 40
0.1536628162
 40
0.1688117115
 40
0.1839364566
 40
0.1990419634
 40
0.2141333485
 40
0.2292158794
 40
0.2442949183
 40
0.2593758643
 40
0.2744640962
 40
0.2895649144
 40
0.3046834852
 40
0.3198247867
 40
0.3349935563
 40
0.350194242
 40
0.3654309572
 40
0.38070744
 40
0.3960270182
 40
0.4113925789
 40
0.4268065427
 40
0.4422708439
 40
0.4577869148
 40
0.473355677
 40
0.4889775381
 40
0.5046523934
 40
0.5203796317
 40
0.5361581458
 40
0.5519863474
 40
0.5678621859
 40
0.5837831732
 40
0.5997464096
 40
0.6157486133
 40
0.6317861521
 40
0.6478550777
 40
0.6639511636
 40
0.6800699442
 40
0.6962067549
 40
0.7123567731
 40
0.7285150609
 40
0.7446766075
 40
0.7608363744
 40
0.7769893388
 40
0.7931305374
 40
0.8092551094
 40
0.8253583386
 40
0.8414356959
 40
0.8574828808
 40
0.8734958605
 40
0.889470906
 40
0.9054046296
 40
0.9212940155
 40
0.9371364388
 40
0.9529297806
 40
0.9686721073
 40
0.9843626845
 40
1.0
 40
1.0
 40
1.0
 40
1.0
 10
8.2057613488
 20
6.7829340821
 30
0.0
 10
8.2057613488
 20
6.7939774877
 30
0.0
 10
8.206301802
 20
6.8160310129
 30
0.0
 10
8.208741405
 20
6.848972462
 30
0.0
 10
8.2128029553
 20
6.8816429262
 30
0.0
 10
8.2175350486
 20
6.9085993139
 30
0.0
 10
8.2221212601
 20
6.9299466663
 30
0.0
 10
8.2272297413
 20
6.951105233
 30
0.0
 10
8.2346023287
 20
6.9772428138
 30
0.0
 10
8.2450155087
 20
7.0080488883
 30
0.0
 10
8.2569636081
 20
7.0382003765
 30
0.0
 10
8.2704177643
 20
7.0676240647
 30
0.0
 10
8.2853456289
 20
7.0962491198
 30
0.0
 10
8.3017112538
 20
7.124006454
 30
0.0
 10
8.3194752333
 20
7.150829105
 30
0.0
 10
8.3385947638
 20
7.1766523535
 30
0.0
 10
8.3590237417
 20
7.2014139101
 30
0.0
 10
8.3807129059
 20
7.2250540419
 30
0.0
 10
8.4036099514
 20
7.2475157215
 30
0.0
 10
8.4276596555
 20
7.2687447653
 30
0.0
 10
8.4528040156
 20
7.2886899596
 30
0.0
 10
8.4789823683
 20
7.3073032125
 30
0.0
 10
8.5061315463
 20
7.3245396694
 30
0.0
 10
8.5341860495
 20
7.3403577989
 30
0.0
 10
8.5630782009
 20
7.3547194962
 30
0.0
 10
8.5927383104
 20
7.3675901739
 30
0.0
 10
8.6230948452
 20
7.3789388378
 30
0.0
 10
8.6540745891
 20
7.3887382006
 30
0.0
 10
8.685602834
 20
7.3969647245
 30
0.0
 10
8.7176035659
 20
7.4035986605
 30
0.0
 10
8.7499996463
 20
7.4086240973
 30
0.0
 10
8.782712997
 20
7.4120289966
 30
0.0
 10
8.8156647857
 20
7.4138052177
 30
0.0
 10
8.8487756149
 20
7.4139485789
 30
0.0
 10
8.8819657193
 20
7.4124588281
 30
0.0
 10
8.9151551559
 20
7.4093396365
 30
0.0
 10
8.9482639941
 20
7.4045985895
 30
0.0
 10
8.9812125053
 20
7.3982471666
 30
0.0
 10
9.0139213523
 20
7.3903007169
 30
0.0
 10
9.0463117898
 20
7.380778458
 30
0.0
 10
9.0783058462
 20
7.3697033853
 30
0.0
 10
9.1098265093
 20
7.3571022189
 30
0.0
 10
9.1407979087
 20
7.3430053404
 30
0.0
 10
9.171145494
 20
7.3274467161
 30
0.0
 10
9.2007962187
 20
7.310463831
 30
0.0
 10
9.2296787293
 20
7.2920976162
 30
0.0
 10
9.2577235179
 20
7.2723923142
 30
0.0
 10
9.28486309
 20
7.2513953794
 30
0.0
 10
9.3110321246
 20
7.2291573643
 30
0.0
 10
9.3361676256
 20
7.2057317958
 30
0.0
 10
9.3602090898
 20
7.1811750675
 30
0.0
 10
9.3830986595
 20
7.1555463042
 30
0.0
 10
9.4047812379
 20
7.1289071975
 30
0.0
 10
9.4252046243
 20
7.1013218634
 30
0.0
 10
9.4443196387
 20
7.0728566904
 30
0.0
 10
9.4620802327
 20
7.043580178
 30
0.0
 10
9.4784436319
 20
7.0135627928
 30
0.0
 10
9.4933704297
 20
6.9828767877
 30
0.0
 10
9.5068246607
 20
6.9515960193
 30
0.0
 10
9.5187738941
 20
6.9197957761
 30
0.0
 10
9.5291893081
 20
6.8875525964
 30
0.0
 10
9.5380457446
 20
6.8549441021
 30
0.0
 10
9.5453218734
 20
6.8220487492
 30
0.0
 10
9.5510000141
 20
6.7889459094
 30
0.0
 10
9.5550666524
 20
6.7557147675
 30
0.0
 10
9.5575115971
 20
6.7224366838
 30
0.0
 10
9.5580575857
 20
6.700233069
 30
0.0
 10
9.5580575857
 20
6.6891520195
 30
0.0
  0
SPLINE
  5
36A
100
AcDbEntity
  8
0
100
AcDbSpline
 62
7
  6
CONTINUOUS
 70
0
 71
3
 72
54
 73
50
 74
0
 42
0.0000001
 43
0.0000001
 44
0.0000000001
 40
0.0
 40
0.0
 40
0.0
 40
0.0
 40
0.0310727687
 40
0.0623027624
 40
0.0936853542
 40
0.1252119093
 40
0.1568710383
 40
0.1886485643
 40
0.2205278811
 40
0.252490316
 40
0.2845155201
 40
0.3165818895
 40
0.3486670004
 40
0.3807480565
 40
0.4128023418
 40
0.4448076724
 40
0.4767428412
 40
0.5085880489
 40
0.540325312
 40
0.5561509395
 40
0.571943869
 40
0.5877025314
 40
0.6034255324
 40
0.619111668
 40
0.6347599297
 40
0.6503695068
 40
0.6659398003
 40
0.6814704224
 40
0.6969611984
 40
0.7124121766
 40
0.7278236235
 40
0.7431960234
 40
0.7585300847
 40
0.7738267293
 40
0.7890870919
 40
0.8043125193
 40
0.8195045564
 40
0.8346649434
 40
0.8497956089
 40
0.8648986525
 40
0.8799763399
 40
0.8950310892
 40
0.9100654528
 40
0.9250821079
 40
0.9400838397
 40
0.9550735208
 40
0.9700540994
 40
0.9850285795
 40
1.0
 40
1.0
 40
1.0
 40
1.0
 10
10.1825868665
 20
7.1483639948
 30
0.0
 10
10.1825868665
 20
7.1277535906
 30
0.0
 10
10.1841243672
 20
7.0864126362
 30
0.0
 10
10.1909889085
 20
7.0245991282
 30
0.0
 10
10.2023788827
 20
6.9631485796
 30
0.0
 10
10.218231362
 20
6.9024028085
 30
0.0
 10
10.2384585887
 20
6.8426942256
 30
0.0
 10
10.2629489646
 20
6.7843508458
 30
0.0
 10
10.2915676638
 20
6.727692776
 30
0.0
 10
10.3241572791
 20
6.6730309576
 30
0.0
 10
10.3605385994
 20
6.6206652707
 30
0.0
 10
10.4005117761
 20
6.5708830538
 30
0.0
 10
10.4438573752
 20
6.5239575426
 30
0.0
 10
10.4903373913
 20
6.480146244
 30
0.0
 10
10.5396967675
 20
6.4396896387
 30
0.0
 10
10.591664561
 20
6.4028100133
 30
0.0
 10
10.645956159
 20
6.3697097914
 30
0.0
 10
10.7022716325
 20
6.3405715959
 30
0.0
 10
10.7506841101
 20
6.3197023789
 30
0.0
 10
10.7901130671
 20
6.3051438154
 30
0.0
 10
10.8199685273
 20
6.2953139814
 30
0.0
 10
10.8500909261
 20
6.2865779341
 30
0.0
 10
10.8804393506
 20
6.2789476173
 30
0.0
 10
10.9109719261
 20
6.2724334861
 30
0.0
 10
10.9416467154
 20
6.2670445023
 30
0.0
 10
10.9724215536
 20
6.2627882139
 30
0.0
 10
11.0032541101
 20
6.2596703616
 30
0.0
 10
11.0341019997
 20
6.2576952984
 30
0.0
 10
11.0649228057
 20
6.2568658453
 30
0.0
 10
11.0956741409
 20
6.2571830305
 30
0.0
 10
11.1263137187
 20
6.2586465233
 30
0.0
 10
11.1567993927
 20
6.2612543743
 30
0.0
 10
11.1870892445
 20
6.2650028971
 30
0.0
 10
11.2171415992
 20
6.2698870717
 30
0.0
 10
11.2469151124
 20
6.2759001952
 30
0.0
 10
11.2763688475
 20
6.2830339207
 30
0.0
 10
11.305462252
 20
6.2912785876
 30
0.0
 10
11.3341553064
 20
6.3006228206
 30
0.0
 10
11.3624085552
 20
6.3110537211
 30
0.0
 10
11.3901830703
 20
6.3225570905
 30
0.0
 10
11.4174406629
 20
6.3351170277
 30
0.0
 10
11.4441438382
 20
6.3487162431
 30
0.0
 10
11.4702557825
 20
6.3633361586
 30
0.0
 10
11.4957406148
 20
6.3789565537
 30
0.0
 10
11.5205632655
 20
6.3955559682
 30
0.0
 10
11.5446894731
 20
6.4131116261
 30
0.0
 10
11.5680862316
 20
6.4315993757
 30
0.0
 10
11.5907208681
 20
6.450993393
 30
0.0
 10
11.6052833337
 20
6.4645106996
 30
0.0
 10
11.6124258688
 20
6.4714098531
 30
0.0
  0
SPLINE
  5
36B
100
AcDbEntity
  8
0
100
AcDbSpline
 62
7
  6
CONTINUOUS
 70
0
 71
3
 72
42
 73
38
 74
0
 42
0.0000001
 43
0.0000001
 44
0.0000000001
 40
0.0
 40
0.0
 40
0.0
 40
0.0
 40
0.0309184643
 40
0.0619772156
 40
0.0931730516
 40
0.1244996761
 40
0.1559489503
 40
0.1875105785
 40
0.2191724359
 40
0.2509207537
 40
0.282740362
 40
0.3146149438
 40
0.3465273025
 40
0.3784596397
 40
0.4103938395
 40
0.4423117563
 40
0.4741955028
 40
0.5060277362
 40
0.537791937
 40
0.5694726796
 40
0.6010558891
 40
0.632529082
 40
0.6638815874
 40
0.6951047439
 40
0.7261920699
 40
0.7571394018
 40
0.7879449962
 40
0.8186095932
 40
0.8491364377
 40
0.8795312551
 40
0.9098021802
 40
0.924896619
 40
0.9399641769
 40
0.9550064871
 40
0.9700253002
 40
0.9850224829
 40
1.0
 40
1.0
 40
1.0
 40
1.0
 10
10.5449418769
 20
7.4723720784
 30
0.0
 10
10.5449418769
 20
7.454502114
 30
0.0
 10
10.5461331629
 20
7.4186700694
 30
0.0
 10
10.5514574057
 20
7.3650459516
 30
0.0
 10
10.5602990122
 20
7.3116473587
 30
0.0
 10
10.5726189496
 20
7.2587118818
 30
0.0
 10
10.5883626398
 20
7.2064712986
 30
0.0
 10
10.6074606782
 20
7.1551552236
 30
0.0
 10
10.62982891
 20
7.1049889286
 30
0.0
 10
10.6553688937
 20
7.0561926868
 30
0.0
 10
10.6839682821
 20
7.0089807138
 30
0.0
 10
10.7155013422
 20
6.9635602685
 30
0.0
 10
10.7498295067
 20
6.9201307483
 30
0.0
 10
10.7868019779
 20
6.8788828235
 30
0.0
 10
10.8262563845
 20
6.8399976086
 30
0.0
 10
10.8680194884
 20
6.8036458734
 30
0.0
 10
10.9119079403
 20
6.7699873028
 30
0.0
 10
10.957729063
 20
6.7391697813
 30
0.0
 10
11.0052817009
 20
6.711328756
 30
0.0
 10
11.0543570988
 20
6.6865866533
 30
0.0
 10
11.1047398071
 20
6.665052341
 30
0.0
 10
11.1562086167
 20
6.6468206525
 30
0.0
 10
11.2085375186
 20
6.6319719671
 30
0.0
 10
11.2614966841
 20
6.6205718579
 30
0.0
 10
11.3148534619
 20
6.612670778
 30
0.0
 10
11.3683733799
 20
6.6083038297
 30
0.0
 10
11.4218212183
 20
6.6074906316
 30
0.0
 10
11.4749618456
 20
6.6102351512
 30
0.0
 10
11.527561938
 20
6.6165259079
 30
0.0
 10
11.5793884336
 20
6.6263351283
 30
0.0
 10
11.621788821
 20
6.637418455
 30
0.0
 10
11.6550834413
 20
6.6479951554
 30
0.0
 10
11.6796998259
 20
6.6567660972
 30
0.0
 10
11.7039549882
 20
6.666372568
 30
0.0
 10
11.7278227326
 20
6.6768041329
 30
0.0
 10
11.751276357
 20
6.688049021
 30
0.0
 10
11.7666290821
 20
6.6960851024
 30
0.0
 10
11.7742266166
 20
6.7002340284
 30
0.0
  0
SPLINE
  5
36C
100
AcDbEntity
  8
0
100
AcDbSpline
 62
7
  6
CONTINUOUS
 70
0
 71
3
 72
44
 73
40
 74
0
 42
0.0000001
 43
0.0000001
 44
0.0000000001
 40
0.0
 40
0.0
 40
0.0
 40
0.0
 40
0.0309342641
 40
0.0620104876
 40
0.0932253567
 40
0.1245723553
 40
0.1560430558
 40
0.1876268117
 40
0.2193110905
 40
0.251081674
 40
0.2829229135
 40
0.3148179971
 40
0.3467492319
 40
0.3786983355
 40
0.4106467346
 40
0.4425758673
 40
0.474467485
 40
0.5063039512
 40
0.5380685328
 40
0.5697456806
 40
0.6013212958
 40
0.6327829786
 40
0.664120255
 40
0.6953247781
 40
0.7263904972
 40
0.7573137941
 40
0.7880935793
 40
0.8187313473
 40
0.8492311848
 40
0.8644336298
 40
0.8796042914
 40
0.8947443852
 40
0.9098552672
 40
0.9249384396
 40
0.9399955317
 40
0.9550283034
 40
0.9700386314
 40
0.9850285006
 40
1.0
 40
1.0
 40
1.0
 40
1.0
 10
10.5746403551
 20
7.4800586072
 30
0.0
 10
10.5746403551
 20
7.4624333623
 30
0.0
 10
10.5758291835
 20
7.4270908528
 30
0.0
 10
10.5811419203
 20
7.3742036906
 30
0.0
 10
10.5899637191
 20
7.3215471072
 30
0.0
 10
10.6022547132
 20
7.2693609085
 30
0.0
 10
10.6179591722
 20
7.2178789724
 30
0.0
 10
10.6370062312
 20
7.1673329074
 30
0.0
 10
10.6593099918
 20
7.1179498307
 30
0.0
 10
10.6847699739
 20
7.0699516767
 30
0.0
 10
10.7132715422
 20
7.0235541136
 30
0.0
 10
10.7446864493
 20
6.9789656208
 30
0.0
 10
10.7788734023
 20
6.9363865536
 30
0.0
 10
10.8156786947
 20
6.8960082544
 30
0.0
 10
10.854936891
 20
6.8580122015
 30
0.0
 10
10.8964715636
 20
6.8225692018
 30
0.0
 10
10.9400960592
 20
6.7898386038
 30
0.0
 10
10.9856143524
 20
6.7599676079
 30
0.0
 10
11.0328219176
 20
6.7330906101
 30
0.0
 10
11.0815066374
 20
6.7093286025
 30
0.0
 10
11.1314497442
 20
6.6887886299
 30
0.0
 10
11.182426792
 20
6.6715633137
 30
0.0
 10
11.2342086496
 20
6.6577304145
 30
0.0
 10
11.2865625078
 20
6.647352469
 30
0.0
 10
11.3392529729
 20
6.6404765382
 30
0.0
 10
11.3920429185
 20
6.6371339391
 30
0.0
 10
11.4446952505
 20
6.6373402486
 30
0.0
 10
11.4969713344
 20
6.6410946392
 30
0.0
 10
11.5400780138
 20
6.6471742089
 30
0.0
 10
11.5741300038
 20
6.6537911735
 30
0.0
 10
11.5994043382
 20
6.6596177906
 30
0.0
 10
11.6244100019
 20
6.6663066221
 30
0.0
 10
11.6491191936
 20
6.673850305
 30
0.0
 10
11.6735040393
 20
6.6822401569
 30
0.0
 10
11.6975370359
 20
6.6914669706
 30
0.0
 10
11.7211911565
 20
6.7015201481
 30
0.0
 10
11.7444398063
 20
6.7123885744
 30
0.0
 10
11.7672564482
 20
6.7240597509
 30
0.0
 10
11.7821717563
 20
6.7323721621
 30
0.0
 10
11.7895476324
 20
6.7366571652
 30
0.0
  0
SPLINE
  5
36D
100
AcDbEntity
  8
0
100
AcDbSpline
 62
7
  6
CONTINUOUS
 70
0
 71
3
 72
43
 73
39
 74
0
 42
0.0000001
 43
0.0000001
 44
0.0000000001
 40
0.0
 40
0.0
 40
0.0
 40
0.0
 40
0.0308800975
 40
0.0618965206
 40
0.0930463051
 40
0.1243236677
 40
0.1557211251
 40
0.1872291853
 40
0.2188366584
 40
0.2505308084
 40
0.2822975704
 40
0.3141217734
 40
0.3459873761
 40
0.3778777132
 40
0.4097757477
 40
0.4416643273
 40
0.4735264415
 40
0.5053454777
 40
0.5371054732
 40
0.5687913593
 40
0.6003891974
 40
0.6318864008
 40
0.6632719425
 40
0.694536542
 40
0.7256728322
 40
0.756675499
 40
0.7875413933
 40
0.818269611
 40
0.8335844717
 40
0.8488656282
 40
0.8641136085
 40
0.8793290906
 40
0.9096617486
 40
0.9398758855
 40
0.9549437649
 40
0.9699860083
 40
0.9850041935
 40
1.0
 40
1.0
 40
1.0
 40
1.0
 10
10.6459777959
 20
7.5489652877
 30
0.0
 10
10.6459777959
 20
7.5320302285
 30
0.0
 10
10.6470751882
 20
7.4980754563
 30
0.0
 10
10.6519809184
 20
7.4472511122
 30
0.0
 10
10.6601290399
 20
7.3966224284
 30
0.0
 10
10.6714855543
 20
7.3464023417
 30
0.0
 10
10.6860029098
 20
7.2967986954
 30
0.0
 10
10.7036206174
 20
7.2480175767
 30
0.0
 10
10.7242652902
 20
7.200261406
 30
0.0
 10
10.7478510416
 20
7.1537283911
 30
0.0
 10
10.7742798082
 20
7.1086116333
 30
0.0
 10
10.8034417685
 20
7.0650983581
 30
0.0
 10
10.8352157843
 20
7.0233691323
 30
0.0
 10
10.8694699092
 20
6.9835971259
 30
0.0
 10
10.906061935
 20
6.9459474011
 30
0.0
 10
10.9448399772
 20
6.9105762329
 30
0.0
 10
10.9856431005
 20
6.8776304655
 30
0.0
 10
11.0283019809
 20
6.8472469073
 30
0.0
 10
11.0726396023
 20
6.8195517671
 30
0.0
 10
11.118471984
 20
6.7946601327
 30
0.0
 10
11.1656089367
 20
6.7726754962
 30
0.0
 10
11.2138548432
 20
6.7536893182
 30
0.0
 10
11.263009452
 20
6.7377806464
 30
0.0
 10
11.3128687476
 20
6.7250157955
 30
0.0
 10
11.3632256193
 20
6.7154480561
 30
0.0
 10
11.413871335
 20
6.709117509
 30
0.0
 10
11.4645940872
 20
6.7060506984
 30
0.0
 10
11.506803943
 20
6.7062262143
 30
0.0
 10
11.5403925824
 20
6.7080099046
 30
0.0
 10
11.5654463036
 20
6.710163591
 30
0.0
 10
11.5903616643
 20
6.7131326889
 30
0.0
 10
11.6233257115
 20
6.7181683666
 30
0.0
 10
11.6640682386
 20
6.7264796741
 30
0.0
 10
11.7040874478
 20
6.7374716222
 30
0.0
 10
11.7355103859
 20
6.7478353055
 30
0.0
 10
11.7587435803
 20
6.7563779568
 30
0.0
 10
11.7816369619
 20
6.7656876189
 30
0.0
 10
11.7966684331
 20
6.7724042551
 30
0.0
 10
11.8041185435
 20
6.7758868413
 30
0.0
  0
SPLINE
  5
36E
100
AcDbEntity
  8
0
100
AcDbSpline
 62
7
  6
CONTINUOUS
 70
0
 71
3
 72
39
 73
35
 74
0
 42
0.0000001
 43
0.0000001
 44
0.0000000001
 40
0.0
 40
0.0
 40
0.0
 40
0.0
 40
0.0309283028
 40
0.0619978859
 40
0.0932054644
 40
0.1245446167
 40
0.1560070405
 40
0.187582232
 40
0.2192578303
 40
0.2510198042
 40
0.2828527048
 40
0.3147399258
 40
0.3466639805
 40
0.3786067874
 40
0.410549963
 40
0.4424751179
 40
0.4743641527
 40
0.5061995513
 40
0.5379646669
 40
0.569643999
 40
0.6012234561
 40
0.6326906008
 40
0.664034874
 40
0.6952477944
 40
0.7263231278
 40
0.7572570245
 40
0.7880481187
 40
0.8186975877
 40
0.8492091653
 40
0.8795891085
 40
0.9098461157
 40
0.9399911943
 40
0.9700374784
 40
1.0
 40
1.0
 40
1.0
 40
1.0
 10
10.7439573731
 20
7.5636062974
 30
0.0
 10
10.7439573731
 20
7.5477898959
 30
0.0
 10
10.7450190324
 20
7.516074945
 30
0.0
 10
10.7497636568
 20
7.4686144989
 30
0.0
 10
10.7576423713
 20
7.4213579184
 30
0.0
 10
10.7686199132
 20
7.374518361
 30
0.0
 10
10.782646979
 20
7.3283037278
 30
0.0
 10
10.7996608819
 20
7.2829199374
 30
0.0
 10
10.8195856166
 20
7.2385689544
 30
0.0
 10
10.8423322881
 20
7.1954481895
 30
0.0
 10
10.8677994748
 20
7.1537495488
 30
0.0
 10
10.8958736763
 20
7.1136586027
 30
0.0
 10
10.92642983
 20
7.0753537697
 30
0.0
 10
10.9593318637
 20
7.0390055313
 30
0.0
 10
10.9944332966
 20
7.0047756801
 30
0.0
 10
11.0315778864
 20
6.9728166064
 30
0.0
 10
11.0706003178
 20
6.9432706255
 30
0.0
 10
11.1113269319
 20
6.91626935
 30
0.0
 10
11.153576489
 20
6.8919331036
 30
0.0
 10
11.197160962
 20
6.8703703768
 30
0.0
 10
11.2418863751
 20
6.8516773601
 30
0.0
 10
11.2875536554
 20
6.8359375139
 30
0.0
 10
11.3339595084
 20
6.8232211964
 30
0.0
 10
11.3808973126
 20
6.8135853467
 30
0.0
 10
11.4281580271
 20
6.8070732249
 30
0.0
 10
11.4755311134
 20
6.8037142132
 30
0.0
 10
11.522805461
 20
6.8035236656
 30
0.0
 10
11.5697703283
 20
6.8065028208
 30
0.0
 10
11.6162162557
 20
6.812638785
 30
0.0
 10
11.6619360795
 20
6.8219046164
 30
0.0
 10
11.7067255455
 20
6.8342592523
 30
0.0
 10
11.7503853811
 20
6.849648323
 30
0.0
 10
11.7927179031
 20
6.8680019623
 30
0.0
 10
11.8199681982
 20
6.8821805369
 30
0.0
 10
11.833300962
 20
6.8897314814
 30
0.0
  0
SPLINE
  5
36F
100
AcDbEntity
  8
0
100
AcDbSpline
 62
7
  6
CONTINUOUS
 70
0
 71
3
 72
72
 73
68
 74
0
 42
0.0000001
 43
0.0000001
 44
0.0000000001
 40
0.0
 40
0.0
 40
0.0
 40
0.0
 40
0.0155841933
 40
0.0311159166
 40
0.0465951879
 40
0.062023807
 40
0.0697201918
 40
0.0774045832
 40
0.0927373981
 40
0.1080262201
 40
0.1232742512
 40
0.1384851142
 40
0.1536628162
 40
0.1688117115
 40
0.1839364566
 40
0.1990419634
 40
0.2141333485
 40
0.2292158794
 40
0.2442949183
 40
0.2593758643
 40
0.2744640962
 40
0.2895649144
 40
0.3046834852
 40
0.3198247867
 40
0.3349935563
 40
0.350194242
 40
0.3654309572
 40
0.38070744
 40
0.3960270182
 40
0.4113925789
 40
0.4268065427
 40
0.4422708439
 40
0.4577869148
 40
0.473355677
 40
0.4889775381
 40
0.5046523934
 40
0.5203796317
 40
0.5361581458
 40
0.5519863474
 40
0.5678621859
 40
0.5837831732
 40
0.5997464096
 40
0.6157486133
 40
0.6317861521
 40
0.6478550777
 40
0.6639511636
 40
0.6800699442
 40
0.6962067549
 40
0.7123567731
 40
0.7285150609
 40
0.7446766075
 40
0.7608363744
 40
0.7769893388
 40
0.7931305374
 40
0.8092551094
 40
0.8253583386
 40
0.8414356959
 40
0.8574828808
 40
0.8734958605
 40
0.889470906
 40
0.9054046296
 40
0.9212940155
 40
0.9371364388
 40
0.9529297806
 40
0.9686721073
 40
0.9843626845
 40
1.0
 40
1.0
 40
1.0
 40
1.0
 10
9.5580575857
 20
6.6891520195
 30
0.0
 10
9.5580575857
 20
6.6781086139
 30
0.0
 10
9.5575171325
 20
6.6560550886
 30
0.0
 10
9.5550775295
 20
6.6231136395
 30
0.0
 10
9.5510159792
 20
6.5904431754
 30
0.0
 10
9.5462838859
 20
6.5634867877
 30
0.0
 10
9.5416976744
 20
6.5421394352
 30
0.0
 10
9.5365891931
 20
6.5209808686
 30
0.0
 10
9.5292166058
 20
6.4948432878
 30
0.0
 10
9.5188034258
 20
6.4640372133
 30
0.0
 10
9.5068553263
 20
6.4338857251
 30
0.0
 10
9.4934011702
 20
6.4044620369
 30
0.0
 10
9.4784733056
 20
6.3758369818
 30
0.0
 10
9.4621076807
 20
6.3480796475
 30
0.0
 10
9.4443437012
 20
6.3212569966
 30
0.0
 10
9.4252241706
 20
6.2954337481
 30
0.0
 10
9.4047951928
 20
6.2706721914
 30
0.0
 10
9.3831060286
 20
6.2470320596
 30
0.0
 10
9.3602089831
 20
6.2245703801
 30
0.0
 10
9.3361592789
 20
6.2033413363
 30
0.0
 10
9.3110149189
 20
6.1833961419
 30
0.0
 10
9.2848365661
 20
6.1647828891
 30
0.0
 10
9.2576873882
 20
6.1475464322
 30
0.0
 10
9.229632885
 20
6.1317283027
 30
0.0
 10
9.2007407336
 20
6.1173666054
 30
0.0
 10
9.1710806241
 20
6.1044959277
 30
0.0
 10
9.1407240893
 20
6.0931472637
 30
0.0
 10
9.1097443454
 20
6.0833479009
 30
0.0
 10
9.0782161005
 20
6.0751213771
 30
0.0
 10
9.0462153686
 20
6.0684874411
 30
0.0
 10
9.0138192882
 20
6.0634620043
 30
0.0
 10
8.9811059375
 20
6.0600571049
 30
0.0
 10
8.9481541488
 20
6.0582808839
 30
0.0
 10
8.9150433195
 20
6.0581375227
 30
0.0
 10
8.8818532151
 20
6.0596272735
 30
0.0
 10
8.8486637786
 20
6.0627464651
 30
0.0
 10
8.8155549404
 20
6.067487512
 30
0.0
 10
8.7826064291
 20
6.073838935
 30
0.0
 10
8.7498975822
 20
6.0817853847
 30
0.0
 10
8.7175071447
 20
6.0913076435
 30
0.0
 10
8.6855130882
 20
6.1023827163
 30
0.0
 10
8.6539924252
 20
6.1149838826
 30
0.0
 10
8.6230210258
 20
6.1290807612
 30
0.0
 10
8.5926734404
 20
6.1446393854
 30
0.0
 10
8.5630227157
 20
6.1616222705
 30
0.0
 10
8.5341402052
 20
6.1799884854
 30
0.0
 10
8.5060954166
 20
6.1996937873
 30
0.0
 10
8.4789558445
 20
6.2206907222
 30
0.0
 10
8.4527868099
 20
6.2429287373
 30
0.0
 10
8.4276513089
 20
6.2663543057
 30
0.0
 10
8.4036098446
 20
6.2909110341
 30
0.0
 10
8.3807202749
 20
6.3165397973
 30
0.0
 10
8.3590376966
 20
6.343178904
 30
0.0
 10
8.3386143101
 20
6.3707642381
 30
0.0
 10
8.3194992958
 20
6.3992294112
 30
0.0
 10
8.3017387018
 20
6.4285059235
 30
0.0
 10
8.2853753026
 20
6.4585233088
 30
0.0
 10
8.2704485048
 20
6.4892093138
 30
0.0
 10
8.2569942738
 20
6.5204900822
 30
0.0
 10
8.2450450404
 20
6.5522903254
 30
0.0
 10
8.2346296264
 20
6.5845335052
 30
0.0
 10
8.2257731898
 20
6.6171419994
 30
0.0
 10
8.2184970611
 20
6.6500373523
 30
0.0
 10
8.2128189203
 20
6.6831401922
 30
0.0
 10
8.2087522821
 20
6.7163713341
 30
0.0
 10
8.2063073374
 20
6.7496494178
 30
0.0
 10
8.2057613488
 20
6.7718530326
 30
0.0
 10
8.2057613488
 20
6.7829340821
 30
0.0
  0
SPLINE
  5
370
100
AcDbEntity
  8
0
100
AcDbSpline
 62
7
  6
CONTINUOUS
 70
0
 71
3
 72
56
 73
52
 74
0
 42
0.0000001
 43
0.0000001
 44
0.0000000001
 40
0.0
 40
0.0
 40
0.0
 40
0.0
 40
0.0104143655
 40
0.0212919882
 40
0.0326447888
 40
0.0444830372
 40
0.0568150542
 40
0.0696459834
 40
0.0829779697
 40
0.0968109124
 40
0.1111422535
 40
0.1259675858
 40
0.1412798879
 40
0.1570705182
 40
0.1733282814
 40
0.1900404136
 40
0.2247647574
 40
0.2611005701
 40
0.2988726079
 40
0.3378753364
 40
0.3778748066
 40
0.41861163
 40
0.4598056693
 40
0.5011608136
 40
0.5423710311
 40
0.5831304941
 40
0.6231414352
 40
0.6621203903
 40
0.6998046021
 40
0.7359573415
 40
0.7703718905
 40
0.7868719033
 40
0.8028748562
 40
0.8183644617
 40
0.8333267087
 40
0.8477499185
 40
0.8616247863
 40
0.8749444507
 40
0.8877045715
 40
0.8999034631
 40
0.9115422551
 40
0.922625086
 40
0.933159378
 40
0.9431561526
 40
0.952630473
 40
0.9616019671
 40
0.9700953529
 40
0.9781412292
 40
0.9857766274
 40
0.9930456749
 40
1.0
 40
1.0
 40
1.0
 40
1.0
 10
11.3639586713
 20
7.4118397693
 30
0.0
 10
11.3652965494
 20
7.4117914928
 30
0.0
 10
11.3680296666
 20
7.4116236841
 30
0.0
 10
11.3722036324
 20
7.4111786213
 30
0.0
 10
11.3765369125
 20
7.4105364755
 30
0.0
 10
11.3810269581
 20
7.4096995721
 30
0.0
 10
11.385671562
 20
7.4086703927
 30
0.0
 10
11.3904683495
 20
7.4074517678
 30
0.0
 10
11.3954147263
 20
7.4060469203
 30
0.0
 10
11.4005077943
 20
7.4044592425
 30
0.0
 10
11.4057445636
 20
7.4026927318
 30
0.0
 10
11.4111216605
 20
7.4007514451
 30
0.0
 10
11.4166355676
 20
7.3986400574
 30
0.0
 10
11.4222822869
 20
7.3963633466
 30
0.0
 10
11.4280576221
 20
7.3939266535
 30
0.0
 10
11.4360251132
 20
7.3904269421
 30
0.0
 10
11.4462628418
 20
7.3856811111
 30
0.0
 10
11.4588229938
 20
7.3795172585
 30
0.0
 10
11.4717556718
 20
7.3728702227
 30
0.0
 10
11.4849984088
 20
7.3658006334
 30
0.0
 10
11.4984801365
 20
7.3583725732
 30
0.0
 10
11.5121213912
 20
7.35065262
 30
0.0
 10
11.5258350485
 20
7.3427085135
 30
0.0
 10
11.5395274603
 20
7.3346077288
 30
0.0
 10
11.5531003308
 20
7.3264158194
 30
0.0
 10
11.5664530306
 20
7.3181946858
 30
0.0
 10
11.5794850729
 20
7.3100010485
 30
0.0
 10
11.5920982421
 20
7.3018853277
 30
0.0
 10
11.6041986142
 20
7.2938909687
 30
0.0
 10
11.6156981521
 20
7.2860540142
 30
0.0
 10
11.6248369134
 20
7.2795910901
 30
0.0
 10
11.6317790827
 20
7.2745111482
 30
0.0
 10
11.6367144281
 20
7.2708090663
 30
0.0
 10
11.6414440986
 20
7.2671630385
 30
0.0
 10
11.6459609017
 20
7.2635744424
 30
0.0
 10
11.6502582022
 20
7.2600443672
 30
0.0
 10
11.6543298976
 20
7.2565736136
 30
0.0
 10
11.6581704064
 20
7.2531627357
 30
0.0
 10
11.6617746509
 20
7.2498120709
 30
0.0
 10
11.6651380407
 20
7.2465217709
 30
0.0
 10
11.6682564516
 20
7.2432918309
 30
0.0
 10
11.6711262044
 20
7.2401221179
 30
0.0
 10
11.6737440418
 20
7.2370124023
 30
0.0
 10
11.6761070981
 20
7.2339623752
 30
0.0
 10
11.6782128518
 20
7.2309716597
 30
0.0
 10
11.6800591804
 20
7.2280398966
 30
0.0
 10
11.6816441174
 20
7.2251666219
 30
0.0
 10
11.682966138
 20
7.2223515501
 30
0.0
 10
11.6840236554
 20
7.2195942098
 30
0.0
 10
11.6848154948
 20
7.2168948807
 30
0.0
 10
11.685172385
 20
7.2150984411
 30
0.0
 10
11.6853030968
 20
7.2142140822
 30
0.0
  0
SPLINE
  5
371
100
AcDbEntity
  8
0
100
AcDbSpline
 62
7
  6
CONTINUOUS
 70
0
 71
3
 72
35
 73
31
 74
0
 42
0.0000001
 43
0.0000001
 44
0.0000000001
 40
0.0
 40
0.0
 40
0.0
 40
0.0
 40
0.0308202574
 40
0.0617170014
 40
0.0926874753
 40
0.1237283542
 40
0.1548359178
 40
0.1860060694
 40
0.21723433
 40
0.2485158844
 40
0.2798456145
 40
0.3112181164
 40
0.3426277424
 40
0.3740686367
 40
0.4370091288
 40
0.5000005996
 40
0.5629920495
 40
0.6259324796
 40
0.6573733282
 40
0.6887828991
 40
0.7201553354
 40
0.751484992
 40
0.7827664645
 40
0.8139946336
 40
0.8451646876
 40
0.876272148
 40
0.9073129118
 40
0.9382832666
 40
0.9691799127
 40
1.0
 40
1.0
 40
1.0
 40
1.0
 10
11.2105805374
 20
7.8848570728
 30
0.0
 10
11.2121549947
 20
7.8755044429
 30
0.0
 10
11.2156714641
 20
7.8568351407
 30
0.0
 10
11.2220284052
 20
7.8290232673
 30
0.0
 10
11.2294647284
 20
7.8014096283
 30
0.0
 10
11.2379686607
 20
7.7740381064
 30
0.0
 10
11.2475267698
 20
7.7469514856
 30
0.0
 10
11.258124103
 20
7.720192337
 30
0.0
 10
11.2697440327
 20
7.6938026501
 30
0.0
 10
11.2823682103
 20
7.6678238059
 30
0.0
 10
11.2959769058
 20
7.6422965728
 30
0.0
 10
11.3105486817
 20
7.6172611295
 30
0.0
 10
11.3260608973
 20
7.5927563076
 30
0.0
 10
11.3479699583
 20
7.5608350236
 30
0.0
 10
11.3775822083
 20
7.5224546209
 30
0.0
 10
11.4164361049
 20
7.4791380833
 30
0.0
 10
11.4583825672
 20
7.4388089379
 30
0.0
 10
11.4957155719
 20
7.4078867204
 30
0.0
 10
11.5268597686
 20
7.3848864931
 30
0.0
 10
11.5508132574
 20
7.3685358797
 30
0.0
 10
11.5753295777
 20
7.3531067959
 30
0.0
 10
11.6003706871
 20
7.33862318
 30
0.0
 10
11.6258972056
 20
7.3251079036
 30
0.0
 10
11.6518690562
 20
7.3125820706
 30
0.0
 10
11.6782455035
 20
7.3010654151
 30
0.0
 10
11.7049851847
 20
7.2905760694
 30
0.0
 10
11.7320460578
 20
7.2811304224
 30
0.0
 10
11.7593858261
 20
7.2727433372
 30
0.0
 10
11.7869610459
 20
7.2654281832
 30
0.0
 10
11.8054974541
 20
7.2612680356
 30
0.0
 10
11.8147899718
 20
7.2593710046
 30
0.0
  0
SPLINE
  5
372
100
AcDbEntity
  8
0
100
AcDbSpline
 62
7
  6
CONTINUOUS
 70
0
 71
3
 72
26
 73
22
 74
0
 42
0.0000001
 43
0.0000001
 44
0.0000000001
 40
0.0
 40
0.0
 40
0.0
 40
0.0
 40
0.061831016
 40
0.1239149804
 40
0.1862255582
 40
0.2487320208
 40
0.3113998685
 40
0.374191519
 40
0.43706704
 40
0.4999849143
 40
0.5629028274
 40
0.6257784648
 40
0.6885703081
 40
0.7512384205
 40
0.813745213
 40
0.8449317777
 40
0.876065372
 40
0.9071422857
 40
0.9381590727
 40
0.9691125884
 40
1.0
 40
1.0
 40
1.0
 40
1.0
 10
11.272403357
 20
7.8631915943
 30
0.0
 10
11.2759842856
 20
7.8472978512
 30
0.0
 10
11.2842823648
 20
7.815686518
 30
0.0
 10
11.3000178017
 20
7.7691692027
 30
0.0
 10
11.3189887958
 20
7.7236798617
 30
0.0
 10
11.3410955977
 20
7.6794581976
 30
0.0
 10
11.3662231366
 20
7.6367333688
 30
0.0
 10
11.3942404541
 20
7.5957278004
 30
0.0
 10
11.4250017024
 20
7.556654707
 30
0.0
 10
11.4583467666
 20
7.5197173385
 30
0.0
 10
11.4941021583
 20
7.4851078059
 30
0.0
 10
11.5320817783
 20
7.4530062251
 30
0.0
 10
11.5720884736
 20
7.4235795004
 30
0.0
 10
11.6139127876
 20
7.3969815011
 30
0.0
 10
11.6501327244
 20
7.3772717377
 30
0.0
 10
11.6797975317
 20
7.3630526729
 30
0.0
 10
11.702346395
 20
7.3531818221
 30
0.0
 10
11.7251801761
 20
7.3441104927
 30
0.0
 10
11.7482696278
 20
7.3358504872
 30
0.0
 10
11.7715841415
 20
7.3284125654
 30
0.0
 10
11.78727513
 20
7.3240034612
 30
0.0
 10
11.7951477467
 20
7.3219395145
 30
0.0
  0
SPLINE
  5
373
100
AcDbEntity
  8
0
100
AcDbSpline
 62
7
  6
CONTINUOUS
 70
0
 71
3
 72
48
 73
44
 74
0
 42
0.0000001
 43
0.0000001
 44
0.0000000001
 40
0.0
 40
0.0
 40
0.0
 40
0.0
 40
0.0063158757
 40
0.0126706723
 40
0.0191025153
 40
0.0256480656
 40
0.0323419735
 40
0.0392163471
 40
0.0536142197
 40
0.0611949889
 40
0.0690567529
 40
0.0772179107
 40
0.0856943607
 40
0.0944997659
 40
0.103645921
 40
0.1131427623
 40
0.1229985381
 40
0.1332201926
 40
0.1438133623
 40
0.1547824065
 40
0.1661307821
 40
0.177861045
 40
0.189974755
 40
0.2153542741
 40
0.242270138
 40
0.2707124992
 40
0.3006635018
 40
0.3320987844
 40
0.3649881127
 40
0.3992959802
 40
0.4349824885
 40
0.4720034577
 40
0.510310969
 40
0.5498538267
 40
0.5905775201
 40
0.6324247899
 40
0.6753357769
 40
0.7192480049
 40
0.7640970224
 40
0.8098164065
 40
0.8563370501
 40
0.9035891101
 40
1.0
 40
1.0
 40
1.0
 40
1.0
 10
12.697250098
 20
6.63358311
 30
0.0
 10
12.6981475845
 20
6.633520862
 30
0.0
 10
12.6999438472
 20
6.6333225207
 30
0.0
 10
12.7026180996
 20
6.6328055022
 30
0.0
 10
12.705274482
 20
6.6320690895
 30
0.0
 10
12.7079114442
 20
6.631113842
 30
0.0
 10
12.7105279232
 20
6.629940246
 30
0.0
 10
12.7140411647
 20
6.6280569073
 30
0.0
 10
12.7174590122
 20
6.6257514446
 30
0.0
 10
12.720766585
 20
6.6230797466
 30
0.0
 10
12.7232649497
 20
6.6208272296
 30
0.0
 10
12.7257366153
 20
6.6183618228
 30
0.0
 10
12.72818097
 20
6.6156844202
 30
0.0
 10
12.73059706
 20
6.6127962169
 30
0.0
 10
12.7329839482
 20
6.6096983404
 30
0.0
 10
12.7353407149
 20
6.6063920619
 30
0.0
 10
12.7376664913
 20
6.6028787552
 30
0.0
 10
12.7399603276
 20
6.5991598159
 30
0.0
 10
12.7422212966
 20
6.5952367437
 30
0.0
 10
12.7444485454
 20
6.5911111621
 30
0.0
 10
12.7466411477
 20
6.5867847339
 30
0.0
 10
12.7487982077
 20
6.5822591962
 30
0.0
 10
12.7516704515
 20
6.5758624807
 30
0.0
 10
12.7551560519
 20
6.5673728911
 30
0.0
 10
12.7591208901
 20
6.556575094
 30
0.0
 10
12.7629237754
 20
6.5450317211
 30
0.0
 10
12.7665585129
 20
6.5327616846
 30
0.0
 10
12.7700190566
 20
6.5197848917
 30
0.0
 10
12.7732996511
 20
6.5061225541
 30
0.0
 10
12.7763948924
 20
6.4917970467
 30
0.0
 10
12.7792995737
 20
6.4768318672
 30
0.0
 10
12.7820088799
 20
6.4612516047
 30
0.0
 10
12.7845183178
 20
6.4450818834
 30
0.0
 10
12.7868236549
 20
6.428349314
 30
0.0
 10
12.7889210944
 20
6.4110814545
 30
0.0
 10
12.7908071316
 20
6.3933067539
 30
0.0
 10
12.7924785914
 20
6.3750545114
 30
0.0
 10
12.7939327373
 20
6.3563548181
 30
0.0
 10
12.7951671155
 20
6.3372384811
 30
0.0
 10
12.7961796444
 20
6.3177370948
 30
0.0
 10
12.7969687132
 20
6.2978828037
 30
0.0
 10
12.7977259717
 20
6.2708029268
 30
0.0
 10
12.7979456425
 20
6.2503382909
 30
0.0
 10
12.7979456425
 20
6.2366053821
 30
0.0
  0
SPLINE
  5
374
100
AcDbEntity
  8
0
100
AcDbSpline
 62
7
  6
CONTINUOUS
 70
0
 71
3
 72
11
 73
7
 74
0
 42
0.0000001
 43
0.0000001
 44
0.0000000001
 40
0.0
 40
0.0
 40
0.0
 40
0.0
 40
0.2404515951
 40
0.4873907744
 40
0.7407103111
 40
1.0
 40
1.0
 40
1.0
 40
1.0
 10
9.3509847528
 20
9.5763646205
 30
0.0
 10
9.3494785452
 20
9.5737297332
 30
0.0
 10
9.3463229646
 20
9.5684468898
 30
0.0
 10
9.3412460967
 20
9.560593976
 30
0.0
 10
9.335774654
 20
9.5527194929
 30
0.0
 10
9.3319163955
 20
9.5475240119
 30
0.0
 10
9.3299262728
 20
9.5449258295
 30
0.0
  0
SPLINE
  5
375
100
AcDbEntity
  8
0
100
AcDbSpline
 62
7
  6
CONTINUOUS
 70
0
 71
3
 72
48
 73
44
 74
0
 42
0.0000001
 43
0.0000001
 44
0.0000000001
 40
0.0
 40
0.0
 40
0.0
 40
0.0
 40
0.0063158757
 40
0.0126706723
 40
0.0191025153
 40
0.0256480656
 40
0.0323419735
 40
0.0392163471
 40
0.0536142197
 40
0.0611949889
 40
0.0690567529
 40
0.0772179107
 40
0.0856943607
 40
0.0944997659
 40
0.103645921
 40
0.1131427623
 40
0.1229985381
 40
0.1332201926
 40
0.1438133623
 40
0.1547824065
 40
0.1661307821
 40
0.177861045
 40
0.189974755
 40
0.2153542741
 40
0.242270138
 40
0.2707124992
 40
0.3006635018
 40
0.3320987844
 40
0.3649881127
 40
0.3992959802
 40
0.4349824885
 40
0.4720034577
 40
0.510310969
 40
0.5498538267
 40
0.5905775201
 40
0.6324247899
 40
0.6753357769
 40
0.7192480049
 40
0.7640970224
 40
0.8098164065
 40
0.8563370501
 40
0.9035891101
 40
1.0
 40
1.0
 40
1.0
 40
1.0
 10
12.697250098
 20
9.411585881
 30
0.0
 10
12.6981475845
 20
9.411523633
 30
0.0
 10
12.6999438472
 20
9.4113252917
 30
0.0
 10
12.7026180996
 20
9.4108082732
 30
0.0
 10
12.705274482
 20
9.4100718605
 30
0.0
 10
12.7079114442
 20
9.409116613
 30
0.0
 10
12.7105279232
 20
9.407943017
 30
0.0
 10
12.7140411647
 20
9.4060596783
 30
0.0
 10
12.7174590122
 20
9.4037542156
 30
0.0
 10
12.720766585
 20
9.4010825176
 30
0.0
 10
12.7232649497
 20
9.3988300006
 30
0.0
 10
12.7257366153
 20
9.3963645938
 30
0.0
 10
12.72818097
 20
9.3936871912
 30
0.0
 10
12.73059706
 20
9.3907989879
 30
0.0
 10
12.7329839482
 20
9.3877011114
 30
0.0
 10
12.7353407149
 20
9.3843948329
 30
0.0
 10
12.7376664913
 20
9.3808815262
 30
0.0
 10
12.7399603276
 20
9.3771625869
 30
0.0
 10
12.7422212966
 20
9.3732395147
 30
0.0
 10
12.7444485454
 20
9.3691139331
 30
0.0
 10
12.7466411477
 20
9.3647875049
 30
0.0
 10
12.7487982077
 20
9.3602619672
 30
0.0
 10
12.7516704515
 20
9.3538652517
 30
0.0
 10
12.7551560519
 20
9.3453756621
 30
0.0
 10
12.7591208901
 20
9.334577865
 30
0.0
 10
12.7629237754
 20
9.3230344921
 30
0.0
 10
12.7665585129
 20
9.3107644556
 30
0.0
 10
12.7700190566
 20
9.2977876627
 30
0.0
 10
12.7732996511
 20
9.2841253251
 30
0.0
 10
12.7763948924
 20
9.2697998177
 30
0.0
 10
12.7792995737
 20
9.2548346382
 30
0.0
 10
12.7820088799
 20
9.2392543757
 30
0.0
 10
12.7845183178
 20
9.2230846544
 30
0.0
 10
12.7868236549
 20
9.206352085
 30
0.0
 10
12.7889210944
 20
9.1890842255
 30
0.0
 10
12.7908071316
 20
9.1713095249
 30
0.0
 10
12.7924785914
 20
9.1530572824
 30
0.0
 10
12.7939327373
 20
9.1343575891
 30
0.0
 10
12.7951671155
 20
9.1152412521
 30
0.0
 10
12.7961796444
 20
9.0957398658
 30
0.0
 10
12.7969687132
 20
9.0758855747
 30
0.0
 10
12.7977259717
 20
9.0488056978
 30
0.0
 10
12.7979456425
 20
9.0283410619
 30
0.0
 10
12.7979456425
 20
9.0146081531
 30
0.0
  0
SPLINE
  5
376
100
AcDbEntity
  8
0
100
AcDbSpline
 62
7
  6
CONTINUOUS
 70
0
 71
3
 72
48
 73
44
 74
0
 42
0.0000001
 43
0.0000001
 44
0.0000000001
 40
0.0
 40
0.0
 40
0.0
 40
0.0
 40
0.0090047859
 40
0.0132482299
 40
0.0173339646
 40
0.0250809964
 40
0.0323599075
 40
0.0392890956
 40
0.0459915459
 40
0.0525913087
 40
0.0592048258
 40
0.0659355399
 40
0.0728731854
 40
0.0800904811
 40
0.0876427345
 40
0.0955715909
 40
0.103908611
 40
0.1126748602
 40
0.1218827122
 40
0.1315395258
 40
0.1416499264
 40
0.1522143126
 40
0.1632294987
 40
0.1746901565
 40
0.1865917358
 40
0.2116914977
 40
0.2384694462
 40
0.2668630662
 40
0.2968116302
 40
0.3282487349
 40
0.3611197778
 40
0.3953715416
 40
0.4309496917
 40
0.4678126578
 40
0.5059215042
 40
0.5452361505
 40
0.5857263724
 40
0.6273680301
 40
0.670135929
 40
0.7140089714
 40
0.8050297665
 40
0.9003617927
 40
1.0
 40
1.0
 40
1.0
 40
1.0
 10
9.4446969515
 20
8.7196859118
 30
0.0
 10
9.4441385534
 20
8.7198322074
 30
0.0
 10
9.4433254462
 20
8.7200833463
 30
0.0
 10
9.4422919638
 20
8.7204927222
 30
0.0
 10
9.4413551716
 20
8.7209231766
 30
0.0
 10
9.4402856405
 20
8.7215269757
 30
0.0
 10
9.4391522327
 20
8.722367875
 30
0.0
 10
9.4381888681
 20
8.7233060115
 30
0.0
 10
9.4373925108
 20
8.724335122
 30
0.0
 10
9.4367598618
 20
8.7254488949
 30
0.0
 10
9.4362867638
 20
8.7266408314
 30
0.0
 10
9.4359683756
 20
8.7279049507
 30
0.0
 10
9.4357997985
 20
8.7292361167
 30
0.0
 10
9.4357759575
 20
8.7306298759
 30
0.0
 10
9.4358919205
 20
8.7320823164
 30
0.0
 10
9.4361431703
 20
8.7335899971
 30
0.0
 10
9.4365255258
 20
8.7351498084
 30
0.0
 10
9.4370349186
 20
8.7367588341
 30
0.0
 10
9.4376674294
 20
8.7384142552
 30
0.0
 10
9.4384193915
 20
8.7401134574
 30
0.0
 10
9.4392873283
 20
8.7418540518
 30
0.0
 10
9.4402678215
 20
8.7436338057
 30
0.0
 10
9.4413574987
 20
8.7454505056
 30
0.0
 10
9.4425531218
 20
8.7473021443
 30
0.0
 10
9.4443159928
 20
8.7498606089
 30
0.0
 10
9.4467741288
 20
8.7531300197
 30
0.0
 10
9.450049508
 20
8.7571004768
 30
0.0
 10
9.453680973
 20
8.7611746733
 30
0.0
 10
9.4576496501
 20
8.765343882
 30
0.0
 10
9.4619383528
 20
8.7696011434
 30
0.0
 10
9.4665314384
 20
8.7739403901
 30
0.0
 10
9.4714144577
 20
8.778356876
 30
0.0
 10
9.4765741717
 20
8.7828469308
 30
0.0
 10
9.4819987905
 20
8.7874075574
 30
0.0
 10
9.4876775547
 20
8.7920367093
 30
0.0
 10
9.4936005573
 20
8.7967330902
 30
0.0
 10
9.4997591069
 20
8.8014959346
 30
0.0
 10
9.5061455334
 20
8.8063251547
 30
0.0
 10
9.512752769
 20
8.8112212213
 30
0.0
 10
9.5219618589
 20
8.8179220724
 30
0.0
 10
9.5339972743
 20
8.8264646786
 30
0.0
 10
9.5490761501
 20
8.8368928058
 30
0.0
 10
9.5594224761
 20
8.8439047731
 30
0.0
 10
9.5647219925
 20
8.8474701275
 30
0.0
  0
SPLINE
  5
377
100
AcDbEntity
  8
0
100
AcDbSpline
 62
7
  6
CONTINUOUS
 70
0
 71
3
 72
41
 73
37
 74
0
 42
0.0000001
 43
0.0000001
 44
0.0000000001
 40
0.0
 40
0.0
 40
0.0
 40
0.0
 40
0.0300388235
 40
0.045097453
 40
0.0601827453
 40
0.0904343017
 40
0.1208064913
 40
0.1360420376
 40
0.1513101362
 40
0.1819420082
 40
0.2127086467
 40
0.2436104316
 40
0.2746455822
 40
0.3058102105
 40
0.3370984091
 40
0.3685023713
 40
0.4000125304
 40
0.4316177202
 40
0.4633053541
 40
0.4950616213
 40
0.5268717025
 40
0.5587199948
 40
0.5905903404
 40
0.6224662604
 40
0.654331192
 40
0.6861687303
 40
0.7179628706
 40
0.7496982449
 40
0.7813603425
 40
0.8129357371
 40
0.8444122822
 40
0.8757792722
 40
0.9070279007
 40
0.9381502894
 40
0.9691428892
 40
1.0
 40
1.0
 40
1.0
 40
1.0
 10
9.4234492289
 20
6.9320423522
 30
0.0
 10
9.4188656481
 20
6.9301028713
 30
0.0
 10
9.4118839514
 20
6.9274203306
 30
0.0
 10
9.402408348
 20
6.9243108899
 30
0.0
 10
9.3928009049
 20
6.9215064399
 30
0.0
 10
9.3805910411
 20
6.9185891713
 30
0.0
 10
9.3681921623
 20
6.9164722724
 30
0.0
 10
9.3581774734
 20
6.9152596439
 30
0.0
 10
9.3480860079
 20
6.9143672104
 30
0.0
 10
9.3353840493
 20
6.913860004
 30
0.0
 10
9.3200854667
 20
6.9142250818
 30
0.0
 10
9.3047737409
 20
6.9155614883
 30
0.0
 10
9.2895107469
 20
6.9178638146
 30
0.0
 10
9.274357642
 20
6.9211227266
 30
0.0
 10
9.2593752589
 20
6.9253250416
 30
0.0
 10
9.2446236954
 20
6.9304538087
 30
0.0
 10
9.2301621239
 20
6.9364883782
 30
0.0
 10
9.2160485459
 20
6.9434044835
 30
0.0
 10
9.2023395703
 20
6.9511743418
 30
0.0
 10
9.1890901778
 20
6.9597667457
 30
0.0
 10
9.1763534909
 20
6.9691471788
 30
0.0
 10
9.1641805816
 20
6.9792779861
 30
0.0
 10
9.1526202664
 20
6.9901185174
 30
0.0
 10
9.1417189144
 20
7.0016252883
 30
0.0
 10
9.1315202689
 20
7.0137521552
 30
0.0
 10
9.1220652474
 20
7.026450477
 30
0.0
 10
9.1133917802
 20
7.0396693175
 30
0.0
 10
9.1055346814
 20
7.0533556652
 30
0.0
 10
9.098525504
 20
7.067454636
 30
0.0
 10
9.0923924175
 20
7.0819096938
 30
0.0
 10
9.0871601106
 20
7.0966628617
 30
0.0
 10
9.0828495916
 20
7.111654991
 30
0.0
 10
9.0794783246
 20
7.1268258106
 30
0.0
 10
9.0770596964
 20
7.1421148361
 30
0.0
 10
9.0756038262
 20
7.1574596956
 30
0.0
 10
9.0752781297
 20
7.1677102406
 30
0.0
 10
9.0752781297
 20
7.1728228469
 30
0.0
  0
SPLINE
  5
378
100
AcDbEntity
  8
0
100
AcDbSpline
 62
7
  6
CONTINUOUS
 70
0
 71
3
 72
15
 73
11
 74
0
 42
0.0000001
 43
0.0000001
 44
0.0000000001
 40
0.0
 40
0.0
 40
0.0
 40
0.0
 40
0.1158145545
 40
0.2342253447
 40
0.3552574804
 40
0.4789315894
 40
0.605253848
 40
0.734216919
 40
0.8658069608
 40
1.0
 40
1.0
 40
1.0
 40
1.0
 10
11.2852162774
 20
7.4091903128
 30
0.0
 10
11.2882334917
 20
7.4096018404
 30
0.0
 10
11.294349863
 20
7.410331824
 30
0.0
 10
11.3036547536
 20
7.4111639069
 30
0.0
 10
11.3131844079
 20
7.4117643668
 30
0.0
 10
11.3229331573
 20
7.4121495988
 30
0.0
 10
11.3328961442
 20
7.4123361906
 30
0.0
 10
11.3430688876
 20
7.4123403206
 30
0.0
 10
11.3534471672
 20
7.4121764473
 30
0.0
 10
11.360432585
 20
7.4119670058
 30
0.0
 10
11.3639586713
 20
7.4118397693
 30
0.0
  0
SPLINE
  5
379
100
AcDbEntity
  8
0
100
AcDbSpline
 62
4
  6
CONTINUOUS
 70
0
 71
3
 72
327
 73
323
 74
0
 42
0.0000001
 43
0.0000001
 44
0.0000000001
 40
0.0
 40
0.0
 40
0.0
 40
0.0
 40
0.015625
 40
0.0234375
 40
0.03125
 40
0.0390625
 40
0.04296875
 40
0.046875
 40
0.05078125
 40
0.0546875
 40
0.056640625
 40
0.05859375
 40
0.0595703125
 40
0.060546875
 40
0.0615234375
 40
0.0620117188
 40
0.0625
 40
0.0629882812
 40
0.0634765625
 40
0.064453125
 40
0.0654296875
 40
0.06640625
 40
0.068359375
 40
0.0703125
 40
0.07421875
 40
0.078125
 40
0.08203125
 40
0.0859375
 40
0.09375
 40
0.1015625
 40
0.109375
 40
0.11328125
 40
0.1171875
 40
0.119140625
 40
0.12109375
 40
0.123046875
 40
0.1240234375
 40
0.1245117188
 40
0.125
 40
0.1254882812
 40
0.1259765625
 40
0.126953125
 40
0.12890625
 40
0.130859375
 40
0.1328125
 40
0.13671875
 40
0.140625
 40
0.1484375
 40
0.15625
 40
0.1640625
 40
0.171875
 40
0.17578125
 40
0.1796875
 40
0.181640625
 40
0.18359375
 40
0.185546875
 40
0.1865234375
 40
0.1870117188
 40
0.1875
 40
0.1879882812
 40
0.1884765625
 40
0.189453125
 40
0.19140625
 40
0.193359375
 40
0.1953125
 40
0.19921875
 40
0.203125
 40
0.2109375
 40
0.21875
 40
0.2265625
 40
0.234375
 40
0.23828125
 40
0.2421875
 40
0.244140625
 40
0.24609375
 40
0.248046875
 40
0.2490234375
 40
0.2495117188
 40
0.25
 40
0.2504882812
 40
0.2509765625
 40
0.251953125
 40
0.25390625
 40
0.255859375
 40
0.2578125
 40
0.26171875
 40
0.265625
 40
0.2734375
 40
0.28125
 40
0.2890625
 40
0.296875
 40
0.30078125
 40
0.3046875
 40
0.30859375
 40
0.310546875
 40
0.3115234375
 40
0.3125
 40
0.3134765625
 40
0.314453125
 40
0.31640625
 40
0.3203125
 40
0.32421875
 40
0.328125
 40
0.3359375
 40
0.34375
 40
0.3515625
 40
0.359375
 40
0.36328125
 40
0.3671875
 40
0.37109375
 40
0.373046875
 40
0.3740234375
 40
0.375
 40
0.3759765625
 40
0.376953125
 40
0.37890625
 40
0.3828125
 40
0.38671875
 40
0.390625
 40
0.3984375
 40
0.40625
 40
0.4140625
 40
0.421875
 40
0.42578125
 40
0.4296875
 40
0.43359375
 40
0.435546875
 40
0.4365234375
 40
0.4375
 40
0.4384765625
 40
0.439453125
 40
0.44140625
 40
0.4453125
 40
0.44921875
 40
0.453125
 40
0.4609375
 40
0.46875
 40
0.4765625
 40
0.484375
 40
0.48828125
 40
0.4921875
 40
0.494140625
 40
0.49609375
 40
0.498046875
 40
0.4990234375
 40
0.5
 40
0.5009765625
 40
0.501953125
 40
0.50390625
 40
0.505859375
 40
0.5078125
 40
0.51171875
 40
0.515625
 40
0.5234375
 40
0.53125
 40
0.5390625
 40
0.546875
 40
0.55078125
 40
0.5546875
 40
0.556640625
 40
0.55859375
 40
0.560546875
 40
0.5615234375
 40
0.5620117188
 40
0.5625
 40
0.5629882812
 40
0.5634765625
 40
0.564453125
 40
0.56640625
 40
0.568359375
 40
0.5703125
 40
0.57421875
 40
0.578125
 40
0.5859375
 40
0.59375
 40
0.6015625
 40
0.609375
 40
0.61328125
 40
0.6171875
 40
0.619140625
 40
0.62109375
 40
0.623046875
 40
0.6240234375
 40
0.6245117188
 40
0.625
 40
0.6254882812
 40
0.6259765625
 40
0.626953125
 40
0.62890625
 40
0.630859375
 40
0.6328125
 40
0.63671875
 40
0.640625
 40
0.6484375
 40
0.65625
 40
0.6640625
 40
0.671875
 40
0.67578125
 40
0.6796875
 40
0.681640625
 40
0.68359375
 40
0.685546875
 40
0.6865234375
 40
0.6870117188
 40
0.6875
 40
0.6879882812
 40
0.6884765625
 40
0.689453125
 40
0.69140625
 40
0.693359375
 40
0.6953125
 40
0.69921875
 40
0.703125
 40
0.7109375
 40
0.71875
 40
0.7265625
 40
0.73046875
 40
0.734375
 40
0.73828125
 40
0.7421875
 40
0.744140625
 40
0.74609375
 40
0.7470703125
 40
0.748046875
 40
0.7490234375
 40
0.7495117188
 40
0.7497558594
 40
0.75
 40
0.7502441406
 40
0.7504882812
 40
0.7509765625
 40
0.751953125
 40
0.7529296875
 40
0.75390625
 40
0.755859375
 40
0.7578125
 40
0.76171875
 40
0.765625
 40
0.76953125
 40
0.7734375
 40
0.78125
 40
0.7890625
 40
0.79296875
 40
0.796875
 40
0.80078125
 40
0.8046875
 40
0.806640625
 40
0.80859375
 40
0.8095703125
 40
0.810546875
 40
0.8115234375
 40
0.8120117188
 40
0.8122558594
 40
0.8125
 40
0.8127441406
 40
0.8129882812
 40
0.8134765625
 40
0.814453125
 40
0.8154296875
 40
0.81640625
 40
0.818359375
 40
0.8203125
 40
0.82421875
 40
0.828125
 40
0.83203125
 40
0.8359375
 40
0.84375
 40
0.8515625
 40
0.85546875
 40
0.859375
 40
0.86328125
 40
0.8671875
 40
0.869140625
 40
0.87109375
 40
0.8720703125
 40
0.873046875
 40
0.8740234375
 40
0.8745117188
 40
0.8747558594
 40
0.875
 40
0.8752441406
 40
0.8754882812
 40
0.8759765625
 40
0.876953125
 40
0.8779296875
 40
0.87890625
 40
0.880859375
 40
0.8828125
 40
0.88671875
 40
0.890625
 40
0.89453125
 40
0.8984375
 40
0.90625
 40
0.9140625
 40
0.91796875
 40
0.921875
 40
0.92578125
 40
0.9296875
 40
0.931640625
 40
0.93359375
 40
0.9345703125
 40
0.935546875
 40
0.9365234375
 40
0.9370117188
 40
0.9372558594
 40
0.9375
 40
0.9377441406
 40
0.9379882812
 40
0.9384765625
 40
0.939453125
 40
0.9404296875
 40
0.94140625
 40
0.943359375
 40
0.9453125
 40
0.94921875
 40
0.953125
 40
0.95703125
 40
0.9609375
 40
0.96875
 40
0.9765625
 40
0.984375
 40
1.0
 40
1.0
 40
1.0
 40
1.0
 10
13.4369693375
 20
9.9038623814
 30
0.0
 10
13.4352902692
 20
9.9016261025
 30
0.0
 10
13.4327716667
 20
9.8982716842
 30
0.0
 10
13.4294135301
 20
9.8937991263
 30
0.0
 10
13.4268949276
 20
9.8904447083
 30
0.0
 10
13.4247960922
 20
9.8876493588
 30
0.0
 10
13.4231170238
 20
9.8854130817
 30
0.0
 10
13.4218577228
 20
9.8837358673
 30
0.0
 10
13.4205984205
 20
9.8820586778
 30
0.0
 10
13.4195490062
 20
9.8806609422
 30
0.0
 10
13.4187094651
 20
9.8795429279
 30
0.0
 10
13.418184774
 20
9.8788437723
 30
0.0
 10
13.4177649704
 20
9.8782853562
 30
0.0
 10
13.4174502567
 20
9.8778640571
 30
0.0
 10
13.4171875529
 20
9.877520886
 30
0.0
 10
13.4169783822
 20
9.877228605
 30
0.0
 10
13.4168187927
 20
9.87705788
 30
0.0
 10
13.4166695527
 20
9.8767020838
 30
0.0
 10
13.4164669508
 20
9.8762923368
 30
0.0
 10
13.4162149387
 20
9.8757579726
 30
0.0
 10
13.4159119933
 20
9.8751262295
 30
0.0
 10
13.4155082516
 20
9.8742805893
 30
0.0
 10
13.4150035109
 20
9.8732246744
 30
0.0
 10
13.4141959614
 20
9.8715345761
 30
0.0
 10
13.4131865122
 20
9.869422171
 30
0.0
 10
13.4119751785
 20
9.8668871915
 30
0.0
 10
13.4107638433
 20
9.8643522371
 30
0.0
 10
13.4091487303
 20
9.8609722886
 30
0.0
 10
13.4071298385
 20
9.8567473595
 30
0.0
 10
13.4047071704
 20
9.8516774272
 30
0.0
 10
13.4026882742
 20
9.8474525329
 30
0.0
 10
13.4010731708
 20
9.8440725078
 30
0.0
 10
13.4000637003
 20
9.8419602416
 30
0.0
 10
13.3992561946
 20
9.8402698573
 30
0.0
 10
13.3986503718
 20
9.8390036335
 30
0.0
 10
13.3981461348
 20
9.8379434704
 30
0.0
 10
13.3977919615
 20
9.8372111225
 30
0.0
 10
13.397591462
 20
9.8367773889
 30
0.0
 10
13.3974357767
 20
9.8364950455
 30
0.0
 10
13.3973003915
 20
9.8360484996
 30
0.0
 10
13.3971127971
 20
9.8355103808
 30
0.0
 10
13.3967878059
 20
9.8345419871
 30
0.0
 10
13.3963218079
 20
9.8331725191
 30
0.0
 10
13.3957633486
 20
9.8315231858
 30
0.0
 10
13.3950184784
 20
9.8293261606
 30
0.0
 10
13.3940874789
 20
9.8265791648
 30
0.0
 10
13.3925978304
 20
9.8221843709
 30
0.0
 10
13.3907357868
 20
9.8166907406
 30
0.0
 10
13.3885013266
 20
9.810098447
 30
0.0
 10
13.3862668708
 20
9.8035061229
 30
0.0
 10
13.3844048161
 20
9.7980125689
 30
0.0
 10
13.3829151898
 20
9.7936176225
 30
0.0
 10
13.3819841338
 20
9.7908710141
 30
0.0
 10
13.3812393796
 20
9.7886731938
 30
0.0
 10
13.380680566
 20
9.7870262893
 30
0.0
 10
13.3802156766
 20
9.7856492223
 30
0.0
 10
13.3798887064
 20
9.7846943942
 30
0.0
 10
13.3797042829
 20
9.7841345398
 30
0.0
 10
13.3795591576
 20
9.7837547588
 30
0.0
 10
13.3794400543
 20
9.7832216576
 30
0.0
 10
13.3792721732
 20
9.7825643357
 30
0.0
 10
13.3789826102
 20
9.7813891052
 30
0.0
 10
13.3785667378
 20
9.7797232315
 30
0.0
 10
13.3780686373
 20
9.7777186071
 30
0.0
 10
13.3774041727
 20
9.7750477221
 30
0.0
 10
13.3765737052
 20
9.7717084491
 30
0.0
 10
13.3752448939
 20
9.7663659849
 30
0.0
 10
13.3735839017
 20
9.7596877764
 30
0.0
 10
13.3715907006
 20
9.7516739833
 30
0.0
 10
13.3695975061
 20
9.7436601668
 30
0.0
 10
13.3679364976
 20
9.7369820167
 30
0.0
 10
13.3666077188
 20
9.7316394357
 30
0.0
 10
13.3657771686
 20
9.7283004596
 30
0.0
 10
13.3651128737
 20
9.725628965
 30
0.0
 10
13.364614255
 20
9.7236262031
 30
0.0
 10
13.364200004
 20
9.7219545022
 30
0.0
 10
13.3639075464
 20
9.7207896742
 30
0.0
 10
13.3637443032
 20
9.7201156849
 30
0.0
 10
13.3636109537
 20
9.7196337806
 30
0.0
 10
13.3635193345
 20
9.7190617124
 30
0.0
 10
13.3633826196
 20
9.7183304049
 30
0.0
 10
13.3631501504
 20
9.7170359636
 30
0.0
 10
13.3628145058
 20
9.7151944227
 30
0.0
 10
13.36241325
 20
9.7129812944
 30
0.0
 10
13.3618777121
 20
9.710031602
 30
0.0
 10
13.3612084714
 20
9.7063440943
 30
0.0
 10
13.3601375844
 20
9.7004443018
 30
0.0
 10
13.3587990131
 20
9.6930694819
 30
0.0
 10
13.3571927004
 20
9.6842197488
 30
0.0
 10
13.3555864362
 20
9.675369939
 30
0.0
 10
13.3542477438
 20
9.6679953109
 30
0.0
 10
13.3531770989
 20
9.6620951347
 30
0.0
 10
13.3523732716
 20
9.6576712955
 30
0.0
 10
13.3517060988
 20
9.6539806507
 30
0.0
 10
13.351233812
 20
9.651405269
 30
0.0
 10
13.350972156
 20
9.6499210223
 30
0.0
 10
13.3507527523
 20
9.6488433317
 30
0.0
 10
13.3506218841
 20
9.6476299634
 30
0.0
 10
13.350416511
 20
9.6460594648
 30
0.0
 10
13.3500714967
 20
9.6432890424
 30
0.0
 10
13.3495710965
 20
9.639342824
 30
0.0
 10
13.3489738364
 20
9.6346024276
 30
0.0
 10
13.3481763643
 20
9.6282836229
 30
0.0
 10
13.3471799131
 20
9.6203845239
 30
0.0
 10
13.3459839927
 20
9.6109058665
 30
0.0
 10
13.344788166
 20
9.6014271122
 30
0.0
 10
13.3437914804
 20
9.5935282557
 30
0.0
 10
13.3429944772
 20
9.5872089658
 30
0.0
 10
13.3423957872
 20
9.5824700494
 30
0.0
 10
13.34189986
 20
9.5785192008
 30
0.0
 10
13.3415468608
 20
9.5757570442
 30
0.0
 10
13.3413542815
 20
9.5741733017
 30
0.0
 10
13.3411841149
 20
9.5730006145
 30
0.0
 10
13.3411123097
 20
9.5717701323
 30
0.0
 10
13.34098226
 20
9.5701496488
 30
0.0
 10
13.3407706583
 20
9.56730441
 30
0.0
 10
13.3404600129
 20
9.5632446939
 30
0.0
 10
13.3400908157
 20
9.5583709325
 30
0.0
 10
13.3395973027
 20
9.5518733184
 30
0.0
 10
13.3389808435
 20
9.5437510483
 30
0.0
 10
13.3382408941
 20
9.5340044341
 30
0.0
 10
13.3375010465
 20
9.5242577839
 30
0.0
 10
13.3368843329
 20
9.5161356041
 30
0.0
 10
13.3363913286
 20
9.5096378094
 30
0.0
 10
13.3360205801
 20
9.5047645986
 30
0.0
 10
13.3357147878
 20
9.5007031602
 30
0.0
 10
13.3354945225
 20
9.4978609959
 30
0.0
 10
13.3353783541
 20
9.4962355864
 30
0.0
 10
13.3352639097
 20
9.4950202354
 30
0.0
 10
13.3352538892
 20
9.4937907175
 30
0.0
 10
13.3352041043
 20
9.4921563019
 30
0.0
 10
13.3351339514
 20
9.4892937722
 30
0.0
 10
13.3350248606
 20
9.4852056477
 30
0.0
 10
13.3348977492
 20
9.4802993831
 30
0.0
 10
13.334726941
 20
9.4737578771
 30
0.0
 10
13.334513885
 20
9.4655809317
 30
0.0
 10
13.3342580267
 20
9.4557686289
 30
0.0
 10
13.334002206
 20
9.4459563
 30
0.0
 10
13.3337890558
 20
9.4377794199
 30
0.0
 10
13.333618436
 20
9.4312377833
 30
0.0
 10
13.3335120309
 20
9.4271495616
 30
0.0
 10
13.3334263744
 20
9.4238782945
 30
0.0
 10
13.3333635897
 20
9.4214267325
 30
0.0
 10
13.3333066319
 20
9.419377757
 30
0.0
 10
13.3332714664
 20
9.4177520498
 30
0.0
 10
13.3332166722
 20
9.4164959542
 30
0.0
 10
13.3332703577
 20
9.4153803827
 30
0.0
 10
13.3333040451
 20
9.4138438672
 30
0.0
 10
13.3333591552
 20
9.4119400642
 30
0.0
 10
13.3334197226
 20
9.409648292
 30
0.0
 10
13.3335024227
 20
9.4065951135
 30
0.0
 10
13.3336051324
 20
9.4027777783
 30
0.0
 10
13.3337698398
 20
9.3966705237
 30
0.0
 10
13.3339755967
 20
9.3890362907
 30
0.0
 10
13.3342225583
 20
9.3798752796
 30
0.0
 10
13.3344695103
 20
9.370714258
 30
0.0
 10
13.3346752914
 20
9.3630800512
 30
0.0
 10
13.3348399504
 20
9.3569727442
 30
0.0
 10
13.334942783
 20
9.3531555421
 30
0.0
 10
13.3350252309
 20
9.3501020904
 30
0.0
 10
13.3350865689
 20
9.3478111529
 30
0.0
 10
13.3351392677
 20
9.3459047384
 30
0.0
 10
13.3351730488
 20
9.3445649493
 30
0.0
 10
13.3351972053
 20
9.3438076294
 30
0.0
 10
13.3352016518
 20
9.343216332
 30
0.0
 10
13.3352583552
 20
9.3427141272
 30
0.0
 10
13.3353157319
 20
9.3420134442
 30
0.0
 10
13.3354246339
 20
9.3408017282
 30
0.0
 10
13.335575768
 20
9.3390631354
 30
0.0
 10
13.3357590295
 20
9.3369800642
 30
0.0
 10
13.3360027144
 20
9.3342015042
 30
0.0
 10
13.3363075478
 20
9.3307286918
 30
0.0
 10
13.3367951541
 20
9.3251719752
 30
0.0
 10
13.3374047059
 20
9.3182261545
 30
0.0
 10
13.338136148
 20
9.3098911345
 30
0.0
 10
13.3388675999
 20
9.301556135
 30
0.0
 10
13.3394771274
 20
9.2946102633
 30
0.0
 10
13.3399647824
 20
9.2890536486
 30
0.0
 10
13.3402694919
 20
9.2855805771
 30
0.0
 10
13.340513431
 20
9.282802549
 30
0.0
 10
13.340695916
 20
9.2807178529
 30
0.0
 10
13.3408494795
 20
9.278984344
 30
0.0
 10
13.3409540447
 20
9.2777635523
 30
0.0
 10
13.3410183701
 20
9.2770774108
 30
0.0
 10
13.3410537294
 20
9.2765305392
 30
0.0
 10
13.3411383407
 20
9.2761070027
 30
0.0
 10
13.3412339761
 20
9.2754992667
 30
0.0
 10
13.3414093423
 20
9.2744557728
 30
0.0
 10
13.3416556808
 20
9.2729545879
 30
0.0
 10
13.3419530782
 20
9.2711576515
 30
0.0
 10
13.3423489823
 20
9.2687601697
 30
0.0
 10
13.3428440768
 20
9.2657638538
 30
0.0
 10
13.3436361081
 20
9.2609694484
 30
0.0
 10
13.3446261887
 20
9.2549765455
 30
0.0
 10
13.3458142665
 20
9.247785014
 30
0.0
 10
13.3470023536
 20
9.2405935082
 30
0.0
 10
13.3479924109
 20
9.2346005412
 30
0.0
 10
13.3487844888
 20
9.2298062639
 30
0.0
 10
13.3492794648
 20
9.2268096227
 30
0.0
 10
13.3496756121
 20
9.2244128085
 30
0.0
 10
13.3499722669
 20
9.2226138325
 30
0.0
 10
13.3502209285
 20
9.2211190289
 30
0.0
 10
13.3503921476
 20
9.2200641433
 30
0.0
 10
13.3504944277
 20
9.2194746597
 30
0.0
 10
13.3505586285
 20
9.2189950577
 30
0.0
 10
13.3506706462
 20
9.2186587586
 30
0.0
 10
13.3508033241
 20
9.218160374
 30
0.0
 10
13.3510432816
 20
9.2173114904
 30
0.0
 10
13.3513820151
 20
9.2160866235
 30
0.0
 10
13.3517902343
 20
9.214621995
 30
0.0
 10
13.3523339192
 20
9.2126673366
 30
0.0
 10
13.3530137333
 20
9.2102246369
 30
0.0
 10
13.3541013196
 20
9.206315969
 30
0.0
 10
13.3554608424
 20
9.2014302537
 30
0.0
 10
13.3570922526
 20
9.1955673441
 30
0.0
 10
13.358451765
 20
9.1906815975
 30
0.0
 10
13.3595393742
 20
9.1867729986
 30
0.0
 10
13.3603550808
 20
9.1838415473
 30
0.0
 10
13.361170789
 20
9.1809101051
 30
0.0
 10
13.3618505407
 20
9.1784672083
 30
0.0
 10
13.3623943537
 20
9.1765129541
 30
0.0
 10
13.3627342103
 20
9.1752914013
 30
0.0
 10
13.3630061563
 20
9.1743144888
 30
0.0
 10
13.3632099494
 20
9.1735809016
 30
0.0
 10
13.3633803066
 20
9.1729724507
 30
0.0
 10
13.3634985171
 20
9.1725408994
 30
0.0
 10
13.3635676892
 20
9.1723030983
 30
0.0
 10
13.3636149955
 20
9.1720999589
 30
0.0
 10
13.3636797816
 20
9.1719915736
 30
0.0
 10
13.3637600659
 20
9.1718140086
 30
0.0
 10
13.3639034043
 20
9.1715186689
 30
0.0
 10
13.3641066883
 20
9.1710887043
 30
0.0
 10
13.3643512647
 20
9.1705761928
 30
0.0
 10
13.3646771445
 20
9.1698916405
 30
0.0
 10
13.3650845704
 20
9.1690363622
 30
0.0
 10
13.3657364092
 20
9.1676676867
 30
0.0
 10
13.3665512224
 20
9.1659569212
 30
0.0
 10
13.3675289919
 20
9.1639039689
 30
0.0
 10
13.3685067631
 20
9.1618510256
 30
0.0
 10
13.3698104575
 20
9.1591137646
 30
0.0
 10
13.3714400757
 20
9.1556921897
 30
0.0
 10
13.3730696937
 20
9.1522706139
 30
0.0
 10
13.3743733883
 20
9.1495333543
 30
0.0
 10
13.3753511588
 20
9.1474804071
 30
0.0
 10
13.3763289308
 20
9.1454274692
 30
0.0
 10
13.3771437364
 20
9.1437166587
 30
0.0
 10
13.3777955907
 20
9.142348075
 30
0.0
 10
13.3782029772
 20
9.141492563
 30
0.0
 10
13.3785289379
 20
9.1408084906
 30
0.0
 10
13.3787732673
 20
9.1402945129
 30
0.0
 10
13.3789773242
 20
9.1398691355
 30
0.0
 10
13.3791192827
 20
9.139565607
 30
0.0
 10
13.3792017779
 20
9.1394011626
 30
0.0
 10
13.379259773
 20
9.1392524749
 30
0.0
 10
13.3793325854
 20
9.1392007045
 30
0.0
 10
13.3794245001
 20
9.1390978715
 30
0.0
 10
13.379587759
 20
9.1389336644
 30
0.0
 10
13.3798197271
 20
9.1386908483
 30
0.0
 10
13.3800986276
 20
9.1384029936
 30
0.0
 10
13.3804703067
 20
9.1380179563
 30
0.0
 10
13.3809349701
 20
9.1375370811
 30
0.0
 10
13.3816783954
 20
9.1367674453
 30
0.0
 10
13.3826076895
 20
9.1358054814
 30
0.0
 10
13.383722837
 20
9.13465109
 30
0.0
 10
13.384837986
 20
9.1334967079
 30
0.0
 10
13.3863248509
 20
9.1319575285
 30
0.0
 10
13.3881834321
 20
9.1300335555
 30
0.0
 10
13.3900420132
 20
9.1281095817
 30
0.0
 10
13.3915288782
 20
9.1265704036
 30
0.0
 10
13.3926440266
 20
9.1254160175
 30
0.0
 10
13.3937591761
 20
9.1242616411
 30
0.0
 10
13.3946884643
 20
9.1232996305
 30
0.0
 10
13.3954319016
 20
9.1225300899
 30
0.0
 10
13.3958965345
 20
9.1220489726
 30
0.0
 10
13.3962682763
 20
9.1216644324
 30
0.0
 10
13.3965469852
 20
9.1213750588
 30
0.0
 10
13.3967795528
 20
9.1211369951
 30
0.0
 10
13.3969417413
 20
9.1209643041
 30
0.0
 10
13.3970353711
 20
9.1208750645
 30
0.0
 10
13.3971029156
 20
9.1207815396
 30
0.0
 10
13.3971806961
 20
9.1207896747
 30
0.0
 10
13.3972808329
 20
9.1207650613
 30
0.0
 10
13.397457736
 20
9.1207385093
 30
0.0
 10
13.397709585
 20
9.1206919404
 30
0.0
 10
13.398012176
 20
9.1206397548
 30
0.0
 10
13.3984155006
 20
9.1205688827
 30
0.0
 10
13.398919701
 20
9.1204807347
 30
0.0
 10
13.3997263966
 20
9.1203394508
 30
0.0
 10
13.4007347748
 20
9.1201629307
 30
0.0
 10
13.4019448248
 20
9.1199510703
 30
0.0
 10
13.4031548759
 20
9.1197392196
 30
0.0
 10
13.404768277
 20
9.1194567486
 30
0.0
 10
13.4067850284
 20
9.1191036611
 30
0.0
 10
13.4088017798
 20
9.1187505727
 30
0.0
 10
13.410415181
 20
9.1184681031
 30
0.0
 10
13.4116252317
 20
9.1182562482
 30
0.0
 10
13.4128352832
 20
9.1180444034
 30
0.0
 10
13.4138436571
 20
9.1178678348
 30
0.0
 10
13.4146503613
 20
9.1177266499
 30
0.0
 10
13.4151545398
 20
9.11763825
 30
0.0
 10
13.4155579094
 20
9.117567895
 30
0.0
 10
13.4158603631
 20
9.1175141296
 30
0.0
 10
13.4161126415
 20
9.1174725034
 30
0.0
 10
13.416288778
 20
9.1174371277
 30
0.0
 10
13.4163901431
 20
9.1174266522
 30
0.0
 10
13.416464151
 20
9.1173913602
 30
0.0
 10
13.4165458647
 20
9.1174609403
 30
0.0
 10
13.4166521284
 20
9.1175171331
 30
0.0
 10
13.4168393422
 20
9.1176325143
 30
0.0
 10
13.4171061358
 20
9.1177884338
 30
0.0
 10
13.4174265684
 20
9.1179793513
 30
0.0
 10
13.4178537139
 20
9.1182325759
 30
0.0
 10
13.4183876793
 20
9.1185495626
 30
0.0
 10
13.4192420052
 20
9.1190564866
 30
0.0
 10
13.4203099191
 20
9.1196902289
 30
0.0
 10
13.421591413
 20
9.1204506823
 30
0.0
 10
13.4228729076
 20
9.1212111457
 30
0.0
 10
13.4245815668
 20
9.1222250933
 30
0.0
 10
13.4267173909
 20
9.1234925291
 30
0.0
 10
13.4292803798
 20
9.1250134515
 30
0.0
 10
13.4326976984
 20
9.1270413483
 30
0.0
 10
13.4352606873
 20
9.1285622708
 30
0.0
 10
13.4369693466
 20
9.1295762192
 30
0.0
  0
SPLINE
  5
37A
100
AcDbEntity
  8
0
100
AcDbSpline
 62
4
  6
CONTINUOUS
 70
0
 71
3
 72
327
 73
323
 74
0
 42
0.0000001
 43
0.0000001
 44
0.0000000001
 40
0.0
 40
0.0
 40
0.0
 40
0.0
 40
0.015625
 40
0.0234375
 40
0.03125
 40
0.0390625
 40
0.04296875
 40
0.046875
 40
0.05078125
 40
0.0546875
 40
0.056640625
 40
0.05859375
 40
0.0595703125
 40
0.060546875
 40
0.0615234375
 40
0.0620117188
 40
0.0625
 40
0.0629882812
 40
0.0634765625
 40
0.064453125
 40
0.0654296875
 40
0.06640625
 40
0.068359375
 40
0.0703125
 40
0.07421875
 40
0.078125
 40
0.08203125
 40
0.0859375
 40
0.09375
 40
0.1015625
 40
0.109375
 40
0.11328125
 40
0.1171875
 40
0.119140625
 40
0.12109375
 40
0.123046875
 40
0.1240234375
 40
0.1245117188
 40
0.125
 40
0.1254882812
 40
0.1259765625
 40
0.126953125
 40
0.12890625
 40
0.130859375
 40
0.1328125
 40
0.13671875
 40
0.140625
 40
0.1484375
 40
0.15625
 40
0.1640625
 40
0.171875
 40
0.17578125
 40
0.1796875
 40
0.181640625
 40
0.18359375
 40
0.185546875
 40
0.1865234375
 40
0.1870117188
 40
0.1875
 40
0.1879882812
 40
0.1884765625
 40
0.189453125
 40
0.19140625
 40
0.193359375
 40
0.1953125
 40
0.19921875
 40
0.203125
 40
0.2109375
 40
0.21875
 40
0.2265625
 40
0.234375
 40
0.23828125
 40
0.2421875
 40
0.244140625
 40
0.24609375
 40
0.248046875
 40
0.2490234375
 40
0.2495117188
 40
0.25
 40
0.2504882812
 40
0.2509765625
 40
0.251953125
 40
0.25390625
 40
0.255859375
 40
0.2578125
 40
0.26171875
 40
0.265625
 40
0.2734375
 40
0.28125
 40
0.2890625
 40
0.296875
 40
0.30078125
 40
0.3046875
 40
0.30859375
 40
0.310546875
 40
0.3115234375
 40
0.3125
 40
0.3134765625
 40
0.314453125
 40
0.31640625
 40
0.3203125
 40
0.32421875
 40
0.328125
 40
0.3359375
 40
0.34375
 40
0.3515625
 40
0.359375
 40
0.36328125
 40
0.3671875
 40
0.37109375
 40
0.373046875
 40
0.3740234375
 40
0.375
 40
0.3759765625
 40
0.376953125
 40
0.37890625
 40
0.3828125
 40
0.38671875
 40
0.390625
 40
0.3984375
 40
0.40625
 40
0.4140625
 40
0.421875
 40
0.42578125
 40
0.4296875
 40
0.43359375
 40
0.435546875
 40
0.4365234375
 40
0.4375
 40
0.4384765625
 40
0.439453125
 40
0.44140625
 40
0.4453125
 40
0.44921875
 40
0.453125
 40
0.4609375
 40
0.46875
 40
0.4765625
 40
0.484375
 40
0.48828125
 40
0.4921875
 40
0.494140625
 40
0.49609375
 40
0.498046875
 40
0.4990234375
 40
0.5
 40
0.5009765625
 40
0.501953125
 40
0.50390625
 40
0.505859375
 40
0.5078125
 40
0.51171875
 40
0.515625
 40
0.5234375
 40
0.53125
 40
0.5390625
 40
0.546875
 40
0.55078125
 40
0.5546875
 40
0.556640625
 40
0.55859375
 40
0.560546875
 40
0.5615234375
 40
0.5620117188
 40
0.5625
 40
0.5629882812
 40
0.5634765625
 40
0.564453125
 40
0.56640625
 40
0.568359375
 40
0.5703125
 40
0.57421875
 40
0.578125
 40
0.5859375
 40
0.59375
 40
0.6015625
 40
0.609375
 40
0.61328125
 40
0.6171875
 40
0.619140625
 40
0.62109375
 40
0.623046875
 40
0.6240234375
 40
0.6245117188
 40
0.625
 40
0.6254882812
 40
0.6259765625
 40
0.626953125
 40
0.62890625
 40
0.630859375
 40
0.6328125
 40
0.63671875
 40
0.640625
 40
0.6484375
 40
0.65625
 40
0.6640625
 40
0.671875
 40
0.67578125
 40
0.6796875
 40
0.681640625
 40
0.68359375
 40
0.685546875
 40
0.6865234375
 40
0.6870117188
 40
0.6875
 40
0.6879882812
 40
0.6884765625
 40
0.689453125
 40
0.69140625
 40
0.693359375
 40
0.6953125
 40
0.69921875
 40
0.703125
 40
0.7109375
 40
0.71875
 40
0.7265625
 40
0.73046875
 40
0.734375
 40
0.73828125
 40
0.7421875
 40
0.744140625
 40
0.74609375
 40
0.7470703125
 40
0.748046875
 40
0.7490234375
 40
0.7495117188
 40
0.7497558594
 40
0.75
 40
0.7502441406
 40
0.7504882812
 40
0.7509765625
 40
0.751953125
 40
0.7529296875
 40
0.75390625
 40
0.755859375
 40
0.7578125
 40
0.76171875
 40
0.765625
 40
0.76953125
 40
0.7734375
 40
0.78125
 40
0.7890625
 40
0.79296875
 40
0.796875
 40
0.80078125
 40
0.8046875
 40
0.806640625
 40
0.80859375
 40
0.8095703125
 40
0.810546875
 40
0.8115234375
 40
0.8120117188
 40
0.8122558594
 40
0.8125
 40
0.8127441406
 40
0.8129882812
 40
0.8134765625
 40
0.814453125
 40
0.8154296875
 40
0.81640625
 40
0.818359375
 40
0.8203125
 40
0.82421875
 40
0.828125
 40
0.83203125
 40
0.8359375
 40
0.84375
 40
0.8515625
 40
0.85546875
 40
0.859375
 40
0.86328125
 40
0.8671875
 40
0.869140625
 40
0.87109375
 40
0.8720703125
 40
0.873046875
 40
0.8740234375
 40
0.8745117188
 40
0.8747558594
 40
0.875
 40
0.8752441406
 40
0.8754882812
 40
0.8759765625
 40
0.876953125
 40
0.8779296875
 40
0.87890625
 40
0.880859375
 40
0.8828125
 40
0.88671875
 40
0.890625
 40
0.89453125
 40
0.8984375
 40
0.90625
 40
0.9140625
 40
0.91796875
 40
0.921875
 40
0.92578125
 40
0.9296875
 40
0.931640625
 40
0.93359375
 40
0.9345703125
 40
0.935546875
 40
0.9365234375
 40
0.9370117188
 40
0.9372558594
 40
0.9375
 40
0.9377441406
 40
0.9379882812
 40
0.9384765625
 40
0.939453125
 40
0.9404296875
 40
0.94140625
 40
0.943359375
 40
0.9453125
 40
0.94921875
 40
0.953125
 40
0.95703125
 40
0.9609375
 40
0.96875
 40
0.9765625
 40
0.984375
 40
1.0
 40
1.0
 40
1.0
 40
1.0
 10
13.4369693375
 20
9.1295762104
 30
0.0
 10
13.4386484058
 20
9.1318124893
 30
0.0
 10
13.4411670083
 20
9.1351669076
 30
0.0
 10
13.444525145
 20
9.1396394655
 30
0.0
 10
13.4470437475
 20
9.1429938835
 30
0.0
 10
13.4491425828
 20
9.1457892329
 30
0.0
 10
13.4508216513
 20
9.1480255101
 30
0.0
 10
13.4520809522
 20
9.1497027245
 30
0.0
 10
13.4533402545
 20
9.151379914
 30
0.0
 10
13.4543896688
 20
9.1527776496
 30
0.0
 10
13.45522921
 20
9.1538956639
 30
0.0
 10
13.455753901
 20
9.1545948195
 30
0.0
 10
13.4561737047
 20
9.1551532356
 30
0.0
 10
13.4564884183
 20
9.1555745347
 30
0.0
 10
13.4567511221
 20
9.1559177058
 30
0.0
 10
13.4569602929
 20
9.1562099868
 30
0.0
 10
13.4571198823
 20
9.1563807118
 30
0.0
 10
13.4572691224
 20
9.1567365079
 30
0.0
 10
13.4574717243
 20
9.157146255
 30
0.0
 10
13.4577237363
 20
9.1576806192
 30
0.0
 10
13.4580266817
 20
9.1583123623
 30
0.0
 10
13.4584304235
 20
9.1591580025
 30
0.0
 10
13.4589351641
 20
9.1602139173
 30
0.0
 10
13.4597427137
 20
9.1619040156
 30
0.0
 10
13.4607521628
 20
9.1640164208
 30
0.0
 10
13.4619634966
 20
9.1665514003
 30
0.0
 10
13.4631748317
 20
9.1690863547
 30
0.0
 10
13.4647899447
 20
9.1724663032
 30
0.0
 10
13.4668088365
 20
9.1766912323
 30
0.0
 10
13.4692315047
 20
9.1817611646
 30
0.0
 10
13.4712504009
 20
9.1859860589
 30
0.0
 10
13.4728655043
 20
9.189366084
 30
0.0
 10
13.4738749748
 20
9.1914783502
 30
0.0
 10
13.4746824805
 20
9.1931687345
 30
0.0
 10
13.4752883032
 20
9.1944349583
 30
0.0
 10
13.4757925402
 20
9.1954951213
 30
0.0
 10
13.4761467135
 20
9.1962274693
 30
0.0
 10
13.476347213
 20
9.1966612029
 30
0.0
 10
13.4765028984
 20
9.1969435463
 30
0.0
 10
13.4766382835
 20
9.1973900922
 30
0.0
 10
13.476825878
 20
9.197928211
 30
0.0
 10
13.4771508692
 20
9.1988966047
 30
0.0
 10
13.4776168671
 20
9.2002660727
 30
0.0
 10
13.4781753264
 20
9.201915406
 30
0.0
 10
13.4789201966
 20
9.2041124312
 30
0.0
 10
13.4798511961
 20
9.206859427
 30
0.0
 10
13.4813408446
 20
9.2112542209
 30
0.0
 10
13.4832028882
 20
9.2167478512
 30
0.0
 10
13.4854373485
 20
9.2233401448
 30
0.0
 10
13.4876718042
 20
9.2299324688
 30
0.0
 10
13.4895338589
 20
9.2354260229
 30
0.0
 10
13.4910234852
 20
9.2398209693
 30
0.0
 10
13.4919545412
 20
9.2425675777
 30
0.0
 10
13.4926992955
 20
9.2447653979
 30
0.0
 10
13.4932581091
 20
9.2464123024
 30
0.0
 10
13.4937229984
 20
9.2477893695
 30
0.0
 10
13.4940499686
 20
9.2487441975
 30
0.0
 10
13.4942343922
 20
9.249304052
 30
0.0
 10
13.4943795174
 20
9.2496838329
 30
0.0
 10
13.4944986207
 20
9.2502169342
 30
0.0
 10
13.4946665019
 20
9.2508742561
 30
0.0
 10
13.4949560649
 20
9.2520494866
 30
0.0
 10
13.4953719373
 20
9.2537153603
 30
0.0
 10
13.4958700378
 20
9.2557199847
 30
0.0
 10
13.4965345023
 20
9.2583908696
 30
0.0
 10
13.4973649699
 20
9.2617301427
 30
0.0
 10
13.4986937812
 20
9.2670726068
 30
0.0
 10
13.5003547734
 20
9.2737508154
 30
0.0
 10
13.5023479744
 20
9.2817646085
 30
0.0
 10
13.504341169
 20
9.289778425
 30
0.0
 10
13.5060021774
 20
9.2964565751
 30
0.0
 10
13.5073309562
 20
9.3017991561
 30
0.0
 10
13.5081615064
 20
9.3051381322
 30
0.0
 10
13.5088258013
 20
9.3078096268
 30
0.0
 10
13.5093244201
 20
9.3098123887
 30
0.0
 10
13.509738671
 20
9.3114840896
 30
0.0
 10
13.5100311286
 20
9.3126489176
 30
0.0
 10
13.5101943719
 20
9.3133229069
 30
0.0
 10
13.5103277213
 20
9.3138048112
 30
0.0
 10
13.5104193405
 20
9.3143768794
 30
0.0
 10
13.5105560555
 20
9.3151081869
 30
0.0
 10
13.5107885247
 20
9.3164026282
 30
0.0
 10
13.5111241692
 20
9.3182441691
 30
0.0
 10
13.5115254251
 20
9.3204572974
 30
0.0
 10
13.5120609629
 20
9.3234069897
 30
0.0
 10
13.5127302037
 20
9.3270944974
 30
0.0
 10
13.5138010907
 20
9.33299429
 30
0.0
 10
13.515139662
 20
9.3403691099
 30
0.0
 10
13.5167459746
 20
9.349218843
 30
0.0
 10
13.5183522389
 20
9.3580686528
 30
0.0
 10
13.5196909312
 20
9.3654432809
 30
0.0
 10
13.5207615762
 20
9.371343457
 30
0.0
 10
13.5215654034
 20
9.3757672963
 30
0.0
 10
13.5222325763
 20
9.3794579411
 30
0.0
 10
13.522704863
 20
9.3820333228
 30
0.0
 10
13.5229665191
 20
9.3835175695
 30
0.0
 10
13.5231859228
 20
9.3845952601
 30
0.0
 10
13.523316791
 20
9.3858086284
 30
0.0
 10
13.5235221641
 20
9.387379127
 30
0.0
 10
13.5238671784
 20
9.3901495494
 30
0.0
 10
13.5243675785
 20
9.3940957677
 30
0.0
 10
13.5249648387
 20
9.3988361642
 30
0.0
 10
13.5257623107
 20
9.4051549689
 30
0.0
 10
13.5267587619
 20
9.4130540679
 30
0.0
 10
13.5279546824
 20
9.4225327252
 30
0.0
 10
13.529150509
 20
9.4320114796
 30
0.0
 10
13.5301471946
 20
9.439910336
 30
0.0
 10
13.5309441979
 20
9.446229626
 30
0.0
 10
13.5315428878
 20
9.4509685423
 30
0.0
 10
13.532038815
 20
9.454919391
 30
0.0
 10
13.5323918142
 20
9.4576815476
 30
0.0
 10
13.5325843935
 20
9.4592652901
 30
0.0
 10
13.5327545602
 20
9.4604379773
 30
0.0
 10
13.5328263653
 20
9.4616684595
 30
0.0
 10
13.5329564151
 20
9.463288943
 30
0.0
 10
13.5331680167
 20
9.4661341817
 30
0.0
 10
13.5334786622
 20
9.4701938979
 30
0.0
 10
13.5338478593
 20
9.4750676593
 30
0.0
 10
13.5343413723
 20
9.4815652734
 30
0.0
 10
13.5349578316
 20
9.4896875435
 30
0.0
 10
13.5356977809
 20
9.4994341576
 30
0.0
 10
13.5364376285
 20
9.5091808079
 30
0.0
 10
13.5370543421
 20
9.5173029877
 30
0.0
 10
13.5375473465
 20
9.5238007824
 30
0.0
 10
13.537918095
 20
9.5286739932
 30
0.0
 10
13.5382238872
 20
9.5327354316
 30
0.0
 10
13.5384441526
 20
9.5355775959
 30
0.0
 10
13.5385603209
 20
9.5372030054
 30
0.0
 10
13.5386747653
 20
9.5384183564
 30
0.0
 10
13.5386847858
 20
9.5396478743
 30
0.0
 10
13.5387345708
 20
9.5412822899
 30
0.0
 10
13.5388047236
 20
9.5441448196
 30
0.0
 10
13.5389138145
 20
9.5482329441
 30
0.0
 10
13.5390409258
 20
9.5531392087
 30
0.0
 10
13.5392117341
 20
9.5596807147
 30
0.0
 10
13.5394247901
 20
9.5678576601
 30
0.0
 10
13.5396806484
 20
9.5776699629
 30
0.0
 10
13.539936469
 20
9.5874822918
 30
0.0
 10
13.5401496192
 20
9.5956591718
 30
0.0
 10
13.540320239
 20
9.6022008085
 30
0.0
 10
13.5404266442
 20
9.6062890302
 30
0.0
 10
13.5405123007
 20
9.6095602973
 30
0.0
 10
13.5405750853
 20
9.6120118592
 30
0.0
 10
13.5406320432
 20
9.6140608347
 30
0.0
 10
13.5406672087
 20
9.615686542
 30
0.0
 10
13.5407220028
 20
9.6169426376
 30
0.0
 10
13.5406683173
 20
9.6180582091
 30
0.0
 10
13.54063463
 20
9.6195947246
 30
0.0
 10
13.5405795198
 20
9.6214985276
 30
0.0
 10
13.5405189525
 20
9.6237902998
 30
0.0
 10
13.5404362523
 20
9.6268434783
 30
0.0
 10
13.5403335427
 20
9.6306608135
 30
0.0
 10
13.5401688353
 20
9.6367680681
 30
0.0
 10
13.5399630784
 20
9.6444023011
 30
0.0
 10
13.5397161167
 20
9.6535633122
 30
0.0
 10
13.5394691648
 20
9.6627243338
 30
0.0
 10
13.5392633837
 20
9.6703585406
 30
0.0
 10
13.5390987246
 20
9.6764658476
 30
0.0
 10
13.5389958921
 20
9.6802830496
 30
0.0
 10
13.5389134442
 20
9.6833365013
 30
0.0
 10
13.5388521061
 20
9.6856274389
 30
0.0
 10
13.5387994073
 20
9.6875338534
 30
0.0
 10
13.5387656262
 20
9.6888736425
 30
0.0
 10
13.5387414698
 20
9.6896309624
 30
0.0
 10
13.5387370233
 20
9.6902222597
 30
0.0
 10
13.5386803199
 20
9.6907244646
 30
0.0
 10
13.5386229431
 20
9.6914251476
 30
0.0
 10
13.5385140412
 20
9.6926368636
 30
0.0
 10
13.538362907
 20
9.6943754564
 30
0.0
 10
13.5381796455
 20
9.6964585276
 30
0.0
 10
13.5379359606
 20
9.6992370875
 30
0.0
 10
13.5376311273
 20
9.7027099
 30
0.0
 10
13.5371435209
 20
9.7082666166
 30
0.0
 10
13.5365339692
 20
9.7152124373
 30
0.0
 10
13.535802527
 20
9.7235474573
 30
0.0
 10
13.5350710751
 20
9.7318824568
 30
0.0
 10
13.5344615477
 20
9.7388283285
 30
0.0
 10
13.5339738926
 20
9.7443849431
 30
0.0
 10
13.5336691831
 20
9.7478580147
 30
0.0
 10
13.5334252441
 20
9.7506360428
 30
0.0
 10
13.533242759
 20
9.7527207389
 30
0.0
 10
13.5330891955
 20
9.7544542478
 30
0.0
 10
13.5329846304
 20
9.7556750395
 30
0.0
 10
13.5329203049
 20
9.756361181
 30
0.0
 10
13.5328849456
 20
9.7569080526
 30
0.0
 10
13.5328003343
 20
9.7573315891
 30
0.0
 10
13.532704699
 20
9.7579393251
 30
0.0
 10
13.5325293327
 20
9.758982819
 30
0.0
 10
13.5322829942
 20
9.7604840039
 30
0.0
 10
13.5319855969
 20
9.7622809403
 30
0.0
 10
13.5315896927
 20
9.7646784221
 30
0.0
 10
13.5310945983
 20
9.767674738
 30
0.0
 10
13.5303025669
 20
9.7724691433
 30
0.0
 10
13.5293124863
 20
9.7784620463
 30
0.0
 10
13.5281244086
 20
9.7856535777
 30
0.0
 10
13.5269363215
 20
9.7928450836
 30
0.0
 10
13.5259462642
 20
9.7988380505
 30
0.0
 10
13.5251541863
 20
9.8036323279
 30
0.0
 10
13.5246592102
 20
9.806628969
 30
0.0
 10
13.524263063
 20
9.8090257833
 30
0.0
 10
13.5239664081
 20
9.8108247593
 30
0.0
 10
13.5237177466
 20
9.8123195628
 30
0.0
 10
13.5235465275
 20
9.8133744485
 30
0.0
 10
13.5234442473
 20
9.8139639321
 30
0.0
 10
13.5233800466
 20
9.8144435341
 30
0.0
 10
13.5232680288
 20
9.8147798332
 30
0.0
 10
13.5231353509
 20
9.8152782177
 30
0.0
 10
13.5228953935
 20
9.8161271014
 30
0.0
 10
13.52255666
 20
9.8173519683
 30
0.0
 10
13.5221484407
 20
9.8188165968
 30
0.0
 10
13.5216047558
 20
9.8207712552
 30
0.0
 10
13.5209249418
 20
9.8232139549
 30
0.0
 10
13.5198373554
 20
9.8271226228
 30
0.0
 10
13.5184778327
 20
9.8320083381
 30
0.0
 10
13.5168464224
 20
9.8378712477
 30
0.0
 10
13.5154869101
 20
9.8427569943
 30
0.0
 10
13.5143993008
 20
9.8466655932
 30
0.0
 10
13.5135835942
 20
9.8495970445
 30
0.0
 10
13.512767886
 20
9.8525284867
 30
0.0
 10
13.5120881343
 20
9.8549713835
 30
0.0
 10
13.5115443213
 20
9.8569256377
 30
0.0
 10
13.5112044648
 20
9.8581471905
 30
0.0
 10
13.5109325187
 20
9.859124103
 30
0.0
 10
13.5107287257
 20
9.8598576902
 30
0.0
 10
13.5105583684
 20
9.8604661411
 30
0.0
 10
13.5104401579
 20
9.8608976924
 30
0.0
 10
13.5103709858
 20
9.8611354935
 30
0.0
 10
13.5103236796
 20
9.8613386329
 30
0.0
 10
13.5102588934
 20
9.8614470182
 30
0.0
 10
13.5101786091
 20
9.8616245832
 30
0.0
 10
13.5100352707
 20
9.8619199229
 30
0.0
 10
13.5098319868
 20
9.8623498875
 30
0.0
 10
13.5095874104
 20
9.862862399
 30
0.0
 10
13.5092615305
 20
9.8635469513
 30
0.0
 10
13.5088541047
 20
9.8644022296
 30
0.0
 10
13.5082022658
 20
9.8657709051
 30
0.0
 10
13.5073874526
 20
9.8674816705
 30
0.0
 10
13.5064096831
 20
9.8695346229
 30
0.0
 10
13.5054319119
 20
9.8715875662
 30
0.0
 10
13.5041282175
 20
9.8743248272
 30
0.0
 10
13.5024985994
 20
9.8777464021
 30
0.0
 10
13.5008689813
 20
9.8811679779
 30
0.0
 10
13.4995652868
 20
9.8839052375
 30
0.0
 10
13.4985875162
 20
9.8859581847
 30
0.0
 10
13.4976097442
 20
9.8880111226
 30
0.0
 10
13.4967949387
 20
9.8897219331
 30
0.0
 10
13.4961430843
 20
9.8910905168
 30
0.0
 10
13.4957356979
 20
9.8919460288
 30
0.0
 10
13.4954097371
 20
9.8926301012
 30
0.0
 10
13.4951654078
 20
9.8931440789
 30
0.0
 10
13.4949613509
 20
9.8935694563
 30
0.0
 10
13.4948193924
 20
9.8938729848
 30
0.0
 10
13.4947368972
 20
9.8940374292
 30
0.0
 10
13.4946789021
 20
9.8941861169
 30
0.0
 10
13.4946060897
 20
9.8942378873
 30
0.0
 10
13.4945141749
 20
9.8943407203
 30
0.0
 10
13.494350916
 20
9.8945049274
 30
0.0
 10
13.494118948
 20
9.8947477435
 30
0.0
 10
13.4938400475
 20
9.8950355982
 30
0.0
 10
13.4934683684
 20
9.8954206355
 30
0.0
 10
13.493003705
 20
9.8959015107
 30
0.0
 10
13.4922602796
 20
9.8966711465
 30
0.0
 10
13.4913309856
 20
9.8976331104
 30
0.0
 10
13.490215838
 20
9.8987875018
 30
0.0
 10
13.489100689
 20
9.8999418839
 30
0.0
 10
13.4876138242
 20
9.9014810633
 30
0.0
 10
13.485755243
 20
9.9034050363
 30
0.0
 10
13.4838966619
 20
9.9053290101
 30
0.0
 10
13.4824097969
 20
9.9068681882
 30
0.0
 10
13.4812946484
 20
9.9080225743
 30
0.0
 10
13.4801794989
 20
9.9091769506
 30
0.0
 10
13.4792502108
 20
9.9101389612
 30
0.0
 10
13.4785067734
 20
9.9109085019
 30
0.0
 10
13.4780421406
 20
9.9113896192
 30
0.0
 10
13.4776703987
 20
9.9117741594
 30
0.0
 10
13.4773916899
 20
9.912063533
 30
0.0
 10
13.4771591222
 20
9.9123015967
 30
0.0
 10
13.4769969337
 20
9.9124742877
 30
0.0
 10
13.476903304
 20
9.9125635273
 30
0.0
 10
13.4768357595
 20
9.9126570522
 30
0.0
 10
13.476757979
 20
9.9126489171
 30
0.0
 10
13.4766578421
 20
9.9126735305
 30
0.0
 10
13.476480939
 20
9.9127000825
 30
0.0
 10
13.4762290901
 20
9.9127466514
 30
0.0
 10
13.4759264991
 20
9.912798837
 30
0.0
 10
13.4755231744
 20
9.9128697091
 30
0.0
 10
13.4750189741
 20
9.9129578571
 30
0.0
 10
13.4742122784
 20
9.913099141
 30
0.0
 10
13.4732039003
 20
9.9132756611
 30
0.0
 10
13.4719938502
 20
9.9134875215
 30
0.0
 10
13.4707837991
 20
9.9136993722
 30
0.0
 10
13.4691703981
 20
9.9139818432
 30
0.0
 10
13.4671536466
 20
9.9143349307
 30
0.0
 10
13.4651368952
 20
9.9146880191
 30
0.0
 10
13.463523494
 20
9.9149704887
 30
0.0
 10
13.4623134433
 20
9.9151823436
 30
0.0
 10
13.4611033919
 20
9.9153941884
 30
0.0
 10
13.460095018
 20
9.915570757
 30
0.0
 10
13.4592883137
 20
9.9157119419
 30
0.0
 10
13.4587841353
 20
9.9158003418
 30
0.0
 10
13.4583807657
 20
9.9158706968
 30
0.0
 10
13.4580783119
 20
9.9159244622
 30
0.0
 10
13.4578260336
 20
9.9159660883
 30
0.0
 10
13.457649897
 20
9.916001464
 30
0.0
 10
13.457548532
 20
9.9160119395
 30
0.0
 10
13.4574745241
 20
9.9160472316
 30
0.0
 10
13.4573928104
 20
9.9159776515
 30
0.0
 10
13.4572865467
 20
9.9159214586
 30
0.0
 10
13.4570993328
 20
9.9158060775
 30
0.0
 10
13.4568325392
 20
9.915650158
 30
0.0
 10
13.4565121067
 20
9.9154592404
 30
0.0
 10
13.4560849612
 20
9.9152060159
 30
0.0
 10
13.4555509957
 20
9.9148890291
 30
0.0
 10
13.4546966698
 20
9.9143821052
 30
0.0
 10
13.4536287559
 20
9.9137483629
 30
0.0
 10
13.4523472621
 20
9.9129879095
 30
0.0
 10
13.4510657675
 20
9.9122274461
 30
0.0
 10
13.4493571082
 20
9.9112134985
 30
0.0
 10
13.4472212841
 20
9.9099460627
 30
0.0
 10
13.4446582952
 20
9.9084251402
 30
0.0
 10
13.4412409766
 20
9.9063972435
 30
0.0
 10
13.4386779877
 20
9.904876321
 30
0.0
 10
13.4369693285
 20
9.9038623726
 30
0.0
  0
ENDSEC
  0
SECTION
  2
OBJECTS
  0
DICTIONARY
  5
C
100
AcDbDictionary
280
0
281
1
  3
ACAD_GROUP
350
D
  3
ACAD_MLINESTYLE
350
17
  3
ACAD_LAYOUT
350
1A
  3
ACAD_PLOTSETTINGS
350
19
  3
ACAD_PLOTSTYLENAME
350
E
  3
ACAD_IMAGE_DICT
350
       37C
  3
ACAD_IMAGE_VARS
350
       37D
  3
ACAD_TABLESTYLE
350
       37E
  0
IMAGEDEF_REACTOR
  5
37B
100
AcDbRasterImageDefReactor
 90
2
330
28A
  0
DICTIONARY
  5
D
102
{ACAD_REACTORS
330
C
102
}
100
AcDbDictionary
280
0
281
1
  0
ACDBDICTIONARYWDFLT
  5
E
102
{ACAD_REACTORS
330
C
102
}
100
AcDbDictionary
281
1
  3
Normal
350
F
100
AcDbDictionaryWithDefault
340
F
  0
DICTIONARY
  5
37C
330
C
100
AcDbDictionary
281
1
  3
YVM_assy_2_img_1
350
       381
  0
RASTERVARIABLES
  5
37D
330
C
100
AcDbRasterVariables
 90
0
 70
0
 71
1
 72
5
  0
DICTIONARY
  5
17
102
{ACAD_REACTORS
330
C
102
}
100
AcDbDictionary
280
0
281
1
  3
Standard
350
18
  0
DICTIONARY
  5
37E
330
C
100
AcDbDictionary
281
1
  3
Standard
350
       382
  3
Standard1
350
       383
  0
DICTIONARY
  5
19
102
{ACAD_REACTORS
330
C
102
}
100
AcDbDictionary
281
1
  0
DICTIONARY
  5
1A
102
{ACAD_REACTORS
330
C
102
}
100
AcDbDictionary
281
1
  3
Model
350
37F
  3
Layout1
350
380
  0
ACDBPLACEHOLDER
  5
F
102
{ACAD_REACTORS
330
E
102
}
  0
MLINESTYLE
  5
18
102
{ACAD_REACTORS
330
17
102
}
100
AcDbMlineStyle
  2
STANDARD
 70
0
  3

 62
256
 51
90.0
 52
90.0
 71
2
 49
0.5
 62
256
  6
BYLAYER
 49
-0.5
 62
256
  6
BYLAYER
  0
LAYOUT
  5
37F
102
{ACAD_REACTORS
330
1A
102
}
100
AcDbPlotSettings
  1

  2
none_device
  4
ANSI_C_(22.00_x_17.00_Inches)
  6

 40
0.0
 41
0.0
 42
0.0
 43
0.0
 44
558.8
 45
431.8
 46
0.0
 47
0.0
 48
0.0
 49
0.0
140
0.0
141
0.0
142
1.0
143
1.0
 70
1024
 72
0
 73
0
 74
0
  7

 75
0
147
1.0
148
0.0
149
0.0
100
AcDbLayout
  1
Model
 70
0
 71
0
 10
0.0
 20
0.0
 11
22.0
 21
17.0
 12
0.0
 22
0.0
 32
0.0
 14
0.0
 24
0.0
 34
0.0
 15
0.0
 25
0.0
 35
0.0
146
0.0
 13
0.0
 23
0.0
 33
0.0
 16
1.0
 26
0.0
 36
0.0
 17
0.0
 27
1.0
 37
0.0
 76
0
330
207
345
0
346
0
  0
LAYOUT
  5
380
102
{ACAD_REACTORS
330
1A
102
}
100
AcDbPlotSettings
  1

  2
none_device
  4
ANSI_C_(22.00_x_17.00_Inches)
  6

 40
0.0
 41
0.0
 42
0.0
 43
0.0
 44
558.8
 45
431.8
 46
0.0
 47
0.0
 48
0.0
 49
0.0
140
0.0
141
0.0
142
1.0
143
1.0
 70
0
 72
0
 73
0
 74
0
  7

 75
0
147
1.0
148
0.0
149
0.0
100
AcDbLayout
  1
Layout1
 70
0
 71
1
 10
0.0
 20
0.0
 11
22.0
 21
17.0
 12
0.0
 22
0.0
 32
0.0
 14
0.0
 24
0.0
 34
0.0
 15
0.0
 25
0.0
 35
0.0
146
0.0
 13
0.0
 23
0.0
 33
0.0
 16
1.0
 26
0.0
 36
0.0
 17
0.0
 27
1.0
 37
0.0
 76
0
330
208
345
0
346
0
  0
IMAGEDEF
  5
381
102
{ACAD_REACTORS
330
37C
330
37B
102
}
100
AcDbRasterImageDef
 90
0
  1
YVM_assy_2_img_1.png
 10
369.0
 20
92.0
 11
0.0066666667
 21
0.0066666667
280
1
281
0
  0
TABLESTYLE
  5
382
102
{ACAD_REACTORS
330
37E
330
28D
330
28E
102
}
330
37E
100
AcDbTableStyle
  3
Standard
 70
0
 71
0
 40
0.06
 41
0.06
280
1
281
1
  7
Standard
140
0.18
170
1
 62
0
 63
7
283
0
  7
Standard
140
0.18
170
1
 62
0
 63
7
283
0
  7
Standard
140
0.18
170
1
 62
0
 63
7
283
0
  0
TABLESTYLE
  5
383
102
{ACAD_REACTORS
330
37E
330
28C
102
}
330
37E
100
AcDbTableStyle
  3
Standard1
 70
1
 71
0
 40
0.06
 41
0.06
280
1
281
1
  7
Standard
140
0.18
170
1
 62
0
 63
7
283
0
  7
Standard
140
0.18
170
1
 62
0
 63
7
283
0
  7
Standard
140
0.18
170
1
 62
0
 63
7
283
0
  0
ENDSEC
  0
EOF
