999
DXF file: YTV_assy_2.dxf
999
Pro/ENGINEER 2014200 by Parametric Technology Corporation
  0
SECTION
  2
HEADER
  9
$ACADVER
  1
AC1021
  9
$DWGCODEPAGE
  3
ANSI_1252
  9
$EXTMAX
 10
22.0
 20
17.0
 30
0.0
  9
$EXTMIN
 10
0.0
 20
0.0
 30
0.0
  9
$LIMMIN
 10
0.0
 20
0.0
  9
$LIMMAX
 10
22.0
 20
17.0
  9
$VIEWCTR
 10
11.0
 20
8.5
  9
$VIEWSIZE
 40
17.0
  9
$CLAYER
  8
0
  9
$LTSCALE
 40
1.21
  9
$CELTYPE
  6
BYLAYER
  9
$DIMSCALE
 40
1.0
  9
$DIMASZ
 40
0.1875
  9
$DIMEXO
 40
0.0625
  9
$DIMDLI
 40
0.836
  9
$DIMEXE
 40
0.125
  9
$DIMCEN
 40
0.198
  9
$DIMLFAC
 40
1.0
  9
$DIMBLK
  1
_FILLED
  9
$DIMTXT
 40
0.1
  9
$DIMTOL
 70
0
  9
$DIMLIM
 70
0
  9
$DIMTFAC
 40
1.0
  9
$DIMGAP
 40
0.09
  9
$DIMDSEP
 70
46
  9
$AUNITS
 70
0
  9
$PDMODE
 70
3
  9
$PDSIZE
 40
0.3125
  9
$HANDSEED
  5
365
  9
$TILEMODE
 70
1
  9
$MEASUREMENT
 70
0
  9
$INSUNITS
 70
1
  0
ENDSEC
  0
SECTION
  2
CLASSES
  0
CLASS
  1
ACDBDICTIONARYWDFLT
  2
AcDbDictionaryWithDefault
  3
AutoCAD 2000
 90
0
 91
1
280
0
281
0
  0
CLASS
  1
ACDBPLACEHOLDER
  2
AcDbPlaceHolder
  3
AutoCAD 2000
 90
0
 91
1
280
0
281
0
  0
CLASS
  1
LAYOUT
  2
AcDbLayout
  3
AutoCAD 2000
 90
0
 91
0
280
0
281
0
  0
CLASS
  1
RASTERVARIABLES
  2
AcDbRasterVariables
  3
ISM
 90
0
 91
1
280
0
281
0
  0
CLASS
  1
IMAGEDEF
  2
AcDbRasterImageDef
  3
ISM
 90
0
 91
1
280
0
281
0
  0
CLASS
  1
IMAGEDEF_REACTOR
  2
AcDbRasterImageDefReactor
  3
ISM
 90
0
 91
1
280
0
281
0
  0
CLASS
  1
IMAGE
  2
AcDbRasterImage
  3
ISM
 90
127
 91
1
280
0
281
1
  0
CLASS
  1
TABLESTYLE
  2
AcDbTableStyle
  3
ObjectDBX Classes
 90
2047
 91
1
280
0
281
0
  0
CLASS
  1
ACAD_TABLE
  2
AcDbTable
  3
ObjectDBX Classes
 90
1025
 91
3
280
0
281
1
  0
ENDSEC
  0
SECTION
  2
TABLES
  0
TABLE
  2
VPORT
  5
8
100
AcDbSymbolTable
 70
2
  0
VPORT
  5
1F4
100
AcDbSymbolTableRecord
100
AcDbViewportTableRecord
  2
*ACTIVE
 70
0
 10
0.0
 20
0.0
 11
1.0
 21
1.0
 12
11.0
 22
8.5
 13
0.0
 23
0.0
 14
1.0
 24
1.0
 15
0.0
 25
0.0
 16
0.0
 26
0.0
 36
1.0
 17
0.0
 27
0.0
 37
0.0
 40
17.0
 41
1.2941176471
 42
50.0
 43
0.0
 44
0.0
 50
0.0
 51
0.0
 71
0
 72
100
 73
1
 74
1
 75
0
 76
0
 77
0
 78
0
  0
ENDTAB
  0
TABLE
  2
LTYPE
  5
5
100
AcDbSymbolTable
 70
6
  0
LTYPE
  5
14
100
AcDbSymbolTableRecord
100
AcDbLinetypeTableRecord
  2
BYBLOCK
 70
0
  3

 72
65
 73
0
 40
0.0
  0
LTYPE
  5
15
100
AcDbSymbolTableRecord
100
AcDbLinetypeTableRecord
  2
BYLAYER
 70
0
  3

 72
65
 73
0
 40
0.0
  0
LTYPE
  5
16
100
AcDbSymbolTableRecord
100
AcDbLinetypeTableRecord
  2
CONTINUOUS
 70
64
  3
Solid line
 72
65
 73
0
 40
0.0
  0
LTYPE
  5
1F5
100
AcDbSymbolTableRecord
100
AcDbLinetypeTableRecord
  2
CENTER
 70
64
  3
____ _ ____ _ ____ _ ____ _ ____ _ ____ _ ____
 72
65
 73
4
 40
0.6
 49
0.375
 74
0
 49
-0.075
 74
0
 49
0.075
 74
0
 49
-0.075
 74
0
  0
LTYPE
  5
1F6
100
AcDbSymbolTableRecord
100
AcDbLinetypeTableRecord
  2
HIDDEN
 70
64
  3
- - - - - - - - - - - - - - - - - - - -
 72
65
 73
2
 40
0.2
 49
0.1
 74
0
 49
-0.1
 74
0
  0
LTYPE
  5
1F7
100
AcDbSymbolTableRecord
100
AcDbLinetypeTableRecord
  2
PHANTOM
 70
64
  3
_____ _ _ _____ _ _ _____ _ _ _____
 72
65
 73
6
 40
0.8
 49
0.45
 74
0
 49
-0.05
 74
0
 49
0.1
 74
0
 49
-0.05
 74
0
 49
0.1
 74
0
 49
-0.05
 74
0
  0
LTYPE
  5
1F8
100
AcDbSymbolTableRecord
100
AcDbLinetypeTableRecord
  2
DOT
 70
64
  3
. . . . . . . . . . . . . . . . . . . .
 72
65
 73
2
 40
0.2
 49
0.1
 74
0
 49
-0.1
 74
0
  0
LTYPE
  5
1F9
100
AcDbSymbolTableRecord
100
AcDbLinetypeTableRecord
  2
DASHED
 70
64
  3
- - - - - - - - - - - - - - - - - - - -
 72
65
 73
2
 40
0.2
 49
0.1
 74
0
 49
-0.1
 74
0
  0
ENDTAB
  0
TABLE
  2
LAYER
  5
2
100
AcDbSymbolTable
 70
36
  0
LAYER
  5
10
100
AcDbSymbolTableRecord
100
AcDbLayerTableRecord
  2
0
 70
0
 62
7
  6
CONTINUOUS
370
-3
390
F
  0
LAYER
  5
1FA
100
AcDbSymbolTableRecord
100
AcDbLayerTableRecord
  2
DEFAULT_1
 70
0
 62
7
  6
CENTER
370
-3
390
F
  0
LAYER
  5
1FB
100
AcDbSymbolTableRecord
100
AcDbLayerTableRecord
  2
DEFAULT_2
 70
0
 62
8
  6
HIDDEN
370
-3
390
F
  0
LAYER
  5
1FC
100
AcDbSymbolTableRecord
100
AcDbLayerTableRecord
  2
DEFAULT_3
 70
0
 62
7
  6
PHANTOM
370
-3
390
F
  0
LAYER
  5
1FD
100
AcDbSymbolTableRecord
100
AcDbLayerTableRecord
  2
DATUM_PLANES
 70
0
 62
7
  6
CONTINUOUS
370
-3
390
F
  0
LAYER
  5
1FE
100
AcDbSymbolTableRecord
100
AcDbLayerTableRecord
  2
PORT_AREAS
 70
0
 62
7
  6
CONTINUOUS
370
-3
390
F
  0
LAYER
  5
1FF
100
AcDbSymbolTableRecord
100
AcDbLayerTableRecord
  2
SUNNBOMCOSMETIC
 70
0
 62
7
  6
CONTINUOUS
370
-3
390
F
  0
LAYER
  5
200
100
AcDbSymbolTableRecord
100
AcDbLayerTableRecord
  2
SUNNBOMSTAMPING
 70
0
 62
7
  6
CONTINUOUS
370
-3
390
F
  0
LAYER
  5
201
100
AcDbSymbolTableRecord
100
AcDbLayerTableRecord
  2
THREADS
 70
0
 62
7
  6
CONTINUOUS
370
-3
390
F
  0
ENDTAB
  0
TABLE
  2
STYLE
  5
3
100
AcDbSymbolTable
 70
1
  0
STYLE
  5
11
100
AcDbSymbolTableRecord
100
AcDbTextStyleTableRecord
  2
STANDARD
 70
0
 40
0.0
 41
0.8
 50
0.0
 71
0
 42
0.2
  3
txt
  4

  0
STYLE
  5
202
100
AcDbSymbolTableRecord
100
AcDbTextStyleTableRecord
  2
TEXTSTYLE_1
 70
0
 40
0.0
 41
0.8
 50
0.0
 71
0
 42
0.2
  3
gdt
  4

  0
ENDTAB
  0
TABLE
  2
VIEW
  5
6
100
AcDbSymbolTable
 70
0
  0
ENDTAB
  0
TABLE
  2
UCS
  5
7
100
AcDbSymbolTable
 70
0
  0
ENDTAB
  0
TABLE
  2
APPID
  5
9
100
AcDbSymbolTable
 70
1
  0
APPID
  5
203
100
AcDbSymbolTableRecord
100
AcDbRegAppTableRecord
  2
ACAD
 70
0
  0
ENDTAB
  0
TABLE
  2
BLOCK_RECORD
  5
1
100
AcDbSymbolTable
 70
0
  0
BLOCK_RECORD
  5
204
100
AcDbSymbolTableRecord
100
AcDbBlockTableRecord
  2
*Model_Space
  0
BLOCK_RECORD
  5
205
100
AcDbSymbolTableRecord
100
AcDbBlockTableRecord
  2
*Paper_Space
  0
BLOCK_RECORD
  5
206
100
AcDbSymbolTableRecord
100
AcDbBlockTableRecord
  2
SUN_FIRST_THIRD_ANGLE_BL0
  0
BLOCK_RECORD
  5
207
100
AcDbSymbolTableRecord
100
AcDbBlockTableRecord
  2
*T1
  0
BLOCK_RECORD
  5
208
100
AcDbSymbolTableRecord
100
AcDbBlockTableRecord
  2
*T2
  0
BLOCK_RECORD
  5
209
100
AcDbSymbolTableRecord
100
AcDbBlockTableRecord
  2
*T3
  0
ENDTAB
  0
TABLE
  2
DIMSTYLE
  5
A
100
AcDbSymbolTable
 70
1
100
AcDbDimStyleTable
 71
0
  0
DIMSTYLE
105
20A
100
AcDbSymbolTableRecord
100
AcDbDimStyleTableRecord
  2
STANDARD
 70
0
  3

  4

 40
1.0
 41
0.1875
 42
0.0625
 43
0.38
 44
0.125
 45
0.0
 46
0.0
 47
0.001
 48
0.001
140
0.1
141
0.09
142
0.0
143
25.4
144
1.0
145
0.0
146
1.0
147
0.09
 71
0.0
 72
0.0
 73
1
 74
1
 75
0
 76
0
 77
0
 78
4
170
0
171
2
172
0
173
0
174
0
175
0
176
0
177
0
178
0
270
2
271
3
272
3
273
2
274
2
275
0
280
0
281
0
282
0
283
1
284
4
285
0
286
0
287
3
288
0
340
11
278
46
  0
ENDTAB
  0
ENDSEC
  0
SECTION
  2
BLOCKS
  0
BLOCK
  5
20
100
AcDbEntity
  8
0
100
AcDbBlockBegin
  2
*Model_Space
 70
0
 10
0.0
 20
0.0
 30
0.0
  3
*Model_Space
  1

  0
ENDBLK
  5
21
100
AcDbEntity
  8
0
100
AcDbBlockEnd
  0
BLOCK
  5
1C
100
AcDbEntity
  8
0
100
AcDbBlockBegin
  2
*Paper_Space
 70
0
 10
0.0
 20
0.0
 30
0.0
  3
*Paper_Space
  1

  0
ENDBLK
  5
1D
100
AcDbEntity
  8
0
100
AcDbBlockEnd
  0
BLOCK
  5
20B
100
AcDbEntity
  8
0
100
AcDbBlockBegin
 62
2
  6
CONTINUOUS
  2
SUN_FIRST_THIRD_ANGLE_BL0
 70
64
 10
20.4816717061
 20
1.2289683772
  3
SUN_FIRST_THIRD_ANGLE_BL0
  1

  0
TEXT
  5
20C
100
AcDbEntity
  8
0
100
AcDbText
 62
2
  6
CONTINUOUS
 10
19.4750896608
 20
1.4136269581
  7
STANDARD
 40
0.08
  1
FIRST ANGLE
 41
0.8
 72
0
100
AcDbText
  0
TEXT
  5
20D
100
AcDbEntity
  8
0
100
AcDbText
 62
2
  6
CONTINUOUS
 10
20.7842537513
 20
1.4047600029
  7
STANDARD
 40
0.08
  1
THIRD ANGLE
 41
0.8
 72
0
100
AcDbText
  0
LINE
  5
20E
100
AcDbEntity
  8
0
100
AcDbLine
 62
7
  6
CONTINUOUS
 10
19.4767170086
 20
1.1727031207
 11
19.6334271527
 21
1.1717972817
  0
LINE
  5
20F
100
AcDbEntity
  8
0
100
AcDbLine
 62
7
  6
CONTINUOUS
 10
19.6596964832
 20
1.1717972817
 11
19.6950230232
 21
1.171593082
  0
LINE
  5
210
100
AcDbEntity
  8
0
100
AcDbLine
 62
7
  6
CONTINUOUS
 10
19.7194818561
 20
1.1708914427
 11
19.8852396156
 21
1.1699333054
  0
LINE
  5
211
100
AcDbEntity
  8
0
100
AcDbLine
 62
7
  6
CONTINUOUS
 10
19.4758111696
 20
1.2723454088
 11
19.88525039
 21
1.3511534004
  0
LINE
  5
212
100
AcDbEntity
  8
0
100
AcDbLine
 62
7
  6
CONTINUOUS
 10
19.88525039
 20
1.3511534004
 11
19.8831348489
 21
0.9851647912
  0
LINE
  5
213
100
AcDbEntity
  8
0
100
AcDbLine
 62
7
  6
CONTINUOUS
 10
19.8831348489
 20
0.9851647912
 11
19.4767170086
 21
1.0658141206
  0
LINE
  5
214
100
AcDbEntity
  8
0
100
AcDbLine
 62
7
  6
CONTINUOUS
 10
19.4767170086
 20
1.0658141206
 11
19.4779056764
 21
1.2714536432
  0
CIRCLE
  5
215
100
AcDbEntity
  8
0
100
AcDbCircle
 62
7
  6
CONTINUOUS
 10
20.2068232291
 20
1.1717972817
 40
0.175742101
  0
CIRCLE
  5
216
100
AcDbEntity
  8
0
100
AcDbCircle
 62
7
  6
CONTINUOUS
 10
20.2068232291
 20
1.1717972817
 40
0.1005522074
  0
LINE
  5
217
100
AcDbEntity
  8
0
100
AcDbLine
 62
7
  6
CONTINUOUS
 10
20.2077290681
 20
1.3756110529
 11
20.2071171714
 21
1.2379342989
  0
LINE
  5
218
100
AcDbEntity
  8
0
100
AcDbLine
 62
7
  6
CONTINUOUS
 10
20.2077290681
 20
1.2016899681
 11
20.2074674401
 21
1.1428236749
  0
LINE
  5
219
100
AcDbEntity
  8
0
100
AcDbLine
 62
7
  6
CONTINUOUS
 10
20.208634907
 20
1.101141841
 11
20.2080230104
 21
0.963465087
  0
LINE
  5
21A
100
AcDbEntity
  8
0
100
AcDbLine
 62
7
  6
CONTINUOUS
 10
20.0066328138
 20
1.1745147986
 11
20.1443095678
 21
1.1739029019
  0
LINE
  5
21B
100
AcDbEntity
  8
0
100
AcDbLine
 62
7
  6
CONTINUOUS
 10
20.1832714155
 20
1.1727031207
 11
20.238153505
 21
1.172335442
  0
LINE
  5
21C
100
AcDbEntity
  8
0
100
AcDbLine
 62
7
  6
CONTINUOUS
 10
20.2756669918
 20
1.1717972817
 11
20.407916871
 21
1.1712095044
  0
CIRCLE
  5
21D
100
AcDbEntity
  8
0
100
AcDbCircle
 62
7
  6
CONTINUOUS
 10
20.7509457401
 20
1.1693297793
 40
0.1722024983
  0
CIRCLE
  5
21E
100
AcDbEntity
  8
0
100
AcDbCircle
 62
7
  6
CONTINUOUS
 10
20.7509457401
 20
1.1693297793
 40
0.0985164967
  0
LINE
  5
21F
100
AcDbEntity
  8
0
100
AcDbLine
 62
7
  6
CONTINUOUS
 10
20.7169767782
 20
1.170462078
 11
20.7825395137
 21
1.1682766535
  0
LINE
  5
220
100
AcDbEntity
  8
0
100
AcDbLine
 62
7
  6
CONTINUOUS
 10
20.8177513651
 20
1.1693297793
 11
20.947965719
 21
1.1693297793
  0
LINE
  5
221
100
AcDbEntity
  8
0
100
AcDbLine
 62
7
  6
CONTINUOUS
 10
20.6875370113
 20
1.170462078
 11
20.5573226574
 21
1.170462078
  0
LINE
  5
222
100
AcDbEntity
  8
0
100
AcDbLine
 62
7
  6
CONTINUOUS
 10
20.7486811426
 20
1.1987695462
 11
20.7486811426
 21
1.1432869085
  0
LINE
  5
223
100
AcDbEntity
  8
0
100
AcDbLine
 62
7
  6
CONTINUOUS
 10
20.7498134414
 20
1.1059210505
 11
20.7498134414
 21
0.9757066966
  0
LINE
  5
224
100
AcDbEntity
  8
0
100
AcDbLine
 62
7
  6
CONTINUOUS
 10
20.7486811426
 20
1.2338708068
 11
20.7486811426
 21
1.3640851607
  0
LINE
  5
225
100
AcDbEntity
  8
0
100
AcDbLine
 62
7
  6
CONTINUOUS
 10
21.0702539817
 20
1.2701043662
 11
21.4790138229
 21
1.3448360823
  0
LINE
  5
226
100
AcDbEntity
  8
0
100
AcDbLine
 62
7
  6
CONTINUOUS
 10
21.4790138229
 20
1.3448360823
 11
21.4790138229
 21
0.9779712941
  0
LINE
  5
227
100
AcDbEntity
  8
0
100
AcDbLine
 62
7
  6
CONTINUOUS
 10
21.4790138229
 20
0.9779712941
 11
21.069121683
 21
1.0617614
  0
LINE
  5
228
100
AcDbEntity
  8
0
100
AcDbLine
 62
7
  6
CONTINUOUS
 10
21.0702539817
 20
1.2701043662
 11
21.069121683
 21
1.0617614
  0
LINE
  5
229
100
AcDbEntity
  8
0
100
AcDbLine
 62
7
  6
CONTINUOUS
 10
21.4790138229
 20
1.1693297793
 11
21.3159628059
 21
1.1693297793
  0
LINE
  5
22A
100
AcDbEntity
  8
0
100
AcDbLine
 62
7
  6
CONTINUOUS
 10
21.2876553377
 20
1.1693297793
 11
21.2502894796
 21
1.1693297793
  0
LINE
  5
22B
100
AcDbEntity
  8
0
100
AcDbLine
 62
7
  6
CONTINUOUS
 10
21.2208497126
 20
1.1659328831
 11
21.0713862804
 21
1.1659328831
  0
LINE
  5
22C
100
AcDbEntity
  8
0
100
AcDbLine
 62
7
  6
CONTINUOUS
 10
20.4796138713
 20
1.5284908897
 11
20.4766766948
 21
0.9294458646
  0
ENDBLK
  5
22D
100
AcDbEntity
  8
0
  6
BYBLOCK
 62
0
100
AcDbBlockEnd
  0
BLOCK
  5
22E
100
AcDbEntity
  8
0
100
AcDbBlockBegin
  2
*T1
 70
1
 10
0.0
 20
0.0
  3
*T1
  1

  0
LINE
  5
22F
100
AcDbEntity
  8
0
100
AcDbLine
 62
2
  6
CONTINUOUS
 10
9.275
 20
0.0
 11
-0.0
 21
0.0
  0
LINE
  5
230
100
AcDbEntity
  8
0
100
AcDbLine
 62
2
  6
CONTINUOUS
 10
9.275
 20
0.0
 11
9.275
 21
1.25
  0
LINE
  5
231
100
AcDbEntity
  8
0
100
AcDbLine
 62
2
  6
CONTINUOUS
 10
9.275
 20
0.625
 11
-0.0
 21
0.625
  0
LINE
  5
232
100
AcDbEntity
  8
0
100
AcDbLine
 62
2
  6
CONTINUOUS
 10
9.275
 20
1.25
 11
-0.0
 21
1.25
  0
LINE
  5
233
100
AcDbEntity
  8
0
100
AcDbLine
 62
2
  6
CONTINUOUS
 10
6.8
 20
0.0
 11
6.8
 21
1.25
  0
LINE
  5
234
100
AcDbEntity
  8
0
100
AcDbLine
 62
2
  6
CONTINUOUS
 10
6.4
 20
0.0
 11
6.4
 21
0.625
  0
LINE
  5
235
100
AcDbEntity
  8
0
100
AcDbLine
 62
2
  6
CONTINUOUS
 10
5.9
 20
0.0
 11
5.9
 21
0.625
  0
LINE
  5
236
100
AcDbEntity
  8
0
100
AcDbLine
 62
2
  6
CONTINUOUS
 10
5.2
 20
0.0
 11
5.2
 21
0.625
  0
LINE
  5
237
100
AcDbEntity
  8
0
100
AcDbLine
 62
2
  6
CONTINUOUS
 10
4.1
 20
0.0
 11
4.1
 21
1.25
  0
LINE
  5
238
100
AcDbEntity
  8
0
100
AcDbLine
 62
2
  6
CONTINUOUS
 10
-0.0
 20
0.0
 11
-0.0
 21
1.25
  0
MTEXT
  5
239
100
AcDbEntity
  8
0
100
AcDbMText
 62
2
  6
CONTINUOUS
  7
STANDARD
 71
2
 72
1
 10
6.6
 20
0.325
 30
0.0
 11
1.0
 21
0.0
 31
0.0
 44
0.9
  1
2
 40
0.125
 41
0.2
  0
MTEXT
  5
23A
100
AcDbEntity
  8
0
100
AcDbMText
 62
2
  6
CONTINUOUS
  7
STANDARD
 71
2
 72
1
 10
6.15
 20
0.325
 30
0.0
 11
1.0
 21
0.0
 31
0.0
 44
0.9
  1
C
 40
0.125
 41
0.2
  0
MTEXT
  5
23B
100
AcDbEntity
  8
0
100
AcDbMText
 62
2
  6
CONTINUOUS
  7
STANDARD
 71
2
 72
1
 10
5.55
 20
0.325
 30
0.0
 11
1.0
 21
0.0
 31
0.0
 44
0.9
  1
2.000
 40
0.125
 41
1.0
  0
MTEXT
  5
23C
100
AcDbEntity
  8
0
100
AcDbMText
 62
2
  6
CONTINUOUS
  7
STANDARD
 71
2
 72
1
 10
4.65
 20
0.325
 30
0.0
 11
1.0
 21
0.0
 31
0.0
 44
0.9
  1
May-15-20
 40
0.125
 41
1.8
  0
MTEXT
  5
23D
100
AcDbEntity
  8
0
100
AcDbMText
 62
2
  6
CONTINUOUS
  7
STANDARD
 71
2
 72
1
 10
2.05
 20
0.4625
 30
0.0
 11
1.0
 21
0.0
 31
0.0
 44
0.9
  1
T-11A Motor mount Eaton/Char-Lynn H & S\PCross pilot
 40
0.125
 41
7.8
  0
MTEXT
  5
23E
100
AcDbEntity
  8
0
100
AcDbMText
 62
2
  6
CONTINUOUS
  7
STANDARD
 71
1
 72
1
 10
6.45
 20
0.5625
 30
0.0
 11
1.0
 21
0.0
 31
0.0
 44
0.9
  1
SHEET
 40
0.06
 41
0.48
  0
MTEXT
  5
23F
100
AcDbEntity
  8
0
100
AcDbMText
 62
2
  6
CONTINUOUS
  7
STANDARD
 71
1
 72
1
 10
5.95
 20
0.5625
 30
0.0
 11
1.0
 21
0.0
 31
0.0
 44
0.9
  1
DWG SIZE
 40
0.06
 41
0.768
  0
MTEXT
  5
240
100
AcDbEntity
  8
0
100
AcDbMText
 62
2
  6
CONTINUOUS
  7
STANDARD
 71
1
 72
1
 10
5.25
 20
0.5625
 30
0.0
 11
1.0
 21
0.0
 31
0.0
 44
0.9
  1
SCALE
 40
0.06
 41
0.48
  0
MTEXT
  5
241
100
AcDbEntity
  8
0
100
AcDbMText
 62
2
  6
CONTINUOUS
  7
STANDARD
 71
1
 72
1
 10
4.15
 20
0.5625
 30
0.0
 11
1.0
 21
0.0
 31
0.0
 44
0.9
  1
DATE
 40
0.06
 41
0.384
  0
MTEXT
  5
242
100
AcDbEntity
  8
0
100
AcDbMText
 62
2
  6
CONTINUOUS
  7
STANDARD
 71
1
 72
1
 10
0.05
 20
0.5625
 30
0.0
 11
1.0
 21
0.0
 31
0.0
 44
0.9
  1
DESCRIPTION
 40
0.06
 41
1.056
  0
MTEXT
  5
243
100
AcDbEntity
  8
0
100
AcDbMText
 62
2
  6
CONTINUOUS
  7
STANDARD
 71
2
 72
1
 10
5.45
 20
1.0375
 30
0.0
 11
1.0
 21
0.0
 31
0.0
 44
0.9
  1
ALL DIMENSIONS IN INCH\PVIEWS ARE THIRD ANGLE
 40
0.12
 41
4.224
  0
MTEXT
  5
244
100
AcDbEntity
  8
0
100
AcDbMText
 62
2
  6
CONTINUOUS
  7
STANDARD
 71
2
 72
1
 10
2.05
 20
0.95
 30
0.0
 11
1.0
 21
0.0
 31
0.0
 44
0.9
  1
YTV
 40
0.125
 41
0.6
  0
MTEXT
  5
245
100
AcDbEntity
  8
0
100
AcDbMText
 62
2
  6
CONTINUOUS
  7
STANDARD
 71
1
 72
1
 10
0.05
 20
1.1875
 30
0.0
 11
1.0
 21
0.0
 31
0.0
 44
0.9
  1
MODEL
 40
0.06
 41
0.48
  0
ENDBLK
  5
246
100
AcDbEntity
  8
0
  6
BYBLOCK
 62
0
100
AcDbBlockEnd
  0
BLOCK
  5
247
100
AcDbEntity
  8
0
100
AcDbBlockBegin
  2
*T2
 70
1
 10
0.0
 20
0.0
  3
*T2
  1

  0
LINE
  5
248
100
AcDbEntity
  8
0
100
AcDbLine
 62
2
  6
CONTINUOUS
 10
0.0
 20
0.0
 11
9.055
 21
0.0
  0
LINE
  5
249
100
AcDbEntity
  8
0
100
AcDbLine
 62
2
  6
CONTINUOUS
 10
0.0
 20
0.0
 11
0.0
 21
-1.844
  0
LINE
  5
24A
100
AcDbEntity
  8
0
100
AcDbLine
 62
2
  6
CONTINUOUS
 10
0.0
 20
-0.344
 11
9.055
 21
-0.344
  0
LINE
  5
24B
100
AcDbEntity
  8
0
100
AcDbLine
 62
2
  6
CONTINUOUS
 10
0.0
 20
-0.594
 11
9.055
 21
-0.594
  0
LINE
  5
24C
100
AcDbEntity
  8
0
100
AcDbLine
 62
2
  6
CONTINUOUS
 10
0.0
 20
-0.844
 11
9.055
 21
-0.844
  0
LINE
  5
24D
100
AcDbEntity
  8
0
100
AcDbLine
 62
2
  6
CONTINUOUS
 10
0.0
 20
-1.094
 11
9.055
 21
-1.094
  0
LINE
  5
24E
100
AcDbEntity
  8
0
100
AcDbLine
 62
2
  6
CONTINUOUS
 10
0.0
 20
-1.344
 11
9.055
 21
-1.344
  0
LINE
  5
24F
100
AcDbEntity
  8
0
100
AcDbLine
 62
2
  6
CONTINUOUS
 10
0.0
 20
-1.594
 11
9.055
 21
-1.594
  0
LINE
  5
250
100
AcDbEntity
  8
0
100
AcDbLine
 62
2
  6
CONTINUOUS
 10
0.0
 20
-1.844
 11
9.055
 21
-1.844
  0
LINE
  5
251
100
AcDbEntity
  8
0
100
AcDbLine
 62
2
  6
CONTINUOUS
 10
3.055
 20
0.0
 11
3.055
 21
-1.844
  0
LINE
  5
252
100
AcDbEntity
  8
0
100
AcDbLine
 62
2
  6
CONTINUOUS
 10
9.055
 20
0.0
 11
9.055
 21
-1.844
  0
MTEXT
  5
253
100
AcDbEntity
  8
0
100
AcDbMText
 62
2
  6
CONTINUOUS
  7
STANDARD
 71
2
 72
1
 10
1.5275
 20
-0.0995
 30
0.0
 11
1.0
 21
0.0
 31
0.0
 44
0.9
  1
Technical Data
 40
0.145
 41
3.248
  0
MTEXT
  5
254
100
AcDbEntity
  8
0
100
AcDbMText
 62
2
  6
CONTINUOUS
  7
STANDARD
 71
2
 72
1
 10
4.555
 20
-0.0995
 30
0.0
 11
1.0
 21
0.0
 31
0.0
 44
0.9
  1
U.S. Units
 40
0.145
 41
2.32
  0
MTEXT
  5
255
100
AcDbEntity
  8
0
100
AcDbMText
 62
2
  6
CONTINUOUS
  7
STANDARD
 71
2
 72
1
 10
7.555
 20
-0.0995
 30
0.0
 11
1.0
 21
0.0
 31
0.0
 44
0.9
  1
Metric Units
 40
0.145
 41
2.784
  0
MTEXT
  5
256
100
AcDbEntity
  8
0
100
AcDbMText
 62
2
  6
CONTINUOUS
  7
STANDARD
 71
2
 72
1
 10
1.5275
 20
-0.4065
 30
0.0
 11
1.0
 21
0.0
 31
0.0
 44
0.9
  1
Cavity
 40
0.125
 41
1.2
  0
MTEXT
  5
257
100
AcDbEntity
  8
0
100
AcDbMText
 62
2
  6
CONTINUOUS
  7
STANDARD
 71
2
 72
1
 10
6.055
 20
-0.4065
 30
0.0
 11
1.0
 21
0.0
 31
0.0
 44
0.9
  1
T-11A
 40
0.125
 41
1.0
  0
MTEXT
  5
258
100
AcDbEntity
  8
0
100
AcDbMText
 62
2
  6
CONTINUOUS
  7
STANDARD
 71
2
 72
1
 10
1.5275
 20
-0.6565
 30
0.0
 11
1.0
 21
0.0
 31
0.0
 44
0.9
  1
Body Features
 40
0.125
 41
2.6
  0
MTEXT
  5
259
100
AcDbEntity
  8
0
100
AcDbMText
 62
2
  6
CONTINUOUS
  7
STANDARD
 71
2
 72
1
 10
6.055
 20
-0.6565
 30
0.0
 11
1.0
 21
0.0
 31
0.0
 44
0.9
  1
Cross pilot
 40
0.125
 41
2.2
  0
MTEXT
  5
25A
100
AcDbEntity
  8
0
100
AcDbMText
 62
2
  6
CONTINUOUS
  7
STANDARD
 71
2
 72
1
 10
1.5275
 20
-0.9065
 30
0.0
 11
1.0
 21
0.0
 31
0.0
 44
0.9
  1
Body Type
 40
0.125
 41
1.8
  0
MTEXT
  5
25B
100
AcDbEntity
  8
0
100
AcDbMText
 62
2
  6
CONTINUOUS
  7
STANDARD
 71
2
 72
1
 10
6.055
 20
-0.9065
 30
0.0
 11
1.0
 21
0.0
 31
0.0
 44
0.9
  1
Motor mount
 40
0.125
 41
2.2
  0
MTEXT
  5
25C
100
AcDbEntity
  8
0
100
AcDbMText
 62
2
  6
CONTINUOUS
  7
STANDARD
 71
2
 72
1
 10
1.5275
 20
-1.1565
 30
0.0
 11
1.0
 21
0.0
 31
0.0
 44
0.9
  1
Interface
 40
0.125
 41
1.8
  0
MTEXT
  5
25D
100
AcDbEntity
  8
0
100
AcDbMText
 62
2
  6
CONTINUOUS
  7
STANDARD
 71
2
 72
1
 10
6.055
 20
-1.1565
 30
0.0
 11
1.0
 21
0.0
 31
0.0
 44
0.9
  1
Eaton/Char-Lynn H & S
 40
0.125
 41
4.2
  0
MTEXT
  5
25E
100
AcDbEntity
  8
0
100
AcDbMText
 62
2
  6
CONTINUOUS
  7
STANDARD
 71
2
 72
1
 10
1.5275
 20
-1.4065
 30
0.0
 11
1.0
 21
0.0
 31
0.0
 44
0.9
  1
Open Cavity Quantity
 40
0.125
 41
4.0
  0
MTEXT
  5
25F
100
AcDbEntity
  8
0
100
AcDbMText
 62
2
  6
CONTINUOUS
  7
STANDARD
 71
2
 72
1
 10
6.055
 20
-1.4065
 30
0.0
 11
1.0
 21
0.0
 31
0.0
 44
0.9
  1
2
 40
0.125
 41
0.2
  0
MTEXT
  5
260
100
AcDbEntity
  8
0
100
AcDbMText
 62
2
  6
CONTINUOUS
  7
STANDARD
 71
2
 72
1
 10
1.5275
 20
-1.6565
 30
0.0
 11
1.0
 21
0.0
 31
0.0
 44
0.9
  1
Weight
 40
0.125
 41
1.2
  0
MTEXT
  5
261
100
AcDbEntity
  8
0
100
AcDbMText
 62
2
  6
CONTINUOUS
  7
STANDARD
 71
2
 72
1
 10
4.555
 20
-1.6565
 30
0.0
 11
1.0
 21
0.0
 31
0.0
 44
0.9
  1
1.670 lb.
 40
0.125
 41
1.8
  0
MTEXT
  5
262
100
AcDbEntity
  8
0
100
AcDbMText
 62
2
  6
CONTINUOUS
  7
STANDARD
 71
2
 72
1
 10
7.555
 20
-1.6565
 30
0.0
 11
1.0
 21
0.0
 31
0.0
 44
0.9
  1
0,758 kg.
 40
0.125
 41
1.8
  0
ENDBLK
  5
263
100
AcDbEntity
  8
0
  6
BYBLOCK
 62
0
100
AcDbBlockEnd
  0
BLOCK
  5
264
100
AcDbEntity
  8
0
100
AcDbBlockBegin
  2
*T3
 70
1
 10
0.0
 20
0.0
  3
*T3
  1

  0
LINE
  5
265
100
AcDbEntity
  8
0
100
AcDbLine
 62
2
  6
CONTINUOUS
 10
0.0
 20
0.0
 11
4.6
 21
0.0
  0
LINE
  5
266
100
AcDbEntity
  8
0
100
AcDbLine
 62
2
  6
CONTINUOUS
 10
0.0
 20
0.0
 11
0.0
 21
-0.93775
  0
LINE
  5
267
100
AcDbEntity
  8
0
100
AcDbLine
 62
2
  6
CONTINUOUS
 10
0.0
 20
-0.34375
 11
4.6
 21
-0.34375
  0
LINE
  5
268
100
AcDbEntity
  8
0
100
AcDbLine
 62
2
  6
CONTINUOUS
 10
0.0
 20
-0.68775
 11
4.6
 21
-0.68775
  0
LINE
  5
269
100
AcDbEntity
  8
0
100
AcDbLine
 62
2
  6
CONTINUOUS
 10
0.0
 20
-0.93775
 11
4.6
 21
-0.93775
  0
LINE
  5
26A
100
AcDbEntity
  8
0
100
AcDbLine
 62
2
  6
CONTINUOUS
 10
1.3
 20
-0.34375
 11
1.3
 21
-0.93775
  0
LINE
  5
26B
100
AcDbEntity
  8
0
100
AcDbLine
 62
2
  6
CONTINUOUS
 10
3.3
 20
-0.34375
 11
3.3
 21
-0.93775
  0
LINE
  5
26C
100
AcDbEntity
  8
0
100
AcDbLine
 62
2
  6
CONTINUOUS
 10
4.6
 20
0.0
 11
4.6
 21
-0.93775
  0
MTEXT
  5
26D
100
AcDbEntity
  8
0
100
AcDbMText
 62
2
  6
CONTINUOUS
  7
STANDARD
 71
2
 72
1
 10
2.3
 20
-0.099375
 30
0.0
 11
1.0
 21
0.0
 31
0.0
 44
0.9
  1
Port Headings
 40
0.145
 41
3.016
  0
MTEXT
  5
26E
100
AcDbEntity
  8
0
100
AcDbMText
 62
2
  6
CONTINUOUS
  7
STANDARD
 71
2
 72
1
 10
0.65
 20
-0.44325
 30
0.0
 11
1.0
 21
0.0
 31
0.0
 44
0.9
  1
Product
 40
0.145
 41
1.624
  0
MTEXT
  5
26F
100
AcDbEntity
  8
0
100
AcDbMText
 62
2
  6
CONTINUOUS
  7
STANDARD
 71
2
 72
1
 10
2.3
 20
-0.44325
 30
0.0
 11
1.0
 21
0.0
 31
0.0
 44
0.9
  1
Port
 40
0.145
 41
0.928
  0
MTEXT
  5
270
100
AcDbEntity
  8
0
100
AcDbMText
 62
2
  6
CONTINUOUS
  7
STANDARD
 71
2
 72
1
 10
3.95
 20
-0.44325
 30
0.0
 11
1.0
 21
0.0
 31
0.0
 44
0.9
  1
Size
 40
0.145
 41
0.928
  0
MTEXT
  5
271
100
AcDbEntity
  8
0
100
AcDbMText
 62
2
  6
CONTINUOUS
  7
STANDARD
 71
2
 72
1
 10
0.65
 20
-0.75025
 30
0.0
 11
1.0
 21
0.0
 31
0.0
 44
0.9
  1
YTV
 40
0.125
 41
0.6
  0
MTEXT
  5
272
100
AcDbEntity
  8
0
100
AcDbMText
 62
2
  6
CONTINUOUS
  7
STANDARD
 71
2
 72
1
 10
2.3
 20
-0.75025
 30
0.0
 11
1.0
 21
0.0
 31
0.0
 44
0.9
  1
Ports VA & VB
 40
0.125
 41
2.6
  0
MTEXT
  5
273
100
AcDbEntity
  8
0
100
AcDbMText
 62
2
  6
CONTINUOUS
  7
STANDARD
 71
2
 72
1
 10
3.95
 20
-0.75025
 30
0.0
 11
1.0
 21
0.0
 31
0.0
 44
0.9
  1
1/2" BSPP
 40
0.125
 41
1.8
  0
ENDBLK
  5
274
100
AcDbEntity
  8
0
  6
BYBLOCK
 62
0
100
AcDbBlockEnd
  0
ENDSEC
  0
SECTION
  2
ENTITIES
  0
IMAGE
  5
275
100
AcDbEntity
  8
0
100
AcDbRasterImage
 62
7
  6
CONTINUOUS
 10
19.2297077316
 20
0.3094318264
 30
0.0
 11
0.0066666667
 21
0.0
 31
0.0
 12
0.0
 22
0.0066666667
 32
0.0
 13
369.0
 23
92.0
340
       362
 70
9
280
0
281
50
282
50
283
0
360
       35C
 71
1
 91
2
 14
-0.5
 24
-0.5
 14
368.5
 24
91.5
  0
INSERT
  5
276
100
AcDbEntity
  8
0
100
AcDbBlockReference
 62
2
  6
CONTINUOUS
  2
SUN_FIRST_THIRD_ANGLE_BL0
 10
20.4816717061
 20
1.2289683772
  0
ACAD_TABLE
  5
277
100
AcDbEntity
  8
0
 62
2
  6
CONTINUOUS
100
AcDbBlockReference
  2
*T1
 10
12.42375
 20
0.30125
 30
0.0
100
AcDbTable
342
       364
343
207
 11
1.0
 21
0.0
 31
0.0
 90
6
 91
4
 92
6
 93
20
 94
0
 95
0
 96
0
 70
1
 41
0.0
141
0.525
141
0.1
141
0.525
141
0.1
142
4.1
142
1.1
142
0.7
142
0.5
142
0.4
142
2.475
171
1
172
0
173
0
174
0
175
1
176
1
 91
33
178
0
145
0.0
301
CELL_VALUE
 90
4
  1
T-11A Motor mount Eaton/Char-Lynn H & S\PCross pilot
304
ACVALUE_END
170
2
140
0.125
171
1
172
0
173
0
174
0
175
1
176
1
 91
33
178
0
145
0.0
301
CELL_VALUE
 90
4
  1
May-15-20
304
ACVALUE_END
170
5
140
0.125
171
1
172
0
173
0
174
0
175
1
176
1
 91
33
178
0
145
0.0
301
CELL_VALUE
 90
4
  1
2.000
304
ACVALUE_END
170
5
140
0.125
171
1
172
0
173
0
174
0
175
1
176
1
 91
33
178
0
145
0.0
301
CELL_VALUE
 90
4
  1
C
304
ACVALUE_END
170
5
140
0.125
171
1
172
0
173
0
174
0
175
1
176
1
 91
33
178
0
145
0.0
301
CELL_VALUE
 90
4
  1
2
304
ACVALUE_END
170
5
140
0.125
171
1
172
0
173
0
174
0
175
1
176
1
 91
33
178
0
145
0.0
301
CELL_VALUE
 90
4
  1
 
304
ACVALUE_END
170
1
140
0.125
171
1
172
0
173
0
174
0
175
1
176
1
 91
33
178
0
145
0.0
301
CELL_VALUE
 90
4
  1
DESCRIPTION
304
ACVALUE_END
170
1
140
0.06
171
1
172
0
173
0
174
0
175
1
176
1
 91
33
178
0
145
0.0
301
CELL_VALUE
 90
4
  1
DATE
304
ACVALUE_END
170
1
140
0.06
171
1
172
0
173
0
174
0
175
1
176
1
 91
33
178
0
145
0.0
301
CELL_VALUE
 90
4
  1
SCALE
304
ACVALUE_END
170
1
140
0.06
171
1
172
0
173
0
174
0
175
1
176
1
 91
33
178
0
145
0.0
301
CELL_VALUE
 90
4
  1
DWG SIZE
304
ACVALUE_END
170
1
140
0.06
171
1
172
0
173
0
174
0
175
1
176
1
 91
33
178
0
145
0.0
301
CELL_VALUE
 90
4
  1
SHEET
304
ACVALUE_END
170
1
140
0.06
171
1
172
0
173
0
174
0
175
1
176
1
 91
33
178
0
145
0.0
301
CELL_VALUE
 90
4
  1
 
304
ACVALUE_END
170
1
140
0.125
171
1
172
0
173
0
174
0
175
1
176
1
 91
33
178
0
145
0.0
301
CELL_VALUE
 90
4
  1
YTV
304
ACVALUE_END
170
5
140
0.125
171
1
172
0
173
0
174
0
175
4
176
1
 91
33
178
0
145
0.0
301
CELL_VALUE
 90
4
  1
ALL DIMENSIONS IN INCH\PVIEWS ARE THIRD ANGLE
304
ACVALUE_END
170
5
140
0.12
171
1
172
0
173
1
174
0
175
1
176
1
 91
1
178
0
145
0.0
170
1
171
1
172
0
173
1
174
0
175
1
176
1
 91
1
178
0
145
0.0
170
1
171
1
172
0
173
1
174
0
175
1
176
1
 91
1
178
0
145
0.0
170
5
171
1
172
0
173
0
174
0
175
1
176
1
 91
33
178
0
145
0.0
301
CELL_VALUE
 90
4
  1
 
304
ACVALUE_END
170
1
140
0.125
171
1
172
0
173
0
174
0
175
1
176
1
 91
33
178
0
145
0.0
301
CELL_VALUE
 90
4
  1
MODEL
304
ACVALUE_END
170
1
140
0.06
171
1
172
0
173
0
174
0
175
1
176
1
 91
33
178
0
145
0.0
301
CELL_VALUE
 90
4
  1
 
304
ACVALUE_END
170
1
140
0.125
171
1
172
0
173
0
174
0
175
1
176
1
 91
33
178
0
145
0.0
301
CELL_VALUE
 90
4
  1
 
304
ACVALUE_END
170
1
140
0.125
171
1
172
0
173
0
174
0
175
1
176
1
 91
33
178
0
145
0.0
301
CELL_VALUE
 90
4
  1
 
304
ACVALUE_END
170
1
140
0.125
171
1
172
0
173
0
174
0
175
1
176
1
 91
33
178
0
145
0.0
301
CELL_VALUE
 90
4
  1
 
304
ACVALUE_END
170
1
140
0.125
171
1
172
0
173
0
174
0
175
1
176
1
 91
33
178
0
145
0.0
301
CELL_VALUE
 90
4
  1
 
304
ACVALUE_END
170
1
140
0.125
  0
ACAD_TABLE
  5
278
100
AcDbEntity
  8
0
 62
2
  6
CONTINUOUS
100
AcDbBlockReference
  2
*T2
 10
12.4237499994
 20
16.47875
 30
0.0
100
AcDbTable
342
       363
343
208
 11
1.0
 21
0.0
 31
0.0
 90
22
 91
7
 92
3
 93
16
 94
0
 95
0
 96
0
 41
0.028
141
0.344
141
0.25
141
0.25
141
0.25
141
0.25
141
0.25
141
0.25
142
3.055
142
3.0
142
3.0
171
1
172
0
173
0
174
0
175
1
176
1
 91
33
178
0
145
0.0
301
CELL_VALUE
 90
4
  1
Technical Data
304
ACVALUE_END
170
5
140
0.145
171
1
172
0
173
0
174
0
175
1
176
1
 91
33
178
0
145
0.0
301
CELL_VALUE
 90
4
  1
U.S. Units
304
ACVALUE_END
170
5
140
0.145
171
1
172
0
173
0
174
0
175
1
176
1
 91
33
178
0
145
0.0
301
CELL_VALUE
 90
4
  1
Metric Units
304
ACVALUE_END
170
5
140
0.145
171
1
172
0
173
0
174
0
175
1
176
1
 91
33
178
0
145
0.0
301
CELL_VALUE
 90
4
  1
Cavity
304
ACVALUE_END
170
5
140
0.125
171
1
172
0
173
0
174
0
175
2
176
1
 91
33
178
0
145
0.0
301
CELL_VALUE
 90
4
  1
T-11A
304
ACVALUE_END
170
5
140
0.125
171
1
172
0
173
1
174
0
175
1
176
1
 91
1
178
0
145
0.0
170
1
171
1
172
0
173
0
174
0
175
1
176
1
 91
33
178
0
145
0.0
301
CELL_VALUE
 90
4
  1
Body Features
304
ACVALUE_END
170
5
140
0.125
171
1
172
0
173
0
174
0
175
2
176
1
 91
33
178
0
145
0.0
301
CELL_VALUE
 90
4
  1
Cross pilot
304
ACVALUE_END
170
5
140
0.125
171
1
172
0
173
1
174
0
175
1
176
1
 91
1
178
0
145
0.0
170
1
171
1
172
0
173
0
174
0
175
1
176
1
 91
33
178
0
145
0.0
301
CELL_VALUE
 90
4
  1
Body Type
304
ACVALUE_END
170
5
140
0.125
171
1
172
0
173
0
174
0
175
2
176
1
 91
33
178
0
145
0.0
301
CELL_VALUE
 90
4
  1
Motor mount
304
ACVALUE_END
170
5
140
0.125
171
1
172
0
173
1
174
0
175
1
176
1
 91
1
178
0
145
0.0
170
1
171
1
172
0
173
0
174
0
175
1
176
1
 91
33
178
0
145
0.0
301
CELL_VALUE
 90
4
  1
Interface
304
ACVALUE_END
170
5
140
0.125
171
1
172
0
173
0
174
0
175
2
176
1
 91
33
178
0
145
0.0
301
CELL_VALUE
 90
4
  1
Eaton/Char-Lynn H & S
304
ACVALUE_END
170
5
140
0.125
171
1
172
0
173
1
174
0
175
1
176
1
 91
1
178
0
145
0.0
170
1
171
1
172
0
173
0
174
0
175
1
176
1
 91
33
178
0
145
0.0
301
CELL_VALUE
 90
4
  1
Open Cavity Quantity
304
ACVALUE_END
170
5
140
0.125
171
1
172
0
173
0
174
0
175
2
176
1
 91
33
178
0
145
0.0
301
CELL_VALUE
 90
4
  1
2
304
ACVALUE_END
170
5
140
0.125
171
1
172
0
173
1
174
0
175
1
176
1
 91
1
178
0
145
0.0
170
1
171
1
172
0
173
0
174
0
175
1
176
1
 91
33
178
0
145
0.0
301
CELL_VALUE
 90
4
  1
Weight
304
ACVALUE_END
170
5
140
0.125
171
1
172
0
173
0
174
0
175
1
176
1
 91
33
178
0
145
0.0
301
CELL_VALUE
 90
4
  1
1.670 lb.
304
ACVALUE_END
170
5
140
0.125
171
1
172
0
173
0
174
0
175
1
176
1
 91
33
178
0
145
0.0
301
CELL_VALUE
 90
4
  1
0,758 kg.
304
ACVALUE_END
170
5
140
0.125
  0
ACAD_TABLE
  5
279
100
AcDbEntity
  8
0
 62
2
  6
CONTINUOUS
100
AcDbBlockReference
  2
*T3
 10
0.52125
 20
1.459
 30
0.0
100
AcDbTable
342
       363
343
209
 11
1.0
 21
0.0
 31
0.0
 90
22
 91
3
 92
3
 93
16
 94
0
 95
0
 96
0
 41
0.05
141
0.34375
141
0.344
141
0.25
142
1.3
142
2.0
142
1.3
171
1
172
0
173
0
174
0
175
3
176
1
 91
33
178
0
145
0.0
301
CELL_VALUE
 90
4
  1
Port Headings
304
ACVALUE_END
170
5
140
0.145
171
1
172
0
173
1
174
0
175
1
176
1
 91
1
178
0
145
0.0
170
1
171
1
172
0
173
1
174
0
175
1
176
1
 91
1
178
0
145
0.0
170
1
171
1
172
0
173
0
174
0
175
1
176
1
 91
33
178
0
145
0.0
301
CELL_VALUE
 90
4
  1
Product
304
ACVALUE_END
170
5
140
0.145
171
1
172
0
173
0
174
0
175
1
176
1
 91
33
178
0
145
0.0
301
CELL_VALUE
 90
4
  1
Port
304
ACVALUE_END
170
5
140
0.145
171
1
172
0
173
0
174
0
175
1
176
1
 91
33
178
0
145
0.0
301
CELL_VALUE
 90
4
  1
Size
304
ACVALUE_END
170
5
140
0.145
171
1
172
0
173
0
174
0
175
1
176
1
 91
33
178
0
145
0.0
301
CELL_VALUE
 90
4
  1
YTV
304
ACVALUE_END
170
5
140
0.125
171
1
172
0
173
0
174
0
175
1
176
1
 91
33
178
0
145
0.0
301
CELL_VALUE
 90
4
  1
Ports VA & VB
304
ACVALUE_END
170
5
140
0.125
171
1
172
0
173
0
174
0
175
1
176
1
 91
33
178
0
145
0.0
301
CELL_VALUE
 90
4
  1
1/2" BSPP
304
ACVALUE_END
170
5
140
0.125
  0
MTEXT
  5
27A
100
AcDbEntity
  8
0
100
AcDbMText
 62
2
  6
CONTINUOUS
  7
STANDARD
 71
1
 72
1
 10
0.52125
 20
5.75995
 30
0.0
 11
1.0
 21
0.0
 31
0.0
 44
0.6
  3
Notes\P \P1. A riser gage port adapter is\P   required for this product when used\P   with the Char-Lynn "S" series\P   motors. For details on gage port\P   adapters, see Sun models ZVQ (NPT),\P   WPA (SAE), and WPB (BSPP).\P2. Important: Carefully c
  3
onsider\P   the maximum system pressure. The\P   pressure rating of the manifold is\P   dependent on the manifold material,\P   with the port type/size a secondary\P   consideration. Manifolds\P   constructed of aluminum are not\P   rated for pressur
  1
es higher than\P   3000 psi (210 bar), regardless of\P   the port type/size specified.
 40
0.1
 41
3.04
  0
LINE
  5
27B
100
AcDbEntity
  8
0
100
AcDbLine
 62
7
  6
CONTINUOUS
 10
0.30125
 20
0.30125
 11
0.30125
 21
16.69875
  0
LINE
  5
27C
100
AcDbEntity
  8
0
100
AcDbLine
 62
7
  6
CONTINUOUS
 10
0.30125
 20
0.30125
 11
21.69875
 21
0.30125
  0
LINE
  5
27D
100
AcDbEntity
  8
0
100
AcDbLine
 62
7
  6
CONTINUOUS
 10
0.30125
 20
16.69875
 11
21.69875
 21
16.69875
  0
LINE
  5
27E
100
AcDbEntity
  8
0
100
AcDbLine
 62
7
  6
CONTINUOUS
 10
21.69875
 20
0.30125
 11
21.69875
 21
16.69875
  0
LINE
  5
27F
100
AcDbEntity
  8
0
100
AcDbLine
 62
7
  6
CONTINUOUS
 10
7.1476985082
 20
9.6509266052
 11
7.1476985082
 21
5.9069979507
  0
LINE
  5
280
100
AcDbEntity
  8
0
100
AcDbLine
 62
7
  6
CONTINUOUS
 10
9.0567461906
 20
11.4949251746
 11
7.1476985082
 21
9.6509266052
  0
LINE
  5
281
100
AcDbEntity
  8
0
100
AcDbLine
 62
7
  6
CONTINUOUS
 10
7.1476985082
 20
5.9069979507
 11
12.9432538094
 21
5.5050748254
  0
LINE
  5
282
100
AcDbEntity
  8
0
100
AcDbLine
 62
4
  6
CONTINUOUS
 10
10.2495014453
 20
10.7698953913
 11
10.2361907622
 21
10.757038258
  0
LINE
  5
283
100
AcDbEntity
  8
0
100
AcDbLine
 62
4
  6
CONTINUOUS
 10
10.3266691909
 20
10.7415767371
 11
10.3133585092
 21
10.7287196051
  0
LINE
  5
284
100
AcDbEntity
  8
0
100
AcDbLine
 62
4
  6
CONTINUOUS
 10
10.497882318
 20
10.7526701193
 11
10.4623871655
 21
10.7183844327
  0
LINE
  5
285
100
AcDbEntity
  8
0
100
AcDbLine
 62
7
  6
CONTINUOUS
 10
9.8670226657
 20
10.1667200511
 11
9.8690937327
 21
10.1686830621
  0
LINE
  5
286
100
AcDbEntity
  8
0
100
AcDbLine
 62
4
  6
CONTINUOUS
 10
11.3199681426
 20
10.8867441533
 11
11.1916166845
 21
10.8313376093
  0
LINE
  5
287
100
AcDbEntity
  8
0
100
AcDbLine
 62
4
  6
CONTINUOUS
 10
10.5229963553
 20
10.6912141178
 11
10.5329528063
 21
10.6951170478
  0
LINE
  5
288
100
AcDbEntity
  8
0
100
AcDbLine
 62
4
  6
CONTINUOUS
 10
10.5906324288
 20
10.750831288
 11
10.5462634862
 21
10.7079741779
  0
LINE
  5
289
100
AcDbEntity
  8
0
100
AcDbLine
 62
4
  6
CONTINUOUS
 10
10.5329528063
 20
10.6951170478
 11
10.5285159106
 21
10.6908313353
  0
LINE
  5
28A
100
AcDbEntity
  8
0
100
AcDbLine
 62
4
  6
CONTINUOUS
 10
10.9460636871
 20
11.0541515606
 11
10.8839471689
 21
10.9941516079
  0
LINE
  5
28B
100
AcDbEntity
  8
0
100
AcDbLine
 62
4
  6
CONTINUOUS
 10
10.9866538389
 20
10.9962156968
 11
11.0310227806
 21
11.039072806
  0
LINE
  5
28C
100
AcDbEntity
  8
0
100
AcDbLine
 62
4
  6
CONTINUOUS
 10
10.7352240802
 20
10.7362104122
 11
10.6775444564
 21
10.6804961706
  0
LINE
  5
28D
100
AcDbEntity
  8
0
100
AcDbLine
 62
4
  6
CONTINUOUS
 10
10.8058958592
 20
10.7359027184
 11
10.7615269166
 21
10.6930456083
  0
LINE
  5
28E
100
AcDbEntity
  8
0
100
AcDbLine
 62
4
  6
CONTINUOUS
 10
11.1558076728
 20
11.0396057658
 11
11.0936911546
 21
10.9796058131
  0
LINE
  5
28F
100
AcDbEntity
  8
0
100
AcDbLine
 62
4
  6
CONTINUOUS
 10
10.8608793541
 20
10.6861554934
 11
10.9008114024
 21
10.7247268924
  0
LINE
  5
290
100
AcDbEntity
  8
0
100
AcDbLine
 62
4
  6
CONTINUOUS
 10
11.168799827
 20
10.9835838296
 11
11.2131687687
 21
11.0264409388
  0
LINE
  5
291
100
AcDbEntity
  8
0
100
AcDbLine
 62
4
  6
CONTINUOUS
 10
10.9714831814
 20
10.7244191986
 11
10.9359880266
 21
10.6901335098
  0
LINE
  5
292
100
AcDbEntity
  8
0
100
AcDbLine
 62
4
  6
CONTINUOUS
 10
12.2762816265
 20
10.9619006332
 11
12.1479301961
 21
10.9064940873
  0
LINE
  5
293
100
AcDbEntity
  8
0
100
AcDbLine
 62
4
  6
CONTINUOUS
 10
11.5106325717
 20
10.70234043
 11
11.3852390972
 21
10.6497910217
  0
LINE
  5
294
100
AcDbEntity
  8
0
100
AcDbLine
 62
4
  6
CONTINUOUS
 10
11.3290798722
 20
11.0184024764
 11
11.2847109305
 21
10.9755453673
  0
LINE
  5
295
100
AcDbEntity
  8
0
100
AcDbLine
 62
4
  6
CONTINUOUS
 10
11.066398614
 20
10.7132433802
 11
11.053087931
 21
10.7003862469
  0
LINE
  5
296
100
AcDbEntity
  8
0
100
AcDbLine
 62
4
  6
CONTINUOUS
 10
11.102658012
 20
10.6739814987
 11
11.1115317998
 21
10.68255292
  0
LINE
  5
297
100
AcDbEntity
  8
0
100
AcDbLine
 62
4
  6
CONTINUOUS
 10
11.5222649708
 20
11.0050050444
 11
11.4778960292
 21
10.9621479352
  0
LINE
  5
298
100
AcDbEntity
  8
0
100
AcDbLine
 62
4
  6
CONTINUOUS
 10
11.2198640542
 20
10.7071939266
 11
11.1754951115
 21
10.6643368165
  0
LINE
  5
299
100
AcDbEntity
  8
0
100
AcDbLine
 62
4
  6
CONTINUOUS
 10
11.2239825312
 20
10.6426005614
 11
11.2860990494
 21
10.7026005141
  0
LINE
  5
29A
100
AcDbEntity
  8
0
100
AcDbLine
 62
4
  6
CONTINUOUS
 10
11.5186728795
 20
10.872963933
 11
11.4565563613
 21
10.8129639803
  0
LINE
  5
29B
100
AcDbEntity
  8
0
100
AcDbLine
 62
4
  6
CONTINUOUS
 10
11.381014482
 20
10.6914246957
 11
11.3455193295
 21
10.6571390091
  0
LINE
  5
29C
100
AcDbEntity
  8
0
100
AcDbLine
 62
4
  6
CONTINUOUS
 10
11.6818824823
 20
10.8248980224
 11
11.7173776371
 21
10.8591837112
  0
LINE
  5
29D
100
AcDbEntity
  8
0
100
AcDbLine
 62
4
  6
CONTINUOUS
 10
11.8788721251
 20
10.9894610757
 11
11.8167556069
 21
10.929461123
  0
LINE
  5
29E
100
AcDbEntity
  8
0
100
AcDbLine
 62
4
  6
CONTINUOUS
 10
11.5552632599
 20
10.6425932182
 11
11.5951953068
 21
10.6811646158
  0
LINE
  5
29F
100
AcDbEntity
  8
0
100
AcDbLine
 62
4
  6
CONTINUOUS
 10
11.694547689
 20
10.6742745047
 11
11.6324311708
 21
10.614274552
  0
LINE
  5
2A0
100
AcDbEntity
  8
0
100
AcDbLine
 62
4
  6
CONTINUOUS
 10
12.0113419497
 20
10.9802742622
 11
11.9492254315
 21
10.9202743095
  0
LINE
  5
2A1
100
AcDbEntity
  8
0
100
AcDbLine
 62
4
  6
CONTINUOUS
 10
11.9429286171
 20
10.6570492288
 11
11.8808120989
 21
10.5970492761
  0
LINE
  5
2A2
100
AcDbEntity
  8
0
100
AcDbLine
 62
4
  6
CONTINUOUS
 10
12.3168716955
 20
10.9039647751
 11
12.3612406372
 21
10.9468218843
  0
LINE
  5
2A3
100
AcDbEntity
  8
0
100
AcDbLine
 62
4
  6
CONTINUOUS
 10
12.0588397205
 20
10.6490107665
 11
11.9967232023
 21
10.5890108138
  0
LINE
  5
2A4
100
AcDbEntity
  8
0
100
AcDbLine
 62
4
  6
CONTINUOUS
 10
12.1162008441
 20
10.6358459375
 11
12.0629581146
 21
10.584417407
  0
LINE
  5
2A5
100
AcDbEntity
  8
0
100
AcDbLine
 62
4
  6
CONTINUOUS
 10
12.4860255155
 20
10.9473548451
 11
12.4239089973
 21
10.8873548924
  0
LINE
  5
2A6
100
AcDbEntity
  8
0
100
AcDbLine
 62
7
  6
CONTINUOUS
 10
8.6492848393
 20
7.2111395356
 11
8.9878796094
 21
7.5381969881
  0
LINE
  5
2A7
100
AcDbEntity
  8
0
100
AcDbLine
 62
4
  6
CONTINUOUS
 10
12.178869218
 20
10.5763789447
 11
12.2321119475
 21
10.6278074752
  0
LINE
  5
2A8
100
AcDbEntity
  8
0
100
AcDbLine
 62
4
  6
CONTINUOUS
 10
12.2983468598
 20
10.6232140684
 11
12.2894730711
 21
10.6146426462
  0
LINE
  5
2A9
100
AcDbEntity
  8
0
100
AcDbLine
 62
4
  6
CONTINUOUS
 10
12.3787628093
 20
10.5808899182
 11
12.3698890216
 21
10.5723184969
  0
LINE
  5
2AA
100
AcDbEntity
  8
0
100
AcDbLine
 62
4
  6
CONTINUOUS
 10
11.3240865367
 20
10.8221507938
 11
11.3199681426
 21
10.8867441533
  0
LINE
  5
2AB
100
AcDbEntity
  8
0
100
AcDbLine
 62
7
  6
CONTINUOUS
 10
13.2477632581
 20
9.9322648948
 11
13.2498343251
 21
9.9342279057
  0
LINE
  5
2AC
100
AcDbEntity
  8
0
100
AcDbLine
 62
7
  6
CONTINUOUS
 10
14.8523014918
 20
11.0930020493
 11
12.9432538094
 21
9.24900348
  0
LINE
  5
2AD
100
AcDbEntity
  8
0
100
AcDbLine
 62
7
  6
CONTINUOUS
 10
7.1476985082
 20
9.6509266052
 11
12.9432538094
 21
9.24900348
  0
LINE
  5
2AE
100
AcDbEntity
  8
0
100
AcDbLine
 62
4
  6
CONTINUOUS
 10
11.4845914242
 20
10.6429009144
 11
11.4792841481
 21
10.689203082
  0
LINE
  5
2AF
100
AcDbEntity
  8
0
100
AcDbLine
 62
4
  6
CONTINUOUS
 10
12.1479301961
 20
10.9064940873
 11
12.1438117743
 21
10.9710874487
  0
LINE
  5
2B0
100
AcDbEntity
  8
0
100
AcDbLine
 62
4
  6
CONTINUOUS
 10
10.9359880266
 20
10.6901335098
 11
10.9436729047
 21
10.6804137411
  0
LINE
  5
2B1
100
AcDbEntity
  8
0
100
AcDbLine
 62
7
  6
CONTINUOUS
 10
12.9432538094
 20
9.24900348
 11
12.9432538094
 21
5.5050748254
  0
LINE
  5
2B2
100
AcDbEntity
  8
0
100
AcDbLine
 62
4
  6
CONTINUOUS
 10
12.3698890216
 20
10.5723184969
 11
12.3278977742
 21
10.5660437792
  0
LINE
  5
2B3
100
AcDbEntity
  8
0
100
AcDbLine
 62
4
  6
CONTINUOUS
 10
12.3403381047
 20
10.6294887873
 11
12.2983468598
 21
10.6232140684
  0
LINE
  5
2B4
100
AcDbEntity
  8
0
100
AcDbLine
 62
4
  6
CONTINUOUS
 10
12.1581920751
 20
10.6421206573
 11
12.1162008441
 21
10.6358459375
  0
LINE
  5
2B5
100
AcDbEntity
  8
0
100
AcDbLine
 62
4
  6
CONTINUOUS
 10
10.2361907622
 20
10.757038258
 11
10.2497914988
 21
10.7530327702
  0
LINE
  5
2B6
100
AcDbEntity
  8
0
100
AcDbLine
 62
4
  6
CONTINUOUS
 10
10.3130684542
 20
10.7455822249
 11
10.3266691909
 21
10.7415767371
  0
LINE
  5
2B7
100
AcDbEntity
  8
0
100
AcDbLine
 62
4
  6
CONTINUOUS
 10
10.2261280629
 20
10.7301756449
 11
10.2140062927
 21
10.7356097048
  0
LINE
  5
2B8
100
AcDbEntity
  8
0
100
AcDbLine
 62
4
  6
CONTINUOUS
 10
10.3488536617
 20
10.7630052917
 11
10.3367318902
 21
10.7684393502
  0
LINE
  5
2B9
100
AcDbEntity
  8
0
100
AcDbLine
 62
4
  6
CONTINUOUS
 10
10.4857605465
 20
10.7581041778
 11
10.497882318
 21
10.7526701193
  0
LINE
  5
2BA
100
AcDbEntity
  8
0
100
AcDbLine
 62
4
  6
CONTINUOUS
 10
10.7231021981
 20
10.7416444783
 11
10.7352240802
 21
10.7362104122
  0
LINE
  5
2BB
100
AcDbEntity
  8
0
100
AcDbLine
 62
4
  6
CONTINUOUS
 10
10.9008114024
 20
10.7247268924
 11
10.8886895203
 21
10.7301609585
  0
LINE
  5
2BC
100
AcDbEntity
  8
0
100
AcDbLine
 62
4
  6
CONTINUOUS
 10
11.1092602269
 20
10.6689302213
 11
11.102658012
 21
10.6739814987
  0
LINE
  5
2BD
100
AcDbEntity
  8
0
100
AcDbLine
 62
4
  6
CONTINUOUS
 10
11.6818824823
 20
10.8248980224
 11
11.5890261997
 21
10.8037771658
  0
LINE
  5
2BE
100
AcDbEntity
  8
0
100
AcDbLine
 62
4
  6
CONTINUOUS
 10
12.3612406372
 20
10.9468218843
 11
12.403231882
 21
10.9530966031
  0
LINE
  5
2BF
100
AcDbEntity
  8
0
100
AcDbLine
 62
4
  6
CONTINUOUS
 10
10.4623871655
 20
10.7183844327
 11
10.4413916039
 21
10.7152470677
  0
LINE
  5
2C0
100
AcDbEntity
  8
0
100
AcDbLine
 62
4
  6
CONTINUOUS
 10
10.3133585092
 20
10.7287196051
 11
10.2923629476
 21
10.7255822401
  0
LINE
  5
2C1
100
AcDbEntity
  8
0
100
AcDbLine
 62
4
  6
CONTINUOUS
 10
11.3455193295
 20
10.6571390091
 11
11.3079649914
 21
10.6551499991
  0
LINE
  5
2C2
100
AcDbEntity
  8
0
100
AcDbLine
 62
4
  6
CONTINUOUS
 10
11.053087931
 20
10.7003862469
 11
11.0155335948
 21
10.6983972387
  0
LINE
  5
2C3
100
AcDbEntity
  8
0
100
AcDbLine
 62
4
  6
CONTINUOUS
 10
12.3278977742
 20
10.5660437792
 11
12.2616628584
 21
10.5706371863
  0
LINE
  5
2C4
100
AcDbEntity
  8
0
100
AcDbLine
 62
4
  6
CONTINUOUS
 10
10.5285159106
 20
10.6908313353
 11
10.5229963553
 21
10.6912141178
  0
LINE
  5
2C5
100
AcDbEntity
  8
0
100
AcDbLine
 62
4
  6
CONTINUOUS
 10
11.6501787464
 20
10.6314173946
 11
11.5673850853
 21
10.6371591545
  0
LINE
  5
2C6
100
AcDbEntity
  8
0
100
AcDbLine
 62
4
  6
CONTINUOUS
 10
11.3079649914
 20
10.6551499991
 11
11.2417301068
 21
10.659743404
  0
LINE
  5
2C7
100
AcDbEntity
  8
0
100
AcDbLine
 62
4
  6
CONTINUOUS
 10
11.1754951115
 20
10.6643368165
 11
11.1092602269
 21
10.6689302213
  0
LINE
  5
2C8
100
AcDbEntity
  8
0
100
AcDbLine
 62
4
  6
CONTINUOUS
 10
10.4413916039
 20
10.7152470677
 11
10.3751564981
 21
10.7198404878
  0
LINE
  5
2C9
100
AcDbEntity
  8
0
100
AcDbLine
 62
4
  6
CONTINUOUS
 10
10.2923629476
 20
10.7255822401
 11
10.2261280629
 21
10.7301756449
  0
LINE
  5
2CA
100
AcDbEntity
  8
0
100
AcDbLine
 62
4
  6
CONTINUOUS
 10
10.9436729047
 20
10.6804137411
 11
11.0264665658
 21
10.6746719812
  0
LINE
  5
2CB
100
AcDbEntity
  8
0
100
AcDbLine
 62
4
  6
CONTINUOUS
 10
11.0155335948
 20
10.6983972387
 11
10.9492987101
 21
10.7029906436
  0
LINE
  5
2CC
100
AcDbEntity
  8
0
100
AcDbLine
 62
4
  6
CONTINUOUS
 10
12.4065730221
 20
10.6248953801
 11
12.3403381047
 21
10.6294887873
  0
LINE
  5
2CD
100
AcDbEntity
  8
0
100
AcDbLine
 62
4
  6
CONTINUOUS
 10
12.2078682801
 20
10.6386756008
 11
12.1581920751
 21
10.6421206573
  0
LINE
  5
2CE
100
AcDbEntity
  8
0
100
AcDbLine
 62
4
  6
CONTINUOUS
 10
10.8886895203
 20
10.7301609585
 11
10.8058958592
 21
10.7359027184
  0
LINE
  5
2CF
100
AcDbEntity
  8
0
100
AcDbLine
 62
4
  6
CONTINUOUS
 10
10.3367318902
 20
10.7684393502
 11
10.2704970055
 21
10.773032755
  0
LINE
  5
2D0
100
AcDbEntity
  8
0
100
AcDbLine
 62
4
  6
CONTINUOUS
 10
10.4195254407
 20
10.7626975979
 11
10.4857605465
 21
10.7581041778
  0
LINE
  5
2D1
100
AcDbEntity
  8
0
100
AcDbLine
 62
4
  6
CONTINUOUS
 10
10.6899847558
 20
10.7439411807
 11
10.7231021981
 21
10.7416444783
  0
LINE
  5
2D2
100
AcDbEntity
  8
0
100
AcDbLine
 62
4
  6
CONTINUOUS
 10
10.9714831814
 20
10.7244191986
 11
11.0377180661
 21
10.7198257938
  0
LINE
  5
2D3
100
AcDbEntity
  8
0
100
AcDbLine
 62
4
  6
CONTINUOUS
 10
11.2860990494
 20
10.7026005141
 11
11.352333934
 21
10.6980071092
  0
LINE
  5
2D4
100
AcDbEntity
  8
0
100
AcDbLine
 62
4
  6
CONTINUOUS
 10
11.543750014
 20
10.7000437276
 11
11.5106325717
 21
10.70234043
  0
LINE
  5
2D5
100
AcDbEntity
  8
0
100
AcDbLine
 62
4
  6
CONTINUOUS
 10
10.2497914988
 20
10.7530327702
 11
10.3130684542
 21
10.7455822249
  0
LINE
  5
2D6
100
AcDbEntity
  8
0
100
AcDbLine
 62
4
  6
CONTINUOUS
 10
11.0377180661
 20
10.7198257938
 11
11.066398614
 21
10.7132433802
  0
LINE
  5
2D7
100
AcDbEntity
  8
0
100
AcDbLine
 62
4
  6
CONTINUOUS
 10
11.352333934
 20
10.6980071092
 11
11.381014482
 21
10.6914246957
  0
LINE
  5
2D8
100
AcDbEntity
  8
0
100
AcDbLine
 62
4
  6
CONTINUOUS
 10
11.5673850853
 20
10.6371591545
 11
11.5552632599
 21
10.6425932182
  0
LINE
  5
2D9
100
AcDbEntity
  8
0
100
AcDbLine
 62
4
  6
CONTINUOUS
 10
11.0108974935
 20
10.985347573
 11
10.9866538389
 21
10.9962156968
  0
LINE
  5
2DA
100
AcDbEntity
  8
0
100
AcDbLine
 62
4
  6
CONTINUOUS
 10
11.7214960382
 20
10.7945903513
 11
11.6818824823
 21
10.8248980224
  0
LINE
  5
2DB
100
AcDbEntity
  8
0
100
AcDbLine
 62
4
  6
CONTINUOUS
 10
11.9967232023
 20
10.5890108138
 11
11.9429286171
 21
10.6570492288
  0
LINE
  5
2DC
100
AcDbEntity
  8
0
100
AcDbLine
 62
4
  6
CONTINUOUS
 10
10.2704970055
 20
10.773032755
 11
10.2495014453
 21
10.7698953913
  0
LINE
  5
2DD
100
AcDbEntity
  8
0
100
AcDbLine
 62
4
  6
CONTINUOUS
 10
11.4778960292
 20
10.9621479352
 11
11.435904799
 21
10.9558732163
  0
LINE
  5
2DE
100
AcDbEntity
  8
0
100
AcDbLine
 62
4
  6
CONTINUOUS
 10
11.2847109305
 20
10.9755453673
 11
11.2427197004
 21
10.9692706484
  0
LINE
  5
2DF
100
AcDbEntity
  8
0
100
AcDbLine
 62
4
  6
CONTINUOUS
 10
11.2131687687
 20
11.0264409388
 11
11.2551599998
 21
11.0327156585
  0
LINE
  5
2E0
100
AcDbEntity
  8
0
100
AcDbLine
 62
4
  6
CONTINUOUS
 10
11.0310227806
 20
11.039072806
 11
11.0730140117
 21
11.0453475257
  0
LINE
  5
2E1
100
AcDbEntity
  8
0
100
AcDbLine
 62
4
  6
CONTINUOUS
 10
12.4917290465
 20
10.9071497442
 11
12.5918739887
 21
10.9124537649
  0
LINE
  5
2E2
100
AcDbEntity
  8
0
100
AcDbLine
 62
4
  6
CONTINUOUS
 10
10.6655418938
 20
11.0460453494
 11
10.7656868282
 21
11.0513493697
  0
LINE
  5
2E3
100
AcDbEntity
  8
0
100
AcDbLine
 62
4
  6
CONTINUOUS
 10
11.5227912874
 20
10.8083705725
 11
11.390321449
 21
10.817557387
  0
LINE
  5
2E4
100
AcDbEntity
  8
0
100
AcDbLine
 62
4
  6
CONTINUOUS
 10
12.4239089973
 20
10.8873548924
 11
12.3411153639
 21
10.8930966504
  0
LINE
  5
2E5
100
AcDbEntity
  8
0
100
AcDbLine
 62
4
  6
CONTINUOUS
 10
12.0154603715
 20
10.9156809008
 11
11.8829905469
 21
10.9248677144
  0
LINE
  5
2E6
100
AcDbEntity
  8
0
100
AcDbLine
 62
4
  6
CONTINUOUS
 10
11.8167556069
 20
10.929461123
 11
11.7174032247
 21
10.9363512342
  0
LINE
  5
2E7
100
AcDbEntity
  8
0
100
AcDbLine
 62
4
  6
CONTINUOUS
 10
11.435904799
 20
10.9558732163
 11
11.3696699144
 21
10.9604666211
  0
LINE
  5
2E8
100
AcDbEntity
  8
0
100
AcDbLine
 62
4
  6
CONTINUOUS
 10
11.2427197004
 20
10.9692706484
 11
11.1930434816
 21
10.9727157058
  0
LINE
  5
2E9
100
AcDbEntity
  8
0
100
AcDbLine
 62
4
  6
CONTINUOUS
 10
11.0936911546
 20
10.9796058131
 11
11.0108974935
 21
10.985347573
  0
LINE
  5
2EA
100
AcDbEntity
  8
0
100
AcDbLine
 62
4
  6
CONTINUOUS
 10
10.8839471689
 20
10.9941516079
 11
10.7845948419
 21
11.0010417152
  0
LINE
  5
2EB
100
AcDbEntity
  8
0
100
AcDbLine
 62
4
  6
CONTINUOUS
 10
10.8443336476
 20
11.0244592767
 11
10.9105685323
 21
11.0198658718
  0
LINE
  5
2EC
100
AcDbEntity
  8
0
100
AcDbLine
 62
4
  6
CONTINUOUS
 10
11.7771420304
 20
10.9597687956
 11
11.8433769703
 21
10.955175387
  0
LINE
  5
2ED
100
AcDbEntity
  8
0
100
AcDbLine
 62
4
  6
CONTINUOUS
 10
12.236455745
 20
10.9462889244
 11
12.1481425286
 21
10.9524134668
  0
LINE
  5
2EE
100
AcDbEntity
  8
0
100
AcDbLine
 62
4
  6
CONTINUOUS
 10
11.8788721251
 20
10.9894610757
 11
11.7795197429
 21
10.9963511869
  0
LINE
  5
2EF
100
AcDbEntity
  8
0
100
AcDbLine
 62
4
  6
CONTINUOUS
 10
10.9460636871
 20
11.0541515606
 11
10.8467113601
 21
11.0610416679
  0
LINE
  5
2F0
100
AcDbEntity
  8
0
100
AcDbLine
 62
4
  6
CONTINUOUS
 10
11.0730140117
 20
11.0453475257
 11
11.1558076728
 21
11.0396057658
  0
LINE
  5
2F1
100
AcDbEntity
  8
0
100
AcDbLine
 62
4
  6
CONTINUOUS
 10
11.2551599998
 20
11.0327156585
 11
11.3048362185
 21
11.0292706011
  0
LINE
  5
2F2
100
AcDbEntity
  8
0
100
AcDbLine
 62
4
  6
CONTINUOUS
 10
11.4317864326
 20
11.0204665738
 11
11.4980213172
 21
11.015873169
  0
LINE
  5
2F3
100
AcDbEntity
  8
0
100
AcDbLine
 62
4
  6
CONTINUOUS
 10
12.403231882
 20
10.9530966031
 11
12.4860255155
 21
10.9473548451
  0
LINE
  5
2F4
100
AcDbEntity
  8
0
100
AcDbLine
 62
4
  6
CONTINUOUS
 10
10.7420233913
 20
11.0284922435
 11
10.6655418938
 21
11.0460453494
  0
LINE
  5
2F5
100
AcDbEntity
  8
0
100
AcDbLine
 62
4
  6
CONTINUOUS
 10
12.2894730711
 20
10.6146426462
 11
12.3787628093
 21
10.5808899182
  0
LINE
  5
2F6
100
AcDbEntity
  8
0
100
AcDbLine
 62
4
  6
CONTINUOUS
 10
11.1930434816
 20
10.9727157058
 11
11.168799827
 21
10.9835838296
  0
LINE
  5
2F7
100
AcDbEntity
  8
0
100
AcDbLine
 62
4
  6
CONTINUOUS
 10
12.2616628584
 20
10.5706371863
 11
12.2495410261
 21
10.5760712504
  0
LINE
  5
2F8
100
AcDbEntity
  8
0
100
AcDbLine
 62
4
  6
CONTINUOUS
 10
11.3048362185
 20
11.0292706011
 11
11.3290798722
 21
11.0184024764
  0
LINE
  5
2F9
100
AcDbEntity
  8
0
100
AcDbLine
 62
4
  6
CONTINUOUS
 10
12.2321119475
 20
10.6278074752
 11
12.2078682801
 21
10.6386756008
  0
LINE
  5
2FA
100
AcDbEntity
  8
0
100
AcDbLine
 62
4
  6
CONTINUOUS
 10
11.4980213172
 20
11.015873169
 11
11.5222649708
 21
11.0050050444
  0
LINE
  5
2FB
100
AcDbEntity
  8
0
100
AcDbLine
 62
4
  6
CONTINUOUS
 10
12.4186948576
 20
10.6194613172
 11
12.4065730221
 21
10.6248953801
  0
LINE
  5
2FC
100
AcDbEntity
  8
0
100
AcDbLine
 62
7
  6
CONTINUOUS
 10
9.0567461906
 20
11.4949251746
 11
14.8523014918
 21
11.0930020493
  0
LINE
  5
2FD
100
AcDbEntity
  8
0
100
AcDbLine
 62
4
  6
CONTINUOUS
 10
12.5918739887
 20
10.9124537649
 11
12.5153924834
 21
10.9300068704
  0
LINE
  5
2FE
100
AcDbEntity
  8
0
100
AcDbLine
 62
4
  6
CONTINUOUS
 10
12.3411153639
 20
10.8930966504
 11
12.3168716955
 21
10.9039647751
  0
LINE
  5
2FF
100
AcDbEntity
  8
0
100
AcDbLine
 62
7
  6
CONTINUOUS
 10
12.9432538094
 20
5.5050748254
 11
14.8523014918
 21
7.3490733948
  0
LINE
  5
300
100
AcDbEntity
  8
0
100
AcDbLine
 62
7
  6
CONTINUOUS
 10
14.8523014918
 20
7.3490733948
 11
14.8523014918
 21
11.0930020493
  0
SPLINE
  5
301
100
AcDbEntity
  8
0
100
AcDbSpline
 62
7
  6
CONTINUOUS
 70
0
 71
3
 72
99
 73
95
 74
0
 42
0.0000001
 43
0.0000001
 44
0.0000000001
 40
0.0
 40
0.0
 40
0.0
 40
0.0
 40
0.0039801598
 40
0.0081240664
 40
0.0124358899
 40
0.0169192122
 40
0.0215770584
 40
0.0264117681
 40
0.0314250022
 40
0.0366179483
 40
0.041991301
 40
0.0475453876
 40
0.0532801213
 40
0.0591950832
 40
0.0652895525
 40
0.0715624959
 40
0.078012661
 40
0.0846385037
 40
0.0914383012
 40
0.0984100889
 40
0.1055517228
 40
0.1128608819
 40
0.1203350497
 40
0.127971587
 40
0.1437200819
 40
0.1600824406
 40
0.1770323893
 40
0.1945417761
 40
0.2125807407
 40
0.2311178717
 40
0.2501203492
 40
0.2695540741
 40
0.28938379
 40
0.3095731991
 40
0.3300850732
 40
0.3508813603
 40
0.3719232915
 40
0.3931714864
 40
0.4145860543
 40
0.4361266958
 40
0.4577528029
 40
0.4794235585
 40
0.5010980364
 40
0.5227353019
 40
0.544294511
 40
0.5657350104
 40
0.587016437
 40
0.6080988178
 40
0.628942671
 40
0.6495091093
 40
0.6697599441
 40
0.6896577899
 40
0.7091661712
 40
0.7282496331
 40
0.7468738561
 40
0.7650057771
 40
0.7826137192
 40
0.7996675321
 40
0.8161387412
 40
0.8320007167
 40
0.8396956025
 40
0.8472291316
 40
0.854598592
 40
0.8618014283
 40
0.868835234
 40
0.8756978161
 40
0.8823871259
 40
0.8889013654
 40
0.8952389158
 40
0.9013984168
 40
0.9073787594
 40
0.9131790931
 40
0.9187989048
 40
0.9242379644
 40
0.9294964556
 40
0.934574922
 40
0.9394743795
 40
0.9441963359
 40
0.94874284
 40
0.9531165983
 40
0.957320975
 40
0.9613601716
 40
0.9652392395
 40
0.9689642531
 40
0.9725423948
 40
0.9759820724
 40
0.9792930711
 40
0.9824866009
 40
0.9855754361
 40
0.9885738837
 40
0.9914977854
 40
0.9943643686
 40
0.9971920258
 40
1.0
 40
1.0
 40
1.0
 40
1.0
 10
10.2168270508
 20
10.1754773044
 30
0.0
 10
10.2144701772
 20
10.1732007392
 30
0.0
 10
10.2095524354
 20
10.1686637102
 30
0.0
 10
10.2017445737
 20
10.1620370379
 30
0.0
 10
10.1933633518
 20
10.1554578994
 30
0.0
 10
10.1844133674
 20
10.1489297883
 30
0.0
 10
10.1748989839
 20
10.142455753
 30
0.0
 10
10.1648248633
 20
10.1360389434
 30
0.0
 10
10.1541960442
 20
10.1296824361
 30
0.0
 10
10.1430177999
 20
10.1233895297
 30
0.0
 10
10.1312957753
 20
10.1171632449
 30
0.0
 10
10.1190357975
 20
10.1110067848
 30
0.0
 10
10.1062440313
 20
10.1049231774
 30
0.0
 10
10.0929268924
 20
10.0989154966
 30
0.0
 10
10.0790910675
 20
10.0929868069
 30
0.0
 10
10.0647435351
 20
10.0871400258
 30
0.0
 10
10.0498914968
 20
10.0813782044
 30
0.0
 10
10.0345424585
 20
10.0757041551
 30
0.0
 10
10.0187041426
 20
10.0701208341
 30
0.0
 10
10.0023845508
 20
10.0646310148
 30
0.0
 10
9.9855919149
 20
10.05923749
 30
0.0
 10
9.968334716
 20
10.0539430248
 30
0.0
 10
9.9506216593
 20
10.0487502173
 30
0.0
 10
9.9261572713
 20
10.041895384
 30
0.0
 10
9.8944956766
 20
10.0336144756
 30
0.0
 10
9.8552086309
 20
10.0242228645
 30
0.0
 10
9.8143281996
 20
10.015296806
 30
0.0
 10
9.771937051
 20
10.0068544804
 30
0.0
 10
9.7281207368
 20
9.9989130837
 30
0.0
 10
9.6829677969
 20
9.9914887859
 30
0.0
 10
9.636569487
 20
9.9845967025
 30
0.0
 10
9.5890196102
 20
9.9782508625
 30
0.0
 10
9.5404143171
 20
9.9724641812
 30
0.0
 10
9.4908519093
 20
9.9672484341
 30
0.0
 10
9.4404326395
 20
9.9626142348
 30
0.0
 10
9.3892585069
 20
9.958571008
 30
0.0
 10
9.3374330478
 20
9.9551269735
 30
0.0
 10
9.2850611217
 20
9.9522891335
 30
0.0
 10
9.2322486981
 20
9.9500632575
 30
0.0
 10
9.179102641
 20
9.9484538711
 30
0.0
 10
9.1257304931
 20
9.9474642474
 30
0.0
 10
9.0722402571
 20
9.9470964012
 30
0.0
 10
9.0187401766
 20
9.9473510798
 30
0.0
 10
8.9653385145
 20
9.9482277626
 30
0.0
 10
8.9121433331
 20
9.9497246664
 30
0.0
 10
8.8592622744
 20
9.9518387477
 30
0.0
 10
8.8068023427
 20
9.954565709
 30
0.0
 10
8.7548696876
 20
9.9579000073
 30
0.0
 10
8.7035693875
 20
9.9618348654
 30
0.0
 10
8.653005234
 20
9.9663622818
 30
0.0
 10
8.603279519
 20
9.9714730452
 30
0.0
 10
8.5544928269
 20
9.9771567578
 30
0.0
 10
8.5067438298
 20
9.9834018547
 30
0.0
 10
8.4601290858
 20
9.9901956274
 30
0.0
 10
8.4147428424
 20
9.9975242482
 30
0.0
 10
8.3706768337
 20
10.0053727983
 30
0.0
 10
8.3280201084
 20
10.013725297
 30
0.0
 10
8.28685876
 20
10.0225647253
 30
0.0
 10
8.2472760302
 20
10.0318730861
 30
0.0
 10
8.2153580692
 20
10.0400857578
 30
0.0
 10
8.1906814229
 20
10.0468876244
 30
0.0
 10
8.172804803
 20
10.0520427708
 30
0.0
 10
8.1553808175
 20
10.0573005768
 30
0.0
 10
8.1384182471
 20
10.0626583803
 30
0.0
 10
8.121925671
 20
10.0681135184
 30
0.0
 10
8.1059114001
 20
10.0736631449
 30
0.0
 10
8.0903835318
 20
10.0793045454
 30
0.0
 10
8.0753498809
 20
10.0850347762
 30
0.0
 10
8.0608180361
 20
10.0908510017
 30
0.0
 10
8.0467953132
 20
10.0967502581
 30
0.0
 10
8.0332887622
 20
10.1027295461
 30
0.0
 10
8.0203051937
 20
10.1087859149
 30
0.0
 10
8.0078510987
 20
10.1149162188
 30
0.0
 10
7.9959327613
 20
10.1211174915
 30
0.0
 10
7.9845561142
 20
10.1273865205
 30
0.0
 10
7.9737268743
 20
10.1337202546
 30
0.0
 10
7.963450437
 20
10.1401155126
 30
0.0
 10
7.9537319116
 20
10.1465691156
 30
0.0
 10
7.9445761738
 20
10.153077966
 30
0.0
 10
7.9359877124
 20
10.1596387875
 30
0.0
 10
7.9279708784
 20
10.1662485492
 30
0.0
 10
7.9205295864
 20
10.1729039832
 30
0.0
 10
7.9136676305
 20
10.1796020585
 30
0.0
 10
7.907388462
 20
10.1863396331
 30
0.0
 10
7.9016953108
 20
10.1931136249
 30
0.0
 10
7.8965912959
 20
10.1999210428
 30
0.0
 10
7.892079156
 20
10.2067587305
 30
0.0
 10
7.8881617613
 20
10.2136237109
 30
0.0
 10
7.8848415143
 20
10.2205126861
 30
0.0
 10
7.8821209633
 20
10.2274224018
 30
0.0
 10
7.8800022541
 20
10.2343491794
 30
0.0
 10
7.8784873025
 20
10.241289341
 30
0.0
 10
7.8775777365
 20
10.24823802
 30
0.0
 10
7.877375249
 20
10.2528802789
 30
0.0
 10
7.8773752494
 20
10.2551920575
 30
0.0
  0
SPLINE
  5
302
100
AcDbEntity
  8
0
100
AcDbSpline
 62
7
  6
CONTINUOUS
 70
0
 71
3
 72
99
 73
95
 74
0
 42
0.0000001
 43
0.0000001
 44
0.0000000001
 40
0.0
 40
0.0
 40
0.0
 40
0.0
 40
0.0039801598
 40
0.0081240664
 40
0.0124358899
 40
0.0169192122
 40
0.0215770584
 40
0.0264117681
 40
0.0314250022
 40
0.0366179483
 40
0.041991301
 40
0.0475453876
 40
0.0532801213
 40
0.0591950832
 40
0.0652895525
 40
0.0715624959
 40
0.078012661
 40
0.0846385037
 40
0.0914383012
 40
0.0984100889
 40
0.1055517228
 40
0.1128608819
 40
0.1203350497
 40
0.127971587
 40
0.1437200819
 40
0.1600824406
 40
0.1770323893
 40
0.1945417761
 40
0.2125807407
 40
0.2311178717
 40
0.2501203492
 40
0.2695540741
 40
0.28938379
 40
0.3095731991
 40
0.3300850732
 40
0.3508813603
 40
0.3719232915
 40
0.3931714864
 40
0.4145860543
 40
0.4361266958
 40
0.4577528029
 40
0.4794235585
 40
0.5010980364
 40
0.5227353019
 40
0.544294511
 40
0.5657350104
 40
0.587016437
 40
0.6080988178
 40
0.628942671
 40
0.6495091093
 40
0.6697599441
 40
0.6896577899
 40
0.7091661712
 40
0.7282496331
 40
0.7468738561
 40
0.7650057771
 40
0.7826137192
 40
0.7996675321
 40
0.8161387412
 40
0.8320007167
 40
0.8396956025
 40
0.8472291316
 40
0.854598592
 40
0.8618014283
 40
0.868835234
 40
0.8756978161
 40
0.8823871259
 40
0.8889013654
 40
0.8952389158
 40
0.9013984168
 40
0.9073787594
 40
0.9131790931
 40
0.9187989048
 40
0.9242379644
 40
0.9294964556
 40
0.934574922
 40
0.9394743795
 40
0.9441963359
 40
0.94874284
 40
0.9531165983
 40
0.957320975
 40
0.9613601716
 40
0.9652392395
 40
0.9689642531
 40
0.9725423948
 40
0.9759820724
 40
0.9792930711
 40
0.9824866009
 40
0.9855754361
 40
0.9885738837
 40
0.9914977854
 40
0.9943643686
 40
0.9971920258
 40
1.0
 40
1.0
 40
1.0
 40
1.0
 10
13.5975676431
 20
9.941022148
 30
0.0
 10
13.5952107696
 20
9.9387455828
 30
0.0
 10
13.5902930277
 20
9.9342085539
 30
0.0
 10
13.582485166
 20
9.9275818815
 30
0.0
 10
13.5741039441
 20
9.921002743
 30
0.0
 10
13.5651539597
 20
9.9144746319
 30
0.0
 10
13.5556395762
 20
9.9080005966
 30
0.0
 10
13.5455654557
 20
9.901583787
 30
0.0
 10
13.5349366365
 20
9.8952272797
 30
0.0
 10
13.5237583922
 20
9.8889343733
 30
0.0
 10
13.5120363677
 20
9.8827080885
 30
0.0
 10
13.4997763898
 20
9.8765516284
 30
0.0
 10
13.4869846236
 20
9.870468021
 30
0.0
 10
13.4736674847
 20
9.8644603402
 30
0.0
 10
13.4598316598
 20
9.8585316505
 30
0.0
 10
13.4454841274
 20
9.8526848694
 30
0.0
 10
13.4306320891
 20
9.846923048
 30
0.0
 10
13.4152830508
 20
9.8412489987
 30
0.0
 10
13.399444735
 20
9.8356656777
 30
0.0
 10
13.3831251431
 20
9.8301758584
 30
0.0
 10
13.3663325072
 20
9.8247823336
 30
0.0
 10
13.3490753083
 20
9.8194878684
 30
0.0
 10
13.3313622517
 20
9.8142950609
 30
0.0
 10
13.3068978636
 20
9.8074402276
 30
0.0
 10
13.2752362689
 20
9.7991593192
 30
0.0
 10
13.2359492232
 20
9.7897677081
 30
0.0
 10
13.1950687919
 20
9.7808416496
 30
0.0
 10
13.1526776433
 20
9.772399324
 30
0.0
 10
13.1088613291
 20
9.7644579273
 30
0.0
 10
13.0637083892
 20
9.7570336295
 30
0.0
 10
13.0173100793
 20
9.7501415461
 30
0.0
 10
12.9697602026
 20
9.7437957061
 30
0.0
 10
12.9211549094
 20
9.7380090248
 30
0.0
 10
12.8715925016
 20
9.7327932777
 30
0.0
 10
12.8211732318
 20
9.7281590784
 30
0.0
 10
12.7699990993
 20
9.7241158516
 30
0.0
 10
12.7181736401
 20
9.7206718171
 30
0.0
 10
12.665801714
 20
9.7178339771
 30
0.0
 10
12.6129892904
 20
9.7156081011
 30
0.0
 10
12.5598432333
 20
9.7139987147
 30
0.0
 10
12.5064710854
 20
9.713009091
 30
0.0
 10
12.4529808494
 20
9.7126412448
 30
0.0
 10
12.3994807689
 20
9.7128959234
 30
0.0
 10
12.3460791069
 20
9.7137726062
 30
0.0
 10
12.2928839254
 20
9.71526951
 30
0.0
 10
12.2400028667
 20
9.7173835913
 30
0.0
 10
12.1875429351
 20
9.7201105526
 30
0.0
 10
12.1356102799
 20
9.7234448509
 30
0.0
 10
12.0843099798
 20
9.727379709
 30
0.0
 10
12.0337458263
 20
9.7319071254
 30
0.0
 10
11.9840201114
 20
9.7370178888
 30
0.0
 10
11.9352334192
 20
9.7427016014
 30
0.0
 10
11.8874844221
 20
9.7489466983
 30
0.0
 10
11.8408696781
 20
9.7557404711
 30
0.0
 10
11.7954834347
 20
9.7630690918
 30
0.0
 10
11.7514174261
 20
9.7709176419
 30
0.0
 10
11.7087607007
 20
9.7792701406
 30
0.0
 10
11.6675993523
 20
9.7881095689
 30
0.0
 10
11.6280166225
 20
9.7974179297
 30
0.0
 10
11.5960986615
 20
9.8056306014
 30
0.0
 10
11.5714220152
 20
9.812432468
 30
0.0
 10
11.5535453953
 20
9.8175876144
 30
0.0
 10
11.5361214099
 20
9.8228454204
 30
0.0
 10
11.5191588394
 20
9.8282032239
 30
0.0
 10
11.5026662633
 20
9.833658362
 30
0.0
 10
11.4866519925
 20
9.8392079885
 30
0.0
 10
11.4711241241
 20
9.844849389
 30
0.0
 10
11.4560904733
 20
9.8505796199
 30
0.0
 10
11.4415586285
 20
9.8563958453
 30
0.0
 10
11.4275359055
 20
9.8622951017
 30
0.0
 10
11.4140293546
 20
9.8682743897
 30
0.0
 10
11.4010457861
 20
9.8743307585
 30
0.0
 10
11.388591691
 20
9.8804610624
 30
0.0
 10
11.3766733536
 20
9.8866623351
 30
0.0
 10
11.3652967065
 20
9.8929313641
 30
0.0
 10
11.3544674666
 20
9.8992650982
 30
0.0
 10
11.3441910294
 20
9.9056603562
 30
0.0
 10
11.3344725039
 20
9.9121139592
 30
0.0
 10
11.3253167661
 20
9.9186228096
 30
0.0
 10
11.3167283047
 20
9.9251836311
 30
0.0
 10
11.3087114708
 20
9.9317933928
 30
0.0
 10
11.3012701787
 20
9.9384488268
 30
0.0
 10
11.2944082228
 20
9.9451469021
 30
0.0
 10
11.2881290543
 20
9.9518844768
 30
0.0
 10
11.2824359031
 20
9.9586584685
 30
0.0
 10
11.2773318883
 20
9.9654658864
 30
0.0
 10
11.2728197484
 20
9.9723035741
 30
0.0
 10
11.2689023536
 20
9.9791685545
 30
0.0
 10
11.2655821066
 20
9.9860575297
 30
0.0
 10
11.2628615556
 20
9.9929672454
 30
0.0
 10
11.2607428464
 20
9.999894023
 30
0.0
 10
11.2592278948
 20
10.0068341846
 30
0.0
 10
11.2583183288
 20
10.0137828636
 30
0.0
 10
11.2581158414
 20
10.0184251225
 30
0.0
 10
11.2581158417
 20
10.0207369011
 30
0.0
  0
SPLINE
  5
303
100
AcDbEntity
  8
0
100
AcDbSpline
 62
7
  6
CONTINUOUS
 70
0
 71
3
 72
52
 73
48
 74
0
 42
0.0000001
 43
0.0000001
 44
0.0000000001
 40
0.0
 40
0.0
 40
0.0
 40
0.0
 40
0.0417975951
 40
0.0840616288
 40
0.1266599
 40
0.1694646819
 40
0.2123442235
 40
0.2551675716
 40
0.2978037564
 40
0.3401225587
 40
0.3819950468
 40
0.4232940448
 40
0.4638946794
 40
0.5036749394
 40
0.5425162168
 40
0.5803038545
 40
0.6169277287
 40
0.6522828762
 40
0.6862702207
 40
0.7187973048
 40
0.7497791232
 40
0.7646666939
 40
0.7791400459
 40
0.7931910474
 40
0.8068124878
 40
0.8199977024
 40
0.8327409898
 40
0.8450375569
 40
0.8568834717
 40
0.8682761438
 40
0.8792139942
 40
0.8896969854
 40
0.8997266536
 40
0.9093062033
 40
0.9184411394
 40
0.9271391328
 40
0.9354107775
 40
0.9432698769
 40
0.9507338665
 40
0.9578247066
 40
0.9645691138
 40
0.9709994856
 40
0.9771542525
 40
0.9830781055
 40
0.9888220386
 40
0.9944424568
 40
1.0
 40
1.0
 40
1.0
 40
1.0
 10
9.3212660386
 20
11.2504317424
 30
0.0
 10
9.3276508953
 20
11.2499889511
 30
0.0
 10
9.3404991524
 20
11.2492005113
 30
0.0
 10
9.3598740393
 20
11.2483106323
 30
0.0
 10
9.379414343
 20
11.2477088122
 30
0.0
 10
9.399055661
 20
11.247396964
 30
0.0
 10
9.4187339083
 20
11.2473761667
 30
0.0
 10
9.438384493
 20
11.2476464749
 30
0.0
 10
9.4579430539
 20
11.2482069961
 30
0.0
 10
9.4773455017
 20
11.2490558756
 30
0.0
 10
9.4965282647
 20
11.2501903097
 30
0.0
 10
9.515428496
 20
11.2516065558
 30
0.0
 10
9.5339842788
 20
11.2532999439
 30
0.0
 10
9.5521348392
 20
11.2552648731
 30
0.0
 10
9.569820748
 20
11.2574948447
 30
0.0
 10
9.5869841121
 20
11.2599824855
 30
0.0
 10
9.6035687706
 20
11.2627195681
 30
0.0
 10
9.6195204751
 20
11.2656970451
 30
0.0
 10
9.6347871422
 20
11.2689050461
 30
0.0
 10
9.6493188339
 20
11.2723329641
 30
0.0
 10
9.6609259041
 20
11.27540268
 30
0.0
 10
9.6698031354
 20
11.2779670957
 30
0.0
 10
9.6761597529
 20
11.2799126342
 30
0.0
 10
9.6822985363
 20
11.2819044214
 30
0.0
 10
9.6882144947
 20
11.2839407617
 30
0.0
 10
9.6939027898
 20
11.2860200404
 30
0.0
 10
9.6993587886
 20
11.2881405353
 30
0.0
 10
9.7045780598
 20
11.2903004776
 30
0.0
 10
9.7095563396
 20
11.2924981784
 30
0.0
 10
9.7142896171
 20
11.2947317559
 30
0.0
 10
9.718774041
 20
11.2969994682
 30
0.0
 10
9.7230059978
 20
11.2992994584
 30
0.0
 10
9.7269821012
 20
11.3016298455
 30
0.0
 10
9.7306991218
 20
11.3039888614
 30
0.0
 10
9.7341541427
 20
11.306374548
 30
0.0
 10
9.7373443684
 20
11.3087851449
 30
0.0
 10
9.740267271
 20
11.3112187943
 30
0.0
 10
9.742920544
 20
11.3136736657
 30
0.0
 10
9.7453019527
 20
11.3161480912
 30
0.0
 10
9.7474095991
 20
11.3186402446
 30
0.0
 10
9.7492415175
 20
11.3211485338
 30
0.0
 10
9.750795936
 20
11.3236712332
 30
0.0
 10
9.7520711451
 20
11.3262065886
 30
0.0
 10
9.7530652876
 20
11.3287527211
 30
0.0
 10
9.7537769082
 20
11.3313074924
 30
0.0
 10
9.7542044649
 20
11.3338679965
 30
0.0
 10
9.7542997056
 20
11.3355810866
 30
0.0
 10
9.7542996982
 20
11.3364320768
 30
0.0
  0
SPLINE
  5
304
100
AcDbEntity
  8
0
100
AcDbSpline
 62
7
  6
CONTINUOUS
 70
0
 71
3
 72
52
 73
48
 74
0
 42
0.0000001
 43
0.0000001
 44
0.0000000001
 40
0.0
 40
0.0
 40
0.0
 40
0.0
 40
0.0417975951
 40
0.0840616288
 40
0.1266599
 40
0.1694646819
 40
0.2123442235
 40
0.2551675716
 40
0.2978037564
 40
0.3401225587
 40
0.3819950468
 40
0.4232940448
 40
0.4638946794
 40
0.5036749394
 40
0.5425162168
 40
0.5803038545
 40
0.6169277287
 40
0.6522828762
 40
0.6862702207
 40
0.7187973048
 40
0.7497791232
 40
0.7646666939
 40
0.7791400459
 40
0.7931910474
 40
0.8068124878
 40
0.8199977024
 40
0.8327409898
 40
0.8450375569
 40
0.8568834717
 40
0.8682761438
 40
0.8792139942
 40
0.8896969854
 40
0.8997266536
 40
0.9093062033
 40
0.9184411394
 40
0.9271391328
 40
0.9354107775
 40
0.9432698769
 40
0.9507338665
 40
0.9578247066
 40
0.9645691138
 40
0.9709994856
 40
0.9771542525
 40
0.9830781055
 40
0.9888220386
 40
0.9944424568
 40
1.0
 40
1.0
 40
1.0
 40
1.0
 10
14.1508954562
 20
10.9154958047
 30
0.0
 10
14.1572803129
 20
10.9150530134
 30
0.0
 10
14.17012857
 20
10.9142645736
 30
0.0
 10
14.1895034569
 20
10.9133746946
 30
0.0
 10
14.2090437606
 20
10.9127728745
 30
0.0
 10
14.2286850786
 20
10.9124610263
 30
0.0
 10
14.2483633259
 20
10.912440229
 30
0.0
 10
14.2680139106
 20
10.9127105372
 30
0.0
 10
14.2875724716
 20
10.9132710584
 30
0.0
 10
14.3069749193
 20
10.9141199379
 30
0.0
 10
14.3261576824
 20
10.9152543719
 30
0.0
 10
14.3450579136
 20
10.916670618
 30
0.0
 10
14.3636136964
 20
10.9183640061
 30
0.0
 10
14.3817642568
 20
10.9203289354
 30
0.0
 10
14.3994501656
 20
10.922558907
 30
0.0
 10
14.4166135297
 20
10.9250465478
 30
0.0
 10
14.4331981883
 20
10.9277836304
 30
0.0
 10
14.4491498927
 20
10.9307611073
 30
0.0
 10
14.4644165598
 20
10.9339691084
 30
0.0
 10
14.4789482515
 20
10.9373970264
 30
0.0
 10
14.4905553217
 20
10.9404667423
 30
0.0
 10
14.499432553
 20
10.943031158
 30
0.0
 10
14.5057891705
 20
10.9449766965
 30
0.0
 10
14.5119279539
 20
10.9469684836
 30
0.0
 10
14.5178439123
 20
10.949004824
 30
0.0
 10
14.5235322074
 20
10.9510841027
 30
0.0
 10
14.5289882062
 20
10.9532045976
 30
0.0
 10
14.5342074774
 20
10.9553645399
 30
0.0
 10
14.5391857572
 20
10.9575622407
 30
0.0
 10
14.5439190347
 20
10.9597958182
 30
0.0
 10
14.5484034586
 20
10.9620635305
 30
0.0
 10
14.5526354154
 20
10.9643635207
 30
0.0
 10
14.5566115188
 20
10.9666939078
 30
0.0
 10
14.5603285394
 20
10.9690529237
 30
0.0
 10
14.5637835603
 20
10.9714386103
 30
0.0
 10
14.566973786
 20
10.9738492072
 30
0.0
 10
14.5698966886
 20
10.9762828566
 30
0.0
 10
14.5725499617
 20
10.978737728
 30
0.0
 10
14.5749313703
 20
10.9812121535
 30
0.0
 10
14.5770390167
 20
10.9837043069
 30
0.0
 10
14.5788709351
 20
10.9862125961
 30
0.0
 10
14.5804253537
 20
10.9887352955
 30
0.0
 10
14.5817005628
 20
10.9912706509
 30
0.0
 10
14.5826947052
 20
10.9938167834
 30
0.0
 10
14.5834063258
 20
10.9963715547
 30
0.0
 10
14.5838338825
 20
10.9989320588
 30
0.0
 10
14.5839291232
 20
11.0006451489
 30
0.0
 10
14.5839291158
 20
11.0014961391
 30
0.0
  0
SPLINE
  5
305
100
AcDbEntity
  8
0
100
AcDbSpline
 62
7
  6
CONTINUOUS
 70
0
 71
3
 72
52
 73
48
 74
0
 42
0.0000001
 43
0.0000001
 44
0.0000000001
 40
0.0
 40
0.0
 40
0.0
 40
0.0
 40
0.0417975951
 40
0.0840616288
 40
0.1266599
 40
0.1694646819
 40
0.2123442235
 40
0.2551675716
 40
0.2978037564
 40
0.3401225587
 40
0.3819950468
 40
0.4232940448
 40
0.4638946794
 40
0.5036749394
 40
0.5425162168
 40
0.5803038545
 40
0.6169277287
 40
0.6522828762
 40
0.6862702207
 40
0.7187973048
 40
0.7497791232
 40
0.7646666939
 40
0.7791400459
 40
0.7931910474
 40
0.8068124878
 40
0.8199977024
 40
0.8327409898
 40
0.8450375569
 40
0.8568834717
 40
0.8682761438
 40
0.8792139942
 40
0.8896969854
 40
0.8997266536
 40
0.9093062033
 40
0.9184411394
 40
0.9271391328
 40
0.9354107775
 40
0.9432698769
 40
0.9507338665
 40
0.9578247066
 40
0.9645691138
 40
0.9709994856
 40
0.9771542525
 40
0.9830781055
 40
0.9888220386
 40
0.9944424568
 40
1.0
 40
1.0
 40
1.0
 40
1.0
 10
13.5685530853
 20
10.3529962356
 30
0.0
 10
13.574937942
 20
10.3525534443
 30
0.0
 10
13.5877861992
 20
10.3517650045
 30
0.0
 10
13.607161086
 20
10.3508751255
 30
0.0
 10
13.6267013897
 20
10.3502733054
 30
0.0
 10
13.6463427077
 20
10.3499614572
 30
0.0
 10
13.666020955
 20
10.3499406599
 30
0.0
 10
13.6856715397
 20
10.3502109681
 30
0.0
 10
13.7052301007
 20
10.3507714893
 30
0.0
 10
13.7246325484
 20
10.3516203688
 30
0.0
 10
13.7438153115
 20
10.3527548028
 30
0.0
 10
13.7627155427
 20
10.3541710489
 30
0.0
 10
13.7812713255
 20
10.355864437
 30
0.0
 10
13.799421886
 20
10.3578293663
 30
0.0
 10
13.8171077947
 20
10.3600593379
 30
0.0
 10
13.8342711588
 20
10.3625469787
 30
0.0
 10
13.8508558174
 20
10.3652840613
 30
0.0
 10
13.8668075218
 20
10.3682615382
 30
0.0
 10
13.8820741889
 20
10.3714695393
 30
0.0
 10
13.8966058806
 20
10.3748974573
 30
0.0
 10
13.9082129509
 20
10.3779671731
 30
0.0
 10
13.9170901821
 20
10.3805315889
 30
0.0
 10
13.9234467996
 20
10.3824771274
 30
0.0
 10
13.929585583
 20
10.3844689145
 30
0.0
 10
13.9355015414
 20
10.3865052549
 30
0.0
 10
13.9411898365
 20
10.3885845336
 30
0.0
 10
13.9466458353
 20
10.3907050285
 30
0.0
 10
13.9518651065
 20
10.3928649708
 30
0.0
 10
13.9568433863
 20
10.3950626716
 30
0.0
 10
13.9615766639
 20
10.3972962491
 30
0.0
 10
13.9660610877
 20
10.3995639614
 30
0.0
 10
13.9702930445
 20
10.4018639516
 30
0.0
 10
13.9742691479
 20
10.4041943387
 30
0.0
 10
13.9779861685
 20
10.4065533545
 30
0.0
 10
13.9814411894
 20
10.4089390412
 30
0.0
 10
13.9846314151
 20
10.4113496381
 30
0.0
 10
13.9875543177
 20
10.4137832875
 30
0.0
 10
13.9902075908
 20
10.4162381589
 30
0.0
 10
13.9925889995
 20
10.4187125844
 30
0.0
 10
13.9946966458
 20
10.4212047378
 30
0.0
 10
13.9965285642
 20
10.423713027
 30
0.0
 10
13.9980829828
 20
10.4262357264
 30
0.0
 10
13.9993581919
 20
10.4287710818
 30
0.0
 10
14.0003523343
 20
10.4313172143
 30
0.0
 10
14.0010639549
 20
10.4338719856
 30
0.0
 10
14.0014915116
 20
10.4364324897
 30
0.0
 10
14.0015867523
 20
10.4381455798
 30
0.0
 10
14.001586745
 20
10.43899657
 30
0.0
  0
SPLINE
  5
306
100
AcDbEntity
  8
0
100
AcDbSpline
 62
7
  6
CONTINUOUS
 70
0
 71
3
 72
52
 73
48
 74
0
 42
0.0000001
 43
0.0000001
 44
0.0000000001
 40
0.0
 40
0.0
 40
0.0
 40
0.0
 40
0.0417975951
 40
0.0840616288
 40
0.1266599
 40
0.1694646819
 40
0.2123442235
 40
0.2551675716
 40
0.2978037564
 40
0.3401225587
 40
0.3819950468
 40
0.4232940448
 40
0.4638946794
 40
0.5036749394
 40
0.5425162168
 40
0.5803038545
 40
0.6169277287
 40
0.6522828762
 40
0.6862702207
 40
0.7187973048
 40
0.7497791232
 40
0.7646666939
 40
0.7791400459
 40
0.7931910474
 40
0.8068124878
 40
0.8199977024
 40
0.8327409898
 40
0.8450375569
 40
0.8568834717
 40
0.8682761438
 40
0.8792139942
 40
0.8896969854
 40
0.8997266536
 40
0.9093062033
 40
0.9184411394
 40
0.9271391328
 40
0.9354107775
 40
0.9432698769
 40
0.9507338665
 40
0.9578247066
 40
0.9645691138
 40
0.9709994856
 40
0.9771542525
 40
0.9830781055
 40
0.9888220386
 40
0.9944424568
 40
1.0
 40
1.0
 40
1.0
 40
1.0
 10
8.7389236677
 20
10.6879321733
 30
0.0
 10
8.7453085244
 20
10.687489382
 30
0.0
 10
8.7581567815
 20
10.6867009422
 30
0.0
 10
8.7775316684
 20
10.6858110632
 30
0.0
 10
8.7970719721
 20
10.6852092431
 30
0.0
 10
8.8167132901
 20
10.6848973949
 30
0.0
 10
8.8363915374
 20
10.6848765976
 30
0.0
 10
8.8560421221
 20
10.6851469058
 30
0.0
 10
8.8756006831
 20
10.685707427
 30
0.0
 10
8.8950031308
 20
10.6865563065
 30
0.0
 10
8.9141858939
 20
10.6876907405
 30
0.0
 10
8.9330861251
 20
10.6891069866
 30
0.0
 10
8.9516419079
 20
10.6908003747
 30
0.0
 10
8.9697924683
 20
10.692765304
 30
0.0
 10
8.9874783771
 20
10.6949952756
 30
0.0
 10
9.0046417412
 20
10.6974829164
 30
0.0
 10
9.0212263998
 20
10.700219999
 30
0.0
 10
9.0371781042
 20
10.7031974759
 30
0.0
 10
9.0524447713
 20
10.706405477
 30
0.0
 10
9.066976463
 20
10.709833395
 30
0.0
 10
9.0785835332
 20
10.7129031108
 30
0.0
 10
9.0874607645
 20
10.7154675266
 30
0.0
 10
9.093817382
 20
10.7174130651
 30
0.0
 10
9.0999561654
 20
10.7194048522
 30
0.0
 10
9.1058721238
 20
10.7214411926
 30
0.0
 10
9.1115604189
 20
10.7235204713
 30
0.0
 10
9.1170164177
 20
10.7256409662
 30
0.0
 10
9.1222356889
 20
10.7278009085
 30
0.0
 10
9.1272139687
 20
10.7299986093
 30
0.0
 10
9.1319472462
 20
10.7322321868
 30
0.0
 10
9.1364316701
 20
10.7344998991
 30
0.0
 10
9.1406636269
 20
10.7367998893
 30
0.0
 10
9.1446397303
 20
10.7391302764
 30
0.0
 10
9.1483567509
 20
10.7414892923
 30
0.0
 10
9.1518117718
 20
10.7438749789
 30
0.0
 10
9.1550019975
 20
10.7462855758
 30
0.0
 10
9.1579249001
 20
10.7487192252
 30
0.0
 10
9.1605781732
 20
10.7511740966
 30
0.0
 10
9.1629595818
 20
10.7536485221
 30
0.0
 10
9.1650672282
 20
10.7561406755
 30
0.0
 10
9.1668991466
 20
10.7586489647
 30
0.0
 10
9.1684535652
 20
10.7611716641
 30
0.0
 10
9.1697287743
 20
10.7637070195
 30
0.0
 10
9.1707229167
 20
10.766253152
 30
0.0
 10
9.1714345373
 20
10.7688079233
 30
0.0
 10
9.171862094
 20
10.7713684274
 30
0.0
 10
9.1719573347
 20
10.7730815175
 30
0.0
 10
9.1719573273
 20
10.7739325077
 30
0.0
  0
SPLINE
  5
307
100
AcDbEntity
  8
0
100
AcDbSpline
 62
7
  6
CONTINUOUS
 70
0
 71
3
 72
28
 73
24
 74
0
 42
0.0000001
 43
0.0000001
 44
0.0000000001
 40
0.0
 40
0.0
 40
0.0
 40
0.0
 40
0.0966661589
 40
0.1858878387
 40
0.268455441
 40
0.3452272004
 40
0.4169804886
 40
0.4843689896
 40
0.5166020466
 40
0.5479362175
 40
0.6080959522
 40
0.6652096282
 40
0.6927202543
 40
0.7195738691
 40
0.7714121601
 40
0.8209446195
 40
0.8449110203
 40
0.8683735883
 40
0.8913559252
 40
0.913882589
 40
0.9359811816
 40
0.9576811423
 40
1.0
 40
1.0
 40
1.0
 40
1.0
 10
11.33189377
 20
7.2286594459
 30
0.0
 10
11.3338858495
 20
7.2248524065
 30
0.0
 10
11.3380198175
 20
7.2176850971
 30
0.0
 10
11.3448116535
 20
7.2078594369
 30
0.0
 10
11.3517885673
 20
7.1992787926
 30
0.0
 10
11.358851484
 20
7.1918077941
 30
0.0
 10
11.3659355187
 20
7.1853213815
 30
0.0
 10
11.371905872
 20
7.1805797656
 30
0.0
 10
11.3766492255
 20
7.1772041121
 30
0.0
 10
11.3812374798
 20
7.1741704113
 30
0.0
 10
11.3869306859
 20
7.1708099734
 30
0.0
 10
11.3926904851
 20
7.1679267497
 30
0.0
 10
11.3972349224
 20
7.1659492308
 30
0.0
 10
11.4016287261
 20
7.1642209872
 30
0.0
 10
11.4070429258
 20
7.162423018
 30
0.0
 10
11.4124542641
 20
7.1610724001
 30
0.0
 10
11.4166930752
 20
7.1602871834
 30
0.0
 10
11.4197925285
 20
7.1598459956
 30
0.0
 10
11.4228445667
 20
7.1595460488
 30
0.0
 10
11.4258465465
 20
7.1593879666
 30
0.0
 10
11.4287958983
 20
7.1593721877
 30
0.0
 10
11.4326209636
 20
7.1595404787
 30
0.0
 10
11.435452999
 20
7.1598858289
 30
0.0
 10
11.4373038614
 20
7.1602214176
 30
0.0
  0
SPLINE
  5
308
100
AcDbEntity
  8
0
100
AcDbSpline
 62
7
  6
CONTINUOUS
 70
0
 71
3
 72
46
 73
42
 74
0
 42
0.0000001
 43
0.0000001
 44
0.0000000001
 40
0.0
 40
0.0
 40
0.0
 40
0.0
 40
0.0446341856
 40
0.0920368771
 40
0.1419548251
 40
0.1939731471
 40
0.2475025454
 40
0.3017973534
 40
0.3560149647
 40
0.4093102452
 40
0.4609333075
 40
0.5102985098
 40
0.5570107891
 40
0.6008510763
 40
0.6417407375
 40
0.6797006251
 40
0.7148150652
 40
0.7472045913
 40
0.7770063331
 40
0.804362091
 40
0.8294115069
 40
0.8522867149
 40
0.8731130103
 40
0.8920055854
 40
0.9090740654
 40
0.9244206091
 40
0.9381467106
 40
0.9444341573
 40
0.9503554325
 40
0.9559247792
 40
0.9611568554
 40
0.9660681535
 40
0.9706774864
 40
0.9750061994
 40
0.979078072
 40
0.9829208259
 40
0.9865669101
 40
0.990053735
 40
0.9934233322
 40
0.99672213
 40
1.0
 40
1.0
 40
1.0
 40
1.0
 10
10.8208066746
 20
7.3517430406
 30
0.0
 10
10.8214793985
 20
7.3546267994
 30
0.0
 10
10.8229824862
 20
7.3605466501
 30
0.0
 10
10.8256280578
 20
7.3695871211
 30
0.0
 10
10.8287381469
 20
7.3789960185
 30
0.0
 10
10.8322987285
 20
7.3886780033
 30
0.0
 10
10.8362739759
 20
7.3985110777
 30
0.0
 10
10.8406048438
 20
7.4083522671
 30
0.0
 10
10.8452120008
 20
7.4180498173
 30
0.0
 10
10.8500033676
 20
7.4274590152
 30
0.0
 10
10.8548845468
 20
7.4364571378
 30
0.0
 10
10.8597686829
 20
7.4449532244
 30
0.0
 10
10.864583262
 20
7.4528906161
 30
0.0
 10
10.8692729192
 20
7.4602434182
 30
0.0
 10
10.873798823
 20
7.4670095562
 30
0.0
 10
10.8781361309
 20
7.4732032248
 30
0.0
 10
10.8822708237
 20
7.4788483503
 30
0.0
 10
10.8861967225
 20
7.4839736417
 30
0.0
 10
10.8899130638
 20
7.4886092221
 30
0.0
 10
10.8934224757
 20
7.4927846952
 30
0.0
 10
10.8967297388
 20
7.4965278426
 30
0.0
 10
10.899841172
 20
7.4998638236
 30
0.0
 10
10.9027630755
 20
7.5028156352
 30
0.0
 10
10.9055027242
 20
7.5054029401
 30
0.0
 10
10.9080665051
 20
7.5076436101
 30
0.0
 10
10.9104613379
 20
7.5095521359
 30
0.0
 10
10.912373299
 20
7.5109142009
 30
0.0
 10
10.9138240917
 20
7.5118398434
 30
0.0
 10
10.9148414123
 20
7.5124372466
 30
0.0
 10
10.9158206785
 20
7.5129594265
 30
0.0
 10
10.9167625773
 20
7.5134070525
 30
0.0
 10
10.9176676931
 20
7.5137807909
 30
0.0
 10
10.9185366133
 20
7.5140812588
 30
0.0
 10
10.9193698654
 20
7.5143090608
 30
0.0
 10
10.9201680225
 20
7.5144643129
 30
0.0
 10
10.9209315476
 20
7.5145470097
 30
0.0
 10
10.9216608287
 20
7.5145570581
 30
0.0
 10
10.9223561346
 20
7.5144943951
 30
0.0
 10
10.9230176234
 20
7.514358645
 30
0.0
 10
10.9236450344
 20
7.5141492432
 30
0.0
 10
10.9240398884
 20
7.5139605235
 30
0.0
 10
10.9242299557
 20
7.5138548564
 30
0.0
  0
SPLINE
  5
309
100
AcDbEntity
  8
0
100
AcDbSpline
 62
7
  6
CONTINUOUS
 70
0
 71
3
 72
20
 73
16
 74
0
 42
0.0000001
 43
0.0000001
 44
0.0000000001
 40
0.0
 40
0.0
 40
0.0
 40
0.0
 40
0.0548579917
 40
0.1099199293
 40
0.1653872459
 40
0.2214567063
 40
0.2783181011
 40
0.3361525857
 40
0.3951315812
 40
0.4554152184
 40
0.5804413563
 40
0.6454834332
 40
0.7123556605
 40
0.8519687085
 40
1.0
 40
1.0
 40
1.0
 40
1.0
 10
10.2573752494
 20
10.2551920576
 30
0.0
 10
10.2573752491
 20
10.2535114455
 30
0.0
 10
10.2572685621
 20
10.2501430087
 30
0.0
 10
10.2567889339
 20
10.2450958318
 30
0.0
 10
10.2559898315
 20
10.2400515701
 30
0.0
 10
10.2548714982
 20
10.2350120341
 30
0.0
 10
10.2534344439
 20
10.2299786162
 30
0.0
 10
10.2516792816
 20
10.2249527908
 30
0.0
 10
10.2496064824
 20
10.2199358232
 30
0.0
 10
10.2463816638
 20
10.2131791402
 30
0.0
 10
10.2425443173
 20
10.2065216677
 30
0.0
 10
10.2381559822
 20
10.1999847875
 30
0.0
 10
10.2332208101
 20
10.1932853547
 30
0.0
 10
10.2262356961
 20
10.1849533385
 30
0.0
 10
10.2200888988
 20
10.1786280078
 30
0.0
 10
10.2168270508
 20
10.1754773044
 30
0.0
  0
SPLINE
  5
30A
100
AcDbEntity
  8
0
100
AcDbSpline
 62
7
  6
CONTINUOUS
 70
0
 71
3
 72
11
 73
7
 74
0
 42
0.0000001
 43
0.0000001
 44
0.0000000001
 40
0.0
 40
0.0
 40
0.0
 40
0.0
 40
0.2464083906
 40
0.4942697529
 40
0.7450095081
 40
1.0
 40
1.0
 40
1.0
 40
1.0
 10
9.8173752251
 20
10.1470083571
 30
0.0
 10
9.8173752287
 20
10.1456728482
 30
0.0
 10
9.8172681727
 20
10.1429927487
 30
0.0
 10
9.8167868404
 20
10.1389796117
 30
0.0
 10
9.8159851791
 20
10.1349706722
 30
0.0
 10
9.8152449042
 20
10.1323284475
 30
0.0
 10
9.8148243138
 20
10.1310119783
 30
0.0
  0
SPLINE
  5
30B
100
AcDbEntity
  8
0
100
AcDbSpline
 62
7
  6
CONTINUOUS
 70
0
 71
3
 72
85
 73
81
 74
0
 42
0.0000001
 43
0.0000001
 44
0.0000000001
 40
0.0
 40
0.0
 40
0.0
 40
0.0
 40
0.0038006654
 40
0.007741399
 40
0.0118254836
 40
0.016055616
 40
0.020433981
 40
0.0249623628
 40
0.0296420968
 40
0.0344741567
 40
0.0394592294
 40
0.0445976479
 40
0.0498894914
 40
0.0553346229
 40
0.0609326194
 40
0.0666828795
 40
0.0725846271
 40
0.0786368518
 40
0.0911877329
 40
0.1043248497
 40
0.118035002
 40
0.1323030046
 40
0.1471118992
 40
0.1624431687
 40
0.1782768499
 40
0.1945916314
 40
0.2113650169
 40
0.2285734149
 40
0.2461921861
 40
0.2641957687
 40
0.2825577646
 40
0.3012509775
 40
0.3202474998
 40
0.339518803
 40
0.3590357819
 40
0.3787688146
 40
0.3986878523
 40
0.4187624714
 40
0.438961925
 40
0.4592552241
 40
0.4999979681
 40
0.5407407309
 40
0.5610340535
 40
0.58123354
 40
0.6013082013
 40
0.6212272903
 40
0.6409603834
 40
0.6604774317
 40
0.6797488132
 40
0.6987454225
 40
0.7174387307
 40
0.7358008303
 40
0.7538045246
 40
0.7714234154
 40
0.7886319405
 40
0.8054054604
 40
0.8217203831
 40
0.8375542123
 40
0.8528856359
 40
0.8676946903
 40
0.8819628581
 40
0.8956731804
 40
0.9088104717
 40
0.9213615306
 40
0.9274138452
 40
0.9333156839
 40
0.9390660361
 40
0.9446641248
 40
0.9501093472
 40
0.9554012796
 40
0.9605397891
 40
0.9655249598
 40
0.9703571239
 40
0.9750369515
 40
0.9795653968
 40
0.9839438055
 40
0.9881740284
 40
0.9922583208
 40
0.996199305
 40
1.0
 40
1.0
 40
1.0
 40
1.0
 10
8.2677251045
 20
10.166722357
 30
0.0
 10
8.269258022
 20
10.1652958081
 30
0.0
 10
8.2724385903
 20
10.1624521837
 30
0.0
 10
8.2774516121
 20
10.158288554
 30
0.0
 10
8.2827899064
 20
10.1541523337
 30
0.0
 10
8.2884511842
 20
10.1500452328
 30
0.0
 10
8.2944331469
 20
10.1459688158
 30
0.0
 10
8.3007334013
 20
10.1419247984
 30
0.0
 10
8.3073493586
 20
10.1379147685
 30
0.0
 10
8.3142783123
 20
10.1339403265
 30
0.0
 10
8.3215174723
 20
10.1300031579
 30
0.0
 10
8.3290638528
 20
10.1261048138
 30
0.0
 10
8.3369143685
 20
10.122246883
 30
0.0
 10
8.3450658318
 20
10.1184310061
 30
0.0
 10
8.353514877
 20
10.1146586857
 30
0.0
 10
8.3622580437
 20
10.1109314904
 30
0.0
 10
8.3712917719
 20
10.1072509758
 30
0.0
 10
8.3838718376
 20
10.1023484022
 30
0.0
 10
8.4003041586
 20
10.0963583593
 30
0.0
 10
8.4208894003
 20
10.0894643702
 30
0.0
 10
8.4425392766
 20
10.0827915751
 30
0.0
 10
8.4652181754
 20
10.0763510114
 30
0.0
 10
8.4888889394
 20
10.0701533213
 30
0.0
 10
8.5135126991
 20
10.0642087922
 30
0.0
 10
8.5390489979
 20
10.0585272944
 30
0.0
 10
8.5654558303
 20
10.0531182136
 30
0.0
 10
8.5926897497
 20
10.0479905187
 30
0.0
 10
8.6207059361
 20
10.0431527349
 30
0.0
 10
8.6494582536
 20
10.0386128537
 30
0.0
 10
8.6788993451
 20
10.0343783879
 30
0.0
 10
8.7089807191
 20
10.0304563762
 30
0.0
 10
8.7396528143
 20
10.026853307
 30
0.0
 10
8.7708650857
 20
10.023575127
 30
0.0
 10
8.8025661015
 20
10.0206272795
 30
0.0
 10
8.8347036189
 20
10.018014656
 30
0.0
 10
8.8672246657
 20
10.0157415558
 30
0.0
 10
8.9000756427
 20
10.0138117441
 30
0.0
 10
8.9332023927
 20
10.0122284443
 30
0.0
 10
8.9665503513
 20
10.0109942305
 30
0.0
 10
9.0112929408
 20
10.0098153846
 30
0.0
 10
9.0673701935
 20
10.0092275087
 30
0.0
 10
9.123447461
 20
10.0098152079
 30
0.0
 10
9.1681900957
 20
10.0109939122
 30
0.0
 10
9.2015381125
 20
10.0122280207
 30
0.0
 10
9.2346649372
 20
10.0138112159
 30
0.0
 10
9.2675160053
 20
10.015740924
 30
0.0
 10
9.3000371594
 20
10.0180139215
 30
0.0
 10
9.3321748001
 20
10.0206264435
 30
0.0
 10
9.363875955
 20
10.0235741911
 30
0.0
 10
9.3950883811
 20
10.0268522725
 30
0.0
 10
9.4257606462
 20
10.0304552449
 30
0.0
 10
9.4558422053
 20
10.0343771617
 30
0.0
 10
9.4852834966
 20
10.0386115346
 30
0.0
 10
9.5140360283
 20
10.0431513251
 30
0.0
 10
9.542052443
 20
10.0479890205
 30
0.0
 10
9.5692866043
 20
10.0531166296
 30
0.0
 10
9.595693692
 20
10.0585256271
 30
0.0
 10
9.6212302589
 20
10.0642070444
 30
0.0
 10
9.645854299
 20
10.0701514959
 30
0.0
 10
9.6695253554
 20
10.0763491114
 30
0.0
 10
9.692204558
 20
10.0827896036
 30
0.0
 10
9.713854749
 20
10.0894623306
 30
0.0
 10
9.7344403158
 20
10.0963562551
 30
0.0
 10
9.7508729154
 20
10.1023462446
 30
0.0
 10
9.7634532092
 20
10.1072487771
 30
0.0
 10
9.7724871114
 20
10.1109292635
 30
0.0
 10
9.7812304543
 20
10.1146564321
 30
0.0
 10
9.7896796773
 20
10.1184287263
 30
0.0
 10
9.7978313188
 20
10.122244576
 30
0.0
 10
9.8056820145
 20
10.1261024787
 30
0.0
 10
9.81322858
 20
10.1300007984
 30
0.0
 10
9.8204679326
 20
10.1339379509
 30
0.0
 10
9.8273970801
 20
10.1379123823
 30
0.0
 10
9.8340132194
 20
10.1419223894
 30
0.0
 10
9.8403136368
 20
10.1459663575
 30
0.0
 10
9.8462957686
 20
10.1500427197
 30
0.0
 10
9.8519572752
 20
10.1541498266
 30
0.0
 10
9.8572958734
 20
10.1582861487
 30
0.0
 10
9.8623091732
 20
10.162449864
 30
0.0
 10
9.8654899261
 20
10.165293513
 30
0.0
 10
9.867022891
 20
10.1667200349
 30
0.0
  0
SPLINE
  5
30C
100
AcDbEntity
  8
0
100
AcDbSpline
 62
7
  6
CONTINUOUS
 70
0
 71
3
 72
11
 73
7
 74
0
 42
0.0000001
 43
0.0000001
 44
0.0000000001
 40
0.0
 40
0.0
 40
0.0
 40
0.0
 40
0.2463622691
 40
0.494196401
 40
0.7449461905
 40
1.0
 40
1.0
 40
1.0
 40
1.0
 10
8.3173752737
 20
10.1470083571
 30
0.0
 10
8.3173752773
 20
10.1456640111
 30
0.0
 10
8.3174837776
 20
10.1429660583
 30
0.0
 10
8.3179714842
 20
10.138926278
 30
0.0
 10
8.3187838559
 20
10.1348908015
 30
0.0
 10
8.3195338958
 20
10.1322314737
 30
0.0
 10
8.3199599944
 20
10.1309065305
 30
0.0
  0
SPLINE
  5
30D
100
AcDbEntity
  8
0
100
AcDbSpline
 62
7
  6
CONTINUOUS
 70
0
 71
3
 72
20
 73
16
 74
0
 42
0.0000001
 43
0.0000001
 44
0.0000000001
 40
0.0
 40
0.0
 40
0.0
 40
0.0
 40
0.0548579917
 40
0.1099199293
 40
0.1653872459
 40
0.2214567063
 40
0.2783181011
 40
0.3361525857
 40
0.3951315812
 40
0.4554152184
 40
0.5804413563
 40
0.6454834332
 40
0.7123556605
 40
0.8519687085
 40
1.0
 40
1.0
 40
1.0
 40
1.0
 10
13.6381158417
 20
10.0207369012
 30
0.0
 10
13.6381158415
 20
10.0190562891
 30
0.0
 10
13.6380091544
 20
10.0156878523
 30
0.0
 10
13.6375295263
 20
10.0106406754
 30
0.0
 10
13.6367304238
 20
10.0055964137
 30
0.0
 10
13.6356120905
 20
10.0005568777
 30
0.0
 10
13.6341750363
 20
9.9955234598
 30
0.0
 10
13.6324198739
 20
9.9904976344
 30
0.0
 10
13.6303470747
 20
9.9854806668
 30
0.0
 10
13.6271222561
 20
9.9787239838
 30
0.0
 10
13.6232849096
 20
9.9720665113
 30
0.0
 10
13.6188965745
 20
9.9655296312
 30
0.0
 10
13.6139614024
 20
9.9588301983
 30
0.0
 10
13.6069762884
 20
9.9504981821
 30
0.0
 10
13.6008294912
 20
9.9441728514
 30
0.0
 10
13.5975676431
 20
9.941022148
 30
0.0
  0
SPLINE
  5
30E
100
AcDbEntity
  8
0
100
AcDbSpline
 62
7
  6
CONTINUOUS
 70
0
 71
3
 72
11
 73
7
 74
0
 42
0.0000001
 43
0.0000001
 44
0.0000000001
 40
0.0
 40
0.0
 40
0.0
 40
0.0
 40
0.2464083906
 40
0.4942697529
 40
0.7450095081
 40
1.0
 40
1.0
 40
1.0
 40
1.0
 10
13.1981158175
 20
9.9125532007
 30
0.0
 10
13.1981158211
 20
9.9112176919
 30
0.0
 10
13.198008765
 20
9.9085375923
 30
0.0
 10
13.1975274328
 20
9.9045244553
 30
0.0
 10
13.1967257714
 20
9.9005155158
 30
0.0
 10
13.1959854965
 20
9.8978732912
 30
0.0
 10
13.1955649061
 20
9.8965568219
 30
0.0
  0
SPLINE
  5
30F
100
AcDbEntity
  8
0
100
AcDbSpline
 62
7
  6
CONTINUOUS
 70
0
 71
3
 72
85
 73
81
 74
0
 42
0.0000001
 43
0.0000001
 44
0.0000000001
 40
0.0
 40
0.0
 40
0.0
 40
0.0
 40
0.0038006654
 40
0.007741399
 40
0.0118254836
 40
0.016055616
 40
0.020433981
 40
0.0249623628
 40
0.0296420968
 40
0.0344741567
 40
0.0394592294
 40
0.0445976479
 40
0.0498894914
 40
0.0553346229
 40
0.0609326194
 40
0.0666828795
 40
0.0725846271
 40
0.0786368518
 40
0.0911877329
 40
0.1043248497
 40
0.118035002
 40
0.1323030046
 40
0.1471118992
 40
0.1624431687
 40
0.1782768499
 40
0.1945916314
 40
0.2113650169
 40
0.2285734149
 40
0.2461921861
 40
0.2641957687
 40
0.2825577646
 40
0.3012509775
 40
0.3202474998
 40
0.339518803
 40
0.3590357819
 40
0.3787688146
 40
0.3986878523
 40
0.4187624714
 40
0.438961925
 40
0.4592552241
 40
0.4999979681
 40
0.5407407309
 40
0.5610340535
 40
0.58123354
 40
0.6013082013
 40
0.6212272903
 40
0.6409603834
 40
0.6604774317
 40
0.6797488132
 40
0.6987454225
 40
0.7174387307
 40
0.7358008303
 40
0.7538045246
 40
0.7714234154
 40
0.7886319405
 40
0.8054054604
 40
0.8217203831
 40
0.8375542123
 40
0.8528856359
 40
0.8676946903
 40
0.8819628581
 40
0.8956731804
 40
0.9088104717
 40
0.9213615306
 40
0.9274138452
 40
0.9333156839
 40
0.9390660361
 40
0.9446641248
 40
0.9501093472
 40
0.9554012796
 40
0.9605397891
 40
0.9655249598
 40
0.9703571239
 40
0.9750369515
 40
0.9795653968
 40
0.9839438055
 40
0.9881740284
 40
0.9922583208
 40
0.996199305
 40
1.0
 40
1.0
 40
1.0
 40
1.0
 10
11.6484656968
 20
9.9322672006
 30
0.0
 10
11.6499986143
 20
9.9308406517
 30
0.0
 10
11.6531791826
 20
9.9279970273
 30
0.0
 10
11.6581922044
 20
9.9238333977
 30
0.0
 10
11.6635304987
 20
9.9196971773
 30
0.0
 10
11.6691917766
 20
9.9155900764
 30
0.0
 10
11.6751737392
 20
9.9115136594
 30
0.0
 10
11.6814739937
 20
9.907469642
 30
0.0
 10
11.688089951
 20
9.9034596121
 30
0.0
 10
11.6950189046
 20
9.8994851701
 30
0.0
 10
11.7022580646
 20
9.8955480015
 30
0.0
 10
11.7098044451
 20
9.8916496574
 30
0.0
 10
11.7176549608
 20
9.8877917266
 30
0.0
 10
11.7258064241
 20
9.8839758497
 30
0.0
 10
11.7342554694
 20
9.8802035293
 30
0.0
 10
11.742998636
 20
9.876476334
 30
0.0
 10
11.7520323642
 20
9.8727958194
 30
0.0
 10
11.7646124299
 20
9.8678932458
 30
0.0
 10
11.7810447509
 20
9.8619032029
 30
0.0
 10
11.8016299927
 20
9.8550092138
 30
0.0
 10
11.8232798689
 20
9.8483364187
 30
0.0
 10
11.8459587677
 20
9.841895855
 30
0.0
 10
11.8696295317
 20
9.8356981649
 30
0.0
 10
11.8942532914
 20
9.8297536358
 30
0.0
 10
11.9197895902
 20
9.8240721381
 30
0.0
 10
11.9461964227
 20
9.8186630572
 30
0.0
 10
11.9734303421
 20
9.8135353623
 30
0.0
 10
12.0014465284
 20
9.8086975786
 30
0.0
 10
12.0301988459
 20
9.8041576973
 30
0.0
 10
12.0596399374
 20
9.7999232315
 30
0.0
 10
12.0897213115
 20
9.7960012198
 30
0.0
 10
12.1203934066
 20
9.7923981506
 30
0.0
 10
12.151605678
 20
9.7891199706
 30
0.0
 10
12.1833066938
 20
9.7861721231
 30
0.0
 10
12.2154442112
 20
9.7835594996
 30
0.0
 10
12.247965258
 20
9.7812863994
 30
0.0
 10
12.2808162351
 20
9.7793565877
 30
0.0
 10
12.3139429851
 20
9.7777732879
 30
0.0
 10
12.3472909437
 20
9.7765390741
 30
0.0
 10
12.3920335331
 20
9.7753602282
 30
0.0
 10
12.4481107858
 20
9.7747723523
 30
0.0
 10
12.5041880534
 20
9.7753600515
 30
0.0
 10
12.548930688
 20
9.7765387558
 30
0.0
 10
12.5822787049
 20
9.7777728643
 30
0.0
 10
12.6154055295
 20
9.7793560595
 30
0.0
 10
12.6482565977
 20
9.7812857676
 30
0.0
 10
12.6807777517
 20
9.7835587651
 30
0.0
 10
12.7129153924
 20
9.7861712871
 30
0.0
 10
12.7446165473
 20
9.7891190347
 30
0.0
 10
12.7758289734
 20
9.7923971161
 30
0.0
 10
12.8065012385
 20
9.7960000885
 30
0.0
 10
12.8365827976
 20
9.7999220053
 30
0.0
 10
12.8660240889
 20
9.8041563782
 30
0.0
 10
12.8947766207
 20
9.8086961688
 30
0.0
 10
12.9227930353
 20
9.8135338641
 30
0.0
 10
12.9500271966
 20
9.8186614732
 30
0.0
 10
12.9764342843
 20
9.8240704707
 30
0.0
 10
13.0019708512
 20
9.829751888
 30
0.0
 10
13.0265948913
 20
9.8356963395
 30
0.0
 10
13.0502659477
 20
9.841893955
 30
0.0
 10
13.0729451503
 20
9.8483344473
 30
0.0
 10
13.0945953413
 20
9.8550071742
 30
0.0
 10
13.1151809081
 20
9.8619010987
 30
0.0
 10
13.1316135077
 20
9.8678910882
 30
0.0
 10
13.1441938015
 20
9.8727936207
 30
0.0
 10
13.1532277037
 20
9.8764741071
 30
0.0
 10
13.1619710466
 20
9.8802012758
 30
0.0
 10
13.1704202696
 20
9.8839735699
 30
0.0
 10
13.1785719112
 20
9.8877894196
 30
0.0
 10
13.1864226069
 20
9.8916473223
 30
0.0
 10
13.1939691723
 20
9.895545642
 30
0.0
 10
13.2012085249
 20
9.8994827945
 30
0.0
 10
13.2081376725
 20
9.9034572259
 30
0.0
 10
13.2147538117
 20
9.9074672331
 30
0.0
 10
13.2210542291
 20
9.9115112011
 30
0.0
 10
13.2270363609
 20
9.9155875633
 30
0.0
 10
13.2326978675
 20
9.9196946702
 30
0.0
 10
13.2380364658
 20
9.9238309923
 30
0.0
 10
13.2430497655
 20
9.9279947076
 30
0.0
 10
13.2462305185
 20
9.9308383566
 30
0.0
 10
13.2477634833
 20
9.9322648785
 30
0.0
  0
SPLINE
  5
310
100
AcDbEntity
  8
0
100
AcDbSpline
 62
7
  6
CONTINUOUS
 70
0
 71
3
 72
11
 73
7
 74
0
 42
0.0000001
 43
0.0000001
 44
0.0000000001
 40
0.0
 40
0.0
 40
0.0
 40
0.0
 40
0.2463622691
 40
0.494196401
 40
0.7449461905
 40
1.0
 40
1.0
 40
1.0
 40
1.0
 10
11.698115866
 20
9.9125532007
 30
0.0
 10
11.6981158696
 20
9.9112088547
 30
0.0
 10
11.6982243699
 20
9.9085109019
 30
0.0
 10
11.6987120765
 20
9.9044711217
 30
0.0
 10
11.6995244482
 20
9.9004356451
 30
0.0
 10
11.7002744881
 20
9.8977763173
 30
0.0
 10
11.7007005868
 20
9.8964513741
 30
0.0
  0
SPLINE
  5
311
100
AcDbEntity
  8
0
100
AcDbSpline
 62
7
  6
CONTINUOUS
 70
0
 71
3
 72
39
 73
35
 74
0
 42
0.0000001
 43
0.0000001
 44
0.0000000001
 40
0.0
 40
0.0
 40
0.0
 40
0.0
 40
0.0064813485
 40
0.0130002985
 40
0.0195937285
 40
0.026297146
 40
0.0331442162
 40
0.0401663079
 40
0.05484089
 40
0.0705272863
 40
0.0873816519
 40
0.1055233038
 40
0.1250399977
 40
0.1459941136
 40
0.1684273795
 40
0.192364659
 40
0.2178175573
 40
0.2447860489
 40
0.2732611697
 40
0.3032256797
 40
0.334655689
 40
0.3675213604
 40
0.4017874193
 40
0.4374142301
 40
0.4743575615
 40
0.5125697352
 40
0.5519993246
 40
0.5925918809
 40
0.6342900708
 40
0.6770336885
 40
0.7207603521
 40
0.8109000934
 40
0.9041686777
 40
1.0
 40
1.0
 40
1.0
 40
1.0
 10
9.0662997351
 20
11.3364312763
 30
0.0
 10
9.0662997403
 20
11.3358238426
 30
0.0
 10
9.0663480368
 20
11.334604907
 30
0.0
 10
9.0665651531
 20
11.3327796668
 30
0.0
 10
9.0669267765
 20
11.3309562043
 30
0.0
 10
9.0674325864
 20
11.3291355672
 30
0.0
 10
9.0680823072
 20
11.3273185145
 30
0.0
 10
9.069155447
 20
11.3248660989
 30
0.0
 10
9.0708768676
 20
11.3218032358
 30
0.0
 10
9.073479463
 20
11.3182144496
 30
0.0
 10
9.0766426397
 20
11.3146616702
 30
0.0
 10
9.0803603715
 20
11.3111495237
 30
0.0
 10
9.0846264656
 20
11.307682031
 30
0.0
 10
9.0894341699
 20
11.3042639659
 30
0.0
 10
9.0947759196
 20
11.3009003133
 30
0.0
 10
9.1006432097
 20
11.2975961664
 30
0.0
 10
9.1070266753
 20
11.2943568708
 30
0.0
 10
9.1139159423
 20
11.2911875672
 30
0.0
 10
9.1212997997
 20
11.2880935664
 30
0.0
 10
9.1291661058
 20
11.2850799369
 30
0.0
 10
9.1375018927
 20
11.282151729
 30
0.0
 10
9.146293367
 20
11.2793138678
 30
0.0
 10
9.155525934
 20
11.276571056
 30
0.0
 10
9.1651842552
 20
11.2739279826
 30
0.0
 10
9.1752522436
 20
11.2713890055
 30
0.0
 10
9.1857131255
 20
11.2689584657
 30
0.0
 10
9.1965494507
 20
11.2666404064
 30
0.0
 10
9.2077431371
 20
11.264438735
 30
0.0
 10
9.2192754891
 20
11.2623571849
 30
0.0
 10
9.2311272568
 20
11.2603991794
 30
0.0
 10
9.2474948748
 20
11.2579328393
 30
0.0
 10
9.2686076849
 20
11.2551929515
 30
0.0
 10
9.2946390892
 20
11.2524762748
 30
0.0
 10
9.3123062217
 20
11.2510531078
 30
0.0
 10
9.3212660386
 20
11.2504317424
 30
0.0
  0
SPLINE
  5
312
100
AcDbEntity
  8
0
100
AcDbSpline
 62
7
  6
CONTINUOUS
 70
0
 71
3
 72
39
 73
35
 74
0
 42
0.0000001
 43
0.0000001
 44
0.0000000001
 40
0.0
 40
0.0
 40
0.0
 40
0.0
 40
0.0064813485
 40
0.0130002985
 40
0.0195937285
 40
0.026297146
 40
0.0331442162
 40
0.0401663079
 40
0.05484089
 40
0.0705272863
 40
0.0873816519
 40
0.1055233038
 40
0.1250399977
 40
0.1459941136
 40
0.1684273795
 40
0.192364659
 40
0.2178175573
 40
0.2447860489
 40
0.2732611697
 40
0.3032256797
 40
0.334655689
 40
0.3675213604
 40
0.4017874193
 40
0.4374142301
 40
0.4743575615
 40
0.5125697352
 40
0.5519993246
 40
0.5925918809
 40
0.6342900708
 40
0.6770336885
 40
0.7207603521
 40
0.8109000934
 40
0.9041686777
 40
1.0
 40
1.0
 40
1.0
 40
1.0
 10
13.8959291527
 20
11.0014953386
 30
0.0
 10
13.895929158
 20
11.0008879049
 30
0.0
 10
13.8959774545
 20
10.9996689693
 30
0.0
 10
13.8961945708
 20
10.9978437291
 30
0.0
 10
13.8965561941
 20
10.9960202666
 30
0.0
 10
13.897062004
 20
10.9941996295
 30
0.0
 10
13.8977117248
 20
10.9923825768
 30
0.0
 10
13.8987848647
 20
10.9899301612
 30
0.0
 10
13.9005062852
 20
10.9868672981
 30
0.0
 10
13.9031088806
 20
10.9832785119
 30
0.0
 10
13.9062720573
 20
10.9797257325
 30
0.0
 10
13.9099897891
 20
10.976213586
 30
0.0
 10
13.9142558833
 20
10.9727460933
 30
0.0
 10
13.9190635875
 20
10.9693280282
 30
0.0
 10
13.9244053372
 20
10.9659643756
 30
0.0
 10
13.9302726273
 20
10.9626602287
 30
0.0
 10
13.9366560929
 20
10.9594209331
 30
0.0
 10
13.9435453599
 20
10.9562516295
 30
0.0
 10
13.9509292173
 20
10.9531576287
 30
0.0
 10
13.9587955234
 20
10.9501439992
 30
0.0
 10
13.9671313103
 20
10.9472157913
 30
0.0
 10
13.9759227846
 20
10.94437793
 30
0.0
 10
13.9851553516
 20
10.9416351183
 30
0.0
 10
13.9948136728
 20
10.9389920449
 30
0.0
 10
14.0048816612
 20
10.9364530678
 30
0.0
 10
14.0153425431
 20
10.934022528
 30
0.0
 10
14.0261788683
 20
10.9317044687
 30
0.0
 10
14.0373725547
 20
10.9295027973
 30
0.0
 10
14.0489049067
 20
10.9274212472
 30
0.0
 10
14.0607566744
 20
10.9254632417
 30
0.0
 10
14.0771242924
 20
10.9229969016
 30
0.0
 10
14.0982371025
 20
10.9202570138
 30
0.0
 10
14.1242685068
 20
10.9175403371
 30
0.0
 10
14.1419356393
 20
10.9161171701
 30
0.0
 10
14.1508954562
 20
10.9154958047
 30
0.0
  0
SPLINE
  5
313
100
AcDbEntity
  8
0
100
AcDbSpline
 62
7
  6
CONTINUOUS
 70
0
 71
3
 72
39
 73
35
 74
0
 42
0.0000001
 43
0.0000001
 44
0.0000000001
 40
0.0
 40
0.0
 40
0.0
 40
0.0
 40
0.0064813485
 40
0.0130002985
 40
0.0195937285
 40
0.026297146
 40
0.0331442162
 40
0.0401663079
 40
0.05484089
 40
0.0705272863
 40
0.0873816519
 40
0.1055233038
 40
0.1250399977
 40
0.1459941136
 40
0.1684273795
 40
0.192364659
 40
0.2178175573
 40
0.2447860489
 40
0.2732611697
 40
0.3032256797
 40
0.334655689
 40
0.3675213604
 40
0.4017874193
 40
0.4374142301
 40
0.4743575615
 40
0.5125697352
 40
0.5519993246
 40
0.5925918809
 40
0.6342900708
 40
0.6770336885
 40
0.7207603521
 40
0.8109000934
 40
0.9041686777
 40
1.0
 40
1.0
 40
1.0
 40
1.0
 10
13.3135867818
 20
10.4389957695
 30
0.0
 10
13.3135867871
 20
10.4383883358
 30
0.0
 10
13.3136350836
 20
10.4371694002
 30
0.0
 10
13.3138521999
 20
10.43534416
 30
0.0
 10
13.3142138232
 20
10.4335206975
 30
0.0
 10
13.3147196331
 20
10.4317000604
 30
0.0
 10
13.3153693539
 20
10.4298830077
 30
0.0
 10
13.3164424938
 20
10.4274305921
 30
0.0
 10
13.3181639143
 20
10.4243677289
 30
0.0
 10
13.3207665097
 20
10.4207789428
 30
0.0
 10
13.3239296864
 20
10.4172261634
 30
0.0
 10
13.3276474182
 20
10.4137140169
 30
0.0
 10
13.3319135124
 20
10.4102465242
 30
0.0
 10
13.3367212166
 20
10.4068284591
 30
0.0
 10
13.3420629663
 20
10.4034648065
 30
0.0
 10
13.3479302564
 20
10.4001606596
 30
0.0
 10
13.3543137221
 20
10.396921364
 30
0.0
 10
13.361202989
 20
10.3937520604
 30
0.0
 10
13.3685868464
 20
10.3906580596
 30
0.0
 10
13.3764531525
 20
10.3876444301
 30
0.0
 10
13.3847889394
 20
10.3847162222
 30
0.0
 10
13.3935804137
 20
10.3818783609
 30
0.0
 10
13.4028129807
 20
10.3791355492
 30
0.0
 10
13.412471302
 20
10.3764924758
 30
0.0
 10
13.4225392903
 20
10.3739534986
 30
0.0
 10
13.4330001722
 20
10.3715229589
 30
0.0
 10
13.4438364974
 20
10.3692048996
 30
0.0
 10
13.4550301838
 20
10.3670032282
 30
0.0
 10
13.4665625358
 20
10.3649216781
 30
0.0
 10
13.4784143035
 20
10.3629636726
 30
0.0
 10
13.4947819215
 20
10.3604973325
 30
0.0
 10
13.5158947317
 20
10.3577574447
 30
0.0
 10
13.5419261359
 20
10.355040768
 30
0.0
 10
13.5595932684
 20
10.353617601
 30
0.0
 10
13.5685530853
 20
10.3529962356
 30
0.0
  0
SPLINE
  5
314
100
AcDbEntity
  8
0
100
AcDbSpline
 62
7
  6
CONTINUOUS
 70
0
 71
3
 72
39
 73
35
 74
0
 42
0.0000001
 43
0.0000001
 44
0.0000000001
 40
0.0
 40
0.0
 40
0.0
 40
0.0
 40
0.0064813485
 40
0.0130002985
 40
0.0195937285
 40
0.026297146
 40
0.0331442162
 40
0.0401663079
 40
0.05484089
 40
0.0705272863
 40
0.0873816519
 40
0.1055233038
 40
0.1250399977
 40
0.1459941136
 40
0.1684273795
 40
0.192364659
 40
0.2178175573
 40
0.2447860489
 40
0.2732611697
 40
0.3032256797
 40
0.334655689
 40
0.3675213604
 40
0.4017874193
 40
0.4374142301
 40
0.4743575615
 40
0.5125697352
 40
0.5519993246
 40
0.5925918809
 40
0.6342900708
 40
0.6770336885
 40
0.7207603521
 40
0.8109000934
 40
0.9041686777
 40
1.0
 40
1.0
 40
1.0
 40
1.0
 10
8.4839573642
 20
10.7739317072
 30
0.0
 10
8.4839573695
 20
10.7733242735
 30
0.0
 10
8.484005666
 20
10.7721053379
 30
0.0
 10
8.4842227823
 20
10.7702800977
 30
0.0
 10
8.4845844056
 20
10.7684566352
 30
0.0
 10
8.4850902155
 20
10.7666359981
 30
0.0
 10
8.4857399363
 20
10.7648189454
 30
0.0
 10
8.4868130762
 20
10.7623665298
 30
0.0
 10
8.4885344967
 20
10.7593036667
 30
0.0
 10
8.4911370921
 20
10.7557148805
 30
0.0
 10
8.4943002688
 20
10.7521621011
 30
0.0
 10
8.4980180006
 20
10.7486499546
 30
0.0
 10
8.5022840948
 20
10.7451824619
 30
0.0
 10
8.507091799
 20
10.7417643968
 30
0.0
 10
8.5124335487
 20
10.7384007442
 30
0.0
 10
8.5183008388
 20
10.7350965973
 30
0.0
 10
8.5246843045
 20
10.7318573017
 30
0.0
 10
8.5315735714
 20
10.7286879981
 30
0.0
 10
8.5389574288
 20
10.7255939973
 30
0.0
 10
8.5468237349
 20
10.7225803678
 30
0.0
 10
8.5551595218
 20
10.7196521599
 30
0.0
 10
8.5639509961
 20
10.7168142986
 30
0.0
 10
8.5731835631
 20
10.7140714869
 30
0.0
 10
8.5828418843
 20
10.7114284135
 30
0.0
 10
8.5929098727
 20
10.7088894364
 30
0.0
 10
8.6033707546
 20
10.7064588966
 30
0.0
 10
8.6142070798
 20
10.7041408373
 30
0.0
 10
8.6254007662
 20
10.7019391659
 30
0.0
 10
8.6369331182
 20
10.6998576158
 30
0.0
 10
8.6487848859
 20
10.6978996103
 30
0.0
 10
8.6651525039
 20
10.6954332702
 30
0.0
 10
8.686265314
 20
10.6926933824
 30
0.0
 10
8.7122967183
 20
10.6899767057
 30
0.0
 10
8.7299638508
 20
10.6885535387
 30
0.0
 10
8.7389236677
 20
10.6879321733
 30
0.0
  0
SPLINE
  5
315
100
AcDbEntity
  8
0
100
AcDbSpline
 62
7
  6
CONTINUOUS
 70
0
 71
3
 72
25
 73
21
 74
0
 42
0.0000001
 43
0.0000001
 44
0.0000000001
 40
0.0
 40
0.0
 40
0.0
 40
0.0
 40
0.0616475753
 40
0.1233181765
 40
0.1850345731
 40
0.2468190243
 40
0.3086930326
 40
0.370677109
 40
0.4327905509
 40
0.4950512387
 40
0.55747545
 40
0.6200776927
 40
0.6828705879
 40
0.7143445123
 40
0.7458698784
 40
0.809073791
 40
0.8724932589
 40
0.9042878089
 40
0.9361387219
 40
1.0
 40
1.0
 40
1.0
 40
1.0
 10
8.1370790525
 20
7.6431463027
 30
0.0
 10
8.1467412397
 20
7.6524792734
 30
0.0
 10
8.1665754935
 20
7.6706326349
 30
0.0
 10
8.197753341
 20
7.696229591
 30
0.0
 10
8.2302850641
 20
7.7201346156
 30
0.0
 10
8.2640875631
 20
7.7422864528
 30
0.0
 10
8.2990759437
 20
7.762629617
 30
0.0
 10
8.3351619459
 20
7.7811128343
 30
0.0
 10
8.3722546677
 20
7.7976896291
 30
0.0
 10
8.4102605923
 20
7.8123183066
 30
0.0
 10
8.449084146
 20
7.8249621302
 30
0.0
 10
8.4886268559
 20
7.835589275
 30
0.0
 10
8.5220715027
 20
7.8427371726
 30
0.0
 10
8.5490816962
 20
7.8474249191
 30
0.0
 10
8.576292314
 20
7.8514288043
 30
0.0
 10
8.6105712228
 20
7.855130573
 30
0.0
 10
8.6450524818
 20
7.8570838821
 30
0.0
 10
8.6727390628
 20
7.857600275
 30
0.0
 10
8.7005255613
 20
7.8574175555
 30
0.0
 10
8.7213732187
 20
7.8564930652
 30
0.0
 10
8.7352558847
 20
7.8555302991
 30
0.0
  0
SPLINE
  5
316
100
AcDbEntity
  8
0
100
AcDbSpline
 62
7
  6
CONTINUOUS
 70
0
 71
3
 72
23
 73
19
 74
0
 42
0.0000001
 43
0.0000001
 44
0.0000000001
 40
0.0
 40
0.0
 40
0.0
 40
0.0
 40
0.0568026221
 40
0.1144505799
 40
0.1730638202
 40
0.2327136564
 40
0.2934172535
 40
0.3551364897
 40
0.4177823755
 40
0.4812254432
 40
0.5453103874
 40
0.6098726966
 40
0.6747542109
 40
0.7398150664
 40
0.8049412162
 40
0.8700473788
 40
0.9350772728
 40
1.0
 40
1.0
 40
1.0
 40
1.0
 10
8.6106349876
 20
7.8546080636
 30
0.0
 10
8.6059996678
 20
7.8429623775
 30
0.0
 10
8.5973977203
 20
7.8191971198
 30
0.0
 10
8.5865959286
 20
7.7825453937
 30
0.0
 10
8.577814114
 20
7.7447123908
 30
0.0
 10
8.5710610248
 20
7.7057823205
 30
0.0
 10
8.5663456959
 20
7.6658640648
 30
0.0
 10
8.5636763578
 20
7.6250954958
 30
0.0
 10
8.5630579709
 20
7.5836405689
 30
0.0
 10
8.5644909094
 20
7.5416840977
 30
0.0
 10
8.5679706372
 20
7.4994237046
 30
0.0
 10
8.5734886355
 20
7.4570609204
 30
0.0
 10
8.5810342697
 20
7.4147931179
 30
0.0
 10
8.5905971571
 20
7.3728076366
 30
0.0
 10
8.6021693594
 20
7.3312790815
 30
0.0
 10
8.615747388
 20
7.2903684953
 30
0.0
 10
8.6313320442
 20
7.2502279634
 30
0.0
 10
8.6430758308
 20
7.224050197
 30
0.0
 10
8.6492848393
 20
7.2111395356
 30
0.0
  0
SPLINE
  5
317
100
AcDbEntity
  8
0
100
AcDbSpline
 62
7
  6
CONTINUOUS
 70
0
 71
3
 72
53
 73
49
 74
0
 42
0.0000001
 43
0.0000001
 44
0.0000000001
 40
0.0
 40
0.0
 40
0.0
 40
0.0
 40
0.014969904
 40
0.0299427774
 40
0.0449215739
 40
0.0599092106
 40
0.0749085515
 40
0.0899223942
 40
0.1049534485
 40
0.1200043231
 40
0.1350775135
 40
0.1501753819
 40
0.1653001488
 40
0.1804538818
 40
0.1956384783
 40
0.2108556627
 40
0.2261069759
 40
0.2413937626
 40
0.2567171739
 40
0.2720781563
 40
0.2874774469
 40
0.3029155785
 40
0.3183928694
 40
0.3339094273
 40
0.349465154
 40
0.3650597386
 40
0.3806926683
 40
0.3963632322
 40
0.412070519
 40
0.4278134329
 40
0.4593959612
 40
0.4911034832
 40
0.522921206
 40
0.5548321517
 40
0.5868175094
 40
0.6188570157
 40
0.6509293577
 40
0.6830125884
 40
0.7150845505
 40
0.7471233041
 40
0.7791075507
 40
0.8110170488
 40
0.8428330164
 40
0.8745385087
 40
0.9061187714
 40
0.9375616069
 40
0.9688573156
 40
1.0
 40
1.0
 40
1.0
 40
1.0
 10
9.3334327169
 20
6.404589924
 30
0.0
 10
9.3404709462
 20
6.4113883422
 30
0.0
 10
9.3542839787
 20
6.4252638086
 30
0.0
 10
9.3741747853
 20
6.4468746086
 30
0.0
 10
9.3932125814
 20
6.4692563228
 30
0.0
 10
9.411371398
 20
6.4923787172
 30
0.0
 10
9.4286272104
 20
6.5162109036
 30
0.0
 10
9.4449568919
 20
6.5407210428
 30
0.0
 10
9.4603385803
 20
6.5658764203
 30
0.0
 10
9.4747518584
 20
6.5916433411
 30
0.0
 10
9.4881773808
 20
6.6179874321
 30
0.0
 10
9.5005972305
 20
6.6448734796
 30
0.0
 10
9.5119949305
 20
6.6722655157
 30
0.0
 10
9.5223551345
 20
6.7001269966
 30
0.0
 10
9.5316640991
 20
6.7284206622
 30
0.0
 10
9.5399094545
 20
6.7571087024
 30
0.0
 10
9.5470800684
 20
6.7861528286
 30
0.0
 10
9.5531665178
 20
6.8155142064
 30
0.0
 10
9.5581606698
 20
6.8451536267
 30
0.0
 10
9.5620557791
 20
6.8750315127
 30
0.0
 10
9.5648468154
 20
6.9051079403
 30
0.0
 10
9.5665299832
 20
6.9353427548
 30
0.0
 10
9.56710303
 20
6.9656955767
 30
0.0
 10
9.5665653388
 20
6.9961258745
 30
0.0
 10
9.5649175141
 20
7.0265930174
 30
0.0
 10
9.5621618301
 20
7.0570563155
 30
0.0
 10
9.5583020497
 20
7.0874751416
 30
0.0
 10
9.5533432405
 20
7.117808741
 30
0.0
 10
9.5472920038
 20
7.1480171004
 30
0.0
 10
9.537769189
 20
7.1881117715
 30
0.0
 10
9.5231692779
 20
7.2377163515
 30
0.0
 10
9.5014653436
 20
7.2960269209
 30
0.0
 10
9.4756726191
 20
7.3528847719
 30
0.0
 10
9.4459293695
 20
7.407984874
 30
0.0
 10
9.4123942777
 20
7.4610341591
 30
0.0
 10
9.3752463903
 20
7.5117498539
 30
0.0
 10
9.3346838257
 20
7.5598617622
 30
0.0
 10
9.2909227952
 20
7.6051134331
 30
0.0
 10
9.2441965771
 20
7.6472636958
 30
0.0
 10
9.1947542017
 20
7.6860878589
 30
0.0
 10
9.142859096
 20
7.7213788349
 30
0.0
 10
9.0887877315
 20
7.7529482669
 30
0.0
 10
9.0328282713
 20
7.7806276541
 30
0.0
 10
8.9752788157
 20
7.8042690959
 30
0.0
 10
8.9164463302
 20
7.8237460574
 30
0.0
 10
8.8566433917
 20
7.8389541606
 30
0.0
 10
8.7961929747
 20
7.8498116996
 30
0.0
 10
8.7555643109
 20
7.8541219049
 30
0.0
 10
8.7352558847
 20
7.8555302991
 30
0.0
  0
SPLINE
  5
318
100
AcDbEntity
  8
0
100
AcDbSpline
 62
7
  6
CONTINUOUS
 70
0
 71
3
 72
39
 73
35
 74
0
 42
0.0000001
 43
0.0000001
 44
0.0000000001
 40
0.0
 40
0.0
 40
0.0
 40
0.0
 40
0.0145547992
 40
0.0293267346
 40
0.0444562437
 40
0.0600732162
 40
0.0762960686
 40
0.0932322602
 40
0.1109795945
 40
0.1296275676
 40
0.1492597401
 40
0.1699554201
 40
0.1917919121
 40
0.2148465006
 40
0.2391981785
 40
0.264929649
 40
0.292128813
 40
0.3208900658
 40
0.3513153337
 40
0.3835136433
 40
0.4176003183
 40
0.4536915039
 40
0.4918957846
 40
0.5322973951
 40
0.5749279944
 40
0.6197253124
 40
0.66648136
 40
0.7147955563
 40
0.7640638466
 40
0.8135341103
 40
0.8624276905
 40
0.9100786659
 40
0.9560203393
 40
1.0
 40
1.0
 40
1.0
 40
1.0
 10
11.3570096496
 20
7.3997421948
 30
0.0
 10
11.3560989683
 20
7.3995772122
 30
0.0
 10
11.3542800336
 20
7.3991487694
 30
0.0
 10
11.3516042087
 20
7.3982234112
 30
0.0
 10
11.3489698363
 20
7.3970137767
 30
0.0
 10
11.3463784076
 20
7.3955210236
 30
0.0
 10
11.3438316467
 20
7.3937445384
 30
0.0
 10
11.3413310769
 20
7.3916839012
 30
0.0
 10
11.3388795133
 20
7.3893366015
 30
0.0
 10
11.3364795944
 20
7.3867000604
 30
0.0
 10
11.3341354453
 20
7.3837698584
 30
0.0
 10
11.3318515148
 20
7.3805409443
 30
0.0
 10
11.3296336871
 20
7.3770066959
 30
0.0
 10
11.3274887845
 20
7.373159356
 30
0.0
 10
11.3254252931
 20
7.3689895765
 30
0.0
 10
11.3234530802
 20
7.364486622
 30
0.0
 10
11.3215846075
 20
7.3596378922
 30
0.0
 10
11.3198339718
 20
7.3544294694
 30
0.0
 10
11.3182194033
 20
7.3488455162
 30
0.0
 10
11.3167617554
 20
7.3428693203
 30
0.0
 10
11.3154870317
 20
7.3364835046
 30
0.0
 10
11.3144264169
 20
7.3296717068
 30
0.0
 10
11.3136170832
 20
7.3224210898
 30
0.0
 10
11.3131028501
 20
7.3147264966
 30
0.0
 10
11.3129336255
 20
7.3065969161
 30
0.0
 10
11.3131630942
 20
7.2980641887
 30
0.0
 10
11.3138435393
 20
7.2891925848
 30
0.0
 10
11.3150173649
 20
7.2800855348
 30
0.0
 10
11.3167067786
 20
7.2708840165
 30
0.0
 10
11.3189054914
 20
7.2617526362
 30
0.0
 10
11.3215765487
 20
7.2528554314
 30
0.0
 10
11.3246593647
 20
7.2443307148
 30
0.0
 10
11.3280813111
 20
7.2362754254
 30
0.0
 10
11.3305972099
 20
7.2311372863
 30
0.0
 10
11.33189377
 20
7.2286594459
 30
0.0
  0
SPLINE
  5
319
100
AcDbEntity
  8
0
100
AcDbSpline
 62
7
  6
CONTINUOUS
 70
0
 71
3
 72
25
 73
21
 74
0
 42
0.0000001
 43
0.0000001
 44
0.0000000001
 40
0.0
 40
0.0
 40
0.0
 40
0.0
 40
0.0616475753
 40
0.1233181765
 40
0.1850345731
 40
0.2468190243
 40
0.3086930326
 40
0.370677109
 40
0.4327905509
 40
0.4950512387
 40
0.55747545
 40
0.6200776927
 40
0.6828705879
 40
0.7143445123
 40
0.7458698784
 40
0.809073791
 40
0.8724932589
 40
0.9042878089
 40
0.9361387219
 40
1.0
 40
1.0
 40
1.0
 40
1.0
 10
10.7953070591
 20
7.4587975643
 30
0.0
 10
10.8049692463
 20
7.468130535
 30
0.0
 10
10.8248035001
 20
7.4862838965
 30
0.0
 10
10.8559813476
 20
7.5118808526
 30
0.0
 10
10.8885130707
 20
7.5357858773
 30
0.0
 10
10.9223155696
 20
7.5579377144
 30
0.0
 10
10.9573039503
 20
7.5782808786
 30
0.0
 10
10.9933899525
 20
7.5967640959
 30
0.0
 10
11.0304826743
 20
7.6133408907
 30
0.0
 10
11.0684885989
 20
7.6279695682
 30
0.0
 10
11.1073121525
 20
7.6406133918
 30
0.0
 10
11.1468548624
 20
7.6512405366
 30
0.0
 10
11.1802995093
 20
7.6583884342
 30
0.0
 10
11.2073097028
 20
7.6630761808
 30
0.0
 10
11.2345203206
 20
7.667080066
 30
0.0
 10
11.2687992294
 20
7.6707818346
 30
0.0
 10
11.3032804883
 20
7.6727351438
 30
0.0
 10
11.3309670694
 20
7.6732515366
 30
0.0
 10
11.3587535679
 20
7.6730688172
 30
0.0
 10
11.3796012253
 20
7.6721443269
 30
0.0
 10
11.3934838913
 20
7.6711815607
 30
0.0
  0
SPLINE
  5
31A
100
AcDbEntity
  8
0
100
AcDbSpline
 62
7
  6
CONTINUOUS
 70
0
 71
3
 72
53
 73
49
 74
0
 42
0.0000001
 43
0.0000001
 44
0.0000000001
 40
0.0
 40
0.0
 40
0.0
 40
0.0
 40
0.014969904
 40
0.0299427774
 40
0.0449215739
 40
0.0599092106
 40
0.0749085515
 40
0.0899223942
 40
0.1049534485
 40
0.1200043231
 40
0.1350775135
 40
0.1501753819
 40
0.1653001488
 40
0.1804538818
 40
0.1956384783
 40
0.2108556627
 40
0.2261069759
 40
0.2413937626
 40
0.2567171739
 40
0.2720781563
 40
0.2874774469
 40
0.3029155785
 40
0.3183928694
 40
0.3339094273
 40
0.349465154
 40
0.3650597386
 40
0.3806926683
 40
0.3963632322
 40
0.412070519
 40
0.4278134329
 40
0.4593959612
 40
0.4911034832
 40
0.522921206
 40
0.5548321517
 40
0.5868175094
 40
0.6188570157
 40
0.6509293577
 40
0.6830125884
 40
0.7150845505
 40
0.7471233041
 40
0.7791075507
 40
0.8110170488
 40
0.8428330164
 40
0.8745385087
 40
0.9061187714
 40
0.9375616069
 40
0.9688573156
 40
1.0
 40
1.0
 40
1.0
 40
1.0
 10
11.9916607235
 20
6.2202411857
 30
0.0
 10
11.9986989528
 20
6.2270396038
 30
0.0
 10
12.0125119853
 20
6.2409150702
 30
0.0
 10
12.0324027919
 20
6.2625258702
 30
0.0
 10
12.051440588
 20
6.2849075845
 30
0.0
 10
12.0695994046
 20
6.3080299788
 30
0.0
 10
12.086855217
 20
6.3318621652
 30
0.0
 10
12.1031848985
 20
6.3563723044
 30
0.0
 10
12.1185665869
 20
6.3815276819
 30
0.0
 10
12.1329798649
 20
6.4072946027
 30
0.0
 10
12.1464053873
 20
6.4336386937
 30
0.0
 10
12.1588252371
 20
6.4605247412
 30
0.0
 10
12.1702229371
 20
6.4879167773
 30
0.0
 10
12.1805831411
 20
6.5157782582
 30
0.0
 10
12.1898921057
 20
6.5440719238
 30
0.0
 10
12.1981374611
 20
6.572759964
 30
0.0
 10
12.205308075
 20
6.6018040902
 30
0.0
 10
12.2113945244
 20
6.631165468
 30
0.0
 10
12.2163886764
 20
6.6608048884
 30
0.0
 10
12.2202837856
 20
6.6906827743
 30
0.0
 10
12.223074822
 20
6.7207592019
 30
0.0
 10
12.2247579898
 20
6.7509940165
 30
0.0
 10
12.2253310366
 20
6.7813468383
 30
0.0
 10
12.2247933454
 20
6.8117771361
 30
0.0
 10
12.2231455206
 20
6.842244279
 30
0.0
 10
12.2203898366
 20
6.8727075771
 30
0.0
 10
12.2165300562
 20
6.9031264032
 30
0.0
 10
12.2115712471
 20
6.9334600026
 30
0.0
 10
12.2055200103
 20
6.963668362
 30
0.0
 10
12.1959971956
 20
7.0037630331
 30
0.0
 10
12.1813972845
 20
7.0533676131
 30
0.0
 10
12.1596933502
 20
7.1116781825
 30
0.0
 10
12.1339006257
 20
7.1685360335
 30
0.0
 10
12.1041573761
 20
7.2236361356
 30
0.0
 10
12.0706222843
 20
7.2766854207
 30
0.0
 10
12.0334743968
 20
7.3274011155
 30
0.0
 10
11.9929118322
 20
7.3755130238
 30
0.0
 10
11.9491508018
 20
7.4207646947
 30
0.0
 10
11.9024245836
 20
7.4629149574
 30
0.0
 10
11.8529822083
 20
7.5017391205
 30
0.0
 10
11.8010871026
 20
7.5370300965
 30
0.0
 10
11.7470157381
 20
7.5685995285
 30
0.0
 10
11.6910562779
 20
7.5962789157
 30
0.0
 10
11.6335068223
 20
7.6199203575
 30
0.0
 10
11.5746743368
 20
7.639397319
 30
0.0
 10
11.5148713982
 20
7.6546054222
 30
0.0
 10
11.4544209813
 20
7.6654629612
 30
0.0
 10
11.4137923174
 20
7.6697731666
 30
0.0
 10
11.3934838913
 20
7.6711815607
 30
0.0
  0
SPLINE
  5
31B
100
AcDbEntity
  8
0
100
AcDbSpline
 62
7
  6
CONTINUOUS
 70
0
 71
3
 72
24
 73
20
 74
0
 42
0.0000001
 43
0.0000001
 44
0.0000000001
 40
0.0
 40
0.0
 40
0.0
 40
0.0
 40
0.0149468868
 40
0.0302740255
 40
0.0624228356
 40
0.0971802057
 40
0.1351723659
 40
0.1769480777
 40
0.2229915706
 40
0.2737369537
 40
0.3295822703
 40
0.3908993789
 40
0.4580404699
 40
0.5313414014
 40
0.6111183054
 40
0.6976615971
 40
0.7912173859
 40
0.891971509
 40
1.0
 40
1.0
 40
1.0
 40
1.0
 10
10.8278181587
 20
7.2814400658
 30
0.0
 10
10.8274951928
 20
7.2816193942
 30
0.0
 10
10.8268564275
 20
7.282011105
 30
0.0
 10
10.8256115968
 20
7.2829248999
 30
0.0
 10
10.8241252712
 20
7.2843239284
 30
0.0
 10
10.8225075782
 20
7.2863595338
 30
0.0
 10
10.8210368366
 20
7.2887856977
 30
0.0
 10
10.8197247816
 20
7.2916107147
 30
0.0
 10
10.8185843656
 20
7.2948447111
 30
0.0
 10
10.8176307433
 20
7.298498522
 30
0.0
 10
10.8168805727
 20
7.3025833727
 30
0.0
 10
10.8163527716
 20
7.3071106904
 30
0.0
 10
10.8160678042
 20
7.31209163
 30
0.0
 10
10.8160479397
 20
7.3175366798
 30
0.0
 10
10.8163171707
 20
7.3234549973
 30
0.0
 10
10.8169008175
 20
7.3298533323
 30
0.0
 10
10.8178250102
 20
7.3367348275
 30
0.0
 10
10.8191159539
 20
7.3440966104
 30
0.0
 10
10.8202001194
 20
7.3491429261
 30
0.0
 10
10.8208066746
 20
7.3517430406
 30
0.0
  0
SPLINE
  5
31C
100
AcDbEntity
  8
0
100
AcDbSpline
 62
7
  6
CONTINUOUS
 70
0
 71
3
 72
99
 73
95
 74
0
 42
0.0000001
 43
0.0000001
 44
0.0000000001
 40
0.0
 40
0.0
 40
0.0
 40
0.0
 40
0.0039801598
 40
0.0081240664
 40
0.0124358899
 40
0.0169192122
 40
0.0215770584
 40
0.0264117681
 40
0.0314250022
 40
0.0366179483
 40
0.041991301
 40
0.0475453876
 40
0.0532801213
 40
0.0591950832
 40
0.0652895525
 40
0.0715624959
 40
0.078012661
 40
0.0846385037
 40
0.0914383012
 40
0.0984100889
 40
0.1055517228
 40
0.1128608819
 40
0.1203350497
 40
0.127971587
 40
0.1437200819
 40
0.1600824406
 40
0.1770323893
 40
0.1945417761
 40
0.2125807407
 40
0.2311178717
 40
0.2501203492
 40
0.2695540741
 40
0.28938379
 40
0.3095731991
 40
0.3300850732
 40
0.3508813603
 40
0.3719232915
 40
0.3931714864
 40
0.4145860543
 40
0.4361266958
 40
0.4577528029
 40
0.4794235585
 40
0.5010980364
 40
0.5227353019
 40
0.544294511
 40
0.5657350104
 40
0.587016437
 40
0.6080988178
 40
0.628942671
 40
0.6495091093
 40
0.6697599441
 40
0.6896577899
 40
0.7091661712
 40
0.7282496331
 40
0.7468738561
 40
0.7650057771
 40
0.7826137192
 40
0.7996675321
 40
0.8161387412
 40
0.8320007167
 40
0.8396956025
 40
0.8472291316
 40
0.854598592
 40
0.8618014283
 40
0.868835234
 40
0.8756978161
 40
0.8823871259
 40
0.8889013654
 40
0.8952389158
 40
0.9013984168
 40
0.9073787594
 40
0.9131790931
 40
0.9187989048
 40
0.9242379644
 40
0.9294964556
 40
0.934574922
 40
0.9394743795
 40
0.9441963359
 40
0.94874284
 40
0.9531165983
 40
0.957320975
 40
0.9613601716
 40
0.9652392395
 40
0.9689642531
 40
0.9725423948
 40
0.9759820724
 40
0.9792930711
 40
0.9824866009
 40
0.9855754361
 40
0.9885738837
 40
0.9914977854
 40
0.9943643686
 40
0.9971920258
 40
1.0
 40
1.0
 40
1.0
 40
1.0
 10
11.2986640403
 20
10.1004516543
 30
0.0
 10
11.3010209139
 20
10.1027282195
 30
0.0
 10
11.3059386558
 20
10.1072652484
 30
0.0
 10
11.3137465175
 20
10.1138919207
 30
0.0
 10
11.3221277394
 20
10.1204710592
 30
0.0
 10
11.3310777238
 20
10.1269991704
 30
0.0
 10
11.3405921072
 20
10.1334732057
 30
0.0
 10
11.3506662278
 20
10.1398900153
 30
0.0
 10
11.361295047
 20
10.1462465226
 30
0.0
 10
11.3724732912
 20
10.1525394289
 30
0.0
 10
11.3841953158
 20
10.1587657138
 30
0.0
 10
11.3964552936
 20
10.1649221739
 30
0.0
 10
11.4092470599
 20
10.1710057813
 30
0.0
 10
11.4225641988
 20
10.1770134621
 30
0.0
 10
11.4364000236
 20
10.1829421518
 30
0.0
 10
11.4507475561
 20
10.1887889328
 30
0.0
 10
11.4655995944
 20
10.1945507543
 30
0.0
 10
11.4809486327
 20
10.2002248035
 30
0.0
 10
11.4967869485
 20
10.2058081246
 30
0.0
 10
11.5131065404
 20
10.2112979439
 30
0.0
 10
11.5298991762
 20
10.2166914687
 30
0.0
 10
11.5471563752
 20
10.2219859338
 30
0.0
 10
11.5648694318
 20
10.2271787414
 30
0.0
 10
11.5893338199
 20
10.2340335747
 30
0.0
 10
11.6209954145
 20
10.2423144831
 30
0.0
 10
11.6602824603
 20
10.2517060941
 30
0.0
 10
11.7011628916
 20
10.2606321527
 30
0.0
 10
11.7435540402
 20
10.2690744782
 30
0.0
 10
11.7873703543
 20
10.2770158749
 30
0.0
 10
11.8325232943
 20
10.2844401728
 30
0.0
 10
11.8789216042
 20
10.2913322562
 30
0.0
 10
11.9264714809
 20
10.2976780962
 30
0.0
 10
11.9750767741
 20
10.3034647774
 30
0.0
 10
12.0246391819
 20
10.3086805245
 30
0.0
 10
12.0750584517
 20
10.3133147239
 30
0.0
 10
12.1262325842
 20
10.3173579507
 30
0.0
 10
12.1780580434
 20
10.3208019851
 30
0.0
 10
12.2304299694
 20
10.3236398251
 30
0.0
 10
12.2832423931
 20
10.3258657012
 30
0.0
 10
12.3363884501
 20
10.3274750876
 30
0.0
 10
12.3897605981
 20
10.3284647113
 30
0.0
 10
12.443250834
 20
10.3288325575
 30
0.0
 10
12.4967509146
 20
10.3285778789
 30
0.0
 10
12.5501525766
 20
10.327701196
 30
0.0
 10
12.603347758
 20
10.3262042922
 30
0.0
 10
12.6562288167
 20
10.324090211
 30
0.0
 10
12.7086887484
 20
10.3213632496
 30
0.0
 10
12.7606214036
 20
10.3180289514
 30
0.0
 10
12.8119217037
 20
10.3140940933
 30
0.0
 10
12.8624858572
 20
10.3095666768
 30
0.0
 10
12.9122115721
 20
10.3044559134
 30
0.0
 10
12.9609982643
 20
10.2987722009
 30
0.0
 10
13.0087472614
 20
10.2925271039
 30
0.0
 10
13.0553620053
 20
10.2857333312
 30
0.0
 10
13.1007482487
 20
10.2784047105
 30
0.0
 10
13.1448142574
 20
10.2705561604
 30
0.0
 10
13.1874709828
 20
10.2622036617
 30
0.0
 10
13.2286323311
 20
10.2533642333
 30
0.0
 10
13.268215061
 20
10.2440558726
 30
0.0
 10
13.3001330219
 20
10.2358432009
 30
0.0
 10
13.3248096683
 20
10.2290413342
 30
0.0
 10
13.3426862881
 20
10.2238861879
 30
0.0
 10
13.3601102736
 20
10.2186283819
 30
0.0
 10
13.377072844
 20
10.2132705784
 30
0.0
 10
13.3935654202
 20
10.2078154403
 30
0.0
 10
13.409579691
 20
10.2022658137
 30
0.0
 10
13.4251075593
 20
10.1966244132
 30
0.0
 10
13.4401412102
 20
10.1908941824
 30
0.0
 10
13.454673055
 20
10.1850779569
 30
0.0
 10
13.4686957779
 20
10.1791787006
 30
0.0
 10
13.4822023289
 20
10.1731994126
 30
0.0
 10
13.4951858974
 20
10.1671430438
 30
0.0
 10
13.5076399925
 20
10.1610127398
 30
0.0
 10
13.5195583299
 20
10.1548114671
 30
0.0
 10
13.5309349769
 20
10.1485424381
 30
0.0
 10
13.5417642168
 20
10.142208704
 30
0.0
 10
13.5520406541
 20
10.135813446
 30
0.0
 10
13.5617591796
 20
10.1293598431
 30
0.0
 10
13.5709149174
 20
10.1228509927
 30
0.0
 10
13.5795033788
 20
10.1162901712
 30
0.0
 10
13.5875202127
 20
10.1096804094
 30
0.0
 10
13.5949615048
 20
10.1030249755
 30
0.0
 10
13.6018234606
 20
10.0963269002
 30
0.0
 10
13.6081026292
 20
10.0895893255
 30
0.0
 10
13.6137957803
 20
10.0828153337
 30
0.0
 10
13.6188997952
 20
10.0760079159
 30
0.0
 10
13.6234119351
 20
10.0691702282
 30
0.0
 10
13.6273293299
 20
10.0623052478
 30
0.0
 10
13.6306495768
 20
10.0554162725
 30
0.0
 10
13.6333701279
 20
10.0485065568
 30
0.0
 10
13.6354888371
 20
10.0415797793
 30
0.0
 10
13.6370037886
 20
10.0346396177
 30
0.0
 10
13.6379133546
 20
10.0276909386
 30
0.0
 10
13.6381158421
 20
10.0230486798
 30
0.0
 10
13.6381158417
 20
10.0207369012
 30
0.0
  0
SPLINE
  5
31D
100
AcDbEntity
  8
0
100
AcDbSpline
 62
7
  6
CONTINUOUS
 70
0
 71
3
 72
20
 73
16
 74
0
 42
0.0000001
 43
0.0000001
 44
0.0000000001
 40
0.0
 40
0.0
 40
0.0
 40
0.0
 40
0.0548579917
 40
0.1099199293
 40
0.1653872459
 40
0.2214567063
 40
0.2783181011
 40
0.3361525857
 40
0.3951315812
 40
0.4554152184
 40
0.5804413563
 40
0.6454834332
 40
0.7123556605
 40
0.8519687085
 40
1.0
 40
1.0
 40
1.0
 40
1.0
 10
7.8773752494
 20
10.2551920575
 30
0.0
 10
7.8773752497
 20
10.2568726695
 30
0.0
 10
7.8774819367
 20
10.2602411064
 30
0.0
 10
7.8779615649
 20
10.2652882832
 30
0.0
 10
7.8787606673
 20
10.270332545
 30
0.0
 10
7.8798790007
 20
10.2753720809
 30
0.0
 10
7.8813160549
 20
10.2804054988
 30
0.0
 10
7.8830712172
 20
10.2854313243
 30
0.0
 10
7.8851440165
 20
10.2904482918
 30
0.0
 10
7.8883688351
 20
10.2972049749
 30
0.0
 10
7.8922061815
 20
10.3038624474
 30
0.0
 10
7.8965945166
 20
10.3103993275
 30
0.0
 10
7.9015296887
 20
10.3170987604
 30
0.0
 10
7.9085148028
 20
10.3254307766
 30
0.0
 10
7.9146616
 20
10.3317561072
 30
0.0
 10
7.917923448
 20
10.3349068107
 30
0.0
  0
SPLINE
  5
31E
100
AcDbEntity
  8
0
100
AcDbSpline
 62
7
  6
CONTINUOUS
 70
0
 71
3
 72
15
 73
11
 74
0
 42
0.0000001
 43
0.0000001
 44
0.0000000001
 40
0.0
 40
0.0
 40
0.0
 40
0.0
 40
0.1448194778
 40
0.2829366311
 40
0.4147523671
 40
0.5407664789
 40
0.6615695158
 40
0.777843463
 40
0.8903641022
 40
1.0
 40
1.0
 40
1.0
 40
1.0
 10
7.917923448
 20
10.303997181
 30
0.0
 10
7.9152743144
 20
10.3014383142
 30
0.0
 10
7.9102260234
 20
10.2963044066
 30
0.0
 10
7.9032743868
 20
10.2883625156
 30
0.0
 10
7.8971336606
 20
10.2803719603
 30
0.0
 10
7.8918089806
 20
10.2723380349
 30
0.0
 10
7.8873050041
 20
10.2642653645
 30
0.0
 10
7.8836259374
 20
10.256158759
 30
0.0
 10
7.8807765689
 20
10.2480247001
 30
0.0
 10
7.8794183249
 20
10.2425295146
 30
0.0
 10
7.8788851257
 20
10.2397926213
 30
0.0
  0
SPLINE
  5
31F
100
AcDbEntity
  8
0
100
AcDbSpline
 62
7
  6
CONTINUOUS
 70
0
 71
3
 72
98
 73
94
 74
0
 42
0.0000001
 43
0.0000001
 44
0.0000000001
 40
0.0
 40
0.0
 40
0.0
 40
0.0
 40
0.0039362478
 40
0.0080317333
 40
0.0122904587
 40
0.0167158604
 40
0.0213108615
 40
0.0260777664
 40
0.0310182099
 40
0.0361333767
 40
0.0414239867
 40
0.0468903924
 40
0.0525325878
 40
0.0583502058
 40
0.0643426285
 40
0.0705089147
 40
0.0768479135
 40
0.0833582226
 40
0.0900382179
 40
0.0968861063
 40
0.1038998621
 40
0.1110773323
 40
0.1184161631
 40
0.1259138619
 40
0.1413749407
 40
0.1574380897
 40
0.1740785647
 40
0.1912698179
 40
0.2089836634
 40
0.2271904235
 40
0.245859061
 40
0.2649572989
 40
0.2844517338
 40
0.3043079498
 40
0.3244906232
 40
0.3449636225
 40
0.3656901063
 40
0.3866326179
 40
0.4077531806
 40
0.4290133949
 40
0.4503745308
 40
0.4717976203
 40
0.4932435487
 40
0.5146731466
 40
0.5360472837
 40
0.5573269614
 40
0.5784734037
 40
0.5994481498
 40
0.6202131462
 40
0.6407308429
 40
0.6609642899
 40
0.680877231
 40
0.7004342013
 40
0.719600627
 40
0.7383429289
 40
0.7566286346
 40
0.774426493
 40
0.7917065917
 40
0.8084404872
 40
0.8246013485
 40
0.8401641189
 40
0.847714045
 40
0.8551059671
 40
0.8623373388
 40
0.8694057577
 40
0.876309013
 40
0.8830450192
 40
0.8896119223
 40
0.8960080263
 40
0.9022318603
 40
0.9082821898
 40
0.9141579903
 40
0.9198585517
 40
0.9253834037
 40
0.9307324295
 40
0.935905847
 40
0.9409042456
 40
0.9457286777
 40
0.9503806218
 40
0.9548621356
 40
0.9591758375
 40
0.9633250236
 40
0.9673137542
 40
0.9711468963
 40
0.9748303052
 40
0.9783708455
 40
0.9817765727
 40
0.9850568059
 40
0.9882222204
 40
0.9912849555
 40
0.9942585878
 40
0.9971581538
 40
1.0
 40
1.0
 40
1.0
 40
1.0
 10
7.917923448
 20
10.303997181
 30
0.0
 10
7.9202403242
 20
10.3062351117
 30
0.0
 10
7.9250711995
 20
10.3106954633
 30
0.0
 10
7.9327347271
 20
10.3172130892
 30
0.0
 10
7.940952865
 20
10.3236848937
 30
0.0
 10
7.9497212479
 20
10.3301075023
 30
0.0
 10
7.9590357102
 20
10.3364780404
 30
0.0
 10
7.9688918678
 20
10.3427934793
 30
0.0
 10
7.9792849417
 20
10.3490509315
 30
0.0
 10
7.990209949
 20
10.3552472491
 30
0.0
 10
8.0016615591
 20
10.3613795194
 30
0.0
 10
8.0136342432
 20
10.3674447567
 30
0.0
 10
8.0261222094
 20
10.373439991
 30
0.0
 10
8.0391193726
 20
10.3793623858
 30
0.0
 10
8.0526194456
 20
10.3852089476
 30
0.0
 10
8.0666158309
 20
10.390976924
 30
0.0
 10
8.0811017317
 20
10.3966634306
 30
0.0
 10
8.0960700834
 20
10.4022657062
 30
0.0
 10
8.111513583
 20
10.4077810427
 30
0.0
 10
8.1274247098
 20
10.4132066656
 30
0.0
 10
8.1437956832
 20
10.4185400127
 30
0.0
 10
8.1606185202
 20
10.4237783787
 30
0.0
 10
8.1778850105
 20
10.4289192808
 30
0.0
 10
8.2017314565
 20
10.4357098986
 30
0.0
 10
8.2325938652
 20
10.4439222598
 30
0.0
 10
8.2708921339
 20
10.4532511461
 30
0.0
 10
8.3107481432
 20
10.4621337118
 30
0.0
 10
8.3520839464
 20
10.4705524758
 30
0.0
 10
8.3948188814
 20
10.4784908558
 30
0.0
 10
8.4388694534
 20
10.4859332207
 30
0.0
 10
8.4841495819
 20
10.492864915
 30
0.0
 10
8.5305707476
 20
10.4992722927
 30
0.0
 10
8.5780421761
 20
10.5051427516
 30
0.0
 10
8.6264710228
 20
10.510464744
 30
0.0
 10
8.6757625606
 20
10.5152278022
 30
0.0
 10
8.7258203667
 20
10.5194225574
 30
0.0
 10
8.7765465099
 20
10.5230407567
 30
0.0
 10
8.8278417422
 20
10.5260752844
 30
0.0
 10
8.8796056947
 20
10.5285201804
 30
0.0
 10
8.9317370782
 20
10.5303706407
 30
0.0
 10
8.9841338838
 20
10.5316230283
 30
0.0
 10
9.0366935812
 20
10.53227488
 30
0.0
 10
9.0893133188
 20
10.53232491
 30
0.0
 10
9.1418901263
 20
10.5317730189
 30
0.0
 10
9.1943211183
 20
10.5306202967
 30
0.0
 10
9.2465036972
 20
10.5288690109
 30
0.0
 10
9.2983357536
 20
10.5265226039
 30
0.0
 10
9.3497158649
 20
10.5235856863
 30
0.0
 10
9.4005434955
 20
10.5200640268
 30
0.0
 10
9.450719197
 20
10.5159645491
 30
0.0
 10
9.5001448063
 20
10.5112953192
 30
0.0
 10
9.5487236367
 20
10.5060655213
 30
0.0
 10
9.5963606665
 20
10.5002854419
 30
0.0
 10
9.642962725
 20
10.4939664508
 30
0.0
 10
9.6884386811
 20
10.4871209764
 30
0.0
 10
9.7326996277
 20
10.4797624921
 30
0.0
 10
9.7756590679
 20
10.4719054889
 30
0.0
 10
9.817233063
 20
10.4635654371
 30
0.0
 10
9.8573404779
 20
10.4547587644
 30
0.0
 10
9.8959028697
 20
10.4455028013
 30
0.0
 10
9.9269939939
 20
10.437350213
 30
0.0
 10
9.9510295911
 20
10.4306060009
 30
0.0
 10
9.9684416849
 20
10.4254980722
 30
0.0
 10
9.9854129041
 20
10.4202918288
 30
0.0
 10
10.0019349673
 20
10.4149897519
 30
0.0
 10
10.0179998151
 20
10.4095945241
 30
0.0
 10
10.033599591
 20
10.404108692
 30
0.0
 10
10.0487266982
 20
10.3985350253
 30
0.0
 10
10.0633737522
 20
10.3928762029
 30
0.0
 10
10.0775336121
 20
10.3871349912
 30
0.0
 10
10.0911993954
 20
10.381314248
 30
0.0
 10
10.1043644256
 20
10.3754167225
 30
0.0
 10
10.1170223329
 20
10.3694453965
 30
0.0
 10
10.1291669425
 20
10.3634030842
 30
0.0
 10
10.1407923786
 20
10.3572927707
 30
0.0
 10
10.1518930154
 20
10.3511174214
 30
0.0
 10
10.1624634546
 20
10.344879952
 30
0.0
 10
10.1724986406
 20
10.3385834664
 30
0.0
 10
10.1819936771
 20
10.3322308519
 30
0.0
 10
10.1909440439
 20
10.3258252261
 30
0.0
 10
10.1993454111
 20
10.3193695517
 30
0.0
 10
10.2071937218
 20
10.3128668257
 30
0.0
 10
10.2144852476
 20
10.3063201189
 30
0.0
 10
10.2212163567
 20
10.2997322891
 30
0.0
 10
10.2273838546
 20
10.2931064196
 30
0.0
 10
10.232984566
 20
10.286445338
 30
0.0
 10
10.2380156435
 20
10.2797520101
 30
0.0
 10
10.2424743975
 20
10.2730293694
 30
0.0
 10
10.2463581558
 20
10.2662802861
 30
0.0
 10
10.249664642
 20
10.2595079412
 30
0.0
 10
10.2523914214
 20
10.252715232
 30
0.0
 10
10.2545364254
 20
10.2459062564
 30
0.0
 10
10.2555860107
 20
10.2413201599
 30
0.0
 10
10.2560096365
 20
10.2390334506
 30
0.0
  0
SPLINE
  5
320
100
AcDbEntity
  8
0
100
AcDbSpline
 62
7
  6
CONTINUOUS
 70
0
 71
3
 72
102
 73
98
 74
0
 42
0.0000001
 43
0.0000001
 44
0.0000000001
 40
0.0
 40
0.0
 40
0.0
 40
0.0
 40
0.0041938757
 40
0.0085761785
 40
0.0131519785
 40
0.0179255273
 40
0.0229003358
 40
0.028079045
 40
0.0334633958
 40
0.0390545282
 40
0.0448529478
 40
0.0508586892
 40
0.0570712874
 40
0.0634898283
 40
0.070113055
 40
0.0769392907
 40
0.0839666027
 40
0.0911927011
 40
0.0986150484
 40
0.1062308515
 40
0.1140370441
 40
0.1220303904
 40
0.1385640535
 40
0.1558020293
 40
0.1737113251
 40
0.1922564028
 40
0.2113994302
 40
0.2311005132
 40
0.2513179003
 40
0.2720081709
 40
0.2931264108
 40
0.3146263806
 40
0.3364606744
 40
0.3585808824
 40
0.3809377469
 40
0.4034813143
 40
0.4261610848
 40
0.4489261615
 40
0.4717253989
 40
0.4945075528
 40
0.5172214295
 40
0.5398160339
 40
0.5622407169
 40
0.5844453243
 40
0.6063803472
 40
0.6279970779
 40
0.6492477621
 40
0.6700857549
 40
0.6904656804
 40
0.7103435977
 40
0.7296771747
 40
0.7484258776
 40
0.7665511697
 40
0.7840167246
 40
0.8007886686
 40
0.8089048463
 40
0.8168361893
 40
0.824579271
 40
0.832130925
 40
0.8394881521
 40
0.8466482659
 40
0.8536087908
 40
0.8603675635
 40
0.8669227338
 40
0.8732727494
 40
0.8794164857
 40
0.8853531493
 40
0.8910824543
 40
0.8966045663
 40
0.9019202083
 40
0.9070307444
 40
0.9119381784
 40
0.9166453673
 40
0.9211559917
 40
0.9254747931
 40
0.9296076434
 40
0.9335617121
 40
0.9373456839
 40
0.9409698479
 40
0.9444463823
 40
0.9477894095
 40
0.9510151723
 40
0.9541420342
 40
0.957190382
 40
0.9601824244
 40
0.9631417573
 40
0.9660928515
 40
0.9690603956
 40
0.9720686411
 40
0.9751407778
 40
0.9782984514
 40
0.9815613553
 40
0.9849471405
 40
0.9884713926
 40
0.9921476919
 40
0.9959874627
 40
1.0
 40
1.0
 40
1.0
 40
1.0
 10
8.2656567661
 20
10.2798817934
 30
0.0
 10
8.2674533497
 20
10.2816171601
 30
0.0
 10
8.2712165771
 20
10.2850742905
 30
0.0
 10
8.2772185082
 20
10.2901112816
 30
0.0
 10
8.2836955992
 20
10.29510827
 30
0.0
 10
8.2906436353
 20
10.3000620949
 30
0.0
 10
8.2980585826
 20
10.3049700362
 30
0.0
 10
8.3059361446
 20
10.3098292382
 30
0.0
 10
8.3142716357
 20
10.3146369644
 30
0.0
 10
8.3230601468
 20
10.3193902265
 30
0.0
 10
8.3322964033
 20
10.3240863046
 30
0.0
 10
8.3419749339
 20
10.3287223457
 30
0.0
 10
8.3520899644
 20
10.3332955926
 30
0.0
 10
8.3626354442
 20
10.3378033464
 30
0.0
 10
8.3736050859
 20
10.342242815
 30
0.0
 10
8.3849922967
 20
10.3466114333
 30
0.0
 10
8.3967902742
 20
10.3509064755
 30
0.0
 10
8.4089919274
 20
10.355125424
 30
0.0
 10
8.4215899405
 20
10.3592657109
 30
0.0
 10
8.4345767466
 20
10.3633248137
 30
0.0
 10
8.4479445515
 20
10.3673003682
 30
0.0
 10
8.4664744084
 20
10.3725454037
 30
0.0
 10
8.4905366471
 20
10.3788623334
 30
0.0
 10
8.5204833816
 20
10.3859896348
 30
0.0
 10
8.5517461875
 20
10.392729343
 30
0.0
 10
8.5842498601
 20
10.3990651068
 30
0.0
 10
8.6179163603
 20
10.4049815534
 30
0.0
 10
8.6526647464
 20
10.4104643314
 30
0.0
 10
8.6884114585
 20
10.4155001438
 30
0.0
 10
8.7250705046
 20
10.4200767799
 30
0.0
 10
8.7625536777
 20
10.4241831442
 30
0.0
 10
8.8007707676
 20
10.4278092811
 30
0.0
 10
8.8396297807
 20
10.4309464081
 30
0.0
 10
8.8790371666
 20
10.4335869292
 30
0.0
 10
8.9188980485
 20
10.4357244506
 30
0.0
 10
8.959116453
 20
10.437353796
 30
0.0
 10
8.9995955416
 20
10.4384710188
 30
0.0
 10
9.0402378438
 20
10.4390734103
 30
0.0
 10
9.0809454928
 20
10.4391595111
 30
0.0
 10
9.1216204639
 20
10.4387291171
 30
0.0
 10
9.1621648129
 20
10.437783272
 30
0.0
 10
9.202480912
 20
10.4363242662
 30
0.0
 10
9.2424716853
 20
10.4343556312
 30
0.0
 10
9.2820408422
 20
10.4318821316
 30
0.0
 10
9.3210931128
 20
10.4289097537
 30
0.0
 10
9.3595344814
 20
10.4254457009
 30
0.0
 10
9.3972724148
 20
10.4214983679
 30
0.0
 10
9.4342160856
 20
10.4170773204
 30
0.0
 10
9.4702765925
 20
10.4121932735
 30
0.0
 10
9.5053671752
 20
10.4068580665
 30
0.0
 10
9.5394034371
 20
10.4010846339
 30
0.0
 10
9.5723035381
 20
10.3948869805
 30
0.0
 10
9.6039884756
 20
10.3882801541
 30
0.0
 10
9.634382018
 20
10.3812801716
 30
0.0
 10
9.6588331838
 20
10.3750674618
 30
0.0
 10
9.677686126
 20
10.3699031315
 30
0.0
 10
9.6913034878
 20
10.3659846873
 30
0.0
 10
9.7045451726
 20
10.3619810174
 30
0.0
 10
9.7174032482
 20
10.3578945934
 30
0.0
 10
9.7298699736
 20
10.3537277915
 30
0.0
 10
9.7419378786
 20
10.349483208
 30
0.0
 10
9.7535997139
 20
10.3451633452
 30
0.0
 10
9.7648484872
 20
10.3407708153
 30
0.0
 10
9.7756774695
 20
10.3363082991
 30
0.0
 10
9.7860801574
 20
10.3317783968
 30
0.0
 10
9.7960503613
 20
10.3271839326
 30
0.0
 10
9.8055820978
 20
10.3225275502
 30
0.0
 10
9.8146697105
 20
10.3178121117
 30
0.0
 10
9.8233077837
 20
10.3130403879
 30
0.0
 10
9.8314911764
 20
10.3082151829
 30
0.0
 10
9.8392150771
 20
10.3033394146
 30
0.0
 10
9.8464748617
 20
10.2984158162
 30
0.0
 10
9.8532663143
 20
10.2934473657
 30
0.0
 10
9.8595853706
 20
10.2884367952
 30
0.0
 10
9.8654283353
 20
10.2833869931
 30
0.0
 10
9.8707917472
 20
10.2783007541
 30
0.0
 10
9.8756723279
 20
10.2731807836
 30
0.0
 10
9.8800671824
 20
10.2680299187
 30
0.0
 10
9.8839733681
 20
10.262850733
 30
0.0
 10
9.8873883716
 20
10.2576460464
 30
0.0
 10
9.8903095714
 20
10.2524185187
 30
0.0
 10
9.8927345834
 20
10.2471710383
 30
0.0
 10
9.8946611852
 20
10.2419066805
 30
0.0
 10
9.8960871432
 20
10.2366287542
 30
0.0
 10
9.8970109119
 20
10.2313410273
 30
0.0
 10
9.8974310014
 20
10.2260475158
 30
0.0
 10
9.89734699
 20
10.2207525538
 30
0.0
 10
9.8967589053
 20
10.2154605007
 30
0.0
 10
9.8956675783
 20
10.2101756106
 30
0.0
 10
9.8940745513
 20
10.2049017932
 30
0.0
 10
9.8919815296
 20
10.1996427192
 30
0.0
 10
9.8893909165
 20
10.1944015644
 30
0.0
 10
9.8863048702
 20
10.1891813743
 30
0.0
 10
9.882725869
 20
10.1839848474
 30
0.0
 10
9.8786563395
 20
10.1788146786
 30
0.0
 10
9.8740993122
 20
10.173673909
 30
0.0
 10
9.8708126341
 20
10.1703433935
 30
0.0
 10
9.8690937327
 20
10.1686830621
 30
0.0
  0
SPLINE
  5
321
100
AcDbEntity
  8
0
100
AcDbSpline
 62
7
  6
CONTINUOUS
 70
0
 71
3
 72
53
 73
49
 74
0
 42
0.0000001
 43
0.0000001
 44
0.0000000001
 40
0.0
 40
0.0
 40
0.0
 40
0.0
 40
0.0311426844
 40
0.0624383931
 40
0.0938812286
 40
0.1254614913
 40
0.1571669836
 40
0.1889829512
 40
0.2208924493
 40
0.2528766959
 40
0.2849154495
 40
0.3169874116
 40
0.3490706423
 40
0.3811429843
 40
0.4131824906
 40
0.4451678483
 40
0.477078794
 40
0.5088965168
 40
0.5406040388
 40
0.5721865671
 40
0.587929481
 40
0.6036367678
 40
0.6193073317
 40
0.6349402614
 40
0.650534846
 40
0.6660905727
 40
0.6816071306
 40
0.6970844215
 40
0.7125225531
 40
0.7279218437
 40
0.7432828261
 40
0.7586062374
 40
0.7738930241
 40
0.7891443373
 40
0.8043615217
 40
0.8195461182
 40
0.8346998512
 40
0.8498246181
 40
0.8649224865
 40
0.8799956769
 40
0.8950465515
 40
0.9100776058
 40
0.9250914485
 40
0.9400907894
 40
0.9550784261
 40
0.9700572226
 40
0.985030096
 40
1.0
 40
1.0
 40
1.0
 40
1.0
 10
8.7352558847
 20
6.1922059277
 30
0.0
 10
8.7149474586
 20
6.1936143218
 30
0.0
 10
8.6743187947
 20
6.1979245272
 30
0.0
 10
8.6138683778
 20
6.2087820661
 30
0.0
 10
8.5540654392
 20
6.2239901694
 30
0.0
 10
8.4952329537
 20
6.2434671309
 30
0.0
 10
8.4376834982
 20
6.2671085727
 30
0.0
 10
8.381724038
 20
6.2947879598
 30
0.0
 10
8.3276526734
 20
6.3263573919
 30
0.0
 10
8.2757575677
 20
6.3616483679
 30
0.0
 10
8.2263151924
 20
6.400472531
 30
0.0
 10
8.1795889742
 20
6.4426227936
 30
0.0
 10
8.1358279438
 20
6.4878744645
 30
0.0
 10
8.0952653792
 20
6.5359863728
 30
0.0
 10
8.0581174918
 20
6.5867020676
 30
0.0
 10
8.0245823999
 20
6.6397513527
 30
0.0
 10
7.9948391504
 20
6.6948514548
 30
0.0
 10
7.9690464258
 20
6.7517093058
 30
0.0
 10
7.9473424916
 20
6.8100198753
 30
0.0
 10
7.9327425804
 20
6.8596244553
 30
0.0
 10
7.9232197657
 20
6.8997191264
 30
0.0
 10
7.9171685289
 20
6.9299274857
 30
0.0
 10
7.9122097198
 20
6.9602610852
 30
0.0
 10
7.9083499394
 20
6.9906799113
 30
0.0
 10
7.9055942554
 20
7.0211432093
 30
0.0
 10
7.9039464307
 20
7.0516103523
 30
0.0
 10
7.9034087394
 20
7.0820406501
 30
0.0
 10
7.9039817862
 20
7.1123934719
 30
0.0
 10
7.9056649541
 20
7.1426282864
 30
0.0
 10
7.9084559904
 20
7.1727047141
 30
0.0
 10
7.9123510997
 20
7.2025826
 30
0.0
 10
7.9173452517
 20
7.2322220203
 30
0.0
 10
7.923431701
 20
7.2615833981
 30
0.0
 10
7.9306023149
 20
7.2906275243
 30
0.0
 10
7.9388476703
 20
7.3193155645
 30
0.0
 10
7.9481566349
 20
7.3476092301
 30
0.0
 10
7.9585168389
 20
7.375470711
 30
0.0
 10
7.9699145389
 20
7.4028627471
 30
0.0
 10
7.9823343887
 20
7.4297487946
 30
0.0
 10
7.9957599111
 20
7.4560928856
 30
0.0
 10
8.0101731891
 20
7.4818598064
 30
0.0
 10
8.0255548776
 20
7.5070151839
 30
0.0
 10
8.041884559
 20
7.5315253231
 30
0.0
 10
8.0591403714
 20
7.5553575095
 30
0.0
 10
8.077299188
 20
7.5784799039
 30
0.0
 10
8.0963369841
 20
7.6008616181
 30
0.0
 10
8.1162277908
 20
7.6224724181
 30
0.0
 10
8.1300408232
 20
7.6363478846
 30
0.0
 10
8.1370790525
 20
7.6431463027
 30
0.0
  0
SPLINE
  5
322
100
AcDbEntity
  8
0
100
AcDbSpline
 62
7
  6
CONTINUOUS
 70
0
 71
3
 72
95
 73
91
 74
0
 42
0.0000001
 43
0.0000001
 44
0.0000000001
 40
0.0
 40
0.0
 40
0.0
 40
0.0
 40
0.0039800858
 40
0.0081240041
 40
0.0124358998
 40
0.0169192731
 40
0.0215771033
 40
0.0264117919
 40
0.0314250347
 40
0.0366179809
 40
0.0419913616
 40
0.0475454444
 40
0.0532801805
 40
0.0591951586
 40
0.0652896206
 40
0.0715625858
 40
0.0780127517
 40
0.0846385995
 40
0.0914384113
 40
0.0984102006
 40
0.1128607044
 40
0.1279711537
 40
0.1437196616
 40
0.1600820424
 40
0.1770320182
 40
0.1945414237
 40
0.2125804013
 40
0.2311175517
 40
0.2501200557
 40
0.2695538044
 40
0.2893835407
 40
0.3095729728
 40
0.3300848732
 40
0.3508811835
 40
0.371923136
 40
0.3931713544
 40
0.414585949
 40
0.4361266159
 40
0.4577527469
 40
0.4794235271
 40
0.5010980302
 40
0.5227353199
 40
0.544294554
 40
0.5657350798
 40
0.5870165298
 40
0.6080989315
 40
0.6289428084
 40
0.6495092744
 40
0.6697601335
 40
0.6896579991
 40
0.7091664024
 40
0.7282498894
 40
0.7468741326
 40
0.7650060683
 40
0.782614031
 40
0.7996678713
 40
0.8161391032
 40
0.8320010902
 40
0.8472292528
 40
0.8618012669
 40
0.8688350803
 40
0.875697674
 40
0.8823869889
 40
0.8889012335
 40
0.8952387991
 40
0.9013982983
 40
0.9073786526
 40
0.9131789952
 40
0.9187988023
 40
0.924237885
 40
0.9294963677
 40
0.934574846
 40
0.9394743136
 40
0.9441962632
 40
0.9487427872
 40
0.9531165389
 40
0.9573209245
 40
0.9613601299
 40
0.9652391952
 40
0.9689642183
 40
0.9725423626
 40
0.9759820424
 40
0.9792930474
 40
0.9824865804
 40
0.9855754165
 40
0.9885738724
 40
0.9914977734
 40
0.9943643613
 40
0.9971920228
 40
1.0
 40
1.0
 40
1.0
 40
1.0
 10
8.3429308368
 20
10.1972487478
 30
0.0
 10
8.344416232
 20
10.1986835294
 30
0.0
 10
8.3475156285
 20
10.2015429691
 30
0.0
 10
8.3524365523
 20
10.2057194357
 30
0.0
 10
8.3577188611
 20
10.2098660194
 30
0.0
 10
8.3633596573
 20
10.2139803882
 30
0.0
 10
8.3693561072
 20
10.2180606751
 30
0.0
 10
8.3757053304
 20
10.2221048598
 30
0.0
 10
8.3824041662
 20
10.2261110305
 30
0.0
 10
8.3894492622
 20
10.2300771964
 30
0.0
 10
8.3968371151
 20
10.2340012905
 30
0.0
 10
8.4045639834
 20
10.237881437
 30
0.0
 10
8.4126260201
 20
10.2417156398
 30
0.0
 10
8.4210191799
 20
10.2455019698
 30
0.0
 10
8.4297392277
 20
10.249238575
 30
0.0
 10
8.4387817998
 20
10.2529234884
 30
0.0
 10
8.4481423244
 20
10.2565549074
 30
0.0
 10
8.4578160849
 20
10.2601309851
 30
0.0
 10
8.4677982264
 20
10.2636498875
 30
0.0
 10
8.4816782525
 20
10.2683190058
 30
0.0
 10
8.4997692016
 20
10.273988492
 30
0.0
 10
8.522374046
 20
10.2804576608
 30
0.0
 10
8.5460808138
 20
10.286658099
 30
0.0
 10
8.5708416205
 20
10.292577177
 30
0.0
 10
8.596606588
 20
10.2982028365
 30
0.0
 10
8.623323702
 20
10.3035236305
 30
0.0
 10
8.6509390173
 20
10.3085287205
 30
0.0
 10
8.6793967498
 20
10.3132079023
 30
0.0
 10
8.7086393851
 20
10.3175516458
 30
0.0
 10
8.7386077968
 20
10.321551123
 30
0.0
 10
8.7692413837
 20
10.3251981947
 30
0.0
 10
8.8004781951
 20
10.3284854318
 30
0.0
 10
8.8322550472
 20
10.3314061395
 30
0.0
 10
8.8645076511
 20
10.3339543914
 30
0.0
 10
8.8971707527
 20
10.3361250071
 30
0.0
 10
8.9301782678
 20
10.337913567
 30
0.0
 10
8.9634634099
 20
10.3393164233
 30
0.0
 10
8.9969588249
 20
10.3403307378
 30
0.0
 10
9.0305967327
 20
10.3409544518
 30
0.0
 10
9.0643090656
 20
10.3411862936
 30
0.0
 10
9.0980276032
 20
10.3410257787
 30
0.0
 10
9.1316841126
 20
10.340473245
 30
0.0
 10
9.165210488
 20
10.3395298212
 30
0.0
 10
9.198538887
 20
10.3381974229
 30
0.0
 10
9.2316018674
 20
10.3364787447
 30
0.0
 10
9.2643325293
 20
10.3343772896
 30
0.0
 10
9.2966646514
 20
10.3318973382
 30
0.0
 10
9.3285328185
 20
10.3290439328
 30
0.0
 10
9.3598725557
 20
10.3258228634
 30
0.0
 10
9.3906204689
 20
10.3222406865
 30
0.0
 10
9.4207143743
 20
10.3183047009
 30
0.0
 10
9.4500934159
 20
10.3140229165
 30
0.0
 10
9.478698189
 20
10.3094040367
 30
0.0
 10
9.5064708771
 20
10.3044574643
 30
0.0
 10
9.5333553736
 20
10.2991932855
 30
0.0
 10
9.5592973912
 20
10.293622224
 30
0.0
 10
9.5842445522
 20
10.2877556173
 30
0.0
 10
9.6081465901
 20
10.2816054128
 30
0.0
 10
9.6309552197
 20
10.2751841402
 30
0.0
 10
9.6492219745
 20
10.2695538502
 30
0.0
 10
9.6632468192
 20
10.2649150086
 30
0.0
 10
9.6733398562
 20
10.2614173359
 30
0.0
 10
9.6831263246
 20
10.2578618329
 30
0.0
 10
9.6926013137
 20
10.2542503342
 30
0.0
 10
9.7017600444
 20
10.2505846638
 30
0.0
 10
9.7105978893
 20
10.2468666262
 30
0.0
 10
9.7191104239
 20
10.2430981759
 30
0.0
 10
9.7272933481
 20
10.239281147
 30
0.0
 10
9.7351425569
 20
10.2354174795
 30
0.0
 10
9.742654131
 20
10.2315091566
 30
0.0
 10
9.749824272
 20
10.2275580517
 30
0.0
 10
9.7566494284
 20
10.2235662168
 30
0.0
 10
9.7631261829
 20
10.2195356058
 30
0.0
 10
9.7692512839
 20
10.2154681733
 30
0.0
 10
9.7750217319
 20
10.2113660001
 30
0.0
 10
9.7804346067
 20
10.2072309943
 30
0.0
 10
9.7854872402
 20
10.2030651907
 30
0.0
 10
9.790177141
 20
10.1988705995
 30
0.0
 10
9.7945018842
 20
10.1946491028
 30
0.0
 10
9.7984593589
 20
10.1904027495
 30
0.0
 10
9.8020474743
 20
10.1861334208
 30
0.0
 10
9.8052642843
 20
10.1818430276
 30
0.0
 10
9.8081080789
 20
10.1775335668
 30
0.0
 10
9.810577028
 20
10.1732068992
 30
0.0
 10
9.8126695945
 20
10.1688650961
 30
0.0
 10
9.814384275
 20
10.1645102524
 30
0.0
 10
9.815719551
 20
10.1601446204
 30
0.0
 10
9.8166743695
 20
10.1557705759
 30
0.0
 10
9.8172476504
 20
10.1513911558
 30
0.0
 10
9.8173752212
 20
10.1484653603
 30
0.0
 10
9.8173752251
 20
10.1470083571
 30
0.0
  0
SPLINE
  5
323
100
AcDbEntity
  8
0
100
AcDbSpline
 62
7
  6
CONTINUOUS
 70
0
 71
3
 72
21
 73
17
 74
0
 42
0.0000001
 43
0.0000001
 44
0.0000000001
 40
0.0
 40
0.0
 40
0.0
 40
0.0
 40
0.1267948843
 40
0.2530337259
 40
0.3159557352
 40
0.3787429632
 40
0.441397645
 40
0.5039229569
 40
0.5663224814
 40
0.6286002277
 40
0.6907607935
 40
0.752809261
 40
0.8147511882
 40
0.8765925892
 40
0.9383399052
 40
1.0
 40
1.0
 40
1.0
 40
1.0
 10
9.0724968222
 20
6.5179556781
 30
0.0
 10
9.0900015912
 20
6.5167417183
 30
0.0
 10
9.1250200923
 20
6.5154166275
 30
0.0
 10
9.1687608767
 20
6.5165426872
 30
0.0
 10
9.2035373665
 20
6.5191159874
 30
0.0
 10
9.2294627813
 20
6.5218757045
 30
0.0
 10
9.2552308907
 20
6.5254643384
 30
0.0
 10
9.2808161434
 20
6.5298784234
 30
0.0
 10
9.3061928964
 20
6.5351133491
 30
0.0
 10
9.3313356982
 20
6.5411641302
 30
0.0
 10
9.3562194088
 20
6.5480244677
 30
0.0
 10
9.3808190524
 20
6.555687724
 30
0.0
 10
9.4051100121
 20
6.5641460471
 30
0.0
 10
9.4290680082
 20
6.5733911286
 30
0.0
 10
9.4526687122
 20
6.5834135075
 30
0.0
 10
9.4681597456
 20
6.59061182
 30
0.0
 10
9.4758367435
 20
6.5943367953
 30
0.0
  0
SPLINE
  5
324
100
AcDbEntity
  8
0
100
AcDbSpline
 62
7
  6
CONTINUOUS
 70
0
 71
3
 72
45
 73
41
 74
0
 42
0.0000001
 43
0.0000001
 44
0.0000000001
 40
0.0
 40
0.0
 40
0.0
 40
0.0
 40
0.0309549034
 40
0.0620432811
 40
0.0932611254
 40
0.1246017213
 40
0.15605678
 40
0.1876161421
 40
0.2192680867
 40
0.2509994878
 40
0.2827960299
 40
0.3146424271
 40
0.3465226554
 40
0.3784201916
 40
0.410318258
 40
0.4422000689
 40
0.4740490782
 40
0.5058492232
 40
0.5375851649
 40
0.5692425193
 40
0.6008080802
 40
0.6322700272
 40
0.6636181184
 40
0.6948438641
 40
0.7259406782
 40
0.7569040047
 40
0.7877314155
 40
0.8184226775
 40
0.833719794
 40
0.8489838096
 40
0.8642153207
 40
0.8794150599
 40
0.8945838973
 40
0.9097228295
 40
0.9248329874
 40
0.9399156194
 40
0.9549720991
 40
0.9700039099
 40
0.9850126451
 40
1.0
 40
1.0
 40
1.0
 40
1.0
 10
9.0724968222
 20
6.5179556781
 30
0.0
 10
9.0547636988
 20
6.5191854744
 30
0.0
 10
9.0192894371
 20
6.5227831073
 30
0.0
 10
8.9664208185
 20
6.5315350908
 30
0.0
 10
8.9139837292
 20
6.5436189458
 30
0.0
 10
8.8621943006
 20
6.558985158
 30
0.0
 10
8.8112625741
 20
6.5775708573
 30
0.0
 10
8.7613959295
 20
6.5993002046
 30
0.0
 10
8.7127971599
 20
6.6240845615
 30
0.0
 10
8.6656639504
 20
6.6518229206
 30
0.0
 10
8.6201880002
 20
6.6824022912
 30
0.0
 10
8.5765542692
 20
6.7156981582
 30
0.0
 10
8.5349402236
 20
6.7515749845
 30
0.0
 10
8.495515128
 20
6.7898867686
 30
0.0
 10
8.4584393612
 20
6.8304776323
 30
0.0
 10
8.4238637696
 20
6.8731824509
 30
0.0
 10
8.391929058
 20
6.9178275189
 30
0.0
 10
8.3627652216
 20
6.9642312505
 30
0.0
 10
8.3364910198
 20
7.0122049119
 30
0.0
 10
8.3132134958
 20
7.0615533816
 30
0.0
 10
8.293027529
 20
7.1120759303
 30
0.0
 10
8.2760154609
 20
7.1635670405
 30
0.0
 10
8.2622467583
 20
7.2158172207
 30
0.0
 10
8.2517777331
 20
7.2686138953
 30
0.0
 10
8.2446512881
 20
7.321742087
 30
0.0
 10
8.2408968131
 20
7.3749859237
 30
0.0
 10
8.2405297704
 20
7.428127132
 30
0.0
 10
8.2430516873
 20
7.4721994555
 30
0.0
 10
8.2467626828
 20
7.5071821522
 30
0.0
 10
8.2503842416
 20
7.5332326963
 30
0.0
 10
8.2548434113
 20
7.5590960153
 30
0.0
 10
8.260135606
 20
7.5847461138
 30
0.0
 10
8.2662554213
 20
7.6101567691
 30
0.0
 10
8.2731967383
 20
7.6353020851
 30
0.0
 10
8.2809523201
 20
7.6601564782
 30
0.0
 10
8.289514499
 20
7.6846945584
 30
0.0
 10
8.2988743104
 20
7.7088913739
 30
0.0
 10
8.3090224958
 20
7.7327222724
 30
0.0
 10
8.3199483558
 20
7.7561626984
 30
0.0
 10
8.3277490999
 20
7.7715245489
 30
0.0
 10
8.3317749363
 20
7.7791313313
 30
0.0
  0
SPLINE
  5
325
100
AcDbEntity
  8
0
100
AcDbSpline
 62
7
  6
CONTINUOUS
 70
0
 71
3
 72
45
 73
41
 74
0
 42
0.0000001
 43
0.0000001
 44
0.0000000001
 40
0.0
 40
0.0
 40
0.0
 40
0.0
 40
0.0309847264
 40
0.0621059086
 40
0.0933592891
 40
0.1247377316
 40
0.1562324217
 40
0.1878325644
 40
0.2195257165
 40
0.2512979625
 40
0.2831341508
 40
0.3150181364
 40
0.3469330351
 40
0.3788614873
 40
0.4107859247
 40
0.442688841
 40
0.4745530608
 40
0.5063620054
 40
0.5380999521
 40
0.5697522845
 40
0.6013057297
 40
0.63274858
 40
0.6640708948
 40
0.6952646802
 40
0.7263240427
 40
0.757245313
 40
0.7880271361
 40
0.8186705262
 40
0.8339433911
 40
0.8491831205
 40
0.864390509
 40
0.8795664892
 40
0.8947121403
 40
0.90982867
 40
0.9249174243
 40
0.9399798697
 40
0.9550175957
 40
0.9700323049
 40
0.9850258035
 40
1.0
 40
1.0
 40
1.0
 40
1.0
 10
9.0724968222
 20
6.5430697511
 30
0.0
 10
9.05491894
 20
6.5442887814
 30
0.0
 10
9.0197549004
 20
6.5478799569
 30
0.0
 10
8.9673611831
 20
6.5566654212
 30
0.0
 10
8.9154142753
 20
6.5688244143
 30
0.0
 10
8.8641378281
 20
6.584304891
 30
0.0
 10
8.8137490634
 20
6.6030406854
 30
0.0
 10
8.7644622869
 20
6.624951937
 30
0.0
 10
8.7164868582
 20
6.6499452836
 30
0.0
 10
8.6700266162
 20
6.6779143297
 30
0.0
 10
8.6252789384
 20
6.7087400735
 30
0.0
 10
8.5824339254
 20
6.742291406
 30
0.0
 10
8.541673598
 20
6.7784256724
 30
0.0
 10
8.5031711359
 20
6.81698928
 30
0.0
 10
8.4670901472
 20
6.8578183437
 30
0.0
 10
8.4335839794
 20
6.9007393781
 30
0.0
 10
8.4027950731
 20
6.9455700275
 30
0.0
 10
8.3748543605
 20
6.9921198335
 30
0.0
 10
8.3498807143
 20
7.0401910377
 30
0.0
 10
8.3279804335
 20
7.0895794082
 30
0.0
 10
8.3092467929
 20
7.1400751005
 30
0.0
 10
8.2937596562
 20
7.1914635482
 30
0.0
 10
8.2815851308
 20
7.2435263502
 30
0.0
 10
8.2727752911
 20
7.2960422371
 30
0.0
 10
8.2673679218
 20
7.3487878216
 30
0.0
 10
8.2653864587
 20
7.4015392028
 30
0.0
 10
8.2668394693
 20
7.4540704451
 30
0.0
 10
8.2709129519
 20
7.497530631
 30
0.0
 10
8.2758803242
 20
7.5319569982
 30
0.0
 10
8.2804498286
 20
7.5575570475
 30
0.0
 10
8.285862249
 20
7.5829356411
 30
0.0
 10
8.2921119523
 20
7.6080661059
 30
0.0
 10
8.2991921218
 20
7.6329216371
 30
0.0
 10
8.3070954599
 20
7.6574757363
 30
0.0
 10
8.3158133184
 20
7.6817023321
 30
0.0
 10
8.3253366606
 20
7.7055755603
 30
0.0
 10
8.3356551633
 20
7.7290700459
 30
0.0
 10
8.3467580157
 20
7.7521608226
 30
0.0
 10
8.3586331685
 20
7.7748229692
 30
0.0
 10
8.3670619322
 20
7.7896389828
 30
0.0
 10
8.3714002585
 20
7.7969663766
 30
0.0
  0
SPLINE
  5
326
100
AcDbEntity
  8
0
100
AcDbSpline
 62
7
  6
CONTINUOUS
 70
0
 71
3
 72
41
 73
37
 74
0
 42
0.0000001
 43
0.0000001
 44
0.0000000001
 40
0.0
 40
0.0
 40
0.0
 40
0.0
 40
0.0310022413
 40
0.0621426337
 40
0.0934167844
 40
0.1248173062
 40
0.156335073
 40
0.1879589182
 40
0.2196759739
 40
0.2514718622
 40
0.2833309432
 40
0.3152365715
 40
0.3471713648
 40
0.3791174808
 40
0.4110568991
 40
0.4429717044
 40
0.4748443694
 40
0.5066580332
 40
0.5383967726
 40
0.5700458624
 40
0.6015920214
 40
0.6330236409
 40
0.6643309924
 40
0.6955064095
 40
0.7265444422
 40
0.7574419784
 40
0.7881983287
 40
0.8188152715
 40
0.8492970549
 40
0.8796503544
 40
0.9098841827
 40
0.9400097534
 40
0.955038281
 40
0.9700448616
 40
0.9850314265
 40
1.0
 40
1.0
 40
1.0
 40
1.0
 10
9.0819108569
 20
6.5724474544
 30
0.0
 10
9.0645635585
 20
6.5736504937
 30
0.0
 10
9.0298606106
 20
6.5772086597
 30
0.0
 10
8.9781610831
 20
6.5859408511
 30
0.0
 10
8.9269134175
 20
6.5980421392
 30
0.0
 10
8.8763437114
 20
6.6134594436
 30
0.0
 10
8.8266714939
 20
6.6321252355
 30
0.0
 10
8.7781132498
 20
6.6539579821
 30
0.0
 10
8.7308803455
 20
6.678862356
 30
0.0
 10
8.6851784327
 20
6.7067297224
 30
0.0
 10
8.6412064645
 20
6.7374385707
 30
0.0
 10
8.5991558639
 20
6.7708550559
 30
0.0
 10
8.5592096979
 20
6.8068335871
 30
0.0
 10
8.5215418888
 20
6.8452174545
 30
0.0
 10
8.486316464
 20
6.8858395071
 30
0.0
 10
8.4536868479
 20
6.928522874
 30
0.0
 10
8.4237952004
 20
6.9730817278
 30
0.0
 10
8.396771797
 20
7.0193220827
 30
0.0
 10
8.3727344511
 20
7.0670426256
 30
0.0
 10
8.3517880204
 20
7.1160355963
 30
0.0
 10
8.3340239499
 20
7.1660876802
 30
0.0
 10
8.3195198731
 20
7.2169809269
 30
0.0
 10
8.3083392716
 20
7.2684936878
 30
0.0
 10
8.3005311934
 20
7.32040157
 30
0.0
 10
8.2961300344
 20
7.372478402
 30
0.0
 10
8.2951553573
 20
7.4244972111
 30
0.0
 10
8.2976118048
 20
7.4762311956
 30
0.0
 10
8.3034890924
 20
7.5274547522
 30
0.0
 10
8.31276195
 20
7.5779442822
 30
0.0
 10
8.3253905318
 20
7.6274798042
 30
0.0
 10
8.3413193899
 20
7.6758435451
 30
0.0
 10
8.3573016476
 20
7.7150314058
 30
0.0
 10
8.3716596508
 20
7.7455742484
 30
0.0
 10
8.3831953304
 20
7.7680439057
 30
0.0
 10
8.3954929168
 20
7.7900665864
 30
0.0
 10
8.4041957064
 20
7.8044434634
 30
0.0
 10
8.4086690126
 20
7.811548296
 30
0.0
  0
SPLINE
  5
327
100
AcDbEntity
  8
0
100
AcDbSpline
 62
7
  6
CONTINUOUS
 70
0
 71
3
 72
43
 73
39
 74
0
 42
0.0000001
 43
0.0000001
 44
0.0000000001
 40
0.0
 40
0.0
 40
0.0
 40
0.0
 40
0.0309458716
 40
0.0620243187
 40
0.0932313652
 40
0.1245604432
 40
0.1560034217
 40
0.1875503318
 40
0.219189673
 40
0.2509085586
 40
0.282692928
 40
0.3145277579
 40
0.3463972879
 40
0.3782852523
 40
0.4101751176
 40
0.4420503228
 40
0.4738945201
 40
0.5056918124
 40
0.5374269875
 40
0.5690857446
 40
0.6006549107
 40
0.6321226458
 40
0.663478632
 40
0.6947142449
 40
0.7258227047
 40
0.7567992025
 40
0.7876410008
 40
0.8183475033
 40
0.8336524017
 40
0.8489242511
 40
0.8641635946
 40
0.879371101
 40
0.9096899045
 40
0.9398926599
 40
0.9549556264
 40
0.9699934711
 40
0.9850077185
 40
1.0
 40
1.0
 40
1.0
 40
1.0
 10
9.1532482976
 20
6.6413541349
 30
0.0
 10
9.1365983805
 20
6.6425088106
 30
0.0
 10
9.1032911031
 20
6.6458793203
 30
0.0
 10
9.0536483667
 20
6.654064282
 30
0.0
 10
9.0044052652
 20
6.6653567325
 30
0.0
 10
8.9557620074
 20
6.6797110214
 30
0.0
 10
8.9079131753
 20
6.6970692264
 30
0.0
 10
8.8610509395
 20
6.7173614844
 30
0.0
 10
8.8153632749
 20
6.7405061456
 30
0.0
 10
8.7710334886
 20
6.7664101709
 30
0.0
 10
8.7282394151
 20
6.7949694766
 30
0.0
 10
8.6871527318
 20
6.8260693611
 30
0.0
 10
8.64793827
 20
6.8595849595
 30
0.0
 10
8.6107533615
 20
6.8953817432
 30
0.0
 10
8.5757472074
 20
6.9333160513
 30
0.0
 10
8.5430602869
 20
6.9732356677
 30
0.0
 10
8.5128237986
 20
7.0149804278
 30
0.0
 10
8.4851591374
 20
7.0583828559
 30
0.0
 10
8.46017741
 20
7.1032688311
 30
0.0
 10
8.4379789917
 20
7.1494582803
 30
0.0
 10
8.4186531244
 20
7.1967658924
 30
0.0
 10
8.4022775588
 20
7.2450018583
 30
0.0
 10
8.3889182407
 20
7.2939726124
 30
0.0
 10
8.3786290485
 20
7.343481645
 30
0.0
 10
8.3714515542
 20
7.393330123
 30
0.0
 10
8.3674149187
 20
7.44331827
 30
0.0
 10
8.3665354965
 20
7.4932439748
 30
0.0
 10
8.3684395187
 20
7.5346799168
 30
0.0
 10
8.3715432934
 20
7.5675902181
 30
0.0
 10
8.3746542945
 20
7.5921078634
 30
0.0
 10
8.3785476384
 20
7.6164603358
 30
0.0
 10
8.3847698366
 20
7.648641625
 30
0.0
 10
8.3944786591
 20
7.6883454248
 30
0.0
 10
8.4067509682
 20
7.7272520692
 30
0.0
 10
8.4180647047
 20
7.7577493835
 30
0.0
 10
8.4272820969
 20
7.7802727659
 30
0.0
 10
8.4372288828
 20
7.8024413449
 30
0.0
 10
8.4443450456
 20
7.8169800993
 30
0.0
 10
8.4480209959
 20
7.8241819277
 30
0.0
  0
SPLINE
  5
328
100
AcDbEntity
  8
0
100
AcDbSpline
 62
7
  6
CONTINUOUS
 70
0
 71
3
 72
45
 73
41
 74
0
 42
0.0000001
 43
0.0000001
 44
0.0000000001
 40
0.0
 40
0.0
 40
0.0
 40
0.0
 40
0.0309940926
 40
0.0621256184
 40
0.0933901778
 40
0.1247805253
 40
0.1562876746
 40
0.1879006226
 40
0.2196066948
 40
0.2513917201
 40
0.283240279
 40
0.3151359509
 40
0.3470615773
 40
0.378999532
 40
0.4109319968
 40
0.4428412388
 40
0.4747098877
 40
0.5065212078
 40
0.5382593645
 40
0.5699096791
 40
0.6014588715
 40
0.6328952856
 40
0.6642090941
 40
0.6953924803
 40
0.7264397914
 40
0.7573476614
 40
0.7881150984
 40
0.8187435345
 40
0.8340088885
 40
0.8492411418
 40
0.8644411554
 40
0.8796099266
 40
0.894748603
 40
0.9098584607
 40
0.9249409152
 40
0.9399975027
 40
0.9550298824
 40
0.9700398255
 40
0.9850292065
 40
1.0
 40
1.0
 40
1.0
 40
1.0
 10
9.1739538041
 20
6.7386281903
 30
0.0
 10
9.1583966966
 20
6.7397070793
 30
0.0
 10
9.1272750457
 20
6.7428924018
 30
0.0
 10
9.0809079556
 20
6.7506985982
 30
0.0
 10
9.0349416982
 20
6.7615102596
 30
0.0
 10
8.9895768923
 20
6.7752804613
 30
0.0
 10
8.9450083263
 20
6.7919495472
 30
0.0
 10
8.9014281394
 20
6.8114454958
 30
0.0
 10
8.8590239734
 20
6.8336840982
 30
0.0
 10
8.8179784509
 20
6.8585693931
 30
0.0
 10
8.7784683192
 20
6.8859940504
 30
0.0
 10
8.7406637195
 20
6.9158398425
 30
0.0
 10
8.7047274543
 20
6.9479781468
 30
0.0
 10
8.6708142955
 20
6.9822704978
 30
0.0
 10
8.6390703195
 20
7.0185691764
 30
0.0
 10
8.6096322825
 20
7.0567178413
 30
0.0
 10
8.5826270392
 20
7.0965522008
 30
0.0
 10
8.5581709994
 20
7.1379007127
 30
0.0
 10
8.536369629
 20
7.1805853165
 30
0.0
 10
8.5173169982
 20
7.2244221931
 30
0.0
 10
8.5010953769
 20
7.269222547
 30
0.0
 10
8.4877748798
 20
7.3147934141
 30
0.0
 10
8.4774131601
 20
7.3609384719
 30
0.0
 10
8.4700551657
 20
7.4074589192
 30
0.0
 10
8.4657329091
 20
7.4541541627
 30
0.0
 10
8.4644654317
 20
7.5008232681
 30
0.0
 10
8.4662582945
 20
7.5472636105
 30
0.0
 10
8.4703018615
 20
7.5856540702
 30
0.0
 10
8.4750567061
 20
7.6160442659
 30
0.0
 10
8.479373213
 20
7.6386325415
 30
0.0
 10
8.4844389529
 20
7.6610146221
 30
0.0
 10
8.4902486861
 20
7.6831666396
 30
0.0
 10
8.496795912
 20
7.7050646648
 30
0.0
 10
8.5040738408
 20
7.7266850132
 30
0.0
 10
8.5120743624
 20
7.7480044321
 30
0.0
 10
8.5207891047
 20
7.7689998302
 30
0.0
 10
8.5302084472
 20
7.7896486101
 30
0.0
 10
8.5403224473
 20
7.8099284967
 30
0.0
 10
8.5511198962
 20
7.829817346
 30
0.0
 10
8.5587709878
 20
7.8428097784
 30
0.0
 10
8.562706019
 20
7.8492326611
 30
0.0
  0
SPLINE
  5
329
100
AcDbEntity
  8
0
100
AcDbSpline
 62
7
  6
CONTINUOUS
 70
0
 71
3
 72
35
 73
31
 74
0
 42
0.0000001
 43
0.0000001
 44
0.0000000001
 40
0.0
 40
0.0
 40
0.0
 40
0.0
 40
0.0308202975
 40
0.0617171411
 40
0.0926876204
 40
0.123728537
 40
0.1548361463
 40
0.1860063335
 40
0.2172346354
 40
0.248516232
 40
0.279846
 40
0.3112185421
 40
0.3740582858
 40
0.4369988397
 40
0.4999903561
 40
0.5629818319
 40
0.5944669789
 40
0.6259330617
 40
0.6573739023
 40
0.6887834589
 40
0.7201558724
 40
0.7514854996
 40
0.7827669352
 40
0.813995059
 40
0.8451650607
 40
0.876272461
 40
0.907313157
 40
0.9382834369
 40
0.9691800009
 40
1.0
 40
1.0
 40
1.0
 40
1.0
 10
9.5357478066
 20
7.1925611047
 30
0.0
 10
9.5264550044
 20
7.1944588915
 30
0.0
 10
9.5079180239
 20
7.1986204039
 30
0.0
 10
9.480342118
 20
7.2059379052
 30
0.0
 10
9.4530017417
 20
7.2143272581
 30
0.0
 10
9.4259403753
 20
7.2237752459
 30
0.0
 10
9.3992003353
 20
7.2342670777
 30
0.0
 10
9.3728235996
 20
7.2457861474
 30
0.0
 10
9.346851565
 20
7.2583144851
 30
0.0
 10
9.3213251004
 20
7.2718323149
 30
0.0
 10
9.2962838025
 20
7.2863186318
 30
0.0
 10
9.2635813569
 20
7.3069030589
 30
0.0
 10
9.2241155354
 20
7.3349393938
 30
0.0
 10
9.1793401279
 20
7.372033303
 30
0.0
 10
9.1373950915
 20
7.4123672745
 30
0.0
 10
9.1050094642
 20
7.4484799182
 30
0.0
 10
9.0807691998
 20
7.4787307735
 30
0.0
 10
9.0634525037
 20
7.5020616604
 30
0.0
 10
9.0470262837
 20
7.5259991585
 30
0.0
 10
9.0315160761
 20
7.5505061477
 30
0.0
 10
9.0169462208
 20
7.5755439983
 30
0.0
 10
9.0033395811
 20
7.6010734589
 30
0.0
 10
8.990717627
 20
7.6270545057
 30
0.0
 10
8.9791000601
 20
7.6534463086
 30
0.0
 10
8.9685051662
 20
7.6802074679
 30
0.0
 10
8.958949671
 20
7.7072960237
 30
0.0
 10
8.9504484711
 20
7.7346693767
 30
0.0
 10
8.9430149595
 20
7.7622847372
 30
0.0
 10
8.9366610018
 20
7.7900982212
 30
0.0
 10
8.9331465757
 20
7.8087685158
 30
0.0
 10
8.9315731589
 20
7.8181216108
 30
0.0
  0
SPLINE
  5
32A
100
AcDbEntity
  8
0
100
AcDbSpline
 62
7
  6
CONTINUOUS
 70
0
 71
3
 72
26
 73
22
 74
0
 42
0.0000001
 43
0.0000001
 44
0.0000000001
 40
0.0
 40
0.0
 40
0.0
 40
0.0
 40
0.0308876139
 40
0.0618412546
 40
0.0928581293
 40
0.1239350675
 40
0.1550686263
 40
0.1862551053
 40
0.248761601
 40
0.3114292687
 40
0.374220569
 40
0.4370956199
 40
0.5000129603
 40
0.5629303343
 40
0.6258054842
 40
0.6885969463
 40
0.7512648364
 40
0.8137716122
 40
0.8760828045
 40
0.9381677046
 40
1.0
 40
1.0
 40
1.0
 40
1.0
 10
9.5159781521
 20
7.2551658771
 30
0.0
 10
9.5081113089
 20
7.2572305108
 30
0.0
 10
9.4924318763
 20
7.2616405901
 30
0.0
 10
9.469134589
 20
7.2690787916
 30
0.0
 10
9.4460622372
 20
7.2773378868
 30
0.0
 10
9.4232453674
 20
7.2864071464
 30
0.0
 10
9.4007131705
 20
7.296274782
 30
0.0
 10
9.3710702032
 20
7.3104880467
 30
0.0
 10
9.3348766383
 20
7.3301878019
 30
0.0
 10
9.2930819498
 20
7.3567696554
 30
0.0
 10
9.25310248
 20
7.3861763392
 30
0.0
 10
9.2151472587
 20
7.4182542976
 30
0.0
 10
9.1794130451
 20
7.4528369757
 30
0.0
 10
9.1460855757
 20
7.4897446413
 30
0.0
 10
9.1153380114
 20
7.5287855979
 30
0.0
 10
9.0873301794
 20
7.5697570391
 30
0.0
 10
9.0622076795
 20
7.6124462164
 30
0.0
 10
9.040101266
 20
7.6566311917
 30
0.0
 10
9.0211258493
 20
7.7020833071
 30
0.0
 10
9.0053810654
 20
7.7485633852
 30
0.0
 10
8.9970734302
 20
7.7801500787
 30
0.0
 10
8.9934868833
 20
7.796031688
 30
0.0
  0
SPLINE
  5
32B
100
AcDbEntity
  8
0
100
AcDbSpline
 62
7
  6
CONTINUOUS
 70
0
 71
3
 72
20
 73
16
 74
0
 42
0.0000001
 43
0.0000001
 44
0.0000000001
 40
0.0
 40
0.0
 40
0.0
 40
0.0
 40
0.0548579917
 40
0.1099199293
 40
0.1653872459
 40
0.2214567063
 40
0.2783181011
 40
0.3361525857
 40
0.3951315812
 40
0.4554152184
 40
0.5804413563
 40
0.6454834332
 40
0.7123556605
 40
0.8519687085
 40
1.0
 40
1.0
 40
1.0
 40
1.0
 10
11.2581158417
 20
10.0207369011
 30
0.0
 10
11.258115842
 20
10.0224175131
 30
0.0
 10
11.258222529
 20
10.02578595
 30
0.0
 10
11.2587021572
 20
10.0308331268
 30
0.0
 10
11.2595012597
 20
10.0358773886
 30
0.0
 10
11.260619593
 20
10.0409169245
 30
0.0
 10
11.2620566472
 20
10.0459503424
 30
0.0
 10
11.2638118096
 20
10.0509761679
 30
0.0
 10
11.2658846088
 20
10.0559931354
 30
0.0
 10
11.2691094274
 20
10.0627498185
 30
0.0
 10
11.2729467739
 20
10.069407291
 30
0.0
 10
11.277335109
 20
10.0759441711
 30
0.0
 10
11.2822702811
 20
10.082643604
 30
0.0
 10
11.2892553951
 20
10.0909756202
 30
0.0
 10
11.2954021923
 20
10.0973009509
 30
0.0
 10
11.2986640403
 20
10.1004516543
 30
0.0
  0
SPLINE
  5
32C
100
AcDbEntity
  8
0
100
AcDbSpline
 62
7
  6
CONTINUOUS
 70
0
 71
3
 72
25
 73
21
 74
0
 42
0.0000001
 43
0.0000001
 44
0.0000000001
 40
0.0
 40
0.0
 40
0.0
 40
0.0
 40
0.0638612781
 40
0.0957121911
 40
0.1275067411
 40
0.190926209
 40
0.2541301216
 40
0.2856554877
 40
0.3171294121
 40
0.3799223073
 40
0.44252455
 40
0.5049487613
 40
0.5672094491
 40
0.629322891
 40
0.6913069674
 40
0.7531809757
 40
0.8149654269
 40
0.8766818235
 40
0.9383524247
 40
1.0
 40
1.0
 40
1.0
 40
1.0
 10
8.7352558847
 20
6.1922059277
 30
0.0
 10
8.7491385508
 20
6.1912431615
 30
0.0
 10
8.7699862082
 20
6.1903186712
 30
0.0
 10
8.7977727066
 20
6.1901359518
 30
0.0
 10
8.8254592877
 20
6.1906523446
 30
0.0
 10
8.8599405466
 20
6.1926056538
 30
0.0
 10
8.8942194554
 20
6.1963074224
 30
0.0
 10
8.9214300732
 20
6.2003113076
 30
0.0
 10
8.9484402667
 20
6.2049990542
 30
0.0
 10
8.9818849136
 20
6.2121469518
 30
0.0
 10
9.0214276235
 20
6.2227740965
 30
0.0
 10
9.0602511771
 20
6.2354179202
 30
0.0
 10
9.0982571017
 20
6.2500465976
 30
0.0
 10
9.1353498235
 20
6.2666233924
 30
0.0
 10
9.1714358257
 20
6.2851066097
 30
0.0
 10
9.2064242064
 20
6.305449774
 30
0.0
 10
9.2402267054
 20
6.3276016111
 30
0.0
 10
9.2727584285
 20
6.3515066357
 30
0.0
 10
9.3039362759
 20
6.3771035918
 30
0.0
 10
9.3237705297
 20
6.3952569533
 30
0.0
 10
9.3334327169
 20
6.404589924
 30
0.0
  0
SPLINE
  5
32D
100
AcDbEntity
  8
0
100
AcDbSpline
 62
7
  6
CONTINUOUS
 70
0
 71
3
 72
20
 73
16
 74
0
 42
0.0000001
 43
0.0000001
 44
0.0000000001
 40
0.0
 40
0.0
 40
0.0
 40
0.0
 40
0.1269277606
 40
0.1901732441
 40
0.2532681101
 40
0.3162150871
 40
0.3790159197
 40
0.4416738831
 40
0.5041930774
 40
0.6288142879
 40
0.7529442159
 40
0.8148519409
 40
0.8766582295
 40
0.9383713417
 40
1.0
 40
1.0
 40
1.0
 40
1.0
 10
9.0724968222
 20
6.5430697511
 30
0.0
 10
9.0909959108
 20
6.5417868349
 30
0.0
 10
9.1187914394
 20
6.5408137954
 30
0.0
 10
9.1557923124
 20
6.5414450633
 30
0.0
 10
9.1834151366
 20
6.5428793697
 30
0.0
 10
9.2109056269
 20
6.5452733513
 30
0.0
 10
9.2382317373
 20
6.5486243902
 30
0.0
 10
9.2653610954
 20
6.5529284083
 30
0.0
 10
9.3011854164
 20
6.5599225712
 30
0.0
 10
9.3453292814
 20
6.5710155485
 30
0.0
 10
9.3884783719
 20
6.5852226523
 30
0.0
 10
9.4222111986
 20
6.5984003643
 30
0.0
 10
9.4470754137
 20
6.6091697781
 30
0.0
 10
9.4714934237
 20
6.620819933
 30
0.0
 10
9.4874666662
 20
6.6291706501
 30
0.0
 10
9.4953679207
 20
6.6334875669
 30
0.0
  0
SPLINE
  5
32E
100
AcDbEntity
  8
0
100
AcDbSpline
 62
7
  6
CONTINUOUS
 70
0
 71
3
 72
29
 73
25
 74
0
 42
0.0000001
 43
0.0000001
 44
0.0000000001
 40
0.0
 40
0.0
 40
0.0
 40
0.0
 40
0.0736802679
 40
0.1431000891
 40
0.2086145486
 40
0.2706786063
 40
0.329841501
 40
0.3585448902
 40
0.3867726913
 40
0.4146195181
 40
0.4421842168
 40
0.4695690099
 40
0.4968783793
 40
0.5242176977
 40
0.5516919918
 40
0.5794046137
 40
0.6074559516
 40
0.6359425152
 40
0.6649560815
 40
0.7248814663
 40
0.7878745419
 40
0.8544551487
 40
0.9250499239
 40
1.0
 40
1.0
 40
1.0
 40
1.0
 10
8.2656567661
 20
10.2798817934
 30
0.0
 10
8.263341852
 20
10.2776457581
 30
0.0
 10
8.2589838223
 20
10.2731561455
 30
0.0
 10
8.2531376582
 20
10.2661539456
 30
0.0
 10
8.248192029
 20
10.2590976391
 30
0.0
 10
8.2441548093
 20
10.2519946262
 30
0.0
 10
8.2415268389
 20
10.2459798187
 30
0.0
 10
8.2399059469
 20
10.2411719805
 30
0.0
 10
8.2389324025
 20
10.2375965805
 30
0.0
 10
8.2381893803
 20
10.2340170435
 30
0.0
 10
8.2376771588
 20
10.2304343612
 30
0.0
 10
8.2373960559
 20
10.2268496868
 30
0.0
 10
8.2373461182
 20
10.22326418
 30
0.0
 10
8.2375273516
 20
10.2196790009
 30
0.0
 10
8.2379397458
 20
10.2160953164
 30
0.0
 10
8.2385831086
 20
10.2125142721
 30
0.0
 10
8.239457077
 20
10.2089369971
 30
0.0
 10
8.2405613695
 20
10.205364482
 30
0.0
 10
8.2423593079
 20
10.2005579419
 30
0.0
 10
8.2452085929
 20
10.1945484417
 30
0.0
 10
8.2495045217
 20
10.1874583096
 30
0.0
 10
8.2547066231
 20
10.1804166699
 30
0.0
 10
8.2608072218
 20
10.1734306796
 30
0.0
 10
8.2653284074
 20
10.1689527482
 30
0.0
 10
8.2677251045
 20
10.166722357
 30
0.0
  0
SPLINE
  5
32F
100
AcDbEntity
  8
0
100
AcDbSpline
 62
7
  6
CONTINUOUS
 70
0
 71
3
 72
23
 73
19
 74
0
 42
0.0000001
 43
0.0000001
 44
0.0000000001
 40
0.0
 40
0.0
 40
0.0
 40
0.0
 40
0.0635818389
 40
0.1270091306
 40
0.1902751703
 40
0.2533841463
 40
0.3163386361
 40
0.3791408509
 40
0.4417946838
 40
0.5043047841
 40
0.5666764136
 40
0.6289156726
 40
0.6910293913
 40
0.7530250751
 40
0.8149109089
 40
0.8766956783
 40
0.9383887458
 40
1.0
 40
1.0
 40
1.0
 40
1.0
 10
9.0819108569
 20
6.5724474544
 30
0.0
 10
9.0913528796
 20
6.5717926479
 30
0.0
 10
9.1102392146
 20
6.5708227884
 30
0.0
 10
9.1385658936
 20
6.570391211
 30
0.0
 10
9.1668196468
 20
6.5709855462
 30
0.0
 10
9.1949626594
 20
6.572604942
 30
0.0
 10
9.2229588515
 20
6.5752471242
 30
0.0
 10
9.2507717164
 20
6.5789089351
 30
0.0
 10
9.2783650042
 20
6.583585494
 30
0.0
 10
9.3057028386
 20
6.5892706951
 30
0.0
 10
9.3327496055
 20
6.5959573169
 30
0.0
 10
9.3594701327
 20
6.6036364985
 30
0.0
 10
9.3858296091
 20
6.6122983674
 30
0.0
 10
9.4117937175
 20
6.6219316832
 30
0.0
 10
9.4373286687
 20
6.6325237824
 30
0.0
 10
9.4624012694
 20
6.6440611323
 30
0.0
 10
9.4869784695
 20
6.6565283255
 30
0.0
 10
9.5030225464
 20
6.6654549943
 30
0.0
 10
9.5109498525
 20
6.6700671208
 30
0.0
  0
SPLINE
  5
330
100
AcDbEntity
  8
0
100
AcDbSpline
 62
7
  6
CONTINUOUS
 70
0
 71
3
 72
18
 73
14
 74
0
 42
0.0000001
 43
0.0000001
 44
0.0000000001
 40
0.0
 40
0.0
 40
0.0
 40
0.0
 40
0.1267615068
 40
0.2529817998
 40
0.3786697411
 40
0.5038405966
 40
0.6285187253
 40
0.6906906246
 40
0.7527519087
 40
0.814707731
 40
0.8765636369
 40
0.9383256122
 40
1.0
 40
1.0
 40
1.0
 40
1.0
 10
9.1532482976
 20
6.6413541349
 30
0.0
 10
9.1693670437
 20
6.6402362961
 30
0.0
 10
9.2016130183
 20
6.6389898269
 30
0.0
 10
9.2498960654
 20
6.6401123078
 30
0.0
 10
9.2978156659
 20
6.6442263907
 30
0.0
 10
9.3451861807
 20
6.6513166287
 30
0.0
 10
9.3840956242
 20
6.6596921756
 30
0.0
 10
9.4147605826
 20
6.6678501143
 30
0.0
 10
9.4374917699
 20
6.6746851867
 30
0.0
 10
9.4599527905
 20
6.6822354026
 30
0.0
 10
9.4821226288
 20
6.6904938621
 30
0.0
 10
9.503979913
 20
6.6994523645
 30
0.0
 10
9.5183395825
 20
6.7058905598
 30
0.0
 10
9.5254594485
 20
6.7092231957
 30
0.0
  0
SPLINE
  5
331
100
AcDbEntity
  8
0
100
AcDbSpline
 62
7
  6
CONTINUOUS
 70
0
 71
3
 72
18
 73
14
 74
0
 42
0.0000001
 43
0.0000001
 44
0.0000000001
 40
0.0
 40
0.0
 40
0.0
 40
0.0
 40
0.1480397497
 40
0.2876655069
 40
0.4195590686
 40
0.5445936259
 40
0.663822196
 40
0.7216612959
 40
0.7785269323
 40
0.8346005411
 40
0.8900720031
 40
0.9451379699
 40
1.0
 40
1.0
 40
1.0
 40
1.0
 10
8.3429308368
 20
10.1972487478
 30
0.0
 10
8.3408750852
 20
10.1952630442
 30
0.0
 10
8.3370009332
 20
10.1912763001
 30
0.0
 10
8.3317918132
 20
10.1850628091
 30
0.0
 10
8.3273676854
 20
10.17880217
 30
0.0
 10
8.323735215
 20
10.1725008126
 30
0.0
 10
8.3213487528
 20
10.1671651957
 30
0.0
 10
8.3198589508
 20
10.1628992312
 30
0.0
 10
8.3189532457
 20
10.1597268443
 30
0.0
 10
8.3182484414
 20
10.156550675
 30
0.0
 10
8.3177447568
 20
10.1533715235
 30
0.0
 10
8.317442477
 20
10.1501905294
 30
0.0
 10
8.3173752708
 20
10.1480675658
 30
0.0
 10
8.3173752737
 20
10.1470083571
 30
0.0
  0
SPLINE
  5
332
100
AcDbEntity
  8
0
100
AcDbSpline
 62
7
  6
CONTINUOUS
 70
0
 71
3
 72
22
 73
18
 74
0
 42
0.0000001
 43
0.0000001
 44
0.0000000001
 40
0.0
 40
0.0
 40
0.0
 40
0.0
 40
0.1269612617
 40
0.1902181596
 40
0.2533205304
 40
0.3162714665
 40
0.3790728713
 40
0.4417282523
 40
0.5042420602
 40
0.5666192766
 40
0.6288656178
 40
0.6909875165
 40
0.7529920842
 40
0.8148870285
 40
0.8766806696
 40
0.9383818741
 40
1.0
 40
1.0
 40
1.0
 40
1.0
 10
9.1739538041
 20
6.7386281903
 30
0.0
 10
9.1906309977
 20
6.737471623
 30
0.0
 10
9.2156905019
 20
6.7366163383
 30
0.0
 10
9.2490443101
 20
6.7372596336
 30
0.0
 10
9.2739392443
 20
6.7386304599
 30
0.0
 10
9.2987086707
 20
6.7408884708
 30
0.0
 10
9.3233223313
 20
6.7440310893
 30
0.0
 10
9.347749159
 20
6.7480541679
 30
0.0
 10
9.3719586171
 20
6.7529528755
 30
0.0
 10
9.3959204227
 20
6.7587209663
 30
0.0
 10
9.4196045723
 20
6.7653512704
 30
0.0
 10
9.4429813814
 20
6.7728355837
 30
0.0
 10
9.4660216501
 20
6.7811643788
 30
0.0
 10
9.4886964208
 20
6.790327448
 30
0.0
 10
9.5109774849
 20
6.8003131893
 30
0.0
 10
9.5328364919
 20
6.811109021
 30
0.0
 10
9.5471194026
 20
6.8188426136
 30
0.0
 10
9.5541801066
 20
6.8228392965
 30
0.0
  0
SPLINE
  5
333
100
AcDbEntity
  8
0
100
AcDbSpline
 62
7
  6
CONTINUOUS
 70
0
 71
3
 72
52
 73
48
 74
0
 42
0.0000001
 43
0.0000001
 44
0.0000000001
 40
0.0
 40
0.0
 40
0.0
 40
0.0
 40
0.0417975951
 40
0.0840616288
 40
0.1266599
 40
0.1694646819
 40
0.2123442235
 40
0.2551675716
 40
0.2978037564
 40
0.3401225587
 40
0.3819950468
 40
0.4232940448
 40
0.4638946794
 40
0.5036749394
 40
0.5425162168
 40
0.5803038545
 40
0.6169277287
 40
0.6522828762
 40
0.6862702207
 40
0.7187973048
 40
0.7497791232
 40
0.7646666939
 40
0.7791400459
 40
0.7931910474
 40
0.8068124878
 40
0.8199977024
 40
0.8327409898
 40
0.8450375569
 40
0.8568834717
 40
0.8682761438
 40
0.8792139942
 40
0.8896969854
 40
0.8997266536
 40
0.9093062033
 40
0.9184411394
 40
0.9271391328
 40
0.9354107775
 40
0.9432698769
 40
0.9507338665
 40
0.9578247066
 40
0.9645691138
 40
0.9709994856
 40
0.9771542525
 40
0.9830781055
 40
0.9888220386
 40
0.9944424568
 40
1.0
 40
1.0
 40
1.0
 40
1.0
 10
13.7466204414
 20
10.5249961038
 30
0.0
 10
13.7402355847
 20
10.5254388952
 30
0.0
 10
13.7273873276
 20
10.526227335
 30
0.0
 10
13.7080124408
 20
10.527117214
 30
0.0
 10
13.6884721371
 20
10.527719034
 30
0.0
 10
13.668830819
 20
10.5280308823
 30
0.0
 10
13.6491525718
 20
10.5280516796
 30
0.0
 10
13.6295019871
 20
10.5277813713
 30
0.0
 10
13.6099434261
 20
10.5272208502
 30
0.0
 10
13.5905409783
 20
10.5263719707
 30
0.0
 10
13.5713582153
 20
10.5252375366
 30
0.0
 10
13.552457984
 20
10.5238212905
 30
0.0
 10
13.5339022013
 20
10.5221279024
 30
0.0
 10
13.5157516408
 20
10.5201629732
 30
0.0
 10
13.498065732
 20
10.5179330015
 30
0.0
 10
13.480902368
 20
10.5154453608
 30
0.0
 10
13.4643177094
 20
10.5127082781
 30
0.0
 10
13.4483660049
 20
10.5097308012
 30
0.0
 10
13.4330993379
 20
10.5065228002
 30
0.0
 10
13.4185676462
 20
10.5030948821
 30
0.0
 10
13.4069605759
 20
10.5000251663
 30
0.0
 10
13.3980833447
 20
10.4974607505
 30
0.0
 10
13.3917267272
 20
10.495515212
 30
0.0
 10
13.3855879438
 20
10.4935234249
 30
0.0
 10
13.3796719853
 20
10.4914870845
 30
0.0
 10
13.3739836902
 20
10.4894078059
 30
0.0
 10
13.3685276914
 20
10.487287311
 30
0.0
 10
13.3633084203
 20
10.4851273686
 30
0.0
 10
13.3583301404
 20
10.4829296678
 30
0.0
 10
13.3535968629
 20
10.4806960903
 30
0.0
 10
13.3491124391
 20
10.478428378
 30
0.0
 10
13.3448804823
 20
10.4761283878
 30
0.0
 10
13.3409043788
 20
10.4737980008
 30
0.0
 10
13.3371873582
 20
10.4714389849
 30
0.0
 10
13.3337323374
 20
10.4690532982
 30
0.0
 10
13.3305421116
 20
10.4666427013
 30
0.0
 10
13.3276192091
 20
10.4642090519
 30
0.0
 10
13.324965936
 20
10.4617541806
 30
0.0
 10
13.3225845273
 20
10.4592797551
 30
0.0
 10
13.3204768809
 20
10.4567876016
 30
0.0
 10
13.3186449625
 20
10.4542793124
 30
0.0
 10
13.317090544
 20
10.451756613
 30
0.0
 10
13.3158153349
 20
10.4492212576
 30
0.0
 10
13.3148211924
 20
10.4466751251
 30
0.0
 10
13.3141095719
 20
10.4441203538
 30
0.0
 10
13.3136820151
 20
10.4415598497
 30
0.0
 10
13.3135867744
 20
10.4398467597
 30
0.0
 10
13.3135867818
 20
10.4389957695
 30
0.0
  0
SPLINE
  5
334
100
AcDbEntity
  8
0
100
AcDbSpline
 62
7
  6
CONTINUOUS
 70
0
 71
3
 72
39
 73
35
 74
0
 42
0.0000001
 43
0.0000001
 44
0.0000000001
 40
0.0
 40
0.0
 40
0.0
 40
0.0
 40
0.0064813485
 40
0.0130002985
 40
0.0195937285
 40
0.026297146
 40
0.0331442162
 40
0.0401663079
 40
0.05484089
 40
0.0705272863
 40
0.0873816519
 40
0.1055233038
 40
0.1250399977
 40
0.1459941136
 40
0.1684273795
 40
0.192364659
 40
0.2178175573
 40
0.2447860489
 40
0.2732611697
 40
0.3032256797
 40
0.334655689
 40
0.3675213604
 40
0.4017874193
 40
0.4374142301
 40
0.4743575615
 40
0.5125697352
 40
0.5519993246
 40
0.5925918809
 40
0.6342900708
 40
0.6770336885
 40
0.7207603521
 40
0.8109000934
 40
0.9041686777
 40
1.0
 40
1.0
 40
1.0
 40
1.0
 10
9.7542996982
 20
11.3364320768
 30
0.0
 10
9.754299693
 20
11.3370395105
 30
0.0
 10
9.7542513965
 20
11.338258446
 30
0.0
 10
9.7540342802
 20
11.3400836862
 30
0.0
 10
9.7536726568
 20
11.3419071488
 30
0.0
 10
9.7531668469
 20
11.3437277859
 30
0.0
 10
9.7525171261
 20
11.3455448385
 30
0.0
 10
9.7514439863
 20
11.3479972541
 30
0.0
 10
9.7497225657
 20
11.3510601173
 30
0.0
 10
9.7471199703
 20
11.3546489035
 30
0.0
 10
9.7439567936
 20
11.3582016829
 30
0.0
 10
9.7402390618
 20
11.3617138293
 30
0.0
 10
9.7359729677
 20
11.3651813221
 30
0.0
 10
9.7311652634
 20
11.3685993871
 30
0.0
 10
9.7258235137
 20
11.3719630397
 30
0.0
 10
9.7199562236
 20
11.3752671866
 30
0.0
 10
9.713572758
 20
11.3785064822
 30
0.0
 10
9.706683491
 20
11.3816757858
 30
0.0
 10
9.6992996336
 20
11.3847697867
 30
0.0
 10
9.6914333276
 20
11.3877834162
 30
0.0
 10
9.6830975406
 20
11.3907116241
 30
0.0
 10
9.6743060663
 20
11.3935494853
 30
0.0
 10
9.6650734993
 20
11.3962922971
 30
0.0
 10
9.6554151781
 20
11.3989353705
 30
0.0
 10
9.6453471897
 20
11.4014743476
 30
0.0
 10
9.6348863078
 20
11.4039048873
 30
0.0
 10
9.6240499827
 20
11.4062229466
 30
0.0
 10
9.6128562962
 20
11.408424618
 30
0.0
 10
9.6013239442
 20
11.4105061681
 30
0.0
 10
9.5894721765
 20
11.4124641736
 30
0.0
 10
9.5731045585
 20
11.4149305137
 30
0.0
 10
9.5519917484
 20
11.4176704016
 30
0.0
 10
9.5259603441
 20
11.4203870782
 30
0.0
 10
9.5082932116
 20
11.4218102452
 30
0.0
 10
9.4993333947
 20
11.4224316107
 30
0.0
  0
SPLINE
  5
335
100
AcDbEntity
  8
0
100
AcDbSpline
 62
7
  6
CONTINUOUS
 70
0
 71
3
 72
39
 73
35
 74
0
 42
0.0000001
 43
0.0000001
 44
0.0000000001
 40
0.0
 40
0.0
 40
0.0
 40
0.0
 40
0.0064813485
 40
0.0130002985
 40
0.0195937285
 40
0.026297146
 40
0.0331442162
 40
0.0401663079
 40
0.05484089
 40
0.0705272863
 40
0.0873816519
 40
0.1055233038
 40
0.1250399977
 40
0.1459941136
 40
0.1684273795
 40
0.192364659
 40
0.2178175573
 40
0.2447860489
 40
0.2732611697
 40
0.3032256797
 40
0.334655689
 40
0.3675213604
 40
0.4017874193
 40
0.4374142301
 40
0.4743575615
 40
0.5125697352
 40
0.5519993246
 40
0.5925918809
 40
0.6342900708
 40
0.6770336885
 40
0.7207603521
 40
0.8109000934
 40
0.9041686777
 40
1.0
 40
1.0
 40
1.0
 40
1.0
 10
14.5839291158
 20
11.0014961391
 30
0.0
 10
14.5839291106
 20
11.0021035728
 30
0.0
 10
14.5838808141
 20
11.0033225083
 30
0.0
 10
14.5836636978
 20
11.0051477485
 30
0.0
 10
14.5833020744
 20
11.006971211
 30
0.0
 10
14.5827962646
 20
11.0087918482
 30
0.0
 10
14.5821465437
 20
11.0106089008
 30
0.0
 10
14.5810734039
 20
11.0130613164
 30
0.0
 10
14.5793519833
 20
11.0161241796
 30
0.0
 10
14.5767493879
 20
11.0197129658
 30
0.0
 10
14.5735862112
 20
11.0232657452
 30
0.0
 10
14.5698684794
 20
11.0267778916
 30
0.0
 10
14.5656023853
 20
11.0302453844
 30
0.0
 10
14.560794681
 20
11.0336634494
 30
0.0
 10
14.5554529313
 20
11.037027102
 30
0.0
 10
14.5495856412
 20
11.0403312489
 30
0.0
 10
14.5432021756
 20
11.0435705445
 30
0.0
 10
14.5363129086
 20
11.0467398481
 30
0.0
 10
14.5289290512
 20
11.049833849
 30
0.0
 10
14.5210627452
 20
11.0528474785
 30
0.0
 10
14.5127269582
 20
11.0557756864
 30
0.0
 10
14.5039354839
 20
11.0586135476
 30
0.0
 10
14.494702917
 20
11.0613563594
 30
0.0
 10
14.4850445957
 20
11.0639994327
 30
0.0
 10
14.4749766073
 20
11.0665384099
 30
0.0
 10
14.4645157254
 20
11.0689689496
 30
0.0
 10
14.4536794003
 20
11.0712870089
 30
0.0
 10
14.4424857138
 20
11.0734886803
 30
0.0
 10
14.4309533618
 20
11.0755702304
 30
0.0
 10
14.4191015941
 20
11.0775282359
 30
0.0
 10
14.4027339761
 20
11.079994576
 30
0.0
 10
14.381621166
 20
11.0827344639
 30
0.0
 10
14.3555897618
 20
11.0854511405
 30
0.0
 10
14.3379226292
 20
11.0868743075
 30
0.0
 10
14.3289628123
 20
11.0874956729
 30
0.0
  0
SPLINE
  5
336
100
AcDbEntity
  8
0
100
AcDbSpline
 62
7
  6
CONTINUOUS
 70
0
 71
3
 72
75
 73
71
 74
0
 42
0.0000001
 43
0.0000001
 44
0.0000000001
 40
0.0
 40
0.0
 40
0.0
 40
0.0
 40
0.0156747273
 40
0.0235325814
 40
0.031403181
 40
0.0471815803
 40
0.0630097508
 40
0.0788855268
 40
0.0948064622
 40
0.1107696438
 40
0.1267717932
 40
0.1347869014
 40
0.1428103611
 40
0.1588792318
 40
0.1749752631
 40
0.1910939891
 40
0.2072307449
 40
0.2233807077
 40
0.2395389397
 40
0.2557004309
 40
0.2718601429
 40
0.2880130529
 40
0.3041541969
 40
0.3202787136
 40
0.3363818874
 40
0.3524591897
 40
0.36850632
 40
0.3845192451
 40
0.4004942363
 40
0.4164279049
 40
0.4323172352
 40
0.4481596152
 40
0.4639528635
 40
0.4796952542
 40
0.4953855368
 40
0.5110229526
 40
0.526607247
 40
0.5421386771
 40
0.5576180139
 40
0.5730465408
 40
0.5884260451
 40
0.6037588059
 40
0.6190475753
 40
0.6342955548
 40
0.649506366
 40
0.6646840161
 40
0.6798328593
 40
0.6949575524
 40
0.7100630078
 40
0.725154342
 40
0.7402368221
 40
0.7553158097
 40
0.7703967041
 40
0.7854848839
 40
0.80058565
 40
0.8157041693
 40
0.8308454194
 40
0.8460141376
 40
0.8612147716
 40
0.8764514346
 40
0.8917278653
 40
0.9070473908
 40
0.9224129018
 40
0.9301142846
 40
0.9378280267
 40
0.9532922984
 40
0.9688082546
 40
0.9765865231
 40
0.9843782672
 40
1.0
 40
1.0
 40
1.0
 40
1.0
 10
8.7163620979
 20
7.907792936
 30
0.0
 10
8.731147297
 20
7.906767579
 30
0.0
 10
8.7533116386
 20
7.9046845104
 30
0.0
 10
8.782755073
 20
7.900833071
 30
0.0
 10
8.8121942164
 20
7.896255754
 30
0.0
 10
8.8488610557
 20
7.8891875603
 30
0.0
 10
8.8925035899
 20
7.8785848302
 30
0.0
 10
8.935721786
 20
7.8658794059
 30
0.0
 10
8.9784110632
 20
7.8511020709
 30
0.0
 10
9.0204683018
 20
7.8342886712
 30
0.0
 10
9.054887753
 20
7.8186223476
 30
0.0
 10
9.0820078357
 20
7.8051156148
 30
0.0
 10
9.1088624152
 20
7.790952638
 30
0.0
 10
9.1418484284
 20
7.7720594603
 30
0.0
 10
9.180385618
 20
7.7475538705
 30
0.0
 10
9.2178054694
 20
7.7212613119
 30
0.0
 10
9.2540173808
 20
7.6932454006
 30
0.0
 10
9.2889343456
 20
7.663573516
 30
0.0
 10
9.3224722855
 20
7.6323171164
 30
0.0
 10
9.3545504866
 20
7.5995514398
 30
0.0
 10
9.3850917292
 20
7.5653553577
 30
0.0
 10
9.4140224901
 20
7.5298111781
 30
0.0
 10
9.441273113
 20
7.4930044492
 30
0.0
 10
9.4667779848
 20
7.4550237603
 30
0.0
 10
9.4904756894
 20
7.4159605253
 30
0.0
 10
9.5123091512
 20
7.3759087613
 30
0.0
 10
9.5322257731
 20
7.3349648645
 30
0.0
 10
9.5501775624
 20
7.2932273794
 30
0.0
 10
9.5661212461
 20
7.2507967636
 30
0.0
 10
9.580018375
 20
7.2077751475
 30
0.0
 10
9.5918354171
 20
7.1642660904
 30
0.0
 10
9.6015438371
 20
7.1203743325
 30
0.0
 10
9.6091201743
 20
7.0762055463
 30
0.0
 10
9.6145460988
 20
7.0318660815
 30
0.0
 10
9.6178084499
 20
6.9874627096
 30
0.0
 10
9.6188992714
 20
6.9431023686
 30
0.0
 10
9.6178158313
 20
6.898891907
 30
0.0
 10
9.6145606311
 20
6.854937828
 30
0.0
 10
9.6091414019
 20
6.8113460336
 30
0.0
 10
9.6015710884
 20
6.7682215705
 30
0.0
 10
9.5918678197
 20
6.7256683777
 30
0.0
 10
9.5800548744
 20
6.6837890337
 30
0.0
 10
9.5661606293
 20
6.6426845068
 30
0.0
 10
9.5502184847
 20
6.6024539126
 30
0.0
 10
9.5322667884
 20
6.5631942731
 30
0.0
 10
9.5123487448
 20
6.5250002814
 30
0.0
 10
9.4905123126
 20
6.4879640702
 30
0.0
 10
9.4668100909
 20
6.4521749878
 30
0.0
 10
9.4412991935
 20
6.417719379
 30
0.0
 10
9.41404111
 20
6.3846803746
 30
0.0
 10
9.3851015616
 20
6.353137685
 30
0.0
 10
9.3545503439
 20
6.3231673996
 30
0.0
 10
9.3224611492
 20
6.2948418079
 30
0.0
 10
9.2889113872
 20
6.2682292212
 30
0.0
 10
9.2539819957
 20
6.2433938071
 30
0.0
 10
9.2177572428
 20
6.2203954332
 30
0.0
 10
9.1803245193
 20
6.1992895226
 30
0.0
 10
9.1417741303
 20
6.1801269205
 30
0.0
 10
9.1021990538
 20
6.1629537702
 30
0.0
 10
9.0616947921
 20
6.1478114113
 30
0.0
 10
9.0203588504
 20
6.1347362367
 30
0.0
 10
8.9782915848
 20
6.1237597538
 30
0.0
 10
8.9427356912
 20
6.1163889227
 30
0.0
 10
8.9140322506
 20
6.1115634804
 30
0.0
 10
8.8851239046
 20
6.1074489357
 30
0.0
 10
8.848718538
 20
6.1036596655
 30
0.0
 10
8.8121089557
 20
6.1016863314
 30
0.0
 10
8.7827180616
 20
6.1011942582
 30
0.0
 10
8.753224545
 20
6.1014282548
 30
0.0
 10
8.7310973099
 20
6.1024214049
 30
0.0
 10
8.7163620979
 20
6.1034432953
 30
0.0
  0
SPLINE
  5
337
100
AcDbEntity
  8
0
100
AcDbSpline
 62
7
  6
CONTINUOUS
 70
0
 71
3
 72
19
 73
15
 74
0
 42
0.0000001
 43
0.0000001
 44
0.0000000001
 40
0.0
 40
0.0
 40
0.0
 40
0.0
 40
0.1257046949
 40
0.2508448615
 40
0.3755905317
 40
0.500131891
 40
0.5623941193
 40
0.624677812
 40
0.6870060553
 40
0.7494002009
 40
0.8118803006
 40
0.8744638189
 40
0.9371663049
 40
1.0
 40
1.0
 40
1.0
 40
1.0
 10
8.9878796094
 20
7.5381969881
 30
0.0
 10
8.9804959357
 20
7.5492582009
 30
0.0
 10
8.9663416784
 20
7.5717251922
 30
0.0
 10
8.9470400878
 20
7.6064822101
 30
0.0
 10
8.9298220164
 20
7.6421827309
 30
0.0
 10
8.9172939722
 20
7.6726941315
 30
0.0
 10
8.9084233029
 20
7.6975127963
 30
0.0
 10
8.9023545407
 20
7.7163327064
 30
0.0
 10
8.8968827753
 20
7.7353492025
 30
0.0
 10
8.8920194732
 20
7.7545518985
 30
0.0
 10
8.8877760922
 20
7.7739287185
 30
0.0
 10
8.8841625026
 20
7.7934661023
 30
0.0
 10
8.8811882561
 20
7.8131486311
 30
0.0
 10
8.8796382086
 20
7.826342138
 30
0.0
 10
8.8789717982
 20
7.8329562837
 30
0.0
  0
SPLINE
  5
338
100
AcDbEntity
  8
0
100
AcDbSpline
 62
7
  6
CONTINUOUS
 70
0
 71
3
 72
39
 73
35
 74
0
 42
0.0000001
 43
0.0000001
 44
0.0000000001
 40
0.0
 40
0.0
 40
0.0
 40
0.0
 40
0.0064813485
 40
0.0130002985
 40
0.0195937285
 40
0.026297146
 40
0.0331442162
 40
0.0401663079
 40
0.05484089
 40
0.0705272863
 40
0.0873816519
 40
0.1055233038
 40
0.1250399977
 40
0.1459941136
 40
0.1684273795
 40
0.192364659
 40
0.2178175573
 40
0.2447860489
 40
0.2732611697
 40
0.3032256797
 40
0.334655689
 40
0.3675213604
 40
0.4017874193
 40
0.4374142301
 40
0.4743575615
 40
0.5125697352
 40
0.5519993246
 40
0.5925918809
 40
0.6342900708
 40
0.6770336885
 40
0.7207603521
 40
0.8109000934
 40
0.9041686777
 40
1.0
 40
1.0
 40
1.0
 40
1.0
 10
14.001586745
 20
10.43899657
 30
0.0
 10
14.0015867397
 20
10.4396040037
 30
0.0
 10
14.0015384432
 20
10.4408229392
 30
0.0
 10
14.0013213269
 20
10.4426481794
 30
0.0
 10
14.0009597035
 20
10.4444716419
 30
0.0
 10
14.0004538937
 20
10.4462922791
 30
0.0
 10
13.9998041728
 20
10.4481093317
 30
0.0
 10
13.998731033
 20
10.4505617473
 30
0.0
 10
13.9970096125
 20
10.4536246105
 30
0.0
 10
13.9944070171
 20
10.4572133966
 30
0.0
 10
13.9912438403
 20
10.4607661761
 30
0.0
 10
13.9875261086
 20
10.4642783225
 30
0.0
 10
13.9832600144
 20
10.4677458152
 30
0.0
 10
13.9784523101
 20
10.4711638803
 30
0.0
 10
13.9731105604
 20
10.4745275329
 30
0.0
 10
13.9672432703
 20
10.4778316798
 30
0.0
 10
13.9608598047
 20
10.4810709754
 30
0.0
 10
13.9539705377
 20
10.484240279
 30
0.0
 10
13.9465866804
 20
10.4873342799
 30
0.0
 10
13.9387203743
 20
10.4903479094
 30
0.0
 10
13.9303845873
 20
10.4932761173
 30
0.0
 10
13.921593113
 20
10.4961139785
 30
0.0
 10
13.9123605461
 20
10.4988567903
 30
0.0
 10
13.9027022248
 20
10.5014998636
 30
0.0
 10
13.8926342364
 20
10.5040388408
 30
0.0
 10
13.8821733545
 20
10.5064693805
 30
0.0
 10
13.8713370294
 20
10.5087874398
 30
0.0
 10
13.8601433429
 20
10.5109891112
 30
0.0
 10
13.8486109909
 20
10.5130706613
 30
0.0
 10
13.8367592232
 20
10.5150286668
 30
0.0
 10
13.8203916052
 20
10.5174950069
 30
0.0
 10
13.7992787951
 20
10.5202348947
 30
0.0
 10
13.7732473909
 20
10.5229515714
 30
0.0
 10
13.7555802584
 20
10.5243747384
 30
0.0
 10
13.7466204414
 20
10.5249961038
 30
0.0
  0
SPLINE
  5
339
100
AcDbEntity
  8
0
100
AcDbSpline
 62
7
  6
CONTINUOUS
 70
0
 71
3
 72
39
 73
35
 74
0
 42
0.0000001
 43
0.0000001
 44
0.0000000001
 40
0.0
 40
0.0
 40
0.0
 40
0.0
 40
0.0064813485
 40
0.0130002985
 40
0.0195937285
 40
0.026297146
 40
0.0331442162
 40
0.0401663079
 40
0.05484089
 40
0.0705272863
 40
0.0873816519
 40
0.1055233038
 40
0.1250399977
 40
0.1459941136
 40
0.1684273795
 40
0.192364659
 40
0.2178175573
 40
0.2447860489
 40
0.2732611697
 40
0.3032256797
 40
0.334655689
 40
0.3675213604
 40
0.4017874193
 40
0.4374142301
 40
0.4743575615
 40
0.5125697352
 40
0.5519993246
 40
0.5925918809
 40
0.6342900708
 40
0.6770336885
 40
0.7207603521
 40
0.8109000934
 40
0.9041686777
 40
1.0
 40
1.0
 40
1.0
 40
1.0
 10
9.1719573273
 20
10.7739325077
 30
0.0
 10
9.1719573221
 20
10.7745399414
 30
0.0
 10
9.1719090256
 20
10.7757588769
 30
0.0
 10
9.1716919093
 20
10.7775841171
 30
0.0
 10
9.1713302859
 20
10.7794075796
 30
0.0
 10
9.1708244761
 20
10.7812282168
 30
0.0
 10
9.1701747552
 20
10.7830452694
 30
0.0
 10
9.1691016154
 20
10.785497685
 30
0.0
 10
9.1673801948
 20
10.7885605482
 30
0.0
 10
9.1647775994
 20
10.7921493344
 30
0.0
 10
9.1616144227
 20
10.7957021138
 30
0.0
 10
9.157896691
 20
10.7992142602
 30
0.0
 10
9.1536305968
 20
10.802681753
 30
0.0
 10
9.1488228925
 20
10.806099818
 30
0.0
 10
9.1434811428
 20
10.8094634706
 30
0.0
 10
9.1376138527
 20
10.8127676175
 30
0.0
 10
9.1312303871
 20
10.8160069131
 30
0.0
 10
9.1243411201
 20
10.8191762167
 30
0.0
 10
9.1169572628
 20
10.8222702176
 30
0.0
 10
9.1090909567
 20
10.8252838471
 30
0.0
 10
9.1007551697
 20
10.828212055
 30
0.0
 10
9.0919636954
 20
10.8310499162
 30
0.0
 10
9.0827311285
 20
10.833792728
 30
0.0
 10
9.0730728072
 20
10.8364358013
 30
0.0
 10
9.0630048188
 20
10.8389747785
 30
0.0
 10
9.0525439369
 20
10.8414053182
 30
0.0
 10
9.0417076118
 20
10.8437233775
 30
0.0
 10
9.0305139253
 20
10.8459250489
 30
0.0
 10
9.0189815733
 20
10.848006599
 30
0.0
 10
9.0071298056
 20
10.8499646045
 30
0.0
 10
8.9907621876
 20
10.8524309446
 30
0.0
 10
8.9696493775
 20
10.8551708325
 30
0.0
 10
8.9436179733
 20
10.8578875091
 30
0.0
 10
8.9259508407
 20
10.8593106761
 30
0.0
 10
8.9169910238
 20
10.8599320415
 30
0.0
  0
SPLINE
  5
33A
100
AcDbEntity
  8
0
100
AcDbSpline
 62
7
  6
CONTINUOUS
 70
0
 71
3
 72
23
 73
19
 74
0
 42
0.0000001
 43
0.0000001
 44
0.0000000001
 40
0.0
 40
0.0
 40
0.0
 40
0.0
 40
0.0520533176
 40
0.1059176703
 40
0.1615161194
 40
0.2187669307
 40
0.2775839994
 40
0.3378773523
 40
0.3995534008
 40
0.4625151574
 40
0.5266627046
 40
0.5918934285
 40
0.6581021311
 40
0.7251817436
 40
0.7930228555
 40
0.861513887
 40
0.930546264
 40
1.0
 40
1.0
 40
1.0
 40
1.0
 10
8.5698341041
 20
7.4859569274
 30
0.0
 10
8.5769237951
 20
7.4877951694
 30
0.0
 10
8.5913890283
 20
7.4913858568
 30
0.0
 10
8.6135468523
 20
7.496441276
 30
0.0
 10
8.6365068612
 20
7.5012516713
 30
0.0
 10
8.6602284139
 20
7.5058084677
 30
0.0
 10
8.6846696635
 20
7.5101035892
 30
0.0
 10
8.7097874424
 20
7.5141293865
 30
0.0
 10
8.7355373879
 20
7.5178786847
 30
0.0
 10
8.7618739977
 20
7.5213448456
 30
0.0
 10
8.7887507305
 20
7.5245217101
 30
0.0
 10
8.8161200805
 20
7.5274036084
 30
0.0
 10
8.8439336879
 20
7.5299854423
 30
0.0
 10
8.8721423715
 20
7.5322626263
 30
0.0
 10
8.9006961573
 20
7.5342310974
 30
0.0
 10
8.9295449611
 20
7.5358874067
 30
0.0
 10
8.9586372297
 20
7.5372285226
 30
0.0
 10
8.9781114037
 20
7.5379092527
 30
0.0
 10
8.9878796094
 20
7.5381969881
 30
0.0
  0
SPLINE
  5
33B
100
AcDbEntity
  8
0
100
AcDbSpline
 62
7
  6
CONTINUOUS
 70
0
 71
3
 72
52
 73
48
 74
0
 42
0.0000001
 43
0.0000001
 44
0.0000000001
 40
0.0
 40
0.0
 40
0.0
 40
0.0
 40
0.0417975951
 40
0.0840616288
 40
0.1266599
 40
0.1694646819
 40
0.2123442235
 40
0.2551675716
 40
0.2978037564
 40
0.3401225587
 40
0.3819950468
 40
0.4232940448
 40
0.4638946794
 40
0.5036749394
 40
0.5425162168
 40
0.5803038545
 40
0.6169277287
 40
0.6522828762
 40
0.6862702207
 40
0.7187973048
 40
0.7497791232
 40
0.7646666939
 40
0.7791400459
 40
0.7931910474
 40
0.8068124878
 40
0.8199977024
 40
0.8327409898
 40
0.8450375569
 40
0.8568834717
 40
0.8682761438
 40
0.8792139942
 40
0.8896969854
 40
0.8997266536
 40
0.9093062033
 40
0.9184411394
 40
0.9271391328
 40
0.9354107775
 40
0.9432698769
 40
0.9507338665
 40
0.9578247066
 40
0.9645691138
 40
0.9709994856
 40
0.9771542525
 40
0.9830781055
 40
0.9888220386
 40
0.9944424568
 40
1.0
 40
1.0
 40
1.0
 40
1.0
 10
9.4993333947
 20
11.4224316107
 30
0.0
 10
9.492948538
 20
11.422874402
 30
0.0
 10
9.4801002809
 20
11.4236628418
 30
0.0
 10
9.460725394
 20
11.4245527208
 30
0.0
 10
9.4411850903
 20
11.4251545408
 30
0.0
 10
9.4215437723
 20
11.4254663891
 30
0.0
 10
9.401865525
 20
11.4254871864
 30
0.0
 10
9.3822149403
 20
11.4252168781
 30
0.0
 10
9.3626563794
 20
11.424656357
 30
0.0
 10
9.3432539316
 20
11.4238074775
 30
0.0
 10
9.3240711686
 20
11.4226730434
 30
0.0
 10
9.3051709373
 20
11.4212567973
 30
0.0
 10
9.2866151545
 20
11.4195634092
 30
0.0
 10
9.2684645941
 20
11.41759848
 30
0.0
 10
9.2507786853
 20
11.4153685083
 30
0.0
 10
9.2336153212
 20
11.4128808676
 30
0.0
 10
9.2170306627
 20
11.410143785
 30
0.0
 10
9.2010789582
 20
11.407166308
 30
0.0
 10
9.1858122911
 20
11.403958307
 30
0.0
 10
9.1712805994
 20
11.4005303889
 30
0.0
 10
9.1596735292
 20
11.3974606731
 30
0.0
 10
9.1507962979
 20
11.3948962573
 30
0.0
 10
9.1444396804
 20
11.3929507188
 30
0.0
 10
9.1383008971
 20
11.3909589317
 30
0.0
 10
9.1323849386
 20
11.3889225914
 30
0.0
 10
9.1266966435
 20
11.3868433127
 30
0.0
 10
9.1212406447
 20
11.3847228178
 30
0.0
 10
9.1160213735
 20
11.3825628754
 30
0.0
 10
9.1110430937
 20
11.3803651747
 30
0.0
 10
9.1063098162
 20
11.3781315971
 30
0.0
 10
9.1018253923
 20
11.3758638849
 30
0.0
 10
9.0975934355
 20
11.3735638946
 30
0.0
 10
9.0936173321
 20
11.3712335076
 30
0.0
 10
9.0899003115
 20
11.3688744917
 30
0.0
 10
9.0864452906
 20
11.366488805
 30
0.0
 10
9.0832550649
 20
11.3640782082
 30
0.0
 10
9.0803321623
 20
11.3616445588
 30
0.0
 10
9.0776788893
 20
11.3591896874
 30
0.0
 10
9.0752974806
 20
11.3567152619
 30
0.0
 10
9.0731898342
 20
11.3542231084
 30
0.0
 10
9.0713579158
 20
11.3517148193
 30
0.0
 10
9.0698034973
 20
11.3491921199
 30
0.0
 10
9.0685282882
 20
11.3466567645
 30
0.0
 10
9.0675341457
 20
11.3441106319
 30
0.0
 10
9.0668225251
 20
11.3415558606
 30
0.0
 10
9.0663949684
 20
11.3389953565
 30
0.0
 10
9.0662997277
 20
11.3372822665
 30
0.0
 10
9.0662997351
 20
11.3364312763
 30
0.0
  0
SPLINE
  5
33C
100
AcDbEntity
  8
0
100
AcDbSpline
 62
7
  6
CONTINUOUS
 70
0
 71
3
 72
75
 73
71
 74
0
 42
0.0000001
 43
0.0000001
 44
0.0000000001
 40
0.0
 40
0.0
 40
0.0
 40
0.0
 40
0.0156747273
 40
0.0235325814
 40
0.031403181
 40
0.0471815803
 40
0.0630097508
 40
0.0788855268
 40
0.0948064622
 40
0.1107696438
 40
0.1267717932
 40
0.1347869014
 40
0.1428103611
 40
0.1588792318
 40
0.1749752631
 40
0.1910939891
 40
0.2072307449
 40
0.2233807077
 40
0.2395389397
 40
0.2557004309
 40
0.2718601429
 40
0.2880130529
 40
0.3041541969
 40
0.3202787136
 40
0.3363818874
 40
0.3524591897
 40
0.36850632
 40
0.3845192451
 40
0.4004942363
 40
0.4164279049
 40
0.4323172352
 40
0.4481596152
 40
0.4639528635
 40
0.4796952542
 40
0.4953855368
 40
0.5110229526
 40
0.526607247
 40
0.5421386771
 40
0.5576180139
 40
0.5730465408
 40
0.5884260451
 40
0.6037588059
 40
0.6190475753
 40
0.6342955548
 40
0.649506366
 40
0.6646840161
 40
0.6798328593
 40
0.6949575524
 40
0.7100630078
 40
0.725154342
 40
0.7402368221
 40
0.7553158097
 40
0.7703967041
 40
0.7854848839
 40
0.80058565
 40
0.8157041693
 40
0.8308454194
 40
0.8460141376
 40
0.8612147716
 40
0.8764514346
 40
0.8917278653
 40
0.9070473908
 40
0.9224129018
 40
0.9301142846
 40
0.9378280267
 40
0.9532922984
 40
0.9688082546
 40
0.9765865231
 40
0.9843782672
 40
1.0
 40
1.0
 40
1.0
 40
1.0
 10
11.3745901045
 20
5.9190945569
 30
0.0
 10
11.3598049054
 20
5.920119914
 30
0.0
 10
11.3376405638
 20
5.9222029825
 30
0.0
 10
11.3081971294
 20
5.9260544219
 30
0.0
 10
11.2787579861
 20
5.930631739
 30
0.0
 10
11.2420911467
 20
5.9376999326
 30
0.0
 10
11.1984486125
 20
5.9483026628
 30
0.0
 10
11.1552304164
 20
5.961008087
 30
0.0
 10
11.1125411392
 20
5.9757854221
 30
0.0
 10
11.0704839006
 20
5.9925988218
 30
0.0
 10
11.0360644494
 20
6.0082651454
 30
0.0
 10
11.0089443667
 20
6.0217718781
 30
0.0
 10
10.9820897872
 20
6.035934855
 30
0.0
 10
10.949103774
 20
6.0548280326
 30
0.0
 10
10.9105665845
 20
6.0793336225
 30
0.0
 10
10.8731467331
 20
6.105626181
 30
0.0
 10
10.8369348217
 20
6.1336420924
 30
0.0
 10
10.8020178568
 20
6.163313977
 30
0.0
 10
10.7684799169
 20
6.1945703765
 30
0.0
 10
10.7364017158
 20
6.2273360532
 30
0.0
 10
10.7058604733
 20
6.2615321352
 30
0.0
 10
10.6769297123
 20
6.2970763149
 30
0.0
 10
10.6496790895
 20
6.3338830438
 30
0.0
 10
10.6241742176
 20
6.3718637326
 30
0.0
 10
10.600476513
 20
6.4109269676
 30
0.0
 10
10.5786430512
 20
6.4509787316
 30
0.0
 10
10.5587264293
 20
6.4919226285
 30
0.0
 10
10.54077464
 20
6.5336601135
 30
0.0
 10
10.5248309564
 20
6.5760907293
 30
0.0
 10
10.5109338275
 20
6.6191123455
 30
0.0
 10
10.4991167853
 20
6.6626214026
 30
0.0
 10
10.4894083653
 20
6.7065131604
 30
0.0
 10
10.4818320281
 20
6.7506819467
 30
0.0
 10
10.4764061037
 20
6.7950214115
 30
0.0
 10
10.4731437525
 20
6.8394247834
 30
0.0
 10
10.472052931
 20
6.8837851243
 30
0.0
 10
10.4731363711
 20
6.9279955859
 30
0.0
 10
10.4763915713
 20
6.971949665
 30
0.0
 10
10.4818108006
 20
7.0155414594
 30
0.0
 10
10.489381114
 20
7.0586659224
 30
0.0
 10
10.4990843827
 20
7.1012191153
 30
0.0
 10
10.5108973281
 20
7.1430984593
 30
0.0
 10
10.5247915732
 20
7.1842029862
 30
0.0
 10
10.5407337177
 20
7.2244335804
 30
0.0
 10
10.558685414
 20
7.2636932198
 30
0.0
 10
10.5786034577
 20
7.3018872116
 30
0.0
 10
10.6004398899
 20
7.3389234227
 30
0.0
 10
10.6241421115
 20
7.3747125052
 30
0.0
 10
10.649653009
 20
7.409168114
 30
0.0
 10
10.6769110924
 20
7.4422071184
 30
0.0
 10
10.7058506409
 20
7.473749808
 30
0.0
 10
10.7364018585
 20
7.5037200933
 30
0.0
 10
10.7684910533
 20
7.5320456851
 30
0.0
 10
10.8020408153
 20
7.5586582718
 30
0.0
 10
10.8369702068
 20
7.5834936859
 30
0.0
 10
10.8731949596
 20
7.6064920597
 30
0.0
 10
10.9106276831
 20
7.6275979703
 30
0.0
 10
10.9491780721
 20
7.6467605725
 30
0.0
 10
10.9887531486
 20
7.6639337228
 30
0.0
 10
11.0292574103
 20
7.6790760816
 30
0.0
 10
11.070593352
 20
7.6921512562
 30
0.0
 10
11.1126606176
 20
7.7031277391
 30
0.0
 10
11.1482165113
 20
7.7104985702
 30
0.0
 10
11.1769199519
 20
7.7153240125
 30
0.0
 10
11.2058282979
 20
7.7194385572
 30
0.0
 10
11.2422336644
 20
7.7232278274
 30
0.0
 10
11.2788432467
 20
7.7252011616
 30
0.0
 10
11.3082341408
 20
7.7256932347
 30
0.0
 10
11.3377276574
 20
7.7254592382
 30
0.0
 10
11.3598548926
 20
7.724466088
 30
0.0
 10
11.3745901045
 20
7.7234441976
 30
0.0
  0
SPLINE
  5
33D
100
AcDbEntity
  8
0
100
AcDbSpline
 62
7
  6
CONTINUOUS
 70
0
 71
3
 72
15
 73
11
 74
0
 42
0.0000001
 43
0.0000001
 44
0.0000000001
 40
0.0
 40
0.0
 40
0.0
 40
0.0
 40
0.1448194778
 40
0.2829366311
 40
0.4147523671
 40
0.5407664789
 40
0.6615695158
 40
0.777843463
 40
0.8903641022
 40
1.0
 40
1.0
 40
1.0
 40
1.0
 10
11.2986640403
 20
10.0695420246
 30
0.0
 10
11.2960149067
 20
10.0669831578
 30
0.0
 10
11.2909666157
 20
10.0618492502
 30
0.0
 10
11.2840149791
 20
10.0539073592
 30
0.0
 10
11.277874253
 20
10.0459168039
 30
0.0
 10
11.272549573
 20
10.0378828785
 30
0.0
 10
11.2680455964
 20
10.0298102081
 30
0.0
 10
11.2643665297
 20
10.0217036026
 30
0.0
 10
11.2615171612
 20
10.0135695437
 30
0.0
 10
11.2601589172
 20
10.0080743582
 30
0.0
 10
11.259625718
 20
10.0053374649
 30
0.0
  0
SPLINE
  5
33E
100
AcDbEntity
  8
0
100
AcDbSpline
 62
7
  6
CONTINUOUS
 70
0
 71
3
 72
98
 73
94
 74
0
 42
0.0000001
 43
0.0000001
 44
0.0000000001
 40
0.0
 40
0.0
 40
0.0
 40
0.0
 40
0.0039362478
 40
0.0080317333
 40
0.0122904587
 40
0.0167158604
 40
0.0213108615
 40
0.0260777664
 40
0.0310182099
 40
0.0361333767
 40
0.0414239867
 40
0.0468903924
 40
0.0525325878
 40
0.0583502058
 40
0.0643426285
 40
0.0705089147
 40
0.0768479135
 40
0.0833582226
 40
0.0900382179
 40
0.0968861063
 40
0.1038998621
 40
0.1110773323
 40
0.1184161631
 40
0.1259138619
 40
0.1413749407
 40
0.1574380897
 40
0.1740785647
 40
0.1912698179
 40
0.2089836634
 40
0.2271904235
 40
0.245859061
 40
0.2649572989
 40
0.2844517338
 40
0.3043079498
 40
0.3244906232
 40
0.3449636225
 40
0.3656901063
 40
0.3866326179
 40
0.4077531806
 40
0.4290133949
 40
0.4503745308
 40
0.4717976203
 40
0.4932435487
 40
0.5146731466
 40
0.5360472837
 40
0.5573269614
 40
0.5784734037
 40
0.5994481498
 40
0.6202131462
 40
0.6407308429
 40
0.6609642899
 40
0.680877231
 40
0.7004342013
 40
0.719600627
 40
0.7383429289
 40
0.7566286346
 40
0.774426493
 40
0.7917065917
 40
0.8084404872
 40
0.8246013485
 40
0.8401641189
 40
0.847714045
 40
0.8551059671
 40
0.8623373388
 40
0.8694057577
 40
0.876309013
 40
0.8830450192
 40
0.8896119223
 40
0.8960080263
 40
0.9022318603
 40
0.9082821898
 40
0.9141579903
 40
0.9198585517
 40
0.9253834037
 40
0.9307324295
 40
0.935905847
 40
0.9409042456
 40
0.9457286777
 40
0.9503806218
 40
0.9548621356
 40
0.9591758375
 40
0.9633250236
 40
0.9673137542
 40
0.9711468963
 40
0.9748303052
 40
0.9783708455
 40
0.9817765727
 40
0.9850568059
 40
0.9882222204
 40
0.9912849555
 40
0.9942585878
 40
0.9971581538
 40
1.0
 40
1.0
 40
1.0
 40
1.0
 10
11.2986640403
 20
10.0695420246
 30
0.0
 10
11.3009809166
 20
10.0717799553
 30
0.0
 10
11.3058117919
 20
10.0762403069
 30
0.0
 10
11.3134753194
 20
10.0827579328
 30
0.0
 10
11.3216934574
 20
10.0892297373
 30
0.0
 10
11.3304618402
 20
10.0956523459
 30
0.0
 10
11.3397763025
 20
10.102022884
 30
0.0
 10
11.3496324602
 20
10.1083383229
 30
0.0
 10
11.360025534
 20
10.1145957751
 30
0.0
 10
11.3709505413
 20
10.1207920927
 30
0.0
 10
11.3824021515
 20
10.126924363
 30
0.0
 10
11.3943748355
 20
10.1329896003
 30
0.0
 10
11.4068628017
 20
10.1389848346
 30
0.0
 10
11.4198599649
 20
10.1449072294
 30
0.0
 10
11.4333600379
 20
10.1507537912
 30
0.0
 10
11.4473564232
 20
10.1565217676
 30
0.0
 10
11.4618423241
 20
10.1622082742
 30
0.0
 10
11.4768106757
 20
10.1678105498
 30
0.0
 10
11.4922541754
 20
10.1733258863
 30
0.0
 10
11.5081653021
 20
10.1787515092
 30
0.0
 10
11.5245362756
 20
10.1840848563
 30
0.0
 10
11.5413591125
 20
10.1893232223
 30
0.0
 10
11.5586256028
 20
10.1944641244
 30
0.0
 10
11.5824720488
 20
10.2012547422
 30
0.0
 10
11.6133344576
 20
10.2094671034
 30
0.0
 10
11.6516327262
 20
10.2187959897
 30
0.0
 10
11.6914887355
 20
10.2276785554
 30
0.0
 10
11.7328245387
 20
10.2360973194
 30
0.0
 10
11.7755594737
 20
10.2440356994
 30
0.0
 10
11.8196100457
 20
10.2514780643
 30
0.0
 10
11.8648901742
 20
10.2584097586
 30
0.0
 10
11.9113113399
 20
10.2648171363
 30
0.0
 10
11.9587827684
 20
10.2706875952
 30
0.0
 10
12.0072116151
 20
10.2760095876
 30
0.0
 10
12.056503153
 20
10.2807726458
 30
0.0
 10
12.106560959
 20
10.284967401
 30
0.0
 10
12.1572871023
 20
10.2885856003
 30
0.0
 10
12.2085823345
 20
10.291620128
 30
0.0
 10
12.260346287
 20
10.294065024
 30
0.0
 10
12.3124776705
 20
10.2959154843
 30
0.0
 10
12.3648744762
 20
10.2971678719
 30
0.0
 10
12.4174341735
 20
10.2978197237
 30
0.0
 10
12.4700539112
 20
10.2978697536
 30
0.0
 10
12.5226307186
 20
10.2973178625
 30
0.0
 10
12.5750617107
 20
10.2961651403
 30
0.0
 10
12.6272442896
 20
10.2944138545
 30
0.0
 10
12.6790763459
 20
10.2920674475
 30
0.0
 10
12.7304564573
 20
10.2891305299
 30
0.0
 10
12.7812840878
 20
10.2856088704
 30
0.0
 10
12.8314597894
 20
10.2815093927
 30
0.0
 10
12.8808853986
 20
10.2768401628
 30
0.0
 10
12.929464229
 20
10.2716103649
 30
0.0
 10
12.9771012588
 20
10.2658302856
 30
0.0
 10
13.0237033174
 20
10.2595112945
 30
0.0
 10
13.0691792734
 20
10.25266582
 30
0.0
 10
13.11344022
 20
10.2453073357
 30
0.0
 10
13.1563996603
 20
10.2374503325
 30
0.0
 10
13.1979736553
 20
10.2291102807
 30
0.0
 10
13.2380810702
 20
10.220303608
 30
0.0
 10
13.276643462
 20
10.2110476449
 30
0.0
 10
13.3077345862
 20
10.2028950566
 30
0.0
 10
13.3317701834
 20
10.1961508445
 30
0.0
 10
13.3491822772
 20
10.1910429158
 30
0.0
 10
13.3661534964
 20
10.1858366724
 30
0.0
 10
13.3826755596
 20
10.1805345956
 30
0.0
 10
13.3987404075
 20
10.1751393677
 30
0.0
 10
13.4143401833
 20
10.1696535356
 30
0.0
 10
13.4294672906
 20
10.1640798689
 30
0.0
 10
13.4441143446
 20
10.1584210465
 30
0.0
 10
13.4582742044
 20
10.1526798348
 30
0.0
 10
13.4719399877
 20
10.1468590916
 30
0.0
 10
13.4851050179
 20
10.1409615661
 30
0.0
 10
13.4977629252
 20
10.1349902401
 30
0.0
 10
13.5099075349
 20
10.1289479278
 30
0.0
 10
13.5215329709
 20
10.1228376143
 30
0.0
 10
13.5326336077
 20
10.116662265
 30
0.0
 10
13.5432040469
 20
10.1104247956
 30
0.0
 10
13.5532392329
 20
10.10412831
 30
0.0
 10
13.5627342694
 20
10.0977756955
 30
0.0
 10
13.5716846362
 20
10.0913700697
 30
0.0
 10
13.5800860034
 20
10.0849143953
 30
0.0
 10
13.5879343141
 20
10.0784116693
 30
0.0
 10
13.5952258399
 20
10.0718649625
 30
0.0
 10
13.6019569491
 20
10.0652771327
 30
0.0
 10
13.6081244469
 20
10.0586512633
 30
0.0
 10
13.6137251584
 20
10.0519901816
 30
0.0
 10
13.6187562359
 20
10.0452968537
 30
0.0
 10
13.6232149899
 20
10.038574213
 30
0.0
 10
13.6270987481
 20
10.0318251297
 30
0.0
 10
13.6304052343
 20
10.0250527848
 30
0.0
 10
13.6331320137
 20
10.0182600756
 30
0.0
 10
13.6352770177
 20
10.0114511
 30
0.0
 10
13.636326603
 20
10.0068650035
 30
0.0
 10
13.6367502288
 20
10.0045782942
 30
0.0
  0
SPLINE
  5
33F
100
AcDbEntity
  8
0
100
AcDbSpline
 62
7
  6
CONTINUOUS
 70
0
 71
3
 72
102
 73
98
 74
0
 42
0.0000001
 43
0.0000001
 44
0.0000000001
 40
0.0
 40
0.0
 40
0.0
 40
0.0
 40
0.0041938757
 40
0.0085761785
 40
0.0131519785
 40
0.0179255273
 40
0.0229003358
 40
0.028079045
 40
0.0334633958
 40
0.0390545282
 40
0.0448529478
 40
0.0508586892
 40
0.0570712874
 40
0.0634898283
 40
0.070113055
 40
0.0769392907
 40
0.0839666027
 40
0.0911927011
 40
0.0986150484
 40
0.1062308515
 40
0.1140370441
 40
0.1220303904
 40
0.1385640535
 40
0.1558020293
 40
0.1737113251
 40
0.1922564028
 40
0.2113994302
 40
0.2311005132
 40
0.2513179003
 40
0.2720081709
 40
0.2931264108
 40
0.3146263806
 40
0.3364606744
 40
0.3585808824
 40
0.3809377469
 40
0.4034813143
 40
0.4261610848
 40
0.4489261615
 40
0.4717253989
 40
0.4945075528
 40
0.5172214295
 40
0.5398160339
 40
0.5622407169
 40
0.5844453243
 40
0.6063803472
 40
0.6279970779
 40
0.6492477621
 40
0.6700857549
 40
0.6904656804
 40
0.7103435977
 40
0.7296771747
 40
0.7484258776
 40
0.7665511697
 40
0.7840167246
 40
0.8007886686
 40
0.8089048463
 40
0.8168361893
 40
0.824579271
 40
0.832130925
 40
0.8394881521
 40
0.8466482659
 40
0.8536087908
 40
0.8603675635
 40
0.8669227338
 40
0.8732727494
 40
0.8794164857
 40
0.8853531493
 40
0.8910824543
 40
0.8966045663
 40
0.9019202083
 40
0.9070307444
 40
0.9119381784
 40
0.9166453673
 40
0.9211559917
 40
0.9254747931
 40
0.9296076434
 40
0.9335617121
 40
0.9373456839
 40
0.9409698479
 40
0.9444463823
 40
0.9477894095
 40
0.9510151723
 40
0.9541420342
 40
0.957190382
 40
0.9601824244
 40
0.9631417573
 40
0.9660928515
 40
0.9690603956
 40
0.9720686411
 40
0.9751407778
 40
0.9782984514
 40
0.9815613553
 40
0.9849471405
 40
0.9884713926
 40
0.9921476919
 40
0.9959874627
 40
1.0
 40
1.0
 40
1.0
 40
1.0
 10
11.6463973584
 20
10.0454266371
 30
0.0
 10
11.648193942
 20
10.0471620037
 30
0.0
 10
11.6519571694
 20
10.0506191341
 30
0.0
 10
11.6579591005
 20
10.0556561252
 30
0.0
 10
11.6644361915
 20
10.0606531136
 30
0.0
 10
11.6713842276
 20
10.0656069385
 30
0.0
 10
11.6787991749
 20
10.0705148798
 30
0.0
 10
11.686676737
 20
10.0753740818
 30
0.0
 10
11.695012228
 20
10.080181808
 30
0.0
 10
11.7038007392
 20
10.0849350701
 30
0.0
 10
11.7130369957
 20
10.0896311482
 30
0.0
 10
11.7227155262
 20
10.0942671893
 30
0.0
 10
11.7328305567
 20
10.0988404362
 30
0.0
 10
11.7433760366
 20
10.10334819
 30
0.0
 10
11.7543456782
 20
10.1077876586
 30
0.0
 10
11.765732889
 20
10.1121562769
 30
0.0
 10
11.7775308665
 20
10.1164513191
 30
0.0
 10
11.7897325197
 20
10.1206702676
 30
0.0
 10
11.8023305329
 20
10.1248105545
 30
0.0
 10
11.8153173389
 20
10.1288696573
 30
0.0
 10
11.8286851438
 20
10.1328452118
 30
0.0
 10
11.8472150008
 20
10.1380902473
 30
0.0
 10
11.8712772394
 20
10.144407177
 30
0.0
 10
11.901223974
 20
10.1515344784
 30
0.0
 10
11.9324867799
 20
10.1582741866
 30
0.0
 10
11.9649904524
 20
10.1646099504
 30
0.0
 10
11.9986569527
 20
10.170526397
 30
0.0
 10
12.0334053387
 20
10.176009175
 30
0.0
 10
12.0691520508
 20
10.1810449874
 30
0.0
 10
12.1058110969
 20
10.1856216235
 30
0.0
 10
12.14329427
 20
10.1897279878
 30
0.0
 10
12.1815113599
 20
10.1933541247
 30
0.0
 10
12.220370373
 20
10.1964912517
 30
0.0
 10
12.2597777589
 20
10.1991317728
 30
0.0
 10
12.2996386408
 20
10.2012692942
 30
0.0
 10
12.3398570453
 20
10.2028986396
 30
0.0
 10
12.380336134
 20
10.2040158624
 30
0.0
 10
12.4209784362
 20
10.2046182539
 30
0.0
 10
12.4616860851
 20
10.2047043547
 30
0.0
 10
12.5023610562
 20
10.2042739608
 30
0.0
 10
12.5429054052
 20
10.2033281156
 30
0.0
 10
12.5832215044
 20
10.2018691098
 30
0.0
 10
12.6232122776
 20
10.1999004748
 30
0.0
 10
12.6627814345
 20
10.1974269752
 30
0.0
 10
12.7018337051
 20
10.1944545973
 30
0.0
 10
12.7402750737
 20
10.1909905445
 30
0.0
 10
12.7780130071
 20
10.1870432115
 30
0.0
 10
12.814956678
 20
10.182622164
 30
0.0
 10
12.8510171848
 20
10.1777381171
 30
0.0
 10
12.8861077675
 20
10.1724029101
 30
0.0
 10
12.9201440294
 20
10.1666294775
 30
0.0
 10
12.9530441304
 20
10.1604318241
 30
0.0
 10
12.9847290679
 20
10.1538249977
 30
0.0
 10
13.0151226103
 20
10.1468250152
 30
0.0
 10
13.0395737761
 20
10.1406123054
 30
0.0
 10
13.0584267183
 20
10.1354479751
 30
0.0
 10
13.0720440801
 20
10.1315295309
 30
0.0
 10
13.0852857649
 20
10.127525861
 30
0.0
 10
13.0981438405
 20
10.123439437
 30
0.0
 10
13.110610566
 20
10.1192726351
 30
0.0
 10
13.122678471
 20
10.1150280516
 30
0.0
 10
13.1343403062
 20
10.1107081888
 30
0.0
 10
13.1455890796
 20
10.1063156589
 30
0.0
 10
13.1564180618
 20
10.1018531427
 30
0.0
 10
13.1668207498
 20
10.0973232404
 30
0.0
 10
13.1767909537
 20
10.0927287762
 30
0.0
 10
13.1863226902
 20
10.0880723938
 30
0.0
 10
13.1954103028
 20
10.0833569553
 30
0.0
 10
13.2040483761
 20
10.0785852315
 30
0.0
 10
13.2122317687
 20
10.0737600265
 30
0.0
 10
13.2199556694
 20
10.0688842582
 30
0.0
 10
13.227215454
 20
10.0639606598
 30
0.0
 10
13.2340069066
 20
10.0589922093
 30
0.0
 10
13.2403259629
 20
10.0539816388
 30
0.0
 10
13.2461689276
 20
10.0489318367
 30
0.0
 10
13.2515323396
 20
10.0438455977
 30
0.0
 10
13.2564129202
 20
10.0387256272
 30
0.0
 10
13.2608077748
 20
10.0335747623
 30
0.0
 10
13.2647139604
 20
10.0283955766
 30
0.0
 10
13.2681289639
 20
10.02319089
 30
0.0
 10
13.2710501637
 20
10.0179633623
 30
0.0
 10
13.2734751758
 20
10.0127158819
 30
0.0
 10
13.2754017775
 20
10.0074515241
 30
0.0
 10
13.2768277355
 20
10.0021735978
 30
0.0
 10
13.2777515042
 20
9.9968858709
 30
0.0
 10
13.2781715937
 20
9.9915923594
 30
0.0
 10
13.2780875823
 20
9.9862973974
 30
0.0
 10
13.2774994976
 20
9.9810053443
 30
0.0
 10
13.2764081706
 20
9.9757204542
 30
0.0
 10
13.2748151436
 20
9.9704466368
 30
0.0
 10
13.2727221219
 20
9.9651875628
 30
0.0
 10
13.2701315088
 20
9.959946408
 30
0.0
 10
13.2670454625
 20
9.9547262179
 30
0.0
 10
13.2634664613
 20
9.949529691
 30
0.0
 10
13.2593969319
 20
9.9443595222
 30
0.0
 10
13.2548399045
 20
9.9392187526
 30
0.0
 10
13.2515532265
 20
9.9358882371
 30
0.0
 10
13.2498343251
 20
9.9342279057
 30
0.0
  0
SPLINE
  5
340
100
AcDbEntity
  8
0
100
AcDbSpline
 62
7
  6
CONTINUOUS
 70
0
 71
3
 72
27
 73
23
 74
0
 42
0.0000001
 43
0.0000001
 44
0.0000000001
 40
0.0
 40
0.0
 40
0.0
 40
0.0
 40
0.1039124663
 40
0.2012768364
 40
0.2920297366
 40
0.3762510806
 40
0.4541228394
 40
0.5258950376
 40
0.5918704017
 40
0.6523968645
 40
0.7078670542
 40
0.7587233424
 40
0.8054659366
 40
0.8486618931
 40
0.8691377294
 40
0.888974669
 40
0.9082654868
 40
0.9271065033
 40
0.945597378
 40
0.9638409302
 40
0.981940737
 40
1.0
 40
1.0
 40
1.0
 40
1.0
 10
11.4325564257
 20
7.3258921106
 30
0.0
 10
11.4307683891
 20
7.329309206
 30
0.0
 10
11.4272175273
 20
7.3358828402
 30
0.0
 10
11.4217969017
 20
7.3452701407
 30
0.0
 10
11.4164758548
 20
7.3538658493
 30
0.0
 10
11.4112682687
 20
7.3616749129
 30
0.0
 10
11.4061799855
 20
7.3687097052
 30
0.0
 10
11.4012114664
 20
7.3749866853
 30
0.0
 10
11.3963597821
 20
7.3805242539
 30
0.0
 10
11.3916198539
 20
7.3853414342
 30
0.0
 10
11.3869854155
 20
7.3894569289
 30
0.0
 10
11.3824492788
 20
7.3928885199
 30
0.0
 10
11.3780049226
 20
7.3956520677
 30
0.0
 10
11.374307114
 20
7.3974408722
 30
0.0
 10
11.3714032187
 20
7.3985292492
 30
0.0
 10
11.3692849158
 20
7.3991723178
 30
0.0
 10
11.3671872796
 20
7.3996580883
 30
0.0
 10
11.3651099789
 20
7.3999877975
 30
0.0
 10
11.3630528824
 20
7.4001624771
 30
0.0
 10
11.3610159173
 20
7.4001832709
 30
0.0
 10
11.3589992798
 20
7.4000511478
 30
0.0
 10
11.3576691701
 20
7.3998616762
 30
0.0
 10
11.3570096496
 20
7.3997421948
 30
0.0
  0
SPLINE
  5
341
100
AcDbEntity
  8
0
100
AcDbSpline
 62
7
  6
CONTINUOUS
 70
0
 71
3
 72
95
 73
91
 74
0
 42
0.0000001
 43
0.0000001
 44
0.0000000001
 40
0.0
 40
0.0
 40
0.0
 40
0.0
 40
0.0039800858
 40
0.0081240041
 40
0.0124358998
 40
0.0169192731
 40
0.0215771033
 40
0.0264117919
 40
0.0314250347
 40
0.0366179809
 40
0.0419913616
 40
0.0475454444
 40
0.0532801805
 40
0.0591951586
 40
0.0652896206
 40
0.0715625858
 40
0.0780127517
 40
0.0846385995
 40
0.0914384113
 40
0.0984102006
 40
0.1128607044
 40
0.1279711537
 40
0.1437196616
 40
0.1600820424
 40
0.1770320182
 40
0.1945414237
 40
0.2125804013
 40
0.2311175517
 40
0.2501200557
 40
0.2695538044
 40
0.2893835407
 40
0.3095729728
 40
0.3300848732
 40
0.3508811835
 40
0.371923136
 40
0.3931713544
 40
0.414585949
 40
0.4361266159
 40
0.4577527469
 40
0.4794235271
 40
0.5010980302
 40
0.5227353199
 40
0.544294554
 40
0.5657350798
 40
0.5870165298
 40
0.6080989315
 40
0.6289428084
 40
0.6495092744
 40
0.6697601335
 40
0.6896579991
 40
0.7091664024
 40
0.7282498894
 40
0.7468741326
 40
0.7650060683
 40
0.782614031
 40
0.7996678713
 40
0.8161391032
 40
0.8320010902
 40
0.8472292528
 40
0.8618012669
 40
0.8688350803
 40
0.875697674
 40
0.8823869889
 40
0.8889012335
 40
0.8952387991
 40
0.9013982983
 40
0.9073786526
 40
0.9131789952
 40
0.9187988023
 40
0.924237885
 40
0.9294963677
 40
0.934574846
 40
0.9394743136
 40
0.9441962632
 40
0.9487427872
 40
0.9531165389
 40
0.9573209245
 40
0.9613601299
 40
0.9652391952
 40
0.9689642183
 40
0.9725423626
 40
0.9759820424
 40
0.9792930474
 40
0.9824865804
 40
0.9855754165
 40
0.9885738724
 40
0.9914977734
 40
0.9943643613
 40
0.9971920228
 40
1.0
 40
1.0
 40
1.0
 40
1.0
 10
11.7236714291
 20
9.9627935914
 30
0.0
 10
11.7251568243
 20
9.964228373
 30
0.0
 10
11.7282562209
 20
9.9670878127
 30
0.0
 10
11.7331771447
 20
9.9712642793
 30
0.0
 10
11.7384594535
 20
9.975410863
 30
0.0
 10
11.7441002497
 20
9.9795252318
 30
0.0
 10
11.7500966996
 20
9.9836055187
 30
0.0
 10
11.7564459227
 20
9.9876497034
 30
0.0
 10
11.7631447585
 20
9.9916558741
 30
0.0
 10
11.7701898545
 20
9.99562204
 30
0.0
 10
11.7775777074
 20
9.9995461341
 30
0.0
 10
11.7853045757
 20
10.0034262806
 30
0.0
 10
11.7933666124
 20
10.0072604834
 30
0.0
 10
11.8017597722
 20
10.0110468134
 30
0.0
 10
11.81047982
 20
10.0147834186
 30
0.0
 10
11.8195223922
 20
10.018468332
 30
0.0
 10
11.8288829167
 20
10.022099751
 30
0.0
 10
11.8385566772
 20
10.0256758287
 30
0.0
 10
11.8485388187
 20
10.0291947311
 30
0.0
 10
11.8624188448
 20
10.0338638494
 30
0.0
 10
11.8805097939
 20
10.0395333356
 30
0.0
 10
11.9031146384
 20
10.0460025044
 30
0.0
 10
11.9268214061
 20
10.0522029426
 30
0.0
 10
11.9515822128
 20
10.0581220207
 30
0.0
 10
11.9773471803
 20
10.0637476801
 30
0.0
 10
12.0040642943
 20
10.0690684741
 30
0.0
 10
12.0316796096
 20
10.0740735641
 30
0.0
 10
12.0601373421
 20
10.0787527459
 30
0.0
 10
12.0893799774
 20
10.0830964894
 30
0.0
 10
12.1193483892
 20
10.0870959666
 30
0.0
 10
12.149981976
 20
10.0907430383
 30
0.0
 10
12.1812187874
 20
10.0940302754
 30
0.0
 10
12.2129956395
 20
10.0969509831
 30
0.0
 10
12.2452482434
 20
10.099499235
 30
0.0
 10
12.277911345
 20
10.1016698507
 30
0.0
 10
12.3109188602
 20
10.1034584106
 30
0.0
 10
12.3442040023
 20
10.1048612669
 30
0.0
 10
12.3776994173
 20
10.1058755814
 30
0.0
 10
12.4113373251
 20
10.1064992954
 30
0.0
 10
12.4450496579
 20
10.1067311372
 30
0.0
 10
12.4787681955
 20
10.1065706223
 30
0.0
 10
12.5124247049
 20
10.1060180887
 30
0.0
 10
12.5459510804
 20
10.1050746648
 30
0.0
 10
12.5792794793
 20
10.1037422665
 30
0.0
 10
12.6123424597
 20
10.1020235883
 30
0.0
 10
12.6450731217
 20
10.0999221332
 30
0.0
 10
12.6774052437
 20
10.0974421818
 30
0.0
 10
12.7092734108
 20
10.0945887764
 30
0.0
 10
12.7406131481
 20
10.091367707
 30
0.0
 10
12.7713610612
 20
10.0877855301
 30
0.0
 10
12.8014549666
 20
10.0838495445
 30
0.0
 10
12.8308340082
 20
10.0795677601
 30
0.0
 10
12.8594387813
 20
10.0749488803
 30
0.0
 10
12.8872114694
 20
10.0700023079
 30
0.0
 10
12.9140959659
 20
10.0647381291
 30
0.0
 10
12.9400379835
 20
10.0591670676
 30
0.0
 10
12.9649851445
 20
10.0533004609
 30
0.0
 10
12.9888871824
 20
10.0471502564
 30
0.0
 10
13.011695812
 20
10.0407289838
 30
0.0
 10
13.0299625668
 20
10.0350986938
 30
0.0
 10
13.0439874115
 20
10.0304598522
 30
0.0
 10
13.0540804486
 20
10.0269621795
 30
0.0
 10
13.063866917
 20
10.0234066765
 30
0.0
 10
13.073341906
 20
10.0197951778
 30
0.0
 10
13.0825006368
 20
10.0161295074
 30
0.0
 10
13.0913384817
 20
10.0124114698
 30
0.0
 10
13.0998510162
 20
10.0086430195
 30
0.0
 10
13.1080339405
 20
10.0048259906
 30
0.0
 10
13.1158831493
 20
10.0009623231
 30
0.0
 10
13.1233947233
 20
9.9970540002
 30
0.0
 10
13.1305648643
 20
9.9931028953
 30
0.0
 10
13.1373900207
 20
9.9891110604
 30
0.0
 10
13.1438667752
 20
9.9850804495
 30
0.0
 10
13.1499918762
 20
9.9810130169
 30
0.0
 10
13.1557623243
 20
9.9769108437
 30
0.0
 10
13.1611751991
 20
9.9727758379
 30
0.0
 10
13.1662278326
 20
9.9686100343
 30
0.0
 10
13.1709177333
 20
9.9644154431
 30
0.0
 10
13.1752424765
 20
9.9601939464
 30
0.0
 10
13.1791999512
 20
9.9559475931
 30
0.0
 10
13.1827880666
 20
9.9516782644
 30
0.0
 10
13.1860048766
 20
9.9473878713
 30
0.0
 10
13.1888486712
 20
9.9430784104
 30
0.0
 10
13.1913176203
 20
9.9387517428
 30
0.0
 10
13.1934101868
 20
9.9344099397
 30
0.0
 10
13.1951248673
 20
9.930055096
 30
0.0
 10
13.1964601434
 20
9.925689464
 30
0.0
 10
13.1974149619
 20
9.9213154195
 30
0.0
 10
13.1979882427
 20
9.9169359994
 30
0.0
 10
13.1981158135
 20
9.9140102039
 30
0.0
 10
13.1981158175
 20
9.9125532007
 30
0.0
  0
SPLINE
  5
342
100
AcDbEntity
  8
0
100
AcDbSpline
 62
7
  6
CONTINUOUS
 70
0
 71
3
 72
53
 73
49
 74
0
 42
0.0000001
 43
0.0000001
 44
0.0000000001
 40
0.0
 40
0.0
 40
0.0
 40
0.0
 40
0.0311426844
 40
0.0624383931
 40
0.0938812286
 40
0.1254614913
 40
0.1571669836
 40
0.1889829512
 40
0.2208924493
 40
0.2528766959
 40
0.2849154495
 40
0.3169874116
 40
0.3490706423
 40
0.3811429843
 40
0.4131824906
 40
0.4451678483
 40
0.477078794
 40
0.5088965168
 40
0.5406040388
 40
0.5721865671
 40
0.587929481
 40
0.6036367678
 40
0.6193073317
 40
0.6349402614
 40
0.650534846
 40
0.6660905727
 40
0.6816071306
 40
0.6970844215
 40
0.7125225531
 40
0.7279218437
 40
0.7432828261
 40
0.7586062374
 40
0.7738930241
 40
0.7891443373
 40
0.8043615217
 40
0.8195461182
 40
0.8346998512
 40
0.8498246181
 40
0.8649224865
 40
0.8799956769
 40
0.8950465515
 40
0.9100776058
 40
0.9250914485
 40
0.9400907894
 40
0.9550784261
 40
0.9700572226
 40
0.985030096
 40
1.0
 40
1.0
 40
1.0
 40
1.0
 10
11.3934838913
 20
6.0078571893
 30
0.0
 10
11.3731754652
 20
6.0092655834
 30
0.0
 10
11.3325468013
 20
6.0135757888
 30
0.0
 10
11.2720963844
 20
6.0244333278
 30
0.0
 10
11.2122934458
 20
6.039641431
 30
0.0
 10
11.1534609603
 20
6.0591183925
 30
0.0
 10
11.0959115047
 20
6.0827598343
 30
0.0
 10
11.0399520445
 20
6.1104392214
 30
0.0
 10
10.98588068
 20
6.1420086535
 30
0.0
 10
10.9339855743
 20
6.1772996295
 30
0.0
 10
10.884543199
 20
6.2161237926
 30
0.0
 10
10.8378169808
 20
6.2582740552
 30
0.0
 10
10.7940559504
 20
6.3035257261
 30
0.0
 10
10.7534933858
 20
6.3516376344
 30
0.0
 10
10.7163454984
 20
6.4023533292
 30
0.0
 10
10.6828104065
 20
6.4554026143
 30
0.0
 10
10.6530671569
 20
6.5105027164
 30
0.0
 10
10.6272744324
 20
6.5673605675
 30
0.0
 10
10.6055704982
 20
6.6256711369
 30
0.0
 10
10.590970587
 20
6.6752757169
 30
0.0
 10
10.5814477723
 20
6.715370388
 30
0.0
 10
10.5753965355
 20
6.7455787474
 30
0.0
 10
10.5704377264
 20
6.7759123468
 30
0.0
 10
10.566577946
 20
6.8063311729
 30
0.0
 10
10.563822262
 20
6.836794471
 30
0.0
 10
10.5621744372
 20
6.8672616139
 30
0.0
 10
10.561636746
 20
6.8976919117
 30
0.0
 10
10.5622097928
 20
6.9280447335
 30
0.0
 10
10.5638929606
 20
6.958279548
 30
0.0
 10
10.566683997
 20
6.9883559757
 30
0.0
 10
10.5705791062
 20
7.0182338616
 30
0.0
 10
10.5755732582
 20
7.0478732819
 30
0.0
 10
10.5816597076
 20
7.0772346597
 30
0.0
 10
10.5888303215
 20
7.1062787859
 30
0.0
 10
10.5970756769
 20
7.1349668261
 30
0.0
 10
10.6063846415
 20
7.1632604917
 30
0.0
 10
10.6167448455
 20
7.1911219727
 30
0.0
 10
10.6281425455
 20
7.2185140087
 30
0.0
 10
10.6405623953
 20
7.2454000563
 30
0.0
 10
10.6539879177
 20
7.2717441472
 30
0.0
 10
10.6684011957
 20
7.297511068
 30
0.0
 10
10.6837828841
 20
7.3226664455
 30
0.0
 10
10.7001125656
 20
7.3471765847
 30
0.0
 10
10.717368378
 20
7.3710087711
 30
0.0
 10
10.7355271946
 20
7.3941311655
 30
0.0
 10
10.7545649907
 20
7.4165128797
 30
0.0
 10
10.7744557974
 20
7.4381236797
 30
0.0
 10
10.7882688298
 20
7.4519991462
 30
0.0
 10
10.7953070591
 20
7.4587975643
 30
0.0
  0
SPLINE
  5
343
100
AcDbEntity
  8
0
100
AcDbSpline
 62
7
  6
CONTINUOUS
 70
0
 71
3
 72
43
 73
39
 74
0
 42
0.0000001
 43
0.0000001
 44
0.0000000001
 40
0.0
 40
0.0
 40
0.0
 40
0.0
 40
0.0448295013
 40
0.0932520614
 40
0.1446361849
 40
0.197957833
 40
0.2519564224
 40
0.3054028904
 40
0.3573262263
 40
0.4070960355
 40
0.4543831818
 40
0.4990704547
 40
0.5411687528
 40
0.5807567082
 40
0.617943521
 40
0.6528471877
 40
0.6855837371
 40
0.7162624987
 40
0.7449826915
 40
0.7718353864
 40
0.796902681
 40
0.8202600231
 40
0.841978934
 40
0.8621275901
 40
0.8807767051
 40
0.8979999075
 40
0.9138823621
 40
0.9285231578
 40
0.9420470203
 40
0.9546098565
 40
0.9605959308
 40
0.9664207265
 40
0.9721167175
 40
0.9777197291
 40
0.9832683483
 40
0.9888030065
 40
0.9943658583
 40
1.0
 40
1.0
 40
1.0
 40
1.0
 10
10.9214693304
 20
7.4489757053
 30
0.0
 10
10.9207796493
 20
7.446019256
 30
0.0
 10
10.9192917966
 20
7.4398817142
 30
0.0
 10
10.9168315099
 20
7.430400658
 30
0.0
 10
10.9140676232
 20
7.4204055515
 30
0.0
 10
10.911038089
 20
7.4100935291
 30
0.0
 10
10.9078001563
 20
7.3996986315
 30
0.0
 10
10.9044195767
 20
7.3894488864
 30
0.0
 10
10.90095844
 20
7.3795288555
 30
0.0
 10
10.8974665402
 20
7.3700629804
 30
0.0
 10
10.8939790117
 20
7.3611195082
 30
0.0
 10
10.8905181415
 20
7.3527250324
 30
0.0
 10
10.8870968277
 20
7.3448800664
 30
0.0
 10
10.88372185
 20
7.3375709833
 30
0.0
 10
10.8803963278
 20
7.3307778054
 30
0.0
 10
10.8771213261
 20
7.324478738
 30
0.0
 10
10.8738969246
 20
7.3186525589
 30
0.0
 10
10.8707229221
 20
7.3132798036
 30
0.0
 10
10.8675989193
 20
7.3083433586
 30
0.0
 10
10.8645249898
 20
7.3038284132
 30
0.0
 10
10.8615013891
 20
7.2997225765
 30
0.0
 10
10.8585288353
 20
7.2960156419
 30
0.0
 10
10.8556086255
 20
7.2926993581
 30
0.0
 10
10.8527422622
 20
7.2897674584
 30
0.0
 10
10.8499320517
 20
7.2872151537
 30
0.0
 10
10.8471802752
 20
7.285039517
 30
0.0
 10
10.8444900637
 20
7.2832388006
 30
0.0
 10
10.8418641882
 20
7.2818132649
 30
0.0
 10
10.8393068389
 20
7.2807645495
 30
0.0
 10
10.8372018513
 20
7.2801993965
 30
0.0
 10
10.8355685873
 20
7.2799513216
 30
0.0
 10
10.8343848614
 20
7.2798651367
 30
0.0
 10
10.8332239271
 20
7.279876691
 30
0.0
 10
10.8320868496
 20
7.2799867525
 30
0.0
 10
10.830974846
 20
7.2801960633
 30
0.0
 10
10.829889223
 20
7.2805055874
 30
0.0
 10
10.8288315112
 20
7.2809161447
 30
0.0
 10
10.828151728
 20
7.2812548499
 30
0.0
 10
10.8278181587
 20
7.2814400658
 30
0.0
  0
SPLINE
  5
344
100
AcDbEntity
  8
0
100
AcDbSpline
 62
7
  6
CONTINUOUS
 70
0
 71
3
 72
21
 73
17
 74
0
 42
0.0000001
 43
0.0000001
 44
0.0000000001
 40
0.0
 40
0.0
 40
0.0
 40
0.0
 40
0.1267948843
 40
0.2530337259
 40
0.3159557352
 40
0.3787429632
 40
0.441397645
 40
0.5039229569
 40
0.5663224814
 40
0.6286002277
 40
0.6907607935
 40
0.752809261
 40
0.8147511882
 40
0.8765925892
 40
0.9383399052
 40
1.0
 40
1.0
 40
1.0
 40
1.0
 10
11.7307248288
 20
6.3336069397
 30
0.0
 10
11.7482295977
 20
6.3323929799
 30
0.0
 10
11.7832480988
 20
6.3310678891
 30
0.0
 10
11.8269888833
 20
6.3321939488
 30
0.0
 10
11.8617653731
 20
6.3347672491
 30
0.0
 10
11.8876907878
 20
6.3375269661
 30
0.0
 10
11.9134588973
 20
6.3411156
 30
0.0
 10
11.9390441499
 20
6.345529685
 30
0.0
 10
11.964420903
 20
6.3507646107
 30
0.0
 10
11.9895637048
 20
6.3568153918
 30
0.0
 10
12.0144474154
 20
6.3636757293
 30
0.0
 10
12.0390470589
 20
6.3713389856
 30
0.0
 10
12.0633380187
 20
6.3797973087
 30
0.0
 10
12.0872960147
 20
6.3890423902
 30
0.0
 10
12.1108967188
 20
6.3990647691
 30
0.0
 10
12.1263877522
 20
6.4062630816
 30
0.0
 10
12.1340647501
 20
6.4099880569
 30
0.0
  0
SPLINE
  5
345
100
AcDbEntity
  8
0
100
AcDbSpline
 62
7
  6
CONTINUOUS
 70
0
 71
3
 72
45
 73
41
 74
0
 42
0.0000001
 43
0.0000001
 44
0.0000000001
 40
0.0
 40
0.0
 40
0.0
 40
0.0
 40
0.0309549034
 40
0.0620432811
 40
0.0932611254
 40
0.1246017213
 40
0.15605678
 40
0.1876161421
 40
0.2192680867
 40
0.2509994878
 40
0.2827960299
 40
0.3146424271
 40
0.3465226554
 40
0.3784201916
 40
0.410318258
 40
0.4422000689
 40
0.4740490782
 40
0.5058492232
 40
0.5375851649
 40
0.5692425193
 40
0.6008080802
 40
0.6322700272
 40
0.6636181184
 40
0.6948438641
 40
0.7259406782
 40
0.7569040047
 40
0.7877314155
 40
0.8184226775
 40
0.833719794
 40
0.8489838096
 40
0.8642153207
 40
0.8794150599
 40
0.8945838973
 40
0.9097228295
 40
0.9248329874
 40
0.9399156194
 40
0.9549720991
 40
0.9700039099
 40
0.9850126451
 40
1.0
 40
1.0
 40
1.0
 40
1.0
 10
11.7307248288
 20
6.3336069397
 30
0.0
 10
11.7129917053
 20
6.334836736
 30
0.0
 10
11.6775174436
 20
6.3384343689
 30
0.0
 10
11.6246488251
 20
6.3471863524
 30
0.0
 10
11.5722117358
 20
6.3592702074
 30
0.0
 10
11.5204223072
 20
6.3746364196
 30
0.0
 10
11.4694905807
 20
6.3932221189
 30
0.0
 10
11.4196239361
 20
6.4149514662
 30
0.0
 10
11.3710251665
 20
6.4397358232
 30
0.0
 10
11.3238919569
 20
6.4674741822
 30
0.0
 10
11.2784160067
 20
6.4980535528
 30
0.0
 10
11.2347822758
 20
6.5313494198
 30
0.0
 10
11.1931682302
 20
6.5672262461
 30
0.0
 10
11.1537431346
 20
6.6055380302
 30
0.0
 10
11.1166673678
 20
6.646128894
 30
0.0
 10
11.0820917762
 20
6.6888337125
 30
0.0
 10
11.0501570646
 20
6.7334787805
 30
0.0
 10
11.0209932282
 20
6.7798825121
 30
0.0
 10
10.9947190264
 20
6.8278561735
 30
0.0
 10
10.9714415024
 20
6.8772046432
 30
0.0
 10
10.9512555356
 20
6.9277271919
 30
0.0
 10
10.9342434675
 20
6.9792183021
 30
0.0
 10
10.9204747649
 20
7.0314684823
 30
0.0
 10
10.9100057397
 20
7.0842651569
 30
0.0
 10
10.9028792947
 20
7.1373933486
 30
0.0
 10
10.8991248197
 20
7.1906371853
 30
0.0
 10
10.8987577769
 20
7.2437783936
 30
0.0
 10
10.9012796939
 20
7.2878507171
 30
0.0
 10
10.9049906894
 20
7.3228334138
 30
0.0
 10
10.9086122482
 20
7.3488839579
 30
0.0
 10
10.9130714179
 20
7.3747472769
 30
0.0
 10
10.9183636126
 20
7.4003973754
 30
0.0
 10
10.9244834279
 20
7.4258080307
 30
0.0
 10
10.9314247449
 20
7.4509533467
 30
0.0
 10
10.9391803267
 20
7.4758077398
 30
0.0
 10
10.9477425056
 20
7.50034582
 30
0.0
 10
10.957102317
 20
7.5245426355
 30
0.0
 10
10.9672505024
 20
7.548373534
 30
0.0
 10
10.9781763624
 20
7.57181396
 30
0.0
 10
10.9859771065
 20
7.5871758105
 30
0.0
 10
10.9900029428
 20
7.5947825929
 30
0.0
  0
SPLINE
  5
346
100
AcDbEntity
  8
0
100
AcDbSpline
 62
7
  6
CONTINUOUS
 70
0
 71
3
 72
45
 73
41
 74
0
 42
0.0000001
 43
0.0000001
 44
0.0000000001
 40
0.0
 40
0.0
 40
0.0
 40
0.0
 40
0.0309847264
 40
0.0621059086
 40
0.0933592891
 40
0.1247377316
 40
0.1562324217
 40
0.1878325644
 40
0.2195257165
 40
0.2512979625
 40
0.2831341508
 40
0.3150181364
 40
0.3469330351
 40
0.3788614873
 40
0.4107859247
 40
0.442688841
 40
0.4745530608
 40
0.5063620054
 40
0.5380999521
 40
0.5697522845
 40
0.6013057297
 40
0.63274858
 40
0.6640708948
 40
0.6952646802
 40
0.7263240427
 40
0.757245313
 40
0.7880271361
 40
0.8186705262
 40
0.8339433911
 40
0.8491831205
 40
0.864390509
 40
0.8795664892
 40
0.8947121403
 40
0.90982867
 40
0.9249174243
 40
0.9399798697
 40
0.9550175957
 40
0.9700323049
 40
0.9850258035
 40
1.0
 40
1.0
 40
1.0
 40
1.0
 10
11.7307248288
 20
6.3587210127
 30
0.0
 10
11.7131469466
 20
6.359940043
 30
0.0
 10
11.677982907
 20
6.3635312185
 30
0.0
 10
11.6255891897
 20
6.3723166828
 30
0.0
 10
11.5736422819
 20
6.3844756759
 30
0.0
 10
11.5223658347
 20
6.3999561526
 30
0.0
 10
11.4719770699
 20
6.418691947
 30
0.0
 10
11.4226902935
 20
6.4406031986
 30
0.0
 10
11.3747148648
 20
6.4655965452
 30
0.0
 10
11.3282546228
 20
6.4935655913
 30
0.0
 10
11.283506945
 20
6.5243913351
 30
0.0
 10
11.240661932
 20
6.5579426676
 30
0.0
 10
11.1999016046
 20
6.5940769341
 30
0.0
 10
11.1613991425
 20
6.6326405416
 30
0.0
 10
11.1253181538
 20
6.6734696053
 30
0.0
 10
11.091811986
 20
6.7163906397
 30
0.0
 10
11.0610230797
 20
6.7612212891
 30
0.0
 10
11.0330823671
 20
6.8077710951
 30
0.0
 10
11.0081087209
 20
6.8558422994
 30
0.0
 10
10.9862084401
 20
6.9052306698
 30
0.0
 10
10.9674747994
 20
6.9557263621
 30
0.0
 10
10.9519876628
 20
7.0071148098
 30
0.0
 10
10.9398131373
 20
7.0591776118
 30
0.0
 10
10.9310032977
 20
7.1116934987
 30
0.0
 10
10.9255959284
 20
7.1644390833
 30
0.0
 10
10.9236144653
 20
7.2171904644
 30
0.0
 10
10.9250674759
 20
7.2697217067
 30
0.0
 10
10.9291409585
 20
7.3131818926
 30
0.0
 10
10.9341083308
 20
7.3476082598
 30
0.0
 10
10.9386778352
 20
7.3732083091
 30
0.0
 10
10.9440902556
 20
7.3985869027
 30
0.0
 10
10.9503399589
 20
7.4237173675
 30
0.0
 10
10.9574201283
 20
7.4485728987
 30
0.0
 10
10.9653234665
 20
7.473126998
 30
0.0
 10
10.9740413249
 20
7.4973535937
 30
0.0
 10
10.9835646672
 20
7.5212268219
 30
0.0
 10
10.9938831699
 20
7.5447213075
 30
0.0
 10
11.0049860223
 20
7.5678120842
 30
0.0
 10
11.0168611751
 20
7.5904742308
 30
0.0
 10
11.0252899388
 20
7.6052902444
 30
0.0
 10
11.0296282651
 20
7.6126176382
 30
0.0
  0
SPLINE
  5
347
100
AcDbEntity
  8
0
100
AcDbSpline
 62
7
  6
CONTINUOUS
 70
0
 71
3
 72
41
 73
37
 74
0
 42
0.0000001
 43
0.0000001
 44
0.0000000001
 40
0.0
 40
0.0
 40
0.0
 40
0.0
 40
0.0310022413
 40
0.0621426337
 40
0.0934167844
 40
0.1248173062
 40
0.156335073
 40
0.1879589182
 40
0.2196759739
 40
0.2514718622
 40
0.2833309432
 40
0.3152365715
 40
0.3471713648
 40
0.3791174808
 40
0.4110568991
 40
0.4429717044
 40
0.4748443694
 40
0.5066580332
 40
0.5383967726
 40
0.5700458624
 40
0.6015920214
 40
0.6330236409
 40
0.6643309924
 40
0.6955064095
 40
0.7265444422
 40
0.7574419784
 40
0.7881983287
 40
0.8188152715
 40
0.8492970549
 40
0.8796503544
 40
0.9098841827
 40
0.9400097534
 40
0.955038281
 40
0.9700448616
 40
0.9850314265
 40
1.0
 40
1.0
 40
1.0
 40
1.0
 10
11.7401388634
 20
6.388098716
 30
0.0
 10
11.722791565
 20
6.3893017553
 30
0.0
 10
11.6880886171
 20
6.3928599213
 30
0.0
 10
11.6363890897
 20
6.4015921127
 30
0.0
 10
11.5851414241
 20
6.4136934008
 30
0.0
 10
11.5345717179
 20
6.4291107052
 30
0.0
 10
11.4848995005
 20
6.4477764972
 30
0.0
 10
11.4363412563
 20
6.4696092437
 30
0.0
 10
11.3891083521
 20
6.4945136176
 30
0.0
 10
11.3434064393
 20
6.522380984
 30
0.0
 10
11.2994344711
 20
6.5530898323
 30
0.0
 10
11.2573838705
 20
6.5865063175
 30
0.0
 10
11.2174377045
 20
6.6224848487
 30
0.0
 10
11.1797698954
 20
6.6608687161
 30
0.0
 10
11.1445444706
 20
6.7014907688
 30
0.0
 10
11.1119148545
 20
6.7441741356
 30
0.0
 10
11.082023207
 20
6.7887329894
 30
0.0
 10
11.0549998036
 20
6.8349733443
 30
0.0
 10
11.0309624576
 20
6.8826938872
 30
0.0
 10
11.010016027
 20
6.9316868579
 30
0.0
 10
10.9922519565
 20
6.9817389418
 30
0.0
 10
10.9777478797
 20
7.0326321885
 30
0.0
 10
10.9665672782
 20
7.0841449494
 30
0.0
 10
10.9587592
 20
7.1360528316
 30
0.0
 10
10.9543580409
 20
7.1881296636
 30
0.0
 10
10.9533833639
 20
7.2401484727
 30
0.0
 10
10.9558398114
 20
7.2918824572
 30
0.0
 10
10.961717099
 20
7.3431060138
 30
0.0
 10
10.9709899566
 20
7.3935955438
 30
0.0
 10
10.9836185384
 20
7.4431310658
 30
0.0
 10
10.9995473965
 20
7.4914948067
 30
0.0
 10
11.0155296542
 20
7.5306826674
 30
0.0
 10
11.0298876573
 20
7.56122551
 30
0.0
 10
11.041423337
 20
7.5836951673
 30
0.0
 10
11.0537209234
 20
7.605717848
 30
0.0
 10
11.062423713
 20
7.620094725
 30
0.0
 10
11.0668970191
 20
7.6271995576
 30
0.0
  0
SPLINE
  5
348
100
AcDbEntity
  8
0
100
AcDbSpline
 62
7
  6
CONTINUOUS
 70
0
 71
3
 72
43
 73
39
 74
0
 42
0.0000001
 43
0.0000001
 44
0.0000000001
 40
0.0
 40
0.0
 40
0.0
 40
0.0
 40
0.0309458716
 40
0.0620243187
 40
0.0932313652
 40
0.1245604432
 40
0.1560034217
 40
0.1875503318
 40
0.219189673
 40
0.2509085586
 40
0.282692928
 40
0.3145277579
 40
0.3463972879
 40
0.3782852523
 40
0.4101751176
 40
0.4420503228
 40
0.4738945201
 40
0.5056918124
 40
0.5374269875
 40
0.5690857446
 40
0.6006549107
 40
0.6321226458
 40
0.663478632
 40
0.6947142449
 40
0.7258227047
 40
0.7567992025
 40
0.7876410008
 40
0.8183475033
 40
0.8336524017
 40
0.8489242511
 40
0.8641635946
 40
0.879371101
 40
0.9096899045
 40
0.9398926599
 40
0.9549556264
 40
0.9699934711
 40
0.9850077185
 40
1.0
 40
1.0
 40
1.0
 40
1.0
 10
11.8114763042
 20
6.4570053965
 30
0.0
 10
11.7948263871
 20
6.4581600722
 30
0.0
 10
11.7615191097
 20
6.4615305819
 30
0.0
 10
11.7118763732
 20
6.4697155436
 30
0.0
 10
11.6626332718
 20
6.4810079941
 30
0.0
 10
11.613990014
 20
6.495362283
 30
0.0
 10
11.5661411819
 20
6.5127204881
 30
0.0
 10
11.5192789461
 20
6.533012746
 30
0.0
 10
11.4735912815
 20
6.5561574072
 30
0.0
 10
11.4292614952
 20
6.5820614325
 30
0.0
 10
11.3864674217
 20
6.6106207382
 30
0.0
 10
11.3453807384
 20
6.6417206228
 30
0.0
 10
11.3061662766
 20
6.6752362212
 30
0.0
 10
11.2689813681
 20
6.7110330048
 30
0.0
 10
11.2339752139
 20
6.7489673129
 30
0.0
 10
11.2012882935
 20
6.7888869293
 30
0.0
 10
11.1710518052
 20
6.8306316894
 30
0.0
 10
11.143387144
 20
6.8740341175
 30
0.0
 10
11.1184054166
 20
6.9189200927
 30
0.0
 10
11.0962069983
 20
6.9651095419
 30
0.0
 10
11.0768811309
 20
7.0124171541
 30
0.0
 10
11.0605055654
 20
7.0606531199
 30
0.0
 10
11.0471462473
 20
7.1096238741
 30
0.0
 10
11.0368570551
 20
7.1591329066
 30
0.0
 10
11.0296795608
 20
7.2089813846
 30
0.0
 10
11.0256429253
 20
7.2589695317
 30
0.0
 10
11.0247635031
 20
7.3088952364
 30
0.0
 10
11.0266675253
 20
7.3503311784
 30
0.0
 10
11.0297712999
 20
7.3832414797
 30
0.0
 10
11.0328823011
 20
7.407759125
 30
0.0
 10
11.0367756449
 20
7.4321115974
 30
0.0
 10
11.0429978432
 20
7.4642928866
 30
0.0
 10
11.0527066656
 20
7.5039966864
 30
0.0
 10
11.0649789747
 20
7.5429033308
 30
0.0
 10
11.0762927113
 20
7.5734006451
 30
0.0
 10
11.0855101034
 20
7.5959240275
 30
0.0
 10
11.0954568894
 20
7.6180926065
 30
0.0
 10
11.1025730522
 20
7.632631361
 30
0.0
 10
11.1062490025
 20
7.6398331893
 30
0.0
  0
SPLINE
  5
349
100
AcDbEntity
  8
0
100
AcDbSpline
 62
7
  6
CONTINUOUS
 70
0
 71
3
 72
45
 73
41
 74
0
 42
0.0000001
 43
0.0000001
 44
0.0000000001
 40
0.0
 40
0.0
 40
0.0
 40
0.0
 40
0.0309940926
 40
0.0621256184
 40
0.0933901778
 40
0.1247805253
 40
0.1562876746
 40
0.1879006226
 40
0.2196066948
 40
0.2513917201
 40
0.283240279
 40
0.3151359509
 40
0.3470615773
 40
0.378999532
 40
0.4109319968
 40
0.4428412388
 40
0.4747098877
 40
0.5065212078
 40
0.5382593645
 40
0.5699096791
 40
0.6014588715
 40
0.6328952856
 40
0.6642090941
 40
0.6953924803
 40
0.7264397914
 40
0.7573476614
 40
0.7881150984
 40
0.8187435345
 40
0.8340088885
 40
0.8492411418
 40
0.8644411554
 40
0.8796099266
 40
0.894748603
 40
0.9098584607
 40
0.9249409152
 40
0.9399975027
 40
0.9550298824
 40
0.9700398255
 40
0.9850292065
 40
1.0
 40
1.0
 40
1.0
 40
1.0
 10
11.8321818107
 20
6.5542794519
 30
0.0
 10
11.8166247031
 20
6.5553583409
 30
0.0
 10
11.7855030523
 20
6.5585436634
 30
0.0
 10
11.7391359621
 20
6.5663498598
 30
0.0
 10
11.6931697048
 20
6.5771615212
 30
0.0
 10
11.6478048989
 20
6.5909317229
 30
0.0
 10
11.6032363329
 20
6.6076008088
 30
0.0
 10
11.559656146
 20
6.6270967575
 30
0.0
 10
11.51725198
 20
6.6493353598
 30
0.0
 10
11.4762064575
 20
6.6742206547
 30
0.0
 10
11.4366963258
 20
6.7016453121
 30
0.0
 10
11.3988917261
 20
6.7314911041
 30
0.0
 10
11.3629554609
 20
6.7636294084
 30
0.0
 10
11.3290423021
 20
6.7979217595
 30
0.0
 10
11.297298326
 20
6.834220438
 30
0.0
 10
11.2678602891
 20
6.8723691029
 30
0.0
 10
11.2408550458
 20
6.9122034624
 30
0.0
 10
11.216399006
 20
6.9535519743
 30
0.0
 10
11.1945976355
 20
6.9962365782
 30
0.0
 10
11.1755450048
 20
7.0400734547
 30
0.0
 10
11.1593233835
 20
7.0848738086
 30
0.0
 10
11.1460028863
 20
7.1304446757
 30
0.0
 10
11.1356411667
 20
7.1765897335
 30
0.0
 10
11.1282831723
 20
7.2231101808
 30
0.0
 10
11.1239609157
 20
7.2698054243
 30
0.0
 10
11.1226934383
 20
7.3164745297
 30
0.0
 10
11.1244863011
 20
7.3629148721
 30
0.0
 10
11.1285298681
 20
7.4013053318
 30
0.0
 10
11.1332847127
 20
7.4316955275
 30
0.0
 10
11.1376012196
 20
7.4542838032
 30
0.0
 10
11.1426669595
 20
7.4766658837
 30
0.0
 10
11.1484766927
 20
7.4988179012
 30
0.0
 10
11.1550239185
 20
7.5207159264
 30
0.0
 10
11.1623018474
 20
7.5423362748
 30
0.0
 10
11.170302369
 20
7.5636556937
 30
0.0
 10
11.1790171113
 20
7.5846510918
 30
0.0
 10
11.1884364537
 20
7.6052998717
 30
0.0
 10
11.1985504539
 20
7.6255797583
 30
0.0
 10
11.2093479028
 20
7.6454686077
 30
0.0
 10
11.2169989944
 20
7.65846104
 30
0.0
 10
11.2209340256
 20
7.6648839227
 30
0.0
  0
SPLINE
  5
34A
100
AcDbEntity
  8
0
100
AcDbSpline
 62
7
  6
CONTINUOUS
 70
0
 71
3
 72
35
 73
31
 74
0
 42
0.0000001
 43
0.0000001
 44
0.0000000001
 40
0.0
 40
0.0
 40
0.0
 40
0.0
 40
0.0308202975
 40
0.0617171411
 40
0.0926876204
 40
0.123728537
 40
0.1548361463
 40
0.1860063335
 40
0.2172346354
 40
0.248516232
 40
0.279846
 40
0.3112185421
 40
0.3740582858
 40
0.4369988397
 40
0.4999903561
 40
0.5629818319
 40
0.5944669789
 40
0.6259330617
 40
0.6573739023
 40
0.6887834589
 40
0.7201558724
 40
0.7514854996
 40
0.7827669352
 40
0.813995059
 40
0.8451650607
 40
0.876272461
 40
0.907313157
 40
0.9382834369
 40
0.9691800009
 40
1.0
 40
1.0
 40
1.0
 40
1.0
 10
12.1939758132
 20
7.0082123663
 30
0.0
 10
12.184683011
 20
7.0101101532
 30
0.0
 10
12.1661460305
 20
7.0142716655
 30
0.0
 10
12.1385701246
 20
7.0215891669
 30
0.0
 10
12.1112297483
 20
7.0299785197
 30
0.0
 10
12.0841683819
 20
7.0394265075
 30
0.0
 10
12.0574283419
 20
7.0499183393
 30
0.0
 10
12.0310516062
 20
7.061437409
 30
0.0
 10
12.0050795716
 20
7.0739657467
 30
0.0
 10
11.979553107
 20
7.0874835765
 30
0.0
 10
11.9545118091
 20
7.1019698934
 30
0.0
 10
11.9218093635
 20
7.1225543205
 30
0.0
 10
11.8823435419
 20
7.1505906555
 30
0.0
 10
11.8375681345
 20
7.1876845646
 30
0.0
 10
11.7956230981
 20
7.2280185361
 30
0.0
 10
11.7632374708
 20
7.2641311799
 30
0.0
 10
11.7389972064
 20
7.2943820351
 30
0.0
 10
11.7216805103
 20
7.317712922
 30
0.0
 10
11.7052542903
 20
7.3416504201
 30
0.0
 10
11.6897440827
 20
7.3661574093
 30
0.0
 10
11.6751742274
 20
7.3911952599
 30
0.0
 10
11.6615675877
 20
7.4167247205
 30
0.0
 10
11.6489456336
 20
7.4427057673
 30
0.0
 10
11.6373280667
 20
7.4690975703
 30
0.0
 10
11.6267331728
 20
7.4958587295
 30
0.0
 10
11.6171776775
 20
7.5229472853
 30
0.0
 10
11.6086764777
 20
7.5503206383
 30
0.0
 10
11.6012429661
 20
7.5779359988
 30
0.0
 10
11.5948890084
 20
7.6057494828
 30
0.0
 10
11.5913745823
 20
7.6244197774
 30
0.0
 10
11.5898011655
 20
7.6337728725
 30
0.0
  0
SPLINE
  5
34B
100
AcDbEntity
  8
0
100
AcDbSpline
 62
7
  6
CONTINUOUS
 70
0
 71
3
 72
26
 73
22
 74
0
 42
0.0000001
 43
0.0000001
 44
0.0000000001
 40
0.0
 40
0.0
 40
0.0
 40
0.0
 40
0.0308876139
 40
0.0618412546
 40
0.0928581293
 40
0.1239350675
 40
0.1550686263
 40
0.1862551053
 40
0.248761601
 40
0.3114292687
 40
0.374220569
 40
0.4370956199
 40
0.5000129603
 40
0.5629303343
 40
0.6258054842
 40
0.6885969463
 40
0.7512648364
 40
0.8137716122
 40
0.8760828045
 40
0.9381677046
 40
1.0
 40
1.0
 40
1.0
 40
1.0
 10
12.1742061587
 20
7.0708171387
 30
0.0
 10
12.1663393155
 20
7.0728817725
 30
0.0
 10
12.1506598829
 20
7.0772918517
 30
0.0
 10
12.1273625956
 20
7.0847300532
 30
0.0
 10
12.1042902438
 20
7.0929891484
 30
0.0
 10
12.081473374
 20
7.1020584081
 30
0.0
 10
12.0589411771
 20
7.1119260437
 30
0.0
 10
12.0292982098
 20
7.1261393083
 30
0.0
 10
11.9931046449
 20
7.1458390635
 30
0.0
 10
11.9513099564
 20
7.172420917
 30
0.0
 10
11.9113304865
 20
7.2018276008
 30
0.0
 10
11.8733752653
 20
7.2339055592
 30
0.0
 10
11.8376410517
 20
7.2684882373
 30
0.0
 10
11.8043135823
 20
7.3053959029
 30
0.0
 10
11.773566018
 20
7.3444368595
 30
0.0
 10
11.745558186
 20
7.3854083007
 30
0.0
 10
11.7204356861
 20
7.428097478
 30
0.0
 10
11.6983292725
 20
7.4722824533
 30
0.0
 10
11.6793538559
 20
7.5177345687
 30
0.0
 10
11.6636090719
 20
7.5642146468
 30
0.0
 10
11.6553014368
 20
7.5958013403
 30
0.0
 10
11.6517148899
 20
7.6116829496
 30
0.0
  0
SPLINE
  5
34C
100
AcDbEntity
  8
0
100
AcDbSpline
 62
7
  6
CONTINUOUS
 70
0
 71
3
 72
29
 73
25
 74
0
 42
0.0000001
 43
0.0000001
 44
0.0000000001
 40
0.0
 40
0.0
 40
0.0
 40
0.0
 40
0.0736802679
 40
0.1431000891
 40
0.2086145486
 40
0.2706786063
 40
0.329841501
 40
0.3585448902
 40
0.3867726913
 40
0.4146195181
 40
0.4421842168
 40
0.4695690099
 40
0.4968783793
 40
0.5242176977
 40
0.5516919918
 40
0.5794046137
 40
0.6074559516
 40
0.6359425152
 40
0.6649560815
 40
0.7248814663
 40
0.7878745419
 40
0.8544551487
 40
0.9250499239
 40
1.0
 40
1.0
 40
1.0
 40
1.0
 10
11.6463973584
 20
10.0454266371
 30
0.0
 10
11.6440824444
 20
10.0431906017
 30
0.0
 10
11.6397244146
 20
10.0387009891
 30
0.0
 10
11.6338782505
 20
10.0316987892
 30
0.0
 10
11.6289326214
 20
10.0246424827
 30
0.0
 10
11.6248954016
 20
10.0175394698
 30
0.0
 10
11.6222674313
 20
10.0115246623
 30
0.0
 10
11.6206465393
 20
10.0067168241
 30
0.0
 10
11.6196729948
 20
10.0031414241
 30
0.0
 10
11.6189299726
 20
9.9995618871
 30
0.0
 10
11.6184177512
 20
9.9959792048
 30
0.0
 10
11.6181366482
 20
9.9923945304
 30
0.0
 10
11.6180867105
 20
9.9888090236
 30
0.0
 10
11.6182679439
 20
9.9852238445
 30
0.0
 10
11.6186803381
 20
9.98164016
 30
0.0
 10
11.6193237009
 20
9.9780591157
 30
0.0
 10
11.6201976694
 20
9.9744818407
 30
0.0
 10
11.6213019618
 20
9.9709093256
 30
0.0
 10
11.6230999002
 20
9.9661027855
 30
0.0
 10
11.6259491852
 20
9.9600932853
 30
0.0
 10
11.630245114
 20
9.9530031532
 30
0.0
 10
11.6354472154
 20
9.9459615135
 30
0.0
 10
11.6415478142
 20
9.9389755232
 30
0.0
 10
11.6460689998
 20
9.9344975919
 30
0.0
 10
11.6484656968
 20
9.9322672006
 30
0.0
  0
SPLINE
  5
34D
100
AcDbEntity
  8
0
100
AcDbSpline
 62
7
  6
CONTINUOUS
 70
0
 71
3
 72
39
 73
35
 74
0
 42
0.0000001
 43
0.0000001
 44
0.0000000001
 40
0.0
 40
0.0
 40
0.0
 40
0.0
 40
0.0172604065
 40
0.0342919625
 40
0.0511615669
 40
0.0679481911
 40
0.0847449645
 40
0.1016618123
 40
0.1188263732
 40
0.1363854352
 40
0.1545055271
 40
0.1733722108
 40
0.1931896658
 40
0.2141778918
 40
0.2365708771
 40
0.2606112477
 40
0.2865452679
 40
0.3146125784
 40
0.3450334017
 40
0.3779904848
 40
0.4136046253
 40
0.4519062865
 40
0.4928084851
 40
0.5360889849
 40
0.5813896595
 40
0.6282398767
 40
0.6761009928
 40
0.7244191072
 40
0.7726740135
 40
0.8204127261
 40
0.8672651139
 40
0.9129433442
 40
0.9572393768
 40
1.0
 40
1.0
 40
1.0
 40
1.0
 10
11.4373038614
 20
7.1602214176
 30
0.0
 10
11.4383725796
 20
7.160415192
 30
0.0
 10
11.4404837795
 20
7.1608714404
 30
0.0
 10
11.4435761798
 20
7.1617770211
 30
0.0
 10
11.4465631452
 20
7.162905163
 30
0.0
 10
11.4494366719
 20
7.1642636673
 30
0.0
 10
11.4521872615
 20
7.1658631018
 30
0.0
 10
11.454805461
 20
7.1677132947
 30
0.0
 10
11.4572791249
 20
7.1698278404
 30
0.0
 10
11.459596217
 20
7.1722198695
 30
0.0
 10
11.4617418428
 20
7.1749056484
 30
0.0
 10
11.4637008367
 20
7.1779018983
 30
0.0
 10
11.4654551452
 20
7.1812279321
 30
0.0
 10
11.466986158
 20
7.1849039883
 30
0.0
 10
11.4682724013
 20
7.1889522622
 30
0.0
 10
11.4692913341
 20
7.1933955869
 30
0.0
 10
11.4700183883
 20
7.1982569379
 30
0.0
 10
11.4704278869
 20
7.2035577119
 30
0.0
 10
11.4704940171
 20
7.2093154638
 30
0.0
 10
11.4701922394
 20
7.2155407962
 30
0.0
 10
11.469501671
 20
7.2222334302
 30
0.0
 10
11.4684080274
 20
7.2293779519
 30
0.0
 10
11.4669068504
 20
7.2369401801
 30
0.0
 10
11.4650062951
 20
7.2448653398
 30
0.0
 10
11.4627285522
 20
7.2530792089
 30
0.0
 10
11.4601091636
 20
7.2614926882
 30
0.0
 10
11.4571941343
 20
7.2700090623
 30
0.0
 10
11.454035478
 20
7.2785322451
 30
0.0
 10
11.4506863841
 20
7.2869739702
 30
0.0
 10
11.4471971157
 20
7.2952586212
 30
0.0
 10
11.4436122667
 20
7.3033251594
 30
0.0
 10
11.4399694123
 20
7.311127169
 30
0.0
 10
11.4362990727
 20
7.318630601
 30
0.0
 10
11.4338039478
 20
7.3235079861
 30
0.0
 10
11.4325564257
 20
7.3258921106
 30
0.0
  0
SPLINE
  5
34E
100
AcDbEntity
  8
0
100
AcDbSpline
 62
7
  6
CONTINUOUS
 70
0
 71
3
 72
25
 73
21
 74
0
 42
0.0000001
 43
0.0000001
 44
0.0000000001
 40
0.0
 40
0.0
 40
0.0
 40
0.0
 40
0.0638612781
 40
0.0957121911
 40
0.1275067411
 40
0.190926209
 40
0.2541301216
 40
0.2856554877
 40
0.3171294121
 40
0.3799223073
 40
0.44252455
 40
0.5049487613
 40
0.5672094491
 40
0.629322891
 40
0.6913069674
 40
0.7531809757
 40
0.8149654269
 40
0.8766818235
 40
0.9383524247
 40
1.0
 40
1.0
 40
1.0
 40
1.0
 10
11.3934838913
 20
6.0078571893
 30
0.0
 10
11.4073665574
 20
6.0068944231
 30
0.0
 10
11.4282142147
 20
6.0059699328
 30
0.0
 10
11.4560007132
 20
6.0057872134
 30
0.0
 10
11.4836872943
 20
6.0063036062
 30
0.0
 10
11.5181685532
 20
6.0082569154
 30
0.0
 10
11.552447462
 20
6.011958684
 30
0.0
 10
11.5796580798
 20
6.0159625692
 30
0.0
 10
11.6066682733
 20
6.0206503158
 30
0.0
 10
11.6401129202
 20
6.0277982134
 30
0.0
 10
11.6796556301
 20
6.0384253581
 30
0.0
 10
11.7184791837
 20
6.0510691818
 30
0.0
 10
11.7564851083
 20
6.0656978592
 30
0.0
 10
11.7935778301
 20
6.082274654
 30
0.0
 10
11.8296638323
 20
6.1007578713
 30
0.0
 10
11.864652213
 20
6.1211010356
 30
0.0
 10
11.8984547119
 20
6.1432528727
 30
0.0
 10
11.930986435
 20
6.1671578973
 30
0.0
 10
11.9621642825
 20
6.1927548535
 30
0.0
 10
11.9819985363
 20
6.210908215
 30
0.0
 10
11.9916607235
 20
6.2202411857
 30
0.0
  0
SPLINE
  5
34F
100
AcDbEntity
  8
0
100
AcDbSpline
 62
7
  6
CONTINUOUS
 70
0
 71
3
 72
18
 73
14
 74
0
 42
0.0000001
 43
0.0000001
 44
0.0000000001
 40
0.0
 40
0.0
 40
0.0
 40
0.0
 40
0.1480397497
 40
0.2876655069
 40
0.4195590686
 40
0.5445936259
 40
0.663822196
 40
0.7216612959
 40
0.7785269323
 40
0.8346005411
 40
0.8900720031
 40
0.9451379699
 40
1.0
 40
1.0
 40
1.0
 40
1.0
 10
11.7236714291
 20
9.9627935914
 30
0.0
 10
11.7216156776
 20
9.9608078878
 30
0.0
 10
11.7177415255
 20
9.9568211437
 30
0.0
 10
11.7125324055
 20
9.9506076527
 30
0.0
 10
11.7081082777
 20
9.9443470136
 30
0.0
 10
11.7044758073
 20
9.9380456562
 30
0.0
 10
11.7020893451
 20
9.9327100393
 30
0.0
 10
11.7005995431
 20
9.9284440748
 30
0.0
 10
11.699693838
 20
9.9252716879
 30
0.0
 10
11.6989890337
 20
9.9220955186
 30
0.0
 10
11.6984853492
 20
9.9189163671
 30
0.0
 10
11.6981830694
 20
9.915735373
 30
0.0
 10
11.6981158632
 20
9.9136124094
 30
0.0
 10
11.698115866
 20
9.9125532007
 30
0.0
  0
SPLINE
  5
350
100
AcDbEntity
  8
0
100
AcDbSpline
 62
7
  6
CONTINUOUS
 70
0
 71
3
 72
20
 73
16
 74
0
 42
0.0000001
 43
0.0000001
 44
0.0000000001
 40
0.0
 40
0.0
 40
0.0
 40
0.0
 40
0.1269277606
 40
0.1901732441
 40
0.2532681101
 40
0.3162150871
 40
0.3790159197
 40
0.4416738831
 40
0.5041930774
 40
0.6288142879
 40
0.7529442159
 40
0.8148519409
 40
0.8766582295
 40
0.9383713417
 40
1.0
 40
1.0
 40
1.0
 40
1.0
 10
11.7307248288
 20
6.3587210127
 30
0.0
 10
11.7492239174
 20
6.3574380966
 30
0.0
 10
11.7770194459
 20
6.356465057
 30
0.0
 10
11.814020319
 20
6.3570963249
 30
0.0
 10
11.8416431432
 20
6.3585306313
 30
0.0
 10
11.8691336335
 20
6.360924613
 30
0.0
 10
11.8964597439
 20
6.3642756518
 30
0.0
 10
11.923589102
 20
6.3685796699
 30
0.0
 10
11.959413423
 20
6.3755738328
 30
0.0
 10
12.003557288
 20
6.3866668101
 30
0.0
 10
12.0467063785
 20
6.4008739139
 30
0.0
 10
12.0804392052
 20
6.4140516259
 30
0.0
 10
12.1053034203
 20
6.4248210397
 30
0.0
 10
12.1297214303
 20
6.4364711946
 30
0.0
 10
12.1456946727
 20
6.4448219118
 30
0.0
 10
12.1535959273
 20
6.4491388285
 30
0.0
  0
SPLINE
  5
351
100
AcDbEntity
  8
0
100
AcDbSpline
 62
7
  6
CONTINUOUS
 70
0
 71
3
 72
52
 73
48
 74
0
 42
0.0000001
 43
0.0000001
 44
0.0000000001
 40
0.0
 40
0.0
 40
0.0
 40
0.0
 40
0.0417975951
 40
0.0840616288
 40
0.1266599
 40
0.1694646819
 40
0.2123442235
 40
0.2551675716
 40
0.2978037564
 40
0.3401225587
 40
0.3819950468
 40
0.4232940448
 40
0.4638946794
 40
0.5036749394
 40
0.5425162168
 40
0.5803038545
 40
0.6169277287
 40
0.6522828762
 40
0.6862702207
 40
0.7187973048
 40
0.7497791232
 40
0.7646666939
 40
0.7791400459
 40
0.7931910474
 40
0.8068124878
 40
0.8199977024
 40
0.8327409898
 40
0.8450375569
 40
0.8568834717
 40
0.8682761438
 40
0.8792139942
 40
0.8896969854
 40
0.8997266536
 40
0.9093062033
 40
0.9184411394
 40
0.9271391328
 40
0.9354107775
 40
0.9432698769
 40
0.9507338665
 40
0.9578247066
 40
0.9645691138
 40
0.9709994856
 40
0.9771542525
 40
0.9830781055
 40
0.9888220386
 40
0.9944424568
 40
1.0
 40
1.0
 40
1.0
 40
1.0
 10
8.9169910238
 20
10.8599320415
 30
0.0
 10
8.9106061671
 20
10.8603748329
 30
0.0
 10
8.89775791
 20
10.8611632727
 30
0.0
 10
8.8783830231
 20
10.8620531517
 30
0.0
 10
8.8588427194
 20
10.8626549717
 30
0.0
 10
8.8392014014
 20
10.86296682
 30
0.0
 10
8.8195231542
 20
10.8629876173
 30
0.0
 10
8.7998725694
 20
10.862717309
 30
0.0
 10
8.7803140085
 20
10.8621567879
 30
0.0
 10
8.7609115607
 20
10.8613079084
 30
0.0
 10
8.7417287977
 20
10.8601734743
 30
0.0
 10
8.7228285664
 20
10.8587572282
 30
0.0
 10
8.7042727836
 20
10.8570638401
 30
0.0
 10
8.6861222232
 20
10.8550989109
 30
0.0
 10
8.6684363144
 20
10.8528689392
 30
0.0
 10
8.6512729504
 20
10.8503812985
 30
0.0
 10
8.6346882918
 20
10.8476442159
 30
0.0
 10
8.6187365873
 20
10.8446667389
 30
0.0
 10
8.6034699202
 20
10.8414587379
 30
0.0
 10
8.5889382286
 20
10.8380308198
 30
0.0
 10
8.5773311583
 20
10.834961104
 30
0.0
 10
8.5684539271
 20
10.8323966882
 30
0.0
 10
8.5620973096
 20
10.8304511497
 30
0.0
 10
8.5559585262
 20
10.8284593626
 30
0.0
 10
8.5500425677
 20
10.8264230223
 30
0.0
 10
8.5443542726
 20
10.8243437436
 30
0.0
 10
8.5388982738
 20
10.8222232487
 30
0.0
 10
8.5336790026
 20
10.8200633063
 30
0.0
 10
8.5287007228
 20
10.8178656055
 30
0.0
 10
8.5239674453
 20
10.815632028
 30
0.0
 10
8.5194830214
 20
10.8133643158
 30
0.0
 10
8.5152510647
 20
10.8110643255
 30
0.0
 10
8.5112749612
 20
10.8087339385
 30
0.0
 10
8.5075579406
 20
10.8063749226
 30
0.0
 10
8.5041029198
 20
10.8039892359
 30
0.0
 10
8.500912694
 20
10.801578639
 30
0.0
 10
8.4979897915
 20
10.7991449896
 30
0.0
 10
8.4953365184
 20
10.7966901183
 30
0.0
 10
8.4929551097
 20
10.7942156928
 30
0.0
 10
8.4908474633
 20
10.7917235393
 30
0.0
 10
8.4890155449
 20
10.7892152501
 30
0.0
 10
8.4874611264
 20
10.7866925508
 30
0.0
 10
8.4861859173
 20
10.7841571954
 30
0.0
 10
8.4851917748
 20
10.7816110628
 30
0.0
 10
8.4844801543
 20
10.7790562915
 30
0.0
 10
8.4840525975
 20
10.7764957874
 30
0.0
 10
8.4839573568
 20
10.7747826974
 30
0.0
 10
8.4839573642
 20
10.7739317072
 30
0.0
  0
SPLINE
  5
352
100
AcDbEntity
  8
0
100
AcDbSpline
 62
7
  6
CONTINUOUS
 70
0
 71
3
 72
23
 73
19
 74
0
 42
0.0000001
 43
0.0000001
 44
0.0000000001
 40
0.0
 40
0.0
 40
0.0
 40
0.0
 40
0.0635818389
 40
0.1270091306
 40
0.1902751703
 40
0.2533841463
 40
0.3163386361
 40
0.3791408509
 40
0.4417946838
 40
0.5043047841
 40
0.5666764136
 40
0.6289156726
 40
0.6910293913
 40
0.7530250751
 40
0.8149109089
 40
0.8766956783
 40
0.9383887458
 40
1.0
 40
1.0
 40
1.0
 40
1.0
 10
11.7401388634
 20
6.388098716
 30
0.0
 10
11.7495808862
 20
6.3874439095
 30
0.0
 10
11.7684672212
 20
6.38647405
 30
0.0
 10
11.7967939002
 20
6.3860424726
 30
0.0
 10
11.8250476534
 20
6.3866368078
 30
0.0
 10
11.853190666
 20
6.3882562036
 30
0.0
 10
11.8811868581
 20
6.3908983858
 30
0.0
 10
11.908999723
 20
6.3945601967
 30
0.0
 10
11.9365930108
 20
6.3992367556
 30
0.0
 10
11.9639308452
 20
6.4049219567
 30
0.0
 10
11.990977612
 20
6.4116085785
 30
0.0
 10
12.0176981392
 20
6.4192877602
 30
0.0
 10
12.0440576157
 20
6.427949629
 30
0.0
 10
12.0700217241
 20
6.4375829449
 30
0.0
 10
12.0955566753
 20
6.448175044
 30
0.0
 10
12.120629276
 20
6.4597123939
 30
0.0
 10
12.1452064761
 20
6.4721795871
 30
0.0
 10
12.161250553
 20
6.481106256
 30
0.0
 10
12.1691778591
 20
6.4857183824
 30
0.0
  0
SPLINE
  5
353
100
AcDbEntity
  8
0
100
AcDbSpline
 62
7
  6
CONTINUOUS
 70
0
 71
3
 72
18
 73
14
 74
0
 42
0.0000001
 43
0.0000001
 44
0.0000000001
 40
0.0
 40
0.0
 40
0.0
 40
0.0
 40
0.1267615068
 40
0.2529817998
 40
0.3786697411
 40
0.5038405966
 40
0.6285187253
 40
0.6906906246
 40
0.7527519087
 40
0.814707731
 40
0.8765636369
 40
0.9383256122
 40
1.0
 40
1.0
 40
1.0
 40
1.0
 10
11.8114763042
 20
6.4570053965
 30
0.0
 10
11.8275950503
 20
6.4558875577
 30
0.0
 10
11.8598410249
 20
6.4546410886
 30
0.0
 10
11.908124072
 20
6.4557635694
 30
0.0
 10
11.9560436725
 20
6.4598776523
 30
0.0
 10
12.0034141873
 20
6.4669678903
 30
0.0
 10
12.0423236307
 20
6.4753434373
 30
0.0
 10
12.0729885892
 20
6.4835013759
 30
0.0
 10
12.0957197765
 20
6.4903364483
 30
0.0
 10
12.118180797
 20
6.4978866642
 30
0.0
 10
12.1403506354
 20
6.5061451237
 30
0.0
 10
12.1622079196
 20
6.5151036261
 30
0.0
 10
12.1765675891
 20
6.5215418214
 30
0.0
 10
12.1836874551
 20
6.5248744573
 30
0.0
  0
SPLINE
  5
354
100
AcDbEntity
  8
0
100
AcDbSpline
 62
7
  6
CONTINUOUS
 70
0
 71
3
 72
22
 73
18
 74
0
 42
0.0000001
 43
0.0000001
 44
0.0000000001
 40
0.0
 40
0.0
 40
0.0
 40
0.0
 40
0.1269612617
 40
0.1902181596
 40
0.2533205304
 40
0.3162714665
 40
0.3790728713
 40
0.4417282523
 40
0.5042420602
 40
0.5666192766
 40
0.6288656178
 40
0.6909875165
 40
0.7529920842
 40
0.8148870285
 40
0.8766806696
 40
0.9383818741
 40
1.0
 40
1.0
 40
1.0
 40
1.0
 10
11.8321818107
 20
6.5542794519
 30
0.0
 10
11.8488590043
 20
6.5531228846
 30
0.0
 10
11.8739185085
 20
6.5522675999
 30
0.0
 10
11.9072723167
 20
6.5529108952
 30
0.0
 10
11.9321672509
 20
6.5542817215
 30
0.0
 10
11.9569366773
 20
6.5565397324
 30
0.0
 10
11.9815503379
 20
6.5596823509
 30
0.0
 10
12.0059771656
 20
6.5637054295
 30
0.0
 10
12.0301866237
 20
6.5686041371
 30
0.0
 10
12.0541484293
 20
6.5743722279
 30
0.0
 10
12.0778325788
 20
6.581002532
 30
0.0
 10
12.1012093879
 20
6.5884868453
 30
0.0
 10
12.1242496567
 20
6.5968156404
 30
0.0
 10
12.1469244273
 20
6.6059787096
 30
0.0
 10
12.1692054915
 20
6.6159644509
 30
0.0
 10
12.1910644985
 20
6.6267602826
 30
0.0
 10
12.2053474092
 20
6.6344938752
 30
0.0
 10
12.2124081132
 20
6.6384905581
 30
0.0
  0
SPLINE
  5
355
100
AcDbEntity
  8
0
100
AcDbSpline
 62
7
  6
CONTINUOUS
 70
0
 71
3
 72
99
 73
95
 74
0
 42
0.0000001
 43
0.0000001
 44
0.0000000001
 40
0.0
 40
0.0
 40
0.0
 40
0.0
 40
0.0039801598
 40
0.0081240664
 40
0.0124358899
 40
0.0169192122
 40
0.0215770584
 40
0.0264117681
 40
0.0314250022
 40
0.0366179483
 40
0.041991301
 40
0.0475453876
 40
0.0532801213
 40
0.0591950832
 40
0.0652895525
 40
0.0715624959
 40
0.078012661
 40
0.0846385037
 40
0.0914383012
 40
0.0984100889
 40
0.1055517228
 40
0.1128608819
 40
0.1203350497
 40
0.127971587
 40
0.1437200819
 40
0.1600824406
 40
0.1770323893
 40
0.1945417761
 40
0.2125807407
 40
0.2311178717
 40
0.2501203492
 40
0.2695540741
 40
0.28938379
 40
0.3095731991
 40
0.3300850732
 40
0.3508813603
 40
0.3719232915
 40
0.3931714864
 40
0.4145860543
 40
0.4361266958
 40
0.4577528029
 40
0.4794235585
 40
0.5010980364
 40
0.5227353019
 40
0.544294511
 40
0.5657350104
 40
0.587016437
 40
0.6080988178
 40
0.628942671
 40
0.6495091093
 40
0.6697599441
 40
0.6896577899
 40
0.7091661712
 40
0.7282496331
 40
0.7468738561
 40
0.7650057771
 40
0.7826137192
 40
0.7996675321
 40
0.8161387412
 40
0.8320007167
 40
0.8396956025
 40
0.8472291316
 40
0.854598592
 40
0.8618014283
 40
0.868835234
 40
0.8756978161
 40
0.8823871259
 40
0.8889013654
 40
0.8952389158
 40
0.9013984168
 40
0.9073787594
 40
0.9131790931
 40
0.9187989048
 40
0.9242379644
 40
0.9294964556
 40
0.934574922
 40
0.9394743795
 40
0.9441963359
 40
0.94874284
 40
0.9531165983
 40
0.957320975
 40
0.9613601716
 40
0.9652392395
 40
0.9689642531
 40
0.9725423948
 40
0.9759820724
 40
0.9792930711
 40
0.9824866009
 40
0.9855754361
 40
0.9885738837
 40
0.9914977854
 40
0.9943643686
 40
0.9971920258
 40
1.0
 40
1.0
 40
1.0
 40
1.0
 10
7.917923448
 20
10.3349068107
 30
0.0
 10
7.9202803216
 20
10.3371833759
 30
0.0
 10
7.9251980634
 20
10.3417204048
 30
0.0
 10
7.9330059251
 20
10.3483470771
 30
0.0
 10
7.941387147
 20
10.3549262156
 30
0.0
 10
7.9503371314
 20
10.3614543268
 30
0.0
 10
7.9598515149
 20
10.3679283621
 30
0.0
 10
7.9699256355
 20
10.3743451717
 30
0.0
 10
7.9805544547
 20
10.380701679
 30
0.0
 10
7.9917326989
 20
10.3869945853
 30
0.0
 10
8.0034547235
 20
10.3932208702
 30
0.0
 10
8.0157147013
 20
10.3993773303
 30
0.0
 10
8.0285064675
 20
10.4054609377
 30
0.0
 10
8.0418236065
 20
10.4114686185
 30
0.0
 10
8.0556594313
 20
10.4173973082
 30
0.0
 10
8.0700069637
 20
10.4232440892
 30
0.0
 10
8.0848590021
 20
10.4290059107
 30
0.0
 10
8.1002080403
 20
10.4346799599
 30
0.0
 10
8.1160463562
 20
10.440263281
 30
0.0
 10
8.1323659481
 20
10.4457531003
 30
0.0
 10
8.1491585839
 20
10.4511466251
 30
0.0
 10
8.1664157829
 20
10.4564410902
 30
0.0
 10
8.1841288395
 20
10.4616338978
 30
0.0
 10
8.2085932275
 20
10.4684887311
 30
0.0
 10
8.2402548222
 20
10.4767696395
 30
0.0
 10
8.279541868
 20
10.4861612505
 30
0.0
 10
8.3204222992
 20
10.4950873091
 30
0.0
 10
8.3628134479
 20
10.5035296346
 30
0.0
 10
8.406629762
 20
10.5114710313
 30
0.0
 10
8.4517827019
 20
10.5188953292
 30
0.0
 10
8.4981810119
 20
10.5257874126
 30
0.0
 10
8.5457308886
 20
10.5321332526
 30
0.0
 10
8.5943361817
 20
10.5379199338
 30
0.0
 10
8.6438985896
 20
10.5431356809
 30
0.0
 10
8.6943178594
 20
10.5477698802
 30
0.0
 10
8.7454919919
 20
10.5518131071
 30
0.0
 10
8.797317451
 20
10.5552571415
 30
0.0
 10
8.8496893771
 20
10.5580949815
 30
0.0
 10
8.9025018008
 20
10.5603208576
 30
0.0
 10
8.9556478578
 20
10.561930244
 30
0.0
 10
9.0090200058
 20
10.5629198676
 30
0.0
 10
9.0625102417
 20
10.5632877139
 30
0.0
 10
9.1160103222
 20
10.5630330353
 30
0.0
 10
9.1694119843
 20
10.5621563524
 30
0.0
 10
9.2226071657
 20
10.5606594486
 30
0.0
 10
9.2754882244
 20
10.5585453674
 30
0.0
 10
9.3279481561
 20
10.555818406
 30
0.0
 10
9.3798808112
 20
10.5524841078
 30
0.0
 10
9.4311811114
 20
10.5485492497
 30
0.0
 10
9.4817452649
 20
10.5440218332
 30
0.0
 10
9.5314709798
 20
10.5389110698
 30
0.0
 10
9.5802576719
 20
10.5332273573
 30
0.0
 10
9.6280066691
 20
10.5269822603
 30
0.0
 10
9.674621413
 20
10.5201884876
 30
0.0
 10
9.7200076564
 20
10.5128598669
 30
0.0
 10
9.7640736651
 20
10.5050113168
 30
0.0
 10
9.8067303904
 20
10.4966588181
 30
0.0
 10
9.8478917388
 20
10.4878193897
 30
0.0
 10
9.8874744686
 20
10.478511029
 30
0.0
 10
9.9193924296
 20
10.4702983573
 30
0.0
 10
9.9440690759
 20
10.4634964906
 30
0.0
 10
9.9619456958
 20
10.4583413443
 30
0.0
 10
9.9793696813
 20
10.4530835383
 30
0.0
 10
9.9963322517
 20
10.4477257348
 30
0.0
 10
10.0128248278
 20
10.4422705967
 30
0.0
 10
10.0288390987
 20
10.4367209701
 30
0.0
 10
10.044366967
 20
10.4310795696
 30
0.0
 10
10.0594006179
 20
10.4253493388
 30
0.0
 10
10.0739324627
 20
10.4195331133
 30
0.0
 10
10.0879551856
 20
10.413633857
 30
0.0
 10
10.1014617366
 20
10.407654569
 30
0.0
 10
10.1144453051
 20
10.4015982002
 30
0.0
 10
10.1268994001
 20
10.3954678962
 30
0.0
 10
10.1388177375
 20
10.3892666235
 30
0.0
 10
10.1501943846
 20
10.3829975945
 30
0.0
 10
10.1610236245
 20
10.3766638604
 30
0.0
 10
10.1713000618
 20
10.3702686024
 30
0.0
 10
10.1810185873
 20
10.3638149995
 30
0.0
 10
10.1901743251
 20
10.3573061491
 30
0.0
 10
10.1987627864
 20
10.3507453276
 30
0.0
 10
10.2067796204
 20
10.3441355658
 30
0.0
 10
10.2142209124
 20
10.3374801319
 30
0.0
 10
10.2210828683
 20
10.3307820566
 30
0.0
 10
10.2273620368
 20
10.3240444819
 30
0.0
 10
10.233055188
 20
10.3172704901
 30
0.0
 10
10.2381592029
 20
10.3104630723
 30
0.0
 10
10.2426713428
 20
10.3036253846
 30
0.0
 10
10.2465887375
 20
10.2967604042
 30
0.0
 10
10.2499089845
 20
10.2898714289
 30
0.0
 10
10.2526295355
 20
10.2829617132
 30
0.0
 10
10.2547482447
 20
10.2760349357
 30
0.0
 10
10.2562631963
 20
10.2690947741
 30
0.0
 10
10.2571727623
 20
10.262146095
 30
0.0
 10
10.2573752498
 20
10.2575038362
 30
0.0
 10
10.2573752494
 20
10.2551920576
 30
0.0
  0
SPLINE
  5
356
100
AcDbEntity
  8
0
100
AcDbSpline
 62
7
  6
CONTINUOUS
 70
0
 71
3
 72
75
 73
71
 74
0
 42
0.0000001
 43
0.0000001
 44
0.0000000001
 40
0.0
 40
0.0
 40
0.0
 40
0.0
 40
0.0156747273
 40
0.0235325814
 40
0.031403181
 40
0.0471815803
 40
0.0630097508
 40
0.0788855268
 40
0.0948064622
 40
0.1107696438
 40
0.1267717932
 40
0.1347869014
 40
0.1428103611
 40
0.1588792318
 40
0.1749752631
 40
0.1910939891
 40
0.2072307449
 40
0.2233807077
 40
0.2395389397
 40
0.2557004309
 40
0.2718601429
 40
0.2880130529
 40
0.3041541969
 40
0.3202787136
 40
0.3363818874
 40
0.3524591897
 40
0.36850632
 40
0.3845192451
 40
0.4004942363
 40
0.4164279049
 40
0.4323172352
 40
0.4481596152
 40
0.4639528635
 40
0.4796952542
 40
0.4953855368
 40
0.5110229526
 40
0.526607247
 40
0.5421386771
 40
0.5576180139
 40
0.5730465408
 40
0.5884260451
 40
0.6037588059
 40
0.6190475753
 40
0.6342955548
 40
0.649506366
 40
0.6646840161
 40
0.6798328593
 40
0.6949575524
 40
0.7100630078
 40
0.725154342
 40
0.7402368221
 40
0.7553158097
 40
0.7703967041
 40
0.7854848839
 40
0.80058565
 40
0.8157041693
 40
0.8308454194
 40
0.8460141376
 40
0.8612147716
 40
0.8764514346
 40
0.8917278653
 40
0.9070473908
 40
0.9224129018
 40
0.9301142846
 40
0.9378280267
 40
0.9532922984
 40
0.9688082546
 40
0.9765865231
 40
0.9843782672
 40
1.0
 40
1.0
 40
1.0
 40
1.0
 10
8.7163620979
 20
6.1034432953
 30
0.0
 10
8.7015768989
 20
6.1044686524
 30
0.0
 10
8.6794125573
 20
6.1065517209
 30
0.0
 10
8.6499691228
 20
6.1104031603
 30
0.0
 10
8.6205299795
 20
6.1149804774
 30
0.0
 10
8.5838631402
 20
6.122048671
 30
0.0
 10
8.540220606
 20
6.1326514012
 30
0.0
 10
8.4970024099
 20
6.1453568254
 30
0.0
 10
8.4543131326
 20
6.1601341605
 30
0.0
 10
8.412255894
 20
6.1769475602
 30
0.0
 10
8.3778364428
 20
6.1926138838
 30
0.0
 10
8.3507163601
 20
6.2061206165
 30
0.0
 10
8.3238617806
 20
6.2202835934
 30
0.0
 10
8.2908757674
 20
6.239176771
 30
0.0
 10
8.2523385779
 20
6.2636823609
 30
0.0
 10
8.2149187265
 20
6.2899749194
 30
0.0
 10
8.1787068151
 20
6.3179908308
 30
0.0
 10
8.1437898502
 20
6.3476627153
 30
0.0
 10
8.1102519103
 20
6.3789191149
 30
0.0
 10
8.0781737092
 20
6.4116847916
 30
0.0
 10
8.0476324667
 20
6.4458808736
 30
0.0
 10
8.0187017058
 20
6.4814250533
 30
0.0
 10
7.9914510829
 20
6.5182317822
 30
0.0
 10
7.965946211
 20
6.556212471
 30
0.0
 10
7.9422485064
 20
6.595275706
 30
0.0
 10
7.9204150446
 20
6.63532747
 30
0.0
 10
7.9004984227
 20
6.6762713668
 30
0.0
 10
7.8825466334
 20
6.7180088519
 30
0.0
 10
7.8666029498
 20
6.7604394677
 30
0.0
 10
7.8527058209
 20
6.8034610839
 30
0.0
 10
7.8408887787
 20
6.846970141
 30
0.0
 10
7.8311803587
 20
6.8908618988
 30
0.0
 10
7.8236040215
 20
6.9350306851
 30
0.0
 10
7.8181780971
 20
6.9793701499
 30
0.0
 10
7.8149157459
 20
7.0237735217
 30
0.0
 10
7.8138249244
 20
7.0681338627
 30
0.0
 10
7.8149083645
 20
7.1123443243
 30
0.0
 10
7.8181635647
 20
7.1562984033
 30
0.0
 10
7.823582794
 20
7.1998901978
 30
0.0
 10
7.8311531074
 20
7.2430146608
 30
0.0
 10
7.8408563761
 20
7.2855678536
 30
0.0
 10
7.8526693215
 20
7.3274471977
 30
0.0
 10
7.8665635666
 20
7.3685517246
 30
0.0
 10
7.8825057111
 20
7.4087823188
 30
0.0
 10
7.9004574074
 20
7.4480419582
 30
0.0
 10
7.9203754511
 20
7.4862359499
 30
0.0
 10
7.9422118833
 20
7.5232721611
 30
0.0
 10
7.9659141049
 20
7.5590612436
 30
0.0
 10
7.9914250024
 20
7.5935168524
 30
0.0
 10
8.0186830858
 20
7.6265558568
 30
0.0
 10
8.0476226343
 20
7.6580985464
 30
0.0
 10
8.0781738519
 20
7.6880688317
 30
0.0
 10
8.1102630467
 20
7.7163944234
 30
0.0
 10
8.1438128087
 20
7.7430070101
 30
0.0
 10
8.1787422002
 20
7.7678424243
 30
0.0
 10
8.2149669531
 20
7.7908407981
 30
0.0
 10
8.2523996765
 20
7.8119467087
 30
0.0
 10
8.2909500655
 20
7.8311093109
 30
0.0
 10
8.3305251421
 20
7.8482824611
 30
0.0
 10
8.3710294038
 20
7.86342482
 30
0.0
 10
8.4123653454
 20
7.8764999946
 30
0.0
 10
8.454432611
 20
7.8874764775
 30
0.0
 10
8.4899885047
 20
7.8948473086
 30
0.0
 10
8.5186919453
 20
7.8996727509
 30
0.0
 10
8.5476002913
 20
7.9037872956
 30
0.0
 10
8.5840056578
 20
7.9075765658
 30
0.0
 10
8.6206152401
 20
7.9095499
 30
0.0
 10
8.6500061342
 20
7.9100419731
 30
0.0
 10
8.6794996508
 20
7.9098079765
 30
0.0
 10
8.701626886
 20
7.9088148264
 30
0.0
 10
8.7163620979
 20
7.907792936
 30
0.0
  0
SPLINE
  5
357
100
AcDbEntity
  8
0
100
AcDbSpline
 62
7
  6
CONTINUOUS
 70
0
 71
3
 72
52
 73
48
 74
0
 42
0.0000001
 43
0.0000001
 44
0.0000000001
 40
0.0
 40
0.0
 40
0.0
 40
0.0
 40
0.0417975951
 40
0.0840616288
 40
0.1266599
 40
0.1694646819
 40
0.2123442235
 40
0.2551675716
 40
0.2978037564
 40
0.3401225587
 40
0.3819950468
 40
0.4232940448
 40
0.4638946794
 40
0.5036749394
 40
0.5425162168
 40
0.5803038545
 40
0.6169277287
 40
0.6522828762
 40
0.6862702207
 40
0.7187973048
 40
0.7497791232
 40
0.7646666939
 40
0.7791400459
 40
0.7931910474
 40
0.8068124878
 40
0.8199977024
 40
0.8327409898
 40
0.8450375569
 40
0.8568834717
 40
0.8682761438
 40
0.8792139942
 40
0.8896969854
 40
0.8997266536
 40
0.9093062033
 40
0.9184411394
 40
0.9271391328
 40
0.9354107775
 40
0.9432698769
 40
0.9507338665
 40
0.9578247066
 40
0.9645691138
 40
0.9709994856
 40
0.9771542525
 40
0.9830781055
 40
0.9888220386
 40
0.9944424568
 40
1.0
 40
1.0
 40
1.0
 40
1.0
 10
14.3289628123
 20
11.0874956729
 30
0.0
 10
14.3225779556
 20
11.0879384643
 30
0.0
 10
14.3097296985
 20
11.0887269041
 30
0.0
 10
14.2903548116
 20
11.0896167831
 30
0.0
 10
14.2708145079
 20
11.0902186031
 30
0.0
 10
14.2511731899
 20
11.0905304514
 30
0.0
 10
14.2314949427
 20
11.0905512487
 30
0.0
 10
14.2118443579
 20
11.0902809404
 30
0.0
 10
14.192285797
 20
11.0897204193
 30
0.0
 10
14.1728833492
 20
11.0888715398
 30
0.0
 10
14.1537005862
 20
11.0877371057
 30
0.0
 10
14.1348003549
 20
11.0863208596
 30
0.0
 10
14.1162445721
 20
11.0846274715
 30
0.0
 10
14.0980940117
 20
11.0826625423
 30
0.0
 10
14.0804081029
 20
11.0804325706
 30
0.0
 10
14.0632447389
 20
11.0779449299
 30
0.0
 10
14.0466600803
 20
11.0752078473
 30
0.0
 10
14.0307083758
 20
11.0722303703
 30
0.0
 10
14.0154417087
 20
11.0690223693
 30
0.0
 10
14.0009100171
 20
11.0655944512
 30
0.0
 10
13.9893029468
 20
11.0625247354
 30
0.0
 10
13.9804257156
 20
11.0599603196
 30
0.0
 10
13.9740690981
 20
11.0580147811
 30
0.0
 10
13.9679303147
 20
11.056022994
 30
0.0
 10
13.9620143562
 20
11.0539866537
 30
0.0
 10
13.9563260611
 20
11.051907375
 30
0.0
 10
13.9508700623
 20
11.0497868801
 30
0.0
 10
13.9456507911
 20
11.0476269377
 30
0.0
 10
13.9406725113
 20
11.0454292369
 30
0.0
 10
13.9359392338
 20
11.0431956594
 30
0.0
 10
13.9314548099
 20
11.0409279472
 30
0.0
 10
13.9272228532
 20
11.0386279569
 30
0.0
 10
13.9232467497
 20
11.0362975699
 30
0.0
 10
13.9195297291
 20
11.033938554
 30
0.0
 10
13.9160747083
 20
11.0315528673
 30
0.0
 10
13.9128844825
 20
11.0291422704
 30
0.0
 10
13.90996158
 20
11.0267086211
 30
0.0
 10
13.9073083069
 20
11.0242537497
 30
0.0
 10
13.9049268982
 20
11.0217793242
 30
0.0
 10
13.9028192518
 20
11.0192871707
 30
0.0
 10
13.9009873334
 20
11.0167788815
 30
0.0
 10
13.8994329149
 20
11.0142561822
 30
0.0
 10
13.8981577058
 20
11.0117208268
 30
0.0
 10
13.8971635633
 20
11.0091746942
 30
0.0
 10
13.8964519428
 20
11.0066199229
 30
0.0
 10
13.896024386
 20
11.0040594188
 30
0.0
 10
13.8959291453
 20
11.0023463288
 30
0.0
 10
13.8959291527
 20
11.0014953386
 30
0.0
  0
SPLINE
  5
358
100
AcDbEntity
  8
0
100
AcDbSpline
 62
7
  6
CONTINUOUS
 70
0
 71
3
 72
31
 73
27
 74
0
 42
0.0000001
 43
0.0000001
 44
0.0000000001
 40
0.0
 40
0.0
 40
0.0
 40
0.0
 40
0.010418236
 40
0.0211152213
 40
0.0322606942
 40
0.044010486
 40
0.0565027573
 40
0.0698580274
 40
0.0841853329
 40
0.0995822325
 40
0.1161345154
 40
0.1339192533
 40
0.1530131421
 40
0.1734897079
 40
0.1954175278
 40
0.2188653238
 40
0.2439077556
 40
0.2706181995
 40
0.3293421734
 40
0.3957038698
 40
0.4704363616
 40
0.5543591844
 40
0.6483740382
 40
0.7534278586
 40
0.8704136307
 40
1.0
 40
1.0
 40
1.0
 40
1.0
 10
10.9242299557
 20
7.5138548564
 30
0.0
 10
10.9244330495
 20
7.5137419474
 30
0.0
 10
10.9248300369
 20
7.5134857121
 30
0.0
 10
10.9253818134
 20
7.513021203
 30
0.0
 10
10.9258947506
 20
7.5124727985
 30
0.0
 10
10.9263687919
 20
7.5118399724
 30
0.0
 10
10.9268042039
 20
7.5111219137
 30
0.0
 10
10.9272013257
 20
7.5103175604
 30
0.0
 10
10.9275600475
 20
7.5094253034
 30
0.0
 10
10.9278802031
 20
7.5084433455
 30
0.0
 10
10.9281616269
 20
7.507369792
 30
0.0
 10
10.9284041624
 20
7.5062025317
 30
0.0
 10
10.9286071873
 20
7.5049390936
 30
0.0
 10
10.9287700739
 20
7.5035768052
 30
0.0
 10
10.9288922431
 20
7.5021128429
 30
0.0
 10
10.9289729729
 20
7.5005440705
 30
0.0
 10
10.9290111704
 20
7.4988670127
 30
0.0
 10
10.9290036933
 20
7.4964027087
 30
0.0
 10
10.9288722516
 20
7.4930184375
 30
0.0
 10
10.9285288655
 20
7.4885740719
 30
0.0
 10
10.9279805257
 20
7.4835845474
 30
0.0
 10
10.927209513
 20
7.4780013307
 30
0.0
 10
10.9261944398
 20
7.4717710607
 30
0.0
 10
10.9249106503
 20
7.4648391284
 30
0.0
 10
10.9233313312
 20
7.4571566358
 30
0.0
 10
10.9221259521
 20
7.4517904392
 30
0.0
 10
10.9214693304
 20
7.4489757053
 30
0.0
  0
SPLINE
  5
359
100
AcDbEntity
  8
0
100
AcDbSpline
 62
7
  6
CONTINUOUS
 70
0
 71
3
 72
75
 73
71
 74
0
 42
0.0000001
 43
0.0000001
 44
0.0000000001
 40
0.0
 40
0.0
 40
0.0
 40
0.0
 40
0.0156747273
 40
0.0235325814
 40
0.031403181
 40
0.0471815803
 40
0.0630097508
 40
0.0788855268
 40
0.0948064622
 40
0.1107696438
 40
0.1267717932
 40
0.1347869014
 40
0.1428103611
 40
0.1588792318
 40
0.1749752631
 40
0.1910939891
 40
0.2072307449
 40
0.2233807077
 40
0.2395389397
 40
0.2557004309
 40
0.2718601429
 40
0.2880130529
 40
0.3041541969
 40
0.3202787136
 40
0.3363818874
 40
0.3524591897
 40
0.36850632
 40
0.3845192451
 40
0.4004942363
 40
0.4164279049
 40
0.4323172352
 40
0.4481596152
 40
0.4639528635
 40
0.4796952542
 40
0.4953855368
 40
0.5110229526
 40
0.526607247
 40
0.5421386771
 40
0.5576180139
 40
0.5730465408
 40
0.5884260451
 40
0.6037588059
 40
0.6190475753
 40
0.6342955548
 40
0.649506366
 40
0.6646840161
 40
0.6798328593
 40
0.6949575524
 40
0.7100630078
 40
0.725154342
 40
0.7402368221
 40
0.7553158097
 40
0.7703967041
 40
0.7854848839
 40
0.80058565
 40
0.8157041693
 40
0.8308454194
 40
0.8460141376
 40
0.8612147716
 40
0.8764514346
 40
0.8917278653
 40
0.9070473908
 40
0.9224129018
 40
0.9301142846
 40
0.9378280267
 40
0.9532922984
 40
0.9688082546
 40
0.9765865231
 40
0.9843782672
 40
1.0
 40
1.0
 40
1.0
 40
1.0
 10
11.3745901045
 20
7.7234441976
 30
0.0
 10
11.3893753036
 20
7.7224188406
 30
0.0
 10
11.4115396452
 20
7.720335772
 30
0.0
 10
11.4409830796
 20
7.7164843326
 30
0.0
 10
11.4704222229
 20
7.7119070156
 30
0.0
 10
11.5070890623
 20
7.7048388219
 30
0.0
 10
11.5507315965
 20
7.6942360918
 30
0.0
 10
11.5939497926
 20
7.6815306675
 30
0.0
 10
11.6366390698
 20
7.6667533325
 30
0.0
 10
11.6786963084
 20
7.6499399328
 30
0.0
 10
11.7131157596
 20
7.6342736092
 30
0.0
 10
11.7402358423
 20
7.6207668764
 30
0.0
 10
11.7670904218
 20
7.6066038996
 30
0.0
 10
11.800076435
 20
7.587710722
 30
0.0
 10
11.8386136245
 20
7.5632051321
 30
0.0
 10
11.8760334759
 20
7.5369125735
 30
0.0
 10
11.9122453874
 20
7.5088966622
 30
0.0
 10
11.9471623522
 20
7.4792247776
 30
0.0
 10
11.9807002921
 20
7.447968378
 30
0.0
 10
12.0127784932
 20
7.4152027014
 30
0.0
 10
12.0433197357
 20
7.3810066193
 30
0.0
 10
12.0722504967
 20
7.3454624397
 30
0.0
 10
12.0995011196
 20
7.3086557108
 30
0.0
 10
12.1250059914
 20
7.2706750219
 30
0.0
 10
12.148703696
 20
7.2316117869
 30
0.0
 10
12.1705371578
 20
7.1915600229
 30
0.0
 10
12.1904537797
 20
7.1506161261
 30
0.0
 10
12.208405569
 20
7.108878641
 30
0.0
 10
12.2243492526
 20
7.0664480252
 30
0.0
 10
12.2382463816
 20
7.0234264091
 30
0.0
 10
12.2500634237
 20
6.979917352
 30
0.0
 10
12.2597718437
 20
6.9360255941
 30
0.0
 10
12.2673481809
 20
6.8918568079
 30
0.0
 10
12.2727741053
 20
6.8475173431
 30
0.0
 10
12.2760364565
 20
6.8031139712
 30
0.0
 10
12.277127278
 20
6.7587536302
 30
0.0
 10
12.2760438379
 20
6.7145431687
 30
0.0
 10
12.2727886377
 20
6.6705890896
 30
0.0
 10
12.2673694085
 20
6.6269972952
 30
0.0
 10
12.259799095
 20
6.5838728321
 30
0.0
 10
12.2500958263
 20
6.5413196393
 30
0.0
 10
12.238282881
 20
6.4994402953
 30
0.0
 10
12.2243886358
 20
6.4583357684
 30
0.0
 10
12.2084464913
 20
6.4181051742
 30
0.0
 10
12.190494795
 20
6.3788455348
 30
0.0
 10
12.1705767514
 20
6.340651543
 30
0.0
 10
12.1487403191
 20
6.3036153318
 30
0.0
 10
12.1250380975
 20
6.2678262494
 30
0.0
 10
12.0995272
 20
6.2333706406
 30
0.0
 10
12.0722691166
 20
6.2003316362
 30
0.0
 10
12.0433295682
 20
6.1687889466
 30
0.0
 10
12.0127783505
 20
6.1388186612
 30
0.0
 10
11.9806891558
 20
6.1104930695
 30
0.0
 10
11.9471393937
 20
6.0838804828
 30
0.0
 10
11.9122100022
 20
6.0590450687
 30
0.0
 10
11.8759852494
 20
6.0360466948
 30
0.0
 10
11.8385525259
 20
6.0149407842
 30
0.0
 10
11.8000021369
 20
5.9957781821
 30
0.0
 10
11.7604270604
 20
5.9786050318
 30
0.0
 10
11.7199227987
 20
5.9634626729
 30
0.0
 10
11.678586857
 20
5.9503874983
 30
0.0
 10
11.6365195914
 20
5.9394110154
 30
0.0
 10
11.6009636978
 20
5.9320401843
 30
0.0
 10
11.5722602571
 20
5.927214742
 30
0.0
 10
11.5433519112
 20
5.9231001973
 30
0.0
 10
11.5069465446
 20
5.9193109271
 30
0.0
 10
11.4703369623
 20
5.917337593
 30
0.0
 10
11.4409460682
 20
5.9168455198
 30
0.0
 10
11.4114525516
 20
5.9170795164
 30
0.0
 10
11.3893253165
 20
5.9180726665
 30
0.0
 10
11.3745901045
 20
5.9190945569
 30
0.0
  0
SPLINE
  5
35A
100
AcDbEntity
  8
0
100
AcDbSpline
 62
4
  6
CONTINUOUS
 70
0
 71
3
 72
334
 73
330
 74
0
 42
0.0000001
 43
0.0000001
 44
0.0000000001
 40
0.0
 40
0.0
 40
0.0
 40
0.0
 40
0.015625
 40
0.03125
 40
0.0390625
 40
0.046875
 40
0.05078125
 40
0.0546875
 40
0.05859375
 40
0.060546875
 40
0.0615234375
 40
0.0625
 40
0.0634765625
 40
0.064453125
 40
0.06640625
 40
0.0703125
 40
0.07421875
 40
0.078125
 40
0.0859375
 40
0.09375
 40
0.1015625
 40
0.109375
 40
0.11328125
 40
0.1171875
 40
0.12109375
 40
0.123046875
 40
0.1240234375
 40
0.125
 40
0.1259765625
 40
0.126953125
 40
0.12890625
 40
0.1328125
 40
0.13671875
 40
0.140625
 40
0.1484375
 40
0.15625
 40
0.1640625
 40
0.171875
 40
0.17578125
 40
0.1796875
 40
0.18359375
 40
0.185546875
 40
0.1865234375
 40
0.1875
 40
0.1884765625
 40
0.189453125
 40
0.19140625
 40
0.1953125
 40
0.19921875
 40
0.203125
 40
0.2109375
 40
0.21875
 40
0.2265625
 40
0.234375
 40
0.23828125
 40
0.2421875
 40
0.244140625
 40
0.24609375
 40
0.248046875
 40
0.2490234375
 40
0.2495117188
 40
0.25
 40
0.2504882812
 40
0.2509765625
 40
0.251953125
 40
0.25390625
 40
0.255859375
 40
0.2578125
 40
0.26171875
 40
0.265625
 40
0.2734375
 40
0.28125
 40
0.2890625
 40
0.296875
 40
0.30078125
 40
0.3046875
 40
0.306640625
 40
0.30859375
 40
0.310546875
 40
0.3115234375
 40
0.3120117188
 40
0.3125
 40
0.3129882812
 40
0.3134765625
 40
0.314453125
 40
0.31640625
 40
0.318359375
 40
0.3203125
 40
0.32421875
 40
0.328125
 40
0.3359375
 40
0.34375
 40
0.3515625
 40
0.35546875
 40
0.359375
 40
0.36328125
 40
0.3671875
 40
0.369140625
 40
0.37109375
 40
0.373046875
 40
0.3740234375
 40
0.3745117188
 40
0.375
 40
0.3754882812
 40
0.3759765625
 40
0.376953125
 40
0.37890625
 40
0.380859375
 40
0.3828125
 40
0.38671875
 40
0.390625
 40
0.39453125
 40
0.3984375
 40
0.40625
 40
0.4140625
 40
0.41796875
 40
0.421875
 40
0.42578125
 40
0.4296875
 40
0.431640625
 40
0.43359375
 40
0.4345703125
 40
0.435546875
 40
0.4365234375
 40
0.4370117188
 40
0.4375
 40
0.4379882812
 40
0.4384765625
 40
0.439453125
 40
0.4404296875
 40
0.44140625
 40
0.443359375
 40
0.4453125
 40
0.44921875
 40
0.453125
 40
0.45703125
 40
0.4609375
 40
0.46875
 40
0.4765625
 40
0.48046875
 40
0.484375
 40
0.48828125
 40
0.4921875
 40
0.494140625
 40
0.49609375
 40
0.4970703125
 40
0.498046875
 40
0.4990234375
 40
0.4995117188
 40
0.4997558594
 40
0.5
 40
0.5002441406
 40
0.5004882812
 40
0.5009765625
 40
0.501953125
 40
0.5029296875
 40
0.50390625
 40
0.505859375
 40
0.5078125
 40
0.51171875
 40
0.515625
 40
0.51953125
 40
0.5234375
 40
0.53125
 40
0.5390625
 40
0.54296875
 40
0.546875
 40
0.55078125
 40
0.5546875
 40
0.556640625
 40
0.55859375
 40
0.5595703125
 40
0.560546875
 40
0.5615234375
 40
0.5620117188
 40
0.5622558594
 40
0.5625
 40
0.5627441406
 40
0.5629882812
 40
0.5634765625
 40
0.564453125
 40
0.5654296875
 40
0.56640625
 40
0.568359375
 40
0.5703125
 40
0.57421875
 40
0.578125
 40
0.58203125
 40
0.5859375
 40
0.59375
 40
0.6015625
 40
0.60546875
 40
0.609375
 40
0.61328125
 40
0.6171875
 40
0.619140625
 40
0.62109375
 40
0.6220703125
 40
0.623046875
 40
0.6240234375
 40
0.6245117188
 40
0.6247558594
 40
0.625
 40
0.6252441406
 40
0.6254882812
 40
0.6259765625
 40
0.626953125
 40
0.6279296875
 40
0.62890625
 40
0.630859375
 40
0.6328125
 40
0.63671875
 40
0.640625
 40
0.64453125
 40
0.6484375
 40
0.65625
 40
0.6640625
 40
0.66796875
 40
0.671875
 40
0.67578125
 40
0.6796875
 40
0.681640625
 40
0.68359375
 40
0.6845703125
 40
0.685546875
 40
0.6865234375
 40
0.6870117188
 40
0.6872558594
 40
0.6875
 40
0.6877441406
 40
0.6879882812
 40
0.6884765625
 40
0.689453125
 40
0.6904296875
 40
0.69140625
 40
0.693359375
 40
0.6953125
 40
0.69921875
 40
0.703125
 40
0.70703125
 40
0.7109375
 40
0.71875
 40
0.7265625
 40
0.73046875
 40
0.734375
 40
0.73828125
 40
0.7421875
 40
0.744140625
 40
0.74609375
 40
0.7470703125
 40
0.748046875
 40
0.7490234375
 40
0.7495117188
 40
0.75
 40
0.7504882812
 40
0.7509765625
 40
0.751953125
 40
0.7529296875
 40
0.75390625
 40
0.755859375
 40
0.7578125
 40
0.76171875
 40
0.765625
 40
0.76953125
 40
0.7734375
 40
0.78125
 40
0.7890625
 40
0.796875
 40
0.80078125
 40
0.8046875
 40
0.806640625
 40
0.80859375
 40
0.810546875
 40
0.8115234375
 40
0.8120117188
 40
0.8125
 40
0.8129882812
 40
0.8134765625
 40
0.814453125
 40
0.81640625
 40
0.818359375
 40
0.8203125
 40
0.82421875
 40
0.828125
 40
0.8359375
 40
0.84375
 40
0.8515625
 40
0.859375
 40
0.86328125
 40
0.8671875
 40
0.869140625
 40
0.87109375
 40
0.873046875
 40
0.8740234375
 40
0.8745117188
 40
0.875
 40
0.8754882812
 40
0.8759765625
 40
0.876953125
 40
0.87890625
 40
0.880859375
 40
0.8828125
 40
0.88671875
 40
0.890625
 40
0.8984375
 40
0.90625
 40
0.9140625
 40
0.921875
 40
0.92578125
 40
0.9296875
 40
0.931640625
 40
0.93359375
 40
0.935546875
 40
0.9365234375
 40
0.9370117188
 40
0.9375
 40
0.9379882812
 40
0.9384765625
 40
0.939453125
 40
0.94140625
 40
0.943359375
 40
0.9453125
 40
0.94921875
 40
0.953125
 40
0.9609375
 40
0.96875
 40
0.9765625
 40
0.984375
 40
1.0
 40
1.0
 40
1.0
 40
1.0
 10
12.0545296763
 20
10.5097618562
 30
0.0
 10
12.0609606842
 20
10.509486306
 30
0.0
 10
12.0738227018
 20
10.5089352125
 30
0.0
 10
12.0899002151
 20
10.5082463116
 30
0.0
 10
12.102762244
 20
10.5076952622
 30
0.0
 10
12.1108009706
 20
10.5073506948
 30
0.0
 10
12.1172320469
 20
10.5070754108
 30
0.0
 10
12.1220550941
 20
10.506867935
 30
0.0
 10
12.126075127
 20
10.5066982604
 30
0.0
 10
12.1288875274
 20
10.5065731653
 30
0.0
 10
12.1304971469
 20
10.506511555
 30
0.0
 10
12.1316972245
 20
10.506437536
 30
0.0
 10
12.1329245836
 20
10.5064698257
 30
0.0
 10
12.1345515463
 20
10.506475797
 30
0.0
 10
12.1374031648
 20
10.5065035238
 30
0.0
 10
12.1414745875
 20
10.5065341009
 30
0.0
 10
12.146361287
 20
10.5065746597
 30
0.0
 10
12.1528765398
 20
10.5066273872
 30
0.0
 10
12.1610207232
 20
10.5066937631
 30
0.0
 10
12.1707936996
 20
10.506773201
 30
0.0
 10
12.1805666631
 20
10.5068527452
 30
0.0
 10
12.1887108787
 20
10.5069188553
 30
0.0
 10
12.195226067
 20
10.5069721145
 30
0.0
 10
12.2001129633
 20
10.5070110518
 30
0.0
 10
12.2041837701
 20
10.5070467017
 30
0.0
 10
12.2070364882
 20
10.5070653726
 30
0.0
 10
12.2086616891
 20
10.5070858537
 30
0.0
 10
12.20989446
 20
10.5070735741
 30
0.0
 10
12.211074212
 20
10.50716695
 30
0.0
 10
12.2126657082
 20
10.5072545975
 30
0.0
 10
12.2154422101
 20
10.5074251514
 30
0.0
 10
12.2194131462
 20
10.5076598227
 30
0.0
 10
12.2241763412
 20
10.5079452708
 30
0.0
 10
12.2305279419
 20
10.5083245257
 30
0.0
 10
12.2384672086
 20
10.508799058
 30
0.0
 10
12.2479944414
 20
10.5093682848
 30
0.0
 10
12.2575215981
 20
10.5099376176
 30
0.0
 10
12.265461055
 20
10.5104118847
 30
0.0
 10
12.2718122754
 20
10.51079167
 30
0.0
 10
12.2765766303
 20
10.5110755002
 30
0.0
 10
12.2805439378
 20
10.5113152332
 30
0.0
 10
12.2833269173
 20
10.5114767511
 30
0.0
 10
12.2849080348
 20
10.5115788766
 30
0.0
 10
12.2861196667
 20
10.5116277807
 30
0.0
 10
12.2872327022
 20
10.51178253
 30
0.0
 10
12.2887511411
 20
10.5119519424
 30
0.0
 10
12.2913923855
 20
10.5122656159
 30
0.0
 10
12.2951739691
 20
10.5127047276
 30
0.0
 10
12.2997082836
 20
10.513235511
 30
0.0
 10
12.305755289
 20
10.5139418776
 30
0.0
 10
12.3133136152
 20
10.5148252976
 30
0.0
 10
12.3223837941
 20
10.5158852025
 30
0.0
 10
12.331453912
 20
10.5169451647
 30
0.0
 10
12.3390123908
 20
10.5178284412
 30
0.0
 10
12.3450590909
 20
10.5185350947
 30
0.0
 10
12.3488384623
 20
10.5189766851
 30
0.0
 10
12.351861539
 20
10.5193301126
 30
0.0
 10
12.3541299973
 20
10.5195947586
 30
0.0
 10
12.3560167187
 20
10.5198166476
 30
0.0
 10
12.3573446072
 20
10.5199693192
 30
0.0
 10
12.3580921842
 20
10.5200606991
 30
0.0
 10
12.3586844638
 20
10.5201175743
 30
0.0
 10
12.359155964
 20
10.5202190188
 30
0.0
 10
12.3598267602
 20
10.5203387318
 30
0.0
 10
12.3609810248
 20
10.5205554729
 30
0.0
 10
12.3626402363
 20
10.5208613162
 30
0.0
 10
12.3646268975
 20
10.521229949
 30
0.0
 10
12.3672773134
 20
10.5217208933
 30
0.0
 10
12.370589808
 20
10.5223347676
 30
0.0
 10
12.375890093
 20
10.5233168579
 30
0.0
 10
12.3825153477
 20
10.5245445083
 30
0.0
 10
12.3904657001
 20
10.5260176718
 30
0.0
 10
12.3984160279
 20
10.5274908434
 30
0.0
 10
12.4050413441
 20
10.5287184734
 30
0.0
 10
12.4103415061
 20
10.5297006045
 30
0.0
 10
12.4136543133
 20
10.5303143754
 30
0.0
 10
12.4163040874
 20
10.5308055317
 30
0.0
 10
12.4182927096
 20
10.531173517
 30
0.0
 10
12.4199457858
 20
10.5314813862
 30
0.0
 10
12.4211110027
 20
10.5316945107
 30
0.0
 10
12.4217642505
 20
10.5318200184
 30
0.0
 10
12.4222896539
 20
10.5319036634
 30
0.0
 10
12.4226794822
 20
10.5320273906
 30
0.0
 10
12.4232465435
 20
10.532178379
 30
0.0
 10
12.4242168673
 20
10.5324491229
 30
0.0
 10
12.4256145635
 20
10.5328324943
 30
0.0
 10
12.4272868684
 20
10.5332939976
 30
0.0
 10
12.4295183303
 20
10.5339088263
 30
0.0
 10
12.432307068
 20
10.5346775364
 30
0.0
 10
12.436769378
 20
10.5359073752
 30
0.0
 10
12.4423471525
 20
10.5374447071
 30
0.0
 10
12.4490405294
 20
10.5392894913
 30
0.0
 10
12.4546183358
 20
10.540826814
 30
0.0
 10
12.4590805755
 20
10.542056673
 30
0.0
 10
12.4624272763
 20
10.5429790631
 30
0.0
 10
12.4657738957
 20
10.5439014694
 30
0.0
 10
12.4685629991
 20
10.5446700908
 30
0.0
 10
12.4707937131
 20
10.5452851012
 30
0.0
 10
12.4724683024
 20
10.5457460493
 30
0.0
 10
12.4738588512
 20
10.5461311578
 30
0.0
 10
12.4748419343
 20
10.5463988006
 30
0.0
 10
12.475388552
 20
10.5465547578
 30
0.0
 10
12.4758411766
 20
10.5466632226
 30
0.0
 10
12.4761307278
 20
10.5468041907
 30
0.0
 10
12.476573678
 20
10.5469808106
 30
0.0
 10
12.4773223385
 20
10.5472951779
 30
0.0
 10
12.4784057092
 20
10.5477415123
 30
0.0
 10
12.4796998233
 20
10.5482782957
 30
0.0
 10
12.4814273805
 20
10.5489935939
 30
0.0
 10
12.483586116
 20
10.5498878584
 30
0.0
 10
12.4861769035
 20
10.5509609151
 30
0.0
 10
12.4887676094
 20
10.552033988
 30
0.0
 10
12.4922219124
 20
10.5534647462
 30
0.0
 10
12.4965397816
 20
10.5552531959
 30
0.0
 10
12.5008576533
 20
10.5570416451
 30
0.0
 10
12.5043119523
 20
10.5584724042
 30
0.0
 10
12.5069026703
 20
10.5595454745
 30
0.0
 10
12.5094934125
 20
10.5606185409
 30
0.0
 10
12.5116522888
 20
10.5615127749
 30
0.0
 10
12.5133795589
 20
10.5622281354
 30
0.0
 10
12.514458718
 20
10.5626752966
 30
0.0
 10
12.5153229262
 20
10.5630328861
 30
0.0
 10
12.5159686704
 20
10.5633014599
 30
0.0
 10
12.5165144634
 20
10.5635240572
 30
0.0
 10
12.5169338891
 20
10.5637048585
 30
0.0
 10
12.5172954807
 20
10.5638330175
 30
0.0
 10
12.5174775871
 20
10.5639895825
 30
0.0
 10
12.5177830922
 20
10.5641884132
 30
0.0
 10
12.5181434626
 20
10.564440356
 30
0.0
 10
12.5185851145
 20
10.5647412301
 30
0.0
 10
12.5191707677
 20
10.5651429046
 30
0.0
 10
12.5199039354
 20
10.5656448235
 30
0.0
 10
12.5210763882
 20
10.5664479911
 30
0.0
 10
12.5225421655
 20
10.5674519172
 30
0.0
 10
12.5243010076
 20
10.5686566428
 30
0.0
 10
12.526059874
 20
10.5698613645
 30
0.0
 10
12.5284050207
 20
10.5714676616
 30
0.0
 10
12.5313364569
 20
10.5734755324
 30
0.0
 10
12.5342678925
 20
10.5754834034
 30
0.0
 10
12.5366130402
 20
10.5770897002
 30
0.0
 10
12.5383719036
 20
10.5782944227
 30
0.0
 10
12.5401307571
 20
10.5794991456
 30
0.0
 10
12.5415964992
 20
10.58050308
 30
0.0
 10
12.5427690237
 20
10.5813062306
 30
0.0
 10
12.5435020089
 20
10.5818081926
 30
0.0
 10
12.5440880367
 20
10.5822097786
 30
0.0
 10
12.5445285443
 20
10.5825109232
 30
0.0
 10
12.5448924947
 20
10.5827620197
 30
0.0
 10
12.5451534208
 20
10.5829375074
 30
0.0
 10
12.5452929018
 20
10.5830382231
 30
0.0
 10
12.5454246112
 20
10.5831125288
 30
0.0
 10
12.5454527359
 20
10.5831915401
 30
0.0
 10
12.545526367
 20
10.5832952471
 30
0.0
 10
12.545638387
 20
10.5834774991
 30
0.0
 10
12.5458072168
 20
10.5837374593
 30
0.0
 10
12.5460060454
 20
10.5840495826
 30
0.0
 10
12.546272466
 20
10.5844656873
 30
0.0
 10
12.5466050412
 20
10.5849858387
 30
0.0
 10
12.5471374134
 20
10.5858180694
 30
0.0
 10
12.5478027922
 20
10.5868583617
 30
0.0
 10
12.5486012837
 20
10.5881067109
 30
0.0
 10
12.5493997654
 20
10.5893550604
 30
0.0
 10
12.5504644111
 20
10.5910195263
 30
0.0
 10
12.5517952169
 20
10.5931001088
 30
0.0
 10
12.5531260236
 20
10.5951806912
 30
0.0
 10
12.5541906679
 20
10.5968451572
 30
0.0
 10
12.5549891537
 20
10.5980935066
 30
0.0
 10
12.5557876297
 20
10.5993418562
 30
0.0
 10
12.556453057
 20
10.600382147
 30
0.0
 10
12.5569853302
 20
10.6012143809
 30
0.0
 10
12.5573181571
 20
10.6017345243
 30
0.0
 10
12.5575840612
 20
10.6021506452
 30
0.0
 10
12.5577844676
 20
10.6024627191
 30
0.0
 10
12.5579483609
 20
10.6027228342
 30
0.0
 10
12.5580691935
 20
10.6029048097
 30
0.0
 10
12.5581287046
 20
10.6030089597
 30
0.0
 10
12.5582002015
 20
10.6030866103
 30
0.0
 10
12.558169012
 20
10.6031660262
 30
0.0
 10
12.5581632441
 20
10.6032712984
 30
0.0
 10
12.5581364621
 20
10.6034558115
 30
0.0
 10
12.5581069269
 20
10.6037192517
 30
0.0
 10
12.5580677501
 20
10.6040354442
 30
0.0
 10
12.5580168188
 20
10.6044570117
 30
0.0
 10
12.557952708
 20
10.6049839788
 30
0.0
 10
12.5578503804
 20
10.6058271219
 30
0.0
 10
12.5577223852
 20
10.6068810521
 30
0.0
 10
12.5575688277
 20
10.6081457678
 30
0.0
 10
12.5574152604
 20
10.6094104837
 30
0.0
 10
12.5572105075
 20
10.6110967714
 30
0.0
 10
12.556954565
 20
10.6132046312
 30
0.0
 10
12.5566986233
 20
10.6153124909
 30
0.0
 10
12.556493869
 20
10.6169987786
 30
0.0
 10
12.5563403058
 20
10.6182634945
 30
0.0
 10
12.5561867329
 20
10.6195282101
 30
0.0
 10
12.5560587858
 20
10.6205821408
 30
0.0
 10
12.5559563601
 20
10.621425283
 30
0.0
 10
12.555892499
 20
10.6219522521
 30
0.0
 10
12.5558410551
 20
10.6223738155
 30
0.0
 10
12.5558034444
 20
10.6226900207
 30
0.0
 10
12.5557690092
 20
10.622953421
 30
0.0
 10
12.5557509745
 20
10.6231380053
 30
0.0
 10
12.5557311913
 20
10.6232431635
 30
0.0
 10
12.5557430525
 20
10.6233229295
 30
0.0
 10
12.5556528581
 20
10.623399265
 30
0.0
 10
12.5555681972
 20
10.6235022423
 30
0.0
 10
12.5554034546
 20
10.6236818951
 30
0.0
 10
12.5551767793
 20
10.6239388333
 30
0.0
 10
12.5549010574
 20
10.6242470345
 30
0.0
 10
12.5545347246
 20
10.6246580129
 30
0.0
 10
12.5540763647
 20
10.6251717211
 30
0.0
 10
12.553343237
 20
10.6259936624
 30
0.0
 10
12.5524267422
 20
10.6270210862
 30
0.0
 10
12.5513269849
 20
10.6282539961
 30
0.0
 10
12.5502272179
 20
10.6294869055
 30
0.0
 10
12.5487608653
 20
10.631130785
 30
0.0
 10
12.5469279232
 20
10.6331856342
 30
0.0
 10
12.545094982
 20
10.6352404835
 30
0.0
 10
12.5436286281
 20
10.6368843629
 30
0.0
 10
12.5425288651
 20
10.6381172725
 30
0.0
 10
12.5414290924
 20
10.6393501816
 30
0.0
 10
12.5405126457
 20
10.6403776077
 30
0.0
 10
12.53977942
 20
10.6411995444
 30
0.0
 10
12.5393213093
 20
10.6417132645
 30
0.0
 10
12.538954465
 20
10.6421242184
 30
0.0
 10
12.5386803058
 20
10.6424324946
 30
0.0
 10
12.5384487413
 20
10.642689198
 30
0.0
 10
12.5382927269
 20
10.6428692699
 30
0.0
 10
12.5381940812
 20
10.6429715756
 30
0.0
 10
12.5381468434
 20
10.6430499739
 30
0.0
 10
12.5379973669
 20
10.6431219926
 30
0.0
 10
12.5378337269
 20
10.6432202427
 30
0.0
 10
12.5375307414
 20
10.6433911437
 30
0.0
 10
12.5371065917
 20
10.6436358299
 30
0.0
 10
12.5365938938
 20
10.6439292214
 30
0.0
 10
12.5359115954
 20
10.6443204911
 30
0.0
 10
12.5350582776
 20
10.6448095505
 30
0.0
 10
12.5336932178
 20
10.645592061
 30
0.0
 10
12.5319868077
 20
10.6465701939
 30
0.0
 10
12.5299391522
 20
10.6477439555
 30
0.0
 10
12.5278914869
 20
10.6489177166
 30
0.0
 10
12.5251612698
 20
10.6504827316
 30
0.0
 10
12.5217484976
 20
10.6524390002
 30
0.0
 10
12.5183357248
 20
10.6543952688
 30
0.0
 10
12.5156055087
 20
10.655960284
 30
0.0
 10
12.5135578406
 20
10.6571340443
 30
0.0
 10
12.5115101957
 20
10.6583078088
 30
0.0
 10
12.5098037525
 20
10.6592859328
 30
0.0
 10
12.5084387601
 20
10.6600684614
 30
0.0
 10
12.5075852708
 20
10.6605574747
 30
0.0
 10
12.5069033246
 20
10.6609488389
 30
0.0
 10
12.5063895504
 20
10.6612419418
 30
0.0
 10
12.5059687683
 20
10.6614875309
 30
0.0
 10
12.5056156286
 20
10.6616810044
 30
0.0
 10
12.505395898
 20
10.6618343009
 30
0.0
 10
12.5050039277
 20
10.6619563306
 30
0.0
 10
12.5045414663
 20
10.6621299589
 30
0.0
 10
12.5039427469
 20
10.6623432469
 30
0.0
 10
12.5032331194
 20
10.6626007965
 30
0.0
 10
12.5022838632
 20
10.6629436357
 30
0.0
 10
12.5010983497
 20
10.6633723765
 30
0.0
 10
12.4992009374
 20
10.6640582547
 30
0.0
 10
12.4968293747
 20
10.6649156392
 30
0.0
 10
12.4939834127
 20
10.6659444847
 30
0.0
 10
12.4911374739
 20
10.6669733346
 30
0.0
 10
12.4873428803
 20
10.6683451328
 30
0.0
 10
12.4825996444
 20
10.6700598817
 30
0.0
 10
12.476907745
 20
10.6721175769
 30
0.0
 10
12.4721645419
 20
10.6738323333
 30
0.0
 10
12.4683698761
 20
10.6752041151
 30
0.0
 10
12.4659984452
 20
10.676061532
 30
0.0
 10
12.4641007617
 20
10.6767473434
 30
0.0
 10
12.4626789744
 20
10.6772620363
 30
0.0
 10
12.4614894582
 20
10.6776898835
 30
0.0
 10
12.4606660077
 20
10.6779914636
 30
0.0
 10
12.4601810826
 20
10.6781605364
 30
0.0
 10
12.459857903
 20
10.6782965207
 30
0.0
 10
12.4593798574
 20
10.6783974157
 30
0.0
 10
12.4587964823
 20
10.6785441818
 30
0.0
 10
12.4577504073
 20
10.6787953199
 30
0.0
 10
12.4562691729
 20
10.67915707
 30
0.0
 10
12.4544860594
 20
10.6795898939
 30
0.0
 10
12.452110542
 20
10.6801674383
 30
0.0
 10
12.4491404716
 20
10.6808892162
 30
0.0
 10
12.4443887356
 20
10.682044146
 30
0.0
 10
12.4384489356
 20
10.6834877789
 30
0.0
 10
12.4313212343
 20
10.6852201519
 30
0.0
 10
12.4241935061
 20
10.6869525175
 30
0.0
 10
12.4182537734
 20
10.6883961689
 30
0.0
 10
12.4135019028
 20
10.6895510617
 30
0.0
 10
12.4105321745
 20
10.6902729338
 30
0.0
 10
12.4081559549
 20
10.6908502847
 30
0.0
 10
12.4063749866
 20
10.6912836999
 30
0.0
 10
12.4048870404
 20
10.6916436001
 30
0.0
 10
12.4038529472
 20
10.6918980406
 30
0.0
 10
12.4032503743
 20
10.6920395155
 30
0.0
 10
12.4028312982
 20
10.6921566633
 30
0.0
 10
12.4022866388
 20
10.6922316046
 30
0.0
 10
12.4016042312
 20
10.6923462484
 30
0.0
 10
12.4003896084
 20
10.6925400159
 30
0.0
 10
12.3986651033
 20
10.6928204126
 30
0.0
 10
12.3965911298
 20
10.6931553537
 30
0.0
 10
12.3938274272
 20
10.693602478
 30
0.0
 10
12.3903722527
 20
10.6941611998
 30
0.0
 10
12.3848442788
 20
10.6950552572
 30
0.0
 10
12.3779342061
 20
10.6961727936
 30
0.0
 10
12.3696421666
 20
10.6975138536
 30
0.0
 10
12.3613501046
 20
10.698854905
 30
0.0
 10
12.3544400883
 20
10.6999724627
 30
0.0
 10
12.3489120015
 20
10.7008664776
 30
0.0
 10
12.345457114
 20
10.7014253075
 30
0.0
 10
12.3426928223
 20
10.7018722098
 30
0.0
 10
12.3406206488
 20
10.7022078291
 30
0.0
 10
12.338890512
 20
10.7024861042
 30
0.0
 10
12.3376859426
 20
10.7026836591
 30
0.0
 10
12.336987427
 20
10.7027922344
 30
0.0
 10
12.3364922462
 20
10.7028858161
 30
0.0
 10
12.3358873367
 20
10.7029329538
 30
0.0
 10
12.3351190653
 20
10.7030120041
 30
0.0
 10
12.3337567575
 20
10.7031427943
 30
0.0
 10
12.3318199266
 20
10.7033335835
 30
0.0
 10
12.329491739
 20
10.7035608416
 30
0.0
 10
12.3263888827
 20
10.7038644422
 30
0.0
 10
12.3225098351
 20
10.7042437411
 30
0.0
 10
12.3163036256
 20
10.7048507321
 30
0.0
 10
12.3085457722
 20
10.7056094321
 30
0.0
 10
12.2992363874
 20
10.7065198888
 30
0.0
 10
12.289926992
 20
10.707430341
 30
0.0
 10
12.2775144686
 20
10.7086442788
 30
0.0
 10
12.2682050752
 20
10.7095547318
 30
0.0
 10
12.2619988131
 20
10.7101617006
 30
0.0
  0
SPLINE
  5
35B
100
AcDbEntity
  8
0
100
AcDbSpline
 62
4
  6
CONTINUOUS
 70
0
 71
3
 72
334
 73
330
 74
0
 42
0.0000001
 43
0.0000001
 44
0.0000000001
 40
0.0
 40
0.0
 40
0.0
 40
0.0
 40
0.015625
 40
0.03125
 40
0.0390625
 40
0.046875
 40
0.05078125
 40
0.0546875
 40
0.05859375
 40
0.060546875
 40
0.0615234375
 40
0.0625
 40
0.0634765625
 40
0.064453125
 40
0.06640625
 40
0.0703125
 40
0.07421875
 40
0.078125
 40
0.0859375
 40
0.09375
 40
0.1015625
 40
0.109375
 40
0.11328125
 40
0.1171875
 40
0.12109375
 40
0.123046875
 40
0.1240234375
 40
0.125
 40
0.1259765625
 40
0.126953125
 40
0.12890625
 40
0.1328125
 40
0.13671875
 40
0.140625
 40
0.1484375
 40
0.15625
 40
0.1640625
 40
0.171875
 40
0.17578125
 40
0.1796875
 40
0.18359375
 40
0.185546875
 40
0.1865234375
 40
0.1875
 40
0.1884765625
 40
0.189453125
 40
0.19140625
 40
0.1953125
 40
0.19921875
 40
0.203125
 40
0.2109375
 40
0.21875
 40
0.2265625
 40
0.234375
 40
0.23828125
 40
0.2421875
 40
0.244140625
 40
0.24609375
 40
0.248046875
 40
0.2490234375
 40
0.2495117188
 40
0.25
 40
0.2504882812
 40
0.2509765625
 40
0.251953125
 40
0.25390625
 40
0.255859375
 40
0.2578125
 40
0.26171875
 40
0.265625
 40
0.2734375
 40
0.28125
 40
0.2890625
 40
0.296875
 40
0.30078125
 40
0.3046875
 40
0.306640625
 40
0.30859375
 40
0.310546875
 40
0.3115234375
 40
0.3120117188
 40
0.3125
 40
0.3129882812
 40
0.3134765625
 40
0.314453125
 40
0.31640625
 40
0.318359375
 40
0.3203125
 40
0.32421875
 40
0.328125
 40
0.3359375
 40
0.34375
 40
0.3515625
 40
0.35546875
 40
0.359375
 40
0.36328125
 40
0.3671875
 40
0.369140625
 40
0.37109375
 40
0.373046875
 40
0.3740234375
 40
0.3745117188
 40
0.375
 40
0.3754882812
 40
0.3759765625
 40
0.376953125
 40
0.37890625
 40
0.380859375
 40
0.3828125
 40
0.38671875
 40
0.390625
 40
0.39453125
 40
0.3984375
 40
0.40625
 40
0.4140625
 40
0.41796875
 40
0.421875
 40
0.42578125
 40
0.4296875
 40
0.431640625
 40
0.43359375
 40
0.4345703125
 40
0.435546875
 40
0.4365234375
 40
0.4370117188
 40
0.4375
 40
0.4379882812
 40
0.4384765625
 40
0.439453125
 40
0.4404296875
 40
0.44140625
 40
0.443359375
 40
0.4453125
 40
0.44921875
 40
0.453125
 40
0.45703125
 40
0.4609375
 40
0.46875
 40
0.4765625
 40
0.48046875
 40
0.484375
 40
0.48828125
 40
0.4921875
 40
0.494140625
 40
0.49609375
 40
0.4970703125
 40
0.498046875
 40
0.4990234375
 40
0.4995117188
 40
0.4997558594
 40
0.5
 40
0.5002441406
 40
0.5004882812
 40
0.5009765625
 40
0.501953125
 40
0.5029296875
 40
0.50390625
 40
0.505859375
 40
0.5078125
 40
0.51171875
 40
0.515625
 40
0.51953125
 40
0.5234375
 40
0.53125
 40
0.5390625
 40
0.54296875
 40
0.546875
 40
0.55078125
 40
0.5546875
 40
0.556640625
 40
0.55859375
 40
0.5595703125
 40
0.560546875
 40
0.5615234375
 40
0.5620117188
 40
0.5622558594
 40
0.5625
 40
0.5627441406
 40
0.5629882812
 40
0.5634765625
 40
0.564453125
 40
0.5654296875
 40
0.56640625
 40
0.568359375
 40
0.5703125
 40
0.57421875
 40
0.578125
 40
0.58203125
 40
0.5859375
 40
0.59375
 40
0.6015625
 40
0.60546875
 40
0.609375
 40
0.61328125
 40
0.6171875
 40
0.619140625
 40
0.62109375
 40
0.6220703125
 40
0.623046875
 40
0.6240234375
 40
0.6245117188
 40
0.6247558594
 40
0.625
 40
0.6252441406
 40
0.6254882812
 40
0.6259765625
 40
0.626953125
 40
0.6279296875
 40
0.62890625
 40
0.630859375
 40
0.6328125
 40
0.63671875
 40
0.640625
 40
0.64453125
 40
0.6484375
 40
0.65625
 40
0.6640625
 40
0.66796875
 40
0.671875
 40
0.67578125
 40
0.6796875
 40
0.681640625
 40
0.68359375
 40
0.6845703125
 40
0.685546875
 40
0.6865234375
 40
0.6870117188
 40
0.6872558594
 40
0.6875
 40
0.6877441406
 40
0.6879882812
 40
0.6884765625
 40
0.689453125
 40
0.6904296875
 40
0.69140625
 40
0.693359375
 40
0.6953125
 40
0.69921875
 40
0.703125
 40
0.70703125
 40
0.7109375
 40
0.71875
 40
0.7265625
 40
0.73046875
 40
0.734375
 40
0.73828125
 40
0.7421875
 40
0.744140625
 40
0.74609375
 40
0.7470703125
 40
0.748046875
 40
0.7490234375
 40
0.7495117188
 40
0.75
 40
0.7504882812
 40
0.7509765625
 40
0.751953125
 40
0.7529296875
 40
0.75390625
 40
0.755859375
 40
0.7578125
 40
0.76171875
 40
0.765625
 40
0.76953125
 40
0.7734375
 40
0.78125
 40
0.7890625
 40
0.796875
 40
0.80078125
 40
0.8046875
 40
0.806640625
 40
0.80859375
 40
0.810546875
 40
0.8115234375
 40
0.8120117188
 40
0.8125
 40
0.8129882812
 40
0.8134765625
 40
0.814453125
 40
0.81640625
 40
0.818359375
 40
0.8203125
 40
0.82421875
 40
0.828125
 40
0.8359375
 40
0.84375
 40
0.8515625
 40
0.859375
 40
0.86328125
 40
0.8671875
 40
0.869140625
 40
0.87109375
 40
0.873046875
 40
0.8740234375
 40
0.8745117188
 40
0.875
 40
0.8754882812
 40
0.8759765625
 40
0.876953125
 40
0.87890625
 40
0.880859375
 40
0.8828125
 40
0.88671875
 40
0.890625
 40
0.8984375
 40
0.90625
 40
0.9140625
 40
0.921875
 40
0.92578125
 40
0.9296875
 40
0.931640625
 40
0.93359375
 40
0.935546875
 40
0.9365234375
 40
0.9370117188
 40
0.9375
 40
0.9379882812
 40
0.9384765625
 40
0.939453125
 40
0.94140625
 40
0.943359375
 40
0.9453125
 40
0.94921875
 40
0.953125
 40
0.9609375
 40
0.96875
 40
0.9765625
 40
0.984375
 40
1.0
 40
1.0
 40
1.0
 40
1.0
 10
12.261998847
 20
10.7101616982
 30
0.0
 10
12.2555678391
 20
10.7104372484
 30
0.0
 10
12.2427058215
 20
10.7109883419
 30
0.0
 10
12.2266283082
 20
10.7116772429
 30
0.0
 10
12.2137662793
 20
10.7122282922
 30
0.0
 10
12.2057275526
 20
10.7125728596
 30
0.0
 10
12.1992964764
 20
10.7128481436
 30
0.0
 10
12.1944734291
 20
10.7130556194
 30
0.0
 10
12.1904533963
 20
10.7132252941
 30
0.0
 10
12.1876409959
 20
10.7133503891
 30
0.0
 10
12.1860313764
 20
10.7134119995
 30
0.0
 10
12.1848312988
 20
10.7134860184
 30
0.0
 10
12.1836039397
 20
10.7134537287
 30
0.0
 10
12.181976977
 20
10.7134477574
 30
0.0
 10
12.1791253585
 20
10.7134200306
 30
0.0
 10
12.1750539357
 20
10.7133894536
 30
0.0
 10
12.1701672363
 20
10.7133488947
 30
0.0
 10
12.1636519835
 20
10.7132961673
 30
0.0
 10
12.1555078001
 20
10.7132297913
 30
0.0
 10
12.1457348237
 20
10.7131503534
 30
0.0
 10
12.1359618602
 20
10.7130708092
 30
0.0
 10
12.1278176445
 20
10.7130046991
 30
0.0
 10
12.1213024562
 20
10.71295144
 30
0.0
 10
12.1164155599
 20
10.7129125027
 30
0.0
 10
12.1123447532
 20
10.7128768528
 30
0.0
 10
12.1094920351
 20
10.7128581818
 30
0.0
 10
12.1078668342
 20
10.7128377008
 30
0.0
 10
12.1066340633
 20
10.7128499804
 30
0.0
 10
12.1054543113
 20
10.7127566044
 30
0.0
 10
12.1038628151
 20
10.712668957
 30
0.0
 10
12.1010863132
 20
10.712498403
 30
0.0
 10
12.0971153771
 20
10.7122637318
 30
0.0
 10
12.0923521821
 20
10.7119782836
 30
0.0
 10
12.0860005814
 20
10.7115990288
 30
0.0
 10
12.0780613146
 20
10.7111244964
 30
0.0
 10
12.0685340819
 20
10.7105552697
 30
0.0
 10
12.0590069252
 20
10.7099859368
 30
0.0
 10
12.0510674683
 20
10.7095116698
 30
0.0
 10
12.0447162479
 20
10.7091318844
 30
0.0
 10
12.039951893
 20
10.7088480543
 30
0.0
 10
12.0359845855
 20
10.7086083212
 30
0.0
 10
12.033201606
 20
10.7084468034
 30
0.0
 10
12.0316204884
 20
10.7083446779
 30
0.0
 10
12.0304088566
 20
10.7082957738
 30
0.0
 10
12.0292958211
 20
10.7081410245
 30
0.0
 10
12.0277773822
 20
10.707971612
 30
0.0
 10
12.0251361378
 20
10.7076579386
 30
0.0
 10
12.0213545542
 20
10.7072188269
 30
0.0
 10
12.0168202397
 20
10.7066880434
 30
0.0
 10
12.0107732343
 20
10.7059816768
 30
0.0
 10
12.0032149081
 20
10.7050982569
 30
0.0
 10
11.9941447292
 20
10.704038352
 30
0.0
 10
11.9850746113
 20
10.7029783897
 30
0.0
 10
11.9775161325
 20
10.7020951132
 30
0.0
 10
11.9714694324
 20
10.7013884598
 30
0.0
 10
11.967690061
 20
10.7009468693
 30
0.0
 10
11.9646669843
 20
10.7005934419
 30
0.0
 10
11.962398526
 20
10.7003287959
 30
0.0
 10
11.9605118046
 20
10.7001069068
 30
0.0
 10
11.9591839161
 20
10.6999542353
 30
0.0
 10
11.9584363391
 20
10.6998628554
 30
0.0
 10
11.9578440595
 20
10.6998059801
 30
0.0
 10
11.9573725592
 20
10.6997045357
 30
0.0
 10
11.956701763
 20
10.6995848226
 30
0.0
 10
11.9555474985
 20
10.6993680815
 30
0.0
 10
11.953888287
 20
10.6990622382
 30
0.0
 10
11.9519016258
 20
10.6986936054
 30
0.0
 10
11.9492512098
 20
10.6982026611
 30
0.0
 10
11.9459387153
 20
10.6975887869
 30
0.0
 10
11.9406384303
 20
10.6966066965
 30
0.0
 10
11.9340131756
 20
10.6953790461
 30
0.0
 10
11.9260628232
 20
10.6939058827
 30
0.0
 10
11.9181124954
 20
10.6924327111
 30
0.0
 10
11.9114871792
 20
10.691205081
 30
0.0
 10
11.9061870172
 20
10.69022295
 30
0.0
 10
11.90287421
 20
10.689609179
 30
0.0
 10
11.9002244359
 20
10.6891180228
 30
0.0
 10
11.8982358137
 20
10.6887500375
 30
0.0
 10
11.8965827374
 20
10.6884421683
 30
0.0
 10
11.8954175205
 20
10.6882290438
 30
0.0
 10
11.8947642728
 20
10.688103536
 30
0.0
 10
11.8942388694
 20
10.6880198911
 30
0.0
 10
11.893849041
 20
10.6878961639
 30
0.0
 10
11.8932819798
 20
10.6877451754
 30
0.0
 10
11.8923116559
 20
10.6874744315
 30
0.0
 10
11.8909139597
 20
10.6870910601
 30
0.0
 10
11.8892416549
 20
10.6866295568
 30
0.0
 10
11.887010193
 20
10.6860147282
 30
0.0
 10
11.8842214552
 20
10.685246018
 30
0.0
 10
11.8797591453
 20
10.6840161792
 30
0.0
 10
11.8741813708
 20
10.6824788473
 30
0.0
 10
11.8674879939
 20
10.6806340632
 30
0.0
 10
11.8619101874
 20
10.6790967405
 30
0.0
 10
11.8574479477
 20
10.6778668815
 30
0.0
 10
11.8541012469
 20
10.6769444914
 30
0.0
 10
11.8507546276
 20
10.676022085
 30
0.0
 10
11.8479655242
 20
10.6752534637
 30
0.0
 10
11.8457348102
 20
10.6746384533
 30
0.0
 10
11.8440602209
 20
10.6741775051
 30
0.0
 10
11.8426696721
 20
10.6737923966
 30
0.0
 10
11.8416865889
 20
10.6735247539
 30
0.0
 10
11.8411399713
 20
10.6733687966
 30
0.0
 10
11.8406873467
 20
10.6732603318
 30
0.0
 10
11.8403977954
 20
10.6731193638
 30
0.0
 10
11.8399548453
 20
10.6729427438
 30
0.0
 10
11.8392061848
 20
10.6726283766
 30
0.0
 10
11.8381228141
 20
10.6721820421
 30
0.0
 10
11.8368287
 20
10.6716452588
 30
0.0
 10
11.8351011428
 20
10.6709299605
 30
0.0
 10
11.8329424072
 20
10.670035696
 30
0.0
 10
11.8303516198
 20
10.6689626393
 30
0.0
 10
11.8277609139
 20
10.6678895664
 30
0.0
 10
11.8243066109
 20
10.6664588082
 30
0.0
 10
11.8199887417
 20
10.6646703585
 30
0.0
 10
11.8156708699
 20
10.6628819094
 30
0.0
 10
11.812216571
 20
10.6614511503
 30
0.0
 10
11.809625853
 20
10.66037808
 30
0.0
 10
11.8070351108
 20
10.6593050135
 30
0.0
 10
11.8048762344
 20
10.6584107795
 30
0.0
 10
11.8031489644
 20
10.657695419
 30
0.0
 10
11.8020698053
 20
10.6572482579
 30
0.0
 10
11.801205597
 20
10.6568906684
 30
0.0
 10
11.8005598528
 20
10.6566220945
 30
0.0
 10
11.8000140599
 20
10.6563994973
 30
0.0
 10
11.7995946342
 20
10.656218696
 30
0.0
 10
11.7992330425
 20
10.6560905369
 30
0.0
 10
11.7990509362
 20
10.655933972
 30
0.0
 10
11.7987454311
 20
10.6557351413
 30
0.0
 10
11.7983850607
 20
10.6554831985
 30
0.0
 10
11.7979434088
 20
10.6551823243
 30
0.0
 10
11.7973577556
 20
10.6547806498
 30
0.0
 10
11.7966245879
 20
10.6542787309
 30
0.0
 10
11.795452135
 20
10.6534755633
 30
0.0
 10
11.7939863578
 20
10.6524716373
 30
0.0
 10
11.7922275156
 20
10.6512669117
 30
0.0
 10
11.7904686493
 20
10.6500621899
 30
0.0
 10
11.7881235025
 20
10.6484558929
 30
0.0
 10
11.7851920663
 20
10.646448022
 30
0.0
 10
11.7822606308
 20
10.6444401511
 30
0.0
 10
11.779915483
 20
10.6428338543
 30
0.0
 10
11.7781566197
 20
10.6416291318
 30
0.0
 10
11.7763977662
 20
10.6404244088
 30
0.0
 10
11.7749320241
 20
10.6394204745
 30
0.0
 10
11.7737594996
 20
10.6386173238
 30
0.0
 10
11.7730265144
 20
10.6381153618
 30
0.0
 10
11.7724404866
 20
10.6377137759
 30
0.0
 10
11.771999979
 20
10.6374126312
 30
0.0
 10
11.7716360286
 20
10.6371615347
 30
0.0
 10
11.7713751025
 20
10.636986047
 30
0.0
 10
11.7712356214
 20
10.6368853314
 30
0.0
 10
11.7711039121
 20
10.6368110256
 30
0.0
 10
11.7710757874
 20
10.6367320144
 30
0.0
 10
11.7710021563
 20
10.6366283074
 30
0.0
 10
11.7708901363
 20
10.6364460554
 30
0.0
 10
11.7707213064
 20
10.6361860952
 30
0.0
 10
11.7705224778
 20
10.6358739718
 30
0.0
 10
11.7702560572
 20
10.6354578671
 30
0.0
 10
11.769923482
 20
10.6349377158
 30
0.0
 10
11.7693911099
 20
10.634105485
 30
0.0
 10
11.7687257311
 20
10.6330651927
 30
0.0
 10
11.7679272395
 20
10.6318168436
 30
0.0
 10
11.7671287579
 20
10.630568494
 30
0.0
 10
11.7660641122
 20
10.6289040281
 30
0.0
 10
11.7647333064
 20
10.6268234456
 30
0.0
 10
11.7634024997
 20
10.6247428632
 30
0.0
 10
11.7623378554
 20
10.6230783972
 30
0.0
 10
11.7615393696
 20
10.6218300478
 30
0.0
 10
11.7607408936
 20
10.6205816982
 30
0.0
 10
11.7600754663
 20
10.6195414074
 30
0.0
 10
11.759543193
 20
10.6187091736
 30
0.0
 10
11.7592103662
 20
10.6181890301
 30
0.0
 10
11.7589444621
 20
10.6177729092
 30
0.0
 10
11.7587440557
 20
10.6174608353
 30
0.0
 10
11.7585801624
 20
10.6172007203
 30
0.0
 10
11.7584593298
 20
10.6170187447
 30
0.0
 10
11.7583998187
 20
10.6169145948
 30
0.0
 10
11.7583283218
 20
10.6168369441
 30
0.0
 10
11.7583595113
 20
10.6167575282
 30
0.0
 10
11.7583652791
 20
10.6166522561
 30
0.0
 10
11.7583920612
 20
10.6164677429
 30
0.0
 10
11.7584215964
 20
10.6162043027
 30
0.0
 10
11.7584607732
 20
10.6158881102
 30
0.0
 10
11.7585117045
 20
10.6154665427
 30
0.0
 10
11.7585758153
 20
10.6149395756
 30
0.0
 10
11.7586781429
 20
10.6140964326
 30
0.0
 10
11.7588061381
 20
10.6130425023
 30
0.0
 10
11.7589596955
 20
10.6117777866
 30
0.0
 10
11.7591132628
 20
10.6105130708
 30
0.0
 10
11.7593180158
 20
10.608826783
 30
0.0
 10
11.7595739583
 20
10.6067189233
 30
0.0
 10
11.7598298999
 20
10.6046110636
 30
0.0
 10
11.7600346543
 20
10.6029247758
 30
0.0
 10
11.7601882175
 20
10.6016600599
 30
0.0
 10
11.7603417904
 20
10.6003953444
 30
0.0
 10
11.7604697375
 20
10.5993414137
 30
0.0
 10
11.7605721632
 20
10.5984982715
 30
0.0
 10
11.7606360242
 20
10.5979713023
 30
0.0
 10
11.7606874682
 20
10.597549739
 30
0.0
 10
11.7607250788
 20
10.5972335338
 30
0.0
 10
11.760759514
 20
10.5969701334
 30
0.0
 10
11.7607775488
 20
10.5967855491
 30
0.0
 10
11.760797332
 20
10.596680391
 30
0.0
 10
11.7607854708
 20
10.5966006249
 30
0.0
 10
11.7608756651
 20
10.5965242894
 30
0.0
 10
11.7609603261
 20
10.5964213121
 30
0.0
 10
11.7611250687
 20
10.5962416594
 30
0.0
 10
11.7613517439
 20
10.5959847211
 30
0.0
 10
11.7616274658
 20
10.59567652
 30
0.0
 10
11.7619937986
 20
10.5952655415
 30
0.0
 10
11.7624521585
 20
10.5947518334
 30
0.0
 10
11.7631852863
 20
10.593929892
 30
0.0
 10
11.7641017811
 20
10.5929024682
 30
0.0
 10
11.7652015383
 20
10.5916695584
 30
0.0
 10
11.7663013054
 20
10.5904366489
 30
0.0
 10
11.767767658
 20
10.5887927695
 30
0.0
 10
11.7696006
 20
10.5867379202
 30
0.0
 10
11.7714335412
 20
10.584683071
 30
0.0
 10
11.7728998952
 20
10.5830391916
 30
0.0
 10
11.7739996581
 20
10.5818062819
 30
0.0
 10
11.7750994308
 20
10.5805733728
 30
0.0
 10
11.7760158776
 20
10.5795459467
 30
0.0
 10
11.7767491033
 20
10.5787240101
 30
0.0
 10
11.777207214
 20
10.57821029
 30
0.0
 10
11.7775740583
 20
10.5777993361
 30
0.0
 10
11.7778482175
 20
10.5774910599
 30
0.0
 10
11.778079782
 20
10.5772343564
 30
0.0
 10
11.7782357964
 20
10.5770542846
 30
0.0
 10
11.7783344421
 20
10.5769519788
 30
0.0
 10
11.7783816799
 20
10.5768735805
 30
0.0
 10
11.7785311564
 20
10.5768015619
 30
0.0
 10
11.7786947964
 20
10.5767033117
 30
0.0
 10
11.7789977819
 20
10.5765324108
 30
0.0
 10
11.7794219316
 20
10.5762877245
 30
0.0
 10
11.7799346295
 20
10.575994333
 30
0.0
 10
11.7806169279
 20
10.5756030633
 30
0.0
 10
11.7814702456
 20
10.5751140039
 30
0.0
 10
11.7828353055
 20
10.5743314934
 30
0.0
 10
11.7845417155
 20
10.5733533606
 30
0.0
 10
11.7865893711
 20
10.5721795989
 30
0.0
 10
11.7886370364
 20
10.5710058378
 30
0.0
 10
11.7913672534
 20
10.5694408229
 30
0.0
 10
11.7947800257
 20
10.5674845542
 30
0.0
 10
11.7981927985
 20
10.5655282857
 30
0.0
 10
11.8009230145
 20
10.5639632705
 30
0.0
 10
11.8029706827
 20
10.5627895102
 30
0.0
 10
11.8050183276
 20
10.5616157456
 30
0.0
 10
11.8067247708
 20
10.5606376217
 30
0.0
 10
11.8080897632
 20
10.5598550931
 30
0.0
 10
11.8089432525
 20
10.5593660797
 30
0.0
 10
11.8096251987
 20
10.5589747156
 30
0.0
 10
11.8101389729
 20
10.5586816126
 30
0.0
 10
11.810559755
 20
10.5584360235
 30
0.0
 10
11.8109128947
 20
10.5582425501
 30
0.0
 10
11.8111326253
 20
10.5580892536
 30
0.0
 10
11.8115245955
 20
10.5579672238
 30
0.0
 10
11.811987057
 20
10.5577935956
 30
0.0
 10
11.8125857763
 20
10.5575803075
 30
0.0
 10
11.8132954039
 20
10.557322758
 30
0.0
 10
11.8142446601
 20
10.5569799187
 30
0.0
 10
11.8154301736
 20
10.5565511779
 30
0.0
 10
11.8173275859
 20
10.5558652998
 30
0.0
 10
11.8196991485
 20
10.5550079153
 30
0.0
 10
11.8225451106
 20
10.5539790697
 30
0.0
 10
11.8253910494
 20
10.5529502199
 30
0.0
 10
11.829185643
 20
10.5515784217
 30
0.0
 10
11.8339288788
 20
10.5498636727
 30
0.0
 10
11.8396207783
 20
10.5478059776
 30
0.0
 10
11.8443639813
 20
10.5460912211
 30
0.0
 10
11.8481586472
 20
10.5447194394
 30
0.0
 10
11.8505300781
 20
10.5438620225
 30
0.0
 10
11.8524277616
 20
10.543176211
 30
0.0
 10
11.8538495489
 20
10.5426615182
 30
0.0
 10
11.8550390651
 20
10.5422336709
 30
0.0
 10
11.8558625156
 20
10.5419320908
 30
0.0
 10
11.8563474407
 20
10.541763018
 30
0.0
 10
11.8566706203
 20
10.5416270337
 30
0.0
 10
11.8571486659
 20
10.5415261388
 30
0.0
 10
11.857732041
 20
10.5413793727
 30
0.0
 10
11.8587781159
 20
10.5411282346
 30
0.0
 10
11.8602593503
 20
10.5407664845
 30
0.0
 10
11.8620424638
 20
10.5403336605
 30
0.0
 10
11.8644179813
 20
10.5397561161
 30
0.0
 10
11.8673880517
 20
10.5390343383
 30
0.0
 10
11.8721397877
 20
10.5378794084
 30
0.0
 10
11.8780795877
 20
10.5364357756
 30
0.0
 10
11.885207289
 20
10.5347034025
 30
0.0
 10
11.8923350172
 20
10.5329710369
 30
0.0
 10
11.8982747498
 20
10.5315273855
 30
0.0
 10
11.9030266205
 20
10.5303724927
 30
0.0
 10
11.9059963488
 20
10.5296506206
 30
0.0
 10
11.9083725684
 20
10.5290732698
 30
0.0
 10
11.9101535367
 20
10.5286398545
 30
0.0
 10
11.9116414829
 20
10.5282799543
 30
0.0
 10
11.9126755761
 20
10.5280255139
 30
0.0
 10
11.913278149
 20
10.527884039
 30
0.0
 10
11.9136972251
 20
10.5277668912
 30
0.0
 10
11.9142418844
 20
10.5276919499
 30
0.0
 10
11.9149242921
 20
10.527577306
 30
0.0
 10
11.9161389149
 20
10.5273835386
 30
0.0
 10
11.91786342
 20
10.5271031419
 30
0.0
 10
11.9199373934
 20
10.5267682007
 30
0.0
 10
11.9227010961
 20
10.5263210765
 30
0.0
 10
11.9261562706
 20
10.5257623547
 30
0.0
 10
11.9316842445
 20
10.5248682972
 30
0.0
 10
11.9385943172
 20
10.5237507608
 30
0.0
 10
11.9468863566
 20
10.5224097009
 30
0.0
 10
11.9551784187
 20
10.5210686494
 30
0.0
 10
11.962088435
 20
10.5199510918
 30
0.0
 10
11.9676165218
 20
10.5190570768
 30
0.0
 10
11.9710714092
 20
10.5184982469
 30
0.0
 10
11.973835701
 20
10.5180513446
 30
0.0
 10
11.9759078745
 20
10.5177157254
 30
0.0
 10
11.9776380112
 20
10.5174374503
 30
0.0
 10
11.9788425807
 20
10.5172398954
 30
0.0
 10
11.9795410963
 20
10.51713132
 30
0.0
 10
11.9800362771
 20
10.5170377383
 30
0.0
 10
11.9806411866
 20
10.5169906007
 30
0.0
 10
11.981409458
 20
10.5169115503
 30
0.0
 10
11.9827717658
 20
10.5167807602
 30
0.0
 10
11.9847085966
 20
10.5165899709
 30
0.0
 10
11.9870367843
 20
10.5163627129
 30
0.0
 10
11.9901396406
 20
10.5160591122
 30
0.0
 10
11.9940186882
 20
10.5156798134
 30
0.0
 10
12.0002248977
 20
10.5150728224
 30
0.0
 10
12.0079827511
 20
10.5143141223
 30
0.0
 10
12.0172921359
 20
10.5134036657
 30
0.0
 10
12.0266015312
 20
10.5124932135
 30
0.0
 10
12.0390140547
 20
10.5112792757
 30
0.0
 10
12.0483234481
 20
10.5103688226
 30
0.0
 10
12.0545297101
 20
10.5097618539
 30
0.0
  0
ENDSEC
  0
SECTION
  2
OBJECTS
  0
DICTIONARY
  5
C
100
AcDbDictionary
280
0
281
1
  3
ACAD_GROUP
350
D
  3
ACAD_MLINESTYLE
350
17
  3
ACAD_LAYOUT
350
1A
  3
ACAD_PLOTSETTINGS
350
19
  3
ACAD_PLOTSTYLENAME
350
E
  3
ACAD_IMAGE_DICT
350
       35D
  3
ACAD_IMAGE_VARS
350
       35E
  3
ACAD_TABLESTYLE
350
       35F
  0
IMAGEDEF_REACTOR
  5
35C
100
AcDbRasterImageDefReactor
 90
2
330
275
  0
DICTIONARY
  5
D
102
{ACAD_REACTORS
330
C
102
}
100
AcDbDictionary
280
0
281
1
  0
ACDBDICTIONARYWDFLT
  5
E
102
{ACAD_REACTORS
330
C
102
}
100
AcDbDictionary
281
1
  3
Normal
350
F
100
AcDbDictionaryWithDefault
340
F
  0
DICTIONARY
  5
35D
330
C
100
AcDbDictionary
281
1
  3
YTV_assy_2_img_1
350
       362
  0
RASTERVARIABLES
  5
35E
330
C
100
AcDbRasterVariables
 90
0
 70
0
 71
1
 72
5
  0
DICTIONARY
  5
17
102
{ACAD_REACTORS
330
C
102
}
100
AcDbDictionary
280
0
281
1
  3
Standard
350
18
  0
DICTIONARY
  5
35F
330
C
100
AcDbDictionary
281
1
  3
Standard
350
       363
  3
Standard1
350
       364
  0
DICTIONARY
  5
19
102
{ACAD_REACTORS
330
C
102
}
100
AcDbDictionary
281
1
  0
DICTIONARY
  5
1A
102
{ACAD_REACTORS
330
C
102
}
100
AcDbDictionary
281
1
  3
Model
350
360
  3
Layout1
350
361
  0
ACDBPLACEHOLDER
  5
F
102
{ACAD_REACTORS
330
E
102
}
  0
MLINESTYLE
  5
18
102
{ACAD_REACTORS
330
17
102
}
100
AcDbMlineStyle
  2
STANDARD
 70
0
  3

 62
256
 51
90.0
 52
90.0
 71
2
 49
0.5
 62
256
  6
BYLAYER
 49
-0.5
 62
256
  6
BYLAYER
  0
LAYOUT
  5
360
102
{ACAD_REACTORS
330
1A
102
}
100
AcDbPlotSettings
  1

  2
none_device
  4
ANSI_C_(22.00_x_17.00_Inches)
  6

 40
0.0
 41
0.0
 42
0.0
 43
0.0
 44
558.8
 45
431.8
 46
0.0
 47
0.0
 48
0.0
 49
0.0
140
0.0
141
0.0
142
1.0
143
1.0
 70
1024
 72
0
 73
0
 74
0
  7

 75
0
147
1.0
148
0.0
149
0.0
100
AcDbLayout
  1
Model
 70
0
 71
0
 10
0.0
 20
0.0
 11
22.0
 21
17.0
 12
0.0
 22
0.0
 32
0.0
 14
0.0
 24
0.0
 34
0.0
 15
0.0
 25
0.0
 35
0.0
146
0.0
 13
0.0
 23
0.0
 33
0.0
 16
1.0
 26
0.0
 36
0.0
 17
0.0
 27
1.0
 37
0.0
 76
0
330
204
345
0
346
0
  0
LAYOUT
  5
361
102
{ACAD_REACTORS
330
1A
102
}
100
AcDbPlotSettings
  1

  2
none_device
  4
ANSI_C_(22.00_x_17.00_Inches)
  6

 40
0.0
 41
0.0
 42
0.0
 43
0.0
 44
558.8
 45
431.8
 46
0.0
 47
0.0
 48
0.0
 49
0.0
140
0.0
141
0.0
142
1.0
143
1.0
 70
0
 72
0
 73
0
 74
0
  7

 75
0
147
1.0
148
0.0
149
0.0
100
AcDbLayout
  1
Layout1
 70
0
 71
1
 10
0.0
 20
0.0
 11
22.0
 21
17.0
 12
0.0
 22
0.0
 32
0.0
 14
0.0
 24
0.0
 34
0.0
 15
0.0
 25
0.0
 35
0.0
146
0.0
 13
0.0
 23
0.0
 33
0.0
 16
1.0
 26
0.0
 36
0.0
 17
0.0
 27
1.0
 37
0.0
 76
0
330
205
345
0
346
0
  0
IMAGEDEF
  5
362
102
{ACAD_REACTORS
330
35D
330
35C
102
}
100
AcDbRasterImageDef
 90
0
  1
YTV_assy_2_img_1.png
 10
369.0
 20
92.0
 11
0.0066666667
 21
0.0066666667
280
1
281
0
  0
TABLESTYLE
  5
363
102
{ACAD_REACTORS
330
35F
330
278
330
279
102
}
330
35F
100
AcDbTableStyle
  3
Standard
 70
0
 71
0
 40
0.06
 41
0.06
280
1
281
1
  7
Standard
140
0.18
170
1
 62
0
 63
7
283
0
  7
Standard
140
0.18
170
1
 62
0
 63
7
283
0
  7
Standard
140
0.18
170
1
 62
0
 63
7
283
0
  0
TABLESTYLE
  5
364
102
{ACAD_REACTORS
330
35F
330
277
102
}
330
35F
100
AcDbTableStyle
  3
Standard1
 70
1
 71
0
 40
0.06
 41
0.06
280
1
281
1
  7
Standard
140
0.18
170
1
 62
0
 63
7
283
0
  7
Standard
140
0.18
170
1
 62
0
 63
7
283
0
  7
Standard
140
0.18
170
1
 62
0
 63
7
283
0
  0
ENDSEC
  0
EOF
